  0
SECTION
  2
HEADER
  9
$ACADVER
  1
AC1015
  9
$ACADMAINTVER
 70
    20
  9
$DWGCODEPAGE
  3
ANSI_932
  9
$INSBASE
 10
0.0
 20
0.0
 30
0.0
  9
$EXTMIN
 10
746.6597629999996
 20
678.7582849999997
 30
0.0
  9
$EXTMAX
 10
999.68704294639
 20
959.8804137299998
 30
0.0
  9
$LIMMIN
 10
746.65879
 20
678.757301
  9
$LIMMAX
 10
938.6607899999999
 20
959.881432
  9
$ORTHOMODE
 70
     1
  9
$REGENMODE
 70
     1
  9
$FILLMODE
 70
     1
  9
$QTEXTMODE
 70
     0
  9
$MIRRTEXT
 70
     0
  9
$LTSCALE
 40
4.685369
  9
$ATTMODE
 70
     1
  9
$TEXTSIZE
 40
3.2
  9
$TRACEWID
 40
0.05
  9
$TEXTSTYLE
  7
高3.2
  9
$CLAYER
  8
0
  9
$CELTYPE
  6
CONTINUOUS
  9
$CECOLOR
 62
   256
  9
$CELTSCALE
 40
1.0
  9
$DISPSILH
 70
     0
  9
$DIMSCALE
 40
1.0
  9
$DIMASZ
 40
2.5
  9
$DIMEXO
 40
0.25
  9
$DIMDLI
 40
0.2
  9
$DIMRND
 40
0.0
  9
$DIMDLE
 40
0.0
  9
$DIMEXE
 40
1.25
  9
$DIMTP
 40
0.0
  9
$DIMTM
 40
0.0
  9
$DIMTXT
 40
3.0
  9
$DIMCEN
 40
0.0
  9
$DIMTSZ
 40
0.0
  9
$DIMTOL
 70
     0
  9
$DIMLIM
 70
     0
  9
$DIMTIH
 70
     0
  9
$DIMTOH
 70
     0
  9
$DIMSE1
 70
     0
  9
$DIMSE2
 70
     0
  9
$DIMTAD
 70
     3
  9
$DIMZIN
 70
     8
  9
$DIMBLK
  1
Open30
  9
$DIMASO
 70
     1
  9
$DIMSHO
 70
     1
  9
$DIMPOST
  1

  9
$DIMAPOST
  1

  9
$DIMALT
 70
     0
  9
$DIMALTD
 70
     3
  9
$DIMALTF
 40
0.03937007874016
  9
$DIMLFAC
 40
1.0
  9
$DIMTOFL
 70
     1
  9
$DIMTVP
 40
0.0
  9
$DIMTIX
 70
     0
  9
$DIMSOXD
 70
     0
  9
$DIMSAH
 70
     0
  9
$DIMBLK1
  1

  9
$DIMBLK2
  1

  9
$DIMSTYLE
  2
1：1
  9
$DIMCLRD
 70
     0
  9
$DIMCLRE
 70
     0
  9
$DIMCLRT
 70
     4
  9
$DIMTFAC
 40
1.0
  9
$DIMGAP
 40
0.625
  9
$DIMJUST
 70
     0
  9
$DIMSD1
 70
     0
  9
$DIMSD2
 70
     0
  9
$DIMTOLJ
 70
     0
  9
$DIMTZIN
 70
     8
  9
$DIMALTZ
 70
     0
  9
$DIMALTTZ
 70
     0
  9
$DIMUPT
 70
     1
  9
$DIMDEC
 70
     2
  9
$DIMTDEC
 70
     2
  9
$DIMALTU
 70
     2
  9
$DIMALTTD
 70
     3
  9
$DIMTXSTY
  7
STANDARD
  9
$DIMAUNIT
 70
     0
  9
$DIMADEC
 70
     1
  9
$DIMALTRND
 40
0.0
  9
$DIMAZIN
 70
     2
  9
$DIMDSEP
 70
    46
  9
$DIMATFIT
 70
     0
  9
$DIMFRAC
 70
     0
  9
$DIMLDRBLK
  1
Open30
  9
$DIMLUNIT
 70
     2
  9
$DIMLWD
 70
    -2
  9
$DIMLWE
 70
    -2
  9
$DIMTMOVE
 70
     0
  9
$LUNITS
 70
     2
  9
$LUPREC
 70
     4
  9
$SKETCHINC
 40
0.1
  9
$FILLETRAD
 40
20.0
  9
$AUNITS
 70
     0
  9
$AUPREC
 70
     0
  9
$MENU
  1
.
  9
$ELEVATION
 40
0.0
  9
$PELEVATION
 40
0.0
  9
$THICKNESS
 40
0.0
  9
$LIMCHECK
 70
     0
  9
$CHAMFERA
 40
0.0
  9
$CHAMFERB
 40
0.0
  9
$CHAMFERC
 40
0.0
  9
$CHAMFERD
 40
0.0
  9
$SKPOLY
 70
     0
  9
$TDCREATE
 40
2456840.395413716
  9
$TDUCREATE
 40
2456840.020413715
  9
$TDUPDATE
 40
2457864.705892407
  9
$TDUUPDATE
 40
2457864.330892407
  9
$TDINDWG
 40
0.0106977199
  9
$TDUSRTIMER
 40
0.0106973958
  9
$USRTIMER
 70
     1
  9
$ANGBASE
 50
0.0
  9
$ANGDIR
 70
     0
  9
$PDMODE
 70
     0
  9
$PDSIZE
 40
0.0
  9
$PLINEWID
 40
0.0
  9
$SPLFRAME
 70
     0
  9
$SPLINETYPE
 70
     6
  9
$SPLINESEGS
 70
     8
  9
$HANDSEED
  5
952
  9
$SURFTAB1
 70
     6
  9
$SURFTAB2
 70
     6
  9
$SURFTYPE
 70
     6
  9
$SURFU
 70
     6
  9
$SURFV
 70
     6
  9
$UCSBASE
  2

  9
$UCSNAME
  2

  9
$UCSORG
 10
0.0
 20
0.0
 30
0.0
  9
$UCSXDIR
 10
1.0
 20
0.0
 30
0.0
  9
$UCSYDIR
 10
0.0
 20
1.0
 30
0.0
  9
$UCSORTHOREF
  2

  9
$UCSORTHOVIEW
 70
     0
  9
$UCSORGTOP
 10
0.0
 20
0.0
 30
0.0
  9
$UCSORGBOTTOM
 10
0.0
 20
0.0
 30
0.0
  9
$UCSORGLEFT
 10
0.0
 20
0.0
 30
0.0
  9
$UCSORGRIGHT
 10
0.0
 20
0.0
 30
0.0
  9
$UCSORGFRONT
 10
0.0
 20
0.0
 30
0.0
  9
$UCSORGBACK
 10
0.0
 20
0.0
 30
0.0
  9
$PUCSBASE
  2

  9
$PUCSNAME
  2

  9
$PUCSORG
 10
0.0
 20
0.0
 30
0.0
  9
$PUCSXDIR
 10
1.0
 20
0.0
 30
0.0
  9
$PUCSYDIR
 10
0.0
 20
1.0
 30
0.0
  9
$PUCSORTHOREF
  2

  9
$PUCSORTHOVIEW
 70
     0
  9
$PUCSORGTOP
 10
0.0
 20
0.0
 30
0.0
  9
$PUCSORGBOTTOM
 10
0.0
 20
0.0
 30
0.0
  9
$PUCSORGLEFT
 10
0.0
 20
0.0
 30
0.0
  9
$PUCSORGRIGHT
 10
0.0
 20
0.0
 30
0.0
  9
$PUCSORGFRONT
 10
0.0
 20
0.0
 30
0.0
  9
$PUCSORGBACK
 10
0.0
 20
0.0
 30
0.0
  9
$USERI1
 70
     0
  9
$USERI2
 70
     0
  9
$USERI3
 70
     0
  9
$USERI4
 70
     0
  9
$USERI5
 70
     0
  9
$USERR1
 40
0.0
  9
$USERR2
 40
0.0
  9
$USERR3
 40
0.0
  9
$USERR4
 40
0.0
  9
$USERR5
 40
0.0
  9
$WORLDVIEW
 70
     1
  9
$SHADEDGE
 70
     3
  9
$SHADEDIF
 70
    70
  9
$TILEMODE
 70
     1
  9
$MAXACTVP
 70
    64
  9
$PINSBASE
 10
0.0
 20
0.0
 30
0.0
  9
$PLIMCHECK
 70
     0
  9
$PEXTMIN
 10
1.000000000000000E+20
 20
1.000000000000000E+20
 30
1.000000000000000E+20
  9
$PEXTMAX
 10
-1.000000000000000E+20
 20
-1.000000000000000E+20
 30
-1.000000000000000E+20
  9
$PLIMMIN
 10
0.0
 20
0.0
  9
$PLIMMAX
 10
12.0
 20
9.0
  9
$UNITMODE
 70
     0
  9
$VISRETAIN
 70
     1
  9
$PLINEGEN
 70
     0
  9
$PSLTSCALE
 70
     1
  9
$TREEDEPTH
 70
  3020
  9
$CMLSTYLE
  2
Standard
  9
$CMLJUST
 70
     0
  9
$CMLSCALE
 40
1.0
  9
$PROXYGRAPHICS
 70
     1
  9
$MEASUREMENT
 70
     0
  9
$CELWEIGHT
370
    -1
  9
$ENDCAPS
280
     0
  9
$JOINSTYLE
280
     0
  9
$LWDISPLAY
290
     0
  9
$INSUNITS
 70
     0
  9
$HYPERLINKBASE
  1

  9
$STYLESHEET
  1

  9
$XEDIT
290
     1
  9
$CEPSNTYPE
380
     0
  9
$PSTYLEMODE
290
     1
  9
$FINGERPRINTGUID
  2
{BB21A3CD-AE73-448A-B92A-B51D843E491F}
  9
$VERSIONGUID
  2
{184F2ECA-8AAE-4035-B8E0-9BC18D2A30B0}
  9
$EXTNAMES
290
     1
  9
$PSVPSCALE
 40
0.0
  9
$OLESTARTUP
290
     0
  0
ENDSEC
  0
SECTION
  2
CLASSES
  0
CLASS
  1
ACDBDICTIONARYWDFLT
  2
AcDbDictionaryWithDefault
  3
ObjectDBX Classes
 90
        0
280
     0
281
     0
  0
CLASS
  1
MATERIAL
  2
AcDbMaterial
  3
ObjectDBX Classes
 90
     1153
280
     0
281
     0
  0
CLASS
  1
VISUALSTYLE
  2
AcDbVisualStyle
  3
ObjectDBX Classes
 90
     4095
280
     0
281
     0
  0
CLASS
  1
SCALE
  2
AcDbScale
  3
ObjectDBX Classes
 90
     1153
280
     0
281
     0
  0
CLASS
  1
TABLESTYLE
  2
AcDbTableStyle
  3
ObjectDBX Classes
 90
     4095
280
     0
281
     0
  0
CLASS
  1
MLEADERSTYLE
  2
AcDbMLeaderStyle
  3
ACDB_MLEADERSTYLE_CLASS
 90
     4095
280
     0
281
     0
  0
CLASS
  1
SORTENTSTABLE
  2
AcDbSortentsTable
  3
ObjectDBX Classes
 90
        0
280
     0
281
     0
  0
CLASS
  1
DICTIONARYVAR
  2
AcDbDictionaryVar
  3
ObjectDBX Classes
 90
        0
280
     0
281
     0
  0
CLASS
  1
CELLSTYLEMAP
  2
AcDbCellStyleMap
  3
ObjectDBX Classes
 90
     1152
280
     0
281
     0
  0
CLASS
  1
ACDBPLACEHOLDER
  2
AcDbPlaceHolder
  3
ObjectDBX Classes
 90
        0
280
     0
281
     0
  0
CLASS
  1
LAYOUT
  2
AcDbLayout
  3
ObjectDBX Classes
 90
        0
280
     0
281
     0
  0
CLASS
  1
AEC_REFEDIT_STATUS_TRACKER
  2
AecDbRefEditStatusTracker
  3
AecArchBase60|Product Desc: Autodesk Architectural Desktop 2007 |Company: Autodesk,Inc. |WEB Address: www.autodesk.com
 90
      129
280
     0
281
     0
  0
CLASS
  1
NPOCOLLECTION
  2
AcDbImpNonPersistentObjectsCollection
  3
ObjectDBX Classes
 90
     1153
280
     0
281
     0
  0
ENDSEC
  0
SECTION
  2
TABLES
  0
TABLE
  2
VPORT
  5
8
330
0
100
AcDbSymbolTable
 70
     1
  0
VPORT
  5
8B
330
8
100
AcDbSymbolTableRecord
100
AcDbViewportTableRecord
  2
*Active
 70
     0
 10
0.0
 20
0.0
 11
1.0
 21
1.0
 12
817.8575494872083
 22
791.6426178966615
 13
0.0
 23
0.0
 14
1.0
 24
1.0
 15
0.0
 25
0.0
 16
0.0
 26
0.0
 36
1.0
 17
0.0
 27
0.0
 37
0.0
 40
603.5631790781706
 41
1.519104084321475
 42
50.0
 43
0.0
 44
0.0
 50
0.0
 51
0.0
 71
     0
 72
   100
 73
     1
 74
     1
 75
     0
 76
     0
 77
     0
 78
     0
281
     0
 65
     1
110
0.0
120
0.0
130
0.0
111
1.0
121
0.0
131
0.0
112
0.0
122
1.0
132
0.0
 79
     0
146
0.0
  0
ENDTAB
  0
TABLE
  2
LTYPE
  5
5
330
0
100
AcDbSymbolTable
 70
     4
  0
LTYPE
  5
5A
330
5
100
AcDbSymbolTableRecord
100
AcDbLinetypeTableRecord
  2
ByBlock
 70
     0
  3

 72
    65
 73
     0
 40
0.0
  0
LTYPE
  5
5B
330
5
100
AcDbSymbolTableRecord
100
AcDbLinetypeTableRecord
  2
ByLayer
 70
     0
  3

 72
    65
 73
     0
 40
0.0
  0
LTYPE
  5
5C
330
5
100
AcDbSymbolTableRecord
100
AcDbLinetypeTableRecord
  2
CONTINUOUS
 70
     0
  3
Solid-line
 72
    65
 73
     0
 40
0.0
  0
LTYPE
  5
78
330
5
100
AcDbSymbolTableRecord
100
AcDbLinetypeTableRecord
  2
DASHED
 70
     0
  3
DASHED
 72
    65
 73
     2
 40
0.75
 49
0.5
 74
     0
 49
-0.25
 74
     0
  0
ENDTAB
  0
TABLE
  2
LAYER
  5
2
102
{ACAD_XDICTIONARY
360
313
102
}
330
0
100
AcDbSymbolTable
 70
     2
  0
LAYER
  5
54
102
{ACAD_XDICTIONARY
360
5D2
102
}
330
2
100
AcDbSymbolTableRecord
100
AcDbLayerTableRecord
  2
0
 70
     0
 62
     7
  6
CONTINUOUS
370
    -3
390
F
  0
LAYER
  5
2FC
330
2
100
AcDbSymbolTableRecord
100
AcDbLayerTableRecord
  2
Defpoints
 70
     0
 62
     7
  6
CONTINUOUS
290
     0
370
    -3
390
F
  0
ENDTAB
  0
TABLE
  2
STYLE
  5
3
330
0
100
AcDbSymbolTable
 70
     6
  0
STYLE
  5
55
330
3
100
AcDbSymbolTableRecord
100
AcDbTextStyleTableRecord
  2
STANDARD
 70
     0
 40
0.0
 41
1.0
 50
0.0
 71
     0
 42
0.2
  3
TXT
  4
BIGFONT
  0
STYLE
  5
2FD
330
3
100
AcDbSymbolTableRecord
100
AcDbTextStyleTableRecord
  2
高3.2
 70
     0
 40
3.2
 41
1.0
 50
0.0
 71
     0
 42
3.2
  3
txt.shx
  4
bigfont.shx
  0
STYLE
  5
2FE
330
3
100
AcDbSymbolTableRecord
100
AcDbTextStyleTableRecord
  2
高6.3
 70
     0
 40
6.299999999999998
 41
1.0
 50
0.0
 71
     0
 42
6.299999999999998
  3
txt.shx
  4
bigfont.shx
  0
STYLE
  5
2FF
330
3
100
AcDbSymbolTableRecord
100
AcDbTextStyleTableRecord
  2
高2.5
 70
     0
 40
2.5
 41
1.0
 50
0.0
 71
     0
 42
0.2
  3
txt.shx
  4
bigfont.shx
  0
STYLE
  5
300
330
3
100
AcDbSymbolTableRecord
100
AcDbTextStyleTableRecord
  2
高4.5
 70
     0
 40
4.5
 41
1.0
 50
0.0
 71
     0
 42
6.299999999999998
  3
txt.shx
  4
bigfont.shx
  0
STYLE
  5
301
330
3
100
AcDbSymbolTableRecord
100
AcDbTextStyleTableRecord
  2
高2
 70
     0
 40
2.0
 41
1.0
 50
0.0
 71
     0
 42
2.0
  3
txt.shx
  4
bigfont.shx
  0
ENDTAB
  0
TABLE
  2
VIEW
  5
6
330
0
100
AcDbSymbolTable
 70
     0
  0
ENDTAB
  0
TABLE
  2
UCS
  5
7
330
0
100
AcDbSymbolTable
 70
     0
  0
ENDTAB
  0
TABLE
  2
APPID
  5
9
330
0
100
AcDbSymbolTable
 70
    11
  0
APPID
  5
56
330
9
100
AcDbSymbolTableRecord
100
AcDbRegAppTableRecord
  2
ACAD
 70
     0
  0
APPID
  5
5D
330
9
100
AcDbSymbolTableRecord
100
AcDbRegAppTableRecord
  2
AcadAnnotative
 70
     0
  0
APPID
  5
30C
330
9
100
AcDbSymbolTableRecord
100
AcDbRegAppTableRecord
  2
ACAD_DSTYLE_DIMJOGGED_JOGANGLE_SYMBOL
 70
     0
  0
APPID
  5
30D
330
9
100
AcDbSymbolTableRecord
100
AcDbRegAppTableRecord
  2
ACAD_DSTYLE_DIMJAG
 70
     0
  0
APPID
  5
30E
330
9
100
AcDbSymbolTableRecord
100
AcDbRegAppTableRecord
  2
ACAD_DSTYLE_DIMBREAK
 70
     0
  0
APPID
  5
30F
330
9
100
AcDbSymbolTableRecord
100
AcDbRegAppTableRecord
  2
ACAD_DSTYLE_DIMTALN
 70
     0
  0
APPID
  5
57F
330
9
100
AcDbSymbolTableRecord
100
AcDbRegAppTableRecord
  2
ACAD_EXEMPT_FROM_CAD_STANDARDS
 70
     0
  0
APPID
  5
618
330
9
100
AcDbSymbolTableRecord
100
AcDbRegAppTableRecord
  2
ACAD_MLEADERVER
 70
     0
  0
APPID
  5
61D
330
9
100
AcDbSymbolTableRecord
100
AcDbRegAppTableRecord
  2
ACAD_DSTYLE_DIMARC_LENGTH_SYMBOL
 70
     0
  0
APPID
  5
61E
330
9
100
AcDbSymbolTableRecord
100
AcDbRegAppTableRecord
  2
ACAD_DSTYLE_DIMEXT_LENGTH
 70
     0
  0
APPID
  5
70A
330
9
100
AcDbSymbolTableRecord
100
AcDbRegAppTableRecord
  2
ACAD_PSEXT
 70
     0
  0
ENDTAB
  0
TABLE
  2
DIMSTYLE
  5
A
330
0
100
AcDbSymbolTable
 70
    12
100
AcDbDimStyleTable
 71
     1
340
302
  0
DIMSTYLE
105
57
330
A
100
AcDbSymbolTableRecord
100
AcDbDimStyleTableRecord
  2
Standard
 70
     0
340
55
  0
DIMSTYLE
105
302
330
A
100
AcDbSymbolTableRecord
100
AcDbDimStyleTableRecord
  2
1：1
 70
     0
 41
2.5
 42
0.25
 43
0.2
 44
1.25
 73
     0
 74
     0
 77
     3
 78
     8
 79
     2
140
3.0
141
0.0
143
0.03937007874016
147
0.625
171
     3
172
     1
178
     4
179
     1
271
     2
272
     2
274
     3
283
     0
284
     8
288
     1
289
     0
340
55
341
26C
342
26C
1001
ACAD_DSTYLE_DIMARC_LENGTH_SYMBOL
1070
   379
1070
     2
1001
ACAD_DSTYLE_DIMEXT_LENGTH
1070
   378
1040
1.25
1001
ACAD_DSTYLE_DIMJOGGED_JOGANGLE_SYMBOL
1070
   384
1040
1.570796326794896
  0
DIMSTYLE
105
303
330
A
100
AcDbSymbolTableRecord
100
AcDbDimStyleTableRecord
  2
2：1
 70
     0
 41
2.5
 42
0.25
 43
0.2
 44
1.25
 73
     0
 74
     0
 77
     3
 78
     8
 79
     2
140
3.0
141
0.0
143
0.03937007874016
144
0.5
147
0.625
171
     3
172
     1
178
     4
179
     1
271
     2
272
     2
274
     3
283
     0
284
     8
288
     1
289
     0
340
55
341
26C
342
26C
1001
ACAD_DSTYLE_DIMARC_LENGTH_SYMBOL
1070
   379
1070
     2
1001
ACAD_DSTYLE_DIMEXT_LENGTH
1070
   378
1040
1.25
1001
ACAD_DSTYLE_DIMJOGGED_JOGANGLE_SYMBOL
1070
   384
1040
1.570796326794896
  0
DIMSTYLE
105
304
330
A
100
AcDbSymbolTableRecord
100
AcDbDimStyleTableRecord
  2
5：1
 70
     0
 41
2.5
 42
0.25
 43
0.2
 44
1.25
 73
     0
 74
     0
 77
     3
 78
     8
 79
     2
140
3.0
141
0.0
143
0.03937007874016
144
0.2
147
0.625
171
     3
172
     1
178
     4
179
     1
271
     2
272
     2
274
     3
283
     0
284
     8
288
     1
289
     0
340
55
341
26C
342
26C
1001
ACAD_DSTYLE_DIMARC_LENGTH_SYMBOL
1070
   379
1070
     2
1001
ACAD_DSTYLE_DIMEXT_LENGTH
1070
   378
1040
1.25
1001
ACAD_DSTYLE_DIMJOGGED_JOGANGLE_SYMBOL
1070
   384
1040
1.570796326794896
  0
DIMSTYLE
105
305
330
A
100
AcDbSymbolTableRecord
100
AcDbDimStyleTableRecord
  2
10：1
 70
     0
 41
2.5
 42
0.25
 43
0.2
 44
1.25
 73
     0
 74
     0
 77
     3
 78
     8
 79
     2
140
3.0
141
0.0
143
0.03937007874016
144
0.1
147
0.625
171
     3
172
     1
178
     4
179
     1
271
     2
272
     2
274
     3
283
     0
284
     8
288
     1
289
     0
340
55
341
26C
342
26C
1001
ACAD_DSTYLE_DIMARC_LENGTH_SYMBOL
1070
   379
1070
     2
1001
ACAD_DSTYLE_DIMEXT_LENGTH
1070
   378
1040
1.25
1001
ACAD_DSTYLE_DIMJOGGED_JOGANGLE_SYMBOL
1070
   384
1040
1.570796326794896
  0
DIMSTYLE
105
306
330
A
100
AcDbSymbolTableRecord
100
AcDbDimStyleTableRecord
  2
1／2
 70
     0
 41
2.5
 42
0.25
 43
0.2
 44
1.25
 73
     0
 74
     0
 77
     3
 78
     8
 79
     2
140
3.0
141
0.0
143
0.03937007874016
144
2.0
147
0.625
171
     3
172
     1
178
     4
179
     1
271
     2
272
     2
274
     3
283
     0
284
     8
288
     1
289
     0
340
55
341
26C
342
26C
1001
ACAD_DSTYLE_DIMARC_LENGTH_SYMBOL
1070
   379
1070
     2
1001
ACAD_DSTYLE_DIMEXT_LENGTH
1070
   378
1040
1.25
1001
ACAD_DSTYLE_DIMJOGGED_JOGANGLE_SYMBOL
1070
   384
1040
1.570796326794896
  0
DIMSTYLE
105
307
330
A
100
AcDbSymbolTableRecord
100
AcDbDimStyleTableRecord
  2
1／5
 70
     0
 41
2.5
 42
0.25
 43
0.2
 44
1.25
 73
     0
 74
     0
 77
     3
 78
     8
 79
     2
140
3.0
141
0.0
143
0.03937007874016
144
5.0
147
0.625
171
     3
172
     1
178
     4
179
     1
271
     2
272
     2
274
     3
283
     0
284
     8
288
     1
289
     0
340
55
341
26C
342
26C
1001
ACAD_DSTYLE_DIMARC_LENGTH_SYMBOL
1070
   379
1070
     2
1001
ACAD_DSTYLE_DIMEXT_LENGTH
1070
   378
1040
1.25
1001
ACAD_DSTYLE_DIMJOGGED_JOGANGLE_SYMBOL
1070
   384
1040
1.570796326794896
  0
DIMSTYLE
105
308
330
A
100
AcDbSymbolTableRecord
100
AcDbDimStyleTableRecord
  2
1／10
 70
     0
 41
2.5
 42
0.25
 43
0.2
 44
1.25
 73
     0
 74
     0
 77
     3
 78
     8
 79
     2
140
3.0
141
0.0
143
0.03937007874016
144
10.0
147
0.625
171
     3
172
     1
178
     4
179
     1
271
     2
272
     2
274
     3
283
     0
284
     8
288
     1
289
     0
340
55
341
26C
342
26C
1001
ACAD_DSTYLE_DIMARC_LENGTH_SYMBOL
1070
   379
1070
     2
1001
ACAD_DSTYLE_DIMEXT_LENGTH
1070
   378
1040
1.25
1001
ACAD_DSTYLE_DIMJOGGED_JOGANGLE_SYMBOL
1070
   384
1040
1.570796326794896
  0
DIMSTYLE
105
309
330
A
100
AcDbSymbolTableRecord
100
AcDbDimStyleTableRecord
  2
1／4
 70
     0
 41
2.5
 42
0.25
 43
0.2
 44
1.25
 73
     0
 74
     0
 77
     3
 78
     8
 79
     2
140
3.0
141
0.0
143
0.03937007874016
144
4.0
147
0.625
171
     3
172
     1
178
     4
179
     1
271
     2
272
     2
274
     3
283
     0
284
     8
288
     1
289
     0
340
55
341
26C
342
26C
1001
ACAD_DSTYLE_DIMARC_LENGTH_SYMBOL
1070
   379
1070
     2
1001
ACAD_DSTYLE_DIMEXT_LENGTH
1070
   378
1040
1.25
1001
ACAD_DSTYLE_DIMJOGGED_JOGANGLE_SYMBOL
1070
   384
1040
1.570796326794896
  0
DIMSTYLE
105
30A
330
A
100
AcDbSymbolTableRecord
100
AcDbDimStyleTableRecord
  2
1／3
 70
     0
 41
2.5
 42
0.25
 43
0.2
 44
1.25
 73
     0
 74
     0
 77
     3
 78
     8
 79
     2
140
3.0
141
0.0
143
0.03937007874016
144
3.0
147
0.625
171
     3
172
     1
178
     4
179
     1
271
     2
272
     2
274
     3
283
     0
284
     8
288
     1
289
     0
340
55
341
26C
342
26C
1001
ACAD_DSTYLE_DIMARC_LENGTH_SYMBOL
1070
   379
1070
     2
1001
ACAD_DSTYLE_DIMEXT_LENGTH
1070
   378
1040
1.25
1001
ACAD_DSTYLE_DIMJOGGED_JOGANGLE_SYMBOL
1070
   384
1040
1.570796326794896
  0
DIMSTYLE
105
30B
330
A
100
AcDbSymbolTableRecord
100
AcDbDimStyleTableRecord
  2
FREE
 70
     0
 41
2.5
 42
0.25
 43
0.2
 44
1.25
 73
     0
 74
     0
 77
     3
 78
     8
 79
     2
140
3.0
141
0.0
143
0.03937007874016
147
0.625
171
     3
172
     1
178
     4
179
     1
271
     2
272
     2
274
     3
283
     0
284
     8
288
     1
289
     0
340
55
341
26C
342
26C
1001
ACAD_DSTYLE_DIMBREAK
1070
   391
1040
3.75
1001
ACAD_DSTYLE_DIMJAG
1070
   388
1040
1.5
1001
ACAD_DSTYLE_DIMTALN
1070
   392
1070
     0
1001
ACAD_DSTYLE_DIMARC_LENGTH_SYMBOL
1070
   379
1070
     2
1001
ACAD_DSTYLE_DIMEXT_LENGTH
1070
   378
1040
1.25
1001
ACAD_DSTYLE_DIMJOGGED_JOGANGLE_SYMBOL
1070
   384
1040
1.570796326794896
  0
ENDTAB
  0
TABLE
  2
BLOCK_RECORD
  5
1
330
0
100
AcDbSymbolTable
 70
    16
  0
BLOCK_RECORD
  5
6B
102
{ACAD_XDICTIONARY
360
704
102
}
330
1
100
AcDbSymbolTableRecord
100
AcDbBlockTableRecord
  2
*Model_Space
340
6E
  0
BLOCK_RECORD
  5
67
330
1
100
AcDbSymbolTableRecord
100
AcDbBlockTableRecord
  2
*Paper_Space
340
6A
  0
BLOCK_RECORD
  5
26C
330
1
100
AcDbSymbolTableRecord
100
AcDbBlockTableRecord
  2
_Open30
340
0
102
{BLKREFS
331
518
331
519
331
523
331
524
331
52E
331
52F
331
539
331
53A
331
544
331
545
331
54F
331
550
331
55A
331
55B
331
565
331
566
331
570
331
571
331
579
331
57A
331
6F9
331
6FA
331
782
331
783
331
823
331
824
102
}
  0
BLOCK_RECORD
  5
489
330
1
100
AcDbSymbolTableRecord
100
AcDbBlockTableRecord
  2
*D1
340
0
  0
BLOCK_RECORD
  5
497
330
1
100
AcDbSymbolTableRecord
100
AcDbBlockTableRecord
  2
*D2
340
0
  0
BLOCK_RECORD
  5
4A5
330
1
100
AcDbSymbolTableRecord
100
AcDbBlockTableRecord
  2
*D3
340
0
  0
BLOCK_RECORD
  5
4B3
330
1
100
AcDbSymbolTableRecord
100
AcDbBlockTableRecord
  2
*D4
340
0
  0
BLOCK_RECORD
  5
4C1
330
1
100
AcDbSymbolTableRecord
100
AcDbBlockTableRecord
  2
*D5
340
0
  0
BLOCK_RECORD
  5
4CF
330
1
100
AcDbSymbolTableRecord
100
AcDbBlockTableRecord
  2
*D6
340
0
  0
BLOCK_RECORD
  5
4DD
330
1
100
AcDbSymbolTableRecord
100
AcDbBlockTableRecord
  2
*D7
340
0
  0
BLOCK_RECORD
  5
4EB
330
1
100
AcDbSymbolTableRecord
100
AcDbBlockTableRecord
  2
*D8
340
0
  0
BLOCK_RECORD
  5
4F9
330
1
100
AcDbSymbolTableRecord
100
AcDbBlockTableRecord
  2
*D9
340
0
  0
BLOCK_RECORD
  5
507
330
1
100
AcDbSymbolTableRecord
100
AcDbBlockTableRecord
  2
*D10
340
0
  0
BLOCK_RECORD
  5
581
330
1
100
AcDbSymbolTableRecord
100
AcDbBlockTableRecord
  2
*D11
340
0
  0
BLOCK_RECORD
  5
58D
330
1
100
AcDbSymbolTableRecord
100
AcDbBlockTableRecord
  2
*D12
340
0
  0
BLOCK_RECORD
  5
599
330
1
100
AcDbSymbolTableRecord
100
AcDbBlockTableRecord
  2
*D13
340
0
  0
ENDTAB
  0
ENDSEC
  0
SECTION
  2
BLOCKS
  0
BLOCK
  5
6C
330
6B
100
AcDbEntity
  8
0
100
AcDbBlockBegin
  2
*Model_Space
 70
     0
 10
0.0
 20
0.0
 30
0.0
  3
*Model_Space
  1

  0
ENDBLK
  5
6D
330
6B
100
AcDbEntity
  8
0
100
AcDbBlockEnd
  0
BLOCK
  5
68
330
67
100
AcDbEntity
 67
     1
  8
0
100
AcDbBlockBegin
  2
*Paper_Space
 70
     0
 10
0.0
 20
0.0
 30
0.0
  3
*Paper_Space
  1

  0
ENDBLK
  5
69
330
67
100
AcDbEntity
 67
     1
  8
0
100
AcDbBlockEnd
  0
BLOCK
  5
26D
330
26C
100
AcDbEntity
  8
0
100
AcDbBlockBegin
  2
_Open30
 70
     0
 10
0.0
 20
0.0
 30
0.0
  3
_Open30
  1

  0
LINE
  5
26E
330
26C
100
AcDbEntity
  8
0
  6
ByBlock
 62
     0
370
    -2
100
AcDbLine
 10
-1.0
 20
0.267949
 30
0.0
 11
0.0
 21
0.0
 31
0.0
  0
LINE
  5
26F
330
26C
100
AcDbEntity
  8
0
  6
ByBlock
 62
     0
370
    -2
100
AcDbLine
 10
0.0
 20
0.0
 30
0.0
 11
-1.0
 21
-0.267949
 31
0.0
  0
LINE
  5
270
330
26C
100
AcDbEntity
  8
0
  6
ByBlock
 62
     0
370
    -2
100
AcDbLine
 10
0.0
 20
0.0
 30
0.0
 11
-1.0
 21
0.0
 31
0.0
  0
ENDBLK
  5
271
330
26C
100
AcDbEntity
  8
0
100
AcDbBlockEnd
  0
BLOCK
  5
48A
330
489
100
AcDbEntity
  8
0
100
AcDbBlockBegin
  2
*D1
 70
     1
 10
0.0
 20
0.0
 30
0.0
  3
*D1
  1

  0
LINE
  5
513
330
489
100
AcDbEntity
  8
0
 62
     0
370
    -2
100
AcDbLine
 10
1292.731700811852
 20
937.8444958847826
 30
0.0
 11
1292.731700811852
 21
934.9348644627736
 31
0.0
  0
LINE
  5
514
330
489
100
AcDbEntity
  8
0
 62
     0
370
    -2
100
AcDbLine
 10
1290.274513757732
 20
937.8444958847826
 30
0.0
 11
1290.274513757732
 21
934.9348644627736
 31
0.0
  0
LINE
  5
515
330
489
100
AcDbEntity
  8
0
 62
     0
370
    -2
100
AcDbLine
 10
1295.231700811852
 20
936.1848644627738
 30
0.0
 11
1297.731700811852
 21
936.1848644627738
 31
0.0
  0
LINE
  5
516
330
489
100
AcDbEntity
  8
0
 62
     0
370
    -2
100
AcDbLine
 10
1287.774513757732
 20
936.1848644627738
 30
0.0
 11
1275.024513757732
 21
936.1848644627738
 31
0.0
  0
LINE
  5
517
330
489
100
AcDbEntity
  8
0
 62
     0
370
    -2
100
AcDbLine
 10
1292.731700811852
 20
936.1848644627738
 30
0.0
 11
1290.274513757732
 21
936.1848644627738
 31
0.0
  0
INSERT
  5
518
330
489
100
AcDbEntity
  8
0
 62
     0
370
    -2
100
AcDbBlockReference
  2
_Open30
 10
1292.731700811852
 20
936.1848644627738
 30
0.0
 41
2.5
 42
2.5
 43
2.5
 50
180.0
  0
INSERT
  5
519
330
489
100
AcDbEntity
  8
0
 62
     0
370
    -2
100
AcDbBlockReference
  2
_Open30
 10
1290.274513757732
 20
936.1848644627738
 30
0.0
 41
2.5
 42
2.5
 43
2.5
  0
MTEXT
  5
51A
330
489
100
AcDbEntity
  8
0
 62
     4
100
AcDbMText
 10
1280.149513757732
 20
938.3098644627736
 30
0.0
 40
3.0
 41
0.0
 71
     5
 72
     1
  1
2.46
 73
     1
 44
1.0
1001
ACAD
1000
MTEXTBEGIN
1070
    73
1070
     1
1070
    44
1040
1.0
1070
    74
1070
     0
1000
MTEXTEND
  0
POINT
  5
51B
330
489
100
AcDbEntity
  8
Defpoints
 62
     0
100
AcDbPoint
 10
1292.731700811852
 20
938.0944958847823
 30
0.0
  0
POINT
  5
51C
330
489
100
AcDbEntity
  8
Defpoints
 62
     0
100
AcDbPoint
 10
1290.274513757732
 20
938.0944958847823
 30
0.0
  0
POINT
  5
51D
330
489
100
AcDbEntity
  8
Defpoints
 62
     0
100
AcDbPoint
 10
1290.274513757732
 20
936.1848644627738
 30
0.0
  0
ENDBLK
  5
48B
330
489
100
AcDbEntity
  8
0
100
AcDbBlockEnd
  0
BLOCK
  5
498
330
497
100
AcDbEntity
  8
0
100
AcDbBlockBegin
  2
*D2
 70
     1
 10
0.0
 20
0.0
 30
0.0
  3
*D2
  1

  0
LINE
  5
51E
330
497
100
AcDbEntity
  8
0
 62
     0
370
    -2
100
AcDbLine
 10
1294.369825717925
 20
932.3884063120202
 30
0.0
 11
1294.369825717925
 21
929.8425142425568
 31
0.0
  0
LINE
  5
51F
330
497
100
AcDbEntity
  8
0
 62
     0
370
    -2
100
AcDbLine
 10
1291.275589919782
 20
932.3884063120202
 30
0.0
 11
1291.275589919782
 21
929.8425142425568
 31
0.0
  0
LINE
  5
520
330
497
100
AcDbEntity
  8
0
 62
     0
370
    -2
100
AcDbLine
 10
1296.869825717925
 20
931.0925142425567
 30
0.0
 11
1299.369825717925
 21
931.0925142425567
 31
0.0
  0
LINE
  5
521
330
497
100
AcDbEntity
  8
0
 62
     0
370
    -2
100
AcDbLine
 10
1288.775589919782
 20
931.0925142425567
 30
0.0
 11
1274.942256586449
 21
931.0925142425567
 31
0.0
  0
LINE
  5
522
330
497
100
AcDbEntity
  8
0
 62
     0
370
    -2
100
AcDbLine
 10
1294.369825717925
 20
931.0925142425567
 30
0.0
 11
1291.275589919782
 21
931.0925142425567
 31
0.0
  0
INSERT
  5
523
330
497
100
AcDbEntity
  8
0
 62
     0
370
    -2
100
AcDbBlockReference
  2
_Open30
 10
1294.369825717925
 20
931.0925142425567
 30
0.0
 41
2.5
 42
2.5
 43
2.5
 50
180.0
  0
INSERT
  5
524
330
497
100
AcDbEntity
  8
0
 62
     0
370
    -2
100
AcDbBlockReference
  2
_Open30
 10
1291.275589919782
 20
931.0925142425567
 30
0.0
 41
2.5
 42
2.5
 43
2.5
  0
MTEXT
  5
525
330
497
100
AcDbEntity
  8
0
 62
     4
100
AcDbMText
 10
1280.150589919782
 20
932.9675142425568
 30
0.0
 40
2.5
 41
0.0
 71
     5
 72
     1
  1
15.47
  7
高2.5
 73
     1
 44
1.0
1001
ACAD
1000
MTEXTBEGIN
1070
    73
1070
     1
1070
    44
1040
1.0
1070
    74
1070
     0
1000
MTEXTEND
  0
POINT
  5
526
330
497
100
AcDbEntity
  8
Defpoints
 62
     0
100
AcDbPoint
 10
1294.369825717925
 20
932.6384063120199
 30
0.0
  0
POINT
  5
527
330
497
100
AcDbEntity
  8
Defpoints
 62
     0
100
AcDbPoint
 10
1291.275589919782
 20
932.6384063120199
 30
0.0
  0
POINT
  5
528
330
497
100
AcDbEntity
  8
Defpoints
 62
     0
100
AcDbPoint
 10
1291.275589919782
 20
931.0925142425567
 30
0.0
  0
ENDBLK
  5
499
330
497
100
AcDbEntity
  8
0
100
AcDbBlockEnd
  0
BLOCK
  5
4A6
330
4A5
100
AcDbEntity
  8
0
100
AcDbBlockBegin
  2
*D3
 70
     1
 10
0.0
 20
0.0
 30
0.0
  3
*D3
  1

  0
LINE
  5
529
330
4A5
100
AcDbEntity
  8
0
 62
     0
370
    -2
100
AcDbLine
 10
1296.09895732601
 20
926.9323165961735
 30
0.0
 11
1296.09895732601
 21
924.6592289338062
 31
0.0
  0
LINE
  5
52A
330
4A5
100
AcDbEntity
  8
0
 62
     0
370
    -2
100
AcDbLine
 10
1292.094652372818
 20
926.9323165961735
 30
0.0
 11
1292.094652372818
 21
924.6592289338062
 31
0.0
  0
LINE
  5
52B
330
4A5
100
AcDbEntity
  8
0
 62
     0
370
    -2
100
AcDbLine
 10
1298.59895732601
 20
925.9092289338063
 30
0.0
 11
1301.09895732601
 21
925.9092289338063
 31
0.0
  0
LINE
  5
52C
330
4A5
100
AcDbEntity
  8
0
 62
     0
370
    -2
100
AcDbLine
 10
1289.594652372819
 20
925.9092289338063
 30
0.0
 11
1277.844652372819
 21
925.9092289338063
 31
0.0
  0
LINE
  5
52D
330
4A5
100
AcDbEntity
  8
0
 62
     0
370
    -2
100
AcDbLine
 10
1296.09895732601
 20
925.9092289338063
 30
0.0
 11
1292.094652372818
 21
925.9092289338063
 31
0.0
  0
INSERT
  5
52E
330
4A5
100
AcDbEntity
  8
0
 62
     0
370
    -2
100
AcDbBlockReference
  2
_Open30
 10
1296.09895732601
 20
925.9092289338063
 30
0.0
 41
2.5
 42
2.5
 43
2.5
 50
180.0
  0
INSERT
  5
52F
330
4A5
100
AcDbEntity
  8
0
 62
     0
370
    -2
100
AcDbBlockReference
  2
_Open30
 10
1292.094652372818
 20
925.9092289338063
 30
0.0
 41
2.5
 42
2.5
 43
2.5
  0
MTEXT
  5
530
330
4A5
100
AcDbEntity
  8
0
 62
     4
100
AcDbMText
 10
1282.469652372818
 20
928.1342289338063
 30
0.0
 40
3.2
 41
0.0
 71
     5
 72
     1
  1
8.01
  7
高3.2
 73
     1
 44
1.0
1001
ACAD
1000
MTEXTBEGIN
1070
    73
1070
     1
1070
    44
1040
1.0
1070
    74
1070
     0
1000
MTEXTEND
  0
POINT
  5
531
330
4A5
100
AcDbEntity
  8
Defpoints
 62
     0
100
AcDbPoint
 10
1296.09895732601
 20
927.1823165961736
 30
0.0
  0
POINT
  5
532
330
4A5
100
AcDbEntity
  8
Defpoints
 62
     0
100
AcDbPoint
 10
1292.094652372818
 20
927.1823165961736
 30
0.0
  0
POINT
  5
533
330
4A5
100
AcDbEntity
  8
Defpoints
 62
     0
100
AcDbPoint
 10
1292.094652372818
 20
925.9092289338063
 30
0.0
  0
ENDBLK
  5
4A7
330
4A5
100
AcDbEntity
  8
0
100
AcDbBlockEnd
  0
BLOCK
  5
4B4
330
4B3
100
AcDbEntity
  8
0
100
AcDbBlockBegin
  2
*D4
 70
     1
 10
0.0
 20
0.0
 30
0.0
  3
*D4
  1

  0
LINE
  5
534
330
4B3
100
AcDbEntity
  8
0
 62
     0
370
    -2
100
AcDbLine
 10
1296.007950623998
 20
921.6580966281419
 30
0.0
 11
1296.007950623998
 21
919.8396831206855
 31
0.0
  0
LINE
  5
535
330
4B3
100
AcDbEntity
  8
0
 62
     0
370
    -2
100
AcDbLine
 10
1291.275589919782
 20
921.6580966281419
 30
0.0
 11
1291.275589919782
 21
919.8396831206855
 31
0.0
  0
LINE
  5
536
330
4B3
100
AcDbEntity
  8
0
 62
     0
370
    -2
100
AcDbLine
 10
1298.507950623998
 20
921.0896831206856
 30
0.0
 11
1301.007950623998
 21
921.0896831206856
 31
0.0
  0
LINE
  5
537
330
4B3
100
AcDbEntity
  8
0
 62
     0
370
    -2
100
AcDbLine
 10
1288.775589919782
 20
921.0896831206856
 30
0.0
 11
1267.025589919782
 21
921.0896831206856
 31
0.0
  0
LINE
  5
538
330
4B3
100
AcDbEntity
  8
0
 62
     0
370
    -2
100
AcDbLine
 10
1296.007950623998
 20
921.0896831206856
 30
0.0
 11
1291.275589919782
 21
921.0896831206856
 31
0.0
  0
INSERT
  5
539
330
4B3
100
AcDbEntity
  8
0
 62
     0
370
    -2
100
AcDbBlockReference
  2
_Open30
 10
1296.007950623998
 20
921.0896831206856
 30
0.0
 41
2.5
 42
2.5
 43
2.5
 50
180.0
  0
INSERT
  5
53A
330
4B3
100
AcDbEntity
  8
0
 62
     0
370
    -2
100
AcDbBlockReference
  2
_Open30
 10
1291.275589919782
 20
921.0896831206856
 30
0.0
 41
2.5
 42
2.5
 43
2.5
  0
MTEXT
  5
53B
330
4B3
100
AcDbEntity
  8
0
 62
     4
100
AcDbMText
 10
1276.650589919782
 20
923.9646831206854
 30
0.0
 40
4.5
 41
0.0
 71
     5
 72
     1
  1
47.32
  7
高4.5
 73
     1
 44
1.0
1001
ACAD
1000
MTEXTBEGIN
1070
    73
1070
     1
1070
    44
1040
1.0
1070
    74
1070
     0
1000
MTEXTEND
  0
POINT
  5
53C
330
4B3
100
AcDbEntity
  8
Defpoints
 62
     0
100
AcDbPoint
 10
1296.007950623998
 20
921.9080966281419
 30
0.0
  0
POINT
  5
53D
330
4B3
100
AcDbEntity
  8
Defpoints
 62
     0
100
AcDbPoint
 10
1291.275589919782
 20
921.9080966281419
 30
0.0
  0
POINT
  5
53E
330
4B3
100
AcDbEntity
  8
Defpoints
 62
     0
100
AcDbPoint
 10
1291.275589919782
 20
921.0896831206856
 30
0.0
  0
ENDBLK
  5
4B5
330
4B3
100
AcDbEntity
  8
0
100
AcDbBlockEnd
  0
BLOCK
  5
4C2
330
4C1
100
AcDbEntity
  8
0
100
AcDbBlockBegin
  2
*D5
 70
     1
 10
0.0
 20
0.0
 30
0.0
  3
*D5
  1

  0
LINE
  5
53F
330
4C1
100
AcDbEntity
  8
0
 62
     0
370
    -2
100
AcDbLine
 10
1317.485586892006
 20
937.8444958847826
 30
0.0
 11
1317.485586892006
 21
934.9348644627736
 31
0.0
  0
LINE
  5
540
330
4C1
100
AcDbEntity
  8
0
 62
     0
370
    -2
100
AcDbLine
 10
1315.028399837885
 20
937.8444958847826
 30
0.0
 11
1315.028399837885
 21
934.9348644627736
 31
0.0
  0
LINE
  5
541
330
4C1
100
AcDbEntity
  8
0
 62
     0
370
    -2
100
AcDbLine
 10
1319.985586892006
 20
936.1848644627738
 30
0.0
 11
1322.485586892006
 21
936.1848644627738
 31
0.0
  0
LINE
  5
542
330
4C1
100
AcDbEntity
  8
0
 62
     0
370
    -2
100
AcDbLine
 10
1312.528399837885
 20
936.1848644627738
 30
0.0
 11
1290.928399837885
 21
936.1848644627738
 31
0.0
  0
LINE
  5
543
330
4C1
100
AcDbEntity
  8
0
 62
     0
370
    -2
100
AcDbLine
 10
1317.485586892006
 20
936.1848644627738
 30
0.0
 11
1315.028399837885
 21
936.1848644627738
 31
0.0
  0
INSERT
  5
544
330
4C1
100
AcDbEntity
  8
0
 62
     0
370
    -2
100
AcDbBlockReference
  2
_Open30
 10
1317.485586892006
 20
936.1848644627738
 30
0.0
 41
2.5
 42
2.5
 43
2.5
 50
180.0
  0
INSERT
  5
545
330
4C1
100
AcDbEntity
  8
0
 62
     0
370
    -2
100
AcDbBlockReference
  2
_Open30
 10
1315.028399837885
 20
936.1848644627738
 30
0.0
 41
2.5
 42
2.5
 43
2.5
  0
MTEXT
  5
546
330
4C1
100
AcDbEntity
  8
0
 62
     4
100
AcDbMText
 10
1300.478399837885
 20
939.9598644627735
 30
0.0
 40
6.299999999999998
 41
0.0
 71
     5
 72
     1
  1
0.25
  7
高6.3
 73
     1
 44
1.0
1001
ACAD
1000
MTEXTBEGIN
1070
    73
1070
     1
1070
    44
1040
1.0
1070
    74
1070
     0
1000
MTEXTEND
  0
POINT
  5
547
330
4C1
100
AcDbEntity
  8
Defpoints
 62
     0
100
AcDbPoint
 10
1317.485586892006
 20
938.0944958847823
 30
0.0
  0
POINT
  5
548
330
4C1
100
AcDbEntity
  8
Defpoints
 62
     0
100
AcDbPoint
 10
1315.028399837885
 20
938.0944958847823
 30
0.0
  0
POINT
  5
549
330
4C1
100
AcDbEntity
  8
Defpoints
 62
     0
100
AcDbPoint
 10
1315.028399837885
 20
936.1848644627738
 30
0.0
  0
ENDBLK
  5
4C3
330
4C1
100
AcDbEntity
  8
0
100
AcDbBlockEnd
  0
BLOCK
  5
4D0
330
4CF
100
AcDbEntity
  8
0
100
AcDbBlockBegin
  2
*D6
 70
     1
 10
0.0
 20
0.0
 30
0.0
  3
*D6
  1

  0
LINE
  5
54A
330
4CF
100
AcDbEntity
  8
0
 62
     0
370
    -2
100
AcDbLine
 10
1319.123711798079
 20
932.3884063120202
 30
0.0
 11
1319.123711798079
 21
929.8425142425568
 31
0.0
  0
LINE
  5
54B
330
4CF
100
AcDbEntity
  8
0
 62
     0
370
    -2
100
AcDbLine
 10
1316.029475999936
 20
932.3884063120202
 30
0.0
 11
1316.029475999936
 21
929.8425142425568
 31
0.0
  0
LINE
  5
54C
330
4CF
100
AcDbEntity
  8
0
 62
     0
370
    -2
100
AcDbLine
 10
1321.623711798079
 20
931.0925142425567
 30
0.0
 11
1324.123711798079
 21
931.0925142425567
 31
0.0
  0
LINE
  5
54D
330
4CF
100
AcDbEntity
  8
0
 62
     0
370
    -2
100
AcDbLine
 10
1313.529475999936
 20
931.0925142425567
 30
0.0
 11
1301.529475999936
 21
931.0925142425567
 31
0.0
  0
LINE
  5
54E
330
4CF
100
AcDbEntity
  8
0
 62
     0
370
    -2
100
AcDbLine
 10
1319.123711798079
 20
931.0925142425567
 30
0.0
 11
1316.029475999936
 21
931.0925142425567
 31
0.0
  0
INSERT
  5
54F
330
4CF
100
AcDbEntity
  8
0
 62
     0
370
    -2
100
AcDbBlockReference
  2
_Open30
 10
1319.123711798079
 20
931.0925142425567
 30
0.0
 41
2.5
 42
2.5
 43
2.5
 50
180.0
  0
INSERT
  5
550
330
4CF
100
AcDbEntity
  8
0
 62
     0
370
    -2
100
AcDbBlockReference
  2
_Open30
 10
1316.029475999936
 20
931.0925142425567
 30
0.0
 41
2.5
 42
2.5
 43
2.5
  0
MTEXT
  5
551
330
4CF
100
AcDbEntity
  8
0
 62
     4
100
AcDbMText
 10
1306.154475999936
 20
933.2175142425567
 30
0.0
 40
3.0
 41
0.0
 71
     5
 72
     1
  1
1.55
 73
     1
 44
1.0
1001
ACAD
1000
MTEXTBEGIN
1070
    73
1070
     1
1070
    44
1040
1.0
1070
    74
1070
     0
1000
MTEXTEND
  0
POINT
  5
552
330
4CF
100
AcDbEntity
  8
Defpoints
 62
     0
100
AcDbPoint
 10
1319.123711798079
 20
932.6384063120199
 30
0.0
  0
POINT
  5
553
330
4CF
100
AcDbEntity
  8
Defpoints
 62
     0
100
AcDbPoint
 10
1316.029475999936
 20
932.6384063120199
 30
0.0
  0
POINT
  5
554
330
4CF
100
AcDbEntity
  8
Defpoints
 62
     0
100
AcDbPoint
 10
1316.029475999936
 20
931.0925142425567
 30
0.0
  0
ENDBLK
  5
4D1
330
4CF
100
AcDbEntity
  8
0
100
AcDbBlockEnd
  0
BLOCK
  5
4DE
330
4DD
100
AcDbEntity
  8
0
100
AcDbBlockBegin
  2
*D7
 70
     1
 10
0.0
 20
0.0
 30
0.0
  3
*D7
  1

  0
LINE
  5
555
330
4DD
100
AcDbEntity
  8
0
 62
     0
370
    -2
100
AcDbLine
 10
1320.852843406165
 20
926.9323165961735
 30
0.0
 11
1320.852843406165
 21
924.6592289338062
 31
0.0
  0
LINE
  5
556
330
4DD
100
AcDbEntity
  8
0
 62
     0
370
    -2
100
AcDbLine
 10
1316.848538452973
 20
926.9323165961735
 30
0.0
 11
1316.848538452973
 21
924.6592289338062
 31
0.0
  0
LINE
  5
557
330
4DD
100
AcDbEntity
  8
0
 62
     0
370
    -2
100
AcDbLine
 10
1323.352843406164
 20
925.9092289338063
 30
0.0
 11
1325.852843406164
 21
925.9092289338063
 31
0.0
  0
LINE
  5
558
330
4DD
100
AcDbEntity
  8
0
 62
     0
370
    -2
100
AcDbLine
 10
1314.348538452972
 20
925.9092289338063
 30
0.0
 11
1306.015205119639
 21
925.9092289338063
 31
0.0
  0
LINE
  5
559
330
4DD
100
AcDbEntity
  8
0
 62
     0
370
    -2
100
AcDbLine
 10
1320.852843406165
 20
925.9092289338063
 30
0.0
 11
1316.848538452973
 21
925.9092289338063
 31
0.0
  0
INSERT
  5
55A
330
4DD
100
AcDbEntity
  8
0
 62
     0
370
    -2
100
AcDbBlockReference
  2
_Open30
 10
1320.852843406165
 20
925.9092289338063
 30
0.0
 41
2.5
 42
2.5
 43
2.5
 50
180.0
  0
INSERT
  5
55B
330
4DD
100
AcDbEntity
  8
0
 62
     0
370
    -2
100
AcDbBlockReference
  2
_Open30
 10
1316.848538452973
 20
925.9092289338063
 30
0.0
 41
2.5
 42
2.5
 43
2.5
  0
MTEXT
  5
55C
330
4DD
100
AcDbEntity
  8
0
 62
     4
100
AcDbMText
 10
1308.473538452973
 20
927.5342289338063
 30
0.0
 40
2.0
 41
0.0
 71
     5
 72
     1
  1
0.8
  7
高2
 73
     1
 44
1.0
1001
ACAD
1000
MTEXTBEGIN
1070
    73
1070
     1
1070
    44
1040
1.0
1070
    74
1070
     0
1000
MTEXTEND
  0
POINT
  5
55D
330
4DD
100
AcDbEntity
  8
Defpoints
 62
     0
100
AcDbPoint
 10
1320.852843406165
 20
927.1823165961736
 30
0.0
  0
POINT
  5
55E
330
4DD
100
AcDbEntity
  8
Defpoints
 62
     0
100
AcDbPoint
 10
1316.848538452973
 20
927.1823165961736
 30
0.0
  0
POINT
  5
55F
330
4DD
100
AcDbEntity
  8
Defpoints
 62
     0
100
AcDbPoint
 10
1316.848538452973
 20
925.9092289338063
 30
0.0
  0
ENDBLK
  5
4DF
330
4DD
100
AcDbEntity
  8
0
100
AcDbBlockEnd
  0
BLOCK
  5
4EC
330
4EB
100
AcDbEntity
  8
0
100
AcDbBlockBegin
  2
*D8
 70
     1
 10
0.0
 20
0.0
 30
0.0
  3
*D8
  1

  0
LINE
  5
560
330
4EB
100
AcDbEntity
  8
0
 62
     0
370
    -2
100
AcDbLine
 10
1320.761836704152
 20
921.6580966281419
 30
0.0
 11
1320.761836704152
 21
919.8396831206855
 31
0.0
  0
LINE
  5
561
330
4EB
100
AcDbEntity
  8
0
 62
     0
370
    -2
100
AcDbLine
 10
1316.029475999936
 20
921.6580966281419
 30
0.0
 11
1316.029475999936
 21
919.8396831206855
 31
0.0
  0
LINE
  5
562
330
4EB
100
AcDbEntity
  8
0
 62
     0
370
    -2
100
AcDbLine
 10
1323.261836704152
 20
921.0896831206856
 30
0.0
 11
1325.761836704152
 21
921.0896831206856
 31
0.0
  0
LINE
  5
563
330
4EB
100
AcDbEntity
  8
0
 62
     0
370
    -2
100
AcDbLine
 10
1313.529475999936
 20
921.0896831206856
 30
0.0
 11
1298.779475999936
 21
921.0896831206856
 31
0.0
  0
LINE
  5
564
330
4EB
100
AcDbEntity
  8
0
 62
     0
370
    -2
100
AcDbLine
 10
1320.761836704152
 20
921.0896831206856
 30
0.0
 11
1316.029475999936
 21
921.0896831206856
 31
0.0
  0
INSERT
  5
565
330
4EB
100
AcDbEntity
  8
0
 62
     0
370
    -2
100
AcDbBlockReference
  2
_Open30
 10
1320.761836704152
 20
921.0896831206856
 30
0.0
 41
2.5
 42
2.5
 43
2.5
 50
180.0
  0
INSERT
  5
566
330
4EB
100
AcDbEntity
  8
0
 62
     0
370
    -2
100
AcDbBlockReference
  2
_Open30
 10
1316.029475999936
 20
921.0896831206856
 30
0.0
 41
2.5
 42
2.5
 43
2.5
  0
MTEXT
  5
567
330
4EB
100
AcDbEntity
  8
0
 62
     4
100
AcDbMText
 10
1304.904475999936
 20
923.2146831206856
 30
0.0
 40
3.0
 41
0.0
 71
     5
 72
     1
  1
18.93
 73
     1
 44
1.0
1001
ACAD
1000
MTEXTBEGIN
1070
    73
1070
     1
1070
    44
1040
1.0
1070
    74
1070
     0
1000
MTEXTEND
  0
POINT
  5
568
330
4EB
100
AcDbEntity
  8
Defpoints
 62
     0
100
AcDbPoint
 10
1320.761836704152
 20
921.9080966281419
 30
0.0
  0
POINT
  5
569
330
4EB
100
AcDbEntity
  8
Defpoints
 62
     0
100
AcDbPoint
 10
1316.029475999936
 20
921.9080966281419
 30
0.0
  0
POINT
  5
56A
330
4EB
100
AcDbEntity
  8
Defpoints
 62
     0
100
AcDbPoint
 10
1316.029475999936
 20
921.0896831206856
 30
0.0
  0
ENDBLK
  5
4ED
330
4EB
100
AcDbEntity
  8
0
100
AcDbBlockEnd
  0
BLOCK
  5
4FA
330
4F9
100
AcDbEntity
  8
0
100
AcDbBlockBegin
  2
*D9
 70
     1
 10
0.0
 20
0.0
 30
0.0
  3
*D9
  1

  0
LINE
  5
56B
330
4F9
100
AcDbEntity
  8
0
 62
     0
370
    -2
100
AcDbLine
 10
1317.957409853014
 20
916.6022564215522
 30
0.0
 11
1317.957409853014
 21
914.2923353446768
 31
0.0
  0
LINE
  5
56C
330
4F9
100
AcDbEntity
  8
0
 62
     0
370
    -2
100
AcDbLine
 10
1313.368734650866
 20
916.6022564215522
 30
0.0
 11
1313.368734650866
 21
914.2923353446768
 31
0.0
  0
LINE
  5
56D
330
4F9
100
AcDbEntity
  8
0
 62
     0
370
    -2
100
AcDbLine
 10
1320.457409853014
 20
915.5423353446769
 30
0.0
 11
1322.957409853014
 21
915.5423353446769
 31
0.0
  0
LINE
  5
56E
330
4F9
100
AcDbEntity
  8
0
 62
     0
370
    -2
100
AcDbLine
 10
1310.868734650866
 20
915.5423353446769
 30
0.0
 11
1296.118734650866
 21
915.5423353446769
 31
0.0
  0
LINE
  5
56F
330
4F9
100
AcDbEntity
  8
0
 62
     0
370
    -2
100
AcDbLine
 10
1317.957409853014
 20
915.5423353446769
 30
0.0
 11
1313.368734650866
 21
915.5423353446769
 31
0.0
  0
INSERT
  5
570
330
4F9
100
AcDbEntity
  8
0
 62
     0
370
    -2
100
AcDbBlockReference
  2
_Open30
 10
1317.957409853014
 20
915.5423353446769
 30
0.0
 41
2.5
 42
2.5
 43
2.5
 50
180.0
  0
INSERT
  5
571
330
4F9
100
AcDbEntity
  8
0
 62
     0
370
    -2
100
AcDbBlockReference
  2
_Open30
 10
1313.368734650866
 20
915.5423353446769
 30
0.0
 41
2.5
 42
2.5
 43
2.5
  0
MTEXT
  5
572
330
4F9
100
AcDbEntity
  8
0
 62
     4
100
AcDbMText
 10
1302.243734650866
 20
917.6673353446769
 30
0.0
 40
3.0
 41
0.0
 71
     5
 72
     1
  1
13.77
 73
     1
 44
1.0
1001
ACAD
1000
MTEXTBEGIN
1070
    73
1070
     1
1070
    44
1040
1.0
1070
    74
1070
     0
1000
MTEXTEND
  0
POINT
  5
573
330
4F9
100
AcDbEntity
  8
Defpoints
 62
     0
100
AcDbPoint
 10
1317.957409853014
 20
916.8522564215523
 30
0.0
  0
POINT
  5
574
330
4F9
100
AcDbEntity
  8
Defpoints
 62
     0
100
AcDbPoint
 10
1313.368734650866
 20
916.8522564215523
 30
0.0
  0
POINT
  5
575
330
4F9
100
AcDbEntity
  8
Defpoints
 62
     0
100
AcDbPoint
 10
1313.368734650866
 20
915.5423353446769
 30
0.0
  0
ENDBLK
  5
4FB
330
4F9
100
AcDbEntity
  8
0
100
AcDbBlockEnd
  0
BLOCK
  5
508
330
507
100
AcDbEntity
  8
0
100
AcDbBlockBegin
  2
*D10
 70
     1
 10
0.0
 20
0.0
 30
0.0
  3
*D10
  1

  0
LINE
  5
576
330
507
100
AcDbEntity
  8
0
 62
     0
370
    -2
100
AcDbLine
 10
1310.861127019863
 20
947.5317477398268
 30
0.0
 11
1310.861127019863
 21
954.9282812177644
 31
0.0
  0
LINE
  5
577
330
507
100
AcDbEntity
  8
0
 62
     0
370
    -2
100
AcDbLine
 10
1300.922652650373
 20
947.5317477398268
 30
0.0
 11
1300.922652650373
 21
954.9282812177644
 31
0.0
  0
LINE
  5
578
330
507
100
AcDbEntity
  8
0
 62
     0
370
    -2
100
AcDbLine
 10
1308.361127019863
 20
953.6782812177644
 30
0.0
 11
1303.422652650373
 21
953.6782812177644
 31
0.0
  0
INSERT
  5
579
330
507
100
AcDbEntity
  8
0
 62
     0
370
    -2
100
AcDbBlockReference
  2
_Open30
 10
1310.861127019863
 20
953.6782812177644
 30
0.0
 41
2.5
 42
2.5
 43
2.5
  0
INSERT
  5
57A
330
507
100
AcDbEntity
  8
0
 62
     0
370
    -2
100
AcDbBlockReference
  2
_Open30
 10
1300.922652650373
 20
953.6782812177644
 30
0.0
 41
2.5
 42
2.5
 43
2.5
 50
180.0
  0
MTEXT
  5
57B
330
507
100
AcDbEntity
  8
0
 62
     4
100
AcDbMText
 10
1305.891889835118
 20
956.7532812177644
 30
0.0
 40
3.0
 41
0.0
 71
     5
 72
     1
  1
9.94\H0.7X;\S+0^ -0.02;
 73
     1
 44
1.0
1001
ACAD
1000
MTEXTBEGIN
1070
    73
1070
     1
1070
    44
1040
1.0
1070
    74
1070
     0
1000
MTEXTEND
  0
POINT
  5
57C
330
507
100
AcDbEntity
  8
Defpoints
 62
     0
100
AcDbPoint
 10
1310.861127019863
 20
947.2817477398264
 30
0.0
  0
POINT
  5
57D
330
507
100
AcDbEntity
  8
Defpoints
 62
     0
100
AcDbPoint
 10
1300.922652650373
 20
947.2817477398264
 30
0.0
  0
POINT
  5
57E
330
507
100
AcDbEntity
  8
Defpoints
 62
     0
100
AcDbPoint
 10
1300.922652650373
 20
953.6782812177644
 30
0.0
  0
ENDBLK
  5
509
330
507
100
AcDbEntity
  8
0
100
AcDbBlockEnd
  0
BLOCK
  5
582
330
581
100
AcDbEntity
  8
0
100
AcDbBlockBegin
  2
*D11
 70
     1
 10
0.0
 20
0.0
 30
0.0
  3
*D11
  1

  0
LINE
  5
820
330
581
100
AcDbEntity
  8
0
 62
     0
370
    -2
100
AcDbLine
 10
814.516975
 20
859.020403
 30
0.0
 11
814.516975
 21
904.2644504489132
 31
0.0
  0
LINE
  5
821
330
581
100
AcDbEntity
  8
0
 62
     0
370
    -2
100
AcDbLine
 10
874.516975
 20
859.020403
 30
0.0
 11
874.516975
 21
904.2644504489132
 31
0.0
  0
LINE
  5
822
330
581
100
AcDbEntity
  8
0
 62
     0
370
    -2
100
AcDbLine
 10
817.0169749999999
 20
903.0144504489133
 30
0.0
 11
872.016975
 21
903.0144504489133
 31
0.0
  0
INSERT
  5
823
330
581
100
AcDbEntity
  8
0
 62
     0
370
    -2
100
AcDbBlockReference
  2
_Open30
 10
814.516975
 20
903.0144504489133
 30
0.0
 41
2.5
 42
2.5
 43
2.5
 50
180.0
  0
INSERT
  5
824
330
581
100
AcDbEntity
  8
0
 62
     0
370
    -2
100
AcDbBlockReference
  2
_Open30
 10
874.516975
 20
903.0144504489133
 30
0.0
 41
2.5
 42
2.5
 43
2.5
  0
MTEXT
  5
825
330
581
100
AcDbEntity
  8
0
 62
     4
100
AcDbMText
 10
844.5169749999999
 20
905.1394504489133
 30
0.0
 40
3.0
 41
0.0
 71
     5
 72
     1
  1
%%C60
 73
     1
 44
1.0
1001
ACAD
1000
MTEXTBEGIN
1070
    73
1070
     1
1070
    44
1040
1.0
1070
    74
1070
     0
1000
MTEXTEND
  0
POINT
  5
826
330
581
100
AcDbEntity
  8
Defpoints
 62
     0
100
AcDbPoint
 10
814.516975
 20
858.7704030000001
 30
0.0
  0
POINT
  5
827
330
581
100
AcDbEntity
  8
Defpoints
 62
     0
100
AcDbPoint
 10
874.516975
 20
858.7704030000001
 30
0.0
  0
POINT
  5
828
330
581
100
AcDbEntity
  8
Defpoints
 62
     0
100
AcDbPoint
 10
874.516975
 20
903.0144504489133
 30
0.0
  0
ENDBLK
  5
583
330
581
100
AcDbEntity
  8
0
100
AcDbBlockEnd
  0
BLOCK
  5
58E
330
58D
100
AcDbEntity
  8
0
100
AcDbBlockBegin
  2
*D12
 70
     1
 10
0.0
 20
0.0
 30
0.0
  3
*D12
  1

  0
LINE
  5
77F
330
58D
100
AcDbEntity
  8
0
 62
     0
370
    -2
100
AcDbLine
 10
844.2669749999998
 20
780.770403
 30
0.0
 11
792.529354
 21
780.770403
 31
0.0
  0
LINE
  5
780
330
58D
100
AcDbEntity
  8
0
 62
     0
370
    -2
100
AcDbLine
 10
844.2669749999998
 20
888.7704030000001
 30
0.0
 11
792.529354
 21
888.7704030000001
 31
0.0
  0
LINE
  5
781
330
58D
100
AcDbEntity
  8
0
 62
     0
370
    -2
100
AcDbLine
 10
793.779354
 20
783.270403
 30
0.0
 11
793.779354
 21
886.2704030000001
 31
0.0
  0
INSERT
  5
782
330
58D
100
AcDbEntity
  8
0
 62
     0
370
    -2
100
AcDbBlockReference
  2
_Open30
 10
793.779354
 20
780.770403
 30
0.0
 41
2.5
 42
2.5
 43
2.5
 50
270.0
  0
INSERT
  5
783
330
58D
100
AcDbEntity
  8
0
 62
     0
370
    -2
100
AcDbBlockReference
  2
_Open30
 10
793.779354
 20
888.7704030000001
 30
0.0
 41
2.5
 42
2.5
 43
2.5
 50
90.0
  0
MTEXT
  5
784
330
58D
100
AcDbEntity
  8
0
 62
     4
100
AcDbMText
 10
791.6543539999998
 20
834.7704030000002
 30
0.0
 40
3.0
 41
0.0
 71
     5
 72
     1
  1
108
 11
0.0000000000000001
 21
1.0
 31
0.0
 73
     1
 44
1.0
1001
ACAD
1000
MTEXTBEGIN
1070
    73
1070
     1
1070
    44
1040
1.0
1070
    74
1070
     0
1000
MTEXTEND
  0
POINT
  5
785
330
58D
100
AcDbEntity
  8
Defpoints
 62
     0
100
AcDbPoint
 10
844.5169749999999
 20
780.770403
 30
0.0
  0
POINT
  5
786
330
58D
100
AcDbEntity
  8
Defpoints
 62
     0
100
AcDbPoint
 10
844.5169749999999
 20
888.7704030000001
 30
0.0
  0
POINT
  5
787
330
58D
100
AcDbEntity
  8
Defpoints
 62
     0
100
AcDbPoint
 10
793.779354
 20
888.7704030000001
 30
0.0
  0
ENDBLK
  5
58F
330
58D
100
AcDbEntity
  8
0
100
AcDbBlockEnd
  0
BLOCK
  5
59A
330
599
100
AcDbEntity
  8
0
100
AcDbBlockBegin
  2
*D13
 70
     1
 10
0.0
 20
0.0
 30
0.0
  3
*D13
  1

  0
LINE
  5
6F6
330
599
100
AcDbEntity
  8
0
 62
     0
370
    -2
100
AcDbLine
 10
831.5229929999997
 20
788.400786
 30
0.0
 11
831.5229929999997
 21
765.5353039999996
 31
0.0
  0
LINE
  5
6F7
330
599
100
AcDbEntity
  8
0
 62
     0
370
    -2
100
AcDbLine
 10
857.5153619999996
 20
790.400786
 30
0.0
 11
857.5153619999996
 21
765.5353039999996
 31
0.0
  0
LINE
  5
6F8
330
599
100
AcDbEntity
  8
0
 62
     0
370
    -2
100
AcDbLine
 10
834.0229929999997
 20
766.7853039999997
 30
0.0
 11
855.0153619999996
 21
766.7853039999997
 31
0.0
  0
INSERT
  5
6F9
330
599
100
AcDbEntity
  8
0
 62
     0
370
    -2
100
AcDbBlockReference
  2
_Open30
 10
831.5229929999997
 20
766.7853039999997
 30
0.0
 41
2.5
 42
2.5
 43
2.5
 50
180.0
  0
INSERT
  5
6FA
330
599
100
AcDbEntity
  8
0
 62
     0
370
    -2
100
AcDbBlockReference
  2
_Open30
 10
857.5153619999996
 20
766.7853039999997
 30
0.0
 41
2.5
 42
2.5
 43
2.5
  0
MTEXT
  5
6FB
330
599
100
AcDbEntity
  8
0
 62
     4
100
AcDbMText
 10
844.5191774999996
 20
768.9103039999996
 30
0.0
 40
3.0
 41
0.0
 71
     5
 72
     1
  1
E26
 73
     1
 44
1.0
1001
ACAD
1000
MTEXTBEGIN
1070
    73
1070
     1
1070
    44
1040
1.0
1070
    74
1070
     0
1000
MTEXTEND
  0
POINT
  5
6FC
330
599
100
AcDbEntity
  8
Defpoints
 62
     0
100
AcDbPoint
 10
831.5229929999997
 20
788.650786
 30
0.0
  0
POINT
  5
6FD
330
599
100
AcDbEntity
  8
Defpoints
 62
     0
100
AcDbPoint
 10
857.5153619999996
 20
790.650786
 30
0.0
  0
POINT
  5
6FE
330
599
100
AcDbEntity
  8
Defpoints
 62
     0
100
AcDbPoint
 10
857.5153619999996
 20
766.7853039999997
 30
0.0
  0
ENDBLK
  5
59B
330
599
100
AcDbEntity
  8
0
100
AcDbBlockEnd
  0
ENDSEC
  0
SECTION
  2
ENTITIES
  0
ARC
  5
BC
330
6B
100
AcDbEntity
  8
0
 62
     3
100
AcDbCircle
 10
844.5169749999999
 20
858.7704030000001
 30
0.0
 40
30.0
100
AcDbArc
 50
317.7314155704276
 51
222.2685844295726
  0
LINE
  5
BD
330
6B
100
AcDbEntity
  8
0
 62
     3
100
AcDbLine
 10
861.5169749999999
 20
817.270403
 30
0.0
 11
861.5169749999999
 21
825.1400595583996
 31
0.0
  0
LINE
  5
BE
330
6B
100
AcDbEntity
  8
0
 62
     3
100
AcDbLine
 10
827.5169749999999
 20
817.270403
 30
0.0
 11
827.5169749999999
 21
825.1400595583996
 31
0.0
  0
LINE
  5
EB
330
6B
100
AcDbEntity
  8
0
 62
     3
100
AcDbLine
 10
747.1476889999999
 20
817.2582849999999
 30
0.0
 11
746.6597629999996
 21
817.2582849999999
 31
0.0
  0
LINE
  5
1BE
330
6B
100
AcDbEntity
  8
0
 62
     3
100
AcDbLine
 10
912.9604000000002
 20
695.424007
 30
0.0
 11
912.9604000000002
 21
718.4240070000003
 31
0.0
  0
LINE
  5
1C0
330
6B
100
AcDbEntity
  8
0
 62
     3
100
AcDbLine
 10
859.9067910000004
 20
688.424007
 30
0.0
 11
859.9067910000004
 21
702.4240070000002
 31
0.0
  0
TEXT
  5
1C2
330
6B
100
AcDbEntity
  8
0
 62
     3
100
AcDbText
 10
888.9707180000002
 20
714.629124
 30
0.0
 40
2.0
  1
A
 41
0.7
100
AcDbText
  0
TEXT
  5
1C3
330
6B
100
AcDbEntity
  8
0
 62
     3
100
AcDbText
 10
891.5060040000001
 20
714.629124
 30
0.0
 40
2.0
  1
P
 41
0.7
100
AcDbText
  0
TEXT
  5
1C4
330
6B
100
AcDbEntity
  8
0
 62
     3
100
AcDbText
 10
894.0412900000001
 20
714.629124
 30
0.0
 40
2.0
  1
P
 41
0.7
100
AcDbText
  0
TEXT
  5
1C5
330
6B
100
AcDbEntity
  8
0
 62
     3
100
AcDbText
 10
896.5765770000002
 20
714.629124
 30
0.0
 40
2.0
  1
D
 41
0.7
100
AcDbText
  0
TEXT
  5
1C6
330
6B
100
AcDbEntity
  8
0
 62
     3
100
AcDbText
 10
901.9452600000002
 20
714.629124
 30
0.0
 40
2.0
  1
C
 41
0.7
100
AcDbText
  0
TEXT
  5
1C7
330
6B
100
AcDbEntity
  8
0
 62
     3
100
AcDbText
 10
904.480546
 20
714.629124
 30
0.0
 40
2.0
  1
H
 41
0.7
100
AcDbText
  0
TEXT
  5
1C8
330
6B
100
AcDbEntity
  8
0
 62
     3
100
AcDbText
 10
907.0158320000002
 20
714.629124
 30
0.0
 40
2.0
  1
C
 41
0.7
100
AcDbText
  0
TEXT
  5
1C9
330
6B
100
AcDbEntity
  8
0
 62
     3
100
AcDbText
 10
909.5511180000002
 20
714.629124
 30
0.0
 40
2.0
  1
K
 41
0.7
100
AcDbText
  0
TEXT
  5
1CA
330
6B
100
AcDbEntity
  8
0
 62
     3
100
AcDbText
 10
915.2250849999999
 20
714.629124
 30
0.0
 40
2.0
  1
DESN
 41
1.216762999999998
100
AcDbText
  0
TEXT
  5
1CB
330
6B
100
AcDbEntity
  8
0
 62
     3
100
AcDbText
 10
830.2187260000001
 20
685.2826259999998
 30
0.0
 40
2.0
  1
NICHIDO IND.CO.LTD
 41
1.274876
100
AcDbText
  0
LINE
  5
1CC
330
6B
100
AcDbEntity
  8
0
 62
     3
100
AcDbLine
 10
840.6017560000002
 20
718.4240070000003
 30
0.0
 11
840.6017560000002
 21
695.424007
 31
0.0
  0
LINE
  5
1CD
330
6B
100
AcDbEntity
  8
0
 62
     3
100
AcDbLine
 10
886.9604000000002
 20
718.4240070000003
 30
0.0
 11
886.9604000000002
 21
678.7582849999997
 31
0.0
  0
LINE
  5
1D2
330
6B
100
AcDbEntity
  8
0
 62
     3
100
AcDbLine
 10
899.9604000000003
 20
718.4240069999997
 30
0.0
 11
899.9604000000003
 21
688.424007
 31
0.0
  0
TEXT
  5
1D3
330
6B
100
AcDbEntity
  8
0
 62
     3
100
AcDbText
 10
888.0728450000001
 20
689.2886940000003
 30
0.0
 40
3.2
  1
作成日
 41
1.017225999999997
100
AcDbText
  0
LINE
  5
1D4
330
6B
100
AcDbEntity
  8
0
 62
     3
100
AcDbLine
 10
938.659763
 20
718.4240070000003
 30
0.0
 11
827.356321
 21
718.4240070000003
 31
0.0
  0
LINE
  5
1D5
330
6B
100
AcDbEntity
  8
0
 62
     3
100
AcDbLine
 10
925.9604000000003
 20
695.424007
 30
0.0
 11
925.9604000000003
 21
718.4240070000003
 31
0.0
  0
TEXT
  5
1D6
330
6B
100
AcDbEntity
  8
0
 62
     3
100
AcDbText
 10
929.2842029999999
 20
714.7149419999997
 30
0.0
 40
1.8
  1
D
 41
0.666667
100
AcDbText
  0
TEXT
  5
1D7
330
6B
100
AcDbEntity
  8
0
 62
     3
100
AcDbText
 10
932.1008320000002
 20
714.7149419999997
 30
0.0
 40
1.8
  1
E
 41
0.666667
100
AcDbText
  0
TEXT
  5
1D8
330
6B
100
AcDbEntity
  8
0
 62
     3
100
AcDbText
 10
934.9174600000003
 20
714.7149419999997
 30
0.0
 40
1.8
  1
F
 41
0.666667
100
AcDbText
  0
TEXT
  5
1D9
330
6B
100
AcDbEntity
  8
0
 62
     3
100
AcDbText
 10
929.2842029999999
 20
710.722389
 30
0.0
 40
3.2
  1
製図
 41
1.076369
100
AcDbText
  0
LINE
  5
1DA
330
6B
100
AcDbEntity
  8
0
 62
     3
100
AcDbLine
 10
827.356321
 20
718.4240070000003
 30
0.0
 11
827.356321
 21
678.7582849999997
 31
0.0
  0
TEXT
  5
1DB
330
6B
100
AcDbEntity
  8
0
 62
     3
100
AcDbText
 10
828.732974
 20
679.0907499999997
 30
0.0
 40
5.0
  1
日動工業株式会社
 41
0.833333
100
AcDbText
  0
LINE
  5
1DC
330
6B
100
AcDbEntity
  8
0
 62
     3
100
AcDbLine
 10
870.2387250000002
 20
702.4240070000002
 30
0.0
 11
870.2387250000002
 21
678.7582849999997
 31
0.0
  0
LINE
  5
1DD
330
6B
100
AcDbEntity
  8
0
 62
     3
100
AcDbLine
 10
870.2387250000002
 20
683.591146
 30
0.0
 11
886.9604000000002
 21
683.591146
 31
0.0
  0
TEXT
  5
1DE
330
6B
100
AcDbEntity
  8
0
 62
     3
100
AcDbText
 10
870.8253270000001
 20
684.4075769999997
 30
0.0
 40
3.2
  1
出図コード
 41
0.8356860000000001
100
AcDbText
  0
LINE
  5
1E0
330
6B
100
AcDbEntity
  8
0
 62
     3
100
AcDbLine
 10
827.356321
 20
688.4240069999997
 30
0.0
 11
938.659763
 21
688.424007
 31
0.0
  0
LINE
  5
1E2
330
6B
100
AcDbEntity
  8
0
 62
     3
100
AcDbLine
 10
827.356321
 20
709.424007
 30
0.0
 11
938.659763
 21
709.424007
 31
0.0
  0
LINE
  5
1E8
330
6B
100
AcDbEntity
  8
0
 62
     3
100
AcDbLine
 10
827.356321
 20
702.4240070000002
 30
0.0
 11
886.9604000000002
 21
702.4240070000002
 31
0.0
  0
LINE
  5
1EE
330
6B
100
AcDbEntity
  8
0
 62
     3
100
AcDbLine
 10
827.356321
 20
695.424007
 30
0.0
 11
938.659763
 21
695.424007
 31
0.0
  0
TEXT
  5
1EF
330
6B
100
AcDbEntity
  8
0
 62
     3
100
AcDbText
 10
870.6927790000001
 20
679.360479
 30
0.0
 40
3.2
  1
ZK-A4Y
 41
0.8112849999999999
100
AcDbText
  0
LINE
  5
1F0
330
6B
100
AcDbEntity
  8
0
 62
     3
100
AcDbLine
 10
758.6597629999999
 20
955.7582850000001
 30
0.0
 11
758.6597629999999
 21
678.7582849999997
 31
0.0
  0
LINE
  5
1F1
330
6B
100
AcDbEntity
  8
0
 62
     3
100
AcDbLine
 10
938.659763
 20
678.7582849999997
 30
0.0
 11
938.659763
 21
955.7582850000001
 31
0.0
  0
LINE
  5
1F2
330
6B
100
AcDbEntity
  8
0
 62
     3
100
AcDbLine
 10
938.659763
 20
678.7582849999997
 30
0.0
 11
758.6597629999999
 21
678.7582849999997
 31
0.0
  0
TEXT
  5
1F7
330
6B
100
AcDbEntity
  8
0
 62
     3
100
AcDbText
 10
829.1737180000001
 20
714.593533
 30
0.0
 40
2.0
  1
CONPONENTS
 41
0.5331600000000001
100
AcDbText
  0
TEXT
  5
1F8
330
6B
100
AcDbEntity
  8
0
 62
     3
100
AcDbText
 10
828.8239910000001
 20
695.661356
 30
0.0
 40
3.0
  1
材
 41
0.833333
100
AcDbText
  0
TEXT
  5
1F9
330
6B
100
AcDbEntity
  8
0
 62
     3
100
AcDbText
 10
836.3596340000002
 20
695.661356
 30
0.0
 40
3.0
  1
質
 41
0.833333
100
AcDbText
  0
TEXT
  5
1FA
330
6B
100
AcDbEntity
  8
0
 62
     3
100
AcDbText
 10
828.9120620000003
 20
706.2858809999997
 30
0.0
 40
2.0
  1
MODEL
 41
1.031072999999999
100
AcDbText
  0
TEXT
  5
1FB
330
6B
100
AcDbEntity
  8
0
 62
     3
100
AcDbText
 10
828.8239910000001
 20
699.3436650000001
 30
0.0
 40
2.0
  1
MATERIAL
 41
0.659278
100
AcDbText
  0
TEXT
  5
1FC
330
6B
100
AcDbEntity
  8
0
 62
     3
100
AcDbText
 10
860.1312720000002
 20
695.661356
 30
0.0
 40
3.0
  1
備
 41
0.833333
100
AcDbText
  0
TEXT
  5
1FD
330
6B
100
AcDbEntity
  8
0
 62
     3
100
AcDbText
 10
866.8642730000001
 20
695.661356
 30
0.0
 40
3.0
  1
考
 41
0.833333
100
AcDbText
  0
TEXT
  5
1FE
330
6B
100
AcDbEntity
  8
0
 62
     3
100
AcDbText
 10
860.4922130842496
 20
699.3436650000001
 30
0.0
 40
2.0
  1
REMARKS
 41
0.675794
100
AcDbText
  0
TEXT
  5
1FF
330
6B
100
AcDbEntity
  8
0
 62
     3
100
AcDbText
 10
830.4137200000001
 20
692.4235440000001
 30
0.0
 40
2.0
  1
3AD
 41
1.42614
100
AcDbText
  0
TEXT
  5
200
330
6B
100
AcDbEntity
  8
0
 62
     3
100
AcDbText
 10
839.7247000000001
 20
692.589278
 30
0.0
 40
2.0
  1
ANGLE
 41
1.669883999999996
100
AcDbText
  0
TEXT
  5
201
330
6B
100
AcDbEntity
  8
0
 62
     3
100
AcDbText
 10
860.6585870000001
 20
692.212437
 30
0.0
 40
2.0
  1
SCALE
 41
0.7719630000000001
100
AcDbText
  0
TEXT
  5
202
330
6B
100
AcDbEntity
  8
0
 62
     3
100
AcDbText
 10
830.0998500000002
 20
688.424007
 30
0.0
 40
3.0
  1
第
 41
0.833333
100
AcDbText
  0
TEXT
  5
203
330
6B
100
AcDbEntity
  8
0
 62
     3
100
AcDbText
 10
837.8867000000001
 20
688.424007
 30
0.0
 40
3.0
  1
三
 41
0.833333
100
AcDbText
  0
TEXT
  5
204
330
6B
100
AcDbEntity
  8
0
 62
     3
100
AcDbText
 10
845.6735500000004
 20
688.424007
 30
0.0
 40
3.0
  1
角
 41
0.833333
100
AcDbText
  0
TEXT
  5
205
330
6B
100
AcDbEntity
  8
0
 62
     3
100
AcDbText
 10
853.4604000000003
 20
688.424007
 30
0.0
 40
3.0
  1
法
 41
0.833333
100
AcDbText
  0
TEXT
  5
206
330
6B
100
AcDbEntity
  8
0
 62
     3
100
AcDbText
 10
860.5217920000002
 20
688.712437
 30
0.0
 40
3.0
  1
尺
 41
0.833333
100
AcDbText
  0
TEXT
  5
207
330
6B
100
AcDbEntity
  8
0
 62
     3
100
AcDbText
 10
867.2547940000001
 20
688.712437
 30
0.0
 40
3.0
  1
度
 41
0.833333
100
AcDbText
  0
TEXT
  5
208
330
6B
100
AcDbEntity
  8
0
 62
     3
100
AcDbText
 10
889.838064
 20
710.881736
 30
0.0
 40
3.0
  1
承認
 41
1.089472999999999
100
AcDbText
  0
TEXT
  5
209
330
6B
100
AcDbEntity
  8
0
 62
     3
100
AcDbText
 10
903.0809440000002
 20
710.824007
 30
0.0
 40
3.0
  1
検図
 41
0.931761
100
AcDbText
  0
TEXT
  5
20A
330
6B
100
AcDbEntity
  8
0
 62
     3
100
AcDbText
 10
916.0813410000002
 20
710.824007
 30
0.0
 40
3.0
  1
設
 41
0.833333
100
AcDbText
  0
TEXT
  5
20B
330
6B
100
AcDbEntity
  8
0
 62
     3
100
AcDbText
 10
920.5712090000004
 20
710.824007
 30
0.0
 40
3.0
  1
計
 41
0.833333
100
AcDbText
  0
TEXT
  5
20C
330
6B
100
AcDbEntity
  8
0
 62
     3
100
AcDbText
 10
829.1051900000002
 20
710.1127639999997
 30
0.0
 40
3.0
  1
品
 41
0.833333
100
AcDbText
  0
TEXT
  5
20D
330
6B
100
AcDbEntity
  8
0
 62
     3
100
AcDbText
 10
836.6408320000001
 20
710.1127639999997
 30
0.0
 40
3.0
  1
名
 41
0.833333
100
AcDbText
  0
TEXT
  5
20E
330
6B
100
AcDbEntity
  8
0
 62
     3
100
AcDbText
 10
828.9120620000003
 20
702.653621
 30
0.0
 40
3.0
  1
型
 41
0.833333
100
AcDbText
  0
TEXT
  5
20F
330
6B
100
AcDbEntity
  8
0
 62
     3
100
AcDbText
 10
836.4601520000004
 20
702.653621
 30
0.0
 40
3.0
  1
式
 41
0.833333
100
AcDbText
  0
TEXT
  5
219
330
6B
100
AcDbEntity
  8
0
 62
     3
100
AcDbText
 10
873.1070840000002
 20
695.977057
 30
0.0
 40
3.2
  1
交換球
  7
高3.2
100
AcDbText
  0
LINE
  5
21A
330
6B
100
AcDbEntity
  8
0
 62
     3
100
AcDbLine
 10
874.454542831506
 20
786.871782
 30
0.0
 11
874.454542831506
 21
737.871782
 31
0.0
  0
LINE
  5
21B
330
6B
100
AcDbEntity
  8
0
 62
     3
100
AcDbLine
 10
874.454542831506
 20
786.871782
 30
0.0
 11
926.466840271661
 21
786.871782
 31
0.0
  0
LINE
  5
21C
330
6B
100
AcDbEntity
  8
0
 62
     3
100
AcDbLine
 10
874.454542831506
 20
737.871782
 30
0.0
 11
926.466840271661
 21
737.871782
 31
0.0
  0
TEXT
  5
21D
330
6B
100
AcDbEntity
  8
0
 62
     3
100
AcDbText
 10
881.4525645096955
 20
788.9358921949274
 30
0.0
 40
4.5
  1
主　　　仕　　　様
 41
0.8
  7
高4.5
100
AcDbText
  0
TEXT
  5
21E
330
6B
100
AcDbEntity
  8
0
 62
     3
100
AcDbText
 10
875.9545428315059
 20
780.3717820000001
 30
0.0
 40
4.5
  1
型　　式
 41
0.8
  7
高4.5
100
AcDbText
  0
TEXT
  5
21F
330
6B
100
AcDbEntity
  8
0
 62
     3
100
AcDbText
 10
875.9545428315059
 20
773.371782
 30
0.0
 40
4.5
  1
定格電圧
 41
0.8
  7
高4.5
100
AcDbText
  0
TEXT
  5
220
330
6B
100
AcDbEntity
  8
0
 62
     3
100
AcDbText
 10
875.9545428315059
 20
766.371782
 30
0.0
 40
4.5
  1
消費電力
 41
0.8
  7
高4.5
100
AcDbText
  0
TEXT
  5
221
330
6B
100
AcDbEntity
  8
0
 62
     3
100
AcDbText
 10
875.9545428315059
 20
759.3717820000001
 30
0.0
 40
4.5
  1
定格光束
 41
0.8
  7
高4.5
100
AcDbText
  0
TEXT
  5
222
330
6B
100
AcDbEntity
  8
0
 62
     3
100
AcDbText
 10
875.9545428315059
 20
752.371782
 30
0.0
 40
4.5
  1
寿　　命
 41
0.8
  7
高4.5
100
AcDbText
  0
TEXT
  5
223
330
6B
100
AcDbEntity
  8
0
 62
     3
100
AcDbText
 10
875.9545428315059
 20
745.371782
 30
0.0
 40
4.5
  1
口　　金
 41
0.8
  7
高4.5
100
AcDbText
  0
TEXT
  5
224
330
6B
100
AcDbEntity
  8
0
 62
     3
100
AcDbText
 10
875.9545428315059
 20
738.3717820000001
 30
0.0
 40
4.5
  1
質　　量
 41
0.8
  7
高4.5
100
AcDbText
  0
LINE
  5
225
330
6B
100
AcDbEntity
  8
0
 62
     3
100
AcDbLine
 10
926.466840271661
 20
737.871782
 30
0.0
 11
926.466840271661
 21
786.871782
 31
0.0
  0
LINE
  5
226
330
6B
100
AcDbEntity
  8
0
 62
     7
100
AcDbLine
 10
874.454542831506
 20
779.8717820000002
 30
0.0
 11
926.466840271661
 21
779.8717820000002
 31
0.0
  0
LINE
  5
227
330
6B
100
AcDbEntity
  8
0
 62
     7
100
AcDbLine
 10
874.454542831506
 20
772.871782
 30
0.0
 11
926.466840271661
 21
772.871782
 31
0.0
  0
LINE
  5
228
330
6B
100
AcDbEntity
  8
0
 62
     7
100
AcDbLine
 10
874.454542831506
 20
765.871782
 30
0.0
 11
926.466840271661
 21
765.871782
 31
0.0
  0
LINE
  5
229
330
6B
100
AcDbEntity
  8
0
 62
     7
100
AcDbLine
 10
874.454542831506
 20
758.871782
 30
0.0
 11
926.466840271661
 21
758.871782
 31
0.0
  0
LINE
  5
22A
330
6B
100
AcDbEntity
  8
0
 62
     7
100
AcDbLine
 10
874.454542831506
 20
751.871782
 30
0.0
 11
926.466840271661
 21
751.871782
 31
0.0
  0
LINE
  5
22B
330
6B
100
AcDbEntity
  8
0
 62
     7
100
AcDbLine
 10
874.454542831506
 20
744.871782
 30
0.0
 11
926.466840271661
 21
744.871782
 31
0.0
  0
LINE
  5
22C
330
6B
100
AcDbEntity
  8
0
 62
     7
100
AcDbLine
 10
897.692101831506
 20
786.378012
 30
0.0
 11
897.692101831506
 21
737.871782
 31
0.0
  0
LINE
  5
22D
330
6B
100
AcDbEntity
  8
0
 62
     7
100
AcDbLine
 10
881.4467369999999
 20
788.3257639999997
 30
0.0
 11
921.4467369999999
 21
788.3257639999997
 31
0.0
  0
LINE
  5
22E
330
6B
100
AcDbEntity
  8
0
 62
     3
100
AcDbLine
 10
912.9604000000002
 20
718.4240070000003
 30
0.0
 11
912.9604000000002
 21
724.424007
 31
0.0
  0
LINE
  5
22F
330
6B
100
AcDbEntity
  8
0
 62
     3
100
AcDbLine
 10
886.9604000000002
 20
718.4240070000003
 30
0.0
 11
886.9604000000002
 21
724.424007
 31
0.0
  0
LINE
  5
230
330
6B
100
AcDbEntity
  8
0
 62
     3
100
AcDbLine
 10
938.6597640000003
 20
724.424007
 30
0.0
 11
886.9604000000002
 21
724.424007
 31
0.0
  0
TEXT
  5
231
330
6B
100
AcDbEntity
  8
0
 62
     3
100
AcDbText
 10
892.9559980000002
 20
719.2203559999996
 30
0.0
 40
4.5
  1
コード
  7
高4.5
100
AcDbText
  0
TEXT
  5
232
330
6B
100
AcDbEntity
  8
0
 62
     3
100
AcDbText
 10
899.1921018315059
 20
773.371782
 30
0.0
 40
4.5
  1
110V
 41
0.8
  7
高4.5
100
AcDbText
  0
TEXT
  5
239
330
6B
100
AcDbEntity
  8
0
 62
     3
100
AcDbText
 10
899.1921018315059
 20
766.371782
 30
0.0
 40
4.5
  1
88W
 41
0.8
  7
高4.5
100
AcDbText
  0
TEXT
  5
23A
330
6B
100
AcDbEntity
  8
0
 62
     3
100
AcDbText
 10
899.1921018315059
 20
759.3717820000001
 30
0.0
 40
4.5
  1
1360Lm
 41
0.8
  7
高4.5
100
AcDbText
  0
TEXT
  5
23B
330
6B
100
AcDbEntity
  8
0
 62
     3
100
AcDbText
 10
899.1921018315059
 20
752.371782
 30
0.0
 40
4.5
  1
約1200時間
 41
0.8
  7
高4.5
100
AcDbText
  0
TEXT
  5
23C
330
6B
100
AcDbEntity
  8
0
 62
     3
100
AcDbText
 10
899.1921018315059
 20
745.371782
 30
0.0
 40
4.5
  1
E26
 41
0.8
  7
高4.5
100
AcDbText
  0
TEXT
  5
23D
330
6B
100
AcDbEntity
  8
0
 62
     3
100
AcDbText
 10
903.5439489999999
 20
689.198424
 30
0.0
 40
3.2
  1
2008.09.05
  7
高3.2
100
AcDbText
  0
TEXT
  5
23E
330
6B
100
AcDbEntity
  8
0
 62
     3
100
AcDbText
 10
872.2253810000001
 20
689.312005
 30
0.0
 40
3.2
  1
1/1
  7
高3.2
100
AcDbText
  0
LINE
  5
23F
330
6B
100
AcDbEntity
  8
0
  6
DASHED
 62
     7
100
AcDbLine
 10
844.5169749999999
 20
829.2588160000004
 30
0.0
 11
844.5169749999999
 21
833.0519889999999
 31
0.0
  0
LINE
  5
240
330
6B
100
AcDbEntity
  8
0
  6
DASHED
 62
     7
100
AcDbLine
 10
852.016975
 20
834.0519889999999
 30
0.0
 11
837.016975
 21
834.0519889999999
 31
0.0
  0
LINE
  5
241
330
6B
100
AcDbEntity
  8
0
  6
DASHED
 62
     7
100
AcDbLine
 10
852.016975
 20
833.0519889999999
 30
0.0
 11
837.016975
 21
833.0519889999999
 31
0.0
  0
LINE
  5
242
330
6B
100
AcDbEntity
  8
0
  6
DASHED
 62
     7
100
AcDbLine
 10
852.016975
 20
834.0519889999999
 30
0.0
 11
852.016975
 21
833.0519889999999
 31
0.0
  0
LINE
  5
243
330
6B
100
AcDbEntity
  8
0
  6
DASHED
 62
     7
100
AcDbLine
 10
837.016975
 20
833.0519889999999
 30
0.0
 11
837.016975
 21
834.0519889999999
 31
0.0
  0
LINE
  5
244
330
6B
100
AcDbEntity
  8
0
  6
DASHED
 62
     7
100
AcDbLine
 10
837.158452
 20
858.7704030000001
 30
0.0
 11
851.875498
 21
858.7704030000001
 31
0.0
  0
LINE
  5
245
330
6B
100
AcDbEntity
  8
0
  6
DASHED
 62
     7
100
AcDbLine
 10
852.7264199999999
 20
863.5962220000001
 30
0.0
 11
847.867104
 21
836.0376690000002
 31
0.0
  0
LINE
  5
246
330
6B
100
AcDbEntity
  8
0
  6
DASHED
 62
     7
100
AcDbLine
 10
836.30753
 20
863.5962220000001
 30
0.0
 11
841.516975
 21
834.0519889999999
 31
0.0
  0
LINE
  5
247
330
6B
100
AcDbEntity
  8
0
  6
DASHED
 62
     7
100
AcDbLine
 10
853.7112279999996
 20
863.4225740000003
 30
0.0
 11
848.8519119999999
 21
835.8640210000002
 31
0.0
  0
LINE
  5
248
330
6B
100
AcDbEntity
  8
0
  6
DASHED
 62
     7
100
AcDbLine
 10
835.322722
 20
863.4225740000003
 30
0.0
 11
840.5015480000001
 21
834.0519889999999
 31
0.0
  0
LINE
  5
249
330
6B
100
AcDbEntity
  8
0
  6
DASHED
 62
     7
100
AcDbLine
 10
852.7264199999999
 20
863.5962220000001
 30
0.0
 11
853.7112279999996
 21
863.4225740000003
 31
0.0
  0
LINE
  5
24A
330
6B
100
AcDbEntity
  8
0
  6
DASHED
 62
     7
100
AcDbLine
 10
836.30753
 20
863.5962220000001
 30
0.0
 11
835.322722
 21
863.4225740000003
 31
0.0
  0
LINE
  5
24B
330
6B
100
AcDbEntity
  8
0
  6
DASHED
 62
     7
100
AcDbLine
 10
841.516975
 20
848.7704030000001
 30
0.0
 11
847.516975
 21
848.7704030000001
 31
0.0
  0
LINE
  5
24C
330
6B
100
AcDbEntity
  8
0
  6
DASHED
 62
     7
100
AcDbLine
 10
847.016975
 20
827.1065320000001
 30
0.0
 11
847.016975
 21
833.0519889999999
 31
0.0
  0
LINE
  5
24D
330
6B
100
AcDbEntity
  8
0
  6
DASHED
 62
     7
100
AcDbLine
 10
842.0169749999999
 20
830.5816430000001
 30
0.0
 11
842.0169749999999
 21
833.0519889999999
 31
0.0
  0
LINE
  5
24E
330
6B
100
AcDbEntity
  8
0
  6
DASHED
 62
     7
100
AcDbLine
 10
850.0315979999996
 20
826.9153349999999
 30
0.0
 11
850.029411
 21
826.9200240000001
 31
0.0
  0
ARC
  5
24F
330
6B
100
AcDbEntity
  8
0
  6
DASHED
 62
     7
100
AcDbCircle
 10
863.6240279999999
 20
833.2592980000004
 30
0.0
 40
15.0
100
AcDbArc
 50
170.0
 51
176.970732
  0
ARC
  5
250
330
6B
100
AcDbEntity
  8
0
  6
DASHED
 62
     7
100
AcDbCircle
 10
863.6240279999999
 20
833.2592980000004
 30
0.0
 40
16.0
100
AcDbArc
 50
170.0
 51
177.160222
  0
LINE
  5
25C
330
6B
100
AcDbEntity
  8
0
  6
DASHED
 62
     7
100
AcDbLine
 10
841.516975
 20
847.7704029999998
 30
0.0
 11
847.516975
 21
847.7704029999998
 31
0.0
  0
ARC
  5
25D
330
6B
100
AcDbEntity
  8
0
  6
DASHED
 62
     7
100
AcDbCircle
 10
847.516975
 20
848.2704030000002
 30
0.0
 40
0.5
100
AcDbArc
 50
270.0
 51
90.0
  0
ARC
  5
25E
330
6B
100
AcDbEntity
  8
0
  6
DASHED
 62
     7
100
AcDbCircle
 10
841.516975
 20
848.2704030000002
 30
0.0
 40
0.5
100
AcDbArc
 50
90.0
 51
270.0
  0
ARC
  5
25F
330
6B
100
AcDbEntity
  8
0
  6
DASHED
 62
     7
100
AcDbCircle
 10
863.6240279999999
 20
833.2592980000004
 30
0.0
 40
16.0
100
AcDbArc
 50
180.7423919999999
 51
204.366091
  0
ARC
  5
260
330
6B
100
AcDbEntity
  8
0
  6
DASHED
 62
     7
100
AcDbCircle
 10
863.6240279999999
 20
833.2592980000004
 30
0.0
 40
15.0
100
AcDbArc
 50
180.7918869999999
 51
205.0
  0
LINE
  5
261
330
6B
100
AcDbEntity
  8
0
  6
DASHED
 62
     7
100
AcDbLine
 10
840.6778749999999
 20
833.0519889999999
 30
0.0
 11
841.108958
 21
830.6071969999999
 31
0.0
  0
LINE
  5
262
330
6B
100
AcDbEntity
  8
0
  6
DASHED
 62
     7
100
AcDbLine
 10
841.6933019999996
 20
833.0519889999999
 30
0.0
 11
842.131999
 21
830.5640130000002
 31
0.0
  0
LINE
  5
263
330
6B
100
AcDbEntity
  8
0
  6
DASHED
 62
     7
100
AcDbLine
 10
847.016975
 20
834.0519889999999
 30
0.0
 11
847.016975
 21
847.7704029999998
 31
0.0
  0
LINE
  5
264
330
6B
100
AcDbEntity
  8
0
  6
DASHED
 62
     7
100
AcDbLine
 10
842.0169749999999
 20
834.0519889999999
 30
0.0
 11
842.0169749999999
 21
847.7704029999998
 31
0.0
  0
TEXT
  5
265
330
6B
100
AcDbEntity
  8
0
 62
     3
100
AcDbText
 10
899.1921018315059
 20
780.3717820000001
 30
0.0
 40
4.5
  1
WT-100
 41
0.8
  7
高4.5
100
AcDbText
  0
TEXT
  5
266
330
6B
100
AcDbEntity
  8
0
 62
     3
100
AcDbText
 10
899.1921018315059
 20
738.3717820000001
 30
0.0
 40
4.5
  1
52g
 41
0.8
  7
高4.5
100
AcDbText
  0
TEXT
  5
267
330
6B
100
AcDbEntity
  8
0
 62
     3
100
AcDbText
 10
846.0882160000004
 20
709.976424
 30
0.0
 40
4.5
  1
防雨耐震球
  7
高4.5
100
AcDbText
  0
TEXT
  5
268
330
6B
100
AcDbEntity
  8
0
 62
     3
100
AcDbText
 10
849.8570420000001
 20
703.0383780000001
 30
0.0
 40
4.5
  1
WT-100
  7
高4.5
100
AcDbText
  0
TEXT
  5
269
330
6B
100
AcDbEntity
  8
0
 62
     3
100
AcDbText
 10
889.3187610000001
 20
679.256211
 30
0.0
 40
6.299999999999998
  1
WT-100
  7
高6.3
100
AcDbText
  0
TEXT
  5
26A
330
6B
100
AcDbEntity
  8
0
 62
     3
100
AcDbText
 10
914.9475470000004
 20
719.068145
 30
0.0
 40
4.5
  1
8196
  7
高4.5
100
AcDbText
  0
LINE
  5
3F4
330
6B
100
AcDbEntity
  8
0
 62
     3
100
AcDbLine
 10
795.74411502
 20
957.5457291000001
 30
0.0
 11
796.1798629300001
 21
957.3182609599999
 31
0.0
  0
LINE
  5
3F5
330
6B
100
AcDbEntity
  8
0
 62
     3
100
AcDbLine
 10
795.74411502
 20
953.8150986199999
 30
0.0
 11
796.1798629300001
 21
954.04256676
 31
0.0
  0
LINE
  5
3F6
330
6B
100
AcDbEntity
  8
0
 62
     3
100
AcDbLine
 10
796.1798629300001
 20
957.3182609599999
 30
0.0
 11
796.1798629300001
 21
954.04256676
 31
0.0
  0
LINE
  5
3F7
330
6B
100
AcDbEntity
  8
0
 62
     3
100
AcDbLine
 10
797.28338035
 20
953.8150986199999
 30
0.0
 11
796.8476324399999
 21
954.04256676
 31
0.0
  0
LINE
  5
3F8
330
6B
100
AcDbEntity
  8
0
 62
     3
100
AcDbLine
 10
796.8476324399999
 20
956.03942557
 30
0.0
 11
796.8476324399999
 21
954.04256676
 31
0.0
  0
LINE
  5
3F9
330
6B
100
AcDbEntity
  8
0
 62
     3
100
AcDbLine
 10
799.82524313
 20
957.5457291000001
 30
0.0
 11
799.3894952199997
 21
957.3182609599999
 31
0.0
  0
LINE
  5
3FA
330
6B
100
AcDbEntity
  8
0
 62
     3
100
AcDbLine
 10
798.2859777999999
 20
957.5457291000001
 30
0.0
 11
798.7217257100001
 21
957.3182609599999
 31
0.0
  0
LINE
  5
3FB
330
6B
100
AcDbEntity
  8
0
 62
     3
100
AcDbLine
 10
798.7217257100001
 20
957.3182609599999
 30
0.0
 11
798.7217257100001
 21
955.8759239
 31
0.0
  0
LINE
  5
3FC
330
6B
100
AcDbEntity
  8
0
 62
     3
100
AcDbLine
 10
799.3894952199997
 20
957.3182609599999
 30
0.0
 11
799.3894952199997
 21
953.60353748
 31
0.0
  0
LINE
  5
3FD
330
6B
100
AcDbEntity
  8
0
 62
     3
100
AcDbLine
 10
800.0405403300003
 20
957.54572647
 30
0.0
 11
800.47628667
 21
957.3182553299997
 31
0.0
  0
LINE
  5
3FE
330
6B
100
AcDbEntity
  8
0
 62
     3
100
AcDbLine
 10
800.0404623599999
 20
953.8151486
 30
0.0
 11
800.47621821
 21
954.0426015199999
 31
0.0
  0
LINE
  5
3FF
330
6B
100
AcDbEntity
  8
0
 62
     3
100
AcDbLine
 10
800.47628667
 20
957.3182553299997
 30
0.0
 11
800.47628667
 21
954.0426015199999
 31
0.0
  0
LINE
  5
400
330
6B
100
AcDbEntity
  8
0
 62
     3
100
AcDbLine
 10
801.9700767300001
 20
957.5457027999997
 30
0.0
 11
801.5343256400001
 21
957.31824077
 31
0.0
  0
LINE
  5
401
330
6B
100
AcDbEntity
  8
0
 62
     3
100
AcDbLine
 10
801.5343256400001
 20
957.31824077
 30
0.0
 11
801.5343256400001
 21
954.0425869499996
 31
0.0
  0
LINE
  5
402
330
6B
100
AcDbEntity
  8
0
 62
     3
100
AcDbLine
 10
801.9700767300001
 20
953.8151249199996
 30
0.0
 11
801.5343256400001
 21
954.0425869499996
 31
0.0
  0
LINE
  5
403
330
6B
100
AcDbEntity
  8
0
 62
     3
100
AcDbLine
 10
805.6603301699999
 20
957.5456617999996
 30
0.0
 11
806.0960772899997
 21
957.3181921599999
 31
0.0
  0
LINE
  5
404
330
6B
100
AcDbEntity
  8
0
 62
     3
100
AcDbLine
 10
806.0960772899997
 20
957.3181921599999
 30
0.0
 11
806.09602012
 21
954.04253835
 31
0.0
  0
LINE
  5
405
330
6B
100
AcDbEntity
  8
0
 62
     3
100
AcDbLine
 10
805.66026506
 20
953.81508392
 30
0.0
 11
806.09602012
 21
954.04253835
 31
0.0
  0
LINE
  5
406
330
6B
100
AcDbEntity
  8
0
 62
     3
100
AcDbLine
 10
807.61259113
 20
957.5456617999996
 30
0.0
 11
807.1768440099997
 21
957.3181921599999
 31
0.0
  0
LINE
  5
407
330
6B
100
AcDbEntity
  8
0
 62
     3
100
AcDbLine
 10
807.61265624
 20
953.81508392
 30
0.0
 11
807.1769011799997
 21
954.04253835
 31
0.0
  0
LINE
  5
408
330
6B
100
AcDbEntity
  8
0
 62
     3
100
AcDbLine
 10
807.8163189900001
 20
957.5456617999996
 30
0.0
 11
808.2520661200003
 21
957.3181921599999
 31
0.0
  0
LINE
  5
409
330
6B
100
AcDbEntity
  8
0
 62
     3
100
AcDbLine
 10
807.8162538799999
 20
953.81508392
 30
0.0
 11
808.25200894
 21
954.04253835
 31
0.0
  0
LINE
  5
40A
330
6B
100
AcDbEntity
  8
0
 62
     3
100
AcDbLine
 10
809.7685799599997
 20
957.5456617999996
 30
0.0
 11
809.33283284
 21
957.3181921599999
 31
0.0
  0
LINE
  5
40B
330
6B
100
AcDbEntity
  8
0
 62
     3
100
AcDbLine
 10
809.33283284
 20
957.3181921599999
 30
0.0
 11
809.3328900100001
 21
954.04253835
 31
0.0
  0
LINE
  5
40C
330
6B
100
AcDbEntity
  8
0
 62
     3
100
AcDbLine
 10
809.7686450700001
 20
953.81508392
 30
0.0
 11
809.3328900100001
 21
954.04253835
 31
0.0
  0
LINE
  5
40D
330
6B
100
AcDbEntity
  8
0
 62
     3
100
AcDbLine
 10
808.25204121
 20
955.89105904
 30
0.0
 11
807.1768689199997
 21
955.89105904
 31
0.0
  0
LINE
  5
40E
330
6B
100
AcDbEntity
  8
0
 62
     3
100
AcDbLine
 10
808.2520338499998
 20
955.46976868
 30
0.0
 11
807.1768762699999
 21
955.46976868
 31
0.0
  0
LINE
  5
40F
330
6B
100
AcDbEntity
  8
0
 62
     3
100
AcDbLine
 10
808.2520661200003
 20
957.3181921599999
 30
0.0
 11
808.25204121
 21
955.89105904
 31
0.0
  0
LINE
  5
410
330
6B
100
AcDbEntity
  8
0
 62
     3
100
AcDbLine
 10
808.2520338499998
 20
955.46976868
 30
0.0
 11
808.25200894
 21
954.04253835
 31
0.0
  0
LINE
  5
411
330
6B
100
AcDbEntity
  8
0
 62
     3
100
AcDbLine
 10
807.1768440099997
 20
957.3181921599999
 30
0.0
 11
807.1768689199997
 21
955.89105904
 31
0.0
  0
LINE
  5
412
330
6B
100
AcDbEntity
  8
0
 62
     3
100
AcDbLine
 10
807.1768762699999
 20
955.46976868
 30
0.0
 11
807.1769011799997
 21
954.04253835
 31
0.0
  0
LINE
  5
413
330
6B
100
AcDbEntity
  8
0
 62
     3
100
AcDbLine
 10
809.97553908
 20
957.5456617999996
 30
0.0
 11
810.4112861999999
 21
957.3181921599999
 31
0.0
  0
LINE
  5
414
330
6B
100
AcDbEntity
  8
0
 62
     3
100
AcDbLine
 10
810.4112861999999
 20
957.3181921599999
 30
0.0
 11
810.4112290299998
 21
954.04253835
 31
0.0
  0
LINE
  5
415
330
6B
100
AcDbEntity
  8
0
 62
     3
100
AcDbLine
 10
809.9754739699998
 20
953.81508392
 30
0.0
 11
810.4112290299998
 21
954.04253835
 31
0.0
  0
LINE
  5
416
330
6B
100
AcDbEntity
  8
0
 62
     3
100
AcDbLine
 10
811.9050493499999
 20
957.5456617999996
 30
0.0
 11
811.46930223
 21
957.3181921599999
 31
0.0
  0
LINE
  5
417
330
6B
100
AcDbEntity
  8
0
 62
     3
100
AcDbLine
 10
811.46930223
 20
957.3181921599999
 30
0.0
 11
811.4693593999996
 21
954.04253835
 31
0.0
  0
LINE
  5
418
330
6B
100
AcDbEntity
  8
0
 62
     3
100
AcDbLine
 10
811.90511446
 20
953.81508392
 30
0.0
 11
811.4693593999996
 21
954.04253835
 31
0.0
  0
LINE
  5
419
330
6B
100
AcDbEntity
  8
0
 62
     3
100
AcDbLine
 10
812.1194089200001
 20
957.5456617999996
 30
0.0
 11
812.5551560399996
 21
957.3181921599999
 31
0.0
  0
LINE
  5
41A
330
6B
100
AcDbEntity
  8
0
 62
     3
100
AcDbLine
 10
812.5551560399996
 20
957.3181921599999
 30
0.0
 11
812.5550988699997
 21
954.04253835
 31
0.0
  0
LINE
  5
41B
330
6B
100
AcDbEntity
  8
0
 62
     3
100
AcDbLine
 10
812.1193438099997
 20
953.81508392
 30
0.0
 11
812.5550988699997
 21
954.04253835
 31
0.0
  0
ARC
  5
41C
330
6B
100
AcDbEntity
  8
0
 62
     3
100
AcDbCircle
 10
804.2684188999997
 20
955.6898036199999
 30
0.0
 40
2.086285909999999
100
AcDbArc
 50
97.70152350999723
 51
270.0
  0
ARC
  5
41D
330
6B
100
AcDbEntity
  8
0
 62
     3
100
AcDbCircle
 10
817.1490197399997
 20
955.66884699
 30
0.0
 40
2.108943379999999
100
AcDbArc
 50
0.3142502700074235
 51
69.00558244998835
  0
ARC
  5
41E
330
6B
100
AcDbEntity
  8
0
 62
     3
100
AcDbCircle
 10
817.6096950599996
 20
955.66884699
 30
0.0
 40
2.108943379999999
100
AcDbArc
 50
110.9944175499969
 51
148.1166110200025
  0
ARC
  5
41F
330
6B
100
AcDbEntity
  8
0
 62
     3
100
AcDbCircle
 10
817.1490197399997
 20
955.6919807299999
 30
0.0
 40
2.108943379999999
100
AcDbArc
 50
290.9944175499969
 51
359.6857497299926
  0
ARC
  5
420
330
6B
100
AcDbEntity
  8
0
 62
     3
100
AcDbCircle
 10
817.6096950599996
 20
955.6919807299999
 30
0.0
 40
2.108943379999999
100
AcDbArc
 50
211.8833889799973
 51
249.0055824499884
  0
ARC
  5
421
330
6B
100
AcDbEntity
  8
0
 62
     3
100
AcDbCircle
 10
817.3793574000001
 20
956.5432192499999
 30
0.0
 40
1.214070989999997
100
AcDbArc
 50
64.36517190000066
 51
115.6348280999993
  0
ARC
  5
422
330
6B
100
AcDbEntity
  8
0
 62
     3
100
AcDbCircle
 10
817.3793574000001
 20
954.8176084699999
 30
0.0
 40
1.214070989999997
100
AcDbArc
 50
244.3651719000007
 51
295.6348280999993
  0
ARC
  5
423
330
6B
100
AcDbEntity
  8
0
 62
     3
100
AcDbCircle
 10
817.3793574000001
 20
956.5662809299999
 30
0.0
 40
0.59585563
100
AcDbArc
 50
19.48660554000642
 51
160.5133944599935
  0
ARC
  5
424
330
6B
100
AcDbEntity
  8
0
 62
     3
100
AcDbCircle
 10
817.3793574000001
 20
954.8176084699999
 30
0.0
 40
1.214070989999997
100
AcDbArc
 50
244.3651719000007
 51
295.6348280999993
  0
ARC
  5
425
330
6B
100
AcDbEntity
  8
0
 62
     3
100
AcDbCircle
 10
817.3793574000001
 20
954.7945467899999
 30
0.0
 40
0.59585563
100
AcDbArc
 50
199.4866055400056
 51
340.5133944599935
  0
ARC
  5
426
330
6B
100
AcDbEntity
  8
0
 62
     3
100
AcDbCircle
 10
812.6368848999996
 20
933.4523540200001
 30
0.0
 40
26.04
100
AcDbArc
 50
69.50571480000848
 51
81.68998806999741
  0
ARC
  5
427
330
6B
100
AcDbEntity
  8
0
 62
     3
100
AcDbCircle
 10
812.6368848999996
 20
977.9084736999999
 30
0.0
 40
26.04
100
AcDbArc
 50
278.3100119300026
 51
290.4942851999915
  0
ARC
  5
428
330
6B
100
AcDbEntity
  8
0
 62
     3
100
AcDbCircle
 10
820.9450890299999
 20
955.6804138599996
 30
0.0
 40
2.31
100
AcDbArc
 50
290.4942851999915
 51
69.50571480000848
  0
ARC
  5
429
330
6B
100
AcDbEntity
  8
0
 62
     3
100
AcDbCircle
 10
793.64508903
 20
955.6804138599996
 30
0.0
 40
2.31
100
AcDbArc
 50
110.4942851999915
 51
249.5057147999946
  0
ARC
  5
42A
330
6B
100
AcDbEntity
  8
0
 62
     3
100
AcDbCircle
 10
801.95329315
 20
933.4523540200001
 30
0.0
 40
26.04
100
AcDbArc
 50
98.31001192998948
 51
110.4942851999915
  0
ARC
  5
42B
330
6B
100
AcDbEntity
  8
0
 62
     3
100
AcDbCircle
 10
801.95329315
 20
977.9084736999999
 30
0.0
 40
26.04
100
AcDbArc
 50
249.5057147999946
 51
261.6899880699974
  0
ARC
  5
42C
330
6B
100
AcDbEntity
  8
0
 62
     3
100
AcDbCircle
 10
807.2950890299999
 20
896.8804138599999
 30
0.0
 40
62.99999987
100
AcDbArc
 50
81.68998806999741
 51
98.31001192998948
  0
ARC
  5
42D
330
6B
100
AcDbEntity
  8
0
 62
     3
100
AcDbCircle
 10
807.2950890299999
 20
1014.48041386
 30
0.0
 40
62.99999987
100
AcDbArc
 50
261.6899880699974
 51
278.3100119300026
  0
ARC
  5
42E
330
6B
100
AcDbEntity
  8
0
 62
     3
100
AcDbCircle
 10
807.2950890299999
 20
896.8804138599999
 30
0.0
 40
62.36999987
100
AcDbArc
 50
81.68998806999741
 51
98.31001192998948
  0
ARC
  5
42F
330
6B
100
AcDbEntity
  8
0
 62
     3
100
AcDbCircle
 10
807.2950890299999
 20
1014.48041386
 30
0.0
 40
62.36999987
100
AcDbArc
 50
261.6899880699974
 51
278.3100119300026
  0
ARC
  5
430
330
6B
100
AcDbEntity
  8
0
 62
     3
100
AcDbCircle
 10
812.6368848999996
 20
977.9084736999999
 30
0.0
 40
25.41
100
AcDbArc
 50
278.3100119300026
 51
290.4942851999915
  0
ARC
  5
431
330
6B
100
AcDbEntity
  8
0
 62
     3
100
AcDbCircle
 10
812.6368848999996
 20
933.4523540200001
 30
0.0
 40
25.41
100
AcDbArc
 50
69.50571480000848
 51
81.68998806999741
  0
ARC
  5
432
330
6B
100
AcDbEntity
  8
0
 62
     3
100
AcDbCircle
 10
820.9450890299999
 20
955.6804138599996
 30
0.0
 40
1.679999999999999
100
AcDbArc
 50
290.4942851999915
 51
69.50571480000848
  0
ARC
  5
433
330
6B
100
AcDbEntity
  8
0
 62
     3
100
AcDbCircle
 10
793.64508903
 20
955.6804138599996
 30
0.0
 40
1.679999999999999
100
AcDbArc
 50
110.4942851999915
 51
249.5057147999946
  0
ARC
  5
434
330
6B
100
AcDbEntity
  8
0
 62
     3
100
AcDbCircle
 10
801.95329315
 20
933.4523540200001
 30
0.0
 40
25.41
100
AcDbArc
 50
98.31001192998948
 51
110.4942851999915
  0
ARC
  5
435
330
6B
100
AcDbEntity
  8
0
 62
     3
100
AcDbCircle
 10
801.95329315
 20
977.9084736999999
 30
0.0
 40
25.41
100
AcDbArc
 50
249.5057147999946
 51
261.6899880699974
  0
LINE
  5
436
330
6B
100
AcDbEntity
  8
0
 62
     3
100
AcDbLine
 10
811.90505013
 20
953.60353748
 30
0.0
 11
809.9755382999997
 21
953.60353748
 31
0.0
  0
LINE
  5
437
330
6B
100
AcDbEntity
  8
0
 62
     3
100
AcDbLine
 10
811.90505013
 20
953.8150986199999
 30
0.0
 11
811.90505013
 21
953.60353748
 31
0.0
  0
LINE
  5
438
330
6B
100
AcDbEntity
  8
0
 62
     3
100
AcDbLine
 10
809.7685807400001
 20
957.75719152
 30
0.0
 11
807.8163182099999
 21
957.75719152
 31
0.0
  0
LINE
  5
439
330
6B
100
AcDbEntity
  8
0
 62
     3
100
AcDbLine
 10
809.7685807400001
 20
957.75719152
 30
0.0
 11
809.7685807400001
 21
957.5457291000001
 31
0.0
  0
LINE
  5
43A
330
6B
100
AcDbEntity
  8
0
 62
     3
100
AcDbLine
 10
809.7685807400001
 20
953.8150986199999
 30
0.0
 11
809.7685807400001
 21
953.60343877
 31
0.0
  0
LINE
  5
43B
330
6B
100
AcDbEntity
  8
0
 62
     3
100
AcDbLine
 10
809.7685807400001
 20
953.60343877
 30
0.0
 11
807.8163182099999
 21
953.60343877
 31
0.0
  0
LINE
  5
43C
330
6B
100
AcDbEntity
  8
0
 62
     3
100
AcDbLine
 10
811.90505013
 20
957.75729024
 30
0.0
 11
811.90505013
 21
957.5457291000001
 31
0.0
  0
LINE
  5
43D
330
6B
100
AcDbEntity
  8
0
 62
     3
100
AcDbLine
 10
811.90505013
 20
957.75729024
 30
0.0
 11
809.9755382999997
 21
957.75729024
 31
0.0
  0
LINE
  5
43E
330
6B
100
AcDbEntity
  8
0
 62
     3
100
AcDbLine
 10
809.9755382999997
 20
957.75729024
 30
0.0
 11
809.9755382999997
 21
957.5457291000001
 31
0.0
  0
LINE
  5
43F
330
6B
100
AcDbEntity
  8
0
 62
     3
100
AcDbLine
 10
812.11940813
 20
953.8150986199999
 30
0.0
 11
812.11940813
 21
953.60353748
 31
0.0
  0
LINE
  5
440
330
6B
100
AcDbEntity
  8
0
 62
     3
100
AcDbLine
 10
814.1037086899999
 20
953.60353748
 30
0.0
 11
812.11940813
 21
953.60353748
 31
0.0
  0
LINE
  5
441
330
6B
100
AcDbEntity
  8
0
 62
     3
100
AcDbLine
 10
813.6131720600001
 20
957.0895207199999
 30
0.0
 11
813.6131720600001
 21
954.2713069999999
 31
0.0
  0
LINE
  5
442
330
6B
100
AcDbEntity
  8
0
 62
     3
100
AcDbLine
 10
813.6131720600001
 20
954.2713069999999
 30
0.0
 11
813.80322103
 21
954.2713069999999
 31
0.0
  0
ARC
  5
443
330
6B
100
AcDbEntity
  8
0
 62
     3
100
AcDbCircle
 10
812.83143529
 20
955.6804138599996
 30
0.0
 40
1.71170957
100
AcDbArc
 50
304.5919552700034
 51
55.40804472999656
  0
LINE
  5
444
330
6B
100
AcDbEntity
  8
0
 62
     3
100
AcDbLine
 10
814.1037086899999
 20
957.75729024
 30
0.0
 11
812.11940813
 21
957.75729024
 31
0.0
  0
LINE
  5
445
330
6B
100
AcDbEntity
  8
0
 62
     3
100
AcDbLine
 10
812.11940813
 20
957.75729024
 30
0.0
 11
812.11940813
 21
957.5457291000001
 31
0.0
  0
LINE
  5
446
330
6B
100
AcDbEntity
  8
0
 62
     3
100
AcDbLine
 10
809.9755382999997
 20
953.8150986199999
 30
0.0
 11
809.9755382999997
 21
953.60353748
 31
0.0
  0
LINE
  5
447
330
6B
100
AcDbEntity
  8
0
 62
     3
100
AcDbLine
 10
813.6131720600001
 20
957.0895207199999
 30
0.0
 11
813.80322103
 21
957.0895207199999
 31
0.0
  0
LINE
  5
448
330
6B
100
AcDbEntity
  8
0
 62
     3
100
AcDbLine
 10
801.9700124000001
 20
953.8150986199999
 30
0.0
 11
801.97000871
 21
953.6035177100004
 31
0.0
  0
LINE
  5
449
330
6B
100
AcDbEntity
  8
0
 62
     3
100
AcDbLine
 10
800.0404968699998
 20
953.6035572499999
 30
0.0
 11
801.97000871
 21
953.6035235799996
 31
0.0
  0
LINE
  5
44A
330
6B
100
AcDbEntity
  8
0
 62
     3
100
AcDbLine
 10
795.74411502
 20
953.60353748
 30
0.0
 11
797.28338035
 21
953.60353748
 31
0.0
  0
ARC
  5
44B
330
6B
100
AcDbEntity
  8
0
 62
     3
100
AcDbCircle
 10
790.76217234
 20
955.72932048
 30
0.0
 40
14.71356563
100
AcDbArc
 50
353.8660061899952
 51
357.6940342600066
  0
LINE
  5
44C
330
6B
100
AcDbEntity
  8
0
 62
     3
100
AcDbLine
 10
804.4787522000001
 20
955.1409528299997
 30
0.0
 11
805.46382309
 21
955.1373079500001
 31
0.0
  0
LINE
  5
44E
330
6B
100
AcDbEntity
  8
0
 62
     3
100
AcDbLine
 10
804.48273062
 20
956.21616757
 30
0.0
 11
805.4678015
 21
956.2125227000001
 31
0.0
  0
ARC
  5
44F
330
6B
100
AcDbEntity
  8
0
 62
     3
100
AcDbCircle
 10
790.76217234
 20
955.72932048
 30
0.0
 40
14.71356563
100
AcDbArc
 50
1.881965739991514
 51
5.709993809994633
  0
LINE
  5
450
330
6B
100
AcDbEntity
  8
0
 62
     3
100
AcDbLine
 10
801.9700812000001
 20
957.7572704699999
 30
0.0
 11
801.97007751
 21
957.5457291000001
 31
0.0
  0
LINE
  5
451
330
6B
100
AcDbEntity
  8
0
 62
     3
100
AcDbLine
 10
800.0405693699999
 20
957.75731001
 30
0.0
 11
801.9700812000001
 21
957.7572763299999
 31
0.0
  0
LINE
  5
452
330
6B
100
AcDbEntity
  8
0
 62
     3
100
AcDbLine
 10
800.0405005600001
 20
953.8150986199999
 30
0.0
 11
800.0404968699998
 21
953.6035572499999
 31
0.0
  0
LINE
  5
453
330
6B
100
AcDbEntity
  8
0
 62
     3
100
AcDbLine
 10
800.0405693699999
 20
957.75731001
 30
0.0
 11
800.0405656799996
 21
957.5457291000001
 31
0.0
  0
LINE
  5
454
330
6B
100
AcDbEntity
  8
0
 62
     3
100
AcDbLine
 10
797.28338035
 20
953.8150986199999
 30
0.0
 11
797.28338035
 21
953.60353748
 31
0.0
  0
LINE
  5
455
330
6B
100
AcDbEntity
  8
0
 62
     3
100
AcDbLine
 10
796.8476324399999
 20
956.03942557
 30
0.0
 11
798.3700625000001
 21
953.60353748
 31
0.0
  0
LINE
  5
456
330
6B
100
AcDbEntity
  8
0
 62
     3
100
AcDbLine
 10
798.3700625000001
 20
953.60353748
 30
0.0
 11
799.3894952199997
 21
953.60353748
 31
0.0
  0
LINE
  5
457
330
6B
100
AcDbEntity
  8
0
 62
     3
100
AcDbLine
 10
799.82524313
 20
957.75729024
 30
0.0
 11
799.82524313
 21
957.5457291000001
 31
0.0
  0
LINE
  5
458
330
6B
100
AcDbEntity
  8
0
 62
     3
100
AcDbLine
 10
798.2859777999999
 20
957.75729024
 30
0.0
 11
799.82524313
 21
957.75729024
 31
0.0
  0
LINE
  5
459
330
6B
100
AcDbEntity
  8
0
 62
     3
100
AcDbLine
 10
798.2859777999999
 20
957.75729024
 30
0.0
 11
798.2859777999999
 21
957.5457291000001
 31
0.0
  0
LINE
  5
45A
330
6B
100
AcDbEntity
  8
0
 62
     3
100
AcDbLine
 10
798.7217257100001
 20
955.8759239
 30
0.0
 11
797.48707904
 21
957.75729024
 31
0.0
  0
LINE
  5
45B
330
6B
100
AcDbEntity
  8
0
 62
     3
100
AcDbLine
 10
795.74411502
 20
957.75729024
 30
0.0
 11
797.48707904
 21
957.75729024
 31
0.0
  0
LINE
  5
45C
330
6B
100
AcDbEntity
  8
0
 62
     3
100
AcDbLine
 10
805.6603293799996
 20
957.75719152
 30
0.0
 11
807.6125919199999
 21
957.75719152
 31
0.0
  0
LINE
  5
45D
330
6B
100
AcDbEntity
  8
0
 62
     3
100
AcDbLine
 10
805.6603293799996
 20
957.5457291000001
 30
0.0
 11
805.6603293799996
 21
957.75719152
 31
0.0
  0
LINE
  5
45E
330
6B
100
AcDbEntity
  8
0
 62
     3
100
AcDbLine
 10
805.6603293799996
 20
953.60343877
 30
0.0
 11
805.6603293799996
 21
953.8150986199999
 31
0.0
  0
LINE
  5
45F
330
6B
100
AcDbEntity
  8
0
 62
     3
100
AcDbLine
 10
805.6603293799996
 20
953.60343877
 30
0.0
 11
807.6125919199999
 21
953.60343877
 31
0.0
  0
LINE
  5
460
330
6B
100
AcDbEntity
  8
0
 62
     3
100
AcDbLine
 10
807.8163182099999
 20
953.8150986199999
 30
0.0
 11
807.8163182099999
 21
953.60343877
 31
0.0
  0
LINE
  5
461
330
6B
100
AcDbEntity
  8
0
 62
     3
100
AcDbLine
 10
807.6125919199999
 20
953.8150986199999
 30
0.0
 11
807.6125919199999
 21
953.60343877
 31
0.0
  0
LINE
  5
462
330
6B
100
AcDbEntity
  8
0
 62
     3
100
AcDbLine
 10
807.6125919199999
 20
957.5457291000001
 30
0.0
 11
807.6125919199999
 21
957.75719152
 31
0.0
  0
LINE
  5
463
330
6B
100
AcDbEntity
  8
0
 62
     3
100
AcDbLine
 10
807.8163182099999
 20
957.5457291000001
 30
0.0
 11
807.8163182099999
 21
957.75719152
 31
0.0
  0
LINE
  5
464
330
6B
100
AcDbEntity
  8
0
 62
     3
100
AcDbLine
 10
795.74411502
 20
953.8150986199999
 30
0.0
 11
795.74411502
 21
953.60353748
 31
0.0
  0
LINE
  5
465
330
6B
100
AcDbEntity
  8
0
 62
     3
100
AcDbLine
 10
795.74411502
 20
957.75729024
 30
0.0
 11
795.74411502
 21
957.5457291000001
 31
0.0
  0
ARC
  5
466
330
6B
100
AcDbEntity
  8
0
 62
     3
100
AcDbCircle
 10
814.3137086900001
 20
956.1161617699998
 30
0.0
 40
1.641128469999999
100
AcDbArc
 50
17.30874897999775
 51
23.76507095999297
  0
ARC
  5
467
330
6B
100
AcDbEntity
  8
0
 62
     3
100
AcDbCircle
 10
812.91543529
 20
955.6804138599996
 30
0.0
 40
3.105725599999998
100
AcDbArc
 50
342.6912510200022
 51
17.30856643999277
  0
ARC
  5
468
330
6B
100
AcDbEntity
  8
0
 62
     3
100
AcDbCircle
 10
814.3137086900001
 20
955.2446659600001
 30
0.0
 40
1.641128469999999
100
AcDbArc
 50
336.2349290400072
 51
342.6912510200022
  0
ARC
  5
469
330
6B
100
AcDbEntity
  8
0
 62
     3
100
AcDbCircle
 10
814.1037086899999
 20
956.1161617699998
 30
0.0
 40
1.641128469999999
100
AcDbArc
 50
17.30874897999775
 51
90.0
  0
ARC
  5
46A
330
6B
100
AcDbEntity
  8
0
 62
     3
100
AcDbCircle
 10
812.70543529
 20
955.6804138599996
 30
0.0
 40
3.105725599999998
100
AcDbArc
 50
342.6912510200022
 51
17.30856643999277
  0
ARC
  5
46B
330
6B
100
AcDbEntity
  8
0
 62
     3
100
AcDbCircle
 10
814.1037086899999
 20
955.2446659600001
 30
0.0
 40
1.641128469999999
100
AcDbArc
 50
270.0
 51
342.6912510200022
  0
ARC
  5
46C
330
6B
100
AcDbEntity
  8
0
 62
     3
100
AcDbCircle
 10
803.9797683199997
 20
955.6804138599996
 30
0.0
 40
2.076876379999998
100
AcDbArc
 50
46.75287960999258
 51
89.74999828999569
  0
ARC
  5
46D
330
6B
100
AcDbEntity
  8
0
 62
     3
100
AcDbCircle
 10
803.9797683199997
 20
955.6804138599996
 30
0.0
 40
2.076876379999998
100
AcDbArc
 50
273.976333149997
 51
312.8231203899968
  0
ARC
  5
46E
330
6B
100
AcDbEntity
  8
0
 62
     3
100
AcDbCircle
 10
815.4215762599998
 20
955.64835233
 30
0.0
 40
2.755888999999998
100
AcDbArc
 50
0.6665840599916529
 51
23.90392827000101
  0
ARC
  5
46F
330
6B
100
AcDbEntity
  8
0
 62
     3
100
AcDbCircle
 10
819.3371385399997
 20
955.64835233
 30
0.0
 40
2.755888999999998
100
AcDbArc
 50
156.096071729999
 51
179.3334159400083
  0
ARC
  5
470
330
6B
100
AcDbEntity
  8
0
 62
     3
100
AcDbCircle
 10
815.4215762599998
 20
955.71247539
 30
0.0
 40
2.755888999999998
100
AcDbArc
 50
336.096071729999
 51
359.3334159400084
  0
ARC
  5
471
330
6B
100
AcDbEntity
  8
0
 62
     3
100
AcDbCircle
 10
819.3371385399997
 20
955.71247539
 30
0.0
 40
2.755888999999998
100
AcDbArc
 50
180.6665840599917
 51
203.903928270001
  0
LINE
  5
472
330
6B
100
AcDbEntity
  8
0
 62
     3
100
AcDbLine
 10
823.98742563
 20
955.7582850000001
 30
0.0
 11
938.659763
 21
955.7582850000001
 31
0.0
  0
LINE
  5
473
330
6B
100
AcDbEntity
  8
0
 62
     3
100
AcDbLine
 10
790.57467911
 20
955.7582850000001
 30
0.0
 11
758.6597629999999
 21
955.7582850000001
 31
0.0
  0
TEXT
  5
474
330
6B
100
AcDbEntity
  8
0
 62
     3
100
AcDbText
 10
926.159763
 20
946.258285
 30
0.0
 40
3.2
  1
担　当
  7
高3.2
100
AcDbText
  0
TEXT
  5
475
330
6B
100
AcDbEntity
  8
0
 62
     3
100
AcDbText
 10
882.1597630000001
 20
946.258285
 30
0.0
 40
3.2
  1
変更・追記内容
  7
高3.2
100
AcDbText
  0
TEXT
  5
476
330
6B
100
AcDbEntity
  8
0
 62
     3
100
AcDbText
 10
857.273278000339
 20
941.5877464900916
 30
0.0
 40
2.0
  1
1
  7
高2
100
AcDbText
  0
TEXT
  5
477
330
6B
100
AcDbEntity
  8
0
 62
     3
100
AcDbText
 10
856.9647665235818
 20
936.4179297778187
 30
0.0
 40
2.0
  1
2
  7
高2
100
AcDbText
  0
TEXT
  5
478
330
6B
100
AcDbEntity
  8
0
 62
     3
100
AcDbText
 10
864.1597630000001
 20
946.258285
 30
0.0
 40
3.2
  1
日　付
  7
高3.2
100
AcDbText
  0
TEXT
  5
479
330
6B
100
AcDbEntity
  8
0
 62
     3
100
AcDbText
 10
864.1597630000001
 20
951.2582849999999
 30
0.0
 40
3.2
  1
図　　　　面　　　　略　　　　歴
  7
高3.2
100
AcDbText
  0
TEXT
  5
47A
330
6B
100
AcDbEntity
  8
0
 62
     3
100
AcDbText
 10
854.1597630000001
 20
946.258285
 30
0.0
 40
3.2
  1
記号
  7
高3.2
100
AcDbText
  0
LINE
  5
47B
330
6B
100
AcDbEntity
  8
0
 62
     7
100
AcDbLine
 10
857.6597630000001
 20
939.5491810000002
 30
0.0
 11
855.7597630000001
 21
936.258285
 31
0.0
  0
LINE
  5
47C
330
6B
100
AcDbEntity
  8
0
 62
     7
100
AcDbLine
 10
857.6597630000001
 20
939.5491810000002
 30
0.0
 11
859.559763
 21
936.258285
 31
0.0
  0
LINE
  5
47D
330
6B
100
AcDbEntity
  8
0
 62
     7
100
AcDbLine
 10
855.7597630000001
 20
936.258285
 30
0.0
 11
859.559763
 21
936.258285
 31
0.0
  0
LINE
  5
47E
330
6B
100
AcDbEntity
  8
0
 62
     7
100
AcDbLine
 10
857.6597630000001
 20
944.5491819999999
 30
0.0
 11
855.7597630000001
 21
941.2582849999999
 31
0.0
  0
LINE
  5
47F
330
6B
100
AcDbEntity
  8
0
 62
     7
100
AcDbLine
 10
857.6597630000001
 20
944.5491819999999
 30
0.0
 11
859.559763
 21
941.2582849999999
 31
0.0
  0
LINE
  5
480
330
6B
100
AcDbEntity
  8
0
 62
     7
100
AcDbLine
 10
855.7597630000001
 20
941.2582849999999
 30
0.0
 11
859.559763
 21
941.2582849999999
 31
0.0
  0
LINE
  5
481
330
6B
100
AcDbEntity
  8
0
 62
     3
100
AcDbLine
 10
852.6597630000001
 20
950.758285
 30
0.0
 11
938.659763
 21
950.758285
 31
0.0
  0
LINE
  5
482
330
6B
100
AcDbEntity
  8
0
 62
     3
100
AcDbLine
 10
852.6597630000001
 20
945.7582849999999
 30
0.0
 11
938.659763
 21
945.7582849999999
 31
0.0
  0
LINE
  5
483
330
6B
100
AcDbEntity
  8
0
 62
     7
100
AcDbLine
 10
852.6597630000001
 20
940.758285
 30
0.0
 11
938.659763
 21
940.758285
 31
0.0
  0
LINE
  5
484
330
6B
100
AcDbEntity
  8
0
 62
     3
100
AcDbLine
 10
852.6597630000001
 20
935.758285
 30
0.0
 11
938.659763
 21
935.758285
 31
0.0
  0
LINE
  5
485
330
6B
100
AcDbEntity
  8
0
 62
     7
100
AcDbLine
 10
924.659763
 20
935.758285
 30
0.0
 11
924.659763
 21
950.758285
 31
0.0
  0
LINE
  5
486
330
6B
100
AcDbEntity
  8
0
 62
     7
100
AcDbLine
 10
880.659763
 20
935.758285
 30
0.0
 11
880.659763
 21
950.758285
 31
0.0
  0
LINE
  5
487
330
6B
100
AcDbEntity
  8
0
 62
     7
100
AcDbLine
 10
862.659763
 20
935.758285
 30
0.0
 11
862.659763
 21
950.758285
 31
0.0
  0
LINE
  5
488
330
6B
100
AcDbEntity
  8
0
 62
     3
100
AcDbLine
 10
852.6597630000001
 20
935.758285
 30
0.0
 11
852.6597630000001
 21
955.7582850000001
 31
0.0
  0
ARC
  5
706
330
6B
100
AcDbEntity
  8
0
 62
     3
100
AcDbCircle
 10
881.5169749999999
 20
825.1400595583996
 30
0.0
 40
20.0
100
AcDbArc
 50
137.7314155704275
 51
180.0
  0
ARC
  5
709
330
6B
100
AcDbEntity
  8
0
 62
     3
100
AcDbCircle
 10
807.516975
 20
825.1400595583996
 30
0.0
 40
20.0
100
AcDbArc
 50
0.0
 51
42.2685844295725
  0
LINE
  5
738
330
6B
100
AcDbEntity
  8
0
 62
     7
100
AcDbLine
 10
840.8503089999998
 20
781.4370699999998
 30
0.0
 11
848.1836419999998
 21
781.4370699999998
 31
0.0
  0
LINE
  5
739
330
6B
100
AcDbEntity
  8
0
 62
     7
100
AcDbLine
 10
840.8503089999998
 20
782.7704039999998
 30
0.0
 11
848.1836419999998
 21
782.7704039999998
 31
0.0
  0
LINE
  5
73A
330
6B
100
AcDbEntity
  8
0
 62
     7
100
AcDbLine
 10
852.8024440000002
 20
785.4370699999998
 30
0.0
 11
836.231506
 21
785.4370699999998
 31
0.0
  0
LINE
  5
73B
330
6B
100
AcDbEntity
  8
0
 62
     7
100
AcDbLine
 10
840.8503089999998
 20
782.7704039999998
 30
0.0
 11
840.8503089999998
 21
781.4370699999998
 31
0.0
  0
LINE
  5
73C
330
6B
100
AcDbEntity
  8
0
 62
     7
100
AcDbLine
 10
848.1836419999998
 20
782.7704039999998
 30
0.0
 11
848.1836419999998
 21
781.4370699999998
 31
0.0
  0
LINE
  5
73D
330
6B
100
AcDbEntity
  8
0
 62
     7
100
AcDbLine
 10
833.1836419999998
 20
799.341289
 30
0.0
 11
833.1836419999998
 21
798.017076
 31
0.0
  0
LINE
  5
73E
330
6B
100
AcDbEntity
  8
0
 62
     7
100
AcDbLine
 10
833.1836419999998
 20
795.3406249999998
 30
0.0
 11
833.1836419999998
 21
794.0170759999999
 31
0.0
  0
LINE
  5
73F
330
6B
100
AcDbEntity
  8
0
 62
     7
100
AcDbLine
 10
833.1836419999998
 20
791.3406249999998
 30
0.0
 11
833.1836419999998
 21
790.0170759999999
 31
0.0
  0
ARC
  5
740
330
6B
100
AcDbEntity
  8
0
 62
     7
100
AcDbCircle
 10
834.5169749999998
 20
787.9665559999996
 30
0.0
 40
1.333333
100
AcDbArc
 50
207.3771130000011
 51
239.9999999999999
  0
LINE
  5
741
330
6B
100
AcDbEntity
  8
0
 62
     7
100
AcDbLine
 10
855.850309
 20
801.356026
 30
0.0
 11
855.850309
 21
799.960569
 31
0.0
  0
LINE
  5
742
330
6B
100
AcDbEntity
  8
0
 62
     7
100
AcDbLine
 10
855.850309
 20
797.284118
 30
0.0
 11
855.850309
 21
795.960569
 31
0.0
  0
LINE
  5
743
330
6B
100
AcDbEntity
  8
0
 62
     7
100
AcDbLine
 10
855.850309
 20
793.284118
 30
0.0
 11
855.850309
 21
791.960569
 31
0.0
  0
LINE
  5
744
330
6B
100
AcDbEntity
  8
0
 62
     7
100
AcDbLine
 10
855.850309
 20
789.284118
 30
0.0
 11
855.850309
 21
787.9598909999996
 31
0.0
  0
ARC
  5
745
330
6B
100
AcDbEntity
  8
0
 62
     7
100
AcDbCircle
 10
854.5169749999999
 20
787.9665559999996
 30
0.0
 40
1.333333
100
AcDbArc
 50
300.0000000000001
 51
0.0
  0
ARC
  5
746
330
6B
100
AcDbEntity
  8
0
 62
     7
100
AcDbCircle
 10
844.5169749999999
 20
791.1870699999999
 30
0.0
 40
10.416667
100
AcDbArc
 50
249.3903069999971
 51
290.609693000003
  0
LINE
  5
747
330
6B
100
AcDbEntity
  8
0
 62
     7
100
AcDbLine
 10
848.1836419999998
 20
782.7704039999998
 30
0.0
 11
855.1836419999998
 21
786.811855
 31
0.0
  0
LINE
  5
748
330
6B
100
AcDbEntity
  8
0
 62
     7
100
AcDbLine
 10
840.8503089999998
 20
782.7704039999998
 30
0.0
 11
833.8503089999999
 21
786.811855
 31
0.0
  0
ARC
  5
749
330
6B
100
AcDbEntity
  8
0
 62
     7
100
AcDbCircle
 10
832.8563260000001
 20
788.6507859999997
 30
0.0
 40
1.333333
100
AcDbArc
 50
94.90068700000065
 51
274.9006870000006
  0
ARC
  5
74A
330
6B
100
AcDbEntity
  8
0
 62
     7
100
AcDbCircle
 10
832.8563260000001
 20
792.6507859999997
 30
0.0
 40
1.333333
100
AcDbArc
 50
94.90068700000065
 51
274.9006870000006
  0
ARC
  5
74B
330
6B
100
AcDbEntity
  8
0
 62
     7
100
AcDbCircle
 10
856.1820289999999
 20
790.6507859999996
 30
0.0
 40
1.333333
100
AcDbArc
 50
274.9006870000006
 51
94.90068700000065
  0
ARC
  5
74C
330
6B
100
AcDbEntity
  8
0
 62
     7
100
AcDbCircle
 10
856.1820289999999
 20
794.6507859999999
 30
0.0
 40
1.333333
100
AcDbArc
 50
274.9006870000006
 51
94.90068700000065
  0
ARC
  5
74D
330
6B
100
AcDbEntity
  8
0
 62
     7
100
AcDbCircle
 10
856.1820289999999
 20
798.6507859999999
 30
0.0
 40
1.333333
100
AcDbArc
 50
274.9006870000006
 51
94.90068700000065
  0
ARC
  5
74E
330
6B
100
AcDbEntity
  8
0
 62
     7
100
AcDbCircle
 10
856.1820289999999
 20
802.724101
 30
0.0
 40
1.333333
100
AcDbArc
 50
275.0794129999972
 51
0.0
  0
ARC
  5
74F
330
6B
100
AcDbEntity
  8
0
 62
     7
100
AcDbCircle
 10
832.8563260000001
 20
800.6507859999997
 30
0.0
 40
1.333333
100
AcDbArc
 50
180.0
 51
275.0794129999972
  0
ARC
  5
750
330
6B
100
AcDbEntity
  8
0
 62
     7
100
AcDbCircle
 10
832.8563260000001
 20
796.6507859999997
 30
0.0
 40
1.333333
100
AcDbArc
 50
94.90068700000065
 51
274.9006870000006
  0
LINE
  5
751
330
6B
100
AcDbEntity
  8
0
 62
     7
100
AcDbLine
 10
855.850309
 20
787.9598909999996
 30
0.0
 11
835.0622590000002
 21
786.1121349999996
 31
0.0
  0
LINE
  5
752
330
6B
100
AcDbEntity
  8
0
 62
     7
100
AcDbLine
 10
856.300077
 20
801.3960039999998
 30
0.0
 11
832.974375
 21
799.3226879999999
 31
0.0
  0
LINE
  5
753
330
6B
100
AcDbEntity
  8
0
 62
     7
100
AcDbLine
 10
856.0681229999998
 20
799.979245
 30
0.0
 11
832.7424210000001
 21
797.9792449999999
 31
0.0
  0
LINE
  5
754
330
6B
100
AcDbEntity
  8
0
 62
     7
100
AcDbLine
 10
856.2959339999997
 20
797.322327
 30
0.0
 11
832.9702319999997
 21
795.3223269999998
 31
0.0
  0
LINE
  5
755
330
6B
100
AcDbEntity
  8
0
 62
     7
100
AcDbLine
 10
856.0681229999998
 20
795.979245
 30
0.0
 11
832.7424210000001
 21
793.9792449999999
 31
0.0
  0
LINE
  5
756
330
6B
100
AcDbEntity
  8
0
 62
     7
100
AcDbLine
 10
856.2959339999997
 20
793.322327
 30
0.0
 11
832.9702319999997
 21
791.3223269999998
 31
0.0
  0
LINE
  5
757
330
6B
100
AcDbEntity
  8
0
 62
     7
100
AcDbLine
 10
856.0681229999998
 20
791.979245
 30
0.0
 11
832.7424210000001
 21
789.9792449999998
 31
0.0
  0
LINE
  5
758
330
6B
100
AcDbEntity
  8
0
 62
     7
100
AcDbLine
 10
856.2959339999997
 20
789.322327
 30
0.0
 11
832.9702319999997
 21
787.3223269999998
 31
0.0
  0
LINE
  5
759
330
6B
100
AcDbEntity
  8
0
  6
Continuous
 62
     3
100
AcDbLine
 10
831.522993
 20
807.270403
 30
0.0
 11
857.515362
 21
807.270403
 31
0.0
  0
LINE
  5
75A
330
6B
100
AcDbEntity
  8
0
  6
Continuous
100
AcDbLine
 10
857.515362
 20
802.724101
 30
0.0
 11
857.515362
 21
807.270403
 31
0.0
  0
LINE
  5
75B
330
6B
100
AcDbEntity
  8
0
  6
Continuous
100
AcDbLine
 10
831.522993
 20
800.6507859999997
 30
0.0
 11
831.522993
 21
807.270403
 31
0.0
  0
ELLIPSE
  5
75C
330
6B
100
AcDbEntity
  8
0
  6
Continuous
 62
     3
100
AcDbEllipse
 10
857.515362
 20
817.270403
 30
0.0
 11
0.0
 21
9.999999999999886
 31
0.0
210
0.0
220
0.0
230
1.0
 40
0.4001612999999952
 41
3.141592653589793
 42
4.712388980384689
  0
ELLIPSE
  5
75D
330
6B
100
AcDbEntity
  8
0
  6
Continuous
 62
     3
100
AcDbEllipse
 10
831.522993
 20
817.270403
 30
0.0
 11
0.0
 21
-9.999999999999886
 31
0.0
210
0.0
220
0.0
230
1.0
 40
0.4006018000000199
 41
4.712388980384689
 42
6.283185307179586
  0
LINE
  5
8A6
330
6B
100
AcDbEntity
  8
0
 62
     3
100
AcDbLine
 10
804.48273062
 20
956.21616757
 30
0.0
 11
804.4641030899999
 21
956.3354353399999
 31
0.0
  0
LINE
  5
8A7
330
6B
100
AcDbEntity
  8
0
 62
     3
100
AcDbLine
 10
804.4641030899999
 20
956.3354353399999
 30
0.0
 11
804.44173191
 21
956.4496401200001
 31
0.0
  0
LINE
  5
8A8
330
6B
100
AcDbEntity
  8
0
 62
     3
100
AcDbLine
 10
804.44173191
 20
956.4496401200001
 30
0.0
 11
804.41578998
 21
956.5578991799997
 31
0.0
  0
LINE
  5
8A9
330
6B
100
AcDbEntity
  8
0
 62
     3
100
AcDbLine
 10
804.41578998
 20
956.5578991799997
 30
0.0
 11
804.3864778399999
 21
956.6593757299999
 31
0.0
  0
LINE
  5
8AA
330
6B
100
AcDbEntity
  8
0
 62
     3
100
AcDbLine
 10
804.3864778399999
 20
956.6593757299999
 30
0.0
 11
804.35402203
 21
956.7532854099999
 31
0.0
  0
LINE
  5
8AB
330
6B
100
AcDbEntity
  8
0
 62
     3
100
AcDbLine
 10
804.35402203
 20
956.7532854099999
 30
0.0
 11
804.31867344
 21
956.8389023499999
 31
0.0
  0
LINE
  5
8AC
330
6B
100
AcDbEntity
  8
0
 62
     3
100
AcDbLine
 10
804.31867344
 20
956.8389023499999
 30
0.0
 11
804.28070529
 21
956.9155647599997
 31
0.0
  0
LINE
  5
8AD
330
6B
100
AcDbEntity
  8
0
 62
     3
100
AcDbLine
 10
804.28070529
 20
956.9155647599997
 30
0.0
 11
804.2404110399996
 21
956.9826801000001
 31
0.0
  0
LINE
  5
8AE
330
6B
100
AcDbEntity
  8
0
 62
     3
100
AcDbLine
 10
804.2404110399996
 20
956.9826801000001
 30
0.0
 11
804.1981021699998
 21
957.0397295899999
 31
0.0
  0
LINE
  5
8AF
330
6B
100
AcDbEntity
  8
0
 62
     3
100
AcDbLine
 10
804.1981021699998
 20
957.0397295899999
 30
0.0
 11
804.1541056799996
 21
957.0862722599999
 31
0.0
  0
LINE
  5
8B0
330
6B
100
AcDbEntity
  8
0
 62
     3
100
AcDbLine
 10
804.1541056799996
 20
957.0862722599999
 30
0.0
 11
804.10876166
 21
957.12194838
 31
0.0
  0
LINE
  5
8B1
330
6B
100
AcDbEntity
  8
0
 62
     3
100
AcDbLine
 10
804.10876166
 20
957.12194838
 30
0.0
 11
804.0624205899996
 21
957.1464821700001
 31
0.0
  0
LINE
  5
8B2
330
6B
100
AcDbEntity
  8
0
 62
     3
100
AcDbLine
 10
804.0624205899996
 20
957.1464821700001
 30
0.0
 11
804.0154406500002
 21
957.1596840199999
 31
0.0
  0
LINE
  5
8B3
330
6B
100
AcDbEntity
  8
0
 62
     3
100
AcDbLine
 10
804.0154406500002
 20
957.1596840199999
 30
0.0
 11
803.96818499
 21
957.16145186
 31
0.0
  0
LINE
  5
8B4
330
6B
100
AcDbEntity
  8
0
 62
     3
100
AcDbLine
 10
803.96818499
 20
957.16145186
 30
0.0
 11
803.92101886
 21
957.1517720499999
 31
0.0
  0
LINE
  5
8B5
330
6B
100
AcDbEntity
  8
0
 62
     3
100
AcDbLine
 10
803.92101886
 20
957.1517720499999
 30
0.0
 11
803.87430683
 21
957.1307193899999
 31
0.0
  0
LINE
  5
8B6
330
6B
100
AcDbEntity
  8
0
 62
     3
100
AcDbLine
 10
803.87430683
 20
957.1307193899999
 30
0.0
 11
803.82840997
 21
957.0984566199998
 31
0.0
  0
LINE
  5
8B7
330
6B
100
AcDbEntity
  8
0
 62
     3
100
AcDbLine
 10
803.82840997
 20
957.0984566199998
 30
0.0
 11
803.7836830299996
 21
957.05523311
 31
0.0
  0
LINE
  5
8B8
330
6B
100
AcDbEntity
  8
0
 62
     3
100
AcDbLine
 10
803.7836830299996
 20
957.05523311
 30
0.0
 11
803.7404717199999
 21
957.00138295
 31
0.0
  0
LINE
  5
8B9
330
6B
100
AcDbEntity
  8
0
 62
     3
100
AcDbLine
 10
803.7404717199999
 20
957.00138295
 30
0.0
 11
803.6991100600001
 21
956.9373223799999
 31
0.0
  0
LINE
  5
8BA
330
6B
100
AcDbEntity
  8
0
 62
     3
100
AcDbLine
 10
803.6991100600001
 20
956.9373223799999
 30
0.0
 11
803.6599177399999
 21
956.8635465599999
 31
0.0
  0
LINE
  5
8BB
330
6B
100
AcDbEntity
  8
0
 62
     3
100
AcDbLine
 10
803.6599177399999
 20
956.8635465599999
 30
0.0
 11
803.6231976999996
 21
956.78062573
 31
0.0
  0
LINE
  5
8BC
330
6B
100
AcDbEntity
  8
0
 62
     3
100
AcDbLine
 10
803.6231976999996
 20
956.78062573
 30
0.0
 11
803.5892337699998
 21
956.6892008199999
 31
0.0
  0
LINE
  5
8BD
330
6B
100
AcDbEntity
  8
0
 62
     3
100
AcDbLine
 10
803.5892337699998
 20
956.6892008199999
 30
0.0
 11
803.55828847
 21
956.58997852
 31
0.0
  0
LINE
  5
8BE
330
6B
100
AcDbEntity
  8
0
 62
     3
100
AcDbLine
 10
803.55828847
 20
956.58997852
 30
0.0
 11
803.5306009900001
 21
956.48372575
 31
0.0
  0
LINE
  5
8BF
330
6B
100
AcDbEntity
  8
0
 62
     3
100
AcDbLine
 10
803.5306009900001
 20
956.48372575
 30
0.0
 11
803.50638534
 21
956.37126379
 31
0.0
  0
LINE
  5
8C0
330
6B
100
AcDbEntity
  8
0
 62
     3
100
AcDbLine
 10
803.50638534
 20
956.37126379
 30
0.0
 11
803.4858287
 21
956.25346191
 31
0.0
  0
LINE
  5
8C1
330
6B
100
AcDbEntity
  8
0
 62
     3
100
AcDbLine
 10
803.4858287
 20
956.25346191
 30
0.0
 11
803.4690899600001
 21
956.1312306700001
 31
0.0
  0
LINE
  5
8C2
330
6B
100
AcDbEntity
  8
0
 62
     3
100
AcDbLine
 10
803.4690899600001
 20
956.1312306700001
 30
0.0
 11
803.4562985
 21
956.00551485
 31
0.0
  0
LINE
  5
8C3
330
6B
100
AcDbEntity
  8
0
 62
     3
100
AcDbLine
 10
803.4562985
 20
956.00551485
 30
0.0
 11
803.44755319
 21
955.8772861700001
 31
0.0
  0
LINE
  5
8C4
330
6B
100
AcDbEntity
  8
0
 62
     3
100
AcDbLine
 10
803.44755319
 20
955.8772861700001
 30
0.0
 11
803.4429216299999
 21
955.7475357599999
 31
0.0
  0
LINE
  5
8C5
330
6B
100
AcDbEntity
  8
0
 62
     3
100
AcDbLine
 10
803.4429216299999
 20
955.7475357599999
 30
0.0
 11
803.44243962
 21
955.61726653
 31
0.0
  0
LINE
  5
8C6
330
6B
100
AcDbEntity
  8
0
 62
     3
100
AcDbLine
 10
803.44243962
 20
955.61726653
 30
0.0
 11
803.44611088
 21
955.4874854099999
 31
0.0
  0
LINE
  5
8C7
330
6B
100
AcDbEntity
  8
0
 62
     3
100
AcDbLine
 10
803.44611088
 20
955.4874854099999
 30
0.0
 11
803.4539070400001
 21
955.3591955199999
 31
0.0
  0
LINE
  5
8C8
330
6B
100
AcDbEntity
  8
0
 62
     3
100
AcDbLine
 10
803.4539070400001
 20
955.3591955199999
 30
0.0
 11
803.4657678399996
 21
955.2333884800001
 31
0.0
  0
LINE
  5
8C9
330
6B
100
AcDbEntity
  8
0
 62
     3
100
AcDbLine
 10
803.4657678399996
 20
955.2333884800001
 30
0.0
 11
803.4816016
 21
955.1110367099999
 31
0.0
  0
LINE
  5
8CA
330
6B
100
AcDbEntity
  8
0
 62
     3
100
AcDbLine
 10
803.4816016
 20
955.1110367099999
 30
0.0
 11
803.5012859200001
 21
954.9930859399999
 31
0.0
  0
LINE
  5
8CB
330
6B
100
AcDbEntity
  8
0
 62
     3
100
AcDbLine
 10
803.5012859200001
 20
954.9930859399999
 30
0.0
 11
803.52466868
 21
954.8804478700001
 31
0.0
  0
LINE
  5
8CC
330
6B
100
AcDbEntity
  8
0
 62
     3
100
AcDbLine
 10
803.52466868
 20
954.8804478700001
 30
0.0
 11
803.5515691099996
 21
954.7739931099997
 31
0.0
  0
LINE
  5
8CD
330
6B
100
AcDbEntity
  8
0
 62
     3
100
AcDbLine
 10
803.5515691099996
 20
954.7739931099997
 30
0.0
 11
803.5817793099999
 21
954.67454452
 31
0.0
  0
LINE
  5
8CE
330
6B
100
AcDbEntity
  8
0
 62
     3
100
AcDbLine
 10
803.5817793099999
 20
954.67454452
 30
0.0
 11
803.61506576
 21
954.5828707899996
 31
0.0
  0
LINE
  5
8CF
330
6B
100
AcDbEntity
  8
0
 62
     3
100
AcDbLine
 10
803.61506576
 20
954.5828707899996
 30
0.0
 11
803.6511711600001
 21
954.49968049
 31
0.0
  0
LINE
  5
8D0
330
6B
100
AcDbEntity
  8
0
 62
     3
100
AcDbLine
 10
803.6511711600001
 20
954.49968049
 30
0.0
 11
803.68981646
 21
954.42561666
 31
0.0
  0
LINE
  5
8D1
330
6B
100
AcDbEntity
  8
0
 62
     3
100
AcDbLine
 10
803.68981646
 20
954.42561666
 30
0.0
 11
803.7307029399999
 21
954.3612517699999
 31
0.0
  0
LINE
  5
8D2
330
6B
100
AcDbEntity
  8
0
 62
     3
100
AcDbLine
 10
803.7307029399999
 20
954.3612517699999
 30
0.0
 11
803.7735145599999
 21
954.3070833199999
 31
0.0
  0
LINE
  5
8D3
330
6B
100
AcDbEntity
  8
0
 62
     3
100
AcDbLine
 10
803.7735145599999
 20
954.3070833199999
 30
0.0
 11
803.81792042
 21
954.26353
 31
0.0
  0
LINE
  5
8D4
330
6B
100
AcDbEntity
  8
0
 62
     3
100
AcDbLine
 10
803.81792042
 20
954.26353
 30
0.0
 11
803.8635772699999
 21
954.2309284699996
 31
0.0
  0
LINE
  5
8D5
330
6B
100
AcDbEntity
  8
0
 62
     3
100
AcDbLine
 10
803.8635772699999
 20
954.2309284699996
 30
0.0
 11
803.91013223
 21
954.20953071
 31
0.0
  0
LINE
  5
8D6
330
6B
100
AcDbEntity
  8
0
 62
     3
100
AcDbLine
 10
803.91013223
 20
954.20953071
 30
0.0
 11
803.9572254399999
 21
954.1995021299999
 31
0.0
  0
LINE
  5
8D7
330
6B
100
AcDbEntity
  8
0
 62
     3
100
AcDbLine
 10
803.9572254399999
 20
954.1995021299999
 30
0.0
 11
804.0044928899996
 21
954.2009202299999
 31
0.0
  0
LINE
  5
8D8
330
6B
100
AcDbEntity
  8
0
 62
     3
100
AcDbLine
 10
804.0044928899996
 20
954.2009202299999
 30
0.0
 11
804.0515692300001
 21
954.2137740499999
 31
0.0
  0
LINE
  5
8D9
330
6B
100
AcDbEntity
  8
0
 62
     3
100
AcDbLine
 10
804.0515692300001
 20
954.2137740499999
 30
0.0
 11
804.0980905900001
 21
954.2379642499996
 31
0.0
  0
LINE
  5
8DA
330
6B
100
AcDbEntity
  8
0
 62
     3
100
AcDbLine
 10
804.0980905900001
 20
954.2379642499996
 30
0.0
 11
804.1436973799998
 21
954.2733038299999
 31
0.0
  0
LINE
  5
8DB
330
6B
100
AcDbEntity
  8
0
 62
     3
100
AcDbLine
 10
804.1436973799998
 20
954.2733038299999
 30
0.0
 11
804.1880370799997
 21
954.3195196499999
 31
0.0
  0
LINE
  5
8DC
330
6B
100
AcDbEntity
  8
0
 62
     3
100
AcDbLine
 10
804.1880370799997
 20
954.3195196499999
 30
0.0
 11
804.2307669699999
 21
954.3762544899999
 31
0.0
  0
LINE
  5
8DD
330
6B
100
AcDbEntity
  8
0
 62
     3
100
AcDbLine
 10
804.2307669699999
 20
954.3762544899999
 30
0.0
 11
804.27155677
 21
954.4430697999999
 31
0.0
  0
LINE
  5
8DE
330
6B
100
AcDbEntity
  8
0
 62
     3
100
AcDbLine
 10
804.27155677
 20
954.4430697999999
 30
0.0
 11
804.3100911999996
 21
954.51944915
 31
0.0
  0
LINE
  5
8DF
330
6B
100
AcDbEntity
  8
0
 62
     3
100
AcDbLine
 10
804.3100911999996
 20
954.51944915
 30
0.0
 11
804.3460723999997
 21
954.6048021599997
 31
0.0
  0
LINE
  5
8E0
330
6B
100
AcDbEntity
  8
0
 62
     3
100
AcDbLine
 10
804.3460723999997
 20
954.6048021599997
 30
0.0
 11
804.37922226
 21
954.69846909
 31
0.0
  0
LINE
  5
8E1
330
6B
100
AcDbEntity
  8
0
 62
     3
100
AcDbLine
 10
804.37922226
 20
954.69846909
 30
0.0
 11
804.4092845399998
 21
954.7997259500002
 31
0.0
  0
LINE
  5
8E2
330
6B
100
AcDbEntity
  8
0
 62
     3
100
AcDbLine
 10
804.4092845399998
 20
954.7997259500002
 30
0.0
 11
804.43602689
 21
954.90779007
 31
0.0
  0
LINE
  5
8E3
330
6B
100
AcDbEntity
  8
0
 62
     3
100
AcDbLine
 10
804.43602689
 20
954.90779007
 30
0.0
 11
804.4592425900001
 21
955.0218261799999
 31
0.0
  0
LINE
  5
8E4
330
6B
100
AcDbEntity
  8
0
 62
     3
100
AcDbLine
 10
804.4592425900001
 20
955.0218261799999
 30
0.0
 11
804.4787522000001
 21
955.1409528299997
 31
0.0
  0
LINE
  5
8E5
330
6B
100
AcDbEntity
  8
0
  6
DASHED
 62
     7
100
AcDbLine
 10
835.195979
 20
828.1198120000002
 30
0.0
 11
837.30089
 21
829.299008
 31
0.0
  0
LINE
  5
8E6
330
6B
100
AcDbEntity
  8
0
  6
DASHED
 62
     7
100
AcDbLine
 10
837.30089
 20
829.299008
 30
0.0
 11
839.358535
 21
830.2183280000004
 31
0.0
  0
LINE
  5
8E7
330
6B
100
AcDbEntity
  8
0
  6
DASHED
 62
     7
100
AcDbLine
 10
839.358535
 20
830.2183280000004
 30
0.0
 11
841.321648
 21
830.6178970000001
 31
0.0
  0
LINE
  5
8E8
330
6B
100
AcDbEntity
  8
0
  6
DASHED
 62
     7
100
AcDbLine
 10
841.321648
 20
830.6178970000001
 30
0.0
 11
843.1429619999999
 21
830.2378390000001
 31
0.0
  0
LINE
  5
8E9
330
6B
100
AcDbEntity
  8
0
  6
DASHED
 62
     7
100
AcDbLine
 10
843.1429619999999
 20
830.2378390000001
 30
0.0
 11
845.5175609999999
 21
828.3289210000003
 31
0.0
  0
LINE
  5
8EA
330
6B
100
AcDbEntity
  8
0
  6
DASHED
 62
     7
100
AcDbLine
 10
845.5175609999999
 20
828.3289210000003
 30
0.0
 11
847.911152
 21
826.707794
 31
0.0
  0
LINE
  5
8EB
330
6B
100
AcDbEntity
  8
0
  6
DASHED
 62
     7
100
AcDbLine
 10
847.911152
 20
826.707794
 30
0.0
 11
850.340508
 21
827.0368250000002
 31
0.0
  0
LINE
  5
8EC
330
6B
100
AcDbEntity
  8
0
  6
DASHED
 62
     7
100
AcDbLine
 10
850.340508
 20
827.0368250000002
 30
0.0
 11
852.9442429999997
 21
828.4728170000001
 31
0.0
  0
LINE
  5
8ED
330
6B
100
AcDbEntity
  8
0
100
AcDbLine
 10
831.5229929999997
 20
788.400786
 30
0.0
 11
831.5229929999997
 21
765.5353039999996
 31
0.0
  0
LINE
  5
8EE
330
6B
100
AcDbEntity
  8
0
100
AcDbLine
 10
857.5153619999996
 20
790.400786
 30
0.0
 11
857.5153619999996
 21
765.5353039999996
 31
0.0
  0
LINE
  5
8EF
330
6B
100
AcDbEntity
  8
0
100
AcDbLine
 10
834.0229929999997
 20
766.7853039999997
 30
0.0
 11
855.0153619999996
 21
766.7853039999997
 31
0.0
  0
LINE
  5
8F3
330
6B
100
AcDbEntity
  8
0
100
AcDbLine
 10
844.2669749999998
 20
780.770403
 30
0.0
 11
792.529354
 21
780.770403
 31
0.0
  0
LINE
  5
8F4
330
6B
100
AcDbEntity
  8
0
100
AcDbLine
 10
844.2669749999998
 20
888.7704030000001
 30
0.0
 11
792.529354
 21
888.7704030000001
 31
0.0
  0
LINE
  5
8F5
330
6B
100
AcDbEntity
  8
0
100
AcDbLine
 10
793.779354
 20
783.270403
 30
0.0
 11
793.779354
 21
886.2704030000001
 31
0.0
  0
LINE
  5
8F9
330
6B
100
AcDbEntity
  8
0
100
AcDbLine
 10
814.516975
 20
859.020403
 30
0.0
 11
814.516975
 21
904.2644504489132
 31
0.0
  0
LINE
  5
8FA
330
6B
100
AcDbEntity
  8
0
100
AcDbLine
 10
874.516975
 20
859.020403
 30
0.0
 11
874.516975
 21
904.2644504489132
 31
0.0
  0
LINE
  5
8FB
330
6B
100
AcDbEntity
  8
0
100
AcDbLine
 10
817.0169749999999
 20
903.0144504489133
 30
0.0
 11
872.016975
 21
903.0144504489133
 31
0.0
  0
TEXT
  5
8FF
330
6B
100
AcDbEntity
  8
0
  6
Continuous
 62
     4
100
AcDbText
 10
840.5191774999996
 20
767.4103039999996
 30
0.0
 40
3.0
  1
E26
100
AcDbText
  0
LINE
  5
900
330
6B
100
AcDbEntity
  8
0
  6
ByBlock
 62
     0
370
    -2
100
AcDbLine
 10
855.0153619999996
 20
767.4551764999996
 30
0.0
 11
857.5153619999996
 21
766.7853039999997
 31
0.0
  0
LINE
  5
901
330
6B
100
AcDbEntity
  8
0
  6
ByBlock
 62
     0
370
    -2
100
AcDbLine
 10
857.5153619999996
 20
766.7853039999997
 30
0.0
 11
855.0153619999996
 21
766.1154314999996
 31
0.0
  0
LINE
  5
902
330
6B
100
AcDbEntity
  8
0
  6
ByBlock
 62
     0
370
    -2
100
AcDbLine
 10
857.5153619999996
 20
766.7853039999997
 30
0.0
 11
855.0153619999996
 21
766.7853039999997
 31
0.0
  0
LINE
  5
903
330
6B
100
AcDbEntity
  8
0
  6
ByBlock
 62
     0
370
    -2
100
AcDbLine
 10
834.0229929999997
 20
766.1154314999996
 30
0.0
 11
831.5229929999997
 21
766.7853039999997
 31
0.0
  0
LINE
  5
904
330
6B
100
AcDbEntity
  8
0
  6
ByBlock
 62
     0
370
    -2
100
AcDbLine
 10
831.5229929999997
 20
766.7853039999997
 30
0.0
 11
834.0229929999997
 21
767.4551764999996
 31
0.0
  0
LINE
  5
905
330
6B
100
AcDbEntity
  8
0
  6
ByBlock
 62
     0
370
    -2
100
AcDbLine
 10
831.5229929999997
 20
766.7853039999997
 30
0.0
 11
834.0229929999997
 21
766.7853039999997
 31
0.0
  0
TEXT
  5
906
330
6B
100
AcDbEntity
  8
0
  6
Continuous
 62
     4
100
AcDbText
 10
793.1543539999998
 20
831.5204030000002
 30
0.0
 40
3.0
  1
108
 50
90.0
100
AcDbText
  0
LINE
  5
907
330
6B
100
AcDbEntity
  8
0
  6
ByBlock
 62
     0
370
    -2
100
AcDbLine
 10
793.1094815
 20
886.2704030000001
 30
0.0
 11
793.779354
 21
888.7704030000001
 31
0.0
  0
LINE
  5
908
330
6B
100
AcDbEntity
  8
0
  6
ByBlock
 62
     0
370
    -2
100
AcDbLine
 10
793.779354
 20
888.7704030000001
 30
0.0
 11
794.4492265
 21
886.2704030000001
 31
0.0
  0
LINE
  5
909
330
6B
100
AcDbEntity
  8
0
  6
ByBlock
 62
     0
370
    -2
100
AcDbLine
 10
793.779354
 20
888.7704030000001
 30
0.0
 11
793.779354
 21
886.2704030000001
 31
0.0
  0
LINE
  5
90A
330
6B
100
AcDbEntity
  8
0
  6
ByBlock
 62
     0
370
    -2
100
AcDbLine
 10
794.4492265
 20
783.270403
 30
0.0
 11
793.779354
 21
780.770403
 31
0.0
  0
LINE
  5
90B
330
6B
100
AcDbEntity
  8
0
  6
ByBlock
 62
     0
370
    -2
100
AcDbLine
 10
793.779354
 20
780.770403
 30
0.0
 11
793.1094815
 21
783.270403
 31
0.0
  0
LINE
  5
90C
330
6B
100
AcDbEntity
  8
0
  6
ByBlock
 62
     0
370
    -2
100
AcDbLine
 10
793.779354
 20
780.770403
 30
0.0
 11
793.779354
 21
783.270403
 31
0.0
  0
TEXT
  5
90D
330
6B
100
AcDbEntity
  8
0
  6
Continuous
 62
     4
100
AcDbText
 10
840.766975
 20
903.6394504489132
 30
0.0
 40
3.0
  1
\U+220560
100
AcDbText
  0
LINE
  5
90E
330
6B
100
AcDbEntity
  8
0
  6
ByBlock
 62
     0
370
    -2
100
AcDbLine
 10
872.016975
 20
903.6843229489132
 30
0.0
 11
874.516975
 21
903.0144504489133
 31
0.0
  0
LINE
  5
90F
330
6B
100
AcDbEntity
  8
0
  6
ByBlock
 62
     0
370
    -2
100
AcDbLine
 10
874.516975
 20
903.0144504489133
 30
0.0
 11
872.016975
 21
902.3445779489133
 31
0.0
  0
LINE
  5
910
330
6B
100
AcDbEntity
  8
0
  6
ByBlock
 62
     0
370
    -2
100
AcDbLine
 10
874.516975
 20
903.0144504489133
 30
0.0
 11
872.016975
 21
903.0144504489133
 31
0.0
  0
LINE
  5
911
330
6B
100
AcDbEntity
  8
0
  6
ByBlock
 62
     0
370
    -2
100
AcDbLine
 10
817.0169749999999
 20
902.3445779489133
 30
0.0
 11
814.516975
 21
903.0144504489133
 31
0.0
  0
LINE
  5
912
330
6B
100
AcDbEntity
  8
0
  6
ByBlock
 62
     0
370
    -2
100
AcDbLine
 10
814.516975
 20
903.0144504489133
 30
0.0
 11
817.0169749999999
 21
903.6843229489132
 31
0.0
  0
LINE
  5
913
330
6B
100
AcDbEntity
  8
0
  6
ByBlock
 62
     0
370
    -2
100
AcDbLine
 10
814.516975
 20
903.0144504489133
 30
0.0
 11
817.0169749999999
 21
903.0144504489133
 31
0.0
  0
ENDSEC
  0
SECTION
  2
OBJECTS
  0
DICTIONARY
  5
C
330
0
100
AcDbDictionary
281
     1
  3
ACAD_2007HEADERVARS_RT
350
917
  3
ACAD_COLOR
350
62
  3
ACAD_GROUP
350
D
  3
ACAD_LAYOUT
350
61
  3
ACAD_MATERIAL
350
10
  3
ACAD_MLEADERSTYLE
350
65
  3
ACAD_MLINESTYLE
350
5E
  3
ACAD_PLOTSETTINGS
350
60
  3
ACAD_PLOTSTYLENAME
350
E
  3
ACAD_SCALELIST
350
42
  3
ACAD_TABLESTYLE
350
63
  3
ACAD_VISUALSTYLE
350
29
  3
ACDB_RECOMPOSE_DATA
350
915
  3
AcDbVariableDictionary
350
5D4
  3
AEC_PROPERTY_SET_DEFS
350
736
  3
DWGPROPS
350
916
  0
DICTIONARY
  5
313
330
2
100
AcDbDictionary
280
     1
281
     1
  3
ACAD_LAYERSTATES
360
314
  0
DICTIONARY
  5
5D2
330
54
100
AcDbDictionary
280
     1
281
     1
  3
ADSK_XREC_LAYER_RECONCILED
360
5D3
  0
DICTIONARY
  5
704
330
6B
100
AcDbDictionary
280
     1
281
     1
  3
ACAD_SORTENTS
360
705
  0
DICTIONARY
  5
917
102
{ACAD_REACTORS
330
C
102
}
330
C
100
AcDbDictionary
281
     1
  3
DIMARCSYM
350
919
  3
DIMFXL
350
918
  3
DIMJOGANG
350
91A
  0
DICTIONARY
  5
62
102
{ACAD_REACTORS
330
C
102
}
330
C
100
AcDbDictionary
281
     1
  0
DICTIONARY
  5
D
102
{ACAD_REACTORS
330
C
102
}
330
C
100
AcDbDictionary
281
     1
  0
DICTIONARY
  5
61
102
{ACAD_REACTORS
330
C
102
}
330
C
100
AcDbDictionary
281
     1
  3
Model
350
6E
  3
レイアウト1
350
6A
  0
DICTIONARY
  5
10
102
{ACAD_REACTORS
330
C
102
}
330
C
100
AcDbDictionary
281
     1
  3
ByBlock
350
19
  3
ByLayer
350
11
  3
Global
350
21
  0
DICTIONARY
  5
65
102
{ACAD_REACTORS
330
C
102
}
330
C
100
AcDbDictionary
281
     1
  3
Standard
350
66
  0
DICTIONARY
  5
5E
102
{ACAD_REACTORS
330
C
102
}
330
C
100
AcDbDictionary
281
     1
  3
Standard
350
5F
  0
DICTIONARY
  5
60
102
{ACAD_REACTORS
330
C
102
}
330
C
100
AcDbDictionary
281
     1
  0
ACDBDICTIONARYWDFLT
  5
E
102
{ACAD_REACTORS
330
C
102
}
330
C
100
AcDbDictionary
281
     1
  3
Normal
350
F
100
AcDbDictionaryWithDefault
340
F
  0
DICTIONARY
  5
42
102
{ACAD_REACTORS
330
C
102
}
330
C
100
AcDbDictionary
281
     1
  3
A0
350
43
  3
A1
350
44
  3
A2
350
45
  3
A3
350
46
  3
A4
350
47
  3
A5
350
48
  3
A6
350
49
  3
A7
350
4A
  3
A8
350
4B
  3
A9
350
4C
  3
B0
350
4D
  3
B1
350
4E
  3
B2
350
4F
  3
B3
350
50
  3
B4
350
51
  3
B5
350
52
  3
B6
350
53
  0
DICTIONARY
  5
63
102
{ACAD_REACTORS
330
C
102
}
330
C
100
AcDbDictionary
281
     1
  3
Standard
350
64
  0
DICTIONARY
  5
29
102
{ACAD_REACTORS
330
C
102
}
330
C
100
AcDbDictionary
281
     1
  3
2dWireframe
350
2F
  3
3dWireframe
350
310
  3
Basic
350
2E
  3
Brighten
350
35
  3
ColorChange
350
39
  3
Conceptual
350
32
  3
Dim
350
34
  3
EdgeColorOff
350
41
  3
Facepattern
350
38
  3
Flat
350
2A
  3
FlatWithEdges
350
2B
  3
Gouraud
350
2C
  3
GouraudWithEdges
350
2D
  3
Hidden
350
31
  3
JitterOff
350
3F
  3
Linepattern
350
37
  3
OverhangOff
350
40
  3
Realistic
350
33
  3
Shaded
350
3E
  3
Shaded with edges
350
3D
  3
Shades of Gray
350
3A
  3
Sketchy
350
3B
  3
Thicken
350
36
  3
Wireframe
350
30
  3
X-Ray
350
3C
  0
XRECORD
  5
915
102
{ACAD_REACTORS
330
C
102
}
330
C
100
AcDbXrecord
280
     1
 90
        1
330
64
  0
DICTIONARY
  5
5D4
102
{ACAD_REACTORS
330
C
102
}
330
C
100
AcDbDictionary
281
     1
  3
CANNOSCALE
350
5D7
  3
CMLEADERSTYLE
350
5D6
  3
CTABLESTYLE
350
5D5
  3
DIMASSOC
350
5DA
  3
INDEXCTL
350
5D9
  3
SORTENTS
350
5D8
  3
XCLIPFRAME
350
829
  0
DICTIONARY
  5
736
102
{ACAD_REACTORS
330
C
102
}
330
C
100
AcDbDictionary
281
     1
  0
XRECORD
  5
916
102
{ACAD_REACTORS
330
C
102
}
330
C
100
AcDbXrecord
280
     1
  1
DWGPROPS COOKIE
  2

  3

  4

  6

  7

  8
imamura
  9

300
=
301
=
302
=
303
=
304
=
305
=
306
=
307
=
308
=
309
=
 40
0.0106975578703704
 41
2456840.395413716
 42
2457864.705892407
  1

 90
        0
  0
DICTIONARY
  5
314
102
{ACAD_REACTORS
330
313
102
}
330
313
100
AcDbDictionary
281
     1
  0
XRECORD
  5
5D3
102
{ACAD_REACTORS
330
5D2
102
}
330
5D2
100
AcDbXrecord
280
     1
290
     1
  0
SORTENTSTABLE
  5
705
102
{ACAD_REACTORS
330
704
102
}
330
704
100
AcDbSortentsTable
330
6B
331
430
  5
461
331
8E8
  5
40F
331
441
  5
472
331
228
  5
262
331
741
  5
8F7
331
239
  5
3F6
331
752
  5
908
331
90A
  5
1D6
331
405
  5
436
331
3F4
  5
425
331
24A
  5
407
331
44F
  5
8B4
331
1BE
  5
1FD
331
460
  5
8C5
331
482
  5
8E7
331
471
  5
8D6
331
1F1
  5
227
331
1E0
  5
221
331
8CD
  5
752
331
8BC
  5
741
331
8AB
  5
482
331
8DE
  5
8AB
331
40E
  5
43F
331
41F
  5
450
331
20F
  5
247
331
8F9
  5
BC
331
431
  5
463
331
420
  5
451
331
8E9
  5
410
331
442
  5
473
331
229
  5
263
331
742
  5
8F8
331
23A
  5
3F7
331
753
  5
909
331
90B
  5
1D7
331
461
  5
8C6
331
450
  5
8B5
331
406
  5
437
331
3F5
  5
426
331
25C
  5
416
331
24B
  5
408
331
483
  5
8E8
331
472
  5
8D7
331
1F2
  5
228
331
8CE
  5
753
331
8BD
  5
742
331
8DF
  5
8AC
331
40F
  5
440
331
8AC
  5
483
331
8FA
  5
BD
331
8E0
  5
8AD
331
410
  5
441
331
421
  5
452
331
200
  5
232
331
432
  5
462
331
219
  5
248
331
8EA
  5
411
331
443
  5
475
331
22A
  5
264
331
743
  5
8F9
331
23B
  5
3F8
331
754
  5
90A
331
90C
  5
1D8
331
407
  5
438
331
3F6
  5
427
331
25D
  5
417
331
24C
  5
409
331
451
  5
8B6
331
1C0
  5
1FE
331
484
  5
8E9
331
473
  5
8D8
331
462
  5
8C7
331
8CF
  5
754
331
8BE
  5
743
331
8AD
  5
484
331
1E2
  5
222
331
8FB
  5
BE
331
8D0
  5
755
331
8E1
  5
8AE
331
411
  5
442
331
422
  5
453
331
201
  5
239
331
433
  5
464
331
21A
  5
249
331
8EB
  5
412
331
444
  5
474
331
22B
  5
265
331
744
  5
8FA
331
23C
  5
3F9
331
755
  5
90B
331
90D
  5
1D2
331
3F7
  5
428
331
25E
  5
418
331
24D
  5
40A
331
485
  5
8EA
331
474
  5
8D9
331
463
  5
8C8
331
452
  5
8B7
331
8BF
  5
744
331
8AE
  5
485
331
1D2
  5
20B
331
8D1
  5
756
331
8C0
  5
745
331
8E2
  5
8AF
331
412
  5
443
331
423
  5
454
331
202
  5
23A
331
434
  5
465
331
21B
  5
24A
331
745
  5
8FB
331
445
  5
476
331
22C
  5
266
331
8EC
  5
413
331
756
  5
90C
331
90E
  5
1C8
331
3F8
  5
429
331
25F
  5
419
331
486
  5
8EB
331
475
  5
8DA
331
464
  5
8C9
331
453
  5
8B8
331
1D3
  5
20C
331
1C2
  5
1FF
331
24E
  5
40B
331
8AF
  5
486
331
23D
  5
3FA
331
8D2
  5
757
331
8C1
  5
746
331
8B0
  5
487
331
8E3
  5
8B0
331
413
  5
444
331
424
  5
455
331
203
  5
23B
331
435
  5
466
331
21C
  5
24B
331
746
  5
8FC
331
446
  5
477
331
22D
  5
267
331
8ED
  5
1DD
331
23E
  5
3FB
331
757
  5
90D
331
3F9
  5
42A
331
260
  5
41A
331
24F
  5
414
331
487
  5
8EC
331
476
  5
8DB
331
465
  5
8CA
331
454
  5
8B9
331
1D4
  5
20D
331
1C3
  5
200
331
90F
  5
1C9
331
8D3
  5
758
331
8C2
  5
747
331
8B1
  5
488
331
8E4
  5
8B1
331
414
  5
445
331
425
  5
456
331
204
  5
23C
331
436
  5
467
331
21D
  5
24C
331
447
  5
478
331
22E
  5
268
331
8EE
  5
1DE
331
747
  5
8FD
331
8FF
  5
1F2
331
23F
  5
3FC
331
758
  5
90E
331
910
  5
1CA
331
3FA
  5
42B
331
261
  5
41B
331
466
  5
8CB
331
455
  5
8BA
331
1D5
  5
20E
331
1C4
  5
201
331
EB
  5
1FC
331
250
  5
415
331
477
  5
8DC
331
1F7
  5
229
331
478
  5
8DD
331
1F8
  5
22A
331
8D4
  5
759
331
8C3
  5
748
331
8B2
  5
701
331
415
  5
446
331
8E5
  5
40C
331
426
  5
458
331
205
  5
23D
331
437
  5
468
331
21E
  5
24D
331
22F
  5
269
331
8EF
  5
1E0
331
748
  5
8FE
331
900
  5
1EF
331
240
  5
3FD
331
759
  5
90F
331
3FB
  5
42C
331
262
  5
41C
331
911
  5
1C2
331
467
  5
8CC
331
456
  5
8BB
331
1D6
  5
20F
331
1C5
  5
202
331
468
  5
8CD
331
1E8
  5
223
331
479
  5
8DE
331
1F9
  5
22B
331
8D5
  5
75A
331
8C4
  5
749
331
8B3
  5
702
331
416
  5
447
331
8E6
  5
40D
331
427
  5
457
331
206
  5
23E
331
738
  5
8EE
331
438
  5
469
331
21F
  5
24E
331
230
  5
26A
331
749
  5
8FF
331
901
  5
1F0
331
241
  5
3FE
331
75A
  5
910
331
3FC
  5
42D
331
263
  5
41D
331
912
  5
1C3
331
457
  5
8BC
331
1D7
  5
219
331
1C6
  5
203
331
469
  5
8CE
331
458
  5
8BD
331
1D8
  5
21A
331
47A
  5
8DF
331
1FA
  5
22C
331
8B4
  5
738
331
8D6
  5
75B
331
8C5
  5
74A
331
BC
  5
1F7
331
417
  5
448
331
706
  5
1F9
331
8E7
  5
40E
331
428
  5
459
331
207
  5
23F
331
739
  5
8EF
331
439
  5
46A
331
220
  5
24F
331
231
  5
3F4
331
74A
  5
900
331
902
  5
1F1
331
242
  5
3FF
331
75B
  5
911
331
3FD
  5
42E
331
264
  5
41E
331
913
  5
1C4
331
1C7
  5
204
331
488
  5
8ED
331
1C8
  5
205
331
448
  5
479
331
46A
  5
8CF
331
459
  5
8BE
331
1D9
  5
21B
331
47B
  5
8E0
331
1FB
  5
22D
331
8B5
  5
739
331
8D7
  5
75C
331
8C6
  5
74B
331
BD
  5
1FA
331
418
  5
449
331
429
  5
45A
331
208
  5
240
331
73A
  5
8F0
331
43A
  5
46B
331
221
  5
250
331
232
  5
3F5
331
74B
  5
901
331
903
  5
1E2
331
75C
  5
912
331
243
  5
400
331
3FE
  5
42F
331
265
  5
41F
331
449
  5
47A
331
1C9
  5
206
331
46B
  5
8D0
331
45A
  5
8BF
331
1DA
  5
21C
331
47C
  5
8E1
331
1FC
  5
22E
331
8B6
  5
73B
331
8C7
  5
74C
331
BE
  5
1FB
331
8D8
  5
75D
331
408
  5
439
331
419
  5
44A
331
42A
  5
45C
331
209
  5
241
331
43B
  5
46C
331
222
  5
251
331
73B
  5
8F1
331
8F3
  5
1D3
331
74C
  5
902
331
904
  5
1E8
331
75D
  5
913
331
244
  5
401
331
3FF
  5
430
331
266
  5
420
331
400
  5
431
331
44A
  5
47B
331
1CA
  5
207
331
46C
  5
8D1
331
45B
  5
8C0
331
1DB
  5
21D
331
47D
  5
8E2
331
1FD
  5
22F
331
8C8
  5
74D
331
8B7
  5
73C
331
8A6
  5
47D
331
8D9
  5
8A6
331
409
  5
43A
331
41A
  5
44B
331
42B
  5
45B
331
20A
  5
242
331
43C
  5
46D
331
223
  5
25C
331
73C
  5
8F2
331
8F4
  5
1D4
331
74D
  5
903
331
905
  5
1EE
331
267
  5
421
331
245
  5
402
331
401
  5
432
331
44B
  5
47C
331
1CB
  5
208
331
46D
  5
8D2
331
45C
  5
8C1
331
1DC
  5
21E
331
47E
  5
8E3
331
1FE
  5
230
331
8B8
  5
73D
331
8A7
  5
47E
331
8C9
  5
74E
331
268
  5
422
331
8DA
  5
8A7
331
40A
  5
43B
331
709
  5
1F8
331
41B
  5
44C
331
42C
  5
45D
331
20B
  5
243
331
43D
  5
46E
331
224
  5
25E
331
73D
  5
8F3
331
8F5
  5
1D5
331
74E
  5
904
331
906
  5
1DC
331
246
  5
403
331
402
  5
433
331
44C
  5
8B2
331
1CC
  5
209
331
45D
  5
8C2
331
1DD
  5
21F
331
46E
  5
8D3
331
1EE
  5
224
331
47F
  5
8E4
331
1FF
  5
231
331
8B9
  5
73E
331
8A8
  5
47F
331
8CA
  5
74F
331
269
  5
423
331
8DB
  5
8A8
331
40B
  5
43C
331
41C
  5
44D
331
42D
  5
45E
331
20C
  5
244
331
73E
  5
8F4
331
43E
  5
46F
331
225
  5
25F
331
74F
  5
905
331
907
  5
1D9
331
247
  5
404
331
750
  5
906
331
908
  5
1DA
331
403
  5
434
331
248
  5
405
331
45E
  5
8C3
331
1DE
  5
220
331
1CD
  5
20A
331
480
  5
8E5
331
46F
  5
8D4
331
1EF
  5
225
331
8BA
  5
73F
331
8A9
  5
480
331
8CB
  5
750
331
26A
  5
424
331
8DC
  5
8A9
331
40C
  5
43D
331
41D
  5
44D
331
42E
  5
45F
331
20D
  5
245
331
73F
  5
8F5
331
43F
  5
470
331
226
  5
260
331
740
  5
8F6
331
440
  5
471
331
751
  5
907
331
909
  5
1DB
331
45F
  5
8C4
331
44E
  5
8B3
331
404
  5
435
331
249
  5
406
331
481
  5
8E6
331
470
  5
8D5
331
1F0
  5
226
331
8CC
  5
751
331
8BB
  5
740
331
8AA
  5
481
331
8DD
  5
8AA
331
41E
  5
44E
331
42F
  5
460
331
20E
  5
246
331
227
  5
261
331
40D
  5
43E
  0
XRECORD
  5
919
102
{ACAD_REACTORS
330
917
102
}
330
917
100
AcDbXrecord
280
     1
 70
     2
  0
XRECORD
  5
918
102
{ACAD_REACTORS
330
917
102
}
330
917
100
AcDbXrecord
280
     1
 40
1.25
  0
XRECORD
  5
91A
102
{ACAD_REACTORS
330
917
102
}
330
917
100
AcDbXrecord
280
     1
 40
1.570796326794896
  0
LAYOUT
  5
6E
102
{ACAD_XDICTIONARY
360
94E
102
}
102
{ACAD_REACTORS
330
61
102
}
330
61
100
AcDbPlotSettings
  1

  2
FX DP 205
  4

  6

 40
0.0
 41
0.0
 42
0.0
 43
0.0
 44
0.0
 45
0.0
 46
0.0
 47
0.0
 48
0.0
 49
0.0
140
0.0
141
0.0
142
1.0
143
1.0
 70
  1712
 72
     0
 73
     0
 74
     0
  7

 75
     0
147
1.0
148
0.0
149
0.0
100
AcDbLayout
  1
Model
 70
     1
 71
     0
 10
0.0
 20
0.0
 11
12.0
 21
9.0
 12
0.0
 22
0.0
 32
0.0
 14
0.0
 24
0.0
 34
0.0
 15
0.0
 25
0.0
 35
0.0
146
0.0
 13
0.0
 23
0.0
 33
0.0
 16
1.0
 26
0.0
 36
0.0
 17
0.0
 27
1.0
 37
0.0
 76
     0
330
6B
331
8B
  0
LAYOUT
  5
6A
102
{ACAD_XDICTIONARY
360
94C
102
}
102
{ACAD_REACTORS
330
61
102
}
330
61
100
AcDbPlotSettings
  1

  2
FX DP 205
  4

  6

 40
0.0
 41
0.0
 42
0.0
 43
0.0
 44
0.0
 45
0.0
 46
0.0
 47
0.0
 48
0.0
 49
0.0
140
0.0
141
0.0
142
1.0
143
1.0
 70
   688
 72
     0
 73
     0
 74
     5
  7

 75
    16
147
1.0
148
0.0
149
0.0
100
AcDbLayout
  1
レイアウト1
 70
     1
 71
     1
 10
0.0
 20
0.0
 11
12.0
 21
9.0
 12
0.0
 22
0.0
 32
0.0
 14
1.000000000000000E+20
 24
1.000000000000000E+20
 34
1.000000000000000E+20
 15
-1.000000000000000E+20
 25
-1.000000000000000E+20
 35
-1.000000000000000E+20
146
0.0
 13
0.0
 23
0.0
 33
0.0
 16
1.0
 26
0.0
 36
0.0
 17
0.0
 27
1.0
 37
0.0
 76
     0
330
67
  0
MATERIAL
  5
19
102
{ACAD_XDICTIONARY
360
1A
102
}
102
{ACAD_REACTORS
330
10
102
}
330
10
100
AcDbMaterial
  1
ByBlock
 72
     0
 43
0.0208333333333333
 43
0.0
 43
0.0
 43
0.0
 43
0.0
 43
0.0208333333333333
 43
0.0
 43
0.0
 43
0.0
 43
0.0
 43
1.0
 43
0.0
 43
0.0
 43
0.0
 43
0.0
 43
1.0
 77
     0
 47
0.0208333333333333
 47
0.0
 47
0.0
 47
0.0
 47
0.0
 47
0.0208333333333333
 47
0.0
 47
0.0
 47
0.0
 47
0.0
 47
1.0
 47
0.0
 47
0.0
 47
0.0
 47
0.0
 47
1.0
171
     0
 49
0.0208333333333333
 49
0.0
 49
0.0
 49
0.0
 49
0.0
 49
0.0208333333333333
 49
0.0
 49
0.0
 49
0.0
 49
0.0
 49
1.0
 49
0.0
 49
0.0
 49
0.0
 49
0.0
 49
1.0
175
     0
142
0.0208333333333333
142
0.0
142
0.0
142
0.0
142
0.0
142
0.0208333333333333
142
0.0
142
0.0
142
0.0
142
0.0
142
1.0
142
0.0
142
0.0
142
0.0
142
0.0
142
1.0
179
     0
144
0.0208333333333333
144
0.0
144
0.0
144
0.0
144
0.0
144
0.0208333333333333
144
0.0
144
0.0
144
0.0
144
0.0
144
1.0
144
0.0
144
0.0
144
0.0
144
0.0
144
1.0
147
0.0208333333333333
147
0.0
147
0.0
147
0.0
147
0.0
147
0.0208333333333333
147
0.0
147
0.0
147
0.0
147
0.0
147
1.0
147
0.0
147
0.0
147
0.0
147
0.0
147
1.0
  0
MATERIAL
  5
11
102
{ACAD_XDICTIONARY
360
12
102
}
102
{ACAD_REACTORS
330
10
102
}
330
10
100
AcDbMaterial
  1
ByLayer
 72
     0
 43
0.0208333333333333
 43
0.0
 43
0.0
 43
0.0
 43
0.0
 43
0.0208333333333333
 43
0.0
 43
0.0
 43
0.0
 43
0.0
 43
1.0
 43
0.0
 43
0.0
 43
0.0
 43
0.0
 43
1.0
 77
     0
 47
0.0208333333333333
 47
0.0
 47
0.0
 47
0.0
 47
0.0
 47
0.0208333333333333
 47
0.0
 47
0.0
 47
0.0
 47
0.0
 47
1.0
 47
0.0
 47
0.0
 47
0.0
 47
0.0
 47
1.0
171
     0
 49
0.0208333333333333
 49
0.0
 49
0.0
 49
0.0
 49
0.0
 49
0.0208333333333333
 49
0.0
 49
0.0
 49
0.0
 49
0.0
 49
1.0
 49
0.0
 49
0.0
 49
0.0
 49
0.0
 49
1.0
175
     0
142
0.0208333333333333
142
0.0
142
0.0
142
0.0
142
0.0
142
0.0208333333333333
142
0.0
142
0.0
142
0.0
142
0.0
142
1.0
142
0.0
142
0.0
142
0.0
142
0.0
142
1.0
179
     0
144
0.0208333333333333
144
0.0
144
0.0
144
0.0
144
0.0
144
0.0208333333333333
144
0.0
144
0.0
144
0.0
144
0.0
144
1.0
144
0.0
144
0.0
144
0.0
144
0.0
144
1.0
147
0.0208333333333333
147
0.0
147
0.0
147
0.0
147
0.0
147
0.0208333333333333
147
0.0
147
0.0
147
0.0
147
0.0
147
1.0
147
0.0
147
0.0
147
0.0
147
0.0
147
1.0
  0
MATERIAL
  5
21
102
{ACAD_XDICTIONARY
360
22
102
}
102
{ACAD_REACTORS
330
10
102
}
330
10
100
AcDbMaterial
  1
Global
 72
     0
 43
0.0208333333333333
 43
0.0
 43
0.0
 43
0.0
 43
0.0
 43
0.0208333333333333
 43
0.0
 43
0.0
 43
0.0
 43
0.0
 43
1.0
 43
0.0
 43
0.0
 43
0.0
 43
0.0
 43
1.0
 77
     0
 47
0.0208333333333333
 47
0.0
 47
0.0
 47
0.0
 47
0.0
 47
0.0208333333333333
 47
0.0
 47
0.0
 47
0.0
 47
0.0
 47
1.0
 47
0.0
 47
0.0
 47
0.0
 47
0.0
 47
1.0
171
     0
 49
0.0208333333333333
 49
0.0
 49
0.0
 49
0.0
 49
0.0
 49
0.0208333333333333
 49
0.0
 49
0.0
 49
0.0
 49
0.0
 49
1.0
 49
0.0
 49
0.0
 49
0.0
 49
0.0
 49
1.0
175
     0
142
0.0208333333333333
142
0.0
142
0.0
142
0.0
142
0.0
142
0.0208333333333333
142
0.0
142
0.0
142
0.0
142
0.0
142
1.0
142
0.0
142
0.0
142
0.0
142
0.0
142
1.0
179
     0
144
0.0208333333333333
144
0.0
144
0.0
144
0.0
144
0.0
144
0.0208333333333333
144
0.0
144
0.0
144
0.0
144
0.0
144
1.0
144
0.0
144
0.0
144
0.0
144
0.0
144
1.0
147
0.0208333333333333
147
0.0
147
0.0
147
0.0
147
0.0
147
0.0208333333333333
147
0.0
147
0.0
147
0.0
147
0.0
147
1.0
147
0.0
147
0.0
147
0.0
147
0.0
147
1.0
  0
MLEADERSTYLE
  5
66
102
{ACAD_REACTORS
330
65
102
}
330
65
100
AcDbMLeaderStyle
170
     2
171
     1
172
     0
 90
        2
 40
0.0
 41
0.0
173
     1
 91
-1056964608
340
5A
 92
       -2
290
     1
 42
0.09
291
     1
 43
0.36
  3
Standard
 44
0.18
300

342
55
174
     1
178
     6
175
     1
176
     0
 93
-1056964608
 45
0.18
292
     0
297
     0
 46
0.18
 94
-1056964608
 47
1.0
 49
1.0
140
1.0
293
     1
141
0.0
294
     1
177
     0
142
1.0
295
     0
296
     0
143
0.125
1001
ACAD_MLEADERVER
1070
     2
  0
MLINESTYLE
  5
5F
102
{ACAD_REACTORS
330
5E
102
}
330
5E
100
AcDbMlineStyle
  2
STANDARD
 70
     0
  3

 62
   256
 51
90.0
 52
90.0
 71
     2
 49
0.5
 62
   256
  6
BYLAYER
 49
-0.5
 62
   256
  6
BYLAYER
  0
ACDBPLACEHOLDER
  5
F
102
{ACAD_REACTORS
330
E
102
}
330
E
  0
SCALE
  5
43
102
{ACAD_REACTORS
330
42
102
}
330
42
100
AcDbScale
 70
     0
300
1:1
140
1.0
141
1.0
290
     1
  0
SCALE
  5
44
102
{ACAD_REACTORS
330
42
102
}
330
42
100
AcDbScale
 70
     0
300
1/128" = 1'-0"
140
0.0078125
141
12.0
290
     0
  0
SCALE
  5
45
102
{ACAD_REACTORS
330
42
102
}
330
42
100
AcDbScale
 70
     0
300
1/64" = 1'-0"
140
0.015625
141
12.0
290
     0
  0
SCALE
  5
46
102
{ACAD_REACTORS
330
42
102
}
330
42
100
AcDbScale
 70
     0
300
1/32" = 1'-0"
140
0.03125
141
12.0
290
     0
  0
SCALE
  5
47
102
{ACAD_REACTORS
330
42
102
}
330
42
100
AcDbScale
 70
     0
300
1/16" = 1'-0"
140
0.0625
141
12.0
290
     0
  0
SCALE
  5
48
102
{ACAD_REACTORS
330
42
102
}
330
42
100
AcDbScale
 70
     0
300
3/32" = 1'-0"
140
0.09375
141
12.0
290
     0
  0
SCALE
  5
49
102
{ACAD_REACTORS
330
42
102
}
330
42
100
AcDbScale
 70
     0
300
1/8" = 1'-0"
140
0.125
141
12.0
290
     0
  0
SCALE
  5
4A
102
{ACAD_REACTORS
330
42
102
}
330
42
100
AcDbScale
 70
     0
300
3/16" = 1'-0"
140
0.1875
141
12.0
290
     0
  0
SCALE
  5
4B
102
{ACAD_REACTORS
330
42
102
}
330
42
100
AcDbScale
 70
     0
300
1/4" = 1'-0"
140
0.25
141
12.0
290
     0
  0
SCALE
  5
4C
102
{ACAD_REACTORS
330
42
102
}
330
42
100
AcDbScale
 70
     0
300
3/8" = 1'-0"
140
0.375
141
12.0
290
     0
  0
SCALE
  5
4D
102
{ACAD_REACTORS
330
42
102
}
330
42
100
AcDbScale
 70
     0
300
1/2" = 1'-0"
140
0.5
141
12.0
290
     0
  0
SCALE
  5
4E
102
{ACAD_REACTORS
330
42
102
}
330
42
100
AcDbScale
 70
     0
300
3/4" = 1'-0"
140
0.75
141
12.0
290
     0
  0
SCALE
  5
4F
102
{ACAD_REACTORS
330
42
102
}
330
42
100
AcDbScale
 70
     0
300
1" = 1'-0"
140
1.0
141
12.0
290
     0
  0
SCALE
  5
50
102
{ACAD_REACTORS
330
42
102
}
330
42
100
AcDbScale
 70
     0
300
1-1/2" = 1'-0"
140
1.5
141
12.0
290
     0
  0
SCALE
  5
51
102
{ACAD_REACTORS
330
42
102
}
330
42
100
AcDbScale
 70
     0
300
3" = 1'-0"
140
3.0
141
12.0
290
     0
  0
SCALE
  5
52
102
{ACAD_REACTORS
330
42
102
}
330
42
100
AcDbScale
 70
     0
300
6" = 1'-0"
140
6.0
141
12.0
290
     0
  0
SCALE
  5
53
102
{ACAD_REACTORS
330
42
102
}
330
42
100
AcDbScale
 70
     0
300
1'-0" = 1'-0"
140
12.0
141
12.0
290
     0
  0
TABLESTYLE
  5
64
102
{ACAD_XDICTIONARY
360
5DC
102
}
102
{ACAD_REACTORS
330
63
102
}
330
63
100
AcDbTableStyle
  3
Standard
 70
     0
 71
     0
 40
0.06
 41
0.06
280
     0
281
     0
  7
STANDARD
140
0.18
170
     2
 62
     0
 63
     7
283
     0
274
    -2
284
     1
 64
     0
275
    -2
285
     1
 65
     0
276
    -2
286
     1
 66
     0
277
    -2
287
     1
 67
     0
278
    -2
288
     1
 68
     0
279
    -2
289
     1
 69
     0
  7
STANDARD
140
0.25
170
     5
 62
     0
 63
     7
283
     0
274
    -2
284
     1
 64
     0
275
    -2
285
     1
 65
     0
276
    -2
286
     1
 66
     0
277
    -2
287
     1
 67
     0
278
    -2
288
     1
 68
     0
279
    -2
289
     1
 69
     0
  7
STANDARD
140
0.18
170
     5
 62
     0
 63
     7
283
     0
274
    -2
284
     1
 64
     0
275
    -2
285
     1
 65
     0
276
    -2
286
     1
 66
     0
277
    -2
287
     1
 67
     0
278
    -2
288
     1
 68
     0
279
    -2
289
     1
 69
     0
  0
VISUALSTYLE
  5
2F
102
{ACAD_XDICTIONARY
360
925
102
}
102
{ACAD_REACTORS
330
29
102
}
330
29
100
AcDbVisualStyle
  2

 70
     4
 71
     0
 72
     2
 73
     0
 90
        0
 40
-0.6
 41
-30.0
 62
     5
 63
     7
 74
     1
 91
        4
 64
     7
 65
   257
 75
     1
175
     1
 42
1.0
 92
        0
 66
   257
 43
1.0
 76
     1
 77
     6
 78
     2
 67
     7
 79
     5
170
     0
171
     0
290
     0
174
     0
 93
        1
 44
0.0
173
     0
291
     0
 45
0.0
1001
ACAD
1000
AcDbSavedByObjectVersion
1070
     0
  0
VISUALSTYLE
  5
310
102
{ACAD_XDICTIONARY
360
950
102
}
102
{ACAD_REACTORS
330
29
102
}
330
29
100
AcDbVisualStyle
  2

 70
     5
 71
     0
 72
     2
 73
     1
 90
        0
 40
-0.6
 41
-30.0
 62
     5
 63
     7
 74
     1
 91
        4
 64
     7
 65
   257
 75
     1
175
     1
 42
1.0
 92
        0
 66
   257
 43
1.0
 76
     1
 77
     6
 78
     2
 67
     7
 79
     5
170
     0
171
     0
290
     0
174
     0
 93
        1
 44
0.0
173
     0
291
     0
 45
0.0
1001
ACAD
1000
AcDbSavedByObjectVersion
1070
     0
  0
VISUALSTYLE
  5
2E
102
{ACAD_XDICTIONARY
360
923
102
}
102
{ACAD_REACTORS
330
29
102
}
330
29
100
AcDbVisualStyle
  2

 70
     7
 71
     1
 72
     0
 73
     1
 90
        0
 40
-0.6
 41
-30.0
 62
     5
 63
     7
 74
     0
 91
        4
 64
     7
 65
   257
 75
     1
175
     1
 42
1.0
 92
        8
 66
     7
 43
1.0
 76
     1
 77
     6
 78
     2
 67
     7
 79
     5
170
     0
171
     0
290
     0
174
     0
 93
        1
 44
0.0
173
     0
291
     1
 45
0.0
1001
ACAD
1000
AcDbSavedByObjectVersion
1070
     0
  0
VISUALSTYLE
  5
35
102
{ACAD_XDICTIONARY
360
931
102
}
102
{ACAD_REACTORS
330
29
102
}
330
29
100
AcDbVisualStyle
  2

 70
    12
 71
     2
 72
     2
 73
     0
 90
        0
 40
-0.6
 41
-30.0
 62
     5
 63
     7
 74
     1
 91
        4
 64
     7
 65
   257
 75
     1
175
     1
 42
1.0
 92
        8
 66
     7
 43
1.0
 76
     1
 77
     6
 78
     2
 67
     7
 79
     5
170
     0
171
     0
290
     0
174
     0
 93
        1
 44
50.0
173
     0
291
     1
 45
0.0
1001
ACAD
1000
AcDbSavedByObjectVersion
1070
     0
  0
VISUALSTYLE
  5
39
102
{ACAD_XDICTIONARY
360
939
102
}
102
{ACAD_REACTORS
330
29
102
}
330
29
100
AcDbVisualStyle
  2

 70
    16
 71
     2
 72
     2
 73
     3
 90
        0
 40
-0.6
 41
-30.0
 62
     5
 63
     8
 74
     1
 91
        4
 64
     7
 65
   257
 75
     1
175
     1
 42
1.0
 92
        8
 66
     8
 43
1.0
 76
     1
 77
     6
 78
     2
 67
     7
 79
     5
170
     0
171
     0
290
     0
174
     0
 93
        1
 44
0.0
173
     0
291
     1
 45
0.0
1001
ACAD
1000
AcDbSavedByObjectVersion
1070
     0
  0
VISUALSTYLE
  5
32
102
{ACAD_XDICTIONARY
360
92B
102
}
102
{ACAD_REACTORS
330
29
102
}
330
29
100
AcDbVisualStyle
  2

 70
     9
 71
     3
 72
     2
 73
     0
 90
        0
 40
-0.6
 41
-30.0
 62
     5
 63
     7
 74
     2
 91
        2
 64
     7
 65
   257
 75
     1
175
     1
 42
179.0
 92
        8
 66
     7
 43
1.0
 76
     1
 77
     6
 78
     2
 67
     7
 79
     3
170
     0
171
     0
290
     0
174
     0
 93
        1
 44
0.0
173
     0
291
     0
 45
0.0
1001
ACAD
1000
AcDbSavedByObjectVersion
1070
     0
  0
VISUALSTYLE
  5
34
102
{ACAD_XDICTIONARY
360
92F
102
}
102
{ACAD_REACTORS
330
29
102
}
330
29
100
AcDbVisualStyle
  2

 70
    11
 71
     2
 72
     2
 73
     0
 90
        0
 40
-0.6
 41
-30.0
 62
     5
 63
     7
 74
     1
 91
        4
 64
     7
 65
   257
 75
     1
175
     1
 42
1.0
 92
        8
 66
     7
 43
1.0
 76
     1
 77
     6
 78
     2
 67
     7
 79
     5
170
     0
171
     0
290
     0
174
     0
 93
        1
 44
-50.0
173
     0
291
     1
 45
0.0
1001
ACAD
1000
AcDbSavedByObjectVersion
1070
     0
  0
VISUALSTYLE
  5
41
102
{ACAD_XDICTIONARY
360
949
102
}
102
{ACAD_REACTORS
330
29
102
}
330
29
100
AcDbVisualStyle
  2

 70
    22
 71
     2
 72
     2
 73
     0
 90
        0
 40
-0.6
 41
-30.0
 62
     5
 63
     7
 74
     1
 91
        4
 64
     7
 65
   257
 75
     1
175
     1
 42
1.0
 92
        8
 66
     7
 43
1.0
 76
     1
 77
     6
 78
     2
 67
     7
 79
     5
170
     0
171
     0
290
     0
174
     0
 93
        1
 44
0.0
173
     0
291
     1
 45
0.0
1001
ACAD
1000
AcDbSavedByObjectVersion
1070
     0
  0
VISUALSTYLE
  5
38
102
{ACAD_XDICTIONARY
360
937
102
}
102
{ACAD_REACTORS
330
29
102
}
330
29
100
AcDbVisualStyle
  2

 70
    15
 71
     2
 72
     2
 73
     0
 90
        0
 40
-0.6
 41
-30.0
 62
     5
 63
     7
 74
     1
 91
        4
 64
     7
 65
   257
 75
     1
175
     1
 42
1.0
 92
        8
 66
     7
 43
1.0
 76
     1
 77
     6
 78
     2
 67
     7
 79
     5
170
     0
171
     0
290
     0
174
     0
 93
        1
 44
0.0
173
     0
291
     1
 45
0.0
1001
ACAD
1000
AcDbSavedByObjectVersion
1070
     0
  0
VISUALSTYLE
  5
2A
102
{ACAD_XDICTIONARY
360
91B
102
}
102
{ACAD_REACTORS
330
29
102
}
330
29
100
AcDbVisualStyle
  2

 70
     0
 71
     2
 72
     1
 73
     1
 90
        2
 40
-0.6
 41
30.0
 62
     5
 63
     7
 74
     0
 91
        0
 64
     7
 65
   257
 75
     1
175
     1
 42
1.0
 92
        8
 66
     7
 43
1.0
 76
     1
 77
     6
 78
     2
 67
     7
 79
     5
170
     0
171
     0
290
     0
174
     0
 93
       13
 44
0.0
173
     0
291
     1
 45
0.0
1001
ACAD
1000
AcDbSavedByObjectVersion
1070
     0
  0
VISUALSTYLE
  5
2B
102
{ACAD_XDICTIONARY
360
91D
102
}
102
{ACAD_REACTORS
330
29
102
}
330
29
100
AcDbVisualStyle
  2

 70
     1
 71
     2
 72
     1
 73
     1
 90
        2
 40
-0.6
 41
30.0
 62
     5
 63
     7
 74
     1
 91
        0
 64
     7
 65
   257
 75
     1
175
     1
 42
1.0
 92
        0
 66
   257
 43
1.0
 76
     1
 77
     6
 78
     2
 67
     7
 79
     5
170
     0
171
     0
290
     0
174
     0
 93
       13
 44
0.0
173
     0
291
     1
 45
0.0
1001
ACAD
1000
AcDbSavedByObjectVersion
1070
     0
  0
VISUALSTYLE
  5
2C
102
{ACAD_XDICTIONARY
360
91F
102
}
102
{ACAD_REACTORS
330
29
102
}
330
29
100
AcDbVisualStyle
  2

 70
     2
 71
     2
 72
     2
 73
     1
 90
        2
 40
-0.6
 41
30.0
 62
     5
 63
     7
 74
     0
 91
        0
 64
     7
 65
   257
 75
     1
175
     1
 42
1.0
 92
        0
 66
     7
 43
1.0
 76
     1
 77
     6
 78
     2
 67
     7
 79
     5
170
     0
171
     0
290
     0
174
     0
 93
       13
 44
0.0
173
     0
291
     1
 45
0.0
1001
ACAD
1000
AcDbSavedByObjectVersion
1070
     0
  0
VISUALSTYLE
  5
2D
102
{ACAD_XDICTIONARY
360
921
102
}
102
{ACAD_REACTORS
330
29
102
}
330
29
100
AcDbVisualStyle
  2

 70
     3
 71
     2
 72
     2
 73
     1
 90
        2
 40
-0.6
 41
30.0
 62
     5
 63
     7
 74
     1
 91
        0
 64
     7
 65
   257
 75
     1
175
     1
 42
1.0
 92
        0
 66
   257
 43
1.0
 76
     1
 77
     6
 78
     2
 67
     7
 79
     5
170
     0
171
     0
290
     0
174
     0
 93
       13
 44
0.0
173
     0
291
     1
 45
0.0
1001
ACAD
1000
AcDbSavedByObjectVersion
1070
     0
  0
VISUALSTYLE
  5
31
102
{ACAD_XDICTIONARY
360
929
102
}
102
{ACAD_REACTORS
330
29
102
}
330
29
100
AcDbVisualStyle
  2

 70
     6
 71
     1
 72
     2
 73
     2
 90
        0
 40
-0.6
 41
-30.0
 62
     5
 63
     7
 74
     2
 91
        2
 64
     7
 65
   257
 75
     2
175
     1
 42
40.0
 92
        0
 66
   257
 43
1.0
 76
     1
 77
     6
 78
     2
 67
     7
 79
     3
170
     0
171
     0
290
     0
174
     0
 93
        1
 44
0.0
173
     0
291
     0
 45
0.0
1001
ACAD
1000
AcDbSavedByObjectVersion
1070
     0
  0
VISUALSTYLE
  5
3F
102
{ACAD_XDICTIONARY
360
945
102
}
102
{ACAD_REACTORS
330
29
102
}
330
29
100
AcDbVisualStyle
  2

 70
    20
 71
     2
 72
     2
 73
     0
 90
        0
 40
-0.6
 41
-30.0
 62
     5
 63
     7
 74
     1
 91
        4
 64
     7
 65
   257
 75
     1
175
     1
 42
1.0
 92
       10
 66
     7
 43
1.0
 76
     1
 77
     6
 78
     2
 67
     7
 79
     5
170
     0
171
     0
290
     0
174
     0
 93
        1
 44
0.0
173
     0
291
     1
 45
0.0
1001
ACAD
1000
AcDbSavedByObjectVersion
1070
     0
  0
VISUALSTYLE
  5
37
102
{ACAD_XDICTIONARY
360
935
102
}
102
{ACAD_REACTORS
330
29
102
}
330
29
100
AcDbVisualStyle
  2

 70
    14
 71
     2
 72
     2
 73
     0
 90
        0
 40
-0.6
 41
-30.0
 62
     5
 63
     7
 74
     1
 91
        4
 64
     7
 65
   257
 75
     7
175
     7
 42
1.0
 92
        8
 66
     7
 43
1.0
 76
     1
 77
     6
 78
     2
 67
     7
 79
     5
170
     0
171
     0
290
     0
174
     0
 93
        1
 44
0.0
173
     0
291
     1
 45
0.0
1001
ACAD
1000
AcDbSavedByObjectVersion
1070
     0
  0
VISUALSTYLE
  5
40
102
{ACAD_XDICTIONARY
360
947
102
}
102
{ACAD_REACTORS
330
29
102
}
330
29
100
AcDbVisualStyle
  2

 70
    21
 71
     2
 72
     2
 73
     0
 90
        0
 40
-0.6
 41
-30.0
 62
     5
 63
     7
 74
     1
 91
        4
 64
     7
 65
   257
 75
     1
175
     1
 42
1.0
 92
        9
 66
     7
 43
1.0
 76
     1
 77
     6
 78
     2
 67
     7
 79
     5
170
     0
171
     0
290
     0
174
     0
 93
        1
 44
0.0
173
     0
291
     1
 45
0.0
1001
ACAD
1000
AcDbSavedByObjectVersion
1070
     0
  0
VISUALSTYLE
  5
33
102
{ACAD_XDICTIONARY
360
92D
102
}
102
{ACAD_REACTORS
330
29
102
}
330
29
100
AcDbVisualStyle
  2

 70
     8
 71
     2
 72
     3
 73
     0
 90
        2
 40
-0.6
 41
30.0
 62
     5
 63
     7
 74
     0
 91
        0
 64
     7
 65
   257
 75
     1
175
     1
 42
1.0
 92
        8
 66
   257
 43
1.0
 76
     1
 77
     6
 78
     2
 67
     7
 79
     3
170
     0
171
     0
290
     0
174
     0
 93
       13
 44
0.0
173
     0
291
     0
 45
0.0
1001
ACAD
1000
AcDbSavedByObjectVersion
1070
     0
  0
VISUALSTYLE
  5
3E
102
{ACAD_XDICTIONARY
360
943
102
}
102
{ACAD_REACTORS
330
29
102
}
330
29
100
AcDbVisualStyle
  2

 70
    27
 71
     2
 72
     2
 73
     1
 90
        2
 40
-0.6
 41
30.0
 62
     5
 63
     7
 74
     0
 91
        4
 64
     7
 65
   257
 75
     1
175
     1
 42
1.0
 92
        8
 66
   257
 43
1.0
 76
     1
 77
     6
 78
     2
 67
     8
 79
     3
170
     0
171
     0
290
     0
174
     0
 93
        5
 44
0.0
173
     0
291
     0
 45
0.0
1001
ACAD
1000
AcDbSavedByObjectVersion
1070
     0
  0
VISUALSTYLE
  5
3D
102
{ACAD_XDICTIONARY
360
941
102
}
102
{ACAD_REACTORS
330
29
102
}
330
29
100
AcDbVisualStyle
  2

 70
    26
 71
     2
 72
     2
 73
     1
 90
        2
 40
-0.6
 41
30.0
 62
     5
 63
     7
 74
     1
 91
       10
 64
     7
 65
   257
 75
     2
175
     1
 42
1.0
 92
        8
 66
   257
 43
1.0
 76
     1
 77
     6
 78
     2
 67
     7
 79
     3
170
     0
171
     0
290
     0
174
     0
 93
        5
 44
0.0
173
     0
291
     0
 45
0.0
1001
ACAD
1000
AcDbSavedByObjectVersion
1070
     0
  0
VISUALSTYLE
  5
3A
102
{ACAD_XDICTIONARY
360
93B
102
}
102
{ACAD_REACTORS
330
29
102
}
330
29
100
AcDbVisualStyle
  2

 70
    23
 71
     2
 72
     2
 73
     3
 90
        0
 40
-0.6
 41
-30.0
 62
     5
 63
     7
 74
     2
 91
        2
 64
     7
 65
     7
 75
     1
175
     1
 42
40.0
 92
        8
 66
     7
 43
1.0
 76
     1
 77
     6
 78
     2
 67
     7
 79
     3
170
     0
171
     0
290
     0
174
     0
 93
        1
 44
0.0
173
     0
291
     0
 45
0.0
1001
ACAD
1000
AcDbSavedByObjectVersion
1070
     0
  0
VISUALSTYLE
  5
3B
102
{ACAD_XDICTIONARY
360
93D
102
}
102
{ACAD_REACTORS
330
29
102
}
330
29
100
AcDbVisualStyle
  2

 70
    24
 71
     1
 72
     2
 73
     2
 90
        0
 40
-0.6
 41
-30.0
 62
     5
 63
     7
 74
     2
 91
        2
 64
     7
 65
     7
 75
     1
175
     1
 42
40.0
 92
       11
 66
     7
 43
1.0
 76
     1
 77
     6
 78
     2
 67
     7
 79
     6
170
     0
171
     0
290
     0
174
     0
 93
        1
 44
0.0
173
     0
291
     0
 45
0.0
1001
ACAD
1000
AcDbSavedByObjectVersion
1070
     0
  0
VISUALSTYLE
  5
36
102
{ACAD_XDICTIONARY
360
933
102
}
102
{ACAD_REACTORS
330
29
102
}
330
29
100
AcDbVisualStyle
  2

 70
    13
 71
     2
 72
     2
 73
     0
 90
        0
 40
-0.6
 41
-30.0
 62
     5
 63
     7
 74
     1
 91
        4
 64
     7
 65
   257
 75
     1
175
     1
 42
1.0
 92
       12
 66
     7
 43
1.0
 76
     1
 77
     6
 78
     2
 67
     7
 79
     5
170
     0
171
     0
290
     0
174
     0
 93
        1
 44
0.0
173
     0
291
     1
 45
0.0
1001
ACAD
1000
AcDbSavedByObjectVersion
1070
     0
  0
VISUALSTYLE
  5
30
102
{ACAD_XDICTIONARY
360
927
102
}
102
{ACAD_REACTORS
330
29
102
}
330
29
100
AcDbVisualStyle
  2

 70
     5
 71
     0
 72
     2
 73
     0
 90
        0
 40
-0.6
 41
-30.0
 62
     5
 63
     7
 74
     1
 91
        4
 64
     7
 65
   257
 75
     1
175
     1
 42
1.0
 92
        0
 66
   257
 43
1.0
 76
     1
 77
     6
 78
     2
 67
     7
 79
     3
170
     0
171
     0
290
     0
174
     0
 93
        1
 44
0.0
173
     0
291
     0
 45
0.0
1001
ACAD
1000
AcDbSavedByObjectVersion
1070
     0
  0
VISUALSTYLE
  5
3C
102
{ACAD_XDICTIONARY
360
93F
102
}
102
{ACAD_REACTORS
330
29
102
}
330
29
100
AcDbVisualStyle
  2

 70
    25
 71
     2
 72
     2
 73
     1
 90
        1
 40
0.5
 41
-30.0
 62
     5
 63
     7
 74
     1
 91
        0
 64
     7
 65
   257
 75
     1
175
     1
 42
1.0
 92
        8
 66
     7
 43
1.0
 76
     1
 77
     6
 78
     2
 67
     7
 79
     3
170
     0
171
     0
290
     0
174
     0
 93
       13
 44
0.0
173
     0
291
     0
 45
0.0
1001
ACAD
1000
AcDbSavedByObjectVersion
1070
     0
  0
DICTIONARYVAR
  5
5D7
102
{ACAD_REACTORS
330
5D4
102
}
330
5D4
100
DictionaryVariables
280
     0
  1
1:1
  0
DICTIONARYVAR
  5
5D6
102
{ACAD_REACTORS
330
5D4
102
}
330
5D4
100
DictionaryVariables
280
     0
  1
STANDARD
  0
DICTIONARYVAR
  5
5D5
102
{ACAD_REACTORS
330
5D4
102
}
330
5D4
100
DictionaryVariables
280
     0
  1
STANDARD
  0
DICTIONARYVAR
  5
5DA
102
{ACAD_REACTORS
330
5D4
102
}
330
5D4
100
DictionaryVariables
280
     0
  1
1
  0
DICTIONARYVAR
  5
5D9
102
{ACAD_REACTORS
330
5D4
102
}
330
5D4
100
DictionaryVariables
280
     0
  1
0
  0
DICTIONARYVAR
  5
5D8
102
{ACAD_REACTORS
330
5D4
102
}
330
5D4
100
DictionaryVariables
280
     0
  1
127
  0
DICTIONARYVAR
  5
829
102
{ACAD_REACTORS
330
5D4
102
}
330
5D4
100
DictionaryVariables
280
     0
  1
2
  0
DICTIONARY
  5
94E
330
6E
100
AcDbDictionary
280
     1
281
     1
  3
ACAD_XREC_ROUNDTRIP
360
94F
  0
DICTIONARY
  5
94C
330
6A
100
AcDbDictionary
280
     1
281
     1
  3
ACAD_XREC_ROUNDTRIP
360
94D
  0
DICTIONARY
  5
1A
330
19
100
AcDbDictionary
280
     1
281
     1
  3
ACAD_XREC_ROUNDTRIP
360
5E5
  3
BUMPTILE
360
1C
  3
DIFFUSETILE
360
1B
  3
OPACITYTILE
360
1F
  3
REFLECTIONTILE
360
1E
  3
REFRACTIONTILE
360
20
  3
SPECULARTILE
360
1D
  0
DICTIONARY
  5
12
330
11
100
AcDbDictionary
280
     1
281
     1
  3
ACAD_XREC_ROUNDTRIP
360
5E4
  3
BUMPTILE
360
14
  3
DIFFUSETILE
360
13
  3
OPACITYTILE
360
17
  3
REFLECTIONTILE
360
16
  3
REFRACTIONTILE
360
18
  3
SPECULARTILE
360
15
  0
DICTIONARY
  5
22
330
21
100
AcDbDictionary
280
     1
281
     1
  3
ACAD_XREC_ROUNDTRIP
360
5E6
  3
BUMPTILE
360
24
  3
DIFFUSETILE
360
23
  3
OPACITYTILE
360
27
  3
REFLECTIONTILE
360
26
  3
REFRACTIONTILE
360
28
  3
SPECULARTILE
360
25
  0
DICTIONARY
  5
5DC
330
64
100
AcDbDictionary
280
     1
281
     1
  3
ACAD_ROUNDTRIP_2008_TABLESTYLE_CELLSTYLEMAP
360
914
  3
ACAD_XREC_ROUNDTRIP
360
94B
  0
DICTIONARY
  5
925
330
2F
100
AcDbDictionary
280
     1
281
     1
  3
ACAD_XREC_ROUNDTRIP
360
926
  0
DICTIONARY
  5
950
330
310
100
AcDbDictionary
280
     1
281
     1
  3
ACAD_XREC_ROUNDTRIP
360
951
  0
DICTIONARY
  5
923
330
2E
100
AcDbDictionary
280
     1
281
     1
  3
ACAD_XREC_ROUNDTRIP
360
924
  0
DICTIONARY
  5
931
330
35
100
AcDbDictionary
280
     1
281
     1
  3
ACAD_XREC_ROUNDTRIP
360
932
  0
DICTIONARY
  5
939
330
39
100
AcDbDictionary
280
     1
281
     1
  3
ACAD_XREC_ROUNDTRIP
360
93A
  0
DICTIONARY
  5
92B
330
32
100
AcDbDictionary
280
     1
281
     1
  3
ACAD_XREC_ROUNDTRIP
360
92C
  0
DICTIONARY
  5
92F
330
34
100
AcDbDictionary
280
     1
281
     1
  3
ACAD_XREC_ROUNDTRIP
360
930
  0
DICTIONARY
  5
949
330
41
100
AcDbDictionary
280
     1
281
     1
  3
ACAD_XREC_ROUNDTRIP
360
94A
  0
DICTIONARY
  5
937
330
38
100
AcDbDictionary
280
     1
281
     1
  3
ACAD_XREC_ROUNDTRIP
360
938
  0
DICTIONARY
  5
91B
330
2A
100
AcDbDictionary
280
     1
281
     1
  3
ACAD_XREC_ROUNDTRIP
360
91C
  0
DICTIONARY
  5
91D
330
2B
100
AcDbDictionary
280
     1
281
     1
  3
ACAD_XREC_ROUNDTRIP
360
91E
  0
DICTIONARY
  5
91F
330
2C
100
AcDbDictionary
280
     1
281
     1
  3
ACAD_XREC_ROUNDTRIP
360
920
  0
DICTIONARY
  5
921
330
2D
100
AcDbDictionary
280
     1
281
     1
  3
ACAD_XREC_ROUNDTRIP
360
922
  0
DICTIONARY
  5
929
330
31
100
AcDbDictionary
280
     1
281
     1
  3
ACAD_XREC_ROUNDTRIP
360
92A
  0
DICTIONARY
  5
945
330
3F
100
AcDbDictionary
280
     1
281
     1
  3
ACAD_XREC_ROUNDTRIP
360
946
  0
DICTIONARY
  5
935
330
37
100
AcDbDictionary
280
     1
281
     1
  3
ACAD_XREC_ROUNDTRIP
360
936
  0
DICTIONARY
  5
947
330
40
100
AcDbDictionary
280
     1
281
     1
  3
ACAD_XREC_ROUNDTRIP
360
948
  0
DICTIONARY
  5
92D
330
33
100
AcDbDictionary
280
     1
281
     1
  3
ACAD_XREC_ROUNDTRIP
360
92E
  0
DICTIONARY
  5
943
330
3E
100
AcDbDictionary
280
     1
281
     1
  3
ACAD_XREC_ROUNDTRIP
360
944
  0
DICTIONARY
  5
941
330
3D
100
AcDbDictionary
280
     1
281
     1
  3
ACAD_XREC_ROUNDTRIP
360
942
  0
DICTIONARY
  5
93B
330
3A
100
AcDbDictionary
280
     1
281
     1
  3
ACAD_XREC_ROUNDTRIP
360
93C
  0
DICTIONARY
  5
93D
330
3B
100
AcDbDictionary
280
     1
281
     1
  3
ACAD_XREC_ROUNDTRIP
360
93E
  0
DICTIONARY
  5
933
330
36
100
AcDbDictionary
280
     1
281
     1
  3
ACAD_XREC_ROUNDTRIP
360
934
  0
DICTIONARY
  5
927
330
30
100
AcDbDictionary
280
     1
281
     1
  3
ACAD_XREC_ROUNDTRIP
360
928
  0
DICTIONARY
  5
93F
330
3C
100
AcDbDictionary
280
     1
281
     1
  3
ACAD_XREC_ROUNDTRIP
360
940
  0
XRECORD
  5
94F
102
{ACAD_REACTORS
330
94E
102
}
330
94E
100
AcDbXrecord
280
     1
102
SHADEPLOT
 70
     0
102
SHADEPLOTRESLEVEL
 70
     2
102
SHADEPLOTCUSTOMDPI
 70
   300
  0
XRECORD
  5
94D
102
{ACAD_REACTORS
330
94C
102
}
330
94C
100
AcDbXrecord
280
     1
102
SHADEPLOT
 70
     0
102
SHADEPLOTRESLEVEL
 70
     2
102
SHADEPLOTCUSTOMDPI
 70
   300
  0
XRECORD
  5
5E5
102
{ACAD_REACTORS
330
1A
102
}
330
1A
100
AcDbXrecord
280
     1
102
MATERIAL
148
0.0
149
0.0
149
0.0
 93
        0
 94
      127
282
     0
 72
     0
 77
     0
171
     0
175
     0
179
     0
273
     0
  0
XRECORD
  5
1C
102
{ACAD_REACTORS
330
1A
102
}
330
1A
100
AcDbXrecord
280
     1
270
     1
271
     1
  0
XRECORD
  5
1B
102
{ACAD_REACTORS
330
1A
102
}
330
1A
100
AcDbXrecord
280
     1
270
     1
271
     1
  0
XRECORD
  5
1F
102
{ACAD_REACTORS
330
1A
102
}
330
1A
100
AcDbXrecord
280
     1
270
     1
271
     1
  0
XRECORD
  5
1E
102
{ACAD_REACTORS
330
1A
102
}
330
1A
100
AcDbXrecord
280
     1
270
     1
271
     1
  0
XRECORD
  5
20
102
{ACAD_REACTORS
330
1A
102
}
330
1A
100
AcDbXrecord
280
     1
270
     1
271
     1
  0
XRECORD
  5
1D
102
{ACAD_REACTORS
330
1A
102
}
330
1A
100
AcDbXrecord
280
     1
270
     1
271
     1
  0
XRECORD
  5
5E4
102
{ACAD_REACTORS
330
12
102
}
330
12
100
AcDbXrecord
280
     1
102
MATERIAL
148
0.0
149
0.0
149
0.0
 93
        0
 94
      127
282
     0
 72
     0
 77
     0
171
     0
175
     0
179
     0
273
     0
  0
XRECORD
  5
14
102
{ACAD_REACTORS
330
12
102
}
330
12
100
AcDbXrecord
280
     1
270
     1
271
     1
  0
XRECORD
  5
13
102
{ACAD_REACTORS
330
12
102
}
330
12
100
AcDbXrecord
280
     1
270
     1
271
     1
  0
XRECORD
  5
17
102
{ACAD_REACTORS
330
12
102
}
330
12
100
AcDbXrecord
280
     1
270
     1
271
     1
  0
XRECORD
  5
16
102
{ACAD_REACTORS
330
12
102
}
330
12
100
AcDbXrecord
280
     1
270
     1
271
     1
  0
XRECORD
  5
18
102
{ACAD_REACTORS
330
12
102
}
330
12
100
AcDbXrecord
280
     1
270
     1
271
     1
  0
XRECORD
  5
15
102
{ACAD_REACTORS
330
12
102
}
330
12
100
AcDbXrecord
280
     1
270
     1
271
     1
  0
XRECORD
  5
5E6
102
{ACAD_REACTORS
330
22
102
}
330
22
100
AcDbXrecord
280
     1
102
MATERIAL
148
0.0
149
0.0
149
0.0
 93
        0
 94
      127
282
     0
 72
     0
 77
     0
171
     0
175
     0
179
     0
273
     0
  0
XRECORD
  5
24
102
{ACAD_REACTORS
330
22
102
}
330
22
100
AcDbXrecord
280
     1
270
     1
271
     1
  0
XRECORD
  5
23
102
{ACAD_REACTORS
330
22
102
}
330
22
100
AcDbXrecord
280
     1
270
     1
271
     1
  0
XRECORD
  5
27
102
{ACAD_REACTORS
330
22
102
}
330
22
100
AcDbXrecord
280
     1
270
     1
271
     1
  0
XRECORD
  5
26
102
{ACAD_REACTORS
330
22
102
}
330
22
100
AcDbXrecord
280
     1
270
     1
271
     1
  0
XRECORD
  5
28
102
{ACAD_REACTORS
330
22
102
}
330
22
100
AcDbXrecord
280
     1
270
     1
271
     1
  0
XRECORD
  5
25
102
{ACAD_REACTORS
330
22
102
}
330
22
100
AcDbXrecord
280
     1
270
     1
271
     1
  0
CELLSTYLEMAP
  5
914
102
{ACAD_REACTORS
330
5DC
102
}
330
5DC
100
AcDbCellStyleMap
 90
        3
300
CELLSTYLE
  1
TABLEFORMAT_BEGIN
 90
        5
170
     1
 91
        0
 92
    32768
 62
   257
 93
        1
300
CONTENTFORMAT
  1
CONTENTFORMAT_BEGIN
 90
        0
 91
        0
 92
      512
 93
        0
300

 40
0.0
140
1.0
 94
        5
 62
     0
340
55
144
0.25
309
CONTENTFORMAT_END
171
     1
301
MARGIN
  1
CELLMARGIN_BEGIN
 40
0.06
 40
0.06
 40
0.06
 40
0.06
 40
0.18
 40
0.18
309
CELLMARGIN_END
 94
        6
 95
        1
302
GRIDFORMAT
  1
GRIDFORMAT_BEGIN
 90
        0
 91
        1
 62
     0
 92
       -2
340
0
 93
        0
 40
0.045
309
GRIDFORMAT_END
 95
        2
302
GRIDFORMAT
  1
GRIDFORMAT_BEGIN
 90
        0
 91
        1
 62
     0
 92
       -2
340
0
 93
        0
 40
0.045
309
GRIDFORMAT_END
 95
        4
302
GRIDFORMAT
  1
GRIDFORMAT_BEGIN
 90
        0
 91
        1
 62
     0
 92
       -2
340
0
 93
        0
 40
0.045
309
GRIDFORMAT_END
 95
        8
302
GRIDFORMAT
  1
GRIDFORMAT_BEGIN
 90
        0
 91
        1
 62
     0
 92
       -2
340
0
 93
        0
 40
0.045
309
GRIDFORMAT_END
 95
       16
302
GRIDFORMAT
  1
GRIDFORMAT_BEGIN
 90
        0
 91
        1
 62
     0
 92
       -2
340
0
 93
        0
 40
0.045
309
GRIDFORMAT_END
 95
       32
302
GRIDFORMAT
  1
GRIDFORMAT_BEGIN
 90
        0
 91
        1
 62
     0
 92
       -2
340
0
 93
        0
 40
0.045
309
GRIDFORMAT_END
309
TABLEFORMAT_END
  1
CELLSTYLE_BEGIN
 90
        1
 91
        1
300
_TITLE
309
CELLSTYLE_END
300
CELLSTYLE
  1
TABLEFORMAT_BEGIN
 90
        5
170
     1
 91
        0
 92
        0
 62
   257
 93
        1
300
CONTENTFORMAT
  1
CONTENTFORMAT_BEGIN
 90
        0
 91
        0
 92
      512
 93
        0
300

 40
0.0
140
1.0
 94
        5
 62
     0
340
55
144
0.18
309
CONTENTFORMAT_END
171
     1
301
MARGIN
  1
CELLMARGIN_BEGIN
 40
0.06
 40
0.06
 40
0.06
 40
0.06
 40
0.18
 40
0.18
309
CELLMARGIN_END
 94
        6
 95
        1
302
GRIDFORMAT
  1
GRIDFORMAT_BEGIN
 90
        0
 91
        1
 62
     0
 92
       -2
340
0
 93
        0
 40
0.045
309
GRIDFORMAT_END
 95
        2
302
GRIDFORMAT
  1
GRIDFORMAT_BEGIN
 90
        0
 91
        1
 62
     0
 92
       -2
340
0
 93
        0
 40
0.045
309
GRIDFORMAT_END
 95
        4
302
GRIDFORMAT
  1
GRIDFORMAT_BEGIN
 90
        0
 91
        1
 62
     0
 92
       -2
340
0
 93
        0
 40
0.045
309
GRIDFORMAT_END
 95
        8
302
GRIDFORMAT
  1
GRIDFORMAT_BEGIN
 90
        0
 91
        1
 62
     0
 92
       -2
340
0
 93
        0
 40
0.045
309
GRIDFORMAT_END
 95
       16
302
GRIDFORMAT
  1
GRIDFORMAT_BEGIN
 90
        0
 91
        1
 62
     0
 92
       -2
340
0
 93
        0
 40
0.045
309
GRIDFORMAT_END
 95
       32
302
GRIDFORMAT
  1
GRIDFORMAT_BEGIN
 90
        0
 91
        1
 62
     0
 92
       -2
340
0
 93
        0
 40
0.045
309
GRIDFORMAT_END
309
TABLEFORMAT_END
  1
CELLSTYLE_BEGIN
 90
        2
 91
        1
300
_HEADER
309
CELLSTYLE_END
300
CELLSTYLE
  1
TABLEFORMAT_BEGIN
 90
        5
170
     1
 91
        0
 92
        0
 62
   257
 93
        1
300
CONTENTFORMAT
  1
CONTENTFORMAT_BEGIN
 90
        0
 91
        0
 92
      512
 93
        0
300

 40
0.0
140
1.0
 94
        2
 62
     0
340
55
144
0.18
309
CONTENTFORMAT_END
171
     1
301
MARGIN
  1
CELLMARGIN_BEGIN
 40
0.06
 40
0.06
 40
0.06
 40
0.06
 40
0.18
 40
0.18
309
CELLMARGIN_END
 94
        6
 95
        1
302
GRIDFORMAT
  1
GRIDFORMAT_BEGIN
 90
        0
 91
        1
 62
     0
 92
       -2
340
0
 93
        0
 40
0.045
309
GRIDFORMAT_END
 95
        2
302
GRIDFORMAT
  1
GRIDFORMAT_BEGIN
 90
        0
 91
        1
 62
     0
 92
       -2
340
0
 93
        0
 40
0.045
309
GRIDFORMAT_END
 95
        4
302
GRIDFORMAT
  1
GRIDFORMAT_BEGIN
 90
        0
 91
        1
 62
     0
 92
       -2
340
0
 93
        0
 40
0.045
309
GRIDFORMAT_END
 95
        8
302
GRIDFORMAT
  1
GRIDFORMAT_BEGIN
 90
        0
 91
        1
 62
     0
 92
       -2
340
0
 93
        0
 40
0.045
309
GRIDFORMAT_END
 95
       16
302
GRIDFORMAT
  1
GRIDFORMAT_BEGIN
 90
        0
 91
        1
 62
     0
 92
       -2
340
0
 93
        0
 40
0.045
309
GRIDFORMAT_END
 95
       32
302
GRIDFORMAT
  1
GRIDFORMAT_BEGIN
 90
        0
 91
        1
 62
     0
 92
       -2
340
0
 93
        0
 40
0.045
309
GRIDFORMAT_END
309
TABLEFORMAT_END
  1
CELLSTYLE_BEGIN
 90
        3
 91
        2
300
_DATA
309
CELLSTYLE_END
  0
XRECORD
  5
94B
102
{ACAD_REACTORS
330
5DC
102
}
330
5DC
100
AcDbXrecord
280
     1
102
ACAD_ROUNDTRIP_PRE2007_TABLESTYLE
 90
      512
 91
        0
  1

 92
      512
 93
        0
  2

 94
      512
 95
        0
  3

  0
XRECORD
  5
926
102
{ACAD_REACTORS
330
925
102
}
330
925
100
AcDbXrecord
280
     1
102
RTVSPropertyOp0
 70
     1
102
RTVSPropertyOp1
 70
     1
102
RTVSPropertyOp2
 70
     1
102
RTVSPropertyOp3
 70
     1
102
RTVSPropertyOp4
 70
     1
102
RTVSPropertyOp5
 70
     1
102
RTVSPropertyOp6
 70
     1
102
RTVSPropertyOp7
 70
     1
102
RTVSPropertyOp8
 70
     1
102
RTVSPropertyOp9
 70
     1
102
RTVSPropertyOp10
 70
     1
102
RTVSPropertyOp11
 70
     1
102
RTVSPropertyOp12
 70
     1
102
RTVSPropertyOp13
 70
     1
102
RTVSPropertyOp14
 70
     1
102
RTVSPropertyOp15
 70
     1
102
RTVSPropertyOp16
 70
     1
102
RTVSPropertyOp17
 70
     1
102
RTVSPropertyOp18
 70
     1
102
RTVSPropertyOp19
 70
     1
102
RTVSPropertyOp20
 70
     1
102
RTVSPropertyOp21
 70
     1
102
RTVSPropertyOp22
 70
     1
102
RTVSPropertyOp23
 70
     1
102
RTVSPropertyOp24
 70
     1
102
RTVSPropertyOp25
 70
     1
102
RTVSPropertyOp26
 70
     1
102
RTVSPropertyOp27
 70
     1
102
RTVSPropertyOp28
 70
     1
102
RTVSPropertyOp29
 70
     1
102
RTVSPropertyOp30
 70
     1
102
RTVSPropertyOp31
 70
     1
102
RTVSPropertyOp32
 70
     1
  0
XRECORD
  5
951
102
{ACAD_REACTORS
330
950
102
}
330
950
100
AcDbXrecord
280
     1
102
RTVSPropertyOp0
 70
     1
102
RTVSPropertyOp1
 70
     1
102
RTVSPropertyOp2
 70
     1
102
RTVSPropertyOp3
 70
     1
102
RTVSPropertyOp4
 70
     1
102
RTVSPropertyOp5
 70
     1
102
RTVSPropertyOp6
 70
     1
102
RTVSPropertyOp7
 70
     1
102
RTVSPropertyOp8
 70
     1
102
RTVSPropertyOp9
 70
     1
102
RTVSPropertyOp10
 70
     1
102
RTVSPropertyOp11
 70
     1
102
RTVSPropertyOp12
 70
     1
102
RTVSPropertyOp13
 70
     1
102
RTVSPropertyOp14
 70
     1
102
RTVSPropertyOp15
 70
     1
102
RTVSPropertyOp16
 70
     1
102
RTVSPropertyOp17
 70
     1
102
RTVSPropertyOp18
 70
     1
102
RTVSPropertyOp19
 70
     1
102
RTVSPropertyOp20
 70
     1
102
RTVSPropertyOp21
 70
     1
102
RTVSPropertyOp22
 70
     1
102
RTVSPropertyOp23
 70
     1
102
RTVSPropertyOp24
 70
     1
102
RTVSPropertyOp25
 70
     1
102
RTVSPropertyOp26
 70
     1
102
RTVSPropertyOp27
 70
     1
102
RTVSPropertyOp28
 70
     1
102
RTVSPropertyOp29
 70
     1
102
RTVSPropertyOp30
 70
     1
102
RTVSPropertyOp31
 70
     1
102
RTVSPropertyOp32
 70
     1
  0
XRECORD
  5
924
102
{ACAD_REACTORS
330
923
102
}
330
923
100
AcDbXrecord
280
     1
102
RTVSPropertyOp0
 70
     1
102
RTVSPropertyOp1
 70
     1
102
RTVSPropertyOp2
 70
     1
102
RTVSPropertyOp3
 70
     1
102
RTVSPropertyOp4
 70
     1
102
RTVSPropertyOp5
 70
     1
102
RTVSPropertyOp6
 70
     1
102
RTVSPropertyOp7
 70
     1
102
RTVSPropertyOp8
 70
     1
102
RTVSPropertyOp9
 70
     1
102
RTVSPropertyOp10
 70
     1
102
RTVSPropertyOp11
 70
     1
102
RTVSPropertyOp12
 70
     1
102
RTVSPropertyOp13
 70
     1
102
RTVSPropertyOp14
 70
     1
102
RTVSPropertyOp15
 70
     1
102
RTVSPropertyOp16
 70
     1
102
RTVSPropertyOp17
 70
     1
102
RTVSPropertyOp18
 70
     1
102
RTVSPropertyOp19
 70
     1
102
RTVSPropertyOp20
 70
     1
102
RTVSPropertyOp21
 70
     1
102
RTVSPropertyOp22
 70
     1
102
RTVSPropertyOp23
 70
     1
102
RTVSPropertyOp24
 70
     1
102
RTVSPropertyOp25
 70
     1
102
RTVSPropertyOp26
 70
     1
102
RTVSPropertyOp27
 70
     1
102
RTVSPropertyOp28
 70
     1
102
RTVSPropertyOp29
 70
     1
102
RTVSPropertyOp30
 70
     1
102
RTVSPropertyOp31
 70
     1
102
RTVSPropertyOp32
 70
     1
  0
XRECORD
  5
932
102
{ACAD_REACTORS
330
931
102
}
330
931
100
AcDbXrecord
280
     1
102
RTVSPropertyOp0
 70
     1
102
RTVSPropertyOp1
 70
     1
102
RTVSPropertyOp2
 70
     1
102
RTVSPropertyOp3
 70
     1
102
RTVSPropertyOp4
 70
     1
102
RTVSPropertyOp5
 70
     1
102
RTVSPropertyOp6
 70
     1
102
RTVSPropertyOp7
 70
     1
102
RTVSPropertyOp8
 70
     1
102
RTVSPropertyOp9
 70
     1
102
RTVSPropertyOp10
 70
     1
102
RTVSPropertyOp11
 70
     1
102
RTVSPropertyOp12
 70
     1
102
RTVSPropertyOp13
 70
     1
102
RTVSPropertyOp14
 70
     1
102
RTVSPropertyOp15
 70
     1
102
RTVSPropertyOp16
 70
     1
102
RTVSPropertyOp17
 70
     1
102
RTVSPropertyOp18
 70
     1
102
RTVSPropertyOp19
 70
     1
102
RTVSPropertyOp20
 70
     1
102
RTVSPropertyOp21
 70
     1
102
RTVSPropertyOp22
 70
     1
102
RTVSPropertyOp23
 70
     1
102
RTVSPropertyOp24
 70
     1
102
RTVSPropertyOp25
 70
     1
102
RTVSPropertyOp26
 70
     1
102
RTVSPropertyOp27
 70
     1
102
RTVSPropertyOp28
 70
     1
102
RTVSPropertyOp29
 70
     1
102
RTVSPropertyOp30
 70
     1
102
RTVSPropertyOp31
 70
     1
102
RTVSPropertyOp32
 70
     1
  0
XRECORD
  5
93A
102
{ACAD_REACTORS
330
939
102
}
330
939
100
AcDbXrecord
280
     1
102
RTVSPropertyOp0
 70
     1
102
RTVSPropertyOp1
 70
     1
102
RTVSPropertyOp2
 70
     1
102
RTVSPropertyOp3
 70
     1
102
RTVSPropertyOp4
 70
     1
102
RTVSPropertyOp5
 70
     1
102
RTVSPropertyOp6
 70
     1
102
RTVSPropertyOp7
 70
     1
102
RTVSPropertyOp8
 70
     1
102
RTVSPropertyOp9
 70
     1
102
RTVSPropertyOp10
 70
     1
102
RTVSPropertyOp11
 70
     1
102
RTVSPropertyOp12
 70
     1
102
RTVSPropertyOp13
 70
     1
102
RTVSPropertyOp14
 70
     1
102
RTVSPropertyOp15
 70
     1
102
RTVSPropertyOp16
 70
     1
102
RTVSPropertyOp17
 70
     1
102
RTVSPropertyOp18
 70
     1
102
RTVSPropertyOp19
 70
     1
102
RTVSPropertyOp20
 70
     1
102
RTVSPropertyOp21
 70
     1
102
RTVSPropertyOp22
 70
     1
102
RTVSPropertyOp23
 70
     1
102
RTVSPropertyOp24
 70
     1
102
RTVSPropertyOp25
 70
     1
102
RTVSPropertyOp26
 70
     1
102
RTVSPropertyOp27
 70
     1
102
RTVSPropertyOp28
 70
     1
102
RTVSPropertyOp29
 70
     1
102
RTVSPropertyOp30
 70
     1
102
RTVSPropertyOp31
 70
     1
102
RTVSPropertyOp32
 70
     1
  0
XRECORD
  5
92C
102
{ACAD_REACTORS
330
92B
102
}
330
92B
100
AcDbXrecord
280
     1
102
RTVSPropertyOp0
 70
     1
102
RTVSPropertyOp1
 70
     1
102
RTVSPropertyOp2
 70
     1
102
RTVSPropertyOp3
 70
     1
102
RTVSPropertyOp4
 70
     1
102
RTVSPropertyOp5
 70
     1
102
RTVSPropertyOp6
 70
     1
102
RTVSPropertyOp7
 70
     1
102
RTVSPropertyOp8
 70
     1
102
RTVSPropertyOp9
 70
     1
102
RTVSPropertyOp10
 70
     1
102
RTVSPropertyOp11
 70
     1
102
RTVSPropertyOp12
 70
     1
102
RTVSPropertyOp13
 70
     1
102
RTVSPropertyOp14
 70
     1
102
RTVSPropertyOp15
 70
     1
102
RTVSPropertyOp16
 70
     1
102
RTVSPropertyOp17
 70
     1
102
RTVSPropertyOp18
 70
     1
102
RTVSPropertyOp19
 70
     1
102
RTVSPropertyOp20
 70
     1
102
RTVSPropertyOp21
 70
     1
102
RTVSPropertyOp22
 70
     1
102
RTVSPropertyOp23
 70
     1
102
RTVSPropertyOp24
 70
     1
102
RTVSPropertyOp25
 70
     1
102
RTVSPropertyOp26
 70
     1
102
RTVSPropertyOp27
 70
     1
102
RTVSPropertyOp28
 70
     1
102
RTVSPropertyOp29
 70
     1
102
RTVSPropertyOp30
 70
     1
102
RTVSPropertyOp31
 70
     1
102
RTVSPropertyOp32
 70
     1
  0
XRECORD
  5
930
102
{ACAD_REACTORS
330
92F
102
}
330
92F
100
AcDbXrecord
280
     1
102
RTVSPropertyOp0
 70
     1
102
RTVSPropertyOp1
 70
     1
102
RTVSPropertyOp2
 70
     1
102
RTVSPropertyOp3
 70
     1
102
RTVSPropertyOp4
 70
     1
102
RTVSPropertyOp5
 70
     1
102
RTVSPropertyOp6
 70
     1
102
RTVSPropertyOp7
 70
     1
102
RTVSPropertyOp8
 70
     1
102
RTVSPropertyOp9
 70
     1
102
RTVSPropertyOp10
 70
     1
102
RTVSPropertyOp11
 70
     1
102
RTVSPropertyOp12
 70
     1
102
RTVSPropertyOp13
 70
     1
102
RTVSPropertyOp14
 70
     1
102
RTVSPropertyOp15
 70
     1
102
RTVSPropertyOp16
 70
     1
102
RTVSPropertyOp17
 70
     1
102
RTVSPropertyOp18
 70
     1
102
RTVSPropertyOp19
 70
     1
102
RTVSPropertyOp20
 70
     1
102
RTVSPropertyOp21
 70
     1
102
RTVSPropertyOp22
 70
     1
102
RTVSPropertyOp23
 70
     1
102
RTVSPropertyOp24
 70
     1
102
RTVSPropertyOp25
 70
     1
102
RTVSPropertyOp26
 70
     1
102
RTVSPropertyOp27
 70
     1
102
RTVSPropertyOp28
 70
     1
102
RTVSPropertyOp29
 70
     1
102
RTVSPropertyOp30
 70
     1
102
RTVSPropertyOp31
 70
     1
102
RTVSPropertyOp32
 70
     1
  0
XRECORD
  5
94A
102
{ACAD_REACTORS
330
949
102
}
330
949
100
AcDbXrecord
280
     1
102
RTVSPropertyOp0
 70
     0
102
RTVSPropertyOp1
 70
     0
102
RTVSPropertyOp2
 70
     0
102
RTVSPropertyOp3
 70
     0
102
RTVSPropertyOp4
 70
     0
102
RTVSPropertyOp5
 70
     0
102
RTVSPropertyOp6
 70
     0
102
RTVSPropertyOp7
 70
     0
102
RTVSPropertyOp8
 70
     0
102
RTVSPropertyOp9
 70
     0
102
RTVSPropertyOp10
 70
     0
102
RTVSPropertyOp11
 70
     0
102
RTVSPropertyOp12
 70
     0
102
RTVSPropertyOp13
 70
     0
102
RTVSPropertyOp14
 70
     2
102
RTVSPropertyOp15
 70
     0
102
RTVSPropertyOp16
 70
     0
102
RTVSPropertyOp17
 70
     0
102
RTVSPropertyOp18
 70
     0
102
RTVSPropertyOp19
 70
     0
102
RTVSPropertyOp20
 70
     0
102
RTVSPropertyOp21
 70
     0
102
RTVSPropertyOp22
 70
     0
102
RTVSPropertyOp23
 70
     0
102
RTVSPropertyOp24
 70
     0
102
RTVSPropertyOp25
 70
     0
102
RTVSPropertyOp26
 70
     0
102
RTVSPropertyOp27
 70
     0
102
RTVSPropertyOp28
 70
     0
102
RTVSPropertyOp29
 70
     0
102
RTVSPropertyOp30
 70
     0
102
RTVSPropertyOp31
 70
     0
102
RTVSPropertyOp32
 70
     0
  0
XRECORD
  5
938
102
{ACAD_REACTORS
330
937
102
}
330
937
100
AcDbXrecord
280
     1
102
RTVSPropertyOp0
 70
     1
102
RTVSPropertyOp1
 70
     1
102
RTVSPropertyOp2
 70
     1
102
RTVSPropertyOp3
 70
     1
102
RTVSPropertyOp4
 70
     1
102
RTVSPropertyOp5
 70
     1
102
RTVSPropertyOp6
 70
     1
102
RTVSPropertyOp7
 70
     1
102
RTVSPropertyOp8
 70
     1
102
RTVSPropertyOp9
 70
     1
102
RTVSPropertyOp10
 70
     1
102
RTVSPropertyOp11
 70
     1
102
RTVSPropertyOp12
 70
     1
102
RTVSPropertyOp13
 70
     1
102
RTVSPropertyOp14
 70
     1
102
RTVSPropertyOp15
 70
     1
102
RTVSPropertyOp16
 70
     1
102
RTVSPropertyOp17
 70
     1
102
RTVSPropertyOp18
 70
     1
102
RTVSPropertyOp19
 70
     1
102
RTVSPropertyOp20
 70
     1
102
RTVSPropertyOp21
 70
     1
102
RTVSPropertyOp22
 70
     1
102
RTVSPropertyOp23
 70
     1
102
RTVSPropertyOp24
 70
     1
102
RTVSPropertyOp25
 70
     1
102
RTVSPropertyOp26
 70
     1
102
RTVSPropertyOp27
 70
     1
102
RTVSPropertyOp28
 70
     1
102
RTVSPropertyOp29
 70
     1
102
RTVSPropertyOp30
 70
     1
102
RTVSPropertyOp31
 70
     1
102
RTVSPropertyOp32
 70
     1
  0
XRECORD
  5
91C
102
{ACAD_REACTORS
330
91B
102
}
330
91B
100
AcDbXrecord
280
     1
102
RTVSPropertyOp0
 70
     1
102
RTVSPropertyOp1
 70
     1
102
RTVSPropertyOp2
 70
     1
102
RTVSPropertyOp3
 70
     1
102
RTVSPropertyOp4
 70
     1
102
RTVSPropertyOp5
 70
     1
102
RTVSPropertyOp6
 70
     1
102
RTVSPropertyOp7
 70
     1
102
RTVSPropertyOp8
 70
     1
102
RTVSPropertyOp9
 70
     1
102
RTVSPropertyOp10
 70
     1
102
RTVSPropertyOp11
 70
     1
102
RTVSPropertyOp12
 70
     1
102
RTVSPropertyOp13
 70
     1
102
RTVSPropertyOp14
 70
     1
102
RTVSPropertyOp15
 70
     1
102
RTVSPropertyOp16
 70
     1
102
RTVSPropertyOp17
 70
     1
102
RTVSPropertyOp18
 70
     1
102
RTVSPropertyOp19
 70
     1
102
RTVSPropertyOp20
 70
     1
102
RTVSPropertyOp21
 70
     1
102
RTVSPropertyOp22
 70
     1
102
RTVSPropertyOp23
 70
     1
102
RTVSPropertyOp24
 70
     1
102
RTVSPropertyOp25
 70
     1
102
RTVSPropertyOp26
 70
     1
102
RTVSPropertyOp27
 70
     1
102
RTVSPropertyOp28
 70
     1
102
RTVSPropertyOp29
 70
     1
102
RTVSPropertyOp30
 70
     1
102
RTVSPropertyOp31
 70
     1
102
RTVSPropertyOp32
 70
     1
  0
XRECORD
  5
91E
102
{ACAD_REACTORS
330
91D
102
}
330
91D
100
AcDbXrecord
280
     1
102
RTVSPropertyOp0
 70
     1
102
RTVSPropertyOp1
 70
     1
102
RTVSPropertyOp2
 70
     1
102
RTVSPropertyOp3
 70
     1
102
RTVSPropertyOp4
 70
     1
102
RTVSPropertyOp5
 70
     1
102
RTVSPropertyOp6
 70
     1
102
RTVSPropertyOp7
 70
     1
102
RTVSPropertyOp8
 70
     1
102
RTVSPropertyOp9
 70
     1
102
RTVSPropertyOp10
 70
     1
102
RTVSPropertyOp11
 70
     1
102
RTVSPropertyOp12
 70
     1
102
RTVSPropertyOp13
 70
     1
102
RTVSPropertyOp14
 70
     1
102
RTVSPropertyOp15
 70
     1
102
RTVSPropertyOp16
 70
     1
102
RTVSPropertyOp17
 70
     1
102
RTVSPropertyOp18
 70
     1
102
RTVSPropertyOp19
 70
     1
102
RTVSPropertyOp20
 70
     1
102
RTVSPropertyOp21
 70
     1
102
RTVSPropertyOp22
 70
     1
102
RTVSPropertyOp23
 70
     1
102
RTVSPropertyOp24
 70
     1
102
RTVSPropertyOp25
 70
     1
102
RTVSPropertyOp26
 70
     1
102
RTVSPropertyOp27
 70
     1
102
RTVSPropertyOp28
 70
     1
102
RTVSPropertyOp29
 70
     1
102
RTVSPropertyOp30
 70
     1
102
RTVSPropertyOp31
 70
     1
102
RTVSPropertyOp32
 70
     1
  0
XRECORD
  5
920
102
{ACAD_REACTORS
330
91F
102
}
330
91F
100
AcDbXrecord
280
     1
102
RTVSPropertyOp0
 70
     1
102
RTVSPropertyOp1
 70
     1
102
RTVSPropertyOp2
 70
     1
102
RTVSPropertyOp3
 70
     1
102
RTVSPropertyOp4
 70
     1
102
RTVSPropertyOp5
 70
     1
102
RTVSPropertyOp6
 70
     1
102
RTVSPropertyOp7
 70
     1
102
RTVSPropertyOp8
 70
     1
102
RTVSPropertyOp9
 70
     1
102
RTVSPropertyOp10
 70
     1
102
RTVSPropertyOp11
 70
     1
102
RTVSPropertyOp12
 70
     1
102
RTVSPropertyOp13
 70
     1
102
RTVSPropertyOp14
 70
     1
102
RTVSPropertyOp15
 70
     1
102
RTVSPropertyOp16
 70
     1
102
RTVSPropertyOp17
 70
     1
102
RTVSPropertyOp18
 70
     1
102
RTVSPropertyOp19
 70
     1
102
RTVSPropertyOp20
 70
     1
102
RTVSPropertyOp21
 70
     1
102
RTVSPropertyOp22
 70
     1
102
RTVSPropertyOp23
 70
     1
102
RTVSPropertyOp24
 70
     1
102
RTVSPropertyOp25
 70
     1
102
RTVSPropertyOp26
 70
     1
102
RTVSPropertyOp27
 70
     1
102
RTVSPropertyOp28
 70
     1
102
RTVSPropertyOp29
 70
     1
102
RTVSPropertyOp30
 70
     1
102
RTVSPropertyOp31
 70
     1
102
RTVSPropertyOp32
 70
     1
  0
XRECORD
  5
922
102
{ACAD_REACTORS
330
921
102
}
330
921
100
AcDbXrecord
280
     1
102
RTVSPropertyOp0
 70
     1
102
RTVSPropertyOp1
 70
     1
102
RTVSPropertyOp2
 70
     1
102
RTVSPropertyOp3
 70
     1
102
RTVSPropertyOp4
 70
     1
102
RTVSPropertyOp5
 70
     1
102
RTVSPropertyOp6
 70
     1
102
RTVSPropertyOp7
 70
     1
102
RTVSPropertyOp8
 70
     1
102
RTVSPropertyOp9
 70
     1
102
RTVSPropertyOp10
 70
     1
102
RTVSPropertyOp11
 70
     1
102
RTVSPropertyOp12
 70
     1
102
RTVSPropertyOp13
 70
     1
102
RTVSPropertyOp14
 70
     1
102
RTVSPropertyOp15
 70
     1
102
RTVSPropertyOp16
 70
     1
102
RTVSPropertyOp17
 70
     1
102
RTVSPropertyOp18
 70
     1
102
RTVSPropertyOp19
 70
     1
102
RTVSPropertyOp20
 70
     1
102
RTVSPropertyOp21
 70
     1
102
RTVSPropertyOp22
 70
     1
102
RTVSPropertyOp23
 70
     1
102
RTVSPropertyOp24
 70
     1
102
RTVSPropertyOp25
 70
     1
102
RTVSPropertyOp26
 70
     1
102
RTVSPropertyOp27
 70
     1
102
RTVSPropertyOp28
 70
     1
102
RTVSPropertyOp29
 70
     1
102
RTVSPropertyOp30
 70
     1
102
RTVSPropertyOp31
 70
     1
102
RTVSPropertyOp32
 70
     1
  0
XRECORD
  5
92A
102
{ACAD_REACTORS
330
929
102
}
330
929
100
AcDbXrecord
280
     1
102
RTVSPropertyOp0
 70
     1
102
RTVSPropertyOp1
 70
     1
102
RTVSPropertyOp2
 70
     1
102
RTVSPropertyOp3
 70
     1
102
RTVSPropertyOp4
 70
     1
102
RTVSPropertyOp5
 70
     1
102
RTVSPropertyOp6
 70
     1
102
RTVSPropertyOp7
 70
     1
102
RTVSPropertyOp8
 70
     1
102
RTVSPropertyOp9
 70
     1
102
RTVSPropertyOp10
 70
     1
102
RTVSPropertyOp11
 70
     1
102
RTVSPropertyOp12
 70
     1
102
RTVSPropertyOp13
 70
     1
102
RTVSPropertyOp14
 70
     1
102
RTVSPropertyOp15
 70
     1
102
RTVSPropertyOp16
 70
     1
102
RTVSPropertyOp17
 70
     1
102
RTVSPropertyOp18
 70
     1
102
RTVSPropertyOp19
 70
     1
102
RTVSPropertyOp20
 70
     1
102
RTVSPropertyOp21
 70
     1
102
RTVSPropertyOp22
 70
     1
102
RTVSPropertyOp23
 70
     1
102
RTVSPropertyOp24
 70
     1
102
RTVSPropertyOp25
 70
     1
102
RTVSPropertyOp26
 70
     1
102
RTVSPropertyOp27
 70
     1
102
RTVSPropertyOp28
 70
     1
102
RTVSPropertyOp29
 70
     1
102
RTVSPropertyOp30
 70
     1
102
RTVSPropertyOp31
 70
     1
102
RTVSPropertyOp32
 70
     1
  0
XRECORD
  5
946
102
{ACAD_REACTORS
330
945
102
}
330
945
100
AcDbXrecord
280
     1
102
RTVSPropertyOp0
 70
     0
102
RTVSPropertyOp1
 70
     0
102
RTVSPropertyOp2
 70
     0
102
RTVSPropertyOp3
 70
     0
102
RTVSPropertyOp4
 70
     0
102
RTVSPropertyOp5
 70
     0
102
RTVSPropertyOp6
 70
     0
102
RTVSPropertyOp7
 70
     0
102
RTVSPropertyOp8
 70
     0
102
RTVSPropertyOp9
 70
     0
102
RTVSPropertyOp10
 70
     0
102
RTVSPropertyOp11
 70
     0
102
RTVSPropertyOp12
 70
     0
102
RTVSPropertyOp13
 70
     0
102
RTVSPropertyOp14
 70
     2
102
RTVSPropertyOp15
 70
     0
102
RTVSPropertyOp16
 70
     0
102
RTVSPropertyOp17
 70
     0
102
RTVSPropertyOp18
 70
     0
102
RTVSPropertyOp19
 70
     0
102
RTVSPropertyOp20
 70
     0
102
RTVSPropertyOp21
 70
     0
102
RTVSPropertyOp22
 70
     0
102
RTVSPropertyOp23
 70
     0
102
RTVSPropertyOp24
 70
     0
102
RTVSPropertyOp25
 70
     0
102
RTVSPropertyOp26
 70
     0
102
RTVSPropertyOp27
 70
     0
102
RTVSPropertyOp28
 70
     0
102
RTVSPropertyOp29
 70
     0
102
RTVSPropertyOp30
 70
     0
102
RTVSPropertyOp31
 70
     0
102
RTVSPropertyOp32
 70
     0
  0
XRECORD
  5
936
102
{ACAD_REACTORS
330
935
102
}
330
935
100
AcDbXrecord
280
     1
102
RTVSPropertyOp0
 70
     1
102
RTVSPropertyOp1
 70
     1
102
RTVSPropertyOp2
 70
     1
102
RTVSPropertyOp3
 70
     1
102
RTVSPropertyOp4
 70
     1
102
RTVSPropertyOp5
 70
     1
102
RTVSPropertyOp6
 70
     1
102
RTVSPropertyOp7
 70
     1
102
RTVSPropertyOp8
 70
     1
102
RTVSPropertyOp9
 70
     1
102
RTVSPropertyOp10
 70
     1
102
RTVSPropertyOp11
 70
     1
102
RTVSPropertyOp12
 70
     1
102
RTVSPropertyOp13
 70
     1
102
RTVSPropertyOp14
 70
     1
102
RTVSPropertyOp15
 70
     1
102
RTVSPropertyOp16
 70
     1
102
RTVSPropertyOp17
 70
     1
102
RTVSPropertyOp18
 70
     1
102
RTVSPropertyOp19
 70
     1
102
RTVSPropertyOp20
 70
     1
102
RTVSPropertyOp21
 70
     1
102
RTVSPropertyOp22
 70
     1
102
RTVSPropertyOp23
 70
     1
102
RTVSPropertyOp24
 70
     1
102
RTVSPropertyOp25
 70
     1
102
RTVSPropertyOp26
 70
     1
102
RTVSPropertyOp27
 70
     1
102
RTVSPropertyOp28
 70
     1
102
RTVSPropertyOp29
 70
     1
102
RTVSPropertyOp30
 70
     1
102
RTVSPropertyOp31
 70
     1
102
RTVSPropertyOp32
 70
     1
  0
XRECORD
  5
948
102
{ACAD_REACTORS
330
947
102
}
330
947
100
AcDbXrecord
280
     1
102
RTVSPropertyOp0
 70
     0
102
RTVSPropertyOp1
 70
     0
102
RTVSPropertyOp2
 70
     0
102
RTVSPropertyOp3
 70
     0
102
RTVSPropertyOp4
 70
     0
102
RTVSPropertyOp5
 70
     0
102
RTVSPropertyOp6
 70
     0
102
RTVSPropertyOp7
 70
     0
102
RTVSPropertyOp8
 70
     0
102
RTVSPropertyOp9
 70
     0
102
RTVSPropertyOp10
 70
     0
102
RTVSPropertyOp11
 70
     0
102
RTVSPropertyOp12
 70
     0
102
RTVSPropertyOp13
 70
     0
102
RTVSPropertyOp14
 70
     2
102
RTVSPropertyOp15
 70
     0
102
RTVSPropertyOp16
 70
     0
102
RTVSPropertyOp17
 70
     0
102
RTVSPropertyOp18
 70
     0
102
RTVSPropertyOp19
 70
     0
102
RTVSPropertyOp20
 70
     0
102
RTVSPropertyOp21
 70
     0
102
RTVSPropertyOp22
 70
     0
102
RTVSPropertyOp23
 70
     0
102
RTVSPropertyOp24
 70
     0
102
RTVSPropertyOp25
 70
     0
102
RTVSPropertyOp26
 70
     0
102
RTVSPropertyOp27
 70
     0
102
RTVSPropertyOp28
 70
     0
102
RTVSPropertyOp29
 70
     0
102
RTVSPropertyOp30
 70
     0
102
RTVSPropertyOp31
 70
     0
102
RTVSPropertyOp32
 70
     0
  0
XRECORD
  5
92E
102
{ACAD_REACTORS
330
92D
102
}
330
92D
100
AcDbXrecord
280
     1
102
RTVSPropertyOp0
 70
     1
102
RTVSPropertyOp1
 70
     1
102
RTVSPropertyOp2
 70
     1
102
RTVSPropertyOp3
 70
     1
102
RTVSPropertyOp4
 70
     1
102
RTVSPropertyOp5
 70
     1
102
RTVSPropertyOp6
 70
     1
102
RTVSPropertyOp7
 70
     1
102
RTVSPropertyOp8
 70
     1
102
RTVSPropertyOp9
 70
     1
102
RTVSPropertyOp10
 70
     1
102
RTVSPropertyOp11
 70
     1
102
RTVSPropertyOp12
 70
     1
102
RTVSPropertyOp13
 70
     1
102
RTVSPropertyOp14
 70
     1
102
RTVSPropertyOp15
 70
     1
102
RTVSPropertyOp16
 70
     1
102
RTVSPropertyOp17
 70
     1
102
RTVSPropertyOp18
 70
     1
102
RTVSPropertyOp19
 70
     1
102
RTVSPropertyOp20
 70
     1
102
RTVSPropertyOp21
 70
     1
102
RTVSPropertyOp22
 70
     1
102
RTVSPropertyOp23
 70
     1
102
RTVSPropertyOp24
 70
     1
102
RTVSPropertyOp25
 70
     1
102
RTVSPropertyOp26
 70
     1
102
RTVSPropertyOp27
 70
     1
102
RTVSPropertyOp28
 70
     1
102
RTVSPropertyOp29
 70
     1
102
RTVSPropertyOp30
 70
     1
102
RTVSPropertyOp31
 70
     1
102
RTVSPropertyOp32
 70
     1
  0
XRECORD
  5
944
102
{ACAD_REACTORS
330
943
102
}
330
943
100
AcDbXrecord
280
     1
102
RTVSPropertyOp0
 70
     1
102
RTVSPropertyOp1
 70
     1
102
RTVSPropertyOp2
 70
     1
102
RTVSPropertyOp3
 70
     1
102
RTVSPropertyOp4
 70
     1
102
RTVSPropertyOp5
 70
     1
102
RTVSPropertyOp6
 70
     1
102
RTVSPropertyOp7
 70
     1
102
RTVSPropertyOp8
 70
     1
102
RTVSPropertyOp9
 70
     1
102
RTVSPropertyOp10
 70
     1
102
RTVSPropertyOp11
 70
     1
102
RTVSPropertyOp12
 70
     1
102
RTVSPropertyOp13
 70
     1
102
RTVSPropertyOp14
 70
     1
102
RTVSPropertyOp15
 70
     1
102
RTVSPropertyOp16
 70
     1
102
RTVSPropertyOp17
 70
     1
102
RTVSPropertyOp18
 70
     1
102
RTVSPropertyOp19
 70
     1
102
RTVSPropertyOp20
 70
     1
102
RTVSPropertyOp21
 70
     1
102
RTVSPropertyOp22
 70
     1
102
RTVSPropertyOp23
 70
     1
102
RTVSPropertyOp24
 70
     1
102
RTVSPropertyOp25
 70
     1
102
RTVSPropertyOp26
 70
     1
102
RTVSPropertyOp27
 70
     1
102
RTVSPropertyOp28
 70
     1
102
RTVSPropertyOp29
 70
     1
102
RTVSPropertyOp30
 70
     1
102
RTVSPropertyOp31
 70
     1
102
RTVSPropertyOp32
 70
     1
  0
XRECORD
  5
942
102
{ACAD_REACTORS
330
941
102
}
330
941
100
AcDbXrecord
280
     1
102
RTVSPropertyOp0
 70
     1
102
RTVSPropertyOp1
 70
     1
102
RTVSPropertyOp2
 70
     1
102
RTVSPropertyOp3
 70
     1
102
RTVSPropertyOp4
 70
     1
102
RTVSPropertyOp5
 70
     1
102
RTVSPropertyOp6
 70
     1
102
RTVSPropertyOp7
 70
     1
102
RTVSPropertyOp8
 70
     1
102
RTVSPropertyOp9
 70
     1
102
RTVSPropertyOp10
 70
     1
102
RTVSPropertyOp11
 70
     1
102
RTVSPropertyOp12
 70
     1
102
RTVSPropertyOp13
 70
     1
102
RTVSPropertyOp14
 70
     1
102
RTVSPropertyOp15
 70
     1
102
RTVSPropertyOp16
 70
     1
102
RTVSPropertyOp17
 70
     1
102
RTVSPropertyOp18
 70
     1
102
RTVSPropertyOp19
 70
     1
102
RTVSPropertyOp20
 70
     1
102
RTVSPropertyOp21
 70
     1
102
RTVSPropertyOp22
 70
     1
102
RTVSPropertyOp23
 70
     1
102
RTVSPropertyOp24
 70
     1
102
RTVSPropertyOp25
 70
     1
102
RTVSPropertyOp26
 70
     1
102
RTVSPropertyOp27
 70
     1
102
RTVSPropertyOp28
 70
     1
102
RTVSPropertyOp29
 70
     1
102
RTVSPropertyOp30
 70
     1
102
RTVSPropertyOp31
 70
     1
102
RTVSPropertyOp32
 70
     1
  0
XRECORD
  5
93C
102
{ACAD_REACTORS
330
93B
102
}
330
93B
100
AcDbXrecord
280
     1
102
RTVSPropertyOp0
 70
     1
102
RTVSPropertyOp1
 70
     1
102
RTVSPropertyOp2
 70
     1
102
RTVSPropertyOp3
 70
     1
102
RTVSPropertyOp4
 70
     1
102
RTVSPropertyOp5
 70
     1
102
RTVSPropertyOp6
 70
     1
102
RTVSPropertyOp7
 70
     1
102
RTVSPropertyOp8
 70
     1
102
RTVSPropertyOp9
 70
     1
102
RTVSPropertyOp10
 70
     1
102
RTVSPropertyOp11
 70
     1
102
RTVSPropertyOp12
 70
     1
102
RTVSPropertyOp13
 70
     1
102
RTVSPropertyOp14
 70
     1
102
RTVSPropertyOp15
 70
     1
102
RTVSPropertyOp16
 70
     1
102
RTVSPropertyOp17
 70
     1
102
RTVSPropertyOp18
 70
     1
102
RTVSPropertyOp19
 70
     1
102
RTVSPropertyOp20
 70
     1
102
RTVSPropertyOp21
 70
     1
102
RTVSPropertyOp22
 70
     1
102
RTVSPropertyOp23
 70
     1
102
RTVSPropertyOp24
 70
     1
102
RTVSPropertyOp25
 70
     1
102
RTVSPropertyOp26
 70
     1
102
RTVSPropertyOp27
 70
     1
102
RTVSPropertyOp28
 70
     1
102
RTVSPropertyOp29
 70
     1
102
RTVSPropertyOp30
 70
     1
102
RTVSPropertyOp31
 70
     1
102
RTVSPropertyOp32
 70
     1
  0
XRECORD
  5
93E
102
{ACAD_REACTORS
330
93D
102
}
330
93D
100
AcDbXrecord
280
     1
102
RTVSPropertyOp0
 70
     1
102
RTVSPropertyOp1
 70
     1
102
RTVSPropertyOp2
 70
     1
102
RTVSPropertyOp3
 70
     1
102
RTVSPropertyOp4
 70
     1
102
RTVSPropertyOp5
 70
     1
102
RTVSPropertyOp6
 70
     1
102
RTVSPropertyOp7
 70
     1
102
RTVSPropertyOp8
 70
     1
102
RTVSPropertyOp9
 70
     1
102
RTVSPropertyOp10
 70
     1
102
RTVSPropertyOp11
 70
     1
102
RTVSPropertyOp12
 70
     1
102
RTVSPropertyOp13
 70
     1
102
RTVSPropertyOp14
 70
     1
102
RTVSPropertyOp15
 70
     1
102
RTVSPropertyOp16
 70
     1
102
RTVSPropertyOp17
 70
     1
102
RTVSPropertyOp18
 70
     1
102
RTVSPropertyOp19
 70
     1
102
RTVSPropertyOp20
 70
     1
102
RTVSPropertyOp21
 70
     1
102
RTVSPropertyOp22
 70
     1
102
RTVSPropertyOp23
 70
     1
102
RTVSPropertyOp24
 70
     1
102
RTVSPropertyOp25
 70
     1
102
RTVSPropertyOp26
 70
     1
102
RTVSPropertyOp27
 70
     1
102
RTVSPropertyOp28
 70
     1
102
RTVSPropertyOp29
 70
     1
102
RTVSPropertyOp30
 70
     1
102
RTVSPropertyOp31
 70
     1
102
RTVSPropertyOp32
 70
     1
  0
XRECORD
  5
934
102
{ACAD_REACTORS
330
933
102
}
330
933
100
AcDbXrecord
280
     1
102
RTVSPropertyOp0
 70
     1
102
RTVSPropertyOp1
 70
     1
102
RTVSPropertyOp2
 70
     1
102
RTVSPropertyOp3
 70
     1
102
RTVSPropertyOp4
 70
     1
102
RTVSPropertyOp5
 70
     1
102
RTVSPropertyOp6
 70
     1
102
RTVSPropertyOp7
 70
     1
102
RTVSPropertyOp8
 70
     1
102
RTVSPropertyOp9
 70
     1
102
RTVSPropertyOp10
 70
     1
102
RTVSPropertyOp11
 70
     1
102
RTVSPropertyOp12
 70
     1
102
RTVSPropertyOp13
 70
     1
102
RTVSPropertyOp14
 70
     1
102
RTVSPropertyOp15
 70
     1
102
RTVSPropertyOp16
 70
     1
102
RTVSPropertyOp17
 70
     1
102
RTVSPropertyOp18
 70
     1
102
RTVSPropertyOp19
 70
     1
102
RTVSPropertyOp20
 70
     1
102
RTVSPropertyOp21
 70
     1
102
RTVSPropertyOp22
 70
     1
102
RTVSPropertyOp23
 70
     1
102
RTVSPropertyOp24
 70
     1
102
RTVSPropertyOp25
 70
     1
102
RTVSPropertyOp26
 70
     1
102
RTVSPropertyOp27
 70
     1
102
RTVSPropertyOp28
 70
     1
102
RTVSPropertyOp29
 70
     1
102
RTVSPropertyOp30
 70
     1
102
RTVSPropertyOp31
 70
     1
102
RTVSPropertyOp32
 70
     1
  0
XRECORD
  5
928
102
{ACAD_REACTORS
330
927
102
}
330
927
100
AcDbXrecord
280
     1
102
RTVSPropertyOp0
 70
     1
102
RTVSPropertyOp1
 70
     1
102
RTVSPropertyOp2
 70
     1
102
RTVSPropertyOp3
 70
     1
102
RTVSPropertyOp4
 70
     1
102
RTVSPropertyOp5
 70
     1
102
RTVSPropertyOp6
 70
     1
102
RTVSPropertyOp7
 70
     1
102
RTVSPropertyOp8
 70
     1
102
RTVSPropertyOp9
 70
     1
102
RTVSPropertyOp10
 70
     1
102
RTVSPropertyOp11
 70
     1
102
RTVSPropertyOp12
 70
     1
102
RTVSPropertyOp13
 70
     1
102
RTVSPropertyOp14
 70
     1
102
RTVSPropertyOp15
 70
     1
102
RTVSPropertyOp16
 70
     1
102
RTVSPropertyOp17
 70
     1
102
RTVSPropertyOp18
 70
     1
102
RTVSPropertyOp19
 70
     1
102
RTVSPropertyOp20
 70
     1
102
RTVSPropertyOp21
 70
     1
102
RTVSPropertyOp22
 70
     1
102
RTVSPropertyOp23
 70
     1
102
RTVSPropertyOp24
 70
     1
102
RTVSPropertyOp25
 70
     1
102
RTVSPropertyOp26
 70
     1
102
RTVSPropertyOp27
 70
     1
102
RTVSPropertyOp28
 70
     1
102
RTVSPropertyOp29
 70
     1
102
RTVSPropertyOp30
 70
     1
102
RTVSPropertyOp31
 70
     1
102
RTVSPropertyOp32
 70
     1
  0
XRECORD
  5
940
102
{ACAD_REACTORS
330
93F
102
}
330
93F
100
AcDbXrecord
280
     1
102
RTVSPropertyOp0
 70
     1
102
RTVSPropertyOp1
 70
     1
102
RTVSPropertyOp2
 70
     1
102
RTVSPropertyOp3
 70
     1
102
RTVSPropertyOp4
 70
     1
102
RTVSPropertyOp5
 70
     1
102
RTVSPropertyOp6
 70
     1
102
RTVSPropertyOp7
 70
     1
102
RTVSPropertyOp8
 70
     1
102
RTVSPropertyOp9
 70
     1
102
RTVSPropertyOp10
 70
     1
102
RTVSPropertyOp11
 70
     1
102
RTVSPropertyOp12
 70
     1
102
RTVSPropertyOp13
 70
     1
102
RTVSPropertyOp14
 70
     1
102
RTVSPropertyOp15
 70
     1
102
RTVSPropertyOp16
 70
     1
102
RTVSPropertyOp17
 70
     1
102
RTVSPropertyOp18
 70
     1
102
RTVSPropertyOp19
 70
     1
102
RTVSPropertyOp20
 70
     1
102
RTVSPropertyOp21
 70
     1
102
RTVSPropertyOp22
 70
     1
102
RTVSPropertyOp23
 70
     1
102
RTVSPropertyOp24
 70
     1
102
RTVSPropertyOp25
 70
     1
102
RTVSPropertyOp26
 70
     1
102
RTVSPropertyOp27
 70
     1
102
RTVSPropertyOp28
 70
     1
102
RTVSPropertyOp29
 70
     1
102
RTVSPropertyOp30
 70
     1
102
RTVSPropertyOp31
 70
     1
102
RTVSPropertyOp32
 70
     1
  0
ENDSEC
  0
EOF
