  0
SECTION
  2
HEADER
  9
$ACADVER
  1
AC1015
  9
$ACADMAINTVER
 70
    20
  9
$DWGCODEPAGE
  3
ANSI_932
  9
$INSBASE
 10
0.0
 20
0.0
 30
0.0
  9
$EXTMIN
 10
-74.243364
 20
-522.424511
 30
0.0
  9
$EXTMAX
 10
393.3900433559866
 20
-248.424511
 30
0.0
  9
$LIMMIN
 10
-74.24436199999998
 20
-522.4255
  9
$LIMMAX
 10
330.783501
 20
-239.146156
  9
$ORTHOMODE
 70
     1
  9
$REGENMODE
 70
     1
  9
$FILLMODE
 70
     1
  9
$QTEXTMODE
 70
     0
  9
$MIRRTEXT
 70
     0
  9
$LTSCALE
 40
6.750430999999997
  9
$ATTMODE
 70
     1
  9
$TEXTSIZE
 40
3.2
  9
$TRACEWID
 40
0.05
  9
$TEXTSTYLE
  7
高3.2
  9
$CLAYER
  8
0
  9
$CELTYPE
  6
CONTINUOUS
  9
$CECOLOR
 62
   256
  9
$CELTSCALE
 40
1.0
  9
$DISPSILH
 70
     0
  9
$DIMSCALE
 40
1.0
  9
$DIMASZ
 40
2.5
  9
$DIMEXO
 40
0.25
  9
$DIMDLI
 40
0.2
  9
$DIMRND
 40
0.0
  9
$DIMDLE
 40
0.0
  9
$DIMEXE
 40
1.25
  9
$DIMTP
 40
0.0
  9
$DIMTM
 40
0.0
  9
$DIMTXT
 40
3.0
  9
$DIMCEN
 40
0.0
  9
$DIMTSZ
 40
0.0
  9
$DIMTOL
 70
     0
  9
$DIMLIM
 70
     0
  9
$DIMTIH
 70
     0
  9
$DIMTOH
 70
     0
  9
$DIMSE1
 70
     0
  9
$DIMSE2
 70
     0
  9
$DIMTAD
 70
     3
  9
$DIMZIN
 70
     8
  9
$DIMBLK
  1
Open30
  9
$DIMASO
 70
     1
  9
$DIMSHO
 70
     1
  9
$DIMPOST
  1

  9
$DIMAPOST
  1

  9
$DIMALT
 70
     0
  9
$DIMALTD
 70
     3
  9
$DIMALTF
 40
0.03937007874016
  9
$DIMLFAC
 40
1.0
  9
$DIMTOFL
 70
     1
  9
$DIMTVP
 40
0.0
  9
$DIMTIX
 70
     0
  9
$DIMSOXD
 70
     0
  9
$DIMSAH
 70
     0
  9
$DIMBLK1
  1

  9
$DIMBLK2
  1

  9
$DIMSTYLE
  2
1：1
  9
$DIMCLRD
 70
     0
  9
$DIMCLRE
 70
     0
  9
$DIMCLRT
 70
     4
  9
$DIMTFAC
 40
1.0
  9
$DIMGAP
 40
0.625
  9
$DIMJUST
 70
     0
  9
$DIMSD1
 70
     0
  9
$DIMSD2
 70
     0
  9
$DIMTOLJ
 70
     0
  9
$DIMTZIN
 70
     8
  9
$DIMALTZ
 70
     0
  9
$DIMALTTZ
 70
     0
  9
$DIMUPT
 70
     1
  9
$DIMDEC
 70
     2
  9
$DIMTDEC
 70
     2
  9
$DIMALTU
 70
     2
  9
$DIMALTTD
 70
     3
  9
$DIMTXSTY
  7
STANDARD
  9
$DIMAUNIT
 70
     0
  9
$DIMADEC
 70
     1
  9
$DIMALTRND
 40
0.0
  9
$DIMAZIN
 70
     2
  9
$DIMDSEP
 70
    46
  9
$DIMATFIT
 70
     0
  9
$DIMFRAC
 70
     0
  9
$DIMLDRBLK
  1
Open30
  9
$DIMLUNIT
 70
     2
  9
$DIMLWD
 70
    -2
  9
$DIMLWE
 70
    -2
  9
$DIMTMOVE
 70
     0
  9
$LUNITS
 70
     2
  9
$LUPREC
 70
     4
  9
$SKETCHINC
 40
0.1
  9
$FILLETRAD
 40
0.0
  9
$AUNITS
 70
     0
  9
$AUPREC
 70
     0
  9
$MENU
  1
.
  9
$ELEVATION
 40
0.0
  9
$PELEVATION
 40
0.0
  9
$THICKNESS
 40
0.0
  9
$LIMCHECK
 70
     0
  9
$CHAMFERA
 40
0.0
  9
$CHAMFERB
 40
0.0
  9
$CHAMFERC
 40
0.0
  9
$CHAMFERD
 40
0.0
  9
$SKPOLY
 70
     0
  9
$TDCREATE
 40
2456561.871405671
  9
$TDUCREATE
 40
2456561.496405671
  9
$TDUPDATE
 40
2458151.682862709
  9
$TDUUPDATE
 40
2458151.307862709
  9
$TDINDWG
 40
0.0498691088
  9
$TDUSRTIMER
 40
0.0498609144
  9
$USRTIMER
 70
     1
  9
$ANGBASE
 50
0.0
  9
$ANGDIR
 70
     0
  9
$PDMODE
 70
     0
  9
$PDSIZE
 40
0.0
  9
$PLINEWID
 40
0.0
  9
$SPLFRAME
 70
     0
  9
$SPLINETYPE
 70
     6
  9
$SPLINESEGS
 70
     8
  9
$HANDSEED
  5
C1F
  9
$SURFTAB1
 70
     6
  9
$SURFTAB2
 70
     6
  9
$SURFTYPE
 70
     6
  9
$SURFU
 70
     6
  9
$SURFV
 70
     6
  9
$UCSBASE
  2

  9
$UCSNAME
  2

  9
$UCSORG
 10
0.0
 20
0.0
 30
0.0
  9
$UCSXDIR
 10
1.0
 20
0.0
 30
0.0
  9
$UCSYDIR
 10
0.0
 20
1.0
 30
0.0
  9
$UCSORTHOREF
  2

  9
$UCSORTHOVIEW
 70
     0
  9
$UCSORGTOP
 10
0.0
 20
0.0
 30
0.0
  9
$UCSORGBOTTOM
 10
0.0
 20
0.0
 30
0.0
  9
$UCSORGLEFT
 10
0.0
 20
0.0
 30
0.0
  9
$UCSORGRIGHT
 10
0.0
 20
0.0
 30
0.0
  9
$UCSORGFRONT
 10
0.0
 20
0.0
 30
0.0
  9
$UCSORGBACK
 10
0.0
 20
0.0
 30
0.0
  9
$PUCSBASE
  2

  9
$PUCSNAME
  2

  9
$PUCSORG
 10
0.0
 20
0.0
 30
0.0
  9
$PUCSXDIR
 10
1.0
 20
0.0
 30
0.0
  9
$PUCSYDIR
 10
0.0
 20
1.0
 30
0.0
  9
$PUCSORTHOREF
  2

  9
$PUCSORTHOVIEW
 70
     0
  9
$PUCSORGTOP
 10
0.0
 20
0.0
 30
0.0
  9
$PUCSORGBOTTOM
 10
0.0
 20
0.0
 30
0.0
  9
$PUCSORGLEFT
 10
0.0
 20
0.0
 30
0.0
  9
$PUCSORGRIGHT
 10
0.0
 20
0.0
 30
0.0
  9
$PUCSORGFRONT
 10
0.0
 20
0.0
 30
0.0
  9
$PUCSORGBACK
 10
0.0
 20
0.0
 30
0.0
  9
$USERI1
 70
     0
  9
$USERI2
 70
     0
  9
$USERI3
 70
     0
  9
$USERI4
 70
     0
  9
$USERI5
 70
     0
  9
$USERR1
 40
0.0
  9
$USERR2
 40
0.0
  9
$USERR3
 40
0.0
  9
$USERR4
 40
0.0
  9
$USERR5
 40
0.0
  9
$WORLDVIEW
 70
     1
  9
$SHADEDGE
 70
     3
  9
$SHADEDIF
 70
    70
  9
$TILEMODE
 70
     1
  9
$MAXACTVP
 70
    64
  9
$PINSBASE
 10
0.0
 20
0.0
 30
0.0
  9
$PLIMCHECK
 70
     0
  9
$PEXTMIN
 10
1.000000000000000E+20
 20
1.000000000000000E+20
 30
1.000000000000000E+20
  9
$PEXTMAX
 10
-1.000000000000000E+20
 20
-1.000000000000000E+20
 30
-1.000000000000000E+20
  9
$PLIMMIN
 10
0.0
 20
0.0
  9
$PLIMMAX
 10
12.0
 20
9.0
  9
$UNITMODE
 70
     0
  9
$VISRETAIN
 70
     1
  9
$PLINEGEN
 70
     0
  9
$PSLTSCALE
 70
     1
  9
$TREEDEPTH
 70
  3020
  9
$CMLSTYLE
  2
Standard
  9
$CMLJUST
 70
     0
  9
$CMLSCALE
 40
1.0
  9
$PROXYGRAPHICS
 70
     1
  9
$MEASUREMENT
 70
     0
  9
$CELWEIGHT
370
    -1
  9
$ENDCAPS
280
     0
  9
$JOINSTYLE
280
     0
  9
$LWDISPLAY
290
     0
  9
$INSUNITS
 70
     0
  9
$HYPERLINKBASE
  1

  9
$STYLESHEET
  1

  9
$XEDIT
290
     1
  9
$CEPSNTYPE
380
     0
  9
$PSTYLEMODE
290
     1
  9
$FINGERPRINTGUID
  2
{496B05D6-0841-41FF-9424-92B34D14EE05}
  9
$VERSIONGUID
  2
{C4A5B9E2-F356-4537-A143-7ACF7415C1C4}
  9
$EXTNAMES
290
     1
  9
$PSVPSCALE
 40
0.0
  9
$OLESTARTUP
290
     0
  0
ENDSEC
  0
SECTION
  2
CLASSES
  0
CLASS
  1
ACDBDICTIONARYWDFLT
  2
AcDbDictionaryWithDefault
  3
ObjectDBX Classes
 90
        0
280
     0
281
     0
  0
CLASS
  1
MATERIAL
  2
AcDbMaterial
  3
ObjectDBX Classes
 90
     1153
280
     0
281
     0
  0
CLASS
  1
VISUALSTYLE
  2
AcDbVisualStyle
  3
ObjectDBX Classes
 90
     4095
280
     0
281
     0
  0
CLASS
  1
SCALE
  2
AcDbScale
  3
ObjectDBX Classes
 90
     1153
280
     0
281
     0
  0
CLASS
  1
TABLESTYLE
  2
AcDbTableStyle
  3
ObjectDBX Classes
 90
     4095
280
     0
281
     0
  0
CLASS
  1
MLEADERSTYLE
  2
AcDbMLeaderStyle
  3
ACDB_MLEADERSTYLE_CLASS
 90
     4095
280
     0
281
     0
  0
CLASS
  1
SORTENTSTABLE
  2
AcDbSortentsTable
  3
ObjectDBX Classes
 90
        0
280
     0
281
     0
  0
CLASS
  1
DICTIONARYVAR
  2
AcDbDictionaryVar
  3
ObjectDBX Classes
 90
        0
280
     0
281
     0
  0
CLASS
  1
CELLSTYLEMAP
  2
AcDbCellStyleMap
  3
ObjectDBX Classes
 90
     1152
280
     0
281
     0
  0
CLASS
  1
ACDBPLACEHOLDER
  2
AcDbPlaceHolder
  3
ObjectDBX Classes
 90
        0
280
     0
281
     0
  0
CLASS
  1
LAYOUT
  2
AcDbLayout
  3
ObjectDBX Classes
 90
        0
280
     0
281
     0
  0
ENDSEC
  0
SECTION
  2
TABLES
  0
TABLE
  2
VPORT
  5
8
330
0
100
AcDbSymbolTable
 70
     1
  0
VPORT
  5
8B
330
8
100
AcDbSymbolTableRecord
100
AcDbViewportTableRecord
  2
*Active
 70
     0
 10
0.0
 20
0.0
 11
1.0
 21
1.0
 12
209.8909807356375
 22
-384.1786098726872
 13
0.0
 23
0.0
 14
1.0
 24
1.0
 15
0.0
 25
0.0
 16
0.0
 26
0.0
 36
1.0
 17
0.0
 27
0.0
 37
0.0
 40
538.6065167952393
 41
1.79585326953748
 42
50.0
 43
0.0
 44
0.0
 50
0.0
 51
0.0
 71
     0
 72
   100
 73
     1
 74
     1
 75
     0
 76
     0
 77
     0
 78
     0
281
     0
 65
     1
110
0.0
120
0.0
130
0.0
111
1.0
121
0.0
131
0.0
112
0.0
122
1.0
132
0.0
 79
     0
146
0.0
  0
ENDTAB
  0
TABLE
  2
LTYPE
  5
5
330
0
100
AcDbSymbolTable
 70
     3
  0
LTYPE
  5
5A
330
5
100
AcDbSymbolTableRecord
100
AcDbLinetypeTableRecord
  2
ByBlock
 70
     0
  3

 72
    65
 73
     0
 40
0.0
  0
LTYPE
  5
5B
330
5
100
AcDbSymbolTableRecord
100
AcDbLinetypeTableRecord
  2
ByLayer
 70
     0
  3

 72
    65
 73
     0
 40
0.0
  0
LTYPE
  5
5C
330
5
100
AcDbSymbolTableRecord
100
AcDbLinetypeTableRecord
  2
CONTINUOUS
 70
     0
  3
Solid-line
 72
    65
 73
     0
 40
0.0
  0
LTYPE
  5
78
330
5
100
AcDbSymbolTableRecord
100
AcDbLinetypeTableRecord
  2
DASHED
 70
     0
  3
DASHED
 72
    65
 73
     2
 40
0.75
 49
0.5
 74
     0
 49
-0.25
 74
     0
  0
LTYPE
  5
81
330
5
100
AcDbSymbolTableRecord
100
AcDbLinetypeTableRecord
  2
HIDDEN
 70
     0
  3
HIDDEN
 72
    65
 73
     2
 40
0.375
 49
0.25
 74
     0
 49
-0.125
 74
     0
  0
ENDTAB
  0
TABLE
  2
LAYER
  5
2
102
{ACAD_XDICTIONARY
360
30D
102
}
330
0
100
AcDbSymbolTable
 70
     2
  0
LAYER
  5
54
102
{ACAD_XDICTIONARY
360
6D4
102
}
330
2
100
AcDbSymbolTableRecord
100
AcDbLayerTableRecord
  2
0
 70
     0
 62
     7
  6
CONTINUOUS
370
    -3
390
F
  0
LAYER
  5
344
330
2
100
AcDbSymbolTableRecord
100
AcDbLayerTableRecord
  2
Defpoints
 70
     0
 62
     7
  6
CONTINUOUS
290
     0
370
    -3
390
F
  0
ENDTAB
  0
TABLE
  2
STYLE
  5
3
330
0
100
AcDbSymbolTable
 70
     6
  0
STYLE
  5
55
330
3
100
AcDbSymbolTableRecord
100
AcDbTextStyleTableRecord
  2
STANDARD
 70
     0
 40
0.0
 41
1.0
 50
0.0
 71
     0
 42
0.2
  3
TXT
  4
BIGFONT
  0
STYLE
  5
2FE
330
3
100
AcDbSymbolTableRecord
100
AcDbTextStyleTableRecord
  2
高3.2
 70
     0
 40
3.2
 41
1.0
 50
0.0
 71
     0
 42
3.2
  3
txt.shx
  4
bigfont.shx
  0
STYLE
  5
2FF
330
3
100
AcDbSymbolTableRecord
100
AcDbTextStyleTableRecord
  2
高2
 70
     0
 40
2.0
 41
1.0
 50
0.0
 71
     0
 42
2.0
  3
txt.shx
  4
bigfont.shx
  0
STYLE
  5
517
330
3
100
AcDbSymbolTableRecord
100
AcDbTextStyleTableRecord
  2
高6.3
 70
     0
 40
6.299999999999998
 41
1.0
 50
0.0
 71
     0
 42
6.299999999999998
  3
txt.shx
  4
bigfont.shx
  0
STYLE
  5
518
330
3
100
AcDbSymbolTableRecord
100
AcDbTextStyleTableRecord
  2
高2.5
 70
     0
 40
2.5
 41
1.0
 50
0.0
 71
     0
 42
0.2
  3
txt.shx
  4
bigfont.shx
  0
STYLE
  5
519
330
3
100
AcDbSymbolTableRecord
100
AcDbTextStyleTableRecord
  2
高4.5
 70
     0
 40
4.5
 41
1.0
 50
0.0
 71
     0
 42
6.299999999999998
  3
txt.shx
  4
bigfont.shx
  0
ENDTAB
  0
TABLE
  2
VIEW
  5
6
330
0
100
AcDbSymbolTable
 70
     0
  0
ENDTAB
  0
TABLE
  2
UCS
  5
7
330
0
100
AcDbSymbolTable
 70
     0
  0
ENDTAB
  0
TABLE
  2
APPID
  5
9
330
0
100
AcDbSymbolTable
 70
    11
  0
APPID
  5
56
330
9
100
AcDbSymbolTableRecord
100
AcDbRegAppTableRecord
  2
ACAD
 70
     0
  0
APPID
  5
5D
330
9
100
AcDbSymbolTableRecord
100
AcDbRegAppTableRecord
  2
AcadAnnotative
 70
     0
  0
APPID
  5
306
330
9
100
AcDbSymbolTableRecord
100
AcDbRegAppTableRecord
  2
ACAD_DSTYLE_DIMJOGGED_JOGANGLE_SYMBOL
 70
     0
  0
APPID
  5
307
330
9
100
AcDbSymbolTableRecord
100
AcDbRegAppTableRecord
  2
ACAD_DSTYLE_DIMJAG
 70
     0
  0
APPID
  5
308
330
9
100
AcDbSymbolTableRecord
100
AcDbRegAppTableRecord
  2
ACAD_DSTYLE_DIMBREAK
 70
     0
  0
APPID
  5
309
330
9
100
AcDbSymbolTableRecord
100
AcDbRegAppTableRecord
  2
ACAD_DSTYLE_DIMTALN
 70
     0
  0
APPID
  5
399
330
9
100
AcDbSymbolTableRecord
100
AcDbRegAppTableRecord
  2
ACAD_EXEMPT_FROM_CAD_STANDARDS
 70
     0
  0
APPID
  5
723
330
9
100
AcDbSymbolTableRecord
100
AcDbRegAppTableRecord
  2
ACAD_PSEXT
 70
     0
  0
APPID
  5
768
330
9
100
AcDbSymbolTableRecord
100
AcDbRegAppTableRecord
  2
ACAD_MLEADERVER
 70
     0
  0
APPID
  5
76D
330
9
100
AcDbSymbolTableRecord
100
AcDbRegAppTableRecord
  2
ACAD_DSTYLE_DIMARC_LENGTH_SYMBOL
 70
     0
  0
APPID
  5
76E
330
9
100
AcDbSymbolTableRecord
100
AcDbRegAppTableRecord
  2
ACAD_DSTYLE_DIMEXT_LENGTH
 70
     0
  0
ENDTAB
  0
TABLE
  2
DIMSTYLE
  5
A
330
0
100
AcDbSymbolTable
 70
    12
100
AcDbDimStyleTable
 71
     2
340
300
340
305
  0
DIMSTYLE
105
57
330
A
100
AcDbSymbolTableRecord
100
AcDbDimStyleTableRecord
  2
Standard
 70
     0
340
55
  0
DIMSTYLE
105
300
330
A
100
AcDbSymbolTableRecord
100
AcDbDimStyleTableRecord
  2
1：1
 70
     0
 41
2.5
 42
0.25
 43
0.2
 44
1.25
 73
     0
 74
     0
 77
     3
 78
     8
 79
     2
140
3.0
141
0.0
143
0.03937007874016
147
0.625
171
     3
172
     1
178
     4
179
     1
271
     2
272
     2
274
     3
283
     0
284
     8
288
     1
289
     0
340
55
341
2F8
342
2F8
1001
ACAD_DSTYLE_DIMARC_LENGTH_SYMBOL
1070
   379
1070
     2
1001
ACAD_DSTYLE_DIMEXT_LENGTH
1070
   378
1040
1.25
1001
ACAD_DSTYLE_DIMJOGGED_JOGANGLE_SYMBOL
1070
   384
1040
1.570796326794896
  0
DIMSTYLE
105
301
330
A
100
AcDbSymbolTableRecord
100
AcDbDimStyleTableRecord
  2
5：1
 70
     0
 41
2.5
 42
0.25
 43
0.2
 44
1.25
 73
     0
 74
     0
 77
     3
 78
     8
 79
     2
140
3.0
141
0.0
143
0.03937007874016
144
0.2
147
0.625
171
     3
172
     1
178
     4
179
     1
271
     2
272
     2
274
     3
283
     0
284
     8
288
     1
289
     0
340
55
341
2F8
342
2F8
1001
ACAD_DSTYLE_DIMARC_LENGTH_SYMBOL
1070
   379
1070
     2
1001
ACAD_DSTYLE_DIMEXT_LENGTH
1070
   378
1040
1.25
1001
ACAD_DSTYLE_DIMJOGGED_JOGANGLE_SYMBOL
1070
   384
1040
1.570796326794896
  0
DIMSTYLE
105
302
330
A
100
AcDbSymbolTableRecord
100
AcDbDimStyleTableRecord
  2
1／2
 70
     0
 41
2.5
 42
0.25
 43
0.2
 44
1.25
 73
     0
 74
     0
 77
     3
 78
     8
 79
     2
140
3.0
141
0.0
143
0.03937007874016
144
2.0
147
0.625
171
     3
172
     1
178
     4
179
     1
271
     2
272
     2
274
     3
283
     0
284
     8
288
     1
289
     0
340
55
341
2F8
342
2F8
1001
ACAD_DSTYLE_DIMARC_LENGTH_SYMBOL
1070
   379
1070
     2
1001
ACAD_DSTYLE_DIMEXT_LENGTH
1070
   378
1040
1.25
1001
ACAD_DSTYLE_DIMJOGGED_JOGANGLE_SYMBOL
1070
   384
1040
1.570796326794896
  0
DIMSTYLE
105
303
330
A
100
AcDbSymbolTableRecord
100
AcDbDimStyleTableRecord
  2
1／4
 70
     0
 41
2.5
 42
0.25
 43
0.2
 44
1.25
 73
     0
 74
     0
 77
     3
 78
     8
 79
     2
140
3.0
141
0.0
143
0.03937007874016
144
4.0
147
0.625
171
     3
172
     1
178
     4
179
     1
271
     2
272
     2
274
     3
283
     0
284
     8
288
     1
289
     0
340
55
341
2F8
342
2F8
1001
ACAD_DSTYLE_DIMARC_LENGTH_SYMBOL
1070
   379
1070
     2
1001
ACAD_DSTYLE_DIMEXT_LENGTH
1070
   378
1040
1.25
1001
ACAD_DSTYLE_DIMJOGGED_JOGANGLE_SYMBOL
1070
   384
1040
1.570796326794896
  0
DIMSTYLE
105
304
330
A
100
AcDbSymbolTableRecord
100
AcDbDimStyleTableRecord
  2
1／3
 70
     0
 41
2.5
 42
0.25
 43
0.2
 44
1.25
 73
     0
 74
     0
 77
     3
 78
     8
 79
     2
140
3.0
141
0.0
143
0.03937007874016
144
3.0
147
0.625
171
     3
172
     1
178
     4
179
     1
271
     2
272
     2
274
     3
283
     0
284
     8
288
     1
289
     0
340
55
341
2F8
342
2F8
1001
ACAD_DSTYLE_DIMARC_LENGTH_SYMBOL
1070
   379
1070
     2
1001
ACAD_DSTYLE_DIMEXT_LENGTH
1070
   378
1040
1.25
1001
ACAD_DSTYLE_DIMJOGGED_JOGANGLE_SYMBOL
1070
   384
1040
1.570796326794896
  0
DIMSTYLE
105
305
330
A
100
AcDbSymbolTableRecord
100
AcDbDimStyleTableRecord
  2
FREE
 70
     0
 41
2.5
 42
0.25
 43
0.2
 44
1.25
 73
     0
 74
     0
 77
     3
 78
     8
 79
     2
140
3.0
141
0.0
143
0.03937007874016
147
0.625
171
     3
172
     1
178
     4
179
     1
271
     2
272
     2
274
     3
283
     0
284
     8
288
     1
289
     0
340
55
341
2F8
342
2F8
1001
ACAD_DSTYLE_DIMBREAK
1070
   391
1040
3.75
1001
ACAD_DSTYLE_DIMJAG
1070
   388
1040
1.5
1001
ACAD_DSTYLE_DIMTALN
1070
   392
1070
     0
1001
ACAD_DSTYLE_DIMARC_LENGTH_SYMBOL
1070
   379
1070
     2
1001
ACAD_DSTYLE_DIMEXT_LENGTH
1070
   378
1040
1.25
1001
ACAD_DSTYLE_DIMJOGGED_JOGANGLE_SYMBOL
1070
   384
1040
1.570796326794896
  0
DIMSTYLE
105
51A
330
A
100
AcDbSymbolTableRecord
100
AcDbDimStyleTableRecord
  2
2：1
 70
     0
 41
2.5
 42
0.25
 43
0.2
 44
1.25
 73
     0
 74
     0
 77
     3
 78
     8
 79
     2
140
3.0
141
0.0
143
0.03937007874016
144
0.5
147
0.625
171
     3
172
     1
178
     4
179
     1
271
     2
272
     2
274
     3
283
     0
284
     8
288
     1
289
     0
340
55
341
2F8
342
2F8
1001
ACAD_DSTYLE_DIMARC_LENGTH_SYMBOL
1070
   379
1070
     2
1001
ACAD_DSTYLE_DIMEXT_LENGTH
1070
   378
1040
1.25
1001
ACAD_DSTYLE_DIMJOGGED_JOGANGLE_SYMBOL
1070
   384
1040
1.570796326794896
  0
DIMSTYLE
105
51B
330
A
100
AcDbSymbolTableRecord
100
AcDbDimStyleTableRecord
  2
10：1
 70
     0
 41
2.5
 42
0.25
 43
0.2
 44
1.25
 73
     0
 74
     0
 77
     3
 78
     8
 79
     2
140
3.0
141
0.0
143
0.03937007874016
144
0.1
147
0.625
171
     3
172
     1
178
     4
179
     1
271
     2
272
     2
274
     3
283
     0
284
     8
288
     1
289
     0
340
55
341
2F8
342
2F8
1001
ACAD_DSTYLE_DIMARC_LENGTH_SYMBOL
1070
   379
1070
     2
1001
ACAD_DSTYLE_DIMEXT_LENGTH
1070
   378
1040
1.25
1001
ACAD_DSTYLE_DIMJOGGED_JOGANGLE_SYMBOL
1070
   384
1040
1.570796326794896
  0
DIMSTYLE
105
51C
330
A
100
AcDbSymbolTableRecord
100
AcDbDimStyleTableRecord
  2
1／5
 70
     0
 41
2.5
 42
0.25
 43
0.2
 44
1.25
 73
     0
 74
     0
 77
     3
 78
     8
 79
     2
140
3.0
141
0.0
143
0.03937007874016
144
5.0
147
0.625
171
     3
172
     1
178
     4
179
     1
271
     2
272
     2
274
     3
283
     0
284
     8
288
     1
289
     0
340
55
341
2F8
342
2F8
1001
ACAD_DSTYLE_DIMARC_LENGTH_SYMBOL
1070
   379
1070
     2
1001
ACAD_DSTYLE_DIMEXT_LENGTH
1070
   378
1040
1.25
1001
ACAD_DSTYLE_DIMJOGGED_JOGANGLE_SYMBOL
1070
   384
1040
1.570796326794896
  0
DIMSTYLE
105
51D
330
A
100
AcDbSymbolTableRecord
100
AcDbDimStyleTableRecord
  2
1／10
 70
     0
 41
2.5
 42
0.25
 43
0.2
 44
1.25
 73
     0
 74
     0
 77
     3
 78
     8
 79
     2
140
3.0
141
0.0
143
0.03937007874016
144
10.0
147
0.625
171
     3
172
     1
178
     4
179
     1
271
     2
272
     2
274
     3
283
     0
284
     8
288
     1
289
     0
340
55
341
2F8
342
2F8
1001
ACAD_DSTYLE_DIMARC_LENGTH_SYMBOL
1070
   379
1070
     2
1001
ACAD_DSTYLE_DIMEXT_LENGTH
1070
   378
1040
1.25
1001
ACAD_DSTYLE_DIMJOGGED_JOGANGLE_SYMBOL
1070
   384
1040
1.570796326794896
  0
DIMSTYLE
105
A6A
330
A
100
AcDbSymbolTableRecord
100
AcDbDimStyleTableRecord
  2
ISO-25
 70
     0
 41
2.5
 42
0.625
 43
3.75
 44
1.25
 73
     0
 74
     0
 77
     1
 78
     8
140
2.5
141
2.5
143
0.03937007874016
147
0.625
171
     3
172
     1
271
     2
272
     2
274
     3
278
    44
283
     0
284
     8
340
55
  0
ENDTAB
  0
TABLE
  2
BLOCK_RECORD
  5
1
330
0
100
AcDbSymbolTable
 70
    28
  0
BLOCK_RECORD
  5
6B
102
{ACAD_XDICTIONARY
360
633
102
}
330
1
100
AcDbSymbolTableRecord
100
AcDbBlockTableRecord
  2
*Model_Space
340
6E
  0
BLOCK_RECORD
  5
67
330
1
100
AcDbSymbolTableRecord
100
AcDbBlockTableRecord
  2
*Paper_Space
340
6A
  0
BLOCK_RECORD
  5
2F8
330
1
100
AcDbSymbolTableRecord
100
AcDbBlockTableRecord
  2
_Open30
340
0
102
{BLKREFS
331
5CB
331
5CC
331
5D6
331
5D7
331
5E1
331
5E2
331
5EC
331
5ED
331
5F7
331
5F8
331
602
331
603
331
60D
331
60E
331
618
331
619
331
623
331
624
331
62C
331
62D
331
9D8
331
9D9
331
9E1
331
9E2
331
9EA
331
9EB
331
9F5
331
9F6
331
9FE
331
9FF
331
A07
331
A08
331
A10
331
A11
331
A19
331
A1A
331
A22
331
A23
331
A2B
331
A2C
331
A34
331
A35
331
A3D
331
A3E
331
A46
331
A47
331
A51
331
A52
331
A5A
331
A5B
331
A63
331
A64
102
}
  0
BLOCK_RECORD
  5
351
330
1
100
AcDbSymbolTableRecord
100
AcDbBlockTableRecord
  2
*D1
340
0
  0
BLOCK_RECORD
  5
35D
330
1
100
AcDbSymbolTableRecord
100
AcDbBlockTableRecord
  2
*D2
340
0
  0
BLOCK_RECORD
  5
369
330
1
100
AcDbSymbolTableRecord
100
AcDbBlockTableRecord
  2
*D3
340
0
  0
BLOCK_RECORD
  5
39B
330
1
100
AcDbSymbolTableRecord
100
AcDbBlockTableRecord
  2
*D4
340
0
  0
BLOCK_RECORD
  5
3B3
330
1
100
AcDbSymbolTableRecord
100
AcDbBlockTableRecord
  2
*D5
340
0
  0
BLOCK_RECORD
  5
3BF
330
1
100
AcDbSymbolTableRecord
100
AcDbBlockTableRecord
  2
*D6
340
0
  0
BLOCK_RECORD
  5
3CB
330
1
100
AcDbSymbolTableRecord
100
AcDbBlockTableRecord
  2
*D7
340
0
  0
BLOCK_RECORD
  5
3D7
330
1
100
AcDbSymbolTableRecord
100
AcDbBlockTableRecord
  2
*D8
340
0
  0
BLOCK_RECORD
  5
3E3
330
1
100
AcDbSymbolTableRecord
100
AcDbBlockTableRecord
  2
*D9
340
0
  0
BLOCK_RECORD
  5
3EF
330
1
100
AcDbSymbolTableRecord
100
AcDbBlockTableRecord
  2
*D10
340
0
  0
BLOCK_RECORD
  5
404
330
1
100
AcDbSymbolTableRecord
100
AcDbBlockTableRecord
  2
*D11
340
0
  0
BLOCK_RECORD
  5
410
330
1
100
AcDbSymbolTableRecord
100
AcDbBlockTableRecord
  2
*D12
340
0
  0
BLOCK_RECORD
  5
42E
330
1
100
AcDbSymbolTableRecord
100
AcDbBlockTableRecord
  2
*D13
340
0
  0
BLOCK_RECORD
  5
443
330
1
100
AcDbSymbolTableRecord
100
AcDbBlockTableRecord
  2
*D14
340
0
  0
BLOCK_RECORD
  5
44F
330
1
100
AcDbSymbolTableRecord
100
AcDbBlockTableRecord
  2
*D15
340
0
  0
BLOCK_RECORD
  5
468
330
1
100
AcDbSymbolTableRecord
100
AcDbBlockTableRecord
  2
*D16
340
0
  0
BLOCK_RECORD
  5
53C
330
1
100
AcDbSymbolTableRecord
100
AcDbBlockTableRecord
  2
*D17
340
0
  0
BLOCK_RECORD
  5
54A
330
1
100
AcDbSymbolTableRecord
100
AcDbBlockTableRecord
  2
*D18
340
0
  0
BLOCK_RECORD
  5
558
330
1
100
AcDbSymbolTableRecord
100
AcDbBlockTableRecord
  2
*D19
340
0
  0
BLOCK_RECORD
  5
566
330
1
100
AcDbSymbolTableRecord
100
AcDbBlockTableRecord
  2
*D20
340
0
  0
BLOCK_RECORD
  5
574
330
1
100
AcDbSymbolTableRecord
100
AcDbBlockTableRecord
  2
*D21
340
0
  0
BLOCK_RECORD
  5
582
330
1
100
AcDbSymbolTableRecord
100
AcDbBlockTableRecord
  2
*D22
340
0
  0
BLOCK_RECORD
  5
590
330
1
100
AcDbSymbolTableRecord
100
AcDbBlockTableRecord
  2
*D23
340
0
  0
BLOCK_RECORD
  5
59E
330
1
100
AcDbSymbolTableRecord
100
AcDbBlockTableRecord
  2
*D24
340
0
  0
BLOCK_RECORD
  5
5AC
330
1
100
AcDbSymbolTableRecord
100
AcDbBlockTableRecord
  2
*D25
340
0
  0
BLOCK_RECORD
  5
5BA
330
1
100
AcDbSymbolTableRecord
100
AcDbBlockTableRecord
  2
*D26
340
0
  0
ENDTAB
  0
ENDSEC
  0
SECTION
  2
BLOCKS
  0
BLOCK
  5
6C
330
6B
100
AcDbEntity
  8
0
100
AcDbBlockBegin
  2
*Model_Space
 70
     0
 10
0.0
 20
0.0
 30
0.0
  3
*Model_Space
  1

  0
ENDBLK
  5
6D
330
6B
100
AcDbEntity
  8
0
100
AcDbBlockEnd
  0
BLOCK
  5
68
330
67
100
AcDbEntity
 67
     1
  8
0
100
AcDbBlockBegin
  2
*Paper_Space
 70
     0
 10
0.0
 20
0.0
 30
0.0
  3
*Paper_Space
  1

  0
ENDBLK
  5
69
330
67
100
AcDbEntity
 67
     1
  8
0
100
AcDbBlockEnd
  0
BLOCK
  5
2F9
330
2F8
100
AcDbEntity
  8
0
100
AcDbBlockBegin
  2
_Open30
 70
     0
 10
0.0
 20
0.0
 30
0.0
  3
_Open30
  1

  0
LINE
  5
2FA
330
2F8
100
AcDbEntity
  8
0
  6
ByBlock
 62
     0
370
    -2
100
AcDbLine
 10
-1.0
 20
0.267949
 30
0.0
 11
0.0
 21
0.0
 31
0.0
  0
LINE
  5
2FB
330
2F8
100
AcDbEntity
  8
0
  6
ByBlock
 62
     0
370
    -2
100
AcDbLine
 10
0.0
 20
0.0
 30
0.0
 11
-1.0
 21
-0.267949
 31
0.0
  0
LINE
  5
2FC
330
2F8
100
AcDbEntity
  8
0
  6
ByBlock
 62
     0
370
    -2
100
AcDbLine
 10
0.0
 20
0.0
 30
0.0
 11
-1.0
 21
0.0
 31
0.0
  0
ENDBLK
  5
2FD
330
2F8
100
AcDbEntity
  8
0
100
AcDbBlockEnd
  0
BLOCK
  5
352
330
351
100
AcDbEntity
  8
0
100
AcDbBlockBegin
  2
*D1
 70
     1
 10
0.0
 20
0.0
 30
0.0
  3
*D1
  1

  0
LINE
  5
9D5
330
351
100
AcDbEntity
  8
0
 62
     0
370
    -2
100
AcDbLine
 10
113.128178
 20
-344.983058
 30
0.0
 11
113.128178
 21
-270.507026
 31
0.0
  0
LINE
  5
9D6
330
351
100
AcDbEntity
  8
0
 62
     0
370
    -2
100
AcDbLine
 10
195.128178
 20
-352.983058
 30
0.0
 11
195.128178
 21
-270.507026
 31
0.0
  0
LINE
  5
9D7
330
351
100
AcDbEntity
  8
0
 62
     0
370
    -2
100
AcDbLine
 10
115.628178
 20
-271.757026
 30
0.0
 11
192.628178
 21
-271.757026
 31
0.0
  0
INSERT
  5
9D8
330
351
100
AcDbEntity
  8
0
 62
     0
370
    -2
100
AcDbBlockReference
  2
_Open30
 10
113.128178
 20
-271.757026
 30
0.0
 41
2.5
 42
2.5
 43
2.5
 50
180.0
  0
INSERT
  5
9D9
330
351
100
AcDbEntity
  8
0
 62
     0
370
    -2
100
AcDbBlockReference
  2
_Open30
 10
195.128178
 20
-271.757026
 30
0.0
 41
2.5
 42
2.5
 43
2.5
  0
MTEXT
  5
9DA
330
351
100
AcDbEntity
  8
0
 62
     4
100
AcDbMText
 10
154.128178
 20
-269.632026
 30
0.0
 40
3.0
 41
0.0
 71
     5
 72
     1
  1
82
 73
     1
 44
1.0
1001
ACAD
1000
MTEXTBEGIN
1070
    73
1070
     1
1070
    44
1040
1.0
1070
    74
1070
     0
1000
MTEXTEND
  0
POINT
  5
9DB
330
351
100
AcDbEntity
  8
Defpoints
 62
     0
100
AcDbPoint
 10
113.128178
 20
-345.233058
 30
0.0
  0
POINT
  5
9DC
330
351
100
AcDbEntity
  8
Defpoints
 62
     0
100
AcDbPoint
 10
195.128178
 20
-353.233058
 30
0.0
  0
POINT
  5
9DD
330
351
100
AcDbEntity
  8
Defpoints
 62
     0
100
AcDbPoint
 10
195.128178
 20
-271.757026
 30
0.0
  0
ENDBLK
  5
353
330
351
100
AcDbEntity
  8
0
100
AcDbBlockEnd
  0
BLOCK
  5
35E
330
35D
100
AcDbEntity
  8
0
100
AcDbBlockBegin
  2
*D2
 70
     1
 10
0.0
 20
0.0
 30
0.0
  3
*D2
  1

  0
LINE
  5
9DE
330
35D
100
AcDbEntity
  8
0
 62
     0
370
    -2
100
AcDbLine
 10
144.630267
 20
-299.983058
 30
0.0
 11
144.630267
 21
-280.425478
 31
0.0
  0
LINE
  5
9DF
330
35D
100
AcDbEntity
  8
0
 62
     0
370
    -2
100
AcDbLine
 10
195.128178
 20
-352.983058
 30
0.0
 11
195.128178
 21
-280.425478
 31
0.0
  0
LINE
  5
9E0
330
35D
100
AcDbEntity
  8
0
 62
     0
370
    -2
100
AcDbLine
 10
147.130267
 20
-281.675478
 30
0.0
 11
192.628178
 21
-281.675478
 31
0.0
  0
INSERT
  5
9E1
330
35D
100
AcDbEntity
  8
0
 62
     0
370
    -2
100
AcDbBlockReference
  2
_Open30
 10
144.630267
 20
-281.675478
 30
0.0
 41
2.5
 42
2.5
 43
2.5
 50
180.0
  0
INSERT
  5
9E2
330
35D
100
AcDbEntity
  8
0
 62
     0
370
    -2
100
AcDbBlockReference
  2
_Open30
 10
195.128178
 20
-281.675478
 30
0.0
 41
2.5
 42
2.5
 43
2.5
  0
MTEXT
  5
9E3
330
35D
100
AcDbEntity
  8
0
 62
     4
100
AcDbMText
 10
169.8792225
 20
-279.550478
 30
0.0
 40
3.0
 41
0.0
 71
     5
 72
     1
  1
50.5
 73
     1
 44
1.0
1001
ACAD
1000
MTEXTBEGIN
1070
    73
1070
     1
1070
    44
1040
1.0
1070
    74
1070
     0
1000
MTEXTEND
  0
POINT
  5
9E4
330
35D
100
AcDbEntity
  8
Defpoints
 62
     0
100
AcDbPoint
 10
144.630267
 20
-300.233058
 30
0.0
  0
POINT
  5
9E5
330
35D
100
AcDbEntity
  8
Defpoints
 62
     0
100
AcDbPoint
 10
195.128178
 20
-353.233058
 30
0.0
  0
POINT
  5
9E6
330
35D
100
AcDbEntity
  8
Defpoints
 62
     0
100
AcDbPoint
 10
195.128178
 20
-281.675478
 30
0.0
  0
ENDBLK
  5
35F
330
35D
100
AcDbEntity
  8
0
100
AcDbBlockEnd
  0
BLOCK
  5
36A
330
369
100
AcDbEntity
  8
0
100
AcDbBlockBegin
  2
*D3
 70
     1
 10
0.0
 20
0.0
 30
0.0
  3
*D3
  1

  0
LINE
  5
9E7
330
369
100
AcDbEntity
  8
0
 62
     0
370
    -2
100
AcDbLine
 10
113.128178
 20
-342.983058
 30
0.0
 11
113.128178
 21
-280.425478
 31
0.0
  0
LINE
  5
9E8
330
369
100
AcDbEntity
  8
0
 62
     0
370
    -2
100
AcDbLine
 10
144.630267
 20
-300.983058
 30
0.0
 11
144.630267
 21
-280.425478
 31
0.0
  0
LINE
  5
9E9
330
369
100
AcDbEntity
  8
0
 62
     0
370
    -2
100
AcDbLine
 10
115.628178
 20
-281.675478
 30
0.0
 11
142.130267
 21
-281.675478
 31
0.0
  0
INSERT
  5
9EA
330
369
100
AcDbEntity
  8
0
 62
     0
370
    -2
100
AcDbBlockReference
  2
_Open30
 10
113.128178
 20
-281.675478
 30
0.0
 41
2.5
 42
2.5
 43
2.5
 50
180.0
  0
INSERT
  5
9EB
330
369
100
AcDbEntity
  8
0
 62
     0
370
    -2
100
AcDbBlockReference
  2
_Open30
 10
144.630267
 20
-281.675478
 30
0.0
 41
2.5
 42
2.5
 43
2.5
  0
MTEXT
  5
9EC
330
369
100
AcDbEntity
  8
0
 62
     4
100
AcDbMText
 10
128.8792225
 20
-279.550478
 30
0.0
 40
3.0
 41
0.0
 71
     5
 72
     1
  1
31.5
 73
     1
 44
1.0
1001
ACAD
1000
MTEXTBEGIN
1070
    73
1070
     1
1070
    44
1040
1.0
1070
    74
1070
     0
1000
MTEXTEND
  0
POINT
  5
9ED
330
369
100
AcDbEntity
  8
Defpoints
 62
     0
100
AcDbPoint
 10
113.128178
 20
-343.233058
 30
0.0
  0
POINT
  5
9EE
330
369
100
AcDbEntity
  8
Defpoints
 62
     0
100
AcDbPoint
 10
144.630267
 20
-301.233058
 30
0.0
  0
POINT
  5
9EF
330
369
100
AcDbEntity
  8
Defpoints
 62
     0
100
AcDbPoint
 10
144.630267
 20
-281.675478
 30
0.0
  0
ENDBLK
  5
36B
330
369
100
AcDbEntity
  8
0
100
AcDbBlockEnd
  0
BLOCK
  5
39C
330
39B
100
AcDbEntity
  8
0
100
AcDbBlockBegin
  2
*D4
 70
     1
 10
0.0
 20
0.0
 30
0.0
  3
*D4
  1

  0
LINE
  5
9F0
330
39B
100
AcDbEntity
  8
0
 62
     0
370
    -2
100
AcDbLine
 10
139.128178
 20
-300.983058
 30
0.0
 11
139.128178
 21
-291.481285
 31
0.0
  0
LINE
  5
9F1
330
39B
100
AcDbEntity
  8
0
 62
     0
370
    -2
100
AcDbLine
 10
150.128178
 20
-300.983058
 30
0.0
 11
150.128178
 21
-291.481285
 31
0.0
  0
LINE
  5
9F2
330
39B
100
AcDbEntity
  8
0
 62
     0
370
    -2
100
AcDbLine
 10
136.628178
 20
-292.731285
 30
0.0
 11
134.128178
 21
-292.731285
 31
0.0
  0
LINE
  5
9F3
330
39B
100
AcDbEntity
  8
0
 62
     0
370
    -2
100
AcDbLine
 10
152.628178
 20
-292.731285
 30
0.0
 11
176.678178
 21
-292.731285
 31
0.0
  0
LINE
  5
9F4
330
39B
100
AcDbEntity
  8
0
 62
     0
370
    -2
100
AcDbLine
 10
139.128178
 20
-292.731285
 30
0.0
 11
150.128178
 21
-292.731285
 31
0.0
  0
INSERT
  5
9F5
330
39B
100
AcDbEntity
  8
0
 62
     0
370
    -2
100
AcDbBlockReference
  2
_Open30
 10
139.128178
 20
-292.731285
 30
0.0
 41
2.5
 42
2.5
 43
2.5
  0
INSERT
  5
9F6
330
39B
100
AcDbEntity
  8
0
 62
     0
370
    -2
100
AcDbBlockReference
  2
_Open30
 10
150.128178
 20
-292.731285
 30
0.0
 41
2.5
 42
2.5
 43
2.5
 50
180.0
  0
MTEXT
  5
9F7
330
39B
100
AcDbEntity
  8
0
 62
     4
100
AcDbMText
 10
165.903178
 20
-290.606285
 30
0.0
 40
3.0
 41
0.0
 71
     5
 72
     1
  1
M10 P=1.5
 73
     1
 44
1.0
1001
ACAD
1000
MTEXTBEGIN
1070
    73
1070
     1
1070
    44
1040
1.0
1070
    74
1070
     0
1000
MTEXTEND
  0
POINT
  5
9F8
330
39B
100
AcDbEntity
  8
Defpoints
 62
     0
100
AcDbPoint
 10
139.128178
 20
-301.233058
 30
0.0
  0
POINT
  5
9F9
330
39B
100
AcDbEntity
  8
Defpoints
 62
     0
100
AcDbPoint
 10
150.128178
 20
-301.233058
 30
0.0
  0
POINT
  5
9FA
330
39B
100
AcDbEntity
  8
Defpoints
 62
     0
100
AcDbPoint
 10
150.128178
 20
-292.731285
 30
0.0
  0
ENDBLK
  5
39D
330
39B
100
AcDbEntity
  8
0
100
AcDbBlockEnd
  0
BLOCK
  5
3B4
330
3B3
100
AcDbEntity
  8
0
100
AcDbBlockBegin
  2
*D5
 70
     1
 10
0.0
 20
0.0
 30
0.0
  3
*D5
  1

  0
LINE
  5
9FB
330
3B3
100
AcDbEntity
  8
0
 62
     0
370
    -2
100
AcDbLine
 10
132.867637
 20
-319.233058
 30
0.0
 11
102.359894
 21
-319.233058
 31
0.0
  0
LINE
  5
9FC
330
3B3
100
AcDbEntity
  8
0
 62
     0
370
    -2
100
AcDbLine
 10
134.882356
 20
-301.233058
 30
0.0
 11
102.359894
 21
-301.233058
 31
0.0
  0
LINE
  5
9FD
330
3B3
100
AcDbEntity
  8
0
 62
     0
370
    -2
100
AcDbLine
 10
103.609894
 20
-316.733058
 30
0.0
 11
103.609894
 21
-303.733058
 31
0.0
  0
INSERT
  5
9FE
330
3B3
100
AcDbEntity
  8
0
 62
     0
370
    -2
100
AcDbBlockReference
  2
_Open30
 10
103.609894
 20
-319.233058
 30
0.0
 41
2.5
 42
2.5
 43
2.5
 50
270.0
  0
INSERT
  5
9FF
330
3B3
100
AcDbEntity
  8
0
 62
     0
370
    -2
100
AcDbBlockReference
  2
_Open30
 10
103.609894
 20
-301.233058
 30
0.0
 41
2.5
 42
2.5
 43
2.5
 50
90.0
  0
MTEXT
  5
A00
330
3B3
100
AcDbEntity
  8
0
 62
     4
100
AcDbMText
 10
101.484894
 20
-310.233058
 30
0.0
 40
3.0
 41
0.0
 71
     5
 72
     1
  1
18
 11
0.0000000000000001
 21
1.0
 31
0.0
 73
     1
 44
1.0
1001
ACAD
1000
MTEXTBEGIN
1070
    73
1070
     1
1070
    44
1040
1.0
1070
    74
1070
     0
1000
MTEXTEND
  0
POINT
  5
A01
330
3B3
100
AcDbEntity
  8
Defpoints
 62
     0
100
AcDbPoint
 10
133.117637
 20
-319.233058
 30
0.0
  0
POINT
  5
A02
330
3B3
100
AcDbEntity
  8
Defpoints
 62
     0
100
AcDbPoint
 10
135.132356
 20
-301.233058
 30
0.0
  0
POINT
  5
A03
330
3B3
100
AcDbEntity
  8
Defpoints
 62
     0
100
AcDbPoint
 10
103.609894
 20
-301.233058
 30
0.0
  0
ENDBLK
  5
3B5
330
3B3
100
AcDbEntity
  8
0
100
AcDbBlockEnd
  0
BLOCK
  5
3C0
330
3BF
100
AcDbEntity
  8
0
100
AcDbBlockBegin
  2
*D6
 70
     1
 10
0.0
 20
0.0
 30
0.0
  3
*D6
  1

  0
LINE
  5
A04
330
3BF
100
AcDbEntity
  8
0
 62
     0
370
    -2
100
AcDbLine
 10
135.630267
 20
-345.483058
 30
0.0
 11
135.630267
 21
-358.8368680000002
 31
0.0
  0
LINE
  5
A05
330
3BF
100
AcDbEntity
  8
0
 62
     0
370
    -2
100
AcDbLine
 10
153.630267
 20
-345.483058
 30
0.0
 11
153.630267
 21
-358.8368680000002
 31
0.0
  0
LINE
  5
A06
330
3BF
100
AcDbEntity
  8
0
 62
     0
370
    -2
100
AcDbLine
 10
138.130267
 20
-357.5868680000001
 30
0.0
 11
151.130267
 21
-357.5868680000001
 31
0.0
  0
INSERT
  5
A07
330
3BF
100
AcDbEntity
  8
0
 62
     0
370
    -2
100
AcDbBlockReference
  2
_Open30
 10
135.630267
 20
-357.5868680000001
 30
0.0
 41
2.5
 42
2.5
 43
2.5
 50
180.0
  0
INSERT
  5
A08
330
3BF
100
AcDbEntity
  8
0
 62
     0
370
    -2
100
AcDbBlockReference
  2
_Open30
 10
153.630267
 20
-357.5868680000001
 30
0.0
 41
2.5
 42
2.5
 43
2.5
  0
MTEXT
  5
A09
330
3BF
100
AcDbEntity
  8
0
 62
     4
100
AcDbMText
 10
144.630267
 20
-355.4618680000002
 30
0.0
 40
3.0
 41
0.0
 71
     5
 72
     1
  1
18
 73
     1
 44
1.0
1001
ACAD
1000
MTEXTBEGIN
1070
    73
1070
     1
1070
    44
1040
1.0
1070
    74
1070
     0
1000
MTEXTEND
  0
POINT
  5
A0A
330
3BF
100
AcDbEntity
  8
Defpoints
 62
     0
100
AcDbPoint
 10
135.630267
 20
-345.233058
 30
0.0
  0
POINT
  5
A0B
330
3BF
100
AcDbEntity
  8
Defpoints
 62
     0
100
AcDbPoint
 10
153.630267
 20
-345.233058
 30
0.0
  0
POINT
  5
A0C
330
3BF
100
AcDbEntity
  8
Defpoints
 62
     0
100
AcDbPoint
 10
153.630267
 20
-357.5868680000001
 30
0.0
  0
ENDBLK
  5
3C1
330
3BF
100
AcDbEntity
  8
0
100
AcDbBlockEnd
  0
BLOCK
  5
3CC
330
3CB
100
AcDbEntity
  8
0
100
AcDbBlockBegin
  2
*D7
 70
     1
 10
0.0
 20
0.0
 30
0.0
  3
*D7
  1

  0
LINE
  5
A0D
330
3CB
100
AcDbEntity
  8
0
 62
     0
370
    -2
100
AcDbLine
 10
137.378178
 20
-451.233058
 30
0.0
 11
82.28852299999996
 21
-451.2330579999999
 31
0.0
  0
LINE
  5
A0E
330
3CB
100
AcDbEntity
  8
0
 62
     0
370
    -2
100
AcDbLine
 10
134.878178
 20
-301.233058
 30
0.0
 11
82.28852299999998
 21
-301.233058
 31
0.0
  0
LINE
  5
A0F
330
3CB
100
AcDbEntity
  8
0
 62
     0
370
    -2
100
AcDbLine
 10
83.53852299999996
 20
-448.733058
 30
0.0
 11
83.53852299999998
 21
-303.733058
 31
0.0
  0
INSERT
  5
A10
330
3CB
100
AcDbEntity
  8
0
 62
     0
370
    -2
100
AcDbBlockReference
  2
_Open30
 10
83.53852299999996
 20
-451.2330579999999
 30
0.0
 41
2.5
 42
2.5
 43
2.5
 50
270.0
  0
INSERT
  5
A11
330
3CB
100
AcDbEntity
  8
0
 62
     0
370
    -2
100
AcDbBlockReference
  2
_Open30
 10
83.53852299999998
 20
-301.233058
 30
0.0
 41
2.5
 42
2.5
 43
2.5
 50
90.0
  0
MTEXT
  5
A12
330
3CB
100
AcDbEntity
  8
0
 62
     4
100
AcDbMText
 10
81.41352300000002
 20
-376.233058
 30
0.0
 40
3.0
 41
0.0
 71
     5
 72
     1
  1
150
 11
0.0000000000000001
 21
1.0
 31
0.0
 73
     1
 44
1.0
1001
ACAD
1000
MTEXTBEGIN
1070
    73
1070
     1
1070
    44
1040
1.0
1070
    74
1070
     0
1000
MTEXTEND
  0
POINT
  5
A13
330
3CB
100
AcDbEntity
  8
Defpoints
 62
     0
100
AcDbPoint
 10
137.628178
 20
-451.233058
 30
0.0
  0
POINT
  5
A14
330
3CB
100
AcDbEntity
  8
Defpoints
 62
     0
100
AcDbPoint
 10
135.128178
 20
-301.233058
 30
0.0
  0
POINT
  5
A15
330
3CB
100
AcDbEntity
  8
Defpoints
 62
     0
100
AcDbPoint
 10
83.53852299999998
 20
-301.233058
 30
0.0
  0
ENDBLK
  5
3CD
330
3CB
100
AcDbEntity
  8
0
100
AcDbBlockEnd
  0
BLOCK
  5
3D8
330
3D7
100
AcDbEntity
  8
0
100
AcDbBlockBegin
  2
*D8
 70
     1
 10
0.0
 20
0.0
 30
0.0
  3
*D8
  1

  0
LINE
  5
A16
330
3D7
100
AcDbEntity
  8
0
 62
     0
370
    -2
100
AcDbLine
 10
138.878178
 20
-432.233058
 30
0.0
 11
92.62659499999996
 21
-432.233058
 31
0.0
  0
LINE
  5
A17
330
3D7
100
AcDbEntity
  8
0
 62
     0
370
    -2
100
AcDbLine
 10
126.852343
 20
-349.233058
 30
0.0
 11
92.62659499999999
 21
-349.233058
 31
0.0
  0
LINE
  5
A18
330
3D7
100
AcDbEntity
  8
0
 62
     0
370
    -2
100
AcDbLine
 10
93.87659499999996
 20
-429.7330579999999
 30
0.0
 11
93.87659499999999
 21
-351.733058
 31
0.0
  0
INSERT
  5
A19
330
3D7
100
AcDbEntity
  8
0
 62
     0
370
    -2
100
AcDbBlockReference
  2
_Open30
 10
93.87659499999996
 20
-432.233058
 30
0.0
 41
2.5
 42
2.5
 43
2.5
 50
270.0
  0
INSERT
  5
A1A
330
3D7
100
AcDbEntity
  8
0
 62
     0
370
    -2
100
AcDbBlockReference
  2
_Open30
 10
93.87659499999999
 20
-349.233058
 30
0.0
 41
2.5
 42
2.5
 43
2.5
 50
90.0
  0
MTEXT
  5
A1B
330
3D7
100
AcDbEntity
  8
0
 62
     4
100
AcDbMText
 10
91.75159500000004
 20
-390.733058
 30
0.0
 40
3.0
 41
0.0
 71
     5
 72
     1
  1
83
 11
0.0000000000000001
 21
1.0
 31
0.0
 73
     1
 44
1.0
1001
ACAD
1000
MTEXTBEGIN
1070
    73
1070
     1
1070
    44
1040
1.0
1070
    74
1070
     0
1000
MTEXTEND
  0
POINT
  5
A1C
330
3D7
100
AcDbEntity
  8
Defpoints
 62
     0
100
AcDbPoint
 10
139.128178
 20
-432.233058
 30
0.0
  0
POINT
  5
A1D
330
3D7
100
AcDbEntity
  8
Defpoints
 62
     0
100
AcDbPoint
 10
127.102343
 20
-349.233058
 30
0.0
  0
POINT
  5
A1E
330
3D7
100
AcDbEntity
  8
Defpoints
 62
     0
100
AcDbPoint
 10
93.87659499999999
 20
-349.233058
 30
0.0
  0
ENDBLK
  5
3D9
330
3D7
100
AcDbEntity
  8
0
100
AcDbBlockEnd
  0
BLOCK
  5
3E4
330
3E3
100
AcDbEntity
  8
0
100
AcDbBlockBegin
  2
*D9
 70
     1
 10
0.0
 20
0.0
 30
0.0
  3
*D9
  1

  0
LINE
  5
A1F
330
3E3
100
AcDbEntity
  8
0
 62
     0
370
    -2
100
AcDbLine
 10
136.378178
 20
-451.233058
 30
0.0
 11
92.62659499999999
 21
-451.2330579999999
 31
0.0
  0
LINE
  5
A20
330
3E3
100
AcDbEntity
  8
0
 62
     0
370
    -2
100
AcDbLine
 10
137.378178
 20
-432.233058
 30
0.0
 11
92.62659499999999
 21
-432.233058
 31
0.0
  0
LINE
  5
A21
330
3E3
100
AcDbEntity
  8
0
 62
     0
370
    -2
100
AcDbLine
 10
93.87659499999999
 20
-448.733058
 30
0.0
 11
93.87659499999999
 21
-434.7330579999999
 31
0.0
  0
INSERT
  5
A22
330
3E3
100
AcDbEntity
  8
0
 62
     0
370
    -2
100
AcDbBlockReference
  2
_Open30
 10
93.87659499999999
 20
-451.2330579999999
 30
0.0
 41
2.5
 42
2.5
 43
2.5
 50
270.0
  0
INSERT
  5
A23
330
3E3
100
AcDbEntity
  8
0
 62
     0
370
    -2
100
AcDbBlockReference
  2
_Open30
 10
93.87659499999999
 20
-432.233058
 30
0.0
 41
2.5
 42
2.5
 43
2.5
 50
90.0
  0
MTEXT
  5
A24
330
3E3
100
AcDbEntity
  8
0
 62
     4
100
AcDbMText
 10
91.75159500000006
 20
-441.7330579999999
 30
0.0
 40
3.0
 41
0.0
 71
     5
 72
     1
  1
19
 11
0.0000000000000001
 21
1.0
 31
0.0
 73
     1
 44
1.0
1001
ACAD
1000
MTEXTBEGIN
1070
    73
1070
     1
1070
    44
1040
1.0
1070
    74
1070
     0
1000
MTEXTEND
  0
POINT
  5
A25
330
3E3
100
AcDbEntity
  8
Defpoints
 62
     0
100
AcDbPoint
 10
136.628178
 20
-451.233058
 30
0.0
  0
POINT
  5
A26
330
3E3
100
AcDbEntity
  8
Defpoints
 62
     0
100
AcDbPoint
 10
137.628178
 20
-432.233058
 30
0.0
  0
POINT
  5
A27
330
3E3
100
AcDbEntity
  8
Defpoints
 62
     0
100
AcDbPoint
 10
93.87659499999999
 20
-432.233058
 30
0.0
  0
ENDBLK
  5
3E5
330
3E3
100
AcDbEntity
  8
0
100
AcDbBlockEnd
  0
BLOCK
  5
3F0
330
3EF
100
AcDbEntity
  8
0
100
AcDbBlockBegin
  2
*D10
 70
     1
 10
0.0
 20
0.0
 30
0.0
  3
*D10
  1

  0
LINE
  5
A28
330
3EF
100
AcDbEntity
  8
0
 62
     0
370
    -2
100
AcDbLine
 10
9.855957999999999
 20
-300.983058
 30
0.0
 11
9.855957999999999
 21
-290.21898
 31
0.0
  0
LINE
  5
A29
330
3EF
100
AcDbEntity
  8
0
 62
     0
370
    -2
100
AcDbLine
 10
28.855958
 20
-300.983058
 30
0.0
 11
28.855958
 21
-290.21898
 31
0.0
  0
LINE
  5
A2A
330
3EF
100
AcDbEntity
  8
0
 62
     0
370
    -2
100
AcDbLine
 10
12.355958
 20
-291.46898
 30
0.0
 11
26.355958
 21
-291.46898
 31
0.0
  0
INSERT
  5
A2B
330
3EF
100
AcDbEntity
  8
0
 62
     0
370
    -2
100
AcDbBlockReference
  2
_Open30
 10
9.855957999999999
 20
-291.46898
 30
0.0
 41
2.5
 42
2.5
 43
2.5
 50
180.0
  0
INSERT
  5
A2C
330
3EF
100
AcDbEntity
  8
0
 62
     0
370
    -2
100
AcDbBlockReference
  2
_Open30
 10
28.855958
 20
-291.46898
 30
0.0
 41
2.5
 42
2.5
 43
2.5
  0
MTEXT
  5
A2D
330
3EF
100
AcDbEntity
  8
0
 62
     4
100
AcDbMText
 10
19.355958
 20
-289.34398
 30
0.0
 40
3.0
 41
0.0
 71
     5
 72
     1
  1
%%C19
 73
     1
 44
1.0
1001
ACAD
1000
MTEXTBEGIN
1070
    73
1070
     1
1070
    44
1040
1.0
1070
    74
1070
     0
1000
MTEXTEND
  0
POINT
  5
A2E
330
3EF
100
AcDbEntity
  8
Defpoints
 62
     0
100
AcDbPoint
 10
9.855957999999999
 20
-301.233058
 30
0.0
  0
POINT
  5
A2F
330
3EF
100
AcDbEntity
  8
Defpoints
 62
     0
100
AcDbPoint
 10
28.855958
 20
-301.233058
 30
0.0
  0
POINT
  5
A30
330
3EF
100
AcDbEntity
  8
Defpoints
 62
     0
100
AcDbPoint
 10
28.855958
 20
-291.46898
 30
0.0
  0
ENDBLK
  5
3F1
330
3EF
100
AcDbEntity
  8
0
100
AcDbBlockEnd
  0
BLOCK
  5
405
330
404
100
AcDbEntity
  8
0
100
AcDbBlockBegin
  2
*D11
 70
     1
 10
0.0
 20
0.0
 30
0.0
  3
*D11
  1

  0
LINE
  5
A31
330
404
100
AcDbEntity
  8
0
 62
     0
370
    -2
100
AcDbLine
 10
7.355958
 20
-318.983058
 30
0.0
 11
7.355958000000002
 21
-282.337453
 31
0.0
  0
LINE
  5
A32
330
404
100
AcDbEntity
  8
0
 62
     0
370
    -2
100
AcDbLine
 10
31.355958
 20
-318.983058
 30
0.0
 11
31.35595800000001
 21
-282.337453
 31
0.0
  0
LINE
  5
A33
330
404
100
AcDbEntity
  8
0
 62
     0
370
    -2
100
AcDbLine
 10
9.855958000000001
 20
-283.587453
 30
0.0
 11
28.85595800000001
 21
-283.587453
 31
0.0
  0
INSERT
  5
A34
330
404
100
AcDbEntity
  8
0
 62
     0
370
    -2
100
AcDbBlockReference
  2
_Open30
 10
7.355958000000001
 20
-283.587453
 30
0.0
 41
2.5
 42
2.5
 43
2.5
 50
180.0
  0
INSERT
  5
A35
330
404
100
AcDbEntity
  8
0
 62
     0
370
    -2
100
AcDbBlockReference
  2
_Open30
 10
31.35595800000001
 20
-283.587453
 30
0.0
 41
2.5
 42
2.5
 43
2.5
  0
MTEXT
  5
A36
330
404
100
AcDbEntity
  8
0
 62
     4
100
AcDbMText
 10
19.355958
 20
-281.462453
 30
0.0
 40
3.0
 41
0.0
 71
     5
 72
     1
  1
24
 73
     1
 44
1.0
1001
ACAD
1000
MTEXTBEGIN
1070
    73
1070
     1
1070
    44
1040
1.0
1070
    74
1070
     0
1000
MTEXTEND
  0
POINT
  5
A37
330
404
100
AcDbEntity
  8
Defpoints
 62
     0
100
AcDbPoint
 10
7.355958
 20
-319.233058
 30
0.0
  0
POINT
  5
A38
330
404
100
AcDbEntity
  8
Defpoints
 62
     0
100
AcDbPoint
 10
31.355958
 20
-319.233058
 30
0.0
  0
POINT
  5
A39
330
404
100
AcDbEntity
  8
Defpoints
 62
     0
100
AcDbPoint
 10
31.35595800000001
 20
-283.587453
 30
0.0
  0
ENDBLK
  5
406
330
404
100
AcDbEntity
  8
0
100
AcDbBlockEnd
  0
BLOCK
  5
411
330
410
100
AcDbEntity
  8
0
100
AcDbBlockBegin
  2
*D12
 70
     1
 10
0.0
 20
0.0
 30
0.0
  3
*D12
  1

  0
LINE
  5
A57
330
410
100
AcDbEntity
  8
0
 62
     0
370
    -2
100
AcDbLine
 10
14.105958
 20
-487.233058
 30
0.0
 11
-7.945401000000023
 21
-487.233058
 31
0.0
  0
LINE
  5
A58
330
410
100
AcDbEntity
  8
0
 62
     0
370
    -2
100
AcDbLine
 10
7.105958
 20
-370.5511
 30
0.0
 11
-7.945400999999997
 21
-370.5511
 31
0.0
  0
LINE
  5
A59
330
410
100
AcDbEntity
  8
0
 62
     0
370
    -2
100
AcDbLine
 10
-6.695401000000022
 20
-484.733058
 30
0.0
 11
-6.695400999999997
 21
-373.0511
 31
0.0
  0
INSERT
  5
A5A
330
410
100
AcDbEntity
  8
0
 62
     0
370
    -2
100
AcDbBlockReference
  2
_Open30
 10
-6.695401000000023
 20
-487.233058
 30
0.0
 41
2.5
 42
2.5
 43
2.5
 50
270.0
  0
INSERT
  5
A5B
330
410
100
AcDbEntity
  8
0
 62
     0
370
    -2
100
AcDbBlockReference
  2
_Open30
 10
-6.695400999999997
 20
-370.5511
 30
0.0
 41
2.5
 42
2.5
 43
2.5
 50
90.0
  0
MTEXT
  5
A5C
330
410
100
AcDbEntity
  8
0
 62
     4
100
AcDbMText
 10
-8.820400999999941
 20
-428.892079
 30
0.0
 40
3.0
 41
0.0
 71
     5
 72
     1
  1
116
 11
0.0000000000000001
 21
1.0
 31
0.0
 73
     1
 44
1.0
1001
ACAD
1000
MTEXTBEGIN
1070
    73
1070
     1
1070
    44
1040
1.0
1070
    74
1070
     0
1000
MTEXTEND
  0
POINT
  5
A5D
330
410
100
AcDbEntity
  8
Defpoints
 62
     0
100
AcDbPoint
 10
14.355958
 20
-487.233058
 30
0.0
  0
POINT
  5
A5E
330
410
100
AcDbEntity
  8
Defpoints
 62
     0
100
AcDbPoint
 10
7.355958
 20
-370.5511
 30
0.0
  0
POINT
  5
A5F
330
410
100
AcDbEntity
  8
Defpoints
 62
     0
100
AcDbPoint
 10
-6.695400999999997
 20
-370.5511
 30
0.0
  0
ENDBLK
  5
412
330
410
100
AcDbEntity
  8
0
100
AcDbBlockEnd
  0
BLOCK
  5
42F
330
42E
100
AcDbEntity
  8
0
100
AcDbBlockBegin
  2
*D13
 70
     1
 10
0.0
 20
0.0
 30
0.0
  3
*D13
  1

  0
LINE
  5
A3A
330
42E
100
AcDbEntity
  8
0
 62
     0
370
    -2
100
AcDbLine
 10
13.355958
 20
-486.483058
 30
0.0
 11
13.355958
 21
-500.6780909999998
 31
0.0
  0
LINE
  5
A3B
330
42E
100
AcDbEntity
  8
0
 62
     0
370
    -2
100
AcDbLine
 10
25.355958
 20
-486.483058
 30
0.0
 11
25.355958
 21
-500.6780909999998
 31
0.0
  0
LINE
  5
A3C
330
42E
100
AcDbEntity
  8
0
 62
     0
370
    -2
100
AcDbLine
 10
15.855958
 20
-499.4280909999998
 30
0.0
 11
22.855958
 21
-499.4280909999998
 31
0.0
  0
INSERT
  5
A3D
330
42E
100
AcDbEntity
  8
0
 62
     0
370
    -2
100
AcDbBlockReference
  2
_Open30
 10
13.355958
 20
-499.4280909999998
 30
0.0
 41
2.5
 42
2.5
 43
2.5
 50
180.0
  0
INSERT
  5
A3E
330
42E
100
AcDbEntity
  8
0
 62
     0
370
    -2
100
AcDbBlockReference
  2
_Open30
 10
25.355958
 20
-499.4280909999998
 30
0.0
 41
2.5
 42
2.5
 43
2.5
  0
MTEXT
  5
A3F
330
42E
100
AcDbEntity
  8
0
 62
     4
100
AcDbMText
 10
19.35595799999999
 20
-497.3030909999998
 30
0.0
 40
3.0
 41
0.0
 71
     5
 72
     1
  1
%%C12
 73
     1
 44
1.0
1001
ACAD
1000
MTEXTBEGIN
1070
    73
1070
     1
1070
    44
1040
1.0
1070
    74
1070
     0
1000
MTEXTEND
  0
POINT
  5
A40
330
42E
100
AcDbEntity
  8
Defpoints
 62
     0
100
AcDbPoint
 10
13.355958
 20
-486.233058
 30
0.0
  0
POINT
  5
A41
330
42E
100
AcDbEntity
  8
Defpoints
 62
     0
100
AcDbPoint
 10
25.355958
 20
-486.233058
 30
0.0
  0
POINT
  5
A42
330
42E
100
AcDbEntity
  8
Defpoints
 62
     0
100
AcDbPoint
 10
25.355958
 20
-499.4280909999998
 30
0.0
  0
ENDBLK
  5
430
330
42E
100
AcDbEntity
  8
0
100
AcDbBlockEnd
  0
BLOCK
  5
444
330
443
100
AcDbEntity
  8
0
100
AcDbBlockBegin
  2
*D14
 70
     1
 10
0.0
 20
0.0
 30
0.0
  3
*D14
  1

  0
LINE
  5
A43
330
443
100
AcDbEntity
  8
0
 62
     0
370
    -2
100
AcDbLine
 10
91.940086
 20
-484.4622659999999
 30
0.0
 11
91.940086
 21
-496.9403389999998
 31
0.0
  0
LINE
  5
A44
330
443
100
AcDbEntity
  8
0
 62
     0
370
    -2
100
AcDbLine
 10
181.940086
 20
-484.4622659999999
 30
0.0
 11
181.940086
 21
-496.9403389999998
 31
0.0
  0
LINE
  5
A45
330
443
100
AcDbEntity
  8
0
 62
     0
370
    -2
100
AcDbLine
 10
94.440086
 20
-495.6903389999998
 30
0.0
 11
179.440086
 21
-495.6903389999998
 31
0.0
  0
INSERT
  5
A46
330
443
100
AcDbEntity
  8
0
 62
     0
370
    -2
100
AcDbBlockReference
  2
_Open30
 10
91.940086
 20
-495.6903389999998
 30
0.0
 41
2.5
 42
2.5
 43
2.5
 50
180.0
  0
INSERT
  5
A47
330
443
100
AcDbEntity
  8
0
 62
     0
370
    -2
100
AcDbBlockReference
  2
_Open30
 10
181.940086
 20
-495.6903389999998
 30
0.0
 41
2.5
 42
2.5
 43
2.5
  0
MTEXT
  5
A48
330
443
100
AcDbEntity
  8
0
 62
     4
100
AcDbMText
 10
136.940086
 20
-493.5653389999997
 30
0.0
 40
3.0
 41
0.0
 71
     5
 72
     1
  1
90
 73
     1
 44
1.0
1001
ACAD
1000
MTEXTBEGIN
1070
    73
1070
     1
1070
    44
1040
1.0
1070
    74
1070
     0
1000
MTEXTEND
  0
POINT
  5
A49
330
443
100
AcDbEntity
  8
Defpoints
 62
     0
100
AcDbPoint
 10
91.940086
 20
-484.212266
 30
0.0
  0
POINT
  5
A4A
330
443
100
AcDbEntity
  8
Defpoints
 62
     0
100
AcDbPoint
 10
181.940086
 20
-484.212266
 30
0.0
  0
POINT
  5
A4B
330
443
100
AcDbEntity
  8
Defpoints
 62
     0
100
AcDbPoint
 10
181.940086
 20
-495.6903389999998
 30
0.0
  0
ENDBLK
  5
445
330
443
100
AcDbEntity
  8
0
100
AcDbBlockEnd
  0
BLOCK
  5
450
330
44F
100
AcDbEntity
  8
0
100
AcDbBlockBegin
  2
*D15
 70
     1
 10
0.0
 20
0.0
 30
0.0
  3
*D15
  1

  0
LINE
  5
A4C
330
44F
100
AcDbEntity
  8
0
 62
     0
370
    -2
100
AcDbLine
 10
114.190086
 20
-484.212266
 30
0.0
 11
111.9583189999999
 21
-484.212266
 31
0.0
  0
LINE
  5
A4D
330
44F
100
AcDbEntity
  8
0
 62
     0
370
    -2
100
AcDbLine
 10
114.190086
 20
-478.2122659999997
 30
0.0
 11
111.958319
 21
-478.2122659999997
 31
0.0
  0
LINE
  5
A4E
330
44F
100
AcDbEntity
  8
0
 62
     0
370
    -2
100
AcDbLine
 10
113.2083189999999
 20
-486.7122659999999
 30
0.0
 11
113.2083189999999
 21
-489.212266
 31
0.0
  0
LINE
  5
A4F
330
44F
100
AcDbEntity
  8
0
 62
     0
370
    -2
100
AcDbLine
 10
113.208319
 20
-475.7122659999997
 30
0.0
 11
113.208319
 21
-466.9622659999997
 31
0.0
  0
LINE
  5
A50
330
44F
100
AcDbEntity
  8
0
 62
     0
370
    -2
100
AcDbLine
 10
113.2083189999999
 20
-484.212266
 30
0.0
 11
113.208319
 21
-478.2122659999997
 31
0.0
  0
INSERT
  5
A51
330
44F
100
AcDbEntity
  8
0
 62
     0
370
    -2
100
AcDbBlockReference
  2
_Open30
 10
113.2083189999999
 20
-484.212266
 30
0.0
 41
2.5
 42
2.5
 43
2.5
 50
90.0
  0
INSERT
  5
A52
330
44F
100
AcDbEntity
  8
0
 62
     0
370
    -2
100
AcDbBlockReference
  2
_Open30
 10
113.208319
 20
-478.2122659999997
 30
0.0
 41
2.5
 42
2.5
 43
2.5
 50
270.0
  0
MTEXT
  5
A53
330
44F
100
AcDbEntity
  8
0
 62
     4
100
AcDbMText
 10
111.083319
 20
-470.0872659999997
 30
0.0
 40
3.0
 41
0.0
 71
     5
 72
     1
  1
%%C6
 11
0.0000000000000001
 21
1.0
 31
0.0
 73
     1
 44
1.0
1001
ACAD
1000
MTEXTBEGIN
1070
    73
1070
     1
1070
    44
1040
1.0
1070
    74
1070
     0
1000
MTEXTEND
  0
POINT
  5
A54
330
44F
100
AcDbEntity
  8
Defpoints
 62
     0
100
AcDbPoint
 10
114.440086
 20
-484.212266
 30
0.0
  0
POINT
  5
A55
330
44F
100
AcDbEntity
  8
Defpoints
 62
     0
100
AcDbPoint
 10
114.440086
 20
-478.2122659999997
 30
0.0
  0
POINT
  5
A56
330
44F
100
AcDbEntity
  8
Defpoints
 62
     0
100
AcDbPoint
 10
113.208319
 20
-478.2122659999997
 30
0.0
  0
ENDBLK
  5
451
330
44F
100
AcDbEntity
  8
0
100
AcDbBlockEnd
  0
BLOCK
  5
469
330
468
100
AcDbEntity
  8
0
100
AcDbBlockBegin
  2
*D16
 70
     1
 10
0.0
 20
0.0
 30
0.0
  3
*D16
  1

  0
LINE
  5
A60
330
468
100
AcDbEntity
  8
0
 62
     0
370
    -2
100
AcDbLine
 10
126.852343
 20
-370.5511
 30
0.0
 11
102.359894
 21
-370.5511
 31
0.0
  0
LINE
  5
A61
330
468
100
AcDbEntity
  8
0
 62
     0
370
    -2
100
AcDbLine
 10
109.239469
 20
-349.233058
 30
0.0
 11
102.359894
 21
-349.233058
 31
0.0
  0
LINE
  5
A62
330
468
100
AcDbEntity
  8
0
 62
     0
370
    -2
100
AcDbLine
 10
103.609894
 20
-368.0511
 30
0.0
 11
103.609894
 21
-351.733058
 31
0.0
  0
INSERT
  5
A63
330
468
100
AcDbEntity
  8
0
 62
     0
370
    -2
100
AcDbBlockReference
  2
_Open30
 10
103.609894
 20
-370.5511
 30
0.0
 41
2.5
 42
2.5
 43
2.5
 50
270.0
  0
INSERT
  5
A64
330
468
100
AcDbEntity
  8
0
 62
     0
370
    -2
100
AcDbBlockReference
  2
_Open30
 10
103.609894
 20
-349.233058
 30
0.0
 41
2.5
 42
2.5
 43
2.5
 50
90.0
  0
MTEXT
  5
A65
330
468
100
AcDbEntity
  8
0
 62
     4
100
AcDbMText
 10
101.484894
 20
-359.892079
 30
0.0
 40
3.0
 41
0.0
 71
     5
 72
     1
  1
有効70
 11
0.0000000000000001
 21
1.0
 31
0.0
 73
     1
 44
1.0
1001
ACAD
1000
MTEXTBEGIN
1070
    73
1070
     1
1070
    44
1040
1.0
1070
    74
1070
     0
1000
MTEXTEND
  0
POINT
  5
A66
330
468
100
AcDbEntity
  8
Defpoints
 62
     0
100
AcDbPoint
 10
127.102343
 20
-370.5511
 30
0.0
  0
POINT
  5
A67
330
468
100
AcDbEntity
  8
Defpoints
 62
     0
100
AcDbPoint
 10
109.489469
 20
-349.233058
 30
0.0
  0
POINT
  5
A68
330
468
100
AcDbEntity
  8
Defpoints
 62
     0
100
AcDbPoint
 10
103.609894
 20
-349.233058
 30
0.0
  0
ENDBLK
  5
46A
330
468
100
AcDbEntity
  8
0
100
AcDbBlockEnd
  0
BLOCK
  5
53D
330
53C
100
AcDbEntity
  8
0
100
AcDbBlockBegin
  2
*D17
 70
     1
 10
0.0
 20
0.0
 30
0.0
  3
*D17
  1

  0
LINE
  5
5C6
330
53C
100
AcDbEntity
  8
0
 62
     0
370
    -2
100
AcDbLine
 10
751.6686926562631
 20
-386.3300096775597
 30
0.0
 11
751.6686926562631
 21
-389.2396410995685
 31
0.0
  0
LINE
  5
5C7
330
53C
100
AcDbEntity
  8
0
 62
     0
370
    -2
100
AcDbLine
 10
749.2115056021429
 20
-386.3300096775597
 30
0.0
 11
749.2115056021429
 21
-389.2396410995685
 31
0.0
  0
LINE
  5
5C8
330
53C
100
AcDbEntity
  8
0
 62
     0
370
    -2
100
AcDbLine
 10
754.1686926562631
 20
-387.9896410995685
 30
0.0
 11
756.6686926562631
 21
-387.9896410995685
 31
0.0
  0
LINE
  5
5C9
330
53C
100
AcDbEntity
  8
0
 62
     0
370
    -2
100
AcDbLine
 10
746.7115056021428
 20
-387.9896410995685
 30
0.0
 11
733.9615056021429
 21
-387.9896410995685
 31
0.0
  0
LINE
  5
5CA
330
53C
100
AcDbEntity
  8
0
 62
     0
370
    -2
100
AcDbLine
 10
751.6686926562631
 20
-387.9896410995685
 30
0.0
 11
749.2115056021429
 21
-387.9896410995685
 31
0.0
  0
INSERT
  5
5CB
330
53C
100
AcDbEntity
  8
0
 62
     0
370
    -2
100
AcDbBlockReference
  2
_Open30
 10
751.6686926562631
 20
-387.9896410995685
 30
0.0
 41
2.5
 42
2.5
 43
2.5
 50
180.0
  0
INSERT
  5
5CC
330
53C
100
AcDbEntity
  8
0
 62
     0
370
    -2
100
AcDbBlockReference
  2
_Open30
 10
749.2115056021429
 20
-387.9896410995685
 30
0.0
 41
2.5
 42
2.5
 43
2.5
  0
MTEXT
  5
5CD
330
53C
100
AcDbEntity
  8
0
 62
     4
100
AcDbMText
 10
739.0865056021429
 20
-385.8646410995685
 30
0.0
 40
3.0
 41
0.0
 71
     5
 72
     1
  1
2.46
 73
     1
 44
1.0
1001
ACAD
1000
MTEXTBEGIN
1070
    73
1070
     1
1070
    44
1040
1.0
1070
    74
1070
     0
1000
MTEXTEND
  0
POINT
  5
5CE
330
53C
100
AcDbEntity
  8
Defpoints
 62
     0
100
AcDbPoint
 10
751.6686926562631
 20
-386.0800096775597
 30
0.0
  0
POINT
  5
5CF
330
53C
100
AcDbEntity
  8
Defpoints
 62
     0
100
AcDbPoint
 10
749.2115056021429
 20
-386.0800096775597
 30
0.0
  0
POINT
  5
5D0
330
53C
100
AcDbEntity
  8
Defpoints
 62
     0
100
AcDbPoint
 10
749.2115056021429
 20
-387.9896410995685
 30
0.0
  0
ENDBLK
  5
53E
330
53C
100
AcDbEntity
  8
0
100
AcDbBlockEnd
  0
BLOCK
  5
54B
330
54A
100
AcDbEntity
  8
0
100
AcDbBlockBegin
  2
*D18
 70
     1
 10
0.0
 20
0.0
 30
0.0
  3
*D18
  1

  0
LINE
  5
5D1
330
54A
100
AcDbEntity
  8
0
 62
     0
370
    -2
100
AcDbLine
 10
753.3068175623363
 20
-391.7860992503221
 30
0.0
 11
753.3068175623363
 21
-394.3319913197854
 31
0.0
  0
LINE
  5
5D2
330
54A
100
AcDbEntity
  8
0
 62
     0
370
    -2
100
AcDbLine
 10
750.2125817641934
 20
-391.7860992503221
 30
0.0
 11
750.2125817641934
 21
-394.3319913197854
 31
0.0
  0
LINE
  5
5D3
330
54A
100
AcDbEntity
  8
0
 62
     0
370
    -2
100
AcDbLine
 10
755.8068175623364
 20
-393.0819913197854
 30
0.0
 11
758.3068175623362
 21
-393.0819913197854
 31
0.0
  0
LINE
  5
5D4
330
54A
100
AcDbEntity
  8
0
 62
     0
370
    -2
100
AcDbLine
 10
747.7125817641932
 20
-393.0819913197854
 30
0.0
 11
733.8792484308603
 21
-393.0819913197854
 31
0.0
  0
LINE
  5
5D5
330
54A
100
AcDbEntity
  8
0
 62
     0
370
    -2
100
AcDbLine
 10
753.3068175623363
 20
-393.0819913197854
 30
0.0
 11
750.2125817641934
 21
-393.0819913197854
 31
0.0
  0
INSERT
  5
5D6
330
54A
100
AcDbEntity
  8
0
 62
     0
370
    -2
100
AcDbBlockReference
  2
_Open30
 10
753.3068175623363
 20
-393.0819913197854
 30
0.0
 41
2.5
 42
2.5
 43
2.5
 50
180.0
  0
INSERT
  5
5D7
330
54A
100
AcDbEntity
  8
0
 62
     0
370
    -2
100
AcDbBlockReference
  2
_Open30
 10
750.2125817641934
 20
-393.0819913197854
 30
0.0
 41
2.5
 42
2.5
 43
2.5
  0
MTEXT
  5
5D8
330
54A
100
AcDbEntity
  8
0
 62
     4
100
AcDbMText
 10
739.0875817641934
 20
-391.2069913197854
 30
0.0
 40
2.5
 41
0.0
 71
     5
 72
     1
  1
15.47
  7
高2.5
 73
     1
 44
1.0
1001
ACAD
1000
MTEXTBEGIN
1070
    73
1070
     1
1070
    44
1040
1.0
1070
    74
1070
     0
1000
MTEXTEND
  0
POINT
  5
5D9
330
54A
100
AcDbEntity
  8
Defpoints
 62
     0
100
AcDbPoint
 10
753.3068175623363
 20
-391.5360992503222
 30
0.0
  0
POINT
  5
5DA
330
54A
100
AcDbEntity
  8
Defpoints
 62
     0
100
AcDbPoint
 10
750.2125817641934
 20
-391.5360992503222
 30
0.0
  0
POINT
  5
5DB
330
54A
100
AcDbEntity
  8
Defpoints
 62
     0
100
AcDbPoint
 10
750.2125817641934
 20
-393.0819913197854
 30
0.0
  0
ENDBLK
  5
54C
330
54A
100
AcDbEntity
  8
0
100
AcDbBlockEnd
  0
BLOCK
  5
559
330
558
100
AcDbEntity
  8
0
100
AcDbBlockBegin
  2
*D19
 70
     1
 10
0.0
 20
0.0
 30
0.0
  3
*D19
  1

  0
LINE
  5
5DC
330
558
100
AcDbEntity
  8
0
 62
     0
370
    -2
100
AcDbLine
 10
755.0359491704218
 20
-397.2421889661686
 30
0.0
 11
755.0359491704218
 21
-399.5152766285358
 31
0.0
  0
LINE
  5
5DD
330
558
100
AcDbEntity
  8
0
 62
     0
370
    -2
100
AcDbLine
 10
751.0316442172299
 20
-397.2421889661686
 30
0.0
 11
751.0316442172299
 21
-399.5152766285358
 31
0.0
  0
LINE
  5
5DE
330
558
100
AcDbEntity
  8
0
 62
     0
370
    -2
100
AcDbLine
 10
757.5359491704219
 20
-398.2652766285358
 30
0.0
 11
760.0359491704217
 21
-398.2652766285358
 31
0.0
  0
LINE
  5
5DF
330
558
100
AcDbEntity
  8
0
 62
     0
370
    -2
100
AcDbLine
 10
748.5316442172297
 20
-398.2652766285358
 30
0.0
 11
736.7816442172299
 21
-398.2652766285358
 31
0.0
  0
LINE
  5
5E0
330
558
100
AcDbEntity
  8
0
 62
     0
370
    -2
100
AcDbLine
 10
755.0359491704218
 20
-398.2652766285358
 30
0.0
 11
751.0316442172299
 21
-398.2652766285358
 31
0.0
  0
INSERT
  5
5E1
330
558
100
AcDbEntity
  8
0
 62
     0
370
    -2
100
AcDbBlockReference
  2
_Open30
 10
755.0359491704218
 20
-398.2652766285358
 30
0.0
 41
2.5
 42
2.5
 43
2.5
 50
180.0
  0
INSERT
  5
5E2
330
558
100
AcDbEntity
  8
0
 62
     0
370
    -2
100
AcDbBlockReference
  2
_Open30
 10
751.0316442172299
 20
-398.2652766285358
 30
0.0
 41
2.5
 42
2.5
 43
2.5
  0
MTEXT
  5
5E3
330
558
100
AcDbEntity
  8
0
 62
     4
100
AcDbMText
 10
741.4066442172297
 20
-396.0402766285358
 30
0.0
 40
3.2
 41
0.0
 71
     5
 72
     1
  1
8.01
  7
高3.2
 73
     1
 44
1.0
1001
ACAD
1000
MTEXTBEGIN
1070
    73
1070
     1
1070
    44
1040
1.0
1070
    74
1070
     0
1000
MTEXTEND
  0
POINT
  5
5E4
330
558
100
AcDbEntity
  8
Defpoints
 62
     0
100
AcDbPoint
 10
755.0359491704218
 20
-396.9921889661685
 30
0.0
  0
POINT
  5
5E5
330
558
100
AcDbEntity
  8
Defpoints
 62
     0
100
AcDbPoint
 10
751.0316442172299
 20
-396.9921889661685
 30
0.0
  0
POINT
  5
5E6
330
558
100
AcDbEntity
  8
Defpoints
 62
     0
100
AcDbPoint
 10
751.0316442172299
 20
-398.2652766285358
 30
0.0
  0
ENDBLK
  5
55A
330
558
100
AcDbEntity
  8
0
100
AcDbBlockEnd
  0
BLOCK
  5
567
330
566
100
AcDbEntity
  8
0
100
AcDbBlockBegin
  2
*D20
 70
     1
 10
0.0
 20
0.0
 30
0.0
  3
*D20
  1

  0
LINE
  5
5E7
330
566
100
AcDbEntity
  8
0
 62
     0
370
    -2
100
AcDbLine
 10
754.9449424684094
 20
-402.5164089342001
 30
0.0
 11
754.9449424684094
 21
-404.3348224416566
 31
0.0
  0
LINE
  5
5E8
330
566
100
AcDbEntity
  8
0
 62
     0
370
    -2
100
AcDbLine
 10
750.2125817641934
 20
-402.5164089342001
 30
0.0
 11
750.2125817641934
 21
-404.3348224416566
 31
0.0
  0
LINE
  5
5E9
330
566
100
AcDbEntity
  8
0
 62
     0
370
    -2
100
AcDbLine
 10
757.4449424684094
 20
-403.0848224416565
 30
0.0
 11
759.9449424684094
 21
-403.0848224416565
 31
0.0
  0
LINE
  5
5EA
330
566
100
AcDbEntity
  8
0
 62
     0
370
    -2
100
AcDbLine
 10
747.7125817641932
 20
-403.0848224416565
 30
0.0
 11
725.9625817641936
 21
-403.0848224416565
 31
0.0
  0
LINE
  5
5EB
330
566
100
AcDbEntity
  8
0
 62
     0
370
    -2
100
AcDbLine
 10
754.9449424684094
 20
-403.0848224416565
 30
0.0
 11
750.2125817641934
 21
-403.0848224416565
 31
0.0
  0
INSERT
  5
5EC
330
566
100
AcDbEntity
  8
0
 62
     0
370
    -2
100
AcDbBlockReference
  2
_Open30
 10
754.9449424684094
 20
-403.0848224416565
 30
0.0
 41
2.5
 42
2.5
 43
2.5
 50
180.0
  0
INSERT
  5
5ED
330
566
100
AcDbEntity
  8
0
 62
     0
370
    -2
100
AcDbBlockReference
  2
_Open30
 10
750.2125817641934
 20
-403.0848224416565
 30
0.0
 41
2.5
 42
2.5
 43
2.5
  0
MTEXT
  5
5EE
330
566
100
AcDbEntity
  8
0
 62
     4
100
AcDbMText
 10
735.5875817641932
 20
-400.2098224416565
 30
0.0
 40
4.5
 41
0.0
 71
     5
 72
     1
  1
47.32
  7
高4.5
 73
     1
 44
1.0
1001
ACAD
1000
MTEXTBEGIN
1070
    73
1070
     1
1070
    44
1040
1.0
1070
    74
1070
     0
1000
MTEXTEND
  0
POINT
  5
5EF
330
566
100
AcDbEntity
  8
Defpoints
 62
     0
100
AcDbPoint
 10
754.9449424684094
 20
-402.2664089342002
 30
0.0
  0
POINT
  5
5F0
330
566
100
AcDbEntity
  8
Defpoints
 62
     0
100
AcDbPoint
 10
750.2125817641934
 20
-402.2664089342002
 30
0.0
  0
POINT
  5
5F1
330
566
100
AcDbEntity
  8
Defpoints
 62
     0
100
AcDbPoint
 10
750.2125817641934
 20
-403.0848224416565
 30
0.0
  0
ENDBLK
  5
568
330
566
100
AcDbEntity
  8
0
100
AcDbBlockEnd
  0
BLOCK
  5
575
330
574
100
AcDbEntity
  8
0
100
AcDbBlockBegin
  2
*D21
 70
     1
 10
0.0
 20
0.0
 30
0.0
  3
*D21
  1

  0
LINE
  5
5F2
330
574
100
AcDbEntity
  8
0
 62
     0
370
    -2
100
AcDbLine
 10
776.4225787364169
 20
-386.3300096775597
 30
0.0
 11
776.4225787364169
 21
-389.2396410995685
 31
0.0
  0
LINE
  5
5F3
330
574
100
AcDbEntity
  8
0
 62
     0
370
    -2
100
AcDbLine
 10
773.9653916822967
 20
-386.3300096775597
 30
0.0
 11
773.9653916822967
 21
-389.2396410995685
 31
0.0
  0
LINE
  5
5F4
330
574
100
AcDbEntity
  8
0
 62
     0
370
    -2
100
AcDbLine
 10
778.9225787364171
 20
-387.9896410995685
 30
0.0
 11
781.4225787364171
 21
-387.9896410995685
 31
0.0
  0
LINE
  5
5F5
330
574
100
AcDbEntity
  8
0
 62
     0
370
    -2
100
AcDbLine
 10
771.4653916822967
 20
-387.9896410995685
 30
0.0
 11
749.8653916822966
 21
-387.9896410995685
 31
0.0
  0
LINE
  5
5F6
330
574
100
AcDbEntity
  8
0
 62
     0
370
    -2
100
AcDbLine
 10
776.4225787364169
 20
-387.9896410995685
 30
0.0
 11
773.9653916822967
 21
-387.9896410995685
 31
0.0
  0
INSERT
  5
5F7
330
574
100
AcDbEntity
  8
0
 62
     0
370
    -2
100
AcDbBlockReference
  2
_Open30
 10
776.4225787364169
 20
-387.9896410995685
 30
0.0
 41
2.5
 42
2.5
 43
2.5
 50
180.0
  0
INSERT
  5
5F8
330
574
100
AcDbEntity
  8
0
 62
     0
370
    -2
100
AcDbBlockReference
  2
_Open30
 10
773.9653916822967
 20
-387.9896410995685
 30
0.0
 41
2.5
 42
2.5
 43
2.5
  0
MTEXT
  5
5F9
330
574
100
AcDbEntity
  8
0
 62
     4
100
AcDbMText
 10
759.4153916822968
 20
-384.2146410995685
 30
0.0
 40
6.299999999999998
 41
0.0
 71
     5
 72
     1
  1
0.25
  7
高6.3
 73
     1
 44
1.0
1001
ACAD
1000
MTEXTBEGIN
1070
    73
1070
     1
1070
    44
1040
1.0
1070
    74
1070
     0
1000
MTEXTEND
  0
POINT
  5
5FA
330
574
100
AcDbEntity
  8
Defpoints
 62
     0
100
AcDbPoint
 10
776.4225787364169
 20
-386.0800096775597
 30
0.0
  0
POINT
  5
5FB
330
574
100
AcDbEntity
  8
Defpoints
 62
     0
100
AcDbPoint
 10
773.9653916822967
 20
-386.0800096775597
 30
0.0
  0
POINT
  5
5FC
330
574
100
AcDbEntity
  8
Defpoints
 62
     0
100
AcDbPoint
 10
773.9653916822967
 20
-387.9896410995685
 30
0.0
  0
ENDBLK
  5
576
330
574
100
AcDbEntity
  8
0
100
AcDbBlockEnd
  0
BLOCK
  5
583
330
582
100
AcDbEntity
  8
0
100
AcDbBlockBegin
  2
*D22
 70
     1
 10
0.0
 20
0.0
 30
0.0
  3
*D22
  1

  0
LINE
  5
5FD
330
582
100
AcDbEntity
  8
0
 62
     0
370
    -2
100
AcDbLine
 10
778.0607036424902
 20
-391.7860992503221
 30
0.0
 11
778.0607036424902
 21
-394.3319913197854
 31
0.0
  0
LINE
  5
5FE
330
582
100
AcDbEntity
  8
0
 62
     0
370
    -2
100
AcDbLine
 10
774.9664678443472
 20
-391.7860992503221
 30
0.0
 11
774.9664678443472
 21
-394.3319913197854
 31
0.0
  0
LINE
  5
5FF
330
582
100
AcDbEntity
  8
0
 62
     0
370
    -2
100
AcDbLine
 10
780.5607036424902
 20
-393.0819913197854
 30
0.0
 11
783.0607036424902
 21
-393.0819913197854
 31
0.0
  0
LINE
  5
600
330
582
100
AcDbEntity
  8
0
 62
     0
370
    -2
100
AcDbLine
 10
772.4664678443472
 20
-393.0819913197854
 30
0.0
 11
760.4664678443472
 21
-393.0819913197854
 31
0.0
  0
LINE
  5
601
330
582
100
AcDbEntity
  8
0
 62
     0
370
    -2
100
AcDbLine
 10
778.0607036424902
 20
-393.0819913197854
 30
0.0
 11
774.9664678443472
 21
-393.0819913197854
 31
0.0
  0
INSERT
  5
602
330
582
100
AcDbEntity
  8
0
 62
     0
370
    -2
100
AcDbBlockReference
  2
_Open30
 10
778.0607036424902
 20
-393.0819913197854
 30
0.0
 41
2.5
 42
2.5
 43
2.5
 50
180.0
  0
INSERT
  5
603
330
582
100
AcDbEntity
  8
0
 62
     0
370
    -2
100
AcDbBlockReference
  2
_Open30
 10
774.9664678443472
 20
-393.0819913197854
 30
0.0
 41
2.5
 42
2.5
 43
2.5
  0
MTEXT
  5
604
330
582
100
AcDbEntity
  8
0
 62
     4
100
AcDbMText
 10
765.0914678443472
 20
-390.9569913197854
 30
0.0
 40
3.0
 41
0.0
 71
     5
 72
     1
  1
1.55
 73
     1
 44
1.0
1001
ACAD
1000
MTEXTBEGIN
1070
    73
1070
     1
1070
    44
1040
1.0
1070
    74
1070
     0
1000
MTEXTEND
  0
POINT
  5
605
330
582
100
AcDbEntity
  8
Defpoints
 62
     0
100
AcDbPoint
 10
778.0607036424902
 20
-391.5360992503222
 30
0.0
  0
POINT
  5
606
330
582
100
AcDbEntity
  8
Defpoints
 62
     0
100
AcDbPoint
 10
774.9664678443472
 20
-391.5360992503222
 30
0.0
  0
POINT
  5
607
330
582
100
AcDbEntity
  8
Defpoints
 62
     0
100
AcDbPoint
 10
774.9664678443472
 20
-393.0819913197854
 30
0.0
  0
ENDBLK
  5
584
330
582
100
AcDbEntity
  8
0
100
AcDbBlockEnd
  0
BLOCK
  5
591
330
590
100
AcDbEntity
  8
0
100
AcDbBlockBegin
  2
*D23
 70
     1
 10
0.0
 20
0.0
 30
0.0
  3
*D23
  1

  0
LINE
  5
608
330
590
100
AcDbEntity
  8
0
 62
     0
370
    -2
100
AcDbLine
 10
779.7898352505757
 20
-397.2421889661686
 30
0.0
 11
779.7898352505757
 21
-399.5152766285358
 31
0.0
  0
LINE
  5
609
330
590
100
AcDbEntity
  8
0
 62
     0
370
    -2
100
AcDbLine
 10
775.7855302973837
 20
-397.2421889661686
 30
0.0
 11
775.7855302973837
 21
-399.5152766285358
 31
0.0
  0
LINE
  5
60A
330
590
100
AcDbEntity
  8
0
 62
     0
370
    -2
100
AcDbLine
 10
782.2898352505757
 20
-398.2652766285358
 30
0.0
 11
784.7898352505757
 21
-398.2652766285358
 31
0.0
  0
LINE
  5
60B
330
590
100
AcDbEntity
  8
0
 62
     0
370
    -2
100
AcDbLine
 10
773.2855302973837
 20
-398.2652766285358
 30
0.0
 11
764.9521969640507
 21
-398.2652766285358
 31
0.0
  0
LINE
  5
60C
330
590
100
AcDbEntity
  8
0
 62
     0
370
    -2
100
AcDbLine
 10
779.7898352505757
 20
-398.2652766285358
 30
0.0
 11
775.7855302973837
 21
-398.2652766285358
 31
0.0
  0
INSERT
  5
60D
330
590
100
AcDbEntity
  8
0
 62
     0
370
    -2
100
AcDbBlockReference
  2
_Open30
 10
779.7898352505757
 20
-398.2652766285358
 30
0.0
 41
2.5
 42
2.5
 43
2.5
 50
180.0
  0
INSERT
  5
60E
330
590
100
AcDbEntity
  8
0
 62
     0
370
    -2
100
AcDbBlockReference
  2
_Open30
 10
775.7855302973837
 20
-398.2652766285358
 30
0.0
 41
2.5
 42
2.5
 43
2.5
  0
MTEXT
  5
60F
330
590
100
AcDbEntity
  8
0
 62
     4
100
AcDbMText
 10
767.4105302973837
 20
-396.6402766285359
 30
0.0
 40
2.0
 41
0.0
 71
     5
 72
     1
  1
0.8
  7
高2
 73
     1
 44
1.0
1001
ACAD
1000
MTEXTBEGIN
1070
    73
1070
     1
1070
    44
1040
1.0
1070
    74
1070
     0
1000
MTEXTEND
  0
POINT
  5
610
330
590
100
AcDbEntity
  8
Defpoints
 62
     0
100
AcDbPoint
 10
779.7898352505757
 20
-396.9921889661685
 30
0.0
  0
POINT
  5
611
330
590
100
AcDbEntity
  8
Defpoints
 62
     0
100
AcDbPoint
 10
775.7855302973837
 20
-396.9921889661685
 30
0.0
  0
POINT
  5
612
330
590
100
AcDbEntity
  8
Defpoints
 62
     0
100
AcDbPoint
 10
775.7855302973837
 20
-398.2652766285358
 30
0.0
  0
ENDBLK
  5
592
330
590
100
AcDbEntity
  8
0
100
AcDbBlockEnd
  0
BLOCK
  5
59F
330
59E
100
AcDbEntity
  8
0
100
AcDbBlockBegin
  2
*D24
 70
     1
 10
0.0
 20
0.0
 30
0.0
  3
*D24
  1

  0
LINE
  5
613
330
59E
100
AcDbEntity
  8
0
 62
     0
370
    -2
100
AcDbLine
 10
779.6988285485634
 20
-402.5164089342001
 30
0.0
 11
779.6988285485634
 21
-404.3348224416566
 31
0.0
  0
LINE
  5
614
330
59E
100
AcDbEntity
  8
0
 62
     0
370
    -2
100
AcDbLine
 10
774.9664678443472
 20
-402.5164089342001
 30
0.0
 11
774.9664678443472
 21
-404.3348224416566
 31
0.0
  0
LINE
  5
615
330
59E
100
AcDbEntity
  8
0
 62
     0
370
    -2
100
AcDbLine
 10
782.1988285485632
 20
-403.0848224416565
 30
0.0
 11
784.6988285485632
 21
-403.0848224416565
 31
0.0
  0
LINE
  5
616
330
59E
100
AcDbEntity
  8
0
 62
     0
370
    -2
100
AcDbLine
 10
772.4664678443472
 20
-403.0848224416565
 30
0.0
 11
757.7164678443472
 21
-403.0848224416565
 31
0.0
  0
LINE
  5
617
330
59E
100
AcDbEntity
  8
0
 62
     0
370
    -2
100
AcDbLine
 10
779.6988285485634
 20
-403.0848224416565
 30
0.0
 11
774.9664678443472
 21
-403.0848224416565
 31
0.0
  0
INSERT
  5
618
330
59E
100
AcDbEntity
  8
0
 62
     0
370
    -2
100
AcDbBlockReference
  2
_Open30
 10
779.6988285485634
 20
-403.0848224416565
 30
0.0
 41
2.5
 42
2.5
 43
2.5
 50
180.0
  0
INSERT
  5
619
330
59E
100
AcDbEntity
  8
0
 62
     0
370
    -2
100
AcDbBlockReference
  2
_Open30
 10
774.9664678443472
 20
-403.0848224416565
 30
0.0
 41
2.5
 42
2.5
 43
2.5
  0
MTEXT
  5
61A
330
59E
100
AcDbEntity
  8
0
 62
     4
100
AcDbMText
 10
763.8414678443472
 20
-400.9598224416563
 30
0.0
 40
3.0
 41
0.0
 71
     5
 72
     1
  1
18.93
 73
     1
 44
1.0
1001
ACAD
1000
MTEXTBEGIN
1070
    73
1070
     1
1070
    44
1040
1.0
1070
    74
1070
     0
1000
MTEXTEND
  0
POINT
  5
61B
330
59E
100
AcDbEntity
  8
Defpoints
 62
     0
100
AcDbPoint
 10
779.6988285485634
 20
-402.2664089342002
 30
0.0
  0
POINT
  5
61C
330
59E
100
AcDbEntity
  8
Defpoints
 62
     0
100
AcDbPoint
 10
774.9664678443472
 20
-402.2664089342002
 30
0.0
  0
POINT
  5
61D
330
59E
100
AcDbEntity
  8
Defpoints
 62
     0
100
AcDbPoint
 10
774.9664678443472
 20
-403.0848224416565
 30
0.0
  0
ENDBLK
  5
5A0
330
59E
100
AcDbEntity
  8
0
100
AcDbBlockEnd
  0
BLOCK
  5
5AD
330
5AC
100
AcDbEntity
  8
0
100
AcDbBlockBegin
  2
*D25
 70
     1
 10
0.0
 20
0.0
 30
0.0
  3
*D25
  1

  0
LINE
  5
61E
330
5AC
100
AcDbEntity
  8
0
 62
     0
370
    -2
100
AcDbLine
 10
776.8944016974251
 20
-407.5722491407899
 30
0.0
 11
776.8944016974251
 21
-409.8821702176654
 31
0.0
  0
LINE
  5
61F
330
5AC
100
AcDbEntity
  8
0
 62
     0
370
    -2
100
AcDbLine
 10
772.3057264952772
 20
-407.5722491407899
 30
0.0
 11
772.3057264952772
 21
-409.8821702176654
 31
0.0
  0
LINE
  5
620
330
5AC
100
AcDbEntity
  8
0
 62
     0
370
    -2
100
AcDbLine
 10
779.3944016974251
 20
-408.6321702176654
 30
0.0
 11
781.8944016974251
 21
-408.6321702176654
 31
0.0
  0
LINE
  5
621
330
5AC
100
AcDbEntity
  8
0
 62
     0
370
    -2
100
AcDbLine
 10
769.8057264952772
 20
-408.6321702176654
 30
0.0
 11
755.0557264952772
 21
-408.6321702176654
 31
0.0
  0
LINE
  5
622
330
5AC
100
AcDbEntity
  8
0
 62
     0
370
    -2
100
AcDbLine
 10
776.8944016974251
 20
-408.6321702176654
 30
0.0
 11
772.3057264952772
 21
-408.6321702176654
 31
0.0
  0
INSERT
  5
623
330
5AC
100
AcDbEntity
  8
0
 62
     0
370
    -2
100
AcDbBlockReference
  2
_Open30
 10
776.8944016974251
 20
-408.6321702176654
 30
0.0
 41
2.5
 42
2.5
 43
2.5
 50
180.0
  0
INSERT
  5
624
330
5AC
100
AcDbEntity
  8
0
 62
     0
370
    -2
100
AcDbBlockReference
  2
_Open30
 10
772.3057264952772
 20
-408.6321702176654
 30
0.0
 41
2.5
 42
2.5
 43
2.5
  0
MTEXT
  5
625
330
5AC
100
AcDbEntity
  8
0
 62
     4
100
AcDbMText
 10
761.1807264952772
 20
-406.5071702176655
 30
0.0
 40
3.0
 41
0.0
 71
     5
 72
     1
  1
13.77
 73
     1
 44
1.0
1001
ACAD
1000
MTEXTBEGIN
1070
    73
1070
     1
1070
    44
1040
1.0
1070
    74
1070
     0
1000
MTEXTEND
  0
POINT
  5
626
330
5AC
100
AcDbEntity
  8
Defpoints
 62
     0
100
AcDbPoint
 10
776.8944016974251
 20
-407.3222491407896
 30
0.0
  0
POINT
  5
627
330
5AC
100
AcDbEntity
  8
Defpoints
 62
     0
100
AcDbPoint
 10
772.3057264952772
 20
-407.3222491407896
 30
0.0
  0
POINT
  5
628
330
5AC
100
AcDbEntity
  8
Defpoints
 62
     0
100
AcDbPoint
 10
772.3057264952772
 20
-408.6321702176654
 30
0.0
  0
ENDBLK
  5
5AE
330
5AC
100
AcDbEntity
  8
0
100
AcDbBlockEnd
  0
BLOCK
  5
5BB
330
5BA
100
AcDbEntity
  8
0
100
AcDbBlockBegin
  2
*D26
 70
     1
 10
0.0
 20
0.0
 30
0.0
  3
*D26
  1

  0
LINE
  5
629
330
5BA
100
AcDbEntity
  8
0
 62
     0
370
    -2
100
AcDbLine
 10
769.7981188642748
 20
-376.6427578225156
 30
0.0
 11
769.7981188642748
 21
-369.2462243445779
 31
0.0
  0
LINE
  5
62A
330
5BA
100
AcDbEntity
  8
0
 62
     0
370
    -2
100
AcDbLine
 10
759.8596444947847
 20
-376.6427578225156
 30
0.0
 11
759.8596444947847
 21
-369.2462243445779
 31
0.0
  0
LINE
  5
62B
330
5BA
100
AcDbEntity
  8
0
 62
     0
370
    -2
100
AcDbLine
 10
767.2981188642747
 20
-370.4962243445779
 30
0.0
 11
762.3596444947846
 21
-370.4962243445779
 31
0.0
  0
INSERT
  5
62C
330
5BA
100
AcDbEntity
  8
0
 62
     0
370
    -2
100
AcDbBlockReference
  2
_Open30
 10
769.7981188642748
 20
-370.4962243445779
 30
0.0
 41
2.5
 42
2.5
 43
2.5
  0
INSERT
  5
62D
330
5BA
100
AcDbEntity
  8
0
 62
     0
370
    -2
100
AcDbBlockReference
  2
_Open30
 10
759.8596444947847
 20
-370.4962243445779
 30
0.0
 41
2.5
 42
2.5
 43
2.5
 50
180.0
  0
MTEXT
  5
62E
330
5BA
100
AcDbEntity
  8
0
 62
     4
100
AcDbMText
 10
764.8288816795297
 20
-367.4212243445779
 30
0.0
 40
3.0
 41
0.0
 71
     5
 72
     1
  1
9.94\H0.7X;\S+0^ -0.02;
 73
     1
 44
1.0
1001
ACAD
1000
MTEXTBEGIN
1070
    73
1070
     1
1070
    44
1040
1.0
1070
    74
1070
     0
1000
MTEXTEND
  0
POINT
  5
62F
330
5BA
100
AcDbEntity
  8
Defpoints
 62
     0
100
AcDbPoint
 10
769.7981188642748
 20
-376.8927578225156
 30
0.0
  0
POINT
  5
630
330
5BA
100
AcDbEntity
  8
Defpoints
 62
     0
100
AcDbPoint
 10
759.8596444947847
 20
-376.8927578225156
 30
0.0
  0
POINT
  5
631
330
5BA
100
AcDbEntity
  8
Defpoints
 62
     0
100
AcDbPoint
 10
759.8596444947847
 20
-370.4962243445779
 30
0.0
  0
ENDBLK
  5
5BC
330
5BA
100
AcDbEntity
  8
0
100
AcDbBlockEnd
  0
ENDSEC
  0
SECTION
  2
ENTITIES
  0
LINE
  5
182
330
6B
100
AcDbEntity
  8
0
 62
     3
100
AcDbLine
 10
158.128178
 20
-337.733058
 30
0.0
 11
158.128178
 21
-333.733058
 31
0.0
  0
ARC
  5
183
330
6B
100
AcDbEntity
  8
0
 62
     3
100
AcDbCircle
 10
155.128178
 20
-333.733058
 30
0.0
 40
3.0
100
AcDbArc
 50
0.0
 51
90.0
  0
LINE
  5
184
330
6B
100
AcDbEntity
  8
0
 62
     3
100
AcDbLine
 10
170.628178
 20
-340.733058
 30
0.0
 11
161.128178
 21
-340.733058
 31
0.0
  0
ARC
  5
185
330
6B
100
AcDbEntity
  8
0
 62
     3
100
AcDbCircle
 10
161.128178
 20
-337.733058
 30
0.0
 40
3.0
100
AcDbArc
 50
180.0
 51
270.0
  0
LINE
  5
186
330
6B
100
AcDbEntity
  8
0
  6
DASHED
 62
     7
100
AcDbLine
 10
149.628178
 20
-301.733058
 30
0.0
 11
149.628178
 21
-334.733058
 31
0.0
  0
LINE
  5
187
330
6B
100
AcDbEntity
  8
0
  6
DASHED
 62
     7
100
AcDbLine
 10
139.628178
 20
-301.733058
 30
0.0
 11
139.628178
 21
-334.733058
 31
0.0
  0
LINE
  5
188
330
6B
100
AcDbEntity
  8
0
  6
DASHED
 62
     7
100
AcDbLine
 10
150.128178
 20
-301.233058
 30
0.0
 11
150.128178
 21
-335.233058
 31
0.0
  0
LINE
  5
189
330
6B
100
AcDbEntity
  8
0
  6
DASHED
 62
     7
100
AcDbLine
 10
139.128178
 20
-301.233058
 30
0.0
 11
139.128178
 21
-335.233058
 31
0.0
  0
LINE
  5
18A
330
6B
100
AcDbEntity
  8
0
  6
DASHED
 62
     7
100
AcDbLine
 10
149.628178
 20
-301.733058
 30
0.0
 11
139.628178
 21
-301.733058
 31
0.0
  0
LINE
  5
18B
330
6B
100
AcDbEntity
  8
0
  6
DASHED
 62
     7
100
AcDbLine
 10
149.628178
 20
-301.733058
 30
0.0
 11
150.128178
 21
-301.233058
 31
0.0
  0
LINE
  5
18C
330
6B
100
AcDbEntity
  8
0
  6
DASHED
 62
     7
100
AcDbLine
 10
139.628178
 20
-301.733058
 30
0.0
 11
139.128178
 21
-301.233058
 31
0.0
  0
LINE
  5
18D
330
6B
100
AcDbEntity
  8
0
  6
DASHED
 62
     7
100
AcDbLine
 10
149.628178
 20
-334.733058
 30
0.0
 11
150.128178
 21
-335.233058
 31
0.0
  0
LINE
  5
18E
330
6B
100
AcDbEntity
  8
0
  6
DASHED
 62
     7
100
AcDbLine
 10
139.128178
 20
-335.233058
 30
0.0
 11
139.628178
 21
-334.733058
 31
0.0
  0
LINE
  5
18F
330
6B
100
AcDbEntity
  8
0
 62
     3
100
AcDbLine
 10
154.628178
 20
-450.233058
 30
0.0
 11
154.628178
 21
-438.212216
 31
0.0
  0
LINE
  5
190
330
6B
100
AcDbEntity
  8
0
  6
HIDDEN
 62
     7
100
AcDbLine
 10
31.348867
 20
-319.740051
 30
0.0
 11
31.355958
 21
-319.233058
 31
0.0
  0
LINE
  5
191
330
6B
100
AcDbEntity
  8
0
  6
HIDDEN
 62
     7
100
AcDbLine
 10
28.313706
 20
-319.233058
 30
0.0
 11
28.355958
 21
-319.233058
 31
0.0
  0
LINE
  5
192
330
6B
100
AcDbEntity
  8
0
  6
DASHED
 62
     7
100
AcDbLine
 10
149.628178
 20
-450.733058
 30
0.0
 11
150.128178
 21
-451.233058
 31
0.0
  0
ARC
  5
193
330
6B
100
AcDbEntity
  8
0
 62
     3
100
AcDbCircle
 10
153.628178
 20
-450.233058
 30
0.0
 40
1.0
100
AcDbArc
 50
270.0
 51
0.0
  0
LINE
  5
194
330
6B
100
AcDbEntity
  8
0
 62
     7
100
AcDbLine
 10
149.630756
 20
-472.618699
 30
0.0
 11
148.830756
 21
-471.233058
 31
0.0
  0
LINE
  5
195
330
6B
100
AcDbEntity
  8
0
 62
     7
100
AcDbLine
 10
139.629777
 20
-472.618699
 30
0.0
 11
140.429777
 21
-471.233058
 31
0.0
  0
ARC
  5
196
330
6B
100
AcDbEntity
  8
0
 62
     3
100
AcDbCircle
 10
157.128178
 20
-416.233058
 30
0.0
 40
22.0
100
AcDbArc
 50
270.0
 51
0.0
  0
ARC
  5
197
330
6B
100
AcDbEntity
  8
0
 62
     3
100
AcDbCircle
 10
155.628178
 20
-439.233058
 30
0.0
 40
1.0
100
AcDbArc
 50
90.0
 51
180.0
  0
LINE
  5
198
330
6B
100
AcDbEntity
  8
0
 62
     3
100
AcDbLine
 10
148.259684
 20
-438.233058
 30
0.0
 11
157.128178
 21
-438.233058
 31
0.0
  0
ARC
  5
199
330
6B
100
AcDbEntity
  8
0
 62
     3
100
AcDbCircle
 10
170.628178
 20
-349.233058
 30
0.0
 40
8.5
100
AcDbArc
 50
0.0
 51
90.0
  0
LINE
  5
19A
330
6B
100
AcDbEntity
  8
0
 62
     3
100
AcDbLine
 10
155.128178
 20
-451.233058
 30
0.0
 11
135.628178
 21
-451.233058
 31
0.0
  0
LINE
  5
19B
330
6B
100
AcDbEntity
  8
0
 62
     3
100
AcDbLine
 10
114.128178
 20
-342.2330580000001
 30
0.0
 11
128.128178
 21
-342.2330580000001
 31
0.0
  0
ARC
  5
19C
330
6B
100
AcDbEntity
  8
0
 62
     3
100
AcDbCircle
 10
128.128178
 20
-339.233058
 30
0.0
 40
3.0
100
AcDbArc
 50
270.0
 51
0.0
  0
LINE
  5
19D
330
6B
100
AcDbEntity
  8
0
 62
     3
100
AcDbLine
 10
131.128178
 20
-339.233058
 30
0.0
 11
131.128178
 21
-333.733058
 31
0.0
  0
LINE
  5
19E
330
6B
100
AcDbEntity
  8
0
 62
     3
100
AcDbLine
 10
134.128178
 20
-330.733058
 30
0.0
 11
155.128178
 21
-330.733058
 31
0.0
  0
ARC
  5
19F
330
6B
100
AcDbEntity
  8
0
 62
     3
100
AcDbCircle
 10
134.128178
 20
-333.733058
 30
0.0
 40
3.0
100
AcDbArc
 50
90.0
 51
180.0
  0
ARC
  5
1A0
330
6B
100
AcDbEntity
  8
0
 62
     3
100
AcDbCircle
 10
114.128178
 20
-343.233058
 30
0.0
 40
1.0
100
AcDbArc
 50
90.0
 51
180.0
  0
ARC
  5
1A1
330
6B
100
AcDbEntity
  8
0
 62
     3
100
AcDbCircle
 10
146.14975
 20
-307.927237
 30
0.0
 40
22.856385
100
AcDbArc
 50
287.784158
 51
297.325982
  0
ARC
  5
1A2
330
6B
100
AcDbEntity
  8
0
 62
     3
100
AcDbCircle
 10
143.110783
 20
-307.927237
 30
0.0
 40
22.856385
100
AcDbArc
 50
242.674018
 51
255.920844
  0
LINE
  5
1A3
330
6B
100
AcDbEntity
  8
0
 62
     3
100
AcDbLine
 10
31.355958
 20
-382.5511
 30
0.0
 11
31.355958
 21
-331.63332
 31
0.0
  0
LINE
  5
1A4
330
6B
100
AcDbEntity
  8
0
 62
     3
100
AcDbLine
 10
7.355958
 20
-382.5511
 30
0.0
 11
7.355958
 21
-331.63332
 31
0.0
  0
LINE
  5
1C6
330
6B
100
AcDbEntity
  8
0
 62
     3
100
AcDbLine
 10
149.630267
 20
-384.8490490000001
 30
0.0
 11
149.630267
 21
-432.233058
 31
0.0
  0
LINE
  5
1C7
330
6B
100
AcDbEntity
  8
0
 62
     3
100
AcDbLine
 10
139.630267
 20
-384.8490490000001
 30
0.0
 11
139.630267
 21
-432.233058
 31
0.0
  0
LINE
  5
1C8
330
6B
100
AcDbEntity
  8
0
 62
     7
100
AcDbLine
 10
148.830267
 20
-384.049049
 30
0.0
 11
148.830267
 21
-432.233058
 31
0.0
  0
LINE
  5
1C9
330
6B
100
AcDbEntity
  8
0
 62
     7
100
AcDbLine
 10
140.430267
 20
-384.8490490000001
 30
0.0
 11
140.430267
 21
-432.233058
 31
0.0
  0
LINE
  5
1CA
330
6B
100
AcDbEntity
  8
0
 62
     3
100
AcDbLine
 10
149.630267
 20
-450.7351469999998
 30
0.0
 11
149.630267
 21
-471.233058
 31
0.0
  0
LINE
  5
1CB
330
6B
100
AcDbEntity
  8
0
 62
     3
100
AcDbLine
 10
139.630267
 20
-451.233058
 30
0.0
 11
139.630267
 21
-472.618699
 31
0.0
  0
LINE
  5
1CC
330
6B
100
AcDbEntity
  8
0
 62
     7
100
AcDbLine
 10
148.830267
 20
-451.233058
 30
0.0
 11
148.830267
 21
-471.925879
 31
0.0
  0
LINE
  5
1CD
330
6B
100
AcDbEntity
  8
0
 62
     7
100
AcDbLine
 10
149.629777
 20
-471.233058
 30
0.0
 11
139.630267
 21
-471.233058
 31
0.0
  0
LINE
  5
1CE
330
6B
100
AcDbEntity
  8
0
 62
     7
100
AcDbLine
 10
140.430267
 20
-451.233058
 30
0.0
 11
140.430267
 21
-471.925879
 31
0.0
  0
LINE
  5
1CF
330
6B
100
AcDbEntity
  8
0
 62
     3
100
AcDbLine
 10
140.963972
 20
-379.104089
 30
0.0
 11
148.296561
 21
-379.104089
 31
0.0
  0
LINE
  5
1D0
330
6B
100
AcDbEntity
  8
0
 62
     3
100
AcDbLine
 10
147.630267
 20
-380.0490490000001
 30
0.0
 11
148.296561
 21
-379.104089
 31
0.0
  0
LINE
  5
1D1
330
6B
100
AcDbEntity
  8
0
 62
     3
100
AcDbLine
 10
141.630267
 20
-380.0490490000001
 30
0.0
 11
140.963972
 21
-379.104089
 31
0.0
  0
LINE
  5
1D2
330
6B
100
AcDbEntity
  8
0
 62
     3
100
AcDbLine
 10
141.630267
 20
-380.0490490000001
 30
0.0
 11
147.630267
 21
-380.0490490000001
 31
0.0
  0
LINE
  5
1D3
330
6B
100
AcDbEntity
  8
0
 62
     3
100
AcDbLine
 10
152.820799
 20
-379.07716
 30
0.0
 11
154.6068629999999
 21
-374.169989
 31
0.0
  0
ARC
  5
1D4
330
6B
100
AcDbEntity
  8
0
 62
     3
100
AcDbCircle
 10
150.001721
 20
-378.0511
 30
0.0
 40
3.0
100
AcDbArc
 50
270.0
 51
340.0
  0
LINE
  5
1D5
330
6B
100
AcDbEntity
  8
0
 62
     3
100
AcDbLine
 10
162.102343
 20
-370.5511
 30
0.0
 11
162.102343
 21
-373.0511
 31
0.0
  0
LINE
  5
1D6
330
6B
100
AcDbEntity
  8
0
 62
     3
100
AcDbLine
 10
159.775172
 20
-373.0511
 30
0.0
 11
162.102343
 21
-373.0511
 31
0.0
  0
ARC
  5
1D7
330
6B
100
AcDbEntity
  8
0
 62
     3
100
AcDbCircle
 10
150.001721
 20
-378.0511
 30
0.0
 40
5.5
100
AcDbArc
 50
270.0
 51
340.0
  0
LINE
  5
1D8
330
6B
100
AcDbEntity
  8
0
 62
     3
100
AcDbLine
 10
156.956094
 20
-375.025039
 30
0.0
 11
155.17003
 21
-379.93221
 31
0.0
  0
ARC
  5
1D9
330
6B
100
AcDbEntity
  8
0
 62
     3
100
AcDbCircle
 10
159.775172
 20
-376.0511
 30
0.0
 40
3.0
100
AcDbArc
 50
90.0
 51
160.0
  0
ARC
  5
1DA
330
6B
100
AcDbEntity
  8
0
 62
     3
100
AcDbCircle
 10
159.775172
 20
-376.0511
 30
0.0
 40
5.5
100
AcDbArc
 50
90.0
 51
160.0
  0
LINE
  5
1DB
330
6B
100
AcDbEntity
  8
0
 62
     3
100
AcDbLine
 10
162.102343
 20
-370.5511
 30
0.0
 11
159.775172
 21
-370.5511
 31
0.0
  0
LINE
  5
1DC
330
6B
100
AcDbEntity
  8
0
 62
     3
100
AcDbLine
 10
127.102343
 20
-373.0511
 30
0.0
 11
127.102343
 21
-370.444126
 31
0.0
  0
LINE
  5
1DD
330
6B
100
AcDbEntity
  8
0
 62
     3
100
AcDbLine
 10
129.429514
 20
-373.0511
 30
0.0
 11
127.102343
 21
-373.0511
 31
0.0
  0
LINE
  5
1DE
330
6B
100
AcDbEntity
  8
0
 62
     3
100
AcDbLine
 10
136.383888
 20
-379.07716
 30
0.0
 11
134.597824
 21
-374.169989
 31
0.0
  0
ARC
  5
1DF
330
6B
100
AcDbEntity
  8
0
 62
     3
100
AcDbCircle
 10
139.202966
 20
-378.0511
 30
0.0
 40
3.0
100
AcDbArc
 50
200.0
 51
270.0
  0
ARC
  5
1E0
330
6B
100
AcDbEntity
  8
0
 62
     3
100
AcDbCircle
 10
139.202966
 20
-378.0511
 30
0.0
 40
5.5
100
AcDbArc
 50
200.0
 51
270.0
  0
LINE
  5
1E1
330
6B
100
AcDbEntity
  8
0
 62
     3
100
AcDbLine
 10
132.248592
 20
-375.025039
 30
0.0
 11
134.034657
 21
-379.93221
 31
0.0
  0
ARC
  5
1E2
330
6B
100
AcDbEntity
  8
0
 62
     3
100
AcDbCircle
 10
129.429514
 20
-376.0511
 30
0.0
 40
3.0
100
AcDbArc
 50
20.0
 51
90.0
  0
ARC
  5
1E3
330
6B
100
AcDbEntity
  8
0
 62
     3
100
AcDbCircle
 10
129.429514
 20
-376.0511
 30
0.0
 40
5.5
100
AcDbArc
 50
20.0
 51
90.0
  0
LINE
  5
1E4
330
6B
100
AcDbEntity
  8
0
 62
     3
100
AcDbLine
 10
129.429514
 20
-370.5511
 30
0.0
 11
127.102343
 21
-370.5511
 31
0.0
  0
LINE
  5
1E5
330
6B
100
AcDbEntity
  8
0
 62
     3
100
AcDbLine
 10
140.430267
 20
-384.049049
 30
0.0
 11
148.830267
 21
-384.049049
 31
0.0
  0
LINE
  5
1E6
330
6B
100
AcDbEntity
  8
0
 62
     3
100
AcDbLine
 10
148.830267
 20
-384.049049
 30
0.0
 11
149.630267
 21
-384.8490490000001
 31
0.0
  0
LINE
  5
1E7
330
6B
100
AcDbEntity
  8
0
 62
     3
100
AcDbLine
 10
139.630267
 20
-384.8490490000001
 30
0.0
 11
140.430267
 21
-384.049049
 31
0.0
  0
LINE
  5
1E8
330
6B
100
AcDbEntity
  8
0
 62
     3
100
AcDbLine
 10
139.202966
 20
-381.0511
 30
0.0
 11
150.001721
 21
-381.0511
 31
0.0
  0
LINE
  5
1E9
330
6B
100
AcDbEntity
  8
0
 62
     3
100
AcDbLine
 10
139.202966
 20
-383.5511
 30
0.0
 11
150.001721
 21
-383.5511
 31
0.0
  0
LINE
  5
1EA
330
6B
100
AcDbEntity
  8
0
 62
     3
100
AcDbLine
 10
147.630267
 20
-380.0490490000001
 30
0.0
 11
147.630267
 21
-381.0511
 31
0.0
  0
LINE
  5
1EB
330
6B
100
AcDbEntity
  8
0
 62
     3
100
AcDbLine
 10
147.630267
 20
-383.5511
 30
0.0
 11
147.630267
 21
-384.049049
 31
0.0
  0
LINE
  5
1EC
330
6B
100
AcDbEntity
  8
0
 62
     3
100
AcDbLine
 10
141.630267
 20
-380.0490490000001
 30
0.0
 11
141.630267
 21
-381.0511
 31
0.0
  0
LINE
  5
1ED
330
6B
100
AcDbEntity
  8
0
 62
     3
100
AcDbLine
 10
141.630267
 20
-383.5511
 30
0.0
 11
141.630267
 21
-384.049049
 31
0.0
  0
LINE
  5
1EE
330
6B
100
AcDbEntity
  8
0
 62
     7
100
AcDbLine
 10
139.630267
 20
-384.8490490000001
 30
0.0
 11
149.630267
 21
-384.8490490000001
 31
0.0
  0
LINE
  5
1EF
330
6B
100
AcDbEntity
  8
0
 62
     3
100
AcDbLine
 10
130.940086
 20
-478.2122659999997
 30
0.0
 11
138.630267
 21
-478.2122659999997
 31
0.0
  0
LINE
  5
1F0
330
6B
100
AcDbEntity
  8
0
 62
     3
100
AcDbLine
 10
130.940086
 20
-478.2122659999997
 30
0.0
 11
97.94008599999999
 21
-478.2122659999997
 31
0.0
  0
LINE
  5
1F1
330
6B
100
AcDbEntity
  8
0
 62
     3
100
AcDbLine
 10
130.940086
 20
-484.212266
 30
0.0
 11
97.94008599999999
 21
-484.212266
 31
0.0
  0
LINE
  5
1F2
330
6B
100
AcDbEntity
  8
0
 62
     3
100
AcDbLine
 10
138.630267
 20
-484.212266
 30
0.0
 11
130.940086
 21
-484.212266
 31
0.0
  0
ARC
  5
1F3
330
6B
100
AcDbEntity
  8
0
 62
     3
100
AcDbCircle
 10
178.940086
 20
-480.212266
 30
0.0
 40
5.0
100
AcDbArc
 50
233.130102
 51
306.869898
  0
LINE
  5
1F4
330
6B
100
AcDbEntity
  8
0
 62
     3
100
AcDbLine
 10
175.940086
 20
-478.2122659999997
 30
0.0
 11
175.940086
 21
-484.212266
 31
0.0
  0
ARC
  5
1F5
330
6B
100
AcDbEntity
  8
0
 62
     3
100
AcDbCircle
 10
178.940086
 20
-482.2122659999998
 30
0.0
 40
5.0
100
AcDbArc
 50
53.130102
 51
126.869898
  0
LINE
  5
1F6
330
6B
100
AcDbEntity
  8
0
 62
     3
100
AcDbLine
 10
181.940086
 20
-478.2122659999997
 30
0.0
 11
181.940086
 21
-484.212266
 31
0.0
  0
LINE
  5
1F7
330
6B
100
AcDbEntity
  8
0
 62
     3
100
AcDbLine
 10
97.94008599999999
 20
-478.2122659999997
 30
0.0
 11
97.94008599999999
 21
-484.212266
 31
0.0
  0
ARC
  5
1F8
330
6B
100
AcDbEntity
  8
0
 62
     3
100
AcDbCircle
 10
94.94008599999999
 20
-482.2122659999998
 30
0.0
 40
5.0
100
AcDbArc
 50
53.130102
 51
126.869898
  0
LINE
  5
1F9
330
6B
100
AcDbEntity
  8
0
 62
     3
100
AcDbLine
 10
91.940086
 20
-478.2122659999997
 30
0.0
 11
91.940086
 21
-484.212266
 31
0.0
  0
ARC
  5
1FA
330
6B
100
AcDbEntity
  8
0
 62
     3
100
AcDbCircle
 10
94.94008599999999
 20
-480.212266
 30
0.0
 40
5.0
100
AcDbArc
 50
233.130102
 51
306.869898
  0
LINE
  5
1FB
330
6B
100
AcDbEntity
  8
0
 62
     3
100
AcDbLine
 10
150.630267
 20
-478.2122659999997
 30
0.0
 11
175.940086
 21
-478.2122659999997
 31
0.0
  0
LINE
  5
1FC
330
6B
100
AcDbEntity
  8
0
 62
     3
100
AcDbLine
 10
150.630267
 20
-475.733058
 30
0.0
 11
150.630267
 21
-486.233058
 31
0.0
  0
LINE
  5
1FD
330
6B
100
AcDbEntity
  8
0
 62
     3
100
AcDbLine
 10
149.630267
 20
-487.233058
 30
0.0
 11
150.630267
 21
-486.233058
 31
0.0
  0
LINE
  5
1FE
330
6B
100
AcDbEntity
  8
0
 62
     3
100
AcDbLine
 10
139.630267
 20
-487.233058
 30
0.0
 11
149.630267
 21
-487.233058
 31
0.0
  0
LINE
  5
1FF
330
6B
100
AcDbEntity
  8
0
 62
     3
100
AcDbLine
 10
150.630267
 20
-484.212266
 30
0.0
 11
175.940086
 21
-484.212266
 31
0.0
  0
LINE
  5
200
330
6B
100
AcDbEntity
  8
0
 62
     3
100
AcDbLine
 10
149.629777
 20
-471.233058
 30
0.0
 11
149.629777
 21
-475.238037
 31
0.0
  0
LINE
  5
201
330
6B
100
AcDbEntity
  8
0
 62
     3
100
AcDbLine
 10
150.630267
 20
-475.733058
 30
0.0
 11
150.130267
 21
-475.233058
 31
0.0
  0
LINE
  5
202
330
6B
100
AcDbEntity
  8
0
 62
     3
100
AcDbLine
 10
139.629777
 20
-471.233058
 30
0.0
 11
139.629777
 21
-475.238037
 31
0.0
  0
LINE
  5
203
330
6B
100
AcDbEntity
  8
0
 62
     3
100
AcDbLine
 10
138.630267
 20
-475.733058
 30
0.0
 11
138.630267
 21
-486.233058
 31
0.0
  0
LINE
  5
204
330
6B
100
AcDbEntity
  8
0
 62
     3
100
AcDbLine
 10
139.630267
 20
-487.233058
 30
0.0
 11
138.630267
 21
-486.233058
 31
0.0
  0
LINE
  5
205
330
6B
100
AcDbEntity
  8
0
 62
     3
100
AcDbLine
 10
139.130267
 20
-475.233058
 30
0.0
 11
138.630267
 21
-475.733058
 31
0.0
  0
TEXT
  5
206
330
6B
100
AcDbEntity
  8
0
 62
     3
100
AcDbText
 10
243.0041005083581
 20
-490.6384089999998
 30
0.0
 40
4.5
  1
鍛造バイス
  7
高4.5
100
AcDbText
  0
TEXT
  5
20B
330
6B
100
AcDbEntity
  8
0
 62
     3
100
AcDbText
 10
247.2643039041573
 20
-497.6384089999998
 30
0.0
 40
4.5
  1
V-01
  7
高4.5
100
AcDbText
  0
TEXT
  5
20C
330
6B
100
AcDbEntity
  8
0
 62
     3
100
AcDbText
 10
264.812352
 20
-510.8426679999998
 30
0.0
 40
3.2
  1
1/1
  7
高3.2
100
AcDbText
  0
TEXT
  5
20D
330
6B
100
AcDbEntity
  8
0
 62
     3
100
AcDbText
 10
294.798924
 20
-510.8426679999998
 30
0.0
 40
3.2
  1
2002.1.15
  7
高3.2
100
AcDbText
  0
LINE
  5
20E
330
6B
100
AcDbEntity
  8
0
 62
     3
100
AcDbLine
 10
9.855957999999999
 20
-305.233058
 30
0.0
 11
28.855958
 21
-305.233058
 31
0.0
  0
LINE
  5
20F
330
6B
100
AcDbEntity
  8
0
 62
     3
100
AcDbLine
 10
9.855957999999999
 20
-315.233058
 30
0.0
 11
28.855958
 21
-315.233058
 31
0.0
  0
LINE
  5
210
330
6B
100
AcDbEntity
  8
0
 62
     3
100
AcDbLine
 10
31.355958
 20
-349.233058
 30
0.0
 11
7.355958
 21
-349.233058
 31
0.0
  0
LINE
  5
211
330
6B
100
AcDbEntity
  8
0
 62
     3
100
AcDbLine
 10
31.355958
 20
-383.988333
 30
0.0
 11
31.355958
 21
-423.4232719999998
 31
0.0
  0
LINE
  5
212
330
6B
100
AcDbEntity
  8
0
 62
     3
100
AcDbLine
 10
7.355958
 20
-383.156873
 30
0.0
 11
7.355958
 21
-416.757993
 31
0.0
  0
LINE
  5
213
330
6B
100
AcDbEntity
  8
0
 62
     3
100
AcDbLine
 10
8.355957999999999
 20
-432.233058
 30
0.0
 11
30.355958
 21
-432.233058
 31
0.0
  0
ARC
  5
214
330
6B
100
AcDbEntity
  8
0
 62
     3
100
AcDbCircle
 10
30.355958
 20
-433.233058
 30
0.0
 40
1.0
100
AcDbArc
 50
0.0
 51
90.0
  0
ARC
  5
215
330
6B
100
AcDbEntity
  8
0
 62
     3
100
AcDbCircle
 10
8.355957999999999
 20
-433.233058
 30
0.0
 40
1.0
100
AcDbArc
 50
90.0
 51
180.0
  0
LINE
  5
216
330
6B
100
AcDbEntity
  8
0
 62
     3
100
AcDbLine
 10
31.355958
 20
-423.4232719999998
 30
0.0
 11
31.355958
 21
-433.683189
 31
0.0
  0
LINE
  5
217
330
6B
100
AcDbEntity
  8
0
 62
     3
100
AcDbLine
 10
14.355958
 20
-384.8490490000001
 30
0.0
 11
14.355958
 21
-432.233058
 31
0.0
  0
LINE
  5
218
330
6B
100
AcDbEntity
  8
0
 62
     7
100
AcDbLine
 10
15.155958
 20
-384.049049
 30
0.0
 11
15.155958
 21
-432.233058
 31
0.0
  0
LINE
  5
219
330
6B
100
AcDbEntity
  8
0
 62
     7
100
AcDbLine
 10
23.555958
 20
-384.8490490000001
 30
0.0
 11
23.555958
 21
-432.233058
 31
0.0
  0
LINE
  5
21A
330
6B
100
AcDbEntity
  8
0
 62
     3
100
AcDbLine
 10
24.355958
 20
-384.8490490000001
 30
0.0
 11
24.355958
 21
-432.233058
 31
0.0
  0
LINE
  5
21B
330
6B
100
AcDbEntity
  8
0
 62
     7
100
AcDbLine
 10
24.355958
 20
-384.8490490000001
 30
0.0
 11
14.355958
 21
-384.8490490000001
 31
0.0
  0
LINE
  5
21C
330
6B
100
AcDbEntity
  8
0
 62
     3
100
AcDbLine
 10
22.355958
 20
-383.5511
 30
0.0
 11
22.355958
 21
-384.049049
 31
0.0
  0
LINE
  5
21D
330
6B
100
AcDbEntity
  8
0
 62
     3
100
AcDbLine
 10
24.783259
 20
-383.5511
 30
0.0
 11
13.984504
 21
-383.5511
 31
0.0
  0
LINE
  5
21E
330
6B
100
AcDbEntity
  8
0
 62
     7
100
AcDbLine
 10
15.155958
 20
-451.233058
 30
0.0
 11
15.155958
 21
-471.233058
 31
0.0
  0
LINE
  5
21F
330
6B
100
AcDbEntity
  8
0
 62
     3
100
AcDbLine
 10
14.355958
 20
-451.233058
 30
0.0
 11
14.355958
 21
-471.233058
 31
0.0
  0
LINE
  5
220
330
6B
100
AcDbEntity
  8
0
 62
     7
100
AcDbLine
 10
23.555958
 20
-451.233058
 30
0.0
 11
23.555958
 21
-471.233058
 31
0.0
  0
LINE
  5
221
330
6B
100
AcDbEntity
  8
0
 62
     3
100
AcDbLine
 10
24.355958
 20
-451.233058
 30
0.0
 11
24.355958
 21
-472.618699
 31
0.0
  0
LINE
  5
222
330
6B
100
AcDbEntity
  8
0
 62
     7
100
AcDbLine
 10
14.356447
 20
-471.233058
 30
0.0
 11
24.355958
 21
-471.233058
 31
0.0
  0
LINE
  5
223
330
6B
100
AcDbEntity
  8
0
 62
     7
100
AcDbLine
 10
24.356447
 20
-472.618699
 30
0.0
 11
23.556447
 21
-471.233058
 31
0.0
  0
LINE
  5
224
330
6B
100
AcDbEntity
  8
0
 62
     3
100
AcDbLine
 10
24.356447
 20
-471.233058
 30
0.0
 11
24.356447
 21
-475.238037
 31
0.0
  0
LINE
  5
225
330
6B
100
AcDbEntity
  8
0
 62
     3
100
AcDbLine
 10
25.355958
 20
-475.733058
 30
0.0
 11
25.355958
 21
-486.233058
 31
0.0
  0
LINE
  5
226
330
6B
100
AcDbEntity
  8
0
 62
     3
100
AcDbLine
 10
24.355958
 20
-487.233058
 30
0.0
 11
14.355958
 21
-487.233058
 31
0.0
  0
LINE
  5
227
330
6B
100
AcDbEntity
  8
0
 62
     3
100
AcDbLine
 10
14.356447
 20
-471.233058
 30
0.0
 11
14.356447
 21
-475.238037
 31
0.0
  0
LINE
  5
228
330
6B
100
AcDbEntity
  8
0
 62
     3
100
AcDbLine
 10
13.355958
 20
-475.733058
 30
0.0
 11
13.355958
 21
-486.233058
 31
0.0
  0
LINE
  5
229
330
6B
100
AcDbEntity
  8
0
 62
     3
100
AcDbLine
 10
24.355958
 20
-384.8490490000001
 30
0.0
 11
23.555958
 21
-384.049049
 31
0.0
  0
LINE
  5
22A
330
6B
100
AcDbEntity
  8
0
 62
     3
100
AcDbLine
 10
16.355958
 20
-383.5511
 30
0.0
 11
16.355958
 21
-384.049049
 31
0.0
  0
LINE
  5
22B
330
6B
100
AcDbEntity
  8
0
 62
     3
100
AcDbLine
 10
15.155958
 20
-384.049049
 30
0.0
 11
14.355958
 21
-384.8490490000001
 31
0.0
  0
LINE
  5
22C
330
6B
100
AcDbEntity
  8
0
 62
     7
100
AcDbLine
 10
14.355469
 20
-472.618699
 30
0.0
 11
15.155469
 21
-471.233058
 31
0.0
  0
LINE
  5
22D
330
6B
100
AcDbEntity
  8
0
 62
     3
100
AcDbLine
 10
13.355958
 20
-475.733058
 30
0.0
 11
13.855958
 21
-475.233058
 31
0.0
  0
LINE
  5
22E
330
6B
100
AcDbEntity
  8
0
 62
     3
100
AcDbLine
 10
24.855958
 20
-475.233058
 30
0.0
 11
25.355958
 21
-475.733058
 31
0.0
  0
LINE
  5
22F
330
6B
100
AcDbEntity
  8
0
 62
     3
100
AcDbLine
 10
24.355958
 20
-487.233058
 30
0.0
 11
25.355958
 21
-486.233058
 31
0.0
  0
LINE
  5
230
330
6B
100
AcDbEntity
  8
0
 62
     3
100
AcDbLine
 10
14.355958
 20
-487.233058
 30
0.0
 11
13.355958
 21
-486.233058
 31
0.0
  0
LINE
  5
231
330
6B
100
AcDbEntity
  8
0
 62
     3
100
AcDbLine
 10
31.355958
 20
-370.5511
 30
0.0
 11
7.355958
 21
-370.5511
 31
0.0
  0
LINE
  5
232
330
6B
100
AcDbEntity
  8
0
 62
     3
100
AcDbLine
 10
31.355958
 20
-373.0511
 30
0.0
 11
7.355958
 21
-373.0511
 31
0.0
  0
LINE
  5
233
330
6B
100
AcDbEntity
  8
0
 62
     3
100
AcDbLine
 10
30.355958
 20
-383.5511
 30
0.0
 11
24.783259
 21
-383.5511
 31
0.0
  0
LINE
  5
234
330
6B
100
AcDbEntity
  8
0
 62
     3
100
AcDbLine
 10
8.355957999999999
 20
-383.5511
 30
0.0
 11
13.984504
 21
-383.5511
 31
0.0
  0
ARC
  5
235
330
6B
100
AcDbEntity
  8
0
 62
     3
100
AcDbCircle
 10
30.355958
 20
-382.5511
 30
0.0
 40
1.0
100
AcDbArc
 50
270.0
 51
0.0
  0
ARC
  5
236
330
6B
100
AcDbEntity
  8
0
 62
     3
100
AcDbCircle
 10
8.355957999999999
 20
-382.5511
 30
0.0
 40
1.0
100
AcDbArc
 50
180.0
 51
270.0
  0
LINE
  5
237
330
6B
100
AcDbEntity
  8
0
 62
     3
100
AcDbLine
 10
31.355958
 20
-383.988333
 30
0.0
 11
31.355958
 21
-382.5511
 31
0.0
  0
LINE
  5
238
330
6B
100
AcDbEntity
  8
0
 62
     3
100
AcDbLine
 10
7.355958
 20
-383.156873
 30
0.0
 11
7.355958
 21
-382.5511
 31
0.0
  0
LINE
  5
239
330
6B
100
AcDbEntity
  8
0
 62
     3
100
AcDbLine
 10
20.223023
 20
-373.1171970000001
 30
0.0
 11
20.223023
 21
-373.906401
 31
0.0
  0
LINE
  5
23A
330
6B
100
AcDbEntity
  8
0
 62
     3
100
AcDbLine
 10
18.545966
 20
-373.150081
 30
0.0
 11
18.545966
 21
-373.807751
 31
0.0
  0
CIRCLE
  5
23B
330
6B
100
AcDbEntity
  8
0
 62
     3
100
AcDbCircle
 10
19.35595799999999
 20
-481.2122659999998
 30
0.0
 40
4.0
  0
LINE
  5
241
330
6B
100
AcDbEntity
  8
0
100
AcDbLine
 10
139.630267
 20
-400.243908
 30
0.0
 11
133.256213
 21
-406.3043519999998
 31
0.0
  0
LINE
  5
242
330
6B
100
AcDbEntity
  8
0
100
AcDbLine
 10
133.256213
 20
-406.3043519999998
 30
0.0
 11
103.006213
 21
-406.3043519999998
 31
0.0
  0
TEXT
  5
243
330
6B
100
AcDbEntity
  8
0
 62
     4
100
AcDbText
 10
105.756213
 20
-405.304352
 30
0.0
 40
3.2
  1
M10 P=1.5
 41
1.120924
100
AcDbText
  0
TEXT
  5
244
330
6B
100
AcDbEntity
  8
0
 62
     3
100
AcDbText
 10
220.358411
 20
-470.836141
 30
0.0
 40
4.5
  1
＊）メッキ仕上
  7
高4.5
100
AcDbText
  0
TEXT
  5
245
330
6B
100
AcDbEntity
  8
0
 62
     3
100
AcDbText
 10
292.3857502858218
 20
-521.304131
 30
0.0
 40
6.299999999999998
  1
V-01
  7
高6.3
100
AcDbText
  0
LINE
  5
246
330
6B
100
AcDbEntity
  8
0
 62
     3
100
AcDbLine
 10
195.128178
 20
-353.233058
 30
0.0
 11
195.128178
 21
-411.233058
 31
0.0
  0
LINE
  5
247
330
6B
100
AcDbEntity
  8
0
 62
     3
100
AcDbLine
 10
179.128178
 20
-349.233058
 30
0.0
 11
179.128178
 21
-416.233058
 31
0.0
  0
LINE
  5
248
330
6B
100
AcDbEntity
  8
0
 62
     3
100
AcDbLine
 10
173.128178
 20
-349.733058
 30
0.0
 11
173.128178
 21
-416.233058
 31
0.0
  0
TEXT
  5
249
330
6B
100
AcDbEntity
  8
0
 62
     3
100
AcDbText
 10
238.1827146897936
 20
-337.436769143414
 30
0.0
 40
4.5
  1
蝶ボルト　M10x30
  7
高4.5
100
AcDbText
  0
LINE
  5
24A
330
6B
100
AcDbEntity
  8
0
 62
     3
100
AcDbLine
 10
150.630267
 20
-486.233058
 30
0.0
 11
138.630267
 21
-486.233058
 31
0.0
  0
LINE
  5
24B
330
6B
100
AcDbEntity
  8
0
 62
     3
100
AcDbLine
 10
139.130267
 20
-475.233058
 30
0.0
 11
150.130267
 21
-475.233058
 31
0.0
  0
LINE
  5
24C
330
6B
100
AcDbEntity
  8
0
 62
     3
100
AcDbLine
 10
150.630267
 20
-475.733058
 30
0.0
 11
138.630267
 21
-475.733058
 31
0.0
  0
LINE
  5
24D
330
6B
100
AcDbEntity
  8
0
 62
     3
100
AcDbLine
 10
24.855958
 20
-475.233058
 30
0.0
 11
13.855958
 21
-475.233058
 31
0.0
  0
LINE
  5
24E
330
6B
100
AcDbEntity
  8
0
 62
     3
100
AcDbLine
 10
13.355958
 20
-475.733058
 30
0.0
 11
25.355958
 21
-475.733058
 31
0.0
  0
LINE
  5
24F
330
6B
100
AcDbEntity
  8
0
 62
     3
100
AcDbLine
 10
13.355958
 20
-486.233058
 30
0.0
 11
25.355958
 21
-486.233058
 31
0.0
  0
LINE
  5
250
330
6B
100
AcDbEntity
  8
0
 62
     3
100
AcDbLine
 10
23.555958
 20
-384.049049
 30
0.0
 11
15.155958
 21
-384.049049
 31
0.0
  0
LINE
  5
251
330
6B
100
AcDbEntity
  8
0
 62
     3
100
AcDbLine
 10
135.630267
 20
-345.233058
 30
0.0
 11
135.630267
 21
-335.233058
 31
0.0
  0
LINE
  5
252
330
6B
100
AcDbEntity
  8
0
 62
     3
100
AcDbLine
 10
135.630267
 20
-335.233058
 30
0.0
 11
153.630267
 21
-335.233058
 31
0.0
  0
LINE
  5
253
330
6B
100
AcDbEntity
  8
0
 62
     3
100
AcDbLine
 10
113.128178
 20
-349.233058
 30
0.0
 11
128.7020629999999
 21
-349.233058
 31
0.0
  0
ARC
  5
254
330
6B
100
AcDbEntity
  8
0
 62
     3
100
AcDbCircle
 10
124.628178
 20
-320.500922
 30
0.0
 40
8.0
100
AcDbArc
 50
278.752929
 51
0.0
  0
LINE
  5
255
330
6B
100
AcDbEntity
  8
0
 62
     3
100
AcDbLine
 10
132.628178
 20
-328.233058
 30
0.0
 11
132.628178
 21
-319.233058
 31
0.0
  0
LINE
  5
256
330
6B
100
AcDbEntity
  8
0
 62
     3
100
AcDbLine
 10
132.628178
 20
-319.233058
 30
0.0
 11
156.690924
 21
-319.233058
 31
0.0
  0
LINE
  5
257
330
6B
100
AcDbEntity
  8
0
 62
     3
100
AcDbLine
 10
156.64203
 20
-328.233058
 30
0.0
 11
156.64203
 21
-319.233058
 31
0.0
  0
ARC
  5
258
330
6B
100
AcDbEntity
  8
0
 62
     3
100
AcDbCircle
 10
164.628178
 20
-320.233058
 30
0.0
 40
8.0
100
AcDbArc
 50
176.627713
 51
270.0
  0
LINE
  5
259
330
6B
100
AcDbEntity
  8
0
 62
     3
100
AcDbLine
 10
164.628178
 20
-328.233058
 30
0.0
 11
170.128178
 21
-328.233058
 31
0.0
  0
LINE
  5
25A
330
6B
100
AcDbEntity
  8
0
 62
     3
100
AcDbLine
 10
153.630267
 20
-345.233058
 30
0.0
 11
160.55847
 21
-349.233058
 31
0.0
  0
LINE
  5
25B
330
6B
100
AcDbEntity
  8
0
 62
     3
100
AcDbLine
 10
153.630267
 20
-345.233058
 30
0.0
 11
153.630267
 21
-335.233058
 31
0.0
  0
ARC
  5
25C
330
6B
100
AcDbEntity
  8
0
 62
     3
100
AcDbCircle
 10
157.128178
 20
-416.233058
 30
0.0
 40
16.0
100
AcDbArc
 50
270.0
 51
0.0
  0
LINE
  5
25D
330
6B
100
AcDbEntity
  8
0
 62
     3
100
AcDbLine
 10
157.128178
 20
-432.233058
 30
0.0
 11
135.628178
 21
-432.233058
 31
0.0
  0
ARC
  5
25E
330
6B
100
AcDbEntity
  8
0
 62
     3
100
AcDbCircle
 10
169.128178
 20
-349.733058
 30
0.0
 40
4.0
100
AcDbArc
 50
0.0
 51
90.0
  0
ARC
  5
25F
330
6B
100
AcDbEntity
  8
0
 62
     3
100
AcDbCircle
 10
169.128178
 20
-349.233058
 30
0.0
 40
3.5
100
AcDbArc
 50
90.0
 51
180.0
  0
LINE
  5
260
330
6B
100
AcDbEntity
  8
0
 62
     3
100
AcDbLine
 10
160.55847
 20
-349.233058
 30
0.0
 11
165.628178
 21
-349.233058
 31
0.0
  0
ARC
  5
261
330
6B
100
AcDbEntity
  8
0
 62
     3
100
AcDbCircle
 10
170.128178
 20
-353.233058
 30
0.0
 40
25.0
100
AcDbArc
 50
0.0
 51
90.0
  0
ARC
  5
262
330
6B
100
AcDbEntity
  8
0
 62
     3
100
AcDbCircle
 10
135.628178
 20
-450.233058
 30
0.0
 40
1.0
100
AcDbArc
 50
180.0
 51
270.0
  0
LINE
  5
263
330
6B
100
AcDbEntity
  8
0
 62
     3
100
AcDbLine
 10
134.628178
 20
-433.233058
 30
0.0
 11
134.628178
 21
-450.233058
 31
0.0
  0
ARC
  5
264
330
6B
100
AcDbEntity
  8
0
 62
     3
100
AcDbCircle
 10
135.628178
 20
-433.233058
 30
0.0
 40
1.0
100
AcDbArc
 50
90.0
 51
180.0
  0
ARC
  5
265
330
6B
100
AcDbEntity
  8
0
 62
     3
100
AcDbCircle
 10
155.128178
 20
-411.233058
 30
0.0
 40
40.0
100
AcDbArc
 50
270.0
 51
0.0
  0
ARC
  5
266
330
6B
100
AcDbEntity
  8
0
 62
     3
100
AcDbCircle
 10
128.128178
 20
-343.233058
 30
0.0
 40
15.0
100
AcDbArc
 50
98.75292899999999
 51
176.177446
  0
ARC
  5
267
330
6B
100
AcDbEntity
  8
0
 62
     3
100
AcDbCircle
 10
128.128178
 20
-343.233058
 30
0.0
 40
15.0
100
AcDbArc
 50
176.177446
 51
180.0
  0
LINE
  5
268
330
6B
100
AcDbEntity
  8
0
 62
     3
100
AcDbLine
 10
113.128178
 20
-343.233058
 30
0.0
 11
113.128178
 21
-349.233058
 31
0.0
  0
LINE
  5
269
330
6B
100
AcDbEntity
  8
0
 62
     3
100
AcDbLine
 10
128.7020629999999
 20
-349.233058
 30
0.0
 11
135.630267
 21
-345.233058
 31
0.0
  0
LINE
  5
26A
330
6B
100
AcDbEntity
  8
0
 62
     3
100
AcDbLine
 10
154.128178
 20
-301.233058
 30
0.0
 11
135.128178
 21
-301.233058
 31
0.0
  0
LINE
  5
26B
330
6B
100
AcDbEntity
  8
0
 62
     3
100
AcDbLine
 10
135.128178
 20
-301.233058
 30
0.0
 11
135.128178
 21
-305.233058
 31
0.0
  0
LINE
  5
26C
330
6B
100
AcDbEntity
  8
0
 62
     3
100
AcDbLine
 10
154.128178
 20
-305.233058
 30
0.0
 11
135.128178
 21
-305.233058
 31
0.0
  0
LINE
  5
26D
330
6B
100
AcDbEntity
  8
0
 62
     3
100
AcDbLine
 10
136.128178
 20
-305.233058
 30
0.0
 11
136.128178
 21
-315.233058
 31
0.0
  0
LINE
  5
26E
330
6B
100
AcDbEntity
  8
0
 62
     3
100
AcDbLine
 10
153.128178
 20
-305.233058
 30
0.0
 11
153.128178
 21
-315.233058
 31
0.0
  0
LINE
  5
26F
330
6B
100
AcDbEntity
  8
0
 62
     3
100
AcDbLine
 10
135.128178
 20
-315.233058
 30
0.0
 11
154.128178
 21
-315.233058
 31
0.0
  0
LINE
  5
270
330
6B
100
AcDbEntity
  8
0
 62
     3
100
AcDbLine
 10
154.128178
 20
-315.233058
 30
0.0
 11
154.128178
 21
-319.233058
 31
0.0
  0
LINE
  5
271
330
6B
100
AcDbEntity
  8
0
 62
     3
100
AcDbLine
 10
135.128178
 20
-315.233058
 30
0.0
 11
135.128178
 21
-319.233058
 31
0.0
  0
LINE
  5
272
330
6B
100
AcDbEntity
  8
0
 62
     3
100
AcDbLine
 10
154.128178
 20
-301.233058
 30
0.0
 11
154.128178
 21
-305.233058
 31
0.0
  0
LINE
  5
273
330
6B
100
AcDbEntity
  8
0
 62
     3
100
AcDbLine
 10
28.855958
 20
-301.233058
 30
0.0
 11
9.855957999999999
 21
-301.233058
 31
0.0
  0
LINE
  5
274
330
6B
100
AcDbEntity
  8
0
 62
     3
100
AcDbLine
 10
10.855958
 20
-305.233058
 30
0.0
 11
10.855958
 21
-315.233058
 31
0.0
  0
LINE
  5
275
330
6B
100
AcDbEntity
  8
0
 62
     3
100
AcDbLine
 10
27.855958
 20
-305.233058
 30
0.0
 11
27.855958
 21
-315.233058
 31
0.0
  0
LINE
  5
276
330
6B
100
AcDbEntity
  8
0
 62
     3
100
AcDbLine
 10
9.855957999999999
 20
-305.233058
 30
0.0
 11
9.855957999999999
 21
-301.233058
 31
0.0
  0
LINE
  5
277
330
6B
100
AcDbEntity
  8
0
 62
     3
100
AcDbLine
 10
28.855958
 20
-305.233058
 30
0.0
 11
28.855958
 21
-301.233058
 31
0.0
  0
LINE
  5
278
330
6B
100
AcDbEntity
  8
0
 62
     3
100
AcDbLine
 10
7.355496999999997
 20
-319.233058
 30
0.0
 11
31.355958
 21
-319.233058
 31
0.0
  0
LINE
  5
279
330
6B
100
AcDbEntity
  8
0
 62
     3
100
AcDbLine
 10
9.855957999999999
 20
-315.233058
 30
0.0
 11
9.855957999999999
 21
-319.233058
 31
0.0
  0
LINE
  5
27A
330
6B
100
AcDbEntity
  8
0
 62
     3
100
AcDbLine
 10
28.855958
 20
-315.233058
 30
0.0
 11
28.855958
 21
-319.233058
 31
0.0
  0
ARC
  5
27B
330
6B
100
AcDbEntity
  8
0
 62
     3
100
AcDbCircle
 10
8.355957999999999
 20
-450.233058
 30
0.0
 40
1.0
100
AcDbArc
 50
180.0
 51
270.0
  0
ARC
  5
27C
330
6B
100
AcDbEntity
  8
0
 62
     3
100
AcDbCircle
 10
30.355958
 20
-450.233058
 30
0.0
 40
1.0
100
AcDbArc
 50
270.0
 51
0.0
  0
LINE
  5
27D
330
6B
100
AcDbEntity
  8
0
 62
     3
100
AcDbLine
 10
30.355958
 20
-451.233058
 30
0.0
 11
8.355957999999999
 21
-451.233058
 31
0.0
  0
LINE
  5
27E
330
6B
100
AcDbEntity
  8
0
 62
     3
100
AcDbLine
 10
22.303615
 20
-339.78018
 30
0.0
 11
31.355958
 21
-340.733058
 31
0.0
  0
LINE
  5
27F
330
6B
100
AcDbEntity
  8
0
 62
     3
100
AcDbLine
 10
16.4083
 20
-339.78018
 30
0.0
 11
8.251272999999999
 21
-340.638815
 31
0.0
  0
ARC
  5
280
330
6B
100
AcDbEntity
  8
0
 62
     3
100
AcDbCircle
 10
30.355958
 20
-341.63332
 30
0.0
 40
1.0
100
AcDbArc
 50
0.0
 51
83.990994
  0
ARC
  5
281
330
6B
100
AcDbEntity
  8
0
 62
     3
100
AcDbCircle
 10
8.355957999999999
 20
-341.63332
 30
0.0
 40
1.0
100
AcDbArc
 50
96.00900600000001
 51
180.0
  0
ARC
  5
282
330
6B
100
AcDbEntity
  8
0
 62
     3
100
AcDbCircle
 10
22.355958
 20
-339.282927
 30
0.0
 40
0.5
100
AcDbArc
 50
180.0
 51
263.990994
  0
ARC
  5
283
330
6B
100
AcDbEntity
  8
0
 62
     3
100
AcDbCircle
 10
16.355958
 20
-339.282927
 30
0.0
 40
0.5
100
AcDbArc
 50
276.009006
 51
0.0
  0
LINE
  5
284
330
6B
100
AcDbEntity
  8
0
 62
     3
100
AcDbLine
 10
16.85595799999999
 20
-349.233058
 30
0.0
 11
16.85595799999999
 21
-339.733058
 31
0.0
  0
LINE
  5
285
330
6B
100
AcDbEntity
  8
0
 62
     3
100
AcDbLine
 10
21.855958
 20
-349.233058
 30
0.0
 11
21.855958
 21
-339.733058
 31
0.0
  0
LINE
  5
286
330
6B
100
AcDbEntity
  8
0
 62
     3
100
AcDbLine
 10
7.355958
 20
-416.757993
 30
0.0
 11
7.355958
 21
-450.233058
 31
0.0
  0
LINE
  5
287
330
6B
100
AcDbEntity
  8
0
 62
     3
100
AcDbLine
 10
30.460643
 20
-330.638815
 30
0.0
 11
21.855958
 21
-329.7330580000001
 31
0.0
  0
LINE
  5
288
330
6B
100
AcDbEntity
  8
0
 62
     3
100
AcDbLine
 10
8.251272999999999
 20
-330.638815
 30
0.0
 11
16.85595799999999
 21
-329.7330580000001
 31
0.0
  0
LINE
  5
289
330
6B
100
AcDbEntity
  8
0
 62
     3
100
AcDbLine
 10
20.855958
 20
-328.233058
 30
0.0
 11
17.855958
 21
-328.233058
 31
0.0
  0
ARC
  5
28A
330
6B
100
AcDbEntity
  8
0
 62
     3
100
AcDbCircle
 10
17.855958
 20
-329.233058
 30
0.0
 40
1.0
100
AcDbArc
 50
90.0
 51
180.0
  0
ARC
  5
28B
330
6B
100
AcDbEntity
  8
0
 62
     3
100
AcDbCircle
 10
20.855958
 20
-329.233058
 30
0.0
 40
1.0
100
AcDbArc
 50
0.0
 51
90.0
  0
ARC
  5
28C
330
6B
100
AcDbEntity
  8
0
 62
     3
100
AcDbCircle
 10
15.855958
 20
-324.233058
 30
0.0
 40
1.0
100
AcDbArc
 50
0.0
 51
90.0
  0
ARC
  5
28D
330
6B
100
AcDbEntity
  8
0
 62
     3
100
AcDbCircle
 10
22.855958
 20
-324.233058
 30
0.0
 40
1.0
100
AcDbArc
 50
90.0
 51
180.0
  0
LINE
  5
28E
330
6B
100
AcDbEntity
  8
0
 62
     3
100
AcDbLine
 10
16.85595799999999
 20
-324.233058
 30
0.0
 11
16.85595799999999
 21
-339.282927
 31
0.0
  0
LINE
  5
28F
330
6B
100
AcDbEntity
  8
0
 62
     3
100
AcDbLine
 10
21.855958
 20
-324.233058
 30
0.0
 11
21.855958
 21
-339.282927
 31
0.0
  0
LINE
  5
290
330
6B
100
AcDbEntity
  8
0
 62
     3
100
AcDbLine
 10
31.355958
 20
-330.733058
 30
0.0
 11
31.355958
 21
-319.233058
 31
0.0
  0
LINE
  5
291
330
6B
100
AcDbEntity
  8
0
 62
     3
100
AcDbLine
 10
7.355958
 20
-330.733058
 30
0.0
 11
7.355958
 21
-319.233058
 31
0.0
  0
ARC
  5
292
330
6B
100
AcDbEntity
  8
0
 62
     3
100
AcDbCircle
 10
30.355958
 20
-331.63332
 30
0.0
 40
1.0
100
AcDbArc
 50
0.0
 51
83.990994
  0
ARC
  5
293
330
6B
100
AcDbEntity
  8
0
 62
     3
100
AcDbCircle
 10
8.355957999999999
 20
-331.63332
 30
0.0
 40
1.0
100
AcDbArc
 50
96.00900600000001
 51
180.0
  0
LINE
  5
294
330
6B
100
AcDbEntity
  8
0
 62
     3
100
AcDbLine
 10
31.355958
 20
-450.233058
 30
0.0
 11
31.355958
 21
-433.683189
 31
0.0
  0
LINE
  5
29D
330
6B
100
AcDbEntity
  8
0
 62
     7
100
AcDbLine
 10
237.6248675456729
 20
-338.8385340381806
 30
0.0
 11
288.4821347986658
 21
-338.8385340381806
 31
0.0
  0
LINE
  5
2A0
330
6B
100
AcDbEntity
  8
0
 62
     3
100
AcDbLine
 10
305.057273
 20
-505.7587879999998
 30
0.0
 11
305.057273
 21
-482.758788
 31
0.0
  0
LINE
  5
2A2
330
6B
100
AcDbEntity
  8
0
 62
     3
100
AcDbLine
 10
252.003663
 20
-512.758788
 30
0.0
 11
252.003663
 21
-498.7587879999998
 31
0.0
  0
TEXT
  5
2A4
330
6B
100
AcDbEntity
  8
0
 62
     3
100
AcDbText
 10
281.067591
 20
-486.5536719999998
 30
0.0
 40
2.0
  1
A
 41
0.7
100
AcDbText
  0
TEXT
  5
2A5
330
6B
100
AcDbEntity
  8
0
 62
     3
100
AcDbText
 10
283.602877
 20
-486.5536719999998
 30
0.0
 40
2.0
  1
P
 41
0.7
100
AcDbText
  0
TEXT
  5
2A6
330
6B
100
AcDbEntity
  8
0
 62
     3
100
AcDbText
 10
286.138163
 20
-486.5536719999998
 30
0.0
 40
2.0
  1
P
 41
0.7
100
AcDbText
  0
TEXT
  5
2A7
330
6B
100
AcDbEntity
  8
0
 62
     3
100
AcDbText
 10
288.673449
 20
-486.5536719999998
 30
0.0
 40
2.0
  1
D
 41
0.7
100
AcDbText
  0
TEXT
  5
2A8
330
6B
100
AcDbEntity
  8
0
 62
     3
100
AcDbText
 10
294.042132
 20
-486.5536719999998
 30
0.0
 40
2.0
  1
C
 41
0.7
100
AcDbText
  0
TEXT
  5
2A9
330
6B
100
AcDbEntity
  8
0
 62
     3
100
AcDbText
 10
296.577419
 20
-486.5536719999998
 30
0.0
 40
2.0
  1
H
 41
0.7
100
AcDbText
  0
TEXT
  5
2AA
330
6B
100
AcDbEntity
  8
0
 62
     3
100
AcDbText
 10
299.112705
 20
-486.5536719999998
 30
0.0
 40
2.0
  1
C
 41
0.7
100
AcDbText
  0
TEXT
  5
2AB
330
6B
100
AcDbEntity
  8
0
 62
     3
100
AcDbText
 10
301.647991
 20
-486.5536719999998
 30
0.0
 40
2.0
  1
K
 41
0.7
100
AcDbText
  0
TEXT
  5
2AC
330
6B
100
AcDbEntity
  8
0
 62
     3
100
AcDbText
 10
307.321958
 20
-486.5536719999998
 30
0.0
 40
2.0
  1
DESN
 41
1.216762999999998
100
AcDbText
  0
TEXT
  5
2AD
330
6B
100
AcDbEntity
  8
0
 62
     3
100
AcDbText
 10
222.315599
 20
-515.90017
 30
0.0
 40
2.0
  1
NICHIDO IND.CO.LTD
 41
1.274876
100
AcDbText
  0
LINE
  5
2AE
330
6B
100
AcDbEntity
  8
0
 62
     3
100
AcDbLine
 10
232.698628
 20
-482.758788
 30
0.0
 11
232.698628
 21
-505.7587879999998
 31
0.0
  0
LINE
  5
2AF
330
6B
100
AcDbEntity
  8
0
 62
     3
100
AcDbLine
 10
279.057273
 20
-482.7587879999998
 30
0.0
 11
279.057273
 21
-522.424511
 31
0.0
  0
LINE
  5
2B1
330
6B
100
AcDbEntity
  8
0
 62
     3
100
AcDbLine
 10
279.057273
 20
-482.758788
 30
0.0
 11
279.057273
 21
-476.7587879999998
 31
0.0
  0
LINE
  5
2B3
330
6B
100
AcDbEntity
  8
0
 62
     3
100
AcDbLine
 10
305.057273
 20
-482.758788
 30
0.0
 11
305.057273
 21
-476.7587879999998
 31
0.0
  0
LINE
  5
2B4
330
6B
100
AcDbEntity
  8
0
 62
     3
100
AcDbLine
 10
292.057273
 20
-482.758788
 30
0.0
 11
292.057273
 21
-512.758788
 31
0.0
  0
TEXT
  5
2B5
330
6B
100
AcDbEntity
  8
0
 62
     3
100
AcDbText
 10
280.169717
 20
-511.894102
 30
0.0
 40
3.2
  1
作成日
 41
1.017225999999997
100
AcDbText
  0
LINE
  5
2B6
330
6B
100
AcDbEntity
  8
0
 62
     3
100
AcDbLine
 10
330.756636
 20
-482.758788
 30
0.0
 11
219.453193
 21
-482.758788
 31
0.0
  0
LINE
  5
2B7
330
6B
100
AcDbEntity
  8
0
 62
     3
100
AcDbLine
 10
318.057273
 20
-505.7587879999998
 30
0.0
 11
318.057273
 21
-482.758788
 31
0.0
  0
TEXT
  5
2B8
330
6B
100
AcDbEntity
  8
0
 62
     3
100
AcDbText
 10
321.3810759999999
 20
-486.4678539999998
 30
0.0
 40
1.8
  1
D
 41
0.666667
100
AcDbText
  0
TEXT
  5
2B9
330
6B
100
AcDbEntity
  8
0
 62
     3
100
AcDbText
 10
324.197704
 20
-486.4678539999998
 30
0.0
 40
1.8
  1
E
 41
0.666667
100
AcDbText
  0
TEXT
  5
2BA
330
6B
100
AcDbEntity
  8
0
 62
     3
100
AcDbText
 10
327.014332
 20
-486.4678539999998
 30
0.0
 40
1.8
  1
F
 41
0.666667
100
AcDbText
  0
TEXT
  5
2BB
330
6B
100
AcDbEntity
  8
0
 62
     3
100
AcDbText
 10
321.3810759999999
 20
-490.460407
 30
0.0
 40
3.2
  1
製図
 41
1.076369
100
AcDbText
  0
LINE
  5
2BC
330
6B
100
AcDbEntity
  8
0
 62
     3
100
AcDbLine
 10
219.453193
 20
-482.758788
 30
0.0
 11
219.453193
 21
-522.424511
 31
0.0
  0
TEXT
  5
2BD
330
6B
100
AcDbEntity
  8
0
 62
     3
100
AcDbText
 10
220.829846
 20
-522.092045
 30
0.0
 40
5.0
  1
日動工業株式会社
 41
0.833333
100
AcDbText
  0
LINE
  5
2BE
330
6B
100
AcDbEntity
  8
0
 62
     3
100
AcDbLine
 10
262.335597
 20
-498.7587879999998
 30
0.0
 11
262.335597
 21
-522.424511
 31
0.0
  0
LINE
  5
2BF
330
6B
100
AcDbEntity
  8
0
 62
     3
100
AcDbLine
 10
262.335597
 20
-517.5916499999998
 30
0.0
 11
279.057273
 21
-517.5916499999998
 31
0.0
  0
TEXT
  5
2C0
330
6B
100
AcDbEntity
  8
0
 62
     3
100
AcDbText
 10
262.922199
 20
-516.7752189999998
 30
0.0
 40
3.2
  1
出図コード
 41
0.8356860000000001
100
AcDbText
  0
LINE
  5
2C2
330
6B
100
AcDbEntity
  8
0
 62
     3
100
AcDbLine
 10
219.453193
 20
-512.758788
 30
0.0
 11
330.756636
 21
-512.758788
 31
0.0
  0
LINE
  5
2C4
330
6B
100
AcDbEntity
  8
0
 62
     3
100
AcDbLine
 10
219.453193
 20
-491.758788
 30
0.0
 11
330.756636
 21
-491.758788
 31
0.0
  0
LINE
  5
2CA
330
6B
100
AcDbEntity
  8
0
 62
     3
100
AcDbLine
 10
219.453193
 20
-498.7587879999998
 30
0.0
 11
279.057273
 21
-498.7587879999998
 31
0.0
  0
LINE
  5
2D0
330
6B
100
AcDbEntity
  8
0
 62
     3
100
AcDbLine
 10
219.453193
 20
-505.7587879999998
 30
0.0
 11
330.756636
 21
-505.7587879999998
 31
0.0
  0
TEXT
  5
2D1
330
6B
100
AcDbEntity
  8
0
 62
     3
100
AcDbText
 10
262.789651
 20
-522.0556030896172
 30
0.0
 40
3.2
  1
ZK-A3X
 41
0.8112849999999999
100
AcDbText
  0
TEXT
  5
2D2
330
6B
100
AcDbEntity
  8
0
 62
     3
100
AcDbText
 10
221.27059
 20
-486.589263
 30
0.0
 40
2.0
  1
CONPONENTS
 41
0.5331600000000001
100
AcDbText
  0
TEXT
  5
2D3
330
6B
100
AcDbEntity
  8
0
 62
     3
100
AcDbText
 10
220.920864
 20
-505.5214389999998
 30
0.0
 40
3.0
  1
材
 41
0.833333
100
AcDbText
  0
TEXT
  5
2D4
330
6B
100
AcDbEntity
  8
0
 62
     3
100
AcDbText
 10
228.456506
 20
-505.5214389999998
 30
0.0
 40
3.0
  1
質
 41
0.833333
100
AcDbText
  0
TEXT
  5
2D5
330
6B
100
AcDbEntity
  8
0
 62
     3
100
AcDbText
 10
221.008934
 20
-494.896915
 30
0.0
 40
2.0
  1
MODEL
 41
1.031072999999999
100
AcDbText
  0
TEXT
  5
2D6
330
6B
100
AcDbEntity
  8
0
 62
     3
100
AcDbText
 10
220.920864
 20
-501.8391309999998
 30
0.0
 40
2.0
  1
MATERIAL
 41
0.659278
100
AcDbText
  0
TEXT
  5
2D7
330
6B
100
AcDbEntity
  8
0
 62
     3
100
AcDbText
 10
252.228144
 20
-505.5214389999998
 30
0.0
 40
3.0
  1
備
 41
0.833333
100
AcDbText
  0
TEXT
  5
2D8
330
6B
100
AcDbEntity
  8
0
 62
     3
100
AcDbText
 10
258.961146
 20
-505.5214389999998
 30
0.0
 40
3.0
  1
考
 41
0.833333
100
AcDbText
  0
TEXT
  5
2D9
330
6B
100
AcDbEntity
  8
0
 62
     3
100
AcDbText
 10
252.6128547048256
 20
-501.8391309999998
 30
0.0
 40
2.0
  1
REMARKS
 41
0.675794
100
AcDbText
  0
TEXT
  5
2DA
330
6B
100
AcDbEntity
  8
0
 62
     3
100
AcDbText
 10
222.510593
 20
-508.7592519999998
 30
0.0
 40
2.0
  1
3AD
 41
1.42614
100
AcDbText
  0
TEXT
  5
2DB
330
6B
100
AcDbEntity
  8
0
 62
     3
100
AcDbText
 10
231.821573
 20
-508.5935179999999
 30
0.0
 40
2.0
  1
ANGLE
 41
1.669883999999995
100
AcDbText
  0
TEXT
  5
2DC
330
6B
100
AcDbEntity
  8
0
 62
     3
100
AcDbText
 10
252.75546
 20
-508.970359
 30
0.0
 40
2.0
  1
SCALE
 41
0.7719630000000001
100
AcDbText
  0
TEXT
  5
2DD
330
6B
100
AcDbEntity
  8
0
 62
     3
100
AcDbText
 10
222.196723
 20
-512.758788
 30
0.0
 40
3.0
  1
第
 41
0.833333
100
AcDbText
  0
TEXT
  5
2DE
330
6B
100
AcDbEntity
  8
0
 62
     3
100
AcDbText
 10
229.983573
 20
-512.758788
 30
0.0
 40
3.0
  1
三
 41
0.833333
100
AcDbText
  0
TEXT
  5
2DF
330
6B
100
AcDbEntity
  8
0
 62
     3
100
AcDbText
 10
237.770423
 20
-512.758788
 30
0.0
 40
3.0
  1
角
 41
0.833333
100
AcDbText
  0
TEXT
  5
2E0
330
6B
100
AcDbEntity
  8
0
 62
     3
100
AcDbText
 10
245.557273
 20
-512.758788
 30
0.0
 40
3.0
  1
法
 41
0.833333
100
AcDbText
  0
TEXT
  5
2E1
330
6B
100
AcDbEntity
  8
0
 62
     3
100
AcDbText
 10
252.618665
 20
-512.470359
 30
0.0
 40
3.0
  1
尺
 41
0.833333
100
AcDbText
  0
TEXT
  5
2E2
330
6B
100
AcDbEntity
  8
0
 62
     3
100
AcDbText
 10
259.351666
 20
-512.470359
 30
0.0
 40
3.0
  1
度
 41
0.833333
100
AcDbText
  0
TEXT
  5
2E3
330
6B
100
AcDbEntity
  8
0
 62
     3
100
AcDbText
 10
281.934937
 20
-490.301059
 30
0.0
 40
3.0
  1
承認
 41
1.089472999999999
100
AcDbText
  0
TEXT
  5
2E4
330
6B
100
AcDbEntity
  8
0
 62
     3
100
AcDbText
 10
295.177817
 20
-490.3587879999998
 30
0.0
 40
3.0
  1
検図
 41
0.931761
100
AcDbText
  0
TEXT
  5
2E5
330
6B
100
AcDbEntity
  8
0
 62
     3
100
AcDbText
 10
308.178214
 20
-490.3587879999998
 30
0.0
 40
3.0
  1
設
 41
0.833333
100
AcDbText
  0
TEXT
  5
2E6
330
6B
100
AcDbEntity
  8
0
 62
     3
100
AcDbText
 10
312.668082
 20
-490.3587879999998
 30
0.0
 40
3.0
  1
計
 41
0.833333
100
AcDbText
  0
TEXT
  5
2E7
330
6B
100
AcDbEntity
  8
0
 62
     3
100
AcDbText
 10
221.340697
 20
-490.1862359999998
 30
0.0
 40
3.0
  1
品
 41
0.833333
100
AcDbText
  0
TEXT
  5
2E8
330
6B
100
AcDbEntity
  8
0
 62
     3
100
AcDbText
 10
228.876339
 20
-490.1862359999998
 30
0.0
 40
3.0
  1
名
 41
0.833333
100
AcDbText
  0
TEXT
  5
2E9
330
6B
100
AcDbEntity
  8
0
 62
     3
100
AcDbText
 10
221.008934
 20
-498.2824114910271
 30
0.0
 40
3.0
  1
型
 41
0.833333
100
AcDbText
  0
TEXT
  5
2EA
330
6B
100
AcDbEntity
  8
0
 62
     3
100
AcDbText
 10
228.557025
 20
-498.2824114910271
 30
0.0
 40
3.0
  1
式
 41
0.833333
100
AcDbText
  0
LINE
  5
2EB
330
6B
100
AcDbEntity
  8
0
 62
     3
100
AcDbLine
 10
-71.64528799999998
 20
-381.924511
 30
0.0
 11
-74.243364
 21
-383.424511
 31
0.0
  0
LINE
  5
2EC
330
6B
100
AcDbEntity
  8
0
 62
     3
100
AcDbLine
 10
-71.64528799999998
 20
-381.924511
 30
0.0
 11
-74.243364
 21
-380.424511
 31
0.0
  0
LINE
  5
2ED
330
6B
100
AcDbEntity
  8
0
 62
     3
100
AcDbLine
 10
-74.243364
 20
-383.424511
 30
0.0
 11
-74.243364
 21
-380.424511
 31
0.0
  0
LINE
  5
2EE
330
6B
100
AcDbEntity
  8
0
 62
     3
100
AcDbLine
 10
-59.243364
 20
-248.424511
 30
0.0
 11
-59.243364
 21
-522.424511
 31
0.0
  0
LINE
  5
2EF
330
6B
100
AcDbEntity
  8
0
 62
     3
100
AcDbLine
 10
330.756636
 20
-522.424511
 30
0.0
 11
330.756636
 21
-248.424511
 31
0.0
  0
LINE
  5
2F0
330
6B
100
AcDbEntity
  8
0
 62
     3
100
AcDbLine
 10
-59.243364
 20
-248.424511
 30
0.0
 11
330.756636
 21
-248.424511
 31
0.0
  0
LINE
  5
2F1
330
6B
100
AcDbEntity
  8
0
 62
     3
100
AcDbLine
 10
330.756636
 20
-522.424511
 30
0.0
 11
-59.243364
 21
-522.424511
 31
0.0
  0
LINE
  5
2F4
330
6B
100
AcDbEntity
  8
0
 62
     3
100
AcDbLine
 10
330.756636
 20
-476.7587879999998
 30
0.0
 11
279.057273
 21
-476.7587879999998
 31
0.0
  0
TEXT
  5
2F5
330
6B
100
AcDbEntity
  8
0
 62
     3
100
AcDbText
 10
284.096524541394
 20
-481.9975599999998
 30
0.0
 40
4.5
  1
コード
  7
高4.5
100
AcDbText
  0
TEXT
  5
2F6
330
6B
100
AcDbEntity
  8
0
 62
     3
100
AcDbText
 10
310.6977877414625
 20
-482.055289
 30
0.0
 40
4.5
  1
8156
  7
高4.5
100
AcDbText
  0
TEXT
  5
32E
330
6B
100
AcDbEntity
  8
0
 62
     3
100
AcDbText
 10
318.256636
 20
-257.924511
 30
0.0
 40
3.2
  1
担　当
  7
高3.2
100
AcDbText
  0
TEXT
  5
32F
330
6B
100
AcDbEntity
  8
0
 62
     3
100
AcDbText
 10
274.256636
 20
-257.924511
 30
0.0
 40
3.2
  1
変更・追記内容
  7
高3.2
100
AcDbText
  0
TEXT
  5
330
330
6B
100
AcDbEntity
  8
0
 62
     3
100
AcDbText
 10
249.3701510003393
 20
-262.5950495099083
 30
0.0
 40
2.0
  1
1
  7
高2
100
AcDbText
  0
TEXT
  5
331
330
6B
100
AcDbEntity
  8
0
 62
     3
100
AcDbText
 10
249.061639523582
 20
-267.7648662221812
 30
0.0
 40
2.0
  1
2
  7
高2
100
AcDbText
  0
TEXT
  5
332
330
6B
100
AcDbEntity
  8
0
 62
     3
100
AcDbText
 10
256.256636
 20
-257.924511
 30
0.0
 40
3.2
  1
日　付
  7
高3.2
100
AcDbText
  0
TEXT
  5
333
330
6B
100
AcDbEntity
  8
0
 62
     3
100
AcDbText
 10
256.256636
 20
-252.924511
 30
0.0
 40
3.2
  1
図　　　　面　　　　略　　　　歴
  7
高3.2
100
AcDbText
  0
TEXT
  5
334
330
6B
100
AcDbEntity
  8
0
 62
     3
100
AcDbText
 10
246.256636
 20
-257.924511
 30
0.0
 40
3.2
  1
記号
  7
高3.2
100
AcDbText
  0
LINE
  5
335
330
6B
100
AcDbEntity
  8
0
100
AcDbLine
 10
249.756636
 20
-264.6336149999999
 30
0.0
 11
247.856636
 21
-267.924511
 31
0.0
  0
LINE
  5
336
330
6B
100
AcDbEntity
  8
0
100
AcDbLine
 10
249.756636
 20
-264.6336149999999
 30
0.0
 11
251.656636
 21
-267.924511
 31
0.0
  0
LINE
  5
337
330
6B
100
AcDbEntity
  8
0
100
AcDbLine
 10
247.856636
 20
-267.924511
 30
0.0
 11
251.656636
 21
-267.924511
 31
0.0
  0
LINE
  5
338
330
6B
100
AcDbEntity
  8
0
100
AcDbLine
 10
249.756636
 20
-259.6336139999999
 30
0.0
 11
247.856636
 21
-262.924511
 31
0.0
  0
LINE
  5
339
330
6B
100
AcDbEntity
  8
0
100
AcDbLine
 10
249.756636
 20
-259.6336139999999
 30
0.0
 11
251.656636
 21
-262.924511
 31
0.0
  0
LINE
  5
33A
330
6B
100
AcDbEntity
  8
0
100
AcDbLine
 10
247.856636
 20
-262.924511
 30
0.0
 11
251.656636
 21
-262.924511
 31
0.0
  0
LINE
  5
33B
330
6B
100
AcDbEntity
  8
0
 62
     3
100
AcDbLine
 10
244.756636
 20
-253.424511
 30
0.0
 11
330.756636
 21
-253.424511
 31
0.0
  0
LINE
  5
33C
330
6B
100
AcDbEntity
  8
0
 62
     3
100
AcDbLine
 10
244.756636
 20
-258.424511
 30
0.0
 11
330.756636
 21
-258.424511
 31
0.0
  0
LINE
  5
33D
330
6B
100
AcDbEntity
  8
0
 62
     7
100
AcDbLine
 10
244.756636
 20
-263.424511
 30
0.0
 11
330.756636
 21
-263.424511
 31
0.0
  0
LINE
  5
33E
330
6B
100
AcDbEntity
  8
0
 62
     3
100
AcDbLine
 10
244.756636
 20
-268.424511
 30
0.0
 11
330.756636
 21
-268.424511
 31
0.0
  0
LINE
  5
33F
330
6B
100
AcDbEntity
  8
0
 62
     7
100
AcDbLine
 10
316.7566359999999
 20
-268.424511
 30
0.0
 11
316.756636
 21
-253.424511
 31
0.0
  0
LINE
  5
340
330
6B
100
AcDbEntity
  8
0
 62
     7
100
AcDbLine
 10
272.756636
 20
-268.424511
 30
0.0
 11
272.756636
 21
-253.424511
 31
0.0
  0
LINE
  5
341
330
6B
100
AcDbEntity
  8
0
 62
     7
100
AcDbLine
 10
254.756636
 20
-268.424511
 30
0.0
 11
254.756636
 21
-253.424511
 31
0.0
  0
LINE
  5
342
330
6B
100
AcDbEntity
  8
0
 62
     3
100
AcDbLine
 10
244.756636
 20
-268.424511
 30
0.0
 11
244.756636
 21
-248.424511
 31
0.0
  0
TEXT
  5
635
330
6B
100
AcDbEntity
  8
0
  6
Continuous
100
AcDbText
 10
256.256636
 20
-262.924511
 30
0.0
 40
2.5
  1
'13.09.24
  7
高2.5
100
AcDbText
  0
TEXT
  5
636
330
6B
100
AcDbEntity
  8
0
  6
Continuous
100
AcDbText
 10
274.256636
 20
-262.924511
 30
0.0
 40
2.5
  1
蝶ボルト長さ変更 No.4513
  7
高2.5
100
AcDbText
  0
TEXT
  5
637
330
6B
100
AcDbEntity
  8
0
  6
Continuous
100
AcDbText
 10
318.256636
 20
-262.924511
 30
0.0
 40
2.5
  1
今村
  7
高2.5
100
AcDbText
  0
TEXT
  5
80F
330
6B
100
AcDbEntity
  8
0
  6
Continuous
 62
     3
100
AcDbText
 10
235.5838292822464
 20
-503.7758299467371
 30
0.0
 40
3.2
  1
鉄
  7
高3.2
100
AcDbText
  0
ARC
  5
A9A
330
6B
100
AcDbEntity
  8
0
 62
     3
100
AcDbCircle
 10
269.720994
 20
-364.745121
 30
0.0
 40
1.0
100
AcDbArc
 50
270.0
 51
0.0
  0
ARC
  5
A9B
330
6B
100
AcDbEntity
  8
0
 62
     3
100
AcDbCircle
 10
256.720994
 20
-364.745121
 30
0.0
 40
1.0
100
AcDbArc
 50
180.0
 51
270.0
  0
LINE
  5
A9C
330
6B
100
AcDbEntity
  8
0
 62
     3
100
AcDbLine
 10
258.220994
 20
-368.0915311615137
 30
0.0
 11
258.220994
 21
-395.3987108384863
 31
0.0
  0
LINE
  5
A9D
330
6B
100
AcDbEntity
  8
0
 62
     3
100
AcDbLine
 10
258.820994
 20
-365.745121
 30
0.0
 11
258.820994
 21
-367.745121
 31
0.0
  0
LINE
  5
A9E
330
6B
100
AcDbEntity
  8
0
 62
     7
100
AcDbLine
 10
258.820994
 20
-367.745121
 30
0.0
 11
258.820994
 21
-395.745121
 31
0.0
  0
LINE
  5
A9F
330
6B
100
AcDbEntity
  8
0
 62
     3
100
AcDbLine
 10
268.220994
 20
-395.3987108384863
 30
0.0
 11
268.220994
 21
-368.0915311615137
 31
0.0
  0
LINE
  5
AA0
330
6B
100
AcDbEntity
  8
0
 62
     7
100
AcDbLine
 10
267.6209940000001
 20
-395.745121
 30
0.0
 11
267.6209940000001
 21
-367.745121
 31
0.0
  0
LINE
  5
AA1
330
6B
100
AcDbEntity
  8
0
 62
     3
100
AcDbLine
 10
267.6209940000001
 20
-367.745121
 30
0.0
 11
267.6209940000001
 21
-365.745121
 31
0.0
  0
LINE
  5
AA2
330
6B
100
AcDbEntity
  8
0
 62
     3
100
AcDbLine
 10
269.8050656885527
 20
-361.745121
 30
0.0
 11
256.6369223114474
 21
-361.745121
 31
0.0
  0
SPLINE
  5
AA3
330
6B
100
AcDbEntity
  8
0
 62
     3
100
AcDbSpline
210
0.0
220
0.0
230
1.0
 70
     8
 71
     3
 72
     8
 73
     4
 74
     0
 42
0.0000000001
 43
0.0000000001
 40
0.0
 40
0.0
 40
0.0
 40
0.0
 40
1.0
 40
1.0
 40
1.0
 40
1.0
 10
269.8050656885527
 20
-361.745121
 30
0.0
 10
270.0459112777832
 20
-362.2448304407665
 30
0.0
 10
270.2860934255143
 20
-362.7448605583016
 30
0.0
 10
270.5257869471
 20
-363.245121
 30
0.0
  0
LINE
  5
AA4
330
6B
100
AcDbEntity
  8
0
 62
     3
100
AcDbLine
 10
270.5257869471
 20
-363.245121
 30
0.0
 11
255.9162010529002
 21
-363.245121
 31
0.0
  0
SPLINE
  5
AA5
330
6B
100
AcDbEntity
  8
0
 62
     3
100
AcDbSpline
210
0.0
220
0.0
230
1.0
 70
     8
 71
     3
 72
     8
 73
     4
 74
     0
 42
0.0000000001
 43
0.0000000001
 40
0.0
 40
0.0
 40
0.0
 40
0.0
 40
1.0
 40
1.0
 40
1.0
 40
1.0
 10
255.9162010529002
 20
-363.245121
 30
0.0
 10
256.1558946714395
 20
-362.7448603559511
 30
0.0
 10
256.3960779116662
 20
-362.2448279728821
 30
0.0
 10
256.6369223114474
 20
-361.745121
 30
0.0
  0
LINE
  5
AA6
330
6B
100
AcDbEntity
  8
0
 62
     3
100
AcDbLine
 10
270.5257869471
 20
-363.245121
 30
0.0
 11
270.5257869471
 21
-364.745121
 31
0.0
  0
LINE
  5
AA7
330
6B
100
AcDbEntity
  8
0
 62
     3
100
AcDbLine
 10
255.9162010529002
 20
-364.745121
 30
0.0
 11
255.9162010529002
 21
-363.245121
 31
0.0
  0
LINE
  5
AA8
330
6B
100
AcDbEntity
  8
0
 62
     3
100
AcDbLine
 10
269.720994
 20
-365.745121
 30
0.0
 11
256.720994
 21
-365.745121
 31
0.0
  0
LINE
  5
AA9
330
6B
100
AcDbEntity
  8
0
 62
     3
100
AcDbLine
 10
267.6209940000001
 20
-367.745121
 30
0.0
 11
258.820994
 21
-367.745121
 31
0.0
  0
LINE
  5
AAA
330
6B
100
AcDbEntity
  8
0
 62
     3
100
AcDbLine
 10
268.6615822034943
 20
-355.745121
 30
0.0
 11
257.7804057965059
 21
-355.745121
 31
0.0
  0
SPLINE
  5
AAB
330
6B
100
AcDbEntity
  8
0
 62
     3
100
AcDbSpline
210
0.0
220
0.0
230
1.0
 70
     8
 71
     3
 72
     8
 73
     4
 74
     0
 42
0.0000000001
 43
0.0000000001
 40
0.0
 40
0.0
 40
0.0
 40
0.0
 40
1.0
 40
1.0
 40
1.0
 40
1.0
 10
268.6615822034943
 20
-355.745121
 30
0.0
 10
269.0456256648695
 20
-357.7445682015193
 30
0.0
 10
269.4262883102442
 20
-359.7446685298519
 30
0.0
 10
269.8050656885527
 20
-361.745121
 30
0.0
  0
SPLINE
  5
AAC
330
6B
100
AcDbEntity
  8
0
 62
     3
100
AcDbSpline
210
0.0
220
0.0
230
1.0
 70
     8
 71
     3
 72
     8
 73
     4
 74
     0
 42
0.0000000001
 43
0.0000000001
 40
0.0
 40
0.0
 40
0.0
 40
0.0
 40
1.0
 40
1.0
 40
1.0
 40
1.0
 10
256.6369223114474
 20
-361.745121
 30
0.0
 10
257.0157002372614
 20
-359.7446656382883
 30
0.0
 10
257.3963629123225
 20
-357.7445651964823
 30
0.0
 10
257.7804057965059
 20
-355.745121
 30
0.0
  0
LINE
  5
AAD
330
6B
100
AcDbEntity
  8
0
 62
     3
100
AcDbLine
 10
258.820994
 20
-395.745121
 30
0.0
 11
267.6209940000001
 21
-395.745121
 31
0.0
  0
LINE
  5
AAE
330
6B
100
AcDbEntity
  8
0
 62
     3
100
AcDbLine
 10
258.5188668217966
 20
-355.745121
 30
0.0
 11
258.5188668217966
 21
-354.745121
 31
0.0
  0
LINE
  5
AAF
330
6B
100
AcDbEntity
  8
0
 62
     3
100
AcDbLine
 10
267.9231211782036
 20
-354.745121
 30
0.0
 11
258.5188668217966
 21
-354.745121
 31
0.0
  0
LINE
  5
AB0
330
6B
100
AcDbEntity
  8
0
 62
     3
100
AcDbLine
 10
267.9231211782036
 20
-354.745121
 30
0.0
 11
267.9231211782036
 21
-355.745121
 31
0.0
  0
ARC
  5
AB1
330
6B
100
AcDbEntity
  8
0
 62
     3
100
AcDbCircle
 10
278.120994
 20
-352.045121
 30
0.0
 40
6.500000000000006
100
AcDbArc
 50
308.8655890791768
 51
149.7440910399178
  0
LINE
  5
AB2
330
6B
100
AcDbEntity
  8
0
 62
     3
100
AcDbLine
 10
272.9956904694139
 20
-364.5237411526283
 30
0.0
 11
282.1997150369385
 21
-357.1061519920841
 31
0.0
  0
ARC
  5
AB3
330
6B
100
AcDbEntity
  8
0
 62
     3
100
AcDbCircle
 10
272.3681949252695
 20
-363.745121
 30
0.0
 40
1.000000000000023
100
AcDbArc
 50
270.0
 51
308.8655890791768
  0
LINE
  5
AB4
330
6B
100
AcDbEntity
  8
0
 62
     3
100
AcDbLine
 10
270.5257869471
 20
-364.745121
 30
0.0
 11
272.3681949252695
 21
-364.745121
 31
0.0
  0
LINE
  5
AB5
330
6B
100
AcDbEntity
  8
0
 62
     3
100
AcDbLine
 10
272.506400951046
 20
-348.770011094266
 30
0.0
 11
269.0209940000001
 21
-354.745121
 31
0.0
  0
LINE
  5
AB6
330
6B
100
AcDbEntity
  8
0
 62
     3
100
AcDbLine
 10
269.0209940000001
 20
-354.745121
 30
0.0
 11
267.9231211782036
 21
-354.745121
 31
0.0
  0
LINE
  5
AB7
330
6B
100
AcDbEntity
  8
0
 62
     3
100
AcDbLine
 10
254.0737930747306
 20
-364.745121
 30
0.0
 11
255.9162010529002
 21
-364.745121
 31
0.0
  0
LINE
  5
AB8
330
6B
100
AcDbEntity
  8
0
 62
     3
100
AcDbLine
 10
244.2422729630616
 20
-357.1061519920841
 30
0.0
 11
253.4462975305862
 21
-364.5237411526283
 31
0.0
  0
LINE
  5
AB9
330
6B
100
AcDbEntity
  8
0
 62
     3
100
AcDbLine
 10
257.4209940000001
 20
-354.745121
 30
0.0
 11
253.935587048954
 21
-348.770011094266
 31
0.0
  0
ARC
  5
ABA
330
6B
100
AcDbEntity
  8
0
 62
     3
100
AcDbCircle
 10
248.320994
 20
-352.045121
 30
0.0
 40
6.500000000000006
100
AcDbArc
 50
30.25590896008215
 51
231.1344109208231
  0
ARC
  5
ABB
330
6B
100
AcDbEntity
  8
0
 62
     3
100
AcDbCircle
 10
254.0737930747306
 20
-363.745121
 30
0.0
 40
1.00000000000004
100
AcDbArc
 50
231.1344109208231
 51
270.0
  0
LINE
  5
ABC
330
6B
100
AcDbEntity
  8
0
 62
     3
100
AcDbLine
 10
258.5188668217966
 20
-354.745121
 30
0.0
 11
257.4209940000001
 21
-354.745121
 31
0.0
  0
LINE
  5
ABD
330
6B
100
AcDbEntity
  8
0
 62
     3
100
AcDbLine
 10
267.6209940000001
 20
-367.745121
 30
0.0
 11
268.220994
 21
-368.0915311615137
 31
0.0
  0
LINE
  5
ABE
330
6B
100
AcDbEntity
  8
0
 62
     3
100
AcDbLine
 10
258.820994
 20
-395.745121
 30
0.0
 11
258.220994
 21
-395.3987108384863
 31
0.0
  0
LINE
  5
ABF
330
6B
100
AcDbEntity
  8
0
 62
     3
100
AcDbLine
 10
267.6209940000001
 20
-395.745121
 30
0.0
 11
268.220994
 21
-395.3987108384863
 31
0.0
  0
LINE
  5
AC0
330
6B
100
AcDbEntity
  8
0
 62
     3
100
AcDbLine
 10
258.820994
 20
-367.745121
 30
0.0
 11
258.220994
 21
-368.0915311615137
 31
0.0
  0
LINE
  5
AC1
330
6B
100
AcDbEntity
  8
0
 62
     7
100
AcDbLine
 10
268.220994
 20
-368.0915311615137
 30
0.0
 11
258.220994
 21
-368.0915311615137
 31
0.0
  0
LINE
  5
AC2
330
6B
100
AcDbEntity
  8
0
 62
     7
100
AcDbLine
 10
268.220994
 20
-395.3987108384863
 30
0.0
 11
258.220994
 21
-395.3987108384863
 31
0.0
  0
LINE
  5
B09
330
6B
100
AcDbEntity
  8
0
100
AcDbLine
 10
138.550109
 20
-402.010387
 30
0.0
 11
139.630267
 21
-400.243908
 31
0.0
  0
LINE
  5
B0A
330
6B
100
AcDbEntity
  8
0
100
AcDbLine
 10
139.630267
 20
-400.243908
 30
0.0
 11
137.811583
 21
-401.233645
 31
0.0
  0
LINE
  5
B0B
330
6B
100
AcDbEntity
  8
0
100
AcDbLine
 10
91.940086
 20
-484.4622659999999
 30
0.0
 11
91.940086
 21
-496.9403389999998
 31
0.0
  0
LINE
  5
B0C
330
6B
100
AcDbEntity
  8
0
100
AcDbLine
 10
181.940086
 20
-484.4622659999999
 30
0.0
 11
181.940086
 21
-496.9403389999998
 31
0.0
  0
LINE
  5
B0D
330
6B
100
AcDbEntity
  8
0
100
AcDbLine
 10
94.440086
 20
-495.6903389999998
 30
0.0
 11
179.440086
 21
-495.6903389999998
 31
0.0
  0
LINE
  5
B11
330
6B
100
AcDbEntity
  8
0
100
AcDbLine
 10
132.867637
 20
-319.233058
 30
0.0
 11
102.359894
 21
-319.233058
 31
0.0
  0
LINE
  5
B12
330
6B
100
AcDbEntity
  8
0
100
AcDbLine
 10
134.882356
 20
-301.233058
 30
0.0
 11
102.359894
 21
-301.233058
 31
0.0
  0
LINE
  5
B13
330
6B
100
AcDbEntity
  8
0
100
AcDbLine
 10
103.609894
 20
-316.733058
 30
0.0
 11
103.609894
 21
-303.733058
 31
0.0
  0
LINE
  5
B17
330
6B
100
AcDbEntity
  8
0
100
AcDbLine
 10
113.128178
 20
-342.983058
 30
0.0
 11
113.128178
 21
-280.425478
 31
0.0
  0
LINE
  5
B18
330
6B
100
AcDbEntity
  8
0
100
AcDbLine
 10
144.630267
 20
-300.983058
 30
0.0
 11
144.630267
 21
-280.425478
 31
0.0
  0
LINE
  5
B19
330
6B
100
AcDbEntity
  8
0
100
AcDbLine
 10
115.628178
 20
-281.675478
 30
0.0
 11
142.130267
 21
-281.675478
 31
0.0
  0
LINE
  5
B1D
330
6B
100
AcDbEntity
  8
0
100
AcDbLine
 10
144.630267
 20
-299.983058
 30
0.0
 11
144.630267
 21
-280.425478
 31
0.0
  0
LINE
  5
B1E
330
6B
100
AcDbEntity
  8
0
100
AcDbLine
 10
195.128178
 20
-352.983058
 30
0.0
 11
195.128178
 21
-280.425478
 31
0.0
  0
LINE
  5
B1F
330
6B
100
AcDbEntity
  8
0
100
AcDbLine
 10
147.130267
 20
-281.675478
 30
0.0
 11
192.628178
 21
-281.675478
 31
0.0
  0
LINE
  5
B23
330
6B
100
AcDbEntity
  8
0
100
AcDbLine
 10
139.128178
 20
-300.983058
 30
0.0
 11
139.128178
 21
-291.481285
 31
0.0
  0
LINE
  5
B24
330
6B
100
AcDbEntity
  8
0
100
AcDbLine
 10
150.128178
 20
-300.983058
 30
0.0
 11
150.128178
 21
-291.481285
 31
0.0
  0
LINE
  5
B25
330
6B
100
AcDbEntity
  8
0
100
AcDbLine
 10
136.628178
 20
-292.731285
 30
0.0
 11
134.128178
 21
-292.731285
 31
0.0
  0
LINE
  5
B26
330
6B
100
AcDbEntity
  8
0
100
AcDbLine
 10
152.628178
 20
-292.731285
 30
0.0
 11
176.678178
 21
-292.731285
 31
0.0
  0
LINE
  5
B27
330
6B
100
AcDbEntity
  8
0
100
AcDbLine
 10
139.128178
 20
-292.731285
 30
0.0
 11
150.128178
 21
-292.731285
 31
0.0
  0
LINE
  5
B2B
330
6B
100
AcDbEntity
  8
0
100
AcDbLine
 10
14.105958
 20
-487.233058
 30
0.0
 11
-7.945401000000023
 21
-487.233058
 31
0.0
  0
LINE
  5
B2C
330
6B
100
AcDbEntity
  8
0
100
AcDbLine
 10
7.105958
 20
-370.5511
 30
0.0
 11
-7.945400999999997
 21
-370.5511
 31
0.0
  0
LINE
  5
B2D
330
6B
100
AcDbEntity
  8
0
100
AcDbLine
 10
-6.695401000000022
 20
-484.733058
 30
0.0
 11
-6.695400999999997
 21
-373.0511
 31
0.0
  0
LINE
  5
B31
330
6B
100
AcDbEntity
  8
0
100
AcDbLine
 10
7.355958
 20
-318.983058
 30
0.0
 11
7.355958000000002
 21
-282.337453
 31
0.0
  0
LINE
  5
B32
330
6B
100
AcDbEntity
  8
0
100
AcDbLine
 10
31.355958
 20
-318.983058
 30
0.0
 11
31.35595800000001
 21
-282.337453
 31
0.0
  0
LINE
  5
B33
330
6B
100
AcDbEntity
  8
0
100
AcDbLine
 10
9.855958000000001
 20
-283.587453
 30
0.0
 11
28.85595800000001
 21
-283.587453
 31
0.0
  0
LINE
  5
B37
330
6B
100
AcDbEntity
  8
0
100
AcDbLine
 10
9.855957999999999
 20
-300.983058
 30
0.0
 11
9.855957999999999
 21
-290.21898
 31
0.0
  0
LINE
  5
B38
330
6B
100
AcDbEntity
  8
0
100
AcDbLine
 10
28.855958
 20
-300.983058
 30
0.0
 11
28.855958
 21
-290.21898
 31
0.0
  0
LINE
  5
B39
330
6B
100
AcDbEntity
  8
0
100
AcDbLine
 10
12.355958
 20
-291.46898
 30
0.0
 11
26.355958
 21
-291.46898
 31
0.0
  0
LINE
  5
B3D
330
6B
100
AcDbEntity
  8
0
100
AcDbLine
 10
126.852343
 20
-370.5511
 30
0.0
 11
102.359894
 21
-370.5511
 31
0.0
  0
LINE
  5
B3E
330
6B
100
AcDbEntity
  8
0
100
AcDbLine
 10
109.239469
 20
-349.233058
 30
0.0
 11
102.359894
 21
-349.233058
 31
0.0
  0
LINE
  5
B3F
330
6B
100
AcDbEntity
  8
0
100
AcDbLine
 10
103.609894
 20
-368.0511
 30
0.0
 11
103.609894
 21
-351.733058
 31
0.0
  0
LINE
  5
B43
330
6B
100
AcDbEntity
  8
0
100
AcDbLine
 10
114.190086
 20
-484.212266
 30
0.0
 11
111.9583189999999
 21
-484.212266
 31
0.0
  0
LINE
  5
B44
330
6B
100
AcDbEntity
  8
0
100
AcDbLine
 10
114.190086
 20
-478.2122659999997
 30
0.0
 11
111.958319
 21
-478.2122659999997
 31
0.0
  0
LINE
  5
B45
330
6B
100
AcDbEntity
  8
0
100
AcDbLine
 10
113.2083189999999
 20
-486.7122659999999
 30
0.0
 11
113.2083189999999
 21
-489.212266
 31
0.0
  0
LINE
  5
B46
330
6B
100
AcDbEntity
  8
0
100
AcDbLine
 10
113.208319
 20
-475.7122659999997
 30
0.0
 11
113.208319
 21
-466.9622659999997
 31
0.0
  0
LINE
  5
B47
330
6B
100
AcDbEntity
  8
0
100
AcDbLine
 10
113.2083189999999
 20
-484.212266
 30
0.0
 11
113.208319
 21
-478.2122659999997
 31
0.0
  0
LINE
  5
B4B
330
6B
100
AcDbEntity
  8
0
100
AcDbLine
 10
13.355958
 20
-486.483058
 30
0.0
 11
13.355958
 21
-500.6780909999998
 31
0.0
  0
LINE
  5
B4C
330
6B
100
AcDbEntity
  8
0
100
AcDbLine
 10
25.355958
 20
-486.483058
 30
0.0
 11
25.355958
 21
-500.6780909999998
 31
0.0
  0
LINE
  5
B4D
330
6B
100
AcDbEntity
  8
0
100
AcDbLine
 10
15.855958
 20
-499.4280909999998
 30
0.0
 11
22.855958
 21
-499.4280909999998
 31
0.0
  0
LINE
  5
B51
330
6B
100
AcDbEntity
  8
0
100
AcDbLine
 10
113.128178
 20
-344.983058
 30
0.0
 11
113.128178
 21
-270.507026
 31
0.0
  0
LINE
  5
B52
330
6B
100
AcDbEntity
  8
0
100
AcDbLine
 10
195.128178
 20
-352.983058
 30
0.0
 11
195.128178
 21
-270.507026
 31
0.0
  0
LINE
  5
B53
330
6B
100
AcDbEntity
  8
0
100
AcDbLine
 10
115.628178
 20
-271.757026
 30
0.0
 11
192.628178
 21
-271.757026
 31
0.0
  0
LINE
  5
B57
330
6B
100
AcDbEntity
  8
0
100
AcDbLine
 10
135.630267
 20
-345.483058
 30
0.0
 11
135.630267
 21
-358.8368680000002
 31
0.0
  0
LINE
  5
B58
330
6B
100
AcDbEntity
  8
0
100
AcDbLine
 10
153.630267
 20
-345.483058
 30
0.0
 11
153.630267
 21
-358.8368680000002
 31
0.0
  0
LINE
  5
B59
330
6B
100
AcDbEntity
  8
0
100
AcDbLine
 10
138.130267
 20
-357.5868680000001
 30
0.0
 11
151.130267
 21
-357.5868680000001
 31
0.0
  0
LINE
  5
B5D
330
6B
100
AcDbEntity
  8
0
100
AcDbLine
 10
137.378178
 20
-451.233058
 30
0.0
 11
82.28852299999996
 21
-451.2330579999999
 31
0.0
  0
LINE
  5
B5E
330
6B
100
AcDbEntity
  8
0
100
AcDbLine
 10
134.878178
 20
-301.233058
 30
0.0
 11
82.28852299999998
 21
-301.233058
 31
0.0
  0
LINE
  5
B5F
330
6B
100
AcDbEntity
  8
0
100
AcDbLine
 10
83.53852299999996
 20
-448.733058
 30
0.0
 11
83.53852299999998
 21
-303.733058
 31
0.0
  0
LINE
  5
B63
330
6B
100
AcDbEntity
  8
0
100
AcDbLine
 10
138.878178
 20
-432.233058
 30
0.0
 11
92.62659499999996
 21
-432.233058
 31
0.0
  0
LINE
  5
B64
330
6B
100
AcDbEntity
  8
0
100
AcDbLine
 10
126.852343
 20
-349.233058
 30
0.0
 11
92.62659499999999
 21
-349.233058
 31
0.0
  0
LINE
  5
B65
330
6B
100
AcDbEntity
  8
0
100
AcDbLine
 10
93.87659499999996
 20
-429.7330579999999
 30
0.0
 11
93.87659499999999
 21
-351.733058
 31
0.0
  0
LINE
  5
B69
330
6B
100
AcDbEntity
  8
0
100
AcDbLine
 10
136.378178
 20
-451.233058
 30
0.0
 11
92.62659499999999
 21
-451.2330579999999
 31
0.0
  0
LINE
  5
B6A
330
6B
100
AcDbEntity
  8
0
100
AcDbLine
 10
137.378178
 20
-432.233058
 30
0.0
 11
92.62659499999999
 21
-432.233058
 31
0.0
  0
LINE
  5
B6B
330
6B
100
AcDbEntity
  8
0
100
AcDbLine
 10
93.87659499999999
 20
-448.733058
 30
0.0
 11
93.87659499999999
 21
-434.7330579999999
 31
0.0
  0
TEXT
  5
B6F
330
6B
100
AcDbEntity
  8
0
  6
Continuous
 62
     4
100
AcDbText
 10
134.690086
 20
-495.0653389999998
 30
0.0
 40
3.0
  1
90
100
AcDbText
  0
LINE
  5
B70
330
6B
100
AcDbEntity
  8
0
  6
ByBlock
 62
     0
370
    -2
100
AcDbLine
 10
179.440086
 20
-495.0204664999998
 30
0.0
 11
181.940086
 21
-495.6903389999998
 31
0.0
  0
LINE
  5
B71
330
6B
100
AcDbEntity
  8
0
  6
ByBlock
 62
     0
370
    -2
100
AcDbLine
 10
181.940086
 20
-495.6903389999998
 30
0.0
 11
179.440086
 21
-496.3602114999998
 31
0.0
  0
LINE
  5
B72
330
6B
100
AcDbEntity
  8
0
  6
ByBlock
 62
     0
370
    -2
100
AcDbLine
 10
181.940086
 20
-495.6903389999998
 30
0.0
 11
179.440086
 21
-495.6903389999998
 31
0.0
  0
LINE
  5
B73
330
6B
100
AcDbEntity
  8
0
  6
ByBlock
 62
     0
370
    -2
100
AcDbLine
 10
94.440086
 20
-496.3602114999998
 30
0.0
 11
91.940086
 21
-495.6903389999998
 31
0.0
  0
LINE
  5
B74
330
6B
100
AcDbEntity
  8
0
  6
ByBlock
 62
     0
370
    -2
100
AcDbLine
 10
91.940086
 20
-495.6903389999998
 30
0.0
 11
94.440086
 21
-495.0204664999998
 31
0.0
  0
LINE
  5
B75
330
6B
100
AcDbEntity
  8
0
  6
ByBlock
 62
     0
370
    -2
100
AcDbLine
 10
91.940086
 20
-495.6903389999998
 30
0.0
 11
94.440086
 21
-495.6903389999998
 31
0.0
  0
TEXT
  5
B76
330
6B
100
AcDbEntity
  8
0
  6
Continuous
 62
     4
100
AcDbText
 10
102.984894
 20
-312.233058
 30
0.0
 40
3.0
  1
18
 50
90.0
100
AcDbText
  0
LINE
  5
B77
330
6B
100
AcDbEntity
  8
0
  6
ByBlock
 62
     0
370
    -2
100
AcDbLine
 10
102.9400215
 20
-303.733058
 30
0.0
 11
103.609894
 21
-301.233058
 31
0.0
  0
LINE
  5
B78
330
6B
100
AcDbEntity
  8
0
  6
ByBlock
 62
     0
370
    -2
100
AcDbLine
 10
103.609894
 20
-301.233058
 30
0.0
 11
104.2797665
 21
-303.733058
 31
0.0
  0
LINE
  5
B79
330
6B
100
AcDbEntity
  8
0
  6
ByBlock
 62
     0
370
    -2
100
AcDbLine
 10
103.609894
 20
-301.233058
 30
0.0
 11
103.609894
 21
-303.733058
 31
0.0
  0
LINE
  5
B7A
330
6B
100
AcDbEntity
  8
0
  6
ByBlock
 62
     0
370
    -2
100
AcDbLine
 10
104.2797665
 20
-316.733058
 30
0.0
 11
103.609894
 21
-319.233058
 31
0.0
  0
LINE
  5
B7B
330
6B
100
AcDbEntity
  8
0
  6
ByBlock
 62
     0
370
    -2
100
AcDbLine
 10
103.609894
 20
-319.233058
 30
0.0
 11
102.9400215
 21
-316.733058
 31
0.0
  0
LINE
  5
B7C
330
6B
100
AcDbEntity
  8
0
  6
ByBlock
 62
     0
370
    -2
100
AcDbLine
 10
103.609894
 20
-319.233058
 30
0.0
 11
103.609894
 21
-316.733058
 31
0.0
  0
TEXT
  5
B7D
330
6B
100
AcDbEntity
  8
0
  6
Continuous
 62
     4
100
AcDbText
 10
124.8792225
 20
-281.050478
 30
0.0
 40
3.0
  1
31.5
100
AcDbText
  0
LINE
  5
B7E
330
6B
100
AcDbEntity
  8
0
  6
ByBlock
 62
     0
370
    -2
100
AcDbLine
 10
142.130267
 20
-281.0056055
 30
0.0
 11
144.630267
 21
-281.675478
 31
0.0
  0
LINE
  5
B7F
330
6B
100
AcDbEntity
  8
0
  6
ByBlock
 62
     0
370
    -2
100
AcDbLine
 10
144.630267
 20
-281.675478
 30
0.0
 11
142.130267
 21
-282.3453505
 31
0.0
  0
LINE
  5
B80
330
6B
100
AcDbEntity
  8
0
  6
ByBlock
 62
     0
370
    -2
100
AcDbLine
 10
144.630267
 20
-281.675478
 30
0.0
 11
142.130267
 21
-281.675478
 31
0.0
  0
LINE
  5
B81
330
6B
100
AcDbEntity
  8
0
  6
ByBlock
 62
     0
370
    -2
100
AcDbLine
 10
115.628178
 20
-282.3453505
 30
0.0
 11
113.128178
 21
-281.675478
 31
0.0
  0
LINE
  5
B82
330
6B
100
AcDbEntity
  8
0
  6
ByBlock
 62
     0
370
    -2
100
AcDbLine
 10
113.128178
 20
-281.675478
 30
0.0
 11
115.628178
 21
-281.0056055
 31
0.0
  0
LINE
  5
B83
330
6B
100
AcDbEntity
  8
0
  6
ByBlock
 62
     0
370
    -2
100
AcDbLine
 10
113.128178
 20
-281.675478
 30
0.0
 11
115.628178
 21
-281.675478
 31
0.0
  0
TEXT
  5
B84
330
6B
100
AcDbEntity
  8
0
  6
Continuous
 62
     4
100
AcDbText
 10
165.6292225
 20
-281.050478
 30
0.0
 40
3.0
  1
50.5
100
AcDbText
  0
LINE
  5
B85
330
6B
100
AcDbEntity
  8
0
  6
ByBlock
 62
     0
370
    -2
100
AcDbLine
 10
192.628178
 20
-281.0056055
 30
0.0
 11
195.128178
 21
-281.675478
 31
0.0
  0
LINE
  5
B86
330
6B
100
AcDbEntity
  8
0
  6
ByBlock
 62
     0
370
    -2
100
AcDbLine
 10
195.128178
 20
-281.675478
 30
0.0
 11
192.628178
 21
-282.3453505
 31
0.0
  0
LINE
  5
B87
330
6B
100
AcDbEntity
  8
0
  6
ByBlock
 62
     0
370
    -2
100
AcDbLine
 10
195.128178
 20
-281.675478
 30
0.0
 11
192.628178
 21
-281.675478
 31
0.0
  0
LINE
  5
B88
330
6B
100
AcDbEntity
  8
0
  6
ByBlock
 62
     0
370
    -2
100
AcDbLine
 10
147.130267
 20
-282.3453505
 30
0.0
 11
144.630267
 21
-281.675478
 31
0.0
  0
LINE
  5
B89
330
6B
100
AcDbEntity
  8
0
  6
ByBlock
 62
     0
370
    -2
100
AcDbLine
 10
144.630267
 20
-281.675478
 30
0.0
 11
147.130267
 21
-281.0056055
 31
0.0
  0
LINE
  5
B8A
330
6B
100
AcDbEntity
  8
0
  6
ByBlock
 62
     0
370
    -2
100
AcDbLine
 10
144.630267
 20
-281.675478
 30
0.0
 11
147.130267
 21
-281.675478
 31
0.0
  0
TEXT
  5
B8B
330
6B
100
AcDbEntity
  8
0
  6
Continuous
 62
     4
100
AcDbText
 10
155.753178
 20
-292.106285
 30
0.0
 40
3.0
  1
M10 P=1.5
100
AcDbText
  0
LINE
  5
B8C
330
6B
100
AcDbEntity
  8
0
  6
ByBlock
 62
     0
370
    -2
100
AcDbLine
 10
152.628178
 20
-293.4011575
 30
0.0
 11
150.128178
 21
-292.731285
 31
0.0
  0
LINE
  5
B8D
330
6B
100
AcDbEntity
  8
0
  6
ByBlock
 62
     0
370
    -2
100
AcDbLine
 10
150.128178
 20
-292.731285
 30
0.0
 11
152.628178
 21
-292.0614125
 31
0.0
  0
LINE
  5
B8E
330
6B
100
AcDbEntity
  8
0
  6
ByBlock
 62
     0
370
    -2
100
AcDbLine
 10
150.128178
 20
-292.731285
 30
0.0
 11
152.628178
 21
-292.731285
 31
0.0
  0
LINE
  5
B8F
330
6B
100
AcDbEntity
  8
0
  6
ByBlock
 62
     0
370
    -2
100
AcDbLine
 10
136.628178
 20
-292.0614125
 30
0.0
 11
139.128178
 21
-292.731285
 31
0.0
  0
LINE
  5
B90
330
6B
100
AcDbEntity
  8
0
  6
ByBlock
 62
     0
370
    -2
100
AcDbLine
 10
139.128178
 20
-292.731285
 30
0.0
 11
136.628178
 21
-293.4011575
 31
0.0
  0
LINE
  5
B91
330
6B
100
AcDbEntity
  8
0
  6
ByBlock
 62
     0
370
    -2
100
AcDbLine
 10
139.128178
 20
-292.731285
 30
0.0
 11
136.628178
 21
-292.731285
 31
0.0
  0
TEXT
  5
B92
330
6B
100
AcDbEntity
  8
0
  6
Continuous
 62
     4
100
AcDbText
 10
-7.320400999999941
 20
-431.8920789999999
 30
0.0
 40
3.0
  1
116
 50
90.0
100
AcDbText
  0
LINE
  5
B93
330
6B
100
AcDbEntity
  8
0
  6
ByBlock
 62
     0
370
    -2
100
AcDbLine
 10
-7.365273499999998
 20
-373.0511
 30
0.0
 11
-6.695400999999997
 21
-370.5511
 31
0.0
  0
LINE
  5
B94
330
6B
100
AcDbEntity
  8
0
  6
ByBlock
 62
     0
370
    -2
100
AcDbLine
 10
-6.695400999999997
 20
-370.5511
 30
0.0
 11
-6.025528499999998
 21
-373.0511
 31
0.0
  0
LINE
  5
B95
330
6B
100
AcDbEntity
  8
0
  6
ByBlock
 62
     0
370
    -2
100
AcDbLine
 10
-6.695400999999997
 20
-370.5511
 30
0.0
 11
-6.695400999999997
 21
-373.0511
 31
0.0
  0
LINE
  5
B96
330
6B
100
AcDbEntity
  8
0
  6
ByBlock
 62
     0
370
    -2
100
AcDbLine
 10
-6.025528500000023
 20
-484.733058
 30
0.0
 11
-6.695401000000023
 21
-487.233058
 31
0.0
  0
LINE
  5
B97
330
6B
100
AcDbEntity
  8
0
  6
ByBlock
 62
     0
370
    -2
100
AcDbLine
 10
-6.695401000000023
 20
-487.233058
 30
0.0
 11
-7.365273500000022
 21
-484.733058
 31
0.0
  0
LINE
  5
B98
330
6B
100
AcDbEntity
  8
0
  6
ByBlock
 62
     0
370
    -2
100
AcDbLine
 10
-6.695401000000023
 20
-487.233058
 30
0.0
 11
-6.695401000000022
 21
-484.733058
 31
0.0
  0
TEXT
  5
B99
330
6B
100
AcDbEntity
  8
0
  6
Continuous
 62
     4
100
AcDbText
 10
16.855958
 20
-282.962453
 30
0.0
 40
3.0
  1
24
100
AcDbText
  0
LINE
  5
B9A
330
6B
100
AcDbEntity
  8
0
  6
ByBlock
 62
     0
370
    -2
100
AcDbLine
 10
28.85595800000001
 20
-282.9175805
 30
0.0
 11
31.35595800000001
 21
-283.587453
 31
0.0
  0
LINE
  5
B9B
330
6B
100
AcDbEntity
  8
0
  6
ByBlock
 62
     0
370
    -2
100
AcDbLine
 10
31.35595800000001
 20
-283.587453
 30
0.0
 11
28.85595800000001
 21
-284.2573255
 31
0.0
  0
LINE
  5
B9C
330
6B
100
AcDbEntity
  8
0
  6
ByBlock
 62
     0
370
    -2
100
AcDbLine
 10
31.35595800000001
 20
-283.587453
 30
0.0
 11
28.85595800000001
 21
-283.587453
 31
0.0
  0
LINE
  5
B9D
330
6B
100
AcDbEntity
  8
0
  6
ByBlock
 62
     0
370
    -2
100
AcDbLine
 10
9.855958000000001
 20
-284.2573255
 30
0.0
 11
7.355958000000001
 21
-283.587453
 31
0.0
  0
LINE
  5
B9E
330
6B
100
AcDbEntity
  8
0
  6
ByBlock
 62
     0
370
    -2
100
AcDbLine
 10
7.355958000000001
 20
-283.587453
 30
0.0
 11
9.855958000000001
 21
-282.9175805
 31
0.0
  0
LINE
  5
B9F
330
6B
100
AcDbEntity
  8
0
  6
ByBlock
 62
     0
370
    -2
100
AcDbLine
 10
7.355958000000001
 20
-283.587453
 30
0.0
 11
9.855958000000001
 21
-283.587453
 31
0.0
  0
TEXT
  5
BA0
330
6B
100
AcDbEntity
  8
0
  6
Continuous
 62
     4
100
AcDbText
 10
15.855958
 20
-290.84398
 30
0.0
 40
3.0
  1
\U+220519
100
AcDbText
  0
LINE
  5
BA1
330
6B
100
AcDbEntity
  8
0
  6
ByBlock
 62
     0
370
    -2
100
AcDbLine
 10
26.355958
 20
-290.7991075
 30
0.0
 11
28.855958
 21
-291.46898
 31
0.0
  0
LINE
  5
BA2
330
6B
100
AcDbEntity
  8
0
  6
ByBlock
 62
     0
370
    -2
100
AcDbLine
 10
28.855958
 20
-291.46898
 30
0.0
 11
26.355958
 21
-292.1388525
 31
0.0
  0
LINE
  5
BA3
330
6B
100
AcDbEntity
  8
0
  6
ByBlock
 62
     0
370
    -2
100
AcDbLine
 10
28.855958
 20
-291.46898
 30
0.0
 11
26.355958
 21
-291.46898
 31
0.0
  0
LINE
  5
BA4
330
6B
100
AcDbEntity
  8
0
  6
ByBlock
 62
     0
370
    -2
100
AcDbLine
 10
12.355958
 20
-292.1388525
 30
0.0
 11
9.855957999999999
 21
-291.46898
 31
0.0
  0
LINE
  5
BA5
330
6B
100
AcDbEntity
  8
0
  6
ByBlock
 62
     0
370
    -2
100
AcDbLine
 10
9.855957999999999
 20
-291.46898
 30
0.0
 11
12.355958
 21
-290.7991075
 31
0.0
  0
LINE
  5
BA6
330
6B
100
AcDbEntity
  8
0
  6
ByBlock
 62
     0
370
    -2
100
AcDbLine
 10
9.855957999999999
 20
-291.46898
 30
0.0
 11
12.355958
 21
-291.46898
 31
0.0
  0
TEXT
  5
BA7
330
6B
100
AcDbEntity
  8
0
  6
Continuous
 62
     4
100
AcDbText
 10
102.984894
 20
-365.7420790000001
 30
0.0
 40
3.0
  1
有効70
 50
90.0
100
AcDbText
  0
LINE
  5
BA8
330
6B
100
AcDbEntity
  8
0
  6
ByBlock
 62
     0
370
    -2
100
AcDbLine
 10
102.9400215
 20
-351.733058
 30
0.0
 11
103.609894
 21
-349.233058
 31
0.0
  0
LINE
  5
BA9
330
6B
100
AcDbEntity
  8
0
  6
ByBlock
 62
     0
370
    -2
100
AcDbLine
 10
103.609894
 20
-349.233058
 30
0.0
 11
104.2797665
 21
-351.733058
 31
0.0
  0
LINE
  5
BAA
330
6B
100
AcDbEntity
  8
0
  6
ByBlock
 62
     0
370
    -2
100
AcDbLine
 10
103.609894
 20
-349.233058
 30
0.0
 11
103.609894
 21
-351.733058
 31
0.0
  0
LINE
  5
BAB
330
6B
100
AcDbEntity
  8
0
  6
ByBlock
 62
     0
370
    -2
100
AcDbLine
 10
104.2797664999999
 20
-368.0511
 30
0.0
 11
103.609894
 21
-370.5511
 31
0.0
  0
LINE
  5
BAC
330
6B
100
AcDbEntity
  8
0
  6
ByBlock
 62
     0
370
    -2
100
AcDbLine
 10
103.609894
 20
-370.5511
 30
0.0
 11
102.9400215
 21
-368.0511
 31
0.0
  0
LINE
  5
BAD
330
6B
100
AcDbEntity
  8
0
  6
ByBlock
 62
     0
370
    -2
100
AcDbLine
 10
103.609894
 20
-370.5511
 30
0.0
 11
103.609894
 21
-368.0511
 31
0.0
  0
TEXT
  5
BAE
330
6B
100
AcDbEntity
  8
0
  6
Continuous
 62
     4
100
AcDbText
 10
112.583319
 20
-472.5872659999997
 30
0.0
 40
3.0
  1
\U+22056
 50
90.0
100
AcDbText
  0
LINE
  5
BAF
330
6B
100
AcDbEntity
  8
0
  6
ByBlock
 62
     0
370
    -2
100
AcDbLine
 10
113.8781915
 20
-475.7122659999997
 30
0.0
 11
113.208319
 21
-478.2122659999997
 31
0.0
  0
LINE
  5
BB0
330
6B
100
AcDbEntity
  8
0
  6
ByBlock
 62
     0
370
    -2
100
AcDbLine
 10
113.208319
 20
-478.2122659999997
 30
0.0
 11
112.5384465
 21
-475.7122659999997
 31
0.0
  0
LINE
  5
BB1
330
6B
100
AcDbEntity
  8
0
  6
ByBlock
 62
     0
370
    -2
100
AcDbLine
 10
113.208319
 20
-478.2122659999997
 30
0.0
 11
113.208319
 21
-475.7122659999997
 31
0.0
  0
LINE
  5
BB2
330
6B
100
AcDbEntity
  8
0
  6
ByBlock
 62
     0
370
    -2
100
AcDbLine
 10
112.5384465
 20
-486.7122659999999
 30
0.0
 11
113.2083189999999
 21
-484.212266
 31
0.0
  0
LINE
  5
BB3
330
6B
100
AcDbEntity
  8
0
  6
ByBlock
 62
     0
370
    -2
100
AcDbLine
 10
113.2083189999999
 20
-484.212266
 30
0.0
 11
113.8781915
 21
-486.7122659999999
 31
0.0
  0
LINE
  5
BB4
330
6B
100
AcDbEntity
  8
0
  6
ByBlock
 62
     0
370
    -2
100
AcDbLine
 10
113.2083189999999
 20
-484.212266
 30
0.0
 11
113.2083189999999
 21
-486.7122659999999
 31
0.0
  0
TEXT
  5
BB5
330
6B
100
AcDbEntity
  8
0
  6
Continuous
 62
     4
100
AcDbText
 10
15.855958
 20
-498.8030909999998
 30
0.0
 40
3.0
  1
\U+220512
100
AcDbText
  0
LINE
  5
BB6
330
6B
100
AcDbEntity
  8
0
  6
ByBlock
 62
     0
370
    -2
100
AcDbLine
 10
22.855958
 20
-498.7582184999998
 30
0.0
 11
25.355958
 21
-499.4280909999998
 31
0.0
  0
LINE
  5
BB7
330
6B
100
AcDbEntity
  8
0
  6
ByBlock
 62
     0
370
    -2
100
AcDbLine
 10
25.355958
 20
-499.4280909999998
 30
0.0
 11
22.855958
 21
-500.0979634999998
 31
0.0
  0
LINE
  5
BB8
330
6B
100
AcDbEntity
  8
0
  6
ByBlock
 62
     0
370
    -2
100
AcDbLine
 10
25.355958
 20
-499.4280909999998
 30
0.0
 11
22.855958
 21
-499.4280909999998
 31
0.0
  0
LINE
  5
BB9
330
6B
100
AcDbEntity
  8
0
  6
ByBlock
 62
     0
370
    -2
100
AcDbLine
 10
15.855958
 20
-500.0979634999998
 30
0.0
 11
13.355958
 21
-499.4280909999998
 31
0.0
  0
LINE
  5
BBA
330
6B
100
AcDbEntity
  8
0
  6
ByBlock
 62
     0
370
    -2
100
AcDbLine
 10
13.355958
 20
-499.4280909999998
 30
0.0
 11
15.855958
 21
-498.7582184999998
 31
0.0
  0
LINE
  5
BBB
330
6B
100
AcDbEntity
  8
0
  6
ByBlock
 62
     0
370
    -2
100
AcDbLine
 10
13.355958
 20
-499.4280909999998
 30
0.0
 11
15.855958
 21
-499.4280909999998
 31
0.0
  0
TEXT
  5
BBC
330
6B
100
AcDbEntity
  8
0
  6
Continuous
 62
     4
100
AcDbText
 10
151.628178
 20
-271.132026
 30
0.0
 40
3.0
  1
82
100
AcDbText
  0
LINE
  5
BBD
330
6B
100
AcDbEntity
  8
0
  6
ByBlock
 62
     0
370
    -2
100
AcDbLine
 10
192.628178
 20
-271.0871535
 30
0.0
 11
195.128178
 21
-271.757026
 31
0.0
  0
LINE
  5
BBE
330
6B
100
AcDbEntity
  8
0
  6
ByBlock
 62
     0
370
    -2
100
AcDbLine
 10
195.128178
 20
-271.757026
 30
0.0
 11
192.628178
 21
-272.4268985
 31
0.0
  0
LINE
  5
BBF
330
6B
100
AcDbEntity
  8
0
  6
ByBlock
 62
     0
370
    -2
100
AcDbLine
 10
195.128178
 20
-271.757026
 30
0.0
 11
192.628178
 21
-271.757026
 31
0.0
  0
LINE
  5
BC0
330
6B
100
AcDbEntity
  8
0
  6
ByBlock
 62
     0
370
    -2
100
AcDbLine
 10
115.628178
 20
-272.4268985
 30
0.0
 11
113.128178
 21
-271.757026
 31
0.0
  0
LINE
  5
BC1
330
6B
100
AcDbEntity
  8
0
  6
ByBlock
 62
     0
370
    -2
100
AcDbLine
 10
113.128178
 20
-271.757026
 30
0.0
 11
115.628178
 21
-271.0871535
 31
0.0
  0
LINE
  5
BC2
330
6B
100
AcDbEntity
  8
0
  6
ByBlock
 62
     0
370
    -2
100
AcDbLine
 10
113.128178
 20
-271.757026
 30
0.0
 11
115.628178
 21
-271.757026
 31
0.0
  0
TEXT
  5
BC3
330
6B
100
AcDbEntity
  8
0
  6
Continuous
 62
     4
100
AcDbText
 10
142.630267
 20
-356.9618680000001
 30
0.0
 40
3.0
  1
18
100
AcDbText
  0
LINE
  5
BC4
330
6B
100
AcDbEntity
  8
0
  6
ByBlock
 62
     0
370
    -2
100
AcDbLine
 10
151.130267
 20
-356.9169955000002
 30
0.0
 11
153.630267
 21
-357.5868680000001
 31
0.0
  0
LINE
  5
BC5
330
6B
100
AcDbEntity
  8
0
  6
ByBlock
 62
     0
370
    -2
100
AcDbLine
 10
153.630267
 20
-357.5868680000001
 30
0.0
 11
151.130267
 21
-358.2567405000002
 31
0.0
  0
LINE
  5
BC6
330
6B
100
AcDbEntity
  8
0
  6
ByBlock
 62
     0
370
    -2
100
AcDbLine
 10
153.630267
 20
-357.5868680000001
 30
0.0
 11
151.130267
 21
-357.5868680000001
 31
0.0
  0
LINE
  5
BC7
330
6B
100
AcDbEntity
  8
0
  6
ByBlock
 62
     0
370
    -2
100
AcDbLine
 10
138.130267
 20
-358.2567405000002
 30
0.0
 11
135.630267
 21
-357.5868680000001
 31
0.0
  0
LINE
  5
BC8
330
6B
100
AcDbEntity
  8
0
  6
ByBlock
 62
     0
370
    -2
100
AcDbLine
 10
135.630267
 20
-357.5868680000001
 30
0.0
 11
138.130267
 21
-356.9169955000002
 31
0.0
  0
LINE
  5
BC9
330
6B
100
AcDbEntity
  8
0
  6
ByBlock
 62
     0
370
    -2
100
AcDbLine
 10
135.630267
 20
-357.5868680000001
 30
0.0
 11
138.130267
 21
-357.5868680000001
 31
0.0
  0
TEXT
  5
BCA
330
6B
100
AcDbEntity
  8
0
  6
Continuous
 62
     4
100
AcDbText
 10
82.91352300000003
 20
-379.483058
 30
0.0
 40
3.0
  1
150
 50
90.0
100
AcDbText
  0
LINE
  5
BCB
330
6B
100
AcDbEntity
  8
0
  6
ByBlock
 62
     0
370
    -2
100
AcDbLine
 10
82.86865049999999
 20
-303.733058
 30
0.0
 11
83.53852299999998
 21
-301.233058
 31
0.0
  0
LINE
  5
BCC
330
6B
100
AcDbEntity
  8
0
  6
ByBlock
 62
     0
370
    -2
100
AcDbLine
 10
83.53852299999998
 20
-301.233058
 30
0.0
 11
84.20839549999998
 21
-303.733058
 31
0.0
  0
LINE
  5
BCD
330
6B
100
AcDbEntity
  8
0
  6
ByBlock
 62
     0
370
    -2
100
AcDbLine
 10
83.53852299999998
 20
-301.233058
 30
0.0
 11
83.53852299999998
 21
-303.733058
 31
0.0
  0
LINE
  5
BCE
330
6B
100
AcDbEntity
  8
0
  6
ByBlock
 62
     0
370
    -2
100
AcDbLine
 10
84.20839549999994
 20
-448.733058
 30
0.0
 11
83.53852299999996
 21
-451.2330579999999
 31
0.0
  0
LINE
  5
BCF
330
6B
100
AcDbEntity
  8
0
  6
ByBlock
 62
     0
370
    -2
100
AcDbLine
 10
83.53852299999996
 20
-451.2330579999999
 30
0.0
 11
82.86865049999995
 21
-448.733058
 31
0.0
  0
LINE
  5
BD0
330
6B
100
AcDbEntity
  8
0
  6
ByBlock
 62
     0
370
    -2
100
AcDbLine
 10
83.53852299999996
 20
-451.2330579999999
 30
0.0
 11
83.53852299999996
 21
-448.733058
 31
0.0
  0
TEXT
  5
BD1
330
6B
100
AcDbEntity
  8
0
  6
Continuous
 62
     4
100
AcDbText
 10
93.25159500000003
 20
-393.233058
 30
0.0
 40
3.0
  1
83
 50
90.0
100
AcDbText
  0
LINE
  5
BD2
330
6B
100
AcDbEntity
  8
0
  6
ByBlock
 62
     0
370
    -2
100
AcDbLine
 10
93.20672249999999
 20
-351.733058
 30
0.0
 11
93.87659499999999
 21
-349.233058
 31
0.0
  0
LINE
  5
BD3
330
6B
100
AcDbEntity
  8
0
  6
ByBlock
 62
     0
370
    -2
100
AcDbLine
 10
93.87659499999999
 20
-349.233058
 30
0.0
 11
94.5464675
 21
-351.733058
 31
0.0
  0
LINE
  5
BD4
330
6B
100
AcDbEntity
  8
0
  6
ByBlock
 62
     0
370
    -2
100
AcDbLine
 10
93.87659499999999
 20
-349.233058
 30
0.0
 11
93.87659499999999
 21
-351.733058
 31
0.0
  0
LINE
  5
BD5
330
6B
100
AcDbEntity
  8
0
  6
ByBlock
 62
     0
370
    -2
100
AcDbLine
 10
94.54646749999996
 20
-429.7330579999999
 30
0.0
 11
93.87659499999996
 21
-432.233058
 31
0.0
  0
LINE
  5
BD6
330
6B
100
AcDbEntity
  8
0
  6
ByBlock
 62
     0
370
    -2
100
AcDbLine
 10
93.87659499999996
 20
-432.233058
 30
0.0
 11
93.20672249999997
 21
-429.7330579999999
 31
0.0
  0
LINE
  5
BD7
330
6B
100
AcDbEntity
  8
0
  6
ByBlock
 62
     0
370
    -2
100
AcDbLine
 10
93.87659499999996
 20
-432.233058
 30
0.0
 11
93.87659499999996
 21
-429.7330579999999
 31
0.0
  0
TEXT
  5
BD8
330
6B
100
AcDbEntity
  8
0
  6
Continuous
 62
     4
100
AcDbText
 10
93.25159500000006
 20
-443.733058
 30
0.0
 40
3.0
  1
19
 50
90.0
100
AcDbText
  0
LINE
  5
BD9
330
6B
100
AcDbEntity
  8
0
  6
ByBlock
 62
     0
370
    -2
100
AcDbLine
 10
93.20672249999999
 20
-434.7330579999999
 30
0.0
 11
93.87659499999999
 21
-432.233058
 31
0.0
  0
LINE
  5
BDA
330
6B
100
AcDbEntity
  8
0
  6
ByBlock
 62
     0
370
    -2
100
AcDbLine
 10
93.87659499999999
 20
-432.233058
 30
0.0
 11
94.5464675
 21
-434.7330579999999
 31
0.0
  0
LINE
  5
BDB
330
6B
100
AcDbEntity
  8
0
  6
ByBlock
 62
     0
370
    -2
100
AcDbLine
 10
93.87659499999999
 20
-432.233058
 30
0.0
 11
93.87659499999999
 21
-434.7330579999999
 31
0.0
  0
LINE
  5
BDC
330
6B
100
AcDbEntity
  8
0
  6
ByBlock
 62
     0
370
    -2
100
AcDbLine
 10
94.5464675
 20
-448.733058
 30
0.0
 11
93.87659499999999
 21
-451.2330579999999
 31
0.0
  0
LINE
  5
BDD
330
6B
100
AcDbEntity
  8
0
  6
ByBlock
 62
     0
370
    -2
100
AcDbLine
 10
93.87659499999999
 20
-451.2330579999999
 30
0.0
 11
93.20672249999999
 21
-448.733058
 31
0.0
  0
LINE
  5
BDE
330
6B
100
AcDbEntity
  8
0
  6
ByBlock
 62
     0
370
    -2
100
AcDbLine
 10
93.87659499999999
 20
-451.2330579999999
 30
0.0
 11
93.87659499999999
 21
-448.733058
 31
0.0
  0
ENDSEC
  0
SECTION
  2
OBJECTS
  0
DICTIONARY
  5
C
330
0
100
AcDbDictionary
281
     1
  3
ACAD_2007HEADERVARS_RT
350
BE2
  3
ACAD_COLOR
350
62
  3
ACAD_GROUP
350
D
  3
ACAD_LAYOUT
350
61
  3
ACAD_MATERIAL
350
10
  3
ACAD_MLEADERSTYLE
350
65
  3
ACAD_MLINESTYLE
350
5E
  3
ACAD_PLOTSETTINGS
350
60
  3
ACAD_PLOTSTYLENAME
350
E
  3
ACAD_SCALELIST
350
42
  3
ACAD_TABLESTYLE
350
63
  3
ACAD_VISUALSTYLE
350
29
  3
ACDB_RECOMPOSE_DATA
350
BE0
  3
AcDbVariableDictionary
350
6D6
  3
DWGPROPS
350
BE1
  0
DICTIONARY
  5
30D
330
2
100
AcDbDictionary
280
     1
281
     1
  3
ACAD_LAYERSTATES
360
30E
  0
DICTIONARY
  5
6D4
330
54
100
AcDbDictionary
280
     1
281
     1
  3
ADSK_XREC_LAYER_RECONCILED
360
6D5
  0
DICTIONARY
  5
633
330
6B
100
AcDbDictionary
280
     1
281
     1
  3
ACAD_SORTENTS
360
634
  0
DICTIONARY
  5
BE2
102
{ACAD_REACTORS
330
C
102
}
330
C
100
AcDbDictionary
281
     1
  3
DIMARCSYM
350
BE4
  3
DIMFXL
350
BE3
  3
DIMJOGANG
350
BE5
  0
DICTIONARY
  5
62
102
{ACAD_REACTORS
330
C
102
}
330
C
100
AcDbDictionary
281
     1
  0
DICTIONARY
  5
D
102
{ACAD_REACTORS
330
C
102
}
330
C
100
AcDbDictionary
281
     1
  0
DICTIONARY
  5
61
102
{ACAD_REACTORS
330
C
102
}
330
C
100
AcDbDictionary
281
     1
  3
Model
350
6E
  3
レイアウト1
350
6A
  0
DICTIONARY
  5
10
102
{ACAD_REACTORS
330
C
102
}
330
C
100
AcDbDictionary
281
     1
  3
ByBlock
350
19
  3
ByLayer
350
11
  3
Global
350
21
  0
DICTIONARY
  5
65
102
{ACAD_REACTORS
330
C
102
}
330
C
100
AcDbDictionary
281
     1
  3
Standard
350
66
  0
DICTIONARY
  5
5E
102
{ACAD_REACTORS
330
C
102
}
330
C
100
AcDbDictionary
281
     1
  3
Standard
350
5F
  0
DICTIONARY
  5
60
102
{ACAD_REACTORS
330
C
102
}
330
C
100
AcDbDictionary
281
     1
  0
ACDBDICTIONARYWDFLT
  5
E
102
{ACAD_REACTORS
330
C
102
}
330
C
100
AcDbDictionary
281
     1
  3
Normal
350
F
100
AcDbDictionaryWithDefault
340
F
  0
DICTIONARY
  5
42
102
{ACAD_REACTORS
330
C
102
}
330
C
100
AcDbDictionary
281
     1
  3
A0
350
43
  3
A1
350
44
  3
A2
350
45
  3
A3
350
46
  3
A4
350
47
  3
A5
350
48
  3
A6
350
49
  3
A7
350
4A
  3
A8
350
4B
  3
A9
350
4C
  3
B0
350
4D
  3
B1
350
4E
  3
B2
350
4F
  3
B3
350
50
  3
B4
350
51
  3
B5
350
52
  3
B6
350
53
  0
DICTIONARY
  5
63
102
{ACAD_REACTORS
330
C
102
}
330
C
100
AcDbDictionary
281
     1
  3
Standard
350
64
  0
DICTIONARY
  5
29
102
{ACAD_REACTORS
330
C
102
}
330
C
100
AcDbDictionary
281
     1
  3
2dWireframe
350
2F
  3
3D Hidden
350
931
  3
3dWireframe
350
30A
  3
Basic
350
2E
  3
Brighten
350
35
  3
ColorChange
350
39
  3
Conceptual
350
32
  3
Dim
350
34
  3
EdgeColorOff
350
41
  3
Facepattern
350
38
  3
Flat
350
2A
  3
FlatWithEdges
350
2B
  3
Gouraud
350
2C
  3
GouraudWithEdges
350
2D
  3
Hidden
350
31
  3
JitterOff
350
3F
  3
Linepattern
350
37
  3
OverhangOff
350
40
  3
Realistic
350
33
  3
Shaded
350
3E
  3
Shaded with edges
350
3D
  3
Shades of Gray
350
3A
  3
Sketchy
350
3B
  3
Thicken
350
36
  3
Wireframe
350
30
  3
X-Ray
350
3C
  0
XRECORD
  5
BE0
102
{ACAD_REACTORS
330
C
102
}
330
C
100
AcDbXrecord
280
     1
 90
        1
330
64
  0
DICTIONARY
  5
6D6
102
{ACAD_REACTORS
330
C
102
}
330
C
100
AcDbDictionary
281
     1
  3
CANNOSCALE
350
6D9
  3
CMLEADERSTYLE
350
6D8
  3
CTABLESTYLE
350
6D7
  3
DIMASSOC
350
6DC
  3
INDEXCTL
350
6DB
  3
SORTENTS
350
6DA
  3
XCLIPFRAME
350
AC8
  0
XRECORD
  5
BE1
102
{ACAD_REACTORS
330
C
102
}
330
C
100
AcDbXrecord
280
     1
  1
DWGPROPS COOKIE
  2

  3

  4

  6

  7

  8
kaiha
  9

300
=
301
=
302
=
303
=
304
=
305
=
306
=
307
=
308
=
309
=
 40
0.0498689583333333
 41
2456561.871405671
 42
2458151.682862709
  1

 90
        0
  0
DICTIONARY
  5
30E
102
{ACAD_REACTORS
330
30D
102
}
330
30D
100
AcDbDictionary
281
     1
  0
XRECORD
  5
6D5
102
{ACAD_REACTORS
330
6D4
102
}
330
6D4
100
AcDbXrecord
280
     1
290
     1
  0
SORTENTSTABLE
  5
634
102
{ACAD_REACTORS
330
633
102
}
330
633
100
AcDbSortentsTable
330
6B
331
2DC
  5
B84
331
29D
  5
B57
331
266
  5
B28
331
227
  5
AA6
331
2D8
  5
B80
331
262
  5
B24
331
223
  5
AA2
331
2D4
  5
B7C
331
25E
  5
B20
331
21F
  5
A9E
331
2D0
  5
B78
331
291
  5
B53
331
25A
  5
B1C
331
21B
  5
A9A
331
341
  5
BB0
331
AA5
  5
BC1
331
AA1
  5
BBD
331
A9D
  5
BB9
331
80F
  5
BB5
331
BD6
  5
19C
331
B97
  5
246
331
B1D
  5
258
331
B93
  5
248
331
BD2
  5
1A1
331
33F
  5
BAE
331
BCE
  5
1CF
331
B8F
  5
251
331
1ED
  5
2E5
331
B19
  5
264
331
B58
  5
1DD
331
33B
  5
BAA
331
BCA
  5
1DB
331
1E9
  5
2E1
331
B8B
  5
257
331
1E5
  5
2DD
331
B11
  5
26C
331
1E1
  5
2D9
331
1A2
  5
2AD
331
28D
  5
B4F
331
256
  5
B18
331
217
  5
635
331
289
  5
B4B
331
252
  5
B14
331
213
  5
340
331
2C4
  5
B76
331
285
  5
B47
331
24E
  5
B10
331
20F
  5
33C
331
2C0
  5
B74
331
281
  5
B43
331
24A
  5
B0C
331
20B
  5
338
331
337
  5
BA6
331
BC6
  5
1EA
331
B87
  5
260
331
333
  5
BA2
331
BC2
  5
1F7
331
B83
  5
267
331
B0D
  5
278
331
B4C
  5
203
331
32F
  5
B9E
331
BBE
  5
1FC
331
B09
  5
ABB
331
B7F
  5
269
331
1DD
  5
2D5
331
19E
  5
2A9
331
B7B
  5
270
331
BBA
  5
20D
331
1D9
  5
2D1
331
B44
  5
214
331
19A
  5
2A5
331
1D5
  5
2C1
331
196
  5
294
331
1D1
  5
2BD
331
192
  5
290
331
2BC
  5
B70
331
27D
  5
B3F
331
246
  5
AC2
331
2B8
  5
B6C
331
279
  5
B3B
331
242
  5
ABE
331
203
  5
334
331
2B4
  5
B68
331
275
  5
B37
331
1FF
  5
330
331
271
  5
B33
331
23A
  5
AB9
331
1FB
  5
2F5
331
AC0
  5
BDC
331
ABC
  5
BD8
331
AB8
  5
BD4
331
B77
  5
272
331
BB6
  5
20F
331
B73
  5
279
331
BB2
  5
218
331
2EF
  5
B97
331
BAE
  5
21E
331
B6F
  5
27F
331
1CD
  5
2B9
331
B38
  5
22A
331
18E
  5
28C
331
2EB
  5
B93
331
BAA
  5
227
331
1C9
  5
2B5
331
18A
  5
288
331
B6B
  5
184
331
186
  5
284
331
182
  5
280
331
2AC
  5
B62
331
236
  5
AB5
331
2E7
  5
B8F
331
2A8
  5
B5E
331
232
  5
AB1
331
2E3
  5
B8B
331
2A4
  5
B5A
331
26D
  5
B2F
331
22E
  5
AAD
331
2A0
  5
B58
331
269
  5
B2B
331
22A
  5
AA9
331
AB4
  5
BD0
331
AB0
  5
BCC
331
AAC
  5
BC8
331
AA8
  5
BC4
331
BA6
  5
22E
331
B2C
  5
243
331
BA2
  5
230
331
B9E
  5
237
331
BDD
  5
189
331
B9A
  5
239
331
BD9
  5
18E
331
B24
  5
24D
331
B63
  5
195
331
1F4
  5
2EC
331
1F0
  5
2E8
331
2DF
  5
B87
331
2DB
  5
B83
331
265
  5
B27
331
226
  5
AA5
331
2D7
  5
B7F
331
261
  5
B23
331
222
  5
AA1
331
2D3
  5
B7B
331
294
  5
B56
331
25D
  5
B1F
331
21E
  5
A9D
331
290
  5
B52
331
259
  5
B1B
331
637
  5
BB4
331
21A
  5
80F
331
340
  5
BAF
331
AA4
  5
BC0
331
AA0
  5
BBC
331
A9C
  5
BB8
331
B96
  5
245
331
BD5
  5
19B
331
B5F
  5
1CB
331
B92
  5
24B
331
BD1
  5
1C8
331
33E
  5
BAD
331
BCD
  5
1D7
331
B8E
  5
256
331
1EC
  5
2E4
331
B18
  5
263
331
B57
  5
1DC
331
33A
  5
BA9
331
BC9
  5
1E7
331
B8A
  5
25D
331
1E8
  5
2E0
331
B53
  5
1F1
331
1E4
  5
2DC
331
1E0
  5
2D8
331
1A1
  5
2AC
331
28C
  5
B4E
331
255
  5
B17
331
216
  5
530
331
288
  5
B4A
331
251
  5
B13
331
212
  5
33F
331
284
  5
B46
331
24D
  5
B0F
331
20E
  5
33B
331
280
  5
B42
331
249
  5
B0B
331
336
  5
BA5
331
BC5
  5
1E9
331
B86
  5
25F
331
332
  5
BA1
331
BC1
  5
1F6
331
B82
  5
266
331
B0C
  5
277
331
B4B
  5
202
331
32E
  5
B9D
331
BBD
  5
1FB
331
B7E
  5
268
331
1DC
  5
2D4
331
B47
  5
217
331
19D
  5
2A8
331
B7A
  5
26F
331
BB9
  5
20C
331
1D8
  5
2CB
331
B43
  5
213
331
199
  5
2A3
331
1D4
  5
2C0
331
195
  5
293
331
1D0
  5
2BC
331
191
  5
28F
331
2BF
  5
B73
331
2BB
  5
B6F
331
27C
  5
B3E
331
245
  5
AC1
331
206
  5
337
331
2B7
  5
B6B
331
278
  5
B3A
331
241
  5
ABD
331
202
  5
333
331
2B3
  5
B67
331
274
  5
B36
331
1FE
  5
32F
331
270
  5
B32
331
239
  5
AB8
331
1FA
  5
2F2
331
ABF
  5
BDB
331
ABB
  5
BD7
331
2F6
  5
B9C
331
BB5
  5
212
331
B76
  5
275
331
B3F
  5
221
331
B72
  5
27E
331
BB1
  5
21D
331
2EE
  5
B96
331
BAD
  5
224
331
1CC
  5
2B8
331
B37
  5
229
331
18D
  5
28B
331
2EA
  5
B92
331
BA9
  5
226
331
1C8
  5
2B4
331
B33
  5
235
331
189
  5
287
331
B6A
  5
183
331
185
  5
283
331
2AF
  5
B65
331
2AB
  5
B61
331
235
  5
AB4
331
2E6
  5
B8E
331
2A7
  5
B5D
331
231
  5
AB0
331
2E2
  5
B8A
331
26C
  5
B2E
331
22D
  5
AAC
331
268
  5
B2A
331
229
  5
AA8
331
AB7
  5
BD3
331
AB3
  5
BCF
331
AAF
  5
BCB
331
AAB
  5
BC7
331
BA5
  5
22D
331
B2B
  5
242
331
BA1
  5
22F
331
B27
  5
250
331
B9D
  5
236
331
BDC
  5
188
331
1F7
  5
2EF
331
B23
  5
24C
331
B99
  5
241
331
BD8
  5
194
331
1F3
  5
2EB
331
2DE
  5
B86
331
2DA
  5
B82
331
264
  5
B26
331
225
  5
AA4
331
2D6
  5
B7E
331
260
  5
B22
331
221
  5
AA0
331
2D2
  5
B7A
331
293
  5
B55
331
25C
  5
B1E
331
21D
  5
A9C
331
258
  5
B1A
331
636
  5
BB3
331
219
  5
637
331
AA7
  5
BC3
331
AA3
  5
BBF
331
A9F
  5
BBB
331
A9B
  5
BB7
331
B95
  5
24A
331
BD4
  5
1C7
331
B1F
  5
25A
331
B5E
  5
1CA
331
1EF
  5
2E7
331
B91
  5
253
331
BD0
  5
1D1
331
33D
  5
BAC
331
BCC
  5
1D6
331
1EB
  5
2E3
331
B17
  5
262
331
B8D
  5
255
331
339
  5
BA8
331
BC8
  5
1E3
331
B89
  5
25C
331
1E7
  5
2DF
331
B13
  5
26E
331
B52
  5
1F0
331
1E3
  5
2DB
331
1A4
  5
2AF
331
1A0
  5
2AB
331
28F
  5
B51
331
2CA
  5
B77
331
28B
  5
B4D
331
254
  5
B16
331
215
  5
342
331
287
  5
B49
331
250
  5
B12
331
211
  5
33E
331
2C2
  5
B75
331
283
  5
B45
331
24C
  5
B0E
331
20D
  5
33A
331
248
  5
B0A
331
335
  5
BA4
331
BC4
  5
1E8
331
B85
  5
25E
331
331
  5
BA0
331
BC0
  5
1F5
331
1DF
  5
2D7
331
B0B
  5
276
331
B81
  5
265
331
B7D
  5
26B
331
BBC
  5
201
331
1DB
  5
2D3
331
B46
  5
216
331
19C
  5
2A7
331
1D7
  5
2C5
331
B79
  5
274
331
BB8
  5
211
331
198
  5
2A1
331
1D3
  5
2BF
331
194
  5
292
331
190
  5
28E
331
2BE
  5
B72
331
27F
  5
B41
331
2BA
  5
B6E
331
27B
  5
B3D
331
244
  5
AC0
331
205
  5
336
331
2B6
  5
B6A
331
277
  5
B39
331
201
  5
332
331
273
  5
B35
331
1FD
  5
32C
331
238
  5
AB7
331
1F9
  5
2F1
331
AC2
  5
BDE
331
ABE
  5
BDA
331
ABA
  5
BD6
331
2F5
  5
B9B
331
BB4
  5
21A
331
B75
  5
27B
331
B3E
  5
220
331
2F1
  5
B99
331
BB0
  5
21C
331
1CF
  5
2BB
331
B71
  5
27D
331
2ED
  5
B95
331
BAC
  5
223
331
1CB
  5
2B7
331
18C
  5
28A
331
2E9
  5
B91
331
BA8
  5
225
331
1C7
  5
2B2
331
B32
  5
234
331
188
  5
286
331
B69
  5
182
331
184
  5
282
331
2AE
  5
B64
331
2AA
  5
B60
331
234
  5
AB3
331
2E5
  5
B8D
331
2A6
  5
B5C
331
26F
  5
B31
331
230
  5
AAF
331
2E1
  5
B89
331
2A2
  5
B59
331
26B
  5
B2D
331
22C
  5
AAB
331
228
  5
AA7
331
AB6
  5
BD2
331
AB2
  5
BCE
331
AAE
  5
BCA
331
AAA
  5
BC6
331
BA4
  5
22C
331
BA0
  5
232
331
B9C
  5
23B
331
BDB
  5
190
331
B26
  5
24F
331
B65
  5
19A
331
1F6
  5
2EE
331
B98
  5
247
331
1F2
  5
2EA
331
2DD
  5
B85
331
267
  5
B29
331
2D9
  5
B81
331
263
  5
B25
331
224
  5
AA3
331
2D5
  5
B7D
331
25F
  5
B21
331
220
  5
A9F
331
2D1
  5
B79
331
292
  5
B54
331
25B
  5
B1D
331
21C
  5
A9B
331
635
  5
BB2
331
342
  5
BB1
331
218
  5
636
331
AA6
  5
BC2
331
AA2
  5
BBE
331
A9E
  5
BBA
331
A9A
  5
BB6
331
BD7
  5
1A0
331
B94
  5
249
331
BD3
  5
1A2
331
B1E
  5
259
331
B5D
  5
1C9
331
B90
  5
252
331
BCF
  5
1D0
331
1EE
  5
2E6
331
B59
  5
1E1
331
33C
  5
BAB
331
BCB
  5
1D5
331
1EA
  5
2E2
331
B8C
  5
254
331
338
  5
BA7
331
B88
  5
25B
331
1E6
  5
2DE
331
B12
  5
26D
331
B51
  5
1EF
331
1E2
  5
2DA
331
1A3
  5
2AE
331
28E
  5
B50
331
257
  5
B19
331
28A
  5
B4C
331
253
  5
B15
331
214
  5
341
331
286
  5
B48
331
24F
  5
B11
331
210
  5
33D
331
282
  5
B44
331
24B
  5
B0D
331
20C
  5
339
331
BC7
  5
1E2
331
334
  5
BA3
331
BC3
  5
1EB
331
B84
  5
261
331
B4D
  5
20B
331
330
  5
B9F
331
BBF
  5
1FD
331
B0A
  5
ABC
331
B80
  5
26A
331
1DE
  5
2D6
331
19F
  5
2AA
331
B7C
  5
271
331
BBB
  5
20E
331
1DA
  5
2D2
331
B45
  5
215
331
19B
  5
2A6
331
1D6
  5
2C3
331
B78
  5
273
331
197
  5
29E
331
1D2
  5
2BE
331
193
  5
291
331
2BD
  5
B71
331
27E
  5
B40
331
247
  5
B09
331
2B9
  5
B6D
331
27A
  5
B3C
331
243
  5
ABF
331
204
  5
335
331
2B5
  5
B69
331
276
  5
B38
331
200
  5
331
331
2B1
  5
B66
331
272
  5
B34
331
23B
  5
ABA
331
1FC
  5
2F6
331
1F8
  5
2F0
331
AC1
  5
BDD
331
ABD
  5
BD9
331
AB9
  5
BD5
331
BB7
  5
210
331
2F4
  5
B9A
331
BB3
  5
219
331
B74
  5
27A
331
B3D
  5
21F
331
2F0
  5
B98
331
BAF
  5
21B
331
B70
  5
27C
331
1CE
  5
2BA
331
B39
  5
22B
331
18F
  5
28D
331
2EC
  5
B94
331
BAB
  5
222
331
1CA
  5
2B6
331
18B
  5
289
331
2E8
  5
B90
331
1C6
  5
2B0
331
B31
  5
233
331
187
  5
285
331
183
  5
281
331
2AD
  5
B63
331
237
  5
AB6
331
2A9
  5
B5F
331
233
  5
AB2
331
2E4
  5
B8C
331
2A5
  5
B5B
331
26E
  5
B30
331
22F
  5
AAE
331
2E0
  5
B88
331
26A
  5
B2C
331
22B
  5
AAA
331
AB5
  5
BD1
331
AB1
  5
BCD
331
AAD
  5
BC9
331
AA9
  5
BC5
331
BA7
  5
228
331
B2D
  5
244
331
BA3
  5
231
331
B9F
  5
238
331
BDE
  5
18A
331
B9B
  5
23A
331
BDA
  5
18F
331
B25
  5
24E
331
B64
  5
196
331
1F5
  5
2ED
331
1F1
  5
2E9
  0
XRECORD
  5
BE4
102
{ACAD_REACTORS
330
BE2
102
}
330
BE2
100
AcDbXrecord
280
     1
 70
     2
  0
XRECORD
  5
BE3
102
{ACAD_REACTORS
330
BE2
102
}
330
BE2
100
AcDbXrecord
280
     1
 40
1.25
  0
XRECORD
  5
BE5
102
{ACAD_REACTORS
330
BE2
102
}
330
BE2
100
AcDbXrecord
280
     1
 40
1.570796326794896
  0
LAYOUT
  5
6E
102
{ACAD_XDICTIONARY
360
C19
102
}
102
{ACAD_REACTORS
330
61
102
}
330
61
100
AcDbPlotSettings
  1

  2
none_device
  4
Letter_(8.50_x_11.00_Inches)
  6

 40
6.349999904632567
 41
6.349999904632567
 42
6.350006103515625
 43
6.350006103515625
 44
215.8999938964844
 45
279.3999938964844
 46
0.0
 47
0.0
 48
0.0
 49
0.0
140
0.0
141
0.0
142
1.0
143
56.70359267574196
 70
 11952
 72
     0
 73
     1
 74
     0
  7

 75
     0
147
0.0176355668629054
148
2663.52515613132
149
14994.96040847149
100
AcDbLayout
  1
Model
 70
     1
 71
     0
 10
0.0
 20
0.0
 11
12.0
 21
9.0
 12
0.0
 22
0.0
 32
0.0
 14
0.0
 24
0.0
 34
0.0
 15
0.0
 25
0.0
 35
0.0
146
0.0
 13
0.0
 23
0.0
 33
0.0
 16
1.0
 26
0.0
 36
0.0
 17
0.0
 27
1.0
 37
0.0
 76
     0
330
6B
331
8B
1001
ACAD_PSEXT
1000
なし
1000
なし
1000
適切ではありません
1000
新しいプロッタ環境設定名を選択しない限り、レイアウトは印刷されません。
1070
     0
  0
LAYOUT
  5
6A
102
{ACAD_XDICTIONARY
360
C17
102
}
102
{ACAD_REACTORS
330
61
102
}
330
61
100
AcDbPlotSettings
  1

  2
FX DP 205
  4

  6

 40
0.0
 41
0.0
 42
0.0
 43
0.0
 44
0.0
 45
0.0
 46
0.0
 47
0.0
 48
0.0
 49
0.0
140
0.0
141
0.0
142
1.0
143
1.0
 70
   688
 72
     0
 73
     0
 74
     5
  7

 75
    16
147
1.0
148
0.0
149
0.0
100
AcDbLayout
  1
レイアウト1
 70
     1
 71
     1
 10
0.0
 20
0.0
 11
12.0
 21
9.0
 12
0.0
 22
0.0
 32
0.0
 14
1.000000000000000E+20
 24
1.000000000000000E+20
 34
1.000000000000000E+20
 15
-1.000000000000000E+20
 25
-1.000000000000000E+20
 35
-1.000000000000000E+20
146
0.0
 13
0.0
 23
0.0
 33
0.0
 16
1.0
 26
0.0
 36
0.0
 17
0.0
 27
1.0
 37
0.0
 76
     0
330
67
  0
MATERIAL
  5
19
102
{ACAD_XDICTIONARY
360
1A
102
}
102
{ACAD_REACTORS
330
10
102
}
330
10
100
AcDbMaterial
  1
ByBlock
 72
     0
 43
0.0208333333333333
 43
0.0
 43
0.0
 43
0.0
 43
0.0
 43
0.0208333333333333
 43
0.0
 43
0.0
 43
0.0
 43
0.0
 43
1.0
 43
0.0
 43
0.0
 43
0.0
 43
0.0
 43
1.0
 77
     0
 47
0.0208333333333333
 47
0.0
 47
0.0
 47
0.0
 47
0.0
 47
0.0208333333333333
 47
0.0
 47
0.0
 47
0.0
 47
0.0
 47
1.0
 47
0.0
 47
0.0
 47
0.0
 47
0.0
 47
1.0
171
     0
 49
0.0208333333333333
 49
0.0
 49
0.0
 49
0.0
 49
0.0
 49
0.0208333333333333
 49
0.0
 49
0.0
 49
0.0
 49
0.0
 49
1.0
 49
0.0
 49
0.0
 49
0.0
 49
0.0
 49
1.0
175
     0
142
0.0208333333333333
142
0.0
142
0.0
142
0.0
142
0.0
142
0.0208333333333333
142
0.0
142
0.0
142
0.0
142
0.0
142
1.0
142
0.0
142
0.0
142
0.0
142
0.0
142
1.0
179
     0
144
0.0208333333333333
144
0.0
144
0.0
144
0.0
144
0.0
144
0.0208333333333333
144
0.0
144
0.0
144
0.0
144
0.0
144
1.0
144
0.0
144
0.0
144
0.0
144
0.0
144
1.0
147
0.0208333333333333
147
0.0
147
0.0
147
0.0
147
0.0
147
0.0208333333333333
147
0.0
147
0.0
147
0.0
147
0.0
147
1.0
147
0.0
147
0.0
147
0.0
147
0.0
147
1.0
  0
MATERIAL
  5
11
102
{ACAD_XDICTIONARY
360
12
102
}
102
{ACAD_REACTORS
330
10
102
}
330
10
100
AcDbMaterial
  1
ByLayer
 72
     0
 43
0.0208333333333333
 43
0.0
 43
0.0
 43
0.0
 43
0.0
 43
0.0208333333333333
 43
0.0
 43
0.0
 43
0.0
 43
0.0
 43
1.0
 43
0.0
 43
0.0
 43
0.0
 43
0.0
 43
1.0
 77
     0
 47
0.0208333333333333
 47
0.0
 47
0.0
 47
0.0
 47
0.0
 47
0.0208333333333333
 47
0.0
 47
0.0
 47
0.0
 47
0.0
 47
1.0
 47
0.0
 47
0.0
 47
0.0
 47
0.0
 47
1.0
171
     0
 49
0.0208333333333333
 49
0.0
 49
0.0
 49
0.0
 49
0.0
 49
0.0208333333333333
 49
0.0
 49
0.0
 49
0.0
 49
0.0
 49
1.0
 49
0.0
 49
0.0
 49
0.0
 49
0.0
 49
1.0
175
     0
142
0.0208333333333333
142
0.0
142
0.0
142
0.0
142
0.0
142
0.0208333333333333
142
0.0
142
0.0
142
0.0
142
0.0
142
1.0
142
0.0
142
0.0
142
0.0
142
0.0
142
1.0
179
     0
144
0.0208333333333333
144
0.0
144
0.0
144
0.0
144
0.0
144
0.0208333333333333
144
0.0
144
0.0
144
0.0
144
0.0
144
1.0
144
0.0
144
0.0
144
0.0
144
0.0
144
1.0
147
0.0208333333333333
147
0.0
147
0.0
147
0.0
147
0.0
147
0.0208333333333333
147
0.0
147
0.0
147
0.0
147
0.0
147
1.0
147
0.0
147
0.0
147
0.0
147
0.0
147
1.0
  0
MATERIAL
  5
21
102
{ACAD_XDICTIONARY
360
22
102
}
102
{ACAD_REACTORS
330
10
102
}
330
10
100
AcDbMaterial
  1
Global
 72
     0
 43
0.0208333333333333
 43
0.0
 43
0.0
 43
0.0
 43
0.0
 43
0.0208333333333333
 43
0.0
 43
0.0
 43
0.0
 43
0.0
 43
1.0
 43
0.0
 43
0.0
 43
0.0
 43
0.0
 43
1.0
 77
     0
 47
0.0208333333333333
 47
0.0
 47
0.0
 47
0.0
 47
0.0
 47
0.0208333333333333
 47
0.0
 47
0.0
 47
0.0
 47
0.0
 47
1.0
 47
0.0
 47
0.0
 47
0.0
 47
0.0
 47
1.0
171
     0
 49
0.0208333333333333
 49
0.0
 49
0.0
 49
0.0
 49
0.0
 49
0.0208333333333333
 49
0.0
 49
0.0
 49
0.0
 49
0.0
 49
1.0
 49
0.0
 49
0.0
 49
0.0
 49
0.0
 49
1.0
175
     0
142
0.0208333333333333
142
0.0
142
0.0
142
0.0
142
0.0
142
0.0208333333333333
142
0.0
142
0.0
142
0.0
142
0.0
142
1.0
142
0.0
142
0.0
142
0.0
142
0.0
142
1.0
179
     0
144
0.0208333333333333
144
0.0
144
0.0
144
0.0
144
0.0
144
0.0208333333333333
144
0.0
144
0.0
144
0.0
144
0.0
144
1.0
144
0.0
144
0.0
144
0.0
144
0.0
144
1.0
147
0.0208333333333333
147
0.0
147
0.0
147
0.0
147
0.0
147
0.0208333333333333
147
0.0
147
0.0
147
0.0
147
0.0
147
1.0
147
0.0
147
0.0
147
0.0
147
0.0
147
1.0
  0
MLEADERSTYLE
  5
66
102
{ACAD_REACTORS
330
65
102
}
330
65
100
AcDbMLeaderStyle
170
     2
171
     1
172
     0
 90
        2
 40
0.0
 41
0.0
173
     1
 91
-1056964608
340
5A
 92
       -2
290
     1
 42
0.09
291
     1
 43
0.36
  3
Standard
 44
0.18
300

342
55
174
     1
178
     6
175
     1
176
     0
 93
-1056964608
 45
0.18
292
     0
297
     0
 46
0.18
 94
-1056964608
 47
1.0
 49
1.0
140
1.0
293
     1
141
0.0
294
     1
177
     0
142
1.0
295
     0
296
     0
143
0.125
1001
ACAD
1000
AcRTDxfName
1000
MLEADERSTYLE
1001
ACAD_MLEADERVER
1070
     2
  0
MLINESTYLE
  5
5F
102
{ACAD_REACTORS
330
5E
102
}
330
5E
100
AcDbMlineStyle
  2
STANDARD
 70
     0
  3

 62
   256
 51
90.0
 52
90.0
 71
     2
 49
0.5
 62
   256
  6
BYLAYER
 49
-0.5
 62
   256
  6
BYLAYER
  0
ACDBPLACEHOLDER
  5
F
102
{ACAD_REACTORS
330
E
102
}
330
E
  0
SCALE
  5
43
102
{ACAD_REACTORS
330
42
102
}
330
42
100
AcDbScale
 70
     0
300
1:1
140
1.0
141
1.0
290
     1
1001
ACAD
1000
AcRTDxfName
1000
SCALE
  0
SCALE
  5
44
102
{ACAD_REACTORS
330
42
102
}
330
42
100
AcDbScale
 70
     0
300
1/128" = 1'-0"
140
0.0078125
141
12.0
290
     0
1001
ACAD
1000
AcRTDxfName
1000
SCALE
  0
SCALE
  5
45
102
{ACAD_REACTORS
330
42
102
}
330
42
100
AcDbScale
 70
     0
300
1/64" = 1'-0"
140
0.015625
141
12.0
290
     0
1001
ACAD
1000
AcRTDxfName
1000
SCALE
  0
SCALE
  5
46
102
{ACAD_REACTORS
330
42
102
}
330
42
100
AcDbScale
 70
     0
300
1/32" = 1'-0"
140
0.03125
141
12.0
290
     0
1001
ACAD
1000
AcRTDxfName
1000
SCALE
  0
SCALE
  5
47
102
{ACAD_REACTORS
330
42
102
}
330
42
100
AcDbScale
 70
     0
300
1/16" = 1'-0"
140
0.0625
141
12.0
290
     0
1001
ACAD
1000
AcRTDxfName
1000
SCALE
  0
SCALE
  5
48
102
{ACAD_REACTORS
330
42
102
}
330
42
100
AcDbScale
 70
     0
300
3/32" = 1'-0"
140
0.09375
141
12.0
290
     0
1001
ACAD
1000
AcRTDxfName
1000
SCALE
  0
SCALE
  5
49
102
{ACAD_REACTORS
330
42
102
}
330
42
100
AcDbScale
 70
     0
300
1/8" = 1'-0"
140
0.125
141
12.0
290
     0
1001
ACAD
1000
AcRTDxfName
1000
SCALE
  0
SCALE
  5
4A
102
{ACAD_REACTORS
330
42
102
}
330
42
100
AcDbScale
 70
     0
300
3/16" = 1'-0"
140
0.1875
141
12.0
290
     0
1001
ACAD
1000
AcRTDxfName
1000
SCALE
  0
SCALE
  5
4B
102
{ACAD_REACTORS
330
42
102
}
330
42
100
AcDbScale
 70
     0
300
1/4" = 1'-0"
140
0.25
141
12.0
290
     0
1001
ACAD
1000
AcRTDxfName
1000
SCALE
  0
SCALE
  5
4C
102
{ACAD_REACTORS
330
42
102
}
330
42
100
AcDbScale
 70
     0
300
3/8" = 1'-0"
140
0.375
141
12.0
290
     0
1001
ACAD
1000
AcRTDxfName
1000
SCALE
  0
SCALE
  5
4D
102
{ACAD_REACTORS
330
42
102
}
330
42
100
AcDbScale
 70
     0
300
1/2" = 1'-0"
140
0.5
141
12.0
290
     0
1001
ACAD
1000
AcRTDxfName
1000
SCALE
  0
SCALE
  5
4E
102
{ACAD_REACTORS
330
42
102
}
330
42
100
AcDbScale
 70
     0
300
3/4" = 1'-0"
140
0.75
141
12.0
290
     0
1001
ACAD
1000
AcRTDxfName
1000
SCALE
  0
SCALE
  5
4F
102
{ACAD_REACTORS
330
42
102
}
330
42
100
AcDbScale
 70
     0
300
1" = 1'-0"
140
1.0
141
12.0
290
     0
1001
ACAD
1000
AcRTDxfName
1000
SCALE
  0
SCALE
  5
50
102
{ACAD_REACTORS
330
42
102
}
330
42
100
AcDbScale
 70
     0
300
1-1/2" = 1'-0"
140
1.5
141
12.0
290
     0
1001
ACAD
1000
AcRTDxfName
1000
SCALE
  0
SCALE
  5
51
102
{ACAD_REACTORS
330
42
102
}
330
42
100
AcDbScale
 70
     0
300
3" = 1'-0"
140
3.0
141
12.0
290
     0
1001
ACAD
1000
AcRTDxfName
1000
SCALE
  0
SCALE
  5
52
102
{ACAD_REACTORS
330
42
102
}
330
42
100
AcDbScale
 70
     0
300
6" = 1'-0"
140
6.0
141
12.0
290
     0
1001
ACAD
1000
AcRTDxfName
1000
SCALE
  0
SCALE
  5
53
102
{ACAD_REACTORS
330
42
102
}
330
42
100
AcDbScale
 70
     0
300
1'-0" = 1'-0"
140
12.0
141
12.0
290
     0
1001
ACAD
1000
AcRTDxfName
1000
SCALE
  0
TABLESTYLE
  5
64
102
{ACAD_XDICTIONARY
360
72C
102
}
102
{ACAD_REACTORS
330
63
102
}
330
63
100
AcDbTableStyle
  3
Standard
 70
     0
 71
     0
 40
0.06
 41
0.06
280
     0
281
     0
  7
STANDARD
140
0.18
170
     2
 62
     0
 63
     7
283
     0
274
    -2
284
     1
 64
     0
275
    -2
285
     1
 65
     0
276
    -2
286
     1
 66
     0
277
    -2
287
     1
 67
     0
278
    -2
288
     1
 68
     0
279
    -2
289
     1
 69
     0
  7
STANDARD
140
0.25
170
     5
 62
     0
 63
     7
283
     0
274
    -2
284
     1
 64
     0
275
    -2
285
     1
 65
     0
276
    -2
286
     1
 66
     0
277
    -2
287
     1
 67
     0
278
    -2
288
     1
 68
     0
279
    -2
289
     1
 69
     0
  7
STANDARD
140
0.18
170
     5
 62
     0
 63
     7
283
     0
274
    -2
284
     1
 64
     0
275
    -2
285
     1
 65
     0
276
    -2
286
     1
 66
     0
277
    -2
287
     1
 67
     0
278
    -2
288
     1
 68
     0
279
    -2
289
     1
 69
     0
  0
VISUALSTYLE
  5
2F
102
{ACAD_XDICTIONARY
360
BF0
102
}
102
{ACAD_REACTORS
330
29
102
}
330
29
100
AcDbVisualStyle
  2

 70
     4
 71
     0
 72
     2
 73
     0
 90
        0
 40
-0.6
 41
-30.0
 62
     5
 63
     7
 74
     1
 91
        4
 64
     7
 65
   257
 75
     1
175
     1
 42
1.0
 92
        0
 66
   257
 43
1.0
 76
     1
 77
     6
 78
     2
 67
     7
 79
     5
170
     0
171
     0
290
     0
174
     0
 93
        1
 44
0.0
173
     0
291
     0
 45
0.0
1001
ACAD
1000
AcDbSavedByObjectVersion
1070
     0
  0
VISUALSTYLE
  5
931
102
{ACAD_XDICTIONARY
360
C1D
102
}
102
{ACAD_REACTORS
330
29
102
}
330
29
100
AcDbVisualStyle
  2

 70
     6
 71
     1
 72
     2
 73
     2
 90
        0
 40
-0.6
 41
-30.0
 62
     5
 63
     7
 74
     2
 91
        2
 64
     7
 65
   257
 75
     2
175
     1
 42
40.0
 92
        0
 66
   257
 43
1.0
 76
     1
 77
     6
 78
     2
 67
     7
 79
     3
170
     0
171
     0
290
     0
174
     0
 93
        1
 44
0.0
173
     0
291
     0
 45
0.0
1001
ACAD
1000
AcDbSavedByObjectVersion
1070
     0
  0
VISUALSTYLE
  5
30A
102
{ACAD_XDICTIONARY
360
C1B
102
}
102
{ACAD_REACTORS
330
29
102
}
330
29
100
AcDbVisualStyle
  2

 70
     5
 71
     0
 72
     2
 73
     1
 90
        0
 40
-0.6
 41
-30.0
 62
     5
 63
     7
 74
     1
 91
        4
 64
     7
 65
   257
 75
     1
175
     1
 42
1.0
 92
        0
 66
   257
 43
1.0
 76
     1
 77
     6
 78
     2
 67
     7
 79
     5
170
     0
171
     0
290
     0
174
     0
 93
        1
 44
0.0
173
     0
291
     0
 45
0.0
1001
ACAD
1000
AcDbSavedByObjectVersion
1070
     0
  0
VISUALSTYLE
  5
2E
102
{ACAD_XDICTIONARY
360
BEE
102
}
102
{ACAD_REACTORS
330
29
102
}
330
29
100
AcDbVisualStyle
  2

 70
     7
 71
     1
 72
     0
 73
     1
 90
        0
 40
-0.6
 41
-30.0
 62
     5
 63
     7
 74
     0
 91
        4
 64
     7
 65
   257
 75
     1
175
     1
 42
1.0
 92
        8
 66
     7
 43
1.0
 76
     1
 77
     6
 78
     2
 67
     7
 79
     5
170
     0
171
     0
290
     0
174
     0
 93
        1
 44
0.0
173
     0
291
     1
 45
0.0
1001
ACAD
1000
AcDbSavedByObjectVersion
1070
     0
  0
VISUALSTYLE
  5
35
102
{ACAD_XDICTIONARY
360
BFC
102
}
102
{ACAD_REACTORS
330
29
102
}
330
29
100
AcDbVisualStyle
  2

 70
    12
 71
     2
 72
     2
 73
     0
 90
        0
 40
-0.6
 41
-30.0
 62
     5
 63
     7
 74
     1
 91
        4
 64
     7
 65
   257
 75
     1
175
     1
 42
1.0
 92
        8
 66
     7
 43
1.0
 76
     1
 77
     6
 78
     2
 67
     7
 79
     5
170
     0
171
     0
290
     0
174
     0
 93
        1
 44
50.0
173
     0
291
     1
 45
0.0
1001
ACAD
1000
AcDbSavedByObjectVersion
1070
     0
  0
VISUALSTYLE
  5
39
102
{ACAD_XDICTIONARY
360
C04
102
}
102
{ACAD_REACTORS
330
29
102
}
330
29
100
AcDbVisualStyle
  2

 70
    16
 71
     2
 72
     2
 73
     3
 90
        0
 40
-0.6
 41
-30.0
 62
     5
 63
     8
 74
     1
 91
        4
 64
     7
 65
   257
 75
     1
175
     1
 42
1.0
 92
        8
 66
     8
 43
1.0
 76
     1
 77
     6
 78
     2
 67
     7
 79
     5
170
     0
171
     0
290
     0
174
     0
 93
        1
 44
0.0
173
     0
291
     1
 45
0.0
1001
ACAD
1000
AcDbSavedByObjectVersion
1070
     0
  0
VISUALSTYLE
  5
32
102
{ACAD_XDICTIONARY
360
BF6
102
}
102
{ACAD_REACTORS
330
29
102
}
330
29
100
AcDbVisualStyle
  2

 70
     9
 71
     3
 72
     2
 73
     0
 90
        0
 40
-0.6
 41
-30.0
 62
     5
 63
     7
 74
     2
 91
        2
 64
     7
 65
   257
 75
     1
175
     1
 42
179.0
 92
        8
 66
     7
 43
1.0
 76
     1
 77
     6
 78
     2
 67
     7
 79
     3
170
     0
171
     0
290
     0
174
     0
 93
        1
 44
0.0
173
     0
291
     0
 45
0.0
1001
ACAD
1000
AcDbSavedByObjectVersion
1070
     0
  0
VISUALSTYLE
  5
34
102
{ACAD_XDICTIONARY
360
BFA
102
}
102
{ACAD_REACTORS
330
29
102
}
330
29
100
AcDbVisualStyle
  2

 70
    11
 71
     2
 72
     2
 73
     0
 90
        0
 40
-0.6
 41
-30.0
 62
     5
 63
     7
 74
     1
 91
        4
 64
     7
 65
   257
 75
     1
175
     1
 42
1.0
 92
        8
 66
     7
 43
1.0
 76
     1
 77
     6
 78
     2
 67
     7
 79
     5
170
     0
171
     0
290
     0
174
     0
 93
        1
 44
-50.0
173
     0
291
     1
 45
0.0
1001
ACAD
1000
AcDbSavedByObjectVersion
1070
     0
  0
VISUALSTYLE
  5
41
102
{ACAD_XDICTIONARY
360
C14
102
}
102
{ACAD_REACTORS
330
29
102
}
330
29
100
AcDbVisualStyle
  2

 70
    22
 71
     2
 72
     2
 73
     0
 90
        0
 40
-0.6
 41
-30.0
 62
     5
 63
     7
 74
     1
 91
        4
 64
     7
 65
   257
 75
     1
175
     1
 42
1.0
 92
        8
 66
     7
 43
1.0
 76
     1
 77
     6
 78
     2
 67
     7
 79
     5
170
     0
171
     0
290
     0
174
     0
 93
        1
 44
0.0
173
     0
291
     1
 45
0.0
1001
ACAD
1000
AcDbSavedByObjectVersion
1070
     0
  0
VISUALSTYLE
  5
38
102
{ACAD_XDICTIONARY
360
C02
102
}
102
{ACAD_REACTORS
330
29
102
}
330
29
100
AcDbVisualStyle
  2

 70
    15
 71
     2
 72
     2
 73
     0
 90
        0
 40
-0.6
 41
-30.0
 62
     5
 63
     7
 74
     1
 91
        4
 64
     7
 65
   257
 75
     1
175
     1
 42
1.0
 92
        8
 66
     7
 43
1.0
 76
     1
 77
     6
 78
     2
 67
     7
 79
     5
170
     0
171
     0
290
     0
174
     0
 93
        1
 44
0.0
173
     0
291
     1
 45
0.0
1001
ACAD
1000
AcDbSavedByObjectVersion
1070
     0
  0
VISUALSTYLE
  5
2A
102
{ACAD_XDICTIONARY
360
BE6
102
}
102
{ACAD_REACTORS
330
29
102
}
330
29
100
AcDbVisualStyle
  2

 70
     0
 71
     2
 72
     1
 73
     1
 90
        2
 40
-0.6
 41
30.0
 62
     5
 63
     7
 74
     0
 91
        0
 64
     7
 65
   257
 75
     1
175
     1
 42
1.0
 92
        8
 66
     7
 43
1.0
 76
     1
 77
     6
 78
     2
 67
     7
 79
     5
170
     0
171
     0
290
     0
174
     0
 93
       13
 44
0.0
173
     0
291
     1
 45
0.0
1001
ACAD
1000
AcDbSavedByObjectVersion
1070
     0
  0
VISUALSTYLE
  5
2B
102
{ACAD_XDICTIONARY
360
BE8
102
}
102
{ACAD_REACTORS
330
29
102
}
330
29
100
AcDbVisualStyle
  2

 70
     1
 71
     2
 72
     1
 73
     1
 90
        2
 40
-0.6
 41
30.0
 62
     5
 63
     7
 74
     1
 91
        0
 64
     7
 65
   257
 75
     1
175
     1
 42
1.0
 92
        0
 66
   257
 43
1.0
 76
     1
 77
     6
 78
     2
 67
     7
 79
     5
170
     0
171
     0
290
     0
174
     0
 93
       13
 44
0.0
173
     0
291
     1
 45
0.0
1001
ACAD
1000
AcDbSavedByObjectVersion
1070
     0
  0
VISUALSTYLE
  5
2C
102
{ACAD_XDICTIONARY
360
BEA
102
}
102
{ACAD_REACTORS
330
29
102
}
330
29
100
AcDbVisualStyle
  2

 70
     2
 71
     2
 72
     2
 73
     1
 90
        2
 40
-0.6
 41
30.0
 62
     5
 63
     7
 74
     0
 91
        0
 64
     7
 65
   257
 75
     1
175
     1
 42
1.0
 92
        0
 66
     7
 43
1.0
 76
     1
 77
     6
 78
     2
 67
     7
 79
     5
170
     0
171
     0
290
     0
174
     0
 93
       13
 44
0.0
173
     0
291
     1
 45
0.0
1001
ACAD
1000
AcDbSavedByObjectVersion
1070
     0
  0
VISUALSTYLE
  5
2D
102
{ACAD_XDICTIONARY
360
BEC
102
}
102
{ACAD_REACTORS
330
29
102
}
330
29
100
AcDbVisualStyle
  2

 70
     3
 71
     2
 72
     2
 73
     1
 90
        2
 40
-0.6
 41
30.0
 62
     5
 63
     7
 74
     1
 91
        0
 64
     7
 65
   257
 75
     1
175
     1
 42
1.0
 92
        0
 66
   257
 43
1.0
 76
     1
 77
     6
 78
     2
 67
     7
 79
     5
170
     0
171
     0
290
     0
174
     0
 93
       13
 44
0.0
173
     0
291
     1
 45
0.0
1001
ACAD
1000
AcDbSavedByObjectVersion
1070
     0
  0
VISUALSTYLE
  5
31
102
{ACAD_XDICTIONARY
360
BF4
102
}
102
{ACAD_REACTORS
330
29
102
}
330
29
100
AcDbVisualStyle
  2

 70
     6
 71
     1
 72
     2
 73
     2
 90
        0
 40
-0.6
 41
-30.0
 62
     5
 63
     7
 74
     2
 91
        2
 64
     7
 65
   257
 75
     2
175
     1
 42
40.0
 92
        0
 66
   257
 43
1.0
 76
     1
 77
     6
 78
     2
 67
     7
 79
     3
170
     0
171
     0
290
     0
174
     0
 93
        1
 44
0.0
173
     0
291
     0
 45
0.0
1001
ACAD
1000
AcDbSavedByObjectVersion
1070
     0
  0
VISUALSTYLE
  5
3F
102
{ACAD_XDICTIONARY
360
C10
102
}
102
{ACAD_REACTORS
330
29
102
}
330
29
100
AcDbVisualStyle
  2

 70
    20
 71
     2
 72
     2
 73
     0
 90
        0
 40
-0.6
 41
-30.0
 62
     5
 63
     7
 74
     1
 91
        4
 64
     7
 65
   257
 75
     1
175
     1
 42
1.0
 92
       10
 66
     7
 43
1.0
 76
     1
 77
     6
 78
     2
 67
     7
 79
     5
170
     0
171
     0
290
     0
174
     0
 93
        1
 44
0.0
173
     0
291
     1
 45
0.0
1001
ACAD
1000
AcDbSavedByObjectVersion
1070
     0
  0
VISUALSTYLE
  5
37
102
{ACAD_XDICTIONARY
360
C00
102
}
102
{ACAD_REACTORS
330
29
102
}
330
29
100
AcDbVisualStyle
  2

 70
    14
 71
     2
 72
     2
 73
     0
 90
        0
 40
-0.6
 41
-30.0
 62
     5
 63
     7
 74
     1
 91
        4
 64
     7
 65
   257
 75
     7
175
     7
 42
1.0
 92
        8
 66
     7
 43
1.0
 76
     1
 77
     6
 78
     2
 67
     7
 79
     5
170
     0
171
     0
290
     0
174
     0
 93
        1
 44
0.0
173
     0
291
     1
 45
0.0
1001
ACAD
1000
AcDbSavedByObjectVersion
1070
     0
  0
VISUALSTYLE
  5
40
102
{ACAD_XDICTIONARY
360
C12
102
}
102
{ACAD_REACTORS
330
29
102
}
330
29
100
AcDbVisualStyle
  2

 70
    21
 71
     2
 72
     2
 73
     0
 90
        0
 40
-0.6
 41
-30.0
 62
     5
 63
     7
 74
     1
 91
        4
 64
     7
 65
   257
 75
     1
175
     1
 42
1.0
 92
        9
 66
     7
 43
1.0
 76
     1
 77
     6
 78
     2
 67
     7
 79
     5
170
     0
171
     0
290
     0
174
     0
 93
        1
 44
0.0
173
     0
291
     1
 45
0.0
1001
ACAD
1000
AcDbSavedByObjectVersion
1070
     0
  0
VISUALSTYLE
  5
33
102
{ACAD_XDICTIONARY
360
BF8
102
}
102
{ACAD_REACTORS
330
29
102
}
330
29
100
AcDbVisualStyle
  2

 70
     8
 71
     2
 72
     3
 73
     0
 90
        2
 40
-0.6
 41
30.0
 62
     5
 63
     7
 74
     0
 91
        0
 64
     7
 65
   257
 75
     1
175
     1
 42
1.0
 92
        8
 66
   257
 43
1.0
 76
     1
 77
     6
 78
     2
 67
     7
 79
     3
170
     0
171
     0
290
     0
174
     0
 93
       13
 44
0.0
173
     0
291
     0
 45
0.0
1001
ACAD
1000
AcDbSavedByObjectVersion
1070
     0
  0
VISUALSTYLE
  5
3E
102
{ACAD_XDICTIONARY
360
C0E
102
}
102
{ACAD_REACTORS
330
29
102
}
330
29
100
AcDbVisualStyle
  2

 70
    27
 71
     2
 72
     2
 73
     1
 90
        2
 40
-0.6
 41
30.0
 62
     5
 63
     7
 74
     0
 91
        4
 64
     7
 65
   257
 75
     1
175
     1
 42
1.0
 92
        8
 66
   257
 43
1.0
 76
     1
 77
     6
 78
     2
 67
     8
 79
     3
170
     0
171
     0
290
     0
174
     0
 93
        5
 44
0.0
173
     0
291
     0
 45
0.0
1001
ACAD
1000
AcDbSavedByObjectVersion
1070
     0
  0
VISUALSTYLE
  5
3D
102
{ACAD_XDICTIONARY
360
C0C
102
}
102
{ACAD_REACTORS
330
29
102
}
330
29
100
AcDbVisualStyle
  2

 70
    26
 71
     2
 72
     2
 73
     1
 90
        2
 40
-0.6
 41
30.0
 62
     5
 63
     7
 74
     1
 91
       10
 64
     7
 65
   257
 75
     2
175
     1
 42
1.0
 92
        8
 66
   257
 43
1.0
 76
     1
 77
     6
 78
     2
 67
     7
 79
     3
170
     0
171
     0
290
     0
174
     0
 93
        5
 44
0.0
173
     0
291
     0
 45
0.0
1001
ACAD
1000
AcDbSavedByObjectVersion
1070
     0
  0
VISUALSTYLE
  5
3A
102
{ACAD_XDICTIONARY
360
C06
102
}
102
{ACAD_REACTORS
330
29
102
}
330
29
100
AcDbVisualStyle
  2

 70
    23
 71
     2
 72
     2
 73
     3
 90
        0
 40
-0.6
 41
-30.0
 62
     5
 63
     7
 74
     2
 91
        2
 64
     7
 65
     7
 75
     1
175
     1
 42
40.0
 92
        8
 66
     7
 43
1.0
 76
     1
 77
     6
 78
     2
 67
     7
 79
     3
170
     0
171
     0
290
     0
174
     0
 93
        1
 44
0.0
173
     0
291
     0
 45
0.0
1001
ACAD
1000
AcDbSavedByObjectVersion
1070
     0
  0
VISUALSTYLE
  5
3B
102
{ACAD_XDICTIONARY
360
C08
102
}
102
{ACAD_REACTORS
330
29
102
}
330
29
100
AcDbVisualStyle
  2

 70
    24
 71
     1
 72
     2
 73
     2
 90
        0
 40
-0.6
 41
-30.0
 62
     5
 63
     7
 74
     2
 91
        2
 64
     7
 65
     7
 75
     1
175
     1
 42
40.0
 92
       11
 66
     7
 43
1.0
 76
     1
 77
     6
 78
     2
 67
     7
 79
     6
170
     0
171
     0
290
     0
174
     0
 93
        1
 44
0.0
173
     0
291
     0
 45
0.0
1001
ACAD
1000
AcDbSavedByObjectVersion
1070
     0
  0
VISUALSTYLE
  5
36
102
{ACAD_XDICTIONARY
360
BFE
102
}
102
{ACAD_REACTORS
330
29
102
}
330
29
100
AcDbVisualStyle
  2

 70
    13
 71
     2
 72
     2
 73
     0
 90
        0
 40
-0.6
 41
-30.0
 62
     5
 63
     7
 74
     1
 91
        4
 64
     7
 65
   257
 75
     1
175
     1
 42
1.0
 92
       12
 66
     7
 43
1.0
 76
     1
 77
     6
 78
     2
 67
     7
 79
     5
170
     0
171
     0
290
     0
174
     0
 93
        1
 44
0.0
173
     0
291
     1
 45
0.0
1001
ACAD
1000
AcDbSavedByObjectVersion
1070
     0
  0
VISUALSTYLE
  5
30
102
{ACAD_XDICTIONARY
360
BF2
102
}
102
{ACAD_REACTORS
330
29
102
}
330
29
100
AcDbVisualStyle
  2

 70
     5
 71
     0
 72
     2
 73
     0
 90
        0
 40
-0.6
 41
-30.0
 62
     5
 63
     7
 74
     1
 91
        4
 64
     7
 65
   257
 75
     1
175
     1
 42
1.0
 92
        0
 66
   257
 43
1.0
 76
     1
 77
     6
 78
     2
 67
     7
 79
     3
170
     0
171
     0
290
     0
174
     0
 93
        1
 44
0.0
173
     0
291
     0
 45
0.0
1001
ACAD
1000
AcDbSavedByObjectVersion
1070
     0
  0
VISUALSTYLE
  5
3C
102
{ACAD_XDICTIONARY
360
C0A
102
}
102
{ACAD_REACTORS
330
29
102
}
330
29
100
AcDbVisualStyle
  2

 70
    25
 71
     2
 72
     2
 73
     1
 90
        1
 40
0.5
 41
-30.0
 62
     5
 63
     7
 74
     1
 91
        0
 64
     7
 65
   257
 75
     1
175
     1
 42
1.0
 92
        8
 66
     7
 43
1.0
 76
     1
 77
     6
 78
     2
 67
     7
 79
     3
170
     0
171
     0
290
     0
174
     0
 93
       13
 44
0.0
173
     0
291
     0
 45
0.0
1001
ACAD
1000
AcDbSavedByObjectVersion
1070
     0
  0
DICTIONARYVAR
  5
6D9
102
{ACAD_REACTORS
330
6D6
102
}
330
6D6
100
DictionaryVariables
280
     0
  1
1:1
  0
DICTIONARYVAR
  5
6D8
102
{ACAD_REACTORS
330
6D6
102
}
330
6D6
100
DictionaryVariables
280
     0
  1
STANDARD
  0
DICTIONARYVAR
  5
6D7
102
{ACAD_REACTORS
330
6D6
102
}
330
6D6
100
DictionaryVariables
280
     0
  1
STANDARD
  0
DICTIONARYVAR
  5
6DC
102
{ACAD_REACTORS
330
6D6
102
}
330
6D6
100
DictionaryVariables
280
     0
  1
1
  0
DICTIONARYVAR
  5
6DB
102
{ACAD_REACTORS
330
6D6
102
}
330
6D6
100
DictionaryVariables
280
     0
  1
0
  0
DICTIONARYVAR
  5
6DA
102
{ACAD_REACTORS
330
6D6
102
}
330
6D6
100
DictionaryVariables
280
     0
  1
127
  0
DICTIONARYVAR
  5
AC8
102
{ACAD_REACTORS
330
6D6
102
}
330
6D6
100
DictionaryVariables
280
     0
  1
2
  0
DICTIONARY
  5
C19
330
6E
100
AcDbDictionary
280
     1
281
     1
  3
ACAD_XREC_ROUNDTRIP
360
C1A
  0
DICTIONARY
  5
C17
330
6A
100
AcDbDictionary
280
     1
281
     1
  3
ACAD_XREC_ROUNDTRIP
360
C18
  0
DICTIONARY
  5
1A
330
19
100
AcDbDictionary
280
     1
281
     1
  3
ACAD_XREC_ROUNDTRIP
360
735
  3
BUMPTILE
360
1C
  3
DIFFUSETILE
360
1B
  3
OPACITYTILE
360
1F
  3
REFLECTIONTILE
360
1E
  3
REFRACTIONTILE
360
20
  3
SPECULARTILE
360
1D
  0
DICTIONARY
  5
12
330
11
100
AcDbDictionary
280
     1
281
     1
  3
ACAD_XREC_ROUNDTRIP
360
734
  3
BUMPTILE
360
14
  3
DIFFUSETILE
360
13
  3
OPACITYTILE
360
17
  3
REFLECTIONTILE
360
16
  3
REFRACTIONTILE
360
18
  3
SPECULARTILE
360
15
  0
DICTIONARY
  5
22
330
21
100
AcDbDictionary
280
     1
281
     1
  3
ACAD_XREC_ROUNDTRIP
360
736
  3
BUMPTILE
360
24
  3
DIFFUSETILE
360
23
  3
OPACITYTILE
360
27
  3
REFLECTIONTILE
360
26
  3
REFRACTIONTILE
360
28
  3
SPECULARTILE
360
25
  0
DICTIONARY
  5
72C
330
64
100
AcDbDictionary
280
     1
281
     1
  3
ACAD_ROUNDTRIP_2008_TABLESTYLE_CELLSTYLEMAP
360
BDF
  3
ACAD_XREC_ROUNDTRIP
360
C16
  0
DICTIONARY
  5
BF0
330
2F
100
AcDbDictionary
280
     1
281
     1
  3
ACAD_XREC_ROUNDTRIP
360
BF1
  0
DICTIONARY
  5
C1D
330
931
100
AcDbDictionary
280
     1
281
     1
  3
ACAD_XREC_ROUNDTRIP
360
C1E
  0
DICTIONARY
  5
C1B
330
30A
100
AcDbDictionary
280
     1
281
     1
  3
ACAD_XREC_ROUNDTRIP
360
C1C
  0
DICTIONARY
  5
BEE
330
2E
100
AcDbDictionary
280
     1
281
     1
  3
ACAD_XREC_ROUNDTRIP
360
BEF
  0
DICTIONARY
  5
BFC
330
35
100
AcDbDictionary
280
     1
281
     1
  3
ACAD_XREC_ROUNDTRIP
360
BFD
  0
DICTIONARY
  5
C04
330
39
100
AcDbDictionary
280
     1
281
     1
  3
ACAD_XREC_ROUNDTRIP
360
C05
  0
DICTIONARY
  5
BF6
330
32
100
AcDbDictionary
280
     1
281
     1
  3
ACAD_XREC_ROUNDTRIP
360
BF7
  0
DICTIONARY
  5
BFA
330
34
100
AcDbDictionary
280
     1
281
     1
  3
ACAD_XREC_ROUNDTRIP
360
BFB
  0
DICTIONARY
  5
C14
330
41
100
AcDbDictionary
280
     1
281
     1
  3
ACAD_XREC_ROUNDTRIP
360
C15
  0
DICTIONARY
  5
C02
330
38
100
AcDbDictionary
280
     1
281
     1
  3
ACAD_XREC_ROUNDTRIP
360
C03
  0
DICTIONARY
  5
BE6
330
2A
100
AcDbDictionary
280
     1
281
     1
  3
ACAD_XREC_ROUNDTRIP
360
BE7
  0
DICTIONARY
  5
BE8
330
2B
100
AcDbDictionary
280
     1
281
     1
  3
ACAD_XREC_ROUNDTRIP
360
BE9
  0
DICTIONARY
  5
BEA
330
2C
100
AcDbDictionary
280
     1
281
     1
  3
ACAD_XREC_ROUNDTRIP
360
BEB
  0
DICTIONARY
  5
BEC
330
2D
100
AcDbDictionary
280
     1
281
     1
  3
ACAD_XREC_ROUNDTRIP
360
BED
  0
DICTIONARY
  5
BF4
330
31
100
AcDbDictionary
280
     1
281
     1
  3
ACAD_XREC_ROUNDTRIP
360
BF5
  0
DICTIONARY
  5
C10
330
3F
100
AcDbDictionary
280
     1
281
     1
  3
ACAD_XREC_ROUNDTRIP
360
C11
  0
DICTIONARY
  5
C00
330
37
100
AcDbDictionary
280
     1
281
     1
  3
ACAD_XREC_ROUNDTRIP
360
C01
  0
DICTIONARY
  5
C12
330
40
100
AcDbDictionary
280
     1
281
     1
  3
ACAD_XREC_ROUNDTRIP
360
C13
  0
DICTIONARY
  5
BF8
330
33
100
AcDbDictionary
280
     1
281
     1
  3
ACAD_XREC_ROUNDTRIP
360
BF9
  0
DICTIONARY
  5
C0E
330
3E
100
AcDbDictionary
280
     1
281
     1
  3
ACAD_XREC_ROUNDTRIP
360
C0F
  0
DICTIONARY
  5
C0C
330
3D
100
AcDbDictionary
280
     1
281
     1
  3
ACAD_XREC_ROUNDTRIP
360
C0D
  0
DICTIONARY
  5
C06
330
3A
100
AcDbDictionary
280
     1
281
     1
  3
ACAD_XREC_ROUNDTRIP
360
C07
  0
DICTIONARY
  5
C08
330
3B
100
AcDbDictionary
280
     1
281
     1
  3
ACAD_XREC_ROUNDTRIP
360
C09
  0
DICTIONARY
  5
BFE
330
36
100
AcDbDictionary
280
     1
281
     1
  3
ACAD_XREC_ROUNDTRIP
360
BFF
  0
DICTIONARY
  5
BF2
330
30
100
AcDbDictionary
280
     1
281
     1
  3
ACAD_XREC_ROUNDTRIP
360
BF3
  0
DICTIONARY
  5
C0A
330
3C
100
AcDbDictionary
280
     1
281
     1
  3
ACAD_XREC_ROUNDTRIP
360
C0B
  0
XRECORD
  5
C1A
102
{ACAD_REACTORS
330
C19
102
}
330
C19
100
AcDbXrecord
280
     1
102
SHADEPLOT
 70
     0
102
SHADEPLOTRESLEVEL
 70
     2
102
SHADEPLOTCUSTOMDPI
 70
   300
  0
XRECORD
  5
C18
102
{ACAD_REACTORS
330
C17
102
}
330
C17
100
AcDbXrecord
280
     1
102
SHADEPLOT
 70
     0
102
SHADEPLOTRESLEVEL
 70
     2
102
SHADEPLOTCUSTOMDPI
 70
   300
  0
XRECORD
  5
735
102
{ACAD_REACTORS
330
1A
102
}
330
1A
100
AcDbXrecord
280
     1
102
MATERIAL
148
0.0
149
0.0
149
0.0
 93
        0
 94
      127
282
     0
 72
     0
 77
     0
171
     0
175
     0
179
     0
273
     0
  0
XRECORD
  5
1C
102
{ACAD_REACTORS
330
1A
102
}
330
1A
100
AcDbXrecord
280
     1
270
     1
271
     1
  0
XRECORD
  5
1B
102
{ACAD_REACTORS
330
1A
102
}
330
1A
100
AcDbXrecord
280
     1
270
     1
271
     1
  0
XRECORD
  5
1F
102
{ACAD_REACTORS
330
1A
102
}
330
1A
100
AcDbXrecord
280
     1
270
     1
271
     1
  0
XRECORD
  5
1E
102
{ACAD_REACTORS
330
1A
102
}
330
1A
100
AcDbXrecord
280
     1
270
     1
271
     1
  0
XRECORD
  5
20
102
{ACAD_REACTORS
330
1A
102
}
330
1A
100
AcDbXrecord
280
     1
270
     1
271
     1
  0
XRECORD
  5
1D
102
{ACAD_REACTORS
330
1A
102
}
330
1A
100
AcDbXrecord
280
     1
270
     1
271
     1
  0
XRECORD
  5
734
102
{ACAD_REACTORS
330
12
102
}
330
12
100
AcDbXrecord
280
     1
102
MATERIAL
148
0.0
149
0.0
149
0.0
 93
        0
 94
      127
282
     0
 72
     0
 77
     0
171
     0
175
     0
179
     0
273
     0
  0
XRECORD
  5
14
102
{ACAD_REACTORS
330
12
102
}
330
12
100
AcDbXrecord
280
     1
270
     1
271
     1
  0
XRECORD
  5
13
102
{ACAD_REACTORS
330
12
102
}
330
12
100
AcDbXrecord
280
     1
270
     1
271
     1
  0
XRECORD
  5
17
102
{ACAD_REACTORS
330
12
102
}
330
12
100
AcDbXrecord
280
     1
270
     1
271
     1
  0
XRECORD
  5
16
102
{ACAD_REACTORS
330
12
102
}
330
12
100
AcDbXrecord
280
     1
270
     1
271
     1
  0
XRECORD
  5
18
102
{ACAD_REACTORS
330
12
102
}
330
12
100
AcDbXrecord
280
     1
270
     1
271
     1
  0
XRECORD
  5
15
102
{ACAD_REACTORS
330
12
102
}
330
12
100
AcDbXrecord
280
     1
270
     1
271
     1
  0
XRECORD
  5
736
102
{ACAD_REACTORS
330
22
102
}
330
22
100
AcDbXrecord
280
     1
102
MATERIAL
148
0.0
149
0.0
149
0.0
 93
        0
 94
      127
282
     0
 72
     0
 77
     0
171
     0
175
     0
179
     0
273
     0
  0
XRECORD
  5
24
102
{ACAD_REACTORS
330
22
102
}
330
22
100
AcDbXrecord
280
     1
270
     1
271
     1
  0
XRECORD
  5
23
102
{ACAD_REACTORS
330
22
102
}
330
22
100
AcDbXrecord
280
     1
270
     1
271
     1
  0
XRECORD
  5
27
102
{ACAD_REACTORS
330
22
102
}
330
22
100
AcDbXrecord
280
     1
270
     1
271
     1
  0
XRECORD
  5
26
102
{ACAD_REACTORS
330
22
102
}
330
22
100
AcDbXrecord
280
     1
270
     1
271
     1
  0
XRECORD
  5
28
102
{ACAD_REACTORS
330
22
102
}
330
22
100
AcDbXrecord
280
     1
270
     1
271
     1
  0
XRECORD
  5
25
102
{ACAD_REACTORS
330
22
102
}
330
22
100
AcDbXrecord
280
     1
270
     1
271
     1
  0
CELLSTYLEMAP
  5
BDF
102
{ACAD_REACTORS
330
72C
102
}
330
72C
100
AcDbCellStyleMap
 90
        3
300
CELLSTYLE
  1
TABLEFORMAT_BEGIN
 90
        5
170
     1
 91
        0
 92
    32768
 62
   257
 93
        1
300
CONTENTFORMAT
  1
CONTENTFORMAT_BEGIN
 90
        0
 91
        0
 92
      512
 93
        0
300

 40
0.0
140
1.0
 94
        5
 62
     0
340
55
144
0.25
309
CONTENTFORMAT_END
171
     1
301
MARGIN
  1
CELLMARGIN_BEGIN
 40
0.06
 40
0.06
 40
0.06
 40
0.06
 40
0.18
 40
0.18
309
CELLMARGIN_END
 94
        6
 95
        1
302
GRIDFORMAT
  1
GRIDFORMAT_BEGIN
 90
        0
 91
        1
 62
     0
 92
       -2
340
0
 93
        0
 40
0.045
309
GRIDFORMAT_END
 95
        2
302
GRIDFORMAT
  1
GRIDFORMAT_BEGIN
 90
        0
 91
        1
 62
     0
 92
       -2
340
0
 93
        0
 40
0.045
309
GRIDFORMAT_END
 95
        4
302
GRIDFORMAT
  1
GRIDFORMAT_BEGIN
 90
        0
 91
        1
 62
     0
 92
       -2
340
0
 93
        0
 40
0.045
309
GRIDFORMAT_END
 95
        8
302
GRIDFORMAT
  1
GRIDFORMAT_BEGIN
 90
        0
 91
        1
 62
     0
 92
       -2
340
0
 93
        0
 40
0.045
309
GRIDFORMAT_END
 95
       16
302
GRIDFORMAT
  1
GRIDFORMAT_BEGIN
 90
        0
 91
        1
 62
     0
 92
       -2
340
0
 93
        0
 40
0.045
309
GRIDFORMAT_END
 95
       32
302
GRIDFORMAT
  1
GRIDFORMAT_BEGIN
 90
        0
 91
        1
 62
     0
 92
       -2
340
0
 93
        0
 40
0.045
309
GRIDFORMAT_END
309
TABLEFORMAT_END
  1
CELLSTYLE_BEGIN
 90
        1
 91
        1
300
_TITLE
309
CELLSTYLE_END
300
CELLSTYLE
  1
TABLEFORMAT_BEGIN
 90
        5
170
     1
 91
        0
 92
        0
 62
   257
 93
        1
300
CONTENTFORMAT
  1
CONTENTFORMAT_BEGIN
 90
        0
 91
        0
 92
      512
 93
        0
300

 40
0.0
140
1.0
 94
        5
 62
     0
340
55
144
0.18
309
CONTENTFORMAT_END
171
     1
301
MARGIN
  1
CELLMARGIN_BEGIN
 40
0.06
 40
0.06
 40
0.06
 40
0.06
 40
0.18
 40
0.18
309
CELLMARGIN_END
 94
        6
 95
        1
302
GRIDFORMAT
  1
GRIDFORMAT_BEGIN
 90
        0
 91
        1
 62
     0
 92
       -2
340
0
 93
        0
 40
0.045
309
GRIDFORMAT_END
 95
        2
302
GRIDFORMAT
  1
GRIDFORMAT_BEGIN
 90
        0
 91
        1
 62
     0
 92
       -2
340
0
 93
        0
 40
0.045
309
GRIDFORMAT_END
 95
        4
302
GRIDFORMAT
  1
GRIDFORMAT_BEGIN
 90
        0
 91
        1
 62
     0
 92
       -2
340
0
 93
        0
 40
0.045
309
GRIDFORMAT_END
 95
        8
302
GRIDFORMAT
  1
GRIDFORMAT_BEGIN
 90
        0
 91
        1
 62
     0
 92
       -2
340
0
 93
        0
 40
0.045
309
GRIDFORMAT_END
 95
       16
302
GRIDFORMAT
  1
GRIDFORMAT_BEGIN
 90
        0
 91
        1
 62
     0
 92
       -2
340
0
 93
        0
 40
0.045
309
GRIDFORMAT_END
 95
       32
302
GRIDFORMAT
  1
GRIDFORMAT_BEGIN
 90
        0
 91
        1
 62
     0
 92
       -2
340
0
 93
        0
 40
0.045
309
GRIDFORMAT_END
309
TABLEFORMAT_END
  1
CELLSTYLE_BEGIN
 90
        2
 91
        1
300
_HEADER
309
CELLSTYLE_END
300
CELLSTYLE
  1
TABLEFORMAT_BEGIN
 90
        5
170
     1
 91
        0
 92
        0
 62
   257
 93
        1
300
CONTENTFORMAT
  1
CONTENTFORMAT_BEGIN
 90
        0
 91
        0
 92
      512
 93
        0
300

 40
0.0
140
1.0
 94
        2
 62
     0
340
55
144
0.18
309
CONTENTFORMAT_END
171
     1
301
MARGIN
  1
CELLMARGIN_BEGIN
 40
0.06
 40
0.06
 40
0.06
 40
0.06
 40
0.18
 40
0.18
309
CELLMARGIN_END
 94
        6
 95
        1
302
GRIDFORMAT
  1
GRIDFORMAT_BEGIN
 90
        0
 91
        1
 62
     0
 92
       -2
340
0
 93
        0
 40
0.045
309
GRIDFORMAT_END
 95
        2
302
GRIDFORMAT
  1
GRIDFORMAT_BEGIN
 90
        0
 91
        1
 62
     0
 92
       -2
340
0
 93
        0
 40
0.045
309
GRIDFORMAT_END
 95
        4
302
GRIDFORMAT
  1
GRIDFORMAT_BEGIN
 90
        0
 91
        1
 62
     0
 92
       -2
340
0
 93
        0
 40
0.045
309
GRIDFORMAT_END
 95
        8
302
GRIDFORMAT
  1
GRIDFORMAT_BEGIN
 90
        0
 91
        1
 62
     0
 92
       -2
340
0
 93
        0
 40
0.045
309
GRIDFORMAT_END
 95
       16
302
GRIDFORMAT
  1
GRIDFORMAT_BEGIN
 90
        0
 91
        1
 62
     0
 92
       -2
340
0
 93
        0
 40
0.045
309
GRIDFORMAT_END
 95
       32
302
GRIDFORMAT
  1
GRIDFORMAT_BEGIN
 90
        0
 91
        1
 62
     0
 92
       -2
340
0
 93
        0
 40
0.045
309
GRIDFORMAT_END
309
TABLEFORMAT_END
  1
CELLSTYLE_BEGIN
 90
        3
 91
        2
300
_DATA
309
CELLSTYLE_END
  0
XRECORD
  5
C16
102
{ACAD_REACTORS
330
72C
102
}
330
72C
100
AcDbXrecord
280
     1
102
ACAD_ROUNDTRIP_PRE2007_TABLESTYLE
 90
      512
 91
        0
  1

 92
      512
 93
        0
  2

 94
      512
 95
        0
  3

  0
XRECORD
  5
BF1
102
{ACAD_REACTORS
330
BF0
102
}
330
BF0
100
AcDbXrecord
280
     1
102
RTVSPropertyOp0
 70
     1
102
RTVSPropertyOp1
 70
     1
102
RTVSPropertyOp2
 70
     1
102
RTVSPropertyOp3
 70
     1
102
RTVSPropertyOp4
 70
     1
102
RTVSPropertyOp5
 70
     1
102
RTVSPropertyOp6
 70
     1
102
RTVSPropertyOp7
 70
     1
102
RTVSPropertyOp8
 70
     1
102
RTVSPropertyOp9
 70
     1
102
RTVSPropertyOp10
 70
     1
102
RTVSPropertyOp11
 70
     1
102
RTVSPropertyOp12
 70
     1
102
RTVSPropertyOp13
 70
     1
102
RTVSPropertyOp14
 70
     1
102
RTVSPropertyOp15
 70
     1
102
RTVSPropertyOp16
 70
     1
102
RTVSPropertyOp17
 70
     1
102
RTVSPropertyOp18
 70
     1
102
RTVSPropertyOp19
 70
     1
102
RTVSPropertyOp20
 70
     1
102
RTVSPropertyOp21
 70
     1
102
RTVSPropertyOp22
 70
     1
102
RTVSPropertyOp23
 70
     1
102
RTVSPropertyOp24
 70
     1
102
RTVSPropertyOp25
 70
     1
102
RTVSPropertyOp26
 70
     1
102
RTVSPropertyOp27
 70
     1
102
RTVSPropertyOp28
 70
     1
102
RTVSPropertyOp29
 70
     1
102
RTVSPropertyOp30
 70
     1
102
RTVSPropertyOp31
 70
     1
102
RTVSPropertyOp32
 70
     1
  0
XRECORD
  5
C1E
102
{ACAD_REACTORS
330
C1D
102
}
330
C1D
100
AcDbXrecord
280
     1
102
RTVSPropertyOp0
 70
     1
102
RTVSPropertyOp1
 70
     1
102
RTVSPropertyOp2
 70
     1
102
RTVSPropertyOp3
 70
     1
102
RTVSPropertyOp4
 70
     1
102
RTVSPropertyOp5
 70
     1
102
RTVSPropertyOp6
 70
     1
102
RTVSPropertyOp7
 70
     1
102
RTVSPropertyOp8
 70
     1
102
RTVSPropertyOp9
 70
     1
102
RTVSPropertyOp10
 70
     1
102
RTVSPropertyOp11
 70
     1
102
RTVSPropertyOp12
 70
     1
102
RTVSPropertyOp13
 70
     1
102
RTVSPropertyOp14
 70
     1
102
RTVSPropertyOp15
 70
     1
102
RTVSPropertyOp16
 70
     1
102
RTVSPropertyOp17
 70
     1
102
RTVSPropertyOp18
 70
     1
102
RTVSPropertyOp19
 70
     1
102
RTVSPropertyOp20
 70
     1
102
RTVSPropertyOp21
 70
     1
102
RTVSPropertyOp22
 70
     1
102
RTVSPropertyOp23
 70
     1
102
RTVSPropertyOp24
 70
     1
102
RTVSPropertyOp25
 70
     1
102
RTVSPropertyOp26
 70
     1
102
RTVSPropertyOp27
 70
     1
102
RTVSPropertyOp28
 70
     1
102
RTVSPropertyOp29
 70
     1
102
RTVSPropertyOp30
 70
     1
102
RTVSPropertyOp31
 70
     1
102
RTVSPropertyOp32
 70
     1
  0
XRECORD
  5
C1C
102
{ACAD_REACTORS
330
C1B
102
}
330
C1B
100
AcDbXrecord
280
     1
102
RTVSPropertyOp0
 70
     1
102
RTVSPropertyOp1
 70
     1
102
RTVSPropertyOp2
 70
     1
102
RTVSPropertyOp3
 70
     1
102
RTVSPropertyOp4
 70
     1
102
RTVSPropertyOp5
 70
     1
102
RTVSPropertyOp6
 70
     1
102
RTVSPropertyOp7
 70
     1
102
RTVSPropertyOp8
 70
     1
102
RTVSPropertyOp9
 70
     1
102
RTVSPropertyOp10
 70
     1
102
RTVSPropertyOp11
 70
     1
102
RTVSPropertyOp12
 70
     1
102
RTVSPropertyOp13
 70
     1
102
RTVSPropertyOp14
 70
     1
102
RTVSPropertyOp15
 70
     1
102
RTVSPropertyOp16
 70
     1
102
RTVSPropertyOp17
 70
     1
102
RTVSPropertyOp18
 70
     1
102
RTVSPropertyOp19
 70
     1
102
RTVSPropertyOp20
 70
     1
102
RTVSPropertyOp21
 70
     1
102
RTVSPropertyOp22
 70
     1
102
RTVSPropertyOp23
 70
     1
102
RTVSPropertyOp24
 70
     1
102
RTVSPropertyOp25
 70
     1
102
RTVSPropertyOp26
 70
     1
102
RTVSPropertyOp27
 70
     1
102
RTVSPropertyOp28
 70
     1
102
RTVSPropertyOp29
 70
     1
102
RTVSPropertyOp30
 70
     1
102
RTVSPropertyOp31
 70
     1
102
RTVSPropertyOp32
 70
     1
  0
XRECORD
  5
BEF
102
{ACAD_REACTORS
330
BEE
102
}
330
BEE
100
AcDbXrecord
280
     1
102
RTVSPropertyOp0
 70
     1
102
RTVSPropertyOp1
 70
     1
102
RTVSPropertyOp2
 70
     1
102
RTVSPropertyOp3
 70
     1
102
RTVSPropertyOp4
 70
     1
102
RTVSPropertyOp5
 70
     1
102
RTVSPropertyOp6
 70
     1
102
RTVSPropertyOp7
 70
     1
102
RTVSPropertyOp8
 70
     1
102
RTVSPropertyOp9
 70
     1
102
RTVSPropertyOp10
 70
     1
102
RTVSPropertyOp11
 70
     1
102
RTVSPropertyOp12
 70
     1
102
RTVSPropertyOp13
 70
     1
102
RTVSPropertyOp14
 70
     1
102
RTVSPropertyOp15
 70
     1
102
RTVSPropertyOp16
 70
     1
102
RTVSPropertyOp17
 70
     1
102
RTVSPropertyOp18
 70
     1
102
RTVSPropertyOp19
 70
     1
102
RTVSPropertyOp20
 70
     1
102
RTVSPropertyOp21
 70
     1
102
RTVSPropertyOp22
 70
     1
102
RTVSPropertyOp23
 70
     1
102
RTVSPropertyOp24
 70
     1
102
RTVSPropertyOp25
 70
     1
102
RTVSPropertyOp26
 70
     1
102
RTVSPropertyOp27
 70
     1
102
RTVSPropertyOp28
 70
     1
102
RTVSPropertyOp29
 70
     1
102
RTVSPropertyOp30
 70
     1
102
RTVSPropertyOp31
 70
     1
102
RTVSPropertyOp32
 70
     1
  0
XRECORD
  5
BFD
102
{ACAD_REACTORS
330
BFC
102
}
330
BFC
100
AcDbXrecord
280
     1
102
RTVSPropertyOp0
 70
     1
102
RTVSPropertyOp1
 70
     1
102
RTVSPropertyOp2
 70
     1
102
RTVSPropertyOp3
 70
     1
102
RTVSPropertyOp4
 70
     1
102
RTVSPropertyOp5
 70
     1
102
RTVSPropertyOp6
 70
     1
102
RTVSPropertyOp7
 70
     1
102
RTVSPropertyOp8
 70
     1
102
RTVSPropertyOp9
 70
     1
102
RTVSPropertyOp10
 70
     1
102
RTVSPropertyOp11
 70
     1
102
RTVSPropertyOp12
 70
     1
102
RTVSPropertyOp13
 70
     1
102
RTVSPropertyOp14
 70
     1
102
RTVSPropertyOp15
 70
     1
102
RTVSPropertyOp16
 70
     1
102
RTVSPropertyOp17
 70
     1
102
RTVSPropertyOp18
 70
     1
102
RTVSPropertyOp19
 70
     1
102
RTVSPropertyOp20
 70
     1
102
RTVSPropertyOp21
 70
     1
102
RTVSPropertyOp22
 70
     1
102
RTVSPropertyOp23
 70
     1
102
RTVSPropertyOp24
 70
     1
102
RTVSPropertyOp25
 70
     1
102
RTVSPropertyOp26
 70
     1
102
RTVSPropertyOp27
 70
     1
102
RTVSPropertyOp28
 70
     1
102
RTVSPropertyOp29
 70
     1
102
RTVSPropertyOp30
 70
     1
102
RTVSPropertyOp31
 70
     1
102
RTVSPropertyOp32
 70
     1
  0
XRECORD
  5
C05
102
{ACAD_REACTORS
330
C04
102
}
330
C04
100
AcDbXrecord
280
     1
102
RTVSPropertyOp0
 70
     1
102
RTVSPropertyOp1
 70
     1
102
RTVSPropertyOp2
 70
     1
102
RTVSPropertyOp3
 70
     1
102
RTVSPropertyOp4
 70
     1
102
RTVSPropertyOp5
 70
     1
102
RTVSPropertyOp6
 70
     1
102
RTVSPropertyOp7
 70
     1
102
RTVSPropertyOp8
 70
     1
102
RTVSPropertyOp9
 70
     1
102
RTVSPropertyOp10
 70
     1
102
RTVSPropertyOp11
 70
     1
102
RTVSPropertyOp12
 70
     1
102
RTVSPropertyOp13
 70
     1
102
RTVSPropertyOp14
 70
     1
102
RTVSPropertyOp15
 70
     1
102
RTVSPropertyOp16
 70
     1
102
RTVSPropertyOp17
 70
     1
102
RTVSPropertyOp18
 70
     1
102
RTVSPropertyOp19
 70
     1
102
RTVSPropertyOp20
 70
     1
102
RTVSPropertyOp21
 70
     1
102
RTVSPropertyOp22
 70
     1
102
RTVSPropertyOp23
 70
     1
102
RTVSPropertyOp24
 70
     1
102
RTVSPropertyOp25
 70
     1
102
RTVSPropertyOp26
 70
     1
102
RTVSPropertyOp27
 70
     1
102
RTVSPropertyOp28
 70
     1
102
RTVSPropertyOp29
 70
     1
102
RTVSPropertyOp30
 70
     1
102
RTVSPropertyOp31
 70
     1
102
RTVSPropertyOp32
 70
     1
  0
XRECORD
  5
BF7
102
{ACAD_REACTORS
330
BF6
102
}
330
BF6
100
AcDbXrecord
280
     1
102
RTVSPropertyOp0
 70
     1
102
RTVSPropertyOp1
 70
     1
102
RTVSPropertyOp2
 70
     1
102
RTVSPropertyOp3
 70
     1
102
RTVSPropertyOp4
 70
     1
102
RTVSPropertyOp5
 70
     1
102
RTVSPropertyOp6
 70
     1
102
RTVSPropertyOp7
 70
     1
102
RTVSPropertyOp8
 70
     1
102
RTVSPropertyOp9
 70
     1
102
RTVSPropertyOp10
 70
     1
102
RTVSPropertyOp11
 70
     1
102
RTVSPropertyOp12
 70
     1
102
RTVSPropertyOp13
 70
     1
102
RTVSPropertyOp14
 70
     1
102
RTVSPropertyOp15
 70
     1
102
RTVSPropertyOp16
 70
     1
102
RTVSPropertyOp17
 70
     1
102
RTVSPropertyOp18
 70
     1
102
RTVSPropertyOp19
 70
     1
102
RTVSPropertyOp20
 70
     1
102
RTVSPropertyOp21
 70
     1
102
RTVSPropertyOp22
 70
     1
102
RTVSPropertyOp23
 70
     1
102
RTVSPropertyOp24
 70
     1
102
RTVSPropertyOp25
 70
     1
102
RTVSPropertyOp26
 70
     1
102
RTVSPropertyOp27
 70
     1
102
RTVSPropertyOp28
 70
     1
102
RTVSPropertyOp29
 70
     1
102
RTVSPropertyOp30
 70
     1
102
RTVSPropertyOp31
 70
     1
102
RTVSPropertyOp32
 70
     1
  0
XRECORD
  5
BFB
102
{ACAD_REACTORS
330
BFA
102
}
330
BFA
100
AcDbXrecord
280
     1
102
RTVSPropertyOp0
 70
     1
102
RTVSPropertyOp1
 70
     1
102
RTVSPropertyOp2
 70
     1
102
RTVSPropertyOp3
 70
     1
102
RTVSPropertyOp4
 70
     1
102
RTVSPropertyOp5
 70
     1
102
RTVSPropertyOp6
 70
     1
102
RTVSPropertyOp7
 70
     1
102
RTVSPropertyOp8
 70
     1
102
RTVSPropertyOp9
 70
     1
102
RTVSPropertyOp10
 70
     1
102
RTVSPropertyOp11
 70
     1
102
RTVSPropertyOp12
 70
     1
102
RTVSPropertyOp13
 70
     1
102
RTVSPropertyOp14
 70
     1
102
RTVSPropertyOp15
 70
     1
102
RTVSPropertyOp16
 70
     1
102
RTVSPropertyOp17
 70
     1
102
RTVSPropertyOp18
 70
     1
102
RTVSPropertyOp19
 70
     1
102
RTVSPropertyOp20
 70
     1
102
RTVSPropertyOp21
 70
     1
102
RTVSPropertyOp22
 70
     1
102
RTVSPropertyOp23
 70
     1
102
RTVSPropertyOp24
 70
     1
102
RTVSPropertyOp25
 70
     1
102
RTVSPropertyOp26
 70
     1
102
RTVSPropertyOp27
 70
     1
102
RTVSPropertyOp28
 70
     1
102
RTVSPropertyOp29
 70
     1
102
RTVSPropertyOp30
 70
     1
102
RTVSPropertyOp31
 70
     1
102
RTVSPropertyOp32
 70
     1
  0
XRECORD
  5
C15
102
{ACAD_REACTORS
330
C14
102
}
330
C14
100
AcDbXrecord
280
     1
102
RTVSPropertyOp0
 70
     0
102
RTVSPropertyOp1
 70
     0
102
RTVSPropertyOp2
 70
     0
102
RTVSPropertyOp3
 70
     0
102
RTVSPropertyOp4
 70
     0
102
RTVSPropertyOp5
 70
     0
102
RTVSPropertyOp6
 70
     0
102
RTVSPropertyOp7
 70
     0
102
RTVSPropertyOp8
 70
     0
102
RTVSPropertyOp9
 70
     0
102
RTVSPropertyOp10
 70
     0
102
RTVSPropertyOp11
 70
     0
102
RTVSPropertyOp12
 70
     0
102
RTVSPropertyOp13
 70
     0
102
RTVSPropertyOp14
 70
     2
102
RTVSPropertyOp15
 70
     0
102
RTVSPropertyOp16
 70
     0
102
RTVSPropertyOp17
 70
     0
102
RTVSPropertyOp18
 70
     0
102
RTVSPropertyOp19
 70
     0
102
RTVSPropertyOp20
 70
     0
102
RTVSPropertyOp21
 70
     0
102
RTVSPropertyOp22
 70
     0
102
RTVSPropertyOp23
 70
     0
102
RTVSPropertyOp24
 70
     0
102
RTVSPropertyOp25
 70
     0
102
RTVSPropertyOp26
 70
     0
102
RTVSPropertyOp27
 70
     0
102
RTVSPropertyOp28
 70
     0
102
RTVSPropertyOp29
 70
     0
102
RTVSPropertyOp30
 70
     0
102
RTVSPropertyOp31
 70
     0
102
RTVSPropertyOp32
 70
     0
  0
XRECORD
  5
C03
102
{ACAD_REACTORS
330
C02
102
}
330
C02
100
AcDbXrecord
280
     1
102
RTVSPropertyOp0
 70
     1
102
RTVSPropertyOp1
 70
     1
102
RTVSPropertyOp2
 70
     1
102
RTVSPropertyOp3
 70
     1
102
RTVSPropertyOp4
 70
     1
102
RTVSPropertyOp5
 70
     1
102
RTVSPropertyOp6
 70
     1
102
RTVSPropertyOp7
 70
     1
102
RTVSPropertyOp8
 70
     1
102
RTVSPropertyOp9
 70
     1
102
RTVSPropertyOp10
 70
     1
102
RTVSPropertyOp11
 70
     1
102
RTVSPropertyOp12
 70
     1
102
RTVSPropertyOp13
 70
     1
102
RTVSPropertyOp14
 70
     1
102
RTVSPropertyOp15
 70
     1
102
RTVSPropertyOp16
 70
     1
102
RTVSPropertyOp17
 70
     1
102
RTVSPropertyOp18
 70
     1
102
RTVSPropertyOp19
 70
     1
102
RTVSPropertyOp20
 70
     1
102
RTVSPropertyOp21
 70
     1
102
RTVSPropertyOp22
 70
     1
102
RTVSPropertyOp23
 70
     1
102
RTVSPropertyOp24
 70
     1
102
RTVSPropertyOp25
 70
     1
102
RTVSPropertyOp26
 70
     1
102
RTVSPropertyOp27
 70
     1
102
RTVSPropertyOp28
 70
     1
102
RTVSPropertyOp29
 70
     1
102
RTVSPropertyOp30
 70
     1
102
RTVSPropertyOp31
 70
     1
102
RTVSPropertyOp32
 70
     1
  0
XRECORD
  5
BE7
102
{ACAD_REACTORS
330
BE6
102
}
330
BE6
100
AcDbXrecord
280
     1
102
RTVSPropertyOp0
 70
     1
102
RTVSPropertyOp1
 70
     1
102
RTVSPropertyOp2
 70
     1
102
RTVSPropertyOp3
 70
     1
102
RTVSPropertyOp4
 70
     1
102
RTVSPropertyOp5
 70
     1
102
RTVSPropertyOp6
 70
     1
102
RTVSPropertyOp7
 70
     1
102
RTVSPropertyOp8
 70
     1
102
RTVSPropertyOp9
 70
     1
102
RTVSPropertyOp10
 70
     1
102
RTVSPropertyOp11
 70
     1
102
RTVSPropertyOp12
 70
     1
102
RTVSPropertyOp13
 70
     1
102
RTVSPropertyOp14
 70
     1
102
RTVSPropertyOp15
 70
     1
102
RTVSPropertyOp16
 70
     1
102
RTVSPropertyOp17
 70
     1
102
RTVSPropertyOp18
 70
     1
102
RTVSPropertyOp19
 70
     1
102
RTVSPropertyOp20
 70
     1
102
RTVSPropertyOp21
 70
     1
102
RTVSPropertyOp22
 70
     1
102
RTVSPropertyOp23
 70
     1
102
RTVSPropertyOp24
 70
     1
102
RTVSPropertyOp25
 70
     1
102
RTVSPropertyOp26
 70
     1
102
RTVSPropertyOp27
 70
     1
102
RTVSPropertyOp28
 70
     1
102
RTVSPropertyOp29
 70
     1
102
RTVSPropertyOp30
 70
     1
102
RTVSPropertyOp31
 70
     1
102
RTVSPropertyOp32
 70
     1
  0
XRECORD
  5
BE9
102
{ACAD_REACTORS
330
BE8
102
}
330
BE8
100
AcDbXrecord
280
     1
102
RTVSPropertyOp0
 70
     1
102
RTVSPropertyOp1
 70
     1
102
RTVSPropertyOp2
 70
     1
102
RTVSPropertyOp3
 70
     1
102
RTVSPropertyOp4
 70
     1
102
RTVSPropertyOp5
 70
     1
102
RTVSPropertyOp6
 70
     1
102
RTVSPropertyOp7
 70
     1
102
RTVSPropertyOp8
 70
     1
102
RTVSPropertyOp9
 70
     1
102
RTVSPropertyOp10
 70
     1
102
RTVSPropertyOp11
 70
     1
102
RTVSPropertyOp12
 70
     1
102
RTVSPropertyOp13
 70
     1
102
RTVSPropertyOp14
 70
     1
102
RTVSPropertyOp15
 70
     1
102
RTVSPropertyOp16
 70
     1
102
RTVSPropertyOp17
 70
     1
102
RTVSPropertyOp18
 70
     1
102
RTVSPropertyOp19
 70
     1
102
RTVSPropertyOp20
 70
     1
102
RTVSPropertyOp21
 70
     1
102
RTVSPropertyOp22
 70
     1
102
RTVSPropertyOp23
 70
     1
102
RTVSPropertyOp24
 70
     1
102
RTVSPropertyOp25
 70
     1
102
RTVSPropertyOp26
 70
     1
102
RTVSPropertyOp27
 70
     1
102
RTVSPropertyOp28
 70
     1
102
RTVSPropertyOp29
 70
     1
102
RTVSPropertyOp30
 70
     1
102
RTVSPropertyOp31
 70
     1
102
RTVSPropertyOp32
 70
     1
  0
XRECORD
  5
BEB
102
{ACAD_REACTORS
330
BEA
102
}
330
BEA
100
AcDbXrecord
280
     1
102
RTVSPropertyOp0
 70
     1
102
RTVSPropertyOp1
 70
     1
102
RTVSPropertyOp2
 70
     1
102
RTVSPropertyOp3
 70
     1
102
RTVSPropertyOp4
 70
     1
102
RTVSPropertyOp5
 70
     1
102
RTVSPropertyOp6
 70
     1
102
RTVSPropertyOp7
 70
     1
102
RTVSPropertyOp8
 70
     1
102
RTVSPropertyOp9
 70
     1
102
RTVSPropertyOp10
 70
     1
102
RTVSPropertyOp11
 70
     1
102
RTVSPropertyOp12
 70
     1
102
RTVSPropertyOp13
 70
     1
102
RTVSPropertyOp14
 70
     1
102
RTVSPropertyOp15
 70
     1
102
RTVSPropertyOp16
 70
     1
102
RTVSPropertyOp17
 70
     1
102
RTVSPropertyOp18
 70
     1
102
RTVSPropertyOp19
 70
     1
102
RTVSPropertyOp20
 70
     1
102
RTVSPropertyOp21
 70
     1
102
RTVSPropertyOp22
 70
     1
102
RTVSPropertyOp23
 70
     1
102
RTVSPropertyOp24
 70
     1
102
RTVSPropertyOp25
 70
     1
102
RTVSPropertyOp26
 70
     1
102
RTVSPropertyOp27
 70
     1
102
RTVSPropertyOp28
 70
     1
102
RTVSPropertyOp29
 70
     1
102
RTVSPropertyOp30
 70
     1
102
RTVSPropertyOp31
 70
     1
102
RTVSPropertyOp32
 70
     1
  0
XRECORD
  5
BED
102
{ACAD_REACTORS
330
BEC
102
}
330
BEC
100
AcDbXrecord
280
     1
102
RTVSPropertyOp0
 70
     1
102
RTVSPropertyOp1
 70
     1
102
RTVSPropertyOp2
 70
     1
102
RTVSPropertyOp3
 70
     1
102
RTVSPropertyOp4
 70
     1
102
RTVSPropertyOp5
 70
     1
102
RTVSPropertyOp6
 70
     1
102
RTVSPropertyOp7
 70
     1
102
RTVSPropertyOp8
 70
     1
102
RTVSPropertyOp9
 70
     1
102
RTVSPropertyOp10
 70
     1
102
RTVSPropertyOp11
 70
     1
102
RTVSPropertyOp12
 70
     1
102
RTVSPropertyOp13
 70
     1
102
RTVSPropertyOp14
 70
     1
102
RTVSPropertyOp15
 70
     1
102
RTVSPropertyOp16
 70
     1
102
RTVSPropertyOp17
 70
     1
102
RTVSPropertyOp18
 70
     1
102
RTVSPropertyOp19
 70
     1
102
RTVSPropertyOp20
 70
     1
102
RTVSPropertyOp21
 70
     1
102
RTVSPropertyOp22
 70
     1
102
RTVSPropertyOp23
 70
     1
102
RTVSPropertyOp24
 70
     1
102
RTVSPropertyOp25
 70
     1
102
RTVSPropertyOp26
 70
     1
102
RTVSPropertyOp27
 70
     1
102
RTVSPropertyOp28
 70
     1
102
RTVSPropertyOp29
 70
     1
102
RTVSPropertyOp30
 70
     1
102
RTVSPropertyOp31
 70
     1
102
RTVSPropertyOp32
 70
     1
  0
XRECORD
  5
BF5
102
{ACAD_REACTORS
330
BF4
102
}
330
BF4
100
AcDbXrecord
280
     1
102
RTVSPropertyOp0
 70
     1
102
RTVSPropertyOp1
 70
     1
102
RTVSPropertyOp2
 70
     1
102
RTVSPropertyOp3
 70
     1
102
RTVSPropertyOp4
 70
     1
102
RTVSPropertyOp5
 70
     1
102
RTVSPropertyOp6
 70
     1
102
RTVSPropertyOp7
 70
     1
102
RTVSPropertyOp8
 70
     1
102
RTVSPropertyOp9
 70
     1
102
RTVSPropertyOp10
 70
     1
102
RTVSPropertyOp11
 70
     1
102
RTVSPropertyOp12
 70
     1
102
RTVSPropertyOp13
 70
     1
102
RTVSPropertyOp14
 70
     1
102
RTVSPropertyOp15
 70
     1
102
RTVSPropertyOp16
 70
     1
102
RTVSPropertyOp17
 70
     1
102
RTVSPropertyOp18
 70
     1
102
RTVSPropertyOp19
 70
     1
102
RTVSPropertyOp20
 70
     1
102
RTVSPropertyOp21
 70
     1
102
RTVSPropertyOp22
 70
     1
102
RTVSPropertyOp23
 70
     1
102
RTVSPropertyOp24
 70
     1
102
RTVSPropertyOp25
 70
     1
102
RTVSPropertyOp26
 70
     1
102
RTVSPropertyOp27
 70
     1
102
RTVSPropertyOp28
 70
     1
102
RTVSPropertyOp29
 70
     1
102
RTVSPropertyOp30
 70
     1
102
RTVSPropertyOp31
 70
     1
102
RTVSPropertyOp32
 70
     1
  0
XRECORD
  5
C11
102
{ACAD_REACTORS
330
C10
102
}
330
C10
100
AcDbXrecord
280
     1
102
RTVSPropertyOp0
 70
     0
102
RTVSPropertyOp1
 70
     0
102
RTVSPropertyOp2
 70
     0
102
RTVSPropertyOp3
 70
     0
102
RTVSPropertyOp4
 70
     0
102
RTVSPropertyOp5
 70
     0
102
RTVSPropertyOp6
 70
     0
102
RTVSPropertyOp7
 70
     0
102
RTVSPropertyOp8
 70
     0
102
RTVSPropertyOp9
 70
     0
102
RTVSPropertyOp10
 70
     0
102
RTVSPropertyOp11
 70
     0
102
RTVSPropertyOp12
 70
     0
102
RTVSPropertyOp13
 70
     0
102
RTVSPropertyOp14
 70
     2
102
RTVSPropertyOp15
 70
     0
102
RTVSPropertyOp16
 70
     0
102
RTVSPropertyOp17
 70
     0
102
RTVSPropertyOp18
 70
     0
102
RTVSPropertyOp19
 70
     0
102
RTVSPropertyOp20
 70
     0
102
RTVSPropertyOp21
 70
     0
102
RTVSPropertyOp22
 70
     0
102
RTVSPropertyOp23
 70
     0
102
RTVSPropertyOp24
 70
     0
102
RTVSPropertyOp25
 70
     0
102
RTVSPropertyOp26
 70
     0
102
RTVSPropertyOp27
 70
     0
102
RTVSPropertyOp28
 70
     0
102
RTVSPropertyOp29
 70
     0
102
RTVSPropertyOp30
 70
     0
102
RTVSPropertyOp31
 70
     0
102
RTVSPropertyOp32
 70
     0
  0
XRECORD
  5
C01
102
{ACAD_REACTORS
330
C00
102
}
330
C00
100
AcDbXrecord
280
     1
102
RTVSPropertyOp0
 70
     1
102
RTVSPropertyOp1
 70
     1
102
RTVSPropertyOp2
 70
     1
102
RTVSPropertyOp3
 70
     1
102
RTVSPropertyOp4
 70
     1
102
RTVSPropertyOp5
 70
     1
102
RTVSPropertyOp6
 70
     1
102
RTVSPropertyOp7
 70
     1
102
RTVSPropertyOp8
 70
     1
102
RTVSPropertyOp9
 70
     1
102
RTVSPropertyOp10
 70
     1
102
RTVSPropertyOp11
 70
     1
102
RTVSPropertyOp12
 70
     1
102
RTVSPropertyOp13
 70
     1
102
RTVSPropertyOp14
 70
     1
102
RTVSPropertyOp15
 70
     1
102
RTVSPropertyOp16
 70
     1
102
RTVSPropertyOp17
 70
     1
102
RTVSPropertyOp18
 70
     1
102
RTVSPropertyOp19
 70
     1
102
RTVSPropertyOp20
 70
     1
102
RTVSPropertyOp21
 70
     1
102
RTVSPropertyOp22
 70
     1
102
RTVSPropertyOp23
 70
     1
102
RTVSPropertyOp24
 70
     1
102
RTVSPropertyOp25
 70
     1
102
RTVSPropertyOp26
 70
     1
102
RTVSPropertyOp27
 70
     1
102
RTVSPropertyOp28
 70
     1
102
RTVSPropertyOp29
 70
     1
102
RTVSPropertyOp30
 70
     1
102
RTVSPropertyOp31
 70
     1
102
RTVSPropertyOp32
 70
     1
  0
XRECORD
  5
C13
102
{ACAD_REACTORS
330
C12
102
}
330
C12
100
AcDbXrecord
280
     1
102
RTVSPropertyOp0
 70
     0
102
RTVSPropertyOp1
 70
     0
102
RTVSPropertyOp2
 70
     0
102
RTVSPropertyOp3
 70
     0
102
RTVSPropertyOp4
 70
     0
102
RTVSPropertyOp5
 70
     0
102
RTVSPropertyOp6
 70
     0
102
RTVSPropertyOp7
 70
     0
102
RTVSPropertyOp8
 70
     0
102
RTVSPropertyOp9
 70
     0
102
RTVSPropertyOp10
 70
     0
102
RTVSPropertyOp11
 70
     0
102
RTVSPropertyOp12
 70
     0
102
RTVSPropertyOp13
 70
     0
102
RTVSPropertyOp14
 70
     2
102
RTVSPropertyOp15
 70
     0
102
RTVSPropertyOp16
 70
     0
102
RTVSPropertyOp17
 70
     0
102
RTVSPropertyOp18
 70
     0
102
RTVSPropertyOp19
 70
     0
102
RTVSPropertyOp20
 70
     0
102
RTVSPropertyOp21
 70
     0
102
RTVSPropertyOp22
 70
     0
102
RTVSPropertyOp23
 70
     0
102
RTVSPropertyOp24
 70
     0
102
RTVSPropertyOp25
 70
     0
102
RTVSPropertyOp26
 70
     0
102
RTVSPropertyOp27
 70
     0
102
RTVSPropertyOp28
 70
     0
102
RTVSPropertyOp29
 70
     0
102
RTVSPropertyOp30
 70
     0
102
RTVSPropertyOp31
 70
     0
102
RTVSPropertyOp32
 70
     0
  0
XRECORD
  5
BF9
102
{ACAD_REACTORS
330
BF8
102
}
330
BF8
100
AcDbXrecord
280
     1
102
RTVSPropertyOp0
 70
     1
102
RTVSPropertyOp1
 70
     1
102
RTVSPropertyOp2
 70
     1
102
RTVSPropertyOp3
 70
     1
102
RTVSPropertyOp4
 70
     1
102
RTVSPropertyOp5
 70
     1
102
RTVSPropertyOp6
 70
     1
102
RTVSPropertyOp7
 70
     1
102
RTVSPropertyOp8
 70
     1
102
RTVSPropertyOp9
 70
     1
102
RTVSPropertyOp10
 70
     1
102
RTVSPropertyOp11
 70
     1
102
RTVSPropertyOp12
 70
     1
102
RTVSPropertyOp13
 70
     1
102
RTVSPropertyOp14
 70
     1
102
RTVSPropertyOp15
 70
     1
102
RTVSPropertyOp16
 70
     1
102
RTVSPropertyOp17
 70
     1
102
RTVSPropertyOp18
 70
     1
102
RTVSPropertyOp19
 70
     1
102
RTVSPropertyOp20
 70
     1
102
RTVSPropertyOp21
 70
     1
102
RTVSPropertyOp22
 70
     1
102
RTVSPropertyOp23
 70
     1
102
RTVSPropertyOp24
 70
     1
102
RTVSPropertyOp25
 70
     1
102
RTVSPropertyOp26
 70
     1
102
RTVSPropertyOp27
 70
     1
102
RTVSPropertyOp28
 70
     1
102
RTVSPropertyOp29
 70
     1
102
RTVSPropertyOp30
 70
     1
102
RTVSPropertyOp31
 70
     1
102
RTVSPropertyOp32
 70
     1
  0
XRECORD
  5
C0F
102
{ACAD_REACTORS
330
C0E
102
}
330
C0E
100
AcDbXrecord
280
     1
102
RTVSPropertyOp0
 70
     1
102
RTVSPropertyOp1
 70
     1
102
RTVSPropertyOp2
 70
     1
102
RTVSPropertyOp3
 70
     1
102
RTVSPropertyOp4
 70
     1
102
RTVSPropertyOp5
 70
     1
102
RTVSPropertyOp6
 70
     1
102
RTVSPropertyOp7
 70
     1
102
RTVSPropertyOp8
 70
     1
102
RTVSPropertyOp9
 70
     1
102
RTVSPropertyOp10
 70
     1
102
RTVSPropertyOp11
 70
     1
102
RTVSPropertyOp12
 70
     1
102
RTVSPropertyOp13
 70
     1
102
RTVSPropertyOp14
 70
     1
102
RTVSPropertyOp15
 70
     1
102
RTVSPropertyOp16
 70
     1
102
RTVSPropertyOp17
 70
     1
102
RTVSPropertyOp18
 70
     1
102
RTVSPropertyOp19
 70
     1
102
RTVSPropertyOp20
 70
     1
102
RTVSPropertyOp21
 70
     1
102
RTVSPropertyOp22
 70
     1
102
RTVSPropertyOp23
 70
     1
102
RTVSPropertyOp24
 70
     1
102
RTVSPropertyOp25
 70
     1
102
RTVSPropertyOp26
 70
     1
102
RTVSPropertyOp27
 70
     1
102
RTVSPropertyOp28
 70
     1
102
RTVSPropertyOp29
 70
     1
102
RTVSPropertyOp30
 70
     1
102
RTVSPropertyOp31
 70
     1
102
RTVSPropertyOp32
 70
     1
  0
XRECORD
  5
C0D
102
{ACAD_REACTORS
330
C0C
102
}
330
C0C
100
AcDbXrecord
280
     1
102
RTVSPropertyOp0
 70
     1
102
RTVSPropertyOp1
 70
     1
102
RTVSPropertyOp2
 70
     1
102
RTVSPropertyOp3
 70
     1
102
RTVSPropertyOp4
 70
     1
102
RTVSPropertyOp5
 70
     1
102
RTVSPropertyOp6
 70
     1
102
RTVSPropertyOp7
 70
     1
102
RTVSPropertyOp8
 70
     1
102
RTVSPropertyOp9
 70
     1
102
RTVSPropertyOp10
 70
     1
102
RTVSPropertyOp11
 70
     1
102
RTVSPropertyOp12
 70
     1
102
RTVSPropertyOp13
 70
     1
102
RTVSPropertyOp14
 70
     1
102
RTVSPropertyOp15
 70
     1
102
RTVSPropertyOp16
 70
     1
102
RTVSPropertyOp17
 70
     1
102
RTVSPropertyOp18
 70
     1
102
RTVSPropertyOp19
 70
     1
102
RTVSPropertyOp20
 70
     1
102
RTVSPropertyOp21
 70
     1
102
RTVSPropertyOp22
 70
     1
102
RTVSPropertyOp23
 70
     1
102
RTVSPropertyOp24
 70
     1
102
RTVSPropertyOp25
 70
     1
102
RTVSPropertyOp26
 70
     1
102
RTVSPropertyOp27
 70
     1
102
RTVSPropertyOp28
 70
     1
102
RTVSPropertyOp29
 70
     1
102
RTVSPropertyOp30
 70
     1
102
RTVSPropertyOp31
 70
     1
102
RTVSPropertyOp32
 70
     1
  0
XRECORD
  5
C07
102
{ACAD_REACTORS
330
C06
102
}
330
C06
100
AcDbXrecord
280
     1
102
RTVSPropertyOp0
 70
     1
102
RTVSPropertyOp1
 70
     1
102
RTVSPropertyOp2
 70
     1
102
RTVSPropertyOp3
 70
     1
102
RTVSPropertyOp4
 70
     1
102
RTVSPropertyOp5
 70
     1
102
RTVSPropertyOp6
 70
     1
102
RTVSPropertyOp7
 70
     1
102
RTVSPropertyOp8
 70
     1
102
RTVSPropertyOp9
 70
     1
102
RTVSPropertyOp10
 70
     1
102
RTVSPropertyOp11
 70
     1
102
RTVSPropertyOp12
 70
     1
102
RTVSPropertyOp13
 70
     1
102
RTVSPropertyOp14
 70
     1
102
RTVSPropertyOp15
 70
     1
102
RTVSPropertyOp16
 70
     1
102
RTVSPropertyOp17
 70
     1
102
RTVSPropertyOp18
 70
     1
102
RTVSPropertyOp19
 70
     1
102
RTVSPropertyOp20
 70
     1
102
RTVSPropertyOp21
 70
     1
102
RTVSPropertyOp22
 70
     1
102
RTVSPropertyOp23
 70
     1
102
RTVSPropertyOp24
 70
     1
102
RTVSPropertyOp25
 70
     1
102
RTVSPropertyOp26
 70
     1
102
RTVSPropertyOp27
 70
     1
102
RTVSPropertyOp28
 70
     1
102
RTVSPropertyOp29
 70
     1
102
RTVSPropertyOp30
 70
     1
102
RTVSPropertyOp31
 70
     1
102
RTVSPropertyOp32
 70
     1
  0
XRECORD
  5
C09
102
{ACAD_REACTORS
330
C08
102
}
330
C08
100
AcDbXrecord
280
     1
102
RTVSPropertyOp0
 70
     1
102
RTVSPropertyOp1
 70
     1
102
RTVSPropertyOp2
 70
     1
102
RTVSPropertyOp3
 70
     1
102
RTVSPropertyOp4
 70
     1
102
RTVSPropertyOp5
 70
     1
102
RTVSPropertyOp6
 70
     1
102
RTVSPropertyOp7
 70
     1
102
RTVSPropertyOp8
 70
     1
102
RTVSPropertyOp9
 70
     1
102
RTVSPropertyOp10
 70
     1
102
RTVSPropertyOp11
 70
     1
102
RTVSPropertyOp12
 70
     1
102
RTVSPropertyOp13
 70
     1
102
RTVSPropertyOp14
 70
     1
102
RTVSPropertyOp15
 70
     1
102
RTVSPropertyOp16
 70
     1
102
RTVSPropertyOp17
 70
     1
102
RTVSPropertyOp18
 70
     1
102
RTVSPropertyOp19
 70
     1
102
RTVSPropertyOp20
 70
     1
102
RTVSPropertyOp21
 70
     1
102
RTVSPropertyOp22
 70
     1
102
RTVSPropertyOp23
 70
     1
102
RTVSPropertyOp24
 70
     1
102
RTVSPropertyOp25
 70
     1
102
RTVSPropertyOp26
 70
     1
102
RTVSPropertyOp27
 70
     1
102
RTVSPropertyOp28
 70
     1
102
RTVSPropertyOp29
 70
     1
102
RTVSPropertyOp30
 70
     1
102
RTVSPropertyOp31
 70
     1
102
RTVSPropertyOp32
 70
     1
  0
XRECORD
  5
BFF
102
{ACAD_REACTORS
330
BFE
102
}
330
BFE
100
AcDbXrecord
280
     1
102
RTVSPropertyOp0
 70
     1
102
RTVSPropertyOp1
 70
     1
102
RTVSPropertyOp2
 70
     1
102
RTVSPropertyOp3
 70
     1
102
RTVSPropertyOp4
 70
     1
102
RTVSPropertyOp5
 70
     1
102
RTVSPropertyOp6
 70
     1
102
RTVSPropertyOp7
 70
     1
102
RTVSPropertyOp8
 70
     1
102
RTVSPropertyOp9
 70
     1
102
RTVSPropertyOp10
 70
     1
102
RTVSPropertyOp11
 70
     1
102
RTVSPropertyOp12
 70
     1
102
RTVSPropertyOp13
 70
     1
102
RTVSPropertyOp14
 70
     1
102
RTVSPropertyOp15
 70
     1
102
RTVSPropertyOp16
 70
     1
102
RTVSPropertyOp17
 70
     1
102
RTVSPropertyOp18
 70
     1
102
RTVSPropertyOp19
 70
     1
102
RTVSPropertyOp20
 70
     1
102
RTVSPropertyOp21
 70
     1
102
RTVSPropertyOp22
 70
     1
102
RTVSPropertyOp23
 70
     1
102
RTVSPropertyOp24
 70
     1
102
RTVSPropertyOp25
 70
     1
102
RTVSPropertyOp26
 70
     1
102
RTVSPropertyOp27
 70
     1
102
RTVSPropertyOp28
 70
     1
102
RTVSPropertyOp29
 70
     1
102
RTVSPropertyOp30
 70
     1
102
RTVSPropertyOp31
 70
     1
102
RTVSPropertyOp32
 70
     1
  0
XRECORD
  5
BF3
102
{ACAD_REACTORS
330
BF2
102
}
330
BF2
100
AcDbXrecord
280
     1
102
RTVSPropertyOp0
 70
     1
102
RTVSPropertyOp1
 70
     1
102
RTVSPropertyOp2
 70
     1
102
RTVSPropertyOp3
 70
     1
102
RTVSPropertyOp4
 70
     1
102
RTVSPropertyOp5
 70
     1
102
RTVSPropertyOp6
 70
     1
102
RTVSPropertyOp7
 70
     1
102
RTVSPropertyOp8
 70
     1
102
RTVSPropertyOp9
 70
     1
102
RTVSPropertyOp10
 70
     1
102
RTVSPropertyOp11
 70
     1
102
RTVSPropertyOp12
 70
     1
102
RTVSPropertyOp13
 70
     1
102
RTVSPropertyOp14
 70
     1
102
RTVSPropertyOp15
 70
     1
102
RTVSPropertyOp16
 70
     1
102
RTVSPropertyOp17
 70
     1
102
RTVSPropertyOp18
 70
     1
102
RTVSPropertyOp19
 70
     1
102
RTVSPropertyOp20
 70
     1
102
RTVSPropertyOp21
 70
     1
102
RTVSPropertyOp22
 70
     1
102
RTVSPropertyOp23
 70
     1
102
RTVSPropertyOp24
 70
     1
102
RTVSPropertyOp25
 70
     1
102
RTVSPropertyOp26
 70
     1
102
RTVSPropertyOp27
 70
     1
102
RTVSPropertyOp28
 70
     1
102
RTVSPropertyOp29
 70
     1
102
RTVSPropertyOp30
 70
     1
102
RTVSPropertyOp31
 70
     1
102
RTVSPropertyOp32
 70
     1
  0
XRECORD
  5
C0B
102
{ACAD_REACTORS
330
C0A
102
}
330
C0A
100
AcDbXrecord
280
     1
102
RTVSPropertyOp0
 70
     1
102
RTVSPropertyOp1
 70
     1
102
RTVSPropertyOp2
 70
     1
102
RTVSPropertyOp3
 70
     1
102
RTVSPropertyOp4
 70
     1
102
RTVSPropertyOp5
 70
     1
102
RTVSPropertyOp6
 70
     1
102
RTVSPropertyOp7
 70
     1
102
RTVSPropertyOp8
 70
     1
102
RTVSPropertyOp9
 70
     1
102
RTVSPropertyOp10
 70
     1
102
RTVSPropertyOp11
 70
     1
102
RTVSPropertyOp12
 70
     1
102
RTVSPropertyOp13
 70
     1
102
RTVSPropertyOp14
 70
     1
102
RTVSPropertyOp15
 70
     1
102
RTVSPropertyOp16
 70
     1
102
RTVSPropertyOp17
 70
     1
102
RTVSPropertyOp18
 70
     1
102
RTVSPropertyOp19
 70
     1
102
RTVSPropertyOp20
 70
     1
102
RTVSPropertyOp21
 70
     1
102
RTVSPropertyOp22
 70
     1
102
RTVSPropertyOp23
 70
     1
102
RTVSPropertyOp24
 70
     1
102
RTVSPropertyOp25
 70
     1
102
RTVSPropertyOp26
 70
     1
102
RTVSPropertyOp27
 70
     1
102
RTVSPropertyOp28
 70
     1
102
RTVSPropertyOp29
 70
     1
102
RTVSPropertyOp30
 70
     1
102
RTVSPropertyOp31
 70
     1
102
RTVSPropertyOp32
 70
     1
  0
ENDSEC
  0
EOF
