  0
SECTION
  2
HEADER
  9
$ACADVER
  1
AC1021
  9
$ACADMAINTVER
 70
     1
  9
$DWGCODEPAGE
  3
ANSI_932
  9
$LASTSAVEDBY
  1
Administrator
  9
$INSBASE
 10
0.0
 20
0.0
 30
0.0
  9
$EXTMIN
 10
-138.5052277465618
 20
-90.00393486804098
 30
-0.0000000000112498
  9
$EXTMAX
 10
138.6320481211328
 20
102.4765555570443
 30
0.0000000000002956
  9
$LIMMIN
 10
-138.501
 20
-90.00100000000001
  9
$LIMMAX
 10
138.729348
 20
102.473618
  9
$ORTHOMODE
 70
     0
  9
$REGENMODE
 70
     1
  9
$FILLMODE
 70
     1
  9
$QTEXTMODE
 70
     0
  9
$MIRRTEXT
 70
     0
  9
$LTSCALE
 40
4.620472
  9
$ATTMODE
 70
     1
  9
$TEXTSIZE
 40
0.2
  9
$TRACEWID
 40
0.05
  9
$TEXTSTYLE
  7
STANDARD
  9
$CLAYER
  8
0
  9
$CELTYPE
  6
CONTINUOUS
  9
$CECOLOR
 62
   256
  9
$CELTSCALE
 40
1.0
  9
$DISPSILH
 70
     0
  9
$DIMSCALE
 40
1.0
  9
$DIMASZ
 40
0.18
  9
$DIMEXO
 40
0.0625
  9
$DIMDLI
 40
0.38
  9
$DIMRND
 40
0.0
  9
$DIMDLE
 40
0.0
  9
$DIMEXE
 40
0.18
  9
$DIMTP
 40
0.0
  9
$DIMTM
 40
0.0
  9
$DIMTXT
 40
0.18
  9
$DIMCEN
 40
0.09
  9
$DIMTSZ
 40
0.0
  9
$DIMTOL
 70
     0
  9
$DIMLIM
 70
     0
  9
$DIMTIH
 70
     1
  9
$DIMTOH
 70
     1
  9
$DIMSE1
 70
     0
  9
$DIMSE2
 70
     0
  9
$DIMTAD
 70
     0
  9
$DIMZIN
 70
     0
  9
$DIMBLK
  1

  9
$DIMASO
 70
     1
  9
$DIMSHO
 70
     1
  9
$DIMPOST
  1

  9
$DIMAPOST
  1

  9
$DIMALT
 70
     0
  9
$DIMALTD
 70
     2
  9
$DIMALTF
 40
25.4
  9
$DIMLFAC
 40
1.0
  9
$DIMTOFL
 70
     0
  9
$DIMTVP
 40
0.0
  9
$DIMTIX
 70
     0
  9
$DIMSOXD
 70
     0
  9
$DIMSAH
 70
     0
  9
$DIMBLK1
  1

  9
$DIMBLK2
  1

  9
$DIMSTYLE
  2
Standard
  9
$DIMCLRD
 70
     0
  9
$DIMCLRE
 70
     0
  9
$DIMCLRT
 70
     0
  9
$DIMTFAC
 40
1.0
  9
$DIMGAP
 40
0.09
  9
$DIMJUST
 70
     0
  9
$DIMSD1
 70
     0
  9
$DIMSD2
 70
     0
  9
$DIMTOLJ
 70
     1
  9
$DIMTZIN
 70
     0
  9
$DIMALTZ
 70
     0
  9
$DIMALTTZ
 70
     0
  9
$DIMUPT
 70
     0
  9
$DIMDEC
 70
     4
  9
$DIMTDEC
 70
     4
  9
$DIMALTU
 70
     2
  9
$DIMALTTD
 70
     2
  9
$DIMTXSTY
  7
STANDARD
  9
$DIMAUNIT
 70
     0
  9
$DIMADEC
 70
     0
  9
$DIMALTRND
 40
0.0
  9
$DIMAZIN
 70
     0
  9
$DIMDSEP
 70
    46
  9
$DIMATFIT
 70
     3
  9
$DIMFRAC
 70
     0
  9
$DIMLDRBLK
  1

  9
$DIMLUNIT
 70
     2
  9
$DIMLWD
 70
    -2
  9
$DIMLWE
 70
    -2
  9
$DIMTMOVE
 70
     0
  9
$DIMFXL
 40
1.0
  9
$DIMFXLON
 70
     0
  9
$DIMJOGANG
 40
0.7853981633974483
  9
$DIMTFILL
 70
     0
  9
$DIMTFILLCLR
 70
     0
  9
$DIMARCSYM
 70
     0
  9
$DIMLTYPE
  6

  9
$DIMLTEX1
  6

  9
$DIMLTEX2
  6

  9
$LUNITS
 70
     2
  9
$LUPREC
 70
     4
  9
$SKETCHINC
 40
0.1
  9
$FILLETRAD
 40
0.0
  9
$AUNITS
 70
     0
  9
$AUPREC
 70
     0
  9
$MENU
  1
.
  9
$ELEVATION
 40
0.0
  9
$PELEVATION
 40
0.0
  9
$THICKNESS
 40
0.0
  9
$LIMCHECK
 70
     0
  9
$CHAMFERA
 40
0.0
  9
$CHAMFERB
 40
0.0
  9
$CHAMFERC
 40
0.0
  9
$CHAMFERD
 40
0.0
  9
$SKPOLY
 70
     0
  9
$TDCREATE
 40
2456128.776117431
  9
$TDUCREATE
 40
2456128.401117430
  9
$TDUPDATE
 40
2456128.812892604
  9
$TDUUPDATE
 40
2456128.437892604
  9
$TDINDWG
 40
0.0035174190
  9
$TDUSRTIMER
 40
0.0035091088
  9
$USRTIMER
 70
     1
  9
$ANGBASE
 50
0.0
  9
$ANGDIR
 70
     0
  9
$PDMODE
 70
     0
  9
$PDSIZE
 40
0.0
  9
$PLINEWID
 40
0.0
  9
$SPLFRAME
 70
     0
  9
$SPLINETYPE
 70
     6
  9
$SPLINESEGS
 70
     8
  9
$HANDSEED
  5
2AA
  9
$SURFTAB1
 70
     6
  9
$SURFTAB2
 70
     6
  9
$SURFTYPE
 70
     6
  9
$SURFU
 70
     6
  9
$SURFV
 70
     6
  9
$UCSBASE
  2

  9
$UCSNAME
  2

  9
$UCSORG
 10
0.0
 20
0.0
 30
0.0
  9
$UCSXDIR
 10
1.0
 20
0.0
 30
0.0
  9
$UCSYDIR
 10
0.0
 20
1.0
 30
0.0
  9
$UCSORTHOREF
  2

  9
$UCSORTHOVIEW
 70
     0
  9
$UCSORGTOP
 10
0.0
 20
0.0
 30
0.0
  9
$UCSORGBOTTOM
 10
0.0
 20
0.0
 30
0.0
  9
$UCSORGLEFT
 10
0.0
 20
0.0
 30
0.0
  9
$UCSORGRIGHT
 10
0.0
 20
0.0
 30
0.0
  9
$UCSORGFRONT
 10
0.0
 20
0.0
 30
0.0
  9
$UCSORGBACK
 10
0.0
 20
0.0
 30
0.0
  9
$PUCSBASE
  2

  9
$PUCSNAME
  2

  9
$PUCSORG
 10
0.0
 20
0.0
 30
0.0
  9
$PUCSXDIR
 10
1.0
 20
0.0
 30
0.0
  9
$PUCSYDIR
 10
0.0
 20
1.0
 30
0.0
  9
$PUCSORTHOREF
  2

  9
$PUCSORTHOVIEW
 70
     0
  9
$PUCSORGTOP
 10
0.0
 20
0.0
 30
0.0
  9
$PUCSORGBOTTOM
 10
0.0
 20
0.0
 30
0.0
  9
$PUCSORGLEFT
 10
0.0
 20
0.0
 30
0.0
  9
$PUCSORGRIGHT
 10
0.0
 20
0.0
 30
0.0
  9
$PUCSORGFRONT
 10
0.0
 20
0.0
 30
0.0
  9
$PUCSORGBACK
 10
0.0
 20
0.0
 30
0.0
  9
$USERI1
 70
     0
  9
$USERI2
 70
     0
  9
$USERI3
 70
     0
  9
$USERI4
 70
     0
  9
$USERI5
 70
     0
  9
$USERR1
 40
0.0
  9
$USERR2
 40
0.0
  9
$USERR3
 40
0.0
  9
$USERR4
 40
0.0
  9
$USERR5
 40
0.0
  9
$WORLDVIEW
 70
     1
  9
$SHADEDGE
 70
     3
  9
$SHADEDIF
 70
    70
  9
$TILEMODE
 70
     1
  9
$MAXACTVP
 70
    64
  9
$PINSBASE
 10
0.0
 20
0.0
 30
0.0
  9
$PLIMCHECK
 70
     0
  9
$PEXTMIN
 10
1.000000000000000E+20
 20
1.000000000000000E+20
 30
1.000000000000000E+20
  9
$PEXTMAX
 10
-1.000000000000000E+20
 20
-1.000000000000000E+20
 30
-1.000000000000000E+20
  9
$PLIMMIN
 10
0.0
 20
0.0
  9
$PLIMMAX
 10
12.0
 20
9.0
  9
$UNITMODE
 70
     0
  9
$VISRETAIN
 70
     1
  9
$PLINEGEN
 70
     0
  9
$PSLTSCALE
 70
     1
  9
$TREEDEPTH
 70
  3020
  9
$CMLSTYLE
  2
Standard
  9
$CMLJUST
 70
     0
  9
$CMLSCALE
 40
1.0
  9
$PROXYGRAPHICS
 70
     1
  9
$MEASUREMENT
 70
     0
  9
$CELWEIGHT
370
    -1
  9
$ENDCAPS
280
     0
  9
$JOINSTYLE
280
     0
  9
$LWDISPLAY
290
     0
  9
$INSUNITS
 70
     0
  9
$HYPERLINKBASE
  1

  9
$STYLESHEET
  1

  9
$XEDIT
290
     1
  9
$CEPSNTYPE
380
     0
  9
$PSTYLEMODE
290
     1
  9
$FINGERPRINTGUID
  2
{FF7B5BC9-0F56-4367-A9A9-A482322E7B5D}
  9
$VERSIONGUID
  2
{19B3022A-5122-49EF-A44D-431A9500BBA8}
  9
$EXTNAMES
290
     1
  9
$PSVPSCALE
 40
0.0
  9
$OLESTARTUP
290
     0
  9
$SORTENTS
280
   127
  9
$INDEXCTL
280
     0
  9
$HIDETEXT
280
     0
  9
$XCLIPFRAME
290
     0
  9
$HALOGAP
280
     0
  9
$OBSCOLOR
 70
   257
  9
$OBSLTYPE
280
     0
  9
$INTERSECTIONDISPLAY
280
     0
  9
$INTERSECTIONCOLOR
 70
   257
  9
$DIMASSOC
280
     1
  9
$PROJECTNAME
  1

  9
$CAMERADISPLAY
290
     0
  9
$LENSLENGTH
 40
50.0
  9
$CAMERAHEIGHT
 40
0.0
  9
$STEPSPERSEC
 40
2.0
  9
$STEPSIZE
 40
6.0
  9
$3DDWFPREC
 40
2.0
  9
$PSOLWIDTH
 40
0.25
  9
$PSOLHEIGHT
 40
4.0
  9
$LOFTANG1
 40
1.570796326794896
  9
$LOFTANG2
 40
1.570796326794896
  9
$LOFTMAG1
 40
0.0
  9
$LOFTMAG2
 40
0.0
  9
$LOFTPARAM
 70
     7
  9
$LOFTNORMALS
280
     1
  9
$LATITUDE
 40
37.795
  9
$LONGITUDE
 40
-122.394
  9
$NORTHDIRECTION
 40
0.0
  9
$TIMEZONE
 70
 -8000
  9
$LIGHTGLYPHDISPLAY
280
     1
  9
$TILEMODELIGHTSYNCH
280
     1
  9
$CMATERIAL
347
11
  9
$SOLIDHIST
280
     1
  9
$SHOWHIST
280
     1
  9
$DWFFRAME
280
     2
  9
$DGNFRAME
280
     0
  9
$REALWORLDSCALE
290
     1
  9
$INTERFERECOLOR
 62
     1
  9
$INTERFEREOBJVS
345
1E
  9
$INTERFEREVPVS
346
1B
  9
$CSHADOW
280
     0
  9
$SHADOWPLANELOCATION
 40
0.0
  0
ENDSEC
  0
SECTION
  2
CLASSES
  0
CLASS
  1
ACDBDICTIONARYWDFLT
  2
AcDbDictionaryWithDefault
  3
ObjectDBX Classes
 90
        0
 91
        1
280
     0
281
     0
  0
CLASS
  1
MATERIAL
  2
AcDbMaterial
  3
ObjectDBX Classes
 90
     1024
 91
        3
280
     0
281
     0
  0
CLASS
  1
VISUALSTYLE
  2
AcDbVisualStyle
  3
ObjectDBX Classes
 90
     4095
 91
       16
280
     0
281
     0
  0
CLASS
  1
TABLESTYLE
  2
AcDbTableStyle
  3
ObjectDBX Classes
 90
     4095
 91
        1
280
     0
281
     0
  0
CLASS
  1
DICTIONARYVAR
  2
AcDbDictionaryVar
  3
ObjectDBX Classes
 90
        0
 91
        1
280
     0
281
     0
  0
CLASS
  1
SORTENTSTABLE
  2
AcDbSortentsTable
  3
ObjectDBX Classes
 90
        0
 91
        1
280
     0
281
     0
  0
ENDSEC
  0
SECTION
  2
TABLES
  0
TABLE
  2
VPORT
  5
8
330
0
100
AcDbSymbolTable
 70
     1
  0
VPORT
  5
56
330
8
100
AcDbSymbolTableRecord
100
AcDbViewportTableRecord
  2
*Active
 70
     0
 10
0.0
 20
0.0
 11
1.0
 21
1.0
 12
0.063410187285502
 22
6.236310344501674
 13
0.0
 23
0.0
 14
1.0
 24
1.0
 15
0.0
 25
0.0
 16
0.0
 26
0.0
 36
1.0
 17
0.0
 27
0.0
 37
0.0
 40
194.0867253938621
 41
1.635097493036211
 42
50.0
 43
0.0
 44
0.0
 50
0.0
 51
0.0
 71
     0
 72
   100
 73
     1
 74
     1
 75
     0
 76
     0
 77
     0
 78
     0
281
     0
 65
     1
110
0.0
120
0.0
130
0.0
111
1.0
121
0.0
131
0.0
112
0.0
122
1.0
132
0.0
 79
     0
146
0.0
348
1A
 60
     3
 61
     5
292
     1
282
     1
141
0.0
142
0.0
 63
   250
421
  3355443
  0
ENDTAB
  0
TABLE
  2
LTYPE
  5
5
330
0
100
AcDbSymbolTable
 70
    25
  0
LTYPE
  5
28
330
5
100
AcDbSymbolTableRecord
100
AcDbLinetypeTableRecord
  2
ByBlock
 70
     0
  3

 72
    65
 73
     0
 40
0.0
  0
LTYPE
  5
29
330
5
100
AcDbSymbolTableRecord
100
AcDbLinetypeTableRecord
  2
ByLayer
 70
     0
  3

 72
    65
 73
     0
 40
0.0
  0
LTYPE
  5
2A
330
5
100
AcDbSymbolTableRecord
100
AcDbLinetypeTableRecord
  2
CONTINUOUS
 70
     0
  3
Solid-line
 72
    65
 73
     0
 40
0.0
  0
LTYPE
  5
3A
330
5
100
AcDbSymbolTableRecord
100
AcDbLinetypeTableRecord
  2
BORDER
 70
     0
  3
BORDER
 72
    65
 73
     6
 40
1.75
 49
0.5
 74
     0
 49
-0.25
 74
     0
 49
0.5
 74
     0
 49
-0.25
 74
     0
 49
0.0
 74
     0
 49
-0.25
 74
     0
  0
LTYPE
  5
3B
330
5
100
AcDbSymbolTableRecord
100
AcDbLinetypeTableRecord
  2
BORDER2
 70
     0
  3
BORDER2
 72
    65
 73
     6
 40
0.875
 49
0.25
 74
     0
 49
-0.125
 74
     0
 49
0.25
 74
     0
 49
-0.125
 74
     0
 49
0.0
 74
     0
 49
-0.125
 74
     0
  0
LTYPE
  5
3C
330
5
100
AcDbSymbolTableRecord
100
AcDbLinetypeTableRecord
  2
BORDERX2
 70
     0
  3
BORDERX2
 72
    65
 73
     6
 40
3.5
 49
1.0
 74
     0
 49
-0.5
 74
     0
 49
1.0
 74
     0
 49
-0.5
 74
     0
 49
0.0
 74
     0
 49
-0.5
 74
     0
  0
LTYPE
  5
3D
330
5
100
AcDbSymbolTableRecord
100
AcDbLinetypeTableRecord
  2
CENTER
 70
     0
  3
CENTER
 72
    65
 73
     4
 40
2.0
 49
1.25
 74
     0
 49
-0.25
 74
     0
 49
0.25
 74
     0
 49
-0.25
 74
     0
  0
LTYPE
  5
3E
330
5
100
AcDbSymbolTableRecord
100
AcDbLinetypeTableRecord
  2
CENTER2
 70
     0
  3
CENTER2
 72
    65
 73
     4
 40
1.125
 49
0.75
 74
     0
 49
-0.125
 74
     0
 49
0.125
 74
     0
 49
-0.125
 74
     0
  0
LTYPE
  5
3F
330
5
100
AcDbSymbolTableRecord
100
AcDbLinetypeTableRecord
  2
CENTERX2
 70
     0
  3
CENTERX2
 72
    65
 73
     4
 40
4.0
 49
2.5
 74
     0
 49
-0.5
 74
     0
 49
0.5
 74
     0
 49
-0.5
 74
     0
  0
LTYPE
  5
40
330
5
100
AcDbSymbolTableRecord
100
AcDbLinetypeTableRecord
  2
DASHDOT
 70
     0
  3
DASHDOT
 72
    65
 73
     4
 40
1.0
 49
0.5
 74
     0
 49
-0.25
 74
     0
 49
0.0
 74
     0
 49
-0.25
 74
     0
  0
LTYPE
  5
41
330
5
100
AcDbSymbolTableRecord
100
AcDbLinetypeTableRecord
  2
DASHDOT2
 70
     0
  3
DASHDOT2
 72
    65
 73
     4
 40
0.5
 49
0.25
 74
     0
 49
-0.125
 74
     0
 49
0.0
 74
     0
 49
-0.125
 74
     0
  0
LTYPE
  5
42
330
5
100
AcDbSymbolTableRecord
100
AcDbLinetypeTableRecord
  2
DASHDOTX2
 70
     0
  3
DASHDOTX2
 72
    65
 73
     4
 40
2.0
 49
1.0
 74
     0
 49
-0.5
 74
     0
 49
0.0
 74
     0
 49
-0.5
 74
     0
  0
LTYPE
  5
43
330
5
100
AcDbSymbolTableRecord
100
AcDbLinetypeTableRecord
  2
DASHED
 70
     0
  3
DASHED
 72
    65
 73
     2
 40
0.75
 49
0.5
 74
     0
 49
-0.25
 74
     0
  0
LTYPE
  5
44
330
5
100
AcDbSymbolTableRecord
100
AcDbLinetypeTableRecord
  2
DASHED2
 70
     0
  3
DASHED2
 72
    65
 73
     2
 40
0.375
 49
0.25
 74
     0
 49
-0.125
 74
     0
  0
LTYPE
  5
45
330
5
100
AcDbSymbolTableRecord
100
AcDbLinetypeTableRecord
  2
DASHEDX2
 70
     0
  3
DASHEDX2
 72
    65
 73
     2
 40
1.5
 49
1.0
 74
     0
 49
-0.5
 74
     0
  0
LTYPE
  5
46
330
5
100
AcDbSymbolTableRecord
100
AcDbLinetypeTableRecord
  2
DIVIDE
 70
     0
  3
DIVIDE
 72
    65
 73
     6
 40
1.25
 49
0.5
 74
     0
 49
-0.25
 74
     0
 49
0.0
 74
     0
 49
-0.25
 74
     0
 49
0.0
 74
     0
 49
-0.25
 74
     0
  0
LTYPE
  5
47
330
5
100
AcDbSymbolTableRecord
100
AcDbLinetypeTableRecord
  2
DIVIDE2
 70
     0
  3
DIVIDE2
 72
    65
 73
     6
 40
0.625
 49
0.25
 74
     0
 49
-0.125
 74
     0
 49
0.0
 74
     0
 49
-0.125
 74
     0
 49
0.0
 74
     0
 49
-0.125
 74
     0
  0
LTYPE
  5
48
330
5
100
AcDbSymbolTableRecord
100
AcDbLinetypeTableRecord
  2
DIVIDEX2
 70
     0
  3
DIVIDEX2
 72
    65
 73
     6
 40
2.5
 49
1.0
 74
     0
 49
-0.5
 74
     0
 49
0.0
 74
     0
 49
-0.5
 74
     0
 49
0.0
 74
     0
 49
-0.5
 74
     0
  0
LTYPE
  5
49
330
5
100
AcDbSymbolTableRecord
100
AcDbLinetypeTableRecord
  2
DOT
 70
     0
  3
DOT
 72
    65
 73
     2
 40
0.25
 49
0.0
 74
     0
 49
-0.25
 74
     0
  0
LTYPE
  5
4A
330
5
100
AcDbSymbolTableRecord
100
AcDbLinetypeTableRecord
  2
DOT2
 70
     0
  3
DOT2
 72
    65
 73
     2
 40
0.125
 49
0.0
 74
     0
 49
-0.125
 74
     0
  0
LTYPE
  5
4B
330
5
100
AcDbSymbolTableRecord
100
AcDbLinetypeTableRecord
  2
DOTX2
 70
     0
  3
DOTX2
 72
    65
 73
     2
 40
0.5
 49
0.0
 74
     0
 49
-0.5
 74
     0
  0
LTYPE
  5
4C
330
5
100
AcDbSymbolTableRecord
100
AcDbLinetypeTableRecord
  2
HIDDEN
 70
     0
  3
HIDDEN
 72
    65
 73
     2
 40
0.375
 49
0.25
 74
     0
 49
-0.125
 74
     0
  0
LTYPE
  5
4D
330
5
100
AcDbSymbolTableRecord
100
AcDbLinetypeTableRecord
  2
HIDDEN2
 70
     0
  3
HIDDEN2
 72
    65
 73
     2
 40
0.1875
 49
0.125
 74
     0
 49
-0.0625
 74
     0
  0
LTYPE
  5
4E
330
5
100
AcDbSymbolTableRecord
100
AcDbLinetypeTableRecord
  2
HIDDENX2
 70
     0
  3
HIDDENX2
 72
    65
 73
     2
 40
0.75
 49
0.5
 74
     0
 49
-0.25
 74
     0
  0
LTYPE
  5
4F
330
5
100
AcDbSymbolTableRecord
100
AcDbLinetypeTableRecord
  2
PHANTOM
 70
     0
  3
PHANTOM
 72
    65
 73
     6
 40
2.5
 49
1.25
 74
     0
 49
-0.25
 74
     0
 49
0.25
 74
     0
 49
-0.25
 74
     0
 49
0.25
 74
     0
 49
-0.25
 74
     0
  0
LTYPE
  5
50
330
5
100
AcDbSymbolTableRecord
100
AcDbLinetypeTableRecord
  2
PHANTOM2
 70
     0
  3
PHANTOM2
 72
    65
 73
     6
 40
1.25
 49
0.625
 74
     0
 49
-0.125
 74
     0
 49
0.125
 74
     0
 49
-0.125
 74
     0
 49
0.125
 74
     0
 49
-0.125
 74
     0
  0
LTYPE
  5
51
330
5
100
AcDbSymbolTableRecord
100
AcDbLinetypeTableRecord
  2
PHANTOMX2
 70
     0
  3
PHANTOMX2
 72
    65
 73
     6
 40
5.0
 49
2.5
 74
     0
 49
-0.5
 74
     0
 49
0.5
 74
     0
 49
-0.5
 74
     0
 49
0.5
 74
     0
 49
-0.5
 74
     0
  0
ENDTAB
  0
TABLE
  2
LAYER
  5
2
102
{ACAD_XDICTIONARY
360
235
102
}
330
0
100
AcDbSymbolTable
 70
     3
  0
LAYER
  5
25
330
2
100
AcDbSymbolTableRecord
100
AcDbLayerTableRecord
  2
0
 70
     0
 62
     7
  6
CONTINUOUS
370
    -3
390
F
347
13
  0
LAYER
  5
52
330
2
100
AcDbSymbolTableRecord
100
AcDbLayerTableRecord
  2
001
 70
     0
 62
     7
  6
CONTINUOUS
370
    -3
390
F
347
13
  0
LAYER
  5
231
330
2
100
AcDbSymbolTableRecord
100
AcDbLayerTableRecord
  2
Defpoints
 70
     0
 62
     7
  6
CONTINUOUS
290
     0
370
    -3
390
F
347
13
  0
ENDTAB
  0
TABLE
  2
STYLE
  5
3
330
0
100
AcDbSymbolTable
 70
     2
  0
STYLE
  5
26
330
3
100
AcDbSymbolTableRecord
100
AcDbTextStyleTableRecord
  2
STANDARD
 70
     0
 40
0.0
 41
1.0
 50
0.0
 71
     0
 42
0.2
  3
TXT
  4
BIGFONT
  0
STYLE
  5
53
330
3
100
AcDbSymbolTableRecord
100
AcDbTextStyleTableRecord
  2
TATEGAKI
 70
     4
 40
1.0
 41
1.0
 50
0.0
 71
     0
 42
0.2
  3
TXT
  4
BIGFONT
  0
ENDTAB
  0
TABLE
  2
VIEW
  5
6
330
0
100
AcDbSymbolTable
 70
     0
  0
ENDTAB
  0
TABLE
  2
UCS
  5
7
330
0
100
AcDbSymbolTable
 70
     0
  0
ENDTAB
  0
TABLE
  2
APPID
  5
9
330
0
100
AcDbSymbolTable
 70
     3
  0
APPID
  5
27
330
9
100
AcDbSymbolTableRecord
100
AcDbRegAppTableRecord
  2
ACAD
 70
     0
  0
APPID
  5
233
330
9
100
AcDbSymbolTableRecord
100
AcDbRegAppTableRecord
  2
ACAD_DSTYLE_DIMJOGGED_JOGANGLE_SYMBOL
 70
     0
  0
APPID
  5
234
330
9
100
AcDbSymbolTableRecord
100
AcDbRegAppTableRecord
  2
ACAD_PSEXT
 70
     0
  0
ENDTAB
  0
TABLE
  2
DIMSTYLE
  5
A
330
0
100
AcDbSymbolTable
 70
     2
100
AcDbDimStyleTable
 71
     0
  0
DIMSTYLE
105
1F8
330
A
100
AcDbSymbolTableRecord
100
AcDbDimStyleTableRecord
  2
Standard
 70
     0
340
26
  0
DIMSTYLE
105
232
330
A
100
AcDbSymbolTableRecord
100
AcDbDimStyleTableRecord
  2
1：1
 70
     0
 41
2.5
 42
0.25
 43
0.2
 44
1.25
 49
1.25
 50
90.0
 73
     0
 74
     0
 77
     3
 78
     8
 79
     2
 90
     2
140
2.5
141
0.0
143
0.03937007874016
147
0.625
171
     3
172
     1
178
     4
179
     1
271
     2
272
     2
274
     3
283
     0
284
     8
288
     1
289
     0
340
26
341
209
342
209
1001
ACAD_DSTYLE_DIMJOGGED_JOGANGLE_SYMBOL
1070
   384
1040
1.570796326794896
  0
ENDTAB
  0
TABLE
  2
BLOCK_RECORD
  5
1
330
0
100
AcDbSymbolTable
 70
     9
  0
BLOCK_RECORD
  5
36
102
{ACAD_XDICTIONARY
360
28E
102
}
330
1
100
AcDbSymbolTableRecord
100
AcDbBlockTableRecord
  2
*Model_Space
340
39
 70
     0
280
     1
281
     0
  0
BLOCK_RECORD
  5
32
330
1
100
AcDbSymbolTableRecord
100
AcDbBlockTableRecord
  2
*Paper_Space
340
35
 70
     0
280
     1
281
     0
  0
BLOCK_RECORD
  5
57
330
1
100
AcDbSymbolTableRecord
100
AcDbBlockTableRecord
  2
ARROW
340
0
102
{BLKREFS
331
64
331
65
102
}
 70
     0
280
     1
281
     0
  0
BLOCK_RECORD
  5
5F
330
1
100
AcDbSymbolTableRecord
100
AcDbBlockTableRecord
  2
*D1
340
0
 70
     0
280
     1
281
     0
  0
BLOCK_RECORD
  5
209
330
1
100
AcDbSymbolTableRecord
100
AcDbBlockTableRecord
  2
_Open30
340
0
102
{BLKREFS
331
214
331
215
331
21F
331
220
331
22A
331
22B
331
270
331
271
331
278
331
279
331
280
331
281
102
}
 70
     0
280
     1
281
     0
  0
BLOCK_RECORD
  5
20F
330
1
100
AcDbSymbolTableRecord
100
AcDbBlockTableRecord
  2
*D3
340
0
 70
     0
280
     1
281
     0
  0
BLOCK_RECORD
  5
21A
330
1
100
AcDbSymbolTableRecord
100
AcDbBlockTableRecord
  2
*D4
340
0
 70
     0
280
     1
281
     0
  0
BLOCK_RECORD
  5
225
330
1
100
AcDbSymbolTableRecord
100
AcDbBlockTableRecord
  2
*D5
340
0
 70
     0
280
     1
281
     0
  0
BLOCK_RECORD
  5
24B
330
1
100
AcDbSymbolTableRecord
100
AcDbBlockTableRecord
  2
*D6
340
0
 70
     0
280
     1
281
     0
  0
BLOCK_RECORD
  5
256
330
1
100
AcDbSymbolTableRecord
100
AcDbBlockTableRecord
  2
*D7
340
0
 70
     0
280
     1
281
     0
  0
BLOCK_RECORD
  5
261
330
1
100
AcDbSymbolTableRecord
100
AcDbBlockTableRecord
  2
*D8
340
0
 70
     0
280
     1
281
     0
  0
ENDTAB
  0
ENDSEC
  0
SECTION
  2
BLOCKS
  0
BLOCK
  5
37
330
36
100
AcDbEntity
  8
0
100
AcDbBlockBegin
  2
*Model_Space
 70
     0
 10
0.0
 20
0.0
 30
0.0
  3
*Model_Space
  1

  0
ENDBLK
  5
38
330
36
100
AcDbEntity
  8
0
100
AcDbBlockEnd
  0
BLOCK
  5
33
330
32
100
AcDbEntity
 67
     1
  8
0
100
AcDbBlockBegin
  2
*Paper_Space
 70
     0
 10
0.0
 20
0.0
 30
0.0
  3
*Paper_Space
  1

  0
ENDBLK
  5
34
330
32
100
AcDbEntity
 67
     1
  8
0
100
AcDbBlockEnd
  0
BLOCK
  5
58
330
57
100
AcDbEntity
  8
0
100
AcDbBlockBegin
  2
ARROW
 70
     0
 10
0.0
 20
0.0
 30
0.0
  3
ARROW
  1

  0
LWPOLYLINE
  5
59
330
57
100
AcDbEntity
  8
0
  6
Continuous
 62
     0
100
AcDbPolyline
 90
        3
 70
     0
 43
0.0
 10
2.0
 20
0.535898
 10
0.0
 20
0.0
 10
2.0
 20
-0.535898
  0
ENDBLK
  5
5E
330
57
100
AcDbEntity
  8
0
100
AcDbBlockEnd
  0
BLOCK
  5
60
330
5F
100
AcDbEntity
  8
001
100
AcDbBlockBegin
  2
*D1
 70
     1
 10
0.0
 20
0.0
 30
0.0
  3
*D1
  1

  0
LINE
  5
61
330
5F
100
AcDbEntity
  8
001
100
AcDbLine
 10
-86.97616999999999
 20
11.067341
 30
0.0
 11
-86.97616999999999
 21
-22.470208
 31
0.0
  0
LINE
  5
62
330
5F
100
AcDbEntity
  8
001
100
AcDbLine
 10
64.62188399999999
 20
5.426871
 30
0.0
 11
64.62188399999999
 21
-22.470208
 31
0.0
  0
LINE
  5
63
330
5F
100
AcDbEntity
  8
001
100
AcDbLine
 10
-86.97616999999999
 20
-21.470208
 30
0.0
 11
64.62188399999999
 21
-21.470208
 31
0.0
  0
INSERT
  5
64
330
5F
100
AcDbEntity
  8
001
  6
ByBlock
 62
     7
100
AcDbBlockReference
  2
ARROW
 10
-86.97616999999999
 20
-21.470208
 30
0.0
  0
INSERT
  5
65
330
5F
100
AcDbEntity
  8
001
  6
ByBlock
 62
     7
100
AcDbBlockReference
  2
ARROW
 10
64.62188399999999
 20
-21.470208
 30
0.0
 50
180.0
  0
TEXT
  5
66
330
5F
100
AcDbEntity
  8
001
100
AcDbText
 10
-19.927143
 20
-20.470208
 30
0.0
 40
4.5
  1
電線長さ
 41
0.833333
100
AcDbText
  0
POINT
  5
67
330
5F
100
AcDbEntity
  8
001
100
AcDbPoint
 10
-86.97616999999999
 20
12.067341
 30
0.0
  0
POINT
  5
68
330
5F
100
AcDbEntity
  8
001
100
AcDbPoint
 10
64.62188399999999
 20
6.426871
 30
0.0
  0
POINT
  5
69
330
5F
100
AcDbEntity
  8
001
100
AcDbPoint
 10
64.62188399999999
 20
-21.470208
 30
0.0
  0
ENDBLK
  5
6A
330
5F
100
AcDbEntity
  8
001
100
AcDbBlockEnd
  0
BLOCK
  5
20A
330
209
100
AcDbEntity
  8
0
100
AcDbBlockBegin
  2
_Open30
 70
     0
 10
0.0
 20
0.0
 30
0.0
  3
_Open30
  1

  0
LINE
  5
20B
330
209
100
AcDbEntity
  8
0
  6
ByBlock
 62
     0
370
    -2
100
AcDbLine
 10
-1.0
 20
0.267949
 30
0.0
 11
0.0
 21
0.0
 31
0.0
  0
LINE
  5
20C
330
209
100
AcDbEntity
  8
0
  6
ByBlock
 62
     0
370
    -2
100
AcDbLine
 10
0.0
 20
0.0
 30
0.0
 11
-1.0
 21
-0.267949
 31
0.0
  0
LINE
  5
20D
330
209
100
AcDbEntity
  8
0
  6
ByBlock
 62
     0
370
    -2
100
AcDbLine
 10
0.0
 20
0.0
 30
0.0
 11
-1.0
 21
0.0
 31
0.0
  0
ENDBLK
  5
20E
330
209
100
AcDbEntity
  8
0
100
AcDbBlockEnd
  0
BLOCK
  5
210
330
20F
100
AcDbEntity
  8
0
100
AcDbBlockBegin
  2
*D3
 70
     1
 10
0.0
 20
0.0
 30
0.0
  3
*D3
  1

  0
LINE
  5
211
330
20F
100
AcDbEntity
  8
0
  6
Continuous
 62
     0
370
    -2
100
AcDbLine
 10
-20.72959369408408
 20
35.47289982279862
 30
0.0
 11
-22.25207710584149
 21
33.48996153305698
 31
0.0
  0
LINE
  5
212
330
20F
100
AcDbEntity
  8
0
  6
Continuous
 62
     0
370
    -2
100
AcDbLine
 10
-6.722746305915912
 20
53.71593208842171
 30
0.0
 11
-0.2367177980343165
 21
62.16357373581956
 31
0.0
  0
LINE
  5
213
330
20F
100
AcDbEntity
  8
0
  6
Continuous
 62
     0
370
    -2
100
AcDbLine
 10
-19.20711028232667
 20
37.45583811254026
 30
0.0
 11
-8.24522971767332
 21
51.7329937986801
 31
0.0
  0
INSERT
  5
214
330
20F
100
AcDbEntity
  8
0
  6
Continuous
 62
     0
370
    -2
100
AcDbBlockReference
  2
_Open30
 10
-19.20711028232667
 20
37.45583811254026
 30
0.0
 41
2.5
 42
2.5
 43
2.5
 50
52.4832477828218
  0
INSERT
  5
215
330
20F
100
AcDbEntity
  8
0
  6
Continuous
 62
     0
370
    -2
100
AcDbBlockReference
  2
_Open30
 10
-8.24522971767332
 20
51.7329937986801
 30
0.0
 41
2.5
 42
2.5
 43
2.5
 50
232.4832477828218
  0
MTEXT
  5
216
330
20F
100
AcDbEntity
  8
0
  6
Continuous
 62
     4
100
AcDbMText
 10
-3.880773015330216
 20
60.49627371750365
 30
0.0
 40
2.5
 41
0.0
 46
0.0
 71
     5
 72
     1
  1
∅18
 11
0.6089933647029647
 21
0.7931753158966574
 31
0.0
 73
     1
 44
1.0
  0
POINT
  5
217
330
20F
100
AcDbEntity
  8
Defpoints
  6
Continuous
 62
     0
100
AcDbPoint
 10
-8.24522971767332
 20
51.7329937986801
 30
0.0
  0
POINT
  5
218
330
20F
100
AcDbEntity
  8
Defpoints
  6
Continuous
 62
     0
100
AcDbPoint
 10
-19.20711028232667
 20
37.45583811254026
 30
0.0
  0
ENDBLK
  5
219
330
20F
100
AcDbEntity
  8
0
100
AcDbBlockEnd
  0
BLOCK
  5
21B
330
21A
100
AcDbEntity
  8
0
100
AcDbBlockBegin
  2
*D4
 70
     1
 10
0.0
 20
0.0
 30
0.0
  3
*D4
  1

  0
LINE
  5
21C
330
21A
100
AcDbEntity
  8
0
  6
Continuous
 62
     0
370
    -2
100
AcDbLine
 10
-19.74053120341605
 20
41.53011190495792
 30
0.0
 11
-21.96807238986645
 21
40.39518447879042
 31
0.0
  0
LINE
  5
21D
330
21A
100
AcDbEntity
  8
0
  6
Continuous
 62
     0
370
    -2
100
AcDbLine
 10
-7.711808796583946
 20
47.65872000626243
 30
0.0
 11
5.815720556320459
 21
54.55096701129399
 31
0.0
  0
LINE
  5
21E
330
21A
100
AcDbEntity
  8
0
  6
Continuous
 62
     0
370
    -2
100
AcDbLine
 10
-17.51299001696567
 20
42.66503933112542
 30
0.0
 11
-9.939349983034334
 21
46.52379258009491
 31
0.0
  0
INSERT
  5
21F
330
21A
100
AcDbEntity
  8
0
  6
Continuous
 62
     0
370
    -2
100
AcDbBlockReference
  2
_Open30
 10
-17.51299001696567
 20
42.66503933112542
 30
0.0
 41
2.5
 42
2.5
 43
2.5
 50
26.99874418579943
  0
INSERT
  5
220
330
21A
100
AcDbEntity
  8
0
  6
Continuous
 62
     0
370
    -2
100
AcDbBlockReference
  2
_Open30
 10
-9.939349983034334
 20
46.52379258009491
 30
0.0
 41
2.5
 42
2.5
 43
2.5
 50
206.9987441857994
  0
MTEXT
  5
221
330
21A
100
AcDbEntity
  8
0
  6
Continuous
 62
     4
100
AcDbMText
 10
1.066327910406659
 20
54.23549990533864
 30
0.0
 40
2.5
 41
0.0
 46
0.0
 71
     5
 72
     1
  1
∅8.5
 11
0.8910164745801559
 21
0.4539709704670008
 31
0.0
 73
     1
 44
1.0
  0
POINT
  5
222
330
21A
100
AcDbEntity
  8
Defpoints
  6
Continuous
 62
     0
100
AcDbPoint
 10
-9.939349983034334
 20
46.52379258009491
 30
0.0
  0
POINT
  5
223
330
21A
100
AcDbEntity
  8
Defpoints
  6
Continuous
 62
     0
100
AcDbPoint
 10
-17.51299001696567
 20
42.66503933112542
 30
0.0
  0
ENDBLK
  5
224
330
21A
100
AcDbEntity
  8
0
100
AcDbBlockEnd
  0
BLOCK
  5
226
330
225
100
AcDbEntity
  8
0
100
AcDbBlockBegin
  2
*D5
 70
     1
 10
0.0
 20
0.0
 30
0.0
  3
*D5
  1

  0
LINE
  5
227
330
225
100
AcDbEntity
  8
0
  6
Continuous
 62
     0
370
    -2
100
AcDbLine
 10
-13.47617
 20
44.59441595561017
 30
0.0
 11
2.514327246308661
 21
44.59441595561017
 31
0.0
  0
LINE
  5
228
330
225
100
AcDbEntity
  8
0
  6
Continuous
 62
     0
370
    -2
100
AcDbLine
 10
-13.85324665828015
 20
28.59885991045251
 30
0.0
 11
2.514327246308659
 21
28.59885991045251
 31
0.0
  0
LINE
  5
229
330
225
100
AcDbEntity
  8
0
  6
Continuous
 62
     0
370
    -2
100
AcDbLine
 10
1.264327246308659
 20
42.09441595561017
 30
0.0
 11
1.264327246308657
 21
31.09885991045251
 31
0.0
  0
INSERT
  5
22A
330
225
100
AcDbEntity
  8
0
  6
Continuous
 62
     0
370
    -2
100
AcDbBlockReference
  2
_Open30
 10
1.264327246308661
 20
44.59441595561017
 30
0.0
 41
2.5
 42
2.5
 43
2.5
 50
90.0
  0
INSERT
  5
22B
330
225
100
AcDbEntity
  8
0
  6
Continuous
 62
     0
370
    -2
100
AcDbBlockReference
  2
_Open30
 10
1.264327246308657
 20
28.59885991045251
 30
0.0
 41
2.5
 42
2.5
 43
2.5
 50
270.0
  0
MTEXT
  5
22C
330
225
100
AcDbEntity
  8
0
  6
Continuous
 62
     4
100
AcDbMText
 10
-0.610672753691347
 20
36.89661159041953
 30
0.0
 40
2.5
 41
0.0
 46
0.0
 71
     5
 72
     1
  1
16
 11
0.0000000000000001
 21
1.0
 31
0.0
 73
     1
 44
1.0
  0
POINT
  5
22D
330
225
100
AcDbEntity
  8
Defpoints
  6
Continuous
 62
     0
100
AcDbPoint
 10
-13.72617
 20
44.59441595561017
 30
0.0
  0
POINT
  5
22E
330
225
100
AcDbEntity
  8
Defpoints
  6
Continuous
 62
     0
100
AcDbPoint
 10
-14.10324665828015
 20
28.59885991045251
 30
0.0
  0
POINT
  5
22F
330
225
100
AcDbEntity
  8
Defpoints
  6
Continuous
 62
     0
100
AcDbPoint
 10
1.264327246308657
 20
28.59885991045251
 30
0.0
  0
ENDBLK
  5
230
330
225
100
AcDbEntity
  8
0
100
AcDbBlockEnd
  0
BLOCK
  5
254
330
24B
100
AcDbEntity
  8
0
100
AcDbBlockBegin
  2
*D6
 70
     1
 10
0.0
 20
0.0
 30
0.0
  3
*D6
  1

  0
LINE
  5
26D
330
24B
100
AcDbEntity
  8
0
  6
Continuous
 62
     0
370
    -2
100
AcDbLine
 10
-20.58100139137615
 20
40.76369967734071
 30
0.0
 11
-22.10348480313355
 21
38.78076138759907
 31
0.0
  0
LINE
  5
26E
330
24B
100
AcDbEntity
  8
0
  6
Continuous
 62
     0
370
    -2
100
AcDbLine
 10
-6.574154003207992
 20
59.00673194296384
 30
0.0
 11
-0.0881254953263948
 21
67.45437359036171
 31
0.0
  0
LINE
  5
26F
330
24B
100
AcDbEntity
  8
0
  6
Continuous
 62
     0
370
    -2
100
AcDbLine
 10
-19.05851797961874
 20
42.74663796708235
 30
0.0
 11
-8.096637414965401
 21
57.0237936532222
 31
0.0
  0
INSERT
  5
270
330
24B
100
AcDbEntity
  8
0
  6
Continuous
 62
     0
370
    -2
100
AcDbBlockReference
  2
_Open30
 10
-19.05851797961874
 20
42.74663796708235
 30
0.0
 41
2.5
 42
2.5
 43
2.5
 50
52.48324778282189
  0
INSERT
  5
271
330
24B
100
AcDbEntity
  8
0
  6
Continuous
 62
     0
370
    -2
100
AcDbBlockReference
  2
_Open30
 10
-8.096637414965401
 20
57.0237936532222
 30
0.0
 41
2.5
 42
2.5
 43
2.5
 50
232.4832477828219
  0
MTEXT
  5
272
330
24B
100
AcDbEntity
  8
0
  6
Continuous
 62
     4
100
AcDbMText
 10
-3.732180712622283
 20
65.78707357204578
 30
0.0
 40
2.5
 41
0.0
 46
0.0
 71
     5
 72
     1
  1
∅18
 11
0.6089933647029634
 21
0.7931753158966581
 31
0.0
 73
     1
 44
1.0
  0
POINT
  5
273
330
24B
100
AcDbEntity
  8
Defpoints
  6
Continuous
 62
     0
100
AcDbPoint
 10
-8.096637414965401
 20
57.0237936532222
 30
0.0
  0
POINT
  5
274
330
24B
100
AcDbEntity
  8
Defpoints
  6
Continuous
 62
     0
100
AcDbPoint
 10
-19.05851797961874
 20
42.74663796708235
 30
0.0
  0
ENDBLK
  5
255
330
24B
100
AcDbEntity
  8
0
100
AcDbBlockEnd
  0
BLOCK
  5
25F
330
256
100
AcDbEntity
  8
0
100
AcDbBlockBegin
  2
*D7
 70
     1
 10
0.0
 20
0.0
 30
0.0
  3
*D7
  1

  0
LINE
  5
275
330
256
100
AcDbEntity
  8
0
  6
Continuous
 62
     0
370
    -2
100
AcDbLine
 10
-19.59193890070813
 20
46.82091175950002
 30
0.0
 11
-21.81948008715852
 21
45.68598433333252
 31
0.0
  0
LINE
  5
276
330
256
100
AcDbEntity
  8
0
  6
Continuous
 62
     0
370
    -2
100
AcDbLine
 10
-7.563216493876018
 20
52.94951986080455
 30
0.0
 11
5.964312859028392
 21
59.84176686583611
 31
0.0
  0
LINE
  5
277
330
256
100
AcDbEntity
  8
0
  6
Continuous
 62
     0
370
    -2
100
AcDbLine
 10
-17.36439771425774
 20
47.95583918566753
 30
0.0
 11
-9.790757680326407
 21
51.81459243463705
 31
0.0
  0
INSERT
  5
278
330
256
100
AcDbEntity
  8
0
  6
Continuous
 62
     0
370
    -2
100
AcDbBlockReference
  2
_Open30
 10
-17.36439771425774
 20
47.95583918566753
 30
0.0
 41
2.5
 42
2.5
 43
2.5
 50
26.99874418579943
  0
INSERT
  5
279
330
256
100
AcDbEntity
  8
0
  6
Continuous
 62
     0
370
    -2
100
AcDbBlockReference
  2
_Open30
 10
-9.790757680326407
 20
51.81459243463705
 30
0.0
 41
2.5
 42
2.5
 43
2.5
 50
206.9987441857994
  0
MTEXT
  5
27A
330
256
100
AcDbEntity
  8
0
  6
Continuous
 62
     4
100
AcDbMText
 10
1.214920213114587
 20
59.52629975988076
 30
0.0
 40
2.5
 41
0.0
 46
0.0
 71
     5
 72
     1
  1
∅8.5
 11
0.8910164745801559
 21
0.4539709704670008
 31
0.0
 73
     1
 44
1.0
  0
POINT
  5
27B
330
256
100
AcDbEntity
  8
Defpoints
  6
Continuous
 62
     0
100
AcDbPoint
 10
-9.790757680326407
 20
51.81459243463705
 30
0.0
  0
POINT
  5
27C
330
256
100
AcDbEntity
  8
Defpoints
  6
Continuous
 62
     0
100
AcDbPoint
 10
-17.36439771425774
 20
47.95583918566753
 30
0.0
  0
ENDBLK
  5
260
330
256
100
AcDbEntity
  8
0
100
AcDbBlockEnd
  0
BLOCK
  5
26B
330
261
100
AcDbEntity
  8
0
100
AcDbBlockBegin
  2
*D8
 70
     1
 10
0.0
 20
0.0
 30
0.0
  3
*D8
  1

  0
LINE
  5
27D
330
261
100
AcDbEntity
  8
0
  6
Continuous
 62
     0
370
    -2
100
AcDbLine
 10
-13.32757769729207
 20
49.88521581015229
 30
0.0
 11
2.662919549016586
 21
49.88521581015229
 31
0.0
  0
LINE
  5
27E
330
261
100
AcDbEntity
  8
0
  6
Continuous
 62
     0
370
    -2
100
AcDbLine
 10
-13.70465435557222
 20
33.88965976499463
 30
0.0
 11
2.662919549016582
 21
33.88965976499463
 31
0.0
  0
LINE
  5
27F
330
261
100
AcDbEntity
  8
0
  6
Continuous
 62
     0
370
    -2
100
AcDbLine
 10
1.412919549016586
 20
47.38521581015229
 30
0.0
 11
1.412919549016582
 21
36.38965976499463
 31
0.0
  0
INSERT
  5
280
330
261
100
AcDbEntity
  8
0
  6
Continuous
 62
     0
370
    -2
100
AcDbBlockReference
  2
_Open30
 10
1.412919549016586
 20
49.88521581015229
 30
0.0
 41
2.5
 42
2.5
 43
2.5
 50
90.0
  0
INSERT
  5
281
330
261
100
AcDbEntity
  8
0
  6
Continuous
 62
     0
370
    -2
100
AcDbBlockReference
  2
_Open30
 10
1.412919549016582
 20
33.88965976499463
 30
0.0
 41
2.5
 42
2.5
 43
2.5
 50
270.0
  0
MTEXT
  5
282
330
261
100
AcDbEntity
  8
0
  6
Continuous
 62
     4
100
AcDbMText
 10
-0.4620804509834218
 20
42.18741144496163
 30
0.0
 40
2.5
 41
0.0
 46
0.0
 71
     5
 72
     1
  1
16
 11
0.0000000000000001
 21
1.0
 31
0.0
 73
     1
 44
1.0
  0
POINT
  5
283
330
261
100
AcDbEntity
  8
Defpoints
  6
Continuous
 62
     0
100
AcDbPoint
 10
-13.57757769729207
 20
49.88521581015229
 30
0.0
  0
POINT
  5
284
330
261
100
AcDbEntity
  8
Defpoints
  6
Continuous
 62
     0
100
AcDbPoint
 10
-13.95465435557222
 20
33.88965976499463
 30
0.0
  0
POINT
  5
285
330
261
100
AcDbEntity
  8
Defpoints
  6
Continuous
 62
     0
100
AcDbPoint
 10
1.412919549016582
 20
33.88965976499463
 30
0.0
  0
ENDBLK
  5
26C
330
261
100
AcDbEntity
  8
0
100
AcDbBlockEnd
  0
ENDSEC
  0
SECTION
  2
ENTITIES
  0
LINE
  5
6C
330
36
100
AcDbEntity
  8
001
 62
     3
100
AcDbLine
 10
86.92923099999999
 20
-73.327652
 30
0.0
 11
86.92923099999999
 21
-52.327652
 31
0.0
  0
LINE
  5
6D
330
36
100
AcDbEntity
  8
001
 62
     3
100
AcDbLine
 10
99.929231
 20
-73.327652
 30
0.0
 11
99.929231
 21
-52.327652
 31
0.0
  0
LINE
  5
6E
330
36
100
AcDbEntity
  8
001
 62
     3
100
AcDbLine
 10
112.929231
 20
-73.327652
 30
0.0
 11
112.929231
 21
-52.327652
 31
0.0
  0
LINE
  5
6F
330
36
100
AcDbEntity
  8
001
 62
     3
100
AcDbLine
 10
86.92923099999999
 20
-73.327652
 30
0.0
 11
86.92923099999999
 21
-80.327652
 31
0.0
  0
LINE
  5
70
330
36
100
AcDbEntity
  8
001
 62
     3
100
AcDbLine
 10
59.87562099999998
 20
-80.327652
 30
0.0
 11
59.87562099999998
 21
-66.327652
 31
0.0
  0
LINE
  5
71
330
36
100
AcDbEntity
  8
001
 62
     3
100
AcDbLine
 10
70.20755600000001
 20
-66.71767599999999
 30
0.0
 11
70.20755600000001
 21
-80.327652
 31
0.0
  0
TEXT
  5
72
330
36
100
AcDbEntity
  8
001
 62
     3
100
AcDbText
 10
88.939549
 20
-54.12253599999999
 30
0.0
 40
2.0
  1
A
 41
0.7
100
AcDbText
  0
TEXT
  5
73
330
36
100
AcDbEntity
  8
001
 62
     3
100
AcDbText
 10
91.47483499999999
 20
-54.12253599999999
 30
0.0
 40
2.0
  1
P
 41
0.7
100
AcDbText
  0
TEXT
  5
74
330
36
100
AcDbEntity
  8
001
 62
     3
100
AcDbText
 10
94.010121
 20
-54.12253599999999
 30
0.0
 40
2.0
  1
P
 41
0.7
100
AcDbText
  0
TEXT
  5
75
330
36
100
AcDbEntity
  8
001
 62
     3
100
AcDbText
 10
96.54540799999999
 20
-54.12253599999999
 30
0.0
 40
2.0
  1
D
 41
0.7
100
AcDbText
  0
TEXT
  5
76
330
36
100
AcDbEntity
  8
001
 62
     3
100
AcDbText
 10
101.914091
 20
-54.12253599999999
 30
0.0
 40
2.0
  1
C
 41
0.7
100
AcDbText
  0
TEXT
  5
77
330
36
100
AcDbEntity
  8
001
 62
     3
100
AcDbText
 10
104.449377
 20
-54.12253599999999
 30
0.0
 40
2.0
  1
H
 41
0.7
100
AcDbText
  0
TEXT
  5
78
330
36
100
AcDbEntity
  8
001
 62
     3
100
AcDbText
 10
106.984663
 20
-54.12253599999999
 30
0.0
 40
2.0
  1
C
 41
0.7
100
AcDbText
  0
TEXT
  5
79
330
36
100
AcDbEntity
  8
001
 62
     3
100
AcDbText
 10
109.519949
 20
-54.12253599999999
 30
0.0
 40
2.0
  1
K
 41
0.7
100
AcDbText
  0
TEXT
  5
7A
330
36
100
AcDbEntity
  8
001
 62
     3
100
AcDbText
 10
115.193916
 20
-54.12253599999999
 30
0.0
 40
2.0
  1
DESN
 41
1.216762999999998
100
AcDbText
  0
TEXT
  5
7B
330
36
100
AcDbEntity
  8
001
 62
     3
100
AcDbText
 10
30.187557
 20
-83.469034
 30
0.0
 40
2.0
  1
NICHIDO IND.CO.LTD
 41
1.274876
100
AcDbText
  0
LINE
  5
7C
330
36
100
AcDbEntity
  8
001
 62
     3
100
AcDbLine
 10
40.57058699999998
 20
-52.686976
 30
0.0
 11
40.57058699999998
 21
-73.327652
 31
0.0
  0
LINE
  5
7D
330
36
100
AcDbEntity
  8
001
 62
     3
100
AcDbLine
 10
86.92923099999999
 20
-80.327652
 30
0.0
 11
86.92923099999999
 21
-89.99337399999998
 31
0.0
  0
LINE
  5
7E
330
36
100
AcDbEntity
  8
001
 62
     3
100
AcDbLine
 10
40.57058699999998
 20
-52.327652
 30
0.0
 11
40.57058699999998
 21
-50.327652
 31
0.0
  0
LINE
  5
7F
330
36
100
AcDbEntity
  8
001
 62
     3
100
AcDbLine
 10
86.92923099999999
 20
-52.327652
 30
0.0
 11
86.92923099999999
 21
-50.327652
 31
0.0
  0
LINE
  5
80
330
36
100
AcDbEntity
  8
001
 62
     3
100
AcDbLine
 10
99.929231
 20
-52.327652
 30
0.0
 11
99.929231
 21
-50.327652
 31
0.0
  0
LINE
  5
81
330
36
100
AcDbEntity
  8
001
 62
     3
100
AcDbLine
 10
112.929231
 20
-52.327652
 30
0.0
 11
112.929231
 21
-50.327652
 31
0.0
  0
LINE
  5
82
330
36
100
AcDbEntity
  8
001
 62
     3
100
AcDbLine
 10
99.929231
 20
-73.327652
 30
0.0
 11
99.929231
 21
-80.327652
 31
0.0
  0
TEXT
  5
83
330
36
100
AcDbEntity
  8
001
 62
     3
100
AcDbText
 10
88.20771399999998
 20
-78.622395
 30
0.0
 40
3.2
  1
作成日
 41
1.017225999999997
100
AcDbText
  0
LINE
  5
84
330
36
100
AcDbEntity
  8
001
 62
     3
100
AcDbLine
 10
138.628594
 20
-50.327652
 30
0.0
 11
27.325152
 21
-50.327652
 31
0.0
  0
LINE
  5
85
330
36
100
AcDbEntity
  8
001
 62
     3
100
AcDbLine
 10
138.628594
 20
-59.327652
 30
0.0
 11
27.325152
 21
-59.327652
 31
0.0
  0
LINE
  5
86
330
36
100
AcDbEntity
  8
001
 62
     3
100
AcDbLine
 10
138.628594
 20
-73.327652
 30
0.0
 11
27.325152
 21
-73.327652
 31
0.0
  0
LINE
  5
87
330
36
100
AcDbEntity
  8
001
 62
     3
100
AcDbLine
 10
138.628594
 20
-80.327652
 30
0.0
 11
27.325152
 21
-80.327652
 31
0.0
  0
LINE
  5
88
330
36
100
AcDbEntity
  8
001
 62
     3
100
AcDbLine
 10
125.929231
 20
-73.327652
 30
0.0
 11
125.929231
 21
-50.327652
 31
0.0
  0
TEXT
  5
89
330
36
100
AcDbEntity
  8
001
 62
     3
100
AcDbText
 10
129.253034
 20
-54.036717
 30
0.0
 40
1.8
  1
D
 41
0.666667
100
AcDbText
  0
TEXT
  5
8A
330
36
100
AcDbEntity
  8
001
 62
     3
100
AcDbText
 10
132.069662
 20
-54.036717
 30
0.0
 40
1.8
  1
E
 41
0.666667
100
AcDbText
  0
TEXT
  5
8B
330
36
100
AcDbEntity
  8
001
 62
     3
100
AcDbText
 10
134.886291
 20
-54.036717
 30
0.0
 40
1.8
  1
F
 41
0.666667
100
AcDbText
  0
TEXT
  5
8C
330
36
100
AcDbEntity
  8
001
 62
     3
100
AcDbText
 10
129.253034
 20
-58.02927099999998
 30
0.0
 40
3.2
  1
製図
 41
1.076369
100
AcDbText
  0
LINE
  5
8D
330
36
100
AcDbEntity
  8
001
 62
     3
100
AcDbLine
 10
27.325152
 20
-50.327652
 30
0.0
 11
27.325152
 21
-89.99337399999998
 31
0.0
  0
LINE
  5
8E
330
36
100
AcDbEntity
  8
001
 62
     3
100
AcDbLine
 10
86.92923099999999
 20
-66.327652
 30
0.0
 11
27.325152
 21
-66.327652
 31
0.0
  0
TEXT
  5
8F
330
36
100
AcDbEntity
  8
001
 62
     3
100
AcDbText
 10
28.701805
 20
-89.66090900000002
 30
0.0
 40
5.0
  1
日動工業株式会社
 41
0.833333
100
AcDbText
  0
LINE
  5
90
330
36
100
AcDbEntity
  8
001
 62
     3
100
AcDbLine
 10
70.20755600000001
 20
-80.327652
 30
0.0
 11
70.20755600000001
 21
-89.99337399999998
 31
0.0
  0
LINE
  5
91
330
36
100
AcDbEntity
  8
001
 62
     3
100
AcDbLine
 10
70.20755600000001
 20
-85.16051299999999
 30
0.0
 11
86.92923099999999
 21
-85.16051299999999
 31
0.0
  0
TEXT
  5
92
330
36
100
AcDbEntity
  8
001
 62
     3
100
AcDbText
 10
70.79415799999998
 20
-84.344082
 30
0.0
 40
3.2
  1
出図コード
 41
0.8356860000000001
100
AcDbText
  0
TEXT
  5
93
330
36
100
AcDbEntity
  8
001
 62
     3
100
AcDbText
 10
70.79415799999998
 20
-89.176944
 30
0.0
 40
3.2
  1
HM-A4
 41
0.999426
100
AcDbText
  0
LINE
  5
94
330
36
100
AcDbEntity
  8
001
 62
     3
100
AcDbLine
 10
54.90941
 20
65.54461100000001
 30
0.0
 11
138.50941
 21
65.54461100000001
 31
0.0
  0
LINE
  5
95
330
36
100
AcDbEntity
  8
001
 62
     3
100
AcDbLine
 10
54.90941
 20
85.494611
 30
0.0
 11
138.50941
 21
85.494611
 31
0.0
  0
TEXT
  5
96
330
36
100
AcDbEntity
  8
001
 62
     3
100
AcDbText
 10
127.78441
 20
80.64961099999996
 30
0.0
 40
3.04
  1
担
 41
0.859375
100
AcDbText
  0
TEXT
  5
97
330
36
100
AcDbEntity
  8
001
 62
     3
100
AcDbText
 10
134.67191
 20
80.64961099999996
 30
0.0
 40
3.04
  1
当
 41
0.859375
100
AcDbText
  0
TEXT
  5
98
330
36
100
AcDbEntity
  8
001
 62
     3
100
AcDbText
 10
87.58863299999999
 20
80.132449
 30
0.0
 40
3.04
  1
変更・追記内容
 41
1.182725999999999
100
AcDbText
  0
LINE
  5
99
330
36
100
AcDbEntity
  8
001
 62
     3
100
AcDbLine
 10
54.90941
 20
85.494611
 30
0.0
 11
54.90941
 21
65.54461100000001
 31
0.0
  0
TEXT
  5
9A
330
36
100
AcDbEntity
  8
001
 62
     3
100
AcDbText
 10
58.68211399999999
 20
73.495435
 30
0.0
 40
2.431999999999999
  1
1
 41
1.499999
100
AcDbText
  0
TEXT
  5
9B
330
36
100
AcDbEntity
  8
001
 62
     3
100
AcDbText
 10
58.68211399999999
 20
66.639224
 30
0.0
 40
2.431999999999999
  1
2
100
AcDbText
  0
TEXT
  5
9C
330
36
100
AcDbEntity
  8
001
 62
     3
100
AcDbText
 10
67.86835899999998
 20
80.20897600000003
 30
0.0
 40
3.2
  1
日
 41
0.859375
100
AcDbText
  0
TEXT
  5
9D
330
36
100
AcDbEntity
  8
001
 62
     3
100
AcDbText
 10
76.745233
 20
80.20897600000003
 30
0.0
 40
3.2
  1
付
 41
0.859375
100
AcDbText
  0
LINE
  5
9E
330
36
100
AcDbEntity
  8
001
 62
     3
100
AcDbLine
 10
54.90941
 20
85.494611
 30
0.0
 11
54.90941
 21
89.99461099999995
 31
0.0
  0
TEXT
  5
9F
330
36
100
AcDbEntity
  8
001
 62
     3
100
AcDbText
 10
67.6942
 20
86.14461099999996
 30
0.0
 40
3.2
  1
図
 41
0.859375
100
AcDbText
  0
TEXT
  5
A0
330
36
100
AcDbEntity
  8
001
 62
     3
100
AcDbText
 10
86.350095
 20
86.14461099999996
 30
0.0
 40
3.2
  1
面
 41
0.859375
100
AcDbText
  0
TEXT
  5
A1
330
36
100
AcDbEntity
  8
001
 62
     3
100
AcDbText
 10
105.00599
 20
86.14461099999996
 30
0.0
 40
3.2
  1
略
 41
0.859375
100
AcDbText
  0
TEXT
  5
A2
330
36
100
AcDbEntity
  8
001
 62
     3
100
AcDbText
 10
123.661886
 20
86.14461099999996
 30
0.0
 40
3.2
  1
歴
 41
0.859375
100
AcDbText
  0
TEXT
  5
A3
330
36
100
AcDbEntity
  8
001
 62
     3
100
AcDbText
 10
55.511774
 20
80.569611
 30
0.0
 40
3.2
  1
記
 41
0.859375
100
AcDbText
  0
TEXT
  5
A4
330
36
100
AcDbEntity
  8
001
 62
     3
100
AcDbText
 10
61.76468100000001
 20
80.569611
 30
0.0
 40
3.2
  1
号
 41
0.859375
100
AcDbText
  0
LINE
  5
A5
330
36
100
AcDbEntity
  8
001
100
AcDbLine
 10
59.727114
 20
76.905366
 30
0.0
 11
57.827114
 21
73.614469
 31
0.0
  0
LINE
  5
A6
330
36
100
AcDbEntity
  8
001
100
AcDbLine
 10
59.727114
 20
76.905366
 30
0.0
 11
61.627114
 21
73.614469
 31
0.0
  0
LINE
  5
A7
330
36
100
AcDbEntity
  8
001
100
AcDbLine
 10
57.827114
 20
73.614469
 30
0.0
 11
61.627114
 21
73.614469
 31
0.0
  0
LINE
  5
A8
330
36
100
AcDbEntity
  8
001
100
AcDbLine
 10
59.727114
 20
70.049155
 30
0.0
 11
57.827114
 21
66.75825899999999
 31
0.0
  0
LINE
  5
A9
330
36
100
AcDbEntity
  8
001
100
AcDbLine
 10
59.727114
 20
70.049155
 30
0.0
 11
61.627114
 21
66.75825899999999
 31
0.0
  0
LINE
  5
AA
330
36
100
AcDbEntity
  8
001
100
AcDbLine
 10
57.827114
 20
66.75825899999999
 30
0.0
 11
61.627114
 21
66.75825899999999
 31
0.0
  0
LINE
  5
AB
330
36
100
AcDbEntity
  8
001
 62
     3
100
AcDbLine
 10
0.0
 20
102.472617
 30
0.0
 11
0.0
 21
101.224058
 31
0.0
  0
TEXT
  5
AC
330
36
100
AcDbEntity
  8
001
 62
     3
100
AcDbText
 10
103.297113
 20
-79.333399
 30
0.0
 40
3.2
  1
2002.11.12
 41
1.392665999999999
100
AcDbText
  0
LINE
  5
AD
330
36
100
AcDbEntity
  8
001
 62
     3
100
AcDbLine
 10
-86.97616999999999
 20
30.067341
 30
0.0
 11
-86.97616999999999
 21
12.067341
 31
0.0
  0
LINE
  5
AE
330
36
100
AcDbEntity
  8
001
 62
     3
100
AcDbLine
 10
-47.97617
 20
-8.932658999999997
 30
0.0
 11
-65.97616999999999
 21
-8.932658999999997
 31
0.0
  0
LINE
  5
AF
330
36
100
AcDbEntity
  8
001
 62
     3
100
AcDbLine
 10
-47.97617
 20
51.067341
 30
0.0
 11
-65.97616999999999
 21
51.067341
 31
0.0
  0
LINE
  5
B0
330
36
100
AcDbEntity
  8
001
 62
     3
100
AcDbLine
 10
-33.97617
 20
30.567341
 30
0.0
 11
-33.97617
 21
11.567341
 31
0.0
  0
LINE
  5
B1
330
36
100
AcDbEntity
  8
001
 62
     3
100
AcDbLine
 10
-2.97617
 20
28.336552
 30
0.0
 11
-2.97617
 21
14.067341
 31
0.0
  0
LINE
  5
B2
330
36
100
AcDbEntity
  8
001
 62
     3
100
AcDbLine
 10
-82.47616999999998
 20
13.067341
 30
0.0
 11
-70.97616999999998
 21
13.067341
 31
0.0
  0
LINE
  5
B3
330
36
100
AcDbEntity
  8
001
 62
     3
100
AcDbLine
 10
-82.47616999999998
 20
29.067341
 30
0.0
 11
-70.97616999999998
 21
29.067341
 31
0.0
  0
LINE
  5
B4
330
36
100
AcDbEntity
  8
001
 62
     3
100
AcDbLine
 10
-64.97616999999999
 20
46.567341
 30
0.0
 11
-64.97616999999999
 21
35.067341
 31
0.0
  0
LINE
  5
B5
330
36
100
AcDbEntity
  8
001
 62
     3
100
AcDbLine
 10
-48.97617
 20
-4.432658999999999
 30
0.0
 11
-48.97617
 21
6.096457
 31
0.0
  0
LINE
  5
B6
330
36
100
AcDbEntity
  8
001
 62
     3
100
AcDbLine
 10
-33.97617
 20
11.567341
 30
0.0
 11
-35.97617
 21
11.567341
 31
0.0
  0
LINE
  5
B7
330
36
100
AcDbEntity
  8
001
 62
     3
100
AcDbLine
 10
-33.97617
 20
30.567341
 30
0.0
 11
-35.97617
 21
30.567341
 31
0.0
  0
ARC
  5
B8
330
36
100
AcDbEntity
  8
001
 62
     3
100
AcDbCircle
 10
-70.97616999999998
 20
35.067341
 30
0.0
 40
6.0
100
AcDbArc
 50
270.0
 51
0.0
  0
LINE
  5
B9
330
36
100
AcDbEntity
  8
001
 62
     3
100
AcDbLine
 10
-64.97616999999999
 20
-4.432658999999999
 30
0.0
 11
-64.97616999999999
 21
7.067341
 31
0.0
  0
ARC
  5
BA
330
36
100
AcDbEntity
  8
001
 62
     3
100
AcDbCircle
 10
-70.97616999999998
 20
7.067341
 30
0.0
 40
6.0
100
AcDbArc
 50
0.0
 51
90.0
  0
LINE
  5
BB
330
36
100
AcDbEntity
  8
001
 62
     3
100
AcDbLine
 10
-48.97617
 20
46.567341
 30
0.0
 11
-48.97617
 21
36.038225
 31
0.0
  0
LINE
  5
BC
330
36
100
AcDbEntity
  8
001
 62
     3
100
AcDbLine
 10
-83.47616999999997
 20
12.067341
 30
0.0
 11
-86.97616999999999
 21
12.067341
 31
0.0
  0
LINE
  5
BD
330
36
100
AcDbEntity
  8
001
 62
     3
100
AcDbLine
 10
-83.47616999999997
 20
30.067341
 30
0.0
 11
-86.97616999999999
 21
30.067341
 31
0.0
  0
LINE
  5
BE
330
36
100
AcDbEntity
  8
001
 62
     3
100
AcDbLine
 10
-65.97616999999999
 20
51.067341
 30
0.0
 11
-65.97616999999999
 21
47.567341
 31
0.0
  0
LINE
  5
BF
330
36
100
AcDbEntity
  8
001
 62
     3
100
AcDbLine
 10
-47.97617
 20
51.067341
 30
0.0
 11
-47.97617
 21
47.567341
 31
0.0
  0
LINE
  5
C0
330
36
100
AcDbEntity
  8
001
 62
     3
100
AcDbLine
 10
-65.97616999999999
 20
-5.432658999999999
 30
0.0
 11
-65.97616999999999
 21
-8.932658999999997
 31
0.0
  0
LINE
  5
C1
330
36
100
AcDbEntity
  8
001
 62
     3
100
AcDbLine
 10
-47.97617
 20
-5.432658999999999
 30
0.0
 11
-47.97617
 21
-8.932658999999997
 31
0.0
  0
ARC
  5
C2
330
36
100
AcDbEntity
  8
001
 62
     3
100
AcDbCircle
 10
-41.324994
 20
36.038225
 30
0.0
 40
7.651175999999997
100
AcDbArc
 50
180.0
 51
314.353658
  0
ARC
  5
C3
330
36
100
AcDbEntity
  8
001
 62
     3
100
AcDbCircle
 10
-41.324994
 20
6.096457
 30
0.0
 40
7.651175999999997
100
AcDbArc
 50
45.64634199999999
 51
180.0
  0
LINE
  5
C4
330
36
100
AcDbEntity
  8
001
 62
     3
100
AcDbLine
 10
-95.71676700000001
 20
26.238774
 30
0.0
 11
-95.71676700000001
 21
14.746716
 31
0.0
  0
LINE
  5
C5
330
36
100
AcDbEntity
  8
001
 62
     3
100
AcDbLine
 10
-121.716767
 20
14.746716
 30
0.0
 11
-121.716767
 21
26.238774
 31
0.0
  0
ARC
  5
C6
330
36
100
AcDbEntity
  8
001
 62
     3
100
AcDbCircle
 10
-118.716767
 20
26.238774
 30
0.0
 40
3.0
100
AcDbArc
 50
92.909666
 51
180.0
  0
ARC
  5
C7
330
36
100
AcDbEntity
  8
001
 62
     3
100
AcDbCircle
 10
-108.716767
 20
-170.507255
 30
0.0
 40
200.0
100
AcDbArc
 50
87.090334
 51
92.909666
  0
ARC
  5
C8
330
36
100
AcDbEntity
  8
001
 62
     3
100
AcDbCircle
 10
-118.716767
 20
14.746716
 30
0.0
 40
3.0
100
AcDbArc
 50
180.0
 51
267.090334
  0
ARC
  5
C9
330
36
100
AcDbEntity
  8
001
 62
     3
100
AcDbCircle
 10
-108.716767
 20
211.492745
 30
0.0
 40
200.0
100
AcDbArc
 50
267.090334
 51
272.909666
  0
ARC
  5
CA
330
36
100
AcDbEntity
  8
001
 62
     3
100
AcDbCircle
 10
-98.71676700000001
 20
14.746716
 30
0.0
 40
3.0
100
AcDbArc
 50
272.909666
 51
0.0
  0
ARC
  5
CB
330
36
100
AcDbEntity
  8
001
 62
     3
100
AcDbCircle
 10
-98.71676700000001
 20
26.238774
 30
0.0
 40
3.0
100
AcDbArc
 50
0.0
 51
87.090334
  0
LINE
  5
CC
330
36
100
AcDbEntity
  8
001
 62
     3
100
AcDbLine
 10
-101.266767
 20
23.992745
 30
0.0
 11
-101.266767
 21
16.992745
 31
0.0
  0
LINE
  5
CD
330
36
100
AcDbEntity
  8
001
 62
     3
100
AcDbLine
 10
-103.466767
 20
23.992745
 30
0.0
 11
-103.466767
 21
16.992745
 31
0.0
  0
LINE
  5
CE
330
36
100
AcDbEntity
  8
001
 62
     3
100
AcDbLine
 10
-116.166767
 20
23.992745
 30
0.0
 11
-116.166767
 21
16.992745
 31
0.0
  0
LINE
  5
CF
330
36
100
AcDbEntity
  8
001
 62
     3
100
AcDbLine
 10
-113.966767
 20
23.992745
 30
0.0
 11
-113.966767
 21
16.992745
 31
0.0
  0
LINE
  5
D0
330
36
100
AcDbEntity
  8
001
 62
     3
100
AcDbLine
 10
-101.266767
 20
16.992745
 30
0.0
 11
-103.466767
 21
16.992745
 31
0.0
  0
LINE
  5
D1
330
36
100
AcDbEntity
  8
001
 62
     3
100
AcDbLine
 10
-113.966767
 20
16.992745
 30
0.0
 11
-116.166767
 21
16.992745
 31
0.0
  0
LINE
  5
D2
330
36
100
AcDbEntity
  8
001
 62
     3
100
AcDbLine
 10
-101.266767
 20
23.992745
 30
0.0
 11
-103.466767
 21
23.992745
 31
0.0
  0
LINE
  5
D3
330
36
100
AcDbEntity
  8
001
 62
     3
100
AcDbLine
 10
-113.966767
 20
23.992745
 30
0.0
 11
-116.166767
 21
23.992745
 31
0.0
  0
LINE
  5
D4
330
36
100
AcDbEntity
  8
001
 62
     3
100
AcDbLine
 10
-2.97617
 20
28.336552
 30
0.0
 11
-33.97617
 21
29.067341
 31
0.0
  0
LINE
  5
D5
330
36
100
AcDbEntity
  8
001
 62
     3
100
AcDbLine
 10
-2.97617
 20
14.067341
 30
0.0
 11
-33.97617
 21
13.067341
 31
0.0
  0
LINE
  5
D6
330
36
100
AcDbEntity
  8
001
 62
     3
100
AcDbLine
 10
-65.97616999999999
 20
-5.432658999999999
 30
0.0
 11
-64.97616999999999
 21
-4.432658999999999
 31
0.0
  0
LINE
  5
D7
330
36
100
AcDbEntity
  8
001
 62
     3
100
AcDbLine
 10
-48.97617
 20
-4.432658999999999
 30
0.0
 11
-47.97617
 21
-5.432658999999999
 31
0.0
  0
LINE
  5
D8
330
36
100
AcDbEntity
  8
001
 62
     3
100
AcDbLine
 10
-82.47616999999998
 20
13.067341
 30
0.0
 11
-83.47616999999997
 21
12.067341
 31
0.0
  0
LINE
  5
D9
330
36
100
AcDbEntity
  8
001
 62
     3
100
AcDbLine
 10
-83.47616999999997
 20
30.067341
 30
0.0
 11
-82.47616999999998
 21
29.067341
 31
0.0
  0
LINE
  5
DA
330
36
100
AcDbEntity
  8
001
 62
     3
100
AcDbLine
 10
-47.97617
 20
47.567341
 30
0.0
 11
-48.97617
 21
46.567341
 31
0.0
  0
LINE
  5
DB
330
36
100
AcDbEntity
  8
001
 62
     3
100
AcDbLine
 10
-65.97616999999999
 20
47.567341
 30
0.0
 11
-64.97616999999999
 21
46.567341
 31
0.0
  0
LINE
  5
DC
330
36
100
AcDbEntity
  8
001
 62
     3
100
AcDbLine
 10
-81.32259499999998
 20
66.798737
 30
0.0
 11
-81.32259499999998
 21
46.798737
 31
0.0
  0
LINE
  5
DD
330
36
100
AcDbEntity
  8
001
 62
     3
100
AcDbLine
 10
-109.322595
 20
46.798737
 30
0.0
 11
-109.322595
 21
66.798737
 31
0.0
  0
LINE
  5
DE
330
36
100
AcDbEntity
  8
001
 62
     3
100
AcDbLine
 10
-81.32259499999998
 20
66.798737
 30
0.0
 11
-109.322595
 21
66.798737
 31
0.0
  0
LINE
  5
DF
330
36
100
AcDbEntity
  8
001
 62
     3
100
AcDbLine
 10
-81.32259499999998
 20
46.798737
 30
0.0
 11
-109.322595
 21
46.798737
 31
0.0
  0
ARC
  5
E0
330
36
100
AcDbEntity
  8
001
 62
     2
100
AcDbCircle
 10
-65.04041499999999
 20
21.121787
 30
0.0
 40
5.0
100
AcDbArc
 50
302.049651
 51
118.326247
  0
ARC
  5
E1
330
36
100
AcDbEntity
  8
001
 62
     2
100
AcDbCircle
 10
-65.04041499999999
 20
21.121787
 30
0.0
 40
4.5
100
AcDbArc
 50
6.379369999999997
 51
113.964579
  0
LINE
  5
E2
330
36
100
AcDbEntity
  8
001
 62
     2
100
AcDbLine
 10
-66.86818800000001
 20
25.233873
 30
0.0
 11
-60.568279
 21
21.621787
 31
0.0
  0
LINE
  5
E3
330
36
100
AcDbEntity
  8
001
 62
     2
100
AcDbLine
 10
-67.268428
 20
25.031513
 30
0.0
 11
-63.290415
 21
21.621787
 31
0.0
  0
ARC
  5
E4
330
36
100
AcDbEntity
  8
001
 62
     2
100
AcDbCircle
 10
-65.04041499999999
 20
21.121787
 30
0.0
 40
4.5
100
AcDbArc
 50
119.677275
 51
173.62063
  0
ARC
  5
E5
330
36
100
AcDbEntity
  8
001
 62
     2
100
AcDbCircle
 10
-65.04041499999999
 20
21.121787
 30
0.0
 40
5.0
100
AcDbArc
 50
122.049649
 51
298.326247
  0
LINE
  5
E6
330
36
100
AcDbEntity
  8
001
 62
     2
100
AcDbLine
 10
-67.693685
 20
25.35973
 30
0.0
 11
-68.540415
 21
26.121787
 31
0.0
  0
LINE
  5
E7
330
36
100
AcDbEntity
  8
001
 62
     2
100
AcDbLine
 10
-68.540415
 20
26.121787
 30
0.0
 11
-67.44693599999999
 21
25.504555
 31
0.0
  0
LINE
  5
E8
330
36
100
AcDbEntity
  8
001
 62
     2
100
AcDbLine
 10
-63.290415
 20
21.621787
 30
0.0
 11
-69.512551
 21
21.621787
 31
0.0
  0
LINE
  5
E9
330
36
100
AcDbEntity
  8
001
 62
     2
100
AcDbLine
 10
-60.568279
 20
20.621787
 30
0.0
 11
-66.790415
 21
20.621787
 31
0.0
  0
LINE
  5
EA
330
36
100
AcDbEntity
  8
001
 62
     2
100
AcDbLine
 10
-62.812401
 20
17.212061
 30
0.0
 11
-66.790415
 21
20.621787
 31
0.0
  0
LINE
  5
EB
330
36
100
AcDbEntity
  8
001
 62
     2
100
AcDbLine
 10
-63.212642
 20
17.00970199999999
 30
0.0
 11
-69.50878900000001
 21
20.589217
 31
0.0
  0
ARC
  5
EC
330
36
100
AcDbEntity
  8
001
 62
     2
100
AcDbCircle
 10
-65.04041499999999
 20
21.121787
 30
0.0
 40
4.5
100
AcDbArc
 50
299.677275
 51
353.62063
  0
ARC
  5
ED
330
36
100
AcDbEntity
  8
001
 62
     2
100
AcDbCircle
 10
-65.04041499999999
 20
21.121787
 30
0.0
 40
4.5
100
AcDbArc
 50
186.37937
 51
293.964579
  0
LINE
  5
EE
330
36
100
AcDbEntity
  8
001
 62
     2
100
AcDbLine
 10
-61.540415
 20
16.121787
 30
0.0
 11
-62.637661
 21
16.736953
 31
0.0
  0
LINE
  5
EF
330
36
100
AcDbEntity
  8
001
 62
     2
100
AcDbLine
 10
-62.387145
 20
16.883844
 30
0.0
 11
-61.540415
 21
16.121787
 31
0.0
  0
LINE
  5
F0
330
36
100
AcDbEntity
  8
001
 62
     3
100
AcDbLine
 10
8.286811
 20
25.799759
 30
0.0
 11
-2.97617
 21
25.799759
 31
0.0
  0
LINE
  5
F1
330
36
100
AcDbEntity
  8
001
 62
     3
100
AcDbLine
 10
7.021749
 20
16.399759
 30
0.0
 11
-2.97617
 21
16.399759
 31
0.0
  0
LINE
  5
F2
330
36
100
AcDbEntity
  8
001
 62
     3
100
AcDbLine
 10
-89.85763699999997
 20
-33.006721
 30
0.0
 11
-89.85763699999997
 21
-75.006721
 31
0.0
  0
TEXT
  5
F3
330
36
100
AcDbEntity
  8
001
 62
     3
100
AcDbText
 10
-88.26915699999998
 20
-53.489277
 30
0.0
 40
4.0
  1
電
 41
0.875
100
AcDbText
  0
TEXT
  5
F4
330
36
100
AcDbEntity
  8
001
 62
     3
100
AcDbText
 10
-79.875078
 20
-53.489277
 30
0.0
 40
4.0
  1
線
 41
0.875
100
AcDbText
  0
TEXT
  5
F5
330
36
100
AcDbEntity
  8
001
 62
     3
100
AcDbText
 10
-71.48099999999998
 20
-53.489277
 30
0.0
 40
4.0
  1
長
 41
0.875
100
AcDbText
  0
TEXT
  5
F6
330
36
100
AcDbEntity
  8
001
 62
     3
100
AcDbText
 10
-63.08692199999999
 20
-53.489277
 30
0.0
 40
4.0
  1
さ
 41
0.875
100
AcDbText
  0
TEXT
  5
F7
330
36
100
AcDbEntity
  8
001
 62
     3
100
AcDbText
 10
-88.26915699999998
 20
-60.489277
 30
0.0
 40
4.0
  1
電
 41
0.875
100
AcDbText
  0
TEXT
  5
F8
330
36
100
AcDbEntity
  8
001
 62
     3
100
AcDbText
 10
-79.875078
 20
-60.489277
 30
0.0
 40
4.0
  1
線
 41
0.875
100
AcDbText
  0
TEXT
  5
F9
330
36
100
AcDbEntity
  8
001
 62
     3
100
AcDbText
 10
-71.48099999999998
 20
-60.489277
 30
0.0
 40
4.0
  1
仕
 41
0.875
100
AcDbText
  0
TEXT
  5
FA
330
36
100
AcDbEntity
  8
001
 62
     3
100
AcDbText
 10
-63.08692199999999
 20
-60.489277
 30
0.0
 40
4.0
  1
様
 41
0.875
100
AcDbText
  0
TEXT
  5
FB
330
36
100
AcDbEntity
  8
001
 62
     3
100
AcDbText
 10
-88.26915699999998
 20
-67.489277
 30
0.0
 40
4.0
  1
電線許容電流
 41
1.04926
100
AcDbText
  0
TEXT
  5
FC
330
36
100
AcDbEntity
  8
001
 62
     3
100
AcDbText
 10
-88.26915699999998
 20
-74.489277
 30
0.0
 40
4.0
  1
電
 41
0.875
100
AcDbText
  0
TEXT
  5
FD
330
36
100
AcDbEntity
  8
001
 62
     3
100
AcDbText
 10
-75.678039
 20
-74.489277
 30
0.0
 40
4.0
  1
線
 41
0.875
100
AcDbText
  0
TEXT
  5
FE
330
36
100
AcDbEntity
  8
001
 62
     3
100
AcDbText
 10
-63.086921
 20
-74.489277
 30
0.0
 40
4.0
  1
色
 41
0.875
100
AcDbText
  0
LINE
  5
100
330
36
100
AcDbEntity
  8
001
100
AcDbLine
 10
-89.85763699999997
 20
-54.006721
 30
0.0
 11
-2.070891999999999
 21
-54.006721
 31
0.0
  0
LINE
  5
101
330
36
100
AcDbEntity
  8
001
100
AcDbLine
 10
-89.85763699999997
 20
-61.006721
 30
0.0
 11
-2.070891999999999
 21
-61.006721
 31
0.0
  0
LINE
  5
102
330
36
100
AcDbEntity
  8
001
100
AcDbLine
 10
-89.85763699999997
 20
-68.00672099999998
 30
0.0
 11
-2.070891999999999
 21
-68.00672099999998
 31
0.0
  0
LINE
  5
103
330
36
100
AcDbEntity
  8
001
 62
     3
100
AcDbLine
 10
-89.85763699999997
 20
-75.006721
 30
0.0
 11
-2.070891999999999
 21
-75.006721
 31
0.0
  0
LINE
  5
104
330
36
100
AcDbEntity
  8
001
100
AcDbLine
 10
-58.09562099999999
 20
-40.006721
 30
0.0
 11
-58.09562099999999
 21
-75.00672100000001
 31
0.0
  0
TEXT
  5
105
330
36
100
AcDbEntity
  8
001
 62
     3
100
AcDbText
 10
-37.256621
 20
-74.05104200000002
 30
0.0
 40
4.0
  1
　黄　
 41
0.833333
100
AcDbText
  0
LINE
  5
106
330
36
100
AcDbEntity
  8
001
 62
     3
100
AcDbLine
 10
-2.070891999999999
 20
-75.006721
 30
0.0
 11
-2.070891999999999
 21
-33.006721
 31
0.0
  0
TEXT
  5
10C
330
36
100
AcDbEntity
  8
001
 62
     3
100
AcDbText
 10
-105.815906
 20
50.566861
 30
0.0
 40
3.2
  1
15A 125V
 41
0.9099199999999999
100
AcDbText
  0
TEXT
  5
10D
330
36
100
AcDbEntity
  8
001
 62
     3
100
AcDbText
 10
-108.681236
 20
58.31099399999999
 30
0.0
 40
3.2
  1
<PS>E JET
 41
0.8529129999999998
100
AcDbText
  0
LINE
  5
10E
330
36
100
AcDbEntity
  8
001
 62
     3
100
AcDbLine
 10
-84.480818
 20
58.490761
 30
0.0
 11
-84.480818
 21
61.53864599999999
 31
0.0
  0
CIRCLE
  5
10F
330
36
100
AcDbEntity
  8
001
 62
     3
100
AcDbCircle
 10
-84.480818
 20
60.014704
 30
0.0
 40
1.523941999999999
  0
LINE
  5
110
330
36
100
AcDbEntity
  8
001
 62
     3
100
AcDbLine
 10
-84.480818
 20
58.490761
 30
0.0
 11
-82.93561399999999
 21
61.264841
 31
0.0
  0
LINE
  5
111
330
36
100
AcDbEntity
  8
001
 62
     3
100
AcDbLine
 10
-84.480818
 20
61.53864599999999
 30
0.0
 11
-86.083516
 21
58.78670500000001
 31
0.0
  0
TEXT
  5
113
330
36
100
AcDbEntity
  8
001
 62
     3
100
AcDbText
 10
65.44177600000001
 20
72.63127199999998
 30
0.0
 40
3.2
  1
03.1.21
 41
1.132898999999998
100
AcDbText
  0
TEXT
  5
114
330
36
100
AcDbEntity
  8
001
 62
     3
100
AcDbText
 10
83.21077999999998
 20
72.63127199999998
 30
0.0
 40
3.2
  1
電取り認証表示変更
 41
0.833333
100
AcDbText
  0
LINE
  5
11A
330
36
100
AcDbEntity
  8
001
100
AcDbLine
 10
-76.21689599999998
 20
28.411813
 30
0.0
 11
-85.768137
 21
40.32994799999999
 31
0.0
  0
LINE
  5
11B
330
36
100
AcDbEntity
  8
001
100
AcDbLine
 10
-85.768137
 20
40.32994799999999
 30
0.0
 11
-107.768137
 21
40.32994799999999
 31
0.0
  0
TEXT
  5
11C
330
36
100
AcDbEntity
  8
001
 62
     4
100
AcDbText
 10
-105.018137
 20
41.329948
 30
0.0
 40
3.2
  1
定格表示刻印
 41
0.716146
100
AcDbText
  0
TEXT
  5
11D
330
36
100
AcDbEntity
  8
001
 62
     3
100
AcDbText
 10
-76.07641
 20
-39.016473
 30
0.0
 40
4.0
  1
主
 41
0.875
100
AcDbText
  0
TEXT
  5
11E
330
36
100
AcDbEntity
  8
001
 62
     3
100
AcDbText
 10
-69.265253
 20
-39.016473
 30
0.0
 40
4.0
  1
仕
 41
0.875
100
AcDbText
  0
TEXT
  5
11F
330
36
100
AcDbEntity
  8
001
 62
     3
100
AcDbText
 10
-62.454095
 20
-39.016473
 30
0.0
 40
4.0
  1
様
 41
0.875
100
AcDbText
  0
TEXT
  5
120
330
36
100
AcDbEntity
  8
001
 62
     3
100
AcDbText
 10
-55.642937
 20
-39.016473
 30
0.0
 40
4.0
  1
（
 41
0.875
100
AcDbText
  0
TEXT
  5
121
330
36
100
AcDbEntity
  8
001
 62
     3
100
AcDbText
 10
-48.83177899999999
 20
-39.016473
 30
0.0
 40
4.0
  1
屋
 41
0.875
100
AcDbText
  0
TEXT
  5
122
330
36
100
AcDbEntity
  8
001
 62
     3
100
AcDbText
 10
-42.02062199999999
 20
-39.016473
 30
0.0
 40
4.0
  1
内
 41
0.875
100
AcDbText
  0
TEXT
  5
123
330
36
100
AcDbEntity
  8
001
 62
     3
100
AcDbText
 10
-35.20946400000001
 20
-39.016473
 30
0.0
 40
4.0
  1
型
 41
0.875
100
AcDbText
  0
TEXT
  5
124
330
36
100
AcDbEntity
  8
001
 62
     3
100
AcDbText
 10
-28.398306
 20
-39.016473
 30
0.0
 40
4.0
  1
）
 41
0.875
100
AcDbText
  0
LINE
  5
125
330
36
100
AcDbEntity
  8
001
 62
     3
100
AcDbLine
 10
-89.85763699999997
 20
-40.006721
 30
0.0
 11
-2.070891999999999
 21
-40.006721
 31
0.0
  0
TEXT
  5
126
330
36
100
AcDbEntity
  8
001
 62
     3
100
AcDbText
 10
-88.26915699999998
 20
-46.489277
 30
0.0
 40
4.0
  1
型
 41
0.875
100
AcDbText
  0
TEXT
  5
127
330
36
100
AcDbEntity
  8
001
 62
     3
100
AcDbText
 10
-63.086921
 20
-46.489277
 30
0.0
 40
4.0
  1
式
 41
0.875
100
AcDbText
  0
LINE
  5
128
330
36
100
AcDbEntity
  8
001
100
AcDbLine
 10
-89.85763699999997
 20
-47.006721
 30
0.0
 11
-2.070891999999999
 21
-47.006721
 31
0.0
  0
LINE
  5
13B
330
36
100
AcDbEntity
  8
001
 62
     3
100
AcDbLine
 10
-89.85763699999997
 20
-33.006721
 30
0.0
 11
-2.070891999999999
 21
-33.006721
 31
0.0
  0
TEXT
  5
13C
330
36
100
AcDbEntity
  8
001
 62
     3
100
AcDbText
 10
72.04550199999999
 20
-79.68575600000001
 30
0.0
 40
3.2
  1
FREE
100
AcDbText
  0
LINE
  5
13D
330
36
100
AcDbEntity
  8
001
100
AcDbLine
 10
54.90941
 20
78.844611
 30
0.0
 11
138.50941
 21
78.844611
 31
0.0
  0
LINE
  5
13E
330
36
100
AcDbEntity
  8
001
100
AcDbLine
 10
54.90941
 20
72.194611
 30
0.0
 11
138.50941
 21
72.194611
 31
0.0
  0
LINE
  5
13F
330
36
100
AcDbEntity
  8
001
100
AcDbLine
 10
126.911885
 20
85.426348
 30
0.0
 11
126.911885
 21
65.54461100000001
 31
0.0
  0
TEXT
  5
140
330
36
100
AcDbEntity
  8
001
100
AcDbText
 10
127.338818
 20
72.63127199999998
 30
0.0
 40
3.2
  1
　牧田
 41
0.833333
100
AcDbText
  0
LINE
  5
141
330
36
100
AcDbEntity
  8
001
100
AcDbLine
 10
65.014843
 20
85.494611
 30
0.0
 11
65.014843
 21
65.54461100000001
 31
0.0
  0
LINE
  5
142
330
36
100
AcDbEntity
  8
001
100
AcDbLine
 10
82.62016899999997
 20
84.988434
 30
0.0
 11
82.62016899999997
 21
65.54461100000001
 31
0.0
  0
LINE
  5
143
330
36
100
AcDbEntity
  8
001
100
AcDbLine
 10
-7.976169999999997
 20
28.470567
 30
0.0
 11
-7.976169999999997
 21
21.067341
 31
0.0
  0
LINE
  5
144
330
36
100
AcDbEntity
  8
001
100
AcDbLine
 10
-10.47617
 20
28.513356
 30
0.0
 11
-10.47617
 21
21.067341
 31
0.0
  0
LINE
  5
145
330
36
100
AcDbEntity
  8
001
100
AcDbLine
 10
-16.97617
 20
28.666586
 30
0.0
 11
-16.97617
 21
21.067341
 31
0.0
  0
LINE
  5
146
330
36
100
AcDbEntity
  8
001
100
AcDbLine
 10
-19.47617
 20
28.72552
 30
0.0
 11
-19.47617
 21
21.067341
 31
0.0
  0
LINE
  5
147
330
36
100
AcDbEntity
  8
001
100
AcDbLine
 10
-25.97617
 20
28.87875
 30
0.0
 11
-25.97617
 21
21.067341
 31
0.0
  0
LINE
  5
148
330
36
100
AcDbEntity
  8
001
100
AcDbLine
 10
-28.47617
 20
28.937685
 30
0.0
 11
-28.47617
 21
21.067341
 31
0.0
  0
LINE
  5
149
330
36
100
AcDbEntity
  8
001
100
AcDbLine
 10
-12.47617
 20
21.067341
 30
0.0
 11
-12.47617
 21
13.760889
 31
0.0
  0
LINE
  5
14A
330
36
100
AcDbEntity
  8
001
100
AcDbLine
 10
-14.97617
 20
21.067341
 30
0.0
 11
-14.97617
 21
13.680244
 31
0.0
  0
LINE
  5
14B
330
36
100
AcDbEntity
  8
001
100
AcDbLine
 10
-21.47617
 20
21.067341
 30
0.0
 11
-21.47617
 21
13.470567
 31
0.0
  0
LINE
  5
14C
330
36
100
AcDbEntity
  8
001
100
AcDbLine
 10
-23.97617
 20
21.067341
 30
0.0
 11
-23.97617
 21
13.389921
 31
0.0
  0
ARC
  5
14D
330
36
100
AcDbEntity
  8
001
100
AcDbCircle
 10
-27.22617
 20
21.067341
 30
0.0
 40
1.25
100
AcDbArc
 50
180.0
 51
0.0
  0
ARC
  5
14E
330
36
100
AcDbEntity
  8
001
100
AcDbCircle
 10
-22.72617
 20
21.067341
 30
0.0
 40
1.25
100
AcDbArc
 50
0.0
 51
180.0
  0
ARC
  5
14F
330
36
100
AcDbEntity
  8
001
100
AcDbCircle
 10
-18.22617
 20
21.067341
 30
0.0
 40
1.25
100
AcDbArc
 50
180.0
 51
0.0
  0
ARC
  5
150
330
36
100
AcDbEntity
  8
001
100
AcDbCircle
 10
-13.72617
 20
21.067341
 30
0.0
 40
1.25
100
AcDbArc
 50
0.0
 51
180.0
  0
ARC
  5
151
330
36
100
AcDbEntity
  8
001
100
AcDbCircle
 10
-9.226169999999999
 20
21.067341
 30
0.0
 40
1.25
100
AcDbArc
 50
180.0
 51
0.0
  0
LINE
  5
152
330
36
100
AcDbEntity
  8
001
100
AcDbLine
 10
-25.97617
 20
25.867341
 30
0.0
 11
-28.47617
 21
25.867341
 31
0.0
  0
LINE
  5
153
330
36
100
AcDbEntity
  8
001
100
AcDbLine
 10
-7.976169999999997
 20
25.867341
 30
0.0
 11
-10.47617
 21
25.867341
 31
0.0
  0
LINE
  5
154
330
36
100
AcDbEntity
  8
001
100
AcDbLine
 10
-16.97617
 20
25.867341
 30
0.0
 11
-19.47617
 21
25.867341
 31
0.0
  0
LINE
  5
155
330
36
100
AcDbEntity
  8
001
100
AcDbLine
 10
-12.47617
 20
16.267341
 30
0.0
 11
-14.97617
 21
16.267341
 31
0.0
  0
LINE
  5
156
330
36
100
AcDbEntity
  8
001
100
AcDbLine
 10
-21.47617
 20
16.267341
 30
0.0
 11
-23.97617
 21
16.267341
 31
0.0
  0
LINE
  5
157
330
36
100
AcDbEntity
  8
001
100
AcDbLine
 10
-35.97617
 20
30.567341
 30
0.0
 11
-35.97617
 21
11.567341
 31
0.0
  0
LINE
  5
158
330
36
100
AcDbEntity
  8
001
100
AcDbLine
 10
-48.97617
 20
-4.432658999999999
 30
0.0
 11
-64.97616999999999
 21
-4.432658999999999
 31
0.0
  0
LINE
  5
159
330
36
100
AcDbEntity
  8
001
100
AcDbLine
 10
-47.97617
 20
-5.432658999999999
 30
0.0
 11
-65.97616999999999
 21
-5.432658999999999
 31
0.0
  0
LINE
  5
15A
330
36
100
AcDbEntity
  8
001
100
AcDbLine
 10
-48.97617
 20
46.567341
 30
0.0
 11
-64.97616999999999
 21
46.567341
 31
0.0
  0
LINE
  5
15B
330
36
100
AcDbEntity
  8
001
100
AcDbLine
 10
-47.97617
 20
47.567341
 30
0.0
 11
-65.97616999999999
 21
47.567341
 31
0.0
  0
LINE
  5
15C
330
36
100
AcDbEntity
  8
001
100
AcDbLine
 10
-82.47616999999998
 20
29.067341
 30
0.0
 11
-82.47616999999998
 21
13.067341
 31
0.0
  0
LINE
  5
15D
330
36
100
AcDbEntity
  8
001
100
AcDbLine
 10
-83.47616999999997
 20
30.067341
 30
0.0
 11
-83.47616999999997
 21
12.067341
 31
0.0
  0
LINE
  5
15E
330
36
100
AcDbEntity
  8
001
100
AcDbLine
 10
-100.366767
 20
24.992745
 30
0.0
 11
-100.366767
 21
15.992745
 31
0.0
  0
LINE
  5
15F
330
36
100
AcDbEntity
  8
001
100
AcDbLine
 10
-100.366767
 20
15.992745
 30
0.0
 11
-104.366767
 21
15.992745
 31
0.0
  0
LINE
  5
160
330
36
100
AcDbEntity
  8
001
100
AcDbLine
 10
-104.366767
 20
24.992745
 30
0.0
 11
-104.366767
 21
15.992745
 31
0.0
  0
LINE
  5
161
330
36
100
AcDbEntity
  8
001
100
AcDbLine
 10
-100.366767
 20
24.992745
 30
0.0
 11
-104.366767
 21
24.992745
 31
0.0
  0
LINE
  5
162
330
36
100
AcDbEntity
  8
001
100
AcDbLine
 10
-113.066767
 20
24.992745
 30
0.0
 11
-113.066767
 21
15.992745
 31
0.0
  0
LINE
  5
163
330
36
100
AcDbEntity
  8
001
100
AcDbLine
 10
-113.066767
 20
24.992745
 30
0.0
 11
-117.066767
 21
24.992745
 31
0.0
  0
LINE
  5
164
330
36
100
AcDbEntity
  8
001
100
AcDbLine
 10
-117.066767
 20
24.992745
 30
0.0
 11
-117.066767
 21
15.992745
 31
0.0
  0
LINE
  5
165
330
36
100
AcDbEntity
  8
001
100
AcDbLine
 10
-113.066767
 20
15.992745
 30
0.0
 11
-117.066767
 21
15.992745
 31
0.0
  0
LINE
  5
166
330
36
100
AcDbEntity
  8
001
 62
     3
100
AcDbLine
 10
-138.5
 20
90.0
 30
0.0
 11
-138.5
 21
-90.0
 31
0.0
  0
LINE
  5
167
330
36
100
AcDbEntity
  8
001
 62
     3
100
AcDbLine
 10
138.5
 20
-90.0
 30
0.0
 11
138.5
 21
90.0
 31
0.0
  0
LINE
  5
168
330
36
100
AcDbEntity
  8
001
 62
     3
100
AcDbLine
 10
-138.5
 20
-90.0
 30
0.0
 11
138.5
 21
-90.0
 31
0.0
  0
LINE
  5
169
330
36
100
AcDbEntity
  8
001
 62
     3
100
AcDbLine
 10
-138.5
 20
90.0
 30
0.0
 11
138.5
 21
90.0
 31
0.0
  0
TEXT
  5
16A
330
36
100
AcDbEntity
  8
001
 62
     3
100
AcDbText
 10
29.142549
 20
-54.158126
 30
0.0
 40
2.0
  1
CONPONENTS
 41
0.5331600000000001
100
AcDbText
  0
TEXT
  5
16B
330
36
100
AcDbEntity
  8
001
 62
     3
100
AcDbText
 10
28.792822
 20
-73.090303
 30
0.0
 40
3.0
  1
材
 41
0.833333
100
AcDbText
  0
TEXT
  5
16C
330
36
100
AcDbEntity
  8
001
 62
     3
100
AcDbText
 10
36.328465
 20
-73.090303
 30
0.0
 40
3.0
  1
質
 41
0.833333
100
AcDbText
  0
TEXT
  5
16D
330
36
100
AcDbEntity
  8
001
 62
     3
100
AcDbText
 10
28.880893
 20
-62.465778
 30
0.0
 40
2.0
  1
MODEL
 41
1.031072999999999
100
AcDbText
  0
TEXT
  5
16E
330
36
100
AcDbEntity
  8
001
 62
     3
100
AcDbText
 10
28.792822
 20
-69.407995
 30
0.0
 40
2.0
  1
MATERIAL
 41
0.659278
100
AcDbText
  0
TEXT
  5
16F
330
36
100
AcDbEntity
  8
001
 62
     3
100
AcDbText
 10
60.10010300000001
 20
-73.090303
 30
0.0
 40
3.0
  1
備
 41
0.833333
100
AcDbText
  0
TEXT
  5
170
330
36
100
AcDbEntity
  8
001
 62
     3
100
AcDbText
 10
66.833104
 20
-73.090303
 30
0.0
 40
3.0
  1
考
 41
0.833333
100
AcDbText
  0
TEXT
  5
171
330
36
100
AcDbEntity
  8
001
 62
     3
100
AcDbText
 10
59.853093
 20
-69.407995
 30
0.0
 40
2.0
  1
REMARKS
 41
0.675794
100
AcDbText
  0
TEXT
  5
172
330
36
100
AcDbEntity
  8
001
 62
     3
100
AcDbText
 10
30.382551
 20
-76.32811499999998
 30
0.0
 40
2.0
  1
3AD
 41
1.42614
100
AcDbText
  0
TEXT
  5
173
330
36
100
AcDbEntity
  8
001
 62
     3
100
AcDbText
 10
39.693531
 20
-76.16238199999997
 30
0.0
 40
2.0
  1
ANGLE
 41
1.669883999999997
100
AcDbText
  0
TEXT
  5
174
330
36
100
AcDbEntity
  8
001
 62
     3
100
AcDbText
 10
60.62741800000001
 20
-76.53922299999997
 30
0.0
 40
2.0
  1
SCALE
 41
0.7719630000000001
100
AcDbText
  0
TEXT
  5
175
330
36
100
AcDbEntity
  8
001
 62
     3
100
AcDbText
 10
30.068681
 20
-80.327652
 30
0.0
 40
3.0
  1
第
 41
0.833333
100
AcDbText
  0
TEXT
  5
176
330
36
100
AcDbEntity
  8
001
 62
     3
100
AcDbText
 10
37.855531
 20
-80.327652
 30
0.0
 40
3.0
  1
三
 41
0.833333
100
AcDbText
  0
TEXT
  5
177
330
36
100
AcDbEntity
  8
001
 62
     3
100
AcDbText
 10
45.64238099999999
 20
-80.327652
 30
0.0
 40
3.0
  1
角
 41
0.833333
100
AcDbText
  0
TEXT
  5
178
330
36
100
AcDbEntity
  8
001
 62
     3
100
AcDbText
 10
53.42923100000001
 20
-80.327652
 30
0.0
 40
3.0
  1
法
 41
0.833333
100
AcDbText
  0
TEXT
  5
179
330
36
100
AcDbEntity
  8
001
 62
     3
100
AcDbText
 10
60.490623
 20
-80.03922299999997
 30
0.0
 40
3.0
  1
尺
 41
0.833333
100
AcDbText
  0
TEXT
  5
17A
330
36
100
AcDbEntity
  8
001
 62
     3
100
AcDbText
 10
67.223625
 20
-80.03922299999997
 30
0.0
 40
3.0
  1
度
 41
0.833333
100
AcDbText
  0
TEXT
  5
17B
330
36
100
AcDbEntity
  8
001
 62
     3
100
AcDbText
 10
89.806895
 20
-57.869923
 30
0.0
 40
3.0
  1
承認
 41
1.089472999999999
100
AcDbText
  0
TEXT
  5
17C
330
36
100
AcDbEntity
  8
001
 62
     3
100
AcDbText
 10
103.049775
 20
-57.927652
 30
0.0
 40
3.0
  1
検図
 41
0.931761
100
AcDbText
  0
TEXT
  5
17D
330
36
100
AcDbEntity
  8
001
 62
     3
100
AcDbText
 10
116.050172
 20
-57.927652
 30
0.0
 40
3.0
  1
設
 41
0.833333
100
AcDbText
  0
TEXT
  5
17E
330
36
100
AcDbEntity
  8
001
 62
     3
100
AcDbText
 10
120.54004
 20
-57.927652
 30
0.0
 40
3.0
  1
計
 41
0.833333
100
AcDbText
  0
TEXT
  5
17F
330
36
100
AcDbEntity
  8
001
 62
     3
100
AcDbText
 10
29.212655
 20
-57.755099
 30
0.0
 40
3.0
  1
品
 41
0.833333
100
AcDbText
  0
TEXT
  5
180
330
36
100
AcDbEntity
  8
001
 62
     3
100
AcDbText
 10
36.748297
 20
-57.755099
 30
0.0
 40
3.0
  1
名
 41
0.833333
100
AcDbText
  0
TEXT
  5
181
330
36
100
AcDbEntity
  8
001
 62
     3
100
AcDbText
 10
28.880893
 20
-66.327652
 30
0.0
 40
3.0
  1
型
 41
0.833333
100
AcDbText
  0
TEXT
  5
182
330
36
100
AcDbEntity
  8
001
 62
     3
100
AcDbText
 10
36.42898300000001
 20
-66.327652
 30
0.0
 40
3.0
  1
式
 41
0.833333
100
AcDbText
  0
TEXT
  5
183
330
36
100
AcDbEntity
  8
001
 62
     2
100
AcDbText
 10
-54.740608
 20
11.384278
 30
0.0
 40
4.0
  1
1500
 50
90.00000300000001
 41
0.9
100
AcDbText
  0
TEXT
  5
184
330
36
100
AcDbEntity
  8
001
 62
     2
100
AcDbText
 10
-55.14060799999999
 20
6.067341
 30
0.0
 40
3.2
  1
合計
 50
90.00000300000001
 41
0.833333
100
AcDbText
  0
TEXT
  5
185
330
36
100
AcDbEntity
  8
001
 62
     2
100
AcDbText
 10
-55.14060799999999
 20
23.404531
 30
0.0
 40
3.2
  1
ワットまで
 50
90.00000300000001
 41
0.645365
100
AcDbText
  0
LINE
  5
186
330
36
100
AcDbEntity
  8
001
 62
     3
100
AcDbLine
 10
138.399964
 20
-44.327652
 30
0.0
 11
86.92923099999999
 21
-44.327652
 31
0.0
  0
LINE
  5
187
330
36
100
AcDbEntity
  8
001
 62
     3
100
AcDbLine
 10
112.929231
 20
-50.327652
 30
0.0
 11
112.929231
 21
-44.327652
 31
0.0
  0
LINE
  5
188
330
36
100
AcDbEntity
  8
001
 62
     3
100
AcDbLine
 10
86.92923099999999
 20
-50.327652
 30
0.0
 11
86.92923099999999
 21
-44.327652
 31
0.0
  0
TEXT
  5
189
330
36
100
AcDbEntity
  8
001
 62
     3
100
AcDbText
 10
87.850114
 20
-49.771567
 30
0.0
 40
4.5
  1
コード
 41
0.833333
100
AcDbText
  0
TEXT
  5
18A
330
36
100
AcDbEntity
  8
001
 62
     3
100
AcDbText
 10
-55.45284200000001
 20
-60.516784
 30
0.0
 40
4.0
  1
ＳＶＣＴ１．２５ｓｑ×２ｃ
 41
0.833333
100
AcDbText
  0
TEXT
  5
18B
330
36
100
AcDbEntity
  8
001
 62
     3
100
AcDbText
 10
-40.518643
 20
-53.277472
 30
0.0
 40
4.0
  1
0.5m
 41
1.263158
100
AcDbText
  0
TEXT
  5
18C
330
36
100
AcDbEntity
  8
001
 62
     3
100
AcDbText
 10
-36.638112
 20
-67.11462799999999
 30
0.0
 40
4.0
  1
16A
 41
1.125
100
AcDbText
  0
TEXT
  5
18D
330
36
100
AcDbEntity
  8
001
 62
     3
100
AcDbText
 10
40.70142599999999
 20
-58.61605
 30
0.0
 40
4.0
  1
ショートタップ
 41
0.8117169999999999
100
AcDbText
  0
LINE
  5
18E
330
36
100
AcDbEntity
  8
001
 62
     3
100
AcDbLine
 10
113.077409
 20
28.94770300000001
 30
0.0
 11
91.53574199999999
 21
28.94770300000001
 31
0.0
  0
ARC
  5
18F
330
36
100
AcDbEntity
  8
001
 62
     3
100
AcDbCircle
 10
113.077409
 20
26.010204
 30
0.0
 40
2.9375
100
AcDbArc
 50
0.0
 51
90.0
  0
ARC
  5
190
330
36
100
AcDbEntity
  8
001
 62
     3
100
AcDbCircle
 10
91.53574199999999
 20
26.010204
 30
0.0
 40
2.9375
100
AcDbArc
 50
90.0
 51
180.0
  0
LINE
  5
191
330
36
100
AcDbEntity
  8
001
 62
     3
100
AcDbLine
 10
88.598242
 20
26.010204
 30
0.0
 11
88.598242
 21
6.426871
 31
0.0
  0
LINE
  5
192
330
36
100
AcDbEntity
  8
001
 62
     3
100
AcDbLine
 10
88.598242
 20
6.426871
 30
0.0
 11
116.014909
 21
6.426871
 31
0.0
  0
LINE
  5
193
330
36
100
AcDbEntity
  8
001
 62
     3
100
AcDbLine
 10
116.014909
 20
26.010204
 30
0.0
 11
116.014909
 21
6.426871
 31
0.0
  0
LINE
  5
194
330
36
100
AcDbEntity
  8
001
 62
     3
100
AcDbLine
 10
74.90313399999998
 20
24.05187
 30
0.0
 11
74.90313399999998
 21
6.426871
 31
0.0
  0
ARC
  5
195
330
36
100
AcDbEntity
  8
001
 62
     3
100
AcDbCircle
 10
70.0073
 20
24.05187
 30
0.0
 40
4.895833
100
AcDbArc
 50
0.0
 51
90.0
  0
LINE
  5
196
330
36
100
AcDbEntity
  8
001
 62
     3
100
AcDbLine
 10
70.0073
 20
28.94770300000001
 30
0.0
 11
23.007301
 21
28.94770300000001
 31
0.0
  0
LINE
  5
197
330
36
100
AcDbEntity
  8
001
 62
     3
100
AcDbLine
 10
22.028134
 20
14.230981
 30
0.0
 11
22.028134
 21
27.968537
 31
0.0
  0
ARC
  5
198
330
36
100
AcDbEntity
  8
001
 62
     3
100
AcDbCircle
 10
23.007301
 20
27.968537
 30
0.0
 40
0.9791669999999999
100
AcDbArc
 50
90.0
 51
180.0
  0
LINE
  5
199
330
36
100
AcDbEntity
  8
001
 62
     3
100
AcDbLine
 10
22.028134
 20
25.81437
 30
0.0
 11
10.853805
 21
25.81437
 31
0.0
  0
LINE
  5
19A
330
36
100
AcDbEntity
  8
001
 62
     3
100
AcDbLine
 10
22.028134
 20
16.41437
 30
0.0
 11
9.657691999999999
 21
16.41437
 31
0.0
  0
LINE
  5
19B
330
36
100
AcDbEntity
  8
001
 62
     3
100
AcDbLine
 10
22.977643
 20
13.252264
 30
0.0
 11
51.492108
 21
12.388189
 31
0.0
  0
ARC
  5
19C
330
36
100
AcDbEntity
  8
001
 62
     3
100
AcDbCircle
 10
23.007301
 20
14.230981
 30
0.0
 40
0.9791669999999999
100
AcDbArc
 50
180.0
 51
268.264295
  0
ARC
  5
19D
330
36
100
AcDbEntity
  8
001
 62
     3
100
AcDbCircle
 10
51.403134
 20
9.452036999999997
 30
0.0
 40
2.9375
100
AcDbArc
 50
0.0
 51
88.26429499999996
  0
LINE
  5
19E
330
36
100
AcDbEntity
  8
001
 62
     3
100
AcDbLine
 10
54.34063399999999
 20
9.452036999999997
 30
0.0
 11
54.34063399999999
 21
6.426871
 31
0.0
  0
LINE
  5
19F
330
36
100
AcDbEntity
  8
001
 62
     3
100
AcDbLine
 10
54.34063399999999
 20
6.426871
 30
0.0
 11
74.90313399999998
 21
6.426871
 31
0.0
  0
LINE
  5
1A0
330
36
100
AcDbEntity
  8
001
100
AcDbLine
 10
41.61146699999997
 20
28.94770300000001
 30
0.0
 11
41.61146699999997
 21
12.687603
 31
0.0
  0
LINE
  5
1A1
330
36
100
AcDbEntity
  8
001
100
AcDbLine
 10
36.715634
 20
22.093537
 30
0.0
 11
38.673967
 21
22.093537
 31
0.0
  0
LINE
  5
1A2
330
36
100
AcDbEntity
  8
001
100
AcDbLine
 10
36.715634
 20
20.135204
 30
0.0
 11
38.673967
 21
20.135204
 31
0.0
  0
LINE
  5
1A3
330
36
100
AcDbEntity
  8
001
100
AcDbLine
 10
36.715634
 20
28.94770300000001
 30
0.0
 11
36.715634
 21
22.093537
 31
0.0
  0
LINE
  5
1A4
330
36
100
AcDbEntity
  8
001
100
AcDbLine
 10
36.715634
 20
20.135204
 30
0.0
 11
36.715634
 21
12.835961
 31
0.0
  0
LINE
  5
1A5
330
36
100
AcDbEntity
  8
001
100
AcDbLine
 10
34.757301
 20
28.94770300000001
 30
0.0
 11
34.757301
 21
22.093537
 31
0.0
  0
LINE
  5
1A6
330
36
100
AcDbEntity
  8
001
100
AcDbLine
 10
34.757301
 20
20.135204
 30
0.0
 11
34.757301
 21
12.895305
 31
0.0
  0
LINE
  5
1A7
330
36
100
AcDbEntity
  8
001
100
AcDbLine
 10
32.798968
 20
20.135204
 30
0.0
 11
34.757301
 21
20.135204
 31
0.0
  0
LINE
  5
1A8
330
36
100
AcDbEntity
  8
001
100
AcDbLine
 10
32.798968
 20
22.093537
 30
0.0
 11
34.757301
 21
22.093537
 31
0.0
  0
LINE
  5
1A9
330
36
100
AcDbEntity
  8
001
100
AcDbLine
 10
32.798968
 20
28.94770300000001
 30
0.0
 11
32.798968
 21
22.093537
 31
0.0
  0
LINE
  5
1AA
330
36
100
AcDbEntity
  8
001
100
AcDbLine
 10
32.798968
 20
20.135204
 30
0.0
 11
32.798968
 21
12.954648
 31
0.0
  0
LINE
  5
1AB
330
36
100
AcDbEntity
  8
001
100
AcDbLine
 10
30.840634
 20
28.94770300000001
 30
0.0
 11
30.840634
 21
22.093537
 31
0.0
  0
LINE
  5
1AC
330
36
100
AcDbEntity
  8
001
100
AcDbLine
 10
30.840634
 20
20.135204
 30
0.0
 11
30.840634
 21
13.013992
 31
0.0
  0
LINE
  5
1AD
330
36
100
AcDbEntity
  8
001
100
AcDbLine
 10
24.965634
 20
22.093537
 30
0.0
 11
26.923968
 21
22.093537
 31
0.0
  0
LINE
  5
1AE
330
36
100
AcDbEntity
  8
001
100
AcDbLine
 10
28.882301
 20
22.093537
 30
0.0
 11
30.840634
 21
22.093537
 31
0.0
  0
LINE
  5
1AF
330
36
100
AcDbEntity
  8
001
100
AcDbLine
 10
24.965634
 20
20.135204
 30
0.0
 11
26.923968
 21
20.135204
 31
0.0
  0
LINE
  5
1B0
330
36
100
AcDbEntity
  8
001
100
AcDbLine
 10
28.882301
 20
20.135204
 30
0.0
 11
30.840634
 21
20.135204
 31
0.0
  0
LINE
  5
1B1
330
36
100
AcDbEntity
  8
001
100
AcDbLine
 10
28.882301
 20
28.94770300000001
 30
0.0
 11
28.882301
 21
22.093537
 31
0.0
  0
LINE
  5
1B2
330
36
100
AcDbEntity
  8
001
100
AcDbLine
 10
28.882301
 20
20.135204
 30
0.0
 11
28.882301
 21
13.073335
 31
0.0
  0
LINE
  5
1B3
330
36
100
AcDbEntity
  8
001
100
AcDbLine
 10
26.923968
 20
28.94770300000001
 30
0.0
 11
26.923968
 21
22.093537
 31
0.0
  0
LINE
  5
1B4
330
36
100
AcDbEntity
  8
001
100
AcDbLine
 10
26.923968
 20
20.135204
 30
0.0
 11
26.923968
 21
13.132678
 31
0.0
  0
LINE
  5
1B5
330
36
100
AcDbEntity
  8
001
100
AcDbLine
 10
24.965634
 20
25.81437
 30
0.0
 11
26.923968
 21
25.81437
 31
0.0
  0
LINE
  5
1B6
330
36
100
AcDbEntity
  8
001
100
AcDbLine
 10
28.882301
 20
25.81437
 30
0.0
 11
30.840634
 21
25.81437
 31
0.0
  0
LINE
  5
1B7
330
36
100
AcDbEntity
  8
001
100
AcDbLine
 10
32.798968
 20
25.81437
 30
0.0
 11
34.757301
 21
25.81437
 31
0.0
  0
LINE
  5
1B8
330
36
100
AcDbEntity
  8
001
100
AcDbLine
 10
36.715634
 20
25.81437
 30
0.0
 11
38.673967
 21
25.81437
 31
0.0
  0
LINE
  5
1B9
330
36
100
AcDbEntity
  8
001
100
AcDbLine
 10
36.715634
 20
16.41437
 30
0.0
 11
38.673967
 21
16.41437
 31
0.0
  0
LINE
  5
1BA
330
36
100
AcDbEntity
  8
001
100
AcDbLine
 10
32.798968
 20
16.41437
 30
0.0
 11
34.757301
 21
16.41437
 31
0.0
  0
LINE
  5
1BB
330
36
100
AcDbEntity
  8
001
100
AcDbLine
 10
24.965634
 20
16.41437
 30
0.0
 11
26.923968
 21
16.41437
 31
0.0
  0
LINE
  5
1BC
330
36
100
AcDbEntity
  8
001
100
AcDbLine
 10
28.882301
 20
16.41437
 30
0.0
 11
30.840634
 21
16.41437
 31
0.0
  0
LINE
  5
1BD
330
36
100
AcDbEntity
  8
001
100
AcDbLine
 10
38.673967
 20
28.94770300000001
 30
0.0
 11
38.673967
 21
22.093537
 31
0.0
  0
LINE
  5
1BE
330
36
100
AcDbEntity
  8
001
100
AcDbLine
 10
38.673967
 20
20.135204
 30
0.0
 11
38.673967
 21
12.776618
 31
0.0
  0
LINE
  5
1BF
330
36
100
AcDbEntity
  8
001
100
AcDbLine
 10
24.965634
 20
28.94770300000001
 30
0.0
 11
24.965634
 21
22.093537
 31
0.0
  0
LINE
  5
1C0
330
36
100
AcDbEntity
  8
001
100
AcDbLine
 10
24.965634
 20
20.135204
 30
0.0
 11
24.965634
 21
13.192022
 31
0.0
  0
LINE
  5
1C1
330
36
100
AcDbEntity
  8
001
100
AcDbLine
 10
70.49688399999998
 20
21.11437
 30
0.0
 11
70.49688399999998
 21
11.322704
 31
0.0
  0
LINE
  5
1C2
330
36
100
AcDbEntity
  8
001
100
AcDbLine
 10
58.746884
 20
21.11437
 30
0.0
 11
58.746884
 21
11.322704
 31
0.0
  0
LINE
  5
1C3
330
36
100
AcDbEntity
  8
001
100
AcDbLine
 10
58.746884
 20
11.322704
 30
0.0
 11
70.49688399999998
 21
11.322704
 31
0.0
  0
LINE
  5
1C4
330
36
100
AcDbEntity
  8
001
100
AcDbLine
 10
58.746884
 20
14.260204
 30
0.0
 11
70.49688399999998
 21
14.260204
 31
0.0
  0
LINE
  5
1C5
330
36
100
AcDbEntity
  8
001
100
AcDbLine
 10
58.746884
 20
17.197704
 30
0.0
 11
70.49688399999998
 21
17.197704
 31
0.0
  0
LINE
  5
1C6
330
36
100
AcDbEntity
  8
001
100
AcDbLine
 10
58.746884
 20
20.135204
 30
0.0
 11
70.49688399999998
 21
20.135204
 31
0.0
  0
LINE
  5
1C7
330
36
100
AcDbEntity
  8
001
100
AcDbLine
 10
60.705217
 20
23.072704
 30
0.0
 11
68.53855
 21
23.072704
 31
0.0
  0
ARC
  5
1C8
330
36
100
AcDbEntity
  8
001
100
AcDbCircle
 10
68.53855
 20
21.11437
 30
0.0
 40
1.958333
100
AcDbArc
 50
0.0
 51
90.0
  0
ARC
  5
1C9
330
36
100
AcDbEntity
  8
001
100
AcDbCircle
 10
60.705217
 20
21.11437
 30
0.0
 40
1.958333
100
AcDbArc
 50
90.0
 51
180.0
  0
LINE
  5
1CA
330
36
100
AcDbEntity
  8
001
100
AcDbLine
 10
67.755217
 20
6.426871
 30
0.0
 11
67.755217
 21
-9.394247999999999
 31
0.0
  0
CIRCLE
  5
1CB
330
36
100
AcDbEntity
  8
001
100
AcDbCircle
 10
64.62188399999999
 20
-5.029379
 30
0.0
 40
1.46875
  0
ARC
  5
1CC
330
36
100
AcDbEntity
  8
001
100
AcDbCircle
 10
64.62188399999999
 20
-3.854379
 30
0.0
 40
6.364583
100
AcDbArc
 50
240.507627
 51
299.492373
  0
LINE
  5
1CD
330
36
100
AcDbEntity
  8
001
100
AcDbLine
 10
61.48855
 20
6.426871
 30
0.0
 11
61.48855
 21
-9.394247999999999
 31
0.0
  0
LINE
  5
1CE
330
36
100
AcDbEntity
  8
001
100
AcDbLine
 10
109.258659
 20
-9.394247999999999
 30
0.0
 11
109.258659
 21
6.426871
 31
0.0
  0
LINE
  5
1CF
330
36
100
AcDbEntity
  8
001
100
AcDbLine
 10
107.789909
 20
-9.394247999999999
 30
0.0
 11
107.789909
 21
6.426871
 31
0.0
  0
LINE
  5
1D0
330
36
100
AcDbEntity
  8
001
100
AcDbLine
 10
96.82324200000001
 20
-9.394247999999999
 30
0.0
 11
96.82324200000001
 21
6.426871
 31
0.0
  0
LINE
  5
1D1
330
36
100
AcDbEntity
  8
001
100
AcDbLine
 10
95.354492
 20
-9.394247999999999
 30
0.0
 11
95.354492
 21
6.426871
 31
0.0
  0
LINE
  5
1D2
330
36
100
AcDbEntity
  8
001
100
AcDbLine
 10
95.559048
 20
-10.218963
 30
0.0
 11
96.61868699999999
 21
-10.218963
 31
0.0
  0
LINE
  5
1D3
330
36
100
AcDbEntity
  8
001
100
AcDbLine
 10
107.994464
 20
-10.218963
 30
0.0
 11
109.054103
 21
-10.218963
 31
0.0
  0
LINE
  5
1D4
330
36
100
AcDbEntity
  8
001
100
AcDbLine
 10
109.258659
 20
-9.394247999999999
 30
0.0
 11
109.054103
 21
-10.218963
 31
0.0
  0
LINE
  5
1D5
330
36
100
AcDbEntity
  8
001
100
AcDbLine
 10
107.789909
 20
-9.394247999999999
 30
0.0
 11
107.994464
 21
-10.218963
 31
0.0
  0
LINE
  5
1D6
330
36
100
AcDbEntity
  8
001
100
AcDbLine
 10
96.82324200000001
 20
-9.394247999999999
 30
0.0
 11
96.61868699999999
 21
-10.218963
 31
0.0
  0
LINE
  5
1D7
330
36
100
AcDbEntity
  8
001
100
AcDbLine
 10
95.354492
 20
-9.394247999999999
 30
0.0
 11
95.559048
 21
-10.218963
 31
0.0
  0
LINE
  5
1D8
330
36
100
AcDbEntity
  8
001
100
AcDbLine
 10
86.63990899999998
 20
20.135204
 30
0.0
 11
86.63990899999998
 21
22.093537
 31
0.0
  0
LINE
  5
1D9
330
36
100
AcDbEntity
  8
001
100
AcDbLine
 10
88.10865900000001
 20
11.322704
 30
0.0
 11
88.598242
 21
11.322704
 31
0.0
  0
LINE
  5
1DA
330
36
100
AcDbEntity
  8
001
100
AcDbLine
 10
87.619076
 20
23.072704
 30
0.0
 11
88.598242
 21
23.072704
 31
0.0
  0
ARC
  5
1DB
330
36
100
AcDbEntity
  8
001
100
AcDbCircle
 10
87.619076
 20
22.093537
 30
0.0
 40
0.9791669999999999
100
AcDbArc
 50
90.0
 51
180.0
  0
LINE
  5
1DC
330
36
100
AcDbEntity
  8
001
100
AcDbLine
 10
86.63990899999998
 20
20.135204
 30
0.0
 11
88.10865900000001
 21
11.322704
 31
0.0
  0
LINE
  5
1DD
330
36
100
AcDbEntity
  8
001
100
AcDbLine
 10
117.973242
 20
20.135204
 30
0.0
 11
117.973242
 21
22.093537
 31
0.0
  0
LINE
  5
1DE
330
36
100
AcDbEntity
  8
001
100
AcDbLine
 10
116.504492
 20
11.322704
 30
0.0
 11
116.014909
 21
11.322704
 31
0.0
  0
LINE
  5
1DF
330
36
100
AcDbEntity
  8
001
100
AcDbLine
 10
116.994075
 20
23.072704
 30
0.0
 11
116.014909
 21
23.072704
 31
0.0
  0
ARC
  5
1E0
330
36
100
AcDbEntity
  8
001
100
AcDbCircle
 10
116.994075
 20
22.093537
 30
0.0
 40
0.9791669999999999
100
AcDbArc
 50
0.0
 51
90.0
  0
LINE
  5
1E1
330
36
100
AcDbEntity
  8
001
100
AcDbLine
 10
117.973242
 20
20.135204
 30
0.0
 11
116.504492
 21
11.322704
 31
0.0
  0
LINE
  5
1E2
330
36
100
AcDbEntity
  8
001
 62
     3
100
AcDbLine
 10
54.71864100000001
 20
60.94189
 30
0.0
 11
54.71864100000001
 21
40.94189
 31
0.0
  0
LINE
  5
1E3
330
36
100
AcDbEntity
  8
001
 62
     3
100
AcDbLine
 10
26.718641
 20
40.94189
 30
0.0
 11
26.718641
 21
60.94189
 31
0.0
  0
LINE
  5
1E4
330
36
100
AcDbEntity
  8
001
 62
     3
100
AcDbLine
 10
54.71864100000001
 20
60.94189
 30
0.0
 11
26.718641
 21
60.94189
 31
0.0
  0
LINE
  5
1E5
330
36
100
AcDbEntity
  8
001
 62
     3
100
AcDbLine
 10
54.71864100000001
 20
40.94189
 30
0.0
 11
26.718641
 21
40.94189
 31
0.0
  0
TEXT
  5
1E6
330
36
100
AcDbEntity
  8
001
 62
     3
100
AcDbText
 10
30.395479
 20
44.561874
 30
0.0
 40
3.2
  1
15A 125V
 41
0.9099199999999999
100
AcDbText
  0
TEXT
  5
1E7
330
36
100
AcDbEntity
  8
001
 62
     3
100
AcDbText
 10
27.53015
 20
52.306008
 30
0.0
 40
3.2
  1
<PS>E JET
 41
0.8529129999999998
100
AcDbText
  0
LINE
  5
1E8
330
36
100
AcDbEntity
  8
001
 62
     3
100
AcDbLine
 10
51.730567
 20
52.48577499999999
 30
0.0
 11
51.730567
 21
55.533659
 31
0.0
  0
CIRCLE
  5
1E9
330
36
100
AcDbEntity
  8
001
 62
     3
100
AcDbCircle
 10
51.730567
 20
54.009717
 30
0.0
 40
1.523941999999999
  0
LINE
  5
1EA
330
36
100
AcDbEntity
  8
001
 62
     3
100
AcDbLine
 10
51.730567
 20
52.48577499999999
 30
0.0
 11
53.275771
 21
55.259854
 31
0.0
  0
LINE
  5
1EB
330
36
100
AcDbEntity
  8
001
 62
     3
100
AcDbLine
 10
51.730567
 20
55.533659
 30
0.0
 11
50.127869
 21
52.781718
 31
0.0
  0
LINE
  5
1F1
330
36
100
AcDbEntity
  8
001
100
AcDbLine
 10
65.96303899999999
 20
29.701769
 30
0.0
 11
78.980213
 21
42.875277
 31
0.0
  0
LINE
  5
1F2
330
36
100
AcDbEntity
  8
001
100
AcDbLine
 10
78.980213
 20
42.875277
 30
0.0
 11
56.980213
 21
42.875277
 31
0.0
  0
TEXT
  5
1F3
330
36
100
AcDbEntity
  8
001
 62
     4
100
AcDbText
 10
59.730213
 20
43.875277
 30
0.0
 40
3.2
  1
定格表示刻印
 41
0.716146
100
AcDbText
  0
TEXT
  5
1F4
330
36
100
AcDbEntity
  8
001
 62
     3
100
AcDbText
 10
-51.783006
 20
-46.257741
 30
0.0
 40
4.0
  1
TL2-0.5S
 41
1.116279
100
AcDbText
  0
TEXT
  5
1F5
330
36
100
AcDbEntity
  8
001
 62
     3
100
AcDbText
 10
44.745071
 20
-65.92283899999999
 30
0.0
 40
4.0
  1
TL2-0.5S
 41
1.336446999999999
100
AcDbText
  0
TEXT
  5
1F6
330
36
100
AcDbEntity
  8
001
 62
     3
100
AcDbText
 10
86.92923099999999
 20
-90.0
 30
0.0
 40
6.299999999999998
  1
K-TL2-0.5S
 41
0.865801
100
AcDbText
  0
TEXT
  5
1F7
330
36
100
AcDbEntity
  8
001
100
AcDbText
 10
114.093391
 20
-49.829296
 30
0.0
 40
4.5
  1
9054
 41
1.043478
100
AcDbText
  0
LINE
  5
244
330
36
100
AcDbEntity
  8
0
  6
Continuous
 62
     3
100
AcDbLine
 10
-16.21066244809979
 20
28.6192060239511
 30
0.0
 11
-16.21066244809979
 21
35.91890838376278
 31
0.0
  0
LINE
  5
245
330
36
100
AcDbEntity
  8
0
  6
Continuous
 62
     3
100
AcDbLine
 10
-11.21066244809978
 20
28.50133683040271
 30
0.0
 11
-11.21066244809978
 21
35.91890838376278
 31
0.0
  0
CIRCLE
  5
246
330
36
100
AcDbEntity
  8
0
  6
Continuous
 62
     3
100
AcDbCircle
 10
-13.71066244809979
 20
44.56471661665806
 30
0.0
 40
4.25
  0
ARC
  5
247
330
36
100
AcDbEntity
  8
0
  6
Continuous
 62
     3
100
AcDbCircle
 10
-13.71066244809979
 20
44.56471661665806
 30
0.0
 40
9.0
100
AcDbArc
 50
286.1276202131608
 51
253.8723797868392
  0
LINE
  5
28C
330
36
100
AcDbEntity
  8
001
100
AcDbLine
 10
66.987594
 20
31.501068
 30
0.0
 11
65.96303899999999
 21
29.701769
 31
0.0
  0
LINE
  5
28D
330
36
100
AcDbEntity
  8
001
100
AcDbLine
 10
65.96303899999999
 20
29.701769
 30
0.0
 11
67.74997900000001
 21
30.74773
 31
0.0
  0
LINE
  5
290
330
36
100
AcDbEntity
  8
001
100
AcDbLine
 10
7.097061
 20
28.217183
 30
0.0
 11
8.082057
 21
26.34295
 31
0.0
  0
LINE
  5
291
330
36
100
AcDbEntity
  8
001
100
AcDbLine
 10
8.082057
 20
26.34295
 30
0.0
 11
8.50135
 21
24.468404
 31
0.0
  0
LINE
  5
292
330
36
100
AcDbEntity
  8
001
100
AcDbLine
 10
8.50135
 20
24.468404
 30
0.0
 11
7.681055999999997
 21
21.878262
 31
0.0
  0
LINE
  5
293
330
36
100
AcDbEntity
  8
001
100
AcDbLine
 10
7.681055999999997
 20
21.878262
 30
0.0
 11
6.672508999999998
 21
19.260333
 31
0.0
  0
LINE
  5
294
330
36
100
AcDbEntity
  8
001
100
AcDbLine
 10
6.672508999999998
 20
19.260333
 30
0.0
 11
6.916275999999997
 21
16.724495
 31
0.0
  0
LINE
  5
295
330
36
100
AcDbEntity
  8
001
100
AcDbLine
 10
6.916275999999997
 20
16.724495
 30
0.0
 11
7.965072999999997
 21
14.163987
 31
0.0
  0
LINE
  5
296
330
36
100
AcDbEntity
  8
001
100
AcDbLine
 10
9.952914999999999
 20
27.49736
 30
0.0
 11
10.937911
 21
25.623127
 31
0.0
  0
LINE
  5
297
330
36
100
AcDbEntity
  8
001
100
AcDbLine
 10
10.937911
 20
25.623127
 30
0.0
 11
11.357203
 21
23.74858
 31
0.0
  0
LINE
  5
298
330
36
100
AcDbEntity
  8
001
100
AcDbLine
 10
11.357203
 20
23.74858
 30
0.0
 11
10.53691
 21
21.158439
 31
0.0
  0
LINE
  5
299
330
36
100
AcDbEntity
  8
001
100
AcDbLine
 10
10.53691
 20
21.158439
 30
0.0
 11
9.528363
 21
18.54051
 31
0.0
  0
LINE
  5
29A
330
36
100
AcDbEntity
  8
001
100
AcDbLine
 10
9.528363
 20
18.54051
 30
0.0
 11
9.772128999999999
 21
16.004671
 31
0.0
  0
LINE
  5
29B
330
36
100
AcDbEntity
  8
001
100
AcDbLine
 10
9.772128999999999
 20
16.004671
 30
0.0
 11
10.820927
 21
13.444163
 31
0.0
  0
LINE
  5
29C
330
36
100
AcDbEntity
  8
001
100
AcDbLine
 10
-77.885802
 20
29.63735
 30
0.0
 11
-76.21689599999998
 21
28.411813
 31
0.0
  0
LINE
  5
29D
330
36
100
AcDbEntity
  8
001
100
AcDbLine
 10
-76.21689599999998
 20
28.411813
 30
0.0
 11
-77.04944199999999
 21
30.307612
 31
0.0
  0
LINE
  5
29E
330
36
100
AcDbEntity
  8
001
100
AcDbLine
 10
-86.97616999999999
 20
11.067341
 30
0.0
 11
-86.97616999999999
 21
-22.470208
 31
0.0
  0
LINE
  5
29F
330
36
100
AcDbEntity
  8
001
100
AcDbLine
 10
64.62188399999999
 20
5.426871
 30
0.0
 11
64.62188399999999
 21
-22.470208
 31
0.0
  0
LINE
  5
2A0
330
36
100
AcDbEntity
  8
001
100
AcDbLine
 10
-86.97616999999999
 20
-21.470208
 30
0.0
 11
64.62188399999999
 21
-21.470208
 31
0.0
  0
TEXT
  5
2A3
330
36
100
AcDbEntity
  8
001
100
AcDbText
 10
-19.927143
 20
-20.470208
 30
0.0
 40
4.5
  1
電線長さ
 41
0.833333
100
AcDbText
  0
LINE
  5
2A6
330
36
100
AcDbEntity
  8
0
  6
Continuous
 62
     0
100
AcDbLine
 10
62.62188399999999
 20
-22.006106
 30
0.0
 11
64.62188399999999
 21
-21.470208
 31
0.0
  0
LINE
  5
2A7
330
36
100
AcDbEntity
  8
0
  6
Continuous
 62
     0
100
AcDbLine
 10
64.62188399999999
 20
-21.470208
 30
0.0
 11
62.62188399999999
 21
-20.93431
 31
0.0
  0
LINE
  5
2A8
330
36
100
AcDbEntity
  8
0
  6
Continuous
 62
     0
100
AcDbLine
 10
-84.97616999999998
 20
-20.93431
 30
0.0
 11
-86.97616999999999
 21
-21.470208
 31
0.0
  0
LINE
  5
2A9
330
36
100
AcDbEntity
  8
0
  6
Continuous
 62
     0
100
AcDbLine
 10
-86.97616999999999
 20
-21.470208
 30
0.0
 11
-84.97616999999998
 21
-22.006106
 31
0.0
  0
ENDSEC
  0
SECTION
  2
OBJECTS
  0
DICTIONARY
  5
C
330
0
100
AcDbDictionary
281
     1
  3
ACAD_COLOR
350
2F
  3
ACAD_GROUP
350
D
  3
ACAD_LAYOUT
350
2E
  3
ACAD_MATERIAL
350
10
  3
ACAD_MLINESTYLE
350
2B
  3
ACAD_PLOTSETTINGS
350
2D
  3
ACAD_PLOTSTYLENAME
350
E
  3
ACAD_TABLESTYLE
350
30
  3
ACAD_VISUALSTYLE
350
14
  3
AcDbVariableDictionary
350
1FA
  0
DICTIONARY
  5
235
330
2
100
AcDbDictionary
280
     1
281
     1
  3
ACAD_LAYERSTATES
360
236
  0
DICTIONARY
  5
28E
330
36
100
AcDbDictionary
280
     1
281
     1
  3
ACAD_SORTENTS
360
28F
  0
DICTIONARY
  5
2F
102
{ACAD_REACTORS
330
C
102
}
330
C
100
AcDbDictionary
281
     1
  0
DICTIONARY
  5
D
102
{ACAD_REACTORS
330
C
102
}
330
C
100
AcDbDictionary
281
     1
  0
DICTIONARY
  5
2E
102
{ACAD_REACTORS
330
C
102
}
330
C
100
AcDbDictionary
281
     1
  3
Model
350
39
  3
レイアウト1
350
35
  0
DICTIONARY
  5
10
102
{ACAD_REACTORS
330
C
102
}
330
C
100
AcDbDictionary
281
     1
  3
ByBlock
350
12
  3
ByLayer
350
11
  3
Global
350
13
  0
DICTIONARY
  5
2B
102
{ACAD_REACTORS
330
C
102
}
330
C
100
AcDbDictionary
281
     1
  3
Standard
350
2C
  0
DICTIONARY
  5
2D
102
{ACAD_REACTORS
330
C
102
}
330
C
100
AcDbDictionary
281
     1
  0
ACDBDICTIONARYWDFLT
  5
E
102
{ACAD_REACTORS
330
C
102
}
330
C
100
AcDbDictionary
281
     1
  3
Normal
350
F
100
AcDbDictionaryWithDefault
340
F
  0
DICTIONARY
  5
30
102
{ACAD_REACTORS
330
C
102
}
330
C
100
AcDbDictionary
281
     1
  3
Standard
350
31
  0
DICTIONARY
  5
14
102
{ACAD_REACTORS
330
C
102
}
330
C
100
AcDbDictionary
281
     1
  3
2dWireframe
350
1A
  3
3D Hidden
350
1C
  3
3dWireframe
350
1B
  3
Basic
350
19
  3
Brighten
350
20
  3
ColorChange
350
24
  3
Conceptual
350
1D
  3
Dim
350
1F
  3
Facepattern
350
23
  3
Flat
350
15
  3
FlatWithEdges
350
16
  3
Gouraud
350
17
  3
GouraudWithEdges
350
18
  3
Linepattern
350
22
  3
Realistic
350
1E
  3
Thicken
350
21
  0
DICTIONARY
  5
1FA
102
{ACAD_REACTORS
330
C
102
}
330
C
100
AcDbDictionary
281
     1
  3
CTABLESTYLE
350
1FB
  0
DICTIONARY
  5
236
102
{ACAD_REACTORS
330
235
102
}
330
235
100
AcDbDictionary
281
     1
  0
SORTENTSTABLE
  5
28F
102
{ACAD_REACTORS
330
28E
102
}
330
28E
100
AcDbSortentsTable
330
36
331
189
  5
1A3
331
1AB
  5
1C5
331
153
  5
16D
331
1E7
  5
298
331
1CD
  5
1E7
331
74
  5
80
331
291
  5
150
331
A1
  5
AD
331
178
  5
192
331
120
  5
140
331
FE
  5
110
331
E5
  5
F1
331
C3
  5
CF
331
19A
  5
1B4
331
142
  5
15C
331
1BC
  5
1D6
331
164
  5
17E
331
1DE
  5
28D
331
10F
  5
121
331
D4
  5
E0
331
B2
  5
BE
331
90
  5
9C
331
85
  5
91
331
1A9
  5
1C3
331
151
  5
16B
331
1E5
  5
296
331
1CB
  5
1E5
331
72
  5
7E
331
176
  5
190
331
11E
  5
13E
331
FC
  5
10E
331
E3
  5
EF
331
C1
  5
CD
331
9F
  5
AB
331
198
  5
1B2
331
140
  5
15A
331
1BA
  5
1D4
331
162
  5
17C
331
1DC
  5
247
331
83
  5
8F
331
1F6
  5
2A4
331
B0
  5
BC
331
187
  5
1A1
331
10D
  5
11F
331
D2
  5
DE
331
2A0
  5
6E
331
8E
  5
9A
331
1E3
  5
294
331
1C9
  5
1E3
331
70
  5
7C
331
174
  5
18E
331
11C
  5
13C
331
FA
  5
10C
331
E1
  5
ED
331
BF
  5
CB
331
9D
  5
A9
331
196
  5
1B0
331
13E
  5
158
331
1B8
  5
1D2
331
160
  5
17A
331
6F
  5
7B
331
1DA
  5
245
331
81
  5
8D
331
1F4
  5
2A2
331
8C
  5
98
331
AE
  5
BA
331
185
  5
19F
331
D0
  5
DC
331
1A7
  5
1C1
331
14F
  5
169
331
29E
  5
6C
331
1E1
  5
292
331
28C
  5
29D
331
172
  5
18C
331
11A
  5
128
331
F8
  5
105
331
DF
  5
EB
331
BD
  5
C9
331
9B
  5
A7
331
194
  5
1AE
331
13C
  5
156
331
1B6
  5
1D0
331
15E
  5
178
331
6D
  5
79
331
1D8
  5
1F7
331
7F
  5
8B
331
1F2
  5
2A0
331
8A
  5
96
331
29C
  5
126
331
183
  5
19D
331
CE
  5
DA
331
AC
  5
B8
331
1C7
  5
1E1
331
1A5
  5
1BF
331
14D
  5
167
331
192
  5
1AC
331
170
  5
18A
331
F6
  5
103
331
DD
  5
E9
331
BB
  5
C7
331
99
  5
A5
331
1B4
  5
1CE
331
15C
  5
176
331
1D6
  5
1F5
331
7D
  5
89
331
29A
  5
14D
331
AA
  5
B6
331
88
  5
94
331
181
  5
19B
331
EE
  5
FA
331
CC
  5
D8
331
1C5
  5
1DF
331
1A3
  5
1BD
331
14B
  5
165
331
B9
  5
C5
331
190
  5
1AA
331
16E
  5
188
331
F4
  5
101
331
DB
  5
E7
331
2A9
  5
74
331
1B2
  5
1CC
331
15A
  5
174
331
1D4
  5
1F3
331
7B
  5
87
331
298
  5
14B
331
A8
  5
B4
331
17F
  5
199
331
127
  5
147
331
105
  5
11C
331
EC
  5
F8
331
CA
  5
D6
331
1C3
  5
1DD
331
1A1
  5
1BB
331
247
  5
2A9
331
97
  5
A3
331
149
  5
163
331
18E
  5
1A8
331
16C
  5
186
331
114
  5
125
331
F2
  5
FE
331
D9
  5
E5
331
1B0
  5
1CA
331
158
  5
172
331
1D2
  5
1F1
331
79
  5
85
331
296
  5
149
331
A6
  5
B2
331
17D
  5
197
331
125
  5
145
331
103
  5
11A
331
EA
  5
F6
331
C8
  5
D4
331
1C1
  5
1DB
331
19F
  5
1B9
331
245
  5
2A7
331
95
  5
A1
331
147
  5
161
331
2A7
  5
76
331
B7
  5
C3
331
18C
  5
1A6
331
16A
  5
184
331
F0
  5
FC
331
1AE
  5
1C8
331
156
  5
170
331
1EA
  5
29B
331
1D0
  5
1EA
331
77
  5
83
331
294
  5
153
331
A4
  5
B0
331
17B
  5
195
331
123
  5
143
331
101
  5
113
331
E8
  5
F4
331
C6
  5
D2
331
19D
  5
1B7
331
145
  5
15F
331
1BF
  5
1D9
331
167
  5
181
331
B5
  5
C1
331
D7
  5
E3
331
93
  5
9F
331
18A
  5
1A4
331
168
  5
182
331
110
  5
122
331
1AC
  5
1C6
331
154
  5
16E
331
1E8
  5
299
331
1CE
  5
1E8
331
75
  5
81
331
292
  5
151
331
A2
  5
AE
331
179
  5
193
331
121
  5
141
331
E6
  5
F2
331
C4
  5
D0
331
19B
  5
1B5
331
143
  5
15D
331
1BD
  5
1D7
331
165
  5
17F
331
1DF
  5
290
331
B3
  5
BF
331
91
  5
9D
331
D5
  5
E1
331
2A3
  5
77
331
86
  5
92
331
188
  5
1A2
331
1AA
  5
1C4
331
152
  5
16C
331
1E6
  5
297
331
1CC
  5
1E6
331
73
  5
7F
331
290
  5
14F
331
A0
  5
AC
331
177
  5
191
331
11F
  5
13F
331
FD
  5
10F
331
E4
  5
F0
331
C2
  5
CE
331
199
  5
1B3
331
141
  5
15B
331
1BB
  5
1D5
331
163
  5
17D
331
1DD
  5
28C
331
1F7
  5
2A5
331
8F
  5
9B
331
10E
  5
120
331
D3
  5
DF
331
B1
  5
BD
331
84
  5
90
331
1A8
  5
1C2
331
150
  5
16A
331
1E4
  5
295
331
1CA
  5
1E4
331
71
  5
7D
331
175
  5
18F
331
11D
  5
13D
331
FB
  5
10D
331
E2
  5
EE
331
C0
  5
CC
331
9E
  5
AA
331
197
  5
1B1
331
13F
  5
159
331
1B9
  5
1D3
331
161
  5
17B
331
1DB
  5
246
331
82
  5
8E
331
1F5
  5
2A3
331
AF
  5
BB
331
186
  5
1A0
331
10C
  5
11E
331
D1
  5
DD
331
29F
  5
6D
331
8D
  5
99
331
1E2
  5
293
331
1C8
  5
1E2
331
28D
  5
29E
331
173
  5
18D
331
11B
  5
13B
331
F9
  5
106
331
E0
  5
EC
331
BE
  5
CA
331
9C
  5
A8
331
195
  5
1AF
331
13D
  5
157
331
1B7
  5
1D1
331
15F
  5
179
331
6E
  5
7A
331
1D9
  5
244
331
80
  5
8C
331
1F3
  5
2A1
331
8B
  5
97
331
29D
  5
127
331
184
  5
19E
331
CF
  5
DB
331
AD
  5
B9
331
1A6
  5
1C0
331
14E
  5
168
331
1E0
  5
291
331
171
  5
18B
331
F7
  5
104
331
DE
  5
EA
331
BC
  5
C8
331
9A
  5
A6
331
193
  5
1AD
331
13B
  5
155
331
1B5
  5
1CF
331
15D
  5
177
331
6C
  5
78
331
1D7
  5
1F6
331
7E
  5
8A
331
1F1
  5
29F
331
89
  5
95
331
29B
  5
14E
331
182
  5
19C
331
EF
  5
FB
331
CD
  5
D9
331
AB
  5
B7
331
1C6
  5
1E0
331
1A4
  5
1BE
331
14C
  5
166
331
191
  5
1AB
331
16F
  5
189
331
F5
  5
102
331
DC
  5
E8
331
BA
  5
C6
331
98
  5
A4
331
1B3
  5
1CD
331
15B
  5
175
331
1D5
  5
1F4
331
7C
  5
88
331
299
  5
14C
331
A9
  5
B5
331
180
  5
19A
331
128
  5
148
331
106
  5
11D
331
ED
  5
F9
331
CB
  5
D7
331
1C4
  5
1DE
331
1A2
  5
1BC
331
14A
  5
164
331
B8
  5
C4
331
18F
  5
1A9
331
16D
  5
187
331
F3
  5
100
331
DA
  5
E6
331
2A8
  5
73
331
1B1
  5
1CB
331
159
  5
173
331
1D3
  5
1F2
331
7A
  5
86
331
297
  5
14A
331
A7
  5
B3
331
17E
  5
198
331
126
  5
146
331
104
  5
11B
331
EB
  5
F7
331
C9
  5
D5
331
1C2
  5
1DC
331
1A0
  5
1BA
331
246
  5
2A8
331
96
  5
A2
331
148
  5
162
331
18D
  5
1A7
331
16B
  5
185
331
113
  5
124
331
F1
  5
FD
331
D8
  5
E4
331
1AF
  5
1C9
331
157
  5
171
331
1EB
  5
29C
331
1D1
  5
1EB
331
78
  5
84
331
295
  5
154
331
A5
  5
B1
331
17C
  5
196
331
124
  5
144
331
102
  5
114
331
E9
  5
F5
331
C7
  5
D3
331
1C0
  5
1DA
331
19E
  5
1B8
331
244
  5
2A6
331
94
  5
A0
331
146
  5
160
331
2A6
  5
75
331
B6
  5
C2
331
18B
  5
1A5
331
169
  5
183
331
111
  5
123
331
1AD
  5
1C7
331
155
  5
16F
331
1E9
  5
29A
331
1CF
  5
1E9
331
76
  5
82
331
293
  5
152
331
A3
  5
AF
331
17A
  5
194
331
122
  5
142
331
100
  5
111
331
E7
  5
F3
331
C5
  5
D1
331
19C
  5
1B6
331
144
  5
15E
331
1BE
  5
1D8
331
166
  5
180
331
D6
  5
E2
331
B4
  5
C0
331
92
  5
9E
331
87
  5
93
  0
LAYOUT
  5
39
102
{ACAD_REACTORS
330
2E
102
}
330
2E
100
AcDbPlotSettings
  1

  2
PDF Complete
  4

  6

 40
0.0
 41
0.0
 42
0.0
 43
0.0
 44
0.0
 45
0.0
 46
0.0
 47
0.0
 48
0.0
 49
0.0
140
0.0
141
0.0
142
1.0
143
1.0
 70
  1712
 72
     0
 73
     0
 74
     0
  7

 75
     0
147
1.0
 76
     0
 77
     2
 78
   300
148
0.0
149
0.0
100
AcDbLayout
  1
Model
 70
     1
 71
     0
 10
0.0
 20
0.0
 11
12.0
 21
9.0
 12
0.0
 22
0.0
 32
0.0
 14
0.0
 24
0.0
 34
0.0
 15
0.0
 25
0.0
 35
0.0
146
0.0
 13
0.0
 23
0.0
 33
0.0
 16
1.0
 26
0.0
 36
0.0
 17
0.0
 27
1.0
 37
0.0
 76
     0
330
36
331
56
  0
LAYOUT
  5
35
102
{ACAD_REACTORS
330
2E
102
}
330
2E
100
AcDbPlotSettings
  1

  2
PDF Complete
  4

  6

 40
0.0
 41
0.0
 42
0.0
 43
0.0
 44
0.0
 45
0.0
 46
0.0
 47
0.0
 48
0.0
 49
0.0
140
0.0
141
0.0
142
1.0
143
1.0
 70
   688
 72
     0
 73
     0
 74
     5
  7

 75
    16
147
1.0
 76
     0
 77
     2
 78
   300
148
0.0
149
0.0
100
AcDbLayout
  1
レイアウト1
 70
     1
 71
     1
 10
0.0
 20
0.0
 11
12.0
 21
9.0
 12
0.0
 22
0.0
 32
0.0
 14
1.000000000000000E+20
 24
1.000000000000000E+20
 34
1.000000000000000E+20
 15
-1.000000000000000E+20
 25
-1.000000000000000E+20
 35
-1.000000000000000E+20
146
0.0
 13
0.0
 23
0.0
 33
0.0
 16
1.0
 26
0.0
 36
0.0
 17
0.0
 27
1.0
 37
0.0
 76
     0
330
32
  0
MATERIAL
  5
12
102
{ACAD_XDICTIONARY
360
1FE
102
}
102
{ACAD_REACTORS
330
10
102
}
330
10
100
AcDbMaterial
  1
ByBlock
  0
MATERIAL
  5
11
102
{ACAD_XDICTIONARY
360
1FC
102
}
102
{ACAD_REACTORS
330
10
102
}
330
10
100
AcDbMaterial
  1
ByLayer
  0
MATERIAL
  5
13
102
{ACAD_XDICTIONARY
360
200
102
}
102
{ACAD_REACTORS
330
10
102
}
330
10
100
AcDbMaterial
  1
Global
  0
MLINESTYLE
  5
2C
102
{ACAD_REACTORS
330
2B
102
}
330
2B
100
AcDbMlineStyle
  2
STANDARD
 70
     0
  3

 62
   256
 51
90.0
 52
90.0
 71
     2
 49
0.5
 62
   256
  6
BYLAYER
 49
-0.5
 62
   256
  6
BYLAYER
  0
ACDBPLACEHOLDER
  5
F
102
{ACAD_REACTORS
330
E
102
}
330
E
  0
TABLESTYLE
  5
31
102
{ACAD_REACTORS
330
30
102
}
330
30
100
AcDbTableStyle
  3
Standard
 70
     0
 71
     0
 40
0.06
 41
0.06
280
     0
281
     0
  7
STANDARD
140
0.18
170
     2
 62
     0
 63
     7
283
     0
 90
      512
 91
        0
  1

274
    -2
284
     1
 64
     0
275
    -2
285
     1
 65
     0
276
    -2
286
     1
 66
     0
277
    -2
287
     1
 67
     0
278
    -2
288
     1
 68
     0
279
    -2
289
     1
 69
     0
  7
STANDARD
140
0.25
170
     5
 62
     0
 63
     7
283
     0
 90
      512
 91
        0
  1

274
    -2
284
     1
 64
     0
275
    -2
285
     1
 65
     0
276
    -2
286
     1
 66
     0
277
    -2
287
     1
 67
     0
278
    -2
288
     1
 68
     0
279
    -2
289
     1
 69
     0
  7
STANDARD
140
0.18
170
     5
 62
     0
 63
     7
283
     0
 90
      512
 91
        0
  1

274
    -2
284
     1
 64
     0
275
    -2
285
     1
 65
     0
276
    -2
286
     1
 66
     0
277
    -2
287
     1
 67
     0
278
    -2
288
     1
 68
     0
279
    -2
289
     1
 69
     0
  0
VISUALSTYLE
  5
1A
102
{ACAD_REACTORS
330
14
102
}
330
14
100
AcDbVisualStyle
  2
2dWireframe
 70
     4
 71
     0
 72
     2
 73
     0
 90
        0
 40
-0.6
 41
-30.0
 62
     5
 63
     7
421
 16777215
 74
     1
 91
        4
 64
     7
 65
   257
 75
     1
175
     1
 42
1.0
 92
        0
 66
   257
 43
1.0
 76
     1
 77
     6
 78
     2
 67
     7
 79
     5
170
     0
171
     0
290
     0
174
     0
 93
        1
 44
0.0
173
     0
291
     0
 45
0.0
1001
ACAD
1000
AcDbSavedByObjectVersion
1070
     0
  0
VISUALSTYLE
  5
1C
102
{ACAD_REACTORS
330
14
102
}
330
14
100
AcDbVisualStyle
  2
3D Hidden
 70
     6
 71
     1
 72
     2
 73
     2
 90
        0
 40
-0.6
 41
-30.0
 62
     5
 63
     7
421
 16777215
 74
     2
 91
        2
 64
     7
 65
   257
 75
     2
175
     1
 42
40.0
 92
        0
 66
   257
 43
1.0
 76
     1
 77
     6
 78
     2
 67
     7
 79
     3
170
     0
171
     0
290
     0
174
     0
 93
        1
 44
0.0
173
     0
291
     0
 45
0.0
1001
ACAD
1000
AcDbSavedByObjectVersion
1070
     0
  0
VISUALSTYLE
  5
1B
102
{ACAD_REACTORS
330
14
102
}
330
14
100
AcDbVisualStyle
  2
3dWireframe
 70
     5
 71
     0
 72
     2
 73
     0
 90
        0
 40
-0.6
 41
-30.0
 62
     5
 63
     7
421
 16777215
 74
     1
 91
        4
 64
     7
 65
   257
 75
     1
175
     1
 42
1.0
 92
        0
 66
   257
 43
1.0
 76
     1
 77
     6
 78
     2
 67
     7
 79
     5
170
     0
171
     0
290
     0
174
     0
 93
        1
 44
0.0
173
     0
291
     0
 45
0.0
1001
ACAD
1000
AcDbSavedByObjectVersion
1070
     0
  0
VISUALSTYLE
  5
19
102
{ACAD_REACTORS
330
14
102
}
330
14
100
AcDbVisualStyle
  2
Basic
 70
     7
 71
     1
 72
     0
 73
     1
 90
        0
 40
-0.6
 41
-30.0
 62
     5
 63
     7
421
 16777215
 74
     0
 91
        4
 64
     7
 65
   257
 75
     1
175
     1
 42
1.0
 92
        8
 66
     7
 43
1.0
 76
     1
 77
     6
 78
     2
 67
     7
 79
     5
170
     0
171
     0
290
     0
174
     0
 93
        1
 44
0.0
173
     0
291
     1
 45
0.0
1001
ACAD
1000
AcDbSavedByObjectVersion
1070
     0
  0
VISUALSTYLE
  5
20
102
{ACAD_REACTORS
330
14
102
}
330
14
100
AcDbVisualStyle
  2
Brighten
 70
    12
 71
     2
 72
     2
 73
     0
 90
        0
 40
-0.6
 41
-30.0
 62
     5
 63
     7
421
 16777215
 74
     1
 91
        4
 64
     7
 65
   257
 75
     1
175
     1
 42
1.0
 92
        8
 66
     7
 43
1.0
 76
     1
 77
     6
 78
     2
 67
     7
 79
     5
170
     0
171
     0
290
     0
174
     0
 93
        1
 44
50.0
173
     0
291
     1
 45
0.0
1001
ACAD
1000
AcDbSavedByObjectVersion
1070
     0
  0
VISUALSTYLE
  5
24
102
{ACAD_REACTORS
330
14
102
}
330
14
100
AcDbVisualStyle
  2
ColorChange
 70
    16
 71
     2
 72
     2
 73
     3
 90
        0
 40
-0.6
 41
-30.0
 62
     5
 63
     8
421
  8421504
 74
     1
 91
        4
 64
     7
 65
   257
 75
     1
175
     1
 42
1.0
 92
        8
 66
     8
424
  8421504
 43
1.0
 76
     1
 77
     6
 78
     2
 67
     7
 79
     5
170
     0
171
     0
290
     0
174
     0
 93
        1
 44
0.0
173
     0
291
     1
 45
0.0
1001
ACAD
1000
AcDbSavedByObjectVersion
1070
     0
  0
VISUALSTYLE
  5
1D
102
{ACAD_REACTORS
330
14
102
}
330
14
100
AcDbVisualStyle
  2
Conceptual
 70
     9
 71
     3
 72
     2
 73
     0
 90
        0
 40
-0.6
 41
-30.0
 62
     5
 63
     7
421
 16777215
 74
     2
 91
        2
 64
     7
 65
   257
 75
     1
175
     1
 42
40.0
 92
        8
 66
     7
 43
1.0
 76
     1
 77
     6
 78
     2
 67
     7
 79
     3
170
     0
171
     0
290
     0
174
     0
 93
        1
 44
0.0
173
     0
291
     0
 45
0.0
1001
ACAD
1000
AcDbSavedByObjectVersion
1070
     0
  0
VISUALSTYLE
  5
1F
102
{ACAD_REACTORS
330
14
102
}
330
14
100
AcDbVisualStyle
  2
Dim
 70
    11
 71
     2
 72
     2
 73
     0
 90
        0
 40
-0.6
 41
-30.0
 62
     5
 63
     7
421
 16777215
 74
     1
 91
        4
 64
     7
 65
   257
 75
     1
175
     1
 42
1.0
 92
        8
 66
     7
 43
1.0
 76
     1
 77
     6
 78
     2
 67
     7
 79
     5
170
     0
171
     0
290
     0
174
     0
 93
        1
 44
-50.0
173
     0
291
     1
 45
0.0
1001
ACAD
1000
AcDbSavedByObjectVersion
1070
     0
  0
VISUALSTYLE
  5
23
102
{ACAD_REACTORS
330
14
102
}
330
14
100
AcDbVisualStyle
  2
Facepattern
 70
    15
 71
     2
 72
     2
 73
     0
 90
        0
 40
-0.6
 41
-30.0
 62
     5
 63
     7
421
 16777215
 74
     1
 91
        4
 64
     7
 65
   257
 75
     1
175
     1
 42
1.0
 92
        8
 66
     7
 43
1.0
 76
     1
 77
     6
 78
     2
 67
     7
 79
     5
170
     0
171
     0
290
     0
174
     0
 93
        1
 44
0.0
173
     0
291
     1
 45
0.0
1001
ACAD
1000
AcDbSavedByObjectVersion
1070
     0
  0
VISUALSTYLE
  5
15
102
{ACAD_REACTORS
330
14
102
}
330
14
100
AcDbVisualStyle
  2
Flat
 70
     0
 71
     2
 72
     1
 73
     1
 90
        2
 40
-0.6
 41
30.0
 62
     5
 63
     7
421
 16777215
 74
     0
 91
        4
 64
     7
 65
   257
 75
     1
175
     1
 42
1.0
 92
        8
 66
     7
 43
1.0
 76
     1
 77
     6
 78
     2
 67
     7
 79
     5
170
     0
171
     0
290
     0
174
     0
 93
       13
 44
0.0
173
     0
291
     1
 45
0.0
1001
ACAD
1000
AcDbSavedByObjectVersion
1070
     0
  0
VISUALSTYLE
  5
16
102
{ACAD_REACTORS
330
14
102
}
330
14
100
AcDbVisualStyle
  2
FlatWithEdges
 70
     1
 71
     2
 72
     1
 73
     1
 90
        2
 40
-0.6
 41
30.0
 62
     5
 63
     7
421
 16777215
 74
     1
 91
        4
 64
     7
 65
   257
 75
     1
175
     1
 42
1.0
 92
        0
 66
   257
 43
1.0
 76
     1
 77
     6
 78
     2
 67
     7
 79
     5
170
     0
171
     0
290
     0
174
     0
 93
       13
 44
0.0
173
     0
291
     1
 45
0.0
1001
ACAD
1000
AcDbSavedByObjectVersion
1070
     0
  0
VISUALSTYLE
  5
17
102
{ACAD_REACTORS
330
14
102
}
330
14
100
AcDbVisualStyle
  2
Gouraud
 70
     2
 71
     2
 72
     2
 73
     1
 90
        2
 40
-0.6
 41
30.0
 62
     5
 63
     7
421
 16777215
 74
     0
 91
        4
 64
     7
 65
   257
 75
     1
175
     1
 42
1.0
 92
        0
 66
     7
 43
1.0
 76
     1
 77
     6
 78
     2
 67
     7
 79
     5
170
     0
171
     0
290
     0
174
     0
 93
       13
 44
0.0
173
     0
291
     1
 45
0.0
1001
ACAD
1000
AcDbSavedByObjectVersion
1070
     0
  0
VISUALSTYLE
  5
18
102
{ACAD_REACTORS
330
14
102
}
330
14
100
AcDbVisualStyle
  2
GouraudWithEdges
 70
     3
 71
     2
 72
     2
 73
     1
 90
        2
 40
-0.6
 41
30.0
 62
     5
 63
     7
421
 16777215
 74
     1
 91
        4
 64
     7
 65
   257
 75
     1
175
     1
 42
1.0
 92
        0
 66
   257
 43
1.0
 76
     1
 77
     6
 78
     2
 67
     7
 79
     5
170
     0
171
     0
290
     0
174
     0
 93
       13
 44
0.0
173
     0
291
     1
 45
0.0
1001
ACAD
1000
AcDbSavedByObjectVersion
1070
     0
  0
VISUALSTYLE
  5
22
102
{ACAD_REACTORS
330
14
102
}
330
14
100
AcDbVisualStyle
  2
Linepattern
 70
    14
 71
     2
 72
     2
 73
     0
 90
        0
 40
-0.6
 41
-30.0
 62
     5
 63
     7
421
 16777215
 74
     1
 91
        4
 64
     7
 65
   257
 75
     7
175
     7
 42
1.0
 92
        8
 66
     7
 43
1.0
 76
     1
 77
     6
 78
     2
 67
     7
 79
     5
170
     0
171
     0
290
     0
174
     0
 93
        1
 44
0.0
173
     0
291
     1
 45
0.0
1001
ACAD
1000
AcDbSavedByObjectVersion
1070
     0
  0
VISUALSTYLE
  5
1E
102
{ACAD_REACTORS
330
14
102
}
330
14
100
AcDbVisualStyle
  2
Realistic
 70
     8
 71
     2
 72
     2
 73
     0
 90
        0
 40
-0.6
 41
-30.0
 62
     5
 63
     7
421
 16777215
 74
     1
 91
        0
 64
     7
 65
   257
 75
     1
175
     1
 42
1.0
 92
        8
 66
     8
424
  7895160
 43
1.0
 76
     1
 77
     6
 78
     2
 67
     7
 79
     5
170
     0
171
     0
290
     0
174
     0
 93
       13
 44
0.0
173
     0
291
     0
 45
0.0
1001
ACAD
1000
AcDbSavedByObjectVersion
1070
     0
  0
VISUALSTYLE
  5
21
102
{ACAD_REACTORS
330
14
102
}
330
14
100
AcDbVisualStyle
  2
Thicken
 70
    13
 71
     2
 72
     2
 73
     0
 90
        0
 40
-0.6
 41
-30.0
 62
     5
 63
     7
421
 16777215
 74
     1
 91
        4
 64
     7
 65
   257
 75
     1
175
     1
 42
1.0
 92
       12
 66
     7
 43
1.0
 76
     1
 77
     6
 78
     2
 67
     7
 79
     5
170
     0
171
     0
290
     0
174
     0
 93
        1
 44
0.0
173
     0
291
     1
 45
0.0
1001
ACAD
1000
AcDbSavedByObjectVersion
1070
     0
  0
DICTIONARYVAR
  5
1FB
102
{ACAD_REACTORS
330
1FA
102
}
330
1FA
100
DictionaryVariables
280
     0
  1
STANDARD
  0
DICTIONARY
  5
1FE
330
12
100
AcDbDictionary
280
     1
281
     1
  3
ACAD_XREC_ROUNDTRIP
360
1FF
  0
DICTIONARY
  5
1FC
330
11
100
AcDbDictionary
280
     1
281
     1
  3
ACAD_XREC_ROUNDTRIP
360
1FD
  0
DICTIONARY
  5
200
330
13
100
AcDbDictionary
280
     1
281
     1
  3
ACAD_XREC_ROUNDTRIP
360
201
  0
XRECORD
  5
1FF
102
{ACAD_REACTORS
330
1FE
102
}
330
1FE
100
AcDbXrecord
280
     1
102
MATERIAL
148
0.0
149
0.0
149
0.0
 93
        0
 94
       63
282
     0
 72
     1
 77
     1
171
     1
175
     1
179
     1
273
     0
  0
XRECORD
  5
1FD
102
{ACAD_REACTORS
330
1FC
102
}
330
1FC
100
AcDbXrecord
280
     1
102
MATERIAL
148
0.0
149
0.0
149
0.0
 93
        0
 94
       63
282
     0
 72
     1
 77
     1
171
     1
175
     1
179
     1
273
     0
  0
XRECORD
  5
201
102
{ACAD_REACTORS
330
200
102
}
330
200
100
AcDbXrecord
280
     1
102
MATERIAL
148
0.0
149
0.0
149
0.0
 93
        0
 94
       63
282
     0
 72
     1
 77
     1
171
     1
175
     1
179
     1
273
     0
  0
ENDSEC
  0
EOF
