  0
SECTION
  2
HEADER
  9
$ACADVER
  1
AC1015
  9
$ACADMAINTVER
 70
    20
  9
$DWGCODEPAGE
  3
ANSI_932
  9
$INSBASE
 10
0.0
 20
0.0
 30
0.0
  9
$EXTMIN
 10
848.4794099999996
 20
-117.058254
 30
0.0
  9
$EXTMAX
 10
1253.47941
 20
156.997107
 30
0.0
  9
$LIMMIN
 10
848.478431
 20
-117.05925
  9
$LIMMAX
 10
1253.506249
 20
156.998101
  9
$ORTHOMODE
 70
     1
  9
$REGENMODE
 70
     1
  9
$FILLMODE
 70
     1
  9
$QTEXTMODE
 70
     0
  9
$MIRRTEXT
 70
     0
  9
$LTSCALE
 40
6.75043
  9
$ATTMODE
 70
     1
  9
$TEXTSIZE
 40
3.2
  9
$TRACEWID
 40
0.05
  9
$TEXTSTYLE
  7
高3.2
  9
$CLAYER
  8
0
  9
$CELTYPE
  6
CONTINUOUS
  9
$CECOLOR
 62
   256
  9
$CELTSCALE
 40
1.0
  9
$DISPSILH
 70
     0
  9
$DIMSCALE
 40
1.0
  9
$DIMASZ
 40
2.5
  9
$DIMEXO
 40
0.25
  9
$DIMDLI
 40
0.2
  9
$DIMRND
 40
0.0
  9
$DIMDLE
 40
0.0
  9
$DIMEXE
 40
1.25
  9
$DIMTP
 40
0.0
  9
$DIMTM
 40
0.0
  9
$DIMTXT
 40
3.0
  9
$DIMCEN
 40
0.0
  9
$DIMTSZ
 40
0.0
  9
$DIMTOL
 70
     0
  9
$DIMLIM
 70
     0
  9
$DIMTIH
 70
     0
  9
$DIMTOH
 70
     0
  9
$DIMSE1
 70
     0
  9
$DIMSE2
 70
     0
  9
$DIMTAD
 70
     3
  9
$DIMZIN
 70
     8
  9
$DIMBLK
  1
Open30
  9
$DIMASO
 70
     1
  9
$DIMSHO
 70
     1
  9
$DIMPOST
  1

  9
$DIMAPOST
  1

  9
$DIMALT
 70
     0
  9
$DIMALTD
 70
     3
  9
$DIMALTF
 40
0.03937007874016
  9
$DIMLFAC
 40
1.0
  9
$DIMTOFL
 70
     1
  9
$DIMTVP
 40
0.0
  9
$DIMTIX
 70
     0
  9
$DIMSOXD
 70
     0
  9
$DIMSAH
 70
     0
  9
$DIMBLK1
  1

  9
$DIMBLK2
  1

  9
$DIMSTYLE
  2
FREE
  9
$DIMCLRD
 70
     0
  9
$DIMCLRE
 70
     0
  9
$DIMCLRT
 70
     4
  9
$DIMTFAC
 40
1.0
  9
$DIMGAP
 40
0.625
  9
$DIMJUST
 70
     0
  9
$DIMSD1
 70
     0
  9
$DIMSD2
 70
     0
  9
$DIMTOLJ
 70
     0
  9
$DIMTZIN
 70
     8
  9
$DIMALTZ
 70
     0
  9
$DIMALTTZ
 70
     0
  9
$DIMUPT
 70
     1
  9
$DIMDEC
 70
     2
  9
$DIMTDEC
 70
     2
  9
$DIMALTU
 70
     2
  9
$DIMALTTD
 70
     3
  9
$DIMTXSTY
  7
STANDARD
  9
$DIMAUNIT
 70
     0
  9
$DIMADEC
 70
     1
  9
$DIMALTRND
 40
0.0
  9
$DIMAZIN
 70
     2
  9
$DIMDSEP
 70
    46
  9
$DIMATFIT
 70
     0
  9
$DIMFRAC
 70
     0
  9
$DIMLDRBLK
  1
Open30
  9
$DIMLUNIT
 70
     2
  9
$DIMLWD
 70
    -2
  9
$DIMLWE
 70
    -2
  9
$DIMTMOVE
 70
     0
  9
$LUNITS
 70
     2
  9
$LUPREC
 70
     4
  9
$SKETCHINC
 40
0.1
  9
$FILLETRAD
 40
0.0
  9
$AUNITS
 70
     0
  9
$AUPREC
 70
     0
  9
$MENU
  1
.
  9
$ELEVATION
 40
0.0
  9
$PELEVATION
 40
0.0
  9
$THICKNESS
 40
0.0
  9
$LIMCHECK
 70
     0
  9
$CHAMFERA
 40
0.0
  9
$CHAMFERB
 40
0.0
  9
$CHAMFERC
 40
0.0
  9
$CHAMFERD
 40
0.0
  9
$SKPOLY
 70
     0
  9
$TDCREATE
 40
2455657.650848333
  9
$TDUCREATE
 40
2455657.275848333
  9
$TDUPDATE
 40
2459825.742036528
  9
$TDUUPDATE
 40
2459825.367036528
  9
$TDINDWG
 40
0.0293460417
  9
$TDUSRTIMER
 40
0.0293456713
  9
$USRTIMER
 70
     1
  9
$ANGBASE
 50
0.0
  9
$ANGDIR
 70
     0
  9
$PDMODE
 70
     0
  9
$PDSIZE
 40
0.0
  9
$PLINEWID
 40
0.0
  9
$SPLFRAME
 70
     0
  9
$SPLINETYPE
 70
     6
  9
$SPLINESEGS
 70
     8
  9
$HANDSEED
  5
1206
  9
$SURFTAB1
 70
     6
  9
$SURFTAB2
 70
     6
  9
$SURFTYPE
 70
     6
  9
$SURFU
 70
     6
  9
$SURFV
 70
     6
  9
$UCSBASE
  2

  9
$UCSNAME
  2

  9
$UCSORG
 10
0.0
 20
0.0
 30
0.0
  9
$UCSXDIR
 10
1.0
 20
0.0
 30
0.0
  9
$UCSYDIR
 10
0.0
 20
1.0
 30
0.0
  9
$UCSORTHOREF
  2

  9
$UCSORTHOVIEW
 70
     0
  9
$UCSORGTOP
 10
0.0
 20
0.0
 30
0.0
  9
$UCSORGBOTTOM
 10
0.0
 20
0.0
 30
0.0
  9
$UCSORGLEFT
 10
0.0
 20
0.0
 30
0.0
  9
$UCSORGRIGHT
 10
0.0
 20
0.0
 30
0.0
  9
$UCSORGFRONT
 10
0.0
 20
0.0
 30
0.0
  9
$UCSORGBACK
 10
0.0
 20
0.0
 30
0.0
  9
$PUCSBASE
  2

  9
$PUCSNAME
  2

  9
$PUCSORG
 10
0.0
 20
0.0
 30
0.0
  9
$PUCSXDIR
 10
1.0
 20
0.0
 30
0.0
  9
$PUCSYDIR
 10
0.0
 20
1.0
 30
0.0
  9
$PUCSORTHOREF
  2

  9
$PUCSORTHOVIEW
 70
     0
  9
$PUCSORGTOP
 10
0.0
 20
0.0
 30
0.0
  9
$PUCSORGBOTTOM
 10
0.0
 20
0.0
 30
0.0
  9
$PUCSORGLEFT
 10
0.0
 20
0.0
 30
0.0
  9
$PUCSORGRIGHT
 10
0.0
 20
0.0
 30
0.0
  9
$PUCSORGFRONT
 10
0.0
 20
0.0
 30
0.0
  9
$PUCSORGBACK
 10
0.0
 20
0.0
 30
0.0
  9
$USERI1
 70
     0
  9
$USERI2
 70
     0
  9
$USERI3
 70
     0
  9
$USERI4
 70
     0
  9
$USERI5
 70
     0
  9
$USERR1
 40
0.0
  9
$USERR2
 40
0.0
  9
$USERR3
 40
0.0
  9
$USERR4
 40
0.0
  9
$USERR5
 40
0.0
  9
$WORLDVIEW
 70
     1
  9
$SHADEDGE
 70
     3
  9
$SHADEDIF
 70
    70
  9
$TILEMODE
 70
     1
  9
$MAXACTVP
 70
    64
  9
$PINSBASE
 10
0.0
 20
0.0
 30
0.0
  9
$PLIMCHECK
 70
     0
  9
$PEXTMIN
 10
1.000000000000000E+20
 20
1.000000000000000E+20
 30
1.000000000000000E+20
  9
$PEXTMAX
 10
-1.000000000000000E+20
 20
-1.000000000000000E+20
 30
-1.000000000000000E+20
  9
$PLIMMIN
 10
0.0
 20
0.0
  9
$PLIMMAX
 10
12.0
 20
9.0
  9
$UNITMODE
 70
     0
  9
$VISRETAIN
 70
     1
  9
$PLINEGEN
 70
     0
  9
$PSLTSCALE
 70
     1
  9
$TREEDEPTH
 70
  3020
  9
$CMLSTYLE
  2
Standard
  9
$CMLJUST
 70
     0
  9
$CMLSCALE
 40
1.0
  9
$PROXYGRAPHICS
 70
     1
  9
$MEASUREMENT
 70
     0
  9
$CELWEIGHT
370
    -1
  9
$ENDCAPS
280
     0
  9
$JOINSTYLE
280
     0
  9
$LWDISPLAY
290
     0
  9
$INSUNITS
 70
     0
  9
$HYPERLINKBASE
  1

  9
$STYLESHEET
  1

  9
$XEDIT
290
     1
  9
$CEPSNTYPE
380
     0
  9
$PSTYLEMODE
290
     1
  9
$FINGERPRINTGUID
  2
{3C0689F6-2B66-4A3B-AC6F-82E37BFD38AE}
  9
$VERSIONGUID
  2
{F2D7F7C6-D56F-4836-8038-74B1D6275B6B}
  9
$EXTNAMES
290
     1
  9
$PSVPSCALE
 40
0.0
  9
$OLESTARTUP
290
     0
  0
ENDSEC
  0
SECTION
  2
CLASSES
  0
CLASS
  1
ACDBDICTIONARYWDFLT
  2
AcDbDictionaryWithDefault
  3
ObjectDBX Classes
 90
        0
280
     0
281
     0
  0
CLASS
  1
MATERIAL
  2
AcDbMaterial
  3
ObjectDBX Classes
 90
     1153
280
     0
281
     0
  0
CLASS
  1
VISUALSTYLE
  2
AcDbVisualStyle
  3
ObjectDBX Classes
 90
     4095
280
     0
281
     0
  0
CLASS
  1
TABLESTYLE
  2
AcDbTableStyle
  3
ObjectDBX Classes
 90
     4095
280
     0
281
     0
  0
CLASS
  1
DICTIONARYVAR
  2
AcDbDictionaryVar
  3
ObjectDBX Classes
 90
        0
280
     0
281
     0
  0
CLASS
  1
ACDBPLACEHOLDER
  2
AcDbPlaceHolder
  3
ObjectDBX Classes
 90
        0
280
     0
281
     0
  0
CLASS
  1
LAYOUT
  2
AcDbLayout
  3
ObjectDBX Classes
 90
        0
280
     0
281
     0
  0
CLASS
  1
SCALE
  2
AcDbScale
  3
ObjectDBX Classes
 90
     1153
280
     0
281
     0
  0
CLASS
  1
MLEADERSTYLE
  2
AcDbMLeaderStyle
  3
ACDB_MLEADERSTYLE_CLASS
 90
     4095
280
     0
281
     0
  0
CLASS
  1
SORTENTSTABLE
  2
AcDbSortentsTable
  3
ObjectDBX Classes
 90
        0
280
     0
281
     0
  0
CLASS
  1
CELLSTYLEMAP
  2
AcDbCellStyleMap
  3
ObjectDBX Classes
 90
     1152
280
     0
281
     0
  0
CLASS
  1
AEC_REFEDIT_STATUS_TRACKER
  2
AecDbRefEditStatusTracker
  3
AecArchBase60|Product Desc: Autodesk Architectural Desktop 2007 |Company: Autodesk,Inc. |WEB Address: www.autodesk.com
 90
      129
280
     0
281
     0
  0
CLASS
  1
NPOCOLLECTION
  2
AcDbImpNonPersistentObjectsCollection
  3
ObjectDBX Classes
 90
     1153
280
     0
281
     0
  0
ENDSEC
  0
SECTION
  2
TABLES
  0
TABLE
  2
VPORT
  5
8
330
0
100
AcDbSymbolTable
 70
     1
  0
VPORT
  5
57
330
8
100
AcDbSymbolTableRecord
100
AcDbViewportTableRecord
  2
*Active
 70
     0
 10
0.0
 20
0.0
 11
1.0
 21
1.0
 12
1085.519101692167
 22
-27.36323319334912
 13
0.0
 23
0.0
 14
1.0
 24
1.0
 15
0.0
 25
0.0
 16
0.0
 26
0.0
 36
1.0
 17
0.0
 27
0.0
 37
0.0
 40
632.239054207307
 41
1.521582733812949
 42
50.0
 43
0.0
 44
0.0
 50
0.0
 51
0.0
 71
     0
 72
   100
 73
     1
 74
     1
 75
     0
 76
     0
 77
     0
 78
     0
281
     0
 65
     1
110
0.0
120
0.0
130
0.0
111
1.0
121
0.0
131
0.0
112
0.0
122
1.0
132
0.0
 79
     0
146
0.0
  0
ENDTAB
  0
TABLE
  2
LTYPE
  5
5
330
0
100
AcDbSymbolTable
 70
     3
  0
LTYPE
  5
28
330
5
100
AcDbSymbolTableRecord
100
AcDbLinetypeTableRecord
  2
ByBlock
 70
     0
  3

 72
    65
 73
     0
 40
0.0
  0
LTYPE
  5
29
330
5
100
AcDbSymbolTableRecord
100
AcDbLinetypeTableRecord
  2
ByLayer
 70
     0
  3

 72
    65
 73
     0
 40
0.0
  0
LTYPE
  5
2A
330
5
100
AcDbSymbolTableRecord
100
AcDbLinetypeTableRecord
  2
CONTINUOUS
 70
     0
  3
Solid-line
 72
    65
 73
     0
 40
0.0
  0
LTYPE
  5
43
330
5
100
AcDbSymbolTableRecord
100
AcDbLinetypeTableRecord
  2
DASHED
 70
     0
  3
DASHED
 72
    65
 73
     2
 40
0.75
 49
0.5
 74
     0
 49
-0.25
 74
     0
  0
ENDTAB
  0
TABLE
  2
LAYER
  5
2
102
{ACAD_XDICTIONARY
360
551
102
}
330
0
100
AcDbSymbolTable
 70
     2
  0
LAYER
  5
25
102
{ACAD_XDICTIONARY
360
72D
102
}
330
2
100
AcDbSymbolTableRecord
100
AcDbLayerTableRecord
  2
0
 70
     0
 62
     7
  6
CONTINUOUS
370
    -3
390
F
  0
LAYER
  5
53B
330
2
100
AcDbSymbolTableRecord
100
AcDbLayerTableRecord
  2
Defpoints
 70
     0
 62
     7
  6
CONTINUOUS
290
     0
370
    -3
390
F
  0
ENDTAB
  0
TABLE
  2
STYLE
  5
3
330
0
100
AcDbSymbolTable
 70
     5
  0
STYLE
  5
26
330
3
100
AcDbSymbolTableRecord
100
AcDbTextStyleTableRecord
  2
STANDARD
 70
     0
 40
0.0
 41
1.0
 50
0.0
 71
     0
 42
0.2
  3
TXT
  4
BIGFONT
  0
STYLE
  5
53C
330
3
100
AcDbSymbolTableRecord
100
AcDbTextStyleTableRecord
  2
高3.2
 70
     0
 40
3.2
 41
1.0
 50
0.0
 71
     0
 42
3.2
  3
txt.shx
  4
bigfont.shx
  0
STYLE
  5
53D
330
3
100
AcDbSymbolTableRecord
100
AcDbTextStyleTableRecord
  2
高6.3
 70
     0
 40
6.299999999999998
 41
1.0
 50
0.0
 71
     0
 42
6.299999999999998
  3
txt.shx
  4
bigfont.shx
  0
STYLE
  5
53F
330
3
100
AcDbSymbolTableRecord
100
AcDbTextStyleTableRecord
  2
高4.5
 70
     0
 40
4.5
 41
1.0
 50
0.0
 71
     0
 42
6.299999999999998
  3
txt.shx
  4
bigfont.shx
  0
STYLE
  5
540
330
3
100
AcDbSymbolTableRecord
100
AcDbTextStyleTableRecord
  2
高2
 70
     0
 40
2.0
 41
1.0
 50
0.0
 71
     0
 42
2.0
  3
txt.shx
  4
bigfont.shx
  0
ENDTAB
  0
TABLE
  2
VIEW
  5
6
330
0
100
AcDbSymbolTable
 70
     0
  0
ENDTAB
  0
TABLE
  2
UCS
  5
7
330
0
100
AcDbSymbolTable
 70
     0
  0
ENDTAB
  0
TABLE
  2
APPID
  5
9
330
0
100
AcDbSymbolTable
 70
     9
  0
APPID
  5
27
330
9
100
AcDbSymbolTableRecord
100
AcDbRegAppTableRecord
  2
ACAD
 70
     0
  0
APPID
  5
54B
330
9
100
AcDbSymbolTableRecord
100
AcDbRegAppTableRecord
  2
ACAD_DSTYLE_DIMJOGGED_JOGANGLE_SYMBOL
 70
     0
  0
APPID
  5
54C
330
9
100
AcDbSymbolTableRecord
100
AcDbRegAppTableRecord
  2
ACAD_DSTYLE_DIMJAG
 70
     0
  0
APPID
  5
54D
330
9
100
AcDbSymbolTableRecord
100
AcDbRegAppTableRecord
  2
ACAD_DSTYLE_DIMBREAK
 70
     0
  0
APPID
  5
54E
330
9
100
AcDbSymbolTableRecord
100
AcDbRegAppTableRecord
  2
ACAD_DSTYLE_DIMTALN
 70
     0
  0
APPID
  5
6BC
330
9
100
AcDbSymbolTableRecord
100
AcDbRegAppTableRecord
  2
ACAD_EXEMPT_FROM_CAD_STANDARDS
 70
     0
  0
APPID
  5
773
330
9
100
AcDbSymbolTableRecord
100
AcDbRegAppTableRecord
  2
ACAD_MLEADERVER
 70
     0
  0
APPID
  5
774
330
9
100
AcDbSymbolTableRecord
100
AcDbRegAppTableRecord
  2
ACAD_DSTYLE_DIMARC_LENGTH_SYMBOL
 70
     0
  0
APPID
  5
775
330
9
100
AcDbSymbolTableRecord
100
AcDbRegAppTableRecord
  2
ACAD_DSTYLE_DIMEXT_LENGTH
 70
     0
  0
ENDTAB
  0
TABLE
  2
DIMSTYLE
  5
A
330
0
100
AcDbSymbolTable
 70
     2
100
AcDbDimStyleTable
 71
     2
340
54A
340
474
  0
DIMSTYLE
105
474
330
A
100
AcDbSymbolTableRecord
100
AcDbDimStyleTableRecord
  2
Standard
 70
     0
340
26
  0
DIMSTYLE
105
54A
330
A
100
AcDbSymbolTableRecord
100
AcDbDimStyleTableRecord
  2
FREE
 70
     0
 41
2.5
 42
0.25
 43
0.2
 44
1.25
 73
     0
 74
     0
 77
     3
 78
     8
 79
     2
140
3.0
141
0.0
143
0.03937007874016
147
0.625
171
     3
172
     1
178
     4
179
     1
271
     2
272
     2
274
     3
283
     0
284
     8
288
     1
289
     0
340
26
341
4AB
342
4AB
1001
ACAD_DSTYLE_DIMBREAK
1070
   391
1040
3.75
1001
ACAD_DSTYLE_DIMJAG
1070
   388
1040
1.5
1001
ACAD_DSTYLE_DIMTALN
1070
   392
1070
     0
1001
ACAD_DSTYLE_DIMARC_LENGTH_SYMBOL
1070
   379
1070
     2
1001
ACAD_DSTYLE_DIMEXT_LENGTH
1070
   378
1040
1.25
1001
ACAD_DSTYLE_DIMJOGGED_JOGANGLE_SYMBOL
1070
   384
1040
1.570796326794896
  0
ENDTAB
  0
TABLE
  2
BLOCK_RECORD
  5
1
330
0
100
AcDbSymbolTable
 70
    11
  0
BLOCK_RECORD
  5
36
102
{ACAD_XDICTIONARY
360
10ED
102
}
330
1
100
AcDbSymbolTableRecord
100
AcDbBlockTableRecord
  2
*Model_Space
340
39
  0
BLOCK_RECORD
  5
32
330
1
100
AcDbSymbolTableRecord
100
AcDbBlockTableRecord
  2
*Paper_Space
340
35
  0
BLOCK_RECORD
  5
4AB
330
1
100
AcDbSymbolTableRecord
100
AcDbBlockTableRecord
  2
_Open30
340
0
102
{BLKREFS
331
86A
331
86B
331
876
331
877
331
85E
331
85F
331
F4B
331
F4C
331
F54
331
F55
331
F5D
331
F5E
331
104E
331
104F
331
1057
331
1058
331
1060
331
1061
102
}
  0
BLOCK_RECORD
  5
6BE
330
1
100
AcDbSymbolTableRecord
100
AcDbBlockTableRecord
  2
*D1
340
0
  0
BLOCK_RECORD
  5
6CB
330
1
100
AcDbSymbolTableRecord
100
AcDbBlockTableRecord
  2
*D2
340
0
  0
BLOCK_RECORD
  5
6D8
330
1
100
AcDbSymbolTableRecord
100
AcDbBlockTableRecord
  2
*D3
340
0
  0
BLOCK_RECORD
  5
859
330
1
100
AcDbSymbolTableRecord
100
AcDbBlockTableRecord
  2
*D4
340
0
  0
BLOCK_RECORD
  5
865
330
1
100
AcDbSymbolTableRecord
100
AcDbBlockTableRecord
  2
*D5
340
0
  0
BLOCK_RECORD
  5
871
330
1
100
AcDbSymbolTableRecord
100
AcDbBlockTableRecord
  2
*D6
340
0
  0
BLOCK_RECORD
  5
87D
330
1
100
AcDbSymbolTableRecord
100
AcDbBlockTableRecord
  2
_DotSmall
340
0
  0
BLOCK_RECORD
  5
F24
330
1
100
AcDbSymbolTableRecord
100
AcDbBlockTableRecord
  2
*D8
340
0
  0
BLOCK_RECORD
  5
F30
330
1
100
AcDbSymbolTableRecord
100
AcDbBlockTableRecord
  2
*D9
340
0
  0
BLOCK_RECORD
  5
F3C
330
1
100
AcDbSymbolTableRecord
100
AcDbBlockTableRecord
  2
*D10
340
0
  0
ENDTAB
  0
ENDSEC
  0
SECTION
  2
BLOCKS
  0
BLOCK
  5
37
330
36
100
AcDbEntity
  8
0
100
AcDbBlockBegin
  2
*Model_Space
 70
     0
 10
0.0
 20
0.0
 30
0.0
  3
*Model_Space
  1

  0
ENDBLK
  5
38
330
36
100
AcDbEntity
  8
0
100
AcDbBlockEnd
  0
BLOCK
  5
33
330
32
100
AcDbEntity
 67
     1
  8
0
100
AcDbBlockBegin
  2
*Paper_Space
 70
     0
 10
0.0
 20
0.0
 30
0.0
  3
*Paper_Space
  1

  0
ENDBLK
  5
34
330
32
100
AcDbEntity
 67
     1
  8
0
100
AcDbBlockEnd
  0
BLOCK
  5
4AC
330
4AB
100
AcDbEntity
  8
0
100
AcDbBlockBegin
  2
_Open30
 70
     0
 10
0.0
 20
0.0
 30
0.0
  3
_Open30
  1

  0
LINE
  5
4AD
330
4AB
100
AcDbEntity
  8
0
  6
ByBlock
 62
     0
370
    -2
100
AcDbLine
 10
-1.0
 20
0.267949
 30
0.0
 11
0.0
 21
0.0
 31
0.0
  0
LINE
  5
4AE
330
4AB
100
AcDbEntity
  8
0
  6
ByBlock
 62
     0
370
    -2
100
AcDbLine
 10
0.0
 20
0.0
 30
0.0
 11
-1.0
 21
-0.267949
 31
0.0
  0
LINE
  5
4AF
330
4AB
100
AcDbEntity
  8
0
  6
ByBlock
 62
     0
370
    -2
100
AcDbLine
 10
0.0
 20
0.0
 30
0.0
 11
-1.0
 21
0.0
 31
0.0
  0
ENDBLK
  5
4B0
330
4AB
100
AcDbEntity
  8
0
100
AcDbBlockEnd
  0
BLOCK
  5
6BF
330
6BE
100
AcDbEntity
  8
0
100
AcDbBlockBegin
  2
*D1
 70
     1
 10
0.0
 20
0.0
 30
0.0
  3
*D1
  1

  0
LINE
  5
104B
330
6BE
100
AcDbEntity
  8
0
 62
     0
370
    -2
100
AcDbLine
 10
995.0501069999999
 20
19.445579
 30
0.0
 11
995.0501069999999
 21
6.838483
 31
0.0
  0
LINE
  5
104C
330
6BE
100
AcDbEntity
  8
0
 62
     0
370
    -2
100
AcDbLine
 10
1123.050107
 20
19.445579
 30
0.0
 11
1123.050107
 21
6.838483
 31
0.0
  0
LINE
  5
104D
330
6BE
100
AcDbEntity
  8
0
 62
     0
370
    -2
100
AcDbLine
 10
997.5501069999999
 20
8.088483
 30
0.0
 11
1120.550107
 21
8.088483
 31
0.0
  0
INSERT
  5
104E
330
6BE
100
AcDbEntity
  8
0
 62
     0
370
    -2
100
AcDbBlockReference
  2
_Open30
 10
995.0501069999999
 20
8.088483
 30
0.0
 41
2.5
 42
2.5
 43
2.5
 50
180.0
  0
INSERT
  5
104F
330
6BE
100
AcDbEntity
  8
0
 62
     0
370
    -2
100
AcDbBlockReference
  2
_Open30
 10
1123.050107
 20
8.088483
 30
0.0
 41
2.5
 42
2.5
 43
2.5
  0
MTEXT
  5
1050
330
6BE
100
AcDbEntity
  8
0
 62
     4
100
AcDbMText
 10
1059.050107
 20
10.213483
 30
0.0
 40
3.0
 41
0.0
 71
     5
 72
     1
  1
320
 73
     1
 44
1.0
1001
ACAD
1000
MTEXTBEGIN
1070
    73
1070
     1
1070
    44
1040
1.0
1070
    74
1070
     0
1000
MTEXTEND
  0
POINT
  5
1051
330
6BE
100
AcDbEntity
  8
Defpoints
 62
     0
100
AcDbPoint
 10
995.0501069999999
 20
19.695579
 30
0.0
  0
POINT
  5
1052
330
6BE
100
AcDbEntity
  8
Defpoints
 62
     0
100
AcDbPoint
 10
1123.050107
 20
19.695579
 30
0.0
  0
POINT
  5
1053
330
6BE
100
AcDbEntity
  8
Defpoints
 62
     0
100
AcDbPoint
 10
1123.050107
 20
8.088483
 30
0.0
  0
ENDBLK
  5
6C0
330
6BE
100
AcDbEntity
  8
0
100
AcDbBlockEnd
  0
BLOCK
  5
6CC
330
6CB
100
AcDbEntity
  8
0
100
AcDbBlockBegin
  2
*D2
 70
     1
 10
0.0
 20
0.0
 30
0.0
  3
*D2
  1

  0
LINE
  5
105D
330
6CB
100
AcDbEntity
  8
0
 62
     0
370
    -2
100
AcDbLine
 10
1008.716007
 20
17.695579
 30
0.0
 11
985.9517499999999
 21
17.695579
 31
0.0
  0
LINE
  5
105E
330
6CB
100
AcDbEntity
  8
0
 62
     0
370
    -2
100
AcDbLine
 10
1006.800107
 20
109.695579
 30
0.0
 11
985.9517499999999
 21
109.695579
 31
0.0
  0
LINE
  5
105F
330
6CB
100
AcDbEntity
  8
0
 62
     0
370
    -2
100
AcDbLine
 10
987.20175
 20
20.19557900000001
 30
0.0
 11
987.20175
 21
107.195579
 31
0.0
  0
INSERT
  5
1060
330
6CB
100
AcDbEntity
  8
0
 62
     0
370
    -2
100
AcDbBlockReference
  2
_Open30
 10
987.20175
 20
17.695579
 30
0.0
 41
2.5
 42
2.5
 43
2.5
 50
270.0
  0
INSERT
  5
1061
330
6CB
100
AcDbEntity
  8
0
 62
     0
370
    -2
100
AcDbBlockReference
  2
_Open30
 10
987.20175
 20
109.695579
 30
0.0
 41
2.5
 42
2.5
 43
2.5
 50
90.0
  0
MTEXT
  5
1062
330
6CB
100
AcDbEntity
  8
0
 62
     4
100
AcDbMText
 10
985.0767499999999
 20
63.69557900000017
 30
0.0
 40
3.0
 41
0.0
 71
     5
 72
     1
  1
230
 11
0.0000000000000001
 21
1.0
 31
0.0
 73
     1
 44
1.0
1001
ACAD
1000
MTEXTBEGIN
1070
    73
1070
     1
1070
    44
1040
1.0
1070
    74
1070
     0
1000
MTEXTEND
  0
POINT
  5
1063
330
6CB
100
AcDbEntity
  8
Defpoints
 62
     0
100
AcDbPoint
 10
1008.966007
 20
17.695579
 30
0.0
  0
POINT
  5
1064
330
6CB
100
AcDbEntity
  8
Defpoints
 62
     0
100
AcDbPoint
 10
1007.050107
 20
109.695579
 30
0.0
  0
POINT
  5
1065
330
6CB
100
AcDbEntity
  8
Defpoints
 62
     0
100
AcDbPoint
 10
987.20175
 20
109.695579
 30
0.0
  0
ENDBLK
  5
6CD
330
6CB
100
AcDbEntity
  8
0
100
AcDbBlockEnd
  0
BLOCK
  5
6D9
330
6D8
100
AcDbEntity
  8
0
100
AcDbBlockBegin
  2
*D3
 70
     1
 10
0.0
 20
0.0
 30
0.0
  3
*D3
  1

  0
LINE
  5
1054
330
6D8
100
AcDbEntity
  8
0
 62
     0
370
    -2
100
AcDbLine
 10
894.0056009999999
 20
24.245579
 30
0.0
 11
894.0056009999999
 21
6.060203999999998
 31
0.0
  0
LINE
  5
1055
330
6D8
100
AcDbEntity
  8
0
 62
     0
370
    -2
100
AcDbLine
 10
966.0056009999999
 20
24.245579
 30
0.0
 11
966.0056009999999
 21
6.060203999999998
 31
0.0
  0
LINE
  5
1056
330
6D8
100
AcDbEntity
  8
0
 62
     0
370
    -2
100
AcDbLine
 10
896.5056009999997
 20
7.310203999999997
 30
0.0
 11
963.5056009999999
 21
7.310203999999997
 31
0.0
  0
INSERT
  5
1057
330
6D8
100
AcDbEntity
  8
0
 62
     0
370
    -2
100
AcDbBlockReference
  2
_Open30
 10
894.0056009999999
 20
7.310203999999997
 30
0.0
 41
2.5
 42
2.5
 43
2.5
 50
180.0
  0
INSERT
  5
1058
330
6D8
100
AcDbEntity
  8
0
 62
     0
370
    -2
100
AcDbBlockReference
  2
_Open30
 10
966.0056009999999
 20
7.310203999999997
 30
0.0
 41
2.5
 42
2.5
 43
2.5
  0
MTEXT
  5
1059
330
6D8
100
AcDbEntity
  8
0
 62
     4
100
AcDbMText
 10
930.0056009999998
 20
9.435203999999998
 30
0.0
 40
3.0
 41
0.0
 71
     5
 72
     1
  1
180
 73
     1
 44
1.0
1001
ACAD
1000
MTEXTBEGIN
1070
    73
1070
     1
1070
    44
1040
1.0
1070
    74
1070
     0
1000
MTEXTEND
  0
POINT
  5
105A
330
6D8
100
AcDbEntity
  8
Defpoints
 62
     0
100
AcDbPoint
 10
894.0056009999999
 20
24.495579
 30
0.0
  0
POINT
  5
105B
330
6D8
100
AcDbEntity
  8
Defpoints
 62
     0
100
AcDbPoint
 10
966.0056009999999
 20
24.495579
 30
0.0
  0
POINT
  5
105C
330
6D8
100
AcDbEntity
  8
Defpoints
 62
     0
100
AcDbPoint
 10
966.0056009999999
 20
7.310203999999997
 30
0.0
  0
ENDBLK
  5
6DA
330
6D8
100
AcDbEntity
  8
0
100
AcDbBlockEnd
  0
BLOCK
  5
85A
330
859
100
AcDbEntity
  8
0
100
AcDbBlockBegin
  2
*D4
 70
     1
 10
0.0
 20
0.0
 30
0.0
  3
*D4
  1

  0
LINE
  5
85B
330
859
100
AcDbEntity
  8
0
 62
     0
370
    -2
100
AcDbLine
 10
995.0501069999999
 20
19.445579
 30
0.0
 11
995.0501069999999
 21
6.838483
 31
0.0
  0
LINE
  5
85C
330
859
100
AcDbEntity
  8
0
 62
     0
370
    -2
100
AcDbLine
 10
1123.050107
 20
19.445579
 30
0.0
 11
1123.050107
 21
6.838483
 31
0.0
  0
LINE
  5
85D
330
859
100
AcDbEntity
  8
0
 62
     0
370
    -2
100
AcDbLine
 10
997.5501069999999
 20
8.088483
 30
0.0
 11
1120.550107
 21
8.088483
 31
0.0
  0
INSERT
  5
85E
330
859
100
AcDbEntity
  8
0
 62
     0
370
    -2
100
AcDbBlockReference
  2
_Open30
 10
995.0501069999999
 20
8.088483
 30
0.0
 41
2.5
 42
2.5
 43
2.5
 50
180.0
  0
INSERT
  5
85F
330
859
100
AcDbEntity
  8
0
 62
     0
370
    -2
100
AcDbBlockReference
  2
_Open30
 10
1123.050107
 20
8.088483
 30
0.0
 41
2.5
 42
2.5
 43
2.5
  0
MTEXT
  5
860
330
859
100
AcDbEntity
  8
0
 62
     4
100
AcDbMText
 10
1059.050107
 20
10.213483
 30
0.0
 40
3.0
 41
0.0
 71
     5
 72
     1
  1
320
 73
     1
 44
1.0
1001
ACAD
1000
MTEXTBEGIN
1070
    73
1070
     1
1070
    44
1040
1.0
1070
    74
1070
     0
1000
MTEXTEND
  0
POINT
  5
861
330
859
100
AcDbEntity
  8
Defpoints
 62
     0
100
AcDbPoint
 10
995.0501069999999
 20
19.695579
 30
0.0
  0
POINT
  5
862
330
859
100
AcDbEntity
  8
Defpoints
 62
     0
100
AcDbPoint
 10
1123.050107
 20
19.695579
 30
0.0
  0
POINT
  5
863
330
859
100
AcDbEntity
  8
Defpoints
 62
     0
100
AcDbPoint
 10
1123.050107
 20
8.088483
 30
0.0
  0
ENDBLK
  5
864
330
859
100
AcDbEntity
  8
0
100
AcDbBlockEnd
  0
BLOCK
  5
866
330
865
100
AcDbEntity
  8
0
100
AcDbBlockBegin
  2
*D5
 70
     1
 10
0.0
 20
0.0
 30
0.0
  3
*D5
  1

  0
LINE
  5
867
330
865
100
AcDbEntity
  8
0
 62
     0
370
    -2
100
AcDbLine
 10
1008.716007
 20
17.695579
 30
0.0
 11
985.9517499999999
 21
17.695579
 31
0.0
  0
LINE
  5
868
330
865
100
AcDbEntity
  8
0
 62
     0
370
    -2
100
AcDbLine
 10
1006.800107
 20
109.695579
 30
0.0
 11
985.9517499999999
 21
109.695579
 31
0.0
  0
LINE
  5
869
330
865
100
AcDbEntity
  8
0
 62
     0
370
    -2
100
AcDbLine
 10
987.20175
 20
20.19557900000001
 30
0.0
 11
987.20175
 21
107.195579
 31
0.0
  0
INSERT
  5
86A
330
865
100
AcDbEntity
  8
0
 62
     0
370
    -2
100
AcDbBlockReference
  2
_Open30
 10
987.20175
 20
17.695579
 30
0.0
 41
2.5
 42
2.5
 43
2.5
 50
270.0
  0
INSERT
  5
86B
330
865
100
AcDbEntity
  8
0
 62
     0
370
    -2
100
AcDbBlockReference
  2
_Open30
 10
987.20175
 20
109.695579
 30
0.0
 41
2.5
 42
2.5
 43
2.5
 50
90.0
  0
MTEXT
  5
86C
330
865
100
AcDbEntity
  8
0
 62
     4
100
AcDbMText
 10
985.0767499999999
 20
63.69557900000017
 30
0.0
 40
3.0
 41
0.0
 71
     5
 72
     1
  1
230
 11
0.0000000000000001
 21
1.0
 31
0.0
 73
     1
 44
1.0
1001
ACAD
1000
MTEXTBEGIN
1070
    73
1070
     1
1070
    44
1040
1.0
1070
    74
1070
     0
1000
MTEXTEND
  0
POINT
  5
86D
330
865
100
AcDbEntity
  8
Defpoints
 62
     0
100
AcDbPoint
 10
1008.966007
 20
17.695579
 30
0.0
  0
POINT
  5
86E
330
865
100
AcDbEntity
  8
Defpoints
 62
     0
100
AcDbPoint
 10
1007.050107
 20
109.695579
 30
0.0
  0
POINT
  5
86F
330
865
100
AcDbEntity
  8
Defpoints
 62
     0
100
AcDbPoint
 10
987.20175
 20
109.695579
 30
0.0
  0
ENDBLK
  5
870
330
865
100
AcDbEntity
  8
0
100
AcDbBlockEnd
  0
BLOCK
  5
872
330
871
100
AcDbEntity
  8
0
100
AcDbBlockBegin
  2
*D6
 70
     1
 10
0.0
 20
0.0
 30
0.0
  3
*D6
  1

  0
LINE
  5
873
330
871
100
AcDbEntity
  8
0
 62
     0
370
    -2
100
AcDbLine
 10
894.0056009999999
 20
24.245579
 30
0.0
 11
894.0056009999999
 21
6.060203999999997
 31
0.0
  0
LINE
  5
874
330
871
100
AcDbEntity
  8
0
 62
     0
370
    -2
100
AcDbLine
 10
966.0056009999999
 20
24.245579
 30
0.0
 11
966.0056009999999
 21
6.060203999999997
 31
0.0
  0
LINE
  5
875
330
871
100
AcDbEntity
  8
0
 62
     0
370
    -2
100
AcDbLine
 10
896.5056009999997
 20
7.310203999999997
 30
0.0
 11
963.5056009999999
 21
7.310203999999997
 31
0.0
  0
INSERT
  5
876
330
871
100
AcDbEntity
  8
0
 62
     0
370
    -2
100
AcDbBlockReference
  2
_Open30
 10
894.0056009999999
 20
7.310203999999997
 30
0.0
 41
2.5
 42
2.5
 43
2.5
 50
180.0
  0
INSERT
  5
877
330
871
100
AcDbEntity
  8
0
 62
     0
370
    -2
100
AcDbBlockReference
  2
_Open30
 10
966.0056009999999
 20
7.310203999999997
 30
0.0
 41
2.5
 42
2.5
 43
2.5
  0
MTEXT
  5
878
330
871
100
AcDbEntity
  8
0
 62
     4
100
AcDbMText
 10
930.0056009999996
 20
9.435203999999997
 30
0.0
 40
3.0
 41
0.0
 71
     5
 72
     1
  1
180
 73
     1
 44
1.0
1001
ACAD
1000
MTEXTBEGIN
1070
    73
1070
     1
1070
    44
1040
1.0
1070
    74
1070
     0
1000
MTEXTEND
  0
POINT
  5
879
330
871
100
AcDbEntity
  8
Defpoints
 62
     0
100
AcDbPoint
 10
894.0056009999999
 20
24.495579
 30
0.0
  0
POINT
  5
87A
330
871
100
AcDbEntity
  8
Defpoints
 62
     0
100
AcDbPoint
 10
966.0056009999999
 20
24.495579
 30
0.0
  0
POINT
  5
87B
330
871
100
AcDbEntity
  8
Defpoints
 62
     0
100
AcDbPoint
 10
966.0056009999999
 20
7.310203999999997
 30
0.0
  0
ENDBLK
  5
87C
330
871
100
AcDbEntity
  8
0
100
AcDbBlockEnd
  0
BLOCK
  5
87E
330
87D
100
AcDbEntity
  8
0
100
AcDbBlockBegin
  2
_DotSmall
 70
     0
 10
0.0
 20
0.0
 30
0.0
  3
_DotSmall
  1

  0
LWPOLYLINE
  5
87F
330
87D
100
AcDbEntity
  8
0
  6
ByBlock
 62
     0
100
AcDbPolyline
 90
        2
 70
     1
 43
0.5
 10
-0.0625
 20
0.0
 42
1.0
 10
0.0625
 20
0.0
 42
1.0
  0
ENDBLK
  5
880
330
87D
100
AcDbEntity
  8
0
100
AcDbBlockEnd
  0
BLOCK
  5
F25
330
F24
100
AcDbEntity
  8
0
100
AcDbBlockBegin
  2
*D8
 70
     1
 10
0.0
 20
0.0
 30
0.0
  3
*D8
  1

  0
LINE
  5
F48
330
F24
100
AcDbEntity
  8
0
 62
     0
370
    -2
100
AcDbLine
 10
1376.50335814645
 20
19.03954006361229
 30
0.0
 11
1376.50335814645
 21
0.8541650636122993
 31
0.0
  0
LINE
  5
F49
330
F24
100
AcDbEntity
  8
0
 62
     0
370
    -2
100
AcDbLine
 10
1448.50335814645
 20
19.03954006361229
 30
0.0
 11
1448.50335814645
 21
0.8541650636122993
 31
0.0
  0
LINE
  5
F4A
330
F24
100
AcDbEntity
  8
0
 62
     0
370
    -2
100
AcDbLine
 10
1379.00335814645
 20
2.104165063612299
 30
0.0
 11
1446.00335814645
 21
2.104165063612299
 31
0.0
  0
INSERT
  5
F4B
330
F24
100
AcDbEntity
  8
0
 62
     0
370
    -2
100
AcDbBlockReference
  2
_Open30
 10
1376.50335814645
 20
2.104165063612299
 30
0.0
 41
2.5
 42
2.5
 43
2.5
 50
180.0
  0
INSERT
  5
F4C
330
F24
100
AcDbEntity
  8
0
 62
     0
370
    -2
100
AcDbBlockReference
  2
_Open30
 10
1448.50335814645
 20
2.104165063612299
 30
0.0
 41
2.5
 42
2.5
 43
2.5
  0
MTEXT
  5
F4D
330
F24
100
AcDbEntity
  8
0
 62
     4
100
AcDbMText
 10
1412.50335814645
 20
4.229165063612298
 30
0.0
 40
3.0
 41
0.0
 71
     5
 72
     1
  1
180
 73
     1
 44
1.0
1001
ACAD
1000
MTEXTBEGIN
1070
    73
1070
     1
1070
    44
1040
1.0
1070
    74
1070
     0
1000
MTEXTEND
  0
POINT
  5
F4E
330
F24
100
AcDbEntity
  8
Defpoints
 62
     0
100
AcDbPoint
 10
1376.50335814645
 20
19.28954006361229
 30
0.0
  0
POINT
  5
F4F
330
F24
100
AcDbEntity
  8
Defpoints
 62
     0
100
AcDbPoint
 10
1448.50335814645
 20
19.28954006361229
 30
0.0
  0
POINT
  5
F50
330
F24
100
AcDbEntity
  8
Defpoints
 62
     0
100
AcDbPoint
 10
1448.50335814645
 20
2.104165063612299
 30
0.0
  0
ENDBLK
  5
F26
330
F24
100
AcDbEntity
  8
0
100
AcDbBlockEnd
  0
BLOCK
  5
F31
330
F30
100
AcDbEntity
  8
0
100
AcDbBlockBegin
  2
*D9
 70
     1
 10
0.0
 20
0.0
 30
0.0
  3
*D9
  1

  0
LINE
  5
F51
330
F30
100
AcDbEntity
  8
0
 62
     0
370
    -2
100
AcDbLine
 10
1477.54786414645
 20
14.23954006361231
 30
0.0
 11
1477.54786414645
 21
1.632444063612296
 31
0.0
  0
LINE
  5
F52
330
F30
100
AcDbEntity
  8
0
 62
     0
370
    -2
100
AcDbLine
 10
1605.54786414645
 20
14.23954006361231
 30
0.0
 11
1605.54786414645
 21
1.632444063612296
 31
0.0
  0
LINE
  5
F53
330
F30
100
AcDbEntity
  8
0
 62
     0
370
    -2
100
AcDbLine
 10
1480.04786414645
 20
2.882444063612296
 30
0.0
 11
1603.04786414645
 21
2.882444063612296
 31
0.0
  0
INSERT
  5
F54
330
F30
100
AcDbEntity
  8
0
 62
     0
370
    -2
100
AcDbBlockReference
  2
_Open30
 10
1477.54786414645
 20
2.882444063612296
 30
0.0
 41
2.5
 42
2.5
 43
2.5
 50
180.0
  0
INSERT
  5
F55
330
F30
100
AcDbEntity
  8
0
 62
     0
370
    -2
100
AcDbBlockReference
  2
_Open30
 10
1605.54786414645
 20
2.882444063612296
 30
0.0
 41
2.5
 42
2.5
 43
2.5
  0
MTEXT
  5
F56
330
F30
100
AcDbEntity
  8
0
 62
     4
100
AcDbMText
 10
1541.54786414645
 20
5.007444063612296
 30
0.0
 40
3.0
 41
0.0
 71
     5
 72
     1
  1
320
 73
     1
 44
1.0
1001
ACAD
1000
MTEXTBEGIN
1070
    73
1070
     1
1070
    44
1040
1.0
1070
    74
1070
     0
1000
MTEXTEND
  0
POINT
  5
F57
330
F30
100
AcDbEntity
  8
Defpoints
 62
     0
100
AcDbPoint
 10
1477.54786414645
 20
14.48954006361231
 30
0.0
  0
POINT
  5
F58
330
F30
100
AcDbEntity
  8
Defpoints
 62
     0
100
AcDbPoint
 10
1605.54786414645
 20
14.48954006361231
 30
0.0
  0
POINT
  5
F59
330
F30
100
AcDbEntity
  8
Defpoints
 62
     0
100
AcDbPoint
 10
1605.54786414645
 20
2.882444063612296
 30
0.0
  0
ENDBLK
  5
F32
330
F30
100
AcDbEntity
  8
0
100
AcDbBlockEnd
  0
BLOCK
  5
F3D
330
F3C
100
AcDbEntity
  8
0
100
AcDbBlockBegin
  2
*D10
 70
     1
 10
0.0
 20
0.0
 30
0.0
  3
*D10
  1

  0
LINE
  5
F5A
330
F3C
100
AcDbEntity
  8
0
 62
     0
370
    -2
100
AcDbLine
 10
1491.21376414645
 20
12.48954006361231
 30
0.0
 11
1468.44950714645
 21
12.48954006361231
 31
0.0
  0
LINE
  5
F5B
330
F3C
100
AcDbEntity
  8
0
 62
     0
370
    -2
100
AcDbLine
 10
1489.29786414645
 20
104.4895400636123
 30
0.0
 11
1468.44950714645
 21
104.4895400636123
 31
0.0
  0
LINE
  5
F5C
330
F3C
100
AcDbEntity
  8
0
 62
     0
370
    -2
100
AcDbLine
 10
1469.69950714645
 20
14.98954006361231
 30
0.0
 11
1469.69950714645
 21
101.9895400636123
 31
0.0
  0
INSERT
  5
F5D
330
F3C
100
AcDbEntity
  8
0
 62
     0
370
    -2
100
AcDbBlockReference
  2
_Open30
 10
1469.69950714645
 20
12.48954006361231
 30
0.0
 41
2.5
 42
2.5
 43
2.5
 50
270.0
  0
INSERT
  5
F5E
330
F3C
100
AcDbEntity
  8
0
 62
     0
370
    -2
100
AcDbBlockReference
  2
_Open30
 10
1469.69950714645
 20
104.4895400636123
 30
0.0
 41
2.5
 42
2.5
 43
2.5
 50
90.0
  0
MTEXT
  5
F5F
330
F3C
100
AcDbEntity
  8
0
 62
     4
100
AcDbMText
 10
1467.57450714645
 20
58.48954006361253
 30
0.0
 40
3.0
 41
0.0
 71
     5
 72
     1
  1
230
 11
0.0000000000000001
 21
1.0
 31
0.0
 73
     1
 44
1.0
1001
ACAD
1000
MTEXTBEGIN
1070
    73
1070
     1
1070
    44
1040
1.0
1070
    74
1070
     0
1000
MTEXTEND
  0
POINT
  5
F60
330
F3C
100
AcDbEntity
  8
Defpoints
 62
     0
100
AcDbPoint
 10
1491.46376414645
 20
12.48954006361231
 30
0.0
  0
POINT
  5
F61
330
F3C
100
AcDbEntity
  8
Defpoints
 62
     0
100
AcDbPoint
 10
1489.54786414645
 20
104.4895400636123
 30
0.0
  0
POINT
  5
F62
330
F3C
100
AcDbEntity
  8
Defpoints
 62
     0
100
AcDbPoint
 10
1469.69950714645
 20
104.4895400636123
 30
0.0
  0
ENDBLK
  5
F3E
330
F3C
100
AcDbEntity
  8
0
100
AcDbBlockEnd
  0
ENDSEC
  0
SECTION
  2
ENTITIES
  0
LINE
  5
87
330
36
100
AcDbEntity
  8
0
 62
     3
100
AcDbLine
 10
1213.038025
 20
89.69030600000001
 30
0.0
 11
1215.924558
 21
89.69030600000001
 31
0.0
  0
LINE
  5
88
330
36
100
AcDbEntity
  8
0
 62
     3
100
AcDbLine
 10
949.805601
 20
37.295579
 30
0.0
 11
949.805601
 21
50.49557899999999
 31
0.0
  0
LINE
  5
89
330
36
100
AcDbEntity
  8
0
 62
     3
100
AcDbLine
 10
949.805601
 20
50.49557899999999
 30
0.0
 11
942.6056009999999
 21
50.49557899999999
 31
0.0
  0
LINE
  5
8A
330
36
100
AcDbEntity
  8
0
 62
     3
100
AcDbLine
 10
942.6056009999999
 20
37.295579
 30
0.0
 11
949.805601
 21
37.295579
 31
0.0
  0
LINE
  5
8B
330
36
100
AcDbEntity
  8
0
 62
     3
100
AcDbLine
 10
939.0617739999999
 20
92.352339
 30
0.0
 11
952.4375309999999
 21
92.352339
 31
0.0
  0
LINE
  5
8C
330
36
100
AcDbEntity
  8
0
 62
     3
100
AcDbLine
 10
952.4375309999999
 20
92.352339
 30
0.0
 11
952.4375309999999
 21
99.52966500000002
 31
0.0
  0
LINE
  5
8D
330
36
100
AcDbEntity
  8
0
 62
     3
100
AcDbLine
 10
952.4375309999999
 20
99.52966500000002
 30
0.0
 11
939.0617739999999
 21
99.52966500000002
 31
0.0
  0
LINE
  5
8E
330
36
100
AcDbEntity
  8
0
 62
     3
100
AcDbLine
 10
939.0617739999999
 20
99.52966500000002
 30
0.0
 11
939.0617739999999
 21
92.352339
 31
0.0
  0
LINE
  5
8F
330
36
100
AcDbEntity
  8
0
 62
     3
100
AcDbLine
 10
1213.038025
 20
92.98796199999999
 30
0.0
 11
1213.038025
 21
86.39512600000001
 31
0.0
  0
LINE
  5
90
330
36
100
AcDbEntity
  8
0
 62
     3
100
AcDbLine
 10
1213.038025
 20
86.39512600000001
 30
0.0
 11
1215.924558
 21
86.39512600000001
 31
0.0
  0
LINE
  5
91
330
36
100
AcDbEntity
  8
0
 62
     3
100
AcDbLine
 10
1215.924558
 20
86.39512600000001
 30
0.0
 11
1215.924558
 21
92.98796199999999
 31
0.0
  0
LINE
  5
92
330
36
100
AcDbEntity
  8
0
 62
     3
100
AcDbLine
 10
1213.038025
 20
92.98796199999999
 30
0.0
 11
1215.924558
 21
92.98796199999999
 31
0.0
  0
LINE
  5
93
330
36
100
AcDbEntity
  8
0
 62
     3
100
AcDbLine
 10
898.8056010000001
 20
19.695579
 30
0.0
 11
961.2056009999999
 21
19.695579
 31
0.0
  0
LINE
  5
94
330
36
100
AcDbEntity
  8
0
 62
     3
100
AcDbLine
 10
966.0056009999999
 20
102.495579
 30
0.0
 11
966.0056009999999
 21
24.495579
 31
0.0
  0
LINE
  5
95
330
36
100
AcDbEntity
  8
0
 62
     3
100
AcDbLine
 10
894.0056009999999
 20
102.495579
 30
0.0
 11
894.0056009999999
 21
24.495579
 31
0.0
  0
LINE
  5
96
330
36
100
AcDbEntity
  8
0
 62
     3
100
AcDbLine
 10
933.605601
 20
109.695579
 30
0.0
 11
926.405601
 21
109.695579
 31
0.0
  0
LINE
  5
97
330
36
100
AcDbEntity
  8
0
 62
     3
100
AcDbLine
 10
961.2056009999999
 20
107.295579
 30
0.0
 11
898.8056010000001
 21
107.295579
 31
0.0
  0
LINE
  5
98
330
36
100
AcDbEntity
  8
0
 62
     3
100
AcDbLine
 10
933.605601
 20
109.695579
 30
0.0
 11
933.605601
 21
107.295579
 31
0.0
  0
LINE
  5
99
330
36
100
AcDbEntity
  8
0
 62
     3
100
AcDbLine
 10
926.405601
 20
109.695579
 30
0.0
 11
926.405601
 21
107.295579
 31
0.0
  0
ARC
  5
9A
330
36
100
AcDbEntity
  8
0
 62
     3
100
AcDbCircle
 10
961.2056009999999
 20
102.495579
 30
0.0
 40
4.799999999999998
100
AcDbArc
 50
0.0
 51
90.0
  0
ARC
  5
9B
330
36
100
AcDbEntity
  8
0
 62
     3
100
AcDbCircle
 10
898.8056010000001
 20
102.495579
 30
0.0
 40
4.799999999999998
100
AcDbArc
 50
90.0
 51
180.0
  0
ARC
  5
9C
330
36
100
AcDbEntity
  8
0
 62
     3
100
AcDbCircle
 10
898.8056010000001
 20
24.495579
 30
0.0
 40
4.799999999999998
100
AcDbArc
 50
180.0
 51
270.0
  0
ARC
  5
9D
330
36
100
AcDbEntity
  8
0
 62
     3
100
AcDbCircle
 10
961.2056009999999
 20
24.495579
 30
0.0
 40
4.799999999999998
100
AcDbArc
 50
270.0
 51
0.0
  0
LINE
  5
9E
330
36
100
AcDbEntity
  8
0
 62
     3
100
AcDbLine
 10
920.0056009999999
 20
67.69557900000001
 30
0.0
 11
920.0056009999999
 21
56.49557900000001
 31
0.0
  0
LINE
  5
9F
330
36
100
AcDbEntity
  8
0
 62
     3
100
AcDbLine
 10
908.805601
 20
67.69557900000001
 30
0.0
 11
908.805601
 21
56.49557900000001
 31
0.0
  0
LINE
  5
A0
330
36
100
AcDbEntity
  8
0
 62
     3
100
AcDbLine
 10
908.805601
 20
50.49557899999999
 30
0.0
 11
920.0056009999999
 21
50.49557899999999
 31
0.0
  0
LINE
  5
A1
330
36
100
AcDbEntity
  8
0
 62
     3
100
AcDbLine
 10
908.805601
 20
56.49557900000001
 30
0.0
 11
920.0056009999999
 21
56.49557900000001
 31
0.0
  0
LINE
  5
A2
330
36
100
AcDbEntity
  8
0
 62
     3
100
AcDbLine
 10
908.805601
 20
67.69557900000001
 30
0.0
 11
920.0056009999999
 21
67.69557900000001
 31
0.0
  0
LINE
  5
A3
330
36
100
AcDbEntity
  8
0
 62
     3
100
AcDbLine
 10
908.805601
 20
39.295579
 30
0.0
 11
920.0056009999999
 21
39.295579
 31
0.0
  0
LINE
  5
A4
330
36
100
AcDbEntity
  8
0
 62
     3
100
AcDbLine
 10
920.0056009999999
 20
50.49557899999999
 30
0.0
 11
920.0056009999999
 21
39.295579
 31
0.0
  0
LINE
  5
A5
330
36
100
AcDbEntity
  8
0
 62
     3
100
AcDbLine
 10
908.805601
 20
50.49557899999999
 30
0.0
 11
908.805601
 21
39.295579
 31
0.0
  0
LINE
  5
A6
330
36
100
AcDbEntity
  8
0
 62
     3
100
AcDbLine
 10
942.6056009999999
 20
37.295579
 30
0.0
 11
942.6056009999999
 21
50.49557899999999
 31
0.0
  0
LINE
  5
A7
330
36
100
AcDbEntity
  8
0
 62
     3
100
AcDbLine
 10
1123.050107
 20
19.695579
 30
0.0
 11
995.0501069999999
 21
19.695579
 31
0.0
  0
LINE
  5
A8
330
36
100
AcDbEntity
  8
0
 62
     3
100
AcDbLine
 10
995.0501069999999
 20
107.295579
 30
0.0
 11
1123.050107
 21
107.295579
 31
0.0
  0
LINE
  5
A9
330
36
100
AcDbEntity
  8
0
 62
     3
100
AcDbLine
 10
1007.050107
 20
109.695579
 30
0.0
 11
1019.050107
 21
109.695579
 31
0.0
  0
LINE
  5
AA
330
36
100
AcDbEntity
  8
0
 62
     3
100
AcDbLine
 10
995.0501069999999
 20
19.695579
 30
0.0
 11
995.0501069999999
 21
107.295579
 31
0.0
  0
LINE
  5
AB
330
36
100
AcDbEntity
  8
0
 62
     3
100
AcDbLine
 10
1007.050107
 20
107.295579
 30
0.0
 11
1007.050107
 21
109.695579
 31
0.0
  0
LINE
  5
AC
330
36
100
AcDbEntity
  8
0
 62
     3
100
AcDbLine
 10
1111.050107
 20
107.295579
 30
0.0
 11
1111.050107
 21
109.695579
 31
0.0
  0
LINE
  5
AD
330
36
100
AcDbEntity
  8
0
 62
     3
100
AcDbLine
 10
1099.050107
 20
107.295579
 30
0.0
 11
1099.050107
 21
109.695579
 31
0.0
  0
LINE
  5
AE
330
36
100
AcDbEntity
  8
0
 62
     3
100
AcDbLine
 10
1019.050107
 20
107.295579
 30
0.0
 11
1019.050107
 21
109.695579
 31
0.0
  0
LINE
  5
AF
330
36
100
AcDbEntity
  8
0
 62
     3
100
AcDbLine
 10
1099.050107
 20
109.695579
 30
0.0
 11
1111.050107
 21
109.695579
 31
0.0
  0
LINE
  5
B0
330
36
100
AcDbEntity
  8
0
 62
     3
100
AcDbLine
 10
1123.050107
 20
31.695579
 30
0.0
 11
995.0501069999999
 21
31.695579
 31
0.0
  0
ARC
  5
B1
330
36
100
AcDbEntity
  8
0
 62
     3
100
AcDbCircle
 10
1153.127696
 20
16.036441
 30
0.0
 40
12.259138
100
AcDbArc
 50
90.0
 51
270.0
  0
ARC
  5
B2
330
36
100
AcDbEntity
  8
0
 62
     3
100
AcDbCircle
 10
1153.127696
 20
16.036441
 30
0.0
 40
11.059138
100
AcDbArc
 50
90.0
 51
270.0
  0
ARC
  5
B3
330
36
100
AcDbEntity
  8
0
 62
     3
100
AcDbCircle
 10
1153.127696
 20
27.695579
 30
0.0
 40
0.6
100
AcDbArc
 50
270.0
 51
90.0
  0
LINE
  5
B4
330
36
100
AcDbEntity
  8
0
 62
     3
100
AcDbLine
 10
1153.127696
 20
4.977303
 30
0.0
 11
1163.284178
 21
4.977303
 31
0.0
  0
LINE
  5
B5
330
36
100
AcDbEntity
  8
0
 62
     3
100
AcDbLine
 10
1153.127696
 20
3.777302999999998
 30
0.0
 11
1164.132999
 21
3.777302999999998
 31
0.0
  0
LINE
  5
B6
330
36
100
AcDbEntity
  8
0
 62
     3
100
AcDbLine
 10
1123.050107
 20
19.695579
 30
0.0
 11
1123.050107
 21
107.295579
 31
0.0
  0
LINE
  5
B7
330
36
100
AcDbEntity
  8
0
 62
     3
100
AcDbLine
 10
1187.527696
 20
109.695579
 30
0.0
 11
1180.327696
 21
109.695579
 31
0.0
  0
LINE
  5
B8
330
36
100
AcDbEntity
  8
0
 62
     3
100
AcDbLine
 10
1215.127696
 20
107.295579
 30
0.0
 11
1152.727696
 21
107.295579
 31
0.0
  0
LINE
  5
B9
330
36
100
AcDbEntity
  8
0
 62
     3
100
AcDbLine
 10
1152.727696
 20
19.695579
 30
0.0
 11
1215.127696
 21
19.695579
 31
0.0
  0
LINE
  5
BA
330
36
100
AcDbEntity
  8
0
 62
     3
100
AcDbLine
 10
1180.327696
 20
109.695579
 30
0.0
 11
1180.327696
 21
107.295579
 31
0.0
  0
LINE
  5
BB
330
36
100
AcDbEntity
  8
0
 62
     3
100
AcDbLine
 10
1187.527696
 20
109.695579
 30
0.0
 11
1187.527696
 21
107.295579
 31
0.0
  0
LINE
  5
BC
330
36
100
AcDbEntity
  8
0
 62
     3
100
AcDbLine
 10
1147.927696
 20
102.495579
 30
0.0
 11
1147.927696
 21
27.138084
 31
0.0
  0
LINE
  5
BD
330
36
100
AcDbEntity
  8
0
 62
     3
100
AcDbLine
 10
1219.927696
 20
102.495579
 30
0.0
 11
1219.927696
 21
24.495579
 31
0.0
  0
ARC
  5
BE
330
36
100
AcDbEntity
  8
0
 62
     3
100
AcDbCircle
 10
1215.127696
 20
102.495579
 30
0.0
 40
4.799999999999998
100
AcDbArc
 50
0.0
 51
90.0
  0
ARC
  5
BF
330
36
100
AcDbEntity
  8
0
 62
     3
100
AcDbCircle
 10
1152.727696
 20
102.495579
 30
0.0
 40
4.799999999999998
100
AcDbArc
 50
90.0
 51
180.0
  0
ARC
  5
C0
330
36
100
AcDbEntity
  8
0
 62
     3
100
AcDbCircle
 10
1152.727696
 20
24.495579
 30
0.0
 40
4.799999999999998
100
AcDbArc
 50
180.0
 51
270.0
  0
ARC
  5
C1
330
36
100
AcDbEntity
  8
0
 62
     3
100
AcDbCircle
 10
1215.127696
 20
24.495579
 30
0.0
 40
4.799999999999998
100
AcDbArc
 50
270.0
 51
0.0
  0
LINE
  5
C2
330
36
100
AcDbEntity
  8
0
 62
     3
100
AcDbLine
 10
1147.927696
 20
25.796796
 30
0.0
 11
1147.927696
 21
24.495579
 31
0.0
  0
LINE
  5
C5
330
36
100
AcDbEntity
  8
0
 62
     3
100
AcDbLine
 10
1227.780046
 20
-100.392531
 30
0.0
 11
1227.780046
 21
-77.39253099999998
 31
0.0
  0
LINE
  5
C7
330
36
100
AcDbEntity
  8
0
 62
     3
100
AcDbLine
 10
1174.726437
 20
-107.392531
 30
0.0
 11
1174.726437
 21
-93.392531
 31
0.0
  0
TEXT
  5
C9
330
36
100
AcDbEntity
  8
0
 62
     3
100
AcDbText
 10
1203.790364
 20
-81.187415
 30
0.0
 40
2.0
  1
A
 41
0.7
100
AcDbText
  0
TEXT
  5
CA
330
36
100
AcDbEntity
  8
0
 62
     3
100
AcDbText
 10
1206.325651
 20
-81.187415
 30
0.0
 40
2.0
  1
P
 41
0.7
100
AcDbText
  0
TEXT
  5
CB
330
36
100
AcDbEntity
  8
0
 62
     3
100
AcDbText
 10
1208.860937
 20
-81.187415
 30
0.0
 40
2.0
  1
P
 41
0.7
100
AcDbText
  0
TEXT
  5
CC
330
36
100
AcDbEntity
  8
0
 62
     3
100
AcDbText
 10
1211.396223
 20
-81.187415
 30
0.0
 40
2.0
  1
D
 41
0.7
100
AcDbText
  0
TEXT
  5
CD
330
36
100
AcDbEntity
  8
0
 62
     3
100
AcDbText
 10
1216.764906
 20
-81.187415
 30
0.0
 40
2.0
  1
C
 41
0.7
100
AcDbText
  0
TEXT
  5
CE
330
36
100
AcDbEntity
  8
0
 62
     3
100
AcDbText
 10
1219.300192
 20
-81.187415
 30
0.0
 40
2.0
  1
H
 41
0.7
100
AcDbText
  0
TEXT
  5
CF
330
36
100
AcDbEntity
  8
0
 62
     3
100
AcDbText
 10
1221.835479
 20
-81.187415
 30
0.0
 40
2.0
  1
C
 41
0.7
100
AcDbText
  0
TEXT
  5
D0
330
36
100
AcDbEntity
  8
0
 62
     3
100
AcDbText
 10
1224.370765
 20
-81.187415
 30
0.0
 40
2.0
  1
K
 41
0.7
100
AcDbText
  0
TEXT
  5
D1
330
36
100
AcDbEntity
  8
0
 62
     3
100
AcDbText
 10
1230.044731
 20
-81.187415
 30
0.0
 40
2.0
  1
DESN
 41
1.216762999999998
100
AcDbText
  0
TEXT
  5
D2
330
36
100
AcDbEntity
  8
0
 62
     3
100
AcDbText
 10
1145.038373
 20
-110.533913
 30
0.0
 40
2.0
  1
NICHIDO IND.CO.LTD
 41
1.274876
100
AcDbText
  0
LINE
  5
D3
330
36
100
AcDbEntity
  8
0
 62
     3
100
AcDbLine
 10
1155.421402
 20
-77.392531
 30
0.0
 11
1155.421402
 21
-100.392531
 31
0.0
  0
LINE
  5
D4
330
36
100
AcDbEntity
  8
0
 62
     3
100
AcDbLine
 10
1201.780046
 20
-77.39253099999998
 30
0.0
 11
1201.780046
 21
-117.058254
 31
0.0
  0
LINE
  5
D9
330
36
100
AcDbEntity
  8
0
 62
     3
100
AcDbLine
 10
1214.780046
 20
-77.39253099999998
 30
0.0
 11
1214.780046
 21
-107.392531
 31
0.0
  0
TEXT
  5
DA
330
36
100
AcDbEntity
  8
0
 62
     3
100
AcDbText
 10
1202.892491
 20
-106.527845
 30
0.0
 40
3.2
  1
作成日
 41
1.017225999999997
100
AcDbText
  0
LINE
  5
DB
330
36
100
AcDbEntity
  8
0
 62
     3
100
AcDbLine
 10
1253.47941
 20
-77.392531
 30
0.0
 11
1142.175967
 21
-77.392531
 31
0.0
  0
LINE
  5
DC
330
36
100
AcDbEntity
  8
0
 62
     3
100
AcDbLine
 10
1240.780046
 20
-100.392531
 30
0.0
 11
1240.780046
 21
-77.392531
 31
0.0
  0
TEXT
  5
DD
330
36
100
AcDbEntity
  8
0
 62
     3
100
AcDbText
 10
1244.10385
 20
-81.101597
 30
0.0
 40
1.8
  1
D
 41
0.666667
100
AcDbText
  0
TEXT
  5
DE
330
36
100
AcDbEntity
  8
0
 62
     3
100
AcDbText
 10
1246.920478
 20
-81.101597
 30
0.0
 40
1.8
  1
E
 41
0.666667
100
AcDbText
  0
TEXT
  5
DF
330
36
100
AcDbEntity
  8
0
 62
     3
100
AcDbText
 10
1249.737106
 20
-81.101597
 30
0.0
 40
1.8
  1
F
 41
0.666667
100
AcDbText
  0
TEXT
  5
E0
330
36
100
AcDbEntity
  8
0
 62
     3
100
AcDbText
 10
1244.10385
 20
-85.09415
 30
0.0
 40
3.2
  1
製図
 41
1.076369
100
AcDbText
  0
LINE
  5
E1
330
36
100
AcDbEntity
  8
0
 62
     3
100
AcDbLine
 10
1142.175967
 20
-77.392531
 30
0.0
 11
1142.175967
 21
-117.058254
 31
0.0
  0
TEXT
  5
E2
330
36
100
AcDbEntity
  8
0
 62
     3
100
AcDbText
 10
1143.55262
 20
-116.725788
 30
0.0
 40
5.0
  1
日動工業株式会社
 41
0.833333
100
AcDbText
  0
LINE
  5
E3
330
36
100
AcDbEntity
  8
0
 62
     3
100
AcDbLine
 10
1185.058371
 20
-93.39253099999998
 30
0.0
 11
1185.058371
 21
-117.058254
 31
0.0
  0
LINE
  5
E4
330
36
100
AcDbEntity
  8
0
 62
     3
100
AcDbLine
 10
1185.058371
 20
-112.225393
 30
0.0
 11
1201.780046
 21
-112.225393
 31
0.0
  0
TEXT
  5
E5
330
36
100
AcDbEntity
  8
0
 62
     3
100
AcDbText
 10
1185.644973
 20
-111.408962
 30
0.0
 40
3.2
  1
出図コード
 41
0.8356860000000001
100
AcDbText
  0
LINE
  5
F7
330
36
100
AcDbEntity
  8
0
 62
     3
100
AcDbLine
 10
1142.175967
 20
-107.392531
 30
0.0
 11
1253.47941
 21
-107.392531
 31
0.0
  0
LINE
  5
F9
330
36
100
AcDbEntity
  8
0
 62
     3
100
AcDbLine
 10
1142.175967
 20
-86.39253100000003
 30
0.0
 11
1253.47941
 21
-86.39253100000003
 31
0.0
  0
LINE
  5
FF
330
36
100
AcDbEntity
  8
0
 62
     3
100
AcDbLine
 10
1142.175967
 20
-93.39253099999998
 30
0.0
 11
1201.780046
 21
-93.392531
 31
0.0
  0
LINE
  5
105
330
36
100
AcDbEntity
  8
0
 62
     3
100
AcDbLine
 10
1142.175967
 20
-100.392531
 30
0.0
 11
1253.47941
 21
-100.392531
 31
0.0
  0
LINE
  5
109
330
36
100
AcDbEntity
  8
0
 62
     3
100
AcDbLine
 10
1253.47941
 20
156.997107
 30
0.0
 11
1253.47941
 21
-117.058254
 31
0.0
  0
LINE
  5
10A
330
36
100
AcDbEntity
  8
0
 62
     3
100
AcDbLine
 10
863.4794099999997
 20
156.997107
 30
0.0
 11
863.4794099999997
 21
-117.058254
 31
0.0
  0
LINE
  5
10B
330
36
100
AcDbEntity
  8
0
 62
     3
100
AcDbLine
 10
1253.47941
 20
-117.058254
 30
0.0
 11
863.4794099999997
 21
-117.058254
 31
0.0
  0
TEXT
  5
10E
330
36
100
AcDbEntity
  8
0
 62
     3
100
AcDbText
 10
1185.512425
 20
-116.6553978451813
 30
0.0
 40
3.2
  1
ZK-A3X
 41
0.8112849999999999
100
AcDbText
  0
TEXT
  5
10F
330
36
100
AcDbEntity
  8
0
 62
     3
100
AcDbText
 10
1143.993364
 20
-81.223006
 30
0.0
 40
2.0
  1
CONPONENTS
 41
0.5331600000000001
100
AcDbText
  0
TEXT
  5
110
330
36
100
AcDbEntity
  8
0
 62
     3
100
AcDbText
 10
1143.643638
 20
-100.155182
 30
0.0
 40
3.0
  1
材
 41
0.833333
100
AcDbText
  0
TEXT
  5
111
330
36
100
AcDbEntity
  8
0
 62
     3
100
AcDbText
 10
1151.17928
 20
-100.155182
 30
0.0
 40
3.0
  1
質
 41
0.833333
100
AcDbText
  0
TEXT
  5
112
330
36
100
AcDbEntity
  8
0
 62
     3
100
AcDbText
 10
1143.731708
 20
-89.530658
 30
0.0
 40
2.0
  1
MODEL
 41
1.031072999999999
100
AcDbText
  0
TEXT
  5
113
330
36
100
AcDbEntity
  8
0
 62
     3
100
AcDbText
 10
1143.643638
 20
-96.47287400000001
 30
0.0
 40
2.0
  1
MATERIAL
 41
0.659278
100
AcDbText
  0
TEXT
  5
114
330
36
100
AcDbEntity
  8
0
 62
     3
100
AcDbText
 10
1174.950918
 20
-100.155182
 30
0.0
 40
3.0
  1
備
 41
0.833333
100
AcDbText
  0
TEXT
  5
115
330
36
100
AcDbEntity
  8
0
 62
     3
100
AcDbText
 10
1181.68392
 20
-100.155182
 30
0.0
 40
3.0
  1
考
 41
0.833333
100
AcDbText
  0
TEXT
  5
116
330
36
100
AcDbEntity
  8
0
 62
     3
100
AcDbText
 10
1175.364565839286
 20
-96.47287400000001
 30
0.0
 40
2.0
  1
REMARKS
 41
0.675794
100
AcDbText
  0
TEXT
  5
117
330
36
100
AcDbEntity
  8
0
 62
     3
100
AcDbText
 10
1145.233367
 20
-103.392995
 30
0.0
 40
2.0
  1
3AD
 41
1.42614
100
AcDbText
  0
TEXT
  5
118
330
36
100
AcDbEntity
  8
0
 62
     3
100
AcDbText
 10
1154.544346
 20
-103.227261
 30
0.0
 40
2.0
  1
ANGLE
 41
1.669883999999995
100
AcDbText
  0
TEXT
  5
119
330
36
100
AcDbEntity
  8
0
 62
     3
100
AcDbText
 10
1175.478233
 20
-103.604102
 30
0.0
 40
2.0
  1
SCALE
 41
0.7719630000000001
100
AcDbText
  0
TEXT
  5
11A
330
36
100
AcDbEntity
  8
0
 62
     3
100
AcDbText
 10
1144.919496
 20
-107.392531
 30
0.0
 40
3.0
  1
第
 41
0.833333
100
AcDbText
  0
TEXT
  5
11B
330
36
100
AcDbEntity
  8
0
 62
     3
100
AcDbText
 10
1152.706346
 20
-107.392531
 30
0.0
 40
3.0
  1
三
 41
0.833333
100
AcDbText
  0
TEXT
  5
11C
330
36
100
AcDbEntity
  8
0
 62
     3
100
AcDbText
 10
1160.493196
 20
-107.392531
 30
0.0
 40
3.0
  1
角
 41
0.833333
100
AcDbText
  0
TEXT
  5
11D
330
36
100
AcDbEntity
  8
0
 62
     3
100
AcDbText
 10
1168.280046
 20
-107.392531
 30
0.0
 40
3.0
  1
法
 41
0.833333
100
AcDbText
  0
TEXT
  5
11E
330
36
100
AcDbEntity
  8
0
 62
     3
100
AcDbText
 10
1175.341438
 20
-107.104102
 30
0.0
 40
3.0
  1
尺
 41
0.833333
100
AcDbText
  0
TEXT
  5
11F
330
36
100
AcDbEntity
  8
0
 62
     3
100
AcDbText
 10
1182.07444
 20
-107.104102
 30
0.0
 40
3.0
  1
度
 41
0.833333
100
AcDbText
  0
TEXT
  5
120
330
36
100
AcDbEntity
  8
0
 62
     3
100
AcDbText
 10
1204.65771
 20
-84.934802
 30
0.0
 40
3.0
  1
承認
 41
1.089472999999999
100
AcDbText
  0
TEXT
  5
121
330
36
100
AcDbEntity
  8
0
 62
     3
100
AcDbText
 10
1217.900591
 20
-84.992531
 30
0.0
 40
3.0
  1
検図
 41
0.931761
100
AcDbText
  0
TEXT
  5
122
330
36
100
AcDbEntity
  8
0
 62
     3
100
AcDbText
 10
1230.900987
 20
-84.992531
 30
0.0
 40
3.0
  1
設
 41
0.833333
100
AcDbText
  0
TEXT
  5
123
330
36
100
AcDbEntity
  8
0
 62
     3
100
AcDbText
 10
1235.390856
 20
-84.992531
 30
0.0
 40
3.0
  1
計
 41
0.833333
100
AcDbText
  0
TEXT
  5
124
330
36
100
AcDbEntity
  8
0
 62
     3
100
AcDbText
 10
1144.063471
 20
-84.81997900000001
 30
0.0
 40
3.0
  1
品
 41
0.833333
100
AcDbText
  0
TEXT
  5
125
330
36
100
AcDbEntity
  8
0
 62
     3
100
AcDbText
 10
1151.599113
 20
-84.81997900000001
 30
0.0
 40
3.0
  1
名
 41
0.833333
100
AcDbText
  0
TEXT
  5
126
330
36
100
AcDbEntity
  8
0
 62
     3
100
AcDbText
 10
1143.731708
 20
-93.03325958280181
 30
0.0
 40
3.0
  1
型
 41
0.833333
100
AcDbText
  0
TEXT
  5
127
330
36
100
AcDbEntity
  8
0
 62
     3
100
AcDbText
 10
1151.279799
 20
-93.03325958280181
 30
0.0
 40
3.0
  1
式
 41
0.833333
100
AcDbText
  0
LINE
  5
12F
330
36
100
AcDbEntity
  8
0
 62
     3
100
AcDbLine
 10
1253.47941
 20
156.997107
 30
0.0
 11
863.4794099999997
 21
156.997107
 31
0.0
  0
LINE
  5
130
330
36
100
AcDbEntity
  8
0
 62
     3
100
AcDbLine
 10
1227.780046
 20
-77.392531
 30
0.0
 11
1227.780046
 21
-71.39253100000002
 31
0.0
  0
LINE
  5
131
330
36
100
AcDbEntity
  8
0
 62
     3
100
AcDbLine
 10
1201.780046
 20
-77.392531
 30
0.0
 11
1201.780046
 21
-71.39253100000002
 31
0.0
  0
LINE
  5
132
330
36
100
AcDbEntity
  8
0
 62
     3
100
AcDbLine
 10
1253.47941
 20
-71.39253100000002
 30
0.0
 11
1201.780046
 21
-71.39253100000002
 31
0.0
  0
TEXT
  5
133
330
36
100
AcDbEntity
  8
0
 62
     3
100
AcDbText
 10
1207.775645
 20
-76.596182
 30
0.0
 40
4.5
  1
コード
  7
高4.5
100
AcDbText
  0
LINE
  5
138
330
36
100
AcDbEntity
  8
0
100
AcDbLine
 10
1078.385318624952
 20
-20.478154
 30
0.0
 11
1116.187314888419
 21
-20.478154
 31
0.0
  0
TEXT
  5
139
330
36
100
AcDbEntity
  8
0
 62
     3
100
AcDbText
 10
1078.892728117022
 20
-19.60884179772732
 30
0.0
 40
4.5
  1
主　　仕　　様
  7
高4.5
100
AcDbText
  0
TEXT
  5
144
330
36
100
AcDbEntity
  8
0
 62
     3
100
AcDbText
 10
1056.681886604737
 20
-27.483737
 30
0.0
 40
3.2
  1
型　式
  7
高3.2
100
AcDbText
  0
TEXT
  5
169
330
36
100
AcDbEntity
  8
0
 62
     3
100
AcDbText
 10
1056.681886604737
 20
-33.027737
 30
0.0
 40
3.2
  1
入力電圧
  7
高3.2
100
AcDbText
  0
TEXT
  5
16A
330
36
100
AcDbEntity
  8
0
 62
     3
100
AcDbText
 10
1056.681886604737
 20
-55.203737
 30
0.0
 40
3.2
  1
周波数
  7
高3.2
100
AcDbText
  0
TEXT
  5
16B
330
36
100
AcDbEntity
  8
0
 62
     3
100
AcDbText
 10
1056.681886604737
 20
-60.747737
 30
0.0
 40
3.2
  1
出力電圧調整範囲
  7
高3.2
100
AcDbText
  0
TEXT
  5
16C
330
36
100
AcDbEntity
  8
0
 62
     3
100
AcDbText
 10
1056.681886604737
 20
-66.29173699999999
 30
0.0
 40
3.2
  1
負荷変動
  7
高3.2
100
AcDbText
  0
TEXT
  5
16D
330
36
100
AcDbEntity
  8
0
 62
     3
100
AcDbText
 10
1056.681886604737
 20
-71.83573699999998
 30
0.0
 40
3.2
  1
波形歪
  7
高3.2
100
AcDbText
  0
TEXT
  5
16E
330
36
100
AcDbEntity
  8
0
 62
     3
100
AcDbText
 10
1056.681886604737
 20
-77.37973700000002
 30
0.0
 40
3.2
  1
応答時間
  7
高3.2
100
AcDbText
  0
TEXT
  5
16F
330
36
100
AcDbEntity
  8
0
 62
     3
100
AcDbText
 10
1056.681886604737
 20
-82.92373700000002
 30
0.0
 40
3.2
  1
効　率
  7
高3.2
100
AcDbText
  0
TEXT
  5
170
330
36
100
AcDbEntity
  8
0
 62
     3
100
AcDbText
 10
1056.681886604737
 20
-88.46773699999998
 30
0.0
 40
3.2
  1
周囲温度
  7
高3.2
100
AcDbText
  0
TEXT
  5
171
330
36
100
AcDbEntity
  8
0
 62
     3
100
AcDbText
 10
1056.681886604737
 20
-110.643737
 30
0.0
 40
3.2
  1
質　量
  7
高3.2
100
AcDbText
  0
TEXT
  5
172
330
36
100
AcDbEntity
  8
0
 62
     3
100
AcDbText
 10
1056.681886604737
 20
-94.01173699999999
 30
0.0
 40
3.2
  1
温度上昇
  7
高3.2
100
AcDbText
  0
TEXT
  5
173
330
36
100
AcDbEntity
  8
0
 62
     3
100
AcDbText
 10
1056.681886604737
 20
-99.555737
 30
0.0
 40
3.2
  1
絶縁抵抗
  7
高3.2
100
AcDbText
  0
TEXT
  5
174
330
36
100
AcDbEntity
  8
0
 62
     3
100
AcDbText
 10
1056.681886604737
 20
-105.099737
 30
0.0
 40
3.2
  1
絶縁耐圧
  7
高3.2
100
AcDbText
  0
LINE
  5
175
330
36
100
AcDbEntity
  8
0
 62
     3
100
AcDbLine
 10
1055.181886604737
 20
-22.439737
 30
0.0
 11
1136.518066980221
 21
-22.43973700000001
 31
0.0
  0
LINE
  5
176
330
36
100
AcDbEntity
  8
0
 62
     3
100
AcDbLine
 10
1055.181886604737
 20
-111.143737
 30
0.0
 11
1136.518066980221
 21
-111.143737
 31
0.0
  0
LINE
  5
177
330
36
100
AcDbEntity
  8
0
100
AcDbLine
 10
1055.181886604737
 20
-66.79173699999998
 30
0.0
 11
1136.518066980221
 21
-66.79173699999998
 31
0.0
  0
LINE
  5
178
330
36
100
AcDbEntity
  8
0
100
AcDbLine
 10
1055.181886604737
 20
-33.527737
 30
0.0
 11
1136.518066980221
 21
-33.527737
 31
0.0
  0
LINE
  5
179
330
36
100
AcDbEntity
  8
0
100
AcDbLine
 10
1055.181886604737
 20
-55.703737
 30
0.0
 11
1136.518066980221
 21
-55.703737
 31
0.0
  0
LINE
  5
17A
330
36
100
AcDbEntity
  8
0
100
AcDbLine
 10
1055.181886604737
 20
-61.247737
 30
0.0
 11
1136.518066980221
 21
-61.24773700000001
 31
0.0
  0
LINE
  5
17B
330
36
100
AcDbEntity
  8
0
100
AcDbLine
 10
1055.181886604737
 20
-72.33573699999998
 30
0.0
 11
1136.518066980221
 21
-72.33573699999998
 31
0.0
  0
LINE
  5
17C
330
36
100
AcDbEntity
  8
0
100
AcDbLine
 10
1055.181886604737
 20
-77.87973700000001
 30
0.0
 11
1136.518066980221
 21
-77.87973700000001
 31
0.0
  0
LINE
  5
17D
330
36
100
AcDbEntity
  8
0
100
AcDbLine
 10
1055.181886604737
 20
-83.42373700000001
 30
0.0
 11
1136.518066980221
 21
-83.42373700000001
 31
0.0
  0
LINE
  5
17E
330
36
100
AcDbEntity
  8
0
100
AcDbLine
 10
1055.181886604737
 20
-88.967737
 30
0.0
 11
1136.518066980221
 21
-88.96773700000002
 31
0.0
  0
LINE
  5
17F
330
36
100
AcDbEntity
  8
0
100
AcDbLine
 10
1055.181886604737
 20
-27.98373699999999
 30
0.0
 11
1136.518066980221
 21
-27.983737
 31
0.0
  0
LINE
  5
180
330
36
100
AcDbEntity
  8
0
100
AcDbLine
 10
1055.181886604737
 20
-94.511737
 30
0.0
 11
1136.518066980221
 21
-94.511737
 31
0.0
  0
LINE
  5
181
330
36
100
AcDbEntity
  8
0
100
AcDbLine
 10
1055.181886604737
 20
-100.055737
 30
0.0
 11
1136.518066980221
 21
-100.055737
 31
0.0
  0
LINE
  5
182
330
36
100
AcDbEntity
  8
0
100
AcDbLine
 10
1055.181886604737
 20
-105.599737
 30
0.0
 11
1136.518066980221
 21
-105.599737
 31
0.0
  0
TEXT
  5
183
330
36
100
AcDbEntity
  8
0
 62
     3
100
AcDbText
 10
1089.248316607805
 20
-33.027737
 30
0.0
 40
3.2
  1
AC100%%P15%%%
  7
高3.2
100
AcDbText
  0
LINE
  5
184
330
36
100
AcDbEntity
  8
0
100
AcDbLine
 10
1055.181886604737
 20
-39.07173699999999
 30
0.0
 11
1136.518066980221
 21
-39.07173700000001
 31
0.0
  0
TEXT
  5
185
330
36
100
AcDbEntity
  8
0
 62
     3
100
AcDbText
 10
1056.681886604737
 20
-38.571737
 30
0.0
 40
3.2
  1
出力電圧
  7
高3.2
100
AcDbText
  0
TEXT
  5
186
330
36
100
AcDbEntity
  8
0
 62
     3
100
AcDbText
 10
1089.248316607805
 20
-38.571737
 30
0.0
 40
3.2
  1
AC100%%p2%
  7
高3.2
100
AcDbText
  0
LINE
  5
187
330
36
100
AcDbEntity
  8
0
100
AcDbLine
 10
1055.181886604737
 20
-44.61573699999997
 30
0.0
 11
1136.518066980221
 21
-44.61573700000001
 31
0.0
  0
LINE
  5
188
330
36
100
AcDbEntity
  8
0
100
AcDbLine
 10
1055.181886604737
 20
-50.15973699999999
 30
0.0
 11
1136.518066980221
 21
-50.15973699999999
 31
0.0
  0
TEXT
  5
189
330
36
100
AcDbEntity
  8
0
 62
     3
100
AcDbText
 10
1056.681886604737
 20
-44.115737
 30
0.0
 40
3.2
  1
容　量
  7
高3.2
100
AcDbText
  0
TEXT
  5
18A
330
36
100
AcDbEntity
  8
0
 62
     3
100
AcDbText
 10
1056.681886604737
 20
-49.65973699999999
 30
0.0
 40
3.2
  1
保護機能
  7
高3.2
100
AcDbText
  0
TEXT
  5
18B
330
36
100
AcDbEntity
  8
0
 62
     3
100
AcDbText
 10
1089.248316607805
 20
-55.203737
 30
0.0
 40
3.2
  1
50/60Hz
  7
高3.2
100
AcDbText
  0
TEXT
  5
18C
330
36
100
AcDbEntity
  8
0
 62
     3
100
AcDbText
 10
1089.248316607805
 20
-60.747737
 30
0.0
 40
3.2
  1
\U+00B13%%%以内
  7
高3.2
100
AcDbText
  0
TEXT
  5
18D
330
36
100
AcDbEntity
  8
0
 62
     3
100
AcDbText
 10
1089.248316607805
 20
-66.29173699999999
 30
0.0
 40
3.2
  1
0～100%%%
  7
高3.2
100
AcDbText
  0
TEXT
  5
18E
330
36
100
AcDbEntity
  8
0
 62
     3
100
AcDbText
 10
1089.248316607805
 20
-71.83573699999995
 30
0.0
 40
3.2
  1
入力電圧波形に同等
  7
高3.2
100
AcDbText
  0
TEXT
  5
18F
330
36
100
AcDbEntity
  8
0
 62
     3
100
AcDbText
 10
1089.248316607805
 20
-77.37973700000002
 30
0.0
 40
3.2
  1
0.2sec以内
  7
高3.2
100
AcDbText
  0
TEXT
  5
190
330
36
100
AcDbEntity
  8
0
 62
     3
100
AcDbText
 10
1089.248316607805
 20
-82.92373700000002
 30
0.0
 40
3.2
  1
90%%%以上
  7
高3.2
100
AcDbText
  0
TEXT
  5
191
330
36
100
AcDbEntity
  8
0
 62
     3
100
AcDbText
 10
1089.248316607805
 20
-88.46773699999998
 30
0.0
 40
3.2
  1
-5℃～40℃
  7
高3.2
100
AcDbText
  0
TEXT
  5
192
330
36
100
AcDbEntity
  8
0
 62
     3
100
AcDbText
 10
1089.248316607805
 20
-94.01173699999999
 30
0.0
 40
3.2
  1
主要発熱部85℃以下
  7
高3.2
100
AcDbText
  0
TEXT
  5
193
330
36
100
AcDbEntity
  8
0
 62
     3
100
AcDbText
 10
1089.248316607805
 20
-99.555737
 30
0.0
 40
3.2
  1
DC500Vメガにて10M\U+03A9
  7
高3.2
100
AcDbText
  0
TEXT
  5
194
330
36
100
AcDbEntity
  8
0
 62
     3
100
AcDbText
 10
1089.248316607805
 20
-105.099737
 30
0.0
 40
3.2
  1
AC1500V　1分間
  7
高3.2
100
AcDbText
  0
LINE
  5
195
330
36
100
AcDbEntity
  8
0
 62
     3
100
AcDbLine
 10
1136.518066980221
 20
-22.439737
 30
0.0
 11
1136.518066980221
 21
-111.143737
 31
0.0
  0
LINE
  5
196
330
36
100
AcDbEntity
  8
0
 62
     3
100
AcDbLine
 10
1055.181886604737
 20
-22.439737
 30
0.0
 11
1055.181886604737
 21
-111.143737
 31
0.0
  0
LINE
  5
197
330
36
100
AcDbEntity
  8
0
 62
     3
100
AcDbLine
 10
1087.748316607805
 20
-22.439737
 30
0.0
 11
1087.748316607805
 21
-111.143737
 31
0.0
  0
TEXT
  5
198
330
36
100
AcDbEntity
  8
0
 62
     3
100
AcDbText
 10
1219.635
 20
-106.092827
 30
0.0
 40
3.2
  1
2008.09.16
  7
高3.2
100
AcDbText
  0
TEXT
  5
199
330
36
100
AcDbEntity
  8
0
 62
     3
100
AcDbText
 10
1156.958757028569
 20
-84.54827100000001
 30
0.0
 40
4.5
  1
交流定電圧電源装置
 41
0.9
  7
高4.5
100
AcDbText
  0
LINE
  5
1A1
330
36
100
AcDbEntity
  8
0
 62
     3
100
AcDbLine
 10
851.0774859999996
 20
23.441746
 30
0.0
 11
848.4794099999996
 21
21.941746
 31
0.0
  0
LINE
  5
1A2
330
36
100
AcDbEntity
  8
0
 62
     3
100
AcDbLine
 10
851.0774859999996
 20
23.441746
 30
0.0
 11
848.4794099999996
 21
24.941746
 31
0.0
  0
LINE
  5
1A3
330
36
100
AcDbEntity
  8
0
 62
     3
100
AcDbLine
 10
848.4794099999996
 20
21.941746
 30
0.0
 11
848.4794099999996
 21
24.941746
 31
0.0
  0
CIRCLE
  5
1C4
330
36
100
AcDbEntity
  8
0
100
AcDbCircle
 10
1214.492127
 20
101.25006
 30
0.0
 40
1.649137999999999
  0
LINE
  5
1C5
330
36
100
AcDbEntity
  8
0
100
AcDbLine
 10
943.320989
 20
97.736572
 30
0.0
 11
943.509215
 21
97.26229400000001
 31
0.0
  0
LINE
  5
1C6
330
36
100
AcDbEntity
  8
0
100
AcDbLine
 10
942.8789079999999
 20
97.56939800000001
 30
0.0
 11
943.0968529999999
 21
97.10874200000001
 31
0.0
  0
LINE
  5
1C7
330
36
100
AcDbEntity
  8
0
100
AcDbLine
 10
942.4473520000001
 20
97.373743
 30
0.0
 11
942.697493
 21
96.927946
 31
0.0
  0
LINE
  5
1C8
330
36
100
AcDbEntity
  8
0
100
AcDbLine
 10
944.704817
 20
98.06844300000001
 30
0.0
 11
944.7921179999999
 21
97.56939800000001
 31
0.0
  0
LINE
  5
1C9
330
36
100
AcDbEntity
  8
0
100
AcDbLine
 10
942.030656
 20
97.15332100000001
 30
0.0
 11
942.3080399999999
 21
96.724861
 31
0.0
  0
LINE
  5
1CA
330
36
100
AcDbEntity
  8
0
100
AcDbLine
 10
944.237968
 20
97.986713
 30
0.0
 11
944.359943
 21
97.49509899999999
 31
0.0
  0
LINE
  5
1CB
330
36
100
AcDbEntity
  8
0
100
AcDbLine
 10
943.774216
 20
97.874026
 30
0.0
 11
943.9302449999999
 21
97.392318
 31
0.0
  0
LINE
  5
1CC
330
36
100
AcDbEntity
  8
0
100
AcDbLine
 10
949.068051
 20
96.832595
 30
0.0
 11
949.3101430000001
 21
97.27963000000002
 31
0.0
  0
LINE
  5
1CD
330
36
100
AcDbEntity
  8
0
100
AcDbLine
 10
948.6711679999999
 20
97.020821
 30
0.0
 11
948.885398
 21
97.485192
 31
0.0
  0
LINE
  5
1CE
330
36
100
AcDbEntity
  8
0
100
AcDbLine
 10
941.629439
 20
96.908133
 30
0.0
 11
941.9377819999999
 21
96.49701
 31
0.0
  0
LINE
  5
1CF
330
36
100
AcDbEntity
  8
0
100
AcDbLine
 10
949.812284
 20
96.374416
 30
0.0
 11
950.114435
 21
96.789254
 31
0.0
  0
LINE
  5
1D0
330
36
100
AcDbEntity
  8
0
100
AcDbLine
 10
948.000616
 20
97.81706300000001
 30
0.0
 11
947.8507789999996
 21
97.33040200000001
 31
0.0
  0
LINE
  5
1D1
330
36
100
AcDbEntity
  8
0
100
AcDbLine
 10
949.4469779999999
 20
96.613412
 30
0.0
 11
949.720029
 21
97.048064
 31
0.0
  0
LINE
  5
1D2
330
36
100
AcDbEntity
  8
0
100
AcDbLine
 10
948.2668549999999
 20
97.189233
 30
0.0
 11
948.4464119999996
 21
97.664749
 31
0.0
  0
LINE
  5
1D3
330
36
100
AcDbEntity
  8
0
100
AcDbLine
 10
946.9920009999999
 20
97.53596400000001
 30
0.0
 11
947.0762069999999
 21
98.036246
 31
0.0
  0
LINE
  5
1D4
330
36
100
AcDbEntity
  8
0
100
AcDbLine
 10
947.4260329999999
 20
97.44556600000001
 30
0.0
 11
947.538721
 21
97.938419
 31
0.0
  0
LINE
  5
1D5
330
36
100
AcDbEntity
  8
0
100
AcDbLine
 10
945.1766179999999
 20
98.11921400000001
 30
0.0
 11
945.2323429999999
 21
97.61521600000001
 31
0.0
  0
LINE
  5
1D6
330
36
100
AcDbEntity
  8
0
100
AcDbLine
 10
946.557349
 20
97.59911800000001
 30
0.0
 11
946.6031669999999
 21
98.099401
 31
0.0
  0
LINE
  5
1D7
330
36
100
AcDbEntity
  8
0
100
AcDbLine
 10
945.6533730000003
 20
98.145219
 30
0.0
 11
945.6738050000003
 21
97.639983
 31
0.0
  0
LINE
  5
1D8
330
36
100
AcDbEntity
  8
0
100
AcDbLine
 10
946.114648
 20
97.63007600000001
 30
0.0
 11
946.1301269999999
 21
98.13902699999999
 31
0.0
  0
LINE
  5
1D9
330
36
100
AcDbEntity
  8
0
100
AcDbLine
 10
941.578668
 20
96.23200799999999
 30
0.0
 11
941.1124389999999
 21
96.844979
 31
0.0
  0
LINE
  5
1DA
330
36
100
AcDbEntity
  8
0
100
AcDbLine
 10
941.578668
 20
96.23200799999999
 30
0.0
 11
944.4918249999997
 21
92.39815699999999
 31
0.0
  0
LINE
  5
1DB
330
36
100
AcDbEntity
  8
0
100
AcDbLine
 10
941.1124389999999
 20
96.844979
 30
0.0
 11
941.1136769999997
 21
96.841264
 31
0.0
  0
CIRCLE
  5
1DC
330
36
100
AcDbEntity
  8
0
100
AcDbCircle
 10
950.8654779999996
 20
76.60190400000002
 30
0.0
 40
0.6990340000000002
  0
CIRCLE
  5
1DD
330
36
100
AcDbEntity
  8
0
100
AcDbCircle
 10
948.2944079999999
 20
76.60190400000002
 30
0.0
 40
0.7024390000000002
  0
CIRCLE
  5
1DE
330
36
100
AcDbEntity
  8
0
100
AcDbCircle
 10
945.7248859999999
 20
76.60190400000002
 30
0.0
 40
0.7005819999999999
  0
CIRCLE
  5
1DF
330
36
100
AcDbEntity
  8
0
100
AcDbCircle
 10
943.1547440000001
 20
76.60190400000002
 30
0.0
 40
0.7005819999999999
  0
CIRCLE
  5
1E0
330
36
100
AcDbEntity
  8
0
100
AcDbCircle
 10
940.583984
 20
76.60190400000002
 30
0.0
 40
0.7018200000000001
  0
LINE
  5
1E1
330
36
100
AcDbEntity
  8
0
100
AcDbLine
 10
943.405601
 20
41.763249
 30
0.0
 11
949.0056009999999
 21
41.763249
 31
0.0
  0
LINE
  5
1E2
330
36
100
AcDbEntity
  8
0
100
AcDbLine
 10
944.2366660000001
 20
44.408309
 30
0.0
 11
944.2366660000001
 21
44.403356
 31
0.0
  0
LINE
  5
1E3
330
36
100
AcDbEntity
  8
0
100
AcDbLine
 10
948.173298
 20
44.403356
 30
0.0
 11
948.173298
 21
44.408309
 31
0.0
  0
LINE
  5
1E4
330
36
100
AcDbEntity
  8
0
100
AcDbLine
 10
943.405601
 20
44.408309
 30
0.0
 11
949.0056009999999
 21
44.408309
 31
0.0
  0
CIRCLE
  5
1E5
330
36
100
AcDbEntity
  8
0
100
AcDbCircle
 10
1080.745543
 20
86.26631299999997
 30
0.0
 40
0.802744
  0
CIRCLE
  5
1E6
330
36
100
AcDbEntity
  8
0
100
AcDbCircle
 10
1077.130875
 20
86.26631299999997
 30
0.0
 40
0.804601
  0
CIRCLE
  5
1E7
330
36
100
AcDbEntity
  8
0
100
AcDbCircle
 10
1073.513421
 20
86.26631299999997
 30
0.0
 40
0.8018149999999998
  0
CIRCLE
  5
1E8
330
36
100
AcDbEntity
  8
0
100
AcDbCircle
 10
1069.899063
 20
86.26631299999997
 30
0.0
 40
0.8039819999999997
  0
CIRCLE
  5
1E9
330
36
100
AcDbEntity
  8
0
100
AcDbCircle
 10
1066.282538
 20
86.26631299999997
 30
0.0
 40
0.802744
  0
CIRCLE
  5
1EA
330
36
100
AcDbEntity
  8
0
100
AcDbCircle
 10
1062.665393
 20
86.26631299999997
 30
0.0
 40
0.803363
  0
CIRCLE
  5
1EB
330
36
100
AcDbEntity
  8
0
100
AcDbCircle
 10
1059.050107
 20
86.26631299999997
 30
0.0
 40
0.804601
  0
CIRCLE
  5
1EC
330
36
100
AcDbEntity
  8
0
100
AcDbCircle
 10
1055.432962
 20
86.26631299999997
 30
0.0
 40
0.802744
  0
CIRCLE
  5
1ED
330
36
100
AcDbEntity
  8
0
100
AcDbCircle
 10
1051.817056
 20
86.26631299999997
 30
0.0
 40
0.803363
  0
CIRCLE
  5
1EE
330
36
100
AcDbEntity
  8
0
100
AcDbCircle
 10
1048.199293
 20
86.26631299999997
 30
0.0
 40
0.804601
  0
CIRCLE
  5
1EF
330
36
100
AcDbEntity
  8
0
100
AcDbCircle
 10
1044.584006
 20
86.26631299999997
 30
0.0
 40
0.803363
  0
CIRCLE
  5
1F0
330
36
100
AcDbEntity
  8
0
100
AcDbCircle
 10
1040.967171
 20
86.26631299999997
 30
0.0
 40
0.802434
  0
CIRCLE
  5
1F1
330
36
100
AcDbEntity
  8
0
100
AcDbCircle
 10
1080.745543
 20
89.88098
 30
0.0
 40
0.802744
  0
CIRCLE
  5
1F2
330
36
100
AcDbEntity
  8
0
100
AcDbCircle
 10
1077.130875
 20
89.88098
 30
0.0
 40
0.804601
  0
CIRCLE
  5
1F3
330
36
100
AcDbEntity
  8
0
100
AcDbCircle
 10
1073.513421
 20
89.88098
 30
0.0
 40
0.8018149999999998
  0
CIRCLE
  5
1F4
330
36
100
AcDbEntity
  8
0
100
AcDbCircle
 10
1069.899063
 20
89.88098
 30
0.0
 40
0.8039819999999997
  0
CIRCLE
  5
1F5
330
36
100
AcDbEntity
  8
0
100
AcDbCircle
 10
1066.282538
 20
89.88098
 30
0.0
 40
0.802744
  0
CIRCLE
  5
1F6
330
36
100
AcDbEntity
  8
0
100
AcDbCircle
 10
1062.665393
 20
89.88098
 30
0.0
 40
0.803363
  0
CIRCLE
  5
1F7
330
36
100
AcDbEntity
  8
0
100
AcDbCircle
 10
1059.050107
 20
89.88098
 30
0.0
 40
0.804601
  0
CIRCLE
  5
1F8
330
36
100
AcDbEntity
  8
0
100
AcDbCircle
 10
1055.432962
 20
89.88098
 30
0.0
 40
0.802744
  0
CIRCLE
  5
1F9
330
36
100
AcDbEntity
  8
0
100
AcDbCircle
 10
1051.817056
 20
89.88098
 30
0.0
 40
0.803363
  0
CIRCLE
  5
1FA
330
36
100
AcDbEntity
  8
0
100
AcDbCircle
 10
1048.199293
 20
89.88098
 30
0.0
 40
0.804601
  0
CIRCLE
  5
1FB
330
36
100
AcDbEntity
  8
0
100
AcDbCircle
 10
1044.584006
 20
89.88098
 30
0.0
 40
0.803363
  0
CIRCLE
  5
1FC
330
36
100
AcDbEntity
  8
0
100
AcDbCircle
 10
1040.967171
 20
89.88098
 30
0.0
 40
0.802434
  0
CIRCLE
  5
1FD
330
36
100
AcDbEntity
  8
0
100
AcDbCircle
 10
1080.745543
 20
93.498125
 30
0.0
 40
0.802744
  0
CIRCLE
  5
1FE
330
36
100
AcDbEntity
  8
0
100
AcDbCircle
 10
1077.130875
 20
93.498125
 30
0.0
 40
0.804601
  0
CIRCLE
  5
1FF
330
36
100
AcDbEntity
  8
0
100
AcDbCircle
 10
1073.513421
 20
93.498125
 30
0.0
 40
0.8018149999999998
  0
CIRCLE
  5
200
330
36
100
AcDbEntity
  8
0
100
AcDbCircle
 10
1069.899063
 20
93.498125
 30
0.0
 40
0.8039819999999997
  0
CIRCLE
  5
201
330
36
100
AcDbEntity
  8
0
100
AcDbCircle
 10
1066.282538
 20
93.498125
 30
0.0
 40
0.802744
  0
CIRCLE
  5
202
330
36
100
AcDbEntity
  8
0
100
AcDbCircle
 10
1062.665393
 20
93.498125
 30
0.0
 40
0.803363
  0
CIRCLE
  5
203
330
36
100
AcDbEntity
  8
0
100
AcDbCircle
 10
1059.050107
 20
93.498125
 30
0.0
 40
0.804601
  0
CIRCLE
  5
204
330
36
100
AcDbEntity
  8
0
100
AcDbCircle
 10
1055.432962
 20
93.498125
 30
0.0
 40
0.802744
  0
CIRCLE
  5
205
330
36
100
AcDbEntity
  8
0
100
AcDbCircle
 10
1051.817056
 20
93.498125
 30
0.0
 40
0.803363
  0
CIRCLE
  5
206
330
36
100
AcDbEntity
  8
0
100
AcDbCircle
 10
1048.199293
 20
93.498125
 30
0.0
 40
0.804601
  0
CIRCLE
  5
207
330
36
100
AcDbEntity
  8
0
100
AcDbCircle
 10
1044.584006
 20
93.498125
 30
0.0
 40
0.803363
  0
CIRCLE
  5
208
330
36
100
AcDbEntity
  8
0
100
AcDbCircle
 10
1040.967171
 20
93.498125
 30
0.0
 40
0.802434
  0
CIRCLE
  5
209
330
36
100
AcDbEntity
  8
0
100
AcDbCircle
 10
1080.745543
 20
97.11650699999999
 30
0.0
 40
0.802744
  0
CIRCLE
  5
20A
330
36
100
AcDbEntity
  8
0
100
AcDbCircle
 10
1077.130566
 20
97.11465
 30
0.0
 40
0.803053
  0
CIRCLE
  5
20B
330
36
100
AcDbEntity
  8
0
100
AcDbCircle
 10
1073.513421
 20
97.11650699999999
 30
0.0
 40
0.8018149999999998
  0
CIRCLE
  5
20C
330
36
100
AcDbEntity
  8
0
100
AcDbCircle
 10
1069.899063
 20
97.11650699999999
 30
0.0
 40
0.8039819999999997
  0
CIRCLE
  5
20D
330
36
100
AcDbEntity
  8
0
100
AcDbCircle
 10
1066.282538
 20
97.11650699999999
 30
0.0
 40
0.802744
  0
CIRCLE
  5
20E
330
36
100
AcDbEntity
  8
0
100
AcDbCircle
 10
1062.665393
 20
97.11650699999999
 30
0.0
 40
0.803363
  0
CIRCLE
  5
20F
330
36
100
AcDbEntity
  8
0
100
AcDbCircle
 10
1059.050107
 20
97.11650699999999
 30
0.0
 40
0.804601
  0
CIRCLE
  5
210
330
36
100
AcDbEntity
  8
0
100
AcDbCircle
 10
1055.432962
 20
97.11650699999999
 30
0.0
 40
0.802744
  0
CIRCLE
  5
211
330
36
100
AcDbEntity
  8
0
100
AcDbCircle
 10
1051.817056
 20
97.11650699999999
 30
0.0
 40
0.803363
  0
CIRCLE
  5
212
330
36
100
AcDbEntity
  8
0
100
AcDbCircle
 10
1048.199293
 20
97.11650699999999
 30
0.0
 40
0.804601
  0
CIRCLE
  5
213
330
36
100
AcDbEntity
  8
0
100
AcDbCircle
 10
1044.584006
 20
97.11650699999999
 30
0.0
 40
0.803363
  0
CIRCLE
  5
214
330
36
100
AcDbEntity
  8
0
100
AcDbCircle
 10
1040.967171
 20
97.11650699999999
 30
0.0
 40
0.802434
  0
CIRCLE
  5
215
330
36
100
AcDbEntity
  8
0
100
AcDbCircle
 10
1078.939447
 20
84.459598
 30
0.0
 40
0.803363
  0
CIRCLE
  5
216
330
36
100
AcDbEntity
  8
0
100
AcDbCircle
 10
1075.322303
 20
84.459598
 30
0.0
 40
0.802744
  0
CIRCLE
  5
217
330
36
100
AcDbEntity
  8
0
100
AcDbCircle
 10
1071.708254
 20
84.459598
 30
0.0
 40
0.8039819999999997
  0
CIRCLE
  5
218
330
36
100
AcDbEntity
  8
0
100
AcDbCircle
 10
1068.090491
 20
84.459598
 30
0.0
 40
0.8039819999999997
  0
CIRCLE
  5
219
330
36
100
AcDbEntity
  8
0
100
AcDbCircle
 10
1064.473966
 20
84.459598
 30
0.0
 40
0.8039819999999997
  0
CIRCLE
  5
21A
330
36
100
AcDbEntity
  8
0
100
AcDbCircle
 10
1060.85806
 20
84.459598
 30
0.0
 40
0.803363
  0
CIRCLE
  5
21B
330
36
100
AcDbEntity
  8
0
100
AcDbCircle
 10
1057.241844
 20
84.459598
 30
0.0
 40
0.8018149999999998
  0
CIRCLE
  5
21C
330
36
100
AcDbEntity
  8
0
100
AcDbCircle
 10
1053.626247
 20
84.459598
 30
0.0
 40
0.8052199999999999
  0
CIRCLE
  5
21D
330
36
100
AcDbEntity
  8
0
100
AcDbCircle
 10
1050.009722
 20
84.459598
 30
0.0
 40
0.8039819999999997
  0
CIRCLE
  5
21E
330
36
100
AcDbEntity
  8
0
100
AcDbCircle
 10
1046.393197
 20
84.459598
 30
0.0
 40
0.8052199999999999
  0
CIRCLE
  5
21F
330
36
100
AcDbEntity
  8
0
100
AcDbCircle
 10
1042.776053
 20
84.459598
 30
0.0
 40
0.804601
  0
CIRCLE
  5
220
330
36
100
AcDbEntity
  8
0
100
AcDbCircle
 10
1039.160766
 20
84.459598
 30
0.0
 40
0.803363
  0
CIRCLE
  5
221
330
36
100
AcDbEntity
  8
0
100
AcDbCircle
 10
1078.939447
 20
88.07550400000001
 30
0.0
 40
0.803363
  0
CIRCLE
  5
222
330
36
100
AcDbEntity
  8
0
100
AcDbCircle
 10
1075.322303
 20
88.07550400000001
 30
0.0
 40
0.802744
  0
CIRCLE
  5
223
330
36
100
AcDbEntity
  8
0
100
AcDbCircle
 10
1071.708254
 20
88.07550400000001
 30
0.0
 40
0.8039819999999997
  0
CIRCLE
  5
224
330
36
100
AcDbEntity
  8
0
100
AcDbCircle
 10
1068.090491
 20
88.07550400000001
 30
0.0
 40
0.8039819999999997
  0
CIRCLE
  5
225
330
36
100
AcDbEntity
  8
0
100
AcDbCircle
 10
1064.473966
 20
88.07550400000001
 30
0.0
 40
0.8039819999999997
  0
CIRCLE
  5
226
330
36
100
AcDbEntity
  8
0
100
AcDbCircle
 10
1060.85806
 20
88.07550400000001
 30
0.0
 40
0.803363
  0
CIRCLE
  5
227
330
36
100
AcDbEntity
  8
0
100
AcDbCircle
 10
1057.241844
 20
88.07550400000001
 30
0.0
 40
0.8018149999999998
  0
CIRCLE
  5
228
330
36
100
AcDbEntity
  8
0
100
AcDbCircle
 10
1053.626247
 20
88.07550400000001
 30
0.0
 40
0.8052199999999999
  0
CIRCLE
  5
229
330
36
100
AcDbEntity
  8
0
100
AcDbCircle
 10
1050.009722
 20
88.07550400000001
 30
0.0
 40
0.8039819999999997
  0
CIRCLE
  5
22A
330
36
100
AcDbEntity
  8
0
100
AcDbCircle
 10
1046.393197
 20
88.07550400000001
 30
0.0
 40
0.8052199999999999
  0
CIRCLE
  5
22B
330
36
100
AcDbEntity
  8
0
100
AcDbCircle
 10
1042.776053
 20
88.07550400000001
 30
0.0
 40
0.804601
  0
CIRCLE
  5
22C
330
36
100
AcDbEntity
  8
0
100
AcDbCircle
 10
1039.160766
 20
88.07550400000001
 30
0.0
 40
0.803363
  0
CIRCLE
  5
22D
330
36
100
AcDbEntity
  8
0
100
AcDbCircle
 10
1078.939447
 20
91.69141000000001
 30
0.0
 40
0.803363
  0
CIRCLE
  5
22E
330
36
100
AcDbEntity
  8
0
100
AcDbCircle
 10
1075.322303
 20
91.69141000000001
 30
0.0
 40
0.802744
  0
CIRCLE
  5
22F
330
36
100
AcDbEntity
  8
0
100
AcDbCircle
 10
1071.708254
 20
91.69141000000001
 30
0.0
 40
0.8039819999999997
  0
CIRCLE
  5
230
330
36
100
AcDbEntity
  8
0
100
AcDbCircle
 10
1068.090491
 20
91.69141000000001
 30
0.0
 40
0.8039819999999997
  0
CIRCLE
  5
231
330
36
100
AcDbEntity
  8
0
100
AcDbCircle
 10
1064.473966
 20
91.69141000000001
 30
0.0
 40
0.8039819999999997
  0
CIRCLE
  5
232
330
36
100
AcDbEntity
  8
0
100
AcDbCircle
 10
1060.85806
 20
91.69141000000001
 30
0.0
 40
0.803363
  0
CIRCLE
  5
233
330
36
100
AcDbEntity
  8
0
100
AcDbCircle
 10
1057.241844
 20
91.69141000000001
 30
0.0
 40
0.8018149999999998
  0
CIRCLE
  5
234
330
36
100
AcDbEntity
  8
0
100
AcDbCircle
 10
1053.626247
 20
91.69141000000001
 30
0.0
 40
0.8052199999999999
  0
CIRCLE
  5
235
330
36
100
AcDbEntity
  8
0
100
AcDbCircle
 10
1050.009722
 20
91.69141000000001
 30
0.0
 40
0.8039819999999997
  0
CIRCLE
  5
236
330
36
100
AcDbEntity
  8
0
100
AcDbCircle
 10
1046.393197
 20
91.69141000000001
 30
0.0
 40
0.8052199999999999
  0
CIRCLE
  5
237
330
36
100
AcDbEntity
  8
0
100
AcDbCircle
 10
1042.776053
 20
91.69141000000001
 30
0.0
 40
0.804601
  0
CIRCLE
  5
238
330
36
100
AcDbEntity
  8
0
100
AcDbCircle
 10
1039.160766
 20
91.69141000000001
 30
0.0
 40
0.803363
  0
CIRCLE
  5
239
330
36
100
AcDbEntity
  8
0
100
AcDbCircle
 10
1078.939447
 20
95.306078
 30
0.0
 40
0.803363
  0
CIRCLE
  5
23A
330
36
100
AcDbEntity
  8
0
100
AcDbCircle
 10
1075.322303
 20
95.306078
 30
0.0
 40
0.802744
  0
CIRCLE
  5
23B
330
36
100
AcDbEntity
  8
0
100
AcDbCircle
 10
1071.708254
 20
95.306078
 30
0.0
 40
0.8039819999999997
  0
CIRCLE
  5
23C
330
36
100
AcDbEntity
  8
0
100
AcDbCircle
 10
1068.090491
 20
95.306078
 30
0.0
 40
0.8039819999999997
  0
CIRCLE
  5
23D
330
36
100
AcDbEntity
  8
0
100
AcDbCircle
 10
1064.473966
 20
95.306078
 30
0.0
 40
0.8039819999999997
  0
CIRCLE
  5
23E
330
36
100
AcDbEntity
  8
0
100
AcDbCircle
 10
1060.85806
 20
95.306078
 30
0.0
 40
0.803363
  0
CIRCLE
  5
23F
330
36
100
AcDbEntity
  8
0
100
AcDbCircle
 10
1057.241844
 20
95.306078
 30
0.0
 40
0.8018149999999998
  0
CIRCLE
  5
240
330
36
100
AcDbEntity
  8
0
100
AcDbCircle
 10
1053.626247
 20
95.306078
 30
0.0
 40
0.8052199999999999
  0
CIRCLE
  5
241
330
36
100
AcDbEntity
  8
0
100
AcDbCircle
 10
1050.009722
 20
95.306078
 30
0.0
 40
0.8039819999999997
  0
CIRCLE
  5
242
330
36
100
AcDbEntity
  8
0
100
AcDbCircle
 10
1046.393197
 20
95.306078
 30
0.0
 40
0.8052199999999999
  0
CIRCLE
  5
243
330
36
100
AcDbEntity
  8
0
100
AcDbCircle
 10
1042.776053
 20
95.306078
 30
0.0
 40
0.804601
  0
CIRCLE
  5
244
330
36
100
AcDbEntity
  8
0
100
AcDbCircle
 10
1039.160766
 20
95.306078
 30
0.0
 40
0.803363
  0
LINE
  5
245
330
36
100
AcDbEntity
  8
0
100
AcDbLine
 10
902.5828589999999
 20
19.695579
 30
0.0
 11
903.9215019999996
 21
17.695579
 31
0.0
  0
LINE
  5
246
330
36
100
AcDbEntity
  8
0
100
AcDbLine
 10
903.9215019999996
 20
17.695579
 30
0.0
 11
908.0897
 21
17.695579
 31
0.0
  0
LINE
  5
247
330
36
100
AcDbEntity
  8
0
100
AcDbLine
 10
908.0897
 20
17.695579
 30
0.0
 11
909.426574
 21
19.695579
 31
0.0
  0
LINE
  5
248
330
36
100
AcDbEntity
  8
0
100
AcDbLine
 10
949.0056009999999
 20
39.095579
 30
0.0
 11
949.0056009999999
 21
48.695579
 31
0.0
  0
LINE
  5
249
330
36
100
AcDbEntity
  8
0
100
AcDbLine
 10
949.0056009999999
 20
48.695579
 30
0.0
 11
943.405601
 21
48.695579
 31
0.0
  0
LINE
  5
24A
330
36
100
AcDbEntity
  8
0
100
AcDbLine
 10
943.405601
 20
48.695579
 30
0.0
 11
943.405601
 21
39.095579
 31
0.0
  0
LINE
  5
24B
330
36
100
AcDbEntity
  8
0
100
AcDbLine
 10
943.405601
 20
39.095579
 30
0.0
 11
949.0056009999999
 21
39.095579
 31
0.0
  0
LINE
  5
24C
330
36
100
AcDbEntity
  8
0
100
AcDbLine
 10
946.4254679999999
 20
79.58255
 30
0.0
 11
945.024304
 21
79.58255
 31
0.0
  0
LINE
  5
24D
330
36
100
AcDbEntity
  8
0
100
AcDbLine
 10
945.024304
 20
79.58255
 30
0.0
 11
945.024304
 21
78.178291
 31
0.0
  0
LINE
  5
24E
330
36
100
AcDbEntity
  8
0
100
AcDbLine
 10
945.024304
 20
78.178291
 30
0.0
 11
946.4254679999999
 21
78.178291
 31
0.0
  0
LINE
  5
24F
330
36
100
AcDbEntity
  8
0
100
AcDbLine
 10
946.4254679999999
 20
78.178291
 30
0.0
 11
946.4254679999999
 21
79.58255
 31
0.0
  0
LINE
  5
250
330
36
100
AcDbEntity
  8
0
100
AcDbLine
 10
951.564512
 20
78.879182
 30
0.0
 11
946.8947920000001
 21
79.58255
 31
0.0
  0
LINE
  5
251
330
36
100
AcDbEntity
  8
0
100
AcDbLine
 10
946.8947920000001
 20
79.58255
 30
0.0
 11
946.8947920000001
 21
78.178291
 31
0.0
  0
LINE
  5
252
330
36
100
AcDbEntity
  8
0
100
AcDbLine
 10
946.8947920000001
 20
78.178291
 30
0.0
 11
951.564512
 21
78.879182
 31
0.0
  0
LINE
  5
253
330
36
100
AcDbEntity
  8
0
100
AcDbLine
 10
944.5549789999999
 20
79.58255
 30
0.0
 11
939.8821639999999
 21
78.879182
 31
0.0
  0
LINE
  5
254
330
36
100
AcDbEntity
  8
0
100
AcDbLine
 10
939.8821639999999
 20
78.879182
 30
0.0
 11
944.5549789999999
 21
78.178291
 31
0.0
  0
LINE
  5
255
330
36
100
AcDbEntity
  8
0
100
AcDbLine
 10
944.5549789999999
 20
78.178291
 30
0.0
 11
944.5549789999999
 21
79.58255
 31
0.0
  0
LINE
  5
256
330
36
100
AcDbEntity
  8
0
100
AcDbLine
 10
938.4710939999999
 20
91.786425
 30
0.0
 11
953.026973
 21
91.786425
 31
0.0
  0
LINE
  5
257
330
36
100
AcDbEntity
  8
0
100
AcDbLine
 10
953.026973
 20
91.786425
 30
0.0
 11
953.026973
 21
100.095579
 31
0.0
  0
LINE
  5
258
330
36
100
AcDbEntity
  8
0
100
AcDbLine
 10
953.026973
 20
100.095579
 30
0.0
 11
938.4710939999999
 21
100.095579
 31
0.0
  0
LINE
  5
259
330
36
100
AcDbEntity
  8
0
100
AcDbLine
 10
938.4710939999999
 20
100.095579
 30
0.0
 11
938.4710939999999
 21
91.786425
 31
0.0
  0
LINE
  5
26D
330
36
100
AcDbEntity
  8
0
100
AcDbLine
 10
941.568761
 20
96.22581700000001
 30
0.0
 11
941.1124389999999
 21
96.844979
 31
0.0
  0
LINE
  5
26E
330
36
100
AcDbEntity
  8
0
100
AcDbLine
 10
947.8241549999999
 20
97.237527
 30
0.0
 11
947.82787
 21
97.24371900000001
 31
0.0
  0
LINE
  5
276
330
36
100
AcDbEntity
  8
0
100
AcDbLine
 10
950.385628
 20
96.847455
 30
0.0
 11
950.390581
 21
96.847455
 31
0.0
  0
LINE
  5
277
330
36
100
AcDbEntity
  8
0
100
AcDbLine
 10
950.390581
 20
96.847455
 30
0.0
 11
949.928067
 21
96.23324700000001
 31
0.0
  0
LINE
  5
28B
330
36
100
AcDbEntity
  8
0
100
AcDbLine
 10
917.8920060000001
 20
85.144055
 30
0.0
 11
917.8920060000001
 21
88.415707
 31
0.0
  0
LINE
  5
28C
330
36
100
AcDbEntity
  8
0
100
AcDbLine
 10
917.8920060000001
 20
85.144055
 30
0.0
 11
955.944464
 21
85.144055
 31
0.0
  0
LINE
  5
28D
330
36
100
AcDbEntity
  8
0
100
AcDbLine
 10
955.944464
 20
85.144055
 30
0.0
 11
955.944464
 21
88.415707
 31
0.0
  0
LINE
  5
28E
330
36
100
AcDbEntity
  8
0
100
AcDbLine
 10
911.291216
 20
61.660716
 30
0.0
 11
912.377846
 21
61.660716
 31
0.0
  0
LINE
  5
28F
330
36
100
AcDbEntity
  8
0
100
AcDbLine
 10
912.377846
 20
61.660716
 30
0.0
 11
912.377846
 21
65.83386800000001
 31
0.0
  0
LINE
  5
290
330
36
100
AcDbEntity
  8
0
100
AcDbLine
 10
912.377846
 20
65.83386800000001
 30
0.0
 11
911.291216
 21
65.83386800000001
 31
0.0
  0
LINE
  5
291
330
36
100
AcDbEntity
  8
0
100
AcDbLine
 10
911.291216
 20
65.83386800000001
 30
0.0
 11
911.291216
 21
61.660716
 31
0.0
  0
LINE
  5
292
330
36
100
AcDbEntity
  8
0
100
AcDbLine
 10
916.6903089999999
 20
61.974012
 30
0.0
 11
917.7775569999999
 21
61.974012
 31
0.0
  0
LINE
  5
293
330
36
100
AcDbEntity
  8
0
100
AcDbLine
 10
917.7775569999999
 20
61.974012
 30
0.0
 11
917.7775569999999
 21
65.520572
 31
0.0
  0
LINE
  5
294
330
36
100
AcDbEntity
  8
0
100
AcDbLine
 10
917.7775569999999
 20
65.520572
 30
0.0
 11
916.6903089999999
 21
65.520572
 31
0.0
  0
LINE
  5
295
330
36
100
AcDbEntity
  8
0
100
AcDbLine
 10
916.6903089999999
 20
65.520572
 30
0.0
 11
916.6903089999999
 21
61.974012
 31
0.0
  0
LINE
  5
296
330
36
100
AcDbEntity
  8
0
100
AcDbLine
 10
913.178422
 20
57.85039300000001
 30
0.0
 11
915.630304
 21
57.85039300000001
 31
0.0
  0
LINE
  5
297
330
36
100
AcDbEntity
  8
0
100
AcDbLine
 10
915.630304
 20
57.85039300000001
 30
0.0
 11
915.630304
 21
59.34257399999999
 31
0.0
  0
LINE
  5
29F
330
36
100
AcDbEntity
  8
0
100
AcDbLine
 10
913.178422
 20
59.34257399999999
 30
0.0
 11
913.178422
 21
57.85039300000001
 31
0.0
  0
LINE
  5
2A0
330
36
100
AcDbEntity
  8
0
100
AcDbLine
 10
961.2056009999999
 20
106.895579
 30
0.0
 11
898.8056010000001
 21
106.895579
 31
0.0
  0
ARC
  5
2A1
330
36
100
AcDbEntity
  8
0
100
AcDbCircle
 10
961.2056009999999
 20
102.495579
 30
0.0
 40
4.4
100
AcDbArc
 50
0.0
 51
90.0
  0
ARC
  5
2A2
330
36
100
AcDbEntity
  8
0
100
AcDbCircle
 10
898.8056010000001
 20
102.495579
 30
0.0
 40
4.4
100
AcDbArc
 50
90.0
 51
180.0
  0
LINE
  5
2A3
330
36
100
AcDbEntity
  8
0
100
AcDbLine
 10
894.4056009999997
 20
102.495579
 30
0.0
 11
894.4056009999997
 21
24.495579
 31
0.0
  0
ARC
  5
2A4
330
36
100
AcDbEntity
  8
0
100
AcDbCircle
 10
898.8056010000001
 20
24.495579
 30
0.0
 40
4.4
100
AcDbArc
 50
180.0
 51
270.0
  0
LINE
  5
2A5
330
36
100
AcDbEntity
  8
0
100
AcDbLine
 10
898.8056010000001
 20
20.095579
 30
0.0
 11
961.2056009999999
 21
20.095579
 31
0.0
  0
ARC
  5
2A6
330
36
100
AcDbEntity
  8
0
100
AcDbCircle
 10
961.2056009999999
 20
24.495579
 30
0.0
 40
4.4
100
AcDbArc
 50
270.0
 51
0.0
  0
LINE
  5
2A7
330
36
100
AcDbEntity
  8
0
100
AcDbLine
 10
965.605601
 20
102.495579
 30
0.0
 11
965.605601
 21
24.495579
 31
0.0
  0
LINE
  5
2A8
330
36
100
AcDbEntity
  8
0
100
AcDbLine
 10
933.605601
 20
20.095579
 30
0.0
 11
933.605601
 21
84.74405500000001
 31
0.0
  0
LINE
  5
2A9
330
36
100
AcDbEntity
  8
0
100
AcDbLine
 10
950.582859
 20
19.695579
 30
0.0
 11
951.9215019999997
 21
17.695579
 31
0.0
  0
LINE
  5
2AA
330
36
100
AcDbEntity
  8
0
100
AcDbLine
 10
951.9215019999997
 20
17.695579
 30
0.0
 11
956.0897
 21
17.695579
 31
0.0
  0
LINE
  5
2AB
330
36
100
AcDbEntity
  8
0
100
AcDbLine
 10
956.0897
 20
17.695579
 30
0.0
 11
957.4265739999999
 21
19.695579
 31
0.0
  0
LINE
  5
2AC
330
36
100
AcDbEntity
  8
0
100
AcDbLine
 10
913.178422
 20
40.650393
 30
0.0
 11
915.630304
 21
40.650393
 31
0.0
  0
LINE
  5
2AD
330
36
100
AcDbEntity
  8
0
100
AcDbLine
 10
915.630304
 20
40.650393
 30
0.0
 11
915.630304
 21
42.142574
 31
0.0
  0
LINE
  5
2B5
330
36
100
AcDbEntity
  8
0
100
AcDbLine
 10
913.178422
 20
42.142574
 30
0.0
 11
913.178422
 21
40.650393
 31
0.0
  0
LINE
  5
2B6
330
36
100
AcDbEntity
  8
0
100
AcDbLine
 10
916.6903089999999
 20
44.774012
 30
0.0
 11
917.7775569999999
 21
44.774012
 31
0.0
  0
LINE
  5
2B7
330
36
100
AcDbEntity
  8
0
100
AcDbLine
 10
917.7775569999999
 20
44.774012
 30
0.0
 11
917.7775569999999
 21
48.320572
 31
0.0
  0
LINE
  5
2B8
330
36
100
AcDbEntity
  8
0
100
AcDbLine
 10
917.7775569999999
 20
48.320572
 30
0.0
 11
916.6903089999999
 21
48.320572
 31
0.0
  0
LINE
  5
2B9
330
36
100
AcDbEntity
  8
0
100
AcDbLine
 10
916.6903089999999
 20
48.320572
 30
0.0
 11
916.6903089999999
 21
44.774012
 31
0.0
  0
LINE
  5
2BA
330
36
100
AcDbEntity
  8
0
100
AcDbLine
 10
911.291216
 20
44.46071599999998
 30
0.0
 11
912.377846
 21
44.46071599999998
 31
0.0
  0
LINE
  5
2BB
330
36
100
AcDbEntity
  8
0
100
AcDbLine
 10
912.377846
 20
44.46071599999998
 30
0.0
 11
912.377846
 21
48.633868
 31
0.0
  0
LINE
  5
2BC
330
36
100
AcDbEntity
  8
0
100
AcDbLine
 10
912.377846
 20
48.633868
 30
0.0
 11
911.291216
 21
48.633868
 31
0.0
  0
LINE
  5
2BD
330
36
100
AcDbEntity
  8
0
100
AcDbLine
 10
911.291216
 20
48.633868
 30
0.0
 11
911.291216
 21
44.46071599999998
 31
0.0
  0
LINE
  5
2BE
330
36
100
AcDbEntity
  8
0
100
AcDbLine
 10
909.405601
 20
67.095579
 30
0.0
 11
919.4056009999997
 21
67.095579
 31
0.0
  0
LINE
  5
2BF
330
36
100
AcDbEntity
  8
0
100
AcDbLine
 10
919.4056009999997
 20
67.095579
 30
0.0
 11
919.4056009999997
 21
57.095579
 31
0.0
  0
LINE
  5
2C0
330
36
100
AcDbEntity
  8
0
100
AcDbLine
 10
909.405601
 20
67.095579
 30
0.0
 11
909.405601
 21
57.095579
 31
0.0
  0
LINE
  5
2C1
330
36
100
AcDbEntity
  8
0
100
AcDbLine
 10
909.405601
 20
57.095579
 30
0.0
 11
919.4056009999997
 21
57.095579
 31
0.0
  0
LINE
  5
2C2
330
36
100
AcDbEntity
  8
0
100
AcDbLine
 10
909.405601
 20
49.895579
 30
0.0
 11
919.4056009999997
 21
49.895579
 31
0.0
  0
LINE
  5
2C3
330
36
100
AcDbEntity
  8
0
100
AcDbLine
 10
919.4056009999997
 20
49.895579
 30
0.0
 11
919.4056009999997
 21
39.895579
 31
0.0
  0
LINE
  5
2C4
330
36
100
AcDbEntity
  8
0
100
AcDbLine
 10
909.405601
 20
49.895579
 30
0.0
 11
909.405601
 21
39.895579
 31
0.0
  0
LINE
  5
2C5
330
36
100
AcDbEntity
  8
0
100
AcDbLine
 10
909.405601
 20
39.895579
 30
0.0
 11
919.4056009999997
 21
39.895579
 31
0.0
  0
TEXT
  5
2C6
330
36
100
AcDbEntity
  8
0
100
AcDbText
 10
944.8397189999999
 20
93.728674
 30
0.0
 40
1.28
  1
V
100
AcDbText
  0
TEXT
  5
2C7
330
36
100
AcDbEntity
  8
0
100
AcDbText
 10
944.73961
 20
92.45017199999999
 30
0.0
 40
1.28
  1
～
100
AcDbText
  0
TEXT
  5
2C8
330
36
100
AcDbEntity
  8
0
100
AcDbText
 10
941.2013299999999
 20
100.907449
 30
0.0
 40
1.28
  1
OUTPUT V
100
AcDbText
  0
TEXT
  5
2C9
330
36
100
AcDbEntity
  8
0
100
AcDbText
 10
919.8509389999999
 20
86.10903699999999
 30
0.0
 40
1.28
  1
AUTOMATIC VOLTAGE REGULATOR
100
AcDbText
  0
TEXT
  5
2CA
330
36
100
AcDbEntity
  8
0
100
AcDbText
 10
910.229119
 20
53.416697
 30
0.0
 40
1.28
  1
OUT PUT
100
AcDbText
  0
TEXT
  5
2CB
330
36
100
AcDbEntity
  8
0
100
AcDbText
 10
910.229119
 20
51.88069699999999
 30
0.0
 40
1.28
  1
AC-100V
100
AcDbText
  0
TEXT
  5
2CC
330
36
100
AcDbEntity
  8
0
100
AcDbText
 10
898.716583
 20
21.833127
 30
0.0
 40
1.0
  1
SWALLOW
100
AcDbText
  0
TEXT
  5
2CD
330
36
100
AcDbEntity
  8
0
100
AcDbText
 10
938.3995479999999
 20
78.350554
 30
0.0
 40
1.28
  1
L
100
AcDbText
  0
TEXT
  5
2CE
330
36
100
AcDbEntity
  8
0
100
AcDbText
 10
953.091515
 20
78.350554
 30
0.0
 40
1.28
  1
M
100
AcDbText
  0
TEXT
  5
2CF
330
36
100
AcDbEntity
  8
0
100
AcDbText
 10
943.3123209999999
 20
73.678433
 30
0.0
 40
1.28
  1
INPUT
100
AcDbText
  0
TEXT
  5
2D0
330
36
100
AcDbEntity
  8
0
100
AcDbText
 10
944.466455
 20
34.782117
 30
0.0
 40
1.28
  1
OFF
100
AcDbText
  0
TEXT
  5
2D1
330
36
100
AcDbEntity
  8
0
100
AcDbText
 10
945.081367
 20
51.736873
 30
0.0
 40
1.28
  1
ON
100
AcDbText
  0
LINE
  5
2D2
330
36
100
AcDbEntity
  8
0
100
AcDbLine
 10
956.344464
 20
88.81570699999995
 30
0.0
 11
933.605601
 21
88.81570699999995
 31
0.0
  0
LINE
  5
2D3
330
36
100
AcDbEntity
  8
0
100
AcDbLine
 10
955.944464
 20
88.415707
 30
0.0
 11
917.8920060000001
 21
88.415707
 31
0.0
  0
LINE
  5
2D4
330
36
100
AcDbEntity
  8
0
100
AcDbLine
 10
956.344464
 20
84.74405500000001
 30
0.0
 11
956.344464
 21
88.81570699999995
 31
0.0
  0
LINE
  5
2D5
330
36
100
AcDbEntity
  8
0
100
AcDbLine
 10
933.605601
 20
84.74405500000001
 30
0.0
 11
956.344464
 21
84.74405500000001
 31
0.0
  0
LINE
  5
2D6
330
36
100
AcDbEntity
  8
0
100
AcDbLine
 10
933.605601
 20
88.81570699999995
 30
0.0
 11
933.605601
 21
106.895579
 31
0.0
  0
LINE
  5
322
330
36
100
AcDbEntity
  8
0
100
AcDbLine
 10
1007.627364
 20
19.695579
 30
0.0
 11
1008.966007
 21
17.695579
 31
0.0
  0
LINE
  5
323
330
36
100
AcDbEntity
  8
0
100
AcDbLine
 10
1008.966007
 20
17.695579
 30
0.0
 11
1013.134206
 21
17.695579
 31
0.0
  0
LINE
  5
324
330
36
100
AcDbEntity
  8
0
100
AcDbLine
 10
1013.134206
 20
17.695579
 30
0.0
 11
1014.471079
 21
19.695579
 31
0.0
  0
LINE
  5
325
330
36
100
AcDbEntity
  8
0
100
AcDbLine
 10
1103.627364
 20
19.695579
 30
0.0
 11
1104.966007
 21
17.695579
 31
0.0
  0
LINE
  5
326
330
36
100
AcDbEntity
  8
0
100
AcDbLine
 10
1104.966007
 20
17.695579
 30
0.0
 11
1109.134206
 21
17.695579
 31
0.0
  0
LINE
  5
327
330
36
100
AcDbEntity
  8
0
100
AcDbLine
 10
1109.134206
 20
17.695579
 30
0.0
 11
1110.471079
 21
19.695579
 31
0.0
  0
ARC
  5
328
330
36
100
AcDbEntity
  8
0
100
AcDbCircle
 10
1059.050107
 20
-768.204421
 30
0.0
 40
878.011623
100
AcDbArc
 50
87.38884499999995
 51
92.611155
  0
ARC
  5
329
330
36
100
AcDbEntity
  8
0
100
AcDbCircle
 10
1059.050107
 20
-767.3420639999997
 30
0.0
 40
876.349478
100
AcDbArc
 50
87.383889
 51
92.61611100000001
  0
CIRCLE
  5
32A
330
36
100
AcDbEntity
  8
0
100
AcDbCircle
 10
1037.35467
 20
86.26631299999997
 30
0.0
 40
0.802744
  0
CIRCLE
  5
32B
330
36
100
AcDbEntity
  8
0
100
AcDbCircle
 10
1037.35467
 20
89.88098
 30
0.0
 40
0.802744
  0
CIRCLE
  5
32C
330
36
100
AcDbEntity
  8
0
100
AcDbCircle
 10
1037.35467
 20
93.498125
 30
0.0
 40
0.802744
  0
CIRCLE
  5
32D
330
36
100
AcDbEntity
  8
0
100
AcDbCircle
 10
1037.35467
 20
97.11650699999999
 30
0.0
 40
0.802744
  0
CIRCLE
  5
32E
330
36
100
AcDbEntity
  8
0
100
AcDbCircle
 10
1080.745543
 20
82.64916799999998
 30
0.0
 40
0.802744
  0
CIRCLE
  5
32F
330
36
100
AcDbEntity
  8
0
100
AcDbCircle
 10
1077.130875
 20
82.64916799999998
 30
0.0
 40
0.804601
  0
CIRCLE
  5
330
330
36
100
AcDbEntity
  8
0
100
AcDbCircle
 10
1073.513421
 20
82.64916799999998
 30
0.0
 40
0.8018149999999998
  0
CIRCLE
  5
331
330
36
100
AcDbEntity
  8
0
100
AcDbCircle
 10
1069.899063
 20
82.64916799999998
 30
0.0
 40
0.8039819999999997
  0
CIRCLE
  5
332
330
36
100
AcDbEntity
  8
0
100
AcDbCircle
 10
1066.282538
 20
82.64916799999998
 30
0.0
 40
0.802744
  0
CIRCLE
  5
333
330
36
100
AcDbEntity
  8
0
100
AcDbCircle
 10
1062.665393
 20
82.64916799999998
 30
0.0
 40
0.803363
  0
CIRCLE
  5
334
330
36
100
AcDbEntity
  8
0
100
AcDbCircle
 10
1059.050107
 20
82.64916799999998
 30
0.0
 40
0.804601
  0
CIRCLE
  5
335
330
36
100
AcDbEntity
  8
0
100
AcDbCircle
 10
1055.432962
 20
82.64916799999998
 30
0.0
 40
0.802744
  0
CIRCLE
  5
336
330
36
100
AcDbEntity
  8
0
100
AcDbCircle
 10
1051.817056
 20
82.64916799999998
 30
0.0
 40
0.803363
  0
CIRCLE
  5
337
330
36
100
AcDbEntity
  8
0
100
AcDbCircle
 10
1048.199293
 20
82.64916799999998
 30
0.0
 40
0.804601
  0
CIRCLE
  5
338
330
36
100
AcDbEntity
  8
0
100
AcDbCircle
 10
1044.584006
 20
82.64916799999998
 30
0.0
 40
0.803363
  0
CIRCLE
  5
339
330
36
100
AcDbEntity
  8
0
100
AcDbCircle
 10
1040.967171
 20
82.64916799999998
 30
0.0
 40
0.802434
  0
CIRCLE
  5
33A
330
36
100
AcDbEntity
  8
0
100
AcDbCircle
 10
1037.35467
 20
82.64916799999998
 30
0.0
 40
0.802744
  0
CIRCLE
  5
33B
330
36
100
AcDbEntity
  8
0
100
AcDbCircle
 10
1119.850107
 20
34.895579
 30
0.0
 40
1.1
  0
CIRCLE
  5
33C
330
36
100
AcDbEntity
  8
0
100
AcDbCircle
 10
1119.850107
 20
28.495579
 30
0.0
 40
1.1
  0
CIRCLE
  5
33D
330
36
100
AcDbEntity
  8
0
100
AcDbCircle
 10
998.2501069999999
 20
34.895579
 30
0.0
 40
1.1
  0
CIRCLE
  5
33E
330
36
100
AcDbEntity
  8
0
100
AcDbCircle
 10
998.2501069999999
 20
28.495579
 30
0.0
 40
1.1
  0
CIRCLE
  5
33F
330
36
100
AcDbEntity
  8
0
100
AcDbCircle
 10
998.2501069999999
 20
87.535457
 30
0.0
 40
1.1
  0
CIRCLE
  5
340
330
36
100
AcDbEntity
  8
0
100
AcDbCircle
 10
1119.850107
 20
87.535457
 30
0.0
 40
1.1
  0
ARC
  5
341
330
36
100
AcDbEntity
  8
0
100
AcDbCircle
 10
1153.127696
 20
27.695579
 30
0.0
 40
1.399999999999999
100
AcDbArc
 50
208.52764
 51
157.693556
  0
ARC
  5
342
330
36
100
AcDbEntity
  8
0
100
AcDbCircle
 10
1153.127696
 20
27.695579
 30
0.0
 40
2.2
100
AcDbArc
 50
201.103657
 51
169.315651
  0
TEXT
  5
343
330
36
100
AcDbEntity
  8
0
100
AcDbText
 10
1207.523347
 20
91.12779299999999
 30
0.0
 40
1.28
  1
50Hz
100
AcDbText
  0
TEXT
  5
344
330
36
100
AcDbEntity
  8
0
100
AcDbText
 10
1207.523347
 20
86.729351
 30
0.0
 40
1.28
  1
60Hz
100
AcDbText
  0
CIRCLE
  5
357
330
36
100
AcDbEntity
  8
0
100
AcDbCircle
 10
1033.737835
 20
86.26631299999997
 30
0.0
 40
0.802434
  0
CIRCLE
  5
358
330
36
100
AcDbEntity
  8
0
100
AcDbCircle
 10
1033.737835
 20
89.88098
 30
0.0
 40
0.802434
  0
CIRCLE
  5
359
330
36
100
AcDbEntity
  8
0
100
AcDbCircle
 10
1033.737835
 20
93.498125
 30
0.0
 40
0.802434
  0
CIRCLE
  5
35A
330
36
100
AcDbEntity
  8
0
100
AcDbCircle
 10
1033.737835
 20
97.11650699999999
 30
0.0
 40
0.802434
  0
CIRCLE
  5
35B
330
36
100
AcDbEntity
  8
0
100
AcDbCircle
 10
1035.546717
 20
84.459598
 30
0.0
 40
0.804601
  0
CIRCLE
  5
35C
330
36
100
AcDbEntity
  8
0
100
AcDbCircle
 10
1031.93143
 20
84.459598
 30
0.0
 40
0.803363
  0
CIRCLE
  5
35D
330
36
100
AcDbEntity
  8
0
100
AcDbCircle
 10
1035.546717
 20
88.07550400000001
 30
0.0
 40
0.804601
  0
CIRCLE
  5
35E
330
36
100
AcDbEntity
  8
0
100
AcDbCircle
 10
1031.93143
 20
88.07550400000001
 30
0.0
 40
0.803363
  0
CIRCLE
  5
35F
330
36
100
AcDbEntity
  8
0
100
AcDbCircle
 10
1035.546717
 20
91.69141000000001
 30
0.0
 40
0.804601
  0
CIRCLE
  5
360
330
36
100
AcDbEntity
  8
0
100
AcDbCircle
 10
1031.93143
 20
91.69141000000001
 30
0.0
 40
0.803363
  0
CIRCLE
  5
361
330
36
100
AcDbEntity
  8
0
100
AcDbCircle
 10
1035.546717
 20
95.306078
 30
0.0
 40
0.804601
  0
CIRCLE
  5
362
330
36
100
AcDbEntity
  8
0
100
AcDbCircle
 10
1031.93143
 20
95.306078
 30
0.0
 40
0.803363
  0
CIRCLE
  5
363
330
36
100
AcDbEntity
  8
0
100
AcDbCircle
 10
1030.125335
 20
86.26631299999997
 30
0.0
 40
0.802744
  0
CIRCLE
  5
364
330
36
100
AcDbEntity
  8
0
100
AcDbCircle
 10
1030.125335
 20
89.88098
 30
0.0
 40
0.802744
  0
CIRCLE
  5
365
330
36
100
AcDbEntity
  8
0
100
AcDbCircle
 10
1030.125335
 20
93.498125
 30
0.0
 40
0.802744
  0
CIRCLE
  5
366
330
36
100
AcDbEntity
  8
0
100
AcDbCircle
 10
1030.125335
 20
97.11650699999999
 30
0.0
 40
0.802744
  0
CIRCLE
  5
367
330
36
100
AcDbEntity
  8
0
100
AcDbCircle
 10
1033.737835
 20
82.64916799999998
 30
0.0
 40
0.802434
  0
CIRCLE
  5
368
330
36
100
AcDbEntity
  8
0
100
AcDbCircle
 10
1030.125335
 20
82.64916799999998
 30
0.0
 40
0.802744
  0
CIRCLE
  5
369
330
36
100
AcDbEntity
  8
0
100
AcDbCircle
 10
1026.5085
 20
86.26631299999997
 30
0.0
 40
0.802434
  0
CIRCLE
  5
36A
330
36
100
AcDbEntity
  8
0
100
AcDbCircle
 10
1026.5085
 20
89.88098
 30
0.0
 40
0.802434
  0
CIRCLE
  5
36B
330
36
100
AcDbEntity
  8
0
100
AcDbCircle
 10
1026.5085
 20
93.498125
 30
0.0
 40
0.802434
  0
CIRCLE
  5
36C
330
36
100
AcDbEntity
  8
0
100
AcDbCircle
 10
1026.5085
 20
97.11650699999999
 30
0.0
 40
0.802434
  0
CIRCLE
  5
36D
330
36
100
AcDbEntity
  8
0
100
AcDbCircle
 10
1028.317382
 20
84.459598
 30
0.0
 40
0.804601
  0
CIRCLE
  5
36E
330
36
100
AcDbEntity
  8
0
100
AcDbCircle
 10
1024.702095
 20
84.459598
 30
0.0
 40
0.803363
  0
CIRCLE
  5
36F
330
36
100
AcDbEntity
  8
0
100
AcDbCircle
 10
1028.317382
 20
88.07550400000001
 30
0.0
 40
0.804601
  0
CIRCLE
  5
370
330
36
100
AcDbEntity
  8
0
100
AcDbCircle
 10
1024.702095
 20
88.07550400000001
 30
0.0
 40
0.803363
  0
CIRCLE
  5
371
330
36
100
AcDbEntity
  8
0
100
AcDbCircle
 10
1028.317382
 20
91.69141000000001
 30
0.0
 40
0.804601
  0
CIRCLE
  5
372
330
36
100
AcDbEntity
  8
0
100
AcDbCircle
 10
1024.702095
 20
91.69141000000001
 30
0.0
 40
0.803363
  0
CIRCLE
  5
373
330
36
100
AcDbEntity
  8
0
100
AcDbCircle
 10
1028.317382
 20
95.306078
 30
0.0
 40
0.804601
  0
CIRCLE
  5
374
330
36
100
AcDbEntity
  8
0
100
AcDbCircle
 10
1024.702095
 20
95.306078
 30
0.0
 40
0.803363
  0
CIRCLE
  5
375
330
36
100
AcDbEntity
  8
0
100
AcDbCircle
 10
1022.895999
 20
86.26631299999997
 30
0.0
 40
0.802744
  0
CIRCLE
  5
376
330
36
100
AcDbEntity
  8
0
100
AcDbCircle
 10
1022.895999
 20
89.88098
 30
0.0
 40
0.802744
  0
CIRCLE
  5
377
330
36
100
AcDbEntity
  8
0
100
AcDbCircle
 10
1022.895999
 20
93.498125
 30
0.0
 40
0.802744
  0
CIRCLE
  5
378
330
36
100
AcDbEntity
  8
0
100
AcDbCircle
 10
1022.895999
 20
97.11650699999999
 30
0.0
 40
0.802744
  0
CIRCLE
  5
379
330
36
100
AcDbEntity
  8
0
100
AcDbCircle
 10
1026.5085
 20
82.64916799999998
 30
0.0
 40
0.802434
  0
CIRCLE
  5
37A
330
36
100
AcDbEntity
  8
0
100
AcDbCircle
 10
1022.895999
 20
82.64916799999998
 30
0.0
 40
0.802744
  0
CIRCLE
  5
37B
330
36
100
AcDbEntity
  8
0
100
AcDbCircle
 10
1095.208548
 20
86.26631299999997
 30
0.0
 40
0.802744
  0
CIRCLE
  5
37C
330
36
100
AcDbEntity
  8
0
100
AcDbCircle
 10
1091.59388
 20
86.26631299999997
 30
0.0
 40
0.804601
  0
CIRCLE
  5
37D
330
36
100
AcDbEntity
  8
0
100
AcDbCircle
 10
1087.976426
 20
86.26631299999997
 30
0.0
 40
0.8018149999999998
  0
CIRCLE
  5
37E
330
36
100
AcDbEntity
  8
0
100
AcDbCircle
 10
1084.362068
 20
86.26631299999997
 30
0.0
 40
0.8039819999999997
  0
CIRCLE
  5
37F
330
36
100
AcDbEntity
  8
0
100
AcDbCircle
 10
1095.208548
 20
89.88098
 30
0.0
 40
0.802744
  0
CIRCLE
  5
380
330
36
100
AcDbEntity
  8
0
100
AcDbCircle
 10
1091.59388
 20
89.88098
 30
0.0
 40
0.804601
  0
CIRCLE
  5
381
330
36
100
AcDbEntity
  8
0
100
AcDbCircle
 10
1087.976426
 20
89.88098
 30
0.0
 40
0.8018149999999998
  0
CIRCLE
  5
382
330
36
100
AcDbEntity
  8
0
100
AcDbCircle
 10
1084.362068
 20
89.88098
 30
0.0
 40
0.8039819999999997
  0
CIRCLE
  5
383
330
36
100
AcDbEntity
  8
0
100
AcDbCircle
 10
1095.208548
 20
93.498125
 30
0.0
 40
0.802744
  0
CIRCLE
  5
384
330
36
100
AcDbEntity
  8
0
100
AcDbCircle
 10
1091.59388
 20
93.498125
 30
0.0
 40
0.804601
  0
CIRCLE
  5
385
330
36
100
AcDbEntity
  8
0
100
AcDbCircle
 10
1087.976426
 20
93.498125
 30
0.0
 40
0.8018149999999998
  0
CIRCLE
  5
386
330
36
100
AcDbEntity
  8
0
100
AcDbCircle
 10
1084.362068
 20
93.498125
 30
0.0
 40
0.8039819999999997
  0
CIRCLE
  5
387
330
36
100
AcDbEntity
  8
0
100
AcDbCircle
 10
1095.208548
 20
97.11650699999999
 30
0.0
 40
0.802744
  0
CIRCLE
  5
388
330
36
100
AcDbEntity
  8
0
100
AcDbCircle
 10
1091.593571
 20
97.11465
 30
0.0
 40
0.803053
  0
CIRCLE
  5
389
330
36
100
AcDbEntity
  8
0
100
AcDbCircle
 10
1087.976426
 20
97.11650699999999
 30
0.0
 40
0.8018149999999998
  0
CIRCLE
  5
38A
330
36
100
AcDbEntity
  8
0
100
AcDbCircle
 10
1084.362068
 20
97.11650699999999
 30
0.0
 40
0.8039819999999997
  0
CIRCLE
  5
38B
330
36
100
AcDbEntity
  8
0
100
AcDbCircle
 10
1093.402452
 20
84.459598
 30
0.0
 40
0.803363
  0
CIRCLE
  5
38C
330
36
100
AcDbEntity
  8
0
100
AcDbCircle
 10
1089.785308
 20
84.459598
 30
0.0
 40
0.802744
  0
CIRCLE
  5
38D
330
36
100
AcDbEntity
  8
0
100
AcDbCircle
 10
1086.171259
 20
84.459598
 30
0.0
 40
0.8039819999999997
  0
CIRCLE
  5
38E
330
36
100
AcDbEntity
  8
0
100
AcDbCircle
 10
1082.553496
 20
84.459598
 30
0.0
 40
0.8039819999999997
  0
CIRCLE
  5
38F
330
36
100
AcDbEntity
  8
0
100
AcDbCircle
 10
1093.402452
 20
88.07550400000001
 30
0.0
 40
0.803363
  0
CIRCLE
  5
390
330
36
100
AcDbEntity
  8
0
100
AcDbCircle
 10
1089.785308
 20
88.07550400000001
 30
0.0
 40
0.802744
  0
CIRCLE
  5
391
330
36
100
AcDbEntity
  8
0
100
AcDbCircle
 10
1086.171259
 20
88.07550400000001
 30
0.0
 40
0.8039819999999997
  0
CIRCLE
  5
392
330
36
100
AcDbEntity
  8
0
100
AcDbCircle
 10
1082.553496
 20
88.07550400000001
 30
0.0
 40
0.8039819999999997
  0
CIRCLE
  5
393
330
36
100
AcDbEntity
  8
0
100
AcDbCircle
 10
1093.402452
 20
91.69141000000001
 30
0.0
 40
0.803363
  0
CIRCLE
  5
394
330
36
100
AcDbEntity
  8
0
100
AcDbCircle
 10
1089.785308
 20
91.69141000000001
 30
0.0
 40
0.802744
  0
CIRCLE
  5
395
330
36
100
AcDbEntity
  8
0
100
AcDbCircle
 10
1086.171259
 20
91.69141000000001
 30
0.0
 40
0.8039819999999997
  0
CIRCLE
  5
396
330
36
100
AcDbEntity
  8
0
100
AcDbCircle
 10
1082.553496
 20
91.69141000000001
 30
0.0
 40
0.8039819999999997
  0
CIRCLE
  5
397
330
36
100
AcDbEntity
  8
0
100
AcDbCircle
 10
1093.402452
 20
95.306078
 30
0.0
 40
0.803363
  0
CIRCLE
  5
398
330
36
100
AcDbEntity
  8
0
100
AcDbCircle
 10
1089.785308
 20
95.306078
 30
0.0
 40
0.802744
  0
CIRCLE
  5
399
330
36
100
AcDbEntity
  8
0
100
AcDbCircle
 10
1086.171259
 20
95.306078
 30
0.0
 40
0.8039819999999997
  0
CIRCLE
  5
39A
330
36
100
AcDbEntity
  8
0
100
AcDbCircle
 10
1082.553496
 20
95.306078
 30
0.0
 40
0.8039819999999997
  0
CIRCLE
  5
39B
330
36
100
AcDbEntity
  8
0
100
AcDbCircle
 10
1095.208548
 20
82.64916799999998
 30
0.0
 40
0.802744
  0
CIRCLE
  5
39C
330
36
100
AcDbEntity
  8
0
100
AcDbCircle
 10
1091.59388
 20
82.64916799999998
 30
0.0
 40
0.804601
  0
CIRCLE
  5
39D
330
36
100
AcDbEntity
  8
0
100
AcDbCircle
 10
1087.976426
 20
82.64916799999998
 30
0.0
 40
0.8018149999999998
  0
CIRCLE
  5
39E
330
36
100
AcDbEntity
  8
0
100
AcDbCircle
 10
1084.362068
 20
82.64916799999998
 30
0.0
 40
0.8039819999999997
  0
LINE
  5
39F
330
36
100
AcDbEntity
  8
0
100
AcDbLine
 10
1156.504954
 20
19.695579
 30
0.0
 11
1157.843597
 21
17.695579
 31
0.0
  0
LINE
  5
3A0
330
36
100
AcDbEntity
  8
0
100
AcDbLine
 10
1157.843597
 20
17.695579
 30
0.0
 11
1162.011796
 21
17.695579
 31
0.0
  0
LINE
  5
3A1
330
36
100
AcDbEntity
  8
0
100
AcDbLine
 10
1162.011796
 20
17.695579
 30
0.0
 11
1163.348669
 21
19.695579
 31
0.0
  0
LINE
  5
3A2
330
36
100
AcDbEntity
  8
0
100
AcDbLine
 10
1215.127696
 20
106.895579
 30
0.0
 11
1152.727696
 21
106.895579
 31
0.0
  0
LINE
  5
3A3
330
36
100
AcDbEntity
  8
0
100
AcDbLine
 10
1152.727696
 20
20.095579
 30
0.0
 11
1215.127696
 21
20.095579
 31
0.0
  0
LINE
  5
3A4
330
36
100
AcDbEntity
  8
0
100
AcDbLine
 10
1148.327696
 20
102.495579
 30
0.0
 11
1148.327696
 21
27.316799
 31
0.0
  0
LINE
  5
3A5
330
36
100
AcDbEntity
  8
0
100
AcDbLine
 10
1219.527696
 20
102.495579
 30
0.0
 11
1219.527696
 21
24.495579
 31
0.0
  0
ARC
  5
3A6
330
36
100
AcDbEntity
  8
0
100
AcDbCircle
 10
1215.127696
 20
102.495579
 30
0.0
 40
4.4
100
AcDbArc
 50
0.0
 51
90.0
  0
ARC
  5
3A7
330
36
100
AcDbEntity
  8
0
100
AcDbCircle
 10
1152.727696
 20
102.495579
 30
0.0
 40
4.4
100
AcDbArc
 50
90.0
 51
180.0
  0
ARC
  5
3A8
330
36
100
AcDbEntity
  8
0
100
AcDbCircle
 10
1152.727696
 20
24.495579
 30
0.0
 40
4.4
100
AcDbArc
 50
180.0
 51
270.0
  0
ARC
  5
3A9
330
36
100
AcDbEntity
  8
0
100
AcDbCircle
 10
1215.127696
 20
24.495579
 30
0.0
 40
4.4
100
AcDbArc
 50
270.0
 51
0.0
  0
LINE
  5
3AA
330
36
100
AcDbEntity
  8
0
100
AcDbLine
 10
1204.504954
 20
19.695579
 30
0.0
 11
1205.843597
 21
17.695579
 31
0.0
  0
LINE
  5
3AB
330
36
100
AcDbEntity
  8
0
100
AcDbLine
 10
1205.843597
 20
17.695579
 30
0.0
 11
1210.011796
 21
17.695579
 31
0.0
  0
LINE
  5
3AC
330
36
100
AcDbEntity
  8
0
100
AcDbLine
 10
1210.011796
 20
17.695579
 30
0.0
 11
1211.348669
 21
19.695579
 31
0.0
  0
LINE
  5
3AD
330
36
100
AcDbEntity
  8
0
100
AcDbLine
 10
1148.327696
 20
25.9996
 30
0.0
 11
1148.327696
 21
24.495579
 31
0.0
  0
LINE
  5
3AE
330
36
100
AcDbEntity
  8
0
100
AcDbLine
 10
1216.732983
 20
33.525363
 30
0.0
 11
1216.732983
 21
39.18550399999999
 31
0.0
  0
LINE
  5
3AF
330
36
100
AcDbEntity
  8
0
100
AcDbLine
 10
1209.612459
 20
39.18550399999999
 30
0.0
 11
1209.612459
 21
33.525363
 31
0.0
  0
CIRCLE
  5
3B0
330
36
100
AcDbEntity
  8
0
100
AcDbCircle
 10
1213.171952
 20
36.35543300000001
 30
0.0
 40
2.540299
  0
LINE
  5
3B1
330
36
100
AcDbEntity
  8
0
100
AcDbLine
 10
1206.817745
 20
39.331542
 30
0.0
 11
1219.527696
 21
39.331542
 31
0.0
  0
LINE
  5
3B2
330
36
100
AcDbEntity
  8
0
100
AcDbLine
 10
1206.817745
 20
39.331542
 30
0.0
 11
1206.817745
 21
33.379325
 31
0.0
  0
LINE
  5
3B3
330
36
100
AcDbEntity
  8
0
100
AcDbLine
 10
1206.817745
 20
33.379325
 30
0.0
 11
1219.527696
 21
33.379325
 31
0.0
  0
LINE
  5
3B4
330
36
100
AcDbEntity
  8
0
100
AcDbLine
 10
1216.732983
 20
45.13772099999999
 30
0.0
 11
1216.732983
 21
39.474506
 31
0.0
  0
LINE
  5
3B5
330
36
100
AcDbEntity
  8
0
100
AcDbLine
 10
1209.612459
 20
45.13772099999999
 30
0.0
 11
1209.612459
 21
39.474506
 31
0.0
  0
CIRCLE
  5
3B6
330
36
100
AcDbEntity
  8
0
100
AcDbCircle
 10
1213.171952
 20
42.304576
 30
0.0
 40
2.540299
  0
LINE
  5
3B7
330
36
100
AcDbEntity
  8
0
100
AcDbLine
 10
1206.817745
 20
39.331542
 30
0.0
 11
1206.817745
 21
45.28068499999998
 31
0.0
  0
LINE
  5
3B8
330
36
100
AcDbEntity
  8
0
100
AcDbLine
 10
1206.817745
 20
45.28068499999998
 30
0.0
 11
1219.527696
 21
45.28068499999998
 31
0.0
  0
TEXT
  5
3E9
330
36
100
AcDbEntity
  8
0
 62
     3
100
AcDbText
 10
907.661464
 20
92.4765
 30
0.0
 40
3.2
  1
SVR-2000
 41
1.021276999999997
100
AcDbText
  0
TEXT
  5
3EA
330
36
100
AcDbEntity
  8
0
 62
     3
100
AcDbText
 10
921.2563439999996
 20
89.982971
 30
0.0
 40
1.8
  1
2KVA
 41
0.9230769999999999
100
AcDbText
  0
TEXT
  5
3F4
330
36
100
AcDbEntity
  8
0
 62
     3
100
AcDbText
 10
1174.337223
 20
-10.991639
 30
0.0
 40
3.2
  1
ポッキンプラグ
 41
0.833333
100
AcDbText
  0
TEXT
  5
3F5
330
36
100
AcDbEntity
  8
0
 62
     3
100
AcDbText
 10
1089.248316607805
 20
-27.483737
 30
0.0
 40
3.2
  1
SVR-2000
  7
高3.2
100
AcDbText
  0
TEXT
  5
3F6
330
36
100
AcDbEntity
  8
0
 62
     3
100
AcDbText
 10
1089.248316607805
 20
-44.115737
 30
0.0
 40
3.2
  1
2KVA
  7
高3.2
100
AcDbText
  0
TEXT
  5
3F7
330
36
100
AcDbEntity
  8
0
 62
     3
100
AcDbText
 10
1089.248316607805
 20
-49.65973699999999
 30
0.0
 40
3.2
  1
安全ブレーカー20A
  7
高3.2
100
AcDbText
  0
TEXT
  5
3F8
330
36
100
AcDbEntity
  8
0
 62
     3
100
AcDbText
 10
1089.248316607805
 20
-110.643737
 30
0.0
 40
3.2
  1
16kg
  7
高3.2
100
AcDbText
  0
TEXT
  5
3F9
330
36
100
AcDbEntity
  8
0
 62
     3
100
AcDbText
 10
1160.139379180023
 20
-92.58155399999999
 30
0.0
 40
4.5
  1
SVR-2000
  7
高4.5
100
AcDbText
  0
TEXT
  5
3FA
330
36
100
AcDbEntity
  8
0
 62
     3
100
AcDbText
 10
1187.396756
 20
-106.872061
 30
0.0
 40
3.2
  1
FREE
  7
高3.2
100
AcDbText
  0
TEXT
  5
3FB
330
36
100
AcDbEntity
  8
0
 62
     3
100
AcDbText
 10
1203.540986144971
 20
-116.283852
 30
0.0
 40
6.299999999999998
  1
SVR-2000
  7
高6.3
100
AcDbText
  0
TEXT
  5
407
330
36
100
AcDbEntity
  8
0
 62
     3
100
AcDbText
 10
1232.572749418084
 20
-76.74839399999997
 30
0.0
 40
4.5
  1
6492
  7
高4.5
100
AcDbText
  0
ARC
  5
408
330
36
100
AcDbEntity
  8
0
 62
     3
100
AcDbCircle
 10
1204.325322
 20
-5.392126999999997
 30
0.0
 40
0.25
100
AcDbArc
 50
264.289407
 51
270.0
  0
LINE
  5
409
330
36
100
AcDbEntity
  8
0
 62
     3
100
AcDbLine
 10
1203.863235
 20
-5.642126999999997
 30
0.0
 11
1204.325322
 21
-5.642126999999997
 31
0.0
  0
LINE
  5
40A
330
36
100
AcDbEntity
  8
0
 62
     3
100
AcDbLine
 10
1204.325322
 20
-1.892127
 30
0.0
 11
1206.312853
 21
-1.892127
 31
0.0
  0
LINE
  5
40B
330
36
100
AcDbEntity
  8
0
 62
     3
100
AcDbLine
 10
1204.325322
 20
-5.642126999999997
 30
0.0
 11
1206.312853
 21
-5.642126999999997
 31
0.0
  0
ARC
  5
40C
330
36
100
AcDbEntity
  8
0
 62
     3
100
AcDbCircle
 10
1203.863235
 20
-0.642127
 30
0.0
 40
5.0
100
AcDbArc
 50
249.452653
 51
270.0
  0
LINE
  5
40D
330
36
100
AcDbEntity
  8
0
 62
     3
100
AcDbLine
 10
1200.470707
 20
-2.82404
 30
0.0
 11
1202.108329
 21
-2.210215
 31
0.0
  0
LINE
  5
40E
330
36
100
AcDbEntity
  8
0
 62
     3
100
AcDbLine
 10
1200.470707
 20
-4.710214999999998
 30
0.0
 11
1202.108329
 21
-5.32404
 31
0.0
  0
ARC
  5
40F
330
36
100
AcDbEntity
  8
0
 62
     3
100
AcDbCircle
 10
1198.7158
 20
1.857872999999995
 30
0.0
 40
5.0
100
AcDbArc
 50
270.0
 51
290.547347
  0
LINE
  5
410
330
36
100
AcDbEntity
  8
0
 62
     3
100
AcDbLine
 10
1198.7158
 20
-4.392126999999998
 30
0.0
 11
1194.937853
 21
-4.392126999999998
 31
0.0
  0
LINE
  5
411
330
36
100
AcDbEntity
  8
0
 62
     3
100
AcDbLine
 10
1198.7158
 20
-3.142126999999999
 30
0.0
 11
1194.937853
 21
-3.142126999999999
 31
0.0
  0
ARC
  5
412
330
36
100
AcDbEntity
  8
0
 62
     3
100
AcDbCircle
 10
1198.7158
 20
-9.392127
 30
0.0
 40
5.0
100
AcDbArc
 50
69.45265299999999
 51
90.0
  0
ARC
  5
413
330
36
100
AcDbEntity
  8
0
 62
     3
100
AcDbCircle
 10
1203.863235
 20
-6.892127
 30
0.0
 40
5.0
100
AcDbArc
 50
90.0
 51
110.547347
  0
LINE
  5
414
330
36
100
AcDbEntity
  8
0
 62
     3
100
AcDbLine
 10
1203.863235
 20
-1.892127
 30
0.0
 11
1204.312853
 21
-1.892127
 31
0.0
  0
LINE
  5
415
330
36
100
AcDbEntity
  8
0
 62
     3
100
AcDbLine
 10
1206.812853
 20
-2.142126999999999
 30
0.0
 11
1206.812853
 21
-5.392127999999997
 31
0.0
  0
ARC
  5
416
330
36
100
AcDbEntity
  8
0
 62
     3
100
AcDbCircle
 10
1184.880258
 20
8.486157999999999
 30
0.0
 40
1.875
100
AcDbArc
 50
270.0
 51
326.944269
  0
ARC
  5
417
330
36
100
AcDbEntity
  8
0
 62
     3
100
AcDbCircle
 10
1188.337587
 20
6.236158
 30
0.0
 40
2.25
100
AcDbArc
 50
90.0
 51
146.944269
  0
LINE
  5
418
330
36
100
AcDbEntity
  8
0
 62
     3
100
AcDbLine
 10
1188.337587
 20
8.486157999999999
 30
0.0
 11
1193.712587
 21
8.486157999999999
 31
0.0
  0
LINE
  5
419
330
36
100
AcDbEntity
  8
0
 62
     3
100
AcDbLine
 10
1188.337587
 20
-0.013842
 30
0.0
 11
1193.712587
 21
-0.013842
 31
0.0
  0
LINE
  5
41A
330
36
100
AcDbEntity
  8
0
 62
     3
100
AcDbLine
 10
1193.712587
 20
-0.013842
 30
0.0
 11
1193.712587
 21
8.486157999999999
 31
0.0
  0
ARC
  5
41B
330
36
100
AcDbEntity
  8
0
 62
     3
100
AcDbCircle
 10
1178.962587
 20
5.866774999999997
 30
0.0
 40
0.25
100
AcDbArc
 50
91.30195300000002
 51
180.0
  0
ARC
  5
41C
330
36
100
AcDbEntity
  8
0
 62
     3
100
AcDbCircle
 10
1178.962587
 20
2.605541
 30
0.0
 40
0.25
100
AcDbArc
 50
180.0
 51
268.698047
  0
LINE
  5
41D
330
36
100
AcDbEntity
  8
0
 62
     3
100
AcDbLine
 10
1170.592853
 20
2.861158
 30
0.0
 11
1178.712587
 21
2.861158
 31
0.0
  0
LINE
  5
41E
330
36
100
AcDbEntity
  8
0
 62
     3
100
AcDbLine
 10
1169.809845
 20
5.611158
 30
0.0
 11
1178.712587
 21
5.611158
 31
0.0
  0
LINE
  5
41F
330
36
100
AcDbEntity
  8
0
 62
     3
100
AcDbLine
 10
1178.712587
 20
2.605541
 30
0.0
 11
1178.712587
 21
5.866774999999997
 31
0.0
  0
LINE
  5
420
330
36
100
AcDbEntity
  8
0
 62
     3
100
AcDbLine
 10
1178.956907
 20
2.355604999999999
 30
0.0
 11
1184.212587
 21
2.236158
 31
0.0
  0
LINE
  5
421
330
36
100
AcDbEntity
  8
0
 62
     3
100
AcDbLine
 10
1178.956907
 20
6.116711
 30
0.0
 11
1184.212587
 21
6.236158
 31
0.0
  0
LINE
  5
422
330
36
100
AcDbEntity
  8
0
 62
     3
100
AcDbLine
 10
1184.212587
 20
2.111158
 30
0.0
 11
1184.212587
 21
6.361158
 31
0.0
  0
ARC
  5
423
330
36
100
AcDbEntity
  8
0
 62
     3
100
AcDbCircle
 10
1184.462587
 20
6.361158
 30
0.0
 40
0.25
100
AcDbArc
 50
90.0
 51
180.0
  0
LINE
  5
424
330
36
100
AcDbEntity
  8
0
 62
     3
100
AcDbLine
 10
1184.462587
 20
6.611158
 30
0.0
 11
1184.880258
 21
6.611158
 31
0.0
  0
ARC
  5
425
330
36
100
AcDbEntity
  8
0
 62
     3
100
AcDbCircle
 10
1184.462587
 20
2.111158
 30
0.0
 40
0.25
100
AcDbArc
 50
180.0
 51
270.0
  0
LINE
  5
426
330
36
100
AcDbEntity
  8
0
 62
     3
100
AcDbLine
 10
1184.636123
 20
1.861158
 30
0.0
 11
1184.462587
 21
1.861158
 31
0.0
  0
ARC
  5
427
330
36
100
AcDbEntity
  8
0
 62
     3
100
AcDbCircle
 10
1188.337587
 20
2.236158
 30
0.0
 40
2.25
100
AcDbArc
 50
216.861424
 51
270.0
  0
LINE
  5
428
330
36
100
AcDbEntity
  8
0
 62
     3
100
AcDbLine
 10
1184.731547
 20
1.655415
 30
0.0
 11
1184.23854
 21
1.072770999999999
 31
0.0
  0
LINE
  5
429
330
36
100
AcDbEntity
  8
0
 62
     3
100
AcDbLine
 10
1185.299201
 20
0.012111
 30
0.0
 11
1184.23854
 21
1.072770999999999
 31
0.0
  0
LINE
  5
42A
330
36
100
AcDbEntity
  8
0
 62
     3
100
AcDbLine
 10
1186.356634
 20
0.9068619999999999
 30
0.0
 11
1185.299201
 21
0.012111
 31
0.0
  0
ARC
  5
42B
330
36
100
AcDbEntity
  8
0
 62
     3
100
AcDbCircle
 10
1186.437376
 20
0.811439
 30
0.0
 40
0.125
100
AcDbArc
 50
36.861424
 51
130.236358
  0
ARC
  5
42C
330
36
100
AcDbEntity
  8
0
 62
     3
100
AcDbCircle
 10
1184.636123
 20
1.736158
 30
0.0
 40
0.125
100
AcDbArc
 50
319.763642
 51
90.0
  0
LINE
  5
42D
330
36
100
AcDbEntity
  8
0
 62
     3
100
AcDbLine
 10
1194.937853
 20
-4.392126999999998
 30
0.0
 11
1194.937853
 21
-3.142126999999999
 31
0.0
  0
LINE
  5
42E
330
36
100
AcDbEntity
  8
0
  6
DASHED
100
AcDbLine
 10
1204.300446
 20
-5.640887
 30
0.0
 11
1204.312853
 21
-5.642126999999997
 31
0.0
  0
LINE
  5
42F
330
36
100
AcDbEntity
  8
0
100
AcDbLine
 10
1206.423513
 20
-4.692126999999998
 30
0.0
 11
1206.437853
 21
-4.692126999999998
 31
0.0
  0
ARC
  5
430
330
36
100
AcDbEntity
  8
0
100
AcDbCircle
 10
1204.325322
 20
-2.142126999999999
 30
0.0
 40
0.25
100
AcDbArc
 50
90.0
 51
95.71059299999999
  0
LINE
  5
431
330
36
100
AcDbEntity
  8
0
100
AcDbLine
 10
1204.300446
 20
-1.893367999999999
 30
0.0
 11
1204.312853
 21
-1.892127
 31
0.0
  0
LINE
  5
432
330
36
100
AcDbEntity
  8
0
100
AcDbLine
 10
1194.93864
 20
-3.667126999999998
 30
0.0
 11
1194.93864
 21
-4.417126999999998
 31
0.0
  0
LINE
  5
433
330
36
100
AcDbEntity
  8
0
100
AcDbLine
 10
1206.812853
 20
-4.392126999999998
 30
0.0
 11
1207.312853
 21
-4.392126999999998
 31
0.0
  0
ARC
  5
434
330
36
100
AcDbEntity
  8
0
100
AcDbCircle
 10
1207.312853
 20
-4.017126999999998
 30
0.0
 40
0.375
100
AcDbArc
 50
270.0
 51
0.0
  0
ARC
  5
435
330
36
100
AcDbEntity
  8
0
100
AcDbCircle
 10
1207.312853
 20
-3.517126999999999
 30
0.0
 40
0.375
100
AcDbArc
 50
0.0
 51
90.0
  0
LINE
  5
436
330
36
100
AcDbEntity
  8
0
100
AcDbLine
 10
1206.804362
 20
-3.142126999999999
 30
0.0
 11
1207.312853
 21
-3.142126999999999
 31
0.0
  0
LINE
  5
437
330
36
100
AcDbEntity
  8
0
100
AcDbLine
 10
1207.312853
 20
-3.292126999999998
 30
0.0
 11
1206.804362
 21
-3.292126999999998
 31
0.0
  0
ARC
  5
438
330
36
100
AcDbEntity
  8
0
100
AcDbCircle
 10
1207.312853
 20
-3.517126999999999
 30
0.0
 40
0.225
100
AcDbArc
 50
0.0
 51
90.0
  0
LINE
  5
439
330
36
100
AcDbEntity
  8
0
100
AcDbLine
 10
1207.537853
 20
-4.017126999999998
 30
0.0
 11
1207.537853
 21
-3.517126999999999
 31
0.0
  0
ARC
  5
43A
330
36
100
AcDbEntity
  8
0
100
AcDbCircle
 10
1207.312853
 20
-4.017126999999998
 30
0.0
 40
0.225
100
AcDbArc
 50
270.0
 51
0.0
  0
LINE
  5
43B
330
36
100
AcDbEntity
  8
0
100
AcDbLine
 10
1207.312853
 20
-4.242126999999999
 30
0.0
 11
1206.804362
 21
-4.242126999999999
 31
0.0
  0
LINE
  5
43C
330
36
100
AcDbEntity
  8
0
100
AcDbLine
 10
1207.687853
 20
-4.017126999999998
 30
0.0
 11
1207.537853
 21
-4.017126999999998
 31
0.0
  0
LINE
  5
43D
330
36
100
AcDbEntity
  8
0
100
AcDbLine
 10
1207.687853
 20
-3.517126999999999
 30
0.0
 11
1207.537853
 21
-3.517126999999999
 31
0.0
  0
LINE
  5
43E
330
36
100
AcDbEntity
  8
0
100
AcDbLine
 10
1207.687853
 20
-3.517126999999999
 30
0.0
 11
1207.687853
 21
-4.017126999999998
 31
0.0
  0
ARC
  5
43F
330
36
100
AcDbEntity
  8
0
100
AcDbCircle
 10
1184.880258
 20
-0.013842
 30
0.0
 40
1.875
100
AcDbArc
 50
33.055731
 51
90.0
  0
LINE
  5
440
330
36
100
AcDbEntity
  8
0
100
AcDbLine
 10
1183.462587
 20
2.253203
 30
0.0
 11
1183.462587
 21
6.219113
 31
0.0
  0
LINE
  5
441
330
36
100
AcDbEntity
  8
0
100
AcDbLine
 10
1183.087587
 20
2.261725999999999
 30
0.0
 11
1183.087587
 21
6.210589999999998
 31
0.0
  0
LINE
  5
442
330
36
100
AcDbEntity
  8
0
100
AcDbLine
 10
1182.587587
 20
2.27309
 30
0.0
 11
1182.587587
 21
6.199226
 31
0.0
  0
LINE
  5
443
330
36
100
AcDbEntity
  8
0
100
AcDbLine
 10
1182.212587
 20
2.281613
 30
0.0
 11
1182.212587
 21
6.190703
 31
0.0
  0
LINE
  5
444
330
36
100
AcDbEntity
  8
0
100
AcDbLine
 10
1181.712587
 20
2.292975999999999
 30
0.0
 11
1181.712587
 21
6.179339999999998
 31
0.0
  0
LINE
  5
445
330
36
100
AcDbEntity
  8
0
100
AcDbLine
 10
1181.337587
 20
2.301499
 30
0.0
 11
1181.337587
 21
6.170816999999997
 31
0.0
  0
LINE
  5
446
330
36
100
AcDbEntity
  8
0
100
AcDbLine
 10
1180.837587
 20
2.312863
 30
0.0
 11
1180.837587
 21
6.159453
 31
0.0
  0
LINE
  5
447
330
36
100
AcDbEntity
  8
0
100
AcDbLine
 10
1180.462587
 20
2.321384999999998
 30
0.0
 11
1180.462587
 21
6.150930999999999
 31
0.0
  0
LINE
  5
448
330
36
100
AcDbEntity
  8
0
100
AcDbLine
 10
1180.462587
 20
4.486158
 30
0.0
 11
1180.837587
 21
4.486158
 31
0.0
  0
LINE
  5
449
330
36
100
AcDbEntity
  8
0
100
AcDbLine
 10
1180.462587
 20
3.986158
 30
0.0
 11
1180.837587
 21
3.986158
 31
0.0
  0
LINE
  5
44A
330
36
100
AcDbEntity
  8
0
100
AcDbLine
 10
1181.337587
 20
4.486158
 30
0.0
 11
1181.712587
 21
4.486158
 31
0.0
  0
LINE
  5
44B
330
36
100
AcDbEntity
  8
0
100
AcDbLine
 10
1181.337587
 20
3.986158
 30
0.0
 11
1181.712587
 21
3.986158
 31
0.0
  0
LINE
  5
44C
330
36
100
AcDbEntity
  8
0
100
AcDbLine
 10
1182.212587
 20
4.486158
 30
0.0
 11
1182.587587
 21
4.486158
 31
0.0
  0
LINE
  5
44D
330
36
100
AcDbEntity
  8
0
100
AcDbLine
 10
1183.087587
 20
4.486158
 30
0.0
 11
1183.462587
 21
4.486158
 31
0.0
  0
LINE
  5
44E
330
36
100
AcDbEntity
  8
0
100
AcDbLine
 10
1182.212587
 20
3.986158
 30
0.0
 11
1182.587587
 21
3.986158
 31
0.0
  0
LINE
  5
44F
330
36
100
AcDbEntity
  8
0
100
AcDbLine
 10
1183.087587
 20
3.986158
 30
0.0
 11
1183.462587
 21
3.986158
 31
0.0
  0
LINE
  5
450
330
36
100
AcDbEntity
  8
0
100
AcDbLine
 10
1183.087587
 20
2.511791
 30
0.0
 11
1183.462587
 21
2.503267999999998
 31
0.0
  0
LINE
  5
451
330
36
100
AcDbEntity
  8
0
100
AcDbLine
 10
1182.212587
 20
2.531677
 30
0.0
 11
1182.587587
 21
2.523153999999999
 31
0.0
  0
LINE
  5
452
330
36
100
AcDbEntity
  8
0
100
AcDbLine
 10
1180.462587
 20
2.57145
 30
0.0
 11
1180.837587
 21
2.562927
 31
0.0
  0
LINE
  5
453
330
36
100
AcDbEntity
  8
0
100
AcDbLine
 10
1181.337587
 20
2.551563
 30
0.0
 11
1181.712587
 21
2.543041
 31
0.0
  0
LINE
  5
454
330
36
100
AcDbEntity
  8
0
100
AcDbLine
 10
1183.462587
 20
5.969047999999999
 30
0.0
 11
1183.087587
 21
5.960524999999997
 31
0.0
  0
LINE
  5
455
330
36
100
AcDbEntity
  8
0
100
AcDbLine
 10
1182.587587
 20
5.949162
 30
0.0
 11
1182.212587
 21
5.940639
 31
0.0
  0
LINE
  5
456
330
36
100
AcDbEntity
  8
0
100
AcDbLine
 10
1181.712587
 20
5.929274999999997
 30
0.0
 11
1181.337587
 21
5.920752999999997
 31
0.0
  0
LINE
  5
457
330
36
100
AcDbEntity
  8
0
100
AcDbLine
 10
1180.837587
 20
5.909389
 30
0.0
 11
1180.462587
 21
5.900866
 31
0.0
  0
ARC
  5
458
330
36
100
AcDbEntity
  8
0
100
AcDbCircle
 10
1199.981337
 20
4.236158
 30
0.0
 40
0.58125
100
AcDbArc
 50
270.0
 51
90.0
  0
LINE
  5
459
330
36
100
AcDbEntity
  8
0
100
AcDbLine
 10
1199.487587
 20
2.473658
 30
0.0
 11
1199.487587
 21
2.723658
 31
0.0
  0
LINE
  5
45A
330
36
100
AcDbEntity
  8
0
100
AcDbLine
 10
1199.487587
 20
5.748657999999998
 30
0.0
 11
1199.487587
 21
5.998657999999998
 31
0.0
  0
LINE
  5
45B
330
36
100
AcDbEntity
  8
0
100
AcDbLine
 10
1195.212587
 20
4.817408
 30
0.0
 11
1199.981337
 21
4.817408
 31
0.0
  0
LINE
  5
45C
330
36
100
AcDbEntity
  8
0
100
AcDbLine
 10
1195.212587
 20
3.654908
 30
0.0
 11
1199.981337
 21
3.654908
 31
0.0
  0
LINE
  5
45D
330
36
100
AcDbEntity
  8
0
100
AcDbLine
 10
1195.212587
 20
2.786158
 30
0.0
 11
1199.112587
 21
2.786158
 31
0.0
  0
LINE
  5
45E
330
36
100
AcDbEntity
  8
0
100
AcDbLine
 10
1195.212587
 20
2.411158
 30
0.0
 11
1199.112587
 21
2.411158
 31
0.0
  0
LINE
  5
45F
330
36
100
AcDbEntity
  8
0
100
AcDbLine
 10
1195.212587
 20
5.686157999999998
 30
0.0
 11
1199.112587
 21
5.686157999999998
 31
0.0
  0
LINE
  5
460
330
36
100
AcDbEntity
  8
0
100
AcDbLine
 10
1195.212587
 20
6.061157999999998
 30
0.0
 11
1199.112587
 21
6.061157999999998
 31
0.0
  0
LINE
  5
461
330
36
100
AcDbEntity
  8
0
100
AcDbLine
 10
1199.112587
 20
5.686157999999998
 30
0.0
 11
1199.112587
 21
6.061157999999998
 31
0.0
  0
LINE
  5
462
330
36
100
AcDbEntity
  8
0
100
AcDbLine
 10
1199.112587
 20
2.411158
 30
0.0
 11
1199.112587
 21
2.786158
 31
0.0
  0
LINE
  5
463
330
36
100
AcDbEntity
  8
0
100
AcDbLine
 10
1199.112587
 20
6.061157999999998
 30
0.0
 11
1199.487587
 21
5.998657999999998
 31
0.0
  0
LINE
  5
464
330
36
100
AcDbEntity
  8
0
100
AcDbLine
 10
1199.112587
 20
5.686157999999998
 30
0.0
 11
1199.487587
 21
5.748657999999998
 31
0.0
  0
LINE
  5
465
330
36
100
AcDbEntity
  8
0
100
AcDbLine
 10
1199.112587
 20
2.411158
 30
0.0
 11
1199.487587
 21
2.473658
 31
0.0
  0
LINE
  5
466
330
36
100
AcDbEntity
  8
0
100
AcDbLine
 10
1199.112587
 20
2.786158
 30
0.0
 11
1199.487587
 21
2.723658
 31
0.0
  0
ARC
  5
467
330
36
100
AcDbEntity
  8
0
100
AcDbCircle
 10
1186.041014
 20
-1.455783999999999
 30
0.0
 40
2.625
100
AcDbArc
 50
135.0
 51
270.0
  0
ARC
  5
468
330
36
100
AcDbEntity
  8
0
100
AcDbCircle
 10
1186.041014
 20
-1.455783999999999
 30
0.0
 40
2.0
100
AcDbArc
 50
135.0
 51
270.0
  0
LINE
  5
469
330
36
100
AcDbEntity
  8
0
100
AcDbLine
 10
1184.5479
 20
0.763412
 30
0.0
 11
1184.184859
 21
0.4003720000000003
 31
0.0
  0
LINE
  5
46A
330
36
100
AcDbEntity
  8
0
100
AcDbLine
 10
1184.626801
 20
-0.04157
 30
0.0
 11
1184.989841
 21
0.32147
 31
0.0
  0
ARC
  5
46B
330
36
100
AcDbEntity
  8
0
100
AcDbCircle
 10
1194.337587
 20
8.152824999999998
 30
0.0
 40
0.7083330000000001
100
AcDbArc
 50
40.320215
 51
151.927513
  0
LINE
  5
46C
330
36
100
AcDbEntity
  8
0
100
AcDbLine
 10
1194.877649
 20
8.611157999999999
 30
0.0
 11
1195.212587
 21
8.611157999999999
 31
0.0
  0
LINE
  5
46D
330
36
100
AcDbEntity
  8
0
100
AcDbLine
 10
1195.212587
 20
-0.138842
 30
0.0
 11
1195.212587
 21
8.611157999999999
 31
0.0
  0
LINE
  5
46E
330
36
100
AcDbEntity
  8
0
100
AcDbLine
 10
1194.877649
 20
-0.138842
 30
0.0
 11
1195.212587
 21
-0.138842
 31
0.0
  0
ARC
  5
46F
330
36
100
AcDbEntity
  8
0
100
AcDbCircle
 10
1194.337587
 20
0.319491
 30
0.0
 40
0.7083330000000001
100
AcDbArc
 50
208.072487
 51
319.679785
  0
LINE
  5
470
330
36
100
AcDbEntity
  8
0
100
AcDbLine
 10
1188.939633
 20
-4.080783999999998
 30
0.0
 11
1194.937853
 21
-4.080783999999998
 31
0.0
  0
LINE
  5
471
330
36
100
AcDbEntity
  8
0
100
AcDbLine
 10
1188.725719
 20
-3.455783999999998
 30
0.0
 11
1194.937853
 21
-3.455783999999998
 31
0.0
  0
LINE
  5
472
330
36
100
AcDbEntity
  8
0
100
AcDbLine
 10
1188.195563
 20
-3.455783999999998
 30
0.0
 11
1186.041014
 21
-3.455783999999998
 31
0.0
  0
LINE
  5
473
330
36
100
AcDbEntity
  8
0
100
AcDbLine
 10
1188.412793
 20
-4.080783999999998
 30
0.0
 11
1186.041014
 21
-4.080783999999998
 31
0.0
  0
TEXT
  5
586
330
36
100
AcDbEntity
  8
0
 62
     3
100
AcDbText
 10
1240.97941
 20
147.497107
 30
0.0
 40
3.2
  1
担　当
  7
高3.2
100
AcDbText
  0
TEXT
  5
587
330
36
100
AcDbEntity
  8
0
 62
     3
100
AcDbText
 10
1196.97941
 20
147.497107
 30
0.0
 40
3.2
  1
変更・追記内容
  7
高3.2
100
AcDbText
  0
TEXT
  5
588
330
36
100
AcDbEntity
  8
0
 62
     3
100
AcDbText
 10
1172.092925000339
 20
142.8265684900917
 30
0.0
 40
2.0
  1
1
  7
高2
100
AcDbText
  0
TEXT
  5
589
330
36
100
AcDbEntity
  8
0
 62
     3
100
AcDbText
 10
1171.784413523582
 20
137.6567517778187
 30
0.0
 40
2.0
  1
2
  7
高2
100
AcDbText
  0
TEXT
  5
58A
330
36
100
AcDbEntity
  8
0
 62
     3
100
AcDbText
 10
1178.97941
 20
147.497107
 30
0.0
 40
3.2
  1
日　付
  7
高3.2
100
AcDbText
  0
TEXT
  5
58B
330
36
100
AcDbEntity
  8
0
 62
     3
100
AcDbText
 10
1178.97941
 20
152.497107
 30
0.0
 40
3.2
  1
図　　　　面　　　　略　　　　歴
  7
高3.2
100
AcDbText
  0
TEXT
  5
58C
330
36
100
AcDbEntity
  8
0
 62
     3
100
AcDbText
 10
1168.97941
 20
147.497107
 30
0.0
 40
3.2
  1
記号
  7
高3.2
100
AcDbText
  0
LINE
  5
58D
330
36
100
AcDbEntity
  8
0
100
AcDbLine
 10
1172.47941
 20
140.7880030000001
 30
0.0
 11
1170.57941
 21
137.497107
 31
0.0
  0
LINE
  5
58E
330
36
100
AcDbEntity
  8
0
100
AcDbLine
 10
1172.47941
 20
140.7880030000001
 30
0.0
 11
1174.37941
 21
137.497107
 31
0.0
  0
LINE
  5
58F
330
36
100
AcDbEntity
  8
0
100
AcDbLine
 10
1170.57941
 20
137.497107
 30
0.0
 11
1174.37941
 21
137.497107
 31
0.0
  0
LINE
  5
590
330
36
100
AcDbEntity
  8
0
100
AcDbLine
 10
1172.47941
 20
145.7880040000001
 30
0.0
 11
1170.57941
 21
142.497107
 31
0.0
  0
LINE
  5
591
330
36
100
AcDbEntity
  8
0
100
AcDbLine
 10
1172.47941
 20
145.7880040000001
 30
0.0
 11
1174.37941
 21
142.497107
 31
0.0
  0
LINE
  5
592
330
36
100
AcDbEntity
  8
0
100
AcDbLine
 10
1170.57941
 20
142.497107
 30
0.0
 11
1174.37941
 21
142.497107
 31
0.0
  0
LINE
  5
593
330
36
100
AcDbEntity
  8
0
 62
     3
100
AcDbLine
 10
1167.47941
 20
151.997107
 30
0.0
 11
1253.47941
 21
151.997107
 31
0.0
  0
LINE
  5
594
330
36
100
AcDbEntity
  8
0
 62
     3
100
AcDbLine
 10
1167.47941
 20
146.997107
 30
0.0
 11
1253.47941
 21
146.997107
 31
0.0
  0
LINE
  5
595
330
36
100
AcDbEntity
  8
0
 62
     7
100
AcDbLine
 10
1167.47941
 20
141.997107
 30
0.0
 11
1253.47941
 21
141.997107
 31
0.0
  0
LINE
  5
596
330
36
100
AcDbEntity
  8
0
 62
     3
100
AcDbLine
 10
1167.47941
 20
136.997107
 30
0.0
 11
1253.47941
 21
136.997107
 31
0.0
  0
LINE
  5
597
330
36
100
AcDbEntity
  8
0
 62
     7
100
AcDbLine
 10
1239.47941
 20
136.997107
 30
0.0
 11
1239.47941
 21
151.997107
 31
0.0
  0
LINE
  5
598
330
36
100
AcDbEntity
  8
0
 62
     7
100
AcDbLine
 10
1195.47941
 20
136.997107
 30
0.0
 11
1195.47941
 21
151.997107
 31
0.0
  0
LINE
  5
599
330
36
100
AcDbEntity
  8
0
 62
     7
100
AcDbLine
 10
1177.47941
 20
136.997107
 30
0.0
 11
1177.47941
 21
151.997107
 31
0.0
  0
LINE
  5
59A
330
36
100
AcDbEntity
  8
0
 62
     3
100
AcDbLine
 10
1167.47941
 20
136.997107
 30
0.0
 11
1167.47941
 21
156.997107
 31
0.0
  0
CIRCLE
  5
F63
330
36
100
AcDbEntity
  8
0
100
AcDbCircle
 10
1062.019357
 20
122.526718651696
 30
0.0
 40
5.0
  0
TEXT
  5
F64
330
36
100
AcDbEntity
  8
0
 62
     4
100
AcDbText
 10
1059.714645721235
 20
119.2673999628995
 30
0.0
 40
6.299999999999998
  1
3
  7
高6.3
100
AcDbText
  0
LINE
  5
F65
330
36
100
AcDbEntity
  8
0
100
AcDbLine
 10
1153.127696
 20
4.977303000000006
 30
0.0
 11
1158.330925
 21
9.289163999999999
 31
0.0
  0
CIRCLE
  5
F66
330
36
100
AcDbEntity
  8
0
100
AcDbCircle
 10
1162.180809
 20
12.479522
 30
0.0
 40
5.0
  0
TEXT
  5
F67
330
36
100
AcDbEntity
  8
0
 62
     4
100
AcDbText
 10
1159.845570297576
 20
10.24205550161287
 30
0.0
 40
4.5
  1
11
  7
高4.5
100
AcDbText
  0
LINE
  5
F68
330
36
100
AcDbEntity
  8
0
100
AcDbLine
 10
953.0269729999996
 20
95.94100199999999
 30
0.0
 11
969.3843949999999
 21
102.267466
 31
0.0
  0
CIRCLE
  5
F69
330
36
100
AcDbEntity
  8
0
100
AcDbCircle
 10
974.0477579999996
 20
104.071087
 30
0.0
 40
5.0
  0
TEXT
  5
F6A
330
36
100
AcDbEntity
  8
0
 62
     4
100
AcDbText
 10
971.7430467212354
 20
100.8117683112035
 30
0.0
 40
6.299999999999998
  1
5
  7
高6.3
100
AcDbText
  0
LINE
  5
F6B
330
36
100
AcDbEntity
  8
0
100
AcDbLine
 10
1216.732983
 20
42.30611300000001
 30
0.0
 11
1230.748975
 21
51.54172700000001
 31
0.0
  0
CIRCLE
  5
F6C
330
36
100
AcDbEntity
  8
0
100
AcDbCircle
 10
1234.924067
 20
54.29283699999999
 30
0.0
 40
5.0
  0
TEXT
  5
F6D
330
36
100
AcDbEntity
  8
0
 62
     4
100
AcDbText
 10
1232.316482697916
 20
52.02434597857745
 30
0.0
 40
4.5
  1
10
  7
高4.5
100
AcDbText
  0
LINE
  5
F6E
330
36
100
AcDbEntity
  8
0
100
AcDbLine
 10
1216.108124
 20
101.579012
 30
0.0
 11
1230.320965
 21
107.607051
 31
0.0
  0
CIRCLE
  5
F6F
330
36
100
AcDbEntity
  8
0
100
AcDbCircle
 10
1234.924067
 20
109.559347
 30
0.0
 40
5.0
  0
TEXT
  5
F70
330
36
100
AcDbEntity
  8
0
 62
     4
100
AcDbText
 10
1232.619355721235
 20
106.3000283112035
 30
0.0
 40
6.299999999999998
  1
8
  7
高6.3
100
AcDbText
  0
LINE
  5
F71
330
36
100
AcDbEntity
  8
0
100
AcDbLine
 10
1215.924557999999
 20
89.69030600000001
 30
0.0
 11
1231.220445
 21
93.288755
 31
0.0
  0
CIRCLE
  5
F72
330
36
100
AcDbEntity
  8
0
100
AcDbCircle
 10
1236.087572
 20
94.43377599999999
 30
0.0
 40
5.0
  0
TEXT
  5
F73
330
36
100
AcDbEntity
  8
0
 62
     4
100
AcDbText
 10
1233.782860721235
 20
91.1744573112035
 30
0.0
 40
6.299999999999998
  1
9
  7
高6.3
100
AcDbText
  0
LINE
  5
F74
330
36
100
AcDbEntity
  8
0
100
AcDbLine
 10
951.5645119999996
 20
78.87918200000001
 30
0.0
 11
969.8885049999999
 21
87.60597399999998
 31
0.0
  0
CIRCLE
  5
F75
330
36
100
AcDbEntity
  8
0
100
AcDbCircle
 10
974.4027049999997
 20
89.75585899999998
 30
0.0
 40
5.0
  0
TEXT
  5
F76
330
36
100
AcDbEntity
  8
0
 62
     4
100
AcDbText
 10
972.0979937212351
 20
86.49653931120345
 30
0.0
 40
6.299999999999998
  1
6
  7
高6.3
100
AcDbText
  0
LINE
  5
F77
330
36
100
AcDbEntity
  8
0
100
AcDbLine
 10
949.805601
 20
43.89557899999998
 30
0.0
 11
969.6403339999998
 21
50.23911100000001
 31
0.0
  0
CIRCLE
  5
F78
330
36
100
AcDbEntity
  8
0
100
AcDbCircle
 10
974.4027049999997
 20
51.76220900000001
 30
0.0
 40
5.0
  0
TEXT
  5
F79
330
36
100
AcDbEntity
  8
0
 62
     4
100
AcDbText
 10
972.0979937212351
 20
48.50289031120349
 30
0.0
 40
6.299999999999998
  1
4
  7
高6.3
100
AcDbText
  0
LINE
  5
F7A
330
36
100
AcDbEntity
  8
0
100
AcDbLine
 10
908.8056009999997
 20
44.46071599999998
 30
0.0
 11
886.5197319999998
 21
52.36576300000002
 31
0.0
  0
CIRCLE
  5
F7B
330
36
100
AcDbEntity
  8
0
100
AcDbCircle
 10
881.8074039999995
 20
54.03727800000002
 30
0.0
 40
5.0
  0
TEXT
  5
F7C
330
36
100
AcDbEntity
  8
0
 62
     4
100
AcDbText
 10
879.5026927212353
 20
50.77795931120348
 30
0.0
 40
6.299999999999998
  1
7
  7
高6.3
100
AcDbText
  0
CIRCLE
  5
F7D
330
36
100
AcDbEntity
  8
0
100
AcDbCircle
 10
997.5338487261835
 20
122.6802741303692
 30
0.0
 40
5.0
  0
TEXT
  5
F7E
330
36
100
AcDbEntity
  8
0
 62
     4
100
AcDbText
 10
995.586566105225
 20
119.5699085291744
 30
0.0
 40
6.299999999999998
  1
2
  7
高6.3
100
AcDbText
  0
CIRCLE
  5
F80
330
36
100
AcDbEntity
  8
0
100
AcDbCircle
 10
974.8557278100166
 20
27.31251813815098
 30
0.0
 40
5.0
  0
TEXT
  5
F81
330
36
100
AcDbEntity
  8
0
 62
     4
100
AcDbText
 10
971.9838701296003
 20
25.22251786285233
 30
0.0
 40
4.5
  1
12
  7
高4.5
100
AcDbText
  0
CIRCLE
  5
F83
330
36
100
AcDbEntity
  8
0
100
AcDbCircle
 10
1160.146087389067
 20
123.2982834344987
 30
0.0
 40
5.0
  0
TEXT
  5
F84
330
36
100
AcDbEntity
  8
0
 62
     4
100
AcDbText
 10
1157.19105472761
 20
121.1702629484766
 30
0.0
 40
4.5
  1
13
  7
高4.5
100
AcDbText
  0
CIRCLE
  5
F87
330
36
100
AcDbEntity
  8
0
100
AcDbCircle
 10
1031.081296423882
 20
13.71633203986107
 30
0.0
 40
5.0
  0
TEXT
  5
F88
330
36
100
AcDbEntity
  8
0
 62
     4
100
AcDbText
 10
1029.983548679684
 20
10.54719302205036
 30
0.0
 40
6.299999999999998
  1
1
  7
高6.3
100
AcDbText
  0
TEXT
  5
F8A
330
36
100
AcDbEntity
  8
0
 62
     3
100
AcDbText
 10
922.0863547775046
 20
-116.558254
 30
0.0
 40
3.2
  1
　備　　　　　考　
 41
0.8
  7
高3.2
100
AcDbText
  0
TEXT
  5
F8B
330
36
100
AcDbEntity
  8
0
 62
     3
100
AcDbText
 10
956.0767949125695
 20
-116.558254
 30
0.0
 40
3.2
  1
個数
 41
0.8
  7
高3.2
100
AcDbText
  0
TEXT
  5
F8C
330
36
100
AcDbEntity
  8
0
 62
     3
100
AcDbText
 10
871.821941344792
 20
-116.558254
 30
0.0
 40
3.2
  1
部　　品　　名
 41
0.8
  7
高3.2
100
AcDbText
  0
TEXT
  5
F8D
330
36
100
AcDbEntity
  8
0
 62
     3
100
AcDbText
 10
864.9794099999997
 20
-116.558254
 30
0.0
 40
3.2
  1
No
 41
0.8
  7
高3.2
100
AcDbText
  0
TEXT
  5
F8E
330
36
100
AcDbEntity
  8
0
 62
     3
100
AcDbText
 10
864.9794099999997
 20
-101.5582539999999
 30
0.0
 40
3.2
  1
3
 41
0.8
  7
高3.2
100
AcDbText
  0
TEXT
  5
F8F
330
36
100
AcDbEntity
  8
0
 62
     3
100
AcDbText
 10
864.9794099999997
 20
-96.55825400000001
 30
0.0
 40
3.2
  1
4
 41
0.8
  7
高3.2
100
AcDbText
  0
TEXT
  5
F90
330
36
100
AcDbEntity
  8
0
 62
     3
100
AcDbText
 10
864.9794099999997
 20
-91.55825399999995
 30
0.0
 40
3.2
  1
5
 41
0.8
  7
高3.2
100
AcDbText
  0
TEXT
  5
F91
330
36
100
AcDbEntity
  8
0
 62
     3
100
AcDbText
 10
864.9794099999997
 20
-86.55825400000003
 30
0.0
 40
3.2
  1
6
 41
0.8
  7
高3.2
100
AcDbText
  0
TEXT
  5
F92
330
36
100
AcDbEntity
  8
0
 62
     3
100
AcDbText
 10
956.0767949125695
 20
-96.55825399999979
 30
0.0
 40
3.2
  1
1
 41
0.8
  7
高3.2
100
AcDbText
  0
TEXT
  5
F93
330
36
100
AcDbEntity
  8
0
 62
     3
100
AcDbText
 10
864.9794099999997
 20
-111.558254
 30
0.0
 40
3.2
  1
1
 41
0.8
  7
高3.2
100
AcDbText
  0
TEXT
  5
F94
330
36
100
AcDbEntity
  8
0
 62
     3
100
AcDbText
 10
864.9794099999997
 20
-106.558254
 30
0.0
 40
3.2
  1
2
 41
0.8
  7
高3.2
100
AcDbText
  0
TEXT
  5
F95
330
36
100
AcDbEntity
  8
0
 62
     3
100
AcDbText
 10
871.821941344792
 20
-111.558254
 30
0.0
 40
3.2
  1
シャーシ
 41
0.8
  7
高3.2
100
AcDbText
  0
TEXT
  5
F96
330
36
100
AcDbEntity
  8
0
 62
     3
100
AcDbText
 10
956.0767949125695
 20
-91.5582539999999
 30
0.0
 40
3.2
  1
1
 41
0.8
  7
高3.2
100
AcDbText
  0
TEXT
  5
F97
330
36
100
AcDbEntity
  8
0
 62
     3
100
AcDbText
 10
956.0767949125695
 20
-111.558254
 30
0.0
 40
3.2
  1
1
 41
0.8
  7
高3.2
100
AcDbText
  0
TEXT
  5
F98
330
36
100
AcDbEntity
  8
0
 62
     3
100
AcDbText
 10
909.5863547775046
 20
-111.558254
 30
0.0
 40
3.2
  1
SPCC
 41
0.8
  7
高3.2
100
AcDbText
  0
TEXT
  5
F99
330
36
100
AcDbEntity
  8
0
 62
     3
100
AcDbText
 10
909.5863547775046
 20
-91.5582539999999
 30
0.0
 40
3.2
  1
-
 41
0.8
  7
高3.2
100
AcDbText
  0
TEXT
  5
F9A
330
36
100
AcDbEntity
  8
0
 62
     3
100
AcDbText
 10
922.0863547775046
 20
-101.5582539999999
 30
0.0
 40
3.2
  1
-
 41
0.8
  7
高3.2
100
AcDbText
  0
TEXT
  5
F9B
330
36
100
AcDbEntity
  8
0
 62
     3
100
AcDbText
 10
909.5863547775046
 20
-101.5582539999999
 30
0.0
 40
3.2
  1
-
 41
0.8
  7
高3.2
100
AcDbText
  0
TEXT
  5
F9C
330
36
100
AcDbEntity
  8
0
 62
     3
100
AcDbText
 10
956.0767949125695
 20
-101.5582539999999
 30
0.0
 40
3.2
  1
1
 41
0.8
  7
高3.2
100
AcDbText
  0
TEXT
  5
F9D
330
36
100
AcDbEntity
  8
0
 62
     3
100
AcDbText
 10
871.821941344792
 20
-101.5582539999999
 30
0.0
 40
3.2
  1
取手
 41
0.8
  7
高3.2
100
AcDbText
  0
TEXT
  5
F9E
330
36
100
AcDbEntity
  8
0
 62
     3
100
AcDbText
 10
909.5863547775046
 20
-96.55825399999979
 30
0.0
 40
3.2
  1
-
 41
0.8
  7
高3.2
100
AcDbText
  0
TEXT
  5
F9F
330
36
100
AcDbEntity
  8
0
 62
     3
100
AcDbText
 10
909.5863547775046
 20
-86.55825399999987
 30
0.0
 40
3.2
  1
-
 41
0.8
  7
高3.2
100
AcDbText
  0
TEXT
  5
FA0
330
36
100
AcDbEntity
  8
0
 62
     3
100
AcDbText
 10
909.5863547775046
 20
-81.55825399999994
 30
0.0
 40
3.2
  1
-
 41
0.8
  7
高3.2
100
AcDbText
  0
TEXT
  5
FA1
330
36
100
AcDbEntity
  8
0
 62
     3
100
AcDbText
 10
922.0863547775046
 20
-76.55825399999987
 30
0.0
 40
3.2
  1
-
 41
0.8
  7
高3.2
100
AcDbText
  0
TEXT
  5
FA2
330
36
100
AcDbEntity
  8
0
 62
     3
100
AcDbText
 10
864.9794099999997
 20
-81.55825399999997
 30
0.0
 40
3.2
  1
7
 41
0.8
  7
高3.2
100
AcDbText
  0
TEXT
  5
FA3
330
36
100
AcDbEntity
  8
0
 62
     3
100
AcDbText
 10
922.0863547775046
 20
-111.558254
 30
0.0
 40
3.2
  1
白塗装
 41
0.8
  7
高3.2
100
AcDbText
  0
TEXT
  5
FA4
330
36
100
AcDbEntity
  8
0
 62
     3
100
AcDbText
 10
864.9794099999997
 20
-66.55825399999999
 30
0.0
 40
3.2
  1
10
 41
0.8
  7
高3.2
100
AcDbText
  0
TEXT
  5
FA5
330
36
100
AcDbEntity
  8
0
 62
     3
100
AcDbText
 10
864.9794099999997
 20
-71.55825400000002
 30
0.0
 40
3.2
  1
9
 41
0.8
  7
高3.2
100
AcDbText
  0
TEXT
  5
FA6
330
36
100
AcDbEntity
  8
0
 62
     3
100
AcDbText
 10
864.9794099999997
 20
-76.55825399999997
 30
0.0
 40
3.2
  1
8
 41
0.8
  7
高3.2
100
AcDbText
  0
LINE
  5
FA7
330
36
100
AcDbEntity
  8
0
100
AcDbLine
 10
870.3219413447921
 20
-117.058254
 30
0.0
 11
870.3219413447921
 21
-47.0582539999999
 31
0.0
  0
LINE
  5
FA9
330
36
100
AcDbEntity
  8
0
100
AcDbLine
 10
908.0863547775043
 20
-117.058254
 30
0.0
 11
908.0863547775043
 21
-47.0582539999999
 31
0.0
  0
LINE
  5
FAA
330
36
100
AcDbEntity
  8
0
100
AcDbLine
 10
954.5767949125698
 20
-117.058254
 30
0.0
 11
954.5767949125698
 21
-47.0582539999999
 31
0.0
  0
LINE
  5
FAB
330
36
100
AcDbEntity
  8
0
100
AcDbLine
 10
920.5863547775043
 20
-117.058254
 30
0.0
 11
920.5863547775043
 21
-47.0582539999999
 31
0.0
  0
TEXT
  5
FAC
330
36
100
AcDbEntity
  8
0
 62
     3
100
AcDbText
 10
871.821941344792
 20
-91.5582539999999
 30
0.0
 40
3.2
  1
出力電圧計
 41
0.8
  7
高3.2
100
AcDbText
  0
TEXT
  5
FAD
330
36
100
AcDbEntity
  8
0
 62
     3
100
AcDbText
 10
871.821941344792
 20
-86.55825399999987
 30
0.0
 40
3.2
  1
入力電圧レベル表示
 41
0.8
  7
高3.2
100
AcDbText
  0
TEXT
  5
FAE
330
36
100
AcDbEntity
  8
0
 62
     3
100
AcDbText
 10
871.821941344792
 20
-81.55825399999994
 30
0.0
 40
3.2
  1
出力コンセント
 41
0.8
  7
高3.2
100
AcDbText
  0
TEXT
  5
FAF
330
36
100
AcDbEntity
  8
0
 62
     3
100
AcDbText
 10
871.821941344792
 20
-61.5582539999999
 30
0.0
 40
3.2
  1
電源コード
 41
0.8
  7
高3.2
100
AcDbText
  0
TEXT
  5
FB0
330
36
100
AcDbEntity
  8
0
 62
     3
100
AcDbText
 10
956.0767949125695
 20
-86.55825399999987
 30
0.0
 40
3.2
  1
1
 41
0.8
  7
高3.2
100
AcDbText
  0
TEXT
  5
FB1
330
36
100
AcDbEntity
  8
0
 62
     3
100
AcDbText
 10
956.0767949125695
 20
-81.55825399999994
 30
0.0
 40
3.2
  1
2
 41
0.8
  7
高3.2
100
AcDbText
  0
TEXT
  5
FB2
330
36
100
AcDbEntity
  8
0
 62
     3
100
AcDbText
 10
956.0767949125695
 20
-76.55825399999987
 30
0.0
 40
3.2
  1
1
 41
0.8
  7
高3.2
100
AcDbText
  0
TEXT
  5
FB3
330
36
100
AcDbEntity
  8
0
 62
     3
100
AcDbText
 10
956.0767949125695
 20
-71.55825399999987
 30
0.0
 40
3.2
  1
1
 41
0.8
  7
高3.2
100
AcDbText
  0
TEXT
  5
FB4
330
36
100
AcDbEntity
  8
0
 62
     3
100
AcDbText
 10
956.0767949125695
 20
-66.55825399999992
 30
0.0
 40
3.2
  1
1
 41
0.8
  7
高3.2
100
AcDbText
  0
TEXT
  5
FB5
330
36
100
AcDbEntity
  8
0
 62
     3
100
AcDbText
 10
956.0767949125695
 20
-61.5582539999999
 30
0.0
 40
3.2
  1
1
 41
0.8
  7
高3.2
100
AcDbText
  0
TEXT
  5
FB6
330
36
100
AcDbEntity
  8
0
 62
     3
100
AcDbText
 10
909.5863547775046
 20
-76.55825399999987
 30
0.0
 40
3.2
  1
-
 41
0.8
  7
高3.2
100
AcDbText
  0
TEXT
  5
FB7
330
36
100
AcDbEntity
  8
0
 62
     3
100
AcDbText
 10
909.5863547775046
 20
-71.55825399999987
 30
0.0
 40
3.2
  1
-
 41
0.8
  7
高3.2
100
AcDbText
  0
TEXT
  5
FB8
330
36
100
AcDbEntity
  8
0
 62
     3
100
AcDbText
 10
909.5863547775046
 20
-66.55825399999992
 30
0.0
 40
3.2
  1
-
 41
0.8
  7
高3.2
100
AcDbText
  0
TEXT
  5
FB9
330
36
100
AcDbEntity
  8
0
 62
     3
100
AcDbText
 10
922.0863547775046
 20
-91.5582539999999
 30
0.0
 40
3.2
  1
-
 41
0.8
  7
高3.2
100
AcDbText
  0
TEXT
  5
FBA
330
36
100
AcDbEntity
  8
0
 62
     3
100
AcDbText
 10
922.0863547775046
 20
-86.55825399999987
 30
0.0
 40
3.2
  1
-
 41
0.8
  7
高3.2
100
AcDbText
  0
TEXT
  5
FBB
330
36
100
AcDbEntity
  8
0
 62
     3
100
AcDbText
 10
922.0863547775046
 20
-81.55825399999994
 30
0.0
 40
3.2
  1
AC100V%%p2%
 41
0.8
  7
高3.2
100
AcDbText
  0
TEXT
  5
FBC
330
36
100
AcDbEntity
  8
0
 62
     3
100
AcDbText
 10
909.5863547775046
 20
-116.558254
 30
0.0
 40
3.2
  1
材　質
 41
0.8
  7
高3.2
100
AcDbText
  0
TEXT
  5
FBD
330
36
100
AcDbEntity
  8
0
 62
     3
100
AcDbText
 10
871.821941344792
 20
-96.55825399999979
 30
0.0
 40
3.2
  1
電源スイッチ
 41
0.8
  7
高3.2
100
AcDbText
  0
TEXT
  5
FBE
330
36
100
AcDbEntity
  8
0
 62
     3
100
AcDbText
 10
871.821941344792
 20
-76.55825399999987
 30
0.0
 40
3.2
  1
出力電圧微調整ダイヤル
 41
0.8
  7
高3.2
100
AcDbText
  0
TEXT
  5
FBF
330
36
100
AcDbEntity
  8
0
 62
     3
100
AcDbText
 10
871.821941344792
 20
-71.55825399999987
 30
0.0
 40
3.2
  1
入力周波数切替スイッチ
 41
0.8
  7
高3.2
100
AcDbText
  0
TEXT
  5
FC0
330
36
100
AcDbEntity
  8
0
 62
     3
100
AcDbText
 10
871.821941344792
 20
-66.55825399999992
 30
0.0
 40
3.2
  1
出力端子
 41
0.8
  7
高3.2
100
AcDbText
  0
TEXT
  5
FC1
330
36
100
AcDbEntity
  8
0
 62
     3
100
AcDbText
 10
922.0863547775046
 20
-71.55825399999987
 30
0.0
 40
3.2
  1
50/60Hz
 41
0.8
  7
高3.2
100
AcDbText
  0
TEXT
  5
FC2
330
36
100
AcDbEntity
  8
0
 62
     3
100
AcDbText
 10
922.0863547775046
 20
-66.55825399999992
 30
0.0
 40
3.2
  1
-
 41
0.8
  7
高3.2
100
AcDbText
  0
TEXT
  5
FC3
330
36
100
AcDbEntity
  8
0
 62
     3
100
AcDbText
 10
909.5863547775046
 20
-61.5582539999999
 30
0.0
 40
3.2
  1
VFT
 41
0.8
  7
高3.2
100
AcDbText
  0
TEXT
  5
FC4
330
36
100
AcDbEntity
  8
0
 62
     3
100
AcDbText
 10
922.0863547775046
 20
-61.5582539999999
 30
0.0
 40
3.2
  1
2.0sqx3芯x1.5m
 41
0.8
  7
高3.2
100
AcDbText
  0
TEXT
  5
FC5
330
36
100
AcDbEntity
  8
0
 62
     3
100
AcDbText
 10
922.0863547775046
 20
-96.55825399999979
 30
0.0
 40
3.2
  1
安全ブレーカー20A
 41
0.8
  7
高3.2
100
AcDbText
  0
LINE
  5
FC6
330
36
100
AcDbEntity
  8
0
100
AcDbLine
 10
863.4794099999997
 20
-102.0582539999999
 30
0.0
 11
978.6337435540527
 21
-102.0582539999999
 31
0.0
  0
LINE
  5
FC7
330
36
100
AcDbEntity
  8
0
100
AcDbLine
 10
863.4794099999997
 20
-97.0582539999998
 30
0.0
 11
978.6337435540527
 21
-97.0582539999998
 31
0.0
  0
LINE
  5
FC8
330
36
100
AcDbEntity
  8
0
100
AcDbLine
 10
863.4794099999997
 20
-92.05825399999993
 30
0.0
 11
978.6337435540527
 21
-92.05825399999993
 31
0.0
  0
LINE
  5
FC9
330
36
100
AcDbEntity
  8
0
100
AcDbLine
 10
863.4794099999997
 20
-87.05825399999985
 30
0.0
 11
978.6337435540527
 21
-87.05825399999985
 31
0.0
  0
LINE
  5
FCA
330
36
100
AcDbEntity
  8
0
100
AcDbLine
 10
863.4794099999997
 20
-82.05825399999991
 30
0.0
 11
978.6337435540527
 21
-82.05825399999991
 31
0.0
  0
LINE
  5
FCB
330
36
100
AcDbEntity
  8
0
 62
     3
100
AcDbLine
 10
863.4794099999997
 20
-112.058254
 30
0.0
 11
978.6337435540527
 21
-112.058254
 31
0.0
  0
LINE
  5
FCC
330
36
100
AcDbEntity
  8
0
100
AcDbLine
 10
863.4794099999997
 20
-77.05825399999987
 30
0.0
 11
978.6337435540527
 21
-77.05825399999987
 31
0.0
  0
LINE
  5
FCD
330
36
100
AcDbEntity
  8
0
 62
     7
100
AcDbLine
 10
863.4794099999997
 20
-57.05825399999991
 30
0.0
 11
978.6337435540527
 21
-57.0582539999999
 31
0.0
  0
LINE
  5
FCE
330
36
100
AcDbEntity
  8
0
100
AcDbLine
 10
863.4794099999997
 20
-62.0582539999999
 30
0.0
 11
978.6337435540527
 21
-62.0582539999999
 31
0.0
  0
LINE
  5
FCF
330
36
100
AcDbEntity
  8
0
100
AcDbLine
 10
863.4794099999997
 20
-67.05825399999992
 30
0.0
 11
978.6337435540527
 21
-67.05825399999992
 31
0.0
  0
LINE
  5
FD0
330
36
100
AcDbEntity
  8
0
100
AcDbLine
 10
863.4794099999997
 20
-72.05825399999987
 30
0.0
 11
978.6337435540527
 21
-72.05825399999987
 31
0.0
  0
TEXT
  5
FD1
330
36
100
AcDbEntity
  8
0
 62
     3
100
AcDbText
 10
965.1422980767108
 20
-116.558254
 30
0.0
 40
3.2
  1
コード
 41
0.8
  7
高3.2
100
AcDbText
  0
TEXT
  5
FD2
330
36
100
AcDbEntity
  8
0
 62
     3
100
AcDbText
 10
965.1422980767108
 20
-96.55825399999979
 30
0.0
 40
3.2
  1
51763
 41
0.8
  7
高3.2
100
AcDbText
  0
TEXT
  5
FD3
330
36
100
AcDbEntity
  8
0
 62
     3
100
AcDbText
 10
965.1422980767108
 20
-91.5582539999999
 30
0.0
 40
3.2
  1
55310
 41
0.8
  7
高3.2
100
AcDbText
  0
TEXT
  5
FD4
330
36
100
AcDbEntity
  8
0
 62
     3
100
AcDbText
 10
965.1422980767108
 20
-111.558254
 30
0.0
 40
3.2
  1
56196
 41
0.8
  7
高3.2
100
AcDbText
  0
TEXT
  5
FD5
330
36
100
AcDbEntity
  8
0
 62
     3
100
AcDbText
 10
965.1422980767108
 20
-101.5582539999999
 30
0.0
 40
3.2
  1
55309
 41
0.8
  7
高3.2
100
AcDbText
  0
LINE
  5
FD6
330
36
100
AcDbEntity
  8
0
100
AcDbLine
 10
963.6422980767108
 20
-117.058254
 30
0.0
 11
963.6422980767108
 21
-47.0582539999999
 31
0.0
  0
TEXT
  5
FD7
330
36
100
AcDbEntity
  8
0
 62
     3
100
AcDbText
 10
965.1422980767108
 20
-86.55825399999987
 30
0.0
 40
3.2
  1
-
 41
0.8
  7
高3.2
100
AcDbText
  0
TEXT
  5
FD8
330
36
100
AcDbEntity
  8
0
 62
     3
100
AcDbText
 10
965.1422980767108
 20
-81.55825399999994
 30
0.0
 40
3.2
  1
51427
 41
0.8
  7
高3.2
100
AcDbText
  0
TEXT
  5
FD9
330
36
100
AcDbEntity
  8
0
 62
     3
100
AcDbText
 10
965.1422980767108
 20
-76.55825399999987
 30
0.0
 40
3.2
  1
55311
 41
0.8
  7
高3.2
100
AcDbText
  0
TEXT
  5
FDA
330
36
100
AcDbEntity
  8
0
 62
     3
100
AcDbText
 10
965.1422980767108
 20
-71.55825399999987
 30
0.0
 40
3.2
  1
55313
 41
0.8
  7
高3.2
100
AcDbText
  0
TEXT
  5
FDB
330
36
100
AcDbEntity
  8
0
 62
     3
100
AcDbText
 10
965.1422980767108
 20
-66.55825399999992
 30
0.0
 40
3.2
  1
55312
 41
0.8
  7
高3.2
100
AcDbText
  0
TEXT
  5
FDC
330
36
100
AcDbEntity
  8
0
 62
     3
100
AcDbText
 10
965.1422980767108
 20
-61.5582539999999
 30
0.0
 40
3.2
  1
57995
 41
0.8
  7
高3.2
100
AcDbText
  0
TEXT
  5
FDD
330
36
100
AcDbEntity
  8
0
 62
     3
100
AcDbText
 10
864.9794099999997
 20
-61.55825399999996
 30
0.0
 40
3.2
  1
11
 41
0.8
  7
高3.2
100
AcDbText
  0
TEXT
  5
FDE
330
36
100
AcDbEntity
  8
0
 62
     3
100
AcDbText
 10
871.821941344792
 20
-56.55825399999987
 30
0.0
 40
3.2
  1
フロントパネル
 41
0.8
  7
高3.2
100
AcDbText
  0
TEXT
  5
FDF
330
36
100
AcDbEntity
  8
0
 62
     3
100
AcDbText
 10
956.0767949125695
 20
-56.55825399999987
 30
0.0
 40
3.2
  1
1
 41
0.8
  7
高3.2
100
AcDbText
  0
TEXT
  5
FE0
330
36
100
AcDbEntity
  8
0
 62
     3
100
AcDbText
 10
909.5863547775046
 20
-56.55825399999987
 30
0.0
 40
3.2
  1
SPCC
 41
0.8
  7
高3.2
100
AcDbText
  0
TEXT
  5
FE1
330
36
100
AcDbEntity
  8
0
 62
     3
100
AcDbText
 10
922.0863547775046
 20
-56.55825399999987
 30
0.0
 40
3.2
  1
塗装
 41
0.8
  7
高3.2
100
AcDbText
  0
LINE
  5
FE2
330
36
100
AcDbEntity
  8
0
 62
     7
100
AcDbLine
 10
863.4794099999997
 20
-52.0582539999999
 30
0.0
 11
978.6337435540527
 21
-52.0582539999999
 31
0.0
  0
TEXT
  5
FE3
330
36
100
AcDbEntity
  8
0
 62
     3
100
AcDbText
 10
965.1422980767108
 20
-56.55825399999987
 30
0.0
 40
3.2
  1
57996
 41
0.8
  7
高3.2
100
AcDbText
  0
TEXT
  5
FE4
330
36
100
AcDbEntity
  8
0
 62
     3
100
AcDbText
 10
864.9794099999997
 20
-56.55825399999997
 30
0.0
 40
3.2
  1
12
 41
0.8
  7
高3.2
100
AcDbText
  0
TEXT
  5
FE5
330
36
100
AcDbEntity
  8
0
 62
     3
100
AcDbText
 10
871.821941344792
 20
-51.55825399999987
 30
0.0
 40
3.2
  1
バックパネル
 41
0.8
  7
高3.2
100
AcDbText
  0
TEXT
  5
FE6
330
36
100
AcDbEntity
  8
0
 62
     3
100
AcDbText
 10
956.0767949125695
 20
-51.55825399999987
 30
0.0
 40
3.2
  1
1
 41
0.8
  7
高3.2
100
AcDbText
  0
TEXT
  5
FE7
330
36
100
AcDbEntity
  8
0
 62
     3
100
AcDbText
 10
909.5863547775046
 20
-51.55825399999987
 30
0.0
 40
3.2
  1
SPCC
 41
0.8
  7
高3.2
100
AcDbText
  0
TEXT
  5
FE8
330
36
100
AcDbEntity
  8
0
 62
     3
100
AcDbText
 10
922.0863547775046
 20
-51.55825399999987
 30
0.0
 40
3.2
  1
塗装
 41
0.8
  7
高3.2
100
AcDbText
  0
LINE
  5
FE9
330
36
100
AcDbEntity
  8
0
 62
     3
100
AcDbLine
 10
863.4794099999997
 20
-47.0582539999999
 30
0.0
 11
978.6337435540527
 21
-47.0582539999999
 31
0.0
  0
TEXT
  5
FEA
330
36
100
AcDbEntity
  8
0
 62
     3
100
AcDbText
 10
965.1422980767108
 20
-51.55825399999987
 30
0.0
 40
3.2
  1
55308
 41
0.8
  7
高3.2
100
AcDbText
  0
LINE
  5
FF0
330
36
100
AcDbEntity
  8
0
 62
     3
100
AcDbLine
 10
978.6337435540527
 20
-117.058254
 30
0.0
 11
978.6337435540527
 21
-47.0582539999999
 31
0.0
  0
TEXT
  5
FF9
330
36
100
AcDbEntity
  8
0
 62
     3
100
AcDbText
 10
871.821941344792
 20
-106.5582539999999
 30
0.0
 40
3.2
  1
上カバー
 41
0.8
  7
高3.2
100
AcDbText
  0
TEXT
  5
FFA
330
36
100
AcDbEntity
  8
0
 62
     3
100
AcDbText
 10
956.0767949125695
 20
-106.5582539999999
 30
0.0
 40
3.2
  1
1
 41
0.8
  7
高3.2
100
AcDbText
  0
TEXT
  5
FFB
330
36
100
AcDbEntity
  8
0
 62
     3
100
AcDbText
 10
909.5863547775046
 20
-106.5582539999999
 30
0.0
 40
3.2
  1
SPCC
 41
0.8
  7
高3.2
100
AcDbText
  0
TEXT
  5
FFC
330
36
100
AcDbEntity
  8
0
 62
     3
100
AcDbText
 10
922.0863547775046
 20
-106.5582539999999
 30
0.0
 40
3.2
  1
白塗装
 41
0.8
  7
高3.2
100
AcDbText
  0
TEXT
  5
FFD
330
36
100
AcDbEntity
  8
0
 62
     3
100
AcDbText
 10
965.1422980767108
 20
-106.5582539999999
 30
0.0
 40
3.2
  1
55306
 41
0.8
  7
高3.2
100
AcDbText
  0
LINE
  5
FFF
330
36
100
AcDbEntity
  8
0
100
AcDbLine
 10
863.4794099999997
 20
-107.058254
 30
0.0
 11
978.6337435540527
 21
-107.058254
 31
0.0
  0
TEXT
  5
1000
330
36
100
AcDbEntity
  8
0
 62
     3
100
AcDbText
 10
864.9794099999997
 20
-51.55825399999994
 30
0.0
 40
3.2
  1
13
 41
0.8
  7
高3.2
100
AcDbText
  0
LINE
  5
10F7
330
36
100
AcDbEntity
  8
0
100
AcDbLine
 10
906.741517
 20
44.62425699999999
 30
0.0
 11
908.805601
 21
44.46071599999998
 31
0.0
  0
LINE
  5
10F8
330
36
100
AcDbEntity
  8
0
100
AcDbLine
 10
908.805601
 20
44.46071599999998
 30
0.0
 11
907.0998219999999
 21
45.634388
 31
0.0
  0
LINE
  5
10F9
330
36
100
AcDbEntity
  8
0
100
AcDbLine
 10
951.5473040000001
 20
45.015248
 30
0.0
 11
949.805601
 21
43.89557899999998
 31
0.0
  0
LINE
  5
10FA
330
36
100
AcDbEntity
  8
0
100
AcDbLine
 10
949.805601
 20
43.89557899999998
 30
0.0
 11
951.8737939999999
 21
43.99438899999998
 31
0.0
  0
LINE
  5
10FB
330
36
100
AcDbEntity
  8
0
100
AcDbLine
 10
953.1397679999999
 20
80.222966
 30
0.0
 11
951.564512
 21
78.879182
 31
0.0
  0
LINE
  5
10FC
330
36
100
AcDbEntity
  8
0
100
AcDbLine
 10
951.564512
 20
78.879182
 30
0.0
 11
953.6006159999999
 21
79.255306
 31
0.0
  0
LINE
  5
10FD
330
36
100
AcDbEntity
  8
0
100
AcDbLine
 10
1217.748686
 20
90.669971
 30
0.0
 11
1215.924558
 21
89.69030600000001
 31
0.0
  0
LINE
  5
10FE
330
36
100
AcDbEntity
  8
0
100
AcDbLine
 10
1215.924558
 20
89.69030600000001
 30
0.0
 11
1217.994132
 21
89.626657
 31
0.0
  0
LINE
  5
10FF
330
36
100
AcDbEntity
  8
0
100
AcDbLine
 10
1217.740118
 20
102.853289
 30
0.0
 11
1216.108124
 21
101.579012
 31
0.0
  0
LINE
  5
1100
330
36
100
AcDbEntity
  8
0
100
AcDbLine
 10
1216.108124
 20
101.579012
 30
0.0
 11
1218.158611
 21
101.866572
 31
0.0
  0
LINE
  5
1101
330
36
100
AcDbEntity
  8
0
100
AcDbLine
 10
1218.108157
 20
43.85404199999999
 30
0.0
 11
1216.732983
 21
42.306113
 31
0.0
  0
LINE
  5
1102
330
36
100
AcDbEntity
  8
0
100
AcDbLine
 10
1216.732983
 20
42.306113
 30
0.0
 11
1218.697883
 21
42.959072
 31
0.0
  0
LINE
  5
1103
330
36
100
AcDbEntity
  8
0
100
AcDbLine
 10
1170.456991
 20
6.26895
 30
0.0
 11
1169.890389
 21
5.717117
 31
0.0
  0
LINE
  5
1104
330
36
100
AcDbEntity
  8
0
100
AcDbLine
 10
1169.890389
 20
5.717117
 30
0.0
 11
1169.639773
 21
5.133826999999998
 31
0.0
  0
LINE
  5
1105
330
36
100
AcDbEntity
  8
0
100
AcDbLine
 10
1169.639773
 20
5.133826999999998
 30
0.0
 11
1170.208313
 21
4.096878
 31
0.0
  0
LINE
  5
1106
330
36
100
AcDbEntity
  8
0
100
AcDbLine
 10
1170.208313
 20
4.096878
 30
0.0
 11
1170.71368
 21
3.125753
 31
0.0
  0
LINE
  5
1107
330
36
100
AcDbEntity
  8
0
100
AcDbLine
 10
1170.71368
 20
3.125753
 30
0.0
 11
1170.342027
 21
2.628105
 31
0.0
  0
LINE
  5
1108
330
36
100
AcDbEntity
  8
0
100
AcDbLine
 10
1170.342027
 20
2.628105
 30
0.0
 11
1169.60513
 21
2.190958999999998
 31
0.0
  0
LINE
  5
1109
330
36
100
AcDbEntity
  8
0
100
AcDbLine
 10
1163.986185
 20
6.503905999999997
 30
0.0
 11
1163.419583
 21
5.952073999999997
 31
0.0
  0
LINE
  5
110A
330
36
100
AcDbEntity
  8
0
100
AcDbLine
 10
1163.419583
 20
5.952073999999997
 30
0.0
 11
1163.168967
 21
5.368783
 31
0.0
  0
LINE
  5
110B
330
36
100
AcDbEntity
  8
0
100
AcDbLine
 10
1163.168967
 20
5.368783
 30
0.0
 11
1163.737507
 21
4.331834999999998
 31
0.0
  0
LINE
  5
110C
330
36
100
AcDbEntity
  8
0
100
AcDbLine
 10
1163.737507
 20
4.331834999999998
 30
0.0
 11
1164.242874
 21
3.360708999999998
 31
0.0
  0
LINE
  5
110D
330
36
100
AcDbEntity
  8
0
100
AcDbLine
 10
1164.242874
 20
3.360708999999998
 30
0.0
 11
1163.871221
 21
2.863061
 31
0.0
  0
LINE
  5
110E
330
36
100
AcDbEntity
  8
0
100
AcDbLine
 10
1163.871221
 20
2.863061
 30
0.0
 11
1163.134325
 21
2.425915999999999
 31
0.0
  0
LINE
  5
110F
330
36
100
AcDbEntity
  8
0
100
AcDbLine
 10
897.581307
 20
102.514372
 30
0.0
 11
897.5881449999999
 21
102.413616
 31
0.0
  0
LINE
  5
1110
330
36
100
AcDbEntity
  8
0
100
AcDbLine
 10
897.5881449999999
 20
102.413616
 30
0.0
 11
897.610461
 21
102.313485
 31
0.0
  0
LINE
  5
1111
330
36
100
AcDbEntity
  8
0
100
AcDbLine
 10
897.610461
 20
102.313485
 30
0.0
 11
897.6480849999997
 21
102.214739
 31
0.0
  0
LINE
  5
1112
330
36
100
AcDbEntity
  8
0
100
AcDbLine
 10
897.6480849999997
 20
102.214739
 30
0.0
 11
897.7007310000001
 21
102.11813
 31
0.0
  0
LINE
  5
1113
330
36
100
AcDbEntity
  8
0
100
AcDbLine
 10
897.7007310000001
 20
102.11813
 30
0.0
 11
897.7679980000001
 21
102.024394
 31
0.0
  0
LINE
  5
1114
330
36
100
AcDbEntity
  8
0
100
AcDbLine
 10
897.7679980000001
 20
102.024394
 30
0.0
 11
897.849375
 21
101.934244
 31
0.0
  0
LINE
  5
1115
330
36
100
AcDbEntity
  8
0
100
AcDbLine
 10
897.849375
 20
101.934244
 30
0.0
 11
897.944241
 21
101.848366
 31
0.0
  0
LINE
  5
1116
330
36
100
AcDbEntity
  8
0
100
AcDbLine
 10
897.944241
 20
101.848366
 30
0.0
 11
898.051876
 21
101.767414
 31
0.0
  0
LINE
  5
1117
330
36
100
AcDbEntity
  8
0
100
AcDbLine
 10
898.051876
 20
101.767414
 30
0.0
 11
898.1714590000001
 21
101.692004
 31
0.0
  0
LINE
  5
1118
330
36
100
AcDbEntity
  8
0
100
AcDbLine
 10
898.1714590000001
 20
101.692004
 30
0.0
 11
898.3020810000001
 21
101.622709
 31
0.0
  0
LINE
  5
1119
330
36
100
AcDbEntity
  8
0
100
AcDbLine
 10
898.3020810000001
 20
101.622709
 30
0.0
 11
898.442748
 21
101.560057
 31
0.0
  0
LINE
  5
111A
330
36
100
AcDbEntity
  8
0
100
AcDbLine
 10
898.442748
 20
101.560057
 30
0.0
 11
898.5923879999997
 21
101.504525
 31
0.0
  0
LINE
  5
111B
330
36
100
AcDbEntity
  8
0
100
AcDbLine
 10
898.5923879999997
 20
101.504525
 30
0.0
 11
898.7498640000001
 21
101.456536
 31
0.0
  0
LINE
  5
111C
330
36
100
AcDbEntity
  8
0
100
AcDbLine
 10
898.7498640000001
 20
101.456536
 30
0.0
 11
898.9139759999996
 21
101.416455
 31
0.0
  0
LINE
  5
111D
330
36
100
AcDbEntity
  8
0
100
AcDbLine
 10
898.9139759999996
 20
101.416455
 30
0.0
 11
899.0834769999999
 21
101.384586
 31
0.0
  0
LINE
  5
111E
330
36
100
AcDbEntity
  8
0
100
AcDbLine
 10
899.0834769999999
 20
101.384586
 30
0.0
 11
899.257075
 21
101.361173
 31
0.0
  0
LINE
  5
111F
330
36
100
AcDbEntity
  8
0
100
AcDbLine
 10
899.257075
 20
101.361173
 30
0.0
 11
899.4334489999996
 21
101.346393
 31
0.0
  0
LINE
  5
1120
330
36
100
AcDbEntity
  8
0
100
AcDbLine
 10
899.4334489999996
 20
101.346393
 30
0.0
 11
899.611258
 21
101.340359
 31
0.0
  0
LINE
  5
1121
330
36
100
AcDbEntity
  8
0
100
AcDbLine
 10
899.611258
 20
101.340359
 30
0.0
 11
899.789147
 21
101.343117
 31
0.0
  0
LINE
  5
1122
330
36
100
AcDbEntity
  8
0
100
AcDbLine
 10
899.789147
 20
101.343117
 30
0.0
 11
899.965764
 21
101.354646
 31
0.0
  0
LINE
  5
1123
330
36
100
AcDbEntity
  8
0
100
AcDbLine
 10
899.965764
 20
101.354646
 30
0.0
 11
900.139764
 21
101.374858
 31
0.0
  0
LINE
  5
1124
330
36
100
AcDbEntity
  8
0
100
AcDbLine
 10
900.139764
 20
101.374858
 30
0.0
 11
900.309822
 21
101.4036
 31
0.0
  0
LINE
  5
1125
330
36
100
AcDbEntity
  8
0
100
AcDbLine
 10
900.309822
 20
101.4036
 30
0.0
 11
900.4746449999997
 21
101.440652
 31
0.0
  0
LINE
  5
1126
330
36
100
AcDbEntity
  8
0
100
AcDbLine
 10
900.4746449999997
 20
101.440652
 30
0.0
 11
900.6329779999999
 21
101.485733
 31
0.0
  0
LINE
  5
1127
330
36
100
AcDbEntity
  8
0
100
AcDbLine
 10
900.6329779999999
 20
101.485733
 30
0.0
 11
900.783616
 21
101.538499
 31
0.0
  0
LINE
  5
1128
330
36
100
AcDbEntity
  8
0
100
AcDbLine
 10
900.783616
 20
101.538499
 30
0.0
 11
900.9254120000001
 21
101.598549
 31
0.0
  0
LINE
  5
1129
330
36
100
AcDbEntity
  8
0
100
AcDbLine
 10
900.9254120000001
 20
101.598549
 30
0.0
 11
901.057289
 21
101.665426
 31
0.0
  0
LINE
  5
112A
330
36
100
AcDbEntity
  8
0
100
AcDbLine
 10
901.057289
 20
101.665426
 30
0.0
 11
901.1782399999999
 21
101.738622
 31
0.0
  0
LINE
  5
112B
330
36
100
AcDbEntity
  8
0
100
AcDbLine
 10
901.1782399999999
 20
101.738622
 30
0.0
 11
901.2873479999999
 21
101.817578
 31
0.0
  0
LINE
  5
112C
330
36
100
AcDbEntity
  8
0
100
AcDbLine
 10
901.2873479999999
 20
101.817578
 30
0.0
 11
901.3837800000001
 21
101.901694
 31
0.0
  0
LINE
  5
112D
330
36
100
AcDbEntity
  8
0
100
AcDbLine
 10
901.3837800000001
 20
101.901694
 30
0.0
 11
901.4668030000001
 21
101.99033
 31
0.0
  0
LINE
  5
112E
330
36
100
AcDbEntity
  8
0
100
AcDbLine
 10
901.4668030000001
 20
101.99033
 30
0.0
 11
901.535785
 21
102.082811
 31
0.0
  0
LINE
  5
112F
330
36
100
AcDbEntity
  8
0
100
AcDbLine
 10
901.535785
 20
102.082811
 30
0.0
 11
901.5902009999999
 21
102.178434
 31
0.0
  0
LINE
  5
1130
330
36
100
AcDbEntity
  8
0
100
AcDbLine
 10
901.5902009999999
 20
102.178434
 30
0.0
 11
901.6296379999999
 21
102.27647
 31
0.0
  0
LINE
  5
1131
330
36
100
AcDbEntity
  8
0
100
AcDbLine
 10
901.6296379999999
 20
102.27647
 30
0.0
 11
901.6537939999999
 21
102.376174
 31
0.0
  0
LINE
  5
1132
330
36
100
AcDbEntity
  8
0
100
AcDbLine
 10
901.6537939999999
 20
102.376174
 30
0.0
 11
901.662486
 21
102.476786
 31
0.0
  0
LINE
  5
1133
330
36
100
AcDbEntity
  8
0
100
AcDbLine
 10
901.662486
 20
102.476786
 30
0.0
 11
901.655648
 21
102.577542
 31
0.0
  0
LINE
  5
1134
330
36
100
AcDbEntity
  8
0
100
AcDbLine
 10
901.655648
 20
102.577542
 30
0.0
 11
901.633333
 21
102.677674
 31
0.0
  0
LINE
  5
1135
330
36
100
AcDbEntity
  8
0
100
AcDbLine
 10
901.633333
 20
102.677674
 30
0.0
 11
901.5957079999999
 21
102.77642
 31
0.0
  0
LINE
  5
1136
330
36
100
AcDbEntity
  8
0
100
AcDbLine
 10
901.5957079999999
 20
102.77642
 30
0.0
 11
901.543062
 21
102.873028
 31
0.0
  0
LINE
  5
1137
330
36
100
AcDbEntity
  8
0
100
AcDbLine
 10
901.543062
 20
102.873028
 30
0.0
 11
901.4757949999999
 21
102.966764
 31
0.0
  0
LINE
  5
1138
330
36
100
AcDbEntity
  8
0
100
AcDbLine
 10
901.4757949999999
 20
102.966764
 30
0.0
 11
901.394419
 21
103.056914
 31
0.0
  0
LINE
  5
1139
330
36
100
AcDbEntity
  8
0
100
AcDbLine
 10
901.394419
 20
103.056914
 30
0.0
 11
901.299552
 21
103.142792
 31
0.0
  0
LINE
  5
113A
330
36
100
AcDbEntity
  8
0
100
AcDbLine
 10
901.299552
 20
103.142792
 30
0.0
 11
901.1919179999999
 21
103.223744
 31
0.0
  0
LINE
  5
113B
330
36
100
AcDbEntity
  8
0
100
AcDbLine
 10
901.1919179999999
 20
103.223744
 30
0.0
 11
901.072334
 21
103.299155
 31
0.0
  0
LINE
  5
113C
330
36
100
AcDbEntity
  8
0
100
AcDbLine
 10
901.072334
 20
103.299155
 30
0.0
 11
900.941712
 21
103.36845
 31
0.0
  0
LINE
  5
113D
330
36
100
AcDbEntity
  8
0
100
AcDbLine
 10
900.941712
 20
103.36845
 30
0.0
 11
900.8010460000001
 21
103.431101
 31
0.0
  0
LINE
  5
113E
330
36
100
AcDbEntity
  8
0
100
AcDbLine
 10
900.8010460000001
 20
103.431101
 30
0.0
 11
900.6514050000001
 21
103.486633
 31
0.0
  0
LINE
  5
113F
330
36
100
AcDbEntity
  8
0
100
AcDbLine
 10
900.6514050000001
 20
103.486633
 30
0.0
 11
900.4939289999999
 21
103.534622
 31
0.0
  0
LINE
  5
1140
330
36
100
AcDbEntity
  8
0
100
AcDbLine
 10
900.4939289999999
 20
103.534622
 30
0.0
 11
900.329817
 21
103.574704
 31
0.0
  0
LINE
  5
1141
330
36
100
AcDbEntity
  8
0
100
AcDbLine
 10
900.329817
 20
103.574704
 30
0.0
 11
900.1603169999999
 21
103.606572
 31
0.0
  0
LINE
  5
1142
330
36
100
AcDbEntity
  8
0
100
AcDbLine
 10
900.1603169999999
 20
103.606572
 30
0.0
 11
899.9867189999999
 21
103.629986
 31
0.0
  0
LINE
  5
1143
330
36
100
AcDbEntity
  8
0
100
AcDbLine
 10
899.9867189999999
 20
103.629986
 30
0.0
 11
899.8103439999999
 21
103.644766
 31
0.0
  0
LINE
  5
1144
330
36
100
AcDbEntity
  8
0
100
AcDbLine
 10
899.8103439999999
 20
103.644766
 30
0.0
 11
899.632536
 21
103.6508
 31
0.0
  0
LINE
  5
1145
330
36
100
AcDbEntity
  8
0
100
AcDbLine
 10
899.632536
 20
103.6508
 30
0.0
 11
899.4546460000002
 21
103.648042
 31
0.0
  0
LINE
  5
1146
330
36
100
AcDbEntity
  8
0
100
AcDbLine
 10
899.4546460000002
 20
103.648042
 30
0.0
 11
899.2780289999997
 21
103.636513
 31
0.0
  0
LINE
  5
1147
330
36
100
AcDbEntity
  8
0
100
AcDbLine
 10
899.2780289999997
 20
103.636513
 30
0.0
 11
899.1040300000001
 21
103.6163
 31
0.0
  0
LINE
  5
1148
330
36
100
AcDbEntity
  8
0
100
AcDbLine
 10
899.1040300000001
 20
103.6163
 30
0.0
 11
898.9339710000001
 21
103.587559
 31
0.0
  0
LINE
  5
1149
330
36
100
AcDbEntity
  8
0
100
AcDbLine
 10
898.9339710000001
 20
103.587559
 30
0.0
 11
898.769148
 21
103.550507
 31
0.0
  0
LINE
  5
114A
330
36
100
AcDbEntity
  8
0
100
AcDbLine
 10
898.769148
 20
103.550507
 30
0.0
 11
898.6108149999999
 21
103.505426
 31
0.0
  0
LINE
  5
114B
330
36
100
AcDbEntity
  8
0
100
AcDbLine
 10
898.6108149999999
 20
103.505426
 30
0.0
 11
898.4601769999997
 21
103.452659
 31
0.0
  0
LINE
  5
114C
330
36
100
AcDbEntity
  8
0
100
AcDbLine
 10
898.4601769999997
 20
103.452659
 30
0.0
 11
898.3183809999998
 21
103.392609
 31
0.0
  0
LINE
  5
114D
330
36
100
AcDbEntity
  8
0
100
AcDbLine
 10
898.3183809999998
 20
103.392609
 30
0.0
 11
898.1865050000001
 21
103.325732
 31
0.0
  0
LINE
  5
114E
330
36
100
AcDbEntity
  8
0
100
AcDbLine
 10
898.1865050000001
 20
103.325732
 30
0.0
 11
898.0655529999996
 21
103.252537
 31
0.0
  0
LINE
  5
114F
330
36
100
AcDbEntity
  8
0
100
AcDbLine
 10
898.0655529999996
 20
103.252537
 30
0.0
 11
897.9564460000002
 21
103.173581
 31
0.0
  0
LINE
  5
1150
330
36
100
AcDbEntity
  8
0
100
AcDbLine
 10
897.9564460000002
 20
103.173581
 30
0.0
 11
897.8600140000002
 21
103.089464
 31
0.0
  0
LINE
  5
1151
330
36
100
AcDbEntity
  8
0
100
AcDbLine
 10
897.8600140000002
 20
103.089464
 30
0.0
 11
897.7769910000002
 21
103.000829
 31
0.0
  0
LINE
  5
1152
330
36
100
AcDbEntity
  8
0
100
AcDbLine
 10
897.7769910000002
 20
103.000829
 30
0.0
 11
897.708008
 21
102.908347
 31
0.0
  0
LINE
  5
1153
330
36
100
AcDbEntity
  8
0
100
AcDbLine
 10
897.708008
 20
102.908347
 30
0.0
 11
897.6535919999999
 21
102.812725
 31
0.0
  0
LINE
  5
1154
330
36
100
AcDbEntity
  8
0
100
AcDbLine
 10
897.6535919999999
 20
102.812725
 30
0.0
 11
897.614156
 21
102.714688
 31
0.0
  0
LINE
  5
1155
330
36
100
AcDbEntity
  8
0
100
AcDbLine
 10
897.614156
 20
102.714688
 30
0.0
 11
897.589999
 21
102.614985
 31
0.0
  0
LINE
  5
1156
330
36
100
AcDbEntity
  8
0
100
AcDbLine
 10
897.589999
 20
102.614985
 30
0.0
 11
897.581307
 21
102.514372
 31
0.0
  0
LINE
  5
1157
330
36
100
AcDbEntity
  8
0
100
AcDbLine
 10
915.630304
 20
42.142574
 30
0.0
 11
915.0173329999999
 21
43.022016
 31
0.0
  0
LINE
  5
1158
330
36
100
AcDbEntity
  8
0
100
AcDbLine
 10
915.0173329999999
 20
43.022016
 30
0.0
 11
914.404363
 21
43.421763
 31
0.0
  0
LINE
  5
1159
330
36
100
AcDbEntity
  8
0
100
AcDbLine
 10
914.404363
 20
43.421763
 30
0.0
 11
913.791392
 21
43.022016
 31
0.0
  0
LINE
  5
115A
330
36
100
AcDbEntity
  8
0
100
AcDbLine
 10
913.791392
 20
43.022016
 30
0.0
 11
913.178422
 21
42.142574
 31
0.0
  0
LINE
  5
115B
330
36
100
AcDbEntity
  8
0
100
AcDbLine
 10
915.630304
 20
59.34257399999999
 30
0.0
 11
915.0173329999999
 21
60.222016
 31
0.0
  0
LINE
  5
115C
330
36
100
AcDbEntity
  8
0
100
AcDbLine
 10
915.0173329999999
 20
60.222016
 30
0.0
 11
914.404363
 21
60.621763
 31
0.0
  0
LINE
  5
115D
330
36
100
AcDbEntity
  8
0
100
AcDbLine
 10
914.404363
 20
60.621763
 30
0.0
 11
913.791392
 21
60.222016
 31
0.0
  0
LINE
  5
115E
330
36
100
AcDbEntity
  8
0
100
AcDbLine
 10
913.791392
 20
60.222016
 30
0.0
 11
913.178422
 21
59.34257399999999
 31
0.0
  0
LINE
  5
115F
330
36
100
AcDbEntity
  8
0
100
AcDbLine
 10
949.928067
 20
96.23324700000001
 30
0.0
 11
949.811155
 21
96.31259400000001
 31
0.0
  0
LINE
  5
1160
330
36
100
AcDbEntity
  8
0
100
AcDbLine
 10
949.811155
 20
96.31259400000001
 30
0.0
 11
949.693272
 21
96.39045600000001
 31
0.0
  0
LINE
  5
1161
330
36
100
AcDbEntity
  8
0
100
AcDbLine
 10
949.693272
 20
96.39045600000001
 30
0.0
 11
949.5732679999999
 21
96.465898
 31
0.0
  0
LINE
  5
1162
330
36
100
AcDbEntity
  8
0
100
AcDbLine
 10
949.5732679999999
 20
96.465898
 30
0.0
 11
949.4516410000001
 21
96.53872599999999
 31
0.0
  0
LINE
  5
1163
330
36
100
AcDbEntity
  8
0
100
AcDbLine
 10
949.4516410000001
 20
96.53872599999999
 30
0.0
 11
949.3282520000001
 21
96.609464
 31
0.0
  0
LINE
  5
1164
330
36
100
AcDbEntity
  8
0
100
AcDbLine
 10
949.3282520000001
 20
96.609464
 30
0.0
 11
949.2035389999999
 21
96.677824
 31
0.0
  0
LINE
  5
1165
330
36
100
AcDbEntity
  8
0
100
AcDbLine
 10
949.2035389999999
 20
96.677824
 30
0.0
 11
949.0770730000001
 21
96.74392199999999
 31
0.0
  0
LINE
  5
1166
330
36
100
AcDbEntity
  8
0
100
AcDbLine
 10
949.0770730000001
 20
96.74392199999999
 30
0.0
 11
948.9493269999996
 21
96.807519
 31
0.0
  0
LINE
  5
1167
330
36
100
AcDbEntity
  8
0
100
AcDbLine
 10
948.9493269999996
 20
96.807519
 30
0.0
 11
948.819935
 21
96.868826
 31
0.0
  0
LINE
  5
1168
330
36
100
AcDbEntity
  8
0
100
AcDbLine
 10
948.819935
 20
96.868826
 30
0.0
 11
948.6893679999999
 21
96.927579
 31
0.0
  0
LINE
  5
1169
330
36
100
AcDbEntity
  8
0
100
AcDbLine
 10
948.6893679999999
 20
96.927579
 30
0.0
 11
948.5572239999999
 21
96.98393500000001
 31
0.0
  0
LINE
  5
116A
330
36
100
AcDbEntity
  8
0
100
AcDbLine
 10
948.5572239999999
 20
96.98393500000001
 30
0.0
 11
948.4240259999999
 21
97.03777
 31
0.0
  0
LINE
  5
116B
330
36
100
AcDbEntity
  8
0
100
AcDbLine
 10
948.4240259999999
 20
97.03777
 30
0.0
 11
948.289373
 21
97.089268
 31
0.0
  0
LINE
  5
116C
330
36
100
AcDbEntity
  8
0
100
AcDbLine
 10
948.289373
 20
97.089268
 30
0.0
 11
948.1536619999999
 21
97.13786200000001
 31
0.0
  0
LINE
  5
116D
330
36
100
AcDbEntity
  8
0
100
AcDbLine
 10
948.1536619999999
 20
97.13786200000001
 30
0.0
 11
948.0164399999999
 21
97.18359200000001
 31
0.0
  0
LINE
  5
116E
330
36
100
AcDbEntity
  8
0
100
AcDbLine
 10
948.0164399999999
 20
97.18359200000001
 30
0.0
 11
947.8786409999999
 21
97.227621
 31
0.0
  0
LINE
  5
116F
330
36
100
AcDbEntity
  8
0
100
AcDbLine
 10
947.82787
 20
97.24371900000001
 30
0.0
 11
946.7852890000001
 21
97.44852000000001
 31
0.0
  0
LINE
  5
1170
330
36
100
AcDbEntity
  8
0
100
AcDbLine
 10
946.7852890000001
 20
97.44852000000001
 30
0.0
 11
945.751819
 21
97.540917
 31
0.0
  0
LINE
  5
1171
330
36
100
AcDbEntity
  8
0
100
AcDbLine
 10
945.751819
 20
97.540917
 30
0.0
 11
943.645433
 21
97.130887
 31
0.0
  0
LINE
  5
1172
330
36
100
AcDbEntity
  8
0
100
AcDbLine
 10
943.645433
 20
97.130887
 30
0.0
 11
941.578668
 21
96.23200799999999
 31
0.0
  0
LINE
  5
1173
330
36
100
AcDbEntity
  8
0
100
AcDbLine
 10
941.578668
 20
96.23200799999999
 30
0.0
 11
941.5780789999999
 21
96.231564
 31
0.0
  0
LINE
  5
1174
330
36
100
AcDbEntity
  8
0
100
AcDbLine
 10
941.5780789999999
 20
96.231564
 30
0.0
 11
941.5774800000001
 21
96.23113299999999
 31
0.0
  0
LINE
  5
1175
330
36
100
AcDbEntity
  8
0
100
AcDbLine
 10
941.5774800000001
 20
96.23113299999999
 30
0.0
 11
941.576871
 21
96.230729
 31
0.0
  0
LINE
  5
1176
330
36
100
AcDbEntity
  8
0
100
AcDbLine
 10
941.576871
 20
96.230729
 30
0.0
 11
941.576249
 21
96.23034400000001
 31
0.0
  0
LINE
  5
1177
330
36
100
AcDbEntity
  8
0
100
AcDbLine
 10
941.576249
 20
96.23034400000001
 30
0.0
 11
941.575622
 21
96.229974
 31
0.0
  0
LINE
  5
1178
330
36
100
AcDbEntity
  8
0
100
AcDbLine
 10
941.575622
 20
96.229974
 30
0.0
 11
941.574989
 21
96.22961400000001
 31
0.0
  0
LINE
  5
1179
330
36
100
AcDbEntity
  8
0
100
AcDbLine
 10
941.574989
 20
96.22961400000001
 30
0.0
 11
941.574353
 21
96.229261
 31
0.0
  0
LINE
  5
117A
330
36
100
AcDbEntity
  8
0
100
AcDbLine
 10
941.574353
 20
96.229261
 30
0.0
 11
941.573714
 21
96.228913
 31
0.0
  0
LINE
  5
117B
330
36
100
AcDbEntity
  8
0
100
AcDbLine
 10
941.573714
 20
96.228913
 30
0.0
 11
941.573076
 21
96.22856400000001
 31
0.0
  0
LINE
  5
117C
330
36
100
AcDbEntity
  8
0
100
AcDbLine
 10
941.573076
 20
96.22856400000001
 30
0.0
 11
941.57244
 21
96.22821100000001
 31
0.0
  0
LINE
  5
117D
330
36
100
AcDbEntity
  8
0
100
AcDbLine
 10
941.57244
 20
96.22821100000001
 30
0.0
 11
941.571807
 21
96.22785100000001
 31
0.0
  0
LINE
  5
117E
330
36
100
AcDbEntity
  8
0
100
AcDbLine
 10
941.571807
 20
96.22785100000001
 30
0.0
 11
941.57118
 21
96.22748100000002
 31
0.0
  0
LINE
  5
117F
330
36
100
AcDbEntity
  8
0
100
AcDbLine
 10
941.57118
 20
96.22748100000002
 30
0.0
 11
941.570558
 21
96.227096
 31
0.0
  0
LINE
  5
1180
330
36
100
AcDbEntity
  8
0
100
AcDbLine
 10
941.570558
 20
96.227096
 30
0.0
 11
941.5699489999999
 21
96.226692
 31
0.0
  0
LINE
  5
1181
330
36
100
AcDbEntity
  8
0
100
AcDbLine
 10
941.5699489999999
 20
96.226692
 30
0.0
 11
941.5693499999999
 21
96.22626099999999
 31
0.0
  0
LINE
  5
1182
330
36
100
AcDbEntity
  8
0
100
AcDbLine
 10
941.5693499999999
 20
96.22626099999999
 30
0.0
 11
941.568761
 21
96.22581700000001
 31
0.0
  0
LINE
  5
1183
330
36
100
AcDbEntity
  8
0
100
AcDbLine
 10
893.0016949999997
 20
105.786272
 30
0.0
 11
895.0502249999997
 21
105.485086
 31
0.0
  0
LINE
  5
1184
330
36
100
AcDbEntity
  8
0
100
AcDbLine
 10
895.0502249999997
 20
105.485086
 30
0.0
 11
893.4267399999999
 21
106.770186
 31
0.0
  0
LINE
  5
1185
330
36
100
AcDbEntity
  8
0
100
AcDbLine
 10
954.699006
 20
97.16226800000001
 30
0.0
 11
953.026973
 21
95.94100199999999
 31
0.0
  0
LINE
  5
1186
330
36
100
AcDbEntity
  8
0
100
AcDbLine
 10
953.026973
 20
95.94100199999999
 30
0.0
 11
955.0856289999996
 21
96.16263299999999
 31
0.0
  0
LINE
  5
1187
330
36
100
AcDbEntity
  8
0
100
AcDbLine
 10
1154.325709
 20
6.666075999999997
 30
0.0
 11
1153.127696
 21
4.977303
 31
0.0
  0
LINE
  5
1188
330
36
100
AcDbEntity
  8
0
100
AcDbLine
 10
1153.127696
 20
4.977303
 30
0.0
 11
1155.009592
 21
5.840816999999997
 31
0.0
  0
LINE
  5
1189
330
36
100
AcDbEntity
  8
0
100
AcDbLine
 10
1058.816101
 20
111.864489
 30
0.0
 11
1059.050107
 21
109.807202
 31
0.0
  0
LINE
  5
118A
330
36
100
AcDbEntity
  8
0
100
AcDbLine
 10
1059.050107
 20
109.807202
 30
0.0
 11
1059.876095
 21
111.705867
 31
0.0
  0
LINE
  5
118B
330
36
100
AcDbEntity
  8
0
100
AcDbLine
 10
1008.716007
 20
17.695579
 30
0.0
 11
985.9517499999999
 21
17.695579
 31
0.0
  0
LINE
  5
118C
330
36
100
AcDbEntity
  8
0
100
AcDbLine
 10
1006.800107
 20
109.695579
 30
0.0
 11
985.9517499999999
 21
109.695579
 31
0.0
  0
LINE
  5
118D
330
36
100
AcDbEntity
  8
0
100
AcDbLine
 10
987.20175
 20
20.19557900000001
 30
0.0
 11
987.20175
 21
107.195579
 31
0.0
  0
LINE
  5
1191
330
36
100
AcDbEntity
  8
0
100
AcDbLine
 10
995.0501069999999
 20
19.445579
 30
0.0
 11
995.0501069999999
 21
6.838483
 31
0.0
  0
LINE
  5
1192
330
36
100
AcDbEntity
  8
0
100
AcDbLine
 10
1123.050107
 20
19.445579
 30
0.0
 11
1123.050107
 21
6.838483
 31
0.0
  0
LINE
  5
1193
330
36
100
AcDbEntity
  8
0
100
AcDbLine
 10
997.5501069999999
 20
8.088483
 30
0.0
 11
1120.550107
 21
8.088483
 31
0.0
  0
LINE
  5
1197
330
36
100
AcDbEntity
  8
0
100
AcDbLine
 10
894.0056009999999
 20
24.245579
 30
0.0
 11
894.0056009999999
 21
6.060203999999998
 31
0.0
  0
LINE
  5
1198
330
36
100
AcDbEntity
  8
0
100
AcDbLine
 10
966.0056009999999
 20
24.245579
 30
0.0
 11
966.0056009999999
 21
6.060203999999998
 31
0.0
  0
LINE
  5
1199
330
36
100
AcDbEntity
  8
0
100
AcDbLine
 10
896.5056009999997
 20
7.310203999999997
 30
0.0
 11
963.5056009999999
 21
7.310203999999997
 31
0.0
  0
LINE
  5
119D
330
36
100
AcDbEntity
  8
0
  6
Continuous
100
AcDbLine
 10
1039.03530561476
 20
18.4225321437252
 30
0.0
 11
1035.384482081846
 21
16.26242575241096
 31
0.0
1001
ACAD
1000
DSTYLE
1002
{
1070
   147
1040
0.625
1070
    77
1070
     0
1002
}
  0
LINE
  5
119E
330
36
100
AcDbEntity
  8
0
  6
ByBlock
 62
     0
370
    -2
100
AcDbLine
 10
1038.694193982668
 20
18.99904929065823
 30
0.0
 11
1041.186898443743
 21
19.69557900000001
 31
0.0
  0
LINE
  5
119F
330
36
100
AcDbEntity
  8
0
  6
ByBlock
 62
     0
370
    -2
100
AcDbLine
 10
1041.186898443743
 20
19.69557900000001
 30
0.0
 11
1039.376417246852
 21
17.84601499679218
 31
0.0
  0
LINE
  5
11A0
330
36
100
AcDbEntity
  8
0
  6
ByBlock
 62
     0
370
    -2
100
AcDbLine
 10
1041.186898443743
 20
19.69557900000001
 30
0.0
 11
1039.03530561476
 21
18.4225321437252
 31
0.0
  0
LINE
  5
11A1
330
36
100
AcDbEntity
  8
0
  6
Continuous
100
AcDbLine
 10
1165.72578594459
 20
101.5708577299885
 30
0.0
 11
1161.053629212627
 21
118.3813364306671
 31
0.0
1001
ACAD
1000
DSTYLE
1002
{
1070
   147
1040
0.625
1070
    77
1070
     0
1002
}
  0
LINE
  5
11A2
330
36
100
AcDbEntity
  8
0
  6
ByBlock
 62
     0
370
    -2
100
AcDbLine
 10
1166.371194551592
 20
101.7502369268432
 30
0.0
 11
1166.395238701849
 21
99.16215828717735
 31
0.0
  0
LINE
  5
11A3
330
36
100
AcDbEntity
  8
0
  6
ByBlock
 62
     0
370
    -2
100
AcDbLine
 10
1166.395238701849
 20
99.16215828717735
 30
0.0
 11
1165.080377337589
 21
101.3914785331338
 31
0.0
  0
LINE
  5
11A4
330
36
100
AcDbEntity
  8
0
  6
ByBlock
 62
     0
370
    -2
100
AcDbLine
 10
1166.395238701849
 20
99.16215828717735
 30
0.0
 11
1165.72578594459
 21
101.5708577299885
 31
0.0
  0
LINE
  5
11A5
330
36
100
AcDbEntity
  8
0
  6
Continuous
100
AcDbLine
 10
1060.161492802474
 20
112.2643997647031
 30
0.0
 11
1061.159044399555
 21
117.601288494896
 31
0.0
1001
ACAD
1000
DSTYLE
1002
{
1070
   147
1040
0.625
1070
    77
1070
     0
1002
}
  0
LINE
  5
11A6
330
36
100
AcDbEntity
  8
0
  6
ByBlock
 62
     0
370
    -2
100
AcDbLine
 10
1060.819961362316
 20
112.1413212452312
 30
0.0
 11
1059.702157184607
 21
109.806959879343
 31
0.0
  0
LINE
  5
11A7
330
36
100
AcDbEntity
  8
0
  6
ByBlock
 62
     0
370
    -2
100
AcDbLine
 10
1059.702157184607
 20
109.806959879343
 30
0.0
 11
1059.503024242631
 21
112.3874782841749
 31
0.0
  0
LINE
  5
11A8
330
36
100
AcDbEntity
  8
0
  6
ByBlock
 62
     0
370
    -2
100
AcDbLine
 10
1059.702157184607
 20
109.806959879343
 30
0.0
 11
1060.161492802474
 21
112.2643997647031
 31
0.0
  0
LINE
  5
11A9
330
36
100
AcDbEntity
  8
0
  6
Continuous
100
AcDbLine
 10
957.1263217930678
 20
29.09698698656416
 30
0.0
 11
969.8874356943898
 21
27.87472224148078
 31
0.0
1001
ACAD
1000
DSTYLE
1002
{
1070
   341
1005
87D
1070
   147
1040
0.625
1070
    77
1070
     0
1002
}
  0
LINE
  5
11AB
330
36
100
AcDbEntity
  8
0
  6
Continuous
100
AcDbLine
 10
1003.112412351141
 20
100.5566430823447
 30
0.0
 11
998.5585086932957
 21
117.7863930578668
 31
0.0
1001
ACAD
1000
DSTYLE
1002
{
1070
   341
1005
87D
1070
   147
1040
0.625
1070
    77
1070
     0
1002
}
  0
TEXT
  5
11AD
330
36
100
AcDbEntity
  8
0
  6
Continuous
 62
     4
100
AcDbText
 10
986.57675
 20
59.94557900000017
 30
0.0
 40
3.0
  1
230
 50
90.0
100
AcDbText
  0
LINE
  5
11AE
330
36
100
AcDbEntity
  8
0
  6
ByBlock
 62
     0
370
    -2
100
AcDbLine
 10
986.5318775
 20
107.195579
 30
0.0
 11
987.20175
 21
109.695579
 31
0.0
  0
LINE
  5
11AF
330
36
100
AcDbEntity
  8
0
  6
ByBlock
 62
     0
370
    -2
100
AcDbLine
 10
987.20175
 20
109.695579
 30
0.0
 11
987.8716224999999
 21
107.195579
 31
0.0
  0
LINE
  5
11B0
330
36
100
AcDbEntity
  8
0
  6
ByBlock
 62
     0
370
    -2
100
AcDbLine
 10
987.20175
 20
109.695579
 30
0.0
 11
987.20175
 21
107.195579
 31
0.0
  0
LINE
  5
11B1
330
36
100
AcDbEntity
  8
0
  6
ByBlock
 62
     0
370
    -2
100
AcDbLine
 10
987.8716224999999
 20
20.19557900000001
 30
0.0
 11
987.20175
 21
17.695579
 31
0.0
  0
LINE
  5
11B2
330
36
100
AcDbEntity
  8
0
  6
ByBlock
 62
     0
370
    -2
100
AcDbLine
 10
987.20175
 20
17.695579
 30
0.0
 11
986.5318775
 21
20.19557900000001
 31
0.0
  0
LINE
  5
11B3
330
36
100
AcDbEntity
  8
0
  6
ByBlock
 62
     0
370
    -2
100
AcDbLine
 10
987.20175
 20
17.695579
 30
0.0
 11
987.20175
 21
20.19557900000001
 31
0.0
  0
TEXT
  5
11B4
330
36
100
AcDbEntity
  8
0
  6
Continuous
 62
     4
100
AcDbText
 10
1055.300107
 20
8.713483
 30
0.0
 40
3.0
  1
320
100
AcDbText
  0
LINE
  5
11B5
330
36
100
AcDbEntity
  8
0
  6
ByBlock
 62
     0
370
    -2
100
AcDbLine
 10
1120.550107
 20
8.7583555
 30
0.0
 11
1123.050107
 21
8.088483
 31
0.0
  0
LINE
  5
11B6
330
36
100
AcDbEntity
  8
0
  6
ByBlock
 62
     0
370
    -2
100
AcDbLine
 10
1123.050107
 20
8.088483
 30
0.0
 11
1120.550107
 21
7.418610499999999
 31
0.0
  0
LINE
  5
11B7
330
36
100
AcDbEntity
  8
0
  6
ByBlock
 62
     0
370
    -2
100
AcDbLine
 10
1123.050107
 20
8.088483
 30
0.0
 11
1120.550107
 21
8.088483
 31
0.0
  0
LINE
  5
11B8
330
36
100
AcDbEntity
  8
0
  6
ByBlock
 62
     0
370
    -2
100
AcDbLine
 10
997.5501069999999
 20
7.418610499999999
 30
0.0
 11
995.0501069999999
 21
8.088483
 31
0.0
  0
LINE
  5
11B9
330
36
100
AcDbEntity
  8
0
  6
ByBlock
 62
     0
370
    -2
100
AcDbLine
 10
995.0501069999999
 20
8.088483
 30
0.0
 11
997.5501069999999
 21
8.7583555
 31
0.0
  0
LINE
  5
11BA
330
36
100
AcDbEntity
  8
0
  6
ByBlock
 62
     0
370
    -2
100
AcDbLine
 10
995.0501069999999
 20
8.088483
 30
0.0
 11
997.5501069999999
 21
8.088483
 31
0.0
  0
TEXT
  5
11BB
330
36
100
AcDbEntity
  8
0
  6
Continuous
 62
     4
100
AcDbText
 10
926.7556009999998
 20
7.935203999999998
 30
0.0
 40
3.0
  1
180
100
AcDbText
  0
LINE
  5
11BC
330
36
100
AcDbEntity
  8
0
  6
ByBlock
 62
     0
370
    -2
100
AcDbLine
 10
963.5056009999999
 20
7.980076499999998
 30
0.0
 11
966.0056009999999
 21
7.310203999999997
 31
0.0
  0
LINE
  5
11BD
330
36
100
AcDbEntity
  8
0
  6
ByBlock
 62
     0
370
    -2
100
AcDbLine
 10
966.0056009999999
 20
7.310203999999997
 30
0.0
 11
963.5056009999999
 21
6.640331499999997
 31
0.0
  0
LINE
  5
11BE
330
36
100
AcDbEntity
  8
0
  6
ByBlock
 62
     0
370
    -2
100
AcDbLine
 10
966.0056009999999
 20
7.310203999999997
 30
0.0
 11
963.5056009999999
 21
7.310203999999997
 31
0.0
  0
LINE
  5
11BF
330
36
100
AcDbEntity
  8
0
  6
ByBlock
 62
     0
370
    -2
100
AcDbLine
 10
896.5056009999997
 20
6.640331499999997
 30
0.0
 11
894.0056009999999
 21
7.310203999999997
 31
0.0
  0
LINE
  5
11C0
330
36
100
AcDbEntity
  8
0
  6
ByBlock
 62
     0
370
    -2
100
AcDbLine
 10
894.0056009999999
 20
7.310203999999997
 30
0.0
 11
896.5056009999997
 21
7.980076499999997
 31
0.0
  0
LINE
  5
11C1
330
36
100
AcDbEntity
  8
0
  6
ByBlock
 62
     0
370
    -2
100
AcDbLine
 10
894.0056009999999
 20
7.310203999999997
 30
0.0
 11
896.5056009999997
 21
7.310203999999997
 31
0.0
  0
ARC
  5
11C2
330
36
100
AcDbEntity
  8
0
  6
ByBlock
 62
     0
100
AcDbCircle
 10
957.1263217930678
 20
29.09698698656416
 30
0.0
 40
0.156249999999956
100
AcDbArc
 50
354.5288763981706
 51
174.5288763981706
  0
ARC
  5
11C3
330
36
100
AcDbEntity
  8
0
  6
ByBlock
 62
     0
100
AcDbCircle
 10
957.1263217930678
 20
29.09698698656416
 30
0.0
 40
0.156249999999956
100
AcDbArc
 50
174.5288763981706
 51
354.5288763981706
  0
ARC
  5
11C4
330
36
100
AcDbEntity
  8
0
  6
ByBlock
 62
     0
100
AcDbCircle
 10
1003.112412351141
 20
100.5566430823447
 30
0.0
 40
0.1562499999999815
100
AcDbArc
 50
104.8049961860923
 51
284.8049961860923
  0
ARC
  5
11C5
330
36
100
AcDbEntity
  8
0
  6
ByBlock
 62
     0
100
AcDbCircle
 10
1003.112412351141
 20
100.5566430823447
 30
0.0
 40
0.1562499999999815
100
AcDbArc
 50
284.8049961860923
 51
104.8049961860923
  0
ENDSEC
  0
SECTION
  2
OBJECTS
  0
DICTIONARY
  5
C
330
0
100
AcDbDictionary
281
     1
  3
ACAD_2007HEADERVARS_RT
350
11C9
  3
ACAD_COLOR
350
2F
  3
ACAD_GROUP
350
D
  3
ACAD_LAYOUT
350
2E
  3
ACAD_MATERIAL
350
10
  3
ACAD_MLEADERSTYLE
350
4A8
  3
ACAD_MLINESTYLE
350
2B
  3
ACAD_PLOTSETTINGS
350
2D
  3
ACAD_PLOTSTYLENAME
350
E
  3
ACAD_SCALELIST
350
496
  3
ACAD_TABLESTYLE
350
30
  3
ACAD_VISUALSTYLE
350
14
  3
ACDB_RECOMPOSE_DATA
350
11C7
  3
AcDbVariableDictionary
350
476
  3
AEC_PROPERTY_SET_DEFS
350
BD2
  3
DWGPROPS
350
11C8
  0
DICTIONARY
  5
551
330
2
100
AcDbDictionary
280
     1
281
     1
  3
ACAD_LAYERSTATES
360
552
  0
DICTIONARY
  5
72D
330
25
100
AcDbDictionary
280
     1
281
     1
  3
ADSK_XREC_LAYER_RECONCILED
360
72E
  0
DICTIONARY
  5
10ED
330
36
100
AcDbDictionary
280
     1
281
     1
  3
ACAD_SORTENTS
360
10EE
  0
DICTIONARY
  5
11C9
102
{ACAD_REACTORS
330
C
102
}
330
C
100
AcDbDictionary
281
     1
  3
DIMARCSYM
350
11CB
  3
DIMFXL
350
11CA
  3
DIMJOGANG
350
11CC
  0
DICTIONARY
  5
2F
102
{ACAD_REACTORS
330
C
102
}
330
C
100
AcDbDictionary
281
     1
  0
DICTIONARY
  5
D
102
{ACAD_REACTORS
330
C
102
}
330
C
100
AcDbDictionary
281
     1
  0
DICTIONARY
  5
2E
102
{ACAD_REACTORS
330
C
102
}
330
C
100
AcDbDictionary
281
     1
  3
Model
350
39
  3
レイアウト1
350
35
  0
DICTIONARY
  5
10
102
{ACAD_REACTORS
330
C
102
}
330
C
100
AcDbDictionary
281
     1
  3
ByBlock
350
12
  3
ByLayer
350
11
  3
Global
350
13
  0
DICTIONARY
  5
4A8
102
{ACAD_REACTORS
330
C
102
}
330
C
100
AcDbDictionary
281
     1
  3
Standard
350
4A9
  0
DICTIONARY
  5
2B
102
{ACAD_REACTORS
330
C
102
}
330
C
100
AcDbDictionary
281
     1
  3
Standard
350
2C
  0
DICTIONARY
  5
2D
102
{ACAD_REACTORS
330
C
102
}
330
C
100
AcDbDictionary
281
     1
  0
ACDBDICTIONARYWDFLT
  5
E
102
{ACAD_REACTORS
330
C
102
}
330
C
100
AcDbDictionary
281
     1
  3
Normal
350
F
100
AcDbDictionaryWithDefault
340
F
  0
DICTIONARY
  5
496
102
{ACAD_REACTORS
330
C
102
}
330
C
100
AcDbDictionary
281
     1
  3
A0
350
497
  3
A1
350
498
  3
A2
350
499
  3
A3
350
49A
  3
A4
350
49B
  3
A5
350
49C
  3
A6
350
49D
  3
A7
350
49E
  3
A8
350
49F
  3
A9
350
4A0
  3
B0
350
4A1
  3
B1
350
4A2
  3
B2
350
4A3
  3
B3
350
4A4
  3
B4
350
4A5
  3
B5
350
4A6
  3
B6
350
4A7
  0
DICTIONARY
  5
30
102
{ACAD_REACTORS
330
C
102
}
330
C
100
AcDbDictionary
281
     1
  3
Standard
350
31
  0
DICTIONARY
  5
14
102
{ACAD_REACTORS
330
C
102
}
330
C
100
AcDbDictionary
281
     1
  3
2dWireframe
350
1A
  3
3D Hidden
350
1C
  3
3dWireframe
350
1B
  3
Basic
350
19
  3
Brighten
350
20
  3
ColorChange
350
24
  3
Conceptual
350
1D
  3
Dim
350
1F
  3
EdgeColorOff
350
495
  3
Facepattern
350
23
  3
Flat
350
15
  3
FlatWithEdges
350
16
  3
Gouraud
350
17
  3
GouraudWithEdges
350
18
  3
Hidden
350
48D
  3
JitterOff
350
493
  3
Linepattern
350
22
  3
OverhangOff
350
494
  3
Realistic
350
1E
  3
Shaded
350
492
  3
Shaded with edges
350
491
  3
Shades of Gray
350
48E
  3
Sketchy
350
48F
  3
Thicken
350
21
  3
Wireframe
350
48C
  3
X-Ray
350
490
  0
XRECORD
  5
11C7
102
{ACAD_REACTORS
330
C
102
}
330
C
100
AcDbXrecord
280
     1
 90
        1
330
31
  0
DICTIONARY
  5
476
102
{ACAD_REACTORS
330
C
102
}
330
C
100
AcDbDictionary
281
     1
  3
CANNOSCALE
350
730
  3
CMLEADERSTYLE
350
72F
  3
CTABLESTYLE
350
477
  3
DIMASSOC
350
47A
  3
INDEXCTL
350
479
  3
SORTENTS
350
478
  3
XCLIPFRAME
350
1068
  0
DICTIONARY
  5
BD2
102
{ACAD_REACTORS
330
C
102
}
330
C
100
AcDbDictionary
281
     1
  0
XRECORD
  5
11C8
102
{ACAD_REACTORS
330
C
102
}
330
C
100
AcDbXrecord
280
     1
  1
DWGPROPS COOKIE
  2

  3

  4

  6

  7

  8
imamura
  9

300
=
301
=
302
=
303
=
304
=
305
=
306
=
307
=
308
=
309
=
 40
0.0293459837962963
 41
2455657.650848333
 42
2459825.742036528
  1

 90
        0
  0
DICTIONARY
  5
552
102
{ACAD_REACTORS
330
551
102
}
330
551
100
AcDbDictionary
281
     1
  0
XRECORD
  5
72E
102
{ACAD_REACTORS
330
72D
102
}
330
72D
100
AcDbXrecord
280
     1
290
     1
  0
SORTENTSTABLE
  5
10EE
102
{ACAD_REACTORS
330
10ED
102
}
330
10ED
100
AcDbSortentsTable
330
36
331
F98
  5
116C
331
1000
  5
11C5
331
1D0
  5
1FF
331
2C1
  5
379
331
1E1
  5
210
331
11C0
  5
8E
331
2D2
  5
38A
331
1F2
  5
221
331
89
  5
B0
331
473
  5
1108
331
32B
  5
424
331
203
  5
232
331
9A
  5
C1
331
10FB
  5
F91
331
AB
  5
DA
331
33C
  5
435
331
214
  5
243
331
40D
  5
FA7
331
110C
  5
441
331
BC
  5
10A
331
21D
  5
24C
331
41E
  5
FB9
331
111D
  5
39D
331
CD
  5
119
331
35E
  5
451
331
22E
  5
277
331
42F
  5
FCA
331
112E
  5
3AE
331
DE
  5
126
331
F67
  5
1122
331
367
  5
45A
331
23F
  5
2A2
331
440
  5
FDB
331
113F
  5
3F8
331
F7
  5
139
331
FB0
  5
1183
331
378
  5
46B
331
250
  5
2BA
331
FC1
  5
1194
331
389
  5
58E
331
45A
  5
10EF
331
111
  5
171
331
FD2
  5
11A5
331
39A
  5
F67
331
46B
  5
1100
331
122
  5
182
331
FE3
  5
11B6
331
3AB
  5
F78
331
58C
  5
110F
331
116B
  5
333
331
133
  5
18C
331
117C
  5
2CD
331
175
  5
1A3
331
F76
  5
113B
331
119E
  5
115A
331
F87
  5
1158
331
186
  5
1D4
331
11AF
  5
AB
331
197
  5
1E5
331
118D
  5
A6
331
144
  5
18F
331
293
  5
33F
331
1150
  5
414
331
F88
  5
1159
331
FF0
  5
11BE
331
2A0
  5
35B
331
198
  5
1E6
331
F99
  5
116D
331
11B0
  5
AC
331
1D1
  5
200
331
2C2
  5
37A
331
1E2
  5
211
331
2D3
  5
38B
331
1F3
  5
222
331
8A
  5
B1
331
11C1
  5
8F
331
32C
  5
425
331
204
  5
233
331
9B
  5
C2
331
10FC
  5
F92
331
AC
  5
DB
331
33D
  5
436
331
215
  5
244
331
40E
  5
FA9
331
110D
  5
442
331
BD
  5
10B
331
41F
  5
FBA
331
111E
  5
39E
331
CE
  5
11A
331
21E
  5
24D
331
35F
  5
452
331
22F
  5
28B
331
430
  5
FCB
331
112F
  5
3AF
331
DF
  5
127
331
FA0
  5
1174
331
368
  5
45B
331
240
  5
2A3
331
441
  5
FDC
331
FB1
  5
1184
331
379
  5
46C
331
251
  5
2BB
331
1140
  5
3F9
331
FC2
  5
1195
331
38A
  5
58F
331
45B
  5
10F0
331
112
  5
172
331
FD3
  5
11A6
331
39B
  5
F68
331
46C
  5
1101
331
123
  5
183
331
FE4
  5
11B7
331
3AC
  5
F79
331
58D
  5
1110
331
116C
  5
334
331
F77
  5
113C
331
176
  5
1C4
331
119F
  5
115B
331
187
  5
1D5
331
117D
  5
2CE
331
294
  5
340
331
1151
  5
415
331
F78
  5
113D
331
11A0
  5
115C
331
188
  5
1D6
331
2A1
  5
35C
331
199
  5
1E7
331
F9A
  5
116E
331
11B1
  5
A7
331
11C2
  5
114B
331
2C3
  5
37B
331
1E3
  5
212
331
1D2
  5
201
331
2D4
  5
38C
331
1F4
  5
223
331
8B
  5
B2
331
32D
  5
426
331
205
  5
234
331
9C
  5
C5
331
10FD
  5
F8F
331
AD
  5
DC
331
33E
  5
437
331
216
  5
245
331
40F
  5
FAA
331
110E
  5
443
331
21F
  5
24E
331
420
  5
FBB
331
111F
  5
39F
331
CF
  5
11B
331
BE
  5
10E
331
230
  5
28C
331
431
  5
FCC
331
1130
  5
3B0
331
E0
  5
12F
331
FA1
  5
1175
331
369
  5
45C
331
442
  5
FDD
331
1141
  5
3FA
331
F9
  5
144
331
241
  5
2A4
331
FB2
  5
1185
331
37A
  5
46D
331
FC3
  5
1196
331
38B
  5
590
331
1152
  5
416
331
45C
  5
10F1
331
113
  5
173
331
FD4
  5
11A7
331
46D
  5
1102
331
124
  5
184
331
FE5
  5
11B8
331
3AD
  5
F7A
331
58E
  5
1111
331
116D
  5
335
331
177
  5
1C5
331
117E
  5
2CF
331
295
  5
341
331
39C
  5
F69
331
252
  5
2BC
331
F68
  5
1123
331
F79
  5
113E
331
178
  5
1C6
331
F8A
  5
115E
331
11A1
  5
1157
331
189
  5
1D7
331
2A2
  5
35D
331
F9B
  5
116F
331
11B2
  5
A8
331
11C3
  5
114C
331
2C4
  5
37C
331
1E4
  5
213
331
1D3
  5
202
331
2D5
  5
38D
331
1F5
  5
224
331
8C
  5
B3
331
32E
  5
427
331
206
  5
235
331
9D
  5
C7
331
10FE
  5
F90
331
AE
  5
DD
331
33F
  5
438
331
410
  5
FAB
331
110F
  5
38F
331
BF
  5
10F
331
220
  5
24F
331
217
  5
246
331
421
  5
FBC
331
1120
  5
3A0
331
D0
  5
11C
331
432
  5
FCD
331
1131
  5
3B1
331
E1
  5
130
331
FA2
  5
1176
331
36A
  5
45D
331
443
  5
FDE
331
1142
  5
3FB
331
FB3
  5
1186
331
37B
  5
46E
331
253
  5
2BD
331
242
  5
2A5
331
231
  5
28D
331
FC4
  5
1197
331
38C
  5
591
331
45D
  5
10F2
331
114
  5
174
331
FD5
  5
11A8
331
39D
  5
F6A
331
46E
  5
1103
331
125
  5
185
331
FE6
  5
11B9
331
3AE
  5
F7B
331
58F
  5
1112
331
116E
  5
336
331
117F
  5
2D0
331
296
  5
342
331
1153
  5
417
331
590
  5
1113
331
F69
  5
1124
331
1180
  5
2D1
331
1A1
  5
1E8
331
179
  5
1C7
331
F7A
  5
113F
331
1191
  5
9A
331
F8B
  5
115F
331
11A2
  5
1154
331
18A
  5
1D8
331
2A3
  5
35E
331
F9C
  5
1170
331
11C4
  5
1145
331
2C5
  5
37D
331
1E5
  5
214
331
1D4
  5
203
331
2D6
  5
38E
331
1F6
  5
225
331
8D
  5
B4
331
32F
  5
428
331
207
  5
236
331
9E
  5
C9
331
10FF
  5
F8D
331
AF
  5
DE
331
340
  5
439
331
411
  5
FAC
331
1110
  5
390
331
221
  5
250
331
C0
  5
110
331
11B3
  5
A9
331
422
  5
FBD
331
1121
  5
3A1
331
232
  5
28E
331
D1
  5
11D
331
433
  5
FCE
331
1132
  5
3B2
331
FA3
  5
1177
331
36B
  5
45E
331
243
  5
2A6
331
444
  5
FDF
331
1143
  5
407
331
FB4
  5
1187
331
37C
  5
46F
331
254
  5
2BE
331
E2
  5
131
331
FC5
  5
1198
331
38D
  5
592
331
26D
  5
2D4
331
45E
  5
10F3
331
115
  5
175
331
FD6
  5
11A9
331
39E
  5
F6B
331
46F
  5
1104
331
FE7
  5
11BA
331
3AF
  5
F7C
331
297
  5
343
331
116F
  5
2D6
331
126
  5
186
331
1154
  5
418
331
FE8
  5
11BB
331
3B0
  5
F7D
331
591
  5
1114
331
1170
  5
322
331
138
  5
18D
331
F6A
  5
1127
331
1181
  5
2D2
331
169
  5
190
331
1A2
  5
1E9
331
17A
  5
1C8
331
F7B
  5
1140
331
1192
  5
9B
331
F8C
  5
1160
331
11A3
  5
1155
331
18B
  5
1D9
331
2A4
  5
35F
331
1C4
  5
1F3
331
F9D
  5
1171
331
11C5
  5
1146
331
2B5
  5
36D
331
1D5
  5
204
331
2C6
  5
37E
331
1E6
  5
215
331
1F7
  5
226
331
8E
  5
B5
331
330
  5
429
331
208
  5
237
331
9F
  5
CA
331
1100
  5
F8E
331
341
  5
43A
331
B0
  5
DF
331
412
  5
FAD
331
1111
  5
391
331
C1
  5
111
331
222
  5
251
331
423
  5
FBE
331
1122
  5
3A2
331
D2
  5
11E
331
434
  5
FCF
331
1133
  5
3B3
331
E3
  5
132
331
FA4
  5
1178
331
36C
  5
45F
331
244
  5
2A7
331
445
  5
FE0
331
1144
  5
408
331
233
  5
28F
331
11B4
  5
A3
331
FB5
  5
1188
331
37D
  5
470
331
1155
  5
419
331
FC6
  5
1199
331
38E
  5
593
331
26E
  5
2D5
331
45F
  5
10F4
331
FD7
  5
11AA
331
39F
  5
F6C
331
127
  5
187
331
116
  5
176
331
255
  5
2BF
331
460
  5
10F5
331
FD8
  5
11AB
331
3A0
  5
F6D
331
FE9
  5
11BC
331
3B1
  5
F7E
331
1160
  5
328
331
592
  5
1115
331
1171
  5
323
331
139
  5
18E
331
F6B
  5
1128
331
1182
  5
2D3
331
16A
  5
191
331
1A3
  5
1EA
331
17B
  5
1C9
331
F7C
  5
1141
331
1193
  5
9C
331
F8D
  5
1161
331
11A4
  5
1156
331
18C
  5
1DA
331
2A5
  5
360
331
1C5
  5
1F4
331
F9E
  5
1172
331
2B6
  5
36E
331
1D6
  5
205
331
2C7
  5
37F
331
1E7
  5
216
331
1F8
  5
227
331
8F
  5
B6
331
331
  5
42A
331
209
  5
238
331
1101
  5
F8B
331
B1
  5
E0
331
A0
  5
CB
331
342
  5
43B
331
413
  5
FAE
331
1112
  5
392
331
C2
  5
112
331
223
  5
252
331
424
  5
FBF
331
1123
  5
3A3
331
D3
  5
11F
331
435
  5
FD0
331
1134
  5
3B4
331
E4
  5
133
331
FA5
  5
1179
331
36D
  5
460
331
245
  5
2A8
331
446
  5
FE1
331
1145
  5
409
331
234
  5
290
331
11B5
  5
A0
331
FB6
  5
1189
331
37E
  5
471
331
FC7
  5
119A
331
38F
  5
594
331
1156
  5
41A
331
117
  5
177
331
256
  5
2C0
331
450
  5
FF0
331
FC8
  5
119B
331
390
  5
595
331
461
  5
10F6
331
118
  5
178
331
FD9
  5
11AC
331
3A1
  5
F6E
331
FEA
  5
11BD
331
3B2
  5
F80
331
1161
  5
329
331
593
  5
1116
331
1172
  5
324
331
F6C
  5
112B
331
1183
  5
1F1
331
16B
  5
192
331
F7D
  5
1142
331
17C
  5
1CA
331
F8E
  5
1162
331
11A5
  5
1153
331
18D
  5
1DB
331
2A6
  5
361
331
1C6
  5
1F5
331
F9F
  5
1173
331
2B7
  5
36F
331
1D7
  5
206
331
2C8
  5
380
331
1E8
  5
217
331
1F9
  5
228
331
90
  5
B7
331
332
  5
42B
331
20A
  5
239
331
1102
  5
F8C
331
B2
  5
E1
331
A1
  5
CC
331
343
  5
43C
331
414
  5
FAF
331
1113
  5
393
331
425
  5
FC0
331
1124
  5
3A4
331
D4
  5
120
331
235
  5
291
331
436
  5
FD1
331
1135
  5
3B5
331
E5
  5
138
331
FA6
  5
117A
331
36E
  5
461
331
246
  5
2A9
331
447
  5
FE2
331
1146
  5
40A
331
224
  5
253
331
11B6
  5
A1
331
FB7
  5
118A
331
37F
  5
472
331
1157
  5
369
331
257
  5
2C1
331
448
  5
FE3
331
FB8
  5
118B
331
380
  5
473
331
258
  5
2C2
331
451
  5
FF9
331
1158
  5
36A
331
FC9
  5
119C
331
391
  5
596
331
462
  5
10F7
331
119
  5
179
331
FDA
  5
11AD
331
3A2
  5
F6F
331
3B3
  5
F81
331
1162
  5
32A
331
594
  5
1117
331
1173
  5
2C4
331
F6D
  5
112C
331
1184
  5
1F2
331
16C
  5
193
331
F7E
  5
1143
331
17D
  5
1CB
331
F8F
  5
1163
331
11A6
  5
1150
331
18E
  5
1DC
331
2A7
  5
362
331
1C7
  5
1F6
331
2B8
  5
370
331
1D8
  5
207
331
11B7
  5
A2
331
2C9
  5
381
331
322
  5
41B
331
1FA
  5
229
331
91
  5
B8
331
333
  5
42C
331
20B
  5
23A
331
A2
  5
CD
331
1103
  5
444
331
B3
  5
E2
331
344
  5
43D
331
415
  5
FB0
331
1114
  5
394
331
426
  5
FC1
331
1125
  5
3A5
331
437
  5
FD2
331
1136
  5
3B6
331
236
  5
292
331
FA7
  5
117B
331
36F
  5
462
331
247
  5
2AA
331
1147
  5
40B
331
FF
  5
169
331
225
  5
254
331
1E9
  5
218
331
438
  5
FD3
331
370
  5
463
331
248
  5
2AB
331
449
  5
FE4
331
1148
  5
40C
331
FB9
  5
118C
331
381
  5
586
331
259
  5
2C3
331
452
  5
FFA
331
1159
  5
36B
331
109
  5
16B
331
FCA
  5
119D
331
392
  5
597
331
463
  5
10F8
331
11A
  5
17A
331
FDB
  5
11AE
331
3A3
  5
F70
331
28B
  5
337
331
3B4
  5
F83
331
1163
  5
32B
331
595
  5
1118
331
1174
  5
2C5
331
F6E
  5
1131
331
1185
  5
1EF
331
16D
  5
194
331
F90
  5
1164
331
11A7
  5
1151
331
18F
  5
1DD
331
17E
  5
1CC
331
2A8
  5
363
331
1C8
  5
1F7
331
2B9
  5
371
331
1D9
  5
208
331
11B8
  5
9D
331
2CA
  5
382
331
1EA
  5
219
331
323
  5
41C
331
1FB
  5
22A
331
92
  5
B9
331
3F4
  5
F99
331
334
  5
42D
331
20C
  5
23B
331
1104
  5
445
331
B4
  5
E3
331
416
  5
FB1
331
1115
  5
395
331
C5
  5
113
331
427
  5
FC2
331
1126
  5
3A6
331
226
  5
255
331
1137
  5
3B7
331
237
  5
293
331
A3
  5
CE
331
428
  5
FC3
331
360
  5
453
331
238
  5
294
331
439
  5
FD4
331
1138
  5
3B8
331
FA9
  5
117C
331
371
  5
464
331
249
  5
2AC
331
44A
  5
FE5
331
1149
  5
40D
331
FBA
  5
118D
331
382
  5
587
331
453
  5
FFB
331
115A
  5
36C
331
10A
  5
16C
331
FCB
  5
119E
331
393
  5
598
331
464
  5
10F9
331
11B
  5
17B
331
FDC
  5
11AF
331
3A4
  5
F71
331
28C
  5
338
331
3B5
  5
F84
331
1164
  5
32C
331
596
  5
1119
331
1175
  5
2C6
331
F6F
  5
1132
331
1186
  5
1F0
331
16E
  5
195
331
17F
  5
1CD
331
F80
  5
1149
331
F91
  5
1165
331
11A8
  5
1152
331
190
  5
1DE
331
FF9
  5
11BF
331
2A9
  5
364
331
1C9
  5
1F8
331
2BA
  5
372
331
1DA
  5
209
331
11B9
  5
9E
331
2CB
  5
383
331
1EB
  5
21A
331
324
  5
41D
331
1FC
  5
22B
331
93
  5
BA
331
3F5
  5
F9A
331
A4
  5
CF
331
335
  5
42E
331
20D
  5
23C
331
1105
  5
446
331
B5
  5
E4
331
417
  5
FB2
331
1116
  5
396
331
357
  5
44A
331
227
  5
256
331
1127
  5
3A7
331
1197
  5
87
331
418
  5
FB3
331
358
  5
44B
331
228
  5
257
331
429
  5
FC4
331
1128
  5
3A8
331
361
  5
454
331
239
  5
295
331
43A
  5
FD5
331
1139
  5
3E9
331
FAA
  5
117D
331
372
  5
465
331
24A
  5
2AD
331
44B
  5
FE6
331
114A
  5
40E
331
FBB
  5
118E
331
383
  5
588
331
454
  5
FFC
331
115B
  5
344
331
10B
  5
16D
331
FCC
  5
119F
331
394
  5
599
331
465
  5
10FA
331
11C
  5
17C
331
FDD
  5
11B0
331
3A5
  5
F72
331
28D
  5
339
331
586
  5
1109
331
1165
  5
32D
331
3B6
  5
F87
331
597
  5
111A
331
1176
  5
2C7
331
F70
  5
1135
331
1187
  5
1ED
331
16F
  5
196
331
180
  5
1CE
331
F81
  5
114A
331
F92
  5
1166
331
11A9
  5
114D
331
191
  5
1DF
331
FFA
  5
11C0
331
2AA
  5
365
331
1CA
  5
1F9
331
2BB
  5
373
331
1DB
  5
20A
331
11BA
  5
9F
331
2CC
  5
384
331
1EC
  5
21B
331
325
  5
41E
331
1FD
  5
22C
331
94
  5
BB
331
3F6
  5
F9B
331
A5
  5
D0
331
336
  5
42F
331
20E
  5
23D
331
407
  5
FA1
331
1106
  5
447
331
B6
  5
E5
331
1117
  5
397
331
C7
  5
114
331
1198
  5
88
331
408
  5
FA2
331
419
  5
FB4
331
1118
  5
398
331
218
  5
247
331
359
  5
44C
331
229
  5
258
331
42A
  5
FC5
331
1129
  5
3A9
331
D9
  5
121
331
362
  5
455
331
23A
  5
296
331
43B
  5
FD6
331
113A
  5
3EA
331
FAB
  5
117E
331
373
  5
466
331
24B
  5
2B5
331
44C
  5
FE7
331
114B
  5
40F
331
FBC
  5
118F
331
384
  5
589
331
455
  5
FFD
331
115C
  5
357
331
FCD
  5
11A0
331
395
  5
59A
331
466
  5
10FB
331
11D
  5
17D
331
FDE
  5
11B1
331
3A6
  5
F73
331
28E
  5
33A
331
587
  5
110A
331
1166
  5
32E
331
3B7
  5
F88
331
29F
  5
35A
331
598
  5
111B
331
F71
  5
1136
331
1188
  5
1EE
331
170
  5
197
331
181
  5
1CF
331
F93
  5
1167
331
192
  5
1E0
331
FFB
  5
11C1
331
2AB
  5
366
331
1CB
  5
1FA
331
2BC
  5
374
331
1DC
  5
20B
331
11BB
  5
99
331
2CD
  5
385
331
1ED
  5
21C
331
326
  5
41F
331
1FE
  5
22D
331
95
  5
BC
331
3F7
  5
F9C
331
A6
  5
D1
331
337
  5
430
331
20F
  5
23E
331
1107
  5
448
331
B7
  5
F7
331
87
  5
AE
331
1199
  5
89
331
1177
  5
2C8
331
3F8
  5
F9D
331
338
  5
431
331
210
  5
23F
331
409
  5
FA3
331
1108
  5
449
331
B8
  5
F9
331
219
  5
248
331
41A
  5
FB5
331
1119
  5
399
331
C9
  5
115
331
35A
  5
44D
331
22A
  5
259
331
42B
  5
FC6
331
112A
  5
3AA
331
DA
  5
122
331
F63
  5
111E
331
363
  5
456
331
23B
  5
297
331
43C
  5
FD7
331
113B
  5
3F4
331
FAC
  5
117F
331
374
  5
467
331
24C
  5
2B6
331
44D
  5
FE8
331
114C
  5
410
331
FBD
  5
1190
331
385
  5
58A
331
456
  5
FFF
331
115D
  5
358
331
FCE
  5
11A1
331
396
  5
F63
331
276
  5
325
331
467
  5
10FC
331
FDF
  5
11B2
331
3A7
  5
F74
331
28F
  5
33B
331
588
  5
110B
331
1167
  5
32F
331
3B8
  5
F8A
331
599
  5
111C
331
F72
  5
1137
331
1189
  5
1EB
331
171
  5
198
331
F83
  5
114E
331
182
  5
1D0
331
F94
  5
1168
331
11AB
  5
1147
331
FFC
  5
11C2
331
2AC
  5
367
331
1CC
  5
1FB
331
2BD
  5
375
331
1DD
  5
20C
331
11BC
  5
93
331
2CE
  5
386
331
1EE
  5
21D
331
327
  5
420
331
1FF
  5
22E
331
96
  5
BD
331
10F7
  5
F95
331
A7
  5
D2
331
193
  5
1E1
331
1178
  5
2C9
331
12F
  5
188
331
11E
  5
17E
331
470
  5
1105
331
328
  5
421
331
200
  5
22F
331
3F9
  5
F9E
331
10F8
  5
F96
331
A8
  5
D3
331
339
  5
432
331
211
  5
240
331
40A
  5
FA4
331
1109
  5
43E
331
B9
  5
FF
331
21A
  5
249
331
41B
  5
FB6
331
111A
  5
39A
331
CA
  5
116
331
35B
  5
44E
331
22B
  5
26D
331
42C
  5
FC7
331
112B
  5
3AB
331
DB
  5
123
331
F64
  5
111F
331
364
  5
457
331
23C
  5
29F
331
43D
  5
FD8
331
113C
  5
3F5
331
FAD
  5
1180
331
375
  5
468
331
24D
  5
2B7
331
44E
  5
FE9
331
114D
  5
411
331
105
  5
16A
331
FBE
  5
1191
331
386
  5
58B
331
457
  5
1000
331
115E
  5
359
331
FCF
  5
11A2
331
397
  5
F64
331
277
  5
326
331
468
  5
10FD
331
FE0
  5
11B3
331
3A8
  5
F75
331
290
  5
33C
331
589
  5
110C
331
1168
  5
330
331
59A
  5
111D
331
1179
  5
2CA
331
F73
  5
1138
331
118A
  5
1EC
331
F84
  5
114F
331
183
  5
1D1
331
F95
  5
1169
331
FFD
  5
11C3
331
2AD
  5
368
331
1CD
  5
1FC
331
2BE
  5
376
331
1DE
  5
20D
331
11BD
  5
94
331
2CF
  5
387
331
1EF
  5
21E
331
97
  5
BE
331
194
  5
1E2
331
172
  5
199
331
130
  5
189
331
11F
  5
17F
331
10E
  5
16E
331
2D0
  5
388
331
1F0
  5
21F
331
3E9
  5
F97
331
98
  5
BF
331
471
  5
1106
331
329
  5
422
331
201
  5
230
331
3FA
  5
F9F
331
10F9
  5
F93
331
A9
  5
D4
331
33A
  5
433
331
212
  5
241
331
40B
  5
FA5
331
110A
  5
43F
331
BA
  5
105
331
21B
  5
24A
331
41C
  5
FB7
331
111B
  5
39B
331
CB
  5
117
331
35C
  5
44F
331
22C
  5
26E
331
42D
  5
FC8
331
112C
  5
3AC
331
DC
  5
124
331
F65
  5
1120
331
365
  5
458
331
23D
  5
2A0
331
43E
  5
FD9
331
113D
  5
3F6
331
FAE
  5
1181
331
376
  5
469
331
24E
  5
2B8
331
44F
  5
FEA
331
FBF
  5
1192
331
387
  5
58C
331
458
  5
10E9
331
115F
  5
327
331
FD0
  5
11A3
331
398
  5
F65
331
469
  5
10FE
331
FE1
  5
11B4
331
3A9
  5
F76
331
291
  5
33D
331
58A
  5
110D
331
1169
  5
331
331
117A
  5
2CB
331
F74
  5
1139
331
118B
  5
A4
331
195
  5
1E3
331
184
  5
1D2
331
F96
  5
116A
331
11AD
  5
AD
331
2BF
  5
377
331
1DF
  5
20E
331
11BE
  5
95
331
1CE
  5
1FD
331
173
  5
1A1
331
131
  5
18A
331
120
  5
180
331
10F
  5
16F
331
114E
  5
412
331
2C0
  5
378
331
1E0
  5
20F
331
2D1
  5
389
331
1F1
  5
220
331
88
  5
AF
331
3EA
  5
F98
331
99
  5
C0
331
472
  5
1107
331
32A
  5
423
331
202
  5
231
331
3FB
  5
FA0
331
10FA
  5
F94
331
AA
  5
D9
331
33B
  5
434
331
213
  5
242
331
40C
  5
FA6
331
110B
  5
440
331
BB
  5
109
331
21C
  5
24B
331
41D
  5
FB8
331
111C
  5
39C
331
CC
  5
118
331
35D
  5
450
331
22D
  5
276
331
42E
  5
FC9
331
112D
  5
3AD
331
DD
  5
125
331
F66
  5
1121
331
366
  5
459
331
23E
  5
2A1
331
43F
  5
FDA
331
FAF
  5
1182
331
377
  5
46A
331
24F
  5
2B9
331
FC0
  5
1193
331
388
  5
58D
331
114F
  5
413
331
459
  5
10EC
331
110
  5
170
331
FD1
  5
11A4
331
46A
  5
10FF
331
121
  5
181
331
FE2
  5
11B5
331
3AA
  5
F77
331
58B
  5
110E
331
116A
  5
332
331
132
  5
18B
331
174
  5
1A2
331
F75
  5
113A
331
119D
  5
115D
331
185
  5
1D3
331
196
  5
1E4
331
F97
  5
116B
331
11AE
  5
AA
331
FFF
  5
11C4
331
1CF
  5
1FE
331
11BF
  5
8D
331
118C
  5
A5
331
117B
  5
2CC
331
292
  5
33E
331
399
  5
F66
331
113E
  5
3F7
  0
XRECORD
  5
11CB
102
{ACAD_REACTORS
330
11C9
102
}
330
11C9
100
AcDbXrecord
280
     1
 70
     2
  0
XRECORD
  5
11CA
102
{ACAD_REACTORS
330
11C9
102
}
330
11C9
100
AcDbXrecord
280
     1
 40
1.25
  0
XRECORD
  5
11CC
102
{ACAD_REACTORS
330
11C9
102
}
330
11C9
100
AcDbXrecord
280
     1
 40
1.570796326794896
  0
LAYOUT
  5
39
102
{ACAD_XDICTIONARY
360
11F0
102
}
102
{ACAD_REACTORS
330
2E
102
}
330
2E
100
AcDbPlotSettings
  1

  2
PDF Complete
  4

  6

 40
0.0
 41
0.0
 42
0.0
 43
0.0
 44
0.0
 45
0.0
 46
0.0
 47
0.0
 48
0.0
 49
0.0
140
0.0
141
0.0
142
1.0
143
1.0
 70
  1712
 72
     0
 73
     0
 74
     0
  7

 75
     0
147
1.0
148
0.0
149
0.0
100
AcDbLayout
  1
Model
 70
     1
 71
     0
 10
0.0
 20
0.0
 11
12.0
 21
9.0
 12
0.0
 22
0.0
 32
0.0
 14
0.0
 24
0.0
 34
0.0
 15
0.0
 25
0.0
 35
0.0
146
0.0
 13
0.0
 23
0.0
 33
0.0
 16
1.0
 26
0.0
 36
0.0
 17
0.0
 27
1.0
 37
0.0
 76
     0
330
36
331
57
  0
LAYOUT
  5
35
102
{ACAD_XDICTIONARY
360
11EE
102
}
102
{ACAD_REACTORS
330
2E
102
}
330
2E
100
AcDbPlotSettings
  1

  2
PDF Complete
  4

  6

 40
0.0
 41
0.0
 42
0.0
 43
0.0
 44
0.0
 45
0.0
 46
0.0
 47
0.0
 48
0.0
 49
0.0
140
0.0
141
0.0
142
1.0
143
1.0
 70
   688
 72
     0
 73
     0
 74
     5
  7

 75
    16
147
1.0
148
0.0
149
0.0
100
AcDbLayout
  1
レイアウト1
 70
     1
 71
     1
 10
0.0
 20
0.0
 11
12.0
 21
9.0
 12
0.0
 22
0.0
 32
0.0
 14
1.000000000000000E+20
 24
1.000000000000000E+20
 34
1.000000000000000E+20
 15
-1.000000000000000E+20
 25
-1.000000000000000E+20
 35
-1.000000000000000E+20
146
0.0
 13
0.0
 23
0.0
 33
0.0
 16
1.0
 26
0.0
 36
0.0
 17
0.0
 27
1.0
 37
0.0
 76
     0
330
32
  0
MATERIAL
  5
12
102
{ACAD_XDICTIONARY
360
47E
102
}
102
{ACAD_REACTORS
330
10
102
}
330
10
100
AcDbMaterial
  1
ByBlock
  0
MATERIAL
  5
11
102
{ACAD_XDICTIONARY
360
47C
102
}
102
{ACAD_REACTORS
330
10
102
}
330
10
100
AcDbMaterial
  1
ByLayer
  0
MATERIAL
  5
13
102
{ACAD_XDICTIONARY
360
480
102
}
102
{ACAD_REACTORS
330
10
102
}
330
10
100
AcDbMaterial
  1
Global
  0
MLEADERSTYLE
  5
4A9
102
{ACAD_REACTORS
330
4A8
102
}
330
4A8
100
AcDbMLeaderStyle
170
     2
171
     1
172
     0
 90
        2
 40
0.0
 41
0.0
173
     1
 91
-1056964608
340
28
 92
       -2
290
     1
 42
0.09
291
     1
 43
0.36
  3
Standard
 44
0.18
300

342
26
174
     1
178
     6
175
     1
176
     0
 93
-1056964608
 45
0.18
292
     0
297
     0
 46
0.18
 94
-1056964608
 47
1.0
 49
1.0
140
1.0
293
     1
141
0.0
294
     1
177
     0
142
1.0
295
     0
296
     0
143
0.125
1001
ACAD_MLEADERVER
1070
     2
  0
MLINESTYLE
  5
2C
102
{ACAD_REACTORS
330
2B
102
}
330
2B
100
AcDbMlineStyle
  2
STANDARD
 70
     0
  3

 62
   256
 51
90.0
 52
90.0
 71
     2
 49
0.5
 62
   256
  6
BYLAYER
 49
-0.5
 62
   256
  6
BYLAYER
  0
ACDBPLACEHOLDER
  5
F
102
{ACAD_REACTORS
330
E
102
}
330
E
  0
SCALE
  5
497
102
{ACAD_REACTORS
330
496
102
}
330
496
100
AcDbScale
 70
     0
300
1:1
140
1.0
141
1.0
290
     1
  0
SCALE
  5
498
102
{ACAD_REACTORS
330
496
102
}
330
496
100
AcDbScale
 70
     0
300
1/128" = 1'-0"
140
0.0078125
141
12.0
290
     0
  0
SCALE
  5
499
102
{ACAD_REACTORS
330
496
102
}
330
496
100
AcDbScale
 70
     0
300
1/64" = 1'-0"
140
0.015625
141
12.0
290
     0
  0
SCALE
  5
49A
102
{ACAD_REACTORS
330
496
102
}
330
496
100
AcDbScale
 70
     0
300
1/32" = 1'-0"
140
0.03125
141
12.0
290
     0
  0
SCALE
  5
49B
102
{ACAD_REACTORS
330
496
102
}
330
496
100
AcDbScale
 70
     0
300
1/16" = 1'-0"
140
0.0625
141
12.0
290
     0
  0
SCALE
  5
49C
102
{ACAD_REACTORS
330
496
102
}
330
496
100
AcDbScale
 70
     0
300
3/32" = 1'-0"
140
0.09375
141
12.0
290
     0
  0
SCALE
  5
49D
102
{ACAD_REACTORS
330
496
102
}
330
496
100
AcDbScale
 70
     0
300
1/8" = 1'-0"
140
0.125
141
12.0
290
     0
  0
SCALE
  5
49E
102
{ACAD_REACTORS
330
496
102
}
330
496
100
AcDbScale
 70
     0
300
3/16" = 1'-0"
140
0.1875
141
12.0
290
     0
  0
SCALE
  5
49F
102
{ACAD_REACTORS
330
496
102
}
330
496
100
AcDbScale
 70
     0
300
1/4" = 1'-0"
140
0.25
141
12.0
290
     0
  0
SCALE
  5
4A0
102
{ACAD_REACTORS
330
496
102
}
330
496
100
AcDbScale
 70
     0
300
3/8" = 1'-0"
140
0.375
141
12.0
290
     0
  0
SCALE
  5
4A1
102
{ACAD_REACTORS
330
496
102
}
330
496
100
AcDbScale
 70
     0
300
1/2" = 1'-0"
140
0.5
141
12.0
290
     0
  0
SCALE
  5
4A2
102
{ACAD_REACTORS
330
496
102
}
330
496
100
AcDbScale
 70
     0
300
3/4" = 1'-0"
140
0.75
141
12.0
290
     0
  0
SCALE
  5
4A3
102
{ACAD_REACTORS
330
496
102
}
330
496
100
AcDbScale
 70
     0
300
1" = 1'-0"
140
1.0
141
12.0
290
     0
  0
SCALE
  5
4A4
102
{ACAD_REACTORS
330
496
102
}
330
496
100
AcDbScale
 70
     0
300
1-1/2" = 1'-0"
140
1.5
141
12.0
290
     0
  0
SCALE
  5
4A5
102
{ACAD_REACTORS
330
496
102
}
330
496
100
AcDbScale
 70
     0
300
3" = 1'-0"
140
3.0
141
12.0
290
     0
  0
SCALE
  5
4A6
102
{ACAD_REACTORS
330
496
102
}
330
496
100
AcDbScale
 70
     0
300
6" = 1'-0"
140
6.0
141
12.0
290
     0
  0
SCALE
  5
4A7
102
{ACAD_REACTORS
330
496
102
}
330
496
100
AcDbScale
 70
     0
300
1'-0" = 1'-0"
140
12.0
141
12.0
290
     0
  0
TABLESTYLE
  5
31
102
{ACAD_XDICTIONARY
360
732
102
}
102
{ACAD_REACTORS
330
30
102
}
330
30
100
AcDbTableStyle
  3
Standard
 70
     0
 71
     0
 40
0.06
 41
0.06
280
     0
281
     0
  7
STANDARD
140
0.18
170
     2
 62
     0
 63
     7
283
     0
274
    -2
284
     1
 64
     0
275
    -2
285
     1
 65
     0
276
    -2
286
     1
 66
     0
277
    -2
287
     1
 67
     0
278
    -2
288
     1
 68
     0
279
    -2
289
     1
 69
     0
  7
STANDARD
140
0.25
170
     5
 62
     0
 63
     7
283
     0
274
    -2
284
     1
 64
     0
275
    -2
285
     1
 65
     0
276
    -2
286
     1
 66
     0
277
    -2
287
     1
 67
     0
278
    -2
288
     1
 68
     0
279
    -2
289
     1
 69
     0
  7
STANDARD
140
0.18
170
     5
 62
     0
 63
     7
283
     0
274
    -2
284
     1
 64
     0
275
    -2
285
     1
 65
     0
276
    -2
286
     1
 66
     0
277
    -2
287
     1
 67
     0
278
    -2
288
     1
 68
     0
279
    -2
289
     1
 69
     0
  0
VISUALSTYLE
  5
1A
102
{ACAD_XDICTIONARY
360
11D7
102
}
102
{ACAD_REACTORS
330
14
102
}
330
14
100
AcDbVisualStyle
  2

 70
     4
 71
     0
 72
     2
 73
     0
 90
        0
 40
-0.6
 41
-30.0
 62
     5
 63
     7
 74
     1
 91
        4
 64
     7
 65
   257
 75
     1
175
     1
 42
1.0
 92
        0
 66
   257
 43
1.0
 76
     1
 77
     6
 78
     2
 67
     7
 79
     5
170
     0
171
     0
290
     0
174
     0
 93
        1
 44
0.0
173
     0
291
     0
 45
0.0
1001
ACAD
1000
AcDbSavedByObjectVersion
1070
     0
  0
VISUALSTYLE
  5
1C
102
{ACAD_XDICTIONARY
360
11DB
102
}
102
{ACAD_REACTORS
330
14
102
}
330
14
100
AcDbVisualStyle
  2

 70
     6
 71
     1
 72
     2
 73
     2
 90
        0
 40
-0.6
 41
-30.0
 62
     5
 63
     7
 74
     2
 91
        2
 64
     7
 65
   257
 75
     2
175
     1
 42
40.0
 92
        0
 66
   257
 43
1.0
 76
     1
 77
     6
 78
     2
 67
     7
 79
     3
170
     0
171
     0
290
     0
174
     0
 93
        1
 44
0.0
173
     0
291
     0
 45
0.0
1001
ACAD
1000
AcDbSavedByObjectVersion
1070
     0
  0
VISUALSTYLE
  5
1B
102
{ACAD_XDICTIONARY
360
11D9
102
}
102
{ACAD_REACTORS
330
14
102
}
330
14
100
AcDbVisualStyle
  2

 70
     5
 71
     0
 72
     2
 73
     0
 90
        0
 40
-0.6
 41
-30.0
 62
     5
 63
     7
 74
     1
 91
        4
 64
     7
 65
   257
 75
     1
175
     1
 42
1.0
 92
        0
 66
   257
 43
1.0
 76
     1
 77
     6
 78
     2
 67
     7
 79
     5
170
     0
171
     0
290
     0
174
     0
 93
        1
 44
0.0
173
     0
291
     0
 45
0.0
1001
ACAD
1000
AcDbSavedByObjectVersion
1070
     0
  0
VISUALSTYLE
  5
19
102
{ACAD_XDICTIONARY
360
11D5
102
}
102
{ACAD_REACTORS
330
14
102
}
330
14
100
AcDbVisualStyle
  2

 70
     7
 71
     1
 72
     0
 73
     1
 90
        0
 40
-0.6
 41
-30.0
 62
     5
 63
     7
 74
     0
 91
        4
 64
     7
 65
   257
 75
     1
175
     1
 42
1.0
 92
        8
 66
     7
 43
1.0
 76
     1
 77
     6
 78
     2
 67
     7
 79
     5
170
     0
171
     0
290
     0
174
     0
 93
        1
 44
0.0
173
     0
291
     1
 45
0.0
1001
ACAD
1000
AcDbSavedByObjectVersion
1070
     0
  0
VISUALSTYLE
  5
20
102
{ACAD_XDICTIONARY
360
11E3
102
}
102
{ACAD_REACTORS
330
14
102
}
330
14
100
AcDbVisualStyle
  2

 70
    12
 71
     2
 72
     2
 73
     0
 90
        0
 40
-0.6
 41
-30.0
 62
     5
 63
     7
 74
     1
 91
        4
 64
     7
 65
   257
 75
     1
175
     1
 42
1.0
 92
        8
 66
     7
 43
1.0
 76
     1
 77
     6
 78
     2
 67
     7
 79
     5
170
     0
171
     0
290
     0
174
     0
 93
        1
 44
50.0
173
     0
291
     1
 45
0.0
1001
ACAD
1000
AcDbSavedByObjectVersion
1070
     0
  0
VISUALSTYLE
  5
24
102
{ACAD_XDICTIONARY
360
11EB
102
}
102
{ACAD_REACTORS
330
14
102
}
330
14
100
AcDbVisualStyle
  2

 70
    16
 71
     2
 72
     2
 73
     3
 90
        0
 40
-0.6
 41
-30.0
 62
     5
 63
     8
 74
     1
 91
        4
 64
     7
 65
   257
 75
     1
175
     1
 42
1.0
 92
        8
 66
     8
 43
1.0
 76
     1
 77
     6
 78
     2
 67
     7
 79
     5
170
     0
171
     0
290
     0
174
     0
 93
        1
 44
0.0
173
     0
291
     1
 45
0.0
1001
ACAD
1000
AcDbSavedByObjectVersion
1070
     0
  0
VISUALSTYLE
  5
1D
102
{ACAD_XDICTIONARY
360
11DD
102
}
102
{ACAD_REACTORS
330
14
102
}
330
14
100
AcDbVisualStyle
  2

 70
     9
 71
     3
 72
     2
 73
     0
 90
        0
 40
-0.6
 41
-30.0
 62
     5
 63
     7
 74
     2
 91
        2
 64
     7
 65
   257
 75
     1
175
     1
 42
40.0
 92
        8
 66
     7
 43
1.0
 76
     1
 77
     6
 78
     2
 67
     7
 79
     3
170
     0
171
     0
290
     0
174
     0
 93
        1
 44
0.0
173
     0
291
     0
 45
0.0
1001
ACAD
1000
AcDbSavedByObjectVersion
1070
     0
  0
VISUALSTYLE
  5
1F
102
{ACAD_XDICTIONARY
360
11E1
102
}
102
{ACAD_REACTORS
330
14
102
}
330
14
100
AcDbVisualStyle
  2

 70
    11
 71
     2
 72
     2
 73
     0
 90
        0
 40
-0.6
 41
-30.0
 62
     5
 63
     7
 74
     1
 91
        4
 64
     7
 65
   257
 75
     1
175
     1
 42
1.0
 92
        8
 66
     7
 43
1.0
 76
     1
 77
     6
 78
     2
 67
     7
 79
     5
170
     0
171
     0
290
     0
174
     0
 93
        1
 44
-50.0
173
     0
291
     1
 45
0.0
1001
ACAD
1000
AcDbSavedByObjectVersion
1070
     0
  0
VISUALSTYLE
  5
495
102
{ACAD_XDICTIONARY
360
1204
102
}
102
{ACAD_REACTORS
330
14
102
}
330
14
100
AcDbVisualStyle
  2

 70
    22
 71
     2
 72
     2
 73
     0
 90
        0
 40
-0.6
 41
-30.0
 62
     5
 63
     7
 74
     1
 91
        4
 64
     7
 65
   257
 75
     1
175
     1
 42
1.0
 92
        8
 66
     7
 43
1.0
 76
     1
 77
     6
 78
     2
 67
     7
 79
     5
170
     0
171
     0
290
     0
174
     0
 93
        1
 44
0.0
173
     0
291
     1
 45
0.0
1001
ACAD
1000
AcDbSavedByObjectVersion
1070
     0
  0
VISUALSTYLE
  5
23
102
{ACAD_XDICTIONARY
360
11E9
102
}
102
{ACAD_REACTORS
330
14
102
}
330
14
100
AcDbVisualStyle
  2

 70
    15
 71
     2
 72
     2
 73
     0
 90
        0
 40
-0.6
 41
-30.0
 62
     5
 63
     7
 74
     1
 91
        4
 64
     7
 65
   257
 75
     1
175
     1
 42
1.0
 92
        8
 66
     7
 43
1.0
 76
     1
 77
     6
 78
     2
 67
     7
 79
     5
170
     0
171
     0
290
     0
174
     0
 93
        1
 44
0.0
173
     0
291
     1
 45
0.0
1001
ACAD
1000
AcDbSavedByObjectVersion
1070
     0
  0
VISUALSTYLE
  5
15
102
{ACAD_XDICTIONARY
360
11CD
102
}
102
{ACAD_REACTORS
330
14
102
}
330
14
100
AcDbVisualStyle
  2

 70
     0
 71
     2
 72
     1
 73
     1
 90
        2
 40
-0.6
 41
30.0
 62
     5
 63
     7
 74
     0
 91
        4
 64
     7
 65
   257
 75
     1
175
     1
 42
1.0
 92
        8
 66
     7
 43
1.0
 76
     1
 77
     6
 78
     2
 67
     7
 79
     5
170
     0
171
     0
290
     0
174
     0
 93
       13
 44
0.0
173
     0
291
     1
 45
0.0
1001
ACAD
1000
AcDbSavedByObjectVersion
1070
     0
  0
VISUALSTYLE
  5
16
102
{ACAD_XDICTIONARY
360
11CF
102
}
102
{ACAD_REACTORS
330
14
102
}
330
14
100
AcDbVisualStyle
  2

 70
     1
 71
     2
 72
     1
 73
     1
 90
        2
 40
-0.6
 41
30.0
 62
     5
 63
     7
 74
     1
 91
        4
 64
     7
 65
   257
 75
     1
175
     1
 42
1.0
 92
        0
 66
   257
 43
1.0
 76
     1
 77
     6
 78
     2
 67
     7
 79
     5
170
     0
171
     0
290
     0
174
     0
 93
       13
 44
0.0
173
     0
291
     1
 45
0.0
1001
ACAD
1000
AcDbSavedByObjectVersion
1070
     0
  0
VISUALSTYLE
  5
17
102
{ACAD_XDICTIONARY
360
11D1
102
}
102
{ACAD_REACTORS
330
14
102
}
330
14
100
AcDbVisualStyle
  2

 70
     2
 71
     2
 72
     2
 73
     1
 90
        2
 40
-0.6
 41
30.0
 62
     5
 63
     7
 74
     0
 91
        4
 64
     7
 65
   257
 75
     1
175
     1
 42
1.0
 92
        0
 66
     7
 43
1.0
 76
     1
 77
     6
 78
     2
 67
     7
 79
     5
170
     0
171
     0
290
     0
174
     0
 93
       13
 44
0.0
173
     0
291
     1
 45
0.0
1001
ACAD
1000
AcDbSavedByObjectVersion
1070
     0
  0
VISUALSTYLE
  5
18
102
{ACAD_XDICTIONARY
360
11D3
102
}
102
{ACAD_REACTORS
330
14
102
}
330
14
100
AcDbVisualStyle
  2

 70
     3
 71
     2
 72
     2
 73
     1
 90
        2
 40
-0.6
 41
30.0
 62
     5
 63
     7
 74
     1
 91
        4
 64
     7
 65
   257
 75
     1
175
     1
 42
1.0
 92
        0
 66
   257
 43
1.0
 76
     1
 77
     6
 78
     2
 67
     7
 79
     5
170
     0
171
     0
290
     0
174
     0
 93
       13
 44
0.0
173
     0
291
     1
 45
0.0
1001
ACAD
1000
AcDbSavedByObjectVersion
1070
     0
  0
VISUALSTYLE
  5
48D
102
{ACAD_XDICTIONARY
360
11F4
102
}
102
{ACAD_REACTORS
330
14
102
}
330
14
100
AcDbVisualStyle
  2

 70
     6
 71
     1
 72
     2
 73
     2
 90
        0
 40
-0.6
 41
-30.0
 62
     5
 63
     7
 74
     2
 91
        2
 64
     7
 65
   257
 75
     2
175
     1
 42
40.0
 92
        0
 66
   257
 43
1.0
 76
     1
 77
     6
 78
     2
 67
     7
 79
     3
170
     0
171
     0
290
     0
174
     0
 93
        1
 44
0.0
173
     0
291
     0
 45
0.0
1001
ACAD
1000
AcDbSavedByObjectVersion
1070
     0
  0
VISUALSTYLE
  5
493
102
{ACAD_XDICTIONARY
360
1200
102
}
102
{ACAD_REACTORS
330
14
102
}
330
14
100
AcDbVisualStyle
  2

 70
    20
 71
     2
 72
     2
 73
     0
 90
        0
 40
-0.6
 41
-30.0
 62
     5
 63
     7
 74
     1
 91
        4
 64
     7
 65
   257
 75
     1
175
     1
 42
1.0
 92
       10
 66
     7
 43
1.0
 76
     1
 77
     6
 78
     2
 67
     7
 79
     5
170
     0
171
     0
290
     0
174
     0
 93
        1
 44
0.0
173
     0
291
     1
 45
0.0
1001
ACAD
1000
AcDbSavedByObjectVersion
1070
     0
  0
VISUALSTYLE
  5
22
102
{ACAD_XDICTIONARY
360
11E7
102
}
102
{ACAD_REACTORS
330
14
102
}
330
14
100
AcDbVisualStyle
  2

 70
    14
 71
     2
 72
     2
 73
     0
 90
        0
 40
-0.6
 41
-30.0
 62
     5
 63
     7
 74
     1
 91
        4
 64
     7
 65
   257
 75
     7
175
     7
 42
1.0
 92
        8
 66
     7
 43
1.0
 76
     1
 77
     6
 78
     2
 67
     7
 79
     5
170
     0
171
     0
290
     0
174
     0
 93
        1
 44
0.0
173
     0
291
     1
 45
0.0
1001
ACAD
1000
AcDbSavedByObjectVersion
1070
     0
  0
VISUALSTYLE
  5
494
102
{ACAD_XDICTIONARY
360
1202
102
}
102
{ACAD_REACTORS
330
14
102
}
330
14
100
AcDbVisualStyle
  2

 70
    21
 71
     2
 72
     2
 73
     0
 90
        0
 40
-0.6
 41
-30.0
 62
     5
 63
     7
 74
     1
 91
        4
 64
     7
 65
   257
 75
     1
175
     1
 42
1.0
 92
        9
 66
     7
 43
1.0
 76
     1
 77
     6
 78
     2
 67
     7
 79
     5
170
     0
171
     0
290
     0
174
     0
 93
        1
 44
0.0
173
     0
291
     1
 45
0.0
1001
ACAD
1000
AcDbSavedByObjectVersion
1070
     0
  0
VISUALSTYLE
  5
1E
102
{ACAD_XDICTIONARY
360
11DF
102
}
102
{ACAD_REACTORS
330
14
102
}
330
14
100
AcDbVisualStyle
  2

 70
     8
 71
     2
 72
     2
 73
     0
 90
        0
 40
-0.6
 41
-30.0
 62
     5
 63
     7
 74
     1
 91
        0
 64
     7
 65
   257
 75
     1
175
     1
 42
1.0
 92
        8
 66
     8
 43
1.0
 76
     1
 77
     6
 78
     2
 67
     7
 79
     5
170
     0
171
     0
290
     0
174
     0
 93
       13
 44
0.0
173
     0
291
     0
 45
0.0
1001
ACAD
1000
AcDbSavedByObjectVersion
1070
     0
  0
VISUALSTYLE
  5
492
102
{ACAD_XDICTIONARY
360
11FE
102
}
102
{ACAD_REACTORS
330
14
102
}
330
14
100
AcDbVisualStyle
  2

 70
    27
 71
     2
 72
     2
 73
     1
 90
        2
 40
-0.6
 41
30.0
 62
     5
 63
     7
 74
     0
 91
        4
 64
     7
 65
   257
 75
     1
175
     1
 42
1.0
 92
        8
 66
   257
 43
1.0
 76
     1
 77
     6
 78
     2
 67
     8
 79
     3
170
     0
171
     0
290
     0
174
     0
 93
        5
 44
0.0
173
     0
291
     0
 45
0.0
1001
ACAD
1000
AcDbSavedByObjectVersion
1070
     0
  0
VISUALSTYLE
  5
491
102
{ACAD_XDICTIONARY
360
11FC
102
}
102
{ACAD_REACTORS
330
14
102
}
330
14
100
AcDbVisualStyle
  2

 70
    26
 71
     2
 72
     2
 73
     1
 90
        2
 40
-0.6
 41
30.0
 62
     5
 63
     7
 74
     1
 91
       10
 64
     7
 65
   257
 75
     2
175
     1
 42
1.0
 92
        8
 66
   257
 43
1.0
 76
     1
 77
     6
 78
     2
 67
     7
 79
     3
170
     0
171
     0
290
     0
174
     0
 93
        5
 44
0.0
173
     0
291
     0
 45
0.0
1001
ACAD
1000
AcDbSavedByObjectVersion
1070
     0
  0
VISUALSTYLE
  5
48E
102
{ACAD_XDICTIONARY
360
11F6
102
}
102
{ACAD_REACTORS
330
14
102
}
330
14
100
AcDbVisualStyle
  2

 70
    23
 71
     2
 72
     2
 73
     3
 90
        0
 40
-0.6
 41
-30.0
 62
     5
 63
     7
 74
     2
 91
        2
 64
     7
 65
     7
 75
     1
175
     1
 42
40.0
 92
        8
 66
     7
 43
1.0
 76
     1
 77
     6
 78
     2
 67
     7
 79
     3
170
     0
171
     0
290
     0
174
     0
 93
        1
 44
0.0
173
     0
291
     0
 45
0.0
1001
ACAD
1000
AcDbSavedByObjectVersion
1070
     0
  0
VISUALSTYLE
  5
48F
102
{ACAD_XDICTIONARY
360
11F8
102
}
102
{ACAD_REACTORS
330
14
102
}
330
14
100
AcDbVisualStyle
  2

 70
    24
 71
     1
 72
     2
 73
     2
 90
        0
 40
-0.6
 41
-30.0
 62
     5
 63
     7
 74
     2
 91
        2
 64
     7
 65
     7
 75
     1
175
     1
 42
40.0
 92
       11
 66
     7
 43
1.0
 76
     1
 77
     6
 78
     2
 67
     7
 79
     6
170
     0
171
     0
290
     0
174
     0
 93
        1
 44
0.0
173
     0
291
     0
 45
0.0
1001
ACAD
1000
AcDbSavedByObjectVersion
1070
     0
  0
VISUALSTYLE
  5
21
102
{ACAD_XDICTIONARY
360
11E5
102
}
102
{ACAD_REACTORS
330
14
102
}
330
14
100
AcDbVisualStyle
  2

 70
    13
 71
     2
 72
     2
 73
     0
 90
        0
 40
-0.6
 41
-30.0
 62
     5
 63
     7
 74
     1
 91
        4
 64
     7
 65
   257
 75
     1
175
     1
 42
1.0
 92
       12
 66
     7
 43
1.0
 76
     1
 77
     6
 78
     2
 67
     7
 79
     5
170
     0
171
     0
290
     0
174
     0
 93
        1
 44
0.0
173
     0
291
     1
 45
0.0
1001
ACAD
1000
AcDbSavedByObjectVersion
1070
     0
  0
VISUALSTYLE
  5
48C
102
{ACAD_XDICTIONARY
360
11F2
102
}
102
{ACAD_REACTORS
330
14
102
}
330
14
100
AcDbVisualStyle
  2

 70
     5
 71
     0
 72
     2
 73
     0
 90
        0
 40
-0.6
 41
-30.0
 62
     5
 63
     7
 74
     1
 91
        4
 64
     7
 65
   257
 75
     1
175
     1
 42
1.0
 92
        0
 66
   257
 43
1.0
 76
     1
 77
     6
 78
     2
 67
     7
 79
     3
170
     0
171
     0
290
     0
174
     0
 93
        1
 44
0.0
173
     0
291
     0
 45
0.0
1001
ACAD
1000
AcDbSavedByObjectVersion
1070
     0
  0
VISUALSTYLE
  5
490
102
{ACAD_XDICTIONARY
360
11FA
102
}
102
{ACAD_REACTORS
330
14
102
}
330
14
100
AcDbVisualStyle
  2

 70
    25
 71
     2
 72
     2
 73
     1
 90
        1
 40
0.5
 41
-30.0
 62
     5
 63
     7
 74
     1
 91
        0
 64
     7
 65
   257
 75
     1
175
     1
 42
1.0
 92
        8
 66
     7
 43
1.0
 76
     1
 77
     6
 78
     2
 67
     7
 79
     3
170
     0
171
     0
290
     0
174
     0
 93
       13
 44
0.0
173
     0
291
     0
 45
0.0
1001
ACAD
1000
AcDbSavedByObjectVersion
1070
     0
  0
DICTIONARYVAR
  5
730
102
{ACAD_REACTORS
330
476
102
}
330
476
100
DictionaryVariables
280
     0
  1
1:1
  0
DICTIONARYVAR
  5
72F
102
{ACAD_REACTORS
330
476
102
}
330
476
100
DictionaryVariables
280
     0
  1
STANDARD
  0
DICTIONARYVAR
  5
477
102
{ACAD_REACTORS
330
476
102
}
330
476
100
DictionaryVariables
280
     0
  1
STANDARD
  0
DICTIONARYVAR
  5
47A
102
{ACAD_REACTORS
330
476
102
}
330
476
100
DictionaryVariables
280
     0
  1
1
  0
DICTIONARYVAR
  5
479
102
{ACAD_REACTORS
330
476
102
}
330
476
100
DictionaryVariables
280
     0
  1
0
  0
DICTIONARYVAR
  5
478
102
{ACAD_REACTORS
330
476
102
}
330
476
100
DictionaryVariables
280
     0
  1
127
  0
DICTIONARYVAR
  5
1068
102
{ACAD_REACTORS
330
476
102
}
330
476
100
DictionaryVariables
280
     0
  1
2
  0
DICTIONARY
  5
11F0
330
39
100
AcDbDictionary
280
     1
281
     1
  3
ACAD_XREC_ROUNDTRIP
360
11F1
  0
DICTIONARY
  5
11EE
330
35
100
AcDbDictionary
280
     1
281
     1
  3
ACAD_XREC_ROUNDTRIP
360
11EF
  0
DICTIONARY
  5
47E
330
12
100
AcDbDictionary
280
     1
281
     1
  3
ACAD_XREC_ROUNDTRIP
360
47F
  0
DICTIONARY
  5
47C
330
11
100
AcDbDictionary
280
     1
281
     1
  3
ACAD_XREC_ROUNDTRIP
360
47D
  0
DICTIONARY
  5
480
330
13
100
AcDbDictionary
280
     1
281
     1
  3
ACAD_XREC_ROUNDTRIP
360
481
  0
DICTIONARY
  5
732
330
31
100
AcDbDictionary
280
     1
281
     1
  3
ACAD_ROUNDTRIP_2008_TABLESTYLE_CELLSTYLEMAP
360
11C6
  3
ACAD_XREC_ROUNDTRIP
360
11ED
  0
DICTIONARY
  5
11D7
330
1A
100
AcDbDictionary
280
     1
281
     1
  3
ACAD_XREC_ROUNDTRIP
360
11D8
  0
DICTIONARY
  5
11DB
330
1C
100
AcDbDictionary
280
     1
281
     1
  3
ACAD_XREC_ROUNDTRIP
360
11DC
  0
DICTIONARY
  5
11D9
330
1B
100
AcDbDictionary
280
     1
281
     1
  3
ACAD_XREC_ROUNDTRIP
360
11DA
  0
DICTIONARY
  5
11D5
330
19
100
AcDbDictionary
280
     1
281
     1
  3
ACAD_XREC_ROUNDTRIP
360
11D6
  0
DICTIONARY
  5
11E3
330
20
100
AcDbDictionary
280
     1
281
     1
  3
ACAD_XREC_ROUNDTRIP
360
11E4
  0
DICTIONARY
  5
11EB
330
24
100
AcDbDictionary
280
     1
281
     1
  3
ACAD_XREC_ROUNDTRIP
360
11EC
  0
DICTIONARY
  5
11DD
330
1D
100
AcDbDictionary
280
     1
281
     1
  3
ACAD_XREC_ROUNDTRIP
360
11DE
  0
DICTIONARY
  5
11E1
330
1F
100
AcDbDictionary
280
     1
281
     1
  3
ACAD_XREC_ROUNDTRIP
360
11E2
  0
DICTIONARY
  5
1204
330
495
100
AcDbDictionary
280
     1
281
     1
  3
ACAD_XREC_ROUNDTRIP
360
1205
  0
DICTIONARY
  5
11E9
330
23
100
AcDbDictionary
280
     1
281
     1
  3
ACAD_XREC_ROUNDTRIP
360
11EA
  0
DICTIONARY
  5
11CD
330
15
100
AcDbDictionary
280
     1
281
     1
  3
ACAD_XREC_ROUNDTRIP
360
11CE
  0
DICTIONARY
  5
11CF
330
16
100
AcDbDictionary
280
     1
281
     1
  3
ACAD_XREC_ROUNDTRIP
360
11D0
  0
DICTIONARY
  5
11D1
330
17
100
AcDbDictionary
280
     1
281
     1
  3
ACAD_XREC_ROUNDTRIP
360
11D2
  0
DICTIONARY
  5
11D3
330
18
100
AcDbDictionary
280
     1
281
     1
  3
ACAD_XREC_ROUNDTRIP
360
11D4
  0
DICTIONARY
  5
11F4
330
48D
100
AcDbDictionary
280
     1
281
     1
  3
ACAD_XREC_ROUNDTRIP
360
11F5
  0
DICTIONARY
  5
1200
330
493
100
AcDbDictionary
280
     1
281
     1
  3
ACAD_XREC_ROUNDTRIP
360
1201
  0
DICTIONARY
  5
11E7
330
22
100
AcDbDictionary
280
     1
281
     1
  3
ACAD_XREC_ROUNDTRIP
360
11E8
  0
DICTIONARY
  5
1202
330
494
100
AcDbDictionary
280
     1
281
     1
  3
ACAD_XREC_ROUNDTRIP
360
1203
  0
DICTIONARY
  5
11DF
330
1E
100
AcDbDictionary
280
     1
281
     1
  3
ACAD_XREC_ROUNDTRIP
360
11E0
  0
DICTIONARY
  5
11FE
330
492
100
AcDbDictionary
280
     1
281
     1
  3
ACAD_XREC_ROUNDTRIP
360
11FF
  0
DICTIONARY
  5
11FC
330
491
100
AcDbDictionary
280
     1
281
     1
  3
ACAD_XREC_ROUNDTRIP
360
11FD
  0
DICTIONARY
  5
11F6
330
48E
100
AcDbDictionary
280
     1
281
     1
  3
ACAD_XREC_ROUNDTRIP
360
11F7
  0
DICTIONARY
  5
11F8
330
48F
100
AcDbDictionary
280
     1
281
     1
  3
ACAD_XREC_ROUNDTRIP
360
11F9
  0
DICTIONARY
  5
11E5
330
21
100
AcDbDictionary
280
     1
281
     1
  3
ACAD_XREC_ROUNDTRIP
360
11E6
  0
DICTIONARY
  5
11F2
330
48C
100
AcDbDictionary
280
     1
281
     1
  3
ACAD_XREC_ROUNDTRIP
360
11F3
  0
DICTIONARY
  5
11FA
330
490
100
AcDbDictionary
280
     1
281
     1
  3
ACAD_XREC_ROUNDTRIP
360
11FB
  0
XRECORD
  5
11F1
102
{ACAD_REACTORS
330
11F0
102
}
330
11F0
100
AcDbXrecord
280
     1
102
SHADEPLOT
 70
     0
102
SHADEPLOTRESLEVEL
 70
     2
102
SHADEPLOTCUSTOMDPI
 70
   300
  0
XRECORD
  5
11EF
102
{ACAD_REACTORS
330
11EE
102
}
330
11EE
100
AcDbXrecord
280
     1
102
SHADEPLOT
 70
     0
102
SHADEPLOTRESLEVEL
 70
     2
102
SHADEPLOTCUSTOMDPI
 70
   300
  0
XRECORD
  5
47F
102
{ACAD_REACTORS
330
47E
102
}
330
47E
100
AcDbXrecord
280
     1
102
MATERIAL
148
0.0
149
0.0
149
0.0
 93
        0
 94
      127
282
     0
 72
     1
 77
     1
171
     1
175
     1
179
     1
273
     0
  0
XRECORD
  5
47D
102
{ACAD_REACTORS
330
47C
102
}
330
47C
100
AcDbXrecord
280
     1
102
MATERIAL
148
0.0
149
0.0
149
0.0
 93
        0
 94
      127
282
     0
 72
     1
 77
     1
171
     1
175
     1
179
     1
273
     0
  0
XRECORD
  5
481
102
{ACAD_REACTORS
330
480
102
}
330
480
100
AcDbXrecord
280
     1
102
MATERIAL
148
0.0
149
0.0
149
0.0
 93
        0
 94
      127
282
     0
 72
     1
 77
     1
171
     1
175
     1
179
     1
273
     0
  0
CELLSTYLEMAP
  5
11C6
102
{ACAD_REACTORS
330
732
102
}
330
732
100
AcDbCellStyleMap
 90
        3
300
CELLSTYLE
  1
TABLEFORMAT_BEGIN
 90
        5
170
     1
 91
        0
 92
    32768
 62
   257
 93
        1
300
CONTENTFORMAT
  1
CONTENTFORMAT_BEGIN
 90
        0
 91
        0
 92
      512
 93
        0
300

 40
0.0
140
1.0
 94
        5
 62
     0
340
26
144
0.25
309
CONTENTFORMAT_END
171
     1
301
MARGIN
  1
CELLMARGIN_BEGIN
 40
0.06
 40
0.06
 40
0.06
 40
0.06
 40
0.18
 40
0.18
309
CELLMARGIN_END
 94
        6
 95
        1
302
GRIDFORMAT
  1
GRIDFORMAT_BEGIN
 90
        0
 91
        1
 62
     0
 92
       -2
340
0
 93
        0
 40
0.045
309
GRIDFORMAT_END
 95
        2
302
GRIDFORMAT
  1
GRIDFORMAT_BEGIN
 90
        0
 91
        1
 62
     0
 92
       -2
340
0
 93
        0
 40
0.045
309
GRIDFORMAT_END
 95
        4
302
GRIDFORMAT
  1
GRIDFORMAT_BEGIN
 90
        0
 91
        1
 62
     0
 92
       -2
340
0
 93
        0
 40
0.045
309
GRIDFORMAT_END
 95
        8
302
GRIDFORMAT
  1
GRIDFORMAT_BEGIN
 90
        0
 91
        1
 62
     0
 92
       -2
340
0
 93
        0
 40
0.045
309
GRIDFORMAT_END
 95
       16
302
GRIDFORMAT
  1
GRIDFORMAT_BEGIN
 90
        0
 91
        1
 62
     0
 92
       -2
340
0
 93
        0
 40
0.045
309
GRIDFORMAT_END
 95
       32
302
GRIDFORMAT
  1
GRIDFORMAT_BEGIN
 90
        0
 91
        1
 62
     0
 92
       -2
340
0
 93
        0
 40
0.045
309
GRIDFORMAT_END
309
TABLEFORMAT_END
  1
CELLSTYLE_BEGIN
 90
        1
 91
        1
300
_TITLE
309
CELLSTYLE_END
300
CELLSTYLE
  1
TABLEFORMAT_BEGIN
 90
        5
170
     1
 91
        0
 92
        0
 62
   257
 93
        1
300
CONTENTFORMAT
  1
CONTENTFORMAT_BEGIN
 90
        0
 91
        0
 92
      512
 93
        0
300

 40
0.0
140
1.0
 94
        5
 62
     0
340
26
144
0.18
309
CONTENTFORMAT_END
171
     1
301
MARGIN
  1
CELLMARGIN_BEGIN
 40
0.06
 40
0.06
 40
0.06
 40
0.06
 40
0.18
 40
0.18
309
CELLMARGIN_END
 94
        6
 95
        1
302
GRIDFORMAT
  1
GRIDFORMAT_BEGIN
 90
        0
 91
        1
 62
     0
 92
       -2
340
0
 93
        0
 40
0.045
309
GRIDFORMAT_END
 95
        2
302
GRIDFORMAT
  1
GRIDFORMAT_BEGIN
 90
        0
 91
        1
 62
     0
 92
       -2
340
0
 93
        0
 40
0.045
309
GRIDFORMAT_END
 95
        4
302
GRIDFORMAT
  1
GRIDFORMAT_BEGIN
 90
        0
 91
        1
 62
     0
 92
       -2
340
0
 93
        0
 40
0.045
309
GRIDFORMAT_END
 95
        8
302
GRIDFORMAT
  1
GRIDFORMAT_BEGIN
 90
        0
 91
        1
 62
     0
 92
       -2
340
0
 93
        0
 40
0.045
309
GRIDFORMAT_END
 95
       16
302
GRIDFORMAT
  1
GRIDFORMAT_BEGIN
 90
        0
 91
        1
 62
     0
 92
       -2
340
0
 93
        0
 40
0.045
309
GRIDFORMAT_END
 95
       32
302
GRIDFORMAT
  1
GRIDFORMAT_BEGIN
 90
        0
 91
        1
 62
     0
 92
       -2
340
0
 93
        0
 40
0.045
309
GRIDFORMAT_END
309
TABLEFORMAT_END
  1
CELLSTYLE_BEGIN
 90
        2
 91
        1
300
_HEADER
309
CELLSTYLE_END
300
CELLSTYLE
  1
TABLEFORMAT_BEGIN
 90
        5
170
     1
 91
        0
 92
        0
 62
   257
 93
        1
300
CONTENTFORMAT
  1
CONTENTFORMAT_BEGIN
 90
        0
 91
        0
 92
      512
 93
        0
300

 40
0.0
140
1.0
 94
        2
 62
     0
340
26
144
0.18
309
CONTENTFORMAT_END
171
     1
301
MARGIN
  1
CELLMARGIN_BEGIN
 40
0.06
 40
0.06
 40
0.06
 40
0.06
 40
0.18
 40
0.18
309
CELLMARGIN_END
 94
        6
 95
        1
302
GRIDFORMAT
  1
GRIDFORMAT_BEGIN
 90
        0
 91
        1
 62
     0
 92
       -2
340
0
 93
        0
 40
0.045
309
GRIDFORMAT_END
 95
        2
302
GRIDFORMAT
  1
GRIDFORMAT_BEGIN
 90
        0
 91
        1
 62
     0
 92
       -2
340
0
 93
        0
 40
0.045
309
GRIDFORMAT_END
 95
        4
302
GRIDFORMAT
  1
GRIDFORMAT_BEGIN
 90
        0
 91
        1
 62
     0
 92
       -2
340
0
 93
        0
 40
0.045
309
GRIDFORMAT_END
 95
        8
302
GRIDFORMAT
  1
GRIDFORMAT_BEGIN
 90
        0
 91
        1
 62
     0
 92
       -2
340
0
 93
        0
 40
0.045
309
GRIDFORMAT_END
 95
       16
302
GRIDFORMAT
  1
GRIDFORMAT_BEGIN
 90
        0
 91
        1
 62
     0
 92
       -2
340
0
 93
        0
 40
0.045
309
GRIDFORMAT_END
 95
       32
302
GRIDFORMAT
  1
GRIDFORMAT_BEGIN
 90
        0
 91
        1
 62
     0
 92
       -2
340
0
 93
        0
 40
0.045
309
GRIDFORMAT_END
309
TABLEFORMAT_END
  1
CELLSTYLE_BEGIN
 90
        3
 91
        2
300
_DATA
309
CELLSTYLE_END
  0
XRECORD
  5
11ED
102
{ACAD_REACTORS
330
732
102
}
330
732
100
AcDbXrecord
280
     1
102
ACAD_ROUNDTRIP_PRE2007_TABLESTYLE
 90
      512
 91
        0
  1

 92
      512
 93
        0
  2

 94
      512
 95
        0
  3

  0
XRECORD
  5
11D8
102
{ACAD_REACTORS
330
11D7
102
}
330
11D7
100
AcDbXrecord
280
     1
102
RTVSPropertyOp0
 70
     1
102
RTVSPropertyOp1
 70
     1
102
RTVSPropertyOp2
 70
     1
102
RTVSPropertyOp3
 70
     1
102
RTVSPropertyOp4
 70
     1
102
RTVSPropertyOp5
 70
     1
102
RTVSPropertyOp6
 70
     1
102
RTVSPropertyOp7
 70
     1
102
RTVSPropertyOp8
 70
     1
102
RTVSPropertyOp9
 70
     1
102
RTVSPropertyOp10
 70
     1
102
RTVSPropertyOp11
 70
     1
102
RTVSPropertyOp12
 70
     1
102
RTVSPropertyOp13
 70
     1
102
RTVSPropertyOp14
 70
     1
102
RTVSPropertyOp15
 70
     1
102
RTVSPropertyOp16
 70
     1
102
RTVSPropertyOp17
 70
     1
102
RTVSPropertyOp18
 70
     1
102
RTVSPropertyOp19
 70
     1
102
RTVSPropertyOp20
 70
     1
102
RTVSPropertyOp21
 70
     1
102
RTVSPropertyOp22
 70
     1
102
RTVSPropertyOp23
 70
     1
102
RTVSPropertyOp24
 70
     1
102
RTVSPropertyOp25
 70
     1
102
RTVSPropertyOp26
 70
     1
102
RTVSPropertyOp27
 70
     1
102
RTVSPropertyOp28
 70
     1
102
RTVSPropertyOp29
 70
     1
102
RTVSPropertyOp30
 70
     1
102
RTVSPropertyOp31
 70
     1
102
RTVSPropertyOp32
 70
     1
  0
XRECORD
  5
11DC
102
{ACAD_REACTORS
330
11DB
102
}
330
11DB
100
AcDbXrecord
280
     1
102
RTVSPropertyOp0
 70
     1
102
RTVSPropertyOp1
 70
     1
102
RTVSPropertyOp2
 70
     1
102
RTVSPropertyOp3
 70
     1
102
RTVSPropertyOp4
 70
     1
102
RTVSPropertyOp5
 70
     1
102
RTVSPropertyOp6
 70
     1
102
RTVSPropertyOp7
 70
     1
102
RTVSPropertyOp8
 70
     1
102
RTVSPropertyOp9
 70
     1
102
RTVSPropertyOp10
 70
     1
102
RTVSPropertyOp11
 70
     1
102
RTVSPropertyOp12
 70
     1
102
RTVSPropertyOp13
 70
     1
102
RTVSPropertyOp14
 70
     1
102
RTVSPropertyOp15
 70
     1
102
RTVSPropertyOp16
 70
     1
102
RTVSPropertyOp17
 70
     1
102
RTVSPropertyOp18
 70
     1
102
RTVSPropertyOp19
 70
     1
102
RTVSPropertyOp20
 70
     1
102
RTVSPropertyOp21
 70
     1
102
RTVSPropertyOp22
 70
     1
102
RTVSPropertyOp23
 70
     1
102
RTVSPropertyOp24
 70
     1
102
RTVSPropertyOp25
 70
     1
102
RTVSPropertyOp26
 70
     1
102
RTVSPropertyOp27
 70
     1
102
RTVSPropertyOp28
 70
     1
102
RTVSPropertyOp29
 70
     1
102
RTVSPropertyOp30
 70
     1
102
RTVSPropertyOp31
 70
     1
102
RTVSPropertyOp32
 70
     1
  0
XRECORD
  5
11DA
102
{ACAD_REACTORS
330
11D9
102
}
330
11D9
100
AcDbXrecord
280
     1
102
RTVSPropertyOp0
 70
     1
102
RTVSPropertyOp1
 70
     1
102
RTVSPropertyOp2
 70
     1
102
RTVSPropertyOp3
 70
     1
102
RTVSPropertyOp4
 70
     1
102
RTVSPropertyOp5
 70
     1
102
RTVSPropertyOp6
 70
     1
102
RTVSPropertyOp7
 70
     1
102
RTVSPropertyOp8
 70
     1
102
RTVSPropertyOp9
 70
     1
102
RTVSPropertyOp10
 70
     1
102
RTVSPropertyOp11
 70
     1
102
RTVSPropertyOp12
 70
     1
102
RTVSPropertyOp13
 70
     1
102
RTVSPropertyOp14
 70
     1
102
RTVSPropertyOp15
 70
     1
102
RTVSPropertyOp16
 70
     1
102
RTVSPropertyOp17
 70
     1
102
RTVSPropertyOp18
 70
     1
102
RTVSPropertyOp19
 70
     1
102
RTVSPropertyOp20
 70
     1
102
RTVSPropertyOp21
 70
     1
102
RTVSPropertyOp22
 70
     1
102
RTVSPropertyOp23
 70
     1
102
RTVSPropertyOp24
 70
     1
102
RTVSPropertyOp25
 70
     1
102
RTVSPropertyOp26
 70
     1
102
RTVSPropertyOp27
 70
     1
102
RTVSPropertyOp28
 70
     1
102
RTVSPropertyOp29
 70
     1
102
RTVSPropertyOp30
 70
     1
102
RTVSPropertyOp31
 70
     1
102
RTVSPropertyOp32
 70
     1
  0
XRECORD
  5
11D6
102
{ACAD_REACTORS
330
11D5
102
}
330
11D5
100
AcDbXrecord
280
     1
102
RTVSPropertyOp0
 70
     1
102
RTVSPropertyOp1
 70
     1
102
RTVSPropertyOp2
 70
     1
102
RTVSPropertyOp3
 70
     1
102
RTVSPropertyOp4
 70
     1
102
RTVSPropertyOp5
 70
     1
102
RTVSPropertyOp6
 70
     1
102
RTVSPropertyOp7
 70
     1
102
RTVSPropertyOp8
 70
     1
102
RTVSPropertyOp9
 70
     1
102
RTVSPropertyOp10
 70
     1
102
RTVSPropertyOp11
 70
     1
102
RTVSPropertyOp12
 70
     1
102
RTVSPropertyOp13
 70
     1
102
RTVSPropertyOp14
 70
     1
102
RTVSPropertyOp15
 70
     1
102
RTVSPropertyOp16
 70
     1
102
RTVSPropertyOp17
 70
     1
102
RTVSPropertyOp18
 70
     1
102
RTVSPropertyOp19
 70
     1
102
RTVSPropertyOp20
 70
     1
102
RTVSPropertyOp21
 70
     1
102
RTVSPropertyOp22
 70
     1
102
RTVSPropertyOp23
 70
     1
102
RTVSPropertyOp24
 70
     1
102
RTVSPropertyOp25
 70
     1
102
RTVSPropertyOp26
 70
     1
102
RTVSPropertyOp27
 70
     1
102
RTVSPropertyOp28
 70
     1
102
RTVSPropertyOp29
 70
     1
102
RTVSPropertyOp30
 70
     1
102
RTVSPropertyOp31
 70
     1
102
RTVSPropertyOp32
 70
     1
  0
XRECORD
  5
11E4
102
{ACAD_REACTORS
330
11E3
102
}
330
11E3
100
AcDbXrecord
280
     1
102
RTVSPropertyOp0
 70
     1
102
RTVSPropertyOp1
 70
     1
102
RTVSPropertyOp2
 70
     1
102
RTVSPropertyOp3
 70
     1
102
RTVSPropertyOp4
 70
     1
102
RTVSPropertyOp5
 70
     1
102
RTVSPropertyOp6
 70
     1
102
RTVSPropertyOp7
 70
     1
102
RTVSPropertyOp8
 70
     1
102
RTVSPropertyOp9
 70
     1
102
RTVSPropertyOp10
 70
     1
102
RTVSPropertyOp11
 70
     1
102
RTVSPropertyOp12
 70
     1
102
RTVSPropertyOp13
 70
     1
102
RTVSPropertyOp14
 70
     1
102
RTVSPropertyOp15
 70
     1
102
RTVSPropertyOp16
 70
     1
102
RTVSPropertyOp17
 70
     1
102
RTVSPropertyOp18
 70
     1
102
RTVSPropertyOp19
 70
     1
102
RTVSPropertyOp20
 70
     1
102
RTVSPropertyOp21
 70
     1
102
RTVSPropertyOp22
 70
     1
102
RTVSPropertyOp23
 70
     1
102
RTVSPropertyOp24
 70
     1
102
RTVSPropertyOp25
 70
     1
102
RTVSPropertyOp26
 70
     1
102
RTVSPropertyOp27
 70
     1
102
RTVSPropertyOp28
 70
     1
102
RTVSPropertyOp29
 70
     1
102
RTVSPropertyOp30
 70
     1
102
RTVSPropertyOp31
 70
     1
102
RTVSPropertyOp32
 70
     1
  0
XRECORD
  5
11EC
102
{ACAD_REACTORS
330
11EB
102
}
330
11EB
100
AcDbXrecord
280
     1
102
RTVSPropertyOp0
 70
     1
102
RTVSPropertyOp1
 70
     1
102
RTVSPropertyOp2
 70
     1
102
RTVSPropertyOp3
 70
     1
102
RTVSPropertyOp4
 70
     1
102
RTVSPropertyOp5
 70
     1
102
RTVSPropertyOp6
 70
     1
102
RTVSPropertyOp7
 70
     1
102
RTVSPropertyOp8
 70
     1
102
RTVSPropertyOp9
 70
     1
102
RTVSPropertyOp10
 70
     1
102
RTVSPropertyOp11
 70
     1
102
RTVSPropertyOp12
 70
     1
102
RTVSPropertyOp13
 70
     1
102
RTVSPropertyOp14
 70
     1
102
RTVSPropertyOp15
 70
     1
102
RTVSPropertyOp16
 70
     1
102
RTVSPropertyOp17
 70
     1
102
RTVSPropertyOp18
 70
     1
102
RTVSPropertyOp19
 70
     1
102
RTVSPropertyOp20
 70
     1
102
RTVSPropertyOp21
 70
     1
102
RTVSPropertyOp22
 70
     1
102
RTVSPropertyOp23
 70
     1
102
RTVSPropertyOp24
 70
     1
102
RTVSPropertyOp25
 70
     1
102
RTVSPropertyOp26
 70
     1
102
RTVSPropertyOp27
 70
     1
102
RTVSPropertyOp28
 70
     1
102
RTVSPropertyOp29
 70
     1
102
RTVSPropertyOp30
 70
     1
102
RTVSPropertyOp31
 70
     1
102
RTVSPropertyOp32
 70
     1
  0
XRECORD
  5
11DE
102
{ACAD_REACTORS
330
11DD
102
}
330
11DD
100
AcDbXrecord
280
     1
102
RTVSPropertyOp0
 70
     1
102
RTVSPropertyOp1
 70
     1
102
RTVSPropertyOp2
 70
     1
102
RTVSPropertyOp3
 70
     1
102
RTVSPropertyOp4
 70
     1
102
RTVSPropertyOp5
 70
     1
102
RTVSPropertyOp6
 70
     1
102
RTVSPropertyOp7
 70
     1
102
RTVSPropertyOp8
 70
     1
102
RTVSPropertyOp9
 70
     1
102
RTVSPropertyOp10
 70
     1
102
RTVSPropertyOp11
 70
     1
102
RTVSPropertyOp12
 70
     1
102
RTVSPropertyOp13
 70
     1
102
RTVSPropertyOp14
 70
     1
102
RTVSPropertyOp15
 70
     1
102
RTVSPropertyOp16
 70
     1
102
RTVSPropertyOp17
 70
     1
102
RTVSPropertyOp18
 70
     1
102
RTVSPropertyOp19
 70
     1
102
RTVSPropertyOp20
 70
     1
102
RTVSPropertyOp21
 70
     1
102
RTVSPropertyOp22
 70
     1
102
RTVSPropertyOp23
 70
     1
102
RTVSPropertyOp24
 70
     1
102
RTVSPropertyOp25
 70
     1
102
RTVSPropertyOp26
 70
     1
102
RTVSPropertyOp27
 70
     1
102
RTVSPropertyOp28
 70
     1
102
RTVSPropertyOp29
 70
     1
102
RTVSPropertyOp30
 70
     1
102
RTVSPropertyOp31
 70
     1
102
RTVSPropertyOp32
 70
     1
  0
XRECORD
  5
11E2
102
{ACAD_REACTORS
330
11E1
102
}
330
11E1
100
AcDbXrecord
280
     1
102
RTVSPropertyOp0
 70
     1
102
RTVSPropertyOp1
 70
     1
102
RTVSPropertyOp2
 70
     1
102
RTVSPropertyOp3
 70
     1
102
RTVSPropertyOp4
 70
     1
102
RTVSPropertyOp5
 70
     1
102
RTVSPropertyOp6
 70
     1
102
RTVSPropertyOp7
 70
     1
102
RTVSPropertyOp8
 70
     1
102
RTVSPropertyOp9
 70
     1
102
RTVSPropertyOp10
 70
     1
102
RTVSPropertyOp11
 70
     1
102
RTVSPropertyOp12
 70
     1
102
RTVSPropertyOp13
 70
     1
102
RTVSPropertyOp14
 70
     1
102
RTVSPropertyOp15
 70
     1
102
RTVSPropertyOp16
 70
     1
102
RTVSPropertyOp17
 70
     1
102
RTVSPropertyOp18
 70
     1
102
RTVSPropertyOp19
 70
     1
102
RTVSPropertyOp20
 70
     1
102
RTVSPropertyOp21
 70
     1
102
RTVSPropertyOp22
 70
     1
102
RTVSPropertyOp23
 70
     1
102
RTVSPropertyOp24
 70
     1
102
RTVSPropertyOp25
 70
     1
102
RTVSPropertyOp26
 70
     1
102
RTVSPropertyOp27
 70
     1
102
RTVSPropertyOp28
 70
     1
102
RTVSPropertyOp29
 70
     1
102
RTVSPropertyOp30
 70
     1
102
RTVSPropertyOp31
 70
     1
102
RTVSPropertyOp32
 70
     1
  0
XRECORD
  5
1205
102
{ACAD_REACTORS
330
1204
102
}
330
1204
100
AcDbXrecord
280
     1
102
RTVSPropertyOp0
 70
     0
102
RTVSPropertyOp1
 70
     0
102
RTVSPropertyOp2
 70
     0
102
RTVSPropertyOp3
 70
     0
102
RTVSPropertyOp4
 70
     0
102
RTVSPropertyOp5
 70
     0
102
RTVSPropertyOp6
 70
     0
102
RTVSPropertyOp7
 70
     0
102
RTVSPropertyOp8
 70
     0
102
RTVSPropertyOp9
 70
     0
102
RTVSPropertyOp10
 70
     0
102
RTVSPropertyOp11
 70
     0
102
RTVSPropertyOp12
 70
     0
102
RTVSPropertyOp13
 70
     0
102
RTVSPropertyOp14
 70
     2
102
RTVSPropertyOp15
 70
     0
102
RTVSPropertyOp16
 70
     0
102
RTVSPropertyOp17
 70
     0
102
RTVSPropertyOp18
 70
     0
102
RTVSPropertyOp19
 70
     0
102
RTVSPropertyOp20
 70
     0
102
RTVSPropertyOp21
 70
     0
102
RTVSPropertyOp22
 70
     0
102
RTVSPropertyOp23
 70
     0
102
RTVSPropertyOp24
 70
     0
102
RTVSPropertyOp25
 70
     0
102
RTVSPropertyOp26
 70
     0
102
RTVSPropertyOp27
 70
     0
102
RTVSPropertyOp28
 70
     0
102
RTVSPropertyOp29
 70
     0
102
RTVSPropertyOp30
 70
     0
102
RTVSPropertyOp31
 70
     0
102
RTVSPropertyOp32
 70
     0
  0
XRECORD
  5
11EA
102
{ACAD_REACTORS
330
11E9
102
}
330
11E9
100
AcDbXrecord
280
     1
102
RTVSPropertyOp0
 70
     1
102
RTVSPropertyOp1
 70
     1
102
RTVSPropertyOp2
 70
     1
102
RTVSPropertyOp3
 70
     1
102
RTVSPropertyOp4
 70
     1
102
RTVSPropertyOp5
 70
     1
102
RTVSPropertyOp6
 70
     1
102
RTVSPropertyOp7
 70
     1
102
RTVSPropertyOp8
 70
     1
102
RTVSPropertyOp9
 70
     1
102
RTVSPropertyOp10
 70
     1
102
RTVSPropertyOp11
 70
     1
102
RTVSPropertyOp12
 70
     1
102
RTVSPropertyOp13
 70
     1
102
RTVSPropertyOp14
 70
     1
102
RTVSPropertyOp15
 70
     1
102
RTVSPropertyOp16
 70
     1
102
RTVSPropertyOp17
 70
     1
102
RTVSPropertyOp18
 70
     1
102
RTVSPropertyOp19
 70
     1
102
RTVSPropertyOp20
 70
     1
102
RTVSPropertyOp21
 70
     1
102
RTVSPropertyOp22
 70
     1
102
RTVSPropertyOp23
 70
     1
102
RTVSPropertyOp24
 70
     1
102
RTVSPropertyOp25
 70
     1
102
RTVSPropertyOp26
 70
     1
102
RTVSPropertyOp27
 70
     1
102
RTVSPropertyOp28
 70
     1
102
RTVSPropertyOp29
 70
     1
102
RTVSPropertyOp30
 70
     1
102
RTVSPropertyOp31
 70
     1
102
RTVSPropertyOp32
 70
     1
  0
XRECORD
  5
11CE
102
{ACAD_REACTORS
330
11CD
102
}
330
11CD
100
AcDbXrecord
280
     1
102
RTVSPropertyOp0
 70
     1
102
RTVSPropertyOp1
 70
     1
102
RTVSPropertyOp2
 70
     1
102
RTVSPropertyOp3
 70
     1
102
RTVSPropertyOp4
 70
     1
102
RTVSPropertyOp5
 70
     1
102
RTVSPropertyOp6
 70
     1
102
RTVSPropertyOp7
 70
     1
102
RTVSPropertyOp8
 70
     1
102
RTVSPropertyOp9
 70
     1
102
RTVSPropertyOp10
 70
     1
102
RTVSPropertyOp11
 70
     1
102
RTVSPropertyOp12
 70
     1
102
RTVSPropertyOp13
 70
     1
102
RTVSPropertyOp14
 70
     1
102
RTVSPropertyOp15
 70
     1
102
RTVSPropertyOp16
 70
     1
102
RTVSPropertyOp17
 70
     1
102
RTVSPropertyOp18
 70
     1
102
RTVSPropertyOp19
 70
     1
102
RTVSPropertyOp20
 70
     1
102
RTVSPropertyOp21
 70
     1
102
RTVSPropertyOp22
 70
     1
102
RTVSPropertyOp23
 70
     1
102
RTVSPropertyOp24
 70
     1
102
RTVSPropertyOp25
 70
     1
102
RTVSPropertyOp26
 70
     1
102
RTVSPropertyOp27
 70
     1
102
RTVSPropertyOp28
 70
     1
102
RTVSPropertyOp29
 70
     1
102
RTVSPropertyOp30
 70
     1
102
RTVSPropertyOp31
 70
     1
102
RTVSPropertyOp32
 70
     1
  0
XRECORD
  5
11D0
102
{ACAD_REACTORS
330
11CF
102
}
330
11CF
100
AcDbXrecord
280
     1
102
RTVSPropertyOp0
 70
     1
102
RTVSPropertyOp1
 70
     1
102
RTVSPropertyOp2
 70
     1
102
RTVSPropertyOp3
 70
     1
102
RTVSPropertyOp4
 70
     1
102
RTVSPropertyOp5
 70
     1
102
RTVSPropertyOp6
 70
     1
102
RTVSPropertyOp7
 70
     1
102
RTVSPropertyOp8
 70
     1
102
RTVSPropertyOp9
 70
     1
102
RTVSPropertyOp10
 70
     1
102
RTVSPropertyOp11
 70
     1
102
RTVSPropertyOp12
 70
     1
102
RTVSPropertyOp13
 70
     1
102
RTVSPropertyOp14
 70
     1
102
RTVSPropertyOp15
 70
     1
102
RTVSPropertyOp16
 70
     1
102
RTVSPropertyOp17
 70
     1
102
RTVSPropertyOp18
 70
     1
102
RTVSPropertyOp19
 70
     1
102
RTVSPropertyOp20
 70
     1
102
RTVSPropertyOp21
 70
     1
102
RTVSPropertyOp22
 70
     1
102
RTVSPropertyOp23
 70
     1
102
RTVSPropertyOp24
 70
     1
102
RTVSPropertyOp25
 70
     1
102
RTVSPropertyOp26
 70
     1
102
RTVSPropertyOp27
 70
     1
102
RTVSPropertyOp28
 70
     1
102
RTVSPropertyOp29
 70
     1
102
RTVSPropertyOp30
 70
     1
102
RTVSPropertyOp31
 70
     1
102
RTVSPropertyOp32
 70
     1
  0
XRECORD
  5
11D2
102
{ACAD_REACTORS
330
11D1
102
}
330
11D1
100
AcDbXrecord
280
     1
102
RTVSPropertyOp0
 70
     1
102
RTVSPropertyOp1
 70
     1
102
RTVSPropertyOp2
 70
     1
102
RTVSPropertyOp3
 70
     1
102
RTVSPropertyOp4
 70
     1
102
RTVSPropertyOp5
 70
     1
102
RTVSPropertyOp6
 70
     1
102
RTVSPropertyOp7
 70
     1
102
RTVSPropertyOp8
 70
     1
102
RTVSPropertyOp9
 70
     1
102
RTVSPropertyOp10
 70
     1
102
RTVSPropertyOp11
 70
     1
102
RTVSPropertyOp12
 70
     1
102
RTVSPropertyOp13
 70
     1
102
RTVSPropertyOp14
 70
     1
102
RTVSPropertyOp15
 70
     1
102
RTVSPropertyOp16
 70
     1
102
RTVSPropertyOp17
 70
     1
102
RTVSPropertyOp18
 70
     1
102
RTVSPropertyOp19
 70
     1
102
RTVSPropertyOp20
 70
     1
102
RTVSPropertyOp21
 70
     1
102
RTVSPropertyOp22
 70
     1
102
RTVSPropertyOp23
 70
     1
102
RTVSPropertyOp24
 70
     1
102
RTVSPropertyOp25
 70
     1
102
RTVSPropertyOp26
 70
     1
102
RTVSPropertyOp27
 70
     1
102
RTVSPropertyOp28
 70
     1
102
RTVSPropertyOp29
 70
     1
102
RTVSPropertyOp30
 70
     1
102
RTVSPropertyOp31
 70
     1
102
RTVSPropertyOp32
 70
     1
  0
XRECORD
  5
11D4
102
{ACAD_REACTORS
330
11D3
102
}
330
11D3
100
AcDbXrecord
280
     1
102
RTVSPropertyOp0
 70
     1
102
RTVSPropertyOp1
 70
     1
102
RTVSPropertyOp2
 70
     1
102
RTVSPropertyOp3
 70
     1
102
RTVSPropertyOp4
 70
     1
102
RTVSPropertyOp5
 70
     1
102
RTVSPropertyOp6
 70
     1
102
RTVSPropertyOp7
 70
     1
102
RTVSPropertyOp8
 70
     1
102
RTVSPropertyOp9
 70
     1
102
RTVSPropertyOp10
 70
     1
102
RTVSPropertyOp11
 70
     1
102
RTVSPropertyOp12
 70
     1
102
RTVSPropertyOp13
 70
     1
102
RTVSPropertyOp14
 70
     1
102
RTVSPropertyOp15
 70
     1
102
RTVSPropertyOp16
 70
     1
102
RTVSPropertyOp17
 70
     1
102
RTVSPropertyOp18
 70
     1
102
RTVSPropertyOp19
 70
     1
102
RTVSPropertyOp20
 70
     1
102
RTVSPropertyOp21
 70
     1
102
RTVSPropertyOp22
 70
     1
102
RTVSPropertyOp23
 70
     1
102
RTVSPropertyOp24
 70
     1
102
RTVSPropertyOp25
 70
     1
102
RTVSPropertyOp26
 70
     1
102
RTVSPropertyOp27
 70
     1
102
RTVSPropertyOp28
 70
     1
102
RTVSPropertyOp29
 70
     1
102
RTVSPropertyOp30
 70
     1
102
RTVSPropertyOp31
 70
     1
102
RTVSPropertyOp32
 70
     1
  0
XRECORD
  5
11F5
102
{ACAD_REACTORS
330
11F4
102
}
330
11F4
100
AcDbXrecord
280
     1
102
RTVSPropertyOp0
 70
     1
102
RTVSPropertyOp1
 70
     1
102
RTVSPropertyOp2
 70
     1
102
RTVSPropertyOp3
 70
     1
102
RTVSPropertyOp4
 70
     1
102
RTVSPropertyOp5
 70
     1
102
RTVSPropertyOp6
 70
     1
102
RTVSPropertyOp7
 70
     1
102
RTVSPropertyOp8
 70
     1
102
RTVSPropertyOp9
 70
     1
102
RTVSPropertyOp10
 70
     1
102
RTVSPropertyOp11
 70
     1
102
RTVSPropertyOp12
 70
     1
102
RTVSPropertyOp13
 70
     1
102
RTVSPropertyOp14
 70
     1
102
RTVSPropertyOp15
 70
     1
102
RTVSPropertyOp16
 70
     1
102
RTVSPropertyOp17
 70
     1
102
RTVSPropertyOp18
 70
     1
102
RTVSPropertyOp19
 70
     1
102
RTVSPropertyOp20
 70
     1
102
RTVSPropertyOp21
 70
     1
102
RTVSPropertyOp22
 70
     1
102
RTVSPropertyOp23
 70
     1
102
RTVSPropertyOp24
 70
     1
102
RTVSPropertyOp25
 70
     1
102
RTVSPropertyOp26
 70
     1
102
RTVSPropertyOp27
 70
     1
102
RTVSPropertyOp28
 70
     1
102
RTVSPropertyOp29
 70
     1
102
RTVSPropertyOp30
 70
     1
102
RTVSPropertyOp31
 70
     1
102
RTVSPropertyOp32
 70
     1
  0
XRECORD
  5
1201
102
{ACAD_REACTORS
330
1200
102
}
330
1200
100
AcDbXrecord
280
     1
102
RTVSPropertyOp0
 70
     0
102
RTVSPropertyOp1
 70
     0
102
RTVSPropertyOp2
 70
     0
102
RTVSPropertyOp3
 70
     0
102
RTVSPropertyOp4
 70
     0
102
RTVSPropertyOp5
 70
     0
102
RTVSPropertyOp6
 70
     0
102
RTVSPropertyOp7
 70
     0
102
RTVSPropertyOp8
 70
     0
102
RTVSPropertyOp9
 70
     0
102
RTVSPropertyOp10
 70
     0
102
RTVSPropertyOp11
 70
     0
102
RTVSPropertyOp12
 70
     0
102
RTVSPropertyOp13
 70
     0
102
RTVSPropertyOp14
 70
     2
102
RTVSPropertyOp15
 70
     0
102
RTVSPropertyOp16
 70
     0
102
RTVSPropertyOp17
 70
     0
102
RTVSPropertyOp18
 70
     0
102
RTVSPropertyOp19
 70
     0
102
RTVSPropertyOp20
 70
     0
102
RTVSPropertyOp21
 70
     0
102
RTVSPropertyOp22
 70
     0
102
RTVSPropertyOp23
 70
     0
102
RTVSPropertyOp24
 70
     0
102
RTVSPropertyOp25
 70
     0
102
RTVSPropertyOp26
 70
     0
102
RTVSPropertyOp27
 70
     0
102
RTVSPropertyOp28
 70
     0
102
RTVSPropertyOp29
 70
     0
102
RTVSPropertyOp30
 70
     0
102
RTVSPropertyOp31
 70
     0
102
RTVSPropertyOp32
 70
     0
  0
XRECORD
  5
11E8
102
{ACAD_REACTORS
330
11E7
102
}
330
11E7
100
AcDbXrecord
280
     1
102
RTVSPropertyOp0
 70
     1
102
RTVSPropertyOp1
 70
     1
102
RTVSPropertyOp2
 70
     1
102
RTVSPropertyOp3
 70
     1
102
RTVSPropertyOp4
 70
     1
102
RTVSPropertyOp5
 70
     1
102
RTVSPropertyOp6
 70
     1
102
RTVSPropertyOp7
 70
     1
102
RTVSPropertyOp8
 70
     1
102
RTVSPropertyOp9
 70
     1
102
RTVSPropertyOp10
 70
     1
102
RTVSPropertyOp11
 70
     1
102
RTVSPropertyOp12
 70
     1
102
RTVSPropertyOp13
 70
     1
102
RTVSPropertyOp14
 70
     1
102
RTVSPropertyOp15
 70
     1
102
RTVSPropertyOp16
 70
     1
102
RTVSPropertyOp17
 70
     1
102
RTVSPropertyOp18
 70
     1
102
RTVSPropertyOp19
 70
     1
102
RTVSPropertyOp20
 70
     1
102
RTVSPropertyOp21
 70
     1
102
RTVSPropertyOp22
 70
     1
102
RTVSPropertyOp23
 70
     1
102
RTVSPropertyOp24
 70
     1
102
RTVSPropertyOp25
 70
     1
102
RTVSPropertyOp26
 70
     1
102
RTVSPropertyOp27
 70
     1
102
RTVSPropertyOp28
 70
     1
102
RTVSPropertyOp29
 70
     1
102
RTVSPropertyOp30
 70
     1
102
RTVSPropertyOp31
 70
     1
102
RTVSPropertyOp32
 70
     1
  0
XRECORD
  5
1203
102
{ACAD_REACTORS
330
1202
102
}
330
1202
100
AcDbXrecord
280
     1
102
RTVSPropertyOp0
 70
     0
102
RTVSPropertyOp1
 70
     0
102
RTVSPropertyOp2
 70
     0
102
RTVSPropertyOp3
 70
     0
102
RTVSPropertyOp4
 70
     0
102
RTVSPropertyOp5
 70
     0
102
RTVSPropertyOp6
 70
     0
102
RTVSPropertyOp7
 70
     0
102
RTVSPropertyOp8
 70
     0
102
RTVSPropertyOp9
 70
     0
102
RTVSPropertyOp10
 70
     0
102
RTVSPropertyOp11
 70
     0
102
RTVSPropertyOp12
 70
     0
102
RTVSPropertyOp13
 70
     0
102
RTVSPropertyOp14
 70
     2
102
RTVSPropertyOp15
 70
     0
102
RTVSPropertyOp16
 70
     0
102
RTVSPropertyOp17
 70
     0
102
RTVSPropertyOp18
 70
     0
102
RTVSPropertyOp19
 70
     0
102
RTVSPropertyOp20
 70
     0
102
RTVSPropertyOp21
 70
     0
102
RTVSPropertyOp22
 70
     0
102
RTVSPropertyOp23
 70
     0
102
RTVSPropertyOp24
 70
     0
102
RTVSPropertyOp25
 70
     0
102
RTVSPropertyOp26
 70
     0
102
RTVSPropertyOp27
 70
     0
102
RTVSPropertyOp28
 70
     0
102
RTVSPropertyOp29
 70
     0
102
RTVSPropertyOp30
 70
     0
102
RTVSPropertyOp31
 70
     0
102
RTVSPropertyOp32
 70
     0
  0
XRECORD
  5
11E0
102
{ACAD_REACTORS
330
11DF
102
}
330
11DF
100
AcDbXrecord
280
     1
102
RTVSPropertyOp0
 70
     1
102
RTVSPropertyOp1
 70
     1
102
RTVSPropertyOp2
 70
     1
102
RTVSPropertyOp3
 70
     1
102
RTVSPropertyOp4
 70
     1
102
RTVSPropertyOp5
 70
     1
102
RTVSPropertyOp6
 70
     1
102
RTVSPropertyOp7
 70
     1
102
RTVSPropertyOp8
 70
     1
102
RTVSPropertyOp9
 70
     1
102
RTVSPropertyOp10
 70
     1
102
RTVSPropertyOp11
 70
     1
102
RTVSPropertyOp12
 70
     1
102
RTVSPropertyOp13
 70
     1
102
RTVSPropertyOp14
 70
     1
102
RTVSPropertyOp15
 70
     1
102
RTVSPropertyOp16
 70
     1
102
RTVSPropertyOp17
 70
     1
102
RTVSPropertyOp18
 70
     1
102
RTVSPropertyOp19
 70
     1
102
RTVSPropertyOp20
 70
     1
102
RTVSPropertyOp21
 70
     1
102
RTVSPropertyOp22
 70
     1
102
RTVSPropertyOp23
 70
     1
102
RTVSPropertyOp24
 70
     1
102
RTVSPropertyOp25
 70
     1
102
RTVSPropertyOp26
 70
     1
102
RTVSPropertyOp27
 70
     1
102
RTVSPropertyOp28
 70
     1
102
RTVSPropertyOp29
 70
     1
102
RTVSPropertyOp30
 70
     1
102
RTVSPropertyOp31
 70
     1
102
RTVSPropertyOp32
 70
     1
  0
XRECORD
  5
11FF
102
{ACAD_REACTORS
330
11FE
102
}
330
11FE
100
AcDbXrecord
280
     1
102
RTVSPropertyOp0
 70
     1
102
RTVSPropertyOp1
 70
     1
102
RTVSPropertyOp2
 70
     1
102
RTVSPropertyOp3
 70
     1
102
RTVSPropertyOp4
 70
     1
102
RTVSPropertyOp5
 70
     1
102
RTVSPropertyOp6
 70
     1
102
RTVSPropertyOp7
 70
     1
102
RTVSPropertyOp8
 70
     1
102
RTVSPropertyOp9
 70
     1
102
RTVSPropertyOp10
 70
     1
102
RTVSPropertyOp11
 70
     1
102
RTVSPropertyOp12
 70
     1
102
RTVSPropertyOp13
 70
     1
102
RTVSPropertyOp14
 70
     1
102
RTVSPropertyOp15
 70
     1
102
RTVSPropertyOp16
 70
     1
102
RTVSPropertyOp17
 70
     1
102
RTVSPropertyOp18
 70
     1
102
RTVSPropertyOp19
 70
     1
102
RTVSPropertyOp20
 70
     1
102
RTVSPropertyOp21
 70
     1
102
RTVSPropertyOp22
 70
     1
102
RTVSPropertyOp23
 70
     1
102
RTVSPropertyOp24
 70
     1
102
RTVSPropertyOp25
 70
     1
102
RTVSPropertyOp26
 70
     1
102
RTVSPropertyOp27
 70
     1
102
RTVSPropertyOp28
 70
     1
102
RTVSPropertyOp29
 70
     1
102
RTVSPropertyOp30
 70
     1
102
RTVSPropertyOp31
 70
     1
102
RTVSPropertyOp32
 70
     1
  0
XRECORD
  5
11FD
102
{ACAD_REACTORS
330
11FC
102
}
330
11FC
100
AcDbXrecord
280
     1
102
RTVSPropertyOp0
 70
     1
102
RTVSPropertyOp1
 70
     1
102
RTVSPropertyOp2
 70
     1
102
RTVSPropertyOp3
 70
     1
102
RTVSPropertyOp4
 70
     1
102
RTVSPropertyOp5
 70
     1
102
RTVSPropertyOp6
 70
     1
102
RTVSPropertyOp7
 70
     1
102
RTVSPropertyOp8
 70
     1
102
RTVSPropertyOp9
 70
     1
102
RTVSPropertyOp10
 70
     1
102
RTVSPropertyOp11
 70
     1
102
RTVSPropertyOp12
 70
     1
102
RTVSPropertyOp13
 70
     1
102
RTVSPropertyOp14
 70
     1
102
RTVSPropertyOp15
 70
     1
102
RTVSPropertyOp16
 70
     1
102
RTVSPropertyOp17
 70
     1
102
RTVSPropertyOp18
 70
     1
102
RTVSPropertyOp19
 70
     1
102
RTVSPropertyOp20
 70
     1
102
RTVSPropertyOp21
 70
     1
102
RTVSPropertyOp22
 70
     1
102
RTVSPropertyOp23
 70
     1
102
RTVSPropertyOp24
 70
     1
102
RTVSPropertyOp25
 70
     1
102
RTVSPropertyOp26
 70
     1
102
RTVSPropertyOp27
 70
     1
102
RTVSPropertyOp28
 70
     1
102
RTVSPropertyOp29
 70
     1
102
RTVSPropertyOp30
 70
     1
102
RTVSPropertyOp31
 70
     1
102
RTVSPropertyOp32
 70
     1
  0
XRECORD
  5
11F7
102
{ACAD_REACTORS
330
11F6
102
}
330
11F6
100
AcDbXrecord
280
     1
102
RTVSPropertyOp0
 70
     1
102
RTVSPropertyOp1
 70
     1
102
RTVSPropertyOp2
 70
     1
102
RTVSPropertyOp3
 70
     1
102
RTVSPropertyOp4
 70
     1
102
RTVSPropertyOp5
 70
     1
102
RTVSPropertyOp6
 70
     1
102
RTVSPropertyOp7
 70
     1
102
RTVSPropertyOp8
 70
     1
102
RTVSPropertyOp9
 70
     1
102
RTVSPropertyOp10
 70
     1
102
RTVSPropertyOp11
 70
     1
102
RTVSPropertyOp12
 70
     1
102
RTVSPropertyOp13
 70
     1
102
RTVSPropertyOp14
 70
     1
102
RTVSPropertyOp15
 70
     1
102
RTVSPropertyOp16
 70
     1
102
RTVSPropertyOp17
 70
     1
102
RTVSPropertyOp18
 70
     1
102
RTVSPropertyOp19
 70
     1
102
RTVSPropertyOp20
 70
     1
102
RTVSPropertyOp21
 70
     1
102
RTVSPropertyOp22
 70
     1
102
RTVSPropertyOp23
 70
     1
102
RTVSPropertyOp24
 70
     1
102
RTVSPropertyOp25
 70
     1
102
RTVSPropertyOp26
 70
     1
102
RTVSPropertyOp27
 70
     1
102
RTVSPropertyOp28
 70
     1
102
RTVSPropertyOp29
 70
     1
102
RTVSPropertyOp30
 70
     1
102
RTVSPropertyOp31
 70
     1
102
RTVSPropertyOp32
 70
     1
  0
XRECORD
  5
11F9
102
{ACAD_REACTORS
330
11F8
102
}
330
11F8
100
AcDbXrecord
280
     1
102
RTVSPropertyOp0
 70
     1
102
RTVSPropertyOp1
 70
     1
102
RTVSPropertyOp2
 70
     1
102
RTVSPropertyOp3
 70
     1
102
RTVSPropertyOp4
 70
     1
102
RTVSPropertyOp5
 70
     1
102
RTVSPropertyOp6
 70
     1
102
RTVSPropertyOp7
 70
     1
102
RTVSPropertyOp8
 70
     1
102
RTVSPropertyOp9
 70
     1
102
RTVSPropertyOp10
 70
     1
102
RTVSPropertyOp11
 70
     1
102
RTVSPropertyOp12
 70
     1
102
RTVSPropertyOp13
 70
     1
102
RTVSPropertyOp14
 70
     1
102
RTVSPropertyOp15
 70
     1
102
RTVSPropertyOp16
 70
     1
102
RTVSPropertyOp17
 70
     1
102
RTVSPropertyOp18
 70
     1
102
RTVSPropertyOp19
 70
     1
102
RTVSPropertyOp20
 70
     1
102
RTVSPropertyOp21
 70
     1
102
RTVSPropertyOp22
 70
     1
102
RTVSPropertyOp23
 70
     1
102
RTVSPropertyOp24
 70
     1
102
RTVSPropertyOp25
 70
     1
102
RTVSPropertyOp26
 70
     1
102
RTVSPropertyOp27
 70
     1
102
RTVSPropertyOp28
 70
     1
102
RTVSPropertyOp29
 70
     1
102
RTVSPropertyOp30
 70
     1
102
RTVSPropertyOp31
 70
     1
102
RTVSPropertyOp32
 70
     1
  0
XRECORD
  5
11E6
102
{ACAD_REACTORS
330
11E5
102
}
330
11E5
100
AcDbXrecord
280
     1
102
RTVSPropertyOp0
 70
     1
102
RTVSPropertyOp1
 70
     1
102
RTVSPropertyOp2
 70
     1
102
RTVSPropertyOp3
 70
     1
102
RTVSPropertyOp4
 70
     1
102
RTVSPropertyOp5
 70
     1
102
RTVSPropertyOp6
 70
     1
102
RTVSPropertyOp7
 70
     1
102
RTVSPropertyOp8
 70
     1
102
RTVSPropertyOp9
 70
     1
102
RTVSPropertyOp10
 70
     1
102
RTVSPropertyOp11
 70
     1
102
RTVSPropertyOp12
 70
     1
102
RTVSPropertyOp13
 70
     1
102
RTVSPropertyOp14
 70
     1
102
RTVSPropertyOp15
 70
     1
102
RTVSPropertyOp16
 70
     1
102
RTVSPropertyOp17
 70
     1
102
RTVSPropertyOp18
 70
     1
102
RTVSPropertyOp19
 70
     1
102
RTVSPropertyOp20
 70
     1
102
RTVSPropertyOp21
 70
     1
102
RTVSPropertyOp22
 70
     1
102
RTVSPropertyOp23
 70
     1
102
RTVSPropertyOp24
 70
     1
102
RTVSPropertyOp25
 70
     1
102
RTVSPropertyOp26
 70
     1
102
RTVSPropertyOp27
 70
     1
102
RTVSPropertyOp28
 70
     1
102
RTVSPropertyOp29
 70
     1
102
RTVSPropertyOp30
 70
     1
102
RTVSPropertyOp31
 70
     1
102
RTVSPropertyOp32
 70
     1
  0
XRECORD
  5
11F3
102
{ACAD_REACTORS
330
11F2
102
}
330
11F2
100
AcDbXrecord
280
     1
102
RTVSPropertyOp0
 70
     1
102
RTVSPropertyOp1
 70
     1
102
RTVSPropertyOp2
 70
     1
102
RTVSPropertyOp3
 70
     1
102
RTVSPropertyOp4
 70
     1
102
RTVSPropertyOp5
 70
     1
102
RTVSPropertyOp6
 70
     1
102
RTVSPropertyOp7
 70
     1
102
RTVSPropertyOp8
 70
     1
102
RTVSPropertyOp9
 70
     1
102
RTVSPropertyOp10
 70
     1
102
RTVSPropertyOp11
 70
     1
102
RTVSPropertyOp12
 70
     1
102
RTVSPropertyOp13
 70
     1
102
RTVSPropertyOp14
 70
     1
102
RTVSPropertyOp15
 70
     1
102
RTVSPropertyOp16
 70
     1
102
RTVSPropertyOp17
 70
     1
102
RTVSPropertyOp18
 70
     1
102
RTVSPropertyOp19
 70
     1
102
RTVSPropertyOp20
 70
     1
102
RTVSPropertyOp21
 70
     1
102
RTVSPropertyOp22
 70
     1
102
RTVSPropertyOp23
 70
     1
102
RTVSPropertyOp24
 70
     1
102
RTVSPropertyOp25
 70
     1
102
RTVSPropertyOp26
 70
     1
102
RTVSPropertyOp27
 70
     1
102
RTVSPropertyOp28
 70
     1
102
RTVSPropertyOp29
 70
     1
102
RTVSPropertyOp30
 70
     1
102
RTVSPropertyOp31
 70
     1
102
RTVSPropertyOp32
 70
     1
  0
XRECORD
  5
11FB
102
{ACAD_REACTORS
330
11FA
102
}
330
11FA
100
AcDbXrecord
280
     1
102
RTVSPropertyOp0
 70
     1
102
RTVSPropertyOp1
 70
     1
102
RTVSPropertyOp2
 70
     1
102
RTVSPropertyOp3
 70
     1
102
RTVSPropertyOp4
 70
     1
102
RTVSPropertyOp5
 70
     1
102
RTVSPropertyOp6
 70
     1
102
RTVSPropertyOp7
 70
     1
102
RTVSPropertyOp8
 70
     1
102
RTVSPropertyOp9
 70
     1
102
RTVSPropertyOp10
 70
     1
102
RTVSPropertyOp11
 70
     1
102
RTVSPropertyOp12
 70
     1
102
RTVSPropertyOp13
 70
     1
102
RTVSPropertyOp14
 70
     1
102
RTVSPropertyOp15
 70
     1
102
RTVSPropertyOp16
 70
     1
102
RTVSPropertyOp17
 70
     1
102
RTVSPropertyOp18
 70
     1
102
RTVSPropertyOp19
 70
     1
102
RTVSPropertyOp20
 70
     1
102
RTVSPropertyOp21
 70
     1
102
RTVSPropertyOp22
 70
     1
102
RTVSPropertyOp23
 70
     1
102
RTVSPropertyOp24
 70
     1
102
RTVSPropertyOp25
 70
     1
102
RTVSPropertyOp26
 70
     1
102
RTVSPropertyOp27
 70
     1
102
RTVSPropertyOp28
 70
     1
102
RTVSPropertyOp29
 70
     1
102
RTVSPropertyOp30
 70
     1
102
RTVSPropertyOp31
 70
     1
102
RTVSPropertyOp32
 70
     1
  0
ENDSEC
  0
EOF
