  0
SECTION
  2
HEADER
  9
$ACADVER
  1
AC1015
  9
$ACADMAINTVER
 70
    20
  9
$DWGCODEPAGE
  3
ANSI_932
  9
$INSBASE
 10
0.0
 20
0.0
 30
0.0
  9
$EXTMIN
 10
805.2516309999997
 20
-104.957674
 30
0.0
  9
$EXTMAX
 10
1210.251631
 20
169.097687
 30
0.0
  9
$LIMMIN
 10
805.2506480000001
 20
-104.958672
  9
$LIMMAX
 10
1210.278466
 20
169.098687
  9
$ORTHOMODE
 70
     1
  9
$REGENMODE
 70
     1
  9
$FILLMODE
 70
     1
  9
$QTEXTMODE
 70
     0
  9
$MIRRTEXT
 70
     0
  9
$LTSCALE
 40
6.75043
  9
$ATTMODE
 70
     1
  9
$TEXTSIZE
 40
3.2
  9
$TRACEWID
 40
0.05
  9
$TEXTSTYLE
  7
高3.2
  9
$CLAYER
  8
0
  9
$CELTYPE
  6
CONTINUOUS
  9
$CECOLOR
 62
   256
  9
$CELTSCALE
 40
1.0
  9
$DISPSILH
 70
     0
  9
$DIMSCALE
 40
1.0
  9
$DIMASZ
 40
2.5
  9
$DIMEXO
 40
0.25
  9
$DIMDLI
 40
0.2
  9
$DIMRND
 40
0.0
  9
$DIMDLE
 40
0.0
  9
$DIMEXE
 40
1.25
  9
$DIMTP
 40
0.0
  9
$DIMTM
 40
0.0
  9
$DIMTXT
 40
3.0
  9
$DIMCEN
 40
0.0
  9
$DIMTSZ
 40
0.0
  9
$DIMTOL
 70
     0
  9
$DIMLIM
 70
     0
  9
$DIMTIH
 70
     0
  9
$DIMTOH
 70
     0
  9
$DIMSE1
 70
     0
  9
$DIMSE2
 70
     0
  9
$DIMTAD
 70
     3
  9
$DIMZIN
 70
     8
  9
$DIMBLK
  1
Open30
  9
$DIMASO
 70
     1
  9
$DIMSHO
 70
     1
  9
$DIMPOST
  1

  9
$DIMAPOST
  1

  9
$DIMALT
 70
     0
  9
$DIMALTD
 70
     3
  9
$DIMALTF
 40
0.03937007874016
  9
$DIMLFAC
 40
2.0
  9
$DIMTOFL
 70
     1
  9
$DIMTVP
 40
0.0
  9
$DIMTIX
 70
     0
  9
$DIMSOXD
 70
     0
  9
$DIMSAH
 70
     0
  9
$DIMBLK1
  1

  9
$DIMBLK2
  1

  9
$DIMSTYLE
  2
1／2
  9
$DIMCLRD
 70
     0
  9
$DIMCLRE
 70
     0
  9
$DIMCLRT
 70
     4
  9
$DIMTFAC
 40
1.0
  9
$DIMGAP
 40
0.625
  9
$DIMJUST
 70
     0
  9
$DIMSD1
 70
     0
  9
$DIMSD2
 70
     0
  9
$DIMTOLJ
 70
     0
  9
$DIMTZIN
 70
     8
  9
$DIMALTZ
 70
     0
  9
$DIMALTTZ
 70
     0
  9
$DIMUPT
 70
     1
  9
$DIMDEC
 70
     2
  9
$DIMTDEC
 70
     2
  9
$DIMALTU
 70
     2
  9
$DIMALTTD
 70
     3
  9
$DIMTXSTY
  7
STANDARD
  9
$DIMAUNIT
 70
     0
  9
$DIMADEC
 70
     1
  9
$DIMALTRND
 40
0.0
  9
$DIMAZIN
 70
     2
  9
$DIMDSEP
 70
    46
  9
$DIMATFIT
 70
     0
  9
$DIMFRAC
 70
     0
  9
$DIMLDRBLK
  1
Open30
  9
$DIMLUNIT
 70
     2
  9
$DIMLWD
 70
    -2
  9
$DIMLWE
 70
    -2
  9
$DIMTMOVE
 70
     0
  9
$LUNITS
 70
     2
  9
$LUPREC
 70
     4
  9
$SKETCHINC
 40
0.1
  9
$FILLETRAD
 40
0.0
  9
$AUNITS
 70
     0
  9
$AUPREC
 70
     0
  9
$MENU
  1
.
  9
$ELEVATION
 40
0.0
  9
$PELEVATION
 40
0.0
  9
$THICKNESS
 40
0.0
  9
$LIMCHECK
 70
     0
  9
$CHAMFERA
 40
0.0
  9
$CHAMFERB
 40
0.0
  9
$CHAMFERC
 40
0.0
  9
$CHAMFERD
 40
0.0
  9
$SKPOLY
 70
     0
  9
$TDCREATE
 40
2455657.649630891
  9
$TDUCREATE
 40
2455657.274630891
  9
$TDUPDATE
 40
2457226.663615996
  9
$TDUUPDATE
 40
2457226.288615995
  9
$TDINDWG
 40
0.0118527778
  9
$TDUSRTIMER
 40
0.0118524190
  9
$USRTIMER
 70
     1
  9
$ANGBASE
 50
0.0
  9
$ANGDIR
 70
     0
  9
$PDMODE
 70
     0
  9
$PDSIZE
 40
0.0
  9
$PLINEWID
 40
0.0
  9
$SPLFRAME
 70
     0
  9
$SPLINETYPE
 70
     6
  9
$SPLINESEGS
 70
     8
  9
$HANDSEED
  5
A11
  9
$SURFTAB1
 70
     6
  9
$SURFTAB2
 70
     6
  9
$SURFTYPE
 70
     6
  9
$SURFU
 70
     6
  9
$SURFV
 70
     6
  9
$UCSBASE
  2

  9
$UCSNAME
  2

  9
$UCSORG
 10
0.0
 20
0.0
 30
0.0
  9
$UCSXDIR
 10
1.0
 20
0.0
 30
0.0
  9
$UCSYDIR
 10
0.0
 20
1.0
 30
0.0
  9
$UCSORTHOREF
  2

  9
$UCSORTHOVIEW
 70
     0
  9
$UCSORGTOP
 10
0.0
 20
0.0
 30
0.0
  9
$UCSORGBOTTOM
 10
0.0
 20
0.0
 30
0.0
  9
$UCSORGLEFT
 10
0.0
 20
0.0
 30
0.0
  9
$UCSORGRIGHT
 10
0.0
 20
0.0
 30
0.0
  9
$UCSORGFRONT
 10
0.0
 20
0.0
 30
0.0
  9
$UCSORGBACK
 10
0.0
 20
0.0
 30
0.0
  9
$PUCSBASE
  2

  9
$PUCSNAME
  2

  9
$PUCSORG
 10
0.0
 20
0.0
 30
0.0
  9
$PUCSXDIR
 10
1.0
 20
0.0
 30
0.0
  9
$PUCSYDIR
 10
0.0
 20
1.0
 30
0.0
  9
$PUCSORTHOREF
  2

  9
$PUCSORTHOVIEW
 70
     0
  9
$PUCSORGTOP
 10
0.0
 20
0.0
 30
0.0
  9
$PUCSORGBOTTOM
 10
0.0
 20
0.0
 30
0.0
  9
$PUCSORGLEFT
 10
0.0
 20
0.0
 30
0.0
  9
$PUCSORGRIGHT
 10
0.0
 20
0.0
 30
0.0
  9
$PUCSORGFRONT
 10
0.0
 20
0.0
 30
0.0
  9
$PUCSORGBACK
 10
0.0
 20
0.0
 30
0.0
  9
$USERI1
 70
     0
  9
$USERI2
 70
     0
  9
$USERI3
 70
     0
  9
$USERI4
 70
     0
  9
$USERI5
 70
     0
  9
$USERR1
 40
0.0
  9
$USERR2
 40
0.0
  9
$USERR3
 40
0.0
  9
$USERR4
 40
0.0
  9
$USERR5
 40
0.0
  9
$WORLDVIEW
 70
     1
  9
$SHADEDGE
 70
     3
  9
$SHADEDIF
 70
    70
  9
$TILEMODE
 70
     1
  9
$MAXACTVP
 70
    64
  9
$PINSBASE
 10
0.0
 20
0.0
 30
0.0
  9
$PLIMCHECK
 70
     0
  9
$PEXTMIN
 10
1.000000000000000E+20
 20
1.000000000000000E+20
 30
1.000000000000000E+20
  9
$PEXTMAX
 10
-1.000000000000000E+20
 20
-1.000000000000000E+20
 30
-1.000000000000000E+20
  9
$PLIMMIN
 10
0.0
 20
0.0
  9
$PLIMMAX
 10
12.0
 20
9.0
  9
$UNITMODE
 70
     0
  9
$VISRETAIN
 70
     1
  9
$PLINEGEN
 70
     0
  9
$PSLTSCALE
 70
     1
  9
$TREEDEPTH
 70
  3020
  9
$CMLSTYLE
  2
Standard
  9
$CMLJUST
 70
     0
  9
$CMLSCALE
 40
1.0
  9
$PROXYGRAPHICS
 70
     1
  9
$MEASUREMENT
 70
     0
  9
$CELWEIGHT
370
    -1
  9
$ENDCAPS
280
     0
  9
$JOINSTYLE
280
     0
  9
$LWDISPLAY
290
     0
  9
$INSUNITS
 70
     0
  9
$HYPERLINKBASE
  1

  9
$STYLESHEET
  1

  9
$XEDIT
290
     1
  9
$CEPSNTYPE
380
     0
  9
$PSTYLEMODE
290
     1
  9
$FINGERPRINTGUID
  2
{4606241B-DAFB-4124-B486-6C0D04FC0FFF}
  9
$VERSIONGUID
  2
{3DCA25B5-C000-46EB-A7A7-65EBB43B7BFB}
  9
$EXTNAMES
290
     1
  9
$PSVPSCALE
 40
0.0
  9
$OLESTARTUP
290
     0
  0
ENDSEC
  0
SECTION
  2
CLASSES
  0
CLASS
  1
ACDBDICTIONARYWDFLT
  2
AcDbDictionaryWithDefault
  3
ObjectDBX Classes
 90
        0
280
     0
281
     0
  0
CLASS
  1
MATERIAL
  2
AcDbMaterial
  3
ObjectDBX Classes
 90
     1153
280
     0
281
     0
  0
CLASS
  1
VISUALSTYLE
  2
AcDbVisualStyle
  3
ObjectDBX Classes
 90
     4095
280
     0
281
     0
  0
CLASS
  1
TABLESTYLE
  2
AcDbTableStyle
  3
ObjectDBX Classes
 90
     4095
280
     0
281
     0
  0
CLASS
  1
DICTIONARYVAR
  2
AcDbDictionaryVar
  3
ObjectDBX Classes
 90
        0
280
     0
281
     0
  0
CLASS
  1
ACDBPLACEHOLDER
  2
AcDbPlaceHolder
  3
ObjectDBX Classes
 90
        0
280
     0
281
     0
  0
CLASS
  1
LAYOUT
  2
AcDbLayout
  3
ObjectDBX Classes
 90
        0
280
     0
281
     0
  0
CLASS
  1
SCALE
  2
AcDbScale
  3
ObjectDBX Classes
 90
     1153
280
     0
281
     0
  0
CLASS
  1
MLEADERSTYLE
  2
AcDbMLeaderStyle
  3
ACDB_MLEADERSTYLE_CLASS
 90
     4095
280
     0
281
     0
  0
CLASS
  1
SORTENTSTABLE
  2
AcDbSortentsTable
  3
ObjectDBX Classes
 90
        0
280
     0
281
     0
  0
CLASS
  1
CELLSTYLEMAP
  2
AcDbCellStyleMap
  3
ObjectDBX Classes
 90
     1152
280
     0
281
     0
  0
ENDSEC
  0
SECTION
  2
TABLES
  0
TABLE
  2
VPORT
  5
8
330
0
100
AcDbSymbolTable
 70
     1
  0
VPORT
  5
56
330
8
100
AcDbSymbolTableRecord
100
AcDbViewportTableRecord
  2
*Active
 70
     0
 10
0.0
 20
0.0
 11
1.0
 21
1.0
 12
1052.797432538759
 22
-1.645674954844423
 13
0.0
 23
0.0
 14
1.0
 24
1.0
 15
0.0
 25
0.0
 16
0.0
 26
0.0
 36
1.0
 17
0.0
 27
0.0
 37
0.0
 40
543.0630454809412
 41
1.925179856115107
 42
50.0
 43
0.0
 44
0.0
 50
0.0
 51
0.0
 71
     0
 72
   100
 73
     1
 74
     1
 75
     0
 76
     0
 77
     0
 78
     0
281
     0
 65
     1
110
0.0
120
0.0
130
0.0
111
1.0
121
0.0
131
0.0
112
0.0
122
1.0
132
0.0
 79
     0
146
0.0
  0
ENDTAB
  0
TABLE
  2
LTYPE
  5
5
330
0
100
AcDbSymbolTable
 70
     2
  0
LTYPE
  5
28
330
5
100
AcDbSymbolTableRecord
100
AcDbLinetypeTableRecord
  2
ByBlock
 70
     0
  3

 72
    65
 73
     0
 40
0.0
  0
LTYPE
  5
29
330
5
100
AcDbSymbolTableRecord
100
AcDbLinetypeTableRecord
  2
ByLayer
 70
     0
  3

 72
    65
 73
     0
 40
0.0
  0
LTYPE
  5
2A
330
5
100
AcDbSymbolTableRecord
100
AcDbLinetypeTableRecord
  2
CONTINUOUS
 70
     0
  3
Solid-line
 72
    65
 73
     0
 40
0.0
  0
ENDTAB
  0
TABLE
  2
LAYER
  5
2
102
{ACAD_XDICTIONARY
360
584
102
}
330
0
100
AcDbSymbolTable
 70
     2
  0
LAYER
  5
25
102
{ACAD_XDICTIONARY
360
730
102
}
330
2
100
AcDbSymbolTableRecord
100
AcDbLayerTableRecord
  2
0
 70
     0
 62
     7
  6
CONTINUOUS
370
    -3
390
F
  0
LAYER
  5
56E
330
2
100
AcDbSymbolTableRecord
100
AcDbLayerTableRecord
  2
Defpoints
 70
     0
 62
     7
  6
CONTINUOUS
290
     0
370
    -3
390
F
  0
ENDTAB
  0
TABLE
  2
STYLE
  5
3
330
0
100
AcDbSymbolTable
 70
     5
  0
STYLE
  5
26
330
3
100
AcDbSymbolTableRecord
100
AcDbTextStyleTableRecord
  2
STANDARD
 70
     0
 40
0.0
 41
1.0
 50
0.0
 71
     0
 42
0.2
  3
TXT
  4
BIGFONT
  0
STYLE
  5
56F
330
3
100
AcDbSymbolTableRecord
100
AcDbTextStyleTableRecord
  2
高3.2
 70
     0
 40
3.2
 41
1.0
 50
0.0
 71
     0
 42
3.2
  3
txt.shx
  4
bigfont.shx
  0
STYLE
  5
570
330
3
100
AcDbSymbolTableRecord
100
AcDbTextStyleTableRecord
  2
高6.3
 70
     0
 40
6.299999999999998
 41
1.0
 50
0.0
 71
     0
 42
6.299999999999998
  3
txt.shx
  4
bigfont.shx
  0
STYLE
  5
572
330
3
100
AcDbSymbolTableRecord
100
AcDbTextStyleTableRecord
  2
高4.5
 70
     0
 40
4.5
 41
1.0
 50
0.0
 71
     0
 42
6.299999999999998
  3
txt.shx
  4
bigfont.shx
  0
STYLE
  5
573
330
3
100
AcDbSymbolTableRecord
100
AcDbTextStyleTableRecord
  2
高2
 70
     0
 40
2.0
 41
1.0
 50
0.0
 71
     0
 42
2.0
  3
txt.shx
  4
bigfont.shx
  0
ENDTAB
  0
TABLE
  2
VIEW
  5
6
330
0
100
AcDbSymbolTable
 70
     0
  0
ENDTAB
  0
TABLE
  2
UCS
  5
7
330
0
100
AcDbSymbolTable
 70
     0
  0
ENDTAB
  0
TABLE
  2
APPID
  5
9
330
0
100
AcDbSymbolTable
 70
     9
  0
APPID
  5
27
330
9
100
AcDbSymbolTableRecord
100
AcDbRegAppTableRecord
  2
ACAD
 70
     0
  0
APPID
  5
57E
330
9
100
AcDbSymbolTableRecord
100
AcDbRegAppTableRecord
  2
ACAD_DSTYLE_DIMJOGGED_JOGANGLE_SYMBOL
 70
     0
  0
APPID
  5
57F
330
9
100
AcDbSymbolTableRecord
100
AcDbRegAppTableRecord
  2
ACAD_DSTYLE_DIMJAG
 70
     0
  0
APPID
  5
580
330
9
100
AcDbSymbolTableRecord
100
AcDbRegAppTableRecord
  2
ACAD_DSTYLE_DIMBREAK
 70
     0
  0
APPID
  5
581
330
9
100
AcDbSymbolTableRecord
100
AcDbRegAppTableRecord
  2
ACAD_DSTYLE_DIMTALN
 70
     0
  0
APPID
  5
6C4
330
9
100
AcDbSymbolTableRecord
100
AcDbRegAppTableRecord
  2
ACAD_EXEMPT_FROM_CAD_STANDARDS
 70
     0
  0
APPID
  5
776
330
9
100
AcDbSymbolTableRecord
100
AcDbRegAppTableRecord
  2
ACAD_MLEADERVER
 70
     0
  0
APPID
  5
777
330
9
100
AcDbSymbolTableRecord
100
AcDbRegAppTableRecord
  2
ACAD_DSTYLE_DIMARC_LENGTH_SYMBOL
 70
     0
  0
APPID
  5
778
330
9
100
AcDbSymbolTableRecord
100
AcDbRegAppTableRecord
  2
ACAD_DSTYLE_DIMEXT_LENGTH
 70
     0
  0
ENDTAB
  0
TABLE
  2
DIMSTYLE
  5
A
330
0
100
AcDbSymbolTable
 70
     2
100
AcDbDimStyleTable
 71
     2
340
578
340
4A7
  0
DIMSTYLE
105
4A7
330
A
100
AcDbSymbolTableRecord
100
AcDbDimStyleTableRecord
  2
Standard
 70
     0
340
26
  0
DIMSTYLE
105
578
330
A
100
AcDbSymbolTableRecord
100
AcDbDimStyleTableRecord
  2
1／2
 70
     0
 41
2.5
 42
0.25
 43
0.2
 44
1.25
 73
     0
 74
     0
 77
     3
 78
     8
 79
     2
140
3.0
141
0.0
143
0.03937007874016
144
2.0
147
0.625
171
     3
172
     1
178
     4
179
     1
271
     2
272
     2
274
     3
283
     0
284
     8
288
     1
289
     0
340
26
341
4DE
342
4DE
1001
ACAD_DSTYLE_DIMARC_LENGTH_SYMBOL
1070
   379
1070
     2
1001
ACAD_DSTYLE_DIMEXT_LENGTH
1070
   378
1040
1.25
1001
ACAD_DSTYLE_DIMJOGGED_JOGANGLE_SYMBOL
1070
   384
1040
1.570796326794896
  0
ENDTAB
  0
TABLE
  2
BLOCK_RECORD
  5
1
330
0
100
AcDbSymbolTable
 70
     4
  0
BLOCK_RECORD
  5
36
102
{ACAD_XDICTIONARY
360
83E
102
}
330
1
100
AcDbSymbolTableRecord
100
AcDbBlockTableRecord
  2
*Model_Space
340
39
  0
BLOCK_RECORD
  5
32
330
1
100
AcDbSymbolTableRecord
100
AcDbBlockTableRecord
  2
*Paper_Space
340
35
  0
BLOCK_RECORD
  5
4DE
330
1
100
AcDbSymbolTableRecord
100
AcDbBlockTableRecord
  2
_Open30
340
0
102
{BLKREFS
331
7E1
331
7E2
331
7EA
331
7EB
331
7F3
331
7F4
102
}
  0
BLOCK_RECORD
  5
6CD
330
1
100
AcDbSymbolTableRecord
100
AcDbBlockTableRecord
  2
*D1
340
0
  0
BLOCK_RECORD
  5
6DA
330
1
100
AcDbSymbolTableRecord
100
AcDbBlockTableRecord
  2
*D2
340
0
  0
BLOCK_RECORD
  5
6E7
330
1
100
AcDbSymbolTableRecord
100
AcDbBlockTableRecord
  2
*D3
340
0
  0
ENDTAB
  0
ENDSEC
  0
SECTION
  2
BLOCKS
  0
BLOCK
  5
37
330
36
100
AcDbEntity
  8
0
100
AcDbBlockBegin
  2
*Model_Space
 70
     0
 10
0.0
 20
0.0
 30
0.0
  3
*Model_Space
  1

  0
ENDBLK
  5
38
330
36
100
AcDbEntity
  8
0
100
AcDbBlockEnd
  0
BLOCK
  5
33
330
32
100
AcDbEntity
 67
     1
  8
0
100
AcDbBlockBegin
  2
*Paper_Space
 70
     0
 10
0.0
 20
0.0
 30
0.0
  3
*Paper_Space
  1

  0
ENDBLK
  5
34
330
32
100
AcDbEntity
 67
     1
  8
0
100
AcDbBlockEnd
  0
BLOCK
  5
4DF
330
4DE
100
AcDbEntity
  8
0
100
AcDbBlockBegin
  2
_Open30
 70
     0
 10
0.0
 20
0.0
 30
0.0
  3
_Open30
  1

  0
LINE
  5
4E0
330
4DE
100
AcDbEntity
  8
0
  6
ByBlock
 62
     0
370
    -2
100
AcDbLine
 10
-1.0
 20
0.267949
 30
0.0
 11
0.0
 21
0.0
 31
0.0
  0
LINE
  5
4E1
330
4DE
100
AcDbEntity
  8
0
  6
ByBlock
 62
     0
370
    -2
100
AcDbLine
 10
0.0
 20
0.0
 30
0.0
 11
-1.0
 21
-0.267949
 31
0.0
  0
LINE
  5
4E2
330
4DE
100
AcDbEntity
  8
0
  6
ByBlock
 62
     0
370
    -2
100
AcDbLine
 10
0.0
 20
0.0
 30
0.0
 11
-1.0
 21
0.0
 31
0.0
  0
ENDBLK
  5
4E3
330
4DE
100
AcDbEntity
  8
0
100
AcDbBlockEnd
  0
BLOCK
  5
6CE
330
6CD
100
AcDbEntity
  8
0
100
AcDbBlockBegin
  2
*D1
 70
     1
 10
0.0
 20
0.0
 30
0.0
  3
*D1
  1

  0
LINE
  5
7F0
330
6CD
100
AcDbEntity
  8
0
 62
     0
370
    -2
100
AcDbLine
 10
959.336885
 20
37.063513
 30
0.0
 11
959.336885
 21
20.095275
 31
0.0
  0
LINE
  5
7F1
330
6CD
100
AcDbEntity
  8
0
 62
     0
370
    -2
100
AcDbLine
 10
1084.336885
 20
37.063513
 30
0.0
 11
1084.336885
 21
20.095275
 31
0.0
  0
LINE
  5
7F2
330
6CD
100
AcDbEntity
  8
0
 62
     0
370
    -2
100
AcDbLine
 10
961.8368850000001
 20
21.345275
 30
0.0
 11
1081.836885
 21
21.345275
 31
0.0
  0
INSERT
  5
7F3
330
6CD
100
AcDbEntity
  8
0
 62
     0
370
    -2
100
AcDbBlockReference
  2
_Open30
 10
959.336885
 20
21.345275
 30
0.0
 41
2.5
 42
2.5
 43
2.5
 50
180.0
  0
INSERT
  5
7F4
330
6CD
100
AcDbEntity
  8
0
 62
     0
370
    -2
100
AcDbBlockReference
  2
_Open30
 10
1084.336885
 20
21.345275
 30
0.0
 41
2.5
 42
2.5
 43
2.5
  0
MTEXT
  5
7F5
330
6CD
100
AcDbEntity
  8
0
 62
     4
100
AcDbMText
 10
1021.836885
 20
23.470275
 30
0.0
 40
3.0
 41
0.0
 71
     5
 72
     1
  1
250
 73
     1
 44
1.0
1001
ACAD
1000
MTEXTBEGIN
1070
    73
1070
     1
1070
    44
1040
1.0
1070
    74
1070
     0
1000
MTEXTEND
  0
POINT
  5
7F6
330
6CD
100
AcDbEntity
  8
Defpoints
 62
     0
100
AcDbPoint
 10
959.336885
 20
37.313513
 30
0.0
  0
POINT
  5
7F7
330
6CD
100
AcDbEntity
  8
Defpoints
 62
     0
100
AcDbPoint
 10
1084.336885
 20
37.313513
 30
0.0
  0
POINT
  5
7F8
330
6CD
100
AcDbEntity
  8
Defpoints
 62
     0
100
AcDbPoint
 10
1084.336885
 20
21.345275
 30
0.0
  0
ENDBLK
  5
6CF
330
6CD
100
AcDbEntity
  8
0
100
AcDbBlockEnd
  0
BLOCK
  5
6DB
330
6DA
100
AcDbEntity
  8
0
100
AcDbBlockBegin
  2
*D2
 70
     1
 10
0.0
 20
0.0
 30
0.0
  3
*D2
  1

  0
LINE
  5
7E7
330
6DA
100
AcDbEntity
  8
0
 62
     0
370
    -2
100
AcDbLine
 10
976.4817609999999
 20
34.813513
 30
0.0
 11
945.173905
 21
34.81351300000001
 31
0.0
  0
LINE
  5
7E8
330
6DA
100
AcDbEntity
  8
0
 62
     0
370
    -2
100
AcDbLine
 10
974.086885
 20
124.813513
 30
0.0
 11
945.173905
 21
124.813513
 31
0.0
  0
LINE
  5
7E9
330
6DA
100
AcDbEntity
  8
0
 62
     0
370
    -2
100
AcDbLine
 10
946.4239049999999
 20
37.31351300000001
 30
0.0
 11
946.4239049999999
 21
122.313513
 31
0.0
  0
INSERT
  5
7EA
330
6DA
100
AcDbEntity
  8
0
 62
     0
370
    -2
100
AcDbBlockReference
  2
_Open30
 10
946.4239049999999
 20
34.81351300000001
 30
0.0
 41
2.5
 42
2.5
 43
2.5
 50
270.0
  0
INSERT
  5
7EB
330
6DA
100
AcDbEntity
  8
0
 62
     0
370
    -2
100
AcDbBlockReference
  2
_Open30
 10
946.4239049999999
 20
124.813513
 30
0.0
 41
2.5
 42
2.5
 43
2.5
 50
90.0
  0
MTEXT
  5
7EC
330
6DA
100
AcDbEntity
  8
0
 62
     4
100
AcDbMText
 10
944.2989049999999
 20
79.81351300000016
 30
0.0
 40
3.0
 41
0.0
 71
     5
 72
     1
  1
180
 11
0.0000000000000001
 21
1.0
 31
0.0
 73
     1
 44
1.0
1001
ACAD
1000
MTEXTBEGIN
1070
    73
1070
     1
1070
    44
1040
1.0
1070
    74
1070
     0
1000
MTEXTEND
  0
POINT
  5
7ED
330
6DA
100
AcDbEntity
  8
Defpoints
 62
     0
100
AcDbPoint
 10
976.731761
 20
34.813513
 30
0.0
  0
POINT
  5
7EE
330
6DA
100
AcDbEntity
  8
Defpoints
 62
     0
100
AcDbPoint
 10
974.3368850000001
 20
124.813513
 30
0.0
  0
POINT
  5
7EF
330
6DA
100
AcDbEntity
  8
Defpoints
 62
     0
100
AcDbPoint
 10
946.4239049999999
 20
124.813513
 30
0.0
  0
ENDBLK
  5
6DC
330
6DA
100
AcDbEntity
  8
0
100
AcDbBlockEnd
  0
BLOCK
  5
6E8
330
6E7
100
AcDbEntity
  8
0
100
AcDbBlockBegin
  2
*D3
 70
     1
 10
0.0
 20
0.0
 30
0.0
  3
*D3
  1

  0
LINE
  5
7DE
330
6E7
100
AcDbEntity
  8
0
 62
     0
370
    -2
100
AcDbLine
 10
844.8020300000001
 20
43.063513
 30
0.0
 11
844.8020300000001
 21
20.095275
 31
0.0
  0
LINE
  5
7DF
330
6E7
100
AcDbEntity
  8
0
 62
     0
370
    -2
100
AcDbLine
 10
917.3020299999999
 20
43.063513
 30
0.0
 11
917.3020299999999
 21
20.095275
 31
0.0
  0
LINE
  5
7E0
330
6E7
100
AcDbEntity
  8
0
 62
     0
370
    -2
100
AcDbLine
 10
847.3020300000001
 20
21.345275
 30
0.0
 11
914.8020299999998
 21
21.345275
 31
0.0
  0
INSERT
  5
7E1
330
6E7
100
AcDbEntity
  8
0
 62
     0
370
    -2
100
AcDbBlockReference
  2
_Open30
 10
844.8020300000001
 20
21.345275
 30
0.0
 41
2.5
 42
2.5
 43
2.5
 50
180.0
  0
INSERT
  5
7E2
330
6E7
100
AcDbEntity
  8
0
 62
     0
370
    -2
100
AcDbBlockReference
  2
_Open30
 10
917.3020299999999
 20
21.345275
 30
0.0
 41
2.5
 42
2.5
 43
2.5
  0
MTEXT
  5
7E3
330
6E7
100
AcDbEntity
  8
0
 62
     4
100
AcDbMText
 10
881.05203
 20
23.470275
 30
0.0
 40
3.0
 41
0.0
 71
     5
 72
     1
  1
145
 73
     1
 44
1.0
1001
ACAD
1000
MTEXTBEGIN
1070
    73
1070
     1
1070
    44
1040
1.0
1070
    74
1070
     0
1000
MTEXTEND
  0
POINT
  5
7E4
330
6E7
100
AcDbEntity
  8
Defpoints
 62
     0
100
AcDbPoint
 10
844.8020300000001
 20
43.313513
 30
0.0
  0
POINT
  5
7E5
330
6E7
100
AcDbEntity
  8
Defpoints
 62
     0
100
AcDbPoint
 10
917.3020299999999
 20
43.313513
 30
0.0
  0
POINT
  5
7E6
330
6E7
100
AcDbEntity
  8
Defpoints
 62
     0
100
AcDbPoint
 10
917.3020299999999
 20
21.345275
 30
0.0
  0
ENDBLK
  5
6E9
330
6E7
100
AcDbEntity
  8
0
100
AcDbBlockEnd
  0
ENDSEC
  0
SECTION
  2
ENTITIES
  0
LINE
  5
86
330
36
100
AcDbEntity
  8
0
 62
     3
100
AcDbLine
 10
1180.018201
 20
99.806921
 30
0.0
 11
1183.626368
 21
99.806921
 31
0.0
  0
LINE
  5
D2
330
36
100
AcDbEntity
  8
0
 62
     3
100
AcDbLine
 10
893.0520300000001
 20
50.313513
 30
0.0
 11
909.55203
 21
50.313513
 31
0.0
  0
LINE
  5
D3
330
36
100
AcDbEntity
  8
0
 62
     3
100
AcDbLine
 10
909.55203
 20
50.313513
 30
0.0
 11
909.55203
 21
59.313513
 31
0.0
  0
LINE
  5
D4
330
36
100
AcDbEntity
  8
0
 62
     3
100
AcDbLine
 10
893.0520300000001
 20
59.313513
 30
0.0
 11
893.0520300000001
 21
50.313513
 31
0.0
  0
LINE
  5
D5
330
36
100
AcDbEntity
  8
0
 62
     3
100
AcDbLine
 10
892.3722460000004
 20
103.134463
 30
0.0
 11
909.091942
 21
103.134463
 31
0.0
  0
LINE
  5
D6
330
36
100
AcDbEntity
  8
0
 62
     3
100
AcDbLine
 10
909.091942
 20
103.134463
 30
0.0
 11
909.091942
 21
112.10612
 31
0.0
  0
LINE
  5
D7
330
36
100
AcDbEntity
  8
0
 62
     3
100
AcDbLine
 10
909.091942
 20
112.10612
 30
0.0
 11
892.3722460000004
 21
112.10612
 31
0.0
  0
LINE
  5
D8
330
36
100
AcDbEntity
  8
0
 62
     3
100
AcDbLine
 10
892.3722460000004
 20
112.10612
 30
0.0
 11
892.3722460000004
 21
103.134463
 31
0.0
  0
LINE
  5
D9
330
36
100
AcDbEntity
  8
0
 62
     3
100
AcDbLine
 10
1180.018201
 20
103.928992
 30
0.0
 11
1180.018201
 21
95.687946
 31
0.0
  0
LINE
  5
DA
330
36
100
AcDbEntity
  8
0
 62
     3
100
AcDbLine
 10
1180.018201
 20
95.687946
 30
0.0
 11
1183.626368
 21
95.687946
 31
0.0
  0
LINE
  5
DB
330
36
100
AcDbEntity
  8
0
 62
     3
100
AcDbLine
 10
1183.626368
 20
95.687946
 30
0.0
 11
1183.626368
 21
103.928992
 31
0.0
  0
LINE
  5
DC
330
36
100
AcDbEntity
  8
0
 62
     3
100
AcDbLine
 10
1180.018201
 20
103.928992
 30
0.0
 11
1183.626368
 21
103.928992
 31
0.0
  0
LINE
  5
DD
330
36
100
AcDbEntity
  8
0
 62
     3
100
AcDbLine
 10
1156.309416
 20
15.415668
 30
0.0
 11
1156.309416
 21
20.915668
 31
0.0
  0
LINE
  5
DE
330
36
100
AcDbEntity
  8
0
 62
     3
100
AcDbLine
 10
850.80203
 20
37.313513
 30
0.0
 11
911.30203
 21
37.313513
 31
0.0
  0
LINE
  5
DF
330
36
100
AcDbEntity
  8
0
 62
     3
100
AcDbLine
 10
917.3020299999999
 20
115.813513
 30
0.0
 11
917.3020299999999
 21
43.313513
 31
0.0
  0
LINE
  5
E0
330
36
100
AcDbEntity
  8
0
 62
     3
100
AcDbLine
 10
844.8020300000001
 20
115.813513
 30
0.0
 11
844.8020300000001
 21
43.313513
 31
0.0
  0
LINE
  5
E1
330
36
100
AcDbEntity
  8
0
 62
     3
100
AcDbLine
 10
885.55203
 20
124.813513
 30
0.0
 11
876.55203
 21
124.813513
 31
0.0
  0
LINE
  5
E2
330
36
100
AcDbEntity
  8
0
 62
     3
100
AcDbLine
 10
911.30203
 20
121.813513
 30
0.0
 11
850.80203
 21
121.813513
 31
0.0
  0
LINE
  5
E3
330
36
100
AcDbEntity
  8
0
 62
     3
100
AcDbLine
 10
885.55203
 20
124.813513
 30
0.0
 11
885.55203
 21
121.813513
 31
0.0
  0
LINE
  5
E4
330
36
100
AcDbEntity
  8
0
 62
     3
100
AcDbLine
 10
876.55203
 20
124.813513
 30
0.0
 11
876.55203
 21
121.813513
 31
0.0
  0
ARC
  5
E5
330
36
100
AcDbEntity
  8
0
 62
     3
100
AcDbCircle
 10
911.30203
 20
115.813513
 30
0.0
 40
6.0
100
AcDbArc
 50
0.0
 51
90.0
  0
ARC
  5
E6
330
36
100
AcDbEntity
  8
0
 62
     3
100
AcDbCircle
 10
850.80203
 20
115.813513
 30
0.0
 40
6.0
100
AcDbArc
 50
90.0
 51
180.0
  0
ARC
  5
E7
330
36
100
AcDbEntity
  8
0
 62
     3
100
AcDbCircle
 10
850.80203
 20
43.313513
 30
0.0
 40
6.0
100
AcDbArc
 50
180.0
 51
270.0
  0
ARC
  5
E8
330
36
100
AcDbEntity
  8
0
 62
     3
100
AcDbCircle
 10
911.30203
 20
43.313513
 30
0.0
 40
6.0
100
AcDbArc
 50
270.0
 51
0.0
  0
LINE
  5
E9
330
36
100
AcDbEntity
  8
0
 62
     3
100
AcDbLine
 10
868.55203
 20
86.81351300000001
 30
0.0
 11
868.55203
 21
72.813513
 31
0.0
  0
LINE
  5
EA
330
36
100
AcDbEntity
  8
0
 62
     3
100
AcDbLine
 10
854.5520300000001
 20
86.81351300000001
 30
0.0
 11
854.5520300000001
 21
72.813513
 31
0.0
  0
LINE
  5
EB
330
36
100
AcDbEntity
  8
0
 62
     3
100
AcDbLine
 10
854.5520300000001
 20
65.313513
 30
0.0
 11
868.55203
 21
65.313513
 31
0.0
  0
LINE
  5
EC
330
36
100
AcDbEntity
  8
0
 62
     3
100
AcDbLine
 10
854.5520300000001
 20
72.813513
 30
0.0
 11
868.55203
 21
72.813513
 31
0.0
  0
LINE
  5
ED
330
36
100
AcDbEntity
  8
0
 62
     3
100
AcDbLine
 10
854.5520300000001
 20
86.81351300000001
 30
0.0
 11
868.55203
 21
86.81351300000001
 31
0.0
  0
LINE
  5
EE
330
36
100
AcDbEntity
  8
0
 62
     3
100
AcDbLine
 10
854.5520300000001
 20
51.313513
 30
0.0
 11
868.55203
 21
51.313513
 31
0.0
  0
LINE
  5
EF
330
36
100
AcDbEntity
  8
0
 62
     3
100
AcDbLine
 10
868.55203
 20
65.313513
 30
0.0
 11
868.55203
 21
51.313513
 31
0.0
  0
LINE
  5
F0
330
36
100
AcDbEntity
  8
0
 62
     3
100
AcDbLine
 10
854.5520300000001
 20
65.313513
 30
0.0
 11
854.5520300000001
 21
51.313513
 31
0.0
  0
TEXT
  5
F1
330
36
100
AcDbEntity
  8
0
 62
     3
100
AcDbText
 10
870.115458
 20
100.172752
 30
0.0
 40
2.25
  1
1KVA
100
AcDbText
  0
LINE
  5
F2
330
36
100
AcDbEntity
  8
0
 62
     3
100
AcDbLine
 10
893.0520300000001
 20
59.313513
 30
0.0
 11
909.55203
 21
59.313513
 31
0.0
  0
LINE
  5
F3
330
36
100
AcDbEntity
  8
0
 62
     3
100
AcDbLine
 10
1084.336885
 20
37.313513
 30
0.0
 11
959.336885
 21
37.313513
 31
0.0
  0
LINE
  5
F4
330
36
100
AcDbEntity
  8
0
 62
     3
100
AcDbLine
 10
959.336885
 20
121.813513
 30
0.0
 11
1084.336885
 21
121.813513
 31
0.0
  0
LINE
  5
F5
330
36
100
AcDbEntity
  8
0
 62
     3
100
AcDbLine
 10
974.3368850000001
 20
124.813513
 30
0.0
 11
989.3368849999999
 21
124.813513
 31
0.0
  0
LINE
  5
F6
330
36
100
AcDbEntity
  8
0
 62
     3
100
AcDbLine
 10
959.336885
 20
37.313513
 30
0.0
 11
959.336885
 21
121.813513
 31
0.0
  0
LINE
  5
F7
330
36
100
AcDbEntity
  8
0
 62
     3
100
AcDbLine
 10
1084.336885
 20
37.313513
 30
0.0
 11
1084.336885
 21
121.813513
 31
0.0
  0
LINE
  5
F8
330
36
100
AcDbEntity
  8
0
 62
     3
100
AcDbLine
 10
974.3368850000001
 20
121.813513
 30
0.0
 11
974.3368850000001
 21
124.813513
 31
0.0
  0
LINE
  5
F9
330
36
100
AcDbEntity
  8
0
 62
     3
100
AcDbLine
 10
1069.336885
 20
121.813513
 30
0.0
 11
1069.336885
 21
124.813513
 31
0.0
  0
LINE
  5
FA
330
36
100
AcDbEntity
  8
0
 62
     3
100
AcDbLine
 10
1054.336885
 20
121.813513
 30
0.0
 11
1054.336885
 21
124.813513
 31
0.0
  0
LINE
  5
FB
330
36
100
AcDbEntity
  8
0
 62
     3
100
AcDbLine
 10
989.3368849999999
 20
121.813513
 30
0.0
 11
989.3368849999999
 21
124.813513
 31
0.0
  0
LINE
  5
FC
330
36
100
AcDbEntity
  8
0
 62
     3
100
AcDbLine
 10
1054.336885
 20
124.813513
 30
0.0
 11
1069.336885
 21
124.813513
 31
0.0
  0
LINE
  5
FD
330
36
100
AcDbEntity
  8
0
 62
     3
100
AcDbLine
 10
1084.336885
 20
47.313513
 30
0.0
 11
959.336885
 21
47.313513
 31
0.0
  0
LINE
  5
FE
330
36
100
AcDbEntity
  8
0
 62
     3
100
AcDbLine
 10
1156.880291
 20
124.813513
 30
0.0
 11
1147.880291
 21
124.813513
 31
0.0
  0
LINE
  5
FF
330
36
100
AcDbEntity
  8
0
 62
     3
100
AcDbLine
 10
1182.630291
 20
121.813513
 30
0.0
 11
1122.130291
 21
121.813513
 31
0.0
  0
LINE
  5
100
330
36
100
AcDbEntity
  8
0
 62
     3
100
AcDbLine
 10
1122.130291
 20
37.313513
 30
0.0
 11
1182.630291
 21
37.313513
 31
0.0
  0
LINE
  5
101
330
36
100
AcDbEntity
  8
0
 62
     3
100
AcDbLine
 10
1147.880291
 20
124.813513
 30
0.0
 11
1147.880291
 21
121.813513
 31
0.0
  0
LINE
  5
102
330
36
100
AcDbEntity
  8
0
 62
     3
100
AcDbLine
 10
1156.880291
 20
124.813513
 30
0.0
 11
1156.880291
 21
121.813513
 31
0.0
  0
LINE
  5
103
330
36
100
AcDbEntity
  8
0
 62
     3
100
AcDbLine
 10
1116.130291
 20
115.813513
 30
0.0
 11
1116.130291
 21
46.61664299999999
 31
0.0
  0
LINE
  5
104
330
36
100
AcDbEntity
  8
0
 62
     3
100
AcDbLine
 10
1188.630291
 20
115.813513
 30
0.0
 11
1188.630291
 21
43.313513
 31
0.0
  0
ARC
  5
105
330
36
100
AcDbEntity
  8
0
 62
     3
100
AcDbCircle
 10
1182.630291
 20
115.813513
 30
0.0
 40
6.0
100
AcDbArc
 50
0.0
 51
90.0
  0
ARC
  5
106
330
36
100
AcDbEntity
  8
0
 62
     3
100
AcDbCircle
 10
1122.130291
 20
115.813513
 30
0.0
 40
6.0
100
AcDbArc
 50
90.0
 51
180.0
  0
ARC
  5
107
330
36
100
AcDbEntity
  8
0
 62
     3
100
AcDbCircle
 10
1122.130291
 20
43.313513
 30
0.0
 40
6.0
100
AcDbArc
 50
180.0
 51
270.0
  0
ARC
  5
108
330
36
100
AcDbEntity
  8
0
 62
     3
100
AcDbCircle
 10
1182.630291
 20
43.313513
 30
0.0
 40
6.0
100
AcDbArc
 50
270.0
 51
0.0
  0
ARC
  5
109
330
36
100
AcDbEntity
  8
0
 62
     3
100
AcDbCircle
 10
1122.630291
 20
32.739591
 30
0.0
 40
15.323922
100
AcDbArc
 50
90.0
 51
270.0
  0
ARC
  5
10A
330
36
100
AcDbEntity
  8
0
 62
     3
100
AcDbCircle
 10
1122.630291
 20
32.739591
 30
0.0
 40
13.823922
100
AcDbArc
 50
90.0
 51
270.0
  0
ARC
  5
10B
330
36
100
AcDbEntity
  8
0
 62
     3
100
AcDbCircle
 10
1122.630291
 20
47.313513
 30
0.0
 40
0.75
100
AcDbArc
 50
270.0
 51
90.0
  0
LINE
  5
10C
330
36
100
AcDbEntity
  8
0
 62
     3
100
AcDbLine
 10
1122.630291
 20
18.915668
 30
0.0
 11
1135.325893
 21
18.915668
 31
0.0
  0
LINE
  5
10D
330
36
100
AcDbEntity
  8
0
 62
     3
100
AcDbLine
 10
1122.630291
 20
17.415668
 30
0.0
 11
1136.386919
 21
17.415668
 31
0.0
  0
LINE
  5
10E
330
36
100
AcDbEntity
  8
0
 62
     3
100
AcDbLine
 10
1169.976603
 20
23.165668
 30
0.0
 11
1165.452742
 21
23.165668
 31
0.0
  0
LINE
  5
10F
330
36
100
AcDbEntity
  8
0
 62
     3
100
AcDbLine
 10
1169.976603
 20
13.165668
 30
0.0
 11
1165.452742
 21
13.165668
 31
0.0
  0
LINE
  5
110
330
36
100
AcDbEntity
  8
0
 62
     3
100
AcDbLine
 10
1170.726603
 20
13.165668
 30
0.0
 11
1170.726603
 21
23.165668
 31
0.0
  0
ARC
  5
111
330
36
100
AcDbEntity
  8
0
 62
     3
100
AcDbCircle
 10
1170.351603
 20
23.165668
 30
0.0
 40
0.375
100
AcDbArc
 50
0.0
 51
180.0
  0
ARC
  5
112
330
36
100
AcDbEntity
  8
0
 62
     3
100
AcDbCircle
 10
1170.351603
 20
13.165668
 30
0.0
 40
0.375
100
AcDbArc
 50
180.0
 51
0.0
  0
ARC
  5
113
330
36
100
AcDbEntity
  8
0
 62
     3
100
AcDbCircle
 10
1165.452742
 20
18.165668
 30
0.0
 40
5.0
100
AcDbArc
 50
90.0
 51
270.0
  0
LINE
  5
114
330
36
100
AcDbEntity
  8
0
 62
     3
100
AcDbLine
 10
1161.276918
 20
20.915668
 30
0.0
 11
1156.309416
 21
20.915668
 31
0.0
  0
LINE
  5
115
330
36
100
AcDbEntity
  8
0
 62
     3
100
AcDbLine
 10
1161.276918
 20
15.415668
 30
0.0
 11
1156.309416
 21
15.415668
 31
0.0
  0
LINE
  5
116
330
36
100
AcDbEntity
  8
0
 62
     3
100
AcDbLine
 10
1116.130291
 20
44.940034
 30
0.0
 11
1116.130291
 21
43.313513
 31
0.0
  0
LINE
  5
117
330
36
100
AcDbEntity
  8
0
 62
     3
100
AcDbLine
 10
1137.274515
 20
18.915668
 30
0.0
 11
1156.309416
 21
18.915668
 31
0.0
  0
LINE
  5
118
330
36
100
AcDbEntity
  8
0
 62
     3
100
AcDbLine
 10
1138.335541
 20
17.415668
 30
0.0
 11
1156.309416
 21
17.415668
 31
0.0
  0
CIRCLE
  5
119
330
36
100
AcDbEntity
  8
0
100
AcDbCircle
 10
1181.835829
 20
114.256614
 30
0.0
 40
2.061422
  0
LINE
  5
11A
330
36
100
AcDbEntity
  8
0
100
AcDbLine
 10
897.6962659999996
 20
109.864754
 30
0.0
 11
897.9315470000001
 21
109.271906
 31
0.0
  0
LINE
  5
11B
330
36
100
AcDbEntity
  8
0
100
AcDbLine
 10
897.143664
 20
109.655787
 30
0.0
 11
897.4160949999996
 21
109.079966
 31
0.0
  0
LINE
  5
11C
330
36
100
AcDbEntity
  8
0
100
AcDbLine
 10
896.6042189999997
 20
109.411218
 30
0.0
 11
896.9168960000002
 21
108.853972
 31
0.0
  0
LINE
  5
11D
330
36
100
AcDbEntity
  8
0
100
AcDbLine
 10
899.4260500000001
 20
110.279592
 30
0.0
 11
899.5351769999999
 21
109.655787
 31
0.0
  0
LINE
  5
11E
330
36
100
AcDbEntity
  8
0
100
AcDbLine
 10
896.083349
 20
109.135691
 30
0.0
 11
896.4300789999999
 21
108.600116
 31
0.0
  0
LINE
  5
11F
330
36
100
AcDbEntity
  8
0
100
AcDbLine
 10
898.842489
 20
110.177431
 30
0.0
 11
898.9949579999999
 21
109.562912
 31
0.0
  0
LINE
  5
120
330
36
100
AcDbEntity
  8
0
100
AcDbLine
 10
898.2627989999999
 20
110.036571
 30
0.0
 11
898.4578349999997
 21
109.434436
 31
0.0
  0
LINE
  5
121
330
36
100
AcDbEntity
  8
0
100
AcDbLine
 10
904.880093
 20
108.734783
 30
0.0
 11
905.182708
 21
109.293577
 31
0.0
  0
LINE
  5
122
330
36
100
AcDbEntity
  8
0
100
AcDbLine
 10
904.383989
 20
108.970065
 30
0.0
 11
904.6517770000001
 21
109.550529
 31
0.0
  0
LINE
  5
123
330
36
100
AcDbEntity
  8
0
100
AcDbLine
 10
895.5818269999998
 20
108.829205
 30
0.0
 11
895.9672559999997
 21
108.315301
 31
0.0
  0
LINE
  5
124
330
36
100
AcDbEntity
  8
0
100
AcDbLine
 10
905.8103839999999
 20
108.162058
 30
0.0
 11
906.1880720000001
 21
108.680607
 31
0.0
  0
LINE
  5
125
330
36
100
AcDbEntity
  8
0
100
AcDbLine
 10
903.5457989999999
 20
109.965368
 30
0.0
 11
903.358502
 21
109.357041
 31
0.0
  0
LINE
  5
126
330
36
100
AcDbEntity
  8
0
100
AcDbLine
 10
905.353752
 20
108.460804
 30
0.0
 11
905.695065
 21
109.004119
 31
0.0
  0
LINE
  5
127
330
36
100
AcDbEntity
  8
0
100
AcDbLine
 10
903.878598
 20
109.18058
 30
0.0
 11
904.103044
 21
109.774975
 31
0.0
  0
LINE
  5
128
330
36
100
AcDbEntity
  8
0
100
AcDbLine
 10
902.2850299999999
 20
109.613993
 30
0.0
 11
902.3902880000001
 21
110.239347
 31
0.0
  0
LINE
  5
129
330
36
100
AcDbEntity
  8
0
100
AcDbLine
 10
902.827571
 20
109.500996
 30
0.0
 11
902.9684299999999
 21
110.117062
 31
0.0
  0
LINE
  5
12A
330
36
100
AcDbEntity
  8
0
100
AcDbLine
 10
900.0158009999999
 20
110.343057
 30
0.0
 11
900.0854569999997
 21
109.713059
 31
0.0
  0
LINE
  5
12B
330
36
100
AcDbEntity
  8
0
100
AcDbLine
 10
901.7417149999999
 20
109.692936
 30
0.0
 11
901.798988
 21
110.31829
 31
0.0
  0
LINE
  5
12C
330
36
100
AcDbEntity
  8
0
100
AcDbLine
 10
900.6117449999997
 20
110.375563
 30
0.0
 11
900.6372849999996
 21
109.744017
 31
0.0
  0
LINE
  5
12D
330
36
100
AcDbEntity
  8
0
100
AcDbLine
 10
901.1883390000001
 20
109.731634
 30
0.0
 11
901.207688
 21
110.367823
 31
0.0
  0
LINE
  5
12E
330
36
100
AcDbEntity
  8
0
100
AcDbLine
 10
895.5183630000002
 20
107.984049
 30
0.0
 11
894.935577
 21
108.750262
 31
0.0
  0
LINE
  5
12F
330
36
100
AcDbEntity
  8
0
100
AcDbLine
 10
895.5183630000002
 20
107.984049
 30
0.0
 11
899.15981
 21
103.191736
 31
0.0
  0
LINE
  5
130
330
36
100
AcDbEntity
  8
0
100
AcDbLine
 10
894.935577
 20
108.750262
 30
0.0
 11
894.937125
 21
108.745619
 31
0.0
  0
CIRCLE
  5
131
330
36
100
AcDbEntity
  8
0
100
AcDbCircle
 10
907.1268770000001
 20
83.44641899999997
 30
0.0
 40
0.873792
  0
CIRCLE
  5
132
330
36
100
AcDbEntity
  8
0
100
AcDbCircle
 10
903.913039
 20
83.44641899999997
 30
0.0
 40
0.878049
  0
CIRCLE
  5
133
330
36
100
AcDbEntity
  8
0
100
AcDbCircle
 10
900.7011359999996
 20
83.44641899999997
 30
0.0
 40
0.875727
  0
CIRCLE
  5
134
330
36
100
AcDbEntity
  8
0
100
AcDbCircle
 10
897.488459
 20
83.44641899999997
 30
0.0
 40
0.875727
  0
CIRCLE
  5
135
330
36
100
AcDbEntity
  8
0
100
AcDbCircle
 10
894.275009
 20
83.44641899999997
 30
0.0
 40
0.877275
  0
LINE
  5
136
330
36
100
AcDbEntity
  8
0
100
AcDbLine
 10
898.636618
 20
58.313513
 30
0.0
 11
898.636618
 21
51.313513
 31
0.0
  0
LINE
  5
137
330
36
100
AcDbEntity
  8
0
100
AcDbLine
 10
901.942943
 20
57.27468199999999
 30
0.0
 11
901.936751
 21
57.27468199999999
 31
0.0
  0
LINE
  5
138
330
36
100
AcDbEntity
  8
0
100
AcDbLine
 10
901.936751
 20
52.353892
 30
0.0
 11
901.942943
 21
52.353892
 31
0.0
  0
LINE
  5
139
330
36
100
AcDbEntity
  8
0
100
AcDbLine
 10
901.942943
 20
58.313513
 30
0.0
 11
901.942943
 21
51.313513
 31
0.0
  0
CIRCLE
  5
1D0
330
36
100
AcDbEntity
  8
0
100
AcDbCircle
 10
1048.95618
 20
95.52692999999999
 30
0.0
 40
1.003429
  0
CIRCLE
  5
1D1
330
36
100
AcDbEntity
  8
0
100
AcDbCircle
 10
1044.437846
 20
95.52692999999999
 30
0.0
 40
1.005751
  0
CIRCLE
  5
1D2
330
36
100
AcDbEntity
  8
0
100
AcDbCircle
 10
1039.916028
 20
95.52692999999999
 30
0.0
 40
1.002267999999999
  0
CIRCLE
  5
1D3
330
36
100
AcDbEntity
  8
0
100
AcDbCircle
 10
1035.39808
 20
95.52692999999999
 30
0.0
 40
1.004977
  0
CIRCLE
  5
1D4
330
36
100
AcDbEntity
  8
0
100
AcDbCircle
 10
1030.877424
 20
95.52692999999999
 30
0.0
 40
1.003429
  0
CIRCLE
  5
1D5
330
36
100
AcDbEntity
  8
0
100
AcDbCircle
 10
1026.355993
 20
95.52692999999999
 30
0.0
 40
1.004202999999997
  0
CIRCLE
  5
1D6
330
36
100
AcDbEntity
  8
0
100
AcDbCircle
 10
1021.836885
 20
95.52692999999999
 30
0.0
 40
1.005751
  0
CIRCLE
  5
1D7
330
36
100
AcDbEntity
  8
0
100
AcDbCircle
 10
1017.315454
 20
95.52692999999999
 30
0.0
 40
1.003429
  0
CIRCLE
  5
1D8
330
36
100
AcDbEntity
  8
0
100
AcDbCircle
 10
1012.795572
 20
95.52692999999999
 30
0.0
 40
1.004202999999997
  0
CIRCLE
  5
1D9
330
36
100
AcDbEntity
  8
0
100
AcDbCircle
 10
1008.273367
 20
95.52692999999999
 30
0.0
 40
1.005751
  0
CIRCLE
  5
1DA
330
36
100
AcDbEntity
  8
0
100
AcDbCircle
 10
1003.754259
 20
95.52692999999999
 30
0.0
 40
1.004202999999997
  0
CIRCLE
  5
1DB
330
36
100
AcDbEntity
  8
0
100
AcDbCircle
 10
999.2332149999999
 20
95.52692999999999
 30
0.0
 40
1.003041999999997
  0
CIRCLE
  5
1DC
330
36
100
AcDbEntity
  8
0
100
AcDbCircle
 10
1048.95618
 20
100.045264
 30
0.0
 40
1.003429
  0
CIRCLE
  5
1DD
330
36
100
AcDbEntity
  8
0
100
AcDbCircle
 10
1044.437846
 20
100.045264
 30
0.0
 40
1.005751
  0
CIRCLE
  5
1DE
330
36
100
AcDbEntity
  8
0
100
AcDbCircle
 10
1039.916028
 20
100.045264
 30
0.0
 40
1.002267999999999
  0
CIRCLE
  5
1DF
330
36
100
AcDbEntity
  8
0
100
AcDbCircle
 10
1035.39808
 20
100.045264
 30
0.0
 40
1.004977
  0
CIRCLE
  5
1E0
330
36
100
AcDbEntity
  8
0
100
AcDbCircle
 10
1030.877424
 20
100.045264
 30
0.0
 40
1.003429
  0
CIRCLE
  5
1E1
330
36
100
AcDbEntity
  8
0
100
AcDbCircle
 10
1026.355993
 20
100.045264
 30
0.0
 40
1.004202999999997
  0
CIRCLE
  5
1E2
330
36
100
AcDbEntity
  8
0
100
AcDbCircle
 10
1021.836885
 20
100.045264
 30
0.0
 40
1.005751
  0
CIRCLE
  5
1E3
330
36
100
AcDbEntity
  8
0
100
AcDbCircle
 10
1017.315454
 20
100.045264
 30
0.0
 40
1.003429
  0
CIRCLE
  5
1E4
330
36
100
AcDbEntity
  8
0
100
AcDbCircle
 10
1012.795572
 20
100.045264
 30
0.0
 40
1.004202999999997
  0
CIRCLE
  5
1E5
330
36
100
AcDbEntity
  8
0
100
AcDbCircle
 10
1008.273367
 20
100.045264
 30
0.0
 40
1.005751
  0
CIRCLE
  5
1E6
330
36
100
AcDbEntity
  8
0
100
AcDbCircle
 10
1003.754259
 20
100.045264
 30
0.0
 40
1.004202999999997
  0
CIRCLE
  5
1E7
330
36
100
AcDbEntity
  8
0
100
AcDbCircle
 10
999.2332149999999
 20
100.045264
 30
0.0
 40
1.003041999999997
  0
CIRCLE
  5
1E8
330
36
100
AcDbEntity
  8
0
100
AcDbCircle
 10
1048.95618
 20
104.566695
 30
0.0
 40
1.003429
  0
CIRCLE
  5
1E9
330
36
100
AcDbEntity
  8
0
100
AcDbCircle
 10
1044.437846
 20
104.566695
 30
0.0
 40
1.005751
  0
CIRCLE
  5
1EA
330
36
100
AcDbEntity
  8
0
100
AcDbCircle
 10
1039.916028
 20
104.566695
 30
0.0
 40
1.002267999999999
  0
CIRCLE
  5
1EB
330
36
100
AcDbEntity
  8
0
100
AcDbCircle
 10
1035.39808
 20
104.566695
 30
0.0
 40
1.004977
  0
CIRCLE
  5
1EC
330
36
100
AcDbEntity
  8
0
100
AcDbCircle
 10
1030.877424
 20
104.566695
 30
0.0
 40
1.003429
  0
CIRCLE
  5
1ED
330
36
100
AcDbEntity
  8
0
100
AcDbCircle
 10
1026.355993
 20
104.566695
 30
0.0
 40
1.004202999999997
  0
CIRCLE
  5
1EE
330
36
100
AcDbEntity
  8
0
100
AcDbCircle
 10
1021.836885
 20
104.566695
 30
0.0
 40
1.005751
  0
CIRCLE
  5
1EF
330
36
100
AcDbEntity
  8
0
100
AcDbCircle
 10
1017.315454
 20
104.566695
 30
0.0
 40
1.003429
  0
CIRCLE
  5
1F0
330
36
100
AcDbEntity
  8
0
100
AcDbCircle
 10
1012.795572
 20
104.566695
 30
0.0
 40
1.004202999999997
  0
CIRCLE
  5
1F1
330
36
100
AcDbEntity
  8
0
100
AcDbCircle
 10
1008.273367
 20
104.566695
 30
0.0
 40
1.005751
  0
CIRCLE
  5
1F2
330
36
100
AcDbEntity
  8
0
100
AcDbCircle
 10
1003.754259
 20
104.566695
 30
0.0
 40
1.004202999999997
  0
CIRCLE
  5
1F3
330
36
100
AcDbEntity
  8
0
100
AcDbCircle
 10
999.2332149999999
 20
104.566695
 30
0.0
 40
1.003041999999997
  0
CIRCLE
  5
1F4
330
36
100
AcDbEntity
  8
0
100
AcDbCircle
 10
1048.95618
 20
109.089673
 30
0.0
 40
1.003429
  0
CIRCLE
  5
1F5
330
36
100
AcDbEntity
  8
0
100
AcDbCircle
 10
1044.437459
 20
109.087351
 30
0.0
 40
1.003816
  0
CIRCLE
  5
1F6
330
36
100
AcDbEntity
  8
0
100
AcDbCircle
 10
1039.916028
 20
109.089673
 30
0.0
 40
1.002267999999999
  0
CIRCLE
  5
1F7
330
36
100
AcDbEntity
  8
0
100
AcDbCircle
 10
1035.39808
 20
109.089673
 30
0.0
 40
1.004977
  0
CIRCLE
  5
1F8
330
36
100
AcDbEntity
  8
0
100
AcDbCircle
 10
1030.877424
 20
109.089673
 30
0.0
 40
1.003429
  0
CIRCLE
  5
1F9
330
36
100
AcDbEntity
  8
0
100
AcDbCircle
 10
1026.355993
 20
109.089673
 30
0.0
 40
1.004202999999997
  0
CIRCLE
  5
1FA
330
36
100
AcDbEntity
  8
0
100
AcDbCircle
 10
1021.836885
 20
109.089673
 30
0.0
 40
1.005751
  0
CIRCLE
  5
1FB
330
36
100
AcDbEntity
  8
0
100
AcDbCircle
 10
1017.315454
 20
109.089673
 30
0.0
 40
1.003429
  0
CIRCLE
  5
1FC
330
36
100
AcDbEntity
  8
0
100
AcDbCircle
 10
1012.795572
 20
109.089673
 30
0.0
 40
1.004202999999997
  0
CIRCLE
  5
1FD
330
36
100
AcDbEntity
  8
0
100
AcDbCircle
 10
1008.273367
 20
109.089673
 30
0.0
 40
1.005751
  0
CIRCLE
  5
1FE
330
36
100
AcDbEntity
  8
0
100
AcDbCircle
 10
1003.754259
 20
109.089673
 30
0.0
 40
1.004202999999997
  0
CIRCLE
  5
1FF
330
36
100
AcDbEntity
  8
0
100
AcDbCircle
 10
999.2332149999999
 20
109.089673
 30
0.0
 40
1.003041999999997
  0
CIRCLE
  5
200
330
36
100
AcDbEntity
  8
0
100
AcDbCircle
 10
1046.698561
 20
93.26853599999999
 30
0.0
 40
1.004202999999997
  0
CIRCLE
  5
201
330
36
100
AcDbEntity
  8
0
100
AcDbCircle
 10
1042.17713
 20
93.26853599999999
 30
0.0
 40
1.003429
  0
CIRCLE
  5
202
330
36
100
AcDbEntity
  8
0
100
AcDbCircle
 10
1037.65957
 20
93.26853599999999
 30
0.0
 40
1.004977
  0
CIRCLE
  5
203
330
36
100
AcDbEntity
  8
0
100
AcDbCircle
 10
1033.137365
 20
93.26853599999999
 30
0.0
 40
1.004977
  0
CIRCLE
  5
204
330
36
100
AcDbEntity
  8
0
100
AcDbCircle
 10
1028.616709
 20
93.26853599999999
 30
0.0
 40
1.004977
  0
CIRCLE
  5
205
330
36
100
AcDbEntity
  8
0
100
AcDbCircle
 10
1024.096826
 20
93.26853599999999
 30
0.0
 40
1.004202999999997
  0
CIRCLE
  5
206
330
36
100
AcDbEntity
  8
0
100
AcDbCircle
 10
1019.576557
 20
93.26853599999999
 30
0.0
 40
1.002267999999999
  0
CIRCLE
  5
207
330
36
100
AcDbEntity
  8
0
100
AcDbCircle
 10
1015.057061
 20
93.26853599999999
 30
0.0
 40
1.006524999999999
  0
CIRCLE
  5
208
330
36
100
AcDbEntity
  8
0
100
AcDbCircle
 10
1010.536404
 20
93.26853599999999
 30
0.0
 40
1.004977
  0
CIRCLE
  5
209
330
36
100
AcDbEntity
  8
0
100
AcDbCircle
 10
1006.015748
 20
93.26853599999999
 30
0.0
 40
1.006524999999999
  0
CIRCLE
  5
20A
330
36
100
AcDbEntity
  8
0
100
AcDbCircle
 10
1001.494317
 20
93.26853599999999
 30
0.0
 40
1.005751
  0
CIRCLE
  5
20B
330
36
100
AcDbEntity
  8
0
100
AcDbCircle
 10
996.975209
 20
93.26853599999999
 30
0.0
 40
1.004202999999997
  0
CIRCLE
  5
20C
330
36
100
AcDbEntity
  8
0
100
AcDbCircle
 10
1046.698561
 20
97.78841900000001
 30
0.0
 40
1.004202999999997
  0
CIRCLE
  5
20D
330
36
100
AcDbEntity
  8
0
100
AcDbCircle
 10
1042.17713
 20
97.78841900000001
 30
0.0
 40
1.003429
  0
CIRCLE
  5
20E
330
36
100
AcDbEntity
  8
0
100
AcDbCircle
 10
1037.65957
 20
97.78841900000001
 30
0.0
 40
1.004977
  0
CIRCLE
  5
20F
330
36
100
AcDbEntity
  8
0
100
AcDbCircle
 10
1033.137365
 20
97.78841900000001
 30
0.0
 40
1.004977
  0
CIRCLE
  5
210
330
36
100
AcDbEntity
  8
0
100
AcDbCircle
 10
1028.616709
 20
97.78841900000001
 30
0.0
 40
1.004977
  0
CIRCLE
  5
211
330
36
100
AcDbEntity
  8
0
100
AcDbCircle
 10
1024.096826
 20
97.78841900000001
 30
0.0
 40
1.004202999999997
  0
CIRCLE
  5
212
330
36
100
AcDbEntity
  8
0
100
AcDbCircle
 10
1019.576557
 20
97.78841900000001
 30
0.0
 40
1.002267999999999
  0
CIRCLE
  5
213
330
36
100
AcDbEntity
  8
0
100
AcDbCircle
 10
1015.057061
 20
97.78841900000001
 30
0.0
 40
1.006524999999999
  0
CIRCLE
  5
214
330
36
100
AcDbEntity
  8
0
100
AcDbCircle
 10
1010.536404
 20
97.78841900000001
 30
0.0
 40
1.004977
  0
CIRCLE
  5
215
330
36
100
AcDbEntity
  8
0
100
AcDbCircle
 10
1006.015748
 20
97.78841900000001
 30
0.0
 40
1.006524999999999
  0
CIRCLE
  5
216
330
36
100
AcDbEntity
  8
0
100
AcDbCircle
 10
1001.494317
 20
97.78841900000001
 30
0.0
 40
1.005751
  0
CIRCLE
  5
217
330
36
100
AcDbEntity
  8
0
100
AcDbCircle
 10
996.975209
 20
97.78841900000001
 30
0.0
 40
1.004202999999997
  0
CIRCLE
  5
218
330
36
100
AcDbEntity
  8
0
100
AcDbCircle
 10
1046.698561
 20
102.308302
 30
0.0
 40
1.004202999999997
  0
CIRCLE
  5
219
330
36
100
AcDbEntity
  8
0
100
AcDbCircle
 10
1042.17713
 20
102.308302
 30
0.0
 40
1.003429
  0
CIRCLE
  5
21A
330
36
100
AcDbEntity
  8
0
100
AcDbCircle
 10
1037.65957
 20
102.308302
 30
0.0
 40
1.004977
  0
CIRCLE
  5
21B
330
36
100
AcDbEntity
  8
0
100
AcDbCircle
 10
1033.137365
 20
102.308302
 30
0.0
 40
1.004977
  0
CIRCLE
  5
21C
330
36
100
AcDbEntity
  8
0
100
AcDbCircle
 10
1028.616709
 20
102.308302
 30
0.0
 40
1.004977
  0
CIRCLE
  5
21D
330
36
100
AcDbEntity
  8
0
100
AcDbCircle
 10
1024.096826
 20
102.308302
 30
0.0
 40
1.004202999999997
  0
CIRCLE
  5
21E
330
36
100
AcDbEntity
  8
0
100
AcDbCircle
 10
1019.576557
 20
102.308302
 30
0.0
 40
1.002267999999999
  0
CIRCLE
  5
21F
330
36
100
AcDbEntity
  8
0
100
AcDbCircle
 10
1015.057061
 20
102.308302
 30
0.0
 40
1.006524999999999
  0
CIRCLE
  5
220
330
36
100
AcDbEntity
  8
0
100
AcDbCircle
 10
1010.536404
 20
102.308302
 30
0.0
 40
1.004977
  0
CIRCLE
  5
221
330
36
100
AcDbEntity
  8
0
100
AcDbCircle
 10
1006.015748
 20
102.308302
 30
0.0
 40
1.006524999999999
  0
CIRCLE
  5
222
330
36
100
AcDbEntity
  8
0
100
AcDbCircle
 10
1001.494317
 20
102.308302
 30
0.0
 40
1.005751
  0
CIRCLE
  5
223
330
36
100
AcDbEntity
  8
0
100
AcDbCircle
 10
996.975209
 20
102.308302
 30
0.0
 40
1.004202999999997
  0
CIRCLE
  5
224
330
36
100
AcDbEntity
  8
0
100
AcDbCircle
 10
1046.698561
 20
106.826636
 30
0.0
 40
1.004202999999997
  0
CIRCLE
  5
225
330
36
100
AcDbEntity
  8
0
100
AcDbCircle
 10
1042.17713
 20
106.826636
 30
0.0
 40
1.003429
  0
CIRCLE
  5
226
330
36
100
AcDbEntity
  8
0
100
AcDbCircle
 10
1037.65957
 20
106.826636
 30
0.0
 40
1.004977
  0
CIRCLE
  5
227
330
36
100
AcDbEntity
  8
0
100
AcDbCircle
 10
1033.137365
 20
106.826636
 30
0.0
 40
1.004977
  0
CIRCLE
  5
228
330
36
100
AcDbEntity
  8
0
100
AcDbCircle
 10
1028.616709
 20
106.826636
 30
0.0
 40
1.004977
  0
CIRCLE
  5
229
330
36
100
AcDbEntity
  8
0
100
AcDbCircle
 10
1024.096826
 20
106.826636
 30
0.0
 40
1.004202999999997
  0
CIRCLE
  5
22A
330
36
100
AcDbEntity
  8
0
100
AcDbCircle
 10
1019.576557
 20
106.826636
 30
0.0
 40
1.002267999999999
  0
CIRCLE
  5
22B
330
36
100
AcDbEntity
  8
0
100
AcDbCircle
 10
1015.057061
 20
106.826636
 30
0.0
 40
1.006524999999999
  0
CIRCLE
  5
22C
330
36
100
AcDbEntity
  8
0
100
AcDbCircle
 10
1010.536404
 20
106.826636
 30
0.0
 40
1.004977
  0
CIRCLE
  5
22D
330
36
100
AcDbEntity
  8
0
100
AcDbCircle
 10
1006.015748
 20
106.826636
 30
0.0
 40
1.006524999999999
  0
CIRCLE
  5
22E
330
36
100
AcDbEntity
  8
0
100
AcDbCircle
 10
1001.494317
 20
106.826636
 30
0.0
 40
1.005751
  0
CIRCLE
  5
22F
330
36
100
AcDbEntity
  8
0
100
AcDbCircle
 10
996.975209
 20
106.826636
 30
0.0
 40
1.004202999999997
  0
LINE
  5
230
330
36
100
AcDbEntity
  8
0
100
AcDbLine
 10
855.523602
 20
37.313513
 30
0.0
 11
857.196906
 21
34.813513
 31
0.0
  0
LINE
  5
231
330
36
100
AcDbEntity
  8
0
100
AcDbLine
 10
857.196906
 20
34.813513
 30
0.0
 11
862.4071539999999
 21
34.813513
 31
0.0
  0
LINE
  5
232
330
36
100
AcDbEntity
  8
0
100
AcDbLine
 10
862.4071539999999
 20
34.813513
 30
0.0
 11
864.078246
 21
37.313513
 31
0.0
  0
LINE
  5
233
330
36
100
AcDbEntity
  8
0
100
AcDbLine
 10
895.30203
 20
51.313513
 30
0.0
 11
907.3020299999999
 21
51.313513
 31
0.0
  0
LINE
  5
234
330
36
100
AcDbEntity
  8
0
100
AcDbLine
 10
907.3020299999999
 20
51.313513
 30
0.0
 11
907.3020299999999
 21
58.313513
 31
0.0
  0
LINE
  5
235
330
36
100
AcDbEntity
  8
0
100
AcDbLine
 10
907.3020299999999
 20
58.313513
 30
0.0
 11
895.30203
 21
58.313513
 31
0.0
  0
LINE
  5
236
330
36
100
AcDbEntity
  8
0
100
AcDbLine
 10
895.30203
 20
58.313513
 30
0.0
 11
895.30203
 21
51.313513
 31
0.0
  0
LINE
  5
237
330
36
100
AcDbEntity
  8
0
100
AcDbLine
 10
901.576864
 20
87.172227
 30
0.0
 11
899.8254090000001
 21
87.172227
 31
0.0
  0
LINE
  5
238
330
36
100
AcDbEntity
  8
0
100
AcDbLine
 10
899.8254090000001
 20
87.172227
 30
0.0
 11
899.8254090000001
 21
85.41690200000003
 31
0.0
  0
LINE
  5
239
330
36
100
AcDbEntity
  8
0
100
AcDbLine
 10
899.8254090000001
 20
85.41690200000003
 30
0.0
 11
901.576864
 21
85.41690200000003
 31
0.0
  0
LINE
  5
23A
330
36
100
AcDbEntity
  8
0
100
AcDbLine
 10
901.576864
 20
85.41690200000003
 30
0.0
 11
901.576864
 21
87.172227
 31
0.0
  0
LINE
  5
23B
330
36
100
AcDbEntity
  8
0
100
AcDbLine
 10
908.0006690000001
 20
86.293017
 30
0.0
 11
902.16352
 21
87.172227
 31
0.0
  0
LINE
  5
23C
330
36
100
AcDbEntity
  8
0
100
AcDbLine
 10
902.16352
 20
87.172227
 30
0.0
 11
902.16352
 21
85.41690200000003
 31
0.0
  0
LINE
  5
23D
330
36
100
AcDbEntity
  8
0
100
AcDbLine
 10
902.16352
 20
85.41690200000003
 30
0.0
 11
908.0006690000001
 21
86.293017
 31
0.0
  0
LINE
  5
23E
330
36
100
AcDbEntity
  8
0
100
AcDbLine
 10
899.238753
 20
87.172227
 30
0.0
 11
893.397734
 21
86.293017
 31
0.0
  0
LINE
  5
23F
330
36
100
AcDbEntity
  8
0
100
AcDbLine
 10
893.397734
 20
86.293017
 30
0.0
 11
899.238753
 21
85.41690200000003
 31
0.0
  0
LINE
  5
240
330
36
100
AcDbEntity
  8
0
100
AcDbLine
 10
899.238753
 20
85.41690200000003
 30
0.0
 11
899.238753
 21
87.172227
 31
0.0
  0
LINE
  5
241
330
36
100
AcDbEntity
  8
0
100
AcDbLine
 10
891.633896
 20
102.42707
 30
0.0
 11
909.828745
 21
102.42707
 31
0.0
  0
LINE
  5
242
330
36
100
AcDbEntity
  8
0
100
AcDbLine
 10
909.828745
 20
102.42707
 30
0.0
 11
909.828745
 21
112.813513
 31
0.0
  0
LINE
  5
243
330
36
100
AcDbEntity
  8
0
100
AcDbLine
 10
909.828745
 20
112.813513
 30
0.0
 11
891.633896
 21
112.813513
 31
0.0
  0
LINE
  5
244
330
36
100
AcDbEntity
  8
0
100
AcDbLine
 10
891.633896
 20
112.813513
 30
0.0
 11
891.633896
 21
102.42707
 31
0.0
  0
LINE
  5
258
330
36
100
AcDbEntity
  8
0
100
AcDbLine
 10
895.50598
 20
107.97631
 30
0.0
 11
894.935577
 21
108.750262
 31
0.0
  0
LINE
  5
259
330
36
100
AcDbEntity
  8
0
100
AcDbLine
 10
903.3252220000001
 20
109.240948
 30
0.0
 11
903.3298659999999
 21
109.248688
 31
0.0
  0
LINE
  5
261
330
36
100
AcDbEntity
  8
0
100
AcDbLine
 10
906.5270639999999
 20
108.753358
 30
0.0
 11
906.533255
 21
108.753358
 31
0.0
  0
LINE
  5
262
330
36
100
AcDbEntity
  8
0
100
AcDbLine
 10
906.533255
 20
108.753358
 30
0.0
 11
905.955113
 21
107.985597
 31
0.0
  0
LINE
  5
276
330
36
100
AcDbEntity
  8
0
100
AcDbLine
 10
865.9100369999999
 20
94.12410800000001
 30
0.0
 11
865.9100369999999
 21
98.213673
 31
0.0
  0
LINE
  5
277
330
36
100
AcDbEntity
  8
0
100
AcDbLine
 10
865.9100369999999
 20
94.12410800000001
 30
0.0
 11
913.4756089999999
 21
94.12410800000001
 31
0.0
  0
LINE
  5
278
330
36
100
AcDbEntity
  8
0
100
AcDbLine
 10
913.4756089999999
 20
94.12410800000001
 30
0.0
 11
913.4756089999999
 21
98.213673
 31
0.0
  0
LINE
  5
279
330
36
100
AcDbEntity
  8
0
100
AcDbLine
 10
857.6590489999999
 20
79.26993399999997
 30
0.0
 11
859.0173359999999
 21
79.26993399999997
 31
0.0
  0
LINE
  5
27A
330
36
100
AcDbEntity
  8
0
100
AcDbLine
 10
859.0173359999999
 20
79.26993399999997
 30
0.0
 11
859.0173359999999
 21
84.486374
 31
0.0
  0
LINE
  5
27B
330
36
100
AcDbEntity
  8
0
100
AcDbLine
 10
859.0173359999999
 20
84.486374
 30
0.0
 11
857.6590489999999
 21
84.486374
 31
0.0
  0
LINE
  5
27C
330
36
100
AcDbEntity
  8
0
100
AcDbLine
 10
857.6590489999999
 20
84.486374
 30
0.0
 11
857.6590489999999
 21
79.26993399999997
 31
0.0
  0
LINE
  5
27D
330
36
100
AcDbEntity
  8
0
100
AcDbLine
 10
864.4079149999999
 20
79.66155400000002
 30
0.0
 11
865.766976
 21
79.66155400000002
 31
0.0
  0
LINE
  5
27E
330
36
100
AcDbEntity
  8
0
100
AcDbLine
 10
865.766976
 20
79.66155400000002
 30
0.0
 11
865.766976
 21
84.09475400000003
 31
0.0
  0
LINE
  5
27F
330
36
100
AcDbEntity
  8
0
100
AcDbLine
 10
865.766976
 20
84.09475400000003
 30
0.0
 11
864.4079149999999
 21
84.09475400000003
 31
0.0
  0
LINE
  5
280
330
36
100
AcDbEntity
  8
0
100
AcDbLine
 10
864.4079149999999
 20
84.09475400000003
 30
0.0
 11
864.4079149999999
 21
79.66155400000002
 31
0.0
  0
LINE
  5
281
330
36
100
AcDbEntity
  8
0
100
AcDbLine
 10
860.018057
 20
74.50703100000001
 30
0.0
 11
863.0829079999998
 21
74.50703100000001
 31
0.0
  0
LINE
  5
282
330
36
100
AcDbEntity
  8
0
100
AcDbLine
 10
863.0829079999998
 20
74.50703100000001
 30
0.0
 11
863.0829079999998
 21
76.372256
 31
0.0
  0
LINE
  5
28A
330
36
100
AcDbEntity
  8
0
100
AcDbLine
 10
860.018057
 20
76.372256
 30
0.0
 11
860.018057
 21
74.50703100000001
 31
0.0
  0
LINE
  5
28B
330
36
100
AcDbEntity
  8
0
100
AcDbLine
 10
1170.726603
 20
15.14261
 30
0.0
 11
1177.881794
 21
15.14261
 31
0.0
  0
LINE
  5
28C
330
36
100
AcDbEntity
  8
0
100
AcDbLine
 10
1177.881794
 20
15.14261
 30
0.0
 11
1177.881794
 21
16.334497
 31
0.0
  0
LINE
  5
28D
330
36
100
AcDbEntity
  8
0
100
AcDbLine
 10
1177.881794
 20
16.334497
 30
0.0
 11
1170.726603
 21
16.334497
 31
0.0
  0
LINE
  5
28E
330
36
100
AcDbEntity
  8
0
100
AcDbLine
 10
1170.726603
 20
21.191822
 30
0.0
 11
1177.881794
 21
21.191822
 31
0.0
  0
LINE
  5
28F
330
36
100
AcDbEntity
  8
0
100
AcDbLine
 10
1177.881794
 20
21.191822
 30
0.0
 11
1177.881794
 21
19.99684
 31
0.0
  0
LINE
  5
290
330
36
100
AcDbEntity
  8
0
100
AcDbLine
 10
1177.881794
 20
19.99684
 30
0.0
 11
1170.726603
 21
19.99684
 31
0.0
  0
LINE
  5
291
330
36
100
AcDbEntity
  8
0
100
AcDbLine
 10
911.30203
 20
121.313513
 30
0.0
 11
850.80203
 21
121.313513
 31
0.0
  0
ARC
  5
292
330
36
100
AcDbEntity
  8
0
100
AcDbCircle
 10
911.30203
 20
115.813513
 30
0.0
 40
5.5
100
AcDbArc
 50
0.0
 51
90.0
  0
ARC
  5
293
330
36
100
AcDbEntity
  8
0
100
AcDbCircle
 10
850.80203
 20
115.813513
 30
0.0
 40
5.5
100
AcDbArc
 50
90.0
 51
180.0
  0
LINE
  5
294
330
36
100
AcDbEntity
  8
0
100
AcDbLine
 10
845.30203
 20
115.813513
 30
0.0
 11
845.30203
 21
43.313513
 31
0.0
  0
ARC
  5
295
330
36
100
AcDbEntity
  8
0
100
AcDbCircle
 10
850.80203
 20
43.313513
 30
0.0
 40
5.5
100
AcDbArc
 50
180.0
 51
270.0
  0
LINE
  5
296
330
36
100
AcDbEntity
  8
0
100
AcDbLine
 10
850.80203
 20
37.813513
 30
0.0
 11
911.30203
 21
37.813513
 31
0.0
  0
ARC
  5
297
330
36
100
AcDbEntity
  8
0
100
AcDbCircle
 10
911.30203
 20
43.313513
 30
0.0
 40
5.5
100
AcDbArc
 50
270.0
 51
0.0
  0
LINE
  5
298
330
36
100
AcDbEntity
  8
0
100
AcDbLine
 10
916.80203
 20
115.813513
 30
0.0
 11
916.80203
 21
43.313513
 31
0.0
  0
LINE
  5
299
330
36
100
AcDbEntity
  8
0
100
AcDbLine
 10
885.55203
 20
37.813513
 30
0.0
 11
885.55203
 21
93.62410800000001
 31
0.0
  0
LINE
  5
29A
330
36
100
AcDbEntity
  8
0
100
AcDbLine
 10
898.0236019999999
 20
37.313513
 30
0.0
 11
899.6969059999999
 21
34.813513
 31
0.0
  0
LINE
  5
29B
330
36
100
AcDbEntity
  8
0
100
AcDbLine
 10
899.6969059999999
 20
34.813513
 30
0.0
 11
904.9071539999996
 21
34.813513
 31
0.0
  0
LINE
  5
29C
330
36
100
AcDbEntity
  8
0
100
AcDbLine
 10
904.9071539999996
 20
34.813513
 30
0.0
 11
906.5782460000001
 21
37.313513
 31
0.0
  0
LINE
  5
29D
330
36
100
AcDbEntity
  8
0
100
AcDbLine
 10
860.018057
 20
53.007031
 30
0.0
 11
863.0829079999998
 21
53.007031
 31
0.0
  0
LINE
  5
29E
330
36
100
AcDbEntity
  8
0
100
AcDbLine
 10
863.0829079999998
 20
53.007031
 30
0.0
 11
863.0829079999998
 21
54.87225600000001
 31
0.0
  0
LINE
  5
2A6
330
36
100
AcDbEntity
  8
0
100
AcDbLine
 10
860.018057
 20
54.87225600000001
 30
0.0
 11
860.018057
 21
53.007031
 31
0.0
  0
LINE
  5
2A7
330
36
100
AcDbEntity
  8
0
100
AcDbLine
 10
864.4079149999999
 20
58.161554
 30
0.0
 11
865.766976
 21
58.161554
 31
0.0
  0
LINE
  5
2A8
330
36
100
AcDbEntity
  8
0
100
AcDbLine
 10
865.766976
 20
58.161554
 30
0.0
 11
865.766976
 21
62.594754
 31
0.0
  0
LINE
  5
2A9
330
36
100
AcDbEntity
  8
0
100
AcDbLine
 10
865.766976
 20
62.594754
 30
0.0
 11
864.4079149999999
 21
62.594754
 31
0.0
  0
LINE
  5
2AA
330
36
100
AcDbEntity
  8
0
100
AcDbLine
 10
864.4079149999999
 20
62.594754
 30
0.0
 11
864.4079149999999
 21
58.161554
 31
0.0
  0
LINE
  5
2AB
330
36
100
AcDbEntity
  8
0
100
AcDbLine
 10
857.6590489999999
 20
57.769934
 30
0.0
 11
859.0173359999999
 21
57.769934
 31
0.0
  0
LINE
  5
2AC
330
36
100
AcDbEntity
  8
0
100
AcDbLine
 10
859.0173359999999
 20
57.769934
 30
0.0
 11
859.0173359999999
 21
62.986374
 31
0.0
  0
LINE
  5
2AD
330
36
100
AcDbEntity
  8
0
100
AcDbLine
 10
859.0173359999999
 20
62.986374
 30
0.0
 11
857.6590489999999
 21
62.986374
 31
0.0
  0
LINE
  5
2AE
330
36
100
AcDbEntity
  8
0
100
AcDbLine
 10
857.6590489999999
 20
62.986374
 30
0.0
 11
857.6590489999999
 21
57.769934
 31
0.0
  0
LINE
  5
2AF
330
36
100
AcDbEntity
  8
0
100
AcDbLine
 10
855.30203
 20
86.063513
 30
0.0
 11
867.80203
 21
86.063513
 31
0.0
  0
LINE
  5
2B0
330
36
100
AcDbEntity
  8
0
100
AcDbLine
 10
867.80203
 20
86.063513
 30
0.0
 11
867.80203
 21
73.563513
 31
0.0
  0
LINE
  5
2B1
330
36
100
AcDbEntity
  8
0
100
AcDbLine
 10
855.30203
 20
86.063513
 30
0.0
 11
855.30203
 21
73.563513
 31
0.0
  0
LINE
  5
2B2
330
36
100
AcDbEntity
  8
0
100
AcDbLine
 10
855.30203
 20
73.563513
 30
0.0
 11
867.80203
 21
73.563513
 31
0.0
  0
LINE
  5
2B3
330
36
100
AcDbEntity
  8
0
100
AcDbLine
 10
855.30203
 20
64.563513
 30
0.0
 11
867.80203
 21
64.563513
 31
0.0
  0
LINE
  5
2B4
330
36
100
AcDbEntity
  8
0
100
AcDbLine
 10
867.80203
 20
64.563513
 30
0.0
 11
867.80203
 21
52.063513
 31
0.0
  0
LINE
  5
2B5
330
36
100
AcDbEntity
  8
0
100
AcDbLine
 10
855.30203
 20
64.563513
 30
0.0
 11
855.30203
 21
52.063513
 31
0.0
  0
LINE
  5
2B6
330
36
100
AcDbEntity
  8
0
100
AcDbLine
 10
855.30203
 20
52.063513
 30
0.0
 11
867.80203
 21
52.063513
 31
0.0
  0
TEXT
  5
2B7
330
36
100
AcDbEntity
  8
0
100
AcDbText
 10
899.5946779999997
 20
104.854882
 30
0.0
 40
1.6
  1
V
100
AcDbText
  0
TEXT
  5
2B8
330
36
100
AcDbEntity
  8
0
100
AcDbText
 10
899.469541
 20
103.256754
 30
0.0
 40
1.6
  1
～
100
AcDbText
  0
TEXT
  5
2B9
330
36
100
AcDbEntity
  8
0
100
AcDbText
 10
895.046692
 20
113.828351
 30
0.0
 40
1.6
  1
OUTPUT V
100
AcDbText
  0
TEXT
  5
2BA
330
36
100
AcDbEntity
  8
0
100
AcDbText
 10
868.3587029999996
 20
95.330335
 30
0.0
 40
1.6
  1
AUTOMATIC VOLTAGE REGULATOR
100
AcDbText
  0
TEXT
  5
2BB
330
36
100
AcDbEntity
  8
0
100
AcDbText
 10
856.331428
 20
68.96491000000001
 30
0.0
 40
1.6
  1
OUT PUT
100
AcDbText
  0
TEXT
  5
2BC
330
36
100
AcDbEntity
  8
0
100
AcDbText
 10
856.331428
 20
67.04491
 30
0.0
 40
1.6
  1
AC-100V
100
AcDbText
  0
TEXT
  5
2BD
330
36
100
AcDbEntity
  8
0
100
AcDbText
 10
850.690758
 20
39.985448
 30
0.0
 40
1.25
  1
SWALLOW
100
AcDbText
  0
TEXT
  5
2BE
330
36
100
AcDbEntity
  8
0
100
AcDbText
 10
891.544464
 20
85.632231
 30
0.0
 40
1.6
  1
L
100
AcDbText
  0
TEXT
  5
2BF
330
36
100
AcDbEntity
  8
0
100
AcDbText
 10
909.909423
 20
85.632231
 30
0.0
 40
1.6
  1
M
100
AcDbText
  0
TEXT
  5
2C0
330
36
100
AcDbEntity
  8
0
100
AcDbText
 10
897.6854300000001
 20
79.79208100000002
 30
0.0
 40
1.6
  1
INPUT
100
AcDbText
  0
TEXT
  5
2C1
330
36
100
AcDbEntity
  8
0
100
AcDbText
 10
897.431201
 20
60.151997
 30
0.0
 40
1.6
  1
POWER
100
AcDbText
  0
TEXT
  5
2C2
330
36
100
AcDbEntity
  8
0
100
AcDbText
 10
887.8230300000003
 20
54.02574399999998
 30
0.0
 40
1.6
  1
OFF
100
AcDbText
  0
TEXT
  5
2C3
330
36
100
AcDbEntity
  8
0
100
AcDbText
 10
910.460089
 20
54.02574399999998
 30
0.0
 40
1.6
  1
ON
100
AcDbText
  0
LINE
  5
2C4
330
36
100
AcDbEntity
  8
0
100
AcDbLine
 10
913.975609
 20
98.71367300000001
 30
0.0
 11
885.55203
 21
98.71367300000001
 31
0.0
  0
LINE
  5
2C5
330
36
100
AcDbEntity
  8
0
100
AcDbLine
 10
913.4756089999999
 20
98.213673
 30
0.0
 11
865.9100369999999
 21
98.213673
 31
0.0
  0
LINE
  5
2C6
330
36
100
AcDbEntity
  8
0
100
AcDbLine
 10
913.975609
 20
93.62410800000001
 30
0.0
 11
913.975609
 21
98.71367300000001
 31
0.0
  0
LINE
  5
2C7
330
36
100
AcDbEntity
  8
0
100
AcDbLine
 10
885.55203
 20
93.62410800000001
 30
0.0
 11
913.975609
 21
93.62410800000001
 31
0.0
  0
LINE
  5
2C8
330
36
100
AcDbEntity
  8
0
100
AcDbLine
 10
885.55203
 20
98.71367300000001
 30
0.0
 11
885.55203
 21
121.313513
 31
0.0
  0
LINE
  5
314
330
36
100
AcDbEntity
  8
0
100
AcDbLine
 10
975.0584569999999
 20
37.313513
 30
0.0
 11
976.731761
 21
34.813513
 31
0.0
  0
LINE
  5
315
330
36
100
AcDbEntity
  8
0
100
AcDbLine
 10
976.731761
 20
34.813513
 30
0.0
 11
981.9420089999999
 21
34.813513
 31
0.0
  0
LINE
  5
316
330
36
100
AcDbEntity
  8
0
100
AcDbLine
 10
981.9420089999999
 20
34.813513
 30
0.0
 11
983.6130999999999
 21
37.313513
 31
0.0
  0
LINE
  5
317
330
36
100
AcDbEntity
  8
0
100
AcDbLine
 10
1060.058457
 20
37.313513
 30
0.0
 11
1061.731761
 21
34.813513
 31
0.0
  0
LINE
  5
318
330
36
100
AcDbEntity
  8
0
100
AcDbLine
 10
1061.731761
 20
34.813513
 30
0.0
 11
1066.942009
 21
34.813513
 31
0.0
  0
LINE
  5
319
330
36
100
AcDbEntity
  8
0
100
AcDbLine
 10
1066.942009
 20
34.813513
 30
0.0
 11
1068.6131
 21
37.313513
 31
0.0
  0
ARC
  5
31A
330
36
100
AcDbEntity
  8
0
100
AcDbCircle
 10
1021.836885
 20
-403.811487
 30
0.0
 40
528.6249999999999
100
AcDbArc
 50
86.47521799999998
 51
93.524782
  0
ARC
  5
31B
330
36
100
AcDbEntity
  8
0
100
AcDbCircle
 10
1021.836885
 20
-403.811487
 30
0.0
 40
527.625
100
AcDbArc
 50
86.468529
 51
93.53147099999999
  0
CIRCLE
  5
31C
330
36
100
AcDbEntity
  8
0
100
AcDbCircle
 10
994.717589
 20
95.52692999999999
 30
0.0
 40
1.003429
  0
CIRCLE
  5
31D
330
36
100
AcDbEntity
  8
0
100
AcDbCircle
 10
994.717589
 20
100.045264
 30
0.0
 40
1.003429
  0
CIRCLE
  5
31E
330
36
100
AcDbEntity
  8
0
100
AcDbCircle
 10
994.717589
 20
104.566695
 30
0.0
 40
1.003429
  0
CIRCLE
  5
31F
330
36
100
AcDbEntity
  8
0
100
AcDbCircle
 10
994.717589
 20
109.089673
 30
0.0
 40
1.003429
  0
CIRCLE
  5
320
330
36
100
AcDbEntity
  8
0
100
AcDbCircle
 10
1048.95618
 20
91.005499
 30
0.0
 40
1.003429
  0
CIRCLE
  5
321
330
36
100
AcDbEntity
  8
0
100
AcDbCircle
 10
1044.437846
 20
91.005499
 30
0.0
 40
1.005751
  0
CIRCLE
  5
322
330
36
100
AcDbEntity
  8
0
100
AcDbCircle
 10
1039.916028
 20
91.005499
 30
0.0
 40
1.002267999999999
  0
CIRCLE
  5
323
330
36
100
AcDbEntity
  8
0
100
AcDbCircle
 10
1035.39808
 20
91.005499
 30
0.0
 40
1.004977
  0
CIRCLE
  5
324
330
36
100
AcDbEntity
  8
0
100
AcDbCircle
 10
1030.877424
 20
91.005499
 30
0.0
 40
1.003429
  0
CIRCLE
  5
325
330
36
100
AcDbEntity
  8
0
100
AcDbCircle
 10
1026.355993
 20
91.005499
 30
0.0
 40
1.004202999999997
  0
CIRCLE
  5
326
330
36
100
AcDbEntity
  8
0
100
AcDbCircle
 10
1021.836885
 20
91.005499
 30
0.0
 40
1.005751
  0
CIRCLE
  5
327
330
36
100
AcDbEntity
  8
0
100
AcDbCircle
 10
1017.315454
 20
91.005499
 30
0.0
 40
1.003429
  0
CIRCLE
  5
328
330
36
100
AcDbEntity
  8
0
100
AcDbCircle
 10
1012.795572
 20
91.005499
 30
0.0
 40
1.004202999999997
  0
CIRCLE
  5
329
330
36
100
AcDbEntity
  8
0
100
AcDbCircle
 10
1008.273367
 20
91.005499
 30
0.0
 40
1.005751
  0
CIRCLE
  5
32A
330
36
100
AcDbEntity
  8
0
100
AcDbCircle
 10
1003.754259
 20
91.005499
 30
0.0
 40
1.004202999999997
  0
CIRCLE
  5
32B
330
36
100
AcDbEntity
  8
0
100
AcDbCircle
 10
999.2332149999999
 20
91.005499
 30
0.0
 40
1.003041999999997
  0
CIRCLE
  5
32C
330
36
100
AcDbEntity
  8
0
100
AcDbCircle
 10
994.717589
 20
91.005499
 30
0.0
 40
1.003429
  0
CIRCLE
  5
32D
330
36
100
AcDbEntity
  8
0
100
AcDbCircle
 10
1080.336885
 20
51.313513
 30
0.0
 40
1.375
  0
CIRCLE
  5
32E
330
36
100
AcDbEntity
  8
0
100
AcDbCircle
 10
1080.336885
 20
43.313513
 30
0.0
 40
1.375
  0
CIRCLE
  5
32F
330
36
100
AcDbEntity
  8
0
100
AcDbCircle
 10
963.336885
 20
51.313513
 30
0.0
 40
1.375
  0
CIRCLE
  5
330
330
36
100
AcDbEntity
  8
0
100
AcDbCircle
 10
963.336885
 20
43.313513
 30
0.0
 40
1.375
  0
CIRCLE
  5
331
330
36
100
AcDbEntity
  8
0
100
AcDbCircle
 10
963.336885
 20
97.11336000000001
 30
0.0
 40
1.375
  0
CIRCLE
  5
332
330
36
100
AcDbEntity
  8
0
100
AcDbCircle
 10
1080.336885
 20
97.11336000000001
 30
0.0
 40
1.375
  0
LINE
  5
333
330
36
100
AcDbEntity
  8
0
100
AcDbLine
 10
1126.851863
 20
37.313513
 30
0.0
 11
1128.525167
 21
34.813513
 31
0.0
  0
LINE
  5
334
330
36
100
AcDbEntity
  8
0
100
AcDbLine
 10
1128.525167
 20
34.813513
 30
0.0
 11
1133.735415
 21
34.813513
 31
0.0
  0
LINE
  5
335
330
36
100
AcDbEntity
  8
0
100
AcDbLine
 10
1133.735415
 20
34.813513
 30
0.0
 11
1135.406506
 21
37.313513
 31
0.0
  0
LINE
  5
336
330
36
100
AcDbEntity
  8
0
100
AcDbLine
 10
1182.630291
 20
121.313513
 30
0.0
 11
1122.130291
 21
121.313513
 31
0.0
  0
LINE
  5
337
330
36
100
AcDbEntity
  8
0
100
AcDbLine
 10
1122.130291
 20
37.813513
 30
0.0
 11
1182.630291
 21
37.813513
 31
0.0
  0
LINE
  5
338
330
36
100
AcDbEntity
  8
0
100
AcDbLine
 10
1116.630291
 20
115.813513
 30
0.0
 11
1116.630291
 21
46.840037
 31
0.0
  0
LINE
  5
339
330
36
100
AcDbEntity
  8
0
100
AcDbLine
 10
1188.130291
 20
115.813513
 30
0.0
 11
1188.130291
 21
43.313513
 31
0.0
  0
ARC
  5
33A
330
36
100
AcDbEntity
  8
0
100
AcDbCircle
 10
1182.630291
 20
115.813513
 30
0.0
 40
5.5
100
AcDbArc
 50
0.0
 51
90.0
  0
ARC
  5
33B
330
36
100
AcDbEntity
  8
0
100
AcDbCircle
 10
1122.130291
 20
115.813513
 30
0.0
 40
5.5
100
AcDbArc
 50
90.0
 51
180.0
  0
ARC
  5
33C
330
36
100
AcDbEntity
  8
0
100
AcDbCircle
 10
1122.130291
 20
43.313513
 30
0.0
 40
5.5
100
AcDbArc
 50
180.0
 51
270.0
  0
ARC
  5
33D
330
36
100
AcDbEntity
  8
0
100
AcDbCircle
 10
1182.630291
 20
43.313513
 30
0.0
 40
5.5
100
AcDbArc
 50
270.0
 51
0.0
  0
LINE
  5
33E
330
36
100
AcDbEntity
  8
0
100
AcDbLine
 10
1169.351863
 20
37.313513
 30
0.0
 11
1171.025167
 21
34.813513
 31
0.0
  0
LINE
  5
33F
330
36
100
AcDbEntity
  8
0
100
AcDbLine
 10
1171.025167
 20
34.813513
 30
0.0
 11
1176.235415
 21
34.813513
 31
0.0
  0
LINE
  5
340
330
36
100
AcDbEntity
  8
0
100
AcDbLine
 10
1176.235415
 20
34.813513
 30
0.0
 11
1177.906506
 21
37.313513
 31
0.0
  0
ARC
  5
341
330
36
100
AcDbEntity
  8
0
100
AcDbCircle
 10
1122.630291
 20
47.313513
 30
0.0
 40
1.75
100
AcDbArc
 50
208.52764
 51
157.693556
  0
ARC
  5
342
330
36
100
AcDbEntity
  8
0
100
AcDbCircle
 10
1122.630291
 20
47.313513
 30
0.0
 40
2.75
100
AcDbArc
 50
201.103657
 51
169.315651
  0
LINE
  5
343
330
36
100
AcDbEntity
  8
0
100
AcDbLine
 10
1169.976603
 20
13.165668
 30
0.0
 11
1169.976603
 21
23.165668
 31
0.0
  0
LINE
  5
344
330
36
100
AcDbEntity
  8
0
100
AcDbLine
 10
1116.630291
 20
45.193539
 30
0.0
 11
1116.630291
 21
43.313513
 31
0.0
  0
LINE
  5
359
330
36
100
AcDbEntity
  8
0
 62
     3
100
AcDbLine
 10
1184.552268
 20
-88.29195199999999
 30
0.0
 11
1184.552268
 21
-65.291952
 31
0.0
  0
LINE
  5
35B
330
36
100
AcDbEntity
  8
0
 62
     3
100
AcDbLine
 10
1131.498659
 20
-95.291952
 30
0.0
 11
1131.498659
 21
-81.29195199999998
 31
0.0
  0
TEXT
  5
35D
330
36
100
AcDbEntity
  8
0
 62
     3
100
AcDbText
 10
1160.562586
 20
-69.086836
 30
0.0
 40
2.0
  1
A
 41
0.7
100
AcDbText
  0
TEXT
  5
35E
330
36
100
AcDbEntity
  8
0
 62
     3
100
AcDbText
 10
1163.097872
 20
-69.086836
 30
0.0
 40
2.0
  1
P
 41
0.7
100
AcDbText
  0
TEXT
  5
35F
330
36
100
AcDbEntity
  8
0
 62
     3
100
AcDbText
 10
1165.633158
 20
-69.086836
 30
0.0
 40
2.0
  1
P
 41
0.7
100
AcDbText
  0
TEXT
  5
360
330
36
100
AcDbEntity
  8
0
 62
     3
100
AcDbText
 10
1168.168445
 20
-69.086836
 30
0.0
 40
2.0
  1
D
 41
0.7
100
AcDbText
  0
TEXT
  5
361
330
36
100
AcDbEntity
  8
0
 62
     3
100
AcDbText
 10
1173.537128
 20
-69.086836
 30
0.0
 40
2.0
  1
C
 41
0.7
100
AcDbText
  0
TEXT
  5
362
330
36
100
AcDbEntity
  8
0
 62
     3
100
AcDbText
 10
1176.072414
 20
-69.086836
 30
0.0
 40
2.0
  1
H
 41
0.7
100
AcDbText
  0
TEXT
  5
363
330
36
100
AcDbEntity
  8
0
 62
     3
100
AcDbText
 10
1178.6077
 20
-69.086836
 30
0.0
 40
2.0
  1
C
 41
0.7
100
AcDbText
  0
TEXT
  5
364
330
36
100
AcDbEntity
  8
0
 62
     3
100
AcDbText
 10
1181.142986
 20
-69.086836
 30
0.0
 40
2.0
  1
K
 41
0.7
100
AcDbText
  0
TEXT
  5
365
330
36
100
AcDbEntity
  8
0
 62
     3
100
AcDbText
 10
1186.816953
 20
-69.086836
 30
0.0
 40
2.0
  1
DESN
 41
1.216762999999998
100
AcDbText
  0
TEXT
  5
366
330
36
100
AcDbEntity
  8
0
 62
     3
100
AcDbText
 10
1101.810594
 20
-98.433334
 30
0.0
 40
2.0
  1
NICHIDO IND.CO.LTD
 41
1.274876
100
AcDbText
  0
LINE
  5
367
330
36
100
AcDbEntity
  8
0
 62
     3
100
AcDbLine
 10
1112.193624
 20
-65.291952
 30
0.0
 11
1112.193624
 21
-88.29195199999999
 31
0.0
  0
LINE
  5
368
330
36
100
AcDbEntity
  8
0
 62
     3
100
AcDbLine
 10
1158.552267999999
 20
-65.291952
 30
0.0
 11
1158.552268
 21
-104.957674
 31
0.0
  0
LINE
  5
36D
330
36
100
AcDbEntity
  8
0
 62
     3
100
AcDbLine
 10
1171.552268
 20
-65.291952
 30
0.0
 11
1171.552268
 21
-95.291952
 31
0.0
  0
TEXT
  5
36E
330
36
100
AcDbEntity
  8
0
 62
     3
100
AcDbText
 10
1159.664713
 20
-94.427265
 30
0.0
 40
3.2
  1
作成日
 41
1.017225999999997
100
AcDbText
  0
LINE
  5
36F
330
36
100
AcDbEntity
  8
0
 62
     3
100
AcDbLine
 10
1210.251631
 20
-65.291952
 30
0.0
 11
1098.948189
 21
-65.291952
 31
0.0
  0
LINE
  5
370
330
36
100
AcDbEntity
  8
0
 62
     3
100
AcDbLine
 10
1197.552268
 20
-88.29195199999999
 30
0.0
 11
1197.552268
 21
-65.291952
 31
0.0
  0
TEXT
  5
371
330
36
100
AcDbEntity
  8
0
 62
     3
100
AcDbText
 10
1200.876071
 20
-69.001017
 30
0.0
 40
1.8
  1
D
 41
0.666667
100
AcDbText
  0
TEXT
  5
372
330
36
100
AcDbEntity
  8
0
 62
     3
100
AcDbText
 10
1203.6927
 20
-69.001017
 30
0.0
 40
1.8
  1
E
 41
0.666667
100
AcDbText
  0
TEXT
  5
373
330
36
100
AcDbEntity
  8
0
 62
     3
100
AcDbText
 10
1206.509328
 20
-69.001017
 30
0.0
 40
1.8
  1
F
 41
0.666667
100
AcDbText
  0
TEXT
  5
374
330
36
100
AcDbEntity
  8
0
 62
     3
100
AcDbText
 10
1200.876071
 20
-72.993571
 30
0.0
 40
3.2
  1
製図
 41
1.076369
100
AcDbText
  0
LINE
  5
375
330
36
100
AcDbEntity
  8
0
 62
     3
100
AcDbLine
 10
1098.948189
 20
-65.291952
 30
0.0
 11
1098.948189
 21
-104.957674
 31
0.0
  0
TEXT
  5
376
330
36
100
AcDbEntity
  8
0
 62
     3
100
AcDbText
 10
1100.324842
 20
-104.625209
 30
0.0
 40
5.0
  1
日動工業株式会社
 41
0.833333
100
AcDbText
  0
LINE
  5
377
330
36
100
AcDbEntity
  8
0
 62
     3
100
AcDbLine
 10
1141.830593
 20
-81.29195199999998
 30
0.0
 11
1141.830593
 21
-104.957674
 31
0.0
  0
LINE
  5
378
330
36
100
AcDbEntity
  8
0
 62
     3
100
AcDbLine
 10
1141.830593
 20
-100.124813
 30
0.0
 11
1158.552268
 21
-100.124813
 31
0.0
  0
TEXT
  5
379
330
36
100
AcDbEntity
  8
0
 62
     3
100
AcDbText
 10
1142.417195
 20
-99.30838300000001
 30
0.0
 40
3.2
  1
出図コード
 41
0.8356860000000001
100
AcDbText
  0
LINE
  5
38B
330
36
100
AcDbEntity
  8
0
 62
     3
100
AcDbLine
 10
1098.948189
 20
-95.291952
 30
0.0
 11
1210.251631
 21
-95.291952
 31
0.0
  0
LINE
  5
38D
330
36
100
AcDbEntity
  8
0
 62
     3
100
AcDbLine
 10
1098.948189
 20
-74.29195199999997
 30
0.0
 11
1210.251631
 21
-74.29195199999998
 31
0.0
  0
LINE
  5
393
330
36
100
AcDbEntity
  8
0
 62
     3
100
AcDbLine
 10
1098.948189
 20
-81.29195199999998
 30
0.0
 11
1158.552268
 21
-81.29195199999998
 31
0.0
  0
LINE
  5
399
330
36
100
AcDbEntity
  8
0
 62
     3
100
AcDbLine
 10
1098.948189
 20
-88.29195199999999
 30
0.0
 11
1210.251631
 21
-88.29195199999999
 31
0.0
  0
LINE
  5
39D
330
36
100
AcDbEntity
  8
0
 62
     3
100
AcDbLine
 10
1210.251631
 20
169.097687
 30
0.0
 11
1210.251631
 21
-104.957674
 31
0.0
  0
LINE
  5
39E
330
36
100
AcDbEntity
  8
0
 62
     3
100
AcDbLine
 10
820.251631
 20
169.097687
 30
0.0
 11
820.251631
 21
-104.957674
 31
0.0
  0
LINE
  5
39F
330
36
100
AcDbEntity
  8
0
 62
     3
100
AcDbLine
 10
1210.251631
 20
-104.957674
 30
0.0
 11
820.251631
 21
-104.957674
 31
0.0
  0
TEXT
  5
3A2
330
36
100
AcDbEntity
  8
0
 62
     3
100
AcDbText
 10
1142.284647
 20
-104.5927661422326
 30
0.0
 40
3.2
  1
ZK-A3X
 41
0.8112849999999999
100
AcDbText
  0
TEXT
  5
3A3
330
36
100
AcDbEntity
  8
0
 62
     3
100
AcDbText
 10
1100.765586
 20
-69.122426
 30
0.0
 40
2.0
  1
CONPONENTS
 41
0.5331600000000001
100
AcDbText
  0
TEXT
  5
3A4
330
36
100
AcDbEntity
  8
0
 62
     3
100
AcDbText
 10
1100.415859
 20
-88.054603
 30
0.0
 40
3.0
  1
材
 41
0.833333
100
AcDbText
  0
TEXT
  5
3A5
330
36
100
AcDbEntity
  8
0
 62
     3
100
AcDbText
 10
1107.951502
 20
-88.054603
 30
0.0
 40
3.0
  1
質
 41
0.833333
100
AcDbText
  0
TEXT
  5
3A6
330
36
100
AcDbEntity
  8
0
 62
     3
100
AcDbText
 10
1100.50393
 20
-77.430078
 30
0.0
 40
2.0
  1
MODEL
 41
1.031072999999999
100
AcDbText
  0
TEXT
  5
3A7
330
36
100
AcDbEntity
  8
0
 62
     3
100
AcDbText
 10
1100.415859
 20
-84.37229499999999
 30
0.0
 40
2.0
  1
MATERIAL
 41
0.659278
100
AcDbText
  0
TEXT
  5
3A8
330
36
100
AcDbEntity
  8
0
 62
     3
100
AcDbText
 10
1131.72314
 20
-88.054603
 30
0.0
 40
3.0
  1
備
 41
0.833333
100
AcDbText
  0
TEXT
  5
3A9
330
36
100
AcDbEntity
  8
0
 62
     3
100
AcDbText
 10
1138.456141
 20
-88.054603
 30
0.0
 40
3.0
  1
考
 41
0.833333
100
AcDbText
  0
TEXT
  5
3AA
330
36
100
AcDbEntity
  8
0
 62
     3
100
AcDbText
 10
1132.007813756893
 20
-84.37229499999999
 30
0.0
 40
2.0
  1
REMARKS
 41
0.675794
100
AcDbText
  0
TEXT
  5
3AB
330
36
100
AcDbEntity
  8
0
 62
     3
100
AcDbText
 10
1102.005588
 20
-91.292415
 30
0.0
 40
2.0
  1
3AD
 41
1.42614
100
AcDbText
  0
TEXT
  5
3AC
330
36
100
AcDbEntity
  8
0
 62
     3
100
AcDbText
 10
1111.316568
 20
-91.12668199999999
 30
0.0
 40
2.0
  1
ANGLE
 41
1.669883999999996
100
AcDbText
  0
TEXT
  5
3AD
330
36
100
AcDbEntity
  8
0
 62
     3
100
AcDbText
 10
1132.250455
 20
-91.50352299999999
 30
0.0
 40
2.0
  1
SCALE
 41
0.7719630000000001
100
AcDbText
  0
TEXT
  5
3AE
330
36
100
AcDbEntity
  8
0
 62
     3
100
AcDbText
 10
1101.691718
 20
-95.291952
 30
0.0
 40
3.0
  1
第
 41
0.833333
100
AcDbText
  0
TEXT
  5
3AF
330
36
100
AcDbEntity
  8
0
 62
     3
100
AcDbText
 10
1109.478568
 20
-95.291952
 30
0.0
 40
3.0
  1
三
 41
0.833333
100
AcDbText
  0
TEXT
  5
3B0
330
36
100
AcDbEntity
  8
0
 62
     3
100
AcDbText
 10
1117.265418
 20
-95.291952
 30
0.0
 40
3.0
  1
角
 41
0.833333
100
AcDbText
  0
TEXT
  5
3B1
330
36
100
AcDbEntity
  8
0
 62
     3
100
AcDbText
 10
1125.052268
 20
-95.291952
 30
0.0
 40
3.0
  1
法
 41
0.833333
100
AcDbText
  0
TEXT
  5
3B2
330
36
100
AcDbEntity
  8
0
 62
     3
100
AcDbText
 10
1132.11366
 20
-95.00352300000001
 30
0.0
 40
3.0
  1
尺
 41
0.833333
100
AcDbText
  0
TEXT
  5
3B3
330
36
100
AcDbEntity
  8
0
 62
     3
100
AcDbText
 10
1138.846662
 20
-95.00352300000001
 30
0.0
 40
3.0
  1
度
 41
0.833333
100
AcDbText
  0
TEXT
  5
3B4
330
36
100
AcDbEntity
  8
0
 62
     3
100
AcDbText
 10
1161.429932
 20
-72.83422299999998
 30
0.0
 40
3.0
  1
承認
 41
1.089472999999999
100
AcDbText
  0
TEXT
  5
3B5
330
36
100
AcDbEntity
  8
0
 62
     3
100
AcDbText
 10
1174.672812
 20
-72.891952
 30
0.0
 40
3.0
  1
検図
 41
0.931761
100
AcDbText
  0
TEXT
  5
3B6
330
36
100
AcDbEntity
  8
0
 62
     3
100
AcDbText
 10
1187.673209
 20
-72.891952
 30
0.0
 40
3.0
  1
設
 41
0.833333
100
AcDbText
  0
TEXT
  5
3B7
330
36
100
AcDbEntity
  8
0
 62
     3
100
AcDbText
 10
1192.163077
 20
-72.891952
 30
0.0
 40
3.0
  1
計
 41
0.833333
100
AcDbText
  0
TEXT
  5
3B8
330
36
100
AcDbEntity
  8
0
 62
     3
100
AcDbText
 10
1100.835692
 20
-72.71939999999998
 30
0.0
 40
3.0
  1
品
 41
0.833333
100
AcDbText
  0
TEXT
  5
3B9
330
36
100
AcDbEntity
  8
0
 62
     3
100
AcDbText
 10
1108.371335
 20
-72.71939999999998
 30
0.0
 40
3.0
  1
名
 41
0.833333
100
AcDbText
  0
TEXT
  5
3BA
330
36
100
AcDbEntity
  8
0
 62
     3
100
AcDbText
 10
1100.50393
 20
-81.00757260456981
 30
0.0
 40
3.0
  1
型
 41
0.833333
100
AcDbText
  0
TEXT
  5
3BB
330
36
100
AcDbEntity
  8
0
 62
     3
100
AcDbText
 10
1108.05202
 20
-81.00757260456981
 30
0.0
 40
3.0
  1
式
 41
0.833333
100
AcDbText
  0
LINE
  5
3C3
330
36
100
AcDbEntity
  8
0
 62
     3
100
AcDbLine
 10
1210.251631
 20
169.097687
 30
0.0
 11
820.251631
 21
169.097687
 31
0.0
  0
LINE
  5
3C4
330
36
100
AcDbEntity
  8
0
 62
     3
100
AcDbLine
 10
1184.552268
 20
-65.291952
 30
0.0
 11
1184.552268
 21
-59.291952
 31
0.0
  0
LINE
  5
3C5
330
36
100
AcDbEntity
  8
0
 62
     3
100
AcDbLine
 10
1158.552268
 20
-65.291952
 30
0.0
 11
1158.552268
 21
-59.291952
 31
0.0
  0
LINE
  5
3C6
330
36
100
AcDbEntity
  8
0
 62
     3
100
AcDbLine
 10
1210.251631
 20
-59.291952
 30
0.0
 11
1158.552268
 21
-59.291952
 31
0.0
  0
TEXT
  5
3C7
330
36
100
AcDbEntity
  8
0
 62
     3
100
AcDbText
 10
1164.547866
 20
-64.495603
 30
0.0
 40
4.5
  1
コード
  7
高4.5
100
AcDbText
  0
TEXT
  5
3C8
330
36
100
AcDbEntity
  8
0
 62
     3
100
AcDbText
 10
883.8082579743245
 20
-104.457674
 30
0.0
 40
3.2
  1
　備　　　　　考　
 41
0.8
  7
高3.2
100
AcDbText
  0
TEXT
  5
3C9
330
36
100
AcDbEntity
  8
0
 62
     3
100
AcDbText
 10
862.713186070675
 20
-104.457674
 30
0.0
 40
3.2
  1
個数
 41
0.8
  7
高3.2
100
AcDbText
  0
TEXT
  5
3CA
330
36
100
AcDbEntity
  8
0
 62
     3
100
AcDbText
 10
829.3099575624999
 20
-104.457674
 30
0.0
 40
3.2
  1
部　　品　　名
 41
0.8
  7
高3.2
100
AcDbText
  0
TEXT
  5
3CB
330
36
100
AcDbEntity
  8
0
 62
     3
100
AcDbText
 10
821.751631
 20
-104.457674
 30
0.0
 40
3.2
  1
No
 41
0.8
  7
高3.2
100
AcDbText
  0
LINE
  5
3CC
330
36
100
AcDbEntity
  8
0
100
AcDbLine
 10
1033.903027016874
 20
-8.377575
 30
0.0
 11
1070.871536164125
 21
-8.377575
 31
0.0
  0
TEXT
  5
3CD
330
36
100
AcDbEntity
  8
0
 62
     3
100
AcDbText
 10
1034.057062912973
 20
-7.56300407920446
 30
0.0
 40
4.5
  1
主　　仕　　様
  7
高4.5
100
AcDbText
  0
TEXT
  5
3CE
330
36
100
AcDbEntity
  8
0
 62
     3
100
AcDbText
 10
821.751631
 20
-89.45767399999999
 30
0.0
 40
3.2
  1
3
 41
0.8
  7
高3.2
100
AcDbText
  0
TEXT
  5
3CF
330
36
100
AcDbEntity
  8
0
 62
     3
100
AcDbText
 10
821.751631
 20
-84.45767399999999
 30
0.0
 40
3.2
  1
4
 41
0.8
  7
高3.2
100
AcDbText
  0
TEXT
  5
3D0
330
36
100
AcDbEntity
  8
0
 62
     3
100
AcDbText
 10
821.7516309999997
 20
-79.45767400000002
 30
0.0
 40
3.2
  1
5
 41
0.8
  7
高3.2
100
AcDbText
  0
TEXT
  5
3D1
330
36
100
AcDbEntity
  8
0
 62
     3
100
AcDbText
 10
821.751631
 20
-74.457674
 30
0.0
 40
3.2
  1
6
 41
0.8
  7
高3.2
100
AcDbText
  0
TEXT
  5
3D2
330
36
100
AcDbEntity
  8
0
 62
     3
100
AcDbText
 10
862.713186070675
 20
-89.45767399999999
 30
0.0
 40
3.2
  1
1
 41
0.8
  7
高3.2
100
AcDbText
  0
TEXT
  5
3D3
330
36
100
AcDbEntity
  8
0
 62
     3
100
AcDbText
 10
821.7516309999997
 20
-99.45767400000001
 30
0.0
 40
3.2
  1
1
 41
0.8
  7
高3.2
100
AcDbText
  0
TEXT
  5
3D4
330
36
100
AcDbEntity
  8
0
 62
     3
100
AcDbText
 10
821.751631
 20
-94.45767399999999
 30
0.0
 40
3.2
  1
2
 41
0.8
  7
高3.2
100
AcDbText
  0
TEXT
  5
3D5
330
36
100
AcDbEntity
  8
0
 62
     3
100
AcDbText
 10
829.3099575624999
 20
-99.45767400000001
 30
0.0
 40
3.2
  1
ケース本体
 41
0.8
  7
高3.2
100
AcDbText
  0
TEXT
  5
3D6
330
36
100
AcDbEntity
  8
0
 62
     3
100
AcDbText
 10
862.713186070675
 20
-84.45767399999999
 30
0.0
 40
3.2
  1
1
 41
0.8
  7
高3.2
100
AcDbText
  0
TEXT
  5
3D7
330
36
100
AcDbEntity
  8
0
 62
     3
100
AcDbText
 10
862.713186070675
 20
-99.45767400000001
 30
0.0
 40
3.2
  1
1式
 41
0.8
  7
高3.2
100
AcDbText
  0
TEXT
  5
3D8
330
36
100
AcDbEntity
  8
0
 62
     3
100
AcDbText
 10
1015.124058173443
 20
-15.091157
 30
0.0
 40
3.2
  1
型　式
  7
高3.2
100
AcDbText
  0
TEXT
  5
3D9
330
36
100
AcDbEntity
  8
0
 62
     3
100
AcDbText
 10
871.3082579743247
 20
-99.45767400000001
 30
0.0
 40
3.2
  1
-
 41
0.8
  7
高3.2
100
AcDbText
  0
TEXT
  5
3DA
330
36
100
AcDbEntity
  8
0
 62
     3
100
AcDbText
 10
871.3082579743247
 20
-84.45767399999999
 30
0.0
 40
3.2
  1
-
 41
0.8
  7
高3.2
100
AcDbText
  0
TEXT
  5
3DB
330
36
100
AcDbEntity
  8
0
 62
     3
100
AcDbText
 10
883.8082579743245
 20
-94.45767399999999
 30
0.0
 40
3.2
  1
-
 41
0.8
  7
高3.2
100
AcDbText
  0
TEXT
  5
3DC
330
36
100
AcDbEntity
  8
0
 62
     3
100
AcDbText
 10
871.3082579743247
 20
-94.45767399999999
 30
0.0
 40
3.2
  1
-
 41
0.8
  7
高3.2
100
AcDbText
  0
TEXT
  5
3DD
330
36
100
AcDbEntity
  8
0
 62
     3
100
AcDbText
 10
862.713186070675
 20
-94.45767399999999
 30
0.0
 40
3.2
  1
1
 41
0.8
  7
高3.2
100
AcDbText
  0
TEXT
  5
3DE
330
36
100
AcDbEntity
  8
0
 62
     3
100
AcDbText
 10
829.3099575624999
 20
-94.45767399999999
 30
0.0
 40
3.2
  1
取手
 41
0.8
  7
高3.2
100
AcDbText
  0
TEXT
  5
3DF
330
36
100
AcDbEntity
  8
0
 62
     3
100
AcDbText
 10
871.3082579743247
 20
-89.45767399999999
 30
0.0
 40
3.2
  1
-
 41
0.8
  7
高3.2
100
AcDbText
  0
TEXT
  5
3E0
330
36
100
AcDbEntity
  8
0
 62
     3
100
AcDbText
 10
871.3082579743247
 20
-79.45767400000002
 30
0.0
 40
3.2
  1
-
 41
0.8
  7
高3.2
100
AcDbText
  0
TEXT
  5
3E1
330
36
100
AcDbEntity
  8
0
 62
     3
100
AcDbText
 10
871.3082579743247
 20
-74.457674
 30
0.0
 40
3.2
  1
-
 41
0.8
  7
高3.2
100
AcDbText
  0
TEXT
  5
3E2
330
36
100
AcDbEntity
  8
0
 62
     3
100
AcDbText
 10
883.8082579743245
 20
-69.457674
 30
0.0
 40
3.2
  1
-
 41
0.8
  7
高3.2
100
AcDbText
  0
TEXT
  5
3E3
330
36
100
AcDbEntity
  8
0
 62
     3
100
AcDbText
 10
821.7516309999997
 20
-69.457674
 30
0.0
 40
3.2
  1
7
 41
0.8
  7
高3.2
100
AcDbText
  0
TEXT
  5
3E4
330
36
100
AcDbEntity
  8
0
 62
     3
100
AcDbText
 10
883.8082579743245
 20
-99.45767400000001
 30
0.0
 40
3.2
  1
-
 41
0.8
  7
高3.2
100
AcDbText
  0
LINE
  5
3EB
330
36
100
AcDbEntity
  8
0
 62
     3
100
AcDbLine
 10
807.8497079999998
 20
35.54232600000001
 30
0.0
 11
805.2516309999997
 21
34.042326
 31
0.0
  0
LINE
  5
3EC
330
36
100
AcDbEntity
  8
0
 62
     3
100
AcDbLine
 10
807.8497079999998
 20
35.54232600000001
 30
0.0
 11
805.2516309999997
 21
37.042326
 31
0.0
  0
LINE
  5
3ED
330
36
100
AcDbEntity
  8
0
 62
     3
100
AcDbLine
 10
805.2516309999997
 20
34.042326
 30
0.0
 11
805.2516309999997
 21
37.042326
 31
0.0
  0
LINE
  5
3F3
330
36
100
AcDbEntity
  8
0
100
AcDbLine
 10
1021.836885
 20
124.813513
 30
0.0
 11
1024.066156
 21
139.710708
 31
0.0
  0
CIRCLE
  5
3F4
330
36
100
AcDbEntity
  8
0
100
AcDbCircle
 10
1024.806135
 20
144.655648
 30
0.0
 40
5.0
  0
TEXT
  5
3F5
330
36
100
AcDbEntity
  8
0
 62
     4
100
AcDbText
 10
1022.57933845574
 20
141.4223006850513
 30
0.0
 40
6.299999999999998
  1
2
  7
高6.3
100
AcDbText
  0
LINE
  5
3FB
330
36
100
AcDbEntity
  8
0
100
AcDbLine
 10
1183.253445
 20
115.753219
 30
0.0
 11
1192.966797
 21
126.007793
 31
0.0
  0
CIRCLE
  5
3FC
330
36
100
AcDbEntity
  8
0
100
AcDbCircle
 10
1196.405239
 20
129.637823
 30
0.0
 40
5.0
  0
TEXT
  5
3FD
330
36
100
AcDbEntity
  8
0
 62
     4
100
AcDbText
 10
1194.17844245574
 20
126.4044766850513
 30
0.0
 40
6.299999999999998
  1
8
  7
高6.3
100
AcDbText
  0
LINE
  5
403
330
36
100
AcDbEntity
  8
0
100
AcDbLine
 10
1183.626368
 20
103.928992
 30
0.0
 11
1194.810735
 21
111.700186
 31
0.0
  0
CIRCLE
  5
404
330
36
100
AcDbEntity
  8
0
100
AcDbCircle
 10
1198.91685
 20
114.553223
 30
0.0
 40
5.0
  0
TEXT
  5
405
330
36
100
AcDbEntity
  8
0
 62
     4
100
AcDbText
 10
1196.69005345574
 20
111.3198766850512
 30
0.0
 40
6.299999999999998
  1
9
  7
高6.3
100
AcDbText
  0
LINE
  5
40B
330
36
100
AcDbEntity
  8
0
100
AcDbLine
 10
1122.630291
 20
18.915668
 30
0.0
 11
1127.833519
 21
23.227528
 31
0.0
  0
CIRCLE
  5
40C
330
36
100
AcDbEntity
  8
0
100
AcDbCircle
 10
1131.683404
 20
26.417887
 30
0.0
 40
5.0
  0
TEXT
  5
40D
330
36
100
AcDbEntity
  8
0
 62
     4
100
AcDbText
 10
1128.81245611219
 20
24.23791583773982
 30
0.0
 40
4.5
  1
10
  7
高4.5
100
AcDbText
  0
LINE
  5
413
330
36
100
AcDbEntity
  8
0
100
AcDbLine
 10
908.0006690000001
 20
86.293017
 30
0.0
 11
926.193954
 21
97.15204900000001
 31
0.0
  0
CIRCLE
  5
414
330
36
100
AcDbEntity
  8
0
100
AcDbCircle
 10
930.4873350000001
 20
99.71464
 30
0.0
 40
5.0
  0
TEXT
  5
415
330
36
100
AcDbEntity
  8
0
 62
     4
100
AcDbText
 10
928.2605384557404
 20
96.48129368505131
 30
0.0
 40
6.299999999999998
  1
5
  7
高6.3
100
AcDbText
  0
LINE
  5
41B
330
36
100
AcDbEntity
  8
0
100
AcDbLine
 10
909.828745
 20
109.3321
 30
0.0
 11
926.186167
 21
115.658563
 31
0.0
  0
CIRCLE
  5
41C
330
36
100
AcDbEntity
  8
0
100
AcDbCircle
 10
930.84953
 20
117.462184
 30
0.0
 40
5.0
  0
TEXT
  5
41D
330
36
100
AcDbEntity
  8
0
 62
     4
100
AcDbText
 10
928.6227334557404
 20
114.2288376850513
 30
0.0
 40
6.299999999999998
  1
4
  7
高6.3
100
AcDbText
  0
LINE
  5
423
330
36
100
AcDbEntity
  8
0
100
AcDbLine
 10
903.3310619999999
 20
70.6122
 30
0.0
 11
926.052772
 21
77.29627499999998
 31
0.0
  0
CIRCLE
  5
424
330
36
100
AcDbEntity
  8
0
100
AcDbCircle
 10
930.84953
 20
78.70734399999998
 30
0.0
 40
5.0
  0
TEXT
  5
425
330
36
100
AcDbEntity
  8
0
 62
     4
100
AcDbText
 10
928.6227334557404
 20
75.47399768505131
 30
0.0
 40
6.299999999999998
  1
3
  7
高6.3
100
AcDbText
  0
LINE
  5
42B
330
36
100
AcDbEntity
  8
0
100
AcDbLine
 10
909.55203
 20
54.813513
 30
0.0
 11
925.9500090000001
 21
58.151481
 31
0.0
  0
CIRCLE
  5
42C
330
36
100
AcDbEntity
  8
0
100
AcDbCircle
 10
930.84953
 20
59.148826
 30
0.0
 40
5.0
  0
TEXT
  5
42D
330
36
100
AcDbEntity
  8
0
 62
     4
100
AcDbText
 10
928.6227334557404
 20
55.91547968505132
 30
0.0
 40
6.299999999999998
  1
7
  7
高6.3
100
AcDbText
  0
LINE
  5
433
330
36
100
AcDbEntity
  8
0
100
AcDbLine
 10
847.118532
 20
120.549739
 30
0.0
 11
838.7335440000001
 21
124.172
 31
0.0
  0
CIRCLE
  5
434
330
36
100
AcDbEntity
  8
0
100
AcDbCircle
 10
834.1435259999999
 20
126.154859
 30
0.0
 40
5.0
  0
TEXT
  5
435
330
36
100
AcDbEntity
  8
0
 62
     4
100
AcDbText
 10
832.9944030772781
 20
122.9420414690935
 30
0.0
 40
6.299999999999998
  1
1
  7
高6.3
100
AcDbText
  0
LINE
  5
43B
330
36
100
AcDbEntity
  8
0
100
AcDbLine
 10
854.5520300000001
 20
57.769934
 30
0.0
 11
838.579507
 21
62.451121
 31
0.0
  0
CIRCLE
  5
43C
330
36
100
AcDbEntity
  8
0
100
AcDbCircle
 10
833.7813309999997
 20
63.85735799999999
 30
0.0
 40
5.0
  0
TEXT
  5
43D
330
36
100
AcDbEntity
  8
0
 62
     4
100
AcDbText
 10
831.5545344557401
 20
60.6240116850513
 30
0.0
 40
6.299999999999998
  1
6
  7
高6.3
100
AcDbText
  0
TEXT
  5
43E
330
36
100
AcDbEntity
  8
0
 62
     3
100
AcDbText
 10
883.8082579743245
 20
-64.457674
 30
0.0
 40
3.2
  1
-
 41
0.8
  7
高3.2
100
AcDbText
  0
TEXT
  5
43F
330
36
100
AcDbEntity
  8
0
 62
     3
100
AcDbText
 10
821.751631
 20
-54.45767399999998
 30
0.0
 40
3.2
  1
10
 41
0.8
  7
高3.2
100
AcDbText
  0
TEXT
  5
440
330
36
100
AcDbEntity
  8
0
 62
     3
100
AcDbText
 10
821.751631
 20
-59.45767399999997
 30
0.0
 40
3.2
  1
9
 41
0.8
  7
高3.2
100
AcDbText
  0
TEXT
  5
441
330
36
100
AcDbEntity
  8
0
 62
     3
100
AcDbText
 10
821.751631
 20
-64.457674
 30
0.0
 40
3.2
  1
8
 41
0.8
  7
高3.2
100
AcDbText
  0
LINE
  5
442
330
36
100
AcDbEntity
  8
0
100
AcDbLine
 10
827.8099575624999
 20
-104.957674
 30
0.0
 11
827.8099575624999
 21
-49.95767399999998
 31
0.0
  0
LINE
  5
443
330
36
100
AcDbEntity
  8
0
 62
     3
100
AcDbLine
 10
916.2597361878097
 20
-104.957674
 30
0.0
 11
916.2597361878097
 21
-49.95767399999998
 31
0.0
  0
LINE
  5
444
330
36
100
AcDbEntity
  8
0
100
AcDbLine
 10
869.8082579743248
 20
-104.957674
 30
0.0
 11
869.8082579743248
 21
-49.95767399999998
 31
0.0
  0
LINE
  5
445
330
36
100
AcDbEntity
  8
0
100
AcDbLine
 10
861.2131860706751
 20
-104.957674
 30
0.0
 11
861.2131860706751
 21
-49.95767399999998
 31
0.0
  0
LINE
  5
446
330
36
100
AcDbEntity
  8
0
100
AcDbLine
 10
882.3082579743241
 20
-104.957674
 30
0.0
 11
882.3082579743241
 21
-49.95767399999998
 31
0.0
  0
TEXT
  5
447
330
36
100
AcDbEntity
  8
0
100
AcDbText
 10
1167.382967
 20
95.617057
 30
0.0
 40
3.2
  1
60Hz
 41
1.043478
100
AcDbText
  0
TEXT
  5
448
330
36
100
AcDbEntity
  8
0
100
AcDbText
 10
1167.382967
 20
101.115109
 30
0.0
 40
3.2
  1
50Hz
 41
1.043478
100
AcDbText
  0
TEXT
  5
449
330
36
100
AcDbEntity
  8
0
 62
     3
100
AcDbText
 10
853.1218589999998
 20
103.289664
 30
0.0
 40
3.2
  1
SVR-1000
 41
1.166666999999999
100
AcDbText
  0
TEXT
  5
44A
330
36
100
AcDbEntity
  8
0
 62
     3
100
AcDbText
 10
829.3099575624999
 20
-89.45767399999999
 30
0.0
 40
3.2
  1
サーキットブレーカー
 41
0.8
  7
高3.2
100
AcDbText
  0
TEXT
  5
44B
330
36
100
AcDbEntity
  8
0
 62
     3
100
AcDbText
 10
829.3099575624999
 20
-84.45767399999999
 30
0.0
 40
3.2
  1
出力電圧計
 41
0.8
  7
高3.2
100
AcDbText
  0
TEXT
  5
44C
330
36
100
AcDbEntity
  8
0
 62
     3
100
AcDbText
 10
829.3099575624999
 20
-79.45767400000002
 30
0.0
 40
3.2
  1
入力電圧レベル
 41
0.8
  7
高3.2
100
AcDbText
  0
TEXT
  5
44D
330
36
100
AcDbEntity
  8
0
 62
     3
100
AcDbText
 10
829.3099575624999
 20
-74.457674
 30
0.0
 40
3.2
  1
出力コンセント
 41
0.8
  7
高3.2
100
AcDbText
  0
TEXT
  5
44E
330
36
100
AcDbEntity
  8
0
 62
     3
100
AcDbText
 10
829.3099575624999
 20
-69.457674
 30
0.0
 40
3.2
  1
電源スイッチ
 41
0.8
  7
高3.2
100
AcDbText
  0
TEXT
  5
44F
330
36
100
AcDbEntity
  8
0
 62
     3
100
AcDbText
 10
829.3099575624999
 20
-64.457674
 30
0.0
 40
3.2
  1
出力電圧微調整
 41
0.8
  7
高3.2
100
AcDbText
  0
TEXT
  5
450
330
36
100
AcDbEntity
  8
0
 62
     3
100
AcDbText
 10
829.3099575624999
 20
-59.45767399999997
 30
0.0
 40
3.2
  1
入力周波数
 41
0.8
  7
高3.2
100
AcDbText
  0
TEXT
  5
451
330
36
100
AcDbEntity
  8
0
 62
     3
100
AcDbText
 10
829.3099575624999
 20
-54.45767399999998
 30
0.0
 40
3.2
  1
電源コード
 41
0.8
  7
高3.2
100
AcDbText
  0
TEXT
  5
452
330
36
100
AcDbEntity
  8
0
 62
     3
100
AcDbText
 10
862.713186070675
 20
-79.45767400000002
 30
0.0
 40
3.2
  1
1式
 41
0.8
  7
高3.2
100
AcDbText
  0
TEXT
  5
453
330
36
100
AcDbEntity
  8
0
 62
     3
100
AcDbText
 10
862.713186070675
 20
-74.457674
 30
0.0
 40
3.2
  1
2
 41
0.8
  7
高3.2
100
AcDbText
  0
TEXT
  5
454
330
36
100
AcDbEntity
  8
0
 62
     3
100
AcDbText
 10
862.713186070675
 20
-69.457674
 30
0.0
 40
3.2
  1
1
 41
0.8
  7
高3.2
100
AcDbText
  0
TEXT
  5
455
330
36
100
AcDbEntity
  8
0
 62
     3
100
AcDbText
 10
862.713186070675
 20
-64.457674
 30
0.0
 40
3.2
  1
1
 41
0.8
  7
高3.2
100
AcDbText
  0
TEXT
  5
456
330
36
100
AcDbEntity
  8
0
 62
     3
100
AcDbText
 10
862.713186070675
 20
-59.45767399999997
 30
0.0
 40
3.2
  1
1
 41
0.8
  7
高3.2
100
AcDbText
  0
TEXT
  5
457
330
36
100
AcDbEntity
  8
0
 62
     3
100
AcDbText
 10
862.713186070675
 20
-54.45767399999998
 30
0.0
 40
3.2
  1
1
 41
0.8
  7
高3.2
100
AcDbText
  0
TEXT
  5
458
330
36
100
AcDbEntity
  8
0
 62
     3
100
AcDbText
 10
871.3082579743247
 20
-69.457674
 30
0.0
 40
3.2
  1
-
 41
0.8
  7
高3.2
100
AcDbText
  0
TEXT
  5
459
330
36
100
AcDbEntity
  8
0
 62
     3
100
AcDbText
 10
871.3082579743247
 20
-64.457674
 30
0.0
 40
3.2
  1
-
 41
0.8
  7
高3.2
100
AcDbText
  0
TEXT
  5
45A
330
36
100
AcDbEntity
  8
0
 62
     3
100
AcDbText
 10
871.3082579743247
 20
-59.45767399999997
 30
0.0
 40
3.2
  1
-
 41
0.8
  7
高3.2
100
AcDbText
  0
TEXT
  5
45B
330
36
100
AcDbEntity
  8
0
 62
     3
100
AcDbText
 10
883.8082579743245
 20
-89.45767399999999
 30
0.0
 40
3.2
  1
12A
 41
0.8
  7
高3.2
100
AcDbText
  0
TEXT
  5
45C
330
36
100
AcDbEntity
  8
0
 62
     3
100
AcDbText
 10
883.8082579743245
 20
-84.45767399999999
 30
0.0
 40
3.2
  1
-
 41
0.8
  7
高3.2
100
AcDbText
  0
TEXT
  5
45D
330
36
100
AcDbEntity
  8
0
 62
     3
100
AcDbText
 10
883.8082579743245
 20
-79.45767400000002
 30
0.0
 40
3.2
  1
-
 41
0.8
  7
高3.2
100
AcDbText
  0
TEXT
  5
45E
330
36
100
AcDbEntity
  8
0
 62
     3
100
AcDbText
 10
883.8082579743245
 20
-74.457674
 30
0.0
 40
3.2
  1
AC100V%%p2%
 41
0.8
  7
高3.2
100
AcDbText
  0
TEXT
  5
45F
330
36
100
AcDbEntity
  8
0
 62
     3
100
AcDbText
 10
883.8082579743245
 20
-59.45767399999997
 30
0.0
 40
3.2
  1
50/60Hz
 41
0.8
  7
高3.2
100
AcDbText
  0
TEXT
  5
460
330
36
100
AcDbEntity
  8
0
 62
     3
100
AcDbText
 10
871.3082579743247
 20
-54.45767399999998
 30
0.0
 40
3.2
  1
VFF
 41
0.8
  7
高3.2
100
AcDbText
  0
TEXT
  5
461
330
36
100
AcDbEntity
  8
0
 62
     3
100
AcDbText
 10
883.8082579743245
 20
-54.45767399999998
 30
0.0
 40
3.2
  1
1.25sqx2芯x1.5m
 41
0.8
  7
高3.2
100
AcDbText
  0
TEXT
  5
462
330
36
100
AcDbEntity
  8
0
 62
     3
100
AcDbText
 10
1015.124058173443
 20
-20.635157
 30
0.0
 40
3.2
  1
入力電圧
  7
高3.2
100
AcDbText
  0
TEXT
  5
463
330
36
100
AcDbEntity
  8
0
 62
     3
100
AcDbText
 10
1015.124058173443
 20
-42.81115699999999
 30
0.0
 40
3.2
  1
周波数
  7
高3.2
100
AcDbText
  0
TEXT
  5
464
330
36
100
AcDbEntity
  8
0
 62
     3
100
AcDbText
 10
1015.124058173443
 20
-48.355157
 30
0.0
 40
3.2
  1
出力電圧調整範囲
  7
高3.2
100
AcDbText
  0
TEXT
  5
465
330
36
100
AcDbEntity
  8
0
 62
     3
100
AcDbText
 10
1015.124058173443
 20
-53.79063299999999
 30
0.0
 40
3.2
  1
負荷変動
  7
高3.2
100
AcDbText
  0
TEXT
  5
466
330
36
100
AcDbEntity
  8
0
 62
     3
100
AcDbText
 10
1015.124058173443
 20
-59.44315699999999
 30
0.0
 40
3.2
  1
波形歪
  7
高3.2
100
AcDbText
  0
TEXT
  5
467
330
36
100
AcDbEntity
  8
0
 62
     3
100
AcDbText
 10
1015.124058173443
 20
-64.98715699999999
 30
0.0
 40
3.2
  1
応答時間
  7
高3.2
100
AcDbText
  0
TEXT
  5
468
330
36
100
AcDbEntity
  8
0
 62
     3
100
AcDbText
 10
1015.124058173443
 20
-70.53115699999998
 30
0.0
 40
3.2
  1
効　率
  7
高3.2
100
AcDbText
  0
TEXT
  5
469
330
36
100
AcDbEntity
  8
0
 62
     3
100
AcDbText
 10
1015.124058173443
 20
-76.07515699999997
 30
0.0
 40
3.2
  1
周囲温度
  7
高3.2
100
AcDbText
  0
TEXT
  5
46A
330
36
100
AcDbEntity
  8
0
 62
     3
100
AcDbText
 10
1015.124058173443
 20
-98.25115700000001
 30
0.0
 40
3.2
  1
質　量
  7
高3.2
100
AcDbText
  0
TEXT
  5
46B
330
36
100
AcDbEntity
  8
0
 62
     3
100
AcDbText
 10
1015.124058173443
 20
-81.61915699999999
 30
0.0
 40
3.2
  1
温度上昇
  7
高3.2
100
AcDbText
  0
TEXT
  5
46C
330
36
100
AcDbEntity
  8
0
 62
     3
100
AcDbText
 10
1015.124058173443
 20
-87.163157
 30
0.0
 40
3.2
  1
絶縁抵抗
  7
高3.2
100
AcDbText
  0
TEXT
  5
46D
330
36
100
AcDbEntity
  8
0
 62
     3
100
AcDbText
 10
1015.124058173443
 20
-92.707157
 30
0.0
 40
3.2
  1
絶縁耐圧
  7
高3.2
100
AcDbText
  0
TEXT
  5
46E
330
36
100
AcDbEntity
  8
0
 62
     3
100
AcDbText
 10
1047.059200670769
 20
-15.068912
 30
0.0
 40
3.2
  1
SVR-1000
  7
高3.2
100
AcDbText
  0
LINE
  5
46F
330
36
100
AcDbEntity
  8
0
 62
     3
100
AcDbLine
 10
1013.540058173443
 20
-10.339157
 30
0.0
 11
1093.965237633276
 21
-10.339157
 31
0.0
  0
LINE
  5
470
330
36
100
AcDbEntity
  8
0
 62
     3
100
AcDbLine
 10
1013.540058173443
 20
-99.04315699999999
 30
0.0
 11
1093.965237633276
 21
-99.04315699999999
 31
0.0
  0
LINE
  5
471
330
36
100
AcDbEntity
  8
0
100
AcDbLine
 10
1013.540058173443
 20
-54.69115699999998
 30
0.0
 11
1093.965237633276
 21
-54.69115699999999
 31
0.0
  0
LINE
  5
472
330
36
100
AcDbEntity
  8
0
100
AcDbLine
 10
1013.540058173443
 20
-21.427157
 30
0.0
 11
1093.965237633276
 21
-21.427157
 31
0.0
  0
LINE
  5
473
330
36
100
AcDbEntity
  8
0
100
AcDbLine
 10
1013.540058173443
 20
-43.603157
 30
0.0
 11
1093.965237633276
 21
-43.603157
 31
0.0
  0
LINE
  5
474
330
36
100
AcDbEntity
  8
0
100
AcDbLine
 10
1013.540058173443
 20
-49.14715699999999
 30
0.0
 11
1093.965237633276
 21
-49.147157
 31
0.0
  0
LINE
  5
475
330
36
100
AcDbEntity
  8
0
100
AcDbLine
 10
1013.540058173443
 20
-60.23515699999999
 30
0.0
 11
1093.965237633276
 21
-60.23515699999999
 31
0.0
  0
LINE
  5
476
330
36
100
AcDbEntity
  8
0
100
AcDbLine
 10
1013.540058173443
 20
-65.779157
 30
0.0
 11
1093.965237633276
 21
-65.779157
 31
0.0
  0
LINE
  5
477
330
36
100
AcDbEntity
  8
0
100
AcDbLine
 10
1013.540058173443
 20
-71.32315699999998
 30
0.0
 11
1093.965237633276
 21
-71.32315699999998
 31
0.0
  0
LINE
  5
478
330
36
100
AcDbEntity
  8
0
100
AcDbLine
 10
1013.540058173443
 20
-76.86715699999997
 30
0.0
 11
1093.965237633276
 21
-76.86715699999997
 31
0.0
  0
LINE
  5
479
330
36
100
AcDbEntity
  8
0
100
AcDbLine
 10
1013.540058173443
 20
-15.883157
 30
0.0
 11
1093.965237633276
 21
-15.883157
 31
0.0
  0
LINE
  5
47A
330
36
100
AcDbEntity
  8
0
100
AcDbLine
 10
1013.540058173443
 20
-82.41115699999998
 30
0.0
 11
1093.965237633276
 21
-82.41115699999992
 31
0.0
  0
LINE
  5
47B
330
36
100
AcDbEntity
  8
0
100
AcDbLine
 10
1013.540058173443
 20
-87.95515700000001
 30
0.0
 11
1093.965237633276
 21
-87.95515700000001
 31
0.0
  0
LINE
  5
47C
330
36
100
AcDbEntity
  8
0
100
AcDbLine
 10
1013.540058173443
 20
-93.499157
 30
0.0
 11
1093.965237633276
 21
-93.49915700000002
 31
0.0
  0
TEXT
  5
47D
330
36
100
AcDbEntity
  8
0
 62
     3
100
AcDbText
 10
1047.059200670769
 20
-20.612912
 30
0.0
 40
3.2
  1
AC100%%P15%%%
  7
高3.2
100
AcDbText
  0
LINE
  5
47E
330
36
100
AcDbEntity
  8
0
100
AcDbLine
 10
1013.540058173443
 20
-26.971157
 30
0.0
 11
1093.965237633276
 21
-26.971157
 31
0.0
  0
TEXT
  5
47F
330
36
100
AcDbEntity
  8
0
 62
     3
100
AcDbText
 10
1015.124058173443
 20
-26.179157
 30
0.0
 40
3.2
  1
出力電圧
  7
高3.2
100
AcDbText
  0
TEXT
  5
480
330
36
100
AcDbEntity
  8
0
 62
     3
100
AcDbText
 10
1047.059200670769
 20
-26.156912
 30
0.0
 40
3.2
  1
AC100%%p2%
  7
高3.2
100
AcDbText
  0
LINE
  5
481
330
36
100
AcDbEntity
  8
0
100
AcDbLine
 10
1013.540058173443
 20
-32.51515700000001
 30
0.0
 11
1093.965237633276
 21
-32.51515700000001
 31
0.0
  0
LINE
  5
482
330
36
100
AcDbEntity
  8
0
100
AcDbLine
 10
1013.540058173443
 20
-38.059157
 30
0.0
 11
1093.965237633276
 21
-38.059157
 31
0.0
  0
TEXT
  5
483
330
36
100
AcDbEntity
  8
0
 62
     3
100
AcDbText
 10
1015.124058173443
 20
-31.723157
 30
0.0
 40
3.2
  1
容　量
  7
高3.2
100
AcDbText
  0
TEXT
  5
484
330
36
100
AcDbEntity
  8
0
 62
     3
100
AcDbText
 10
1015.124058173443
 20
-37.267157
 30
0.0
 40
3.2
  1
保護機能
  7
高3.2
100
AcDbText
  0
TEXT
  5
485
330
36
100
AcDbEntity
  8
0
 62
     3
100
AcDbText
 10
1047.059200670769
 20
-37.244912
 30
0.0
 40
3.2
  1
サーキットブレーカー
  7
高3.2
100
AcDbText
  0
TEXT
  5
486
330
36
100
AcDbEntity
  8
0
 62
     3
100
AcDbText
 10
1047.059200670769
 20
-31.700912
 30
0.0
 40
3.2
  1
1KVA
  7
高3.2
100
AcDbText
  0
TEXT
  5
487
330
36
100
AcDbEntity
  8
0
 62
     3
100
AcDbText
 10
1047.059200670769
 20
-42.78891199999999
 30
0.0
 40
3.2
  1
50/60Hz
  7
高3.2
100
AcDbText
  0
TEXT
  5
488
330
36
100
AcDbEntity
  8
0
 62
     3
100
AcDbText
 10
1047.059200670769
 20
-48.332912
 30
0.0
 40
3.2
  1
\U+00B13%%%以内
  7
高3.2
100
AcDbText
  0
TEXT
  5
489
330
36
100
AcDbEntity
  8
0
 62
     3
100
AcDbText
 10
1047.059200670769
 20
-53.87691199999999
 30
0.0
 40
3.2
  1
0～100%%%
  7
高3.2
100
AcDbText
  0
TEXT
  5
48A
330
36
100
AcDbEntity
  8
0
 62
     3
100
AcDbText
 10
1047.059200670769
 20
-59.420912
 30
0.0
 40
3.2
  1
入力電圧波形に同等
  7
高3.2
100
AcDbText
  0
TEXT
  5
48B
330
36
100
AcDbEntity
  8
0
 62
     3
100
AcDbText
 10
1047.059200670769
 20
-64.964912
 30
0.0
 40
3.2
  1
0.2sec以内
  7
高3.2
100
AcDbText
  0
TEXT
  5
48C
330
36
100
AcDbEntity
  8
0
 62
     3
100
AcDbText
 10
1047.059200670769
 20
-70.50891199999998
 30
0.0
 40
3.2
  1
90%%%以上
  7
高3.2
100
AcDbText
  0
TEXT
  5
48D
330
36
100
AcDbEntity
  8
0
 62
     3
100
AcDbText
 10
1047.059200670769
 20
-76.052912
 30
0.0
 40
3.2
  1
-5℃～40℃
  7
高3.2
100
AcDbText
  0
TEXT
  5
48E
330
36
100
AcDbEntity
  8
0
 62
     3
100
AcDbText
 10
1047.059200670769
 20
-81.59691200000002
 30
0.0
 40
3.2
  1
主要発熱部85℃以下
  7
高3.2
100
AcDbText
  0
TEXT
  5
48F
330
36
100
AcDbEntity
  8
0
 62
     3
100
AcDbText
 10
1047.059200670769
 20
-87.140912
 30
0.0
 40
3.2
  1
DC500Vメガにて10M\U+03A9
  7
高3.2
100
AcDbText
  0
TEXT
  5
490
330
36
100
AcDbEntity
  8
0
 62
     3
100
AcDbText
 10
1047.059200670769
 20
-92.68491199999999
 30
0.0
 40
3.2
  1
AC1500V　1分間
  7
高3.2
100
AcDbText
  0
TEXT
  5
491
330
36
100
AcDbEntity
  8
0
 62
     3
100
AcDbText
 10
1047.059200670769
 20
-98.228912
 30
0.0
 40
3.2
  1
10kg
  7
高3.2
100
AcDbText
  0
LINE
  5
492
330
36
100
AcDbEntity
  8
0
 62
     3
100
AcDbLine
 10
1093.965237633276
 20
-10.339157
 30
0.0
 11
1093.965237633276
 21
-99.04315699999999
 31
0.0
  0
LINE
  5
493
330
36
100
AcDbEntity
  8
0
 62
     3
100
AcDbLine
 10
1013.540058173443
 20
-10.339157
 30
0.0
 11
1013.540058173443
 21
-99.04315699999999
 31
0.0
  0
LINE
  5
494
330
36
100
AcDbEntity
  8
0
 62
     3
100
AcDbLine
 10
1046.251859670769
 20
-10.339157
 30
0.0
 11
1046.251859670769
 21
-99.04315699999999
 31
0.0
  0
TEXT
  5
495
330
36
100
AcDbEntity
  8
0
 62
     3
100
AcDbText
 10
1117.268315768651
 20
-80.48097400000001
 30
0.0
 40
4.5
  1
SVR-1000
  7
高4.5
100
AcDbText
  0
TEXT
  5
496
330
36
100
AcDbEntity
  8
0
 62
     3
100
AcDbText
 10
1161.707932419153
 20
-104.183273
 30
0.0
 40
6.299999999999998
  1
SVR-1000
  7
高6.3
100
AcDbText
  0
TEXT
  5
497
330
36
100
AcDbEntity
  8
0
 62
     3
100
AcDbText
 10
1176.407221
 20
-93.992248
 30
0.0
 40
3.2
  1
2008.09.16
  7
高3.2
100
AcDbText
  0
TEXT
  5
498
330
36
100
AcDbEntity
  8
0
 62
     3
100
AcDbText
 10
1113.775770738518
 20
-72.447692
 30
0.0
 40
4.5
  1
交流定電圧電源装置
 41
0.9
  7
高4.5
100
AcDbText
  0
TEXT
  5
499
330
36
100
AcDbEntity
  8
0
 62
     3
100
AcDbText
 10
1144.168978
 20
-94.771481
 30
0.0
 40
3.2
  1
1/2
  7
高3.2
100
AcDbText
  0
TEXT
  5
49A
330
36
100
AcDbEntity
  8
0
 62
     3
100
AcDbText
 10
871.3082579743247
 20
-104.457674
 30
0.0
 40
3.2
  1
材　質
 41
0.8
  7
高3.2
100
AcDbText
  0
LINE
  5
49B
330
36
100
AcDbEntity
  8
0
100
AcDbLine
 10
820.2516309999998
 20
-94.957674
 30
0.0
 11
916.2597361878097
 21
-94.957674
 31
0.0
  0
LINE
  5
49C
330
36
100
AcDbEntity
  8
0
100
AcDbLine
 10
820.2516309999998
 20
-89.957674
 30
0.0
 11
916.2597361878097
 21
-89.957674
 31
0.0
  0
LINE
  5
49D
330
36
100
AcDbEntity
  8
0
100
AcDbLine
 10
820.2516309999998
 20
-84.957674
 30
0.0
 11
916.2597361878097
 21
-84.957674
 31
0.0
  0
LINE
  5
49E
330
36
100
AcDbEntity
  8
0
100
AcDbLine
 10
820.2516309999998
 20
-79.95767400000002
 30
0.0
 11
916.2597361878097
 21
-79.95767400000002
 31
0.0
  0
LINE
  5
49F
330
36
100
AcDbEntity
  8
0
100
AcDbLine
 10
820.2516309999998
 20
-74.957674
 30
0.0
 11
916.2597361878097
 21
-74.957674
 31
0.0
  0
LINE
  5
4A0
330
36
100
AcDbEntity
  8
0
 62
     3
100
AcDbLine
 10
820.2516309999998
 20
-99.957674
 30
0.0
 11
916.2597361878097
 21
-99.957674
 31
0.0
  0
LINE
  5
4A1
330
36
100
AcDbEntity
  8
0
100
AcDbLine
 10
820.2516309999998
 20
-69.957674
 30
0.0
 11
916.2597361878097
 21
-69.957674
 31
0.0
  0
LINE
  5
4A2
330
36
100
AcDbEntity
  8
0
 62
     3
100
AcDbLine
 10
820.2516309999998
 20
-49.95767399999998
 30
0.0
 11
916.2597361878097
 21
-49.95767399999998
 31
0.0
  0
LINE
  5
4A3
330
36
100
AcDbEntity
  8
0
100
AcDbLine
 10
820.2516309999998
 20
-54.95767399999998
 30
0.0
 11
916.2597361878097
 21
-54.95767399999998
 31
0.0
  0
LINE
  5
4A4
330
36
100
AcDbEntity
  8
0
100
AcDbLine
 10
820.2516309999998
 20
-59.95767399999998
 30
0.0
 11
916.2597361878097
 21
-59.95767399999998
 31
0.0
  0
LINE
  5
4A5
330
36
100
AcDbEntity
  8
0
100
AcDbLine
 10
820.2516309999998
 20
-64.957674
 30
0.0
 11
916.2597361878097
 21
-64.957674
 31
0.0
  0
TEXT
  5
4A6
330
36
100
AcDbEntity
  8
0
 62
     3
100
AcDbText
 10
1189.175089922243
 20
-64.647815
 30
0.0
 40
4.5
  1
6487
  7
高4.5
100
AcDbText
  0
TEXT
  5
5B9
330
36
100
AcDbEntity
  8
0
 62
     3
100
AcDbText
 10
1197.751631
 20
159.597687
 30
0.0
 40
3.2
  1
担　当
  7
高3.2
100
AcDbText
  0
TEXT
  5
5BA
330
36
100
AcDbEntity
  8
0
 62
     3
100
AcDbText
 10
1153.751631
 20
159.597687
 30
0.0
 40
3.2
  1
変更・追記内容
  7
高3.2
100
AcDbText
  0
TEXT
  5
5BB
330
36
100
AcDbEntity
  8
0
 62
     3
100
AcDbText
 10
1128.865146000339
 20
154.9271484900917
 30
0.0
 40
2.0
  1
1
  7
高2
100
AcDbText
  0
TEXT
  5
5BC
330
36
100
AcDbEntity
  8
0
 62
     3
100
AcDbText
 10
1128.556634523582
 20
149.7573317778188
 30
0.0
 40
2.0
  1
2
  7
高2
100
AcDbText
  0
TEXT
  5
5BD
330
36
100
AcDbEntity
  8
0
 62
     3
100
AcDbText
 10
1135.751631
 20
159.597687
 30
0.0
 40
3.2
  1
日　付
  7
高3.2
100
AcDbText
  0
TEXT
  5
5BE
330
36
100
AcDbEntity
  8
0
 62
     3
100
AcDbText
 10
1135.751631
 20
164.597687
 30
0.0
 40
3.2
  1
図　　　　面　　　　略　　　　歴
  7
高3.2
100
AcDbText
  0
TEXT
  5
5BF
330
36
100
AcDbEntity
  8
0
 62
     3
100
AcDbText
 10
1125.751631
 20
159.597687
 30
0.0
 40
3.2
  1
記号
  7
高3.2
100
AcDbText
  0
LINE
  5
5C0
330
36
100
AcDbEntity
  8
0
100
AcDbLine
 10
1129.251631
 20
152.8885830000001
 30
0.0
 11
1127.351631
 21
149.597687
 31
0.0
  0
LINE
  5
5C1
330
36
100
AcDbEntity
  8
0
100
AcDbLine
 10
1129.251631
 20
152.8885830000001
 30
0.0
 11
1131.151631
 21
149.597687
 31
0.0
  0
LINE
  5
5C2
330
36
100
AcDbEntity
  8
0
100
AcDbLine
 10
1127.351631
 20
149.597687
 30
0.0
 11
1131.151631
 21
149.597687
 31
0.0
  0
LINE
  5
5C3
330
36
100
AcDbEntity
  8
0
100
AcDbLine
 10
1129.251631
 20
157.8885840000001
 30
0.0
 11
1127.351631
 21
154.597687
 31
0.0
  0
LINE
  5
5C4
330
36
100
AcDbEntity
  8
0
100
AcDbLine
 10
1129.251631
 20
157.8885840000001
 30
0.0
 11
1131.151631
 21
154.597687
 31
0.0
  0
LINE
  5
5C5
330
36
100
AcDbEntity
  8
0
100
AcDbLine
 10
1127.351631
 20
154.597687
 30
0.0
 11
1131.151631
 21
154.597687
 31
0.0
  0
LINE
  5
5C6
330
36
100
AcDbEntity
  8
0
 62
     3
100
AcDbLine
 10
1124.251631
 20
164.097687
 30
0.0
 11
1210.251631
 21
164.097687
 31
0.0
  0
LINE
  5
5C7
330
36
100
AcDbEntity
  8
0
 62
     3
100
AcDbLine
 10
1124.251631
 20
159.097687
 30
0.0
 11
1210.251631
 21
159.097687
 31
0.0
  0
LINE
  5
5C8
330
36
100
AcDbEntity
  8
0
 62
     7
100
AcDbLine
 10
1124.251631
 20
154.097687
 30
0.0
 11
1210.251631
 21
154.097687
 31
0.0
  0
LINE
  5
5C9
330
36
100
AcDbEntity
  8
0
 62
     3
100
AcDbLine
 10
1124.251631
 20
149.097687
 30
0.0
 11
1210.251631
 21
149.097687
 31
0.0
  0
LINE
  5
5CA
330
36
100
AcDbEntity
  8
0
 62
     7
100
AcDbLine
 10
1196.251631
 20
149.097687
 30
0.0
 11
1196.251631
 21
164.097687
 31
0.0
  0
LINE
  5
5CB
330
36
100
AcDbEntity
  8
0
 62
     7
100
AcDbLine
 10
1152.251631
 20
149.097687
 30
0.0
 11
1152.251631
 21
164.097687
 31
0.0
  0
LINE
  5
5CC
330
36
100
AcDbEntity
  8
0
 62
     7
100
AcDbLine
 10
1134.251631
 20
149.097687
 30
0.0
 11
1134.251631
 21
164.097687
 31
0.0
  0
LINE
  5
5CD
330
36
100
AcDbEntity
  8
0
 62
     3
100
AcDbLine
 10
1124.251631
 20
149.097687
 30
0.0
 11
1124.251631
 21
169.097687
 31
0.0
  0
LINE
  5
83C
330
36
100
AcDbEntity
  8
0
100
AcDbLine
 10
852.4820399999999
 20
57.818162
 30
0.0
 11
854.5520300000001
 21
57.769934
 31
0.0
  0
LINE
  5
83D
330
36
100
AcDbEntity
  8
0
100
AcDbLine
 10
854.5520300000001
 20
57.769934
 30
0.0
 11
852.78348
 21
58.84669599999998
 31
0.0
  0
LINE
  5
840
330
36
100
AcDbEntity
  8
0
100
AcDbLine
 10
845.0700019999997
 20
120.850926
 30
0.0
 11
847.118532
 21
120.549739
 31
0.0
  0
LINE
  5
841
330
36
100
AcDbEntity
  8
0
100
AcDbLine
 10
847.118532
 20
120.549739
 30
0.0
 11
845.495046
 21
121.834839
 31
0.0
  0
LINE
  5
842
330
36
100
AcDbEntity
  8
0
100
AcDbLine
 10
911.4049429999999
 20
55.73758
 30
0.0
 11
909.55203
 21
54.813513
 31
0.0
  0
LINE
  5
843
330
36
100
AcDbEntity
  8
0
100
AcDbLine
 10
909.55203
 20
54.813513
 30
0.0
 11
911.6187339999999
 21
54.68732199999998
 31
0.0
  0
LINE
  5
844
330
36
100
AcDbEntity
  8
0
100
AcDbLine
 10
905.0985269999999
 20
71.690742
 30
0.0
 11
903.3310619999999
 21
70.6122
 31
0.0
  0
LINE
  5
845
330
36
100
AcDbEntity
  8
0
100
AcDbLine
 10
903.3310619999999
 20
70.6122
 30
0.0
 11
905.4010029999997
 21
70.66251199999998
 31
0.0
  0
LINE
  5
846
330
36
100
AcDbEntity
  8
0
100
AcDbLine
 10
911.5007789999999
 20
110.553366
 30
0.0
 11
909.828745
 21
109.3321
 31
0.0
  0
LINE
  5
847
330
36
100
AcDbEntity
  8
0
100
AcDbLine
 10
909.828745
 20
109.3321
 30
0.0
 11
911.8874019999999
 21
109.55373
 31
0.0
  0
LINE
  5
848
330
36
100
AcDbEntity
  8
0
100
AcDbLine
 10
909.443364
 20
87.77821600000001
 30
0.0
 11
908.0006690000001
 21
86.293017
 31
0.0
  0
LINE
  5
849
330
36
100
AcDbEntity
  8
0
100
AcDbLine
 10
908.0006690000001
 20
86.293017
 30
0.0
 11
909.9926789999999
 21
86.85788999999996
 31
0.0
  0
LINE
  5
84A
330
36
100
AcDbEntity
  8
0
100
AcDbLine
 10
1123.828303
 20
20.604441
 30
0.0
 11
1122.630291
 21
18.915668
 31
0.0
  0
LINE
  5
84B
330
36
100
AcDbEntity
  8
0
100
AcDbLine
 10
1122.630291
 20
18.915668
 30
0.0
 11
1124.512186
 21
19.779182
 31
0.0
  0
LINE
  5
84C
330
36
100
AcDbEntity
  8
0
100
AcDbLine
 10
1184.963026
 20
105.510299
 30
0.0
 11
1183.626368
 21
103.928992
 31
0.0
  0
LINE
  5
84D
330
36
100
AcDbEntity
  8
0
100
AcDbLine
 10
1183.626368
 20
103.928992
 30
0.0
 11
1185.574601
 21
104.630115
 31
0.0
  0
LINE
  5
84E
330
36
100
AcDbEntity
  8
0
100
AcDbLine
 10
1184.239756
 20
117.573762
 30
0.0
 11
1183.253445
 21
115.753219
 31
0.0
  0
LINE
  5
84F
330
36
100
AcDbEntity
  8
0
100
AcDbLine
 10
1183.253445
 20
115.753219
 30
0.0
 11
1185.017887
 21
116.8367
 31
0.0
  0
LINE
  5
850
330
36
100
AcDbEntity
  8
0
100
AcDbLine
 10
1021.602879
 20
126.8708
 30
0.0
 11
1021.836885
 21
124.813513
 31
0.0
  0
LINE
  5
851
330
36
100
AcDbEntity
  8
0
100
AcDbLine
 10
1021.836885
 20
124.813513
 30
0.0
 11
1022.662873
 21
126.712178
 31
0.0
  0
LINE
  5
852
330
36
100
AcDbEntity
  8
0
100
AcDbLine
 10
1138.152023
 20
20.823922
 30
0.0
 11
1137.443771
 21
20.134131
 31
0.0
  0
LINE
  5
853
330
36
100
AcDbEntity
  8
0
100
AcDbLine
 10
1137.443771
 20
20.134131
 30
0.0
 11
1137.130501
 21
19.405018
 31
0.0
  0
LINE
  5
854
330
36
100
AcDbEntity
  8
0
100
AcDbLine
 10
1137.130501
 20
19.405018
 30
0.0
 11
1137.841176
 21
18.108833
 31
0.0
  0
LINE
  5
855
330
36
100
AcDbEntity
  8
0
100
AcDbLine
 10
1137.841176
 20
18.108833
 30
0.0
 11
1138.472885
 21
16.894925
 31
0.0
  0
LINE
  5
856
330
36
100
AcDbEntity
  8
0
100
AcDbLine
 10
1138.472885
 20
16.894925
 30
0.0
 11
1138.008319
 21
16.272866
 31
0.0
  0
LINE
  5
857
330
36
100
AcDbEntity
  8
0
100
AcDbLine
 10
1138.008319
 20
16.272866
 30
0.0
 11
1137.087198
 21
15.726434
 31
0.0
  0
LINE
  5
858
330
36
100
AcDbEntity
  8
0
100
AcDbLine
 10
1136.203402
 20
20.823922
 30
0.0
 11
1135.495149
 21
20.134131
 31
0.0
  0
LINE
  5
859
330
36
100
AcDbEntity
  8
0
100
AcDbLine
 10
1135.495149
 20
20.134131
 30
0.0
 11
1135.181879
 21
19.405018
 31
0.0
  0
LINE
  5
85A
330
36
100
AcDbEntity
  8
0
100
AcDbLine
 10
1135.181879
 20
19.405018
 30
0.0
 11
1135.892554
 21
18.108833
 31
0.0
  0
LINE
  5
85B
330
36
100
AcDbEntity
  8
0
100
AcDbLine
 10
1135.892554
 20
18.108833
 30
0.0
 11
1136.524263
 21
16.894925
 31
0.0
  0
LINE
  5
85C
330
36
100
AcDbEntity
  8
0
100
AcDbLine
 10
1136.524263
 20
16.894925
 30
0.0
 11
1136.059697
 21
16.272866
 31
0.0
  0
LINE
  5
85D
330
36
100
AcDbEntity
  8
0
100
AcDbLine
 10
1136.059697
 20
16.272866
 30
0.0
 11
1135.138576
 21
15.726434
 31
0.0
  0
LINE
  5
85E
330
36
100
AcDbEntity
  8
0
100
AcDbLine
 10
849.271663
 20
115.837004
 30
0.0
 11
849.28021
 21
115.711059
 31
0.0
  0
LINE
  5
85F
330
36
100
AcDbEntity
  8
0
100
AcDbLine
 10
849.28021
 20
115.711059
 30
0.0
 11
849.308105
 21
115.585895
 31
0.0
  0
LINE
  5
860
330
36
100
AcDbEntity
  8
0
100
AcDbLine
 10
849.308105
 20
115.585895
 30
0.0
 11
849.355135
 21
115.462462
 31
0.0
  0
LINE
  5
861
330
36
100
AcDbEntity
  8
0
100
AcDbLine
 10
849.355135
 20
115.462462
 30
0.0
 11
849.420942
 21
115.341702
 31
0.0
  0
LINE
  5
862
330
36
100
AcDbEntity
  8
0
100
AcDbLine
 10
849.420942
 20
115.341702
 30
0.0
 11
849.505027
 21
115.224532
 31
0.0
  0
LINE
  5
863
330
36
100
AcDbEntity
  8
0
100
AcDbLine
 10
849.505027
 20
115.224532
 30
0.0
 11
849.6067469999996
 21
115.111844
 31
0.0
  0
LINE
  5
864
330
36
100
AcDbEntity
  8
0
100
AcDbLine
 10
849.6067469999996
 20
115.111844
 30
0.0
 11
849.72533
 21
115.004497
 31
0.0
  0
LINE
  5
865
330
36
100
AcDbEntity
  8
0
100
AcDbLine
 10
849.72533
 20
115.004497
 30
0.0
 11
849.8598729999999
 21
114.903306
 31
0.0
  0
LINE
  5
866
330
36
100
AcDbEntity
  8
0
100
AcDbLine
 10
849.8598729999999
 20
114.903306
 30
0.0
 11
850.0093529999997
 21
114.809043
 31
0.0
  0
LINE
  5
867
330
36
100
AcDbEntity
  8
0
100
AcDbLine
 10
850.0093529999997
 20
114.809043
 30
0.0
 11
850.1726299999997
 21
114.722425
 31
0.0
  0
LINE
  5
868
330
36
100
AcDbEntity
  8
0
100
AcDbLine
 10
850.1726299999997
 20
114.722425
 30
0.0
 11
850.348463
 21
114.64411
 31
0.0
  0
LINE
  5
869
330
36
100
AcDbEntity
  8
0
100
AcDbLine
 10
850.348463
 20
114.64411
 30
0.0
 11
850.535514
 21
114.574696
 31
0.0
  0
LINE
  5
86A
330
36
100
AcDbEntity
  8
0
100
AcDbLine
 10
850.535514
 20
114.574696
 30
0.0
 11
850.732359
 21
114.514709
 31
0.0
  0
LINE
  5
86B
330
36
100
AcDbEntity
  8
0
100
AcDbLine
 10
850.732359
 20
114.514709
 30
0.0
 11
850.9374989999999
 21
114.464607
 31
0.0
  0
LINE
  5
86C
330
36
100
AcDbEntity
  8
0
100
AcDbLine
 10
850.9374989999999
 20
114.464607
 30
0.0
 11
851.1493749999997
 21
114.424771
 31
0.0
  0
LINE
  5
86D
330
36
100
AcDbEntity
  8
0
100
AcDbLine
 10
851.1493749999997
 20
114.424771
 30
0.0
 11
851.366372
 21
114.395505
 31
0.0
  0
LINE
  5
86E
330
36
100
AcDbEntity
  8
0
100
AcDbLine
 10
851.366372
 20
114.395505
 30
0.0
 11
851.58684
 21
114.37703
 31
0.0
  0
LINE
  5
86F
330
36
100
AcDbEntity
  8
0
100
AcDbLine
 10
851.58684
 20
114.37703
 30
0.0
 11
851.8091009999999
 21
114.369487
 31
0.0
  0
LINE
  5
870
330
36
100
AcDbEntity
  8
0
100
AcDbLine
 10
851.8091009999999
 20
114.369487
 30
0.0
 11
852.0314629999997
 21
114.372935
 31
0.0
  0
LINE
  5
871
330
36
100
AcDbEntity
  8
0
100
AcDbLine
 10
852.0314629999997
 20
114.372935
 30
0.0
 11
852.252234
 21
114.387346
 31
0.0
  0
LINE
  5
872
330
36
100
AcDbEntity
  8
0
100
AcDbLine
 10
852.252234
 20
114.387346
 30
0.0
 11
852.469733
 21
114.412611
 31
0.0
  0
LINE
  5
873
330
36
100
AcDbEntity
  8
0
100
AcDbLine
 10
852.469733
 20
114.412611
 30
0.0
 11
852.6823059999996
 21
114.448538
 31
0.0
  0
LINE
  5
874
330
36
100
AcDbEntity
  8
0
100
AcDbLine
 10
852.6823059999996
 20
114.448538
 30
0.0
 11
852.8883349999999
 21
114.494854
 31
0.0
  0
LINE
  5
875
330
36
100
AcDbEntity
  8
0
100
AcDbLine
 10
852.8883349999999
 20
114.494854
 30
0.0
 11
853.086251
 21
114.551205
 31
0.0
  0
LINE
  5
876
330
36
100
AcDbEntity
  8
0
100
AcDbLine
 10
853.086251
 20
114.551205
 30
0.0
 11
853.2745489999996
 21
114.617163
 31
0.0
  0
LINE
  5
877
330
36
100
AcDbEntity
  8
0
100
AcDbLine
 10
853.2745489999996
 20
114.617163
 30
0.0
 11
853.4517939999997
 21
114.692225
 31
0.0
  0
LINE
  5
878
330
36
100
AcDbEntity
  8
0
100
AcDbLine
 10
853.4517939999997
 20
114.692225
 30
0.0
 11
853.61664
 21
114.775822
 31
0.0
  0
LINE
  5
879
330
36
100
AcDbEntity
  8
0
100
AcDbLine
 10
853.61664
 20
114.775822
 30
0.0
 11
853.7678289999997
 21
114.867316
 31
0.0
  0
LINE
  5
87A
330
36
100
AcDbEntity
  8
0
100
AcDbLine
 10
853.7678289999997
 20
114.867316
 30
0.0
 11
853.904213
 21
114.966011
 31
0.0
  0
LINE
  5
87B
330
36
100
AcDbEntity
  8
0
100
AcDbLine
 10
853.904213
 20
114.966011
 30
0.0
 11
854.024753
 21
115.071156
 31
0.0
  0
LINE
  5
87C
330
36
100
AcDbEntity
  8
0
100
AcDbLine
 10
854.024753
 20
115.071156
 30
0.0
 11
854.128532
 21
115.181951
 31
0.0
  0
LINE
  5
87D
330
36
100
AcDbEntity
  8
0
100
AcDbLine
 10
854.128532
 20
115.181951
 30
0.0
 11
854.2147599999998
 21
115.297553
 31
0.0
  0
LINE
  5
87E
330
36
100
AcDbEntity
  8
0
100
AcDbLine
 10
854.2147599999998
 20
115.297553
 30
0.0
 11
854.282781
 21
115.417081
 31
0.0
  0
LINE
  5
87F
330
36
100
AcDbEntity
  8
0
100
AcDbLine
 10
854.282781
 20
115.417081
 30
0.0
 11
854.332076
 21
115.539626
 31
0.0
  0
LINE
  5
880
330
36
100
AcDbEntity
  8
0
100
AcDbLine
 10
854.332076
 20
115.539626
 30
0.0
 11
854.3622710000002
 21
115.664256
 31
0.0
  0
LINE
  5
881
330
36
100
AcDbEntity
  8
0
100
AcDbLine
 10
854.3622710000002
 20
115.664256
 30
0.0
 11
854.3731369999997
 21
115.790022
 31
0.0
  0
LINE
  5
882
330
36
100
AcDbEntity
  8
0
100
AcDbLine
 10
854.3731369999997
 20
115.790022
 30
0.0
 11
854.3645899999997
 21
115.915966
 31
0.0
  0
LINE
  5
883
330
36
100
AcDbEntity
  8
0
100
AcDbLine
 10
854.3645899999997
 20
115.915966
 30
0.0
 11
854.3366949999999
 21
116.041131
 31
0.0
  0
LINE
  5
884
330
36
100
AcDbEntity
  8
0
100
AcDbLine
 10
854.3366949999999
 20
116.041131
 30
0.0
 11
854.289664
 21
116.164564
 31
0.0
  0
LINE
  5
885
330
36
100
AcDbEntity
  8
0
100
AcDbLine
 10
854.289664
 20
116.164564
 30
0.0
 11
854.223857
 21
116.285324
 31
0.0
  0
LINE
  5
886
330
36
100
AcDbEntity
  8
0
100
AcDbLine
 10
854.223857
 20
116.285324
 30
0.0
 11
854.1397729999996
 21
116.402494
 31
0.0
  0
LINE
  5
887
330
36
100
AcDbEntity
  8
0
100
AcDbLine
 10
854.1397729999996
 20
116.402494
 30
0.0
 11
854.0380519999999
 21
116.515182
 31
0.0
  0
LINE
  5
888
330
36
100
AcDbEntity
  8
0
100
AcDbLine
 10
854.0380519999999
 20
116.515182
 30
0.0
 11
853.919469
 21
116.622529
 31
0.0
  0
LINE
  5
889
330
36
100
AcDbEntity
  8
0
100
AcDbLine
 10
853.919469
 20
116.622529
 30
0.0
 11
853.7849259999997
 21
116.723719
 31
0.0
  0
LINE
  5
88A
330
36
100
AcDbEntity
  8
0
100
AcDbLine
 10
853.7849259999997
 20
116.723719
 30
0.0
 11
853.635447
 21
116.817982
 31
0.0
  0
LINE
  5
88B
330
36
100
AcDbEntity
  8
0
100
AcDbLine
 10
853.635447
 20
116.817982
 30
0.0
 11
853.4721689999999
 21
116.904601
 31
0.0
  0
LINE
  5
88C
330
36
100
AcDbEntity
  8
0
100
AcDbLine
 10
853.4721689999999
 20
116.904601
 30
0.0
 11
853.296336
 21
116.982915
 31
0.0
  0
LINE
  5
88D
330
36
100
AcDbEntity
  8
0
100
AcDbLine
 10
853.296336
 20
116.982915
 30
0.0
 11
853.109285
 21
117.05233
 31
0.0
  0
LINE
  5
88E
330
36
100
AcDbEntity
  8
0
100
AcDbLine
 10
853.109285
 20
117.05233
 30
0.0
 11
852.9124410000001
 21
117.112317
 31
0.0
  0
LINE
  5
88F
330
36
100
AcDbEntity
  8
0
100
AcDbLine
 10
852.9124410000001
 20
117.112317
 30
0.0
 11
852.7072999999997
 21
117.162419
 31
0.0
  0
LINE
  5
890
330
36
100
AcDbEntity
  8
0
100
AcDbLine
 10
852.7072999999997
 20
117.162419
 30
0.0
 11
852.495425
 21
117.202255
 31
0.0
  0
LINE
  5
891
330
36
100
AcDbEntity
  8
0
100
AcDbLine
 10
852.495425
 20
117.202255
 30
0.0
 11
852.2784269999997
 21
117.231521
 31
0.0
  0
LINE
  5
892
330
36
100
AcDbEntity
  8
0
100
AcDbLine
 10
852.2784269999997
 20
117.231521
 30
0.0
 11
852.057959
 21
117.249996
 31
0.0
  0
LINE
  5
893
330
36
100
AcDbEntity
  8
0
100
AcDbLine
 10
852.057959
 20
117.249996
 30
0.0
 11
851.8356980000001
 21
117.257538
 31
0.0
  0
LINE
  5
894
330
36
100
AcDbEntity
  8
0
100
AcDbLine
 10
851.8356980000001
 20
117.257538
 30
0.0
 11
851.6133359999999
 21
117.254091
 31
0.0
  0
LINE
  5
895
330
36
100
AcDbEntity
  8
0
100
AcDbLine
 10
851.6133359999999
 20
117.254091
 30
0.0
 11
851.3925659999996
 21
117.23968
 31
0.0
  0
LINE
  5
896
330
36
100
AcDbEntity
  8
0
100
AcDbLine
 10
851.3925659999996
 20
117.23968
 30
0.0
 11
851.175066
 21
117.214414
 31
0.0
  0
LINE
  5
897
330
36
100
AcDbEntity
  8
0
100
AcDbLine
 10
851.175066
 20
117.214414
 30
0.0
 11
850.9624929999999
 21
117.178487
 31
0.0
  0
LINE
  5
898
330
36
100
AcDbEntity
  8
0
100
AcDbLine
 10
850.9624929999999
 20
117.178487
 30
0.0
 11
850.756464
 21
117.132172
 31
0.0
  0
LINE
  5
899
330
36
100
AcDbEntity
  8
0
100
AcDbLine
 10
850.756464
 20
117.132172
 30
0.0
 11
850.558548
 21
117.075821
 31
0.0
  0
LINE
  5
89A
330
36
100
AcDbEntity
  8
0
100
AcDbLine
 10
850.558548
 20
117.075821
 30
0.0
 11
850.370251
 21
117.009863
 31
0.0
  0
LINE
  5
89B
330
36
100
AcDbEntity
  8
0
100
AcDbLine
 10
850.370251
 20
117.009863
 30
0.0
 11
850.193005
 21
116.9348
 31
0.0
  0
LINE
  5
89C
330
36
100
AcDbEntity
  8
0
100
AcDbLine
 10
850.193005
 20
116.9348
 30
0.0
 11
850.0281599999999
 21
116.851204
 31
0.0
  0
LINE
  5
89D
330
36
100
AcDbEntity
  8
0
100
AcDbLine
 10
850.0281599999999
 20
116.851204
 30
0.0
 11
849.8769699999996
 21
116.75971
 31
0.0
  0
LINE
  5
89E
330
36
100
AcDbEntity
  8
0
100
AcDbLine
 10
849.8769699999996
 20
116.75971
 30
0.0
 11
849.7405859999997
 21
116.661015
 31
0.0
  0
LINE
  5
89F
330
36
100
AcDbEntity
  8
0
100
AcDbLine
 10
849.7405859999997
 20
116.661015
 30
0.0
 11
849.620046
 21
116.55587
 31
0.0
  0
LINE
  5
8A0
330
36
100
AcDbEntity
  8
0
100
AcDbLine
 10
849.620046
 20
116.55587
 30
0.0
 11
849.5162669999999
 21
116.445075
 31
0.0
  0
LINE
  5
8A1
330
36
100
AcDbEntity
  8
0
100
AcDbLine
 10
849.5162669999999
 20
116.445075
 30
0.0
 11
849.4300390000002
 21
116.329473
 31
0.0
  0
LINE
  5
8A2
330
36
100
AcDbEntity
  8
0
100
AcDbLine
 10
849.4300390000002
 20
116.329473
 30
0.0
 11
849.3620189999997
 21
116.209945
 31
0.0
  0
LINE
  5
8A3
330
36
100
AcDbEntity
  8
0
100
AcDbLine
 10
849.3620189999997
 20
116.209945
 30
0.0
 11
849.312723
 21
116.0874
 31
0.0
  0
LINE
  5
8A4
330
36
100
AcDbEntity
  8
0
100
AcDbLine
 10
849.312723
 20
116.0874
 30
0.0
 11
849.2825279999998
 21
115.96277
 31
0.0
  0
LINE
  5
8A5
330
36
100
AcDbEntity
  8
0
100
AcDbLine
 10
849.2825279999998
 20
115.96277
 30
0.0
 11
849.271663
 21
115.837004
 31
0.0
  0
LINE
  5
8A6
330
36
100
AcDbEntity
  8
0
100
AcDbLine
 10
863.0829079999998
 20
54.87225600000001
 30
0.0
 11
862.3166949999996
 21
55.971559
 31
0.0
  0
LINE
  5
8A7
330
36
100
AcDbEntity
  8
0
100
AcDbLine
 10
862.3166949999996
 20
55.971559
 30
0.0
 11
861.5504819999996
 21
56.471242
 31
0.0
  0
LINE
  5
8A8
330
36
100
AcDbEntity
  8
0
100
AcDbLine
 10
861.5504819999996
 20
56.471242
 30
0.0
 11
860.7842699999999
 21
55.971559
 31
0.0
  0
LINE
  5
8A9
330
36
100
AcDbEntity
  8
0
100
AcDbLine
 10
860.7842699999999
 20
55.971559
 30
0.0
 11
860.018057
 21
54.87225600000001
 31
0.0
  0
LINE
  5
8AA
330
36
100
AcDbEntity
  8
0
100
AcDbLine
 10
863.0829079999998
 20
76.372256
 30
0.0
 11
862.3166949999996
 21
77.471559
 31
0.0
  0
LINE
  5
8AB
330
36
100
AcDbEntity
  8
0
100
AcDbLine
 10
862.3166949999996
 20
77.471559
 30
0.0
 11
861.5504819999996
 21
77.971242
 31
0.0
  0
LINE
  5
8AC
330
36
100
AcDbEntity
  8
0
100
AcDbLine
 10
861.5504819999996
 20
77.971242
 30
0.0
 11
860.7842699999999
 21
77.471559
 31
0.0
  0
LINE
  5
8AD
330
36
100
AcDbEntity
  8
0
100
AcDbLine
 10
860.7842699999999
 20
77.471559
 30
0.0
 11
860.018057
 21
76.372256
 31
0.0
  0
LINE
  5
8AE
330
36
100
AcDbEntity
  8
0
100
AcDbLine
 10
905.955113
 20
107.985597
 30
0.0
 11
905.8089719999999
 21
108.084782
 31
0.0
  0
LINE
  5
8AF
330
36
100
AcDbEntity
  8
0
100
AcDbLine
 10
905.8089719999999
 20
108.084782
 30
0.0
 11
905.661618
 21
108.182109
 31
0.0
  0
LINE
  5
8B0
330
36
100
AcDbEntity
  8
0
100
AcDbLine
 10
905.661618
 20
108.182109
 30
0.0
 11
905.511614
 21
108.276411
 31
0.0
  0
LINE
  5
8B1
330
36
100
AcDbEntity
  8
0
100
AcDbLine
 10
905.511614
 20
108.276411
 30
0.0
 11
905.359581
 21
108.367446
 31
0.0
  0
LINE
  5
8B2
330
36
100
AcDbEntity
  8
0
100
AcDbLine
 10
905.359581
 20
108.367446
 30
0.0
 11
905.2053439999999
 21
108.455869
 31
0.0
  0
LINE
  5
8B3
330
36
100
AcDbEntity
  8
0
100
AcDbLine
 10
905.2053439999999
 20
108.455869
 30
0.0
 11
905.0494519999999
 21
108.541319
 31
0.0
  0
LINE
  5
8B4
330
36
100
AcDbEntity
  8
0
100
AcDbLine
 10
905.0494519999999
 20
108.541319
 30
0.0
 11
904.8913699999999
 21
108.623941
 31
0.0
  0
LINE
  5
8B5
330
36
100
AcDbEntity
  8
0
100
AcDbLine
 10
904.8913699999999
 20
108.623941
 30
0.0
 11
904.7316869999999
 21
108.703438
 31
0.0
  0
LINE
  5
8B6
330
36
100
AcDbEntity
  8
0
100
AcDbLine
 10
904.7316869999999
 20
108.703438
 30
0.0
 11
904.5699479999999
 21
108.780071
 31
0.0
  0
LINE
  5
8B7
330
36
100
AcDbEntity
  8
0
100
AcDbLine
 10
904.5699479999999
 20
108.780071
 30
0.0
 11
904.406739
 21
108.853512
 31
0.0
  0
LINE
  5
8B8
330
36
100
AcDbEntity
  8
0
100
AcDbLine
 10
904.406739
 20
108.853512
 30
0.0
 11
904.241559
 21
108.923957
 31
0.0
  0
LINE
  5
8B9
330
36
100
AcDbEntity
  8
0
100
AcDbLine
 10
904.241559
 20
108.923957
 30
0.0
 11
904.0750609999999
 21
108.991252
 31
0.0
  0
LINE
  5
8BA
330
36
100
AcDbEntity
  8
0
100
AcDbLine
 10
904.0750609999999
 20
108.991252
 30
0.0
 11
903.9067450000001
 21
109.055624
 31
0.0
  0
LINE
  5
8BB
330
36
100
AcDbEntity
  8
0
100
AcDbLine
 10
903.9067450000001
 20
109.055624
 30
0.0
 11
903.737107
 21
109.116366
 31
0.0
  0
LINE
  5
8BC
330
36
100
AcDbEntity
  8
0
100
AcDbLine
 10
903.737107
 20
109.116366
 30
0.0
 11
903.5655789999999
 21
109.173528
 31
0.0
  0
LINE
  5
8BD
330
36
100
AcDbEntity
  8
0
100
AcDbLine
 10
903.5655789999999
 20
109.173528
 30
0.0
 11
903.3933299999999
 21
109.228565
 31
0.0
  0
LINE
  5
8BE
330
36
100
AcDbEntity
  8
0
100
AcDbLine
 10
903.3298659999999
 20
109.248688
 30
0.0
 11
902.0266410000001
 21
109.504689
 31
0.0
  0
LINE
  5
8BF
330
36
100
AcDbEntity
  8
0
100
AcDbLine
 10
902.0266410000001
 20
109.504689
 30
0.0
 11
900.7348030000001
 21
109.620185
 31
0.0
  0
LINE
  5
8C0
330
36
100
AcDbEntity
  8
0
100
AcDbLine
 10
900.7348030000001
 20
109.620185
 30
0.0
 11
898.101821
 21
109.107648
 31
0.0
  0
LINE
  5
8C1
330
36
100
AcDbEntity
  8
0
100
AcDbLine
 10
898.101821
 20
109.107648
 30
0.0
 11
895.5183630000002
 21
107.984049
 31
0.0
  0
LINE
  5
8C2
330
36
100
AcDbEntity
  8
0
100
AcDbLine
 10
895.5183630000002
 20
107.984049
 30
0.0
 11
895.5176269999999
 21
107.983494
 31
0.0
  0
LINE
  5
8C3
330
36
100
AcDbEntity
  8
0
100
AcDbLine
 10
895.5176269999999
 20
107.983494
 30
0.0
 11
895.516879
 21
107.982955
 31
0.0
  0
LINE
  5
8C4
330
36
100
AcDbEntity
  8
0
100
AcDbLine
 10
895.516879
 20
107.982955
 30
0.0
 11
895.5161180000001
 21
107.98245
 31
0.0
  0
LINE
  5
8C5
330
36
100
AcDbEntity
  8
0
100
AcDbLine
 10
895.5161180000001
 20
107.98245
 30
0.0
 11
895.51534
 21
107.981969
 31
0.0
  0
LINE
  5
8C6
330
36
100
AcDbEntity
  8
0
100
AcDbLine
 10
895.51534
 20
107.981969
 30
0.0
 11
895.5145560000001
 21
107.981507
 31
0.0
  0
LINE
  5
8C7
330
36
100
AcDbEntity
  8
0
100
AcDbLine
 10
895.5145560000001
 20
107.981507
 30
0.0
 11
895.5137650000001
 21
107.981056
 31
0.0
  0
LINE
  5
8C8
330
36
100
AcDbEntity
  8
0
100
AcDbLine
 10
895.5137650000001
 20
107.981056
 30
0.0
 11
895.5129699999996
 21
107.980616
 31
0.0
  0
LINE
  5
8C9
330
36
100
AcDbEntity
  8
0
100
AcDbLine
 10
895.5129699999996
 20
107.980616
 30
0.0
 11
895.5121720000002
 21
107.98018
 31
0.0
  0
LINE
  5
8CA
330
36
100
AcDbEntity
  8
0
100
AcDbLine
 10
895.5121720000002
 20
107.98018
 30
0.0
 11
895.5113739999998
 21
107.979744
 31
0.0
  0
LINE
  5
8CB
330
36
100
AcDbEntity
  8
0
100
AcDbLine
 10
895.5113739999998
 20
107.979744
 30
0.0
 11
895.5105789999999
 21
107.979303
 31
0.0
  0
LINE
  5
8CC
330
36
100
AcDbEntity
  8
0
100
AcDbLine
 10
895.5105789999999
 20
107.979303
 30
0.0
 11
895.5097869999999
 21
107.978853
 31
0.0
  0
LINE
  5
8CD
330
36
100
AcDbEntity
  8
0
100
AcDbLine
 10
895.5097869999999
 20
107.978853
 30
0.0
 11
895.5090029999999
 21
107.97839
 31
0.0
  0
LINE
  5
8CE
330
36
100
AcDbEntity
  8
0
100
AcDbLine
 10
895.5090029999999
 20
107.97839
 30
0.0
 11
895.5082259999997
 21
107.977909
 31
0.0
  0
LINE
  5
8CF
330
36
100
AcDbEntity
  8
0
100
AcDbLine
 10
895.5082259999997
 20
107.977909
 30
0.0
 11
895.507465
 21
107.977404
 31
0.0
  0
LINE
  5
8D0
330
36
100
AcDbEntity
  8
0
100
AcDbLine
 10
895.507465
 20
107.977404
 30
0.0
 11
895.506716
 21
107.976865
 31
0.0
  0
LINE
  5
8D1
330
36
100
AcDbEntity
  8
0
100
AcDbLine
 10
895.506716
 20
107.976865
 30
0.0
 11
895.50598
 21
107.97631
 31
0.0
  0
LINE
  5
8D2
330
36
100
AcDbEntity
  8
0
100
AcDbLine
 10
899.100989
 20
70.1979
 30
0.0
 11
899.10925
 21
70.019152
 31
0.0
  0
LINE
  5
8D3
330
36
100
AcDbEntity
  8
0
100
AcDbLine
 10
899.10925
 20
70.019152
 30
0.0
 11
899.1337119999997
 21
69.84177599999999
 31
0.0
  0
LINE
  5
8D4
330
36
100
AcDbEntity
  8
0
100
AcDbLine
 10
899.1337119999997
 20
69.84177599999999
 30
0.0
 11
899.174187
 21
69.66712199999999
 31
0.0
  0
LINE
  5
8D5
330
36
100
AcDbEntity
  8
0
100
AcDbLine
 10
899.174187
 20
69.66712199999999
 30
0.0
 11
899.230367
 21
69.49651899999999
 31
0.0
  0
LINE
  5
8D6
330
36
100
AcDbEntity
  8
0
100
AcDbLine
 10
899.230367
 20
69.49651899999999
 30
0.0
 11
899.301827
 21
69.33126700000001
 31
0.0
  0
LINE
  5
8D7
330
36
100
AcDbEntity
  8
0
100
AcDbLine
 10
899.301827
 20
69.33126700000001
 30
0.0
 11
899.3880199999999
 21
69.17262099999999
 31
0.0
  0
LINE
  5
8D8
330
36
100
AcDbEntity
  8
0
100
AcDbLine
 10
899.3880199999999
 20
69.17262099999999
 30
0.0
 11
899.4882930000001
 21
69.02179
 31
0.0
  0
LINE
  5
8D9
330
36
100
AcDbEntity
  8
0
100
AcDbLine
 10
899.4882930000001
 20
69.02179
 30
0.0
 11
899.6018799999998
 21
68.87992199999999
 31
0.0
  0
LINE
  5
8DA
330
36
100
AcDbEntity
  8
0
100
AcDbLine
 10
899.6018799999998
 20
68.87992199999999
 30
0.0
 11
899.7279189999996
 21
68.74809599999998
 31
0.0
  0
LINE
  5
8DB
330
36
100
AcDbEntity
  8
0
100
AcDbLine
 10
899.7279189999996
 20
68.74809599999998
 30
0.0
 11
899.8654489999999
 21
68.627316
 31
0.0
  0
LINE
  5
8DC
330
36
100
AcDbEntity
  8
0
100
AcDbLine
 10
899.8654489999999
 20
68.627316
 30
0.0
 11
900.0134239999999
 21
68.518501
 31
0.0
  0
LINE
  5
8DD
330
36
100
AcDbEntity
  8
0
100
AcDbLine
 10
900.0134239999999
 20
68.518501
 30
0.0
 11
900.170718
 21
68.42247900000001
 31
0.0
  0
LINE
  5
8DE
330
36
100
AcDbEntity
  8
0
100
AcDbLine
 10
900.170718
 20
68.42247900000001
 30
0.0
 11
900.336133
 21
68.33998100000001
 31
0.0
  0
LINE
  5
8DF
330
36
100
AcDbEntity
  8
0
100
AcDbLine
 10
900.336133
 20
68.33998100000001
 30
0.0
 11
900.5084109999996
 21
68.27163399999999
 31
0.0
  0
LINE
  5
8E0
330
36
100
AcDbEntity
  8
0
100
AcDbLine
 10
900.5084109999996
 20
68.27163399999999
 30
0.0
 11
900.686241
 21
68.21795899999999
 31
0.0
  0
LINE
  5
8E1
330
36
100
AcDbEntity
  8
0
100
AcDbLine
 10
900.686241
 20
68.21795899999999
 30
0.0
 11
900.8682700000001
 21
68.179365
 31
0.0
  0
LINE
  5
8E2
330
36
100
AcDbEntity
  8
0
100
AcDbLine
 10
900.8682700000001
 20
68.179365
 30
0.0
 11
901.053111
 21
68.156144
 31
0.0
  0
LINE
  5
8E3
330
36
100
AcDbEntity
  8
0
100
AcDbLine
 10
901.053111
 20
68.156144
 30
0.0
 11
901.2393580000001
 21
68.148475
 31
0.0
  0
LINE
  5
8E4
330
36
100
AcDbEntity
  8
0
100
AcDbLine
 10
901.2393580000001
 20
68.148475
 30
0.0
 11
901.4255939999999
 21
68.156414
 31
0.0
  0
LINE
  5
8E5
330
36
100
AcDbEntity
  8
0
100
AcDbLine
 10
901.4255939999999
 20
68.156414
 30
0.0
 11
901.6104010000001
 21
68.179902
 31
0.0
  0
LINE
  5
8E6
330
36
100
AcDbEntity
  8
0
100
AcDbLine
 10
901.6104010000001
 20
68.179902
 30
0.0
 11
901.7923729999999
 21
68.218761
 31
0.0
  0
LINE
  5
8E7
330
36
100
AcDbEntity
  8
0
100
AcDbLine
 10
901.7923729999999
 20
68.218761
 30
0.0
 11
901.970125
 21
68.27269300000001
 31
0.0
  0
LINE
  5
8E8
330
36
100
AcDbEntity
  8
0
100
AcDbLine
 10
901.970125
 20
68.27269300000001
 30
0.0
 11
902.142305
 21
68.341289
 31
0.0
  0
LINE
  5
8E9
330
36
100
AcDbEntity
  8
0
100
AcDbLine
 10
902.142305
 20
68.341289
 30
0.0
 11
902.3075999999999
 21
68.424027
 31
0.0
  0
LINE
  5
8EA
330
36
100
AcDbEntity
  8
0
100
AcDbLine
 10
902.3075999999999
 20
68.424027
 30
0.0
 11
902.464755
 21
68.520277
 31
0.0
  0
LINE
  5
8EB
330
36
100
AcDbEntity
  8
0
100
AcDbLine
 10
902.464755
 20
68.520277
 30
0.0
 11
902.6125719999999
 21
68.629306
 31
0.0
  0
LINE
  5
8EC
330
36
100
AcDbEntity
  8
0
100
AcDbLine
 10
902.6125719999999
 20
68.629306
 30
0.0
 11
902.7499269999999
 21
68.750286
 31
0.0
  0
LINE
  5
8ED
330
36
100
AcDbEntity
  8
0
100
AcDbLine
 10
902.7499269999999
 20
68.750286
 30
0.0
 11
902.875775
 21
68.88229399999999
 31
0.0
  0
LINE
  5
8EE
330
36
100
AcDbEntity
  8
0
100
AcDbLine
 10
902.875775
 20
68.88229399999999
 30
0.0
 11
902.9891559999999
 21
69.024326
 31
0.0
  0
LINE
  5
8EF
330
36
100
AcDbEntity
  8
0
100
AcDbLine
 10
902.9891559999999
 20
69.024326
 30
0.0
 11
903.08921
 21
69.175302
 31
0.0
  0
LINE
  5
8F0
330
36
100
AcDbEntity
  8
0
100
AcDbLine
 10
903.08921
 20
69.175302
 30
0.0
 11
903.175174
 21
69.33407199999999
 31
0.0
  0
LINE
  5
8F1
330
36
100
AcDbEntity
  8
0
100
AcDbLine
 10
903.175174
 20
69.33407199999999
 30
0.0
 11
903.246393
 21
69.499429
 31
0.0
  0
LINE
  5
8F2
330
36
100
AcDbEntity
  8
0
100
AcDbLine
 10
903.246393
 20
69.499429
 30
0.0
 11
903.3023269999999
 21
69.670112
 31
0.0
  0
LINE
  5
8F3
330
36
100
AcDbEntity
  8
0
100
AcDbLine
 10
903.3023269999999
 20
69.670112
 30
0.0
 11
903.342549
 21
69.844825
 31
0.0
  0
LINE
  5
8F4
330
36
100
AcDbEntity
  8
0
100
AcDbLine
 10
903.342549
 20
69.844825
 30
0.0
 11
903.3667529999997
 21
70.02223599999999
 31
0.0
  0
LINE
  5
8F5
330
36
100
AcDbEntity
  8
0
100
AcDbLine
 10
903.3667529999997
 20
70.02223599999999
 30
0.0
 11
903.3747550000001
 21
70.20099599999999
 31
0.0
  0
LINE
  5
8F6
330
36
100
AcDbEntity
  8
0
100
AcDbLine
 10
903.3747550000001
 20
70.20099599999999
 30
0.0
 11
903.3664939999999
 21
70.37974399999997
 31
0.0
  0
LINE
  5
8F7
330
36
100
AcDbEntity
  8
0
100
AcDbLine
 10
903.3664939999999
 20
70.37974399999997
 30
0.0
 11
903.342033
 21
70.557121
 31
0.0
  0
LINE
  5
8F8
330
36
100
AcDbEntity
  8
0
100
AcDbLine
 10
903.342033
 20
70.557121
 30
0.0
 11
903.301558
 21
70.73177499999999
 31
0.0
  0
LINE
  5
8F9
330
36
100
AcDbEntity
  8
0
100
AcDbLine
 10
903.301558
 20
70.73177499999999
 30
0.0
 11
903.245377
 21
70.902377
 31
0.0
  0
LINE
  5
8FA
330
36
100
AcDbEntity
  8
0
100
AcDbLine
 10
903.245377
 20
70.902377
 30
0.0
 11
903.173918
 21
71.06763
 31
0.0
  0
LINE
  5
8FB
330
36
100
AcDbEntity
  8
0
100
AcDbLine
 10
903.173918
 20
71.06763
 30
0.0
 11
903.087724
 21
71.226276
 31
0.0
  0
LINE
  5
8FC
330
36
100
AcDbEntity
  8
0
100
AcDbLine
 10
903.087724
 20
71.226276
 30
0.0
 11
902.9874519999999
 21
71.37710600000002
 31
0.0
  0
LINE
  5
8FD
330
36
100
AcDbEntity
  8
0
100
AcDbLine
 10
902.9874519999999
 20
71.37710600000002
 30
0.0
 11
902.8738650000001
 21
71.518974
 31
0.0
  0
LINE
  5
8FE
330
36
100
AcDbEntity
  8
0
100
AcDbLine
 10
902.8738650000001
 20
71.518974
 30
0.0
 11
902.747826
 21
71.6508
 31
0.0
  0
LINE
  5
8FF
330
36
100
AcDbEntity
  8
0
100
AcDbLine
 10
902.747826
 20
71.6508
 30
0.0
 11
902.6102959999999
 21
71.77158
 31
0.0
  0
LINE
  5
900
330
36
100
AcDbEntity
  8
0
100
AcDbLine
 10
902.6102959999999
 20
71.77158
 30
0.0
 11
902.4623209999999
 21
71.88039499999998
 31
0.0
  0
LINE
  5
901
330
36
100
AcDbEntity
  8
0
100
AcDbLine
 10
902.4623209999999
 20
71.88039499999998
 30
0.0
 11
902.305027
 21
71.976417
 31
0.0
  0
LINE
  5
902
330
36
100
AcDbEntity
  8
0
100
AcDbLine
 10
902.305027
 20
71.976417
 30
0.0
 11
902.139612
 21
72.058916
 31
0.0
  0
LINE
  5
903
330
36
100
AcDbEntity
  8
0
100
AcDbLine
 10
902.139612
 20
72.058916
 30
0.0
 11
901.9673330000001
 21
72.127262
 31
0.0
  0
LINE
  5
904
330
36
100
AcDbEntity
  8
0
100
AcDbLine
 10
901.9673330000001
 20
72.127262
 30
0.0
 11
901.789503
 21
72.180937
 31
0.0
  0
LINE
  5
905
330
36
100
AcDbEntity
  8
0
100
AcDbLine
 10
901.789503
 20
72.180937
 30
0.0
 11
901.6074749999999
 21
72.219532
 31
0.0
  0
LINE
  5
906
330
36
100
AcDbEntity
  8
0
100
AcDbLine
 10
901.6074749999999
 20
72.219532
 30
0.0
 11
901.422634
 21
72.242752
 31
0.0
  0
LINE
  5
907
330
36
100
AcDbEntity
  8
0
100
AcDbLine
 10
901.422634
 20
72.242752
 30
0.0
 11
901.2363869999999
 21
72.250422
 31
0.0
  0
LINE
  5
908
330
36
100
AcDbEntity
  8
0
100
AcDbLine
 10
901.2363869999999
 20
72.250422
 30
0.0
 11
901.050151
 21
72.24248199999998
 31
0.0
  0
LINE
  5
909
330
36
100
AcDbEntity
  8
0
100
AcDbLine
 10
901.050151
 20
72.24248199999998
 30
0.0
 11
900.8653429999997
 21
72.21899399999998
 31
0.0
  0
LINE
  5
90A
330
36
100
AcDbEntity
  8
0
100
AcDbLine
 10
900.8653429999997
 20
72.21899399999998
 30
0.0
 11
900.683371
 21
72.180136
 31
0.0
  0
LINE
  5
90B
330
36
100
AcDbEntity
  8
0
100
AcDbLine
 10
900.683371
 20
72.180136
 30
0.0
 11
900.5056189999997
 21
72.126204
 31
0.0
  0
LINE
  5
90C
330
36
100
AcDbEntity
  8
0
100
AcDbLine
 10
900.5056189999997
 20
72.126204
 30
0.0
 11
900.3334399999996
 21
72.05760699999998
 31
0.0
  0
LINE
  5
90D
330
36
100
AcDbEntity
  8
0
100
AcDbLine
 10
900.3334399999996
 20
72.05760699999998
 30
0.0
 11
900.168144
 21
71.97486999999998
 31
0.0
  0
LINE
  5
90E
330
36
100
AcDbEntity
  8
0
100
AcDbLine
 10
900.168144
 20
71.97486999999998
 30
0.0
 11
900.0109899999996
 21
71.87861999999999
 31
0.0
  0
LINE
  5
90F
330
36
100
AcDbEntity
  8
0
100
AcDbLine
 10
900.0109899999996
 20
71.87861999999999
 30
0.0
 11
899.863172
 21
71.76959
 31
0.0
  0
LINE
  5
910
330
36
100
AcDbEntity
  8
0
100
AcDbLine
 10
899.863172
 20
71.76959
 30
0.0
 11
899.725817
 21
71.648611
 31
0.0
  0
LINE
  5
911
330
36
100
AcDbEntity
  8
0
100
AcDbLine
 10
899.725817
 20
71.648611
 30
0.0
 11
899.5999699999996
 21
71.516603
 31
0.0
  0
LINE
  5
912
330
36
100
AcDbEntity
  8
0
100
AcDbLine
 10
899.5999699999996
 20
71.516603
 30
0.0
 11
899.486588
 21
71.37456999999997
 31
0.0
  0
LINE
  5
913
330
36
100
AcDbEntity
  8
0
100
AcDbLine
 10
899.486588
 20
71.37456999999997
 30
0.0
 11
899.386535
 21
71.22359499999998
 31
0.0
  0
LINE
  5
914
330
36
100
AcDbEntity
  8
0
100
AcDbLine
 10
899.386535
 20
71.22359499999998
 30
0.0
 11
899.3005710000003
 21
71.064824
 31
0.0
  0
LINE
  5
915
330
36
100
AcDbEntity
  8
0
100
AcDbLine
 10
899.3005710000003
 20
71.064824
 30
0.0
 11
899.2293509999997
 21
70.89946799999998
 31
0.0
  0
LINE
  5
916
330
36
100
AcDbEntity
  8
0
100
AcDbLine
 10
899.2293509999997
 20
70.89946799999998
 30
0.0
 11
899.1734169999999
 21
70.72878399999997
 31
0.0
  0
LINE
  5
917
330
36
100
AcDbEntity
  8
0
100
AcDbLine
 10
899.1734169999999
 20
70.72878399999997
 30
0.0
 11
899.1331960000001
 21
70.55407199999997
 31
0.0
  0
LINE
  5
918
330
36
100
AcDbEntity
  8
0
100
AcDbLine
 10
899.1331960000001
 20
70.55407199999997
 30
0.0
 11
899.1089910000001
 21
70.37666
 31
0.0
  0
LINE
  5
919
330
36
100
AcDbEntity
  8
0
100
AcDbLine
 10
899.1089910000001
 20
70.37666
 30
0.0
 11
899.100989
 21
70.1979
 31
0.0
  0
LINE
  5
91A
330
36
100
AcDbEntity
  8
0
100
AcDbLine
 10
901.8794789999999
 20
70.1979
 30
0.0
 11
901.877039
 21
70.25159399999999
 31
0.0
  0
LINE
  5
91B
330
36
100
AcDbEntity
  8
0
100
AcDbLine
 10
901.877039
 20
70.25159399999999
 30
0.0
 11
901.8697369999996
 21
70.304879
 31
0.0
  0
LINE
  5
91C
330
36
100
AcDbEntity
  8
0
100
AcDbLine
 10
901.8697369999996
 20
70.304879
 30
0.0
 11
901.8576299999999
 21
70.35734999999999
 31
0.0
  0
LINE
  5
91D
330
36
100
AcDbEntity
  8
0
100
AcDbLine
 10
901.8576299999999
 20
70.35734999999999
 30
0.0
 11
901.8408090000001
 21
70.408608
 31
0.0
  0
LINE
  5
91E
330
36
100
AcDbEntity
  8
0
100
AcDbLine
 10
901.8408090000001
 20
70.408608
 30
0.0
 11
901.8194019999999
 21
70.45826099999998
 31
0.0
  0
LINE
  5
91F
330
36
100
AcDbEntity
  8
0
100
AcDbLine
 10
901.8194019999999
 20
70.45826099999998
 30
0.0
 11
901.793572
 21
70.505934
 31
0.0
  0
LINE
  5
920
330
36
100
AcDbEntity
  8
0
100
AcDbLine
 10
901.793572
 20
70.505934
 30
0.0
 11
901.7635159999999
 21
70.551262
 31
0.0
  0
LINE
  5
921
330
36
100
AcDbEntity
  8
0
100
AcDbLine
 10
901.7635159999999
 20
70.551262
 30
0.0
 11
901.7294619999999
 21
70.5939
 31
0.0
  0
LINE
  5
922
330
36
100
AcDbEntity
  8
0
100
AcDbLine
 10
901.7294619999999
 20
70.5939
 30
0.0
 11
901.6916700000001
 21
70.633525
 31
0.0
  0
LINE
  5
923
330
36
100
AcDbEntity
  8
0
100
AcDbLine
 10
901.6916700000001
 20
70.633525
 30
0.0
 11
901.6504269999996
 21
70.66983499999998
 31
0.0
  0
LINE
  5
924
330
36
100
AcDbEntity
  8
0
100
AcDbLine
 10
901.6504269999996
 20
70.66983499999998
 30
0.0
 11
901.606048
 21
70.702552
 31
0.0
  0
LINE
  5
925
330
36
100
AcDbEntity
  8
0
100
AcDbLine
 10
901.606048
 20
70.702552
 30
0.0
 11
901.5588689999999
 21
70.731429
 31
0.0
  0
LINE
  5
926
330
36
100
AcDbEntity
  8
0
100
AcDbLine
 10
901.5588689999999
 20
70.731429
 30
0.0
 11
901.5092499999999
 21
70.75624599999997
 31
0.0
  0
LINE
  5
927
330
36
100
AcDbEntity
  8
0
100
AcDbLine
 10
901.5092499999999
 20
70.75624599999997
 30
0.0
 11
901.457569
 21
70.776813
 31
0.0
  0
LINE
  5
928
330
36
100
AcDbEntity
  8
0
100
AcDbLine
 10
901.457569
 20
70.776813
 30
0.0
 11
901.4042189999999
 21
70.792975
 31
0.0
  0
LINE
  5
929
330
36
100
AcDbEntity
  8
0
100
AcDbLine
 10
901.4042189999999
 20
70.792975
 30
0.0
 11
901.3496059999999
 21
70.80460699999997
 31
0.0
  0
LINE
  5
92A
330
36
100
AcDbEntity
  8
0
100
AcDbLine
 10
901.3496059999999
 20
70.80460699999997
 30
0.0
 11
901.2941449999999
 21
70.811622
 31
0.0
  0
LINE
  5
92B
330
36
100
AcDbEntity
  8
0
100
AcDbLine
 10
901.2941449999999
 20
70.811622
 30
0.0
 11
901.2382589999999
 21
70.813967
 31
0.0
  0
LINE
  5
92C
330
36
100
AcDbEntity
  8
0
100
AcDbLine
 10
901.2382589999999
 20
70.813967
 30
0.0
 11
901.1823729999999
 21
70.811622
 31
0.0
  0
LINE
  5
92D
330
36
100
AcDbEntity
  8
0
100
AcDbLine
 10
901.1823729999999
 20
70.811622
 30
0.0
 11
901.126913
 21
70.80460699999997
 31
0.0
  0
LINE
  5
92E
330
36
100
AcDbEntity
  8
0
100
AcDbLine
 10
901.126913
 20
70.80460699999997
 30
0.0
 11
901.0722990000001
 21
70.792975
 31
0.0
  0
LINE
  5
92F
330
36
100
AcDbEntity
  8
0
100
AcDbLine
 10
901.0722990000001
 20
70.792975
 30
0.0
 11
901.018949
 21
70.776813
 31
0.0
  0
LINE
  5
930
330
36
100
AcDbEntity
  8
0
100
AcDbLine
 10
901.018949
 20
70.776813
 30
0.0
 11
900.9672679999999
 21
70.75624599999997
 31
0.0
  0
LINE
  5
931
330
36
100
AcDbEntity
  8
0
100
AcDbLine
 10
900.9672679999999
 20
70.75624599999997
 30
0.0
 11
900.9176489999999
 21
70.731429
 31
0.0
  0
LINE
  5
932
330
36
100
AcDbEntity
  8
0
100
AcDbLine
 10
900.9176489999999
 20
70.731429
 30
0.0
 11
900.8704709999999
 21
70.702552
 31
0.0
  0
LINE
  5
933
330
36
100
AcDbEntity
  8
0
100
AcDbLine
 10
900.8704709999999
 20
70.702552
 30
0.0
 11
900.826091
 21
70.66983499999998
 31
0.0
  0
LINE
  5
934
330
36
100
AcDbEntity
  8
0
100
AcDbLine
 10
900.826091
 20
70.66983499999998
 30
0.0
 11
900.784849
 21
70.633525
 31
0.0
  0
LINE
  5
935
330
36
100
AcDbEntity
  8
0
100
AcDbLine
 10
900.784849
 20
70.633525
 30
0.0
 11
900.747057
 21
70.5939
 31
0.0
  0
LINE
  5
936
330
36
100
AcDbEntity
  8
0
100
AcDbLine
 10
900.747057
 20
70.5939
 30
0.0
 11
900.7130029999999
 21
70.551262
 31
0.0
  0
LINE
  5
937
330
36
100
AcDbEntity
  8
0
100
AcDbLine
 10
900.7130029999999
 20
70.551262
 30
0.0
 11
900.6829469999999
 21
70.505934
 31
0.0
  0
LINE
  5
938
330
36
100
AcDbEntity
  8
0
100
AcDbLine
 10
900.6829469999999
 20
70.505934
 30
0.0
 11
900.6571169999999
 21
70.45826099999998
 31
0.0
  0
LINE
  5
939
330
36
100
AcDbEntity
  8
0
100
AcDbLine
 10
900.6571169999999
 20
70.45826099999998
 30
0.0
 11
900.63571
 21
70.408608
 31
0.0
  0
LINE
  5
93A
330
36
100
AcDbEntity
  8
0
100
AcDbLine
 10
900.63571
 20
70.408608
 30
0.0
 11
900.618889
 21
70.35734999999999
 31
0.0
  0
LINE
  5
93B
330
36
100
AcDbEntity
  8
0
100
AcDbLine
 10
900.618889
 20
70.35734999999999
 30
0.0
 11
900.6067810000002
 21
70.304879
 31
0.0
  0
LINE
  5
93C
330
36
100
AcDbEntity
  8
0
100
AcDbLine
 10
900.6067810000002
 20
70.304879
 30
0.0
 11
900.5994800000001
 21
70.25159399999999
 31
0.0
  0
LINE
  5
93D
330
36
100
AcDbEntity
  8
0
100
AcDbLine
 10
900.5994800000001
 20
70.25159399999999
 30
0.0
 11
900.59704
 21
70.1979
 31
0.0
  0
LINE
  5
93E
330
36
100
AcDbEntity
  8
0
100
AcDbLine
 10
900.59704
 20
70.1979
 30
0.0
 11
900.5994800000001
 21
70.14420699999999
 31
0.0
  0
LINE
  5
93F
330
36
100
AcDbEntity
  8
0
100
AcDbLine
 10
900.5994800000001
 20
70.14420699999999
 30
0.0
 11
900.6067810000002
 21
70.09092199999999
 31
0.0
  0
LINE
  5
940
330
36
100
AcDbEntity
  8
0
100
AcDbLine
 10
900.6067810000002
 20
70.09092199999999
 30
0.0
 11
900.618889
 21
70.03845099999999
 31
0.0
  0
LINE
  5
941
330
36
100
AcDbEntity
  8
0
100
AcDbLine
 10
900.618889
 20
70.03845099999999
 30
0.0
 11
900.63571
 21
69.98719300000001
 31
0.0
  0
LINE
  5
942
330
36
100
AcDbEntity
  8
0
100
AcDbLine
 10
900.63571
 20
69.98719300000001
 30
0.0
 11
900.6571169999999
 21
69.93754
 31
0.0
  0
LINE
  5
943
330
36
100
AcDbEntity
  8
0
100
AcDbLine
 10
900.6571169999999
 20
69.93754
 30
0.0
 11
900.6829469999999
 21
69.88986700000001
 31
0.0
  0
LINE
  5
944
330
36
100
AcDbEntity
  8
0
100
AcDbLine
 10
900.6829469999999
 20
69.88986700000001
 30
0.0
 11
900.7130029999999
 21
69.844539
 31
0.0
  0
LINE
  5
945
330
36
100
AcDbEntity
  8
0
100
AcDbLine
 10
900.7130029999999
 20
69.844539
 30
0.0
 11
900.747057
 21
69.801901
 31
0.0
  0
LINE
  5
946
330
36
100
AcDbEntity
  8
0
100
AcDbLine
 10
900.747057
 20
69.801901
 30
0.0
 11
900.784849
 21
69.762276
 31
0.0
  0
LINE
  5
947
330
36
100
AcDbEntity
  8
0
100
AcDbLine
 10
900.784849
 20
69.762276
 30
0.0
 11
900.826091
 21
69.725966
 31
0.0
  0
LINE
  5
948
330
36
100
AcDbEntity
  8
0
100
AcDbLine
 10
900.826091
 20
69.725966
 30
0.0
 11
900.8704709999999
 21
69.69324799999999
 31
0.0
  0
LINE
  5
949
330
36
100
AcDbEntity
  8
0
100
AcDbLine
 10
900.8704709999999
 20
69.69324799999999
 30
0.0
 11
900.9176489999999
 21
69.664371
 31
0.0
  0
LINE
  5
94A
330
36
100
AcDbEntity
  8
0
100
AcDbLine
 10
900.9176489999999
 20
69.664371
 30
0.0
 11
900.9672679999999
 21
69.639555
 31
0.0
  0
LINE
  5
94B
330
36
100
AcDbEntity
  8
0
100
AcDbLine
 10
900.9672679999999
 20
69.639555
 30
0.0
 11
901.018949
 21
69.618987
 31
0.0
  0
LINE
  5
94C
330
36
100
AcDbEntity
  8
0
100
AcDbLine
 10
901.018949
 20
69.618987
 30
0.0
 11
901.0722990000001
 21
69.60282600000001
 31
0.0
  0
LINE
  5
94D
330
36
100
AcDbEntity
  8
0
100
AcDbLine
 10
901.0722990000001
 20
69.60282600000001
 30
0.0
 11
901.126913
 21
69.59119399999998
 31
0.0
  0
LINE
  5
94E
330
36
100
AcDbEntity
  8
0
100
AcDbLine
 10
901.126913
 20
69.59119399999998
 30
0.0
 11
901.1823729999999
 21
69.58417800000001
 31
0.0
  0
LINE
  5
94F
330
36
100
AcDbEntity
  8
0
100
AcDbLine
 10
901.1823729999999
 20
69.58417800000001
 30
0.0
 11
901.2382589999999
 21
69.581834
 31
0.0
  0
LINE
  5
950
330
36
100
AcDbEntity
  8
0
100
AcDbLine
 10
901.2382589999999
 20
69.581834
 30
0.0
 11
901.2941449999999
 21
69.58417800000001
 31
0.0
  0
LINE
  5
951
330
36
100
AcDbEntity
  8
0
100
AcDbLine
 10
901.2941449999999
 20
69.58417800000001
 30
0.0
 11
901.3496059999999
 21
69.59119399999998
 31
0.0
  0
LINE
  5
952
330
36
100
AcDbEntity
  8
0
100
AcDbLine
 10
901.3496059999999
 20
69.59119399999998
 30
0.0
 11
901.4042189999999
 21
69.60282600000001
 31
0.0
  0
LINE
  5
953
330
36
100
AcDbEntity
  8
0
100
AcDbLine
 10
901.4042189999999
 20
69.60282600000001
 30
0.0
 11
901.457569
 21
69.618987
 31
0.0
  0
LINE
  5
954
330
36
100
AcDbEntity
  8
0
100
AcDbLine
 10
901.457569
 20
69.618987
 30
0.0
 11
901.5092499999999
 21
69.639555
 31
0.0
  0
LINE
  5
955
330
36
100
AcDbEntity
  8
0
100
AcDbLine
 10
901.5092499999999
 20
69.639555
 30
0.0
 11
901.5588689999999
 21
69.664371
 31
0.0
  0
LINE
  5
956
330
36
100
AcDbEntity
  8
0
100
AcDbLine
 10
901.5588689999999
 20
69.664371
 30
0.0
 11
901.606048
 21
69.69324799999999
 31
0.0
  0
LINE
  5
957
330
36
100
AcDbEntity
  8
0
100
AcDbLine
 10
901.606048
 20
69.69324799999999
 30
0.0
 11
901.6504269999996
 21
69.725966
 31
0.0
  0
LINE
  5
958
330
36
100
AcDbEntity
  8
0
100
AcDbLine
 10
901.6504269999996
 20
69.725966
 30
0.0
 11
901.6916700000001
 21
69.762276
 31
0.0
  0
LINE
  5
959
330
36
100
AcDbEntity
  8
0
100
AcDbLine
 10
901.6916700000001
 20
69.762276
 30
0.0
 11
901.7294619999999
 21
69.801901
 31
0.0
  0
LINE
  5
95A
330
36
100
AcDbEntity
  8
0
100
AcDbLine
 10
901.7294619999999
 20
69.801901
 30
0.0
 11
901.7635159999999
 21
69.844539
 31
0.0
  0
LINE
  5
95B
330
36
100
AcDbEntity
  8
0
100
AcDbLine
 10
901.7635159999999
 20
69.844539
 30
0.0
 11
901.793572
 21
69.88986700000001
 31
0.0
  0
LINE
  5
95C
330
36
100
AcDbEntity
  8
0
100
AcDbLine
 10
901.793572
 20
69.88986700000001
 30
0.0
 11
901.8194019999999
 21
69.93754
 31
0.0
  0
LINE
  5
95D
330
36
100
AcDbEntity
  8
0
100
AcDbLine
 10
901.8194019999999
 20
69.93754
 30
0.0
 11
901.8408090000001
 21
69.98719300000001
 31
0.0
  0
LINE
  5
95E
330
36
100
AcDbEntity
  8
0
100
AcDbLine
 10
901.8408090000001
 20
69.98719300000001
 30
0.0
 11
901.8576299999999
 21
70.03845099999999
 31
0.0
  0
LINE
  5
95F
330
36
100
AcDbEntity
  8
0
100
AcDbLine
 10
901.8576299999999
 20
70.03845099999999
 30
0.0
 11
901.8697369999996
 21
70.09092199999999
 31
0.0
  0
LINE
  5
960
330
36
100
AcDbEntity
  8
0
100
AcDbLine
 10
901.8697369999996
 20
70.09092199999999
 30
0.0
 11
901.877039
 21
70.14420699999999
 31
0.0
  0
LINE
  5
961
330
36
100
AcDbEntity
  8
0
100
AcDbLine
 10
901.877039
 20
70.14420699999999
 30
0.0
 11
901.8794789999999
 21
70.1979
 31
0.0
  0
LINE
  5
962
330
36
100
AcDbEntity
  8
0
 62
     3
100
AcDbLine
 10
902.919671
 20
70.1979
 30
0.0
 11
902.913271
 21
70.338475
 31
0.0
  0
LINE
  5
963
330
36
100
AcDbEntity
  8
0
 62
     3
100
AcDbLine
 10
902.913271
 20
70.338475
 30
0.0
 11
902.8941210000001
 21
70.477981
 31
0.0
  0
LINE
  5
964
330
36
100
AcDbEntity
  8
0
 62
     3
100
AcDbLine
 10
902.8941210000001
 20
70.477981
 30
0.0
 11
902.862365
 21
70.61535400000003
 31
0.0
  0
LINE
  5
965
330
36
100
AcDbEntity
  8
0
 62
     3
100
AcDbLine
 10
902.862365
 20
70.61535400000003
 30
0.0
 11
902.818246
 21
70.749551
 31
0.0
  0
LINE
  5
966
330
36
100
AcDbEntity
  8
0
 62
     3
100
AcDbLine
 10
902.818246
 20
70.749551
 30
0.0
 11
902.7620999999999
 21
70.87954899999998
 31
0.0
  0
LINE
  5
967
330
36
100
AcDbEntity
  8
0
 62
     3
100
AcDbLine
 10
902.7620999999999
 20
70.87954899999998
 30
0.0
 11
902.694353
 21
71.00435899999998
 31
0.0
  0
LINE
  5
968
330
36
100
AcDbEntity
  8
0
 62
     3
100
AcDbLine
 10
902.694353
 20
71.00435899999998
 30
0.0
 11
902.615521
 21
71.12303199999998
 31
0.0
  0
LINE
  5
969
330
36
100
AcDbEntity
  8
0
 62
     3
100
AcDbLine
 10
902.615521
 20
71.12303199999998
 30
0.0
 11
902.5262050000003
 21
71.234663
 31
0.0
  0
LINE
  5
96A
330
36
100
AcDbEntity
  8
0
 62
     3
100
AcDbLine
 10
902.5262050000003
 20
71.234663
 30
0.0
 11
902.4270839999999
 21
71.33840500000002
 31
0.0
  0
LINE
  5
96B
330
36
100
AcDbEntity
  8
0
 62
     3
100
AcDbLine
 10
902.4270839999999
 20
71.33840500000002
 30
0.0
 11
902.3189119999999
 21
71.43346700000002
 31
0.0
  0
LINE
  5
96C
330
36
100
AcDbEntity
  8
0
 62
     3
100
AcDbLine
 10
902.3189119999999
 20
71.43346700000002
 30
0.0
 11
902.202512
 21
71.519125
 31
0.0
  0
LINE
  5
96D
330
36
100
AcDbEntity
  8
0
 62
     3
100
AcDbLine
 10
902.202512
 20
71.519125
 30
0.0
 11
902.0787719999999
 21
71.594728
 31
0.0
  0
LINE
  5
96E
330
36
100
AcDbEntity
  8
0
 62
     3
100
AcDbLine
 10
902.0787719999999
 20
71.594728
 30
0.0
 11
901.9486309999999
 21
71.6597
 31
0.0
  0
LINE
  5
96F
330
36
100
AcDbEntity
  8
0
 62
     3
100
AcDbLine
 10
901.9486309999999
 20
71.6597
 30
0.0
 11
901.813081
 21
71.71354699999998
 31
0.0
  0
LINE
  5
970
330
36
100
AcDbEntity
  8
0
 62
     3
100
AcDbLine
 10
901.813081
 20
71.71354699999998
 30
0.0
 11
901.673154
 21
71.755859
 31
0.0
  0
LINE
  5
971
330
36
100
AcDbEntity
  8
0
 62
     3
100
AcDbLine
 10
901.673154
 20
71.755859
 30
0.0
 11
901.5299139999999
 21
71.786314
 31
0.0
  0
LINE
  5
972
330
36
100
AcDbEntity
  8
0
 62
     3
100
AcDbLine
 10
901.5299139999999
 20
71.786314
 30
0.0
 11
901.384451
 21
71.80468000000002
 31
0.0
  0
LINE
  5
973
330
36
100
AcDbEntity
  8
0
 62
     3
100
AcDbLine
 10
901.384451
 20
71.80468000000002
 30
0.0
 11
901.237872
 21
71.810817
 31
0.0
  0
LINE
  5
974
330
36
100
AcDbEntity
  8
0
 62
     3
100
AcDbLine
 10
901.237872
 20
71.810817
 30
0.0
 11
901.0912939999997
 21
71.80468000000002
 31
0.0
  0
LINE
  5
975
330
36
100
AcDbEntity
  8
0
 62
     3
100
AcDbLine
 10
901.0912939999997
 20
71.80468000000002
 30
0.0
 11
900.9458309999999
 21
71.786314
 31
0.0
  0
LINE
  5
976
330
36
100
AcDbEntity
  8
0
 62
     3
100
AcDbLine
 10
900.9458309999999
 20
71.786314
 30
0.0
 11
900.802591
 21
71.755859
 31
0.0
  0
LINE
  5
977
330
36
100
AcDbEntity
  8
0
 62
     3
100
AcDbLine
 10
900.802591
 20
71.755859
 30
0.0
 11
900.6626630000001
 21
71.71354699999998
 31
0.0
  0
LINE
  5
978
330
36
100
AcDbEntity
  8
0
 62
     3
100
AcDbLine
 10
900.6626630000001
 20
71.71354699999998
 30
0.0
 11
900.527113
 21
71.6597
 31
0.0
  0
LINE
  5
979
330
36
100
AcDbEntity
  8
0
 62
     3
100
AcDbLine
 10
900.527113
 20
71.6597
 30
0.0
 11
900.3969729999999
 21
71.594728
 31
0.0
  0
LINE
  5
97A
330
36
100
AcDbEntity
  8
0
 62
     3
100
AcDbLine
 10
900.3969729999999
 20
71.594728
 30
0.0
 11
900.2732319999999
 21
71.519125
 31
0.0
  0
LINE
  5
97B
330
36
100
AcDbEntity
  8
0
 62
     3
100
AcDbLine
 10
900.2732319999999
 20
71.519125
 30
0.0
 11
900.1568329999999
 21
71.43346700000002
 31
0.0
  0
LINE
  5
97C
330
36
100
AcDbEntity
  8
0
 62
     3
100
AcDbLine
 10
900.1568329999999
 20
71.43346700000002
 30
0.0
 11
900.0486609999997
 21
71.33840500000002
 31
0.0
  0
LINE
  5
97D
330
36
100
AcDbEntity
  8
0
 62
     3
100
AcDbLine
 10
900.0486609999997
 20
71.33840500000002
 30
0.0
 11
899.94954
 21
71.234663
 31
0.0
  0
LINE
  5
97E
330
36
100
AcDbEntity
  8
0
 62
     3
100
AcDbLine
 10
899.94954
 20
71.234663
 30
0.0
 11
899.8602230000001
 21
71.12303199999998
 31
0.0
  0
LINE
  5
97F
330
36
100
AcDbEntity
  8
0
 62
     3
100
AcDbLine
 10
899.8602230000001
 20
71.12303199999998
 30
0.0
 11
899.781392
 21
71.00435899999998
 31
0.0
  0
LINE
  5
980
330
36
100
AcDbEntity
  8
0
 62
     3
100
AcDbLine
 10
899.781392
 20
71.00435899999998
 30
0.0
 11
899.7136449999997
 21
70.87954899999998
 31
0.0
  0
LINE
  5
981
330
36
100
AcDbEntity
  8
0
 62
     3
100
AcDbLine
 10
899.7136449999997
 20
70.87954899999998
 30
0.0
 11
899.657498
 21
70.749551
 31
0.0
  0
LINE
  5
982
330
36
100
AcDbEntity
  8
0
 62
     3
100
AcDbLine
 10
899.657498
 20
70.749551
 30
0.0
 11
899.613379
 21
70.61535400000003
 31
0.0
  0
LINE
  5
983
330
36
100
AcDbEntity
  8
0
 62
     3
100
AcDbLine
 10
899.613379
 20
70.61535400000003
 30
0.0
 11
899.5816239999996
 21
70.477981
 31
0.0
  0
LINE
  5
984
330
36
100
AcDbEntity
  8
0
 62
     3
100
AcDbLine
 10
899.5816239999996
 20
70.477981
 30
0.0
 11
899.5624730000001
 21
70.338475
 31
0.0
  0
LINE
  5
985
330
36
100
AcDbEntity
  8
0
 62
     3
100
AcDbLine
 10
899.5624730000001
 20
70.338475
 30
0.0
 11
899.556074
 21
70.1979
 31
0.0
  0
LINE
  5
986
330
36
100
AcDbEntity
  8
0
 62
     3
100
AcDbLine
 10
899.556074
 20
70.1979
 30
0.0
 11
899.5624730000001
 21
70.057325
 31
0.0
  0
LINE
  5
987
330
36
100
AcDbEntity
  8
0
 62
     3
100
AcDbLine
 10
899.5624730000001
 20
70.057325
 30
0.0
 11
899.5816239999996
 21
69.91781999999999
 31
0.0
  0
LINE
  5
988
330
36
100
AcDbEntity
  8
0
 62
     3
100
AcDbLine
 10
899.5816239999996
 20
69.91781999999999
 30
0.0
 11
899.613379
 21
69.78044699999999
 31
0.0
  0
LINE
  5
989
330
36
100
AcDbEntity
  8
0
 62
     3
100
AcDbLine
 10
899.613379
 20
69.78044699999999
 30
0.0
 11
899.657498
 21
69.64624999999999
 31
0.0
  0
LINE
  5
98A
330
36
100
AcDbEntity
  8
0
 62
     3
100
AcDbLine
 10
899.657498
 20
69.64624999999999
 30
0.0
 11
899.7136449999997
 21
69.51625200000001
 31
0.0
  0
LINE
  5
98B
330
36
100
AcDbEntity
  8
0
 62
     3
100
AcDbLine
 10
899.7136449999997
 20
69.51625200000001
 30
0.0
 11
899.781392
 21
69.391442
 31
0.0
  0
LINE
  5
98C
330
36
100
AcDbEntity
  8
0
 62
     3
100
AcDbLine
 10
899.781392
 20
69.391442
 30
0.0
 11
899.8602230000001
 21
69.27276899999999
 31
0.0
  0
LINE
  5
98D
330
36
100
AcDbEntity
  8
0
 62
     3
100
AcDbLine
 10
899.8602230000001
 20
69.27276899999999
 30
0.0
 11
899.94954
 21
69.161137
 31
0.0
  0
LINE
  5
98E
330
36
100
AcDbEntity
  8
0
 62
     3
100
AcDbLine
 10
899.94954
 20
69.161137
 30
0.0
 11
900.0486609999997
 21
69.057396
 31
0.0
  0
LINE
  5
98F
330
36
100
AcDbEntity
  8
0
 62
     3
100
AcDbLine
 10
900.0486609999997
 20
69.057396
 30
0.0
 11
900.1568329999999
 21
68.96233399999998
 31
0.0
  0
LINE
  5
990
330
36
100
AcDbEntity
  8
0
 62
     3
100
AcDbLine
 10
900.1568329999999
 20
68.96233399999998
 30
0.0
 11
900.2732319999999
 21
68.876676
 31
0.0
  0
LINE
  5
991
330
36
100
AcDbEntity
  8
0
 62
     3
100
AcDbLine
 10
900.2732319999999
 20
68.876676
 30
0.0
 11
900.3969729999999
 21
68.801073
 31
0.0
  0
LINE
  5
992
330
36
100
AcDbEntity
  8
0
 62
     3
100
AcDbLine
 10
900.3969729999999
 20
68.801073
 30
0.0
 11
900.527113
 21
68.736101
 31
0.0
  0
LINE
  5
993
330
36
100
AcDbEntity
  8
0
 62
     3
100
AcDbLine
 10
900.527113
 20
68.736101
 30
0.0
 11
900.6626630000001
 21
68.682254
 31
0.0
  0
LINE
  5
994
330
36
100
AcDbEntity
  8
0
 62
     3
100
AcDbLine
 10
900.6626630000001
 20
68.682254
 30
0.0
 11
900.802591
 21
68.639942
 31
0.0
  0
LINE
  5
995
330
36
100
AcDbEntity
  8
0
 62
     3
100
AcDbLine
 10
900.802591
 20
68.639942
 30
0.0
 11
900.9458309999999
 21
68.609487
 31
0.0
  0
LINE
  5
996
330
36
100
AcDbEntity
  8
0
 62
     3
100
AcDbLine
 10
900.9458309999999
 20
68.609487
 30
0.0
 11
901.0912939999997
 21
68.591121
 31
0.0
  0
LINE
  5
997
330
36
100
AcDbEntity
  8
0
 62
     3
100
AcDbLine
 10
901.0912939999997
 20
68.591121
 30
0.0
 11
901.237872
 21
68.58498299999999
 31
0.0
  0
LINE
  5
998
330
36
100
AcDbEntity
  8
0
 62
     3
100
AcDbLine
 10
901.237872
 20
68.58498299999999
 30
0.0
 11
901.384451
 21
68.591121
 31
0.0
  0
LINE
  5
999
330
36
100
AcDbEntity
  8
0
 62
     3
100
AcDbLine
 10
901.384451
 20
68.591121
 30
0.0
 11
901.5299139999999
 21
68.609487
 31
0.0
  0
LINE
  5
99A
330
36
100
AcDbEntity
  8
0
 62
     3
100
AcDbLine
 10
901.5299139999999
 20
68.609487
 30
0.0
 11
901.673154
 21
68.639942
 31
0.0
  0
LINE
  5
99B
330
36
100
AcDbEntity
  8
0
 62
     3
100
AcDbLine
 10
901.673154
 20
68.639942
 30
0.0
 11
901.813081
 21
68.682254
 31
0.0
  0
LINE
  5
99C
330
36
100
AcDbEntity
  8
0
 62
     3
100
AcDbLine
 10
901.813081
 20
68.682254
 30
0.0
 11
901.9486309999999
 21
68.736101
 31
0.0
  0
LINE
  5
99D
330
36
100
AcDbEntity
  8
0
 62
     3
100
AcDbLine
 10
901.9486309999999
 20
68.736101
 30
0.0
 11
902.0787719999999
 21
68.801073
 31
0.0
  0
LINE
  5
99E
330
36
100
AcDbEntity
  8
0
 62
     3
100
AcDbLine
 10
902.0787719999999
 20
68.801073
 30
0.0
 11
902.202512
 21
68.876676
 31
0.0
  0
LINE
  5
99F
330
36
100
AcDbEntity
  8
0
 62
     3
100
AcDbLine
 10
902.202512
 20
68.876676
 30
0.0
 11
902.3189119999999
 21
68.96233399999998
 31
0.0
  0
LINE
  5
9A0
330
36
100
AcDbEntity
  8
0
 62
     3
100
AcDbLine
 10
902.3189119999999
 20
68.96233399999998
 30
0.0
 11
902.4270839999999
 21
69.057396
 31
0.0
  0
LINE
  5
9A1
330
36
100
AcDbEntity
  8
0
 62
     3
100
AcDbLine
 10
902.4270839999999
 20
69.057396
 30
0.0
 11
902.5262050000003
 21
69.161137
 31
0.0
  0
LINE
  5
9A2
330
36
100
AcDbEntity
  8
0
 62
     3
100
AcDbLine
 10
902.5262050000003
 20
69.161137
 30
0.0
 11
902.615521
 21
69.27276899999999
 31
0.0
  0
LINE
  5
9A3
330
36
100
AcDbEntity
  8
0
 62
     3
100
AcDbLine
 10
902.615521
 20
69.27276899999999
 30
0.0
 11
902.694353
 21
69.391442
 31
0.0
  0
LINE
  5
9A4
330
36
100
AcDbEntity
  8
0
 62
     3
100
AcDbLine
 10
902.694353
 20
69.391442
 30
0.0
 11
902.7620999999999
 21
69.51625200000001
 31
0.0
  0
LINE
  5
9A5
330
36
100
AcDbEntity
  8
0
 62
     3
100
AcDbLine
 10
902.7620999999999
 20
69.51625200000001
 30
0.0
 11
902.818246
 21
69.64624999999999
 31
0.0
  0
LINE
  5
9A6
330
36
100
AcDbEntity
  8
0
 62
     3
100
AcDbLine
 10
902.818246
 20
69.64624999999999
 30
0.0
 11
902.862365
 21
69.78044699999999
 31
0.0
  0
LINE
  5
9A7
330
36
100
AcDbEntity
  8
0
 62
     3
100
AcDbLine
 10
902.862365
 20
69.78044699999999
 30
0.0
 11
902.8941210000001
 21
69.91781999999999
 31
0.0
  0
LINE
  5
9A8
330
36
100
AcDbEntity
  8
0
 62
     3
100
AcDbLine
 10
902.8941210000001
 20
69.91781999999999
 30
0.0
 11
902.913271
 21
70.057325
 31
0.0
  0
LINE
  5
9A9
330
36
100
AcDbEntity
  8
0
 62
     3
100
AcDbLine
 10
902.913271
 20
70.057325
 30
0.0
 11
902.919671
 21
70.1979
 31
0.0
  0
LINE
  5
9AA
330
36
100
AcDbEntity
  8
0
100
AcDbLine
 10
976.4817609999999
 20
34.813513
 30
0.0
 11
945.173905
 21
34.81351300000001
 31
0.0
  0
LINE
  5
9AB
330
36
100
AcDbEntity
  8
0
100
AcDbLine
 10
974.086885
 20
124.813513
 30
0.0
 11
945.173905
 21
124.813513
 31
0.0
  0
LINE
  5
9AC
330
36
100
AcDbEntity
  8
0
100
AcDbLine
 10
946.4239049999999
 20
37.31351300000001
 30
0.0
 11
946.4239049999999
 21
122.313513
 31
0.0
  0
LINE
  5
9B0
330
36
100
AcDbEntity
  8
0
100
AcDbLine
 10
844.8020300000001
 20
43.063513
 30
0.0
 11
844.8020300000001
 21
20.095275
 31
0.0
  0
LINE
  5
9B1
330
36
100
AcDbEntity
  8
0
100
AcDbLine
 10
917.3020299999999
 20
43.063513
 30
0.0
 11
917.3020299999999
 21
20.095275
 31
0.0
  0
LINE
  5
9B2
330
36
100
AcDbEntity
  8
0
100
AcDbLine
 10
847.3020300000001
 20
21.345275
 30
0.0
 11
914.8020299999998
 21
21.345275
 31
0.0
  0
LINE
  5
9B6
330
36
100
AcDbEntity
  8
0
100
AcDbLine
 10
959.336885
 20
37.063513
 30
0.0
 11
959.336885
 21
20.095275
 31
0.0
  0
LINE
  5
9B7
330
36
100
AcDbEntity
  8
0
100
AcDbLine
 10
1084.336885
 20
37.063513
 30
0.0
 11
1084.336885
 21
20.095275
 31
0.0
  0
LINE
  5
9B8
330
36
100
AcDbEntity
  8
0
100
AcDbLine
 10
961.8368850000001
 20
21.345275
 30
0.0
 11
1081.836885
 21
21.345275
 31
0.0
  0
TEXT
  5
9BC
330
36
100
AcDbEntity
  8
0
  6
Continuous
 62
     4
100
AcDbText
 10
945.798905
 20
76.56351300000015
 30
0.0
 40
3.0
  1
180
 50
90.0
100
AcDbText
  0
LINE
  5
9BD
330
36
100
AcDbEntity
  8
0
  6
ByBlock
 62
     0
370
    -2
100
AcDbLine
 10
945.7540325
 20
122.313513
 30
0.0
 11
946.4239049999999
 21
124.813513
 31
0.0
  0
LINE
  5
9BE
330
36
100
AcDbEntity
  8
0
  6
ByBlock
 62
     0
370
    -2
100
AcDbLine
 10
946.4239049999999
 20
124.813513
 30
0.0
 11
947.0937774999999
 21
122.313513
 31
0.0
  0
LINE
  5
9BF
330
36
100
AcDbEntity
  8
0
  6
ByBlock
 62
     0
370
    -2
100
AcDbLine
 10
946.4239049999999
 20
124.813513
 30
0.0
 11
946.4239049999999
 21
122.313513
 31
0.0
  0
LINE
  5
9C0
330
36
100
AcDbEntity
  8
0
  6
ByBlock
 62
     0
370
    -2
100
AcDbLine
 10
947.0937774999999
 20
37.31351300000001
 30
0.0
 11
946.4239049999999
 21
34.81351300000001
 31
0.0
  0
LINE
  5
9C1
330
36
100
AcDbEntity
  8
0
  6
ByBlock
 62
     0
370
    -2
100
AcDbLine
 10
946.4239049999999
 20
34.81351300000001
 30
0.0
 11
945.7540325
 21
37.31351300000001
 31
0.0
  0
LINE
  5
9C2
330
36
100
AcDbEntity
  8
0
  6
ByBlock
 62
     0
370
    -2
100
AcDbLine
 10
946.4239049999999
 20
34.81351300000001
 30
0.0
 11
946.4239049999999
 21
37.31351300000001
 31
0.0
  0
TEXT
  5
9C3
330
36
100
AcDbEntity
  8
0
  6
Continuous
 62
     4
100
AcDbText
 10
877.55203
 20
21.970275
 30
0.0
 40
3.0
  1
145
100
AcDbText
  0
LINE
  5
9C4
330
36
100
AcDbEntity
  8
0
  6
ByBlock
 62
     0
370
    -2
100
AcDbLine
 10
914.8020299999998
 20
22.0151475
 30
0.0
 11
917.3020299999999
 21
21.345275
 31
0.0
  0
LINE
  5
9C5
330
36
100
AcDbEntity
  8
0
  6
ByBlock
 62
     0
370
    -2
100
AcDbLine
 10
917.3020299999999
 20
21.345275
 30
0.0
 11
914.8020299999998
 21
20.6754025
 31
0.0
  0
LINE
  5
9C6
330
36
100
AcDbEntity
  8
0
  6
ByBlock
 62
     0
370
    -2
100
AcDbLine
 10
917.3020299999999
 20
21.345275
 30
0.0
 11
914.8020299999998
 21
21.345275
 31
0.0
  0
LINE
  5
9C7
330
36
100
AcDbEntity
  8
0
  6
ByBlock
 62
     0
370
    -2
100
AcDbLine
 10
847.3020300000001
 20
20.6754025
 30
0.0
 11
844.8020300000001
 21
21.345275
 31
0.0
  0
LINE
  5
9C8
330
36
100
AcDbEntity
  8
0
  6
ByBlock
 62
     0
370
    -2
100
AcDbLine
 10
844.8020300000001
 20
21.345275
 30
0.0
 11
847.3020300000001
 21
22.0151475
 31
0.0
  0
LINE
  5
9C9
330
36
100
AcDbEntity
  8
0
  6
ByBlock
 62
     0
370
    -2
100
AcDbLine
 10
844.8020300000001
 20
21.345275
 30
0.0
 11
847.3020300000001
 21
21.345275
 31
0.0
  0
TEXT
  5
9CA
330
36
100
AcDbEntity
  8
0
  6
Continuous
 62
     4
100
AcDbText
 10
1018.086885
 20
21.970275
 30
0.0
 40
3.0
  1
250
100
AcDbText
  0
LINE
  5
9CB
330
36
100
AcDbEntity
  8
0
  6
ByBlock
 62
     0
370
    -2
100
AcDbLine
 10
1081.836885
 20
22.0151475
 30
0.0
 11
1084.336885
 21
21.345275
 31
0.0
  0
LINE
  5
9CC
330
36
100
AcDbEntity
  8
0
  6
ByBlock
 62
     0
370
    -2
100
AcDbLine
 10
1084.336885
 20
21.345275
 30
0.0
 11
1081.836885
 21
20.6754025
 31
0.0
  0
LINE
  5
9CD
330
36
100
AcDbEntity
  8
0
  6
ByBlock
 62
     0
370
    -2
100
AcDbLine
 10
1084.336885
 20
21.345275
 30
0.0
 11
1081.836885
 21
21.345275
 31
0.0
  0
LINE
  5
9CE
330
36
100
AcDbEntity
  8
0
  6
ByBlock
 62
     0
370
    -2
100
AcDbLine
 10
961.8368850000001
 20
20.6754025
 30
0.0
 11
959.336885
 21
21.345275
 31
0.0
  0
LINE
  5
9CF
330
36
100
AcDbEntity
  8
0
  6
ByBlock
 62
     0
370
    -2
100
AcDbLine
 10
959.336885
 20
21.345275
 30
0.0
 11
961.8368850000001
 21
22.0151475
 31
0.0
  0
LINE
  5
9D0
330
36
100
AcDbEntity
  8
0
  6
ByBlock
 62
     0
370
    -2
100
AcDbLine
 10
959.336885
 20
21.345275
 30
0.0
 11
961.8368850000001
 21
21.345275
 31
0.0
  0
ENDSEC
  0
SECTION
  2
OBJECTS
  0
DICTIONARY
  5
C
330
0
100
AcDbDictionary
281
     1
  3
ACAD_2007HEADERVARS_RT
350
9D4
  3
ACAD_COLOR
350
2F
  3
ACAD_GROUP
350
D
  3
ACAD_LAYOUT
350
2E
  3
ACAD_MATERIAL
350
10
  3
ACAD_MLEADERSTYLE
350
4DB
  3
ACAD_MLINESTYLE
350
2B
  3
ACAD_PLOTSETTINGS
350
2D
  3
ACAD_PLOTSTYLENAME
350
E
  3
ACAD_SCALELIST
350
4C9
  3
ACAD_TABLESTYLE
350
30
  3
ACAD_VISUALSTYLE
350
14
  3
ACDB_RECOMPOSE_DATA
350
9D2
  3
AcDbVariableDictionary
350
4A9
  3
DWGPROPS
350
9D3
  0
DICTIONARY
  5
584
330
2
100
AcDbDictionary
280
     1
281
     1
  3
ACAD_LAYERSTATES
360
585
  0
DICTIONARY
  5
730
330
25
100
AcDbDictionary
280
     1
281
     1
  3
ADSK_XREC_LAYER_RECONCILED
360
731
  0
DICTIONARY
  5
83E
330
36
100
AcDbDictionary
280
     1
281
     1
  3
ACAD_SORTENTS
360
83F
  0
DICTIONARY
  5
9D4
102
{ACAD_REACTORS
330
C
102
}
330
C
100
AcDbDictionary
281
     1
  3
DIMARCSYM
350
9D6
  3
DIMFXL
350
9D5
  3
DIMJOGANG
350
9D7
  0
DICTIONARY
  5
2F
102
{ACAD_REACTORS
330
C
102
}
330
C
100
AcDbDictionary
281
     1
  0
DICTIONARY
  5
D
102
{ACAD_REACTORS
330
C
102
}
330
C
100
AcDbDictionary
281
     1
  0
DICTIONARY
  5
2E
102
{ACAD_REACTORS
330
C
102
}
330
C
100
AcDbDictionary
281
     1
  3
Model
350
39
  3
レイアウト1
350
35
  0
DICTIONARY
  5
10
102
{ACAD_REACTORS
330
C
102
}
330
C
100
AcDbDictionary
281
     1
  3
ByBlock
350
12
  3
ByLayer
350
11
  3
Global
350
13
  0
DICTIONARY
  5
4DB
102
{ACAD_REACTORS
330
C
102
}
330
C
100
AcDbDictionary
281
     1
  3
Standard
350
4DC
  0
DICTIONARY
  5
2B
102
{ACAD_REACTORS
330
C
102
}
330
C
100
AcDbDictionary
281
     1
  3
Standard
350
2C
  0
DICTIONARY
  5
2D
102
{ACAD_REACTORS
330
C
102
}
330
C
100
AcDbDictionary
281
     1
  0
ACDBDICTIONARYWDFLT
  5
E
102
{ACAD_REACTORS
330
C
102
}
330
C
100
AcDbDictionary
281
     1
  3
Normal
350
F
100
AcDbDictionaryWithDefault
340
F
  0
DICTIONARY
  5
4C9
102
{ACAD_REACTORS
330
C
102
}
330
C
100
AcDbDictionary
281
     1
  3
A0
350
4CA
  3
A1
350
4CB
  3
A2
350
4CC
  3
A3
350
4CD
  3
A4
350
4CE
  3
A5
350
4CF
  3
A6
350
4D0
  3
A7
350
4D1
  3
A8
350
4D2
  3
A9
350
4D3
  3
B0
350
4D4
  3
B1
350
4D5
  3
B2
350
4D6
  3
B3
350
4D7
  3
B4
350
4D8
  3
B5
350
4D9
  3
B6
350
4DA
  0
DICTIONARY
  5
30
102
{ACAD_REACTORS
330
C
102
}
330
C
100
AcDbDictionary
281
     1
  3
Standard
350
31
  0
DICTIONARY
  5
14
102
{ACAD_REACTORS
330
C
102
}
330
C
100
AcDbDictionary
281
     1
  3
2dWireframe
350
1A
  3
3D Hidden
350
1C
  3
3dWireframe
350
1B
  3
Basic
350
19
  3
Brighten
350
20
  3
ColorChange
350
24
  3
Conceptual
350
1D
  3
Dim
350
1F
  3
EdgeColorOff
350
4C8
  3
Facepattern
350
23
  3
Flat
350
15
  3
FlatWithEdges
350
16
  3
Gouraud
350
17
  3
GouraudWithEdges
350
18
  3
Hidden
350
4C0
  3
JitterOff
350
4C6
  3
Linepattern
350
22
  3
OverhangOff
350
4C7
  3
Realistic
350
1E
  3
Shaded
350
4C5
  3
Shaded with edges
350
4C4
  3
Shades of Gray
350
4C1
  3
Sketchy
350
4C2
  3
Thicken
350
21
  3
Wireframe
350
4BF
  3
X-Ray
350
4C3
  0
XRECORD
  5
9D2
102
{ACAD_REACTORS
330
C
102
}
330
C
100
AcDbXrecord
280
     1
 90
        1
330
31
  0
DICTIONARY
  5
4A9
102
{ACAD_REACTORS
330
C
102
}
330
C
100
AcDbDictionary
281
     1
  3
CANNOSCALE
350
733
  3
CMLEADERSTYLE
350
732
  3
CTABLESTYLE
350
4AA
  3
DIMASSOC
350
4AD
  3
INDEXCTL
350
4AC
  3
SORTENTS
350
4AB
  3
XCLIPFRAME
350
7FB
  0
XRECORD
  5
9D3
102
{ACAD_REACTORS
330
C
102
}
330
C
100
AcDbXrecord
280
     1
  1
DWGPROPS COOKIE
  2

  3

  4

  6

  7

  8
imamura
  9

300
=
301
=
302
=
303
=
304
=
305
=
306
=
307
=
308
=
309
=
 40
0.0118526041666667
 41
2455657.649630891
 42
2457226.663615996
  1

 90
        0
  0
DICTIONARY
  5
585
102
{ACAD_REACTORS
330
584
102
}
330
584
100
AcDbDictionary
281
     1
  0
XRECORD
  5
731
102
{ACAD_REACTORS
330
730
102
}
330
730
100
AcDbXrecord
280
     1
290
     1
  0
SORTENTSTABLE
  5
83F
102
{ACAD_REACTORS
330
83E
102
}
330
83E
100
AcDbSortentsTable
330
36
331
860
  5
5CD
331
871
  5
84E
331
110
  5
215
331
990
  5
127
331
361
  5
8C6
331
9C9
  5
E9
331
882
  5
85F
331
121
  5
226
331
9A1
  5
138
331
372
  5
8D3
331
8BA
  5
468
331
44A
  5
95F
331
893
  5
870
331
132
  5
237
331
45B
  5
970
331
38B
  5
8DB
331
8CB
  5
44D
331
8A4
  5
881
331
46C
  5
981
331
1DC
  5
38D
331
8DC
  5
317
331
8B5
  5
463
331
3AD
  5
8ED
331
8ED
  5
328
331
9B8
  5
D3
331
47D
  5
992
331
1ED
  5
3AD
331
48E
  5
9A3
331
8FE
  5
339
331
49F
  5
9B4
331
1F7
  5
3B7
331
90F
  5
360
331
2A9
  5
499
331
208
  5
3CF
331
920
  5
258
331
3C9
  5
902
331
219
  5
3E0
331
3DA
  5
913
331
22A
  5
40B
331
3EB
  5
91E
331
23B
  5
435
331
93B
  5
294
331
31C
  5
88B
331
3FC
  5
929
331
32D
  5
89C
331
94C
  5
2AC
331
40D
  5
934
331
D6
  5
1DB
331
84F
  5
927
331
96E
  5
105
331
FF
  5
204
331
97F
  5
116
331
E7
  5
1EC
331
95D
  5
2BD
331
2BA
  5
5BC
331
298
  5
48B
331
850
  5
921
331
338
  5
8A7
331
E8
  5
1ED
331
9A8
  5
1D5
331
840
  5
949
331
980
  5
117
331
861
  5
83C
331
100
  5
205
331
872
  5
84F
331
111
  5
216
331
991
  5
128
331
362
  5
8C7
331
9CA
  5
E3
331
883
  5
860
331
122
  5
227
331
9A2
  5
139
331
373
  5
8D4
331
44B
  5
960
331
133
  5
238
331
8BB
  5
469
331
894
  5
871
331
45C
  5
971
331
8CC
  5
44E
331
8A5
  5
882
331
39D
  5
8DF
331
8DD
  5
318
331
46D
  5
982
331
1DD
  5
393
331
8B6
  5
464
331
3AE
  5
8EE
331
47E
  5
993
331
1EE
  5
3AE
331
48F
  5
9A4
331
299
  5
48C
331
1F8
  5
3B8
331
910
  5
361
331
2AA
  5
49A
331
209
  5
3D0
331
921
  5
259
331
3CA
  5
903
331
21A
  5
3E1
331
3DB
  5
914
331
22B
  5
40C
331
3EC
  5
91F
331
23C
  5
43B
331
93C
  5
295
331
31D
  5
88C
331
3FD
  5
92A
331
32E
  5
89D
331
276
  5
46C
331
95E
  5
2BE
331
94D
  5
2AD
331
96F
  5
106
331
D7
  5
1DC
331
2BB
  5
5BD
331
8FF
  5
33A
331
8EE
  5
329
331
D8
  5
1DD
331
851
  5
922
331
F0
  5
1F5
331
970
  5
107
331
339
  5
8A8
331
E9
  5
1EE
331
9A9
  5
1D6
331
841
  5
94A
331
981
  5
118
331
862
  5
83D
331
101
  5
206
331
873
  5
850
331
112
  5
217
331
992
  5
129
331
363
  5
8C8
331
43B
  5
950
331
123
  5
228
331
9A3
  5
1D0
331
884
  5
861
331
374
  5
8D5
331
8BC
  5
46A
331
44C
  5
961
331
134
  5
239
331
895
  5
872
331
45D
  5
972
331
38D
  5
8DC
331
8CD
  5
44F
331
8A6
  5
492
331
39E
  5
8E0
331
8DE
  5
319
331
46E
  5
983
331
1DE
  5
399
331
9CB
  5
DD
331
3AF
  5
8EF
331
8EF
  5
32A
331
47F
  5
994
331
490
  5
9A5
331
900
  5
33B
331
5B9
  5
9BC
331
1F9
  5
3B9
331
911
  5
362
331
29A
  5
48D
331
2AB
  5
49B
331
20A
  5
3D1
331
922
  5
261
331
3CB
  5
904
331
2BC
  5
5BE
331
3DC
  5
915
331
22C
  5
40D
331
3ED
  5
920
331
23D
  5
43C
331
31E
  5
88D
331
32F
  5
89E
331
277
  5
46D
331
95F
  5
2BF
331
94E
  5
2AE
331
93D
  5
296
331
21B
  5
3E2
331
1EF
  5
3AF
331
8B7
  5
465
331
330
  5
89F
331
278
  5
46E
331
960
  5
2C0
331
D9
  5
1DE
331
852
  5
8BA
331
F1
  5
1F6
331
971
  5
108
331
33A
  5
8A9
331
EA
  5
1EF
331
9AA
  5
EE
331
842
  5
944
331
982
  5
119
331
863
  5
840
331
102
  5
207
331
874
  5
851
331
113
  5
218
331
993
  5
12A
331
364
  5
8C9
331
9CC
  5
DE
331
43C
  5
951
331
124
  5
229
331
885
  5
862
331
375
  5
8D6
331
8BD
  5
46B
331
44D
  5
962
331
135
  5
23A
331
896
  5
873
331
45E
  5
973
331
8CE
  5
450
331
8A7
  5
493
331
39F
  5
8E1
331
8DF
  5
31A
331
46F
  5
984
331
1DF
  5
39D
331
480
  5
995
331
3B0
  5
8F0
331
491
  5
9A6
331
901
  5
33C
331
5BA
  5
9BD
331
1FA
  5
3BA
331
912
  5
363
331
29B
  5
48E
331
2AC
  5
49C
331
20B
  5
3D2
331
923
  5
262
331
3CC
  5
905
331
21C
  5
3E3
331
3DD
  5
916
331
22D
  5
413
331
31F
  5
88E
331
23E
  5
43D
331
93E
  5
297
331
94F
  5
2AF
331
2BD
  5
5BF
331
28A
  5
47D
331
8F0
  5
32B
331
9A4
  5
1D1
331
320
  5
88F
331
331
  5
8A0
331
950
  5
2B0
331
279
  5
46F
331
961
  5
2C1
331
DA
  5
1DF
331
853
  5
8BB
331
F2
  5
1F7
331
972
  5
109
331
33B
  5
8AA
331
EB
  5
1F0
331
9AB
  5
EF
331
843
  5
945
331
983
  5
11A
331
433
  5
94B
331
103
  5
208
331
864
  5
841
331
875
  5
852
331
114
  5
219
331
994
  5
12B
331
9BC
  5
F7
331
365
  5
8CA
331
9CD
  5
DF
331
43D
  5
952
331
125
  5
22A
331
886
  5
863
331
376
  5
8D7
331
8BE
  5
456
331
44E
  5
963
331
136
  5
23B
331
897
  5
874
331
9A5
  5
1D2
331
45F
  5
974
331
8CF
  5
451
331
470
  5
985
331
1E0
  5
39E
331
8E0
  5
31B
331
481
  5
996
331
3B1
  5
8F1
331
492
  5
9A7
331
902
  5
33D
331
5BB
  5
9BE
331
1FB
  5
3BB
331
913
  5
364
331
2AD
  5
49D
331
20C
  5
3D3
331
924
  5
276
331
3CD
  5
906
331
21D
  5
3E4
331
2BE
  5
5C0
331
3DE
  5
917
331
23F
  5
43E
331
93F
  5
298
331
22E
  5
414
331
29C
  5
48F
331
28B
  5
47E
331
8F1
  5
32C
331
8A8
  5
494
331
321
  5
890
331
240
  5
43F
331
940
  5
299
331
332
  5
8A1
331
261
  5
45A
331
951
  5
2B1
331
27A
  5
470
331
962
  5
F9
331
DB
  5
1E0
331
423
  5
941
331
F3
  5
1F8
331
973
  5
10A
331
854
  5
8BC
331
33C
  5
8AB
331
EC
  5
1F1
331
9AC
  5
F0
331
844
  5
93F
331
984
  5
11B
331
434
  5
94C
331
104
  5
209
331
865
  5
842
331
876
  5
853
331
115
  5
21A
331
995
  5
12C
331
9BD
  5
F4
331
366
  5
8CB
331
43E
  5
953
331
126
  5
22B
331
9A6
  5
1D3
331
9CE
  5
D7
331
377
  5
8D8
331
8BF
  5
457
331
44F
  5
964
331
137
  5
23C
331
898
  5
875
331
887
  5
864
331
460
  5
975
331
1D0
  5
36F
331
8A9
  5
495
331
471
  5
986
331
1E1
  5
39F
331
482
  5
997
331
3B2
  5
8F2
331
8F2
  5
32D
331
493
  5
9A8
331
28C
  5
47F
331
5BC
  5
9BF
331
1FC
  5
3C3
331
29D
  5
490
331
2AE
  5
49E
331
20D
  5
3D4
331
925
  5
277
331
3CE
  5
907
331
21E
  5
3EB
331
3DF
  5
918
331
22F
  5
415
331
2BF
  5
5C1
331
914
  5
365
331
903
  5
33E
331
8E1
  5
31C
331
8D0
  5
452
331
2C0
  5
5C2
331
3E0
  5
919
331
230
  5
41B
331
930
  5
282
331
322
  5
891
331
241
  5
440
331
941
  5
29A
331
333
  5
8A2
331
262
  5
45B
331
952
  5
2B2
331
413
  5
937
331
27B
  5
471
331
963
  5
FA
331
DC
  5
1E1
331
424
  5
942
331
F4
  5
1F9
331
974
  5
10B
331
855
  5
8BD
331
33D
  5
8AC
331
ED
  5
1F2
331
845
  5
940
331
985
  5
11C
331
435
  5
94D
331
105
  5
20A
331
866
  5
843
331
877
  5
854
331
116
  5
21B
331
996
  5
12D
331
9BE
  5
F5
331
367
  5
8CC
331
43F
  5
954
331
127
  5
22C
331
9A7
  5
1D4
331
9CF
  5
D8
331
378
  5
8D9
331
8C0
  5
458
331
450
  5
965
331
138
  5
23D
331
899
  5
876
331
888
  5
865
331
461
  5
976
331
1D1
  5
370
331
8AA
  5
479
331
3A2
  5
8E2
331
472
  5
987
331
1E2
  5
3A2
331
483
  5
998
331
3B3
  5
8F3
331
494
  5
9A9
331
904
  5
33F
331
5BD
  5
9C0
331
1FD
  5
3C4
331
915
  5
366
331
29E
  5
491
331
2AF
  5
49F
331
20E
  5
3D5
331
926
  5
278
331
3CF
  5
908
331
21F
  5
3EC
331
28D
  5
480
331
8F3
  5
32E
331
8E2
  5
31D
331
8D1
  5
453
331
2B0
  5
4A0
331
3D0
  5
909
331
220
  5
3ED
331
2C1
  5
5C3
331
3E1
  5
91A
331
231
  5
41C
331
931
  5
28A
331
323
  5
892
331
242
  5
441
331
942
  5
29B
331
403
  5
92D
331
953
  5
2B3
331
334
  5
8A3
331
414
  5
938
331
27C
  5
472
331
964
  5
FB
331
DD
  5
1E2
331
425
  5
943
331
F5
  5
1FA
331
975
  5
10C
331
856
  5
8BE
331
33E
  5
8AD
331
EE
  5
1F3
331
846
  5
93A
331
986
  5
11D
331
867
  5
844
331
106
  5
20B
331
878
  5
855
331
117
  5
21C
331
997
  5
12E
331
9BF
  5
F6
331
368
  5
8CD
331
440
  5
955
331
128
  5
22D
331
9D0
  5
D9
331
379
  5
8DA
331
8C1
  5
459
331
451
  5
966
331
89A
  5
877
331
462
  5
977
331
1D2
  5
371
331
8D2
  5
2C2
331
139
  5
23E
331
889
  5
866
331
3A3
  5
8E3
331
8E3
  5
31E
331
473
  5
988
331
1E3
  5
3A3
331
484
  5
999
331
3B4
  5
8F4
331
495
  5
9AA
331
905
  5
340
331
28E
  5
481
331
5BE
  5
9C1
331
1FE
  5
3C5
331
916
  5
367
331
20F
  5
3D6
331
927
  5
279
331
86
  5
F8
331
8F4
  5
32F
331
8AB
  5
47A
331
5C8
  5
9CB
331
928
  5
27A
331
2B1
  5
4A1
331
210
  5
3D7
331
3D1
  5
90A
331
221
  5
3F3
331
2C2
  5
5C4
331
3E2
  5
91B
331
232
  5
41D
331
932
  5
28B
331
3F3
  5
923
331
243
  5
442
331
943
  5
29C
331
324
  5
893
331
404
  5
92E
331
954
  5
2B4
331
335
  5
8A4
331
415
  5
939
331
27D
  5
473
331
965
  5
FC
331
DE
  5
1E3
331
857
  5
8BF
331
F6
  5
1FB
331
976
  5
10D
331
33F
  5
8AE
331
EF
  5
1F4
331
847
  5
93B
331
987
  5
11E
331
868
  5
845
331
107
  5
20C
331
879
  5
856
331
118
  5
21D
331
998
  5
12F
331
9C0
  5
F1
331
441
  5
956
331
88A
  5
867
331
452
  5
967
331
8C2
  5
444
331
393
  5
8DD
331
8D3
  5
2C3
331
463
  5
978
331
1D3
  5
372
331
8AC
  5
47B
331
89B
  5
878
331
129
  5
22E
331
3A4
  5
8E4
331
474
  5
989
331
1E4
  5
3A4
331
485
  5
99A
331
3B5
  5
8F5
331
496
  5
9AB
331
906
  5
341
331
5BF
  5
9C2
331
1FF
  5
3C6
331
917
  5
368
331
28F
  5
482
331
8F5
  5
330
331
8E4
  5
31F
331
290
  5
483
331
5C0
  5
9C3
331
200
  5
3C7
331
918
  5
36D
331
5C9
  5
9CC
331
929
  5
27B
331
2B2
  5
4A2
331
211
  5
3D8
331
3D2
  5
90B
331
222
  5
3F4
331
2C3
  5
5C5
331
3E3
  5
91C
331
233
  5
423
331
933
  5
28C
331
314
  5
883
331
3F4
  5
924
331
244
  5
443
331
944
  5
29D
331
325
  5
894
331
405
  5
92F
331
955
  5
2B5
331
336
  5
8A5
331
27E
  5
474
331
966
  5
FD
331
DF
  5
1E4
331
858
  5
8B4
331
F7
  5
1FC
331
977
  5
10E
331
340
  5
8AF
331
869
  5
846
331
108
  5
20D
331
988
  5
11F
331
9B0
  5
E4
331
359
  5
8C0
331
87A
  5
857
331
119
  5
21E
331
999
  5
130
331
442
  5
957
331
12A
  5
22F
331
88B
  5
868
331
453
  5
968
331
8C3
  5
445
331
89C
  5
879
331
464
  5
979
331
1D4
  5
373
331
8AD
  5
47C
331
8D4
  5
2C4
331
3A5
  5
8E5
331
8E5
  5
320
331
475
  5
98A
331
1E5
  5
3A5
331
9C1
  5
F2
331
486
  5
99B
331
3B6
  5
8F6
331
497
  5
9AC
331
907
  5
342
331
8F6
  5
331
331
4A0
  5
9B5
331
280
  5
476
331
498
  5
9AD
331
1F0
  5
3B0
331
908
  5
343
331
291
  5
484
331
5C1
  5
9C4
331
201
  5
3C8
331
919
  5
36E
331
5CA
  5
9CD
331
92A
  5
27C
331
2B3
  5
4A3
331
212
  5
3D9
331
3D3
  5
90C
331
223
  5
3F5
331
2C4
  5
5C6
331
3E4
  5
91D
331
234
  5
424
331
934
  5
28D
331
315
  5
884
331
3F5
  5
925
331
945
  5
29E
331
326
  5
895
331
337
  5
8A6
331
956
  5
2B6
331
848
  5
935
331
27F
  5
475
331
967
  5
FE
331
E0
  5
1E5
331
859
  5
8B5
331
F8
  5
1FD
331
978
  5
10F
331
341
  5
8B0
331
86A
  5
847
331
109
  5
20E
331
989
  5
120
331
87B
  5
858
331
11A
  5
21F
331
99A
  5
131
331
9C2
  5
F3
331
443
  5
958
331
88C
  5
869
331
454
  5
969
331
8C4
  5
446
331
89D
  5
87A
331
465
  5
97A
331
1D5
  5
374
331
8D5
  5
2C5
331
8AE
  5
45C
331
3A6
  5
8E6
331
8E6
  5
321
331
476
  5
98B
331
1E6
  5
3A6
331
12B
  5
230
331
9B1
  5
E5
331
487
  5
99C
331
3B7
  5
8F7
331
8F7
  5
332
331
4A1
  5
9B6
331
488
  5
99D
331
3B8
  5
8F8
331
8F8
  5
333
331
281
  5
477
331
499
  5
9AE
331
1F1
  5
3B1
331
909
  5
344
331
292
  5
485
331
5C2
  5
9C5
331
202
  5
3C9
331
91A
  5
23F
331
5CB
  5
9CE
331
92B
  5
27D
331
3C3
  5
8FC
331
213
  5
3DA
331
2B4
  5
4A4
331
3D4
  5
90D
331
224
  5
3FB
331
2C5
  5
5C7
331
316
  5
885
331
235
  5
425
331
935
  5
28E
331
327
  5
896
331
946
  5
2A6
331
957
  5
2B7
331
849
  5
936
331
968
  5
FF
331
E1
  5
1E6
331
85A
  5
8B6
331
F9
  5
1FE
331
979
  5
110
331
342
  5
8B1
331
9B2
  5
E6
331
86B
  5
848
331
10A
  5
20F
331
35B
  5
8C1
331
9C3
  5
ED
331
87C
  5
859
331
11B
  5
220
331
444
  5
959
331
12C
  5
231
331
88D
  5
86A
331
455
  5
96A
331
8C5
  5
447
331
466
  5
97B
331
1D6
  5
375
331
8D6
  5
2C6
331
89E
  5
87B
331
8AF
  5
45D
331
3A7
  5
8E7
331
8E7
  5
322
331
477
  5
98C
331
1E7
  5
3A7
331
99B
  5
132
331
98A
  5
121
331
8B0
  5
45E
331
3A8
  5
8E8
331
8E8
  5
323
331
478
  5
98D
331
1E8
  5
3A8
331
4A2
  5
9B7
331
489
  5
99E
331
3B9
  5
8F9
331
8F9
  5
334
331
282
  5
478
331
49A
  5
9AF
331
1F2
  5
3B2
331
90A
  5
359
331
293
  5
486
331
5C3
  5
9C6
331
203
  5
3CA
331
91B
  5
240
331
5CC
  5
9CF
331
92C
  5
27E
331
3C4
  5
8FD
331
214
  5
3DB
331
2B5
  5
4A5
331
3D5
  5
90E
331
225
  5
3FC
331
2C6
  5
5C8
331
317
  5
886
331
236
  5
42B
331
936
  5
28F
331
328
  5
897
331
947
  5
2A7
331
958
  5
2B8
331
84A
  5
930
331
969
  5
100
331
85B
  5
8B7
331
FA
  5
1FF
331
97A
  5
111
331
343
  5
8B2
331
86C
  5
849
331
10B
  5
210
331
36D
  5
8CE
331
87D
  5
85A
331
11C
  5
221
331
99C
  5
133
331
9C4
  5
EA
331
445
  5
95A
331
88E
  5
86B
331
456
  5
96B
331
8C6
  5
448
331
89F
  5
87C
331
467
  5
97C
331
1D7
  5
376
331
8D7
  5
2C7
331
12D
  5
232
331
98B
  5
122
331
E2
  5
1E7
331
8A0
  5
87D
331
468
  5
97D
331
1D8
  5
377
331
8D8
  5
2C8
331
8B1
  5
45F
331
3A9
  5
8E9
331
8E9
  5
324
331
479
  5
98E
331
1E9
  5
3A9
331
4A3
  5
9B8
331
48A
  5
99F
331
3BA
  5
8FA
331
8FA
  5
335
331
49B
  5
9B0
331
1F3
  5
3B3
331
90B
  5
35B
331
294
  5
487
331
5C4
  5
9C7
331
204
  5
3CB
331
91C
  5
241
331
5CD
  5
9D0
331
92D
  5
27F
331
3C5
  5
8FE
331
215
  5
3DC
331
2B6
  5
4A6
331
3D6
  5
90F
331
226
  5
3FD
331
2C7
  5
5C9
331
318
  5
887
331
237
  5
42C
331
937
  5
290
331
329
  5
898
331
258
  5
454
331
948
  5
2A8
331
D2
  5
1D7
331
84B
  5
931
331
96A
  5
101
331
42B
  5
946
331
FB
  5
200
331
97B
  5
112
331
344
  5
8B3
331
86D
  5
84A
331
10C
  5
211
331
98C
  5
123
331
35D
  5
8C2
331
36E
  5
8CF
331
87E
  5
85B
331
11D
  5
222
331
99D
  5
134
331
9C5
  5
EB
331
85C
  5
8B8
331
E3
  5
1E8
331
959
  5
2B9
331
446
  5
95B
331
88F
  5
86C
331
457
  5
96C
331
8C7
  5
449
331
12E
  5
233
331
890
  5
86D
331
458
  5
96D
331
8C8
  5
44A
331
8A1
  5
87E
331
399
  5
8DE
331
8D9
  5
314
331
469
  5
97E
331
1D9
  5
378
331
8B2
  5
460
331
3AA
  5
8EA
331
8EA
  5
325
331
47A
  5
98F
331
1EA
  5
3AA
331
4A4
  5
9B9
331
48B
  5
9A0
331
3BB
  5
8FB
331
8FB
  5
336
331
49C
  5
9B1
331
1F4
  5
3B4
331
90C
  5
35D
331
295
  5
488
331
5C5
  5
9C8
331
205
  5
3CC
331
91D
  5
242
331
2A6
  5
496
331
3C6
  5
8FF
331
216
  5
3DD
331
92E
  5
280
331
2B7
  5
5B9
331
3D7
  5
910
331
227
  5
403
331
2C8
  5
5CA
331
319
  5
888
331
238
  5
42D
331
32A
  5
899
331
259
  5
455
331
949
  5
2A9
331
938
  5
291
331
D3
  5
1D8
331
41B
  5
93C
331
96B
  5
102
331
E4
  5
1E9
331
83C
  5
94E
331
42C
  5
947
331
FC
  5
201
331
86E
  5
84B
331
10D
  5
212
331
98D
  5
124
331
35E
  5
8C3
331
36F
  5
8D0
331
87F
  5
85C
331
11E
  5
223
331
99E
  5
135
331
447
  5
95C
331
12F
  5
234
331
9C6
  5
EC
331
85D
  5
8B9
331
97C
  5
113
331
84C
  5
92B
331
95A
  5
2BA
331
880
  5
85D
331
370
  5
8D1
331
8B8
  5
466
331
448
  5
95D
331
130
  5
235
331
891
  5
86E
331
459
  5
96E
331
8C9
  5
44B
331
8A2
  5
87F
331
46A
  5
97F
331
1DA
  5
379
331
8DA
  5
315
331
8B3
  5
461
331
3AB
  5
8EB
331
8EB
  5
326
331
47B
  5
990
331
1EB
  5
3AB
331
4A5
  5
9BA
331
48C
  5
9A1
331
8FC
  5
337
331
49D
  5
9B2
331
1F5
  5
3B5
331
90D
  5
35E
331
296
  5
489
331
5C6
  5
9C9
331
206
  5
3CD
331
91E
  5
243
331
2A7
  5
497
331
3C7
  5
900
331
217
  5
3DE
331
2B8
  5
5BA
331
3D8
  5
911
331
228
  5
404
331
31A
  5
889
331
239
  5
433
331
939
  5
292
331
32B
  5
89A
331
40B
  5
932
331
95B
  5
2BB
331
94A
  5
2AA
331
41C
  5
93D
331
96C
  5
103
331
84D
  5
92C
331
83D
  5
94F
331
97D
  5
114
331
42D
  5
948
331
85E
  5
5CB
331
FD
  5
202
331
E5
  5
1EA
331
D4
  5
1D9
331
92F
  5
281
331
86F
  5
84C
331
10E
  5
213
331
98E
  5
125
331
35F
  5
8C4
331
9C7
  5
E7
331
11F
  5
224
331
99F
  5
136
331
9B6
  5
86
331
870
  5
84D
331
360
  5
8C5
331
9C8
  5
E8
331
881
  5
85E
331
120
  5
225
331
9A0
  5
137
331
371
  5
8D2
331
8B9
  5
467
331
449
  5
95E
331
131
  5
236
331
892
  5
86F
331
45A
  5
96F
331
8CA
  5
44C
331
8A3
  5
880
331
46B
  5
980
331
1DB
  5
38B
331
8DB
  5
316
331
8B4
  5
462
331
3AC
  5
8EC
331
8EC
  5
327
331
47C
  5
991
331
1EC
  5
3AC
331
4A6
  5
9BB
331
48D
  5
9A2
331
8FD
  5
338
331
49E
  5
9B3
331
1F6
  5
3B6
331
90E
  5
35F
331
297
  5
48A
331
5C7
  5
9CA
331
207
  5
3CE
331
2A8
  5
498
331
3C8
  5
901
331
2B9
  5
5BB
331
3D9
  5
912
331
229
  5
405
331
31B
  5
88A
331
23A
  5
434
331
93A
  5
293
331
3FB
  5
928
331
32C
  5
89B
331
94B
  5
2AB
331
40C
  5
933
331
D5
  5
1DA
331
41D
  5
93E
331
96D
  5
104
331
E6
  5
1EB
331
85F
  5
5CC
331
FE
  5
203
331
97E
  5
115
331
84E
  5
926
331
95C
  5
2BC
331
218
  5
3DF
331
91F
  5
244
331
10F
  5
214
331
98F
  5
126
331
9B7
  5
D2
  0
XRECORD
  5
9D6
102
{ACAD_REACTORS
330
9D4
102
}
330
9D4
100
AcDbXrecord
280
     1
 70
     2
  0
XRECORD
  5
9D5
102
{ACAD_REACTORS
330
9D4
102
}
330
9D4
100
AcDbXrecord
280
     1
 40
1.25
  0
XRECORD
  5
9D7
102
{ACAD_REACTORS
330
9D4
102
}
330
9D4
100
AcDbXrecord
280
     1
 40
1.570796326794896
  0
LAYOUT
  5
39
102
{ACAD_XDICTIONARY
360
9FB
102
}
102
{ACAD_REACTORS
330
2E
102
}
330
2E
100
AcDbPlotSettings
  1

  2
PDF Complete
  4

  6

 40
0.0
 41
0.0
 42
0.0
 43
0.0
 44
0.0
 45
0.0
 46
0.0
 47
0.0
 48
0.0
 49
0.0
140
0.0
141
0.0
142
1.0
143
1.0
 70
  1712
 72
     0
 73
     0
 74
     0
  7

 75
     0
147
1.0
148
0.0
149
0.0
100
AcDbLayout
  1
Model
 70
     1
 71
     0
 10
0.0
 20
0.0
 11
12.0
 21
9.0
 12
0.0
 22
0.0
 32
0.0
 14
0.0
 24
0.0
 34
0.0
 15
0.0
 25
0.0
 35
0.0
146
0.0
 13
0.0
 23
0.0
 33
0.0
 16
1.0
 26
0.0
 36
0.0
 17
0.0
 27
1.0
 37
0.0
 76
     0
330
36
331
56
  0
LAYOUT
  5
35
102
{ACAD_XDICTIONARY
360
9F9
102
}
102
{ACAD_REACTORS
330
2E
102
}
330
2E
100
AcDbPlotSettings
  1

  2
PDF Complete
  4

  6

 40
0.0
 41
0.0
 42
0.0
 43
0.0
 44
0.0
 45
0.0
 46
0.0
 47
0.0
 48
0.0
 49
0.0
140
0.0
141
0.0
142
1.0
143
1.0
 70
   688
 72
     0
 73
     0
 74
     5
  7

 75
    16
147
1.0
148
0.0
149
0.0
100
AcDbLayout
  1
レイアウト1
 70
     1
 71
     1
 10
0.0
 20
0.0
 11
12.0
 21
9.0
 12
0.0
 22
0.0
 32
0.0
 14
1.000000000000000E+20
 24
1.000000000000000E+20
 34
1.000000000000000E+20
 15
-1.000000000000000E+20
 25
-1.000000000000000E+20
 35
-1.000000000000000E+20
146
0.0
 13
0.0
 23
0.0
 33
0.0
 16
1.0
 26
0.0
 36
0.0
 17
0.0
 27
1.0
 37
0.0
 76
     0
330
32
  0
MATERIAL
  5
12
102
{ACAD_XDICTIONARY
360
4B1
102
}
102
{ACAD_REACTORS
330
10
102
}
330
10
100
AcDbMaterial
  1
ByBlock
  0
MATERIAL
  5
11
102
{ACAD_XDICTIONARY
360
4AF
102
}
102
{ACAD_REACTORS
330
10
102
}
330
10
100
AcDbMaterial
  1
ByLayer
  0
MATERIAL
  5
13
102
{ACAD_XDICTIONARY
360
4B3
102
}
102
{ACAD_REACTORS
330
10
102
}
330
10
100
AcDbMaterial
  1
Global
  0
MLEADERSTYLE
  5
4DC
102
{ACAD_REACTORS
330
4DB
102
}
330
4DB
100
AcDbMLeaderStyle
170
     2
171
     1
172
     0
 90
        2
 40
0.0
 41
0.0
173
     1
 91
-1056964608
340
28
 92
       -2
290
     1
 42
0.09
291
     1
 43
0.36
  3
Standard
 44
0.18
300

342
26
174
     1
178
     6
175
     1
176
     0
 93
-1056964608
 45
0.18
292
     0
297
     0
 46
0.18
 94
-1056964608
 47
1.0
 49
1.0
140
1.0
293
     1
141
0.0
294
     1
177
     0
142
1.0
295
     0
296
     0
143
0.125
1001
ACAD_MLEADERVER
1070
     2
  0
MLINESTYLE
  5
2C
102
{ACAD_REACTORS
330
2B
102
}
330
2B
100
AcDbMlineStyle
  2
STANDARD
 70
     0
  3

 62
   256
 51
90.0
 52
90.0
 71
     2
 49
0.5
 62
   256
  6
BYLAYER
 49
-0.5
 62
   256
  6
BYLAYER
  0
ACDBPLACEHOLDER
  5
F
102
{ACAD_REACTORS
330
E
102
}
330
E
  0
SCALE
  5
4CA
102
{ACAD_REACTORS
330
4C9
102
}
330
4C9
100
AcDbScale
 70
     0
300
1:1
140
1.0
141
1.0
290
     1
  0
SCALE
  5
4CB
102
{ACAD_REACTORS
330
4C9
102
}
330
4C9
100
AcDbScale
 70
     0
300
1/128" = 1'-0"
140
0.0078125
141
12.0
290
     0
  0
SCALE
  5
4CC
102
{ACAD_REACTORS
330
4C9
102
}
330
4C9
100
AcDbScale
 70
     0
300
1/64" = 1'-0"
140
0.015625
141
12.0
290
     0
  0
SCALE
  5
4CD
102
{ACAD_REACTORS
330
4C9
102
}
330
4C9
100
AcDbScale
 70
     0
300
1/32" = 1'-0"
140
0.03125
141
12.0
290
     0
  0
SCALE
  5
4CE
102
{ACAD_REACTORS
330
4C9
102
}
330
4C9
100
AcDbScale
 70
     0
300
1/16" = 1'-0"
140
0.0625
141
12.0
290
     0
  0
SCALE
  5
4CF
102
{ACAD_REACTORS
330
4C9
102
}
330
4C9
100
AcDbScale
 70
     0
300
3/32" = 1'-0"
140
0.09375
141
12.0
290
     0
  0
SCALE
  5
4D0
102
{ACAD_REACTORS
330
4C9
102
}
330
4C9
100
AcDbScale
 70
     0
300
1/8" = 1'-0"
140
0.125
141
12.0
290
     0
  0
SCALE
  5
4D1
102
{ACAD_REACTORS
330
4C9
102
}
330
4C9
100
AcDbScale
 70
     0
300
3/16" = 1'-0"
140
0.1875
141
12.0
290
     0
  0
SCALE
  5
4D2
102
{ACAD_REACTORS
330
4C9
102
}
330
4C9
100
AcDbScale
 70
     0
300
1/4" = 1'-0"
140
0.25
141
12.0
290
     0
  0
SCALE
  5
4D3
102
{ACAD_REACTORS
330
4C9
102
}
330
4C9
100
AcDbScale
 70
     0
300
3/8" = 1'-0"
140
0.375
141
12.0
290
     0
  0
SCALE
  5
4D4
102
{ACAD_REACTORS
330
4C9
102
}
330
4C9
100
AcDbScale
 70
     0
300
1/2" = 1'-0"
140
0.5
141
12.0
290
     0
  0
SCALE
  5
4D5
102
{ACAD_REACTORS
330
4C9
102
}
330
4C9
100
AcDbScale
 70
     0
300
3/4" = 1'-0"
140
0.75
141
12.0
290
     0
  0
SCALE
  5
4D6
102
{ACAD_REACTORS
330
4C9
102
}
330
4C9
100
AcDbScale
 70
     0
300
1" = 1'-0"
140
1.0
141
12.0
290
     0
  0
SCALE
  5
4D7
102
{ACAD_REACTORS
330
4C9
102
}
330
4C9
100
AcDbScale
 70
     0
300
1-1/2" = 1'-0"
140
1.5
141
12.0
290
     0
  0
SCALE
  5
4D8
102
{ACAD_REACTORS
330
4C9
102
}
330
4C9
100
AcDbScale
 70
     0
300
3" = 1'-0"
140
3.0
141
12.0
290
     0
  0
SCALE
  5
4D9
102
{ACAD_REACTORS
330
4C9
102
}
330
4C9
100
AcDbScale
 70
     0
300
6" = 1'-0"
140
6.0
141
12.0
290
     0
  0
SCALE
  5
4DA
102
{ACAD_REACTORS
330
4C9
102
}
330
4C9
100
AcDbScale
 70
     0
300
1'-0" = 1'-0"
140
12.0
141
12.0
290
     0
  0
TABLESTYLE
  5
31
102
{ACAD_XDICTIONARY
360
735
102
}
102
{ACAD_REACTORS
330
30
102
}
330
30
100
AcDbTableStyle
  3
Standard
 70
     0
 71
     0
 40
0.06
 41
0.06
280
     0
281
     0
  7
STANDARD
140
0.18
170
     2
 62
     0
 63
     7
283
     0
274
    -2
284
     1
 64
     0
275
    -2
285
     1
 65
     0
276
    -2
286
     1
 66
     0
277
    -2
287
     1
 67
     0
278
    -2
288
     1
 68
     0
279
    -2
289
     1
 69
     0
  7
STANDARD
140
0.25
170
     5
 62
     0
 63
     7
283
     0
274
    -2
284
     1
 64
     0
275
    -2
285
     1
 65
     0
276
    -2
286
     1
 66
     0
277
    -2
287
     1
 67
     0
278
    -2
288
     1
 68
     0
279
    -2
289
     1
 69
     0
  7
STANDARD
140
0.18
170
     5
 62
     0
 63
     7
283
     0
274
    -2
284
     1
 64
     0
275
    -2
285
     1
 65
     0
276
    -2
286
     1
 66
     0
277
    -2
287
     1
 67
     0
278
    -2
288
     1
 68
     0
279
    -2
289
     1
 69
     0
  0
VISUALSTYLE
  5
1A
102
{ACAD_XDICTIONARY
360
9E2
102
}
102
{ACAD_REACTORS
330
14
102
}
330
14
100
AcDbVisualStyle
  2

 70
     4
 71
     0
 72
     2
 73
     0
 90
        0
 40
-0.6
 41
-30.0
 62
     5
 63
     7
 74
     1
 91
        4
 64
     7
 65
   257
 75
     1
175
     1
 42
1.0
 92
        0
 66
   257
 43
1.0
 76
     1
 77
     6
 78
     2
 67
     7
 79
     5
170
     0
171
     0
290
     0
174
     0
 93
        1
 44
0.0
173
     0
291
     0
 45
0.0
1001
ACAD
1000
AcDbSavedByObjectVersion
1070
     0
  0
VISUALSTYLE
  5
1C
102
{ACAD_XDICTIONARY
360
9E6
102
}
102
{ACAD_REACTORS
330
14
102
}
330
14
100
AcDbVisualStyle
  2

 70
     6
 71
     1
 72
     2
 73
     2
 90
        0
 40
-0.6
 41
-30.0
 62
     5
 63
     7
 74
     2
 91
        2
 64
     7
 65
   257
 75
     2
175
     1
 42
40.0
 92
        0
 66
   257
 43
1.0
 76
     1
 77
     6
 78
     2
 67
     7
 79
     3
170
     0
171
     0
290
     0
174
     0
 93
        1
 44
0.0
173
     0
291
     0
 45
0.0
1001
ACAD
1000
AcDbSavedByObjectVersion
1070
     0
  0
VISUALSTYLE
  5
1B
102
{ACAD_XDICTIONARY
360
9E4
102
}
102
{ACAD_REACTORS
330
14
102
}
330
14
100
AcDbVisualStyle
  2

 70
     5
 71
     0
 72
     2
 73
     0
 90
        0
 40
-0.6
 41
-30.0
 62
     5
 63
     7
 74
     1
 91
        4
 64
     7
 65
   257
 75
     1
175
     1
 42
1.0
 92
        0
 66
   257
 43
1.0
 76
     1
 77
     6
 78
     2
 67
     7
 79
     5
170
     0
171
     0
290
     0
174
     0
 93
        1
 44
0.0
173
     0
291
     0
 45
0.0
1001
ACAD
1000
AcDbSavedByObjectVersion
1070
     0
  0
VISUALSTYLE
  5
19
102
{ACAD_XDICTIONARY
360
9E0
102
}
102
{ACAD_REACTORS
330
14
102
}
330
14
100
AcDbVisualStyle
  2

 70
     7
 71
     1
 72
     0
 73
     1
 90
        0
 40
-0.6
 41
-30.0
 62
     5
 63
     7
 74
     0
 91
        4
 64
     7
 65
   257
 75
     1
175
     1
 42
1.0
 92
        8
 66
     7
 43
1.0
 76
     1
 77
     6
 78
     2
 67
     7
 79
     5
170
     0
171
     0
290
     0
174
     0
 93
        1
 44
0.0
173
     0
291
     1
 45
0.0
1001
ACAD
1000
AcDbSavedByObjectVersion
1070
     0
  0
VISUALSTYLE
  5
20
102
{ACAD_XDICTIONARY
360
9EE
102
}
102
{ACAD_REACTORS
330
14
102
}
330
14
100
AcDbVisualStyle
  2

 70
    12
 71
     2
 72
     2
 73
     0
 90
        0
 40
-0.6
 41
-30.0
 62
     5
 63
     7
 74
     1
 91
        4
 64
     7
 65
   257
 75
     1
175
     1
 42
1.0
 92
        8
 66
     7
 43
1.0
 76
     1
 77
     6
 78
     2
 67
     7
 79
     5
170
     0
171
     0
290
     0
174
     0
 93
        1
 44
50.0
173
     0
291
     1
 45
0.0
1001
ACAD
1000
AcDbSavedByObjectVersion
1070
     0
  0
VISUALSTYLE
  5
24
102
{ACAD_XDICTIONARY
360
9F6
102
}
102
{ACAD_REACTORS
330
14
102
}
330
14
100
AcDbVisualStyle
  2

 70
    16
 71
     2
 72
     2
 73
     3
 90
        0
 40
-0.6
 41
-30.0
 62
     5
 63
     8
 74
     1
 91
        4
 64
     7
 65
   257
 75
     1
175
     1
 42
1.0
 92
        8
 66
     8
 43
1.0
 76
     1
 77
     6
 78
     2
 67
     7
 79
     5
170
     0
171
     0
290
     0
174
     0
 93
        1
 44
0.0
173
     0
291
     1
 45
0.0
1001
ACAD
1000
AcDbSavedByObjectVersion
1070
     0
  0
VISUALSTYLE
  5
1D
102
{ACAD_XDICTIONARY
360
9E8
102
}
102
{ACAD_REACTORS
330
14
102
}
330
14
100
AcDbVisualStyle
  2

 70
     9
 71
     3
 72
     2
 73
     0
 90
        0
 40
-0.6
 41
-30.0
 62
     5
 63
     7
 74
     2
 91
        2
 64
     7
 65
   257
 75
     1
175
     1
 42
40.0
 92
        8
 66
     7
 43
1.0
 76
     1
 77
     6
 78
     2
 67
     7
 79
     3
170
     0
171
     0
290
     0
174
     0
 93
        1
 44
0.0
173
     0
291
     0
 45
0.0
1001
ACAD
1000
AcDbSavedByObjectVersion
1070
     0
  0
VISUALSTYLE
  5
1F
102
{ACAD_XDICTIONARY
360
9EC
102
}
102
{ACAD_REACTORS
330
14
102
}
330
14
100
AcDbVisualStyle
  2

 70
    11
 71
     2
 72
     2
 73
     0
 90
        0
 40
-0.6
 41
-30.0
 62
     5
 63
     7
 74
     1
 91
        4
 64
     7
 65
   257
 75
     1
175
     1
 42
1.0
 92
        8
 66
     7
 43
1.0
 76
     1
 77
     6
 78
     2
 67
     7
 79
     5
170
     0
171
     0
290
     0
174
     0
 93
        1
 44
-50.0
173
     0
291
     1
 45
0.0
1001
ACAD
1000
AcDbSavedByObjectVersion
1070
     0
  0
VISUALSTYLE
  5
4C8
102
{ACAD_XDICTIONARY
360
A0F
102
}
102
{ACAD_REACTORS
330
14
102
}
330
14
100
AcDbVisualStyle
  2

 70
    22
 71
     2
 72
     2
 73
     0
 90
        0
 40
-0.6
 41
-30.0
 62
     5
 63
     7
 74
     1
 91
        4
 64
     7
 65
   257
 75
     1
175
     1
 42
1.0
 92
        8
 66
     7
 43
1.0
 76
     1
 77
     6
 78
     2
 67
     7
 79
     5
170
     0
171
     0
290
     0
174
     0
 93
        1
 44
0.0
173
     0
291
     1
 45
0.0
1001
ACAD
1000
AcDbSavedByObjectVersion
1070
     0
  0
VISUALSTYLE
  5
23
102
{ACAD_XDICTIONARY
360
9F4
102
}
102
{ACAD_REACTORS
330
14
102
}
330
14
100
AcDbVisualStyle
  2

 70
    15
 71
     2
 72
     2
 73
     0
 90
        0
 40
-0.6
 41
-30.0
 62
     5
 63
     7
 74
     1
 91
        4
 64
     7
 65
   257
 75
     1
175
     1
 42
1.0
 92
        8
 66
     7
 43
1.0
 76
     1
 77
     6
 78
     2
 67
     7
 79
     5
170
     0
171
     0
290
     0
174
     0
 93
        1
 44
0.0
173
     0
291
     1
 45
0.0
1001
ACAD
1000
AcDbSavedByObjectVersion
1070
     0
  0
VISUALSTYLE
  5
15
102
{ACAD_XDICTIONARY
360
9D8
102
}
102
{ACAD_REACTORS
330
14
102
}
330
14
100
AcDbVisualStyle
  2

 70
     0
 71
     2
 72
     1
 73
     1
 90
        2
 40
-0.6
 41
30.0
 62
     5
 63
     7
 74
     0
 91
        4
 64
     7
 65
   257
 75
     1
175
     1
 42
1.0
 92
        8
 66
     7
 43
1.0
 76
     1
 77
     6
 78
     2
 67
     7
 79
     5
170
     0
171
     0
290
     0
174
     0
 93
       13
 44
0.0
173
     0
291
     1
 45
0.0
1001
ACAD
1000
AcDbSavedByObjectVersion
1070
     0
  0
VISUALSTYLE
  5
16
102
{ACAD_XDICTIONARY
360
9DA
102
}
102
{ACAD_REACTORS
330
14
102
}
330
14
100
AcDbVisualStyle
  2

 70
     1
 71
     2
 72
     1
 73
     1
 90
        2
 40
-0.6
 41
30.0
 62
     5
 63
     7
 74
     1
 91
        4
 64
     7
 65
   257
 75
     1
175
     1
 42
1.0
 92
        0
 66
   257
 43
1.0
 76
     1
 77
     6
 78
     2
 67
     7
 79
     5
170
     0
171
     0
290
     0
174
     0
 93
       13
 44
0.0
173
     0
291
     1
 45
0.0
1001
ACAD
1000
AcDbSavedByObjectVersion
1070
     0
  0
VISUALSTYLE
  5
17
102
{ACAD_XDICTIONARY
360
9DC
102
}
102
{ACAD_REACTORS
330
14
102
}
330
14
100
AcDbVisualStyle
  2

 70
     2
 71
     2
 72
     2
 73
     1
 90
        2
 40
-0.6
 41
30.0
 62
     5
 63
     7
 74
     0
 91
        4
 64
     7
 65
   257
 75
     1
175
     1
 42
1.0
 92
        0
 66
     7
 43
1.0
 76
     1
 77
     6
 78
     2
 67
     7
 79
     5
170
     0
171
     0
290
     0
174
     0
 93
       13
 44
0.0
173
     0
291
     1
 45
0.0
1001
ACAD
1000
AcDbSavedByObjectVersion
1070
     0
  0
VISUALSTYLE
  5
18
102
{ACAD_XDICTIONARY
360
9DE
102
}
102
{ACAD_REACTORS
330
14
102
}
330
14
100
AcDbVisualStyle
  2

 70
     3
 71
     2
 72
     2
 73
     1
 90
        2
 40
-0.6
 41
30.0
 62
     5
 63
     7
 74
     1
 91
        4
 64
     7
 65
   257
 75
     1
175
     1
 42
1.0
 92
        0
 66
   257
 43
1.0
 76
     1
 77
     6
 78
     2
 67
     7
 79
     5
170
     0
171
     0
290
     0
174
     0
 93
       13
 44
0.0
173
     0
291
     1
 45
0.0
1001
ACAD
1000
AcDbSavedByObjectVersion
1070
     0
  0
VISUALSTYLE
  5
4C0
102
{ACAD_XDICTIONARY
360
9FF
102
}
102
{ACAD_REACTORS
330
14
102
}
330
14
100
AcDbVisualStyle
  2

 70
     6
 71
     1
 72
     2
 73
     2
 90
        0
 40
-0.6
 41
-30.0
 62
     5
 63
     7
 74
     2
 91
        2
 64
     7
 65
   257
 75
     2
175
     1
 42
40.0
 92
        0
 66
   257
 43
1.0
 76
     1
 77
     6
 78
     2
 67
     7
 79
     3
170
     0
171
     0
290
     0
174
     0
 93
        1
 44
0.0
173
     0
291
     0
 45
0.0
1001
ACAD
1000
AcDbSavedByObjectVersion
1070
     0
  0
VISUALSTYLE
  5
4C6
102
{ACAD_XDICTIONARY
360
A0B
102
}
102
{ACAD_REACTORS
330
14
102
}
330
14
100
AcDbVisualStyle
  2

 70
    20
 71
     2
 72
     2
 73
     0
 90
        0
 40
-0.6
 41
-30.0
 62
     5
 63
     7
 74
     1
 91
        4
 64
     7
 65
   257
 75
     1
175
     1
 42
1.0
 92
       10
 66
     7
 43
1.0
 76
     1
 77
     6
 78
     2
 67
     7
 79
     5
170
     0
171
     0
290
     0
174
     0
 93
        1
 44
0.0
173
     0
291
     1
 45
0.0
1001
ACAD
1000
AcDbSavedByObjectVersion
1070
     0
  0
VISUALSTYLE
  5
22
102
{ACAD_XDICTIONARY
360
9F2
102
}
102
{ACAD_REACTORS
330
14
102
}
330
14
100
AcDbVisualStyle
  2

 70
    14
 71
     2
 72
     2
 73
     0
 90
        0
 40
-0.6
 41
-30.0
 62
     5
 63
     7
 74
     1
 91
        4
 64
     7
 65
   257
 75
     7
175
     7
 42
1.0
 92
        8
 66
     7
 43
1.0
 76
     1
 77
     6
 78
     2
 67
     7
 79
     5
170
     0
171
     0
290
     0
174
     0
 93
        1
 44
0.0
173
     0
291
     1
 45
0.0
1001
ACAD
1000
AcDbSavedByObjectVersion
1070
     0
  0
VISUALSTYLE
  5
4C7
102
{ACAD_XDICTIONARY
360
A0D
102
}
102
{ACAD_REACTORS
330
14
102
}
330
14
100
AcDbVisualStyle
  2

 70
    21
 71
     2
 72
     2
 73
     0
 90
        0
 40
-0.6
 41
-30.0
 62
     5
 63
     7
 74
     1
 91
        4
 64
     7
 65
   257
 75
     1
175
     1
 42
1.0
 92
        9
 66
     7
 43
1.0
 76
     1
 77
     6
 78
     2
 67
     7
 79
     5
170
     0
171
     0
290
     0
174
     0
 93
        1
 44
0.0
173
     0
291
     1
 45
0.0
1001
ACAD
1000
AcDbSavedByObjectVersion
1070
     0
  0
VISUALSTYLE
  5
1E
102
{ACAD_XDICTIONARY
360
9EA
102
}
102
{ACAD_REACTORS
330
14
102
}
330
14
100
AcDbVisualStyle
  2

 70
     8
 71
     2
 72
     2
 73
     0
 90
        0
 40
-0.6
 41
-30.0
 62
     5
 63
     7
 74
     1
 91
        0
 64
     7
 65
   257
 75
     1
175
     1
 42
1.0
 92
        8
 66
     8
 43
1.0
 76
     1
 77
     6
 78
     2
 67
     7
 79
     5
170
     0
171
     0
290
     0
174
     0
 93
       13
 44
0.0
173
     0
291
     0
 45
0.0
1001
ACAD
1000
AcDbSavedByObjectVersion
1070
     0
  0
VISUALSTYLE
  5
4C5
102
{ACAD_XDICTIONARY
360
A09
102
}
102
{ACAD_REACTORS
330
14
102
}
330
14
100
AcDbVisualStyle
  2

 70
    27
 71
     2
 72
     2
 73
     1
 90
        2
 40
-0.6
 41
30.0
 62
     5
 63
     7
 74
     0
 91
        4
 64
     7
 65
   257
 75
     1
175
     1
 42
1.0
 92
        8
 66
   257
 43
1.0
 76
     1
 77
     6
 78
     2
 67
     8
 79
     3
170
     0
171
     0
290
     0
174
     0
 93
        5
 44
0.0
173
     0
291
     0
 45
0.0
1001
ACAD
1000
AcDbSavedByObjectVersion
1070
     0
  0
VISUALSTYLE
  5
4C4
102
{ACAD_XDICTIONARY
360
A07
102
}
102
{ACAD_REACTORS
330
14
102
}
330
14
100
AcDbVisualStyle
  2

 70
    26
 71
     2
 72
     2
 73
     1
 90
        2
 40
-0.6
 41
30.0
 62
     5
 63
     7
 74
     1
 91
       10
 64
     7
 65
   257
 75
     2
175
     1
 42
1.0
 92
        8
 66
   257
 43
1.0
 76
     1
 77
     6
 78
     2
 67
     7
 79
     3
170
     0
171
     0
290
     0
174
     0
 93
        5
 44
0.0
173
     0
291
     0
 45
0.0
1001
ACAD
1000
AcDbSavedByObjectVersion
1070
     0
  0
VISUALSTYLE
  5
4C1
102
{ACAD_XDICTIONARY
360
A01
102
}
102
{ACAD_REACTORS
330
14
102
}
330
14
100
AcDbVisualStyle
  2

 70
    23
 71
     2
 72
     2
 73
     3
 90
        0
 40
-0.6
 41
-30.0
 62
     5
 63
     7
 74
     2
 91
        2
 64
     7
 65
     7
 75
     1
175
     1
 42
40.0
 92
        8
 66
     7
 43
1.0
 76
     1
 77
     6
 78
     2
 67
     7
 79
     3
170
     0
171
     0
290
     0
174
     0
 93
        1
 44
0.0
173
     0
291
     0
 45
0.0
1001
ACAD
1000
AcDbSavedByObjectVersion
1070
     0
  0
VISUALSTYLE
  5
4C2
102
{ACAD_XDICTIONARY
360
A03
102
}
102
{ACAD_REACTORS
330
14
102
}
330
14
100
AcDbVisualStyle
  2

 70
    24
 71
     1
 72
     2
 73
     2
 90
        0
 40
-0.6
 41
-30.0
 62
     5
 63
     7
 74
     2
 91
        2
 64
     7
 65
     7
 75
     1
175
     1
 42
40.0
 92
       11
 66
     7
 43
1.0
 76
     1
 77
     6
 78
     2
 67
     7
 79
     6
170
     0
171
     0
290
     0
174
     0
 93
        1
 44
0.0
173
     0
291
     0
 45
0.0
1001
ACAD
1000
AcDbSavedByObjectVersion
1070
     0
  0
VISUALSTYLE
  5
21
102
{ACAD_XDICTIONARY
360
9F0
102
}
102
{ACAD_REACTORS
330
14
102
}
330
14
100
AcDbVisualStyle
  2

 70
    13
 71
     2
 72
     2
 73
     0
 90
        0
 40
-0.6
 41
-30.0
 62
     5
 63
     7
 74
     1
 91
        4
 64
     7
 65
   257
 75
     1
175
     1
 42
1.0
 92
       12
 66
     7
 43
1.0
 76
     1
 77
     6
 78
     2
 67
     7
 79
     5
170
     0
171
     0
290
     0
174
     0
 93
        1
 44
0.0
173
     0
291
     1
 45
0.0
1001
ACAD
1000
AcDbSavedByObjectVersion
1070
     0
  0
VISUALSTYLE
  5
4BF
102
{ACAD_XDICTIONARY
360
9FD
102
}
102
{ACAD_REACTORS
330
14
102
}
330
14
100
AcDbVisualStyle
  2

 70
     5
 71
     0
 72
     2
 73
     0
 90
        0
 40
-0.6
 41
-30.0
 62
     5
 63
     7
 74
     1
 91
        4
 64
     7
 65
   257
 75
     1
175
     1
 42
1.0
 92
        0
 66
   257
 43
1.0
 76
     1
 77
     6
 78
     2
 67
     7
 79
     3
170
     0
171
     0
290
     0
174
     0
 93
        1
 44
0.0
173
     0
291
     0
 45
0.0
1001
ACAD
1000
AcDbSavedByObjectVersion
1070
     0
  0
VISUALSTYLE
  5
4C3
102
{ACAD_XDICTIONARY
360
A05
102
}
102
{ACAD_REACTORS
330
14
102
}
330
14
100
AcDbVisualStyle
  2

 70
    25
 71
     2
 72
     2
 73
     1
 90
        1
 40
0.5
 41
-30.0
 62
     5
 63
     7
 74
     1
 91
        0
 64
     7
 65
   257
 75
     1
175
     1
 42
1.0
 92
        8
 66
     7
 43
1.0
 76
     1
 77
     6
 78
     2
 67
     7
 79
     3
170
     0
171
     0
290
     0
174
     0
 93
       13
 44
0.0
173
     0
291
     0
 45
0.0
1001
ACAD
1000
AcDbSavedByObjectVersion
1070
     0
  0
DICTIONARYVAR
  5
733
102
{ACAD_REACTORS
330
4A9
102
}
330
4A9
100
DictionaryVariables
280
     0
  1
1:1
  0
DICTIONARYVAR
  5
732
102
{ACAD_REACTORS
330
4A9
102
}
330
4A9
100
DictionaryVariables
280
     0
  1
STANDARD
  0
DICTIONARYVAR
  5
4AA
102
{ACAD_REACTORS
330
4A9
102
}
330
4A9
100
DictionaryVariables
280
     0
  1
STANDARD
  0
DICTIONARYVAR
  5
4AD
102
{ACAD_REACTORS
330
4A9
102
}
330
4A9
100
DictionaryVariables
280
     0
  1
1
  0
DICTIONARYVAR
  5
4AC
102
{ACAD_REACTORS
330
4A9
102
}
330
4A9
100
DictionaryVariables
280
     0
  1
0
  0
DICTIONARYVAR
  5
4AB
102
{ACAD_REACTORS
330
4A9
102
}
330
4A9
100
DictionaryVariables
280
     0
  1
127
  0
DICTIONARYVAR
  5
7FB
102
{ACAD_REACTORS
330
4A9
102
}
330
4A9
100
DictionaryVariables
280
     0
  1
2
  0
DICTIONARY
  5
9FB
330
39
100
AcDbDictionary
280
     1
281
     1
  3
ACAD_XREC_ROUNDTRIP
360
9FC
  0
DICTIONARY
  5
9F9
330
35
100
AcDbDictionary
280
     1
281
     1
  3
ACAD_XREC_ROUNDTRIP
360
9FA
  0
DICTIONARY
  5
4B1
330
12
100
AcDbDictionary
280
     1
281
     1
  3
ACAD_XREC_ROUNDTRIP
360
4B2
  0
DICTIONARY
  5
4AF
330
11
100
AcDbDictionary
280
     1
281
     1
  3
ACAD_XREC_ROUNDTRIP
360
4B0
  0
DICTIONARY
  5
4B3
330
13
100
AcDbDictionary
280
     1
281
     1
  3
ACAD_XREC_ROUNDTRIP
360
4B4
  0
DICTIONARY
  5
735
330
31
100
AcDbDictionary
280
     1
281
     1
  3
ACAD_ROUNDTRIP_2008_TABLESTYLE_CELLSTYLEMAP
360
9D1
  3
ACAD_XREC_ROUNDTRIP
360
9F8
  0
DICTIONARY
  5
9E2
330
1A
100
AcDbDictionary
280
     1
281
     1
  3
ACAD_XREC_ROUNDTRIP
360
9E3
  0
DICTIONARY
  5
9E6
330
1C
100
AcDbDictionary
280
     1
281
     1
  3
ACAD_XREC_ROUNDTRIP
360
9E7
  0
DICTIONARY
  5
9E4
330
1B
100
AcDbDictionary
280
     1
281
     1
  3
ACAD_XREC_ROUNDTRIP
360
9E5
  0
DICTIONARY
  5
9E0
330
19
100
AcDbDictionary
280
     1
281
     1
  3
ACAD_XREC_ROUNDTRIP
360
9E1
  0
DICTIONARY
  5
9EE
330
20
100
AcDbDictionary
280
     1
281
     1
  3
ACAD_XREC_ROUNDTRIP
360
9EF
  0
DICTIONARY
  5
9F6
330
24
100
AcDbDictionary
280
     1
281
     1
  3
ACAD_XREC_ROUNDTRIP
360
9F7
  0
DICTIONARY
  5
9E8
330
1D
100
AcDbDictionary
280
     1
281
     1
  3
ACAD_XREC_ROUNDTRIP
360
9E9
  0
DICTIONARY
  5
9EC
330
1F
100
AcDbDictionary
280
     1
281
     1
  3
ACAD_XREC_ROUNDTRIP
360
9ED
  0
DICTIONARY
  5
A0F
330
4C8
100
AcDbDictionary
280
     1
281
     1
  3
ACAD_XREC_ROUNDTRIP
360
A10
  0
DICTIONARY
  5
9F4
330
23
100
AcDbDictionary
280
     1
281
     1
  3
ACAD_XREC_ROUNDTRIP
360
9F5
  0
DICTIONARY
  5
9D8
330
15
100
AcDbDictionary
280
     1
281
     1
  3
ACAD_XREC_ROUNDTRIP
360
9D9
  0
DICTIONARY
  5
9DA
330
16
100
AcDbDictionary
280
     1
281
     1
  3
ACAD_XREC_ROUNDTRIP
360
9DB
  0
DICTIONARY
  5
9DC
330
17
100
AcDbDictionary
280
     1
281
     1
  3
ACAD_XREC_ROUNDTRIP
360
9DD
  0
DICTIONARY
  5
9DE
330
18
100
AcDbDictionary
280
     1
281
     1
  3
ACAD_XREC_ROUNDTRIP
360
9DF
  0
DICTIONARY
  5
9FF
330
4C0
100
AcDbDictionary
280
     1
281
     1
  3
ACAD_XREC_ROUNDTRIP
360
A00
  0
DICTIONARY
  5
A0B
330
4C6
100
AcDbDictionary
280
     1
281
     1
  3
ACAD_XREC_ROUNDTRIP
360
A0C
  0
DICTIONARY
  5
9F2
330
22
100
AcDbDictionary
280
     1
281
     1
  3
ACAD_XREC_ROUNDTRIP
360
9F3
  0
DICTIONARY
  5
A0D
330
4C7
100
AcDbDictionary
280
     1
281
     1
  3
ACAD_XREC_ROUNDTRIP
360
A0E
  0
DICTIONARY
  5
9EA
330
1E
100
AcDbDictionary
280
     1
281
     1
  3
ACAD_XREC_ROUNDTRIP
360
9EB
  0
DICTIONARY
  5
A09
330
4C5
100
AcDbDictionary
280
     1
281
     1
  3
ACAD_XREC_ROUNDTRIP
360
A0A
  0
DICTIONARY
  5
A07
330
4C4
100
AcDbDictionary
280
     1
281
     1
  3
ACAD_XREC_ROUNDTRIP
360
A08
  0
DICTIONARY
  5
A01
330
4C1
100
AcDbDictionary
280
     1
281
     1
  3
ACAD_XREC_ROUNDTRIP
360
A02
  0
DICTIONARY
  5
A03
330
4C2
100
AcDbDictionary
280
     1
281
     1
  3
ACAD_XREC_ROUNDTRIP
360
A04
  0
DICTIONARY
  5
9F0
330
21
100
AcDbDictionary
280
     1
281
     1
  3
ACAD_XREC_ROUNDTRIP
360
9F1
  0
DICTIONARY
  5
9FD
330
4BF
100
AcDbDictionary
280
     1
281
     1
  3
ACAD_XREC_ROUNDTRIP
360
9FE
  0
DICTIONARY
  5
A05
330
4C3
100
AcDbDictionary
280
     1
281
     1
  3
ACAD_XREC_ROUNDTRIP
360
A06
  0
XRECORD
  5
9FC
102
{ACAD_REACTORS
330
9FB
102
}
330
9FB
100
AcDbXrecord
280
     1
102
SHADEPLOT
 70
     0
102
SHADEPLOTRESLEVEL
 70
     2
102
SHADEPLOTCUSTOMDPI
 70
   300
  0
XRECORD
  5
9FA
102
{ACAD_REACTORS
330
9F9
102
}
330
9F9
100
AcDbXrecord
280
     1
102
SHADEPLOT
 70
     0
102
SHADEPLOTRESLEVEL
 70
     2
102
SHADEPLOTCUSTOMDPI
 70
   300
  0
XRECORD
  5
4B2
102
{ACAD_REACTORS
330
4B1
102
}
330
4B1
100
AcDbXrecord
280
     1
102
MATERIAL
148
0.0
149
0.0
149
0.0
 93
        0
 94
      127
282
     0
 72
     1
 77
     1
171
     1
175
     1
179
     1
273
     0
  0
XRECORD
  5
4B0
102
{ACAD_REACTORS
330
4AF
102
}
330
4AF
100
AcDbXrecord
280
     1
102
MATERIAL
148
0.0
149
0.0
149
0.0
 93
        0
 94
      127
282
     0
 72
     1
 77
     1
171
     1
175
     1
179
     1
273
     0
  0
XRECORD
  5
4B4
102
{ACAD_REACTORS
330
4B3
102
}
330
4B3
100
AcDbXrecord
280
     1
102
MATERIAL
148
0.0
149
0.0
149
0.0
 93
        0
 94
      127
282
     0
 72
     1
 77
     1
171
     1
175
     1
179
     1
273
     0
  0
CELLSTYLEMAP
  5
9D1
102
{ACAD_REACTORS
330
735
102
}
330
735
100
AcDbCellStyleMap
 90
        3
300
CELLSTYLE
  1
TABLEFORMAT_BEGIN
 90
        5
170
     1
 91
        0
 92
    32768
 62
   257
 93
        1
300
CONTENTFORMAT
  1
CONTENTFORMAT_BEGIN
 90
        0
 91
        0
 92
      512
 93
        0
300

 40
0.0
140
1.0
 94
        5
 62
     0
340
26
144
0.25
309
CONTENTFORMAT_END
171
     1
301
MARGIN
  1
CELLMARGIN_BEGIN
 40
0.06
 40
0.06
 40
0.06
 40
0.06
 40
0.18
 40
0.18
309
CELLMARGIN_END
 94
        6
 95
        1
302
GRIDFORMAT
  1
GRIDFORMAT_BEGIN
 90
        0
 91
        1
 62
     0
 92
       -2
340
0
 93
        0
 40
0.045
309
GRIDFORMAT_END
 95
        2
302
GRIDFORMAT
  1
GRIDFORMAT_BEGIN
 90
        0
 91
        1
 62
     0
 92
       -2
340
0
 93
        0
 40
0.045
309
GRIDFORMAT_END
 95
        4
302
GRIDFORMAT
  1
GRIDFORMAT_BEGIN
 90
        0
 91
        1
 62
     0
 92
       -2
340
0
 93
        0
 40
0.045
309
GRIDFORMAT_END
 95
        8
302
GRIDFORMAT
  1
GRIDFORMAT_BEGIN
 90
        0
 91
        1
 62
     0
 92
       -2
340
0
 93
        0
 40
0.045
309
GRIDFORMAT_END
 95
       16
302
GRIDFORMAT
  1
GRIDFORMAT_BEGIN
 90
        0
 91
        1
 62
     0
 92
       -2
340
0
 93
        0
 40
0.045
309
GRIDFORMAT_END
 95
       32
302
GRIDFORMAT
  1
GRIDFORMAT_BEGIN
 90
        0
 91
        1
 62
     0
 92
       -2
340
0
 93
        0
 40
0.045
309
GRIDFORMAT_END
309
TABLEFORMAT_END
  1
CELLSTYLE_BEGIN
 90
        1
 91
        1
300
_TITLE
309
CELLSTYLE_END
300
CELLSTYLE
  1
TABLEFORMAT_BEGIN
 90
        5
170
     1
 91
        0
 92
        0
 62
   257
 93
        1
300
CONTENTFORMAT
  1
CONTENTFORMAT_BEGIN
 90
        0
 91
        0
 92
      512
 93
        0
300

 40
0.0
140
1.0
 94
        5
 62
     0
340
26
144
0.18
309
CONTENTFORMAT_END
171
     1
301
MARGIN
  1
CELLMARGIN_BEGIN
 40
0.06
 40
0.06
 40
0.06
 40
0.06
 40
0.18
 40
0.18
309
CELLMARGIN_END
 94
        6
 95
        1
302
GRIDFORMAT
  1
GRIDFORMAT_BEGIN
 90
        0
 91
        1
 62
     0
 92
       -2
340
0
 93
        0
 40
0.045
309
GRIDFORMAT_END
 95
        2
302
GRIDFORMAT
  1
GRIDFORMAT_BEGIN
 90
        0
 91
        1
 62
     0
 92
       -2
340
0
 93
        0
 40
0.045
309
GRIDFORMAT_END
 95
        4
302
GRIDFORMAT
  1
GRIDFORMAT_BEGIN
 90
        0
 91
        1
 62
     0
 92
       -2
340
0
 93
        0
 40
0.045
309
GRIDFORMAT_END
 95
        8
302
GRIDFORMAT
  1
GRIDFORMAT_BEGIN
 90
        0
 91
        1
 62
     0
 92
       -2
340
0
 93
        0
 40
0.045
309
GRIDFORMAT_END
 95
       16
302
GRIDFORMAT
  1
GRIDFORMAT_BEGIN
 90
        0
 91
        1
 62
     0
 92
       -2
340
0
 93
        0
 40
0.045
309
GRIDFORMAT_END
 95
       32
302
GRIDFORMAT
  1
GRIDFORMAT_BEGIN
 90
        0
 91
        1
 62
     0
 92
       -2
340
0
 93
        0
 40
0.045
309
GRIDFORMAT_END
309
TABLEFORMAT_END
  1
CELLSTYLE_BEGIN
 90
        2
 91
        1
300
_HEADER
309
CELLSTYLE_END
300
CELLSTYLE
  1
TABLEFORMAT_BEGIN
 90
        5
170
     1
 91
        0
 92
        0
 62
   257
 93
        1
300
CONTENTFORMAT
  1
CONTENTFORMAT_BEGIN
 90
        0
 91
        0
 92
      512
 93
        0
300

 40
0.0
140
1.0
 94
        2
 62
     0
340
26
144
0.18
309
CONTENTFORMAT_END
171
     1
301
MARGIN
  1
CELLMARGIN_BEGIN
 40
0.06
 40
0.06
 40
0.06
 40
0.06
 40
0.18
 40
0.18
309
CELLMARGIN_END
 94
        6
 95
        1
302
GRIDFORMAT
  1
GRIDFORMAT_BEGIN
 90
        0
 91
        1
 62
     0
 92
       -2
340
0
 93
        0
 40
0.045
309
GRIDFORMAT_END
 95
        2
302
GRIDFORMAT
  1
GRIDFORMAT_BEGIN
 90
        0
 91
        1
 62
     0
 92
       -2
340
0
 93
        0
 40
0.045
309
GRIDFORMAT_END
 95
        4
302
GRIDFORMAT
  1
GRIDFORMAT_BEGIN
 90
        0
 91
        1
 62
     0
 92
       -2
340
0
 93
        0
 40
0.045
309
GRIDFORMAT_END
 95
        8
302
GRIDFORMAT
  1
GRIDFORMAT_BEGIN
 90
        0
 91
        1
 62
     0
 92
       -2
340
0
 93
        0
 40
0.045
309
GRIDFORMAT_END
 95
       16
302
GRIDFORMAT
  1
GRIDFORMAT_BEGIN
 90
        0
 91
        1
 62
     0
 92
       -2
340
0
 93
        0
 40
0.045
309
GRIDFORMAT_END
 95
       32
302
GRIDFORMAT
  1
GRIDFORMAT_BEGIN
 90
        0
 91
        1
 62
     0
 92
       -2
340
0
 93
        0
 40
0.045
309
GRIDFORMAT_END
309
TABLEFORMAT_END
  1
CELLSTYLE_BEGIN
 90
        3
 91
        2
300
_DATA
309
CELLSTYLE_END
  0
XRECORD
  5
9F8
102
{ACAD_REACTORS
330
735
102
}
330
735
100
AcDbXrecord
280
     1
102
ACAD_ROUNDTRIP_PRE2007_TABLESTYLE
 90
      512
 91
        0
  1

 92
      512
 93
        0
  2

 94
      512
 95
        0
  3

  0
XRECORD
  5
9E3
102
{ACAD_REACTORS
330
9E2
102
}
330
9E2
100
AcDbXrecord
280
     1
102
RTVSPropertyOp0
 70
     1
102
RTVSPropertyOp1
 70
     1
102
RTVSPropertyOp2
 70
     1
102
RTVSPropertyOp3
 70
     1
102
RTVSPropertyOp4
 70
     1
102
RTVSPropertyOp5
 70
     1
102
RTVSPropertyOp6
 70
     1
102
RTVSPropertyOp7
 70
     1
102
RTVSPropertyOp8
 70
     1
102
RTVSPropertyOp9
 70
     1
102
RTVSPropertyOp10
 70
     1
102
RTVSPropertyOp11
 70
     1
102
RTVSPropertyOp12
 70
     1
102
RTVSPropertyOp13
 70
     1
102
RTVSPropertyOp14
 70
     1
102
RTVSPropertyOp15
 70
     1
102
RTVSPropertyOp16
 70
     1
102
RTVSPropertyOp17
 70
     1
102
RTVSPropertyOp18
 70
     1
102
RTVSPropertyOp19
 70
     1
102
RTVSPropertyOp20
 70
     1
102
RTVSPropertyOp21
 70
     1
102
RTVSPropertyOp22
 70
     1
102
RTVSPropertyOp23
 70
     1
102
RTVSPropertyOp24
 70
     1
102
RTVSPropertyOp25
 70
     1
102
RTVSPropertyOp26
 70
     1
102
RTVSPropertyOp27
 70
     1
102
RTVSPropertyOp28
 70
     1
102
RTVSPropertyOp29
 70
     1
102
RTVSPropertyOp30
 70
     1
102
RTVSPropertyOp31
 70
     1
102
RTVSPropertyOp32
 70
     1
  0
XRECORD
  5
9E7
102
{ACAD_REACTORS
330
9E6
102
}
330
9E6
100
AcDbXrecord
280
     1
102
RTVSPropertyOp0
 70
     1
102
RTVSPropertyOp1
 70
     1
102
RTVSPropertyOp2
 70
     1
102
RTVSPropertyOp3
 70
     1
102
RTVSPropertyOp4
 70
     1
102
RTVSPropertyOp5
 70
     1
102
RTVSPropertyOp6
 70
     1
102
RTVSPropertyOp7
 70
     1
102
RTVSPropertyOp8
 70
     1
102
RTVSPropertyOp9
 70
     1
102
RTVSPropertyOp10
 70
     1
102
RTVSPropertyOp11
 70
     1
102
RTVSPropertyOp12
 70
     1
102
RTVSPropertyOp13
 70
     1
102
RTVSPropertyOp14
 70
     1
102
RTVSPropertyOp15
 70
     1
102
RTVSPropertyOp16
 70
     1
102
RTVSPropertyOp17
 70
     1
102
RTVSPropertyOp18
 70
     1
102
RTVSPropertyOp19
 70
     1
102
RTVSPropertyOp20
 70
     1
102
RTVSPropertyOp21
 70
     1
102
RTVSPropertyOp22
 70
     1
102
RTVSPropertyOp23
 70
     1
102
RTVSPropertyOp24
 70
     1
102
RTVSPropertyOp25
 70
     1
102
RTVSPropertyOp26
 70
     1
102
RTVSPropertyOp27
 70
     1
102
RTVSPropertyOp28
 70
     1
102
RTVSPropertyOp29
 70
     1
102
RTVSPropertyOp30
 70
     1
102
RTVSPropertyOp31
 70
     1
102
RTVSPropertyOp32
 70
     1
  0
XRECORD
  5
9E5
102
{ACAD_REACTORS
330
9E4
102
}
330
9E4
100
AcDbXrecord
280
     1
102
RTVSPropertyOp0
 70
     1
102
RTVSPropertyOp1
 70
     1
102
RTVSPropertyOp2
 70
     1
102
RTVSPropertyOp3
 70
     1
102
RTVSPropertyOp4
 70
     1
102
RTVSPropertyOp5
 70
     1
102
RTVSPropertyOp6
 70
     1
102
RTVSPropertyOp7
 70
     1
102
RTVSPropertyOp8
 70
     1
102
RTVSPropertyOp9
 70
     1
102
RTVSPropertyOp10
 70
     1
102
RTVSPropertyOp11
 70
     1
102
RTVSPropertyOp12
 70
     1
102
RTVSPropertyOp13
 70
     1
102
RTVSPropertyOp14
 70
     1
102
RTVSPropertyOp15
 70
     1
102
RTVSPropertyOp16
 70
     1
102
RTVSPropertyOp17
 70
     1
102
RTVSPropertyOp18
 70
     1
102
RTVSPropertyOp19
 70
     1
102
RTVSPropertyOp20
 70
     1
102
RTVSPropertyOp21
 70
     1
102
RTVSPropertyOp22
 70
     1
102
RTVSPropertyOp23
 70
     1
102
RTVSPropertyOp24
 70
     1
102
RTVSPropertyOp25
 70
     1
102
RTVSPropertyOp26
 70
     1
102
RTVSPropertyOp27
 70
     1
102
RTVSPropertyOp28
 70
     1
102
RTVSPropertyOp29
 70
     1
102
RTVSPropertyOp30
 70
     1
102
RTVSPropertyOp31
 70
     1
102
RTVSPropertyOp32
 70
     1
  0
XRECORD
  5
9E1
102
{ACAD_REACTORS
330
9E0
102
}
330
9E0
100
AcDbXrecord
280
     1
102
RTVSPropertyOp0
 70
     1
102
RTVSPropertyOp1
 70
     1
102
RTVSPropertyOp2
 70
     1
102
RTVSPropertyOp3
 70
     1
102
RTVSPropertyOp4
 70
     1
102
RTVSPropertyOp5
 70
     1
102
RTVSPropertyOp6
 70
     1
102
RTVSPropertyOp7
 70
     1
102
RTVSPropertyOp8
 70
     1
102
RTVSPropertyOp9
 70
     1
102
RTVSPropertyOp10
 70
     1
102
RTVSPropertyOp11
 70
     1
102
RTVSPropertyOp12
 70
     1
102
RTVSPropertyOp13
 70
     1
102
RTVSPropertyOp14
 70
     1
102
RTVSPropertyOp15
 70
     1
102
RTVSPropertyOp16
 70
     1
102
RTVSPropertyOp17
 70
     1
102
RTVSPropertyOp18
 70
     1
102
RTVSPropertyOp19
 70
     1
102
RTVSPropertyOp20
 70
     1
102
RTVSPropertyOp21
 70
     1
102
RTVSPropertyOp22
 70
     1
102
RTVSPropertyOp23
 70
     1
102
RTVSPropertyOp24
 70
     1
102
RTVSPropertyOp25
 70
     1
102
RTVSPropertyOp26
 70
     1
102
RTVSPropertyOp27
 70
     1
102
RTVSPropertyOp28
 70
     1
102
RTVSPropertyOp29
 70
     1
102
RTVSPropertyOp30
 70
     1
102
RTVSPropertyOp31
 70
     1
102
RTVSPropertyOp32
 70
     1
  0
XRECORD
  5
9EF
102
{ACAD_REACTORS
330
9EE
102
}
330
9EE
100
AcDbXrecord
280
     1
102
RTVSPropertyOp0
 70
     1
102
RTVSPropertyOp1
 70
     1
102
RTVSPropertyOp2
 70
     1
102
RTVSPropertyOp3
 70
     1
102
RTVSPropertyOp4
 70
     1
102
RTVSPropertyOp5
 70
     1
102
RTVSPropertyOp6
 70
     1
102
RTVSPropertyOp7
 70
     1
102
RTVSPropertyOp8
 70
     1
102
RTVSPropertyOp9
 70
     1
102
RTVSPropertyOp10
 70
     1
102
RTVSPropertyOp11
 70
     1
102
RTVSPropertyOp12
 70
     1
102
RTVSPropertyOp13
 70
     1
102
RTVSPropertyOp14
 70
     1
102
RTVSPropertyOp15
 70
     1
102
RTVSPropertyOp16
 70
     1
102
RTVSPropertyOp17
 70
     1
102
RTVSPropertyOp18
 70
     1
102
RTVSPropertyOp19
 70
     1
102
RTVSPropertyOp20
 70
     1
102
RTVSPropertyOp21
 70
     1
102
RTVSPropertyOp22
 70
     1
102
RTVSPropertyOp23
 70
     1
102
RTVSPropertyOp24
 70
     1
102
RTVSPropertyOp25
 70
     1
102
RTVSPropertyOp26
 70
     1
102
RTVSPropertyOp27
 70
     1
102
RTVSPropertyOp28
 70
     1
102
RTVSPropertyOp29
 70
     1
102
RTVSPropertyOp30
 70
     1
102
RTVSPropertyOp31
 70
     1
102
RTVSPropertyOp32
 70
     1
  0
XRECORD
  5
9F7
102
{ACAD_REACTORS
330
9F6
102
}
330
9F6
100
AcDbXrecord
280
     1
102
RTVSPropertyOp0
 70
     1
102
RTVSPropertyOp1
 70
     1
102
RTVSPropertyOp2
 70
     1
102
RTVSPropertyOp3
 70
     1
102
RTVSPropertyOp4
 70
     1
102
RTVSPropertyOp5
 70
     1
102
RTVSPropertyOp6
 70
     1
102
RTVSPropertyOp7
 70
     1
102
RTVSPropertyOp8
 70
     1
102
RTVSPropertyOp9
 70
     1
102
RTVSPropertyOp10
 70
     1
102
RTVSPropertyOp11
 70
     1
102
RTVSPropertyOp12
 70
     1
102
RTVSPropertyOp13
 70
     1
102
RTVSPropertyOp14
 70
     1
102
RTVSPropertyOp15
 70
     1
102
RTVSPropertyOp16
 70
     1
102
RTVSPropertyOp17
 70
     1
102
RTVSPropertyOp18
 70
     1
102
RTVSPropertyOp19
 70
     1
102
RTVSPropertyOp20
 70
     1
102
RTVSPropertyOp21
 70
     1
102
RTVSPropertyOp22
 70
     1
102
RTVSPropertyOp23
 70
     1
102
RTVSPropertyOp24
 70
     1
102
RTVSPropertyOp25
 70
     1
102
RTVSPropertyOp26
 70
     1
102
RTVSPropertyOp27
 70
     1
102
RTVSPropertyOp28
 70
     1
102
RTVSPropertyOp29
 70
     1
102
RTVSPropertyOp30
 70
     1
102
RTVSPropertyOp31
 70
     1
102
RTVSPropertyOp32
 70
     1
  0
XRECORD
  5
9E9
102
{ACAD_REACTORS
330
9E8
102
}
330
9E8
100
AcDbXrecord
280
     1
102
RTVSPropertyOp0
 70
     1
102
RTVSPropertyOp1
 70
     1
102
RTVSPropertyOp2
 70
     1
102
RTVSPropertyOp3
 70
     1
102
RTVSPropertyOp4
 70
     1
102
RTVSPropertyOp5
 70
     1
102
RTVSPropertyOp6
 70
     1
102
RTVSPropertyOp7
 70
     1
102
RTVSPropertyOp8
 70
     1
102
RTVSPropertyOp9
 70
     1
102
RTVSPropertyOp10
 70
     1
102
RTVSPropertyOp11
 70
     1
102
RTVSPropertyOp12
 70
     1
102
RTVSPropertyOp13
 70
     1
102
RTVSPropertyOp14
 70
     1
102
RTVSPropertyOp15
 70
     1
102
RTVSPropertyOp16
 70
     1
102
RTVSPropertyOp17
 70
     1
102
RTVSPropertyOp18
 70
     1
102
RTVSPropertyOp19
 70
     1
102
RTVSPropertyOp20
 70
     1
102
RTVSPropertyOp21
 70
     1
102
RTVSPropertyOp22
 70
     1
102
RTVSPropertyOp23
 70
     1
102
RTVSPropertyOp24
 70
     1
102
RTVSPropertyOp25
 70
     1
102
RTVSPropertyOp26
 70
     1
102
RTVSPropertyOp27
 70
     1
102
RTVSPropertyOp28
 70
     1
102
RTVSPropertyOp29
 70
     1
102
RTVSPropertyOp30
 70
     1
102
RTVSPropertyOp31
 70
     1
102
RTVSPropertyOp32
 70
     1
  0
XRECORD
  5
9ED
102
{ACAD_REACTORS
330
9EC
102
}
330
9EC
100
AcDbXrecord
280
     1
102
RTVSPropertyOp0
 70
     1
102
RTVSPropertyOp1
 70
     1
102
RTVSPropertyOp2
 70
     1
102
RTVSPropertyOp3
 70
     1
102
RTVSPropertyOp4
 70
     1
102
RTVSPropertyOp5
 70
     1
102
RTVSPropertyOp6
 70
     1
102
RTVSPropertyOp7
 70
     1
102
RTVSPropertyOp8
 70
     1
102
RTVSPropertyOp9
 70
     1
102
RTVSPropertyOp10
 70
     1
102
RTVSPropertyOp11
 70
     1
102
RTVSPropertyOp12
 70
     1
102
RTVSPropertyOp13
 70
     1
102
RTVSPropertyOp14
 70
     1
102
RTVSPropertyOp15
 70
     1
102
RTVSPropertyOp16
 70
     1
102
RTVSPropertyOp17
 70
     1
102
RTVSPropertyOp18
 70
     1
102
RTVSPropertyOp19
 70
     1
102
RTVSPropertyOp20
 70
     1
102
RTVSPropertyOp21
 70
     1
102
RTVSPropertyOp22
 70
     1
102
RTVSPropertyOp23
 70
     1
102
RTVSPropertyOp24
 70
     1
102
RTVSPropertyOp25
 70
     1
102
RTVSPropertyOp26
 70
     1
102
RTVSPropertyOp27
 70
     1
102
RTVSPropertyOp28
 70
     1
102
RTVSPropertyOp29
 70
     1
102
RTVSPropertyOp30
 70
     1
102
RTVSPropertyOp31
 70
     1
102
RTVSPropertyOp32
 70
     1
  0
XRECORD
  5
A10
102
{ACAD_REACTORS
330
A0F
102
}
330
A0F
100
AcDbXrecord
280
     1
102
RTVSPropertyOp0
 70
     0
102
RTVSPropertyOp1
 70
     0
102
RTVSPropertyOp2
 70
     0
102
RTVSPropertyOp3
 70
     0
102
RTVSPropertyOp4
 70
     0
102
RTVSPropertyOp5
 70
     0
102
RTVSPropertyOp6
 70
     0
102
RTVSPropertyOp7
 70
     0
102
RTVSPropertyOp8
 70
     0
102
RTVSPropertyOp9
 70
     0
102
RTVSPropertyOp10
 70
     0
102
RTVSPropertyOp11
 70
     0
102
RTVSPropertyOp12
 70
     0
102
RTVSPropertyOp13
 70
     0
102
RTVSPropertyOp14
 70
     2
102
RTVSPropertyOp15
 70
     0
102
RTVSPropertyOp16
 70
     0
102
RTVSPropertyOp17
 70
     0
102
RTVSPropertyOp18
 70
     0
102
RTVSPropertyOp19
 70
     0
102
RTVSPropertyOp20
 70
     0
102
RTVSPropertyOp21
 70
     0
102
RTVSPropertyOp22
 70
     0
102
RTVSPropertyOp23
 70
     0
102
RTVSPropertyOp24
 70
     0
102
RTVSPropertyOp25
 70
     0
102
RTVSPropertyOp26
 70
     0
102
RTVSPropertyOp27
 70
     0
102
RTVSPropertyOp28
 70
     0
102
RTVSPropertyOp29
 70
     0
102
RTVSPropertyOp30
 70
     0
102
RTVSPropertyOp31
 70
     0
102
RTVSPropertyOp32
 70
     0
  0
XRECORD
  5
9F5
102
{ACAD_REACTORS
330
9F4
102
}
330
9F4
100
AcDbXrecord
280
     1
102
RTVSPropertyOp0
 70
     1
102
RTVSPropertyOp1
 70
     1
102
RTVSPropertyOp2
 70
     1
102
RTVSPropertyOp3
 70
     1
102
RTVSPropertyOp4
 70
     1
102
RTVSPropertyOp5
 70
     1
102
RTVSPropertyOp6
 70
     1
102
RTVSPropertyOp7
 70
     1
102
RTVSPropertyOp8
 70
     1
102
RTVSPropertyOp9
 70
     1
102
RTVSPropertyOp10
 70
     1
102
RTVSPropertyOp11
 70
     1
102
RTVSPropertyOp12
 70
     1
102
RTVSPropertyOp13
 70
     1
102
RTVSPropertyOp14
 70
     1
102
RTVSPropertyOp15
 70
     1
102
RTVSPropertyOp16
 70
     1
102
RTVSPropertyOp17
 70
     1
102
RTVSPropertyOp18
 70
     1
102
RTVSPropertyOp19
 70
     1
102
RTVSPropertyOp20
 70
     1
102
RTVSPropertyOp21
 70
     1
102
RTVSPropertyOp22
 70
     1
102
RTVSPropertyOp23
 70
     1
102
RTVSPropertyOp24
 70
     1
102
RTVSPropertyOp25
 70
     1
102
RTVSPropertyOp26
 70
     1
102
RTVSPropertyOp27
 70
     1
102
RTVSPropertyOp28
 70
     1
102
RTVSPropertyOp29
 70
     1
102
RTVSPropertyOp30
 70
     1
102
RTVSPropertyOp31
 70
     1
102
RTVSPropertyOp32
 70
     1
  0
XRECORD
  5
9D9
102
{ACAD_REACTORS
330
9D8
102
}
330
9D8
100
AcDbXrecord
280
     1
102
RTVSPropertyOp0
 70
     1
102
RTVSPropertyOp1
 70
     1
102
RTVSPropertyOp2
 70
     1
102
RTVSPropertyOp3
 70
     1
102
RTVSPropertyOp4
 70
     1
102
RTVSPropertyOp5
 70
     1
102
RTVSPropertyOp6
 70
     1
102
RTVSPropertyOp7
 70
     1
102
RTVSPropertyOp8
 70
     1
102
RTVSPropertyOp9
 70
     1
102
RTVSPropertyOp10
 70
     1
102
RTVSPropertyOp11
 70
     1
102
RTVSPropertyOp12
 70
     1
102
RTVSPropertyOp13
 70
     1
102
RTVSPropertyOp14
 70
     1
102
RTVSPropertyOp15
 70
     1
102
RTVSPropertyOp16
 70
     1
102
RTVSPropertyOp17
 70
     1
102
RTVSPropertyOp18
 70
     1
102
RTVSPropertyOp19
 70
     1
102
RTVSPropertyOp20
 70
     1
102
RTVSPropertyOp21
 70
     1
102
RTVSPropertyOp22
 70
     1
102
RTVSPropertyOp23
 70
     1
102
RTVSPropertyOp24
 70
     1
102
RTVSPropertyOp25
 70
     1
102
RTVSPropertyOp26
 70
     1
102
RTVSPropertyOp27
 70
     1
102
RTVSPropertyOp28
 70
     1
102
RTVSPropertyOp29
 70
     1
102
RTVSPropertyOp30
 70
     1
102
RTVSPropertyOp31
 70
     1
102
RTVSPropertyOp32
 70
     1
  0
XRECORD
  5
9DB
102
{ACAD_REACTORS
330
9DA
102
}
330
9DA
100
AcDbXrecord
280
     1
102
RTVSPropertyOp0
 70
     1
102
RTVSPropertyOp1
 70
     1
102
RTVSPropertyOp2
 70
     1
102
RTVSPropertyOp3
 70
     1
102
RTVSPropertyOp4
 70
     1
102
RTVSPropertyOp5
 70
     1
102
RTVSPropertyOp6
 70
     1
102
RTVSPropertyOp7
 70
     1
102
RTVSPropertyOp8
 70
     1
102
RTVSPropertyOp9
 70
     1
102
RTVSPropertyOp10
 70
     1
102
RTVSPropertyOp11
 70
     1
102
RTVSPropertyOp12
 70
     1
102
RTVSPropertyOp13
 70
     1
102
RTVSPropertyOp14
 70
     1
102
RTVSPropertyOp15
 70
     1
102
RTVSPropertyOp16
 70
     1
102
RTVSPropertyOp17
 70
     1
102
RTVSPropertyOp18
 70
     1
102
RTVSPropertyOp19
 70
     1
102
RTVSPropertyOp20
 70
     1
102
RTVSPropertyOp21
 70
     1
102
RTVSPropertyOp22
 70
     1
102
RTVSPropertyOp23
 70
     1
102
RTVSPropertyOp24
 70
     1
102
RTVSPropertyOp25
 70
     1
102
RTVSPropertyOp26
 70
     1
102
RTVSPropertyOp27
 70
     1
102
RTVSPropertyOp28
 70
     1
102
RTVSPropertyOp29
 70
     1
102
RTVSPropertyOp30
 70
     1
102
RTVSPropertyOp31
 70
     1
102
RTVSPropertyOp32
 70
     1
  0
XRECORD
  5
9DD
102
{ACAD_REACTORS
330
9DC
102
}
330
9DC
100
AcDbXrecord
280
     1
102
RTVSPropertyOp0
 70
     1
102
RTVSPropertyOp1
 70
     1
102
RTVSPropertyOp2
 70
     1
102
RTVSPropertyOp3
 70
     1
102
RTVSPropertyOp4
 70
     1
102
RTVSPropertyOp5
 70
     1
102
RTVSPropertyOp6
 70
     1
102
RTVSPropertyOp7
 70
     1
102
RTVSPropertyOp8
 70
     1
102
RTVSPropertyOp9
 70
     1
102
RTVSPropertyOp10
 70
     1
102
RTVSPropertyOp11
 70
     1
102
RTVSPropertyOp12
 70
     1
102
RTVSPropertyOp13
 70
     1
102
RTVSPropertyOp14
 70
     1
102
RTVSPropertyOp15
 70
     1
102
RTVSPropertyOp16
 70
     1
102
RTVSPropertyOp17
 70
     1
102
RTVSPropertyOp18
 70
     1
102
RTVSPropertyOp19
 70
     1
102
RTVSPropertyOp20
 70
     1
102
RTVSPropertyOp21
 70
     1
102
RTVSPropertyOp22
 70
     1
102
RTVSPropertyOp23
 70
     1
102
RTVSPropertyOp24
 70
     1
102
RTVSPropertyOp25
 70
     1
102
RTVSPropertyOp26
 70
     1
102
RTVSPropertyOp27
 70
     1
102
RTVSPropertyOp28
 70
     1
102
RTVSPropertyOp29
 70
     1
102
RTVSPropertyOp30
 70
     1
102
RTVSPropertyOp31
 70
     1
102
RTVSPropertyOp32
 70
     1
  0
XRECORD
  5
9DF
102
{ACAD_REACTORS
330
9DE
102
}
330
9DE
100
AcDbXrecord
280
     1
102
RTVSPropertyOp0
 70
     1
102
RTVSPropertyOp1
 70
     1
102
RTVSPropertyOp2
 70
     1
102
RTVSPropertyOp3
 70
     1
102
RTVSPropertyOp4
 70
     1
102
RTVSPropertyOp5
 70
     1
102
RTVSPropertyOp6
 70
     1
102
RTVSPropertyOp7
 70
     1
102
RTVSPropertyOp8
 70
     1
102
RTVSPropertyOp9
 70
     1
102
RTVSPropertyOp10
 70
     1
102
RTVSPropertyOp11
 70
     1
102
RTVSPropertyOp12
 70
     1
102
RTVSPropertyOp13
 70
     1
102
RTVSPropertyOp14
 70
     1
102
RTVSPropertyOp15
 70
     1
102
RTVSPropertyOp16
 70
     1
102
RTVSPropertyOp17
 70
     1
102
RTVSPropertyOp18
 70
     1
102
RTVSPropertyOp19
 70
     1
102
RTVSPropertyOp20
 70
     1
102
RTVSPropertyOp21
 70
     1
102
RTVSPropertyOp22
 70
     1
102
RTVSPropertyOp23
 70
     1
102
RTVSPropertyOp24
 70
     1
102
RTVSPropertyOp25
 70
     1
102
RTVSPropertyOp26
 70
     1
102
RTVSPropertyOp27
 70
     1
102
RTVSPropertyOp28
 70
     1
102
RTVSPropertyOp29
 70
     1
102
RTVSPropertyOp30
 70
     1
102
RTVSPropertyOp31
 70
     1
102
RTVSPropertyOp32
 70
     1
  0
XRECORD
  5
A00
102
{ACAD_REACTORS
330
9FF
102
}
330
9FF
100
AcDbXrecord
280
     1
102
RTVSPropertyOp0
 70
     1
102
RTVSPropertyOp1
 70
     1
102
RTVSPropertyOp2
 70
     1
102
RTVSPropertyOp3
 70
     1
102
RTVSPropertyOp4
 70
     1
102
RTVSPropertyOp5
 70
     1
102
RTVSPropertyOp6
 70
     1
102
RTVSPropertyOp7
 70
     1
102
RTVSPropertyOp8
 70
     1
102
RTVSPropertyOp9
 70
     1
102
RTVSPropertyOp10
 70
     1
102
RTVSPropertyOp11
 70
     1
102
RTVSPropertyOp12
 70
     1
102
RTVSPropertyOp13
 70
     1
102
RTVSPropertyOp14
 70
     1
102
RTVSPropertyOp15
 70
     1
102
RTVSPropertyOp16
 70
     1
102
RTVSPropertyOp17
 70
     1
102
RTVSPropertyOp18
 70
     1
102
RTVSPropertyOp19
 70
     1
102
RTVSPropertyOp20
 70
     1
102
RTVSPropertyOp21
 70
     1
102
RTVSPropertyOp22
 70
     1
102
RTVSPropertyOp23
 70
     1
102
RTVSPropertyOp24
 70
     1
102
RTVSPropertyOp25
 70
     1
102
RTVSPropertyOp26
 70
     1
102
RTVSPropertyOp27
 70
     1
102
RTVSPropertyOp28
 70
     1
102
RTVSPropertyOp29
 70
     1
102
RTVSPropertyOp30
 70
     1
102
RTVSPropertyOp31
 70
     1
102
RTVSPropertyOp32
 70
     1
  0
XRECORD
  5
A0C
102
{ACAD_REACTORS
330
A0B
102
}
330
A0B
100
AcDbXrecord
280
     1
102
RTVSPropertyOp0
 70
     0
102
RTVSPropertyOp1
 70
     0
102
RTVSPropertyOp2
 70
     0
102
RTVSPropertyOp3
 70
     0
102
RTVSPropertyOp4
 70
     0
102
RTVSPropertyOp5
 70
     0
102
RTVSPropertyOp6
 70
     0
102
RTVSPropertyOp7
 70
     0
102
RTVSPropertyOp8
 70
     0
102
RTVSPropertyOp9
 70
     0
102
RTVSPropertyOp10
 70
     0
102
RTVSPropertyOp11
 70
     0
102
RTVSPropertyOp12
 70
     0
102
RTVSPropertyOp13
 70
     0
102
RTVSPropertyOp14
 70
     2
102
RTVSPropertyOp15
 70
     0
102
RTVSPropertyOp16
 70
     0
102
RTVSPropertyOp17
 70
     0
102
RTVSPropertyOp18
 70
     0
102
RTVSPropertyOp19
 70
     0
102
RTVSPropertyOp20
 70
     0
102
RTVSPropertyOp21
 70
     0
102
RTVSPropertyOp22
 70
     0
102
RTVSPropertyOp23
 70
     0
102
RTVSPropertyOp24
 70
     0
102
RTVSPropertyOp25
 70
     0
102
RTVSPropertyOp26
 70
     0
102
RTVSPropertyOp27
 70
     0
102
RTVSPropertyOp28
 70
     0
102
RTVSPropertyOp29
 70
     0
102
RTVSPropertyOp30
 70
     0
102
RTVSPropertyOp31
 70
     0
102
RTVSPropertyOp32
 70
     0
  0
XRECORD
  5
9F3
102
{ACAD_REACTORS
330
9F2
102
}
330
9F2
100
AcDbXrecord
280
     1
102
RTVSPropertyOp0
 70
     1
102
RTVSPropertyOp1
 70
     1
102
RTVSPropertyOp2
 70
     1
102
RTVSPropertyOp3
 70
     1
102
RTVSPropertyOp4
 70
     1
102
RTVSPropertyOp5
 70
     1
102
RTVSPropertyOp6
 70
     1
102
RTVSPropertyOp7
 70
     1
102
RTVSPropertyOp8
 70
     1
102
RTVSPropertyOp9
 70
     1
102
RTVSPropertyOp10
 70
     1
102
RTVSPropertyOp11
 70
     1
102
RTVSPropertyOp12
 70
     1
102
RTVSPropertyOp13
 70
     1
102
RTVSPropertyOp14
 70
     1
102
RTVSPropertyOp15
 70
     1
102
RTVSPropertyOp16
 70
     1
102
RTVSPropertyOp17
 70
     1
102
RTVSPropertyOp18
 70
     1
102
RTVSPropertyOp19
 70
     1
102
RTVSPropertyOp20
 70
     1
102
RTVSPropertyOp21
 70
     1
102
RTVSPropertyOp22
 70
     1
102
RTVSPropertyOp23
 70
     1
102
RTVSPropertyOp24
 70
     1
102
RTVSPropertyOp25
 70
     1
102
RTVSPropertyOp26
 70
     1
102
RTVSPropertyOp27
 70
     1
102
RTVSPropertyOp28
 70
     1
102
RTVSPropertyOp29
 70
     1
102
RTVSPropertyOp30
 70
     1
102
RTVSPropertyOp31
 70
     1
102
RTVSPropertyOp32
 70
     1
  0
XRECORD
  5
A0E
102
{ACAD_REACTORS
330
A0D
102
}
330
A0D
100
AcDbXrecord
280
     1
102
RTVSPropertyOp0
 70
     0
102
RTVSPropertyOp1
 70
     0
102
RTVSPropertyOp2
 70
     0
102
RTVSPropertyOp3
 70
     0
102
RTVSPropertyOp4
 70
     0
102
RTVSPropertyOp5
 70
     0
102
RTVSPropertyOp6
 70
     0
102
RTVSPropertyOp7
 70
     0
102
RTVSPropertyOp8
 70
     0
102
RTVSPropertyOp9
 70
     0
102
RTVSPropertyOp10
 70
     0
102
RTVSPropertyOp11
 70
     0
102
RTVSPropertyOp12
 70
     0
102
RTVSPropertyOp13
 70
     0
102
RTVSPropertyOp14
 70
     2
102
RTVSPropertyOp15
 70
     0
102
RTVSPropertyOp16
 70
     0
102
RTVSPropertyOp17
 70
     0
102
RTVSPropertyOp18
 70
     0
102
RTVSPropertyOp19
 70
     0
102
RTVSPropertyOp20
 70
     0
102
RTVSPropertyOp21
 70
     0
102
RTVSPropertyOp22
 70
     0
102
RTVSPropertyOp23
 70
     0
102
RTVSPropertyOp24
 70
     0
102
RTVSPropertyOp25
 70
     0
102
RTVSPropertyOp26
 70
     0
102
RTVSPropertyOp27
 70
     0
102
RTVSPropertyOp28
 70
     0
102
RTVSPropertyOp29
 70
     0
102
RTVSPropertyOp30
 70
     0
102
RTVSPropertyOp31
 70
     0
102
RTVSPropertyOp32
 70
     0
  0
XRECORD
  5
9EB
102
{ACAD_REACTORS
330
9EA
102
}
330
9EA
100
AcDbXrecord
280
     1
102
RTVSPropertyOp0
 70
     1
102
RTVSPropertyOp1
 70
     1
102
RTVSPropertyOp2
 70
     1
102
RTVSPropertyOp3
 70
     1
102
RTVSPropertyOp4
 70
     1
102
RTVSPropertyOp5
 70
     1
102
RTVSPropertyOp6
 70
     1
102
RTVSPropertyOp7
 70
     1
102
RTVSPropertyOp8
 70
     1
102
RTVSPropertyOp9
 70
     1
102
RTVSPropertyOp10
 70
     1
102
RTVSPropertyOp11
 70
     1
102
RTVSPropertyOp12
 70
     1
102
RTVSPropertyOp13
 70
     1
102
RTVSPropertyOp14
 70
     1
102
RTVSPropertyOp15
 70
     1
102
RTVSPropertyOp16
 70
     1
102
RTVSPropertyOp17
 70
     1
102
RTVSPropertyOp18
 70
     1
102
RTVSPropertyOp19
 70
     1
102
RTVSPropertyOp20
 70
     1
102
RTVSPropertyOp21
 70
     1
102
RTVSPropertyOp22
 70
     1
102
RTVSPropertyOp23
 70
     1
102
RTVSPropertyOp24
 70
     1
102
RTVSPropertyOp25
 70
     1
102
RTVSPropertyOp26
 70
     1
102
RTVSPropertyOp27
 70
     1
102
RTVSPropertyOp28
 70
     1
102
RTVSPropertyOp29
 70
     1
102
RTVSPropertyOp30
 70
     1
102
RTVSPropertyOp31
 70
     1
102
RTVSPropertyOp32
 70
     1
  0
XRECORD
  5
A0A
102
{ACAD_REACTORS
330
A09
102
}
330
A09
100
AcDbXrecord
280
     1
102
RTVSPropertyOp0
 70
     1
102
RTVSPropertyOp1
 70
     1
102
RTVSPropertyOp2
 70
     1
102
RTVSPropertyOp3
 70
     1
102
RTVSPropertyOp4
 70
     1
102
RTVSPropertyOp5
 70
     1
102
RTVSPropertyOp6
 70
     1
102
RTVSPropertyOp7
 70
     1
102
RTVSPropertyOp8
 70
     1
102
RTVSPropertyOp9
 70
     1
102
RTVSPropertyOp10
 70
     1
102
RTVSPropertyOp11
 70
     1
102
RTVSPropertyOp12
 70
     1
102
RTVSPropertyOp13
 70
     1
102
RTVSPropertyOp14
 70
     1
102
RTVSPropertyOp15
 70
     1
102
RTVSPropertyOp16
 70
     1
102
RTVSPropertyOp17
 70
     1
102
RTVSPropertyOp18
 70
     1
102
RTVSPropertyOp19
 70
     1
102
RTVSPropertyOp20
 70
     1
102
RTVSPropertyOp21
 70
     1
102
RTVSPropertyOp22
 70
     1
102
RTVSPropertyOp23
 70
     1
102
RTVSPropertyOp24
 70
     1
102
RTVSPropertyOp25
 70
     1
102
RTVSPropertyOp26
 70
     1
102
RTVSPropertyOp27
 70
     1
102
RTVSPropertyOp28
 70
     1
102
RTVSPropertyOp29
 70
     1
102
RTVSPropertyOp30
 70
     1
102
RTVSPropertyOp31
 70
     1
102
RTVSPropertyOp32
 70
     1
  0
XRECORD
  5
A08
102
{ACAD_REACTORS
330
A07
102
}
330
A07
100
AcDbXrecord
280
     1
102
RTVSPropertyOp0
 70
     1
102
RTVSPropertyOp1
 70
     1
102
RTVSPropertyOp2
 70
     1
102
RTVSPropertyOp3
 70
     1
102
RTVSPropertyOp4
 70
     1
102
RTVSPropertyOp5
 70
     1
102
RTVSPropertyOp6
 70
     1
102
RTVSPropertyOp7
 70
     1
102
RTVSPropertyOp8
 70
     1
102
RTVSPropertyOp9
 70
     1
102
RTVSPropertyOp10
 70
     1
102
RTVSPropertyOp11
 70
     1
102
RTVSPropertyOp12
 70
     1
102
RTVSPropertyOp13
 70
     1
102
RTVSPropertyOp14
 70
     1
102
RTVSPropertyOp15
 70
     1
102
RTVSPropertyOp16
 70
     1
102
RTVSPropertyOp17
 70
     1
102
RTVSPropertyOp18
 70
     1
102
RTVSPropertyOp19
 70
     1
102
RTVSPropertyOp20
 70
     1
102
RTVSPropertyOp21
 70
     1
102
RTVSPropertyOp22
 70
     1
102
RTVSPropertyOp23
 70
     1
102
RTVSPropertyOp24
 70
     1
102
RTVSPropertyOp25
 70
     1
102
RTVSPropertyOp26
 70
     1
102
RTVSPropertyOp27
 70
     1
102
RTVSPropertyOp28
 70
     1
102
RTVSPropertyOp29
 70
     1
102
RTVSPropertyOp30
 70
     1
102
RTVSPropertyOp31
 70
     1
102
RTVSPropertyOp32
 70
     1
  0
XRECORD
  5
A02
102
{ACAD_REACTORS
330
A01
102
}
330
A01
100
AcDbXrecord
280
     1
102
RTVSPropertyOp0
 70
     1
102
RTVSPropertyOp1
 70
     1
102
RTVSPropertyOp2
 70
     1
102
RTVSPropertyOp3
 70
     1
102
RTVSPropertyOp4
 70
     1
102
RTVSPropertyOp5
 70
     1
102
RTVSPropertyOp6
 70
     1
102
RTVSPropertyOp7
 70
     1
102
RTVSPropertyOp8
 70
     1
102
RTVSPropertyOp9
 70
     1
102
RTVSPropertyOp10
 70
     1
102
RTVSPropertyOp11
 70
     1
102
RTVSPropertyOp12
 70
     1
102
RTVSPropertyOp13
 70
     1
102
RTVSPropertyOp14
 70
     1
102
RTVSPropertyOp15
 70
     1
102
RTVSPropertyOp16
 70
     1
102
RTVSPropertyOp17
 70
     1
102
RTVSPropertyOp18
 70
     1
102
RTVSPropertyOp19
 70
     1
102
RTVSPropertyOp20
 70
     1
102
RTVSPropertyOp21
 70
     1
102
RTVSPropertyOp22
 70
     1
102
RTVSPropertyOp23
 70
     1
102
RTVSPropertyOp24
 70
     1
102
RTVSPropertyOp25
 70
     1
102
RTVSPropertyOp26
 70
     1
102
RTVSPropertyOp27
 70
     1
102
RTVSPropertyOp28
 70
     1
102
RTVSPropertyOp29
 70
     1
102
RTVSPropertyOp30
 70
     1
102
RTVSPropertyOp31
 70
     1
102
RTVSPropertyOp32
 70
     1
  0
XRECORD
  5
A04
102
{ACAD_REACTORS
330
A03
102
}
330
A03
100
AcDbXrecord
280
     1
102
RTVSPropertyOp0
 70
     1
102
RTVSPropertyOp1
 70
     1
102
RTVSPropertyOp2
 70
     1
102
RTVSPropertyOp3
 70
     1
102
RTVSPropertyOp4
 70
     1
102
RTVSPropertyOp5
 70
     1
102
RTVSPropertyOp6
 70
     1
102
RTVSPropertyOp7
 70
     1
102
RTVSPropertyOp8
 70
     1
102
RTVSPropertyOp9
 70
     1
102
RTVSPropertyOp10
 70
     1
102
RTVSPropertyOp11
 70
     1
102
RTVSPropertyOp12
 70
     1
102
RTVSPropertyOp13
 70
     1
102
RTVSPropertyOp14
 70
     1
102
RTVSPropertyOp15
 70
     1
102
RTVSPropertyOp16
 70
     1
102
RTVSPropertyOp17
 70
     1
102
RTVSPropertyOp18
 70
     1
102
RTVSPropertyOp19
 70
     1
102
RTVSPropertyOp20
 70
     1
102
RTVSPropertyOp21
 70
     1
102
RTVSPropertyOp22
 70
     1
102
RTVSPropertyOp23
 70
     1
102
RTVSPropertyOp24
 70
     1
102
RTVSPropertyOp25
 70
     1
102
RTVSPropertyOp26
 70
     1
102
RTVSPropertyOp27
 70
     1
102
RTVSPropertyOp28
 70
     1
102
RTVSPropertyOp29
 70
     1
102
RTVSPropertyOp30
 70
     1
102
RTVSPropertyOp31
 70
     1
102
RTVSPropertyOp32
 70
     1
  0
XRECORD
  5
9F1
102
{ACAD_REACTORS
330
9F0
102
}
330
9F0
100
AcDbXrecord
280
     1
102
RTVSPropertyOp0
 70
     1
102
RTVSPropertyOp1
 70
     1
102
RTVSPropertyOp2
 70
     1
102
RTVSPropertyOp3
 70
     1
102
RTVSPropertyOp4
 70
     1
102
RTVSPropertyOp5
 70
     1
102
RTVSPropertyOp6
 70
     1
102
RTVSPropertyOp7
 70
     1
102
RTVSPropertyOp8
 70
     1
102
RTVSPropertyOp9
 70
     1
102
RTVSPropertyOp10
 70
     1
102
RTVSPropertyOp11
 70
     1
102
RTVSPropertyOp12
 70
     1
102
RTVSPropertyOp13
 70
     1
102
RTVSPropertyOp14
 70
     1
102
RTVSPropertyOp15
 70
     1
102
RTVSPropertyOp16
 70
     1
102
RTVSPropertyOp17
 70
     1
102
RTVSPropertyOp18
 70
     1
102
RTVSPropertyOp19
 70
     1
102
RTVSPropertyOp20
 70
     1
102
RTVSPropertyOp21
 70
     1
102
RTVSPropertyOp22
 70
     1
102
RTVSPropertyOp23
 70
     1
102
RTVSPropertyOp24
 70
     1
102
RTVSPropertyOp25
 70
     1
102
RTVSPropertyOp26
 70
     1
102
RTVSPropertyOp27
 70
     1
102
RTVSPropertyOp28
 70
     1
102
RTVSPropertyOp29
 70
     1
102
RTVSPropertyOp30
 70
     1
102
RTVSPropertyOp31
 70
     1
102
RTVSPropertyOp32
 70
     1
  0
XRECORD
  5
9FE
102
{ACAD_REACTORS
330
9FD
102
}
330
9FD
100
AcDbXrecord
280
     1
102
RTVSPropertyOp0
 70
     1
102
RTVSPropertyOp1
 70
     1
102
RTVSPropertyOp2
 70
     1
102
RTVSPropertyOp3
 70
     1
102
RTVSPropertyOp4
 70
     1
102
RTVSPropertyOp5
 70
     1
102
RTVSPropertyOp6
 70
     1
102
RTVSPropertyOp7
 70
     1
102
RTVSPropertyOp8
 70
     1
102
RTVSPropertyOp9
 70
     1
102
RTVSPropertyOp10
 70
     1
102
RTVSPropertyOp11
 70
     1
102
RTVSPropertyOp12
 70
     1
102
RTVSPropertyOp13
 70
     1
102
RTVSPropertyOp14
 70
     1
102
RTVSPropertyOp15
 70
     1
102
RTVSPropertyOp16
 70
     1
102
RTVSPropertyOp17
 70
     1
102
RTVSPropertyOp18
 70
     1
102
RTVSPropertyOp19
 70
     1
102
RTVSPropertyOp20
 70
     1
102
RTVSPropertyOp21
 70
     1
102
RTVSPropertyOp22
 70
     1
102
RTVSPropertyOp23
 70
     1
102
RTVSPropertyOp24
 70
     1
102
RTVSPropertyOp25
 70
     1
102
RTVSPropertyOp26
 70
     1
102
RTVSPropertyOp27
 70
     1
102
RTVSPropertyOp28
 70
     1
102
RTVSPropertyOp29
 70
     1
102
RTVSPropertyOp30
 70
     1
102
RTVSPropertyOp31
 70
     1
102
RTVSPropertyOp32
 70
     1
  0
XRECORD
  5
A06
102
{ACAD_REACTORS
330
A05
102
}
330
A05
100
AcDbXrecord
280
     1
102
RTVSPropertyOp0
 70
     1
102
RTVSPropertyOp1
 70
     1
102
RTVSPropertyOp2
 70
     1
102
RTVSPropertyOp3
 70
     1
102
RTVSPropertyOp4
 70
     1
102
RTVSPropertyOp5
 70
     1
102
RTVSPropertyOp6
 70
     1
102
RTVSPropertyOp7
 70
     1
102
RTVSPropertyOp8
 70
     1
102
RTVSPropertyOp9
 70
     1
102
RTVSPropertyOp10
 70
     1
102
RTVSPropertyOp11
 70
     1
102
RTVSPropertyOp12
 70
     1
102
RTVSPropertyOp13
 70
     1
102
RTVSPropertyOp14
 70
     1
102
RTVSPropertyOp15
 70
     1
102
RTVSPropertyOp16
 70
     1
102
RTVSPropertyOp17
 70
     1
102
RTVSPropertyOp18
 70
     1
102
RTVSPropertyOp19
 70
     1
102
RTVSPropertyOp20
 70
     1
102
RTVSPropertyOp21
 70
     1
102
RTVSPropertyOp22
 70
     1
102
RTVSPropertyOp23
 70
     1
102
RTVSPropertyOp24
 70
     1
102
RTVSPropertyOp25
 70
     1
102
RTVSPropertyOp26
 70
     1
102
RTVSPropertyOp27
 70
     1
102
RTVSPropertyOp28
 70
     1
102
RTVSPropertyOp29
 70
     1
102
RTVSPropertyOp30
 70
     1
102
RTVSPropertyOp31
 70
     1
102
RTVSPropertyOp32
 70
     1
  0
ENDSEC
  0
EOF
