  0
SECTION
  2
HEADER
  9
$ACADVER
  1
AC1015
  9
$ACADMAINTVER
 70
    20
  9
$DWGCODEPAGE
  3
ANSI_932
  9
$INSBASE
 10
0.0
 20
0.0
 30
0.0
  9
$EXTMIN
 10
692.642242
 20
-77.831887
 30
0.0
  9
$EXTMAX
 10
1097.642242
 20
196.223474
 30
0.0
  9
$LIMMIN
 10
692.641212
 20
-77.832886
  9
$LIMMAX
 10
1097.669091
 20
196.22448
  9
$ORTHOMODE
 70
     1
  9
$REGENMODE
 70
     1
  9
$FILLMODE
 70
     1
  9
$QTEXTMODE
 70
     0
  9
$MIRRTEXT
 70
     0
  9
$LTSCALE
 40
6.750430999999997
  9
$ATTMODE
 70
     1
  9
$TEXTSIZE
 40
3.2
  9
$TRACEWID
 40
0.05
  9
$TEXTSTYLE
  7
高3.2
  9
$CLAYER
  8
0
  9
$CELTYPE
  6
ByLayer
  9
$CECOLOR
 62
   256
  9
$CELTSCALE
 40
1.0
  9
$DISPSILH
 70
     0
  9
$DIMSCALE
 40
1.0
  9
$DIMASZ
 40
2.5
  9
$DIMEXO
 40
0.25
  9
$DIMDLI
 40
0.2
  9
$DIMRND
 40
0.0
  9
$DIMDLE
 40
0.0
  9
$DIMEXE
 40
1.25
  9
$DIMTP
 40
0.0
  9
$DIMTM
 40
0.0
  9
$DIMTXT
 40
3.0
  9
$DIMCEN
 40
0.0
  9
$DIMTSZ
 40
0.0
  9
$DIMTOL
 70
     0
  9
$DIMLIM
 70
     0
  9
$DIMTIH
 70
     0
  9
$DIMTOH
 70
     0
  9
$DIMSE1
 70
     0
  9
$DIMSE2
 70
     0
  9
$DIMTAD
 70
     3
  9
$DIMZIN
 70
     8
  9
$DIMBLK
  1
Open30
  9
$DIMASO
 70
     1
  9
$DIMSHO
 70
     1
  9
$DIMPOST
  1

  9
$DIMAPOST
  1

  9
$DIMALT
 70
     0
  9
$DIMALTD
 70
     3
  9
$DIMALTF
 40
0.03937007874016
  9
$DIMLFAC
 40
2.0
  9
$DIMTOFL
 70
     1
  9
$DIMTVP
 40
0.0
  9
$DIMTIX
 70
     0
  9
$DIMSOXD
 70
     0
  9
$DIMSAH
 70
     0
  9
$DIMBLK1
  1

  9
$DIMBLK2
  1

  9
$DIMSTYLE
  2
1／2
  9
$DIMCLRD
 70
     0
  9
$DIMCLRE
 70
     0
  9
$DIMCLRT
 70
     4
  9
$DIMTFAC
 40
1.0
  9
$DIMGAP
 40
0.625
  9
$DIMJUST
 70
     0
  9
$DIMSD1
 70
     0
  9
$DIMSD2
 70
     0
  9
$DIMTOLJ
 70
     0
  9
$DIMTZIN
 70
     8
  9
$DIMALTZ
 70
     0
  9
$DIMALTTZ
 70
     0
  9
$DIMUPT
 70
     1
  9
$DIMDEC
 70
     2
  9
$DIMTDEC
 70
     2
  9
$DIMALTU
 70
     2
  9
$DIMALTTD
 70
     3
  9
$DIMTXSTY
  7
STANDARD
  9
$DIMAUNIT
 70
     0
  9
$DIMADEC
 70
     1
  9
$DIMALTRND
 40
0.0
  9
$DIMAZIN
 70
     2
  9
$DIMDSEP
 70
    46
  9
$DIMATFIT
 70
     0
  9
$DIMFRAC
 70
     0
  9
$DIMLDRBLK
  1
Open30
  9
$DIMLUNIT
 70
     2
  9
$DIMLWD
 70
    -2
  9
$DIMLWE
 70
    -2
  9
$DIMTMOVE
 70
     0
  9
$LUNITS
 70
     2
  9
$LUPREC
 70
     4
  9
$SKETCHINC
 40
0.1
  9
$FILLETRAD
 40
0.0
  9
$AUNITS
 70
     0
  9
$AUPREC
 70
     0
  9
$MENU
  1
.
  9
$ELEVATION
 40
0.0
  9
$PELEVATION
 40
0.0
  9
$THICKNESS
 40
0.0
  9
$LIMCHECK
 70
     0
  9
$CHAMFERA
 40
0.0
  9
$CHAMFERB
 40
0.0
  9
$CHAMFERC
 40
0.0
  9
$CHAMFERD
 40
0.0
  9
$SKPOLY
 70
     0
  9
$TDCREATE
 40
2456352.467710775
  9
$TDUCREATE
 40
2456352.092710775
  9
$TDUPDATE
 40
2459144.615872361
  9
$TDUUPDATE
 40
2459144.240872361
  9
$TDINDWG
 40
0.0132453819
  9
$TDUSRTIMER
 40
0.0132451620
  9
$USRTIMER
 70
     1
  9
$ANGBASE
 50
0.0
  9
$ANGDIR
 70
     0
  9
$PDMODE
 70
     0
  9
$PDSIZE
 40
0.0
  9
$PLINEWID
 40
0.0
  9
$SPLFRAME
 70
     0
  9
$SPLINETYPE
 70
     6
  9
$SPLINESEGS
 70
     8
  9
$HANDSEED
  5
F83
  9
$SURFTAB1
 70
     6
  9
$SURFTAB2
 70
     6
  9
$SURFTYPE
 70
     6
  9
$SURFU
 70
     6
  9
$SURFV
 70
     6
  9
$UCSBASE
  2

  9
$UCSNAME
  2

  9
$UCSORG
 10
0.0
 20
0.0
 30
0.0
  9
$UCSXDIR
 10
1.0
 20
0.0
 30
0.0
  9
$UCSYDIR
 10
0.0
 20
1.0
 30
0.0
  9
$UCSORTHOREF
  2

  9
$UCSORTHOVIEW
 70
     0
  9
$UCSORGTOP
 10
0.0
 20
0.0
 30
0.0
  9
$UCSORGBOTTOM
 10
0.0
 20
0.0
 30
0.0
  9
$UCSORGLEFT
 10
0.0
 20
0.0
 30
0.0
  9
$UCSORGRIGHT
 10
0.0
 20
0.0
 30
0.0
  9
$UCSORGFRONT
 10
0.0
 20
0.0
 30
0.0
  9
$UCSORGBACK
 10
0.0
 20
0.0
 30
0.0
  9
$PUCSBASE
  2

  9
$PUCSNAME
  2

  9
$PUCSORG
 10
0.0
 20
0.0
 30
0.0
  9
$PUCSXDIR
 10
1.0
 20
0.0
 30
0.0
  9
$PUCSYDIR
 10
0.0
 20
1.0
 30
0.0
  9
$PUCSORTHOREF
  2

  9
$PUCSORTHOVIEW
 70
     0
  9
$PUCSORGTOP
 10
0.0
 20
0.0
 30
0.0
  9
$PUCSORGBOTTOM
 10
0.0
 20
0.0
 30
0.0
  9
$PUCSORGLEFT
 10
0.0
 20
0.0
 30
0.0
  9
$PUCSORGRIGHT
 10
0.0
 20
0.0
 30
0.0
  9
$PUCSORGFRONT
 10
0.0
 20
0.0
 30
0.0
  9
$PUCSORGBACK
 10
0.0
 20
0.0
 30
0.0
  9
$USERI1
 70
     0
  9
$USERI2
 70
     0
  9
$USERI3
 70
     0
  9
$USERI4
 70
     0
  9
$USERI5
 70
     0
  9
$USERR1
 40
0.0
  9
$USERR2
 40
0.0
  9
$USERR3
 40
0.0
  9
$USERR4
 40
0.0
  9
$USERR5
 40
0.0
  9
$WORLDVIEW
 70
     1
  9
$SHADEDGE
 70
     3
  9
$SHADEDIF
 70
    70
  9
$TILEMODE
 70
     1
  9
$MAXACTVP
 70
    64
  9
$PINSBASE
 10
0.0
 20
0.0
 30
0.0
  9
$PLIMCHECK
 70
     0
  9
$PEXTMIN
 10
1.000000000000000E+20
 20
1.000000000000000E+20
 30
1.000000000000000E+20
  9
$PEXTMAX
 10
-1.000000000000000E+20
 20
-1.000000000000000E+20
 30
-1.000000000000000E+20
  9
$PLIMMIN
 10
0.0
 20
0.0
  9
$PLIMMAX
 10
12.0
 20
9.0
  9
$UNITMODE
 70
     0
  9
$VISRETAIN
 70
     1
  9
$PLINEGEN
 70
     0
  9
$PSLTSCALE
 70
     1
  9
$TREEDEPTH
 70
  3020
  9
$CMLSTYLE
  2
Standard
  9
$CMLJUST
 70
     0
  9
$CMLSCALE
 40
1.0
  9
$PROXYGRAPHICS
 70
     1
  9
$MEASUREMENT
 70
     0
  9
$CELWEIGHT
370
    -1
  9
$ENDCAPS
280
     0
  9
$JOINSTYLE
280
     0
  9
$LWDISPLAY
290
     0
  9
$INSUNITS
 70
     0
  9
$HYPERLINKBASE
  1

  9
$STYLESHEET
  1

  9
$XEDIT
290
     1
  9
$CEPSNTYPE
380
     0
  9
$PSTYLEMODE
290
     1
  9
$FINGERPRINTGUID
  2
{93FDD135-C358-4FB0-810B-65573B2CB7C9}
  9
$VERSIONGUID
  2
{4D06E5C7-0490-42FA-BEF7-95FFAEEF0B20}
  9
$EXTNAMES
290
     1
  9
$PSVPSCALE
 40
0.0
  9
$OLESTARTUP
290
     0
  0
ENDSEC
  0
SECTION
  2
CLASSES
  0
CLASS
  1
ACDBDICTIONARYWDFLT
  2
AcDbDictionaryWithDefault
  3
ObjectDBX Classes
 90
        0
280
     0
281
     0
  0
CLASS
  1
MATERIAL
  2
AcDbMaterial
  3
ObjectDBX Classes
 90
     1153
280
     0
281
     0
  0
CLASS
  1
VISUALSTYLE
  2
AcDbVisualStyle
  3
ObjectDBX Classes
 90
     4095
280
     0
281
     0
  0
CLASS
  1
SCALE
  2
AcDbScale
  3
ObjectDBX Classes
 90
     1153
280
     0
281
     0
  0
CLASS
  1
TABLESTYLE
  2
AcDbTableStyle
  3
ObjectDBX Classes
 90
     4095
280
     0
281
     0
  0
CLASS
  1
MLEADERSTYLE
  2
AcDbMLeaderStyle
  3
ACDB_MLEADERSTYLE_CLASS
 90
     4095
280
     0
281
     0
  0
CLASS
  1
SORTENTSTABLE
  2
AcDbSortentsTable
  3
ObjectDBX Classes
 90
        0
280
     0
281
     0
  0
CLASS
  1
DICTIONARYVAR
  2
AcDbDictionaryVar
  3
ObjectDBX Classes
 90
        0
280
     0
281
     0
  0
CLASS
  1
CELLSTYLEMAP
  2
AcDbCellStyleMap
  3
ObjectDBX Classes
 90
     1152
280
     0
281
     0
  0
CLASS
  1
ACDBPLACEHOLDER
  2
AcDbPlaceHolder
  3
ObjectDBX Classes
 90
        0
280
     0
281
     0
  0
CLASS
  1
LAYOUT
  2
AcDbLayout
  3
ObjectDBX Classes
 90
        0
280
     0
281
     0
  0
CLASS
  1
AEC_REFEDIT_STATUS_TRACKER
  2
AecDbRefEditStatusTracker
  3
AecArchBase60|Product Desc: Autodesk Architectural Desktop 2007 |Company: Autodesk,Inc. |WEB Address: www.autodesk.com
 90
      129
280
     0
281
     0
  0
CLASS
  1
NPOCOLLECTION
  2
AcDbImpNonPersistentObjectsCollection
  3
ObjectDBX Classes
 90
     1153
280
     0
281
     0
  0
ENDSEC
  0
SECTION
  2
TABLES
  0
TABLE
  2
VPORT
  5
8
330
0
100
AcDbSymbolTable
 70
     1
  0
VPORT
  5
8B
330
8
100
AcDbSymbolTableRecord
100
AcDbViewportTableRecord
  2
*Active
 70
     0
 10
0.0
 20
0.0
 11
1.0
 21
1.0
 12
859.1477633340664
 22
37.11858500182638
 13
0.0
 23
0.0
 14
1.0
 24
1.0
 15
0.0
 25
0.0
 16
0.0
 26
0.0
 36
1.0
 17
0.0
 27
0.0
 37
0.0
 40
777.8263127219437
 41
0.8407310704960835
 42
50.0
 43
0.0
 44
0.0
 50
0.0
 51
0.0
 71
     0
 72
   100
 73
     1
 74
     1
 75
     0
 76
     0
 77
     0
 78
     0
281
     0
 65
     1
110
0.0
120
0.0
130
0.0
111
1.0
121
0.0
131
0.0
112
0.0
122
1.0
132
0.0
 79
     0
146
0.0
  0
ENDTAB
  0
TABLE
  2
LTYPE
  5
5
330
0
100
AcDbSymbolTable
 70
     2
  0
LTYPE
  5
5A
330
5
100
AcDbSymbolTableRecord
100
AcDbLinetypeTableRecord
  2
ByBlock
 70
     0
  3

 72
    65
 73
     0
 40
0.0
  0
LTYPE
  5
5B
330
5
100
AcDbSymbolTableRecord
100
AcDbLinetypeTableRecord
  2
ByLayer
 70
     0
  3

 72
    65
 73
     0
 40
0.0
  0
LTYPE
  5
5C
330
5
100
AcDbSymbolTableRecord
100
AcDbLinetypeTableRecord
  2
CONTINUOUS
 70
     0
  3
Solid-line
 72
    65
 73
     0
 40
0.0
  0
ENDTAB
  0
TABLE
  2
LAYER
  5
2
102
{ACAD_XDICTIONARY
360
84F
102
}
330
0
100
AcDbSymbolTable
 70
     2
  0
LAYER
  5
54
102
{ACAD_XDICTIONARY
360
9FC
102
}
330
2
100
AcDbSymbolTableRecord
100
AcDbLayerTableRecord
  2
0
 70
     0
 62
     7
  6
CONTINUOUS
370
    -3
390
F
  0
LAYER
  5
838
330
2
100
AcDbSymbolTableRecord
100
AcDbLayerTableRecord
  2
Defpoints
 70
     0
 62
     7
  6
CONTINUOUS
290
     0
370
    -3
390
F
  0
ENDTAB
  0
TABLE
  2
STYLE
  5
3
330
0
100
AcDbSymbolTable
 70
     6
  0
STYLE
  5
55
330
3
100
AcDbSymbolTableRecord
100
AcDbTextStyleTableRecord
  2
STANDARD
 70
     0
 40
0.0
 41
1.0
 50
0.0
 71
     0
 42
0.2
  3
TXT
  4
BIGFONT
  0
STYLE
  5
839
330
3
100
AcDbSymbolTableRecord
100
AcDbTextStyleTableRecord
  2
高3.2
 70
     0
 40
3.2
 41
1.0
 50
0.0
 71
     0
 42
3.2
  3
txt.shx
  4
bigfont.shx
  0
STYLE
  5
83A
330
3
100
AcDbSymbolTableRecord
100
AcDbTextStyleTableRecord
  2
高6.3
 70
     0
 40
6.299999999999998
 41
1.0
 50
0.0
 71
     0
 42
6.299999999999998
  3
txt.shx
  4
bigfont.shx
  0
STYLE
  5
83C
330
3
100
AcDbSymbolTableRecord
100
AcDbTextStyleTableRecord
  2
高4.5
 70
     0
 40
4.5
 41
1.0
 50
0.0
 71
     0
 42
6.299999999999998
  3
txt.shx
  4
bigfont.shx
  0
STYLE
  5
83D
330
3
100
AcDbSymbolTableRecord
100
AcDbTextStyleTableRecord
  2
高2
 70
     0
 40
2.0
 41
1.0
 50
0.0
 71
     0
 42
2.0
  3
txt.shx
  4
bigfont.shx
  0
STYLE
  5
ACB
330
3
100
AcDbSymbolTableRecord
100
AcDbTextStyleTableRecord
  2
高2.5
 70
     0
 40
2.5
 41
1.0
 50
0.0
 71
     0
 42
0.2
  3
txt.shx
  4
bigfont.shx
  0
ENDTAB
  0
TABLE
  2
VIEW
  5
6
330
0
100
AcDbSymbolTable
 70
     0
  0
ENDTAB
  0
TABLE
  2
UCS
  5
7
330
0
100
AcDbSymbolTable
 70
     0
  0
ENDTAB
  0
TABLE
  2
APPID
  5
9
330
0
100
AcDbSymbolTable
 70
    10
  0
APPID
  5
56
330
9
100
AcDbSymbolTableRecord
100
AcDbRegAppTableRecord
  2
ACAD
 70
     0
  0
APPID
  5
5D
330
9
100
AcDbSymbolTableRecord
100
AcDbRegAppTableRecord
  2
AcadAnnotative
 70
     0
  0
APPID
  5
848
330
9
100
AcDbSymbolTableRecord
100
AcDbRegAppTableRecord
  2
ACAD_DSTYLE_DIMJOGGED_JOGANGLE_SYMBOL
 70
     0
  0
APPID
  5
849
330
9
100
AcDbSymbolTableRecord
100
AcDbRegAppTableRecord
  2
ACAD_DSTYLE_DIMJAG
 70
     0
  0
APPID
  5
84A
330
9
100
AcDbSymbolTableRecord
100
AcDbRegAppTableRecord
  2
ACAD_DSTYLE_DIMBREAK
 70
     0
  0
APPID
  5
84B
330
9
100
AcDbSymbolTableRecord
100
AcDbRegAppTableRecord
  2
ACAD_DSTYLE_DIMTALN
 70
     0
  0
APPID
  5
98F
330
9
100
AcDbSymbolTableRecord
100
AcDbRegAppTableRecord
  2
ACAD_EXEMPT_FROM_CAD_STANDARDS
 70
     0
  0
APPID
  5
A42
330
9
100
AcDbSymbolTableRecord
100
AcDbRegAppTableRecord
  2
ACAD_MLEADERVER
 70
     0
  0
APPID
  5
A47
330
9
100
AcDbSymbolTableRecord
100
AcDbRegAppTableRecord
  2
ACAD_DSTYLE_DIMARC_LENGTH_SYMBOL
 70
     0
  0
APPID
  5
A48
330
9
100
AcDbSymbolTableRecord
100
AcDbRegAppTableRecord
  2
ACAD_DSTYLE_DIMEXT_LENGTH
 70
     0
  0
ENDTAB
  0
TABLE
  2
DIMSTYLE
  5
A
330
0
100
AcDbSymbolTable
 70
     2
100
AcDbDimStyleTable
 71
     1
340
842
  0
DIMSTYLE
105
57
330
A
100
AcDbSymbolTableRecord
100
AcDbDimStyleTableRecord
  2
Standard
 70
     0
340
55
  0
DIMSTYLE
105
842
330
A
100
AcDbSymbolTableRecord
100
AcDbDimStyleTableRecord
  2
1／2
 70
     0
 41
2.5
 42
0.25
 43
0.2
 44
1.25
 73
     0
 74
     0
 77
     3
 78
     8
 79
     2
140
3.0
141
0.0
143
0.03937007874016
144
2.0
147
0.625
171
     3
172
     1
178
     4
179
     1
271
     2
272
     2
274
     3
283
     0
284
     8
288
     1
289
     0
340
55
341
7A8
342
7A8
1001
ACAD_DSTYLE_DIMARC_LENGTH_SYMBOL
1070
   379
1070
     2
1001
ACAD_DSTYLE_DIMEXT_LENGTH
1070
   378
1040
1.25
1001
ACAD_DSTYLE_DIMJOGGED_JOGANGLE_SYMBOL
1070
   384
1040
1.570796326794896
  0
ENDTAB
  0
TABLE
  2
BLOCK_RECORD
  5
1
330
0
100
AcDbSymbolTable
 70
     4
  0
BLOCK_RECORD
  5
6B
102
{ACAD_XDICTIONARY
360
BBE
102
}
330
1
100
AcDbSymbolTableRecord
100
AcDbBlockTableRecord
  2
*Model_Space
340
6E
  0
BLOCK_RECORD
  5
67
330
1
100
AcDbSymbolTableRecord
100
AcDbBlockTableRecord
  2
*Paper_Space
340
6A
  0
BLOCK_RECORD
  5
7A8
330
1
100
AcDbSymbolTableRecord
100
AcDbBlockTableRecord
  2
_Open30
340
0
102
{BLKREFS
331
B53
331
B54
331
B5C
331
B5D
331
B65
331
B66
102
}
  0
BLOCK_RECORD
  5
991
330
1
100
AcDbSymbolTableRecord
100
AcDbBlockTableRecord
  2
*D1
340
0
  0
BLOCK_RECORD
  5
99E
330
1
100
AcDbSymbolTableRecord
100
AcDbBlockTableRecord
  2
*D2
340
0
  0
BLOCK_RECORD
  5
9AB
330
1
100
AcDbSymbolTableRecord
100
AcDbBlockTableRecord
  2
*D3
340
0
  0
ENDTAB
  0
ENDSEC
  0
SECTION
  2
BLOCKS
  0
BLOCK
  5
6C
330
6B
100
AcDbEntity
  8
0
100
AcDbBlockBegin
  2
*Model_Space
 70
     0
 10
0.0
 20
0.0
 30
0.0
  3
*Model_Space
  1

  0
ENDBLK
  5
6D
330
6B
100
AcDbEntity
  8
0
100
AcDbBlockEnd
  0
BLOCK
  5
68
330
67
100
AcDbEntity
 67
     1
  8
0
100
AcDbBlockBegin
  2
*Paper_Space
 70
     0
 10
0.0
 20
0.0
 30
0.0
  3
*Paper_Space
  1

  0
ENDBLK
  5
69
330
67
100
AcDbEntity
 67
     1
  8
0
100
AcDbBlockEnd
  0
BLOCK
  5
7A9
330
7A8
100
AcDbEntity
  8
0
100
AcDbBlockBegin
  2
_Open30
 70
     0
 10
0.0
 20
0.0
 30
0.0
  3
_Open30
  1

  0
LINE
  5
7AA
330
7A8
100
AcDbEntity
  8
0
  6
ByBlock
 62
     0
370
    -2
100
AcDbLine
 10
-1.0
 20
0.267949
 30
0.0
 11
0.0
 21
0.0
 31
0.0
  0
LINE
  5
7AB
330
7A8
100
AcDbEntity
  8
0
  6
ByBlock
 62
     0
370
    -2
100
AcDbLine
 10
0.0
 20
0.0
 30
0.0
 11
-1.0
 21
-0.267949
 31
0.0
  0
LINE
  5
7AC
330
7A8
100
AcDbEntity
  8
0
  6
ByBlock
 62
     0
370
    -2
100
AcDbLine
 10
0.0
 20
0.0
 30
0.0
 11
-1.0
 21
0.0
 31
0.0
  0
ENDBLK
  5
7AD
330
7A8
100
AcDbEntity
  8
0
100
AcDbBlockEnd
  0
BLOCK
  5
992
330
991
100
AcDbEntity
  8
0
100
AcDbBlockBegin
  2
*D1
 70
     1
 10
0.0
 20
0.0
 30
0.0
  3
*D1
  1

  0
LINE
  5
B50
330
991
100
AcDbEntity
  8
0
 62
     0
370
    -2
100
AcDbLine
 10
814.813071
 20
57.22033399999999
 30
0.0
 11
838.5577929999998
 21
57.22033399999998
 31
0.0
  0
LINE
  5
B51
330
991
100
AcDbEntity
  8
0
 62
     0
370
    -2
100
AcDbLine
 10
786.832574
 20
147.220334
 30
0.0
 11
838.5577929999998
 21
147.220334
 31
0.0
  0
LINE
  5
B52
330
991
100
AcDbEntity
  8
0
 62
     0
370
    -2
100
AcDbLine
 10
837.3077929999999
 20
59.72033399999998
 30
0.0
 11
837.3077929999999
 21
144.7203339999999
 31
0.0
  0
INSERT
  5
B53
330
991
100
AcDbEntity
  8
0
 62
     0
370
    -2
100
AcDbBlockReference
  2
_Open30
 10
837.3077929999999
 20
57.22033399999998
 30
0.0
 41
2.5
 42
2.5
 43
2.5
 50
270.0
  0
INSERT
  5
B54
330
991
100
AcDbEntity
  8
0
 62
     0
370
    -2
100
AcDbBlockReference
  2
_Open30
 10
837.3077929999999
 20
147.220334
 30
0.0
 41
2.5
 42
2.5
 43
2.5
 50
90.0
  0
MTEXT
  5
B55
330
991
100
AcDbEntity
  8
0
 62
     4
100
AcDbMText
 10
835.1827929999998
 20
102.2203340000001
 30
0.0
 40
3.0
 41
0.0
 71
     5
 72
     1
  1
180
 11
0.0000000000000001
 21
1.0
 31
0.0
 73
     1
 44
1.0
1001
ACAD
1000
MTEXTBEGIN
1070
    73
1070
     1
1070
    44
1040
1.0
1070
    74
1070
     0
1000
MTEXTEND
  0
POINT
  5
B56
330
991
100
AcDbEntity
  8
Defpoints
 62
     0
100
AcDbPoint
 10
814.563071
 20
57.22033399999999
 30
0.0
  0
POINT
  5
B57
330
991
100
AcDbEntity
  8
Defpoints
 62
     0
100
AcDbPoint
 10
786.582574
 20
147.220334
 30
0.0
  0
POINT
  5
B58
330
991
100
AcDbEntity
  8
Defpoints
 62
     0
100
AcDbPoint
 10
837.3077929999999
 20
147.220334
 30
0.0
  0
ENDBLK
  5
993
330
991
100
AcDbEntity
  8
0
100
AcDbBlockEnd
  0
BLOCK
  5
99F
330
99E
100
AcDbEntity
  8
0
100
AcDbBlockBegin
  2
*D2
 70
     1
 10
0.0
 20
0.0
 30
0.0
  3
*D2
  1

  0
LINE
  5
B59
330
99E
100
AcDbEntity
  8
0
 62
     0
370
    -2
100
AcDbLine
 10
744.332574
 20
132.470334
 30
0.0
 11
744.332574
 21
169.8743
 31
0.0
  0
LINE
  5
B5A
330
99E
100
AcDbEntity
  8
0
 62
     0
370
    -2
100
AcDbLine
 10
824.3325739999997
 20
132.470334
 30
0.0
 11
824.3325739999997
 21
169.8743
 31
0.0
  0
LINE
  5
B5B
330
99E
100
AcDbEntity
  8
0
 62
     0
370
    -2
100
AcDbLine
 10
746.832574
 20
168.6243
 30
0.0
 11
821.8325739999997
 21
168.6243
 31
0.0
  0
INSERT
  5
B5C
330
99E
100
AcDbEntity
  8
0
 62
     0
370
    -2
100
AcDbBlockReference
  2
_Open30
 10
744.332574
 20
168.6243
 30
0.0
 41
2.5
 42
2.5
 43
2.5
 50
180.0
  0
INSERT
  5
B5D
330
99E
100
AcDbEntity
  8
0
 62
     0
370
    -2
100
AcDbBlockReference
  2
_Open30
 10
824.3325739999997
 20
168.6243
 30
0.0
 41
2.5
 42
2.5
 43
2.5
  0
MTEXT
  5
B5E
330
99E
100
AcDbEntity
  8
0
 62
     4
100
AcDbMText
 10
784.3325739999998
 20
170.7493
 30
0.0
 40
3.0
 41
0.0
 71
     5
 72
     1
  1
160
 73
     1
 44
1.0
1001
ACAD
1000
MTEXTBEGIN
1070
    73
1070
     1
1070
    44
1040
1.0
1070
    74
1070
     0
1000
MTEXTEND
  0
POINT
  5
B5F
330
99E
100
AcDbEntity
  8
Defpoints
 62
     0
100
AcDbPoint
 10
744.332574
 20
132.220334
 30
0.0
  0
POINT
  5
B60
330
99E
100
AcDbEntity
  8
Defpoints
 62
     0
100
AcDbPoint
 10
824.3325739999997
 20
132.220334
 30
0.0
  0
POINT
  5
B61
330
99E
100
AcDbEntity
  8
Defpoints
 62
     0
100
AcDbPoint
 10
824.3325739999997
 20
168.6243
 30
0.0
  0
ENDBLK
  5
9A0
330
99E
100
AcDbEntity
  8
0
100
AcDbBlockEnd
  0
BLOCK
  5
9AC
330
9AB
100
AcDbEntity
  8
0
100
AcDbBlockBegin
  2
*D3
 70
     1
 10
0.0
 20
0.0
 30
0.0
  3
*D3
  1

  0
LINE
  5
B62
330
9AB
100
AcDbEntity
  8
0
 62
     0
370
    -2
100
AcDbLine
 10
854.58689
 20
134.970334
 30
0.0
 11
854.58689
 21
169.8743
 31
0.0
  0
LINE
  5
B63
330
9AB
100
AcDbEntity
  8
0
 62
     0
370
    -2
100
AcDbLine
 10
947.0868900000001
 20
134.970334
 30
0.0
 11
947.0868900000001
 21
169.8743
 31
0.0
  0
LINE
  5
B64
330
9AB
100
AcDbEntity
  8
0
 62
     0
370
    -2
100
AcDbLine
 10
857.08689
 20
168.6243
 30
0.0
 11
944.58689
 21
168.6243
 31
0.0
  0
INSERT
  5
B65
330
9AB
100
AcDbEntity
  8
0
 62
     0
370
    -2
100
AcDbBlockReference
  2
_Open30
 10
854.58689
 20
168.6243
 30
0.0
 41
2.5
 42
2.5
 43
2.5
 50
180.0
  0
INSERT
  5
B66
330
9AB
100
AcDbEntity
  8
0
 62
     0
370
    -2
100
AcDbBlockReference
  2
_Open30
 10
947.0868900000001
 20
168.6243
 30
0.0
 41
2.5
 42
2.5
 43
2.5
  0
MTEXT
  5
B67
330
9AB
100
AcDbEntity
  8
0
 62
     4
100
AcDbMText
 10
900.83689
 20
170.7493
 30
0.0
 40
3.0
 41
0.0
 71
     5
 72
     1
  1
220
 73
     1
 44
1.0
1001
ACAD
1000
MTEXTBEGIN
1070
    73
1070
     1
1070
    44
1040
1.0
1070
    74
1070
     0
1000
MTEXTEND
  0
POINT
  5
B68
330
9AB
100
AcDbEntity
  8
Defpoints
 62
     0
100
AcDbPoint
 10
854.58689
 20
134.720334
 30
0.0
  0
POINT
  5
B69
330
9AB
100
AcDbEntity
  8
Defpoints
 62
     0
100
AcDbPoint
 10
947.0868900000001
 20
134.720334
 30
0.0
  0
POINT
  5
B6A
330
9AB
100
AcDbEntity
  8
Defpoints
 62
     0
100
AcDbPoint
 10
947.0868900000001
 20
168.6243
 30
0.0
  0
ENDBLK
  5
9AD
330
9AB
100
AcDbEntity
  8
0
100
AcDbBlockEnd
  0
ENDSEC
  0
SECTION
  2
ENTITIES
  0
TEXT
  5
C3
330
6B
100
AcDbEntity
  8
0
 62
     3
100
AcDbText
 10
1004.132401
 20
-45.321904
 30
0.0
 40
4.5
  1
海外用トランス
  7
高4.5
100
AcDbText
  0
LINE
  5
C6
330
6B
100
AcDbEntity
  8
0
 62
     3
100
AcDbLine
 10
1071.942878
 20
-61.166164
 30
0.0
 11
1071.942878
 21
-38.166164
 31
0.0
  0
LINE
  5
C8
330
6B
100
AcDbEntity
  8
0
 62
     3
100
AcDbLine
 10
1018.889269
 20
-68.166164
 30
0.0
 11
1018.889269
 21
-54.166164
 31
0.0
  0
TEXT
  5
CA
330
6B
100
AcDbEntity
  8
0
 62
     3
100
AcDbText
 10
1047.953196
 20
-41.96104799999999
 30
0.0
 40
2.0
  1
A
 41
0.7
100
AcDbText
  0
TEXT
  5
CB
330
6B
100
AcDbEntity
  8
0
 62
     3
100
AcDbText
 10
1050.488482
 20
-41.96104799999999
 30
0.0
 40
2.0
  1
P
 41
0.7
100
AcDbText
  0
TEXT
  5
CC
330
6B
100
AcDbEntity
  8
0
 62
     3
100
AcDbText
 10
1053.023769
 20
-41.96104799999999
 30
0.0
 40
2.0
  1
P
 41
0.7
100
AcDbText
  0
TEXT
  5
CD
330
6B
100
AcDbEntity
  8
0
 62
     3
100
AcDbText
 10
1055.559055
 20
-41.96104799999999
 30
0.0
 40
2.0
  1
D
 41
0.7
100
AcDbText
  0
TEXT
  5
CE
330
6B
100
AcDbEntity
  8
0
 62
     3
100
AcDbText
 10
1060.927738
 20
-41.96104799999999
 30
0.0
 40
2.0
  1
C
 41
0.7
100
AcDbText
  0
TEXT
  5
CF
330
6B
100
AcDbEntity
  8
0
 62
     3
100
AcDbText
 10
1063.463024
 20
-41.96104799999999
 30
0.0
 40
2.0
  1
H
 41
0.7
100
AcDbText
  0
TEXT
  5
D0
330
6B
100
AcDbEntity
  8
0
 62
     3
100
AcDbText
 10
1065.99831
 20
-41.96104799999999
 30
0.0
 40
2.0
  1
C
 41
0.7
100
AcDbText
  0
TEXT
  5
D1
330
6B
100
AcDbEntity
  8
0
 62
     3
100
AcDbText
 10
1068.533597
 20
-41.96104799999999
 30
0.0
 40
2.0
  1
K
 41
0.7
100
AcDbText
  0
TEXT
  5
D2
330
6B
100
AcDbEntity
  8
0
 62
     3
100
AcDbText
 10
1074.207563
 20
-41.96104799999999
 30
0.0
 40
2.0
  1
DESN
 41
1.216762999999998
100
AcDbText
  0
TEXT
  5
D3
330
6B
100
AcDbEntity
  8
0
 62
     3
100
AcDbText
 10
989.2012039999999
 20
-71.307546
 30
0.0
 40
2.0
  1
NICHIDO IND.CO.LTD
 41
1.274876
100
AcDbText
  0
LINE
  5
D4
330
6B
100
AcDbEntity
  8
0
 62
     3
100
AcDbLine
 10
999.5842340000001
 20
-38.166164
 30
0.0
 11
999.5842340000001
 21
-61.166164
 31
0.0
  0
LINE
  5
D5
330
6B
100
AcDbEntity
  8
0
 62
     3
100
AcDbLine
 10
1045.942877999999
 20
-38.166164
 30
0.0
 11
1045.942877999999
 21
-77.831887
 31
0.0
  0
LINE
  5
DA
330
6B
100
AcDbEntity
  8
0
 62
     3
100
AcDbLine
 10
1058.942878
 20
-38.166164
 30
0.0
 11
1058.942878
 21
-68.166164
 31
0.0
  0
TEXT
  5
DB
330
6B
100
AcDbEntity
  8
0
 62
     3
100
AcDbText
 10
1047.055323
 20
-67.30147800000001
 30
0.0
 40
3.2
  1
作成日
 41
1.017225999999997
100
AcDbText
  0
LINE
  5
DC
330
6B
100
AcDbEntity
  8
0
 62
     3
100
AcDbLine
 10
1097.642242
 20
-38.166164
 30
0.0
 11
986.3387989999999
 21
-38.166164
 31
0.0
  0
LINE
  5
DD
330
6B
100
AcDbEntity
  8
0
 62
     3
100
AcDbLine
 10
1084.942878
 20
-61.166164
 30
0.0
 11
1084.942878
 21
-38.166164
 31
0.0
  0
TEXT
  5
DE
330
6B
100
AcDbEntity
  8
0
 62
     3
100
AcDbText
 10
1088.266681
 20
-41.87523
 30
0.0
 40
1.8
  1
D
 41
0.666667
100
AcDbText
  0
TEXT
  5
DF
330
6B
100
AcDbEntity
  8
0
 62
     3
100
AcDbText
 10
1091.08331
 20
-41.87523
 30
0.0
 40
1.8
  1
E
 41
0.666667
100
AcDbText
  0
TEXT
  5
E0
330
6B
100
AcDbEntity
  8
0
 62
     3
100
AcDbText
 10
1093.899938
 20
-41.87523
 30
0.0
 40
1.8
  1
F
 41
0.666667
100
AcDbText
  0
TEXT
  5
E1
330
6B
100
AcDbEntity
  8
0
 62
     3
100
AcDbText
 10
1088.266681
 20
-45.867783
 30
0.0
 40
3.2
  1
製図
 41
1.076369
100
AcDbText
  0
LINE
  5
E2
330
6B
100
AcDbEntity
  8
0
 62
     3
100
AcDbLine
 10
986.3387989999999
 20
-38.166164
 30
0.0
 11
986.3387989999999
 21
-77.831887
 31
0.0
  0
TEXT
  5
E3
330
6B
100
AcDbEntity
  8
0
 62
     3
100
AcDbText
 10
987.7154520000001
 20
-77.499421
 30
0.0
 40
5.0
  1
日動工業株式会社
 41
0.833333
100
AcDbText
  0
LINE
  5
E4
330
6B
100
AcDbEntity
  8
0
 62
     3
100
AcDbLine
 10
1029.221203
 20
-54.166164
 30
0.0
 11
1029.221203
 21
-77.831887
 31
0.0
  0
LINE
  5
E5
330
6B
100
AcDbEntity
  8
0
 62
     3
100
AcDbLine
 10
1029.221203
 20
-72.999026
 30
0.0
 11
1045.942877999999
 21
-72.999026
 31
0.0
  0
TEXT
  5
E6
330
6B
100
AcDbEntity
  8
0
 62
     3
100
AcDbText
 10
1029.807805
 20
-72.18259499999998
 30
0.0
 40
3.2
  1
出図コード
 41
0.8356860000000001
100
AcDbText
  0
LINE
  5
F8
330
6B
100
AcDbEntity
  8
0
 62
     3
100
AcDbLine
 10
986.3387989999999
 20
-68.166164
 30
0.0
 11
1097.642242
 21
-68.166164
 31
0.0
  0
LINE
  5
FA
330
6B
100
AcDbEntity
  8
0
 62
     3
100
AcDbLine
 10
986.3387989999999
 20
-47.16616399999998
 30
0.0
 11
1097.642242
 21
-47.166164
 31
0.0
  0
LINE
  5
100
330
6B
100
AcDbEntity
  8
0
 62
     3
100
AcDbLine
 10
986.3387989999999
 20
-54.16616399999998
 30
0.0
 11
1045.942877999999
 21
-54.166164
 31
0.0
  0
LINE
  5
106
330
6B
100
AcDbEntity
  8
0
 62
     3
100
AcDbLine
 10
986.3387989999999
 20
-61.16616399999998
 30
0.0
 11
1097.642242
 21
-61.166164
 31
0.0
  0
LINE
  5
10A
330
6B
100
AcDbEntity
  8
0
 62
     3
100
AcDbLine
 10
1097.642242
 20
196.223474
 30
0.0
 11
1097.642242
 21
-77.831887
 31
0.0
  0
LINE
  5
10B
330
6B
100
AcDbEntity
  8
0
 62
     3
100
AcDbLine
 10
707.642242
 20
196.223474
 30
0.0
 11
707.642242
 21
-77.831887
 31
0.0
  0
LINE
  5
10C
330
6B
100
AcDbEntity
  8
0
 62
     3
100
AcDbLine
 10
1097.642242
 20
-77.831887
 30
0.0
 11
707.642242
 21
-77.831887
 31
0.0
  0
TEXT
  5
10F
330
6B
100
AcDbEntity
  8
0
 62
     3
100
AcDbText
 10
1029.675257
 20
-77.48578054722315
 30
0.0
 40
3.2
  1
ZK-A3X
 41
0.8112849999999999
100
AcDbText
  0
TEXT
  5
110
330
6B
100
AcDbEntity
  8
0
 62
     3
100
AcDbText
 10
988.156196
 20
-41.996639
 30
0.0
 40
2.0
  1
CONPONENTS
 41
0.5331600000000001
100
AcDbText
  0
TEXT
  5
111
330
6B
100
AcDbEntity
  8
0
 62
     3
100
AcDbText
 10
987.806469
 20
-60.928815
 30
0.0
 40
3.0
  1
材
 41
0.833333
100
AcDbText
  0
TEXT
  5
112
330
6B
100
AcDbEntity
  8
0
 62
     3
100
AcDbText
 10
995.3421119999999
 20
-60.928815
 30
0.0
 40
3.0
  1
質
 41
0.833333
100
AcDbText
  0
TEXT
  5
113
330
6B
100
AcDbEntity
  8
0
 62
     3
100
AcDbText
 10
987.89454
 20
-50.304291
 30
0.0
 40
2.0
  1
MODEL
 41
1.031072999999999
100
AcDbText
  0
TEXT
  5
114
330
6B
100
AcDbEntity
  8
0
 62
     3
100
AcDbText
 10
987.806469
 20
-57.24650699999997
 30
0.0
 40
2.0
  1
MATERIAL
 41
0.659278
100
AcDbText
  0
TEXT
  5
115
330
6B
100
AcDbEntity
  8
0
 62
     3
100
AcDbText
 10
1019.11375
 20
-60.928815
 30
0.0
 40
3.0
  1
備
 41
0.833333
100
AcDbText
  0
TEXT
  5
116
330
6B
100
AcDbEntity
  8
0
 62
     3
100
AcDbText
 10
1025.846752
 20
-60.928815
 30
0.0
 40
3.0
  1
考
 41
0.833333
100
AcDbText
  0
TEXT
  5
117
330
6B
100
AcDbEntity
  8
0
 62
     3
100
AcDbText
 10
1019.560887308659
 20
-57.24650699999997
 30
0.0
 40
2.0
  1
REMARKS
 41
0.675794
100
AcDbText
  0
TEXT
  5
118
330
6B
100
AcDbEntity
  8
0
 62
     3
100
AcDbText
 10
989.396198
 20
-64.166628
 30
0.0
 40
2.0
  1
3AD
 41
1.42614
100
AcDbText
  0
TEXT
  5
119
330
6B
100
AcDbEntity
  8
0
 62
     3
100
AcDbText
 10
998.707178
 20
-64.00089399999997
 30
0.0
 40
2.0
  1
ANGLE
 41
1.669883999999996
100
AcDbText
  0
TEXT
  5
11A
330
6B
100
AcDbEntity
  8
0
 62
     3
100
AcDbText
 10
1019.641065
 20
-64.377735
 30
0.0
 40
2.0
  1
SCALE
 41
0.7719630000000001
100
AcDbText
  0
TEXT
  5
11B
330
6B
100
AcDbEntity
  8
0
 62
     3
100
AcDbText
 10
989.0823279999999
 20
-68.166164
 30
0.0
 40
3.0
  1
第
 41
0.833333
100
AcDbText
  0
TEXT
  5
11C
330
6B
100
AcDbEntity
  8
0
 62
     3
100
AcDbText
 10
996.8691779999996
 20
-68.166164
 30
0.0
 40
3.0
  1
三
 41
0.833333
100
AcDbText
  0
TEXT
  5
11D
330
6B
100
AcDbEntity
  8
0
 62
     3
100
AcDbText
 10
1004.656028
 20
-68.166164
 30
0.0
 40
3.0
  1
角
 41
0.833333
100
AcDbText
  0
TEXT
  5
11E
330
6B
100
AcDbEntity
  8
0
 62
     3
100
AcDbText
 10
1012.442878
 20
-68.166164
 30
0.0
 40
3.0
  1
法
 41
0.833333
100
AcDbText
  0
TEXT
  5
11F
330
6B
100
AcDbEntity
  8
0
 62
     3
100
AcDbText
 10
1019.50427
 20
-67.877735
 30
0.0
 40
3.0
  1
尺
 41
0.833333
100
AcDbText
  0
TEXT
  5
120
330
6B
100
AcDbEntity
  8
0
 62
     3
100
AcDbText
 10
1026.237272
 20
-67.877735
 30
0.0
 40
3.0
  1
度
 41
0.833333
100
AcDbText
  0
TEXT
  5
121
330
6B
100
AcDbEntity
  8
0
 62
     3
100
AcDbText
 10
1048.820542
 20
-45.70843599999999
 30
0.0
 40
3.0
  1
承認
 41
1.089472999999999
100
AcDbText
  0
TEXT
  5
122
330
6B
100
AcDbEntity
  8
0
 62
     3
100
AcDbText
 10
1062.063423
 20
-45.766164
 30
0.0
 40
3.0
  1
検図
 41
0.931761
100
AcDbText
  0
TEXT
  5
123
330
6B
100
AcDbEntity
  8
0
 62
     3
100
AcDbText
 10
1075.063819
 20
-45.766164
 30
0.0
 40
3.0
  1
設
 41
0.833333
100
AcDbText
  0
TEXT
  5
124
330
6B
100
AcDbEntity
  8
0
 62
     3
100
AcDbText
 10
1079.553687
 20
-45.766164
 30
0.0
 40
3.0
  1
計
 41
0.833333
100
AcDbText
  0
TEXT
  5
125
330
6B
100
AcDbEntity
  8
0
 62
     3
100
AcDbText
 10
988.2263029999997
 20
-45.593612
 30
0.0
 40
3.0
  1
品
 41
0.833333
100
AcDbText
  0
TEXT
  5
126
330
6B
100
AcDbEntity
  8
0
 62
     3
100
AcDbText
 10
995.7619449999999
 20
-45.593612
 30
0.0
 40
3.0
  1
名
 41
0.833333
100
AcDbText
  0
TEXT
  5
127
330
6B
100
AcDbEntity
  8
0
 62
     3
100
AcDbText
 10
987.89454
 20
-53.8326946386251
 30
0.0
 40
3.0
  1
型
 41
0.833333
100
AcDbText
  0
TEXT
  5
128
330
6B
100
AcDbEntity
  8
0
 62
     3
100
AcDbText
 10
995.442631
 20
-53.8326946386251
 30
0.0
 40
3.0
  1
式
 41
0.833333
100
AcDbText
  0
LINE
  5
130
330
6B
100
AcDbEntity
  8
0
 62
     3
100
AcDbLine
 10
1097.642242
 20
196.223474
 30
0.0
 11
707.642242
 21
196.223474
 31
0.0
  0
LINE
  5
131
330
6B
100
AcDbEntity
  8
0
 62
     3
100
AcDbLine
 10
1071.942878
 20
-38.166164
 30
0.0
 11
1071.942878
 21
-32.166164
 31
0.0
  0
LINE
  5
132
330
6B
100
AcDbEntity
  8
0
 62
     3
100
AcDbLine
 10
1045.942877999999
 20
-38.166164
 30
0.0
 11
1045.942877999999
 21
-32.166164
 31
0.0
  0
LINE
  5
133
330
6B
100
AcDbEntity
  8
0
 62
     3
100
AcDbLine
 10
1097.642242
 20
-32.166164
 30
0.0
 11
1045.942877999999
 21
-32.166164
 31
0.0
  0
TEXT
  5
134
330
6B
100
AcDbEntity
  8
0
 62
     3
100
AcDbText
 10
1051.938476
 20
-37.36981500000001
 30
0.0
 40
4.5
  1
コード
  7
高4.5
100
AcDbText
  0
TEXT
  5
135
330
6B
100
AcDbEntity
  8
0
 62
     3
100
AcDbText
 10
755.9831608626579
 20
-77.33188699999998
 30
0.0
 40
3.2
  1
備　　　　　考　
 41
0.8
  7
高3.2
100
AcDbText
  0
TEXT
  5
136
330
6B
100
AcDbEntity
  8
0
 62
     3
100
AcDbText
 10
747.4727993895883
 20
-77.33188699999998
 30
0.0
 40
3.2
  1
個数
 41
0.8
  7
高3.2
100
AcDbText
  0
TEXT
  5
137
330
6B
100
AcDbEntity
  8
0
 62
     3
100
AcDbText
 10
716.7005685625
 20
-77.33188699999998
 30
0.0
 40
3.2
  1
部　　品　　名
 41
0.8
  7
高3.2
100
AcDbText
  0
TEXT
  5
138
330
6B
100
AcDbEntity
  8
0
 62
     3
100
AcDbText
 10
709.142242
 20
-77.33188699999998
 30
0.0
 40
3.2
  1
No
 41
0.8
  7
高3.2
100
AcDbText
  0
LINE
  5
139
330
6B
100
AcDbEntity
  8
0
100
AcDbLine
 10
1001.925794310123
 20
21.371988
 30
0.0
 11
1038.393347753715
 21
21.371988
 31
0.0
  0
TEXT
  5
13A
330
6B
100
AcDbEntity
  8
0
 62
     3
100
AcDbText
 10
1001.925794310123
 20
22.62989343700906
 30
0.0
 40
4.5
  1
主　　仕　　様
  7
高4.5
100
AcDbText
  0
TEXT
  5
13B
330
6B
100
AcDbEntity
  8
0
 62
     3
100
AcDbText
 10
709.142242
 20
-62.33188699999999
 30
0.0
 40
3.2
  1
3
 41
0.8
  7
高3.2
100
AcDbText
  0
TEXT
  5
13C
330
6B
100
AcDbEntity
  8
0
 62
     3
100
AcDbText
 10
709.142242
 20
-57.33188699999999
 30
0.0
 40
3.2
  1
4
 41
0.8
  7
高3.2
100
AcDbText
  0
TEXT
  5
13D
330
6B
100
AcDbEntity
  8
0
 62
     3
100
AcDbText
 10
709.142242
 20
-52.33188699999999
 30
0.0
 40
3.2
  1
5
 41
0.8
  7
高3.2
100
AcDbText
  0
TEXT
  5
13E
330
6B
100
AcDbEntity
  8
0
 62
     3
100
AcDbText
 10
709.142242
 20
-47.33188699999998
 30
0.0
 40
3.2
  1
6
 41
0.8
  7
高3.2
100
AcDbText
  0
TEXT
  5
13F
330
6B
100
AcDbEntity
  8
0
 62
     3
100
AcDbText
 10
747.4727993895883
 20
-62.33188699999999
 30
0.0
 40
3.2
  1
1
 41
0.8
  7
高3.2
100
AcDbText
  0
TEXT
  5
140
330
6B
100
AcDbEntity
  8
0
 62
     3
100
AcDbText
 10
709.142242
 20
-72.33188699999998
 30
0.0
 40
3.2
  1
1
 41
0.8
  7
高3.2
100
AcDbText
  0
TEXT
  5
141
330
6B
100
AcDbEntity
  8
0
 62
     3
100
AcDbText
 10
709.142242
 20
-67.33188699999999
 30
0.0
 40
3.2
  1
2
 41
0.8
  7
高3.2
100
AcDbText
  0
TEXT
  5
142
330
6B
100
AcDbEntity
  8
0
 62
     3
100
AcDbText
 10
716.7005685625
 20
-72.33188699999998
 30
0.0
 40
3.2
  1
ケース本体
 41
0.8
  7
高3.2
100
AcDbText
  0
TEXT
  5
143
330
6B
100
AcDbEntity
  8
0
 62
     3
100
AcDbText
 10
747.4727993895883
 20
-57.33188699999999
 30
0.0
 40
3.2
  1
1
 41
0.8
  7
高3.2
100
AcDbText
  0
TEXT
  5
144
330
6B
100
AcDbEntity
  8
0
 62
     3
100
AcDbText
 10
747.4727993895883
 20
-72.33188699999998
 30
0.0
 40
3.2
  1
1式
 41
0.8
  7
高3.2
100
AcDbText
  0
TEXT
  5
145
330
6B
100
AcDbEntity
  8
0
 62
     3
100
AcDbText
 10
988.6269140000001
 20
14.366405
 30
0.0
 40
3.2
  1
型　式
  7
高3.2
100
AcDbText
  0
TEXT
  5
146
330
6B
100
AcDbEntity
  8
0
 62
     3
100
AcDbText
 10
988.6269140000001
 20
8.822404999999998
 30
0.0
 40
3.2
  1
容　量
  7
高3.2
100
AcDbText
  0
TEXT
  5
147
330
6B
100
AcDbEntity
  8
0
 62
     3
100
AcDbText
 10
755.9831608626579
 20
-67.33188699999999
 30
0.0
 40
3.2
  1
-
 41
0.8
  7
高3.2
100
AcDbText
  0
TEXT
  5
148
330
6B
100
AcDbEntity
  8
0
 62
     3
100
AcDbText
 10
747.4727993895883
 20
-67.33188699999999
 30
0.0
 40
3.2
  1
1
 41
0.8
  7
高3.2
100
AcDbText
  0
TEXT
  5
149
330
6B
100
AcDbEntity
  8
0
 62
     3
100
AcDbText
 10
716.7005685625
 20
-67.33188699999999
 30
0.0
 40
3.2
  1
取手
 41
0.8
  7
高3.2
100
AcDbText
  0
TEXT
  5
14A
330
6B
100
AcDbEntity
  8
0
 62
     3
100
AcDbText
 10
755.9831608626579
 20
-62.33188699999999
 30
0.0
 40
3.2
  1
ランプ付き
 41
0.8
  7
高3.2
100
AcDbText
  0
TEXT
  5
14B
330
6B
100
AcDbEntity
  8
0
 62
     3
100
AcDbText
 10
716.7005685625
 20
-57.33188699999999
 30
0.0
 40
3.2
  1
電線　プラグ付き
 41
0.8
  7
高3.2
100
AcDbText
  0
TEXT
  5
14C
330
6B
100
AcDbEntity
  8
0
 62
     3
100
AcDbText
 10
1031.559588
 20
-67.64569399999999
 30
0.0
 40
3.2
  1
FREE
  7
高3.2
100
AcDbText
  0
TEXT
  5
14D
330
6B
100
AcDbEntity
  8
0
 62
     3
100
AcDbText
 10
755.9831608626579
 20
-72.33188699999998
 30
0.0
 40
3.2
  1
-
 41
0.8
  7
高3.2
100
AcDbText
  0
TEXT
  5
14E
330
6B
100
AcDbEntity
  8
0
 62
     3
100
AcDbText
 10
988.6269140000001
 20
3.278404999999998
 30
0.0
 40
3.2
  1
入力電圧
  7
高3.2
100
AcDbText
  0
TEXT
  5
14F
330
6B
100
AcDbEntity
  8
0
 62
     3
100
AcDbText
 10
988.6269140000001
 20
-2.265595
 30
0.0
 40
3.2
  1
出力電圧
  7
高3.2
100
AcDbText
  0
TEXT
  5
150
330
6B
100
AcDbEntity
  8
0
 62
     3
100
AcDbText
 10
988.6269140000001
 20
-7.809594999999997
 30
0.0
 40
3.2
  1
絶縁種類
  7
高3.2
100
AcDbText
  0
TEXT
  5
151
330
6B
100
AcDbEntity
  8
0
 62
     3
100
AcDbText
 10
988.6269140000001
 20
-13.353595
 30
0.0
 40
3.2
  1
質　量
  7
高3.2
100
AcDbText
  0
TEXT
  5
152
330
6B
100
AcDbEntity
  8
0
 62
     3
100
AcDbText
 10
716.7005685625
 20
-62.33188699999999
 30
0.0
 40
3.2
  1
電源ランプ
 41
0.8
  7
高3.2
100
AcDbText
  0
TEXT
  5
153
330
6B
100
AcDbEntity
  8
0
 62
     3
100
AcDbText
 10
716.7005685625
 20
-47.33188699999998
 30
0.0
 40
3.2
  1
コンセント
 41
0.8
  7
高3.2
100
AcDbText
  0
TEXT
  5
154
330
6B
100
AcDbEntity
  8
0
 62
     3
100
AcDbText
 10
716.7005685625
 20
-37.33188699999998
 30
0.0
 40
3.2
  1
コンセント
 41
0.8
  7
高3.2
100
AcDbText
  0
TEXT
  5
155
330
6B
100
AcDbEntity
  8
0
 62
     3
100
AcDbText
 10
716.7005685625
 20
-32.33188699999999
 30
0.0
 40
3.2
  1
コンセント
 41
0.8
  7
高3.2
100
AcDbText
  0
TEXT
  5
156
330
6B
100
AcDbEntity
  8
0
 62
     3
100
AcDbText
 10
755.9831608626579
 20
-22.33188699999999
 30
0.0
 40
3.2
  1
-
 41
0.8
  7
高3.2
100
AcDbText
  0
TEXT
  5
157
330
6B
100
AcDbEntity
  8
0
 62
     3
100
AcDbText
 10
747.4727993895883
 20
-22.33188699999999
 30
0.0
 40
3.2
  1
4
 41
0.8
  7
高3.2
100
AcDbText
  0
TEXT
  5
158
330
6B
100
AcDbEntity
  8
0
 62
     3
100
AcDbText
 10
716.7005685625
 20
-22.33188699999999
 30
0.0
 40
3.2
  1
ゴム脚
 41
0.8
  7
高3.2
100
AcDbText
  0
TEXT
  5
159
330
6B
100
AcDbEntity
  8
0
 62
     3
100
AcDbText
 10
716.7005685625
 20
-27.33188699999999
 30
0.0
 40
3.2
  1
コンセント
 41
0.8
  7
高3.2
100
AcDbText
  0
TEXT
  5
15A
330
6B
100
AcDbEntity
  8
0
 62
     3
100
AcDbText
 10
716.7005685625
 20
-42.33188699999995
 30
0.0
 40
3.2
  1
コンセント
 41
0.8
  7
高3.2
100
AcDbText
  0
TEXT
  5
15B
330
6B
100
AcDbEntity
  8
0
 62
     3
100
AcDbText
 10
709.142242
 20
-42.33188699999995
 30
0.0
 40
3.2
  1
7
 41
0.8
  7
高3.2
100
AcDbText
  0
TEXT
  5
15C
330
6B
100
AcDbEntity
  8
0
 62
     3
100
AcDbText
 10
709.142242
 20
-37.33188699999998
 30
0.0
 40
3.2
  1
8
 41
0.8
  7
高3.2
100
AcDbText
  0
TEXT
  5
15D
330
6B
100
AcDbEntity
  8
0
 62
     3
100
AcDbText
 10
709.142242
 20
-32.33188699999999
 30
0.0
 40
3.2
  1
9
 41
0.8
  7
高3.2
100
AcDbText
  0
TEXT
  5
15E
330
6B
100
AcDbEntity
  8
0
 62
     3
100
AcDbText
 10
709.142242
 20
-27.33188699999999
 30
0.0
 40
3.2
  1
10
 41
0.8
  7
高3.2
100
AcDbText
  0
TEXT
  5
15F
330
6B
100
AcDbEntity
  8
0
 62
     3
100
AcDbText
 10
709.142242
 20
-22.33188699999999
 30
0.0
 40
3.2
  1
11
 41
0.8
  7
高3.2
100
AcDbText
  0
TEXT
  5
160
330
6B
100
AcDbEntity
  8
0
 62
     3
100
AcDbText
 10
747.4727993895883
 20
-52.33188699999999
 30
0.0
 40
3.2
  1
1
 41
0.8
  7
高3.2
100
AcDbText
  0
TEXT
  5
161
330
6B
100
AcDbEntity
  8
0
 62
     3
100
AcDbText
 10
747.4727993895883
 20
-47.33188699999998
 30
0.0
 40
3.2
  1
1
 41
0.8
  7
高3.2
100
AcDbText
  0
TEXT
  5
162
330
6B
100
AcDbEntity
  8
0
 62
     3
100
AcDbText
 10
747.4727993895883
 20
-42.33188699999995
 30
0.0
 40
3.2
  1
1
 41
0.8
  7
高3.2
100
AcDbText
  0
TEXT
  5
163
330
6B
100
AcDbEntity
  8
0
 62
     3
100
AcDbText
 10
747.4727993895883
 20
-37.33188699999998
 30
0.0
 40
3.2
  1
1
 41
0.8
  7
高3.2
100
AcDbText
  0
TEXT
  5
164
330
6B
100
AcDbEntity
  8
0
 62
     3
100
AcDbText
 10
747.4727993895883
 20
-32.33188699999999
 30
0.0
 40
3.2
  1
1
 41
0.8
  7
高3.2
100
AcDbText
  0
TEXT
  5
165
330
6B
100
AcDbEntity
  8
0
 62
     3
100
AcDbText
 10
747.4727993895883
 20
-27.33188699999999
 30
0.0
 40
3.2
  1
1
 41
0.8
  7
高3.2
100
AcDbText
  0
TEXT
  5
166
330
6B
100
AcDbEntity
  8
0
 62
     3
100
AcDbText
 10
1063.797831
 20
-66.86646
 30
0.0
 40
3.2
  1
2008.09.04
  7
高3.2
100
AcDbText
  0
LINE
  5
16D
330
6B
100
AcDbEntity
  8
0
 62
     3
100
AcDbLine
 10
695.240318
 20
62.668113
 30
0.0
 11
692.642242
 21
61.168113
 31
0.0
  0
LINE
  5
16E
330
6B
100
AcDbEntity
  8
0
 62
     3
100
AcDbLine
 10
695.240318
 20
62.668113
 30
0.0
 11
692.642242
 21
64.168113
 31
0.0
  0
LINE
  5
16F
330
6B
100
AcDbEntity
  8
0
 62
     3
100
AcDbLine
 10
692.642242
 20
61.168113
 30
0.0
 11
692.642242
 21
64.168113
 31
0.0
  0
LINE
  5
175
330
6B
100
AcDbEntity
  8
0
100
AcDbLine
 10
1067.189743
 20
66.97476400000001
 30
0.0
 11
1075.431439
 21
73.571805
 31
0.0
  0
CIRCLE
  5
176
330
6B
100
AcDbEntity
  8
0
100
AcDbCircle
 10
1079.334931
 20
76.69634399999998
 30
0.0
 40
5.0
  0
TEXT
  5
177
330
6B
100
AcDbEntity
  8
0
 62
     4
100
AcDbText
 10
1077.048190678944
 20
73.29453881801319
 30
0.0
 40
6.299999999999998
  1
4
  7
高6.3
100
AcDbText
  0
TEXT
  5
178
330
6B
100
AcDbEntity
  8
0
 62
     3
100
AcDbText
 10
755.9831608626579
 20
-57.33188699999999
 30
0.0
 40
3.2
  1
1.3m　A-2平ピン　付属（C-2丸ピン）
 41
0.8
  7
高3.2
100
AcDbText
  0
TEXT
  5
179
330
6B
100
AcDbEntity
  8
0
 62
     3
100
AcDbText
 10
716.7005685625
 20
-52.33188699999999
 30
0.0
 40
3.2
  1
入力電圧設定レバー
 41
0.8
  7
高3.2
100
AcDbText
  0
TEXT
  5
17A
330
6B
100
AcDbEntity
  8
0
 62
     3
100
AcDbText
 10
755.9831608626579
 20
-52.33188699999999
 30
0.0
 40
3.2
  1
-
 41
0.8
  7
高3.2
100
AcDbText
  0
LINE
  5
17B
330
6B
100
AcDbEntity
  8
0
100
AcDbLine
 10
715.2005685625
 20
-77.831887
 30
0.0
 11
715.2005685625
 21
-17.83188699999999
 31
0.0
  0
LINE
  5
17C
330
6B
100
AcDbEntity
  8
0
 62
     3
100
AcDbLine
 10
817.067254923657
 20
-77.831887
 30
0.0
 11
817.067254923657
 21
-17.83188699999999
 31
0.0
  0
LINE
  5
17D
330
6B
100
AcDbEntity
  8
0
100
AcDbLine
 10
754.4831608626577
 20
-77.831887
 30
0.0
 11
754.4831608626577
 21
-17.83188699999999
 31
0.0
  0
LINE
  5
17E
330
6B
100
AcDbEntity
  8
0
100
AcDbLine
 10
745.9727993895882
 20
-77.831887
 30
0.0
 11
745.9727993895882
 21
-17.83188699999999
 31
0.0
  0
TEXT
  5
17F
330
6B
100
AcDbEntity
  8
0
 62
     3
100
AcDbText
 10
755.9831608626579
 20
-47.33188699999998
 30
0.0
 40
3.2
  1
AC100V　A-2平ピン、C-2丸ピン
 41
0.8
  7
高3.2
100
AcDbText
  0
TEXT
  5
180
330
6B
100
AcDbEntity
  8
0
 62
     3
100
AcDbText
 10
755.9831608626579
 20
-42.33188699999995
 30
0.0
 40
3.2
  1
AC120V　A-2平ピン、C-2丸ピン
 41
0.8
  7
高3.2
100
AcDbText
  0
TEXT
  5
181
330
6B
100
AcDbEntity
  8
0
 62
     3
100
AcDbText
 10
755.9831608626579
 20
-37.33188699999998
 30
0.0
 40
3.2
  1
AC200V　A-2平ピン、C-2丸ピン
 41
0.8
  7
高3.2
100
AcDbText
  0
TEXT
  5
182
330
6B
100
AcDbEntity
  8
0
 62
     3
100
AcDbText
 10
755.9831608626579
 20
-32.33188699999999
 30
0.0
 40
3.2
  1
AC220V　A-2平ピン、C-2丸ピン
 41
0.8
  7
高3.2
100
AcDbText
  0
TEXT
  5
183
330
6B
100
AcDbEntity
  8
0
 62
     3
100
AcDbText
 10
755.9831608626579
 20
-27.33188699999999
 30
0.0
 40
3.2
  1
AC240V　A-2平ピン、C-2丸ピン
 41
0.8
  7
高3.2
100
AcDbText
  0
TEXT
  5
184
330
6B
100
AcDbEntity
  8
0
 62
     3
100
AcDbText
 10
1006.093535597312
 20
-2.265595
 30
0.0
 40
3.2
  1
100V・120V・200V・220V・240V
 41
0.6
  7
高3.2
100
AcDbText
  0
TEXT
  5
185
330
6B
100
AcDbEntity
  8
0
 62
     3
100
AcDbText
 10
1006.093535597312
 20
3.278404999999998
 30
0.0
 40
3.2
  1
100V・120V・200V・220V・240V
 41
0.6
  7
高3.2
100
AcDbText
  0
TEXT
  5
186
330
6B
100
AcDbEntity
  8
0
 62
     3
100
AcDbText
 10
1006.093535597312
 20
-7.809595000000001
 30
0.0
 40
3.2
  1
B種
  7
高3.2
100
AcDbText
  0
LINE
  5
187
330
6B
100
AcDbEntity
  8
0
 62
     3
100
AcDbLine
 10
987.126914
 20
19.41040499999999
 30
0.0
 11
1055.539424
 21
19.41040499999999
 31
0.0
  0
LINE
  5
188
330
6B
100
AcDbEntity
  8
0
100
AcDbLine
 10
987.126914
 20
8.322404999999998
 30
0.0
 11
1055.539424
 21
8.322404999999998
 31
0.0
  0
LINE
  5
189
330
6B
100
AcDbEntity
  8
0
100
AcDbLine
 10
987.126914
 20
2.778404999999998
 30
0.0
 11
1055.539424
 21
2.778404999999998
 31
0.0
  0
LINE
  5
18A
330
6B
100
AcDbEntity
  8
0
100
AcDbLine
 10
987.126914
 20
-2.765595
 30
0.0
 11
1055.539424
 21
-2.765595
 31
0.0
  0
LINE
  5
18B
330
6B
100
AcDbEntity
  8
0
100
AcDbLine
 10
987.126914
 20
13.866405
 30
0.0
 11
1055.539424
 21
13.866405
 31
0.0
  0
LINE
  5
18C
330
6B
100
AcDbEntity
  8
0
100
AcDbLine
 10
987.126914
 20
-8.309594999999998
 30
0.0
 11
1055.539424
 21
-8.309594999999998
 31
0.0
  0
LINE
  5
18D
330
6B
100
AcDbEntity
  8
0
 62
     3
100
AcDbLine
 10
1004.593535597312
 20
19.41040499999999
 30
0.0
 11
1004.593535597312
 21
-13.853595
 31
0.0
  0
LINE
  5
18E
330
6B
100
AcDbEntity
  8
0
 62
     3
100
AcDbLine
 10
1055.539424
 20
19.41040499999999
 30
0.0
 11
1055.539424
 21
-13.853595
 31
0.0
  0
LINE
  5
18F
330
6B
100
AcDbEntity
  8
0
 62
     3
100
AcDbLine
 10
987.126914
 20
19.41040499999999
 30
0.0
 11
987.126914
 21
-13.853595
 31
0.0
  0
LINE
  5
190
330
6B
100
AcDbEntity
  8
0
 62
     3
100
AcDbLine
 10
987.126914
 20
-13.853595
 30
0.0
 11
1055.539424
 21
-13.853595
 31
0.0
  0
LINE
  5
196
330
6B
100
AcDbEntity
  8
0
100
AcDbLine
 10
752.8273719999997
 20
128.495659
 30
0.0
 11
764.309618
 21
150.468863
 31
0.0
  0
CIRCLE
  5
197
330
6B
100
AcDbEntity
  8
0
100
AcDbCircle
 10
766.625295
 20
154.9003
 30
0.0
 40
5.0
  0
TEXT
  5
198
330
6B
100
AcDbEntity
  8
0
 62
     4
100
AcDbText
 10
764.3385546789438
 20
151.4984948180132
 30
0.0
 40
6.299999999999998
  1
3
  7
高6.3
100
AcDbText
  0
LINE
  5
19E
330
6B
100
AcDbEntity
  8
0
100
AcDbLine
 10
746.832574
 20
134.220334
 30
0.0
 11
751.290431
 21
150.086685
 31
0.0
  0
CIRCLE
  5
19F
330
6B
100
AcDbEntity
  8
0
100
AcDbCircle
 10
752.6428779999996
 20
154.9003
 30
0.0
 40
5.0
  0
TEXT
  5
1A0
330
6B
100
AcDbEntity
  8
0
 62
     4
100
AcDbText
 10
751.462057748573
 20
151.6265410906956
 30
0.0
 40
6.299999999999998
  1
1
  7
高6.3
100
AcDbText
  0
LINE
  5
1A6
330
6B
100
AcDbEntity
  8
0
100
AcDbLine
 10
900.83689
 20
147.220334
 30
0.0
 11
906.122563
 21
151.677185
 31
0.0
  0
CIRCLE
  5
1A7
330
6B
100
AcDbEntity
  8
0
100
AcDbCircle
 10
909.945066
 20
154.9003
 30
0.0
 40
5.0
  0
TEXT
  5
1A8
330
6B
100
AcDbEntity
  8
0
 62
     4
100
AcDbText
 10
907.6583256789438
 20
151.4984948180132
 30
0.0
 40
6.299999999999998
  1
2
  7
高6.3
100
AcDbText
  0
LINE
  5
1AE
330
6B
100
AcDbEntity
  8
0
100
AcDbLine
 10
1015.420865
 20
119.720334
 30
0.0
 11
1030.129227
 21
150.391883
 31
0.0
  0
CIRCLE
  5
1AF
330
6B
100
AcDbEntity
  8
0
100
AcDbCircle
 10
1032.291212
 20
154.9003
 30
0.0
 40
5.0
  0
TEXT
  5
1B0
330
6B
100
AcDbEntity
  8
0
 62
     4
100
AcDbText
 10
1030.004471678943
 20
151.4984948180132
 30
0.0
 40
6.299999999999998
  1
5
  7
高6.3
100
AcDbText
  0
LINE
  5
1B6
330
6B
100
AcDbEntity
  8
0
100
AcDbLine
 10
811.186194
 20
70.76852099999998
 30
0.0
 11
825.292669
 21
43.475232
 31
0.0
  0
CIRCLE
  5
1B7
330
6B
100
AcDbEntity
  8
0
100
AcDbCircle
 10
827.5884039999999
 20
39.033431
 30
0.0
 40
5.0
  0
TEXT
  5
1B8
330
6B
100
AcDbEntity
  8
0
 62
     4
100
AcDbText
 10
824.9880630118909
 20
36.68884800213748
 30
0.0
 40
4.5
  1
10
  7
高4.5
100
AcDbText
  0
LINE
  5
1BE
330
6B
100
AcDbEntity
  8
0
100
AcDbLine
 10
797.8048079999996
 20
71.097571
 30
0.0
 11
810.4545900000001
 21
43.57650399999999
 31
0.0
  0
CIRCLE
  5
1BF
330
6B
100
AcDbEntity
  8
0
100
AcDbCircle
 10
812.5427679999997
 20
39.033431
 30
0.0
 40
5.0
  0
TEXT
  5
1C0
330
6B
100
AcDbEntity
  8
0
 62
     4
100
AcDbText
 10
810.2560276789438
 20
35.6316258180132
 30
0.0
 40
6.299999999999998
  1
9
  7
高6.3
100
AcDbText
  0
LINE
  5
1C6
330
6B
100
AcDbEntity
  8
0
100
AcDbLine
 10
785.0815219999997
 20
70.76852099999998
 30
0.0
 11
795.755124
 21
43.685214
 31
0.0
  0
CIRCLE
  5
1C7
330
6B
100
AcDbEntity
  8
0
100
AcDbCircle
 10
797.5884039999997
 20
39.033431
 30
0.0
 40
5.0
  0
TEXT
  5
1C8
330
6B
100
AcDbEntity
  8
0
 62
     4
100
AcDbText
 10
795.3016636789437
 20
35.6316258180132
 30
0.0
 40
6.299999999999998
  1
8
  7
高6.3
100
AcDbText
  0
LINE
  5
1CE
330
6B
100
AcDbEntity
  8
0
100
AcDbLine
 10
771.80982
 20
71.097571
 30
0.0
 11
780.995226
 21
43.772818
 31
0.0
  0
CIRCLE
  5
1CF
330
6B
100
AcDbEntity
  8
0
100
AcDbCircle
 10
782.588404
 20
39.033431
 30
0.0
 40
5.0
  0
TEXT
  5
1D0
330
6B
100
AcDbEntity
  8
0
 62
     4
100
AcDbText
 10
780.3016636789437
 20
35.6316258180132
 30
0.0
 40
6.299999999999998
  1
7
  7
高6.3
100
AcDbText
  0
LINE
  5
1D6
330
6B
100
AcDbEntity
  8
0
100
AcDbLine
 10
758.332574
 20
57.22033399999999
 30
0.0
 11
754.094284
 21
43.801274
 31
0.0
  0
CIRCLE
  5
1D7
330
6B
100
AcDbEntity
  8
0
100
AcDbCircle
 10
752.588404
 20
39.033431
 30
0.0
 40
5.0
  0
TEXT
  5
1D8
330
6B
100
AcDbEntity
  8
0
 62
     4
100
AcDbText
 10
749.9880630118909
 20
36.68884800213748
 30
0.0
 40
4.5
  1
11
  7
高4.5
100
AcDbText
  0
LINE
  5
1DE
330
6B
100
AcDbEntity
  8
0
100
AcDbLine
 10
759.4155849999999
 20
70.878204
 30
0.0
 11
766.3454579999997
 21
43.876476
 31
0.0
  0
CIRCLE
  5
1DF
330
6B
100
AcDbEntity
  8
0
100
AcDbCircle
 10
767.5884039999997
 20
39.033431
 30
0.0
 40
5.0
  0
TEXT
  5
1E0
330
6B
100
AcDbEntity
  8
0
 62
     4
100
AcDbText
 10
765.3016636789438
 20
35.6316258180132
 30
0.0
 40
6.299999999999998
  1
6
  7
高6.3
100
AcDbText
  0
CIRCLE
  5
1E1
330
6B
100
AcDbEntity
  8
0
 62
     3
100
AcDbCircle
 10
1044.130459
 20
122.910534
 30
0.0
 40
5.426312999999997
  0
LINE
  5
1E2
330
6B
100
AcDbEntity
  8
0
 62
     3
100
AcDbLine
 10
1047.380923
 20
73.46474499999998
 30
0.0
 11
1040.881431
 21
73.46474499999998
 31
0.0
  0
LINE
  5
1E3
330
6B
100
AcDbEntity
  8
0
 62
     3
100
AcDbLine
 10
824.3325739999997
 20
132.220334
 30
0.0
 11
824.3325739999997
 21
64.72033399999999
 31
0.0
  0
LINE
  5
1E4
330
6B
100
AcDbEntity
  8
0
 62
     3
100
AcDbLine
 10
744.332574
 20
132.220334
 30
0.0
 11
744.332574
 21
64.72033399999999
 31
0.0
  0
LINE
  5
1E5
330
6B
100
AcDbEntity
  8
0
 62
     3
100
AcDbLine
 10
786.582574
 20
147.220334
 30
0.0
 11
782.082574
 21
147.220334
 31
0.0
  0
LINE
  5
1E6
330
6B
100
AcDbEntity
  8
0
 62
     3
100
AcDbLine
 10
746.832574
 20
62.22033399999999
 30
0.0
 11
821.832574
 21
62.22033399999999
 31
0.0
  0
LINE
  5
1E7
330
6B
100
AcDbEntity
  8
0
 62
     3
100
AcDbLine
 10
821.832574
 20
134.720334
 30
0.0
 11
746.832574
 21
134.720334
 31
0.0
  0
ARC
  5
1E8
330
6B
100
AcDbEntity
  8
0
 62
     3
100
AcDbCircle
 10
821.832574
 20
132.220334
 30
0.0
 40
2.5
100
AcDbArc
 50
0.0
 51
90.0
  0
ARC
  5
1E9
330
6B
100
AcDbEntity
  8
0
 62
     3
100
AcDbCircle
 10
746.832574
 20
132.220334
 30
0.0
 40
2.5
100
AcDbArc
 50
90.0
 51
180.0
  0
ARC
  5
1EA
330
6B
100
AcDbEntity
  8
0
 62
     3
100
AcDbCircle
 10
746.832574
 20
64.72033399999999
 30
0.0
 40
2.5
100
AcDbArc
 50
180.0
 51
270.0
  0
ARC
  5
1EB
330
6B
100
AcDbEntity
  8
0
 62
     3
100
AcDbCircle
 10
821.832574
 20
64.72033399999999
 30
0.0
 40
2.5
100
AcDbArc
 50
270.0
 51
0.0
  0
CIRCLE
  5
1EC
330
6B
100
AcDbEntity
  8
0
 62
     3
100
AcDbCircle
 10
752.8273719999997
 20
125.495659
 30
0.0
 40
3.0
  0
LINE
  5
1ED
330
6B
100
AcDbEntity
  8
0
 62
     3
100
AcDbLine
 10
806.3325739999996
 20
89.220334
 30
0.0
 11
806.3325739999996
 21
69.220334
 31
0.0
  0
LINE
  5
1EE
330
6B
100
AcDbEntity
  8
0
 62
     3
100
AcDbLine
 10
814.3325739999996
 20
89.220334
 30
0.0
 11
814.3325739999996
 21
69.220334
 31
0.0
  0
LINE
  5
1EF
330
6B
100
AcDbEntity
  8
0
 62
     3
100
AcDbLine
 10
814.3325739999996
 20
89.220334
 30
0.0
 11
806.3325739999996
 21
89.220334
 31
0.0
  0
LINE
  5
1F0
330
6B
100
AcDbEntity
  8
0
 62
     3
100
AcDbLine
 10
806.3325739999996
 20
69.220334
 30
0.0
 11
814.3325739999996
 21
69.220334
 31
0.0
  0
LINE
  5
1F1
330
6B
100
AcDbEntity
  8
0
 62
     3
100
AcDbLine
 10
812.457574
 20
81.720334
 30
0.0
 11
808.207574
 21
81.720334
 31
0.0
  0
LINE
  5
1F2
330
6B
100
AcDbEntity
  8
0
 62
     3
100
AcDbLine
 10
812.082574
 20
84.286472
 30
0.0
 11
812.082574
 21
83.47033399999999
 31
0.0
  0
LINE
  5
1F3
330
6B
100
AcDbEntity
  8
0
 62
     3
100
AcDbLine
 10
808.582574
 20
84.286472
 30
0.0
 11
808.582574
 21
83.47033399999999
 31
0.0
  0
LINE
  5
1F4
330
6B
100
AcDbEntity
  8
0
 62
     3
100
AcDbLine
 10
812.457574
 20
81.720334
 30
0.0
 11
812.457574
 21
83.47033399999999
 31
0.0
  0
LINE
  5
1F5
330
6B
100
AcDbEntity
  8
0
 62
     3
100
AcDbLine
 10
808.207574
 20
81.720334
 30
0.0
 11
808.207574
 21
83.47033399999999
 31
0.0
  0
LINE
  5
1F6
330
6B
100
AcDbEntity
  8
0
 62
     3
100
AcDbLine
 10
812.457574
 20
83.47033399999999
 30
0.0
 11
812.082574
 21
83.47033399999999
 31
0.0
  0
ARC
  5
1F7
330
6B
100
AcDbEntity
  8
0
 62
     3
100
AcDbCircle
 10
810.332574
 20
84.286472
 30
0.0
 40
1.75
100
AcDbArc
 50
0.0
 51
180.0
  0
LINE
  5
1F8
330
6B
100
AcDbEntity
  8
0
 62
     3
100
AcDbLine
 10
808.582574
 20
83.47033399999999
 30
0.0
 11
808.207574
 21
83.47033399999999
 31
0.0
  0
LINE
  5
1F9
330
6B
100
AcDbEntity
  8
0
 62
     3
100
AcDbLine
 10
793.332574
 20
89.220334
 30
0.0
 11
793.332574
 21
69.220334
 31
0.0
  0
LINE
  5
1FA
330
6B
100
AcDbEntity
  8
0
 62
     3
100
AcDbLine
 10
801.332574
 20
89.220334
 30
0.0
 11
801.332574
 21
69.220334
 31
0.0
  0
LINE
  5
1FB
330
6B
100
AcDbEntity
  8
0
 62
     3
100
AcDbLine
 10
795.207574
 20
81.720334
 30
0.0
 11
795.207574
 21
83.47033399999999
 31
0.0
  0
LINE
  5
1FC
330
6B
100
AcDbEntity
  8
0
 62
     3
100
AcDbLine
 10
799.457574
 20
81.720334
 30
0.0
 11
799.457574
 21
83.47033399999999
 31
0.0
  0
LINE
  5
1FD
330
6B
100
AcDbEntity
  8
0
 62
     3
100
AcDbLine
 10
795.582574
 20
84.286472
 30
0.0
 11
795.582574
 21
83.47033399999999
 31
0.0
  0
LINE
  5
1FE
330
6B
100
AcDbEntity
  8
0
 62
     3
100
AcDbLine
 10
799.082574
 20
84.286472
 30
0.0
 11
799.082574
 21
83.47033399999999
 31
0.0
  0
LINE
  5
1FF
330
6B
100
AcDbEntity
  8
0
 62
     3
100
AcDbLine
 10
799.457574
 20
81.720334
 30
0.0
 11
795.207574
 21
81.720334
 31
0.0
  0
LINE
  5
200
330
6B
100
AcDbEntity
  8
0
 62
     3
100
AcDbLine
 10
799.457574
 20
83.47033399999999
 30
0.0
 11
799.082574
 21
83.47033399999999
 31
0.0
  0
LINE
  5
201
330
6B
100
AcDbEntity
  8
0
 62
     3
100
AcDbLine
 10
795.582574
 20
83.47033399999999
 30
0.0
 11
795.207574
 21
83.47033399999999
 31
0.0
  0
LINE
  5
202
330
6B
100
AcDbEntity
  8
0
 62
     3
100
AcDbLine
 10
793.332574
 20
69.220334
 30
0.0
 11
801.332574
 21
69.220334
 31
0.0
  0
LINE
  5
203
330
6B
100
AcDbEntity
  8
0
 62
     3
100
AcDbLine
 10
801.332574
 20
89.220334
 30
0.0
 11
793.332574
 21
89.220334
 31
0.0
  0
ARC
  5
204
330
6B
100
AcDbEntity
  8
0
 62
     3
100
AcDbCircle
 10
797.332574
 20
84.286472
 30
0.0
 40
1.75
100
AcDbArc
 50
0.0
 51
180.0
  0
LINE
  5
205
330
6B
100
AcDbEntity
  8
0
 62
     3
100
AcDbLine
 10
780.332574
 20
89.220334
 30
0.0
 11
780.332574
 21
69.220334
 31
0.0
  0
LINE
  5
206
330
6B
100
AcDbEntity
  8
0
 62
     3
100
AcDbLine
 10
788.332574
 20
89.220334
 30
0.0
 11
788.332574
 21
69.220334
 31
0.0
  0
LINE
  5
207
330
6B
100
AcDbEntity
  8
0
 62
     3
100
AcDbLine
 10
782.207574
 20
81.720334
 30
0.0
 11
782.207574
 21
83.47033399999999
 31
0.0
  0
LINE
  5
208
330
6B
100
AcDbEntity
  8
0
 62
     3
100
AcDbLine
 10
786.457574
 20
81.720334
 30
0.0
 11
786.457574
 21
83.47033399999999
 31
0.0
  0
LINE
  5
209
330
6B
100
AcDbEntity
  8
0
 62
     3
100
AcDbLine
 10
782.5825739999997
 20
84.286472
 30
0.0
 11
782.5825739999997
 21
83.47033399999999
 31
0.0
  0
LINE
  5
20A
330
6B
100
AcDbEntity
  8
0
 62
     3
100
AcDbLine
 10
786.082574
 20
84.286472
 30
0.0
 11
786.082574
 21
83.47033399999999
 31
0.0
  0
LINE
  5
20B
330
6B
100
AcDbEntity
  8
0
 62
     3
100
AcDbLine
 10
786.457574
 20
81.720334
 30
0.0
 11
782.207574
 21
81.720334
 31
0.0
  0
LINE
  5
20C
330
6B
100
AcDbEntity
  8
0
 62
     3
100
AcDbLine
 10
786.457574
 20
83.47033399999999
 30
0.0
 11
786.082574
 21
83.47033399999999
 31
0.0
  0
LINE
  5
20D
330
6B
100
AcDbEntity
  8
0
 62
     3
100
AcDbLine
 10
782.5825739999997
 20
83.47033399999999
 30
0.0
 11
782.207574
 21
83.47033399999999
 31
0.0
  0
LINE
  5
20E
330
6B
100
AcDbEntity
  8
0
 62
     3
100
AcDbLine
 10
780.332574
 20
69.220334
 30
0.0
 11
788.332574
 21
69.220334
 31
0.0
  0
LINE
  5
20F
330
6B
100
AcDbEntity
  8
0
 62
     3
100
AcDbLine
 10
788.332574
 20
89.220334
 30
0.0
 11
780.332574
 21
89.220334
 31
0.0
  0
ARC
  5
210
330
6B
100
AcDbEntity
  8
0
 62
     3
100
AcDbCircle
 10
784.332574
 20
84.286472
 30
0.0
 40
1.75
100
AcDbArc
 50
0.0
 51
180.0
  0
LINE
  5
211
330
6B
100
AcDbEntity
  8
0
 62
     3
100
AcDbLine
 10
767.332574
 20
89.220334
 30
0.0
 11
767.332574
 21
69.220334
 31
0.0
  0
LINE
  5
212
330
6B
100
AcDbEntity
  8
0
 62
     3
100
AcDbLine
 10
775.332574
 20
89.220334
 30
0.0
 11
775.332574
 21
69.220334
 31
0.0
  0
LINE
  5
213
330
6B
100
AcDbEntity
  8
0
 62
     3
100
AcDbLine
 10
769.207574
 20
81.720334
 30
0.0
 11
769.207574
 21
83.47033399999999
 31
0.0
  0
LINE
  5
214
330
6B
100
AcDbEntity
  8
0
 62
     3
100
AcDbLine
 10
773.457574
 20
81.720334
 30
0.0
 11
773.457574
 21
83.47033399999999
 31
0.0
  0
LINE
  5
215
330
6B
100
AcDbEntity
  8
0
 62
     3
100
AcDbLine
 10
769.582574
 20
84.286472
 30
0.0
 11
769.582574
 21
83.47033399999999
 31
0.0
  0
LINE
  5
216
330
6B
100
AcDbEntity
  8
0
 62
     3
100
AcDbLine
 10
773.082574
 20
84.286472
 30
0.0
 11
773.082574
 21
83.47033399999999
 31
0.0
  0
LINE
  5
217
330
6B
100
AcDbEntity
  8
0
 62
     3
100
AcDbLine
 10
773.457574
 20
81.720334
 30
0.0
 11
769.207574
 21
81.720334
 31
0.0
  0
LINE
  5
218
330
6B
100
AcDbEntity
  8
0
 62
     3
100
AcDbLine
 10
773.457574
 20
83.47033399999999
 30
0.0
 11
773.082574
 21
83.47033399999999
 31
0.0
  0
LINE
  5
219
330
6B
100
AcDbEntity
  8
0
 62
     3
100
AcDbLine
 10
769.582574
 20
83.47033399999999
 30
0.0
 11
769.207574
 21
83.47033399999999
 31
0.0
  0
LINE
  5
21A
330
6B
100
AcDbEntity
  8
0
 62
     3
100
AcDbLine
 10
767.332574
 20
69.220334
 30
0.0
 11
775.332574
 21
69.220334
 31
0.0
  0
LINE
  5
21B
330
6B
100
AcDbEntity
  8
0
 62
     3
100
AcDbLine
 10
775.332574
 20
89.220334
 30
0.0
 11
767.332574
 21
89.220334
 31
0.0
  0
ARC
  5
21C
330
6B
100
AcDbEntity
  8
0
 62
     3
100
AcDbCircle
 10
771.332574
 20
84.286472
 30
0.0
 40
1.75
100
AcDbArc
 50
0.0
 51
180.0
  0
LINE
  5
21D
330
6B
100
AcDbEntity
  8
0
 62
     3
100
AcDbLine
 10
754.332574
 20
89.220334
 30
0.0
 11
754.332574
 21
69.220334
 31
0.0
  0
LINE
  5
21E
330
6B
100
AcDbEntity
  8
0
 62
     3
100
AcDbLine
 10
762.332574
 20
89.220334
 30
0.0
 11
762.332574
 21
69.220334
 31
0.0
  0
LINE
  5
21F
330
6B
100
AcDbEntity
  8
0
 62
     3
100
AcDbLine
 10
756.207574
 20
81.720334
 30
0.0
 11
756.207574
 21
83.47033399999999
 31
0.0
  0
LINE
  5
220
330
6B
100
AcDbEntity
  8
0
 62
     3
100
AcDbLine
 10
760.457574
 20
81.720334
 30
0.0
 11
760.457574
 21
83.47033399999999
 31
0.0
  0
LINE
  5
221
330
6B
100
AcDbEntity
  8
0
 62
     3
100
AcDbLine
 10
756.582574
 20
84.286472
 30
0.0
 11
756.582574
 21
83.47033399999999
 31
0.0
  0
LINE
  5
222
330
6B
100
AcDbEntity
  8
0
 62
     3
100
AcDbLine
 10
760.082574
 20
84.286472
 30
0.0
 11
760.082574
 21
83.47033399999999
 31
0.0
  0
LINE
  5
223
330
6B
100
AcDbEntity
  8
0
 62
     3
100
AcDbLine
 10
760.457574
 20
81.720334
 30
0.0
 11
756.207574
 21
81.720334
 31
0.0
  0
LINE
  5
224
330
6B
100
AcDbEntity
  8
0
 62
     3
100
AcDbLine
 10
760.457574
 20
83.47033399999999
 30
0.0
 11
760.082574
 21
83.47033399999999
 31
0.0
  0
LINE
  5
225
330
6B
100
AcDbEntity
  8
0
 62
     3
100
AcDbLine
 10
756.582574
 20
83.47033399999999
 30
0.0
 11
756.207574
 21
83.47033399999999
 31
0.0
  0
LINE
  5
226
330
6B
100
AcDbEntity
  8
0
 62
     3
100
AcDbLine
 10
754.332574
 20
69.220334
 30
0.0
 11
762.332574
 21
69.220334
 31
0.0
  0
LINE
  5
227
330
6B
100
AcDbEntity
  8
0
 62
     3
100
AcDbLine
 10
762.332574
 20
89.220334
 30
0.0
 11
754.332574
 21
89.220334
 31
0.0
  0
ARC
  5
228
330
6B
100
AcDbEntity
  8
0
 62
     3
100
AcDbCircle
 10
758.332574
 20
84.286472
 30
0.0
 40
1.75
100
AcDbArc
 50
0.0
 51
180.0
  0
LINE
  5
229
330
6B
100
AcDbEntity
  8
0
 62
     3
100
AcDbLine
 10
820.332574
 20
98.470334
 30
0.0
 11
748.332574
 21
98.470334
 31
0.0
  0
TEXT
  5
22A
330
6B
100
AcDbEntity
  8
0
 62
     3
100
AcDbText
 10
766.593109
 20
122.866688
 30
0.0
 40
3.5
  1
MULTI
100
AcDbText
  0
TEXT
  5
22B
330
6B
100
AcDbEntity
  8
0
 62
     3
100
AcDbText
 10
783.466778
 20
122.152794
 30
0.0
 40
7.0
  1
P
100
AcDbText
  0
TEXT
  5
22C
330
6B
100
AcDbEntity
  8
0
 62
     3
100
AcDbText
 10
789.052587
 20
122.966396
 30
0.0
 40
3.5
  1
OWER
100
AcDbText
  0
LINE
  5
22D
330
6B
100
AcDbEntity
  8
0
 62
     3
100
AcDbLine
 10
788.082574
 20
145.720334
 30
0.0
 11
788.082574
 21
134.720334
 31
0.0
  0
LINE
  5
22E
330
6B
100
AcDbEntity
  8
0
 62
     3
100
AcDbLine
 10
780.582574
 20
145.720334
 30
0.0
 11
780.582574
 21
134.720334
 31
0.0
  0
ARC
  5
22F
330
6B
100
AcDbEntity
  8
0
 62
     3
100
AcDbCircle
 10
786.582574
 20
145.720334
 30
0.0
 40
1.5
100
AcDbArc
 50
0.0
 51
90.0
  0
ARC
  5
230
330
6B
100
AcDbEntity
  8
0
 62
     3
100
AcDbCircle
 10
782.082574
 20
145.720334
 30
0.0
 40
1.5
100
AcDbArc
 50
90.0
 51
180.0
  0
LINE
  5
231
330
6B
100
AcDbEntity
  8
0
 62
     3
100
AcDbLine
 10
1011.170865
 20
145.720334
 30
0.0
 11
1011.170865
 21
134.720334
 31
0.0
  0
LINE
  5
232
330
6B
100
AcDbEntity
  8
0
 62
     3
100
AcDbLine
 10
1018.670865
 20
145.720334
 30
0.0
 11
1018.670865
 21
134.720334
 31
0.0
  0
LINE
  5
233
330
6B
100
AcDbEntity
  8
0
 62
     3
100
AcDbLine
 10
974.9208649999999
 20
132.220334
 30
0.0
 11
974.9208649999999
 21
64.72033399999999
 31
0.0
  0
LINE
  5
234
330
6B
100
AcDbEntity
  8
0
 62
     3
100
AcDbLine
 10
1054.920865
 20
132.220334
 30
0.0
 11
1054.920865
 21
71.97476400000002
 31
0.0
  0
LINE
  5
235
330
6B
100
AcDbEntity
  8
0
 62
     3
100
AcDbLine
 10
977.420865
 20
62.22033399999999
 30
0.0
 11
1052.420865
 21
62.22033399999999
 31
0.0
  0
LINE
  5
236
330
6B
100
AcDbEntity
  8
0
 62
     3
100
AcDbLine
 10
1017.170865
 20
147.220334
 30
0.0
 11
1012.670865
 21
147.220334
 31
0.0
  0
LINE
  5
237
330
6B
100
AcDbEntity
  8
0
 62
     3
100
AcDbLine
 10
1052.420865
 20
134.720334
 30
0.0
 11
977.420865
 21
134.720334
 31
0.0
  0
ARC
  5
238
330
6B
100
AcDbEntity
  8
0
 62
     3
100
AcDbCircle
 10
1052.420865
 20
132.220334
 30
0.0
 40
2.5
100
AcDbArc
 50
0.0
 51
90.0
  0
ARC
  5
239
330
6B
100
AcDbEntity
  8
0
 62
     3
100
AcDbCircle
 10
977.420865
 20
132.220334
 30
0.0
 40
2.5
100
AcDbArc
 50
90.0
 51
180.0
  0
ARC
  5
23A
330
6B
100
AcDbEntity
  8
0
 62
     3
100
AcDbCircle
 10
977.420865
 20
64.72033399999999
 30
0.0
 40
2.5
100
AcDbArc
 50
180.0
 51
270.0
  0
ARC
  5
23B
330
6B
100
AcDbEntity
  8
0
 62
     3
100
AcDbCircle
 10
1052.420865
 20
64.72033399999999
 30
0.0
 40
2.5
100
AcDbArc
 50
270.0
 51
0.0
  0
ARC
  5
23C
330
6B
100
AcDbEntity
  8
0
 62
     3
100
AcDbCircle
 10
1017.170865
 20
145.720334
 30
0.0
 40
1.5
100
AcDbArc
 50
0.0
 51
90.0
  0
ARC
  5
23D
330
6B
100
AcDbEntity
  8
0
 62
     3
100
AcDbCircle
 10
1012.670865
 20
145.720334
 30
0.0
 40
1.5
100
AcDbArc
 50
90.0
 51
180.0
  0
LINE
  5
23E
330
6B
100
AcDbEntity
  8
0
 62
     3
100
AcDbLine
 10
854.58689
 20
134.720334
 30
0.0
 11
854.58689
 21
62.22033399999999
 31
0.0
  0
LINE
  5
23F
330
6B
100
AcDbEntity
  8
0
 62
     3
100
AcDbLine
 10
947.0868900000001
 20
134.720334
 30
0.0
 11
947.0868900000001
 21
62.22033399999999
 31
0.0
  0
LINE
  5
240
330
6B
100
AcDbEntity
  8
0
 62
     3
100
AcDbLine
 10
854.58689
 20
62.22033399999999
 30
0.0
 11
947.0868900000001
 21
62.22033399999999
 31
0.0
  0
LINE
  5
241
330
6B
100
AcDbEntity
  8
0
 62
     3
100
AcDbLine
 10
947.0868900000001
 20
134.720334
 30
0.0
 11
854.58689
 21
134.720334
 31
0.0
  0
LINE
  5
242
330
6B
100
AcDbEntity
  8
0
 62
     3
100
AcDbLine
 10
923.33689
 20
147.220334
 30
0.0
 11
878.3368900000001
 21
147.220334
 31
0.0
  0
LINE
  5
243
330
6B
100
AcDbEntity
  8
0
 62
     3
100
AcDbLine
 10
916.33689
 20
144.220334
 30
0.0
 11
885.3368900000001
 21
144.220334
 31
0.0
  0
ARC
  5
244
330
6B
100
AcDbEntity
  8
0
 62
     3
100
AcDbCircle
 10
916.33689
 20
134.720334
 30
0.0
 40
9.5
100
AcDbArc
 50
0.0
 51
90.0
  0
ARC
  5
245
330
6B
100
AcDbEntity
  8
0
 62
     3
100
AcDbCircle
 10
885.3368900000001
 20
134.720334
 30
0.0
 40
9.5
100
AcDbArc
 50
90.0
 51
180.0
  0
ARC
  5
246
330
6B
100
AcDbEntity
  8
0
 62
     3
100
AcDbCircle
 10
923.33689
 20
134.720334
 30
0.0
 40
12.5
100
AcDbArc
 50
0.0
 51
90.0
  0
ARC
  5
247
330
6B
100
AcDbEntity
  8
0
 62
     3
100
AcDbCircle
 10
878.3368900000001
 20
134.720334
 30
0.0
 40
12.5
100
AcDbArc
 50
90.0
 51
180.0
  0
ARC
  5
248
330
6B
100
AcDbEntity
  8
0
 62
     3
100
AcDbCircle
 10
1014.920865
 20
119.720334
 30
0.0
 40
9.0
100
AcDbArc
 50
228.317675
 51
312.751266
  0
ARC
  5
249
330
6B
100
AcDbEntity
  8
0
 62
     3
100
AcDbCircle
 10
1024.920865
 20
119.720334
 30
0.0
 40
2.211829999999999
100
AcDbArc
 50
312.751266
 51
47.248734
  0
ARC
  5
24A
330
6B
100
AcDbEntity
  8
0
 62
     3
100
AcDbCircle
 10
1004.920865
 20
119.720334
 30
0.0
 40
2.35
100
AcDbArc
 50
131.682325
 51
228.317675
  0
LINE
  5
24B
330
6B
100
AcDbEntity
  8
0
 62
     3
100
AcDbLine
 10
1021.030218
 20
126.329101
 30
0.0
 11
1026.422293
 21
121.344497
 31
0.0
  0
LINE
  5
24C
330
6B
100
AcDbEntity
  8
0
 62
     3
100
AcDbLine
 10
1026.422293
 20
118.09617
 30
0.0
 11
1021.030218
 21
113.111566
 31
0.0
  0
LINE
  5
24D
330
6B
100
AcDbEntity
  8
0
 62
     3
100
AcDbLine
 10
1008.935865
 20
126.441924
 30
0.0
 11
1003.358115
 21
121.475416
 31
0.0
  0
LINE
  5
24E
330
6B
100
AcDbEntity
  8
0
 62
     3
100
AcDbLine
 10
1003.358115
 20
117.965252
 30
0.0
 11
1008.935865
 21
112.998743
 31
0.0
  0
ARC
  5
24F
330
6B
100
AcDbEntity
  8
0
 62
     3
100
AcDbCircle
 10
1014.920865
 20
119.720334
 30
0.0
 40
9.0
100
AcDbArc
 50
47.248734
 51
131.682325
  0
CIRCLE
  5
250
330
6B
100
AcDbEntity
  8
0
 62
     3
100
AcDbCircle
 10
1014.920865
 20
119.720334
 30
0.0
 40
5.5
  0
LINE
  5
251
330
6B
100
AcDbEntity
  8
0
 62
     3
100
AcDbLine
 10
1072.180557
 20
39.176256
 30
0.0
 11
1072.180557
 21
44.83454199999999
 31
0.0
  0
LINE
  5
252
330
6B
100
AcDbEntity
  8
0
 62
     3
100
AcDbLine
 10
1058.69893
 20
39.176256
 30
0.0
 11
1058.69893
 21
44.83454199999999
 31
0.0
  0
LINE
  5
253
330
6B
100
AcDbEntity
  8
0
 62
     3
100
AcDbLine
 10
1072.180557
 20
39.176256
 30
0.0
 11
1058.69893
 21
39.176256
 31
0.0
  0
ARC
  5
254
330
6B
100
AcDbEntity
  8
0
 62
     3
100
AcDbCircle
 10
1065.439744
 20
44.83454199999999
 30
0.0
 40
6.740813
100
AcDbArc
 50
0.0
 51
180.0
  0
LINE
  5
255
330
6B
100
AcDbEntity
  8
0
 62
     3
100
AcDbLine
 10
1047.380923
 20
71.97476400000002
 30
0.0
 11
1047.380923
 21
73.46474499999998
 31
0.0
  0
LINE
  5
256
330
6B
100
AcDbEntity
  8
0
 62
     3
100
AcDbLine
 10
1040.881431
 20
70.72476400000002
 30
0.0
 11
1040.881431
 21
73.46474499999998
 31
0.0
  0
ARC
  5
257
330
6B
100
AcDbEntity
  8
0
 62
     3
100
AcDbCircle
 10
1044.131177
 20
70.72476400000002
 30
0.0
 40
3.249746
100
AcDbArc
 50
180.0
 51
337.378267
  0
ARC
  5
258
330
6B
100
AcDbEntity
  8
0
 62
     3
100
AcDbCircle
 10
1044.131177
 20
70.72476400000002
 30
0.0
 40
1.25
100
AcDbArc
 50
90.0
 51
270.0
  0
LINE
  5
259
330
6B
100
AcDbEntity
  8
0
 62
     3
100
AcDbLine
 10
1044.131177
 20
69.47476400000001
 30
0.0
 11
1061.689743
 21
69.47476400000001
 31
0.0
  0
LINE
  5
25A
330
6B
100
AcDbEntity
  8
0
 62
     3
100
AcDbLine
 10
1044.131177
 20
71.97476400000002
 30
0.0
 11
1061.689743
 21
71.97476400000002
 31
0.0
  0
LINE
  5
25B
330
6B
100
AcDbEntity
  8
0
 62
     3
100
AcDbLine
 10
1064.189743
 20
51.45844199999999
 30
0.0
 11
1064.189743
 21
66.97476400000001
 31
0.0
  0
LINE
  5
25C
330
6B
100
AcDbEntity
  8
0
 62
     3
100
AcDbLine
 10
1066.689743
 20
51.458443
 30
0.0
 11
1066.689743
 21
66.97476400000001
 31
0.0
  0
ARC
  5
25D
330
6B
100
AcDbEntity
  8
0
 62
     3
100
AcDbCircle
 10
1061.689743
 20
66.97476400000001
 30
0.0
 40
2.5
100
AcDbArc
 50
0.0
 51
90.0
  0
ARC
  5
25E
330
6B
100
AcDbEntity
  8
0
 62
     3
100
AcDbCircle
 10
1061.689743
 20
66.97476400000001
 30
0.0
 40
5.0
100
AcDbArc
 50
0.0
 51
90.0
  0
LINE
  5
25F
330
6B
100
AcDbEntity
  8
0
 62
     3
100
AcDbLine
 10
1054.920865
 20
69.47476400000001
 30
0.0
 11
1054.920865
 21
64.72033399999999
 31
0.0
  0
LINE
  5
260
330
6B
100
AcDbEntity
  8
0
 62
     3
100
AcDbLine
 10
854.58689
 20
98.470334
 30
0.0
 11
947.0868900000001
 21
98.470334
 31
0.0
  0
LINE
  5
261
330
6B
100
AcDbEntity
  8
0
 62
     3
100
AcDbLine
 10
948.5164929999999
 20
124.970334
 30
0.0
 11
947.0868900000001
 21
124.970334
 31
0.0
  0
LINE
  5
262
330
6B
100
AcDbEntity
  8
0
 62
     3
100
AcDbLine
 10
949.210753
 20
115.720334
 30
0.0
 11
947.0868900000001
 21
115.720334
 31
0.0
  0
ARC
  5
263
330
6B
100
AcDbEntity
  8
0
 62
     3
100
AcDbCircle
 10
942.3368899999999
 20
119.720334
 30
0.0
 40
8.5
100
AcDbArc
 50
336.421822
 51
34.518108
  0
ARC
  5
264
330
6B
100
AcDbEntity
  8
0
 62
     3
100
AcDbCircle
 10
949.210753
 20
116.720334
 30
0.0
 40
1.0
100
AcDbArc
 50
270.0
 51
336.421822
  0
ARC
  5
265
330
6B
100
AcDbEntity
  8
0
 62
     3
100
AcDbCircle
 10
948.5164929999999
 20
123.970334
 30
0.0
 40
1.0
100
AcDbArc
 50
34.518108
 51
90.0
  0
LINE
  5
266
330
6B
100
AcDbEntity
  8
0
 62
     3
100
AcDbLine
 10
808.207574
 20
76.720334
 30
0.0
 11
808.207574
 21
74.97033399999998
 31
0.0
  0
LINE
  5
267
330
6B
100
AcDbEntity
  8
0
 62
     3
100
AcDbLine
 10
812.457574
 20
76.720334
 30
0.0
 11
812.457574
 21
74.97033399999998
 31
0.0
  0
LINE
  5
268
330
6B
100
AcDbEntity
  8
0
 62
     3
100
AcDbLine
 10
808.582574
 20
74.154195
 30
0.0
 11
808.582574
 21
74.97033399999998
 31
0.0
  0
LINE
  5
269
330
6B
100
AcDbEntity
  8
0
 62
     3
100
AcDbLine
 10
812.082574
 20
74.154195
 30
0.0
 11
812.082574
 21
74.97033399999998
 31
0.0
  0
LINE
  5
26A
330
6B
100
AcDbEntity
  8
0
 62
     3
100
AcDbLine
 10
812.457574
 20
76.720334
 30
0.0
 11
808.207574
 21
76.720334
 31
0.0
  0
LINE
  5
26B
330
6B
100
AcDbEntity
  8
0
 62
     3
100
AcDbLine
 10
812.457574
 20
74.97033399999998
 30
0.0
 11
812.082574
 21
74.97033399999998
 31
0.0
  0
LINE
  5
26C
330
6B
100
AcDbEntity
  8
0
 62
     3
100
AcDbLine
 10
808.582574
 20
74.97033399999998
 30
0.0
 11
808.207574
 21
74.97033399999998
 31
0.0
  0
ARC
  5
26D
330
6B
100
AcDbEntity
  8
0
 62
     3
100
AcDbCircle
 10
810.332574
 20
74.154195
 30
0.0
 40
1.75
100
AcDbArc
 50
180.0
 51
0.0
  0
LINE
  5
26E
330
6B
100
AcDbEntity
  8
0
 62
     3
100
AcDbLine
 10
795.207574
 20
76.720334
 30
0.0
 11
795.207574
 21
74.97033399999998
 31
0.0
  0
LINE
  5
26F
330
6B
100
AcDbEntity
  8
0
 62
     3
100
AcDbLine
 10
799.457574
 20
76.720334
 30
0.0
 11
799.457574
 21
74.97033399999998
 31
0.0
  0
LINE
  5
270
330
6B
100
AcDbEntity
  8
0
 62
     3
100
AcDbLine
 10
795.582574
 20
74.154195
 30
0.0
 11
795.582574
 21
74.97033399999998
 31
0.0
  0
LINE
  5
271
330
6B
100
AcDbEntity
  8
0
 62
     3
100
AcDbLine
 10
799.082574
 20
74.154195
 30
0.0
 11
799.082574
 21
74.97033399999998
 31
0.0
  0
LINE
  5
272
330
6B
100
AcDbEntity
  8
0
 62
     3
100
AcDbLine
 10
799.457574
 20
76.720334
 30
0.0
 11
795.207574
 21
76.720334
 31
0.0
  0
LINE
  5
273
330
6B
100
AcDbEntity
  8
0
 62
     3
100
AcDbLine
 10
799.457574
 20
74.97033399999998
 30
0.0
 11
799.082574
 21
74.97033399999998
 31
0.0
  0
LINE
  5
274
330
6B
100
AcDbEntity
  8
0
 62
     3
100
AcDbLine
 10
795.582574
 20
74.97033399999998
 30
0.0
 11
795.207574
 21
74.97033399999998
 31
0.0
  0
ARC
  5
275
330
6B
100
AcDbEntity
  8
0
 62
     3
100
AcDbCircle
 10
797.332574
 20
74.154195
 30
0.0
 40
1.75
100
AcDbArc
 50
180.0
 51
0.0
  0
LINE
  5
276
330
6B
100
AcDbEntity
  8
0
 62
     3
100
AcDbLine
 10
782.207574
 20
76.720334
 30
0.0
 11
782.207574
 21
74.97033399999998
 31
0.0
  0
LINE
  5
277
330
6B
100
AcDbEntity
  8
0
 62
     3
100
AcDbLine
 10
786.457574
 20
76.720334
 30
0.0
 11
786.457574
 21
74.97033399999998
 31
0.0
  0
LINE
  5
278
330
6B
100
AcDbEntity
  8
0
 62
     3
100
AcDbLine
 10
782.5825739999997
 20
74.154195
 30
0.0
 11
782.5825739999997
 21
74.97033399999998
 31
0.0
  0
LINE
  5
279
330
6B
100
AcDbEntity
  8
0
 62
     3
100
AcDbLine
 10
786.082574
 20
74.154195
 30
0.0
 11
786.082574
 21
74.97033399999998
 31
0.0
  0
LINE
  5
27A
330
6B
100
AcDbEntity
  8
0
 62
     3
100
AcDbLine
 10
786.457574
 20
76.720334
 30
0.0
 11
782.207574
 21
76.720334
 31
0.0
  0
LINE
  5
27B
330
6B
100
AcDbEntity
  8
0
 62
     3
100
AcDbLine
 10
786.457574
 20
74.97033399999998
 30
0.0
 11
786.082574
 21
74.97033399999998
 31
0.0
  0
LINE
  5
27C
330
6B
100
AcDbEntity
  8
0
 62
     3
100
AcDbLine
 10
782.5825739999997
 20
74.97033399999998
 30
0.0
 11
782.207574
 21
74.97033399999998
 31
0.0
  0
ARC
  5
27D
330
6B
100
AcDbEntity
  8
0
 62
     3
100
AcDbCircle
 10
784.332574
 20
74.154195
 30
0.0
 40
1.75
100
AcDbArc
 50
180.0
 51
0.0
  0
LINE
  5
27E
330
6B
100
AcDbEntity
  8
0
 62
     3
100
AcDbLine
 10
769.207574
 20
76.720334
 30
0.0
 11
769.207574
 21
74.97033399999998
 31
0.0
  0
LINE
  5
27F
330
6B
100
AcDbEntity
  8
0
 62
     3
100
AcDbLine
 10
773.457574
 20
76.720334
 30
0.0
 11
773.457574
 21
74.97033399999998
 31
0.0
  0
LINE
  5
280
330
6B
100
AcDbEntity
  8
0
 62
     3
100
AcDbLine
 10
769.582574
 20
74.154195
 30
0.0
 11
769.582574
 21
74.97033399999998
 31
0.0
  0
LINE
  5
281
330
6B
100
AcDbEntity
  8
0
 62
     3
100
AcDbLine
 10
773.082574
 20
74.154195
 30
0.0
 11
773.082574
 21
74.97033399999998
 31
0.0
  0
LINE
  5
282
330
6B
100
AcDbEntity
  8
0
 62
     3
100
AcDbLine
 10
773.457574
 20
76.720334
 30
0.0
 11
769.207574
 21
76.720334
 31
0.0
  0
LINE
  5
283
330
6B
100
AcDbEntity
  8
0
 62
     3
100
AcDbLine
 10
773.457574
 20
74.97033399999998
 30
0.0
 11
773.082574
 21
74.97033399999998
 31
0.0
  0
LINE
  5
284
330
6B
100
AcDbEntity
  8
0
 62
     3
100
AcDbLine
 10
769.582574
 20
74.97033399999998
 30
0.0
 11
769.207574
 21
74.97033399999998
 31
0.0
  0
ARC
  5
285
330
6B
100
AcDbEntity
  8
0
 62
     3
100
AcDbCircle
 10
771.332574
 20
74.154195
 30
0.0
 40
1.75
100
AcDbArc
 50
180.0
 51
0.0
  0
LINE
  5
286
330
6B
100
AcDbEntity
  8
0
 62
     3
100
AcDbLine
 10
756.207574
 20
76.720334
 30
0.0
 11
756.207574
 21
74.97033399999998
 31
0.0
  0
LINE
  5
287
330
6B
100
AcDbEntity
  8
0
 62
     3
100
AcDbLine
 10
760.457574
 20
76.720334
 30
0.0
 11
760.457574
 21
74.97033399999998
 31
0.0
  0
LINE
  5
288
330
6B
100
AcDbEntity
  8
0
 62
     3
100
AcDbLine
 10
756.582574
 20
74.154195
 30
0.0
 11
756.582574
 21
74.97033399999998
 31
0.0
  0
LINE
  5
289
330
6B
100
AcDbEntity
  8
0
 62
     3
100
AcDbLine
 10
760.082574
 20
74.154195
 30
0.0
 11
760.082574
 21
74.97033399999998
 31
0.0
  0
LINE
  5
28A
330
6B
100
AcDbEntity
  8
0
 62
     3
100
AcDbLine
 10
760.457574
 20
76.720334
 30
0.0
 11
756.207574
 21
76.720334
 31
0.0
  0
LINE
  5
28B
330
6B
100
AcDbEntity
  8
0
 62
     3
100
AcDbLine
 10
760.457574
 20
74.97033399999998
 30
0.0
 11
760.082574
 21
74.97033399999998
 31
0.0
  0
LINE
  5
28C
330
6B
100
AcDbEntity
  8
0
 62
     3
100
AcDbLine
 10
756.582574
 20
74.97033399999998
 30
0.0
 11
756.207574
 21
74.97033399999998
 31
0.0
  0
ARC
  5
28D
330
6B
100
AcDbEntity
  8
0
 62
     3
100
AcDbCircle
 10
758.332574
 20
74.154195
 30
0.0
 40
1.75
100
AcDbArc
 50
180.0
 51
0.0
  0
LINE
  5
28E
330
6B
100
AcDbEntity
  8
0
100
AcDbLine
 10
1068.219434
 20
30.838264
 30
0.0
 11
1069.212054
 21
30.838264
 31
0.0
  0
LINE
  5
28F
330
6B
100
AcDbEntity
  8
0
100
AcDbLine
 10
1068.219434
 20
39.176256
 30
0.0
 11
1068.219434
 21
30.838264
 31
0.0
  0
LINE
  5
290
330
6B
100
AcDbEntity
  8
0
100
AcDbLine
 10
1069.212054
 20
30.838264
 30
0.0
 11
1069.212054
 21
39.176256
 31
0.0
  0
LINE
  5
291
330
6B
100
AcDbEntity
  8
0
100
AcDbLine
 10
1061.665278
 20
30.838264
 30
0.0
 11
1062.660052
 21
30.838264
 31
0.0
  0
CIRCLE
  5
2AC
330
6B
100
AcDbEntity
  8
0
100
AcDbCircle
 10
1044.131177
 20
122.910534
 30
0.0
 40
3.2555
  0
LINE
  5
2AD
330
6B
100
AcDbEntity
  8
0
100
AcDbLine
 10
1061.665278
 20
39.176256
 30
0.0
 11
1061.665278
 21
30.838264
 31
0.0
  0
LINE
  5
2AE
330
6B
100
AcDbEntity
  8
0
100
AcDbLine
 10
1062.660052
 20
30.838264
 30
0.0
 11
1062.660052
 21
39.176256
 31
0.0
  0
LINE
  5
2AF
330
6B
100
AcDbEntity
  8
0
100
AcDbLine
 10
753.1229009999997
 20
62.22033399999999
 30
0.0
 11
754.102437
 21
57.22033399999999
 31
0.0
  0
LINE
  5
2B0
330
6B
100
AcDbEntity
  8
0
100
AcDbLine
 10
754.102437
 20
57.22033399999999
 30
0.0
 11
762.562712
 21
57.22033399999999
 31
0.0
  0
LINE
  5
2B1
330
6B
100
AcDbEntity
  8
0
100
AcDbLine
 10
762.562712
 20
57.22033399999999
 30
0.0
 11
763.7082079999997
 21
62.22033399999999
 31
0.0
  0
LINE
  5
2B2
330
6B
100
AcDbEntity
  8
0
100
AcDbLine
 10
804.955958
 20
62.22033399999999
 30
0.0
 11
806.1020779999999
 21
57.22033399999999
 31
0.0
  0
LINE
  5
2B3
330
6B
100
AcDbEntity
  8
0
100
AcDbLine
 10
806.1020779999999
 20
57.22033399999999
 30
0.0
 11
814.563071
 21
57.22033399999999
 31
0.0
  0
LINE
  5
2B4
330
6B
100
AcDbEntity
  8
0
100
AcDbLine
 10
814.563071
 20
57.22033399999999
 30
0.0
 11
815.545103
 21
62.22033399999999
 31
0.0
  0
LINE
  5
2B5
330
6B
100
AcDbEntity
  8
0
100
AcDbLine
 10
1041.072763
 20
119.83054
 30
0.0
 11
1041.715086
 21
118.778942
 31
0.0
  0
LINE
  5
2B6
330
6B
100
AcDbEntity
  8
0
100
AcDbLine
 10
1041.715086
 20
118.778942
 30
0.0
 11
1041.984103
 21
119.158724
 31
0.0
  0
LINE
  5
2B7
330
6B
100
AcDbEntity
  8
0
100
AcDbLine
 10
1041.984103
 20
119.158724
 30
0.0
 11
1042.211396
 21
119.479528
 31
0.0
  0
LINE
  5
2B8
330
6B
100
AcDbEntity
  8
0
100
AcDbLine
 10
1042.211396
 20
119.479528
 30
0.0
 11
1041.072763
 21
119.83054
 31
0.0
  0
LINE
  5
2B9
330
6B
100
AcDbEntity
  8
0
100
AcDbLine
 10
1042.460991
 20
122.368191
 30
0.0
 11
1043.588834
 21
122.368191
 31
0.0
  0
LINE
  5
2BA
330
6B
100
AcDbEntity
  8
0
100
AcDbLine
 10
1043.588834
 20
122.368191
 30
0.0
 11
1043.588834
 21
121.238908
 31
0.0
  0
LINE
  5
2BB
330
6B
100
AcDbEntity
  8
0
100
AcDbLine
 10
1043.588834
 20
121.238908
 30
0.0
 11
1044.672084
 21
121.238908
 31
0.0
  0
LINE
  5
2BC
330
6B
100
AcDbEntity
  8
0
100
AcDbLine
 10
1044.672084
 20
121.238908
 30
0.0
 11
1044.672084
 21
122.368191
 31
0.0
  0
LINE
  5
2BD
330
6B
100
AcDbEntity
  8
0
100
AcDbLine
 10
1044.672084
 20
122.368191
 30
0.0
 11
1045.801367
 21
122.368191
 31
0.0
  0
LINE
  5
2BE
330
6B
100
AcDbEntity
  8
0
100
AcDbLine
 10
1045.801367
 20
122.368191
 30
0.0
 11
1045.801367
 21
123.452877
 31
0.0
  0
LINE
  5
2BF
330
6B
100
AcDbEntity
  8
0
100
AcDbLine
 10
1045.801367
 20
123.452877
 30
0.0
 11
1044.672084
 21
123.452877
 31
0.0
  0
LINE
  5
2C0
330
6B
100
AcDbEntity
  8
0
100
AcDbLine
 10
1044.672084
 20
123.452877
 30
0.0
 11
1044.672084
 21
124.580724
 31
0.0
  0
LINE
  5
2C1
330
6B
100
AcDbEntity
  8
0
100
AcDbLine
 10
1044.672084
 20
124.580724
 30
0.0
 11
1043.588834
 21
124.580724
 31
0.0
  0
LINE
  5
2C2
330
6B
100
AcDbEntity
  8
0
100
AcDbLine
 10
1043.588834
 20
124.580724
 30
0.0
 11
1043.588834
 21
123.452877
 31
0.0
  0
LINE
  5
2C3
330
6B
100
AcDbEntity
  8
0
100
AcDbLine
 10
1043.588834
 20
123.452877
 30
0.0
 11
1042.460991
 21
123.452877
 31
0.0
  0
LINE
  5
2C4
330
6B
100
AcDbEntity
  8
0
100
AcDbLine
 10
1042.460991
 20
123.452877
 30
0.0
 11
1042.460991
 21
122.368191
 31
0.0
  0
LINE
  5
2C5
330
6B
100
AcDbEntity
  8
0
100
AcDbLine
 10
1061.665278
 20
30.838264
 30
0.0
 11
1061.665278
 21
30.835386
 31
0.0
  0
LINE
  5
2C6
330
6B
100
AcDbEntity
  8
0
100
AcDbLine
 10
1061.665278
 20
30.835386
 30
0.0
 11
1062.660052
 21
30.835386
 31
0.0
  0
LINE
  5
2C7
330
6B
100
AcDbEntity
  8
0
100
AcDbLine
 10
1062.660052
 20
30.835386
 30
0.0
 11
1062.660052
 21
30.838264
 31
0.0
  0
LINE
  5
2C8
330
6B
100
AcDbEntity
  8
0
100
AcDbLine
 10
1068.219434
 20
30.838264
 30
0.0
 11
1068.219434
 21
30.835386
 31
0.0
  0
LINE
  5
2C9
330
6B
100
AcDbEntity
  8
0
100
AcDbLine
 10
1068.219434
 20
30.835386
 30
0.0
 11
1069.212054
 21
30.835386
 31
0.0
  0
LINE
  5
2CA
330
6B
100
AcDbEntity
  8
0
100
AcDbLine
 10
1069.212054
 20
30.835386
 30
0.0
 11
1069.212054
 21
30.838264
 31
0.0
  0
LINE
  5
2DE
330
6B
100
AcDbEntity
  8
0
100
AcDbLine
 10
934.957531
 20
87.765149
 30
0.0
 11
920.4163919999999
 21
87.765149
 31
0.0
  0
LINE
  5
2E6
330
6B
100
AcDbEntity
  8
0
100
AcDbLine
 10
920.4163919999999
 20
86.20573099999999
 30
0.0
 11
934.957531
 21
86.20573099999999
 31
0.0
  0
LINE
  5
30D
330
6B
100
AcDbEntity
  8
0
100
AcDbLine
 10
920.4163919999999
 20
82.95886199999998
 30
0.0
 11
934.957531
 21
82.95886199999998
 31
0.0
  0
LINE
  5
315
330
6B
100
AcDbEntity
  8
0
100
AcDbLine
 10
934.957531
 20
84.51828
 30
0.0
 11
920.4163919999999
 21
84.51828
 31
0.0
  0
LINE
  5
33C
330
6B
100
AcDbEntity
  8
0
100
AcDbLine
 10
934.957531
 20
91.00914000000001
 30
0.0
 11
920.4163919999999
 21
91.00914000000001
 31
0.0
  0
LINE
  5
344
330
6B
100
AcDbEntity
  8
0
100
AcDbLine
 10
920.4163919999999
 20
89.45260000000002
 30
0.0
 11
934.957531
 21
89.45260000000002
 31
0.0
  0
LINE
  5
36B
330
6B
100
AcDbEntity
  8
0
100
AcDbLine
 10
908.1072050000001
 20
94.256009
 30
0.0
 11
893.5660659999998
 21
94.256009
 31
0.0
  0
LINE
  5
373
330
6B
100
AcDbEntity
  8
0
100
AcDbLine
 10
893.5660659999998
 20
92.69946899999998
 30
0.0
 11
908.1072050000001
 21
92.69946899999998
 31
0.0
  0
LINE
  5
39A
330
6B
100
AcDbEntity
  8
0
100
AcDbLine
 10
866.7135829999999
 20
82.95886199999998
 30
0.0
 11
881.255441
 21
82.95886199999998
 31
0.0
  0
LINE
  5
3A2
330
6B
100
AcDbEntity
  8
0
100
AcDbLine
 10
881.255441
 20
84.51828
 30
0.0
 11
866.7135829999999
 21
84.51828
 31
0.0
  0
LINE
  5
3C9
330
6B
100
AcDbEntity
  8
0
100
AcDbLine
 10
934.957531
 20
94.256009
 30
0.0
 11
920.4163919999999
 21
94.256009
 31
0.0
  0
LINE
  5
3D1
330
6B
100
AcDbEntity
  8
0
100
AcDbLine
 10
920.4163919999999
 20
92.69946899999998
 30
0.0
 11
934.957531
 21
92.69946899999998
 31
0.0
  0
LINE
  5
3F8
330
6B
100
AcDbEntity
  8
0
100
AcDbLine
 10
881.255441
 20
87.765149
 30
0.0
 11
866.7135829999999
 21
87.765149
 31
0.0
  0
LINE
  5
400
330
6B
100
AcDbEntity
  8
0
100
AcDbLine
 10
866.7135829999999
 20
86.20573099999999
 30
0.0
 11
881.255441
 21
86.20573099999999
 31
0.0
  0
LINE
  5
427
330
6B
100
AcDbEntity
  8
0
100
AcDbLine
 10
908.1072050000001
 20
87.765149
 30
0.0
 11
893.5660659999998
 21
87.765149
 31
0.0
  0
LINE
  5
42F
330
6B
100
AcDbEntity
  8
0
100
AcDbLine
 10
893.5660659999998
 20
86.20573099999999
 30
0.0
 11
908.1072050000001
 21
86.20573099999999
 31
0.0
  0
LINE
  5
456
330
6B
100
AcDbEntity
  8
0
100
AcDbLine
 10
893.5660659999998
 20
82.95886199999998
 30
0.0
 11
908.1072050000001
 21
82.95886199999998
 31
0.0
  0
LINE
  5
45E
330
6B
100
AcDbEntity
  8
0
100
AcDbLine
 10
908.1072050000001
 20
84.51828
 30
0.0
 11
893.5660659999998
 21
84.51828
 31
0.0
  0
LINE
  5
485
330
6B
100
AcDbEntity
  8
0
100
AcDbLine
 10
908.1072050000001
 20
91.00914000000001
 30
0.0
 11
893.5660659999998
 21
91.00914000000001
 31
0.0
  0
LINE
  5
48D
330
6B
100
AcDbEntity
  8
0
100
AcDbLine
 10
893.5660659999998
 20
89.45260000000002
 30
0.0
 11
908.1072050000001
 21
89.45260000000002
 31
0.0
  0
LINE
  5
4B4
330
6B
100
AcDbEntity
  8
0
100
AcDbLine
 10
934.957531
 20
114.147217
 30
0.0
 11
920.4163919999999
 21
114.147217
 31
0.0
  0
LINE
  5
4BC
330
6B
100
AcDbEntity
  8
0
100
AcDbLine
 10
920.4163919999999
 20
112.589238
 30
0.0
 11
934.957531
 21
112.589238
 31
0.0
  0
LINE
  5
4E3
330
6B
100
AcDbEntity
  8
0
100
AcDbLine
 10
934.957531
 20
107.654918
 30
0.0
 11
920.4163919999999
 21
107.654918
 31
0.0
  0
LINE
  5
4EB
330
6B
100
AcDbEntity
  8
0
100
AcDbLine
 10
920.4163919999999
 20
106.0955
 30
0.0
 11
934.957531
 21
106.0955
 31
0.0
  0
LINE
  5
512
330
6B
100
AcDbEntity
  8
0
100
AcDbLine
 10
920.4163919999999
 20
102.851508
 30
0.0
 11
934.957531
 21
102.851508
 31
0.0
  0
LINE
  5
51A
330
6B
100
AcDbEntity
  8
0
100
AcDbLine
 10
934.957531
 20
104.409488
 30
0.0
 11
920.4163919999999
 21
104.409488
 31
0.0
  0
LINE
  5
541
330
6B
100
AcDbEntity
  8
0
100
AcDbLine
 10
881.255441
 20
94.256009
 30
0.0
 11
866.7135829999999
 21
94.256009
 31
0.0
  0
LINE
  5
549
330
6B
100
AcDbEntity
  8
0
100
AcDbLine
 10
866.7135829999999
 20
92.69946899999998
 30
0.0
 11
881.255441
 21
92.69946899999998
 31
0.0
  0
LINE
  5
570
330
6B
100
AcDbEntity
  8
0
100
AcDbLine
 10
908.1072050000001
 20
114.147217
 30
0.0
 11
893.5660659999998
 21
114.147217
 31
0.0
  0
LINE
  5
578
330
6B
100
AcDbEntity
  8
0
100
AcDbLine
 10
893.5660659999998
 20
112.589238
 30
0.0
 11
908.1072050000001
 21
112.589238
 31
0.0
  0
LINE
  5
59F
330
6B
100
AcDbEntity
  8
0
100
AcDbLine
 10
934.957531
 20
110.900348
 30
0.0
 11
920.4163919999999
 21
110.900348
 31
0.0
  0
LINE
  5
5A7
330
6B
100
AcDbEntity
  8
0
100
AcDbLine
 10
920.4163919999999
 20
109.343808
 30
0.0
 11
934.957531
 21
109.343808
 31
0.0
  0
LINE
  5
5C2
330
6B
100
AcDbEntity
  8
0
100
AcDbLine
 10
866.7135829999999
 20
112.589238
 30
0.0
 11
881.255441
 21
112.589238
 31
0.0
  0
LINE
  5
5CA
330
6B
100
AcDbEntity
  8
0
100
AcDbLine
 10
881.255441
 20
114.147217
 30
0.0
 11
866.7135829999999
 21
114.147217
 31
0.0
  0
LINE
  5
5DE
330
6B
100
AcDbEntity
  8
0
100
AcDbLine
 10
881.255441
 20
91.00914000000001
 30
0.0
 11
866.7135829999999
 21
91.00914000000001
 31
0.0
  0
LINE
  5
5E6
330
6B
100
AcDbEntity
  8
0
100
AcDbLine
 10
866.7135829999999
 20
89.45260000000002
 30
0.0
 11
881.255441
 21
89.45260000000002
 31
0.0
  0
LINE
  5
60D
330
6B
100
AcDbEntity
  8
0
100
AcDbLine
 10
908.1072050000001
 20
110.900348
 30
0.0
 11
893.5660659999998
 21
110.900348
 31
0.0
  0
LINE
  5
615
330
6B
100
AcDbEntity
  8
0
100
AcDbLine
 10
893.5660659999998
 20
109.343808
 30
0.0
 11
908.1072050000001
 21
109.343808
 31
0.0
  0
LINE
  5
63C
330
6B
100
AcDbEntity
  8
0
100
AcDbLine
 10
866.7135829999999
 20
102.851508
 30
0.0
 11
881.255441
 21
102.851508
 31
0.0
  0
LINE
  5
644
330
6B
100
AcDbEntity
  8
0
100
AcDbLine
 10
881.255441
 20
104.409488
 30
0.0
 11
866.7135829999999
 21
104.409488
 31
0.0
  0
LINE
  5
66B
330
6B
100
AcDbEntity
  8
0
100
AcDbLine
 10
881.255441
 20
107.654918
 30
0.0
 11
866.7135829999999
 21
107.654918
 31
0.0
  0
LINE
  5
673
330
6B
100
AcDbEntity
  8
0
100
AcDbLine
 10
866.7135829999999
 20
106.0955
 30
0.0
 11
881.255441
 21
106.0955
 31
0.0
  0
LINE
  5
69A
330
6B
100
AcDbEntity
  8
0
100
AcDbLine
 10
908.1072050000001
 20
107.654918
 30
0.0
 11
893.5660659999998
 21
107.654918
 31
0.0
  0
LINE
  5
6A2
330
6B
100
AcDbEntity
  8
0
100
AcDbLine
 10
893.5660659999998
 20
106.0955
 30
0.0
 11
908.1072050000001
 21
106.0955
 31
0.0
  0
LINE
  5
6C9
330
6B
100
AcDbEntity
  8
0
100
AcDbLine
 10
881.255441
 20
110.900348
 30
0.0
 11
866.7135829999999
 21
110.900348
 31
0.0
  0
LINE
  5
6D1
330
6B
100
AcDbEntity
  8
0
100
AcDbLine
 10
866.7135829999999
 20
109.343808
 30
0.0
 11
881.255441
 21
109.343808
 31
0.0
  0
LINE
  5
6F8
330
6B
100
AcDbEntity
  8
0
100
AcDbLine
 10
893.5660659999998
 20
102.851508
 30
0.0
 11
908.1072050000001
 21
102.851508
 31
0.0
  0
LINE
  5
700
330
6B
100
AcDbEntity
  8
0
100
AcDbLine
 10
908.1072050000001
 20
104.409488
 30
0.0
 11
893.5660659999998
 21
104.409488
 31
0.0
  0
LINE
  5
714
330
6B
100
AcDbEntity
  8
0
100
AcDbLine
 10
873.892797
 20
62.22033399999999
 30
0.0
 11
872.936789
 21
57.22033399999999
 31
0.0
  0
LINE
  5
715
330
6B
100
AcDbEntity
  8
0
100
AcDbLine
 10
872.936789
 20
57.22033399999999
 30
0.0
 11
864.2369909999999
 21
57.22033399999999
 31
0.0
  0
LINE
  5
716
330
6B
100
AcDbEntity
  8
0
100
AcDbLine
 10
864.2369909999999
 20
57.22033399999999
 30
0.0
 11
863.5677820000001
 21
62.22033399999999
 31
0.0
  0
LINE
  5
717
330
6B
100
AcDbEntity
  8
0
100
AcDbLine
 10
938.1074099999999
 20
62.22033399999999
 30
0.0
 11
937.438586
 21
57.223211
 31
0.0
  0
LINE
  5
718
330
6B
100
AcDbEntity
  8
0
100
AcDbLine
 10
937.438586
 20
57.223211
 30
0.0
 11
928.7351929999999
 21
57.223211
 31
0.0
  0
LINE
  5
719
330
6B
100
AcDbEntity
  8
0
100
AcDbLine
 10
928.7351929999999
 20
57.223211
 30
0.0
 11
927.7797339999999
 21
62.22033399999999
 31
0.0
  0
CIRCLE
  5
71A
330
6B
100
AcDbEntity
  8
0
100
AcDbCircle
 10
752.8273719999997
 20
125.495659
 30
0.0
 40
2.25
  0
LINE
  5
71B
330
6B
100
AcDbEntity
  8
0
100
AcDbLine
 10
813.5825739999997
 20
88.47033399999999
 30
0.0
 11
813.5825739999997
 21
69.97033399999999
 31
0.0
  0
LINE
  5
71C
330
6B
100
AcDbEntity
  8
0
100
AcDbLine
 10
807.082574
 20
88.47033399999999
 30
0.0
 11
807.082574
 21
69.97033399999999
 31
0.0
  0
LINE
  5
71D
330
6B
100
AcDbEntity
  8
0
100
AcDbLine
 10
813.5825739999997
 20
88.47033399999999
 30
0.0
 11
807.082574
 21
88.47033399999999
 31
0.0
  0
LINE
  5
71E
330
6B
100
AcDbEntity
  8
0
100
AcDbLine
 10
807.082574
 20
69.97033399999999
 30
0.0
 11
813.5825739999997
 21
69.97033399999999
 31
0.0
  0
LINE
  5
71F
330
6B
100
AcDbEntity
  8
0
100
AcDbLine
 10
814.3325739999996
 20
89.220334
 30
0.0
 11
813.5825739999997
 21
88.47033399999999
 31
0.0
  0
LINE
  5
720
330
6B
100
AcDbEntity
  8
0
100
AcDbLine
 10
807.082574
 20
88.47033399999999
 30
0.0
 11
806.3325739999996
 21
89.220334
 31
0.0
  0
LINE
  5
721
330
6B
100
AcDbEntity
  8
0
100
AcDbLine
 10
813.5825739999997
 20
69.97033399999999
 30
0.0
 11
814.3325739999996
 21
69.220334
 31
0.0
  0
LINE
  5
722
330
6B
100
AcDbEntity
  8
0
100
AcDbLine
 10
807.082574
 20
69.97033399999999
 30
0.0
 11
806.3325739999996
 21
69.220334
 31
0.0
  0
LINE
  5
723
330
6B
100
AcDbEntity
  8
0
100
AcDbLine
 10
794.082574
 20
88.47033399999999
 30
0.0
 11
794.082574
 21
69.97033399999999
 31
0.0
  0
LINE
  5
724
330
6B
100
AcDbEntity
  8
0
100
AcDbLine
 10
800.582574
 20
88.47033399999999
 30
0.0
 11
800.582574
 21
69.97033399999999
 31
0.0
  0
LINE
  5
725
330
6B
100
AcDbEntity
  8
0
100
AcDbLine
 10
794.082574
 20
69.97033399999999
 30
0.0
 11
800.582574
 21
69.97033399999999
 31
0.0
  0
LINE
  5
726
330
6B
100
AcDbEntity
  8
0
100
AcDbLine
 10
800.582574
 20
88.47033399999999
 30
0.0
 11
794.082574
 21
88.47033399999999
 31
0.0
  0
LINE
  5
727
330
6B
100
AcDbEntity
  8
0
100
AcDbLine
 10
801.332574
 20
89.220334
 30
0.0
 11
800.582574
 21
88.47033399999999
 31
0.0
  0
LINE
  5
728
330
6B
100
AcDbEntity
  8
0
100
AcDbLine
 10
794.082574
 20
88.47033399999999
 30
0.0
 11
793.332574
 21
89.220334
 31
0.0
  0
LINE
  5
729
330
6B
100
AcDbEntity
  8
0
100
AcDbLine
 10
800.582574
 20
69.97033399999999
 30
0.0
 11
801.332574
 21
69.220334
 31
0.0
  0
LINE
  5
72A
330
6B
100
AcDbEntity
  8
0
100
AcDbLine
 10
794.082574
 20
69.97033399999999
 30
0.0
 11
793.332574
 21
69.220334
 31
0.0
  0
LINE
  5
72B
330
6B
100
AcDbEntity
  8
0
100
AcDbLine
 10
781.082574
 20
88.47033399999999
 30
0.0
 11
781.082574
 21
69.97033399999999
 31
0.0
  0
LINE
  5
72C
330
6B
100
AcDbEntity
  8
0
100
AcDbLine
 10
787.582574
 20
88.47033399999999
 30
0.0
 11
787.582574
 21
69.97033399999999
 31
0.0
  0
LINE
  5
72D
330
6B
100
AcDbEntity
  8
0
100
AcDbLine
 10
781.082574
 20
69.97033399999999
 30
0.0
 11
787.582574
 21
69.97033399999999
 31
0.0
  0
LINE
  5
72E
330
6B
100
AcDbEntity
  8
0
100
AcDbLine
 10
787.582574
 20
88.47033399999999
 30
0.0
 11
781.082574
 21
88.47033399999999
 31
0.0
  0
LINE
  5
72F
330
6B
100
AcDbEntity
  8
0
100
AcDbLine
 10
788.332574
 20
89.220334
 30
0.0
 11
787.582574
 21
88.47033399999999
 31
0.0
  0
LINE
  5
730
330
6B
100
AcDbEntity
  8
0
100
AcDbLine
 10
781.082574
 20
88.47033399999999
 30
0.0
 11
780.332574
 21
89.220334
 31
0.0
  0
LINE
  5
731
330
6B
100
AcDbEntity
  8
0
100
AcDbLine
 10
787.582574
 20
69.97033399999999
 30
0.0
 11
788.332574
 21
69.220334
 31
0.0
  0
LINE
  5
732
330
6B
100
AcDbEntity
  8
0
100
AcDbLine
 10
781.082574
 20
69.97033399999999
 30
0.0
 11
780.332574
 21
69.220334
 31
0.0
  0
LINE
  5
733
330
6B
100
AcDbEntity
  8
0
100
AcDbLine
 10
768.082574
 20
88.47033399999999
 30
0.0
 11
768.082574
 21
69.97033399999999
 31
0.0
  0
LINE
  5
734
330
6B
100
AcDbEntity
  8
0
100
AcDbLine
 10
774.582574
 20
88.47033399999999
 30
0.0
 11
774.582574
 21
69.97033399999999
 31
0.0
  0
LINE
  5
735
330
6B
100
AcDbEntity
  8
0
100
AcDbLine
 10
768.082574
 20
69.97033399999999
 30
0.0
 11
774.582574
 21
69.97033399999999
 31
0.0
  0
LINE
  5
736
330
6B
100
AcDbEntity
  8
0
100
AcDbLine
 10
774.582574
 20
88.47033399999999
 30
0.0
 11
768.082574
 21
88.47033399999999
 31
0.0
  0
LINE
  5
737
330
6B
100
AcDbEntity
  8
0
100
AcDbLine
 10
775.332574
 20
89.220334
 30
0.0
 11
774.582574
 21
88.47033399999999
 31
0.0
  0
LINE
  5
738
330
6B
100
AcDbEntity
  8
0
100
AcDbLine
 10
768.082574
 20
88.47033399999999
 30
0.0
 11
767.332574
 21
89.220334
 31
0.0
  0
LINE
  5
739
330
6B
100
AcDbEntity
  8
0
100
AcDbLine
 10
774.582574
 20
69.97033399999999
 30
0.0
 11
775.332574
 21
69.220334
 31
0.0
  0
LINE
  5
73A
330
6B
100
AcDbEntity
  8
0
100
AcDbLine
 10
768.082574
 20
69.97033399999999
 30
0.0
 11
767.332574
 21
69.220334
 31
0.0
  0
LINE
  5
73B
330
6B
100
AcDbEntity
  8
0
100
AcDbLine
 10
755.082574
 20
88.47033399999999
 30
0.0
 11
755.082574
 21
69.97033399999999
 31
0.0
  0
LINE
  5
73C
330
6B
100
AcDbEntity
  8
0
100
AcDbLine
 10
761.582574
 20
88.47033399999999
 30
0.0
 11
761.582574
 21
69.97033399999999
 31
0.0
  0
LINE
  5
73D
330
6B
100
AcDbEntity
  8
0
100
AcDbLine
 10
755.082574
 20
69.97033399999999
 30
0.0
 11
761.582574
 21
69.97033399999999
 31
0.0
  0
LINE
  5
73E
330
6B
100
AcDbEntity
  8
0
100
AcDbLine
 10
761.582574
 20
88.47033399999999
 30
0.0
 11
755.082574
 21
88.47033399999999
 31
0.0
  0
LINE
  5
73F
330
6B
100
AcDbEntity
  8
0
100
AcDbLine
 10
762.332574
 20
89.220334
 30
0.0
 11
761.582574
 21
88.47033399999999
 31
0.0
  0
LINE
  5
740
330
6B
100
AcDbEntity
  8
0
100
AcDbLine
 10
755.082574
 20
88.47033399999999
 30
0.0
 11
754.332574
 21
89.220334
 31
0.0
  0
LINE
  5
741
330
6B
100
AcDbEntity
  8
0
100
AcDbLine
 10
761.582574
 20
69.97033399999999
 30
0.0
 11
762.332574
 21
69.220334
 31
0.0
  0
LINE
  5
742
330
6B
100
AcDbEntity
  8
0
100
AcDbLine
 10
755.082574
 20
69.97033399999999
 30
0.0
 11
754.332574
 21
69.220334
 31
0.0
  0
LINE
  5
743
330
6B
100
AcDbEntity
  8
0
100
AcDbLine
 10
820.332574
 20
90.22033399999999
 30
0.0
 11
820.332574
 21
69.72033399999999
 31
0.0
  0
LINE
  5
744
330
6B
100
AcDbEntity
  8
0
100
AcDbLine
 10
748.332574
 20
90.22033399999999
 30
0.0
 11
748.332574
 21
69.72033399999999
 31
0.0
  0
LINE
  5
745
330
6B
100
AcDbEntity
  8
0
100
AcDbLine
 10
749.832574
 20
68.22033399999999
 30
0.0
 11
818.8325739999996
 21
68.22033399999999
 31
0.0
  0
ARC
  5
746
330
6B
100
AcDbEntity
  8
0
100
AcDbCircle
 10
818.8325739999996
 20
69.72033399999999
 30
0.0
 40
1.5
100
AcDbArc
 50
270.0
 51
0.0
  0
ARC
  5
747
330
6B
100
AcDbEntity
  8
0
100
AcDbCircle
 10
749.832574
 20
69.72033399999999
 30
0.0
 40
1.5
100
AcDbArc
 50
180.0
 51
270.0
  0
LINE
  5
748
330
6B
100
AcDbEntity
  8
0
100
AcDbLine
 10
748.332574
 20
90.22033399999999
 30
0.0
 11
820.332574
 21
90.22033399999999
 31
0.0
  0
TEXT
  5
749
330
6B
100
AcDbEntity
  8
0
100
AcDbText
 10
762.1353659999997
 20
64.916349
 30
0.0
 40
1.45
  1
IN/OUT PUT AC100V-240V  1500VA     SU-1500
100
AcDbText
  0
TEXT
  5
74A
330
6B
100
AcDbEntity
  8
0
100
AcDbText
 10
755.767342
 20
91.001498
 30
0.0
 40
1.6
  1
100V
100
AcDbText
  0
TEXT
  5
74B
330
6B
100
AcDbEntity
  8
0
100
AcDbText
 10
768.767342
 20
91.001498
 30
0.0
 40
1.6
  1
120V
100
AcDbText
  0
TEXT
  5
74C
330
6B
100
AcDbEntity
  8
0
100
AcDbText
 10
781.767342
 20
91.001498
 30
0.0
 40
1.6
  1
200V
100
AcDbText
  0
TEXT
  5
74D
330
6B
100
AcDbEntity
  8
0
100
AcDbText
 10
794.767342
 20
91.001498
 30
0.0
 40
1.6
  1
220V
100
AcDbText
  0
TEXT
  5
74E
330
6B
100
AcDbEntity
  8
0
100
AcDbText
 10
807.7673419999996
 20
91.001498
 30
0.0
 40
1.6
  1
240V
100
AcDbText
  0
TEXT
  5
74F
330
6B
100
AcDbEntity
  8
0
100
AcDbText
 10
771.250604
 20
119.157617
 30
0.0
 40
1.6
  1
UP-DOWN TRANSFORMER
100
AcDbText
  0
LINE
  5
750
330
6B
100
AcDbEntity
  8
0
100
AcDbLine
 10
824.7095269999999
 20
102.470334
 30
0.0
 11
824.3325739999997
 21
102.470334
 31
0.0
  0
LINE
  5
751
330
6B
100
AcDbEntity
  8
0
100
AcDbLine
 10
824.7095269999999
 20
99.470334
 30
0.0
 11
824.3325739999997
 21
99.470334
 31
0.0
  0
ARC
  5
752
330
6B
100
AcDbEntity
  8
0
100
AcDbCircle
 10
820.707574
 20
100.970334
 30
0.0
 40
4.625
100
AcDbArc
 50
345.970335
 51
14.029665
  0
ARC
  5
753
330
6B
100
AcDbEntity
  8
0
100
AcDbCircle
 10
824.7095269999999
 20
101.970334
 30
0.0
 40
0.5
100
AcDbArc
 50
14.029665
 51
90.0
  0
ARC
  5
754
330
6B
100
AcDbEntity
  8
0
100
AcDbCircle
 10
824.7095269999999
 20
99.97033399999999
 30
0.0
 40
0.5
100
AcDbArc
 50
270.0
 51
345.970335
  0
ARC
  5
755
330
6B
100
AcDbEntity
  8
0
100
AcDbCircle
 10
747.957574
 20
100.970334
 30
0.0
 40
4.625
100
AcDbArc
 50
165.970335
 51
194.029665
  0
ARC
  5
756
330
6B
100
AcDbEntity
  8
0
100
AcDbCircle
 10
743.955622
 20
99.97033399999999
 30
0.0
 40
0.5
100
AcDbArc
 50
194.029665
 51
270.0
  0
ARC
  5
757
330
6B
100
AcDbEntity
  8
0
100
AcDbCircle
 10
743.955622
 20
101.970334
 30
0.0
 40
0.5
100
AcDbArc
 50
90.0
 51
165.970335
  0
LINE
  5
758
330
6B
100
AcDbEntity
  8
0
100
AcDbLine
 10
744.332574
 20
102.470334
 30
0.0
 11
743.955622
 21
102.470334
 31
0.0
  0
LINE
  5
759
330
6B
100
AcDbEntity
  8
0
100
AcDbLine
 10
744.332574
 20
99.470334
 30
0.0
 11
743.955622
 21
99.470334
 31
0.0
  0
LINE
  5
75A
330
6B
100
AcDbEntity
  8
0
100
AcDbLine
 10
1035.544249
 20
62.22033399999999
 30
0.0
 11
1036.690369
 21
57.22033399999999
 31
0.0
  0
LINE
  5
75B
330
6B
100
AcDbEntity
  8
0
100
AcDbLine
 10
1036.690369
 20
57.22033399999999
 30
0.0
 11
1045.151362
 21
57.22033399999999
 31
0.0
  0
LINE
  5
75C
330
6B
100
AcDbEntity
  8
0
100
AcDbLine
 10
1045.151362
 20
57.22033399999999
 30
0.0
 11
1046.133393
 21
62.22033399999999
 31
0.0
  0
LINE
  5
75D
330
6B
100
AcDbEntity
  8
0
100
AcDbLine
 10
983.7111919999999
 20
62.22033399999999
 30
0.0
 11
984.6907279999999
 21
57.22033399999999
 31
0.0
  0
LINE
  5
75E
330
6B
100
AcDbEntity
  8
0
100
AcDbLine
 10
984.6907279999999
 20
57.22033399999999
 30
0.0
 11
993.1510019999999
 21
57.22033399999999
 31
0.0
  0
LINE
  5
75F
330
6B
100
AcDbEntity
  8
0
100
AcDbLine
 10
993.1510019999999
 20
57.22033399999999
 30
0.0
 11
994.296499
 21
62.22033399999999
 31
0.0
  0
LINE
  5
760
330
6B
100
AcDbEntity
  8
0
100
AcDbLine
 10
1055.297818
 20
99.470334
 30
0.0
 11
1054.920865
 21
99.470334
 31
0.0
  0
LINE
  5
761
330
6B
100
AcDbEntity
  8
0
100
AcDbLine
 10
974.9208649999999
 20
99.470334
 30
0.0
 11
974.5439129999999
 21
99.470334
 31
0.0
  0
LINE
  5
762
330
6B
100
AcDbEntity
  8
0
100
AcDbLine
 10
1055.297818
 20
102.470334
 30
0.0
 11
1054.920865
 21
102.470334
 31
0.0
  0
LINE
  5
763
330
6B
100
AcDbEntity
  8
0
100
AcDbLine
 10
974.9208649999999
 20
102.470334
 30
0.0
 11
974.5439129999999
 21
102.470334
 31
0.0
  0
ARC
  5
764
330
6B
100
AcDbEntity
  8
0
100
AcDbCircle
 10
1051.295865
 20
100.970334
 30
0.0
 40
4.625
100
AcDbArc
 50
345.970335
 51
14.029665
  0
ARC
  5
765
330
6B
100
AcDbEntity
  8
0
100
AcDbCircle
 10
1055.297818
 20
99.97033399999999
 30
0.0
 40
0.5
100
AcDbArc
 50
270.0
 51
345.970335
  0
ARC
  5
766
330
6B
100
AcDbEntity
  8
0
100
AcDbCircle
 10
1055.297818
 20
101.970334
 30
0.0
 40
0.5
100
AcDbArc
 50
14.029665
 51
90.0
  0
ARC
  5
767
330
6B
100
AcDbEntity
  8
0
100
AcDbCircle
 10
978.545865
 20
100.970334
 30
0.0
 40
4.625
100
AcDbArc
 50
165.970335
 51
194.029665
  0
ARC
  5
768
330
6B
100
AcDbEntity
  8
0
100
AcDbCircle
 10
974.5439129999999
 20
99.97033399999999
 30
0.0
 40
0.5
100
AcDbArc
 50
194.029665
 51
270.0
  0
ARC
  5
769
330
6B
100
AcDbEntity
  8
0
100
AcDbCircle
 10
974.5439129999999
 20
101.970334
 30
0.0
 40
0.5
100
AcDbArc
 50
90.0
 51
165.970335
  0
CIRCLE
  5
76A
330
6B
100
AcDbEntity
  8
0
100
AcDbCircle
 10
943.83689
 20
100.970334
 30
0.0
 40
1.5
  0
CIRCLE
  5
76B
330
6B
100
AcDbEntity
  8
0
100
AcDbCircle
 10
857.83689
 20
100.970334
 30
0.0
 40
1.5
  0
LINE
  5
76C
330
6B
100
AcDbEntity
  8
0
100
AcDbLine
 10
854.48689
 20
89.220334
 30
0.0
 11
854.58689
 21
89.220334
 31
0.0
  0
LINE
  5
76D
330
6B
100
AcDbEntity
  8
0
100
AcDbLine
 10
854.48689
 20
69.220334
 30
0.0
 11
854.58689
 21
69.220334
 31
0.0
  0
LINE
  5
76E
330
6B
100
AcDbEntity
  8
0
100
AcDbLine
 10
853.73689
 20
88.47033399999999
 30
0.0
 11
853.73689
 21
69.97033399999999
 31
0.0
  0
LINE
  5
76F
330
6B
100
AcDbEntity
  8
0
100
AcDbLine
 10
854.48689
 20
89.220334
 30
0.0
 11
853.73689
 21
88.47033399999999
 31
0.0
  0
LINE
  5
770
330
6B
100
AcDbEntity
  8
0
100
AcDbLine
 10
853.73689
 20
69.97033399999999
 30
0.0
 11
854.48689
 21
69.220334
 31
0.0
  0
CIRCLE
  5
771
330
6B
100
AcDbEntity
  8
0
100
AcDbCircle
 10
1014.920865
 20
119.720334
 30
0.0
 40
8.0
  0
ARC
  5
772
330
6B
100
AcDbEntity
  8
0
100
AcDbCircle
 10
1014.920865
 20
119.720334
 30
0.0
 40
4.0
100
AcDbArc
 50
99.352035
 51
80.64796499999998
  0
CIRCLE
  5
773
330
6B
100
AcDbEntity
  8
0
100
AcDbCircle
 10
1024.920865
 20
119.720334
 30
0.0
 40
1.625
  0
CIRCLE
  5
774
330
6B
100
AcDbEntity
  8
0
100
AcDbCircle
 10
1004.920865
 20
119.720334
 30
0.0
 40
1.625
  0
LINE
  5
775
330
6B
100
AcDbEntity
  8
0
100
AcDbLine
 10
1014.420865
 20
124.970334
 30
0.0
 11
1015.420865
 21
124.970334
 31
0.0
  0
LINE
  5
776
330
6B
100
AcDbEntity
  8
0
100
AcDbLine
 10
1015.570865
 20
123.720334
 30
0.0
 11
1015.570865
 21
115.773499
 31
0.0
  0
LINE
  5
777
330
6B
100
AcDbEntity
  8
0
100
AcDbLine
 10
1014.270865
 20
123.720334
 30
0.0
 11
1014.270865
 21
115.773499
 31
0.0
  0
LINE
  5
778
330
6B
100
AcDbEntity
  8
0
100
AcDbLine
 10
1015.420865
 20
124.970334
 30
0.0
 11
1015.420865
 21
123.720334
 31
0.0
  0
LINE
  5
779
330
6B
100
AcDbEntity
  8
0
100
AcDbLine
 10
1014.420865
 20
124.970334
 30
0.0
 11
1014.420865
 21
123.720334
 31
0.0
  0
LINE
  5
77A
330
6B
100
AcDbEntity
  8
0
100
AcDbLine
 10
1015.570865
 20
123.720334
 30
0.0
 11
1014.270865
 21
123.720334
 31
0.0
  0
TEXT
  5
77B
330
6B
100
AcDbEntity
  8
0
100
AcDbText
 10
1012.50128
 20
125.618856
 30
0.0
 40
1.399999999999999
  1
100V
100
AcDbText
  0
TEXT
  5
77C
330
6B
100
AcDbEntity
  8
0
100
AcDbText
 10
1009.116939
 20
117.081888
 30
0.0
 40
1.399999999999999
  1
100V
 50
92.14285799999997
100
AcDbText
  0
TEXT
  5
77D
330
6B
100
AcDbEntity
  8
0
100
AcDbText
 10
1014.541563
 20
113.35613
 30
0.0
 40
1.399999999999999
  1
240V
 50
154.285722
100
AcDbText
  0
TEXT
  5
77E
330
6B
100
AcDbEntity
  8
0
100
AcDbText
 10
1019.660109
 20
115.455767
 30
0.0
 40
1.399999999999999
  1
220V
 50
205.714274
100
AcDbText
  0
TEXT
  5
77F
330
6B
100
AcDbEntity
  8
0
100
AcDbText
 10
1021.209908
 20
120.76671
 30
0.0
 40
1.399999999999999
  1
200V
 50
257.142853
100
AcDbText
  0
TEXT
  5
780
330
6B
100
AcDbEntity
  8
0
100
AcDbText
 10
1018.023929
 20
125.28971
 30
0.0
 40
1.399999999999999
  1
120V
 50
308.5714450000001
100
AcDbText
  0
LINE
  5
781
330
6B
100
AcDbEntity
  8
0
100
AcDbLine
 10
948.08689
 20
73.46474499999998
 30
0.0
 11
947.0868900000001
 21
73.46474499999998
 31
0.0
  0
LINE
  5
782
330
6B
100
AcDbEntity
  8
0
100
AcDbLine
 10
948.08689
 20
67.47501800000001
 30
0.0
 11
947.0868900000001
 21
67.47501800000001
 31
0.0
  0
LINE
  5
783
330
6B
100
AcDbEntity
  8
0
100
AcDbLine
 10
948.08689
 20
73.46474499999998
 30
0.0
 11
948.08689
 21
67.47501800000001
 31
0.0
  0
ARC
  5
784
330
6B
100
AcDbEntity
  8
0
100
AcDbCircle
 10
821.832574
 20
132.220334
 30
0.0
 40
2.0
100
AcDbArc
 50
0.0
 51
90.0
  0
LINE
  5
785
330
6B
100
AcDbEntity
  8
0
100
AcDbLine
 10
821.832574
 20
134.220334
 30
0.0
 11
746.832574
 21
134.220334
 31
0.0
  0
LINE
  5
786
330
6B
100
AcDbEntity
  8
0
100
AcDbLine
 10
823.832574
 20
132.220334
 30
0.0
 11
823.832574
 21
64.72033399999999
 31
0.0
  0
ARC
  5
787
330
6B
100
AcDbEntity
  8
0
100
AcDbCircle
 10
746.832574
 20
132.220334
 30
0.0
 40
2.0
100
AcDbArc
 50
90.0
 51
180.0
  0
LINE
  5
788
330
6B
100
AcDbEntity
  8
0
100
AcDbLine
 10
744.832574
 20
132.220334
 30
0.0
 11
744.832574
 21
64.72033399999999
 31
0.0
  0
ARC
  5
789
330
6B
100
AcDbEntity
  8
0
100
AcDbCircle
 10
746.832574
 20
64.72033399999999
 30
0.0
 40
2.0
100
AcDbArc
 50
180.0
 51
270.0
  0
LINE
  5
78A
330
6B
100
AcDbEntity
  8
0
100
AcDbLine
 10
746.832574
 20
62.72033399999997
 30
0.0
 11
821.832574
 21
62.72033399999997
 31
0.0
  0
ARC
  5
78B
330
6B
100
AcDbEntity
  8
0
100
AcDbCircle
 10
821.832574
 20
64.72033399999999
 30
0.0
 40
2.0
100
AcDbArc
 50
270.0
 51
0.0
  0
LINE
  5
78C
330
6B
100
AcDbEntity
  8
0
100
AcDbLine
 10
977.420865
 20
62.72033399999997
 30
0.0
 11
1052.420865
 21
62.72033399999997
 31
0.0
  0
ARC
  5
78D
330
6B
100
AcDbEntity
  8
0
100
AcDbCircle
 10
977.420865
 20
64.72033399999999
 30
0.0
 40
2.0
100
AcDbArc
 50
180.0
 51
270.0
  0
LINE
  5
78E
330
6B
100
AcDbEntity
  8
0
100
AcDbLine
 10
975.420865
 20
132.220334
 30
0.0
 11
975.420865
 21
64.72033399999999
 31
0.0
  0
ARC
  5
78F
330
6B
100
AcDbEntity
  8
0
100
AcDbCircle
 10
977.420865
 20
132.220334
 30
0.0
 40
2.0
100
AcDbArc
 50
90.0
 51
180.0
  0
LINE
  5
790
330
6B
100
AcDbEntity
  8
0
100
AcDbLine
 10
1052.420865
 20
134.220334
 30
0.0
 11
977.420865
 21
134.220334
 31
0.0
  0
ARC
  5
791
330
6B
100
AcDbEntity
  8
0
100
AcDbCircle
 10
1052.420865
 20
132.220334
 30
0.0
 40
2.0
100
AcDbArc
 50
0.0
 51
90.0
  0
LINE
  5
792
330
6B
100
AcDbEntity
  8
0
100
AcDbLine
 10
1054.420865
 20
132.220334
 30
0.0
 11
1054.420865
 21
71.97476400000002
 31
0.0
  0
LINE
  5
793
330
6B
100
AcDbEntity
  8
0
100
AcDbLine
 10
1054.420865
 20
69.47476400000001
 30
0.0
 11
1054.420865
 21
64.72033399999999
 31
0.0
  0
ARC
  5
794
330
6B
100
AcDbEntity
  8
0
100
AcDbCircle
 10
1052.420865
 20
64.72033399999999
 30
0.0
 40
2.0
100
AcDbArc
 50
270.0
 51
0.0
  0
TEXT
  5
795
330
6B
100
AcDbEntity
  8
0
 62
     3
100
AcDbText
 10
1006.093535597312
 20
14.366405
 30
0.0
 40
3.2
  1
SU-1500
  7
高3.2
100
AcDbText
  0
TEXT
  5
796
330
6B
100
AcDbEntity
  8
0
 62
     3
100
AcDbText
 10
1006.093535597312
 20
8.822404999999998
 30
0.0
 40
3.2
  1
1.5KVA
  7
高3.2
100
AcDbText
  0
TEXT
  5
797
330
6B
100
AcDbEntity
  8
0
 62
     3
100
AcDbText
 10
1006.093535597312
 20
-13.353595
 30
0.0
 40
3.2
  1
約10kg
  7
高3.2
100
AcDbText
  0
TEXT
  5
798
330
6B
100
AcDbEntity
  8
0
 62
     3
100
AcDbText
 10
1008.044367566576
 20
-53.355187
 30
0.0
 40
4.5
  1
SU-1500
  7
高4.5
100
AcDbText
  0
TEXT
  5
799
330
6B
100
AcDbEntity
  8
0
 62
     3
100
AcDbText
 10
1051.573359737254
 20
-77.05748599999998
 30
0.0
 40
6.299999999999998
  1
SU-1500
  7
高6.3
100
AcDbText
  0
LINE
  5
79A
330
6B
100
AcDbEntity
  8
0
100
AcDbLine
 10
707.642242
 20
-67.831887
 30
0.0
 11
817.067254923657
 21
-67.831887
 31
0.0
  0
LINE
  5
79B
330
6B
100
AcDbEntity
  8
0
100
AcDbLine
 10
707.642242
 20
-62.83188699999999
 30
0.0
 11
817.067254923657
 21
-62.83188699999999
 31
0.0
  0
LINE
  5
79C
330
6B
100
AcDbEntity
  8
0
100
AcDbLine
 10
707.642242
 20
-57.83188699999999
 30
0.0
 11
817.067254923657
 21
-57.83188699999999
 31
0.0
  0
LINE
  5
79D
330
6B
100
AcDbEntity
  8
0
100
AcDbLine
 10
707.642242
 20
-52.83188699999999
 30
0.0
 11
817.067254923657
 21
-52.83188699999999
 31
0.0
  0
LINE
  5
79E
330
6B
100
AcDbEntity
  8
0
100
AcDbLine
 10
707.642242
 20
-47.83188699999998
 30
0.0
 11
817.067254923657
 21
-47.83188699999998
 31
0.0
  0
LINE
  5
79F
330
6B
100
AcDbEntity
  8
0
 62
     3
100
AcDbLine
 10
707.642242
 20
-72.831887
 30
0.0
 11
817.067254923657
 21
-72.831887
 31
0.0
  0
LINE
  5
7A0
330
6B
100
AcDbEntity
  8
0
100
AcDbLine
 10
707.642242
 20
-42.83188699999995
 30
0.0
 11
817.067254923657
 21
-42.83188699999995
 31
0.0
  0
LINE
  5
7A1
330
6B
100
AcDbEntity
  8
0
100
AcDbLine
 10
707.642242
 20
-32.83188699999999
 30
0.0
 11
817.067254923657
 21
-32.83188699999999
 31
0.0
  0
LINE
  5
7A2
330
6B
100
AcDbEntity
  8
0
100
AcDbLine
 10
707.642242
 20
-27.83188699999999
 30
0.0
 11
817.067254923657
 21
-27.83188699999999
 31
0.0
  0
LINE
  5
7A3
330
6B
100
AcDbEntity
  8
0
100
AcDbLine
 10
707.642242
 20
-37.83188699999997
 30
0.0
 11
817.067254923657
 21
-37.83188699999997
 31
0.0
  0
LINE
  5
7A4
330
6B
100
AcDbEntity
  8
0
100
AcDbLine
 10
707.642242
 20
-22.83188699999999
 30
0.0
 11
817.067254923657
 21
-22.83188699999999
 31
0.0
  0
LINE
  5
7A5
330
6B
100
AcDbEntity
  8
0
 62
     3
100
AcDbLine
 10
707.642242
 20
-17.83188699999999
 30
0.0
 11
817.067254923657
 21
-17.83188699999999
 31
0.0
  0
TEXT
  5
7A6
330
6B
100
AcDbEntity
  8
0
 62
     3
100
AcDbText
 10
1076.520836400353
 20
-37.522027
 30
0.0
 40
4.5
  1
5795
  7
高4.5
100
AcDbText
  0
TEXT
  5
884
330
6B
100
AcDbEntity
  8
0
 62
     3
100
AcDbText
 10
1085.142242
 20
186.723474
 30
0.0
 40
3.2
  1
担　当
  7
高3.2
100
AcDbText
  0
TEXT
  5
885
330
6B
100
AcDbEntity
  8
0
 62
     3
100
AcDbText
 10
1041.142242
 20
186.723474
 30
0.0
 40
3.2
  1
変更・追記内容
  7
高3.2
100
AcDbText
  0
TEXT
  5
886
330
6B
100
AcDbEntity
  8
0
 62
     3
100
AcDbText
 10
1016.255757000339
 20
182.0529354900917
 30
0.0
 40
2.0
  1
1
  7
高2
100
AcDbText
  0
TEXT
  5
887
330
6B
100
AcDbEntity
  8
0
 62
     3
100
AcDbText
 10
1015.947245523582
 20
176.8831187778188
 30
0.0
 40
2.0
  1
2
  7
高2
100
AcDbText
  0
TEXT
  5
888
330
6B
100
AcDbEntity
  8
0
 62
     3
100
AcDbText
 10
1023.142242
 20
186.723474
 30
0.0
 40
3.2
  1
日　付
  7
高3.2
100
AcDbText
  0
TEXT
  5
889
330
6B
100
AcDbEntity
  8
0
 62
     3
100
AcDbText
 10
1023.142242
 20
191.723474
 30
0.0
 40
3.2
  1
図　　　　面　　　　略　　　　歴
  7
高3.2
100
AcDbText
  0
TEXT
  5
88A
330
6B
100
AcDbEntity
  8
0
 62
     3
100
AcDbText
 10
1013.142242
 20
186.723474
 30
0.0
 40
3.2
  1
記号
  7
高3.2
100
AcDbText
  0
LINE
  5
88B
330
6B
100
AcDbEntity
  8
0
100
AcDbLine
 10
1016.642242
 20
180.0143699999999
 30
0.0
 11
1014.742242
 21
176.723474
 31
0.0
  0
LINE
  5
88C
330
6B
100
AcDbEntity
  8
0
100
AcDbLine
 10
1016.642242
 20
180.0143699999999
 30
0.0
 11
1018.542242
 21
176.723474
 31
0.0
  0
LINE
  5
88D
330
6B
100
AcDbEntity
  8
0
100
AcDbLine
 10
1014.742242
 20
176.723474
 30
0.0
 11
1018.542242
 21
176.723474
 31
0.0
  0
LINE
  5
88E
330
6B
100
AcDbEntity
  8
0
100
AcDbLine
 10
1016.642242
 20
185.014371
 30
0.0
 11
1014.742242
 21
181.723474
 31
0.0
  0
LINE
  5
88F
330
6B
100
AcDbEntity
  8
0
100
AcDbLine
 10
1016.642242
 20
185.014371
 30
0.0
 11
1018.542242
 21
181.723474
 31
0.0
  0
LINE
  5
890
330
6B
100
AcDbEntity
  8
0
100
AcDbLine
 10
1014.742242
 20
181.723474
 30
0.0
 11
1018.542242
 21
181.723474
 31
0.0
  0
LINE
  5
891
330
6B
100
AcDbEntity
  8
0
 62
     3
100
AcDbLine
 10
1011.642242
 20
191.223474
 30
0.0
 11
1097.642242
 21
191.223474
 31
0.0
  0
LINE
  5
892
330
6B
100
AcDbEntity
  8
0
 62
     3
100
AcDbLine
 10
1011.642242
 20
186.223474
 30
0.0
 11
1097.642242
 21
186.223474
 31
0.0
  0
LINE
  5
893
330
6B
100
AcDbEntity
  8
0
 62
     7
100
AcDbLine
 10
1011.642242
 20
181.223474
 30
0.0
 11
1097.642242
 21
181.223474
 31
0.0
  0
LINE
  5
894
330
6B
100
AcDbEntity
  8
0
 62
     3
100
AcDbLine
 10
1011.642242
 20
176.223474
 30
0.0
 11
1097.642242
 21
176.223474
 31
0.0
  0
LINE
  5
895
330
6B
100
AcDbEntity
  8
0
 62
     7
100
AcDbLine
 10
1083.642242
 20
176.223474
 30
0.0
 11
1083.642242
 21
191.223474
 31
0.0
  0
LINE
  5
896
330
6B
100
AcDbEntity
  8
0
 62
     7
100
AcDbLine
 10
1039.642242
 20
176.223474
 30
0.0
 11
1039.642242
 21
191.223474
 31
0.0
  0
LINE
  5
897
330
6B
100
AcDbEntity
  8
0
 62
     7
100
AcDbLine
 10
1021.642242
 20
176.223474
 30
0.0
 11
1021.642242
 21
191.223474
 31
0.0
  0
LINE
  5
898
330
6B
100
AcDbEntity
  8
0
 62
     3
100
AcDbLine
 10
1011.642242
 20
176.223474
 30
0.0
 11
1011.642242
 21
196.223474
 31
0.0
  0
TEXT
  5
B00
330
6B
100
AcDbEntity
  8
0
  6
Continuous
100
AcDbText
 10
1023.142242
 20
181.723474
 30
0.0
 40
2.5
  1
'18.03.16
  7
高2.5
100
AcDbText
  0
TEXT
  5
B01
330
6B
100
AcDbEntity
  8
0
  6
Continuous
100
AcDbText
 10
1041.142242
 20
181.723474
 30
0.0
 40
2.5
  1
サイズ変更
  7
高2.5
100
AcDbText
  0
TEXT
  5
B02
330
6B
100
AcDbEntity
  8
0
  6
Continuous
100
AcDbText
 10
1085.142242
 20
181.723474
 30
0.0
 40
2.5
  1
今村
  7
高2.5
100
AcDbText
  0
LINE
  5
BAC
330
6B
100
AcDbEntity
  8
0
100
AcDbLine
 10
893.5660659999998
 20
104.409488
 30
0.0
 11
893.486975
 21
104.404134
 31
0.0
  0
LINE
  5
BAF
330
6B
100
AcDbEntity
  8
0
100
AcDbLine
 10
893.486975
 20
104.404134
 30
0.0
 11
893.4086849999996
 21
104.393748
 31
0.0
  0
LINE
  5
BB0
330
6B
100
AcDbEntity
  8
0
100
AcDbLine
 10
893.4086849999996
 20
104.393748
 30
0.0
 11
893.334366
 21
104.375146
 31
0.0
  0
LINE
  5
BB1
330
6B
100
AcDbEntity
  8
0
100
AcDbLine
 10
893.334366
 20
104.375146
 30
0.0
 11
893.2622789999996
 21
104.348573
 31
0.0
  0
LINE
  5
BB2
330
6B
100
AcDbEntity
  8
0
100
AcDbLine
 10
893.2622789999996
 20
104.348573
 30
0.0
 11
893.1943659999998
 21
104.315922
 31
0.0
  0
LINE
  5
BB3
330
6B
100
AcDbEntity
  8
0
100
AcDbLine
 10
893.1943659999998
 20
104.315922
 30
0.0
 11
893.1299329999998
 21
104.277032
 31
0.0
  0
LINE
  5
BB4
330
6B
100
AcDbEntity
  8
0
100
AcDbLine
 10
893.1299329999998
 20
104.277032
 30
0.0
 11
893.0700619999999
 21
104.232403
 31
0.0
  0
LINE
  5
BB5
330
6B
100
AcDbEntity
  8
0
100
AcDbLine
 10
893.0700619999999
 20
104.232403
 30
0.0
 11
893.0147319999999
 21
104.182192
 31
0.0
  0
LINE
  5
BB6
330
6B
100
AcDbEntity
  8
0
100
AcDbLine
 10
893.0147319999999
 20
104.182192
 30
0.0
 11
892.9644559999998
 21
104.126933
 31
0.0
  0
LINE
  5
BB7
330
6B
100
AcDbEntity
  8
0
100
AcDbLine
 10
892.9644559999998
 20
104.126933
 30
0.0
 11
892.91976
 21
104.067123
 31
0.0
  0
LINE
  5
BB8
330
6B
100
AcDbEntity
  8
0
100
AcDbLine
 10
892.91976
 20
104.067123
 30
0.0
 11
892.8808099999999
 21
104.002754
 31
0.0
  0
LINE
  5
BB9
330
6B
100
AcDbEntity
  8
0
100
AcDbLine
 10
892.8808099999999
 20
104.002754
 30
0.0
 11
892.8481039999997
 21
103.934892
 31
0.0
  0
LINE
  5
BBA
330
6B
100
AcDbEntity
  8
0
100
AcDbLine
 10
892.8481039999997
 20
103.934892
 30
0.0
 11
892.8214839999997
 21
103.862851
 31
0.0
  0
LINE
  5
BBB
330
6B
100
AcDbEntity
  8
0
100
AcDbLine
 10
892.8214839999997
 20
103.862851
 30
0.0
 11
892.802848
 21
103.788567
 31
0.0
  0
LINE
  5
BBC
330
6B
100
AcDbEntity
  8
0
100
AcDbLine
 10
892.802848
 20
103.788567
 30
0.0
 11
892.79244
 21
103.710295
 31
0.0
  0
LINE
  5
BBD
330
6B
100
AcDbEntity
  8
0
100
AcDbLine
 10
892.79244
 20
103.710295
 30
0.0
 11
892.787077
 21
103.631217
 31
0.0
  0
LINE
  5
BC0
330
6B
100
AcDbEntity
  8
0
100
AcDbLine
 10
908.1072050000001
 20
102.851508
 30
0.0
 11
908.6433899999999
 21
103.24143
 31
0.0
  0
LINE
  5
BC1
330
6B
100
AcDbEntity
  8
0
100
AcDbLine
 10
908.6433899999999
 20
103.24143
 30
0.0
 11
908.8869139999999
 21
103.631217
 31
0.0
  0
LINE
  5
BC2
330
6B
100
AcDbEntity
  8
0
100
AcDbLine
 10
908.8869139999999
 20
103.631217
 30
0.0
 11
908.6431199999999
 21
104.02042
 31
0.0
  0
LINE
  5
BC3
330
6B
100
AcDbEntity
  8
0
100
AcDbLine
 10
908.6431199999999
 20
104.02042
 30
0.0
 11
908.1072050000001
 21
104.409488
 31
0.0
  0
LINE
  5
BC4
330
6B
100
AcDbEntity
  8
0
100
AcDbLine
 10
892.787077
 20
103.631217
 30
0.0
 11
892.7924479999997
 21
103.552316
 31
0.0
  0
LINE
  5
BC5
330
6B
100
AcDbEntity
  8
0
100
AcDbLine
 10
892.7924479999997
 20
103.552316
 30
0.0
 11
892.802848
 21
103.474219
 31
0.0
  0
LINE
  5
BC6
330
6B
100
AcDbEntity
  8
0
100
AcDbLine
 10
892.802848
 20
103.474219
 30
0.0
 11
892.8214910000001
 21
103.399953
 31
0.0
  0
LINE
  5
BC7
330
6B
100
AcDbEntity
  8
0
100
AcDbLine
 10
892.8214910000001
 20
103.399953
 30
0.0
 11
892.8481039999997
 21
103.327925
 31
0.0
  0
LINE
  5
BC8
330
6B
100
AcDbEntity
  8
0
100
AcDbLine
 10
892.8481039999997
 20
103.327925
 30
0.0
 11
892.88082
 21
103.259968
 31
0.0
  0
LINE
  5
BC9
330
6B
100
AcDbEntity
  8
0
100
AcDbLine
 10
892.88082
 20
103.259968
 30
0.0
 11
892.91976
 21
103.195489
 31
0.0
  0
LINE
  5
BCA
330
6B
100
AcDbEntity
  8
0
100
AcDbLine
 10
892.91976
 20
103.195489
 30
0.0
 11
892.964459
 21
103.13551
 31
0.0
  0
LINE
  5
BCB
330
6B
100
AcDbEntity
  8
0
100
AcDbLine
 10
892.964459
 20
103.13551
 30
0.0
 11
893.0147319999999
 21
103.080062
 31
0.0
  0
LINE
  5
BCC
330
6B
100
AcDbEntity
  8
0
100
AcDbLine
 10
893.0147319999999
 20
103.080062
 30
0.0
 11
893.070057
 21
103.029646
 31
0.0
  0
LINE
  5
BCD
330
6B
100
AcDbEntity
  8
0
100
AcDbLine
 10
893.070057
 20
103.029646
 30
0.0
 11
893.1299329999998
 21
102.984799
 31
0.0
  0
LINE
  5
BCE
330
6B
100
AcDbEntity
  8
0
100
AcDbLine
 10
893.1299329999998
 20
102.984799
 30
0.0
 11
893.1943550000001
 21
102.945704
 31
0.0
  0
LINE
  5
BCF
330
6B
100
AcDbEntity
  8
0
100
AcDbLine
 10
893.1943550000001
 20
102.945704
 30
0.0
 11
893.2622789999996
 21
102.91285
 31
0.0
  0
LINE
  5
BD0
330
6B
100
AcDbEntity
  8
0
100
AcDbLine
 10
893.2622789999996
 20
102.91285
 30
0.0
 11
893.334353
 21
102.886106
 31
0.0
  0
LINE
  5
BD1
330
6B
100
AcDbEntity
  8
0
100
AcDbLine
 10
893.334353
 20
102.886106
 30
0.0
 11
893.4086849999996
 21
102.867369
 31
0.0
  0
LINE
  5
BD2
330
6B
100
AcDbEntity
  8
0
100
AcDbLine
 10
893.4086849999996
 20
102.867369
 30
0.0
 11
893.48697
 21
102.856907
 31
0.0
  0
LINE
  5
BD3
330
6B
100
AcDbEntity
  8
0
100
AcDbLine
 10
893.48697
 20
102.856907
 30
0.0
 11
893.5660659999998
 21
102.851508
 31
0.0
  0
LINE
  5
BD4
330
6B
100
AcDbEntity
  8
0
100
AcDbLine
 10
881.255441
 20
109.343808
 30
0.0
 11
881.3343749999997
 21
109.349193
 31
0.0
  0
LINE
  5
BD5
330
6B
100
AcDbEntity
  8
0
100
AcDbLine
 10
881.3343749999997
 20
109.349193
 30
0.0
 11
881.4125019999996
 21
109.35961
 31
0.0
  0
LINE
  5
BD6
330
6B
100
AcDbEntity
  8
0
100
AcDbLine
 10
881.4125019999996
 20
109.35961
 30
0.0
 11
881.4868500000001
 21
109.378291
 31
0.0
  0
LINE
  5
BD7
330
6B
100
AcDbEntity
  8
0
100
AcDbLine
 10
881.4868500000001
 20
109.378291
 30
0.0
 11
881.558959
 21
109.404947
 31
0.0
  0
LINE
  5
BD8
330
6B
100
AcDbEntity
  8
0
100
AcDbLine
 10
881.558959
 20
109.404947
 30
0.0
 11
881.6270300000001
 21
109.437721
 31
0.0
  0
LINE
  5
BD9
330
6B
100
AcDbEntity
  8
0
100
AcDbLine
 10
881.6270300000001
 20
109.437721
 30
0.0
 11
881.691625
 21
109.476719
 31
0.0
  0
LINE
  5
BDA
330
6B
100
AcDbEntity
  8
0
100
AcDbLine
 10
881.691625
 20
109.476719
 30
0.0
 11
881.751734
 21
109.521483
 31
0.0
  0
LINE
  5
BDB
330
6B
100
AcDbEntity
  8
0
100
AcDbLine
 10
881.751734
 20
109.521483
 30
0.0
 11
881.807316
 21
109.571822
 31
0.0
  0
LINE
  5
BDC
330
6B
100
AcDbEntity
  8
0
100
AcDbLine
 10
881.807316
 20
109.571822
 30
0.0
 11
881.857864
 21
109.627211
 31
0.0
  0
LINE
  5
BDD
330
6B
100
AcDbEntity
  8
0
100
AcDbLine
 10
881.857864
 20
109.627211
 30
0.0
 11
881.9028429999999
 21
109.687156
 31
0.0
  0
LINE
  5
BDE
330
6B
100
AcDbEntity
  8
0
100
AcDbLine
 10
881.9028429999999
 20
109.687156
 30
0.0
 11
881.9420550000003
 21
109.75163
 31
0.0
  0
LINE
  5
BDF
330
6B
100
AcDbEntity
  8
0
100
AcDbLine
 10
881.9420550000003
 20
109.75163
 30
0.0
 11
881.9750220000001
 21
109.819617
 31
0.0
  0
LINE
  5
BE0
330
6B
100
AcDbEntity
  8
0
100
AcDbLine
 10
881.9750220000001
 20
109.819617
 30
0.0
 11
882.0018579999999
 21
109.891726
 31
0.0
  0
LINE
  5
BE1
330
6B
100
AcDbEntity
  8
0
100
AcDbLine
 10
882.0018579999999
 20
109.891726
 30
0.0
 11
882.020666
 21
109.966105
 31
0.0
  0
LINE
  5
BE2
330
6B
100
AcDbEntity
  8
0
100
AcDbLine
 10
882.020666
 20
109.966105
 30
0.0
 11
882.0311659999999
 21
110.044402
 31
0.0
  0
LINE
  5
BE3
330
6B
100
AcDbEntity
  8
0
100
AcDbLine
 10
882.0311659999999
 20
110.044402
 30
0.0
 11
882.0365890000001
 21
110.123517
 31
0.0
  0
LINE
  5
BE4
330
6B
100
AcDbEntity
  8
0
100
AcDbLine
 10
866.7135829999999
 20
110.900348
 30
0.0
 11
866.178792
 21
110.512067
 31
0.0
  0
LINE
  5
BE5
330
6B
100
AcDbEntity
  8
0
100
AcDbLine
 10
866.178792
 20
110.512067
 30
0.0
 11
865.9353130000001
 21
110.123517
 31
0.0
  0
LINE
  5
BE6
330
6B
100
AcDbEntity
  8
0
100
AcDbLine
 10
865.9353130000001
 20
110.123517
 30
0.0
 11
866.1782519999999
 21
109.733797
 31
0.0
  0
LINE
  5
BE7
330
6B
100
AcDbEntity
  8
0
100
AcDbLine
 10
866.1782519999999
 20
109.733797
 30
0.0
 11
866.7135829999999
 21
109.343808
 31
0.0
  0
LINE
  5
BE8
330
6B
100
AcDbEntity
  8
0
100
AcDbLine
 10
882.0365890000001
 20
110.123517
 30
0.0
 11
882.0311659999999
 21
110.202365
 31
0.0
  0
LINE
  5
BE9
330
6B
100
AcDbEntity
  8
0
100
AcDbLine
 10
882.0311659999999
 20
110.202365
 30
0.0
 11
882.020666
 21
110.280392
 31
0.0
  0
LINE
  5
BEA
330
6B
100
AcDbEntity
  8
0
100
AcDbLine
 10
882.020666
 20
110.280392
 30
0.0
 11
882.0018560000002
 21
110.354514
 31
0.0
  0
LINE
  5
BEB
330
6B
100
AcDbEntity
  8
0
100
AcDbLine
 10
882.0018560000002
 20
110.354514
 30
0.0
 11
881.9750220000001
 21
110.42636
 31
0.0
  0
LINE
  5
BEC
330
6B
100
AcDbEntity
  8
0
100
AcDbLine
 10
881.9750220000001
 20
110.42636
 30
0.0
 11
881.9420499999999
 21
110.494108
 31
0.0
  0
LINE
  5
BED
330
6B
100
AcDbEntity
  8
0
100
AcDbLine
 10
881.9420499999999
 20
110.494108
 30
0.0
 11
881.9028429999999
 21
110.558335
 31
0.0
  0
LINE
  5
BEE
330
6B
100
AcDbEntity
  8
0
100
AcDbLine
 10
881.9028429999999
 20
110.558335
 30
0.0
 11
881.857856
 21
110.618064
 31
0.0
  0
LINE
  5
BEF
330
6B
100
AcDbEntity
  8
0
100
AcDbLine
 10
881.857856
 20
110.618064
 30
0.0
 11
881.807316
 21
110.673233
 31
0.0
  0
LINE
  5
BF0
330
6B
100
AcDbEntity
  8
0
100
AcDbLine
 10
881.807316
 20
110.673233
 30
0.0
 11
881.7517239999999
 21
110.723386
 31
0.0
  0
LINE
  5
BF1
330
6B
100
AcDbEntity
  8
0
100
AcDbLine
 10
881.7517239999999
 20
110.723386
 30
0.0
 11
881.691625
 21
110.767968
 31
0.0
  0
LINE
  5
BF2
330
6B
100
AcDbEntity
  8
0
100
AcDbLine
 10
881.691625
 20
110.767968
 30
0.0
 11
881.6270199999999
 21
110.806818
 31
0.0
  0
LINE
  5
BF3
330
6B
100
AcDbEntity
  8
0
100
AcDbLine
 10
881.6270199999999
 20
110.806818
 30
0.0
 11
881.558959
 21
110.839456
 31
0.0
  0
LINE
  5
BF4
330
6B
100
AcDbEntity
  8
0
100
AcDbLine
 10
881.558959
 20
110.839456
 30
0.0
 11
881.4868419999996
 21
110.866008
 31
0.0
  0
LINE
  5
BF5
330
6B
100
AcDbEntity
  8
0
100
AcDbLine
 10
881.4868419999996
 20
110.866008
 30
0.0
 11
881.4125019999996
 21
110.884611
 31
0.0
  0
LINE
  5
BF6
330
6B
100
AcDbEntity
  8
0
100
AcDbLine
 10
881.4125019999996
 20
110.884611
 30
0.0
 11
881.3343709999996
 21
110.894986
 31
0.0
  0
LINE
  5
BF7
330
6B
100
AcDbEntity
  8
0
100
AcDbLine
 10
881.3343709999996
 20
110.894986
 30
0.0
 11
881.255441
 21
110.900348
 31
0.0
  0
LINE
  5
BF8
330
6B
100
AcDbEntity
  8
0
100
AcDbLine
 10
908.1072050000001
 20
106.0955
 30
0.0
 11
908.18632
 21
106.100922
 31
0.0
  0
LINE
  5
BF9
330
6B
100
AcDbEntity
  8
0
100
AcDbLine
 10
908.18632
 20
106.100922
 30
0.0
 11
908.264617
 21
106.11142
 31
0.0
  0
LINE
  5
BFA
330
6B
100
AcDbEntity
  8
0
100
AcDbLine
 10
908.264617
 20
106.11142
 30
0.0
 11
908.3389939999999
 21
106.130221
 31
0.0
  0
LINE
  5
BFB
330
6B
100
AcDbEntity
  8
0
100
AcDbLine
 10
908.3389939999999
 20
106.130221
 30
0.0
 11
908.411105
 21
106.157044
 31
0.0
  0
LINE
  5
BFC
330
6B
100
AcDbEntity
  8
0
100
AcDbLine
 10
908.411105
 20
106.157044
 30
0.0
 11
908.479089
 21
106.189988
 31
0.0
  0
LINE
  5
BFD
330
6B
100
AcDbEntity
  8
0
100
AcDbLine
 10
908.479089
 20
106.189988
 30
0.0
 11
908.5435659999999
 21
106.22917
 31
0.0
  0
LINE
  5
BFE
330
6B
100
AcDbEntity
  8
0
100
AcDbLine
 10
908.5435659999999
 20
106.22917
 30
0.0
 11
908.603506
 21
106.274101
 31
0.0
  0
LINE
  5
BFF
330
6B
100
AcDbEntity
  8
0
100
AcDbLine
 10
908.603506
 20
106.274101
 30
0.0
 11
908.6589
 21
106.324594
 31
0.0
  0
LINE
  5
C00
330
6B
100
AcDbEntity
  8
0
100
AcDbLine
 10
908.6589
 20
106.324594
 30
0.0
 11
908.709233
 21
106.380091
 31
0.0
  0
LINE
  5
C01
330
6B
100
AcDbEntity
  8
0
100
AcDbLine
 10
908.709233
 20
106.380091
 30
0.0
 11
908.7540029999999
 21
106.440113
 31
0.0
  0
LINE
  5
C02
330
6B
100
AcDbEntity
  8
0
100
AcDbLine
 10
908.7540029999999
 20
106.440113
 30
0.0
 11
908.7929939999996
 21
106.50458
 31
0.0
  0
LINE
  5
C03
330
6B
100
AcDbEntity
  8
0
100
AcDbLine
 10
908.7929939999996
 20
106.50458
 30
0.0
 11
908.825775
 21
106.572523
 31
0.0
  0
LINE
  5
C04
330
6B
100
AcDbEntity
  8
0
100
AcDbLine
 10
908.825775
 20
106.572523
 30
0.0
 11
908.8524279999999
 21
106.644452
 31
0.0
  0
LINE
  5
C05
330
6B
100
AcDbEntity
  8
0
100
AcDbLine
 10
908.8524279999999
 20
106.644452
 30
0.0
 11
908.8711120000001
 21
106.718623
 31
0.0
  0
LINE
  5
C06
330
6B
100
AcDbEntity
  8
0
100
AcDbLine
 10
908.8711120000001
 20
106.718623
 30
0.0
 11
908.881526
 21
106.796512
 31
0.0
  0
LINE
  5
C07
330
6B
100
AcDbEntity
  8
0
100
AcDbLine
 10
908.881526
 20
106.796512
 30
0.0
 11
908.8869139999999
 21
106.875209
 31
0.0
  0
LINE
  5
C08
330
6B
100
AcDbEntity
  8
0
100
AcDbLine
 10
893.5660659999998
 20
107.654918
 30
0.0
 11
893.0305109999999
 21
107.265064
 31
0.0
  0
LINE
  5
C09
330
6B
100
AcDbEntity
  8
0
100
AcDbLine
 10
893.0305109999999
 20
107.265064
 30
0.0
 11
892.787077
 21
106.875209
 31
0.0
  0
LINE
  5
C0A
330
6B
100
AcDbEntity
  8
0
100
AcDbLine
 10
892.787077
 20
106.875209
 30
0.0
 11
893.0305109999999
 21
106.485355
 31
0.0
  0
LINE
  5
C0B
330
6B
100
AcDbEntity
  8
0
100
AcDbLine
 10
893.0305109999999
 20
106.485355
 30
0.0
 11
893.5660659999998
 21
106.0955
 31
0.0
  0
LINE
  5
C0C
330
6B
100
AcDbEntity
  8
0
100
AcDbLine
 10
908.8869139999999
 20
106.875209
 30
0.0
 11
908.8815369999997
 21
106.954318
 31
0.0
  0
LINE
  5
C0D
330
6B
100
AcDbEntity
  8
0
100
AcDbLine
 10
908.8815369999997
 20
106.954318
 30
0.0
 11
908.8711120000001
 21
107.032621
 31
0.0
  0
LINE
  5
C0E
330
6B
100
AcDbEntity
  8
0
100
AcDbLine
 10
908.8711120000001
 20
107.032621
 30
0.0
 11
908.8524389999999
 21
107.106987
 31
0.0
  0
LINE
  5
C0F
330
6B
100
AcDbEntity
  8
0
100
AcDbLine
 10
908.8524389999999
 20
107.106987
 30
0.0
 11
908.825775
 21
107.179109
 31
0.0
  0
LINE
  5
C10
330
6B
100
AcDbEntity
  8
0
100
AcDbLine
 10
908.825775
 20
107.179109
 30
0.0
 11
908.7930099999999
 21
107.247085
 31
0.0
  0
LINE
  5
C11
330
6B
100
AcDbEntity
  8
0
100
AcDbLine
 10
908.7930099999999
 20
107.247085
 30
0.0
 11
908.7540029999999
 21
107.31157
 31
0.0
  0
LINE
  5
C12
330
6B
100
AcDbEntity
  8
0
100
AcDbLine
 10
908.7540029999999
 20
107.31157
 30
0.0
 11
908.7092420000001
 21
107.37151
 31
0.0
  0
LINE
  5
C13
330
6B
100
AcDbEntity
  8
0
100
AcDbLine
 10
908.7092420000001
 20
107.37151
 30
0.0
 11
908.6589
 21
107.426903
 31
0.0
  0
LINE
  5
C14
330
6B
100
AcDbEntity
  8
0
100
AcDbLine
 10
908.6589
 20
107.426903
 30
0.0
 11
908.603506
 21
107.477246
 31
0.0
  0
LINE
  5
C15
330
6B
100
AcDbEntity
  8
0
100
AcDbLine
 10
908.603506
 20
107.477246
 30
0.0
 11
908.5435659999999
 21
107.522007
 31
0.0
  0
LINE
  5
C16
330
6B
100
AcDbEntity
  8
0
100
AcDbLine
 10
908.5435659999999
 20
107.522007
 30
0.0
 11
908.4790809999999
 21
107.561014
 31
0.0
  0
LINE
  5
C17
330
6B
100
AcDbEntity
  8
0
100
AcDbLine
 10
908.4790809999999
 20
107.561014
 30
0.0
 11
908.411105
 21
107.593778
 31
0.0
  0
LINE
  5
C18
330
6B
100
AcDbEntity
  8
0
100
AcDbLine
 10
908.411105
 20
107.593778
 30
0.0
 11
908.338984
 21
107.620443
 31
0.0
  0
LINE
  5
C19
330
6B
100
AcDbEntity
  8
0
100
AcDbLine
 10
908.338984
 20
107.620443
 30
0.0
 11
908.264617
 21
107.639116
 31
0.0
  0
LINE
  5
C1A
330
6B
100
AcDbEntity
  8
0
100
AcDbLine
 10
908.264617
 20
107.639116
 30
0.0
 11
908.186315
 21
107.64954
 31
0.0
  0
LINE
  5
C1B
330
6B
100
AcDbEntity
  8
0
100
AcDbLine
 10
908.186315
 20
107.64954
 30
0.0
 11
908.1072050000001
 21
107.654918
 31
0.0
  0
LINE
  5
C1C
330
6B
100
AcDbEntity
  8
0
100
AcDbLine
 10
881.255441
 20
106.0955
 30
0.0
 11
881.3343800000001
 21
106.100931
 31
0.0
  0
LINE
  5
C1D
330
6B
100
AcDbEntity
  8
0
100
AcDbLine
 10
881.3343800000001
 20
106.100931
 30
0.0
 11
881.4125019999996
 21
106.11142
 31
0.0
  0
LINE
  5
C1E
330
6B
100
AcDbEntity
  8
0
100
AcDbLine
 10
881.4125019999996
 20
106.11142
 30
0.0
 11
881.4868609999999
 21
106.130229
 31
0.0
  0
LINE
  5
C1F
330
6B
100
AcDbEntity
  8
0
100
AcDbLine
 10
881.4868609999999
 20
106.130229
 30
0.0
 11
881.558959
 21
106.157044
 31
0.0
  0
LINE
  5
C20
330
6B
100
AcDbEntity
  8
0
100
AcDbLine
 10
881.558959
 20
106.157044
 30
0.0
 11
881.627038
 21
106.189998
 31
0.0
  0
LINE
  5
C21
330
6B
100
AcDbEntity
  8
0
100
AcDbLine
 10
881.627038
 20
106.189998
 30
0.0
 11
881.691625
 21
106.22917
 31
0.0
  0
LINE
  5
C22
330
6B
100
AcDbEntity
  8
0
100
AcDbLine
 10
881.691625
 20
106.22917
 30
0.0
 11
881.751734
 21
106.274104
 31
0.0
  0
LINE
  5
C23
330
6B
100
AcDbEntity
  8
0
100
AcDbLine
 10
881.751734
 20
106.274104
 30
0.0
 11
881.807316
 21
106.324594
 31
0.0
  0
LINE
  5
C24
330
6B
100
AcDbEntity
  8
0
100
AcDbLine
 10
881.807316
 20
106.324594
 30
0.0
 11
881.8578550000001
 21
106.380087
 31
0.0
  0
LINE
  5
C25
330
6B
100
AcDbEntity
  8
0
100
AcDbLine
 10
881.8578550000001
 20
106.380087
 30
0.0
 11
881.9028429999999
 21
106.440113
 31
0.0
  0
LINE
  5
C26
330
6B
100
AcDbEntity
  8
0
100
AcDbLine
 10
881.9028429999999
 20
106.440113
 30
0.0
 11
881.9420390000001
 21
106.504569
 31
0.0
  0
LINE
  5
C27
330
6B
100
AcDbEntity
  8
0
100
AcDbLine
 10
881.9420390000001
 20
106.504569
 30
0.0
 11
881.9750220000001
 21
106.572523
 31
0.0
  0
LINE
  5
C28
330
6B
100
AcDbEntity
  8
0
100
AcDbLine
 10
881.9750220000001
 20
106.572523
 30
0.0
 11
882.001847
 21
106.64444
 31
0.0
  0
LINE
  5
C29
330
6B
100
AcDbEntity
  8
0
100
AcDbLine
 10
882.001847
 20
106.64444
 30
0.0
 11
882.020666
 21
106.718623
 31
0.0
  0
LINE
  5
C2A
330
6B
100
AcDbEntity
  8
0
100
AcDbLine
 10
882.020666
 20
106.718623
 30
0.0
 11
882.0311550000001
 21
106.796507
 31
0.0
  0
LINE
  5
C2B
330
6B
100
AcDbEntity
  8
0
100
AcDbLine
 10
882.0311550000001
 20
106.796507
 30
0.0
 11
882.0365890000001
 21
106.875209
 31
0.0
  0
LINE
  5
C2C
330
6B
100
AcDbEntity
  8
0
100
AcDbLine
 10
866.7135829999999
 20
107.654918
 30
0.0
 11
866.178522
 21
107.265064
 31
0.0
  0
LINE
  5
C2D
330
6B
100
AcDbEntity
  8
0
100
AcDbLine
 10
866.178522
 20
107.265064
 30
0.0
 11
865.9353130000001
 21
106.875209
 31
0.0
  0
LINE
  5
C2E
330
6B
100
AcDbEntity
  8
0
100
AcDbLine
 10
865.9353130000001
 20
106.875209
 30
0.0
 11
866.178522
 21
106.485355
 31
0.0
  0
LINE
  5
C2F
330
6B
100
AcDbEntity
  8
0
100
AcDbLine
 10
866.178522
 20
106.485355
 30
0.0
 11
866.7135829999999
 21
106.0955
 31
0.0
  0
LINE
  5
C30
330
6B
100
AcDbEntity
  8
0
100
AcDbLine
 10
882.0365890000001
 20
106.875209
 30
0.0
 11
882.0311659999999
 21
106.954324
 31
0.0
  0
LINE
  5
C31
330
6B
100
AcDbEntity
  8
0
100
AcDbLine
 10
882.0311659999999
 20
106.954324
 30
0.0
 11
882.020666
 21
107.032621
 31
0.0
  0
LINE
  5
C32
330
6B
100
AcDbEntity
  8
0
100
AcDbLine
 10
882.020666
 20
107.032621
 30
0.0
 11
882.0018579999999
 21
107.106999
 31
0.0
  0
LINE
  5
C33
330
6B
100
AcDbEntity
  8
0
100
AcDbLine
 10
882.0018579999999
 20
107.106999
 30
0.0
 11
881.9750220000001
 21
107.179109
 31
0.0
  0
LINE
  5
C34
330
6B
100
AcDbEntity
  8
0
100
AcDbLine
 10
881.9750220000001
 20
107.179109
 30
0.0
 11
881.9420550000003
 21
107.247096
 31
0.0
  0
LINE
  5
C35
330
6B
100
AcDbEntity
  8
0
100
AcDbLine
 10
881.9420550000003
 20
107.247096
 30
0.0
 11
881.9028429999999
 21
107.31157
 31
0.0
  0
LINE
  5
C36
330
6B
100
AcDbEntity
  8
0
100
AcDbLine
 10
881.9028429999999
 20
107.31157
 30
0.0
 11
881.857864
 21
107.371515
 31
0.0
  0
LINE
  5
C37
330
6B
100
AcDbEntity
  8
0
100
AcDbLine
 10
881.857864
 20
107.371515
 30
0.0
 11
881.807316
 21
107.426903
 31
0.0
  0
LINE
  5
C38
330
6B
100
AcDbEntity
  8
0
100
AcDbLine
 10
881.807316
 20
107.426903
 30
0.0
 11
881.751734
 21
107.477243
 31
0.0
  0
LINE
  5
C39
330
6B
100
AcDbEntity
  8
0
100
AcDbLine
 10
881.751734
 20
107.477243
 30
0.0
 11
881.691625
 21
107.522007
 31
0.0
  0
LINE
  5
C3A
330
6B
100
AcDbEntity
  8
0
100
AcDbLine
 10
881.691625
 20
107.522007
 30
0.0
 11
881.6270300000001
 21
107.561004
 31
0.0
  0
LINE
  5
C3B
330
6B
100
AcDbEntity
  8
0
100
AcDbLine
 10
881.6270300000001
 20
107.561004
 30
0.0
 11
881.558959
 21
107.593778
 31
0.0
  0
LINE
  5
C3C
330
6B
100
AcDbEntity
  8
0
100
AcDbLine
 10
881.558959
 20
107.593778
 30
0.0
 11
881.4868500000001
 21
107.620435
 31
0.0
  0
LINE
  5
C3D
330
6B
100
AcDbEntity
  8
0
100
AcDbLine
 10
881.4868500000001
 20
107.620435
 30
0.0
 11
881.4125019999996
 21
107.639116
 31
0.0
  0
LINE
  5
C3E
330
6B
100
AcDbEntity
  8
0
100
AcDbLine
 10
881.4125019999996
 20
107.639116
 30
0.0
 11
881.3343749999997
 21
107.649532
 31
0.0
  0
LINE
  5
C3F
330
6B
100
AcDbEntity
  8
0
100
AcDbLine
 10
881.3343749999997
 20
107.649532
 30
0.0
 11
881.255441
 21
107.654918
 31
0.0
  0
LINE
  5
C40
330
6B
100
AcDbEntity
  8
0
100
AcDbLine
 10
866.7135829999999
 20
104.409488
 30
0.0
 11
866.634714
 21
104.40413
 31
0.0
  0
LINE
  5
C41
330
6B
100
AcDbEntity
  8
0
100
AcDbLine
 10
866.634714
 20
104.40413
 30
0.0
 11
866.556646
 21
104.393748
 31
0.0
  0
LINE
  5
C42
330
6B
100
AcDbEntity
  8
0
100
AcDbLine
 10
866.556646
 20
104.393748
 30
0.0
 11
866.482464
 21
104.375141
 31
0.0
  0
LINE
  5
C43
330
6B
100
AcDbEntity
  8
0
100
AcDbLine
 10
866.482464
 20
104.375141
 30
0.0
 11
866.4105150000001
 21
104.348573
 31
0.0
  0
LINE
  5
C44
330
6B
100
AcDbEntity
  8
0
100
AcDbLine
 10
866.4105150000001
 20
104.348573
 30
0.0
 11
866.342674
 21
104.315915
 31
0.0
  0
LINE
  5
C45
330
6B
100
AcDbEntity
  8
0
100
AcDbLine
 10
866.342674
 20
104.315915
 30
0.0
 11
866.2783099999996
 21
104.277032
 31
0.0
  0
LINE
  5
C46
330
6B
100
AcDbEntity
  8
0
100
AcDbLine
 10
866.2783099999996
 20
104.277032
 30
0.0
 11
866.2184619999997
 21
104.232398
 31
0.0
  0
LINE
  5
C47
330
6B
100
AcDbEntity
  8
0
100
AcDbLine
 10
866.2184619999997
 20
104.232398
 30
0.0
 11
866.163148
 21
104.182192
 31
0.0
  0
LINE
  5
C48
330
6B
100
AcDbEntity
  8
0
100
AcDbLine
 10
866.163148
 20
104.182192
 30
0.0
 11
866.1128619999997
 21
104.12693
 31
0.0
  0
LINE
  5
C49
330
6B
100
AcDbEntity
  8
0
100
AcDbLine
 10
866.1128619999997
 20
104.12693
 30
0.0
 11
866.068148
 21
104.067123
 31
0.0
  0
LINE
  5
C4A
330
6B
100
AcDbEntity
  8
0
100
AcDbLine
 10
866.068148
 20
104.067123
 30
0.0
 11
866.02917
 21
104.002754
 31
0.0
  0
LINE
  5
C4B
330
6B
100
AcDbEntity
  8
0
100
AcDbLine
 10
866.02917
 20
104.002754
 30
0.0
 11
865.99643
 21
103.934892
 31
0.0
  0
LINE
  5
C4C
330
6B
100
AcDbEntity
  8
0
100
AcDbLine
 10
865.99643
 20
103.934892
 30
0.0
 11
865.969776
 21
103.862853
 31
0.0
  0
LINE
  5
C4D
330
6B
100
AcDbEntity
  8
0
100
AcDbLine
 10
865.969776
 20
103.862853
 30
0.0
 11
865.9511119999999
 21
103.788567
 31
0.0
  0
LINE
  5
C4E
330
6B
100
AcDbEntity
  8
0
100
AcDbLine
 10
865.9511119999999
 20
103.788567
 30
0.0
 11
865.9406869999996
 21
103.710296
 31
0.0
  0
LINE
  5
C4F
330
6B
100
AcDbEntity
  8
0
100
AcDbLine
 10
865.9406869999996
 20
103.710296
 30
0.0
 11
865.9353130000001
 21
103.631217
 31
0.0
  0
LINE
  5
C50
330
6B
100
AcDbEntity
  8
0
100
AcDbLine
 10
881.255441
 20
102.851508
 30
0.0
 11
881.7926150000001
 21
103.241431
 31
0.0
  0
LINE
  5
C51
330
6B
100
AcDbEntity
  8
0
100
AcDbLine
 10
881.7926150000001
 20
103.241431
 30
0.0
 11
882.0365890000001
 21
103.631217
 31
0.0
  0
LINE
  5
C52
330
6B
100
AcDbEntity
  8
0
100
AcDbLine
 10
882.0365890000001
 20
103.631217
 30
0.0
 11
881.7923460000001
 21
104.02042
 31
0.0
  0
LINE
  5
C53
330
6B
100
AcDbEntity
  8
0
100
AcDbLine
 10
881.7923460000001
 20
104.02042
 30
0.0
 11
881.255441
 21
104.409488
 31
0.0
  0
LINE
  5
C54
330
6B
100
AcDbEntity
  8
0
100
AcDbLine
 10
865.9353130000001
 20
103.631217
 30
0.0
 11
865.9406960000001
 21
103.552315
 31
0.0
  0
LINE
  5
C55
330
6B
100
AcDbEntity
  8
0
100
AcDbLine
 10
865.9406960000001
 20
103.552315
 30
0.0
 11
865.9511119999999
 21
103.474219
 31
0.0
  0
LINE
  5
C56
330
6B
100
AcDbEntity
  8
0
100
AcDbLine
 10
865.9511119999999
 20
103.474219
 30
0.0
 11
865.9697839999999
 21
103.399951
 31
0.0
  0
LINE
  5
C57
330
6B
100
AcDbEntity
  8
0
100
AcDbLine
 10
865.9697839999999
 20
103.399951
 30
0.0
 11
865.99643
 21
103.327925
 31
0.0
  0
LINE
  5
C58
330
6B
100
AcDbEntity
  8
0
100
AcDbLine
 10
865.99643
 20
103.327925
 30
0.0
 11
866.0291789999996
 21
103.259968
 31
0.0
  0
LINE
  5
C59
330
6B
100
AcDbEntity
  8
0
100
AcDbLine
 10
866.0291789999996
 20
103.259968
 30
0.0
 11
866.068148
 21
103.195489
 31
0.0
  0
LINE
  5
C5A
330
6B
100
AcDbEntity
  8
0
100
AcDbLine
 10
866.068148
 20
103.195489
 30
0.0
 11
866.112865
 21
103.135513
 31
0.0
  0
LINE
  5
C5B
330
6B
100
AcDbEntity
  8
0
100
AcDbLine
 10
866.112865
 20
103.135513
 30
0.0
 11
866.163148
 21
103.080062
 31
0.0
  0
LINE
  5
C5C
330
6B
100
AcDbEntity
  8
0
100
AcDbLine
 10
866.163148
 20
103.080062
 30
0.0
 11
866.218457
 21
103.029651
 31
0.0
  0
LINE
  5
C5D
330
6B
100
AcDbEntity
  8
0
100
AcDbLine
 10
866.218457
 20
103.029651
 30
0.0
 11
866.2783099999996
 21
102.984799
 31
0.0
  0
LINE
  5
C5E
330
6B
100
AcDbEntity
  8
0
100
AcDbLine
 10
866.2783099999996
 20
102.984799
 30
0.0
 11
866.3426630000001
 21
102.945711
 31
0.0
  0
LINE
  5
C5F
330
6B
100
AcDbEntity
  8
0
100
AcDbLine
 10
866.3426630000001
 20
102.945711
 30
0.0
 11
866.4105150000001
 21
102.91285
 31
0.0
  0
LINE
  5
C60
330
6B
100
AcDbEntity
  8
0
100
AcDbLine
 10
866.4105150000001
 20
102.91285
 30
0.0
 11
866.482451
 21
102.88611
 31
0.0
  0
LINE
  5
C61
330
6B
100
AcDbEntity
  8
0
100
AcDbLine
 10
866.482451
 20
102.88611
 30
0.0
 11
866.556646
 21
102.867369
 31
0.0
  0
LINE
  5
C62
330
6B
100
AcDbEntity
  8
0
100
AcDbLine
 10
866.556646
 20
102.867369
 30
0.0
 11
866.6347080000001
 21
102.856911
 31
0.0
  0
LINE
  5
C63
330
6B
100
AcDbEntity
  8
0
100
AcDbLine
 10
866.6347080000001
 20
102.856911
 30
0.0
 11
866.7135829999999
 21
102.851508
 31
0.0
  0
LINE
  5
C64
330
6B
100
AcDbEntity
  8
0
100
AcDbLine
 10
908.1072050000001
 20
109.343808
 30
0.0
 11
908.186315
 21
109.349185
 31
0.0
  0
LINE
  5
C65
330
6B
100
AcDbEntity
  8
0
100
AcDbLine
 10
908.186315
 20
109.349185
 30
0.0
 11
908.264617
 21
109.35961
 31
0.0
  0
LINE
  5
C66
330
6B
100
AcDbEntity
  8
0
100
AcDbLine
 10
908.264617
 20
109.35961
 30
0.0
 11
908.338984
 21
109.378283
 31
0.0
  0
LINE
  5
C67
330
6B
100
AcDbEntity
  8
0
100
AcDbLine
 10
908.338984
 20
109.378283
 30
0.0
 11
908.411105
 21
109.404947
 31
0.0
  0
LINE
  5
C68
330
6B
100
AcDbEntity
  8
0
100
AcDbLine
 10
908.411105
 20
109.404947
 30
0.0
 11
908.4790809999999
 21
109.437712
 31
0.0
  0
LINE
  5
C69
330
6B
100
AcDbEntity
  8
0
100
AcDbLine
 10
908.4790809999999
 20
109.437712
 30
0.0
 11
908.5435659999999
 21
109.476719
 31
0.0
  0
LINE
  5
C6A
330
6B
100
AcDbEntity
  8
0
100
AcDbLine
 10
908.5435659999999
 20
109.476719
 30
0.0
 11
908.603506
 21
109.52148
 31
0.0
  0
LINE
  5
C6B
330
6B
100
AcDbEntity
  8
0
100
AcDbLine
 10
908.603506
 20
109.52148
 30
0.0
 11
908.6589
 21
109.571822
 31
0.0
  0
LINE
  5
C6C
330
6B
100
AcDbEntity
  8
0
100
AcDbLine
 10
908.6589
 20
109.571822
 30
0.0
 11
908.7092420000001
 21
109.627216
 31
0.0
  0
LINE
  5
C6D
330
6B
100
AcDbEntity
  8
0
100
AcDbLine
 10
908.7092420000001
 20
109.627216
 30
0.0
 11
908.7540029999999
 21
109.687156
 31
0.0
  0
LINE
  5
C6E
330
6B
100
AcDbEntity
  8
0
100
AcDbLine
 10
908.7540029999999
 20
109.687156
 30
0.0
 11
908.7930099999999
 21
109.751641
 31
0.0
  0
LINE
  5
C6F
330
6B
100
AcDbEntity
  8
0
100
AcDbLine
 10
908.7930099999999
 20
109.751641
 30
0.0
 11
908.825775
 21
109.819617
 31
0.0
  0
LINE
  5
C70
330
6B
100
AcDbEntity
  8
0
100
AcDbLine
 10
908.825775
 20
109.819617
 30
0.0
 11
908.8524389999999
 21
109.891738
 31
0.0
  0
LINE
  5
C71
330
6B
100
AcDbEntity
  8
0
100
AcDbLine
 10
908.8524389999999
 20
109.891738
 30
0.0
 11
908.8711120000001
 21
109.966105
 31
0.0
  0
LINE
  5
C72
330
6B
100
AcDbEntity
  8
0
100
AcDbLine
 10
908.8711120000001
 20
109.966105
 30
0.0
 11
908.8815369999997
 21
110.044407
 31
0.0
  0
LINE
  5
C73
330
6B
100
AcDbEntity
  8
0
100
AcDbLine
 10
908.8815369999997
 20
110.044407
 30
0.0
 11
908.8869139999999
 21
110.123517
 31
0.0
  0
LINE
  5
C74
330
6B
100
AcDbEntity
  8
0
100
AcDbLine
 10
893.5660659999998
 20
110.900348
 30
0.0
 11
893.030781
 21
110.512067
 31
0.0
  0
LINE
  5
C75
330
6B
100
AcDbEntity
  8
0
100
AcDbLine
 10
893.030781
 20
110.512067
 30
0.0
 11
892.787077
 21
110.123517
 31
0.0
  0
LINE
  5
C76
330
6B
100
AcDbEntity
  8
0
100
AcDbLine
 10
892.787077
 20
110.123517
 30
0.0
 11
893.0302410000001
 21
109.733797
 31
0.0
  0
LINE
  5
C77
330
6B
100
AcDbEntity
  8
0
100
AcDbLine
 10
893.0302410000001
 20
109.733797
 30
0.0
 11
893.5660659999998
 21
109.343808
 31
0.0
  0
LINE
  5
C78
330
6B
100
AcDbEntity
  8
0
100
AcDbLine
 10
908.8869139999999
 20
110.123517
 30
0.0
 11
908.8815369999997
 21
110.202359
 31
0.0
  0
LINE
  5
C79
330
6B
100
AcDbEntity
  8
0
100
AcDbLine
 10
908.8815369999997
 20
110.202359
 30
0.0
 11
908.8711120000001
 21
110.280392
 31
0.0
  0
LINE
  5
C7A
330
6B
100
AcDbEntity
  8
0
100
AcDbLine
 10
908.8711120000001
 20
110.280392
 30
0.0
 11
908.852437
 21
110.354502
 31
0.0
  0
LINE
  5
C7B
330
6B
100
AcDbEntity
  8
0
100
AcDbLine
 10
908.852437
 20
110.354502
 30
0.0
 11
908.825775
 21
110.42636
 31
0.0
  0
LINE
  5
C7C
330
6B
100
AcDbEntity
  8
0
100
AcDbLine
 10
908.825775
 20
110.42636
 30
0.0
 11
908.7930059999999
 21
110.494097
 31
0.0
  0
LINE
  5
C7D
330
6B
100
AcDbEntity
  8
0
100
AcDbLine
 10
908.7930059999999
 20
110.494097
 30
0.0
 11
908.7540029999999
 21
110.558335
 31
0.0
  0
LINE
  5
C7E
330
6B
100
AcDbEntity
  8
0
100
AcDbLine
 10
908.7540029999999
 20
110.558335
 30
0.0
 11
908.7092339999999
 21
110.618059
 31
0.0
  0
LINE
  5
C7F
330
6B
100
AcDbEntity
  8
0
100
AcDbLine
 10
908.7092339999999
 20
110.618059
 30
0.0
 11
908.6589
 21
110.673233
 31
0.0
  0
LINE
  5
C80
330
6B
100
AcDbEntity
  8
0
100
AcDbLine
 10
908.6589
 20
110.673233
 30
0.0
 11
908.603496
 21
110.723389
 31
0.0
  0
LINE
  5
C81
330
6B
100
AcDbEntity
  8
0
100
AcDbLine
 10
908.603496
 20
110.723389
 30
0.0
 11
908.5435659999999
 21
110.767968
 31
0.0
  0
LINE
  5
C82
330
6B
100
AcDbEntity
  8
0
100
AcDbLine
 10
908.5435659999999
 20
110.767968
 30
0.0
 11
908.479071
 21
110.806828
 31
0.0
  0
LINE
  5
C83
330
6B
100
AcDbEntity
  8
0
100
AcDbLine
 10
908.479071
 20
110.806828
 30
0.0
 11
908.411105
 21
110.839456
 31
0.0
  0
LINE
  5
C84
330
6B
100
AcDbEntity
  8
0
100
AcDbLine
 10
908.411105
 20
110.839456
 30
0.0
 11
908.3389760000001
 21
110.866015
 31
0.0
  0
LINE
  5
C85
330
6B
100
AcDbEntity
  8
0
100
AcDbLine
 10
908.3389760000001
 20
110.866015
 30
0.0
 11
908.264617
 21
110.884611
 31
0.0
  0
LINE
  5
C86
330
6B
100
AcDbEntity
  8
0
100
AcDbLine
 10
908.264617
 20
110.884611
 30
0.0
 11
908.1863109999996
 21
110.894994
 31
0.0
  0
LINE
  5
C87
330
6B
100
AcDbEntity
  8
0
100
AcDbLine
 10
908.1863109999996
 20
110.894994
 30
0.0
 11
908.1072050000001
 21
110.900348
 31
0.0
  0
LINE
  5
C88
330
6B
100
AcDbEntity
  8
0
100
AcDbLine
 10
881.255441
 20
89.45260000000002
 30
0.0
 11
881.3343769999999
 21
89.45800699999997
 31
0.0
  0
LINE
  5
C89
330
6B
100
AcDbEntity
  8
0
100
AcDbLine
 10
881.3343769999999
 20
89.45800699999997
 30
0.0
 11
881.4125019999996
 21
89.468458
 31
0.0
  0
LINE
  5
C8A
330
6B
100
AcDbEntity
  8
0
100
AcDbLine
 10
881.4125019999996
 20
89.468458
 30
0.0
 11
881.4868539999999
 21
89.487196
 31
0.0
  0
LINE
  5
C8B
330
6B
100
AcDbEntity
  8
0
100
AcDbLine
 10
881.4868539999999
 20
89.487196
 30
0.0
 11
881.558959
 21
89.513919
 31
0.0
  0
LINE
  5
C8C
330
6B
100
AcDbEntity
  8
0
100
AcDbLine
 10
881.558959
 20
89.513919
 30
0.0
 11
881.6270310000001
 21
89.54675999999997
 31
0.0
  0
LINE
  5
C8D
330
6B
100
AcDbEntity
  8
0
100
AcDbLine
 10
881.6270310000001
 20
89.54675999999997
 30
0.0
 11
881.691625
 21
89.58581399999998
 31
0.0
  0
LINE
  5
C8E
330
6B
100
AcDbEntity
  8
0
100
AcDbLine
 10
881.691625
 20
89.58581399999998
 30
0.0
 11
881.7517289999997
 21
89.630615
 31
0.0
  0
LINE
  5
C8F
330
6B
100
AcDbEntity
  8
0
100
AcDbLine
 10
881.7517289999997
 20
89.630615
 30
0.0
 11
881.807316
 21
89.68097399999996
 31
0.0
  0
LINE
  5
C90
330
6B
100
AcDbEntity
  8
0
100
AcDbLine
 10
881.807316
 20
89.68097399999996
 30
0.0
 11
881.8578529999998
 21
89.736331
 31
0.0
  0
LINE
  5
C91
330
6B
100
AcDbEntity
  8
0
100
AcDbLine
 10
881.8578529999998
 20
89.736331
 30
0.0
 11
881.9028429999999
 21
89.796229
 31
0.0
  0
LINE
  5
C92
330
6B
100
AcDbEntity
  8
0
100
AcDbLine
 10
881.9028429999999
 20
89.796229
 30
0.0
 11
881.9420410000001
 21
89.86056600000003
 31
0.0
  0
LINE
  5
C93
330
6B
100
AcDbEntity
  8
0
100
AcDbLine
 10
881.9420410000001
 20
89.86056600000003
 30
0.0
 11
881.9750220000001
 21
89.928409
 31
0.0
  0
LINE
  5
C94
330
6B
100
AcDbEntity
  8
0
100
AcDbLine
 10
881.9750220000001
 20
89.928409
 30
0.0
 11
882.001849
 21
90.000242
 31
0.0
  0
LINE
  5
C95
330
6B
100
AcDbEntity
  8
0
100
AcDbLine
 10
882.001849
 20
90.000242
 30
0.0
 11
882.020666
 21
90.07434600000001
 31
0.0
  0
LINE
  5
C96
330
6B
100
AcDbEntity
  8
0
100
AcDbLine
 10
882.020666
 20
90.07434600000001
 30
0.0
 11
882.031158
 21
90.152198
 31
0.0
  0
LINE
  5
C97
330
6B
100
AcDbEntity
  8
0
100
AcDbLine
 10
882.031158
 20
90.152198
 30
0.0
 11
882.0365890000001
 21
90.23087
 31
0.0
  0
LINE
  5
C98
330
6B
100
AcDbEntity
  8
0
100
AcDbLine
 10
866.7135829999999
 20
91.00914000000001
 30
0.0
 11
866.178522
 21
90.62000500000001
 31
0.0
  0
LINE
  5
C99
330
6B
100
AcDbEntity
  8
0
100
AcDbLine
 10
866.178522
 20
90.62000500000001
 30
0.0
 11
865.9353130000001
 21
90.23087
 31
0.0
  0
LINE
  5
C9A
330
6B
100
AcDbEntity
  8
0
100
AcDbLine
 10
865.9353130000001
 20
90.23087
 30
0.0
 11
866.178522
 21
89.841735
 31
0.0
  0
LINE
  5
C9B
330
6B
100
AcDbEntity
  8
0
100
AcDbLine
 10
866.178522
 20
89.841735
 30
0.0
 11
866.7135829999999
 21
89.45260000000002
 31
0.0
  0
LINE
  5
C9C
330
6B
100
AcDbEntity
  8
0
100
AcDbLine
 10
882.0365890000001
 20
90.23087
 30
0.0
 11
882.031169
 21
90.30995500000001
 31
0.0
  0
LINE
  5
C9D
330
6B
100
AcDbEntity
  8
0
100
AcDbLine
 10
882.031169
 20
90.30995500000001
 30
0.0
 11
882.020666
 21
90.38822000000001
 31
0.0
  0
LINE
  5
C9E
330
6B
100
AcDbEntity
  8
0
100
AcDbLine
 10
882.020666
 20
90.38822000000001
 30
0.0
 11
882.0018599999999
 21
90.46251899999999
 31
0.0
  0
LINE
  5
C9F
330
6B
100
AcDbEntity
  8
0
100
AcDbLine
 10
882.0018599999999
 20
90.46251899999999
 30
0.0
 11
881.9750220000001
 21
90.53454499999999
 31
0.0
  0
LINE
  5
CA0
330
6B
100
AcDbEntity
  8
0
100
AcDbLine
 10
881.9750220000001
 20
90.53454499999999
 30
0.0
 11
881.942057
 21
90.60242100000001
 31
0.0
  0
LINE
  5
CA1
330
6B
100
AcDbEntity
  8
0
100
AcDbLine
 10
881.942057
 20
90.60242100000001
 30
0.0
 11
881.9028429999999
 21
90.666776
 31
0.0
  0
LINE
  5
CA2
330
6B
100
AcDbEntity
  8
0
100
AcDbLine
 10
881.9028429999999
 20
90.666776
 30
0.0
 11
881.857862
 21
90.72659200000002
 31
0.0
  0
LINE
  5
CA3
330
6B
100
AcDbEntity
  8
0
100
AcDbLine
 10
881.857862
 20
90.72659200000002
 30
0.0
 11
881.807316
 21
90.78184499999997
 31
0.0
  0
LINE
  5
CA4
330
6B
100
AcDbEntity
  8
0
100
AcDbLine
 10
881.807316
 20
90.78184499999997
 30
0.0
 11
881.7517289999997
 21
90.832054
 31
0.0
  0
LINE
  5
CA5
330
6B
100
AcDbEntity
  8
0
100
AcDbLine
 10
881.7517289999997
 20
90.832054
 30
0.0
 11
881.691625
 21
90.87668499999999
 31
0.0
  0
LINE
  5
CA6
330
6B
100
AcDbEntity
  8
0
100
AcDbLine
 10
881.691625
 20
90.87668499999999
 30
0.0
 11
881.627023
 21
90.91556500000001
 31
0.0
  0
LINE
  5
CA7
330
6B
100
AcDbEntity
  8
0
100
AcDbLine
 10
881.627023
 20
90.91556500000001
 30
0.0
 11
881.558959
 21
90.948226
 31
0.0
  0
LINE
  5
CA8
330
6B
100
AcDbEntity
  8
0
100
AcDbLine
 10
881.558959
 20
90.948226
 30
0.0
 11
881.4868439999996
 21
90.97478999999999
 31
0.0
  0
LINE
  5
CA9
330
6B
100
AcDbEntity
  8
0
100
AcDbLine
 10
881.4868439999996
 20
90.97478999999999
 30
0.0
 11
881.4125019999996
 21
90.99339999999999
 31
0.0
  0
LINE
  5
CAA
330
6B
100
AcDbEntity
  8
0
100
AcDbLine
 10
881.4125019999996
 20
90.99339999999999
 30
0.0
 11
881.334372
 21
91.00377700000001
 31
0.0
  0
LINE
  5
CAB
330
6B
100
AcDbEntity
  8
0
100
AcDbLine
 10
881.334372
 20
91.00377700000001
 30
0.0
 11
881.255441
 21
91.00914000000001
 31
0.0
  0
LINE
  5
CAC
330
6B
100
AcDbEntity
  8
0
100
AcDbLine
 10
881.255441
 20
112.589238
 30
0.0
 11
881.7926150000001
 21
112.97916
 31
0.0
  0
LINE
  5
CAD
330
6B
100
AcDbEntity
  8
0
100
AcDbLine
 10
881.7926150000001
 20
112.97916
 30
0.0
 11
882.0365890000001
 21
113.368947
 31
0.0
  0
LINE
  5
CAE
330
6B
100
AcDbEntity
  8
0
100
AcDbLine
 10
882.0365890000001
 20
113.368947
 30
0.0
 11
881.7923460000001
 21
113.75815
 31
0.0
  0
LINE
  5
CAF
330
6B
100
AcDbEntity
  8
0
100
AcDbLine
 10
881.7923460000001
 20
113.75815
 30
0.0
 11
881.255441
 21
114.147217
 31
0.0
  0
LINE
  5
CB0
330
6B
100
AcDbEntity
  8
0
100
AcDbLine
 10
866.7135829999999
 20
114.147217
 30
0.0
 11
866.178657
 21
113.758149
 31
0.0
  0
LINE
  5
CB1
330
6B
100
AcDbEntity
  8
0
100
AcDbLine
 10
866.178657
 20
113.758149
 30
0.0
 11
865.9353130000001
 21
113.368947
 31
0.0
  0
LINE
  5
CB2
330
6B
100
AcDbEntity
  8
0
100
AcDbLine
 10
865.9353130000001
 20
113.368947
 30
0.0
 11
866.1783869999997
 21
112.97916
 31
0.0
  0
LINE
  5
CB3
330
6B
100
AcDbEntity
  8
0
100
AcDbLine
 10
866.1783869999997
 20
112.97916
 30
0.0
 11
866.7135829999999
 21
112.589238
 31
0.0
  0
LINE
  5
CB4
330
6B
100
AcDbEntity
  8
0
100
AcDbLine
 10
934.957531
 20
109.343808
 30
0.0
 11
935.03667
 21
109.349188
 31
0.0
  0
LINE
  5
CB5
330
6B
100
AcDbEntity
  8
0
100
AcDbLine
 10
935.03667
 20
109.349188
 30
0.0
 11
935.1150039999996
 21
109.35961
 31
0.0
  0
LINE
  5
CB6
330
6B
100
AcDbEntity
  8
0
100
AcDbLine
 10
935.1150039999996
 20
109.35961
 30
0.0
 11
935.18945
 21
109.378285
 31
0.0
  0
LINE
  5
CB7
330
6B
100
AcDbEntity
  8
0
100
AcDbLine
 10
935.18945
 20
109.378285
 30
0.0
 11
935.261655
 21
109.404947
 31
0.0
  0
LINE
  5
CB8
330
6B
100
AcDbEntity
  8
0
100
AcDbLine
 10
935.261655
 20
109.404947
 30
0.0
 11
935.3297429999999
 21
109.437713
 31
0.0
  0
LINE
  5
CB9
330
6B
100
AcDbEntity
  8
0
100
AcDbLine
 10
935.3297429999999
 20
109.437713
 30
0.0
 11
935.394347
 21
109.476719
 31
0.0
  0
LINE
  5
CBA
330
6B
100
AcDbEntity
  8
0
100
AcDbLine
 10
935.394347
 20
109.476719
 30
0.0
 11
935.454415
 21
109.521478
 31
0.0
  0
LINE
  5
CBB
330
6B
100
AcDbEntity
  8
0
100
AcDbLine
 10
935.454415
 20
109.521478
 30
0.0
 11
935.509944
 21
109.571822
 31
0.0
  0
LINE
  5
CBC
330
6B
100
AcDbEntity
  8
0
100
AcDbLine
 10
935.509944
 20
109.571822
 30
0.0
 11
935.5604170000001
 21
109.627211
 31
0.0
  0
LINE
  5
CBD
330
6B
100
AcDbEntity
  8
0
100
AcDbLine
 10
935.5604170000001
 20
109.627211
 30
0.0
 11
935.6053119999996
 21
109.687156
 31
0.0
  0
LINE
  5
CBE
330
6B
100
AcDbEntity
  8
0
100
AcDbLine
 10
935.6053119999996
 20
109.687156
 30
0.0
 11
935.644437
 21
109.751633
 31
0.0
  0
LINE
  5
CBF
330
6B
100
AcDbEntity
  8
0
100
AcDbLine
 10
935.644437
 20
109.751633
 30
0.0
 11
935.6773139999999
 21
109.819617
 31
0.0
  0
LINE
  5
CC0
330
6B
100
AcDbEntity
  8
0
100
AcDbLine
 10
935.6773139999999
 20
109.819617
 30
0.0
 11
935.7040699999997
 21
109.891732
 31
0.0
  0
LINE
  5
CC1
330
6B
100
AcDbEntity
  8
0
100
AcDbLine
 10
935.7040699999997
 20
109.891732
 30
0.0
 11
935.722815
 21
109.966105
 31
0.0
  0
LINE
  5
CC2
330
6B
100
AcDbEntity
  8
0
100
AcDbLine
 10
935.722815
 20
109.966105
 30
0.0
 11
935.733278
 21
110.044404
 31
0.0
  0
LINE
  5
CC3
330
6B
100
AcDbEntity
  8
0
100
AcDbLine
 10
935.733278
 20
110.044404
 30
0.0
 11
935.7386779999997
 21
110.123517
 31
0.0
  0
LINE
  5
CC4
330
6B
100
AcDbEntity
  8
0
100
AcDbLine
 10
920.4163919999999
 20
110.900348
 30
0.0
 11
919.881106
 21
110.512067
 31
0.0
  0
LINE
  5
CC5
330
6B
100
AcDbEntity
  8
0
100
AcDbLine
 10
919.881106
 20
110.512067
 30
0.0
 11
919.637402
 21
110.123517
 31
0.0
  0
LINE
  5
CC6
330
6B
100
AcDbEntity
  8
0
100
AcDbLine
 10
919.637402
 20
110.123517
 30
0.0
 11
919.8805660000001
 21
109.733797
 31
0.0
  0
LINE
  5
CC7
330
6B
100
AcDbEntity
  8
0
100
AcDbLine
 10
919.8805660000001
 20
109.733797
 30
0.0
 11
920.4163919999999
 21
109.343808
 31
0.0
  0
LINE
  5
CC8
330
6B
100
AcDbEntity
  8
0
100
AcDbLine
 10
935.7386779999997
 20
110.123517
 30
0.0
 11
935.733278
 21
110.202362
 31
0.0
  0
LINE
  5
CC9
330
6B
100
AcDbEntity
  8
0
100
AcDbLine
 10
935.733278
 20
110.202362
 30
0.0
 11
935.722815
 21
110.280392
 31
0.0
  0
LINE
  5
CCA
330
6B
100
AcDbEntity
  8
0
100
AcDbLine
 10
935.722815
 20
110.280392
 30
0.0
 11
935.7040689999999
 21
110.354508
 31
0.0
  0
LINE
  5
CCB
330
6B
100
AcDbEntity
  8
0
100
AcDbLine
 10
935.7040689999999
 20
110.354508
 30
0.0
 11
935.6773139999999
 21
110.42636
 31
0.0
  0
LINE
  5
CCC
330
6B
100
AcDbEntity
  8
0
100
AcDbLine
 10
935.6773139999999
 20
110.42636
 30
0.0
 11
935.6444320000001
 21
110.494104
 31
0.0
  0
LINE
  5
CCD
330
6B
100
AcDbEntity
  8
0
100
AcDbLine
 10
935.6444320000001
 20
110.494104
 30
0.0
 11
935.6053119999996
 21
110.558335
 31
0.0
  0
LINE
  5
CCE
330
6B
100
AcDbEntity
  8
0
100
AcDbLine
 10
935.6053119999996
 20
110.558335
 30
0.0
 11
935.5604089999999
 21
110.618064
 31
0.0
  0
LINE
  5
CCF
330
6B
100
AcDbEntity
  8
0
100
AcDbLine
 10
935.5604089999999
 20
110.618064
 30
0.0
 11
935.509944
 21
110.673233
 31
0.0
  0
LINE
  5
CD0
330
6B
100
AcDbEntity
  8
0
100
AcDbLine
 10
935.509944
 20
110.673233
 30
0.0
 11
935.4544049999999
 21
110.723391
 31
0.0
  0
LINE
  5
CD1
330
6B
100
AcDbEntity
  8
0
100
AcDbLine
 10
935.4544049999999
 20
110.723391
 30
0.0
 11
935.394347
 21
110.767968
 31
0.0
  0
LINE
  5
CD2
330
6B
100
AcDbEntity
  8
0
100
AcDbLine
 10
935.394347
 20
110.767968
 30
0.0
 11
935.329733
 21
110.806826
 31
0.0
  0
LINE
  5
CD3
330
6B
100
AcDbEntity
  8
0
100
AcDbLine
 10
935.329733
 20
110.806826
 30
0.0
 11
935.261655
 21
110.839456
 31
0.0
  0
LINE
  5
CD4
330
6B
100
AcDbEntity
  8
0
100
AcDbLine
 10
935.261655
 20
110.839456
 30
0.0
 11
935.189442
 21
110.866013
 31
0.0
  0
LINE
  5
CD5
330
6B
100
AcDbEntity
  8
0
100
AcDbLine
 10
935.189442
 20
110.866013
 30
0.0
 11
935.1150039999996
 21
110.884611
 31
0.0
  0
LINE
  5
CD6
330
6B
100
AcDbEntity
  8
0
100
AcDbLine
 10
935.1150039999996
 20
110.884611
 30
0.0
 11
935.0366669999999
 21
110.894991
 31
0.0
  0
LINE
  5
CD7
330
6B
100
AcDbEntity
  8
0
100
AcDbLine
 10
935.0366669999999
 20
110.894991
 30
0.0
 11
934.957531
 21
110.900348
 31
0.0
  0
LINE
  5
CD8
330
6B
100
AcDbEntity
  8
0
100
AcDbLine
 10
908.1072050000001
 20
112.589238
 30
0.0
 11
908.186317
 21
112.594638
 31
0.0
  0
LINE
  5
CD9
330
6B
100
AcDbEntity
  8
0
100
AcDbLine
 10
908.186317
 20
112.594638
 30
0.0
 11
908.264617
 21
112.605099
 31
0.0
  0
LINE
  5
CDA
330
6B
100
AcDbEntity
  8
0
100
AcDbLine
 10
908.264617
 20
112.605099
 30
0.0
 11
908.3389889999999
 21
112.623836
 31
0.0
  0
LINE
  5
CDB
330
6B
100
AcDbEntity
  8
0
100
AcDbLine
 10
908.3389889999999
 20
112.623836
 30
0.0
 11
908.411105
 21
112.65058
 31
0.0
  0
LINE
  5
CDC
330
6B
100
AcDbEntity
  8
0
100
AcDbLine
 10
908.411105
 20
112.65058
 30
0.0
 11
908.479085
 21
112.683434
 31
0.0
  0
LINE
  5
CDD
330
6B
100
AcDbEntity
  8
0
100
AcDbLine
 10
908.479085
 20
112.683434
 30
0.0
 11
908.5435659999999
 21
112.722528
 31
0.0
  0
LINE
  5
CDE
330
6B
100
AcDbEntity
  8
0
100
AcDbLine
 10
908.5435659999999
 20
112.722528
 30
0.0
 11
908.603506
 21
112.767374
 31
0.0
  0
LINE
  5
CDF
330
6B
100
AcDbEntity
  8
0
100
AcDbLine
 10
908.603506
 20
112.767374
 30
0.0
 11
908.6589
 21
112.817792
 31
0.0
  0
LINE
  5
CE0
330
6B
100
AcDbEntity
  8
0
100
AcDbLine
 10
908.6589
 20
112.817792
 30
0.0
 11
908.7092379999999
 21
112.873237
 31
0.0
  0
LINE
  5
CE1
330
6B
100
AcDbEntity
  8
0
100
AcDbLine
 10
908.7092379999999
 20
112.873237
 30
0.0
 11
908.7540029999999
 21
112.933218
 31
0.0
  0
LINE
  5
CE2
330
6B
100
AcDbEntity
  8
0
100
AcDbLine
 10
908.7540029999999
 20
112.933218
 30
0.0
 11
908.7930019999999
 21
112.997694
 31
0.0
  0
LINE
  5
CE3
330
6B
100
AcDbEntity
  8
0
100
AcDbLine
 10
908.7930019999999
 20
112.997694
 30
0.0
 11
908.825775
 21
113.065654
 31
0.0
  0
LINE
  5
CE4
330
6B
100
AcDbEntity
  8
0
100
AcDbLine
 10
908.825775
 20
113.065654
 30
0.0
 11
908.852433
 21
113.137679
 31
0.0
  0
LINE
  5
CE5
330
6B
100
AcDbEntity
  8
0
100
AcDbLine
 10
908.852433
 20
113.137679
 30
0.0
 11
908.8711120000001
 21
113.211948
 31
0.0
  0
LINE
  5
CE6
330
6B
100
AcDbEntity
  8
0
100
AcDbLine
 10
908.8711120000001
 20
113.211948
 30
0.0
 11
908.8815309999999
 21
113.290044
 31
0.0
  0
LINE
  5
CE7
330
6B
100
AcDbEntity
  8
0
100
AcDbLine
 10
908.8815309999999
 20
113.290044
 30
0.0
 11
908.8869139999999
 21
113.368947
 31
0.0
  0
LINE
  5
CE8
330
6B
100
AcDbEntity
  8
0
100
AcDbLine
 10
893.5660659999998
 20
114.147217
 30
0.0
 11
893.030646
 21
113.758149
 31
0.0
  0
LINE
  5
CE9
330
6B
100
AcDbEntity
  8
0
100
AcDbLine
 10
893.030646
 20
113.758149
 30
0.0
 11
892.787077
 21
113.368947
 31
0.0
  0
LINE
  5
CEA
330
6B
100
AcDbEntity
  8
0
100
AcDbLine
 10
892.787077
 20
113.368947
 30
0.0
 11
893.0303759999999
 21
112.97916
 31
0.0
  0
LINE
  5
CEB
330
6B
100
AcDbEntity
  8
0
100
AcDbLine
 10
893.0303759999999
 20
112.97916
 30
0.0
 11
893.5660659999998
 21
112.589238
 31
0.0
  0
LINE
  5
CEC
330
6B
100
AcDbEntity
  8
0
100
AcDbLine
 10
908.8869139999999
 20
113.368947
 30
0.0
 11
908.881534
 21
113.447819
 31
0.0
  0
LINE
  5
CED
330
6B
100
AcDbEntity
  8
0
100
AcDbLine
 10
908.881534
 20
113.447819
 30
0.0
 11
908.8711120000001
 21
113.525884
 31
0.0
  0
LINE
  5
CEE
330
6B
100
AcDbEntity
  8
0
100
AcDbLine
 10
908.8711120000001
 20
113.525884
 30
0.0
 11
908.852435
 21
113.600073
 31
0.0
  0
LINE
  5
CEF
330
6B
100
AcDbEntity
  8
0
100
AcDbLine
 10
908.852435
 20
113.600073
 30
0.0
 11
908.825775
 21
113.672015
 31
0.0
  0
LINE
  5
CF0
330
6B
100
AcDbEntity
  8
0
100
AcDbLine
 10
908.825775
 20
113.672015
 30
0.0
 11
908.7930039999999
 21
113.739863
 31
0.0
  0
LINE
  5
CF1
330
6B
100
AcDbEntity
  8
0
100
AcDbLine
 10
908.7930039999999
 20
113.739863
 30
0.0
 11
908.7540029999999
 21
113.80422
 31
0.0
  0
LINE
  5
CF2
330
6B
100
AcDbEntity
  8
0
100
AcDbLine
 10
908.7540029999999
 20
113.80422
 30
0.0
 11
908.7092359999999
 21
113.864073
 31
0.0
  0
LINE
  5
CF3
330
6B
100
AcDbEntity
  8
0
100
AcDbLine
 10
908.7092359999999
 20
113.864073
 30
0.0
 11
908.6589
 21
113.919383
 31
0.0
  0
LINE
  5
CF4
330
6B
100
AcDbEntity
  8
0
100
AcDbLine
 10
908.6589
 20
113.919383
 30
0.0
 11
908.6035010000001
 21
113.96967
 31
0.0
  0
LINE
  5
CF5
330
6B
100
AcDbEntity
  8
0
100
AcDbLine
 10
908.6035010000001
 20
113.96967
 30
0.0
 11
908.5435659999999
 21
114.014382
 31
0.0
  0
LINE
  5
CF6
330
6B
100
AcDbEntity
  8
0
100
AcDbLine
 10
908.5435659999999
 20
114.014382
 30
0.0
 11
908.479078
 21
114.053359
 31
0.0
  0
LINE
  5
CF7
330
6B
100
AcDbEntity
  8
0
100
AcDbLine
 10
908.479078
 20
114.053359
 30
0.0
 11
908.411105
 21
114.0861
 31
0.0
  0
LINE
  5
CF8
330
6B
100
AcDbEntity
  8
0
100
AcDbLine
 10
908.411105
 20
114.0861
 30
0.0
 11
908.338982
 21
114.112752
 31
0.0
  0
LINE
  5
CF9
330
6B
100
AcDbEntity
  8
0
100
AcDbLine
 10
908.338982
 20
114.112752
 30
0.0
 11
908.264617
 21
114.131418
 31
0.0
  0
LINE
  5
CFA
330
6B
100
AcDbEntity
  8
0
100
AcDbLine
 10
908.264617
 20
114.131418
 30
0.0
 11
908.1863140000001
 21
114.14184
 31
0.0
  0
LINE
  5
CFB
330
6B
100
AcDbEntity
  8
0
100
AcDbLine
 10
908.1863140000001
 20
114.14184
 30
0.0
 11
908.1072050000001
 21
114.147217
 31
0.0
  0
LINE
  5
CFC
330
6B
100
AcDbEntity
  8
0
100
AcDbLine
 10
881.255441
 20
92.69946899999998
 30
0.0
 11
881.3343749999997
 21
92.704854
 31
0.0
  0
LINE
  5
CFD
330
6B
100
AcDbEntity
  8
0
100
AcDbLine
 10
881.3343749999997
 20
92.704854
 30
0.0
 11
881.4125019999996
 21
92.715271
 31
0.0
  0
LINE
  5
CFE
330
6B
100
AcDbEntity
  8
0
100
AcDbLine
 10
881.4125019999996
 20
92.715271
 30
0.0
 11
881.4868500000001
 21
92.73395200000001
 31
0.0
  0
LINE
  5
CFF
330
6B
100
AcDbEntity
  8
0
100
AcDbLine
 10
881.4868500000001
 20
92.73395200000001
 30
0.0
 11
881.558959
 21
92.76060800000001
 31
0.0
  0
LINE
  5
D00
330
6B
100
AcDbEntity
  8
0
100
AcDbLine
 10
881.558959
 20
92.76060800000001
 30
0.0
 11
881.6270300000001
 21
92.79338199999999
 31
0.0
  0
LINE
  5
D01
330
6B
100
AcDbEntity
  8
0
100
AcDbLine
 10
881.6270300000001
 20
92.79338199999999
 30
0.0
 11
881.691625
 21
92.83238
 31
0.0
  0
LINE
  5
D02
330
6B
100
AcDbEntity
  8
0
100
AcDbLine
 10
881.691625
 20
92.83238
 30
0.0
 11
881.751734
 21
92.877144
 31
0.0
  0
LINE
  5
D03
330
6B
100
AcDbEntity
  8
0
100
AcDbLine
 10
881.751734
 20
92.877144
 30
0.0
 11
881.807316
 21
92.92748299999999
 31
0.0
  0
LINE
  5
D04
330
6B
100
AcDbEntity
  8
0
100
AcDbLine
 10
881.807316
 20
92.92748299999999
 30
0.0
 11
881.857864
 21
92.982872
 31
0.0
  0
LINE
  5
D05
330
6B
100
AcDbEntity
  8
0
100
AcDbLine
 10
881.857864
 20
92.982872
 30
0.0
 11
881.9028429999999
 21
93.042817
 31
0.0
  0
LINE
  5
D06
330
6B
100
AcDbEntity
  8
0
100
AcDbLine
 10
881.9028429999999
 20
93.042817
 30
0.0
 11
881.9420550000003
 21
93.10729100000001
 31
0.0
  0
LINE
  5
D07
330
6B
100
AcDbEntity
  8
0
100
AcDbLine
 10
881.9420550000003
 20
93.10729100000001
 30
0.0
 11
881.9750220000001
 21
93.175278
 31
0.0
  0
LINE
  5
D08
330
6B
100
AcDbEntity
  8
0
100
AcDbLine
 10
881.9750220000001
 20
93.175278
 30
0.0
 11
882.0018579999999
 21
93.24738700000001
 31
0.0
  0
LINE
  5
D09
330
6B
100
AcDbEntity
  8
0
100
AcDbLine
 10
882.0018579999999
 20
93.24738700000001
 30
0.0
 11
882.020666
 21
93.321766
 31
0.0
  0
LINE
  5
D0A
330
6B
100
AcDbEntity
  8
0
100
AcDbLine
 10
882.020666
 20
93.321766
 30
0.0
 11
882.0311659999999
 21
93.400063
 31
0.0
  0
LINE
  5
D0B
330
6B
100
AcDbEntity
  8
0
100
AcDbLine
 10
882.0311659999999
 20
93.400063
 30
0.0
 11
882.0365890000001
 21
93.47917800000001
 31
0.0
  0
LINE
  5
D0C
330
6B
100
AcDbEntity
  8
0
100
AcDbLine
 10
866.7135829999999
 20
94.256009
 30
0.0
 11
866.178792
 21
93.86772800000001
 31
0.0
  0
LINE
  5
D0D
330
6B
100
AcDbEntity
  8
0
100
AcDbLine
 10
866.178792
 20
93.86772800000001
 30
0.0
 11
865.9353130000001
 21
93.47917800000001
 31
0.0
  0
LINE
  5
D0E
330
6B
100
AcDbEntity
  8
0
100
AcDbLine
 10
865.9353130000001
 20
93.47917800000001
 30
0.0
 11
866.1782519999999
 21
93.089458
 31
0.0
  0
LINE
  5
D0F
330
6B
100
AcDbEntity
  8
0
100
AcDbLine
 10
866.1782519999999
 20
93.089458
 30
0.0
 11
866.7135829999999
 21
92.69946899999998
 31
0.0
  0
LINE
  5
D10
330
6B
100
AcDbEntity
  8
0
100
AcDbLine
 10
882.0365890000001
 20
93.47917800000001
 30
0.0
 11
882.0311609999999
 21
93.557819
 31
0.0
  0
LINE
  5
D11
330
6B
100
AcDbEntity
  8
0
100
AcDbLine
 10
882.0311609999999
 20
93.557819
 30
0.0
 11
882.020666
 21
93.63564
 31
0.0
  0
LINE
  5
D12
330
6B
100
AcDbEntity
  8
0
100
AcDbLine
 10
882.020666
 20
93.63564
 30
0.0
 11
882.001851
 21
93.709664
 31
0.0
  0
LINE
  5
D13
330
6B
100
AcDbEntity
  8
0
100
AcDbLine
 10
882.001851
 20
93.709664
 30
0.0
 11
881.9750220000001
 21
93.781414
 31
0.0
  0
LINE
  5
D14
330
6B
100
AcDbEntity
  8
0
100
AcDbLine
 10
881.9750220000001
 20
93.781414
 30
0.0
 11
881.942042
 21
93.849146
 31
0.0
  0
LINE
  5
D15
330
6B
100
AcDbEntity
  8
0
100
AcDbLine
 10
881.942042
 20
93.849146
 30
0.0
 11
881.9028429999999
 21
93.913364
 31
0.0
  0
LINE
  5
D16
330
6B
100
AcDbEntity
  8
0
100
AcDbLine
 10
881.9028429999999
 20
93.913364
 30
0.0
 11
881.857851
 21
93.97313299999998
 31
0.0
  0
LINE
  5
D17
330
6B
100
AcDbEntity
  8
0
100
AcDbLine
 10
881.857851
 20
93.97313299999998
 30
0.0
 11
881.807316
 21
94.028354
 31
0.0
  0
LINE
  5
D18
330
6B
100
AcDbEntity
  8
0
100
AcDbLine
 10
881.807316
 20
94.028354
 30
0.0
 11
881.7517239999999
 21
94.07858299999999
 31
0.0
  0
LINE
  5
D19
330
6B
100
AcDbEntity
  8
0
100
AcDbLine
 10
881.7517239999999
 20
94.07858299999999
 30
0.0
 11
881.691625
 21
94.12325
 31
0.0
  0
LINE
  5
D1A
330
6B
100
AcDbEntity
  8
0
100
AcDbLine
 10
881.691625
 20
94.12325
 30
0.0
 11
881.6270239999999
 21
94.16218699999999
 31
0.0
  0
LINE
  5
D1B
330
6B
100
AcDbEntity
  8
0
100
AcDbLine
 10
881.6270239999999
 20
94.16218699999999
 30
0.0
 11
881.558959
 21
94.19491499999999
 31
0.0
  0
LINE
  5
D1C
330
6B
100
AcDbEntity
  8
0
100
AcDbLine
 10
881.558959
 20
94.19491499999999
 30
0.0
 11
881.4868479999999
 21
94.22154599999997
 31
0.0
  0
LINE
  5
D1D
330
6B
100
AcDbEntity
  8
0
100
AcDbLine
 10
881.4868479999999
 20
94.22154599999997
 30
0.0
 11
881.4125019999996
 21
94.24021299999999
 31
0.0
  0
LINE
  5
D1E
330
6B
100
AcDbEntity
  8
0
100
AcDbLine
 10
881.4125019999996
 20
94.24021299999999
 30
0.0
 11
881.334374
 21
94.25062399999999
 31
0.0
  0
LINE
  5
D1F
330
6B
100
AcDbEntity
  8
0
100
AcDbLine
 10
881.334374
 20
94.25062399999999
 30
0.0
 11
881.255441
 21
94.256009
 31
0.0
  0
LINE
  5
D20
330
6B
100
AcDbEntity
  8
0
100
AcDbLine
 10
920.4163919999999
 20
104.409488
 30
0.0
 11
920.3373009999999
 21
104.404134
 31
0.0
  0
LINE
  5
D21
330
6B
100
AcDbEntity
  8
0
100
AcDbLine
 10
920.3373009999999
 20
104.404134
 30
0.0
 11
920.259011
 21
104.393748
 31
0.0
  0
LINE
  5
D22
330
6B
100
AcDbEntity
  8
0
100
AcDbLine
 10
920.259011
 20
104.393748
 30
0.0
 11
920.184691
 21
104.375146
 31
0.0
  0
LINE
  5
D23
330
6B
100
AcDbEntity
  8
0
100
AcDbLine
 10
920.184691
 20
104.375146
 30
0.0
 11
920.112605
 21
104.348573
 31
0.0
  0
LINE
  5
D24
330
6B
100
AcDbEntity
  8
0
100
AcDbLine
 10
920.112605
 20
104.348573
 30
0.0
 11
920.044691
 21
104.315922
 31
0.0
  0
LINE
  5
D25
330
6B
100
AcDbEntity
  8
0
100
AcDbLine
 10
920.044691
 20
104.315922
 30
0.0
 11
919.980258
 21
104.277032
 31
0.0
  0
LINE
  5
D26
330
6B
100
AcDbEntity
  8
0
100
AcDbLine
 10
919.980258
 20
104.277032
 30
0.0
 11
919.9203869999999
 21
104.232403
 31
0.0
  0
LINE
  5
D27
330
6B
100
AcDbEntity
  8
0
100
AcDbLine
 10
919.9203869999999
 20
104.232403
 30
0.0
 11
919.8650569999999
 21
104.182192
 31
0.0
  0
LINE
  5
D28
330
6B
100
AcDbEntity
  8
0
100
AcDbLine
 10
919.8650569999999
 20
104.182192
 30
0.0
 11
919.814782
 21
104.126933
 31
0.0
  0
LINE
  5
D29
330
6B
100
AcDbEntity
  8
0
100
AcDbLine
 10
919.814782
 20
104.126933
 30
0.0
 11
919.7700859999999
 21
104.067123
 31
0.0
  0
LINE
  5
D2A
330
6B
100
AcDbEntity
  8
0
100
AcDbLine
 10
919.7700859999999
 20
104.067123
 30
0.0
 11
919.731136
 21
104.002754
 31
0.0
  0
LINE
  5
D2B
330
6B
100
AcDbEntity
  8
0
100
AcDbLine
 10
919.731136
 20
104.002754
 30
0.0
 11
919.6984290000001
 21
103.934892
 31
0.0
  0
LINE
  5
D2C
330
6B
100
AcDbEntity
  8
0
100
AcDbLine
 10
919.6984290000001
 20
103.934892
 30
0.0
 11
919.671809
 21
103.862851
 31
0.0
  0
LINE
  5
D2D
330
6B
100
AcDbEntity
  8
0
100
AcDbLine
 10
919.671809
 20
103.862851
 30
0.0
 11
919.653173
 21
103.788567
 31
0.0
  0
LINE
  5
D2E
330
6B
100
AcDbEntity
  8
0
100
AcDbLine
 10
919.653173
 20
103.788567
 30
0.0
 11
919.6427660000001
 21
103.710295
 31
0.0
  0
LINE
  5
D2F
330
6B
100
AcDbEntity
  8
0
100
AcDbLine
 10
919.6427660000001
 20
103.710295
 30
0.0
 11
919.637402
 21
103.631217
 31
0.0
  0
LINE
  5
D30
330
6B
100
AcDbEntity
  8
0
100
AcDbLine
 10
934.957531
 20
102.851508
 30
0.0
 11
935.4947049999999
 21
103.241431
 31
0.0
  0
LINE
  5
D31
330
6B
100
AcDbEntity
  8
0
100
AcDbLine
 10
935.4947049999999
 20
103.241431
 30
0.0
 11
935.7386779999997
 21
103.631217
 31
0.0
  0
LINE
  5
D32
330
6B
100
AcDbEntity
  8
0
100
AcDbLine
 10
935.7386779999997
 20
103.631217
 30
0.0
 11
935.494435
 21
104.02042
 31
0.0
  0
LINE
  5
D33
330
6B
100
AcDbEntity
  8
0
100
AcDbLine
 10
935.494435
 20
104.02042
 30
0.0
 11
934.957531
 21
104.409488
 31
0.0
  0
LINE
  5
D34
330
6B
100
AcDbEntity
  8
0
100
AcDbLine
 10
919.637402
 20
103.631217
 30
0.0
 11
919.642774
 21
103.552316
 31
0.0
  0
LINE
  5
D35
330
6B
100
AcDbEntity
  8
0
100
AcDbLine
 10
919.642774
 20
103.552316
 30
0.0
 11
919.653173
 21
103.474219
 31
0.0
  0
LINE
  5
D36
330
6B
100
AcDbEntity
  8
0
100
AcDbLine
 10
919.653173
 20
103.474219
 30
0.0
 11
919.671817
 21
103.399953
 31
0.0
  0
LINE
  5
D37
330
6B
100
AcDbEntity
  8
0
100
AcDbLine
 10
919.671817
 20
103.399953
 30
0.0
 11
919.6984290000001
 21
103.327925
 31
0.0
  0
LINE
  5
D38
330
6B
100
AcDbEntity
  8
0
100
AcDbLine
 10
919.6984290000001
 20
103.327925
 30
0.0
 11
919.7311449999999
 21
103.259968
 31
0.0
  0
LINE
  5
D39
330
6B
100
AcDbEntity
  8
0
100
AcDbLine
 10
919.7311449999999
 20
103.259968
 30
0.0
 11
919.7700859999999
 21
103.195489
 31
0.0
  0
LINE
  5
D3A
330
6B
100
AcDbEntity
  8
0
100
AcDbLine
 10
919.7700859999999
 20
103.195489
 30
0.0
 11
919.8147849999999
 21
103.13551
 31
0.0
  0
LINE
  5
D3B
330
6B
100
AcDbEntity
  8
0
100
AcDbLine
 10
919.8147849999999
 20
103.13551
 30
0.0
 11
919.8650569999999
 21
103.080062
 31
0.0
  0
LINE
  5
D3C
330
6B
100
AcDbEntity
  8
0
100
AcDbLine
 10
919.8650569999999
 20
103.080062
 30
0.0
 11
919.920383
 21
103.029646
 31
0.0
  0
LINE
  5
D3D
330
6B
100
AcDbEntity
  8
0
100
AcDbLine
 10
919.920383
 20
103.029646
 30
0.0
 11
919.980258
 21
102.984799
 31
0.0
  0
LINE
  5
D3E
330
6B
100
AcDbEntity
  8
0
100
AcDbLine
 10
919.980258
 20
102.984799
 30
0.0
 11
920.0446799999999
 21
102.945704
 31
0.0
  0
LINE
  5
D3F
330
6B
100
AcDbEntity
  8
0
100
AcDbLine
 10
920.0446799999999
 20
102.945704
 30
0.0
 11
920.112605
 21
102.91285
 31
0.0
  0
LINE
  5
D40
330
6B
100
AcDbEntity
  8
0
100
AcDbLine
 10
920.112605
 20
102.91285
 30
0.0
 11
920.1846789999999
 21
102.886106
 31
0.0
  0
LINE
  5
D41
330
6B
100
AcDbEntity
  8
0
100
AcDbLine
 10
920.1846789999999
 20
102.886106
 30
0.0
 11
920.259011
 21
102.867369
 31
0.0
  0
LINE
  5
D42
330
6B
100
AcDbEntity
  8
0
100
AcDbLine
 10
920.259011
 20
102.867369
 30
0.0
 11
920.337295
 21
102.856907
 31
0.0
  0
LINE
  5
D43
330
6B
100
AcDbEntity
  8
0
100
AcDbLine
 10
920.337295
 20
102.856907
 30
0.0
 11
920.4163919999999
 21
102.851508
 31
0.0
  0
LINE
  5
D44
330
6B
100
AcDbEntity
  8
0
100
AcDbLine
 10
934.957531
 20
106.0955
 30
0.0
 11
935.0366759999999
 21
106.100925
 31
0.0
  0
LINE
  5
D45
330
6B
100
AcDbEntity
  8
0
100
AcDbLine
 10
935.0366759999999
 20
106.100925
 30
0.0
 11
935.1150039999996
 21
106.11142
 31
0.0
  0
LINE
  5
D46
330
6B
100
AcDbEntity
  8
0
100
AcDbLine
 10
935.1150039999996
 20
106.11142
 30
0.0
 11
935.189461
 21
106.130223
 31
0.0
  0
LINE
  5
D47
330
6B
100
AcDbEntity
  8
0
100
AcDbLine
 10
935.189461
 20
106.130223
 30
0.0
 11
935.261655
 21
106.157044
 31
0.0
  0
LINE
  5
D48
330
6B
100
AcDbEntity
  8
0
100
AcDbLine
 10
935.261655
 20
106.157044
 30
0.0
 11
935.329751
 21
106.18999
 31
0.0
  0
LINE
  5
D49
330
6B
100
AcDbEntity
  8
0
100
AcDbLine
 10
935.329751
 20
106.18999
 30
0.0
 11
935.394347
 21
106.22917
 31
0.0
  0
LINE
  5
D4A
330
6B
100
AcDbEntity
  8
0
100
AcDbLine
 10
935.394347
 20
106.22917
 30
0.0
 11
935.454415
 21
106.274099
 31
0.0
  0
LINE
  5
D4B
330
6B
100
AcDbEntity
  8
0
100
AcDbLine
 10
935.454415
 20
106.274099
 30
0.0
 11
935.509944
 21
106.324594
 31
0.0
  0
LINE
  5
D4C
330
6B
100
AcDbEntity
  8
0
100
AcDbLine
 10
935.509944
 20
106.324594
 30
0.0
 11
935.560408
 21
106.380086
 31
0.0
  0
LINE
  5
D4D
330
6B
100
AcDbEntity
  8
0
100
AcDbLine
 10
935.560408
 20
106.380086
 30
0.0
 11
935.6053119999996
 21
106.440113
 31
0.0
  0
LINE
  5
D4E
330
6B
100
AcDbEntity
  8
0
100
AcDbLine
 10
935.6053119999996
 20
106.440113
 30
0.0
 11
935.6444209999999
 21
106.504573
 31
0.0
  0
LINE
  5
D4F
330
6B
100
AcDbEntity
  8
0
100
AcDbLine
 10
935.6444209999999
 20
106.504573
 30
0.0
 11
935.6773139999999
 21
106.572523
 31
0.0
  0
LINE
  5
D50
330
6B
100
AcDbEntity
  8
0
100
AcDbLine
 10
935.6773139999999
 20
106.572523
 30
0.0
 11
935.704059
 21
106.644445
 31
0.0
  0
LINE
  5
D51
330
6B
100
AcDbEntity
  8
0
100
AcDbLine
 10
935.704059
 20
106.644445
 30
0.0
 11
935.722815
 21
106.718623
 31
0.0
  0
LINE
  5
D52
330
6B
100
AcDbEntity
  8
0
100
AcDbLine
 10
935.722815
 20
106.718623
 30
0.0
 11
935.7332669999999
 21
106.79651
 31
0.0
  0
LINE
  5
D53
330
6B
100
AcDbEntity
  8
0
100
AcDbLine
 10
935.7332669999999
 20
106.79651
 30
0.0
 11
935.7386779999997
 21
106.875209
 31
0.0
  0
LINE
  5
D54
330
6B
100
AcDbEntity
  8
0
100
AcDbLine
 10
920.4163919999999
 20
107.654918
 30
0.0
 11
919.8808360000001
 21
107.265064
 31
0.0
  0
LINE
  5
D55
330
6B
100
AcDbEntity
  8
0
100
AcDbLine
 10
919.8808360000001
 20
107.265064
 30
0.0
 11
919.637402
 21
106.875209
 31
0.0
  0
LINE
  5
D56
330
6B
100
AcDbEntity
  8
0
100
AcDbLine
 10
919.637402
 20
106.875209
 30
0.0
 11
919.8808360000001
 21
106.485355
 31
0.0
  0
LINE
  5
D57
330
6B
100
AcDbEntity
  8
0
100
AcDbLine
 10
919.8808360000001
 20
106.485355
 30
0.0
 11
920.4163919999999
 21
106.0955
 31
0.0
  0
LINE
  5
D58
330
6B
100
AcDbEntity
  8
0
100
AcDbLine
 10
935.7386779999997
 20
106.875209
 30
0.0
 11
935.733278
 21
106.954321
 31
0.0
  0
LINE
  5
D59
330
6B
100
AcDbEntity
  8
0
100
AcDbLine
 10
935.733278
 20
106.954321
 30
0.0
 11
935.722815
 21
107.032621
 31
0.0
  0
LINE
  5
D5A
330
6B
100
AcDbEntity
  8
0
100
AcDbLine
 10
935.722815
 20
107.032621
 30
0.0
 11
935.7040699999997
 21
107.106994
 31
0.0
  0
LINE
  5
D5B
330
6B
100
AcDbEntity
  8
0
100
AcDbLine
 10
935.7040699999997
 20
107.106994
 30
0.0
 11
935.6773139999999
 21
107.179109
 31
0.0
  0
LINE
  5
D5C
330
6B
100
AcDbEntity
  8
0
100
AcDbLine
 10
935.6773139999999
 20
107.179109
 30
0.0
 11
935.644437
 21
107.247092
 31
0.0
  0
LINE
  5
D5D
330
6B
100
AcDbEntity
  8
0
100
AcDbLine
 10
935.644437
 20
107.247092
 30
0.0
 11
935.6053119999996
 21
107.31157
 31
0.0
  0
LINE
  5
D5E
330
6B
100
AcDbEntity
  8
0
100
AcDbLine
 10
935.6053119999996
 20
107.31157
 30
0.0
 11
935.5604170000001
 21
107.371515
 31
0.0
  0
LINE
  5
D5F
330
6B
100
AcDbEntity
  8
0
100
AcDbLine
 10
935.5604170000001
 20
107.371515
 30
0.0
 11
935.509944
 21
107.426903
 31
0.0
  0
LINE
  5
D60
330
6B
100
AcDbEntity
  8
0
100
AcDbLine
 10
935.509944
 20
107.426903
 30
0.0
 11
935.454415
 21
107.477247
 31
0.0
  0
LINE
  5
D61
330
6B
100
AcDbEntity
  8
0
100
AcDbLine
 10
935.454415
 20
107.477247
 30
0.0
 11
935.394347
 21
107.522007
 31
0.0
  0
LINE
  5
D62
330
6B
100
AcDbEntity
  8
0
100
AcDbLine
 10
935.394347
 20
107.522007
 30
0.0
 11
935.3297429999999
 21
107.561012
 31
0.0
  0
LINE
  5
D63
330
6B
100
AcDbEntity
  8
0
100
AcDbLine
 10
935.3297429999999
 20
107.561012
 30
0.0
 11
935.261655
 21
107.593778
 31
0.0
  0
LINE
  5
D64
330
6B
100
AcDbEntity
  8
0
100
AcDbLine
 10
935.261655
 20
107.593778
 30
0.0
 11
935.18945
 21
107.620441
 31
0.0
  0
LINE
  5
D65
330
6B
100
AcDbEntity
  8
0
100
AcDbLine
 10
935.18945
 20
107.620441
 30
0.0
 11
935.1150039999996
 21
107.639116
 31
0.0
  0
LINE
  5
D66
330
6B
100
AcDbEntity
  8
0
100
AcDbLine
 10
935.1150039999996
 20
107.639116
 30
0.0
 11
935.03667
 21
107.649538
 31
0.0
  0
LINE
  5
D67
330
6B
100
AcDbEntity
  8
0
100
AcDbLine
 10
935.03667
 20
107.649538
 30
0.0
 11
934.957531
 21
107.654918
 31
0.0
  0
LINE
  5
D68
330
6B
100
AcDbEntity
  8
0
100
AcDbLine
 10
934.957531
 20
112.589238
 30
0.0
 11
935.0366729999999
 21
112.59464
 31
0.0
  0
LINE
  5
D69
330
6B
100
AcDbEntity
  8
0
100
AcDbLine
 10
935.0366729999999
 20
112.59464
 30
0.0
 11
935.1150039999996
 21
112.605099
 31
0.0
  0
LINE
  5
D6A
330
6B
100
AcDbEntity
  8
0
100
AcDbLine
 10
935.1150039999996
 20
112.605099
 30
0.0
 11
935.1894559999999
 21
112.623838
 31
0.0
  0
LINE
  5
D6B
330
6B
100
AcDbEntity
  8
0
100
AcDbLine
 10
935.1894559999999
 20
112.623838
 30
0.0
 11
935.261655
 21
112.65058
 31
0.0
  0
LINE
  5
D6C
330
6B
100
AcDbEntity
  8
0
100
AcDbLine
 10
935.261655
 20
112.65058
 30
0.0
 11
935.3297469999999
 21
112.683436
 31
0.0
  0
LINE
  5
D6D
330
6B
100
AcDbEntity
  8
0
100
AcDbLine
 10
935.3297469999999
 20
112.683436
 30
0.0
 11
935.394347
 21
112.722528
 31
0.0
  0
LINE
  5
D6E
330
6B
100
AcDbEntity
  8
0
100
AcDbLine
 10
935.394347
 20
112.722528
 30
0.0
 11
935.454415
 21
112.767373
 31
0.0
  0
LINE
  5
D6F
330
6B
100
AcDbEntity
  8
0
100
AcDbLine
 10
935.454415
 20
112.767373
 30
0.0
 11
935.509944
 21
112.817792
 31
0.0
  0
LINE
  5
D70
330
6B
100
AcDbEntity
  8
0
100
AcDbLine
 10
935.509944
 20
112.817792
 30
0.0
 11
935.5604130000001
 21
112.873233
 31
0.0
  0
LINE
  5
D71
330
6B
100
AcDbEntity
  8
0
100
AcDbLine
 10
935.5604130000001
 20
112.873233
 30
0.0
 11
935.6053119999996
 21
112.933218
 31
0.0
  0
LINE
  5
D72
330
6B
100
AcDbEntity
  8
0
100
AcDbLine
 10
935.6053119999996
 20
112.933218
 30
0.0
 11
935.6444289999997
 21
112.997687
 31
0.0
  0
LINE
  5
D73
330
6B
100
AcDbEntity
  8
0
100
AcDbLine
 10
935.6444289999997
 20
112.997687
 30
0.0
 11
935.6773139999999
 21
113.065654
 31
0.0
  0
LINE
  5
D74
330
6B
100
AcDbEntity
  8
0
100
AcDbLine
 10
935.6773139999999
 20
113.065654
 30
0.0
 11
935.704065
 21
113.137673
 31
0.0
  0
LINE
  5
D75
330
6B
100
AcDbEntity
  8
0
100
AcDbLine
 10
935.704065
 20
113.137673
 30
0.0
 11
935.722815
 21
113.211948
 31
0.0
  0
LINE
  5
D76
330
6B
100
AcDbEntity
  8
0
100
AcDbLine
 10
935.722815
 20
113.211948
 30
0.0
 11
935.7332730000001
 21
113.290041
 31
0.0
  0
LINE
  5
D77
330
6B
100
AcDbEntity
  8
0
100
AcDbLine
 10
935.7332730000001
 20
113.290041
 30
0.0
 11
935.7386779999997
 21
113.368947
 31
0.0
  0
LINE
  5
D78
330
6B
100
AcDbEntity
  8
0
100
AcDbLine
 10
920.4163919999999
 20
114.147217
 30
0.0
 11
919.880971
 21
113.758149
 31
0.0
  0
LINE
  5
D79
330
6B
100
AcDbEntity
  8
0
100
AcDbLine
 10
919.880971
 20
113.758149
 30
0.0
 11
919.637402
 21
113.368947
 31
0.0
  0
LINE
  5
D7A
330
6B
100
AcDbEntity
  8
0
100
AcDbLine
 10
919.637402
 20
113.368947
 30
0.0
 11
919.880702
 21
112.97916
 31
0.0
  0
LINE
  5
D7B
330
6B
100
AcDbEntity
  8
0
100
AcDbLine
 10
919.880702
 20
112.97916
 30
0.0
 11
920.4163919999999
 21
112.589238
 31
0.0
  0
LINE
  5
D7C
330
6B
100
AcDbEntity
  8
0
100
AcDbLine
 10
935.7386779999997
 20
113.368947
 30
0.0
 11
935.7332750000001
 21
113.447822
 31
0.0
  0
LINE
  5
D7D
330
6B
100
AcDbEntity
  8
0
100
AcDbLine
 10
935.7332750000001
 20
113.447822
 30
0.0
 11
935.722815
 21
113.525884
 31
0.0
  0
LINE
  5
D7E
330
6B
100
AcDbEntity
  8
0
100
AcDbLine
 10
935.722815
 20
113.525884
 30
0.0
 11
935.7040669999999
 21
113.60008
 31
0.0
  0
LINE
  5
D7F
330
6B
100
AcDbEntity
  8
0
100
AcDbLine
 10
935.7040669999999
 20
113.60008
 30
0.0
 11
935.6773139999999
 21
113.672015
 31
0.0
  0
LINE
  5
D80
330
6B
100
AcDbEntity
  8
0
100
AcDbLine
 10
935.6773139999999
 20
113.672015
 30
0.0
 11
935.6444300000001
 21
113.73987
 31
0.0
  0
LINE
  5
D81
330
6B
100
AcDbEntity
  8
0
100
AcDbLine
 10
935.6444300000001
 20
113.73987
 30
0.0
 11
935.6053119999996
 21
113.80422
 31
0.0
  0
LINE
  5
D82
330
6B
100
AcDbEntity
  8
0
100
AcDbLine
 10
935.6053119999996
 20
113.80422
 30
0.0
 11
935.5604109999999
 21
113.864078
 31
0.0
  0
LINE
  5
D83
330
6B
100
AcDbEntity
  8
0
100
AcDbLine
 10
935.5604109999999
 20
113.864078
 30
0.0
 11
935.509944
 21
113.919383
 31
0.0
  0
LINE
  5
D84
330
6B
100
AcDbEntity
  8
0
100
AcDbLine
 10
935.509944
 20
113.919383
 30
0.0
 11
935.45441
 21
113.969671
 31
0.0
  0
LINE
  5
D85
330
6B
100
AcDbEntity
  8
0
100
AcDbLine
 10
935.45441
 20
113.969671
 30
0.0
 11
935.394347
 21
114.014382
 31
0.0
  0
LINE
  5
D86
330
6B
100
AcDbEntity
  8
0
100
AcDbLine
 10
935.394347
 20
114.014382
 30
0.0
 11
935.32974
 21
114.053357
 31
0.0
  0
LINE
  5
D87
330
6B
100
AcDbEntity
  8
0
100
AcDbLine
 10
935.32974
 20
114.053357
 30
0.0
 11
935.261655
 21
114.0861
 31
0.0
  0
LINE
  5
D88
330
6B
100
AcDbEntity
  8
0
100
AcDbLine
 10
935.261655
 20
114.0861
 30
0.0
 11
935.1894489999999
 21
114.11275
 31
0.0
  0
LINE
  5
D89
330
6B
100
AcDbEntity
  8
0
100
AcDbLine
 10
935.1894489999999
 20
114.11275
 30
0.0
 11
935.1150039999996
 21
114.131418
 31
0.0
  0
LINE
  5
D8A
330
6B
100
AcDbEntity
  8
0
100
AcDbLine
 10
935.1150039999996
 20
114.131418
 30
0.0
 11
935.03667
 21
114.141837
 31
0.0
  0
LINE
  5
D8B
330
6B
100
AcDbEntity
  8
0
100
AcDbLine
 10
935.03667
 20
114.141837
 30
0.0
 11
934.957531
 21
114.147217
 31
0.0
  0
LINE
  5
D8C
330
6B
100
AcDbEntity
  8
0
100
AcDbLine
 10
908.1072050000001
 20
89.45260000000002
 30
0.0
 11
908.186317
 21
89.457999
 31
0.0
  0
LINE
  5
D8D
330
6B
100
AcDbEntity
  8
0
100
AcDbLine
 10
908.186317
 20
89.457999
 30
0.0
 11
908.264617
 21
89.468458
 31
0.0
  0
LINE
  5
D8E
330
6B
100
AcDbEntity
  8
0
100
AcDbLine
 10
908.264617
 20
89.468458
 30
0.0
 11
908.338988
 21
89.48718799999998
 31
0.0
  0
LINE
  5
D8F
330
6B
100
AcDbEntity
  8
0
100
AcDbLine
 10
908.338988
 20
89.48718799999998
 30
0.0
 11
908.411105
 21
89.513919
 31
0.0
  0
LINE
  5
D90
330
6B
100
AcDbEntity
  8
0
100
AcDbLine
 10
908.411105
 20
89.513919
 30
0.0
 11
908.479082
 21
89.54674999999998
 31
0.0
  0
LINE
  5
D91
330
6B
100
AcDbEntity
  8
0
100
AcDbLine
 10
908.479082
 20
89.54674999999998
 30
0.0
 11
908.5435659999999
 21
89.58581399999998
 31
0.0
  0
LINE
  5
D92
330
6B
100
AcDbEntity
  8
0
100
AcDbLine
 10
908.5435659999999
 20
89.58581399999998
 30
0.0
 11
908.6035010000001
 21
89.630612
 31
0.0
  0
LINE
  5
D93
330
6B
100
AcDbEntity
  8
0
100
AcDbLine
 10
908.6035010000001
 20
89.630612
 30
0.0
 11
908.6589
 21
89.68097399999996
 31
0.0
  0
LINE
  5
D94
330
6B
100
AcDbEntity
  8
0
100
AcDbLine
 10
908.6589
 20
89.68097399999996
 30
0.0
 11
908.709231
 21
89.73633599999997
 31
0.0
  0
LINE
  5
D95
330
6B
100
AcDbEntity
  8
0
100
AcDbLine
 10
908.709231
 20
89.73633599999997
 30
0.0
 11
908.7540029999999
 21
89.796229
 31
0.0
  0
LINE
  5
D96
330
6B
100
AcDbEntity
  8
0
100
AcDbLine
 10
908.7540029999999
 20
89.796229
 30
0.0
 11
908.7929960000003
 21
89.86057700000001
 31
0.0
  0
LINE
  5
D97
330
6B
100
AcDbEntity
  8
0
100
AcDbLine
 10
908.7929960000003
 20
89.86057700000001
 30
0.0
 11
908.825775
 21
89.928409
 31
0.0
  0
LINE
  5
D98
330
6B
100
AcDbEntity
  8
0
100
AcDbLine
 10
908.825775
 20
89.928409
 30
0.0
 11
908.8524300000001
 21
90.000254
 31
0.0
  0
LINE
  5
D99
330
6B
100
AcDbEntity
  8
0
100
AcDbLine
 10
908.8524300000001
 20
90.000254
 30
0.0
 11
908.8711120000001
 21
90.07434600000001
 31
0.0
  0
LINE
  5
D9A
330
6B
100
AcDbEntity
  8
0
100
AcDbLine
 10
908.8711120000001
 20
90.07434600000001
 30
0.0
 11
908.8815279999996
 21
90.152204
 31
0.0
  0
LINE
  5
D9B
330
6B
100
AcDbEntity
  8
0
100
AcDbLine
 10
908.8815279999996
 20
90.152204
 30
0.0
 11
908.8869139999999
 21
90.23087
 31
0.0
  0
LINE
  5
D9C
330
6B
100
AcDbEntity
  8
0
100
AcDbLine
 10
893.5660659999998
 20
91.00914000000001
 30
0.0
 11
893.0305109999999
 21
90.62000500000001
 31
0.0
  0
LINE
  5
D9D
330
6B
100
AcDbEntity
  8
0
100
AcDbLine
 10
893.0305109999999
 20
90.62000500000001
 30
0.0
 11
892.787077
 21
90.23087
 31
0.0
  0
LINE
  5
D9E
330
6B
100
AcDbEntity
  8
0
100
AcDbLine
 10
892.787077
 20
90.23087
 30
0.0
 11
893.0305109999999
 21
89.841735
 31
0.0
  0
LINE
  5
D9F
330
6B
100
AcDbEntity
  8
0
100
AcDbLine
 10
893.0305109999999
 20
89.841735
 30
0.0
 11
893.5660659999998
 21
89.45260000000002
 31
0.0
  0
LINE
  5
DA0
330
6B
100
AcDbEntity
  8
0
100
AcDbLine
 10
908.8869139999999
 20
90.23087
 30
0.0
 11
908.881539
 21
90.30994900000001
 31
0.0
  0
LINE
  5
DA1
330
6B
100
AcDbEntity
  8
0
100
AcDbLine
 10
908.881539
 20
90.30994900000001
 30
0.0
 11
908.8711120000001
 21
90.38822000000001
 31
0.0
  0
LINE
  5
DA2
330
6B
100
AcDbEntity
  8
0
100
AcDbLine
 10
908.8711120000001
 20
90.38822000000001
 30
0.0
 11
908.8524409999999
 21
90.46250699999999
 31
0.0
  0
LINE
  5
DA3
330
6B
100
AcDbEntity
  8
0
100
AcDbLine
 10
908.8524409999999
 20
90.46250699999999
 30
0.0
 11
908.825775
 21
90.53454499999999
 31
0.0
  0
LINE
  5
DA4
330
6B
100
AcDbEntity
  8
0
100
AcDbLine
 10
908.825775
 20
90.53454499999999
 30
0.0
 11
908.7930119999999
 21
90.60241000000001
 31
0.0
  0
LINE
  5
DA5
330
6B
100
AcDbEntity
  8
0
100
AcDbLine
 10
908.7930119999999
 20
90.60241000000001
 30
0.0
 11
908.7540029999999
 21
90.666776
 31
0.0
  0
LINE
  5
DA6
330
6B
100
AcDbEntity
  8
0
100
AcDbLine
 10
908.7540029999999
 20
90.666776
 30
0.0
 11
908.7092400000001
 21
90.72658800000001
 31
0.0
  0
LINE
  5
DA7
330
6B
100
AcDbEntity
  8
0
100
AcDbLine
 10
908.7092400000001
 20
90.72658800000001
 30
0.0
 11
908.6589
 21
90.78184499999997
 31
0.0
  0
LINE
  5
DA8
330
6B
100
AcDbEntity
  8
0
100
AcDbLine
 10
908.6589
 20
90.78184499999997
 30
0.0
 11
908.6035019999997
 21
90.83205699999998
 31
0.0
  0
LINE
  5
DA9
330
6B
100
AcDbEntity
  8
0
100
AcDbLine
 10
908.6035019999997
 20
90.83205699999998
 30
0.0
 11
908.5435659999999
 21
90.87668499999999
 31
0.0
  0
LINE
  5
DAA
330
6B
100
AcDbEntity
  8
0
100
AcDbLine
 10
908.5435659999999
 20
90.87668499999999
 30
0.0
 11
908.479074
 21
90.91557400000001
 31
0.0
  0
LINE
  5
DAB
330
6B
100
AcDbEntity
  8
0
100
AcDbLine
 10
908.479074
 20
90.91557400000001
 30
0.0
 11
908.411105
 21
90.948226
 31
0.0
  0
LINE
  5
DAC
330
6B
100
AcDbEntity
  8
0
100
AcDbLine
 10
908.411105
 20
90.948226
 30
0.0
 11
908.338977
 21
90.974798
 31
0.0
  0
LINE
  5
DAD
330
6B
100
AcDbEntity
  8
0
100
AcDbLine
 10
908.338977
 20
90.974798
 30
0.0
 11
908.264617
 21
90.99339999999999
 31
0.0
  0
LINE
  5
DAE
330
6B
100
AcDbEntity
  8
0
100
AcDbLine
 10
908.264617
 20
90.99339999999999
 30
0.0
 11
908.1863120000001
 21
91.003786
 31
0.0
  0
LINE
  5
DAF
330
6B
100
AcDbEntity
  8
0
100
AcDbLine
 10
908.1863120000001
 20
91.003786
 30
0.0
 11
908.1072050000001
 21
91.00914000000001
 31
0.0
  0
LINE
  5
DB0
330
6B
100
AcDbEntity
  8
0
100
AcDbLine
 10
893.5660659999998
 20
84.51828
 30
0.0
 11
893.486972
 21
84.51290400000003
 31
0.0
  0
LINE
  5
DB1
330
6B
100
AcDbEntity
  8
0
100
AcDbLine
 10
893.486972
 20
84.51290400000003
 30
0.0
 11
893.4086849999996
 21
84.50247799999997
 31
0.0
  0
LINE
  5
DB2
330
6B
100
AcDbEntity
  8
0
100
AcDbLine
 10
893.4086849999996
 20
84.50247799999997
 30
0.0
 11
893.3343589999998
 21
84.483805
 31
0.0
  0
LINE
  5
DB3
330
6B
100
AcDbEntity
  8
0
100
AcDbLine
 10
893.3343589999998
 20
84.483805
 30
0.0
 11
893.2622789999996
 21
84.45714
 31
0.0
  0
LINE
  5
DB4
330
6B
100
AcDbEntity
  8
0
100
AcDbLine
 10
893.2622789999996
 20
84.45714
 30
0.0
 11
893.194358
 21
84.42437700000002
 31
0.0
  0
LINE
  5
DB5
330
6B
100
AcDbEntity
  8
0
100
AcDbLine
 10
893.194358
 20
84.42437700000002
 30
0.0
 11
893.1299329999998
 21
84.385369
 31
0.0
  0
LINE
  5
DB6
330
6B
100
AcDbEntity
  8
0
100
AcDbLine
 10
893.1299329999998
 20
84.385369
 30
0.0
 11
893.070057
 21
84.34060699999998
 31
0.0
  0
LINE
  5
DB7
330
6B
100
AcDbEntity
  8
0
100
AcDbLine
 10
893.070057
 20
84.34060699999998
 30
0.0
 11
893.0147319999999
 21
84.290265
 31
0.0
  0
LINE
  5
DB8
330
6B
100
AcDbEntity
  8
0
100
AcDbLine
 10
893.0147319999999
 20
84.290265
 30
0.0
 11
892.964455
 21
84.23486899999998
 31
0.0
  0
LINE
  5
DB9
330
6B
100
AcDbEntity
  8
0
100
AcDbLine
 10
892.964455
 20
84.23486899999998
 30
0.0
 11
892.91976
 21
84.174932
 31
0.0
  0
LINE
  5
DBA
330
6B
100
AcDbEntity
  8
0
100
AcDbLine
 10
892.91976
 20
84.174932
 30
0.0
 11
892.8808119999999
 21
84.110443
 31
0.0
  0
LINE
  5
DBB
330
6B
100
AcDbEntity
  8
0
100
AcDbLine
 10
892.8808119999999
 20
84.110443
 30
0.0
 11
892.8481039999997
 21
84.04246999999998
 31
0.0
  0
LINE
  5
DBC
330
6B
100
AcDbEntity
  8
0
100
AcDbLine
 10
892.8481039999997
 20
84.04246999999998
 30
0.0
 11
892.8214859999997
 21
83.97034599999997
 31
0.0
  0
LINE
  5
DBD
330
6B
100
AcDbEntity
  8
0
100
AcDbLine
 10
892.8214859999997
 20
83.97034599999997
 30
0.0
 11
892.802848
 21
83.89598300000001
 31
0.0
  0
LINE
  5
DBE
330
6B
100
AcDbEntity
  8
0
100
AcDbLine
 10
892.802848
 20
83.89598300000001
 30
0.0
 11
892.7924429999999
 21
83.81767899999998
 31
0.0
  0
LINE
  5
DBF
330
6B
100
AcDbEntity
  8
0
100
AcDbLine
 10
892.7924429999999
 20
83.81767899999998
 30
0.0
 11
892.787077
 21
83.738571
 31
0.0
  0
LINE
  5
DC0
330
6B
100
AcDbEntity
  8
0
100
AcDbLine
 10
908.1072050000001
 20
82.95886199999998
 30
0.0
 11
908.6432549999999
 21
83.34871600000003
 31
0.0
  0
LINE
  5
DC1
330
6B
100
AcDbEntity
  8
0
100
AcDbLine
 10
908.6432549999999
 20
83.34871600000003
 30
0.0
 11
908.8869139999999
 21
83.738571
 31
0.0
  0
LINE
  5
DC2
330
6B
100
AcDbEntity
  8
0
100
AcDbLine
 10
908.8869139999999
 20
83.738571
 30
0.0
 11
908.6432549999999
 21
84.128425
 31
0.0
  0
LINE
  5
DC3
330
6B
100
AcDbEntity
  8
0
100
AcDbLine
 10
908.6432549999999
 20
84.128425
 30
0.0
 11
908.1072050000001
 21
84.51828
 31
0.0
  0
LINE
  5
DC4
330
6B
100
AcDbEntity
  8
0
100
AcDbLine
 10
892.787077
 20
83.738571
 30
0.0
 11
892.7924479999997
 21
83.65966999999997
 31
0.0
  0
LINE
  5
DC5
330
6B
100
AcDbEntity
  8
0
100
AcDbLine
 10
892.7924479999997
 20
83.65966999999997
 30
0.0
 11
892.802848
 21
83.58157199999999
 31
0.0
  0
LINE
  5
DC6
330
6B
100
AcDbEntity
  8
0
100
AcDbLine
 10
892.802848
 20
83.58157199999999
 30
0.0
 11
892.8214910000001
 21
83.50730699999997
 31
0.0
  0
LINE
  5
DC7
330
6B
100
AcDbEntity
  8
0
100
AcDbLine
 10
892.8214910000001
 20
83.50730699999997
 30
0.0
 11
892.8481039999997
 21
83.435278
 31
0.0
  0
LINE
  5
DC8
330
6B
100
AcDbEntity
  8
0
100
AcDbLine
 10
892.8481039999997
 20
83.435278
 30
0.0
 11
892.88082
 21
83.367322
 31
0.0
  0
LINE
  5
DC9
330
6B
100
AcDbEntity
  8
0
100
AcDbLine
 10
892.88082
 20
83.367322
 30
0.0
 11
892.91976
 21
83.30284199999999
 31
0.0
  0
LINE
  5
DCA
330
6B
100
AcDbEntity
  8
0
100
AcDbLine
 10
892.91976
 20
83.30284199999999
 30
0.0
 11
892.964459
 21
83.242864
 31
0.0
  0
LINE
  5
DCB
330
6B
100
AcDbEntity
  8
0
100
AcDbLine
 10
892.964459
 20
83.242864
 30
0.0
 11
893.0147319999999
 21
83.187416
 31
0.0
  0
LINE
  5
DCC
330
6B
100
AcDbEntity
  8
0
100
AcDbLine
 10
893.0147319999999
 20
83.187416
 30
0.0
 11
893.070057
 21
83.13699900000001
 31
0.0
  0
LINE
  5
DCD
330
6B
100
AcDbEntity
  8
0
100
AcDbLine
 10
893.070057
 20
83.13699900000001
 30
0.0
 11
893.1299329999998
 21
83.092152
 31
0.0
  0
LINE
  5
DCE
330
6B
100
AcDbEntity
  8
0
100
AcDbLine
 10
893.1299329999998
 20
83.092152
 30
0.0
 11
893.1943550000001
 21
83.05305699999998
 31
0.0
  0
LINE
  5
DCF
330
6B
100
AcDbEntity
  8
0
100
AcDbLine
 10
893.1943550000001
 20
83.05305699999998
 30
0.0
 11
893.2622789999996
 21
83.02020400000001
 31
0.0
  0
LINE
  5
DD0
330
6B
100
AcDbEntity
  8
0
100
AcDbLine
 10
893.2622789999996
 20
83.02020400000001
 30
0.0
 11
893.334353
 21
82.993459
 31
0.0
  0
LINE
  5
DD1
330
6B
100
AcDbEntity
  8
0
100
AcDbLine
 10
893.334353
 20
82.993459
 30
0.0
 11
893.4086849999996
 21
82.974723
 31
0.0
  0
LINE
  5
DD2
330
6B
100
AcDbEntity
  8
0
100
AcDbLine
 10
893.4086849999996
 20
82.974723
 30
0.0
 11
893.48697
 21
82.96426
 31
0.0
  0
LINE
  5
DD3
330
6B
100
AcDbEntity
  8
0
100
AcDbLine
 10
893.48697
 20
82.96426
 30
0.0
 11
893.5660659999998
 21
82.95886199999998
 31
0.0
  0
LINE
  5
DD4
330
6B
100
AcDbEntity
  8
0
100
AcDbLine
 10
908.1072050000001
 20
86.20573099999999
 30
0.0
 11
908.186317
 21
86.211131
 31
0.0
  0
LINE
  5
DD5
330
6B
100
AcDbEntity
  8
0
100
AcDbLine
 10
908.186317
 20
86.211131
 30
0.0
 11
908.264617
 21
86.221592
 31
0.0
  0
LINE
  5
DD6
330
6B
100
AcDbEntity
  8
0
100
AcDbLine
 10
908.264617
 20
86.221592
 30
0.0
 11
908.3389889999999
 21
86.24032900000001
 31
0.0
  0
LINE
  5
DD7
330
6B
100
AcDbEntity
  8
0
100
AcDbLine
 10
908.3389889999999
 20
86.24032900000001
 30
0.0
 11
908.411105
 21
86.26707299999997
 31
0.0
  0
LINE
  5
DD8
330
6B
100
AcDbEntity
  8
0
100
AcDbLine
 10
908.411105
 20
86.26707299999997
 30
0.0
 11
908.479085
 21
86.299927
 31
0.0
  0
LINE
  5
DD9
330
6B
100
AcDbEntity
  8
0
100
AcDbLine
 10
908.479085
 20
86.299927
 30
0.0
 11
908.5435659999999
 21
86.339021
 31
0.0
  0
LINE
  5
DDA
330
6B
100
AcDbEntity
  8
0
100
AcDbLine
 10
908.5435659999999
 20
86.339021
 30
0.0
 11
908.603506
 21
86.38386700000003
 31
0.0
  0
LINE
  5
DDB
330
6B
100
AcDbEntity
  8
0
100
AcDbLine
 10
908.603506
 20
86.38386700000003
 30
0.0
 11
908.6589
 21
86.434285
 31
0.0
  0
LINE
  5
DDC
330
6B
100
AcDbEntity
  8
0
100
AcDbLine
 10
908.6589
 20
86.434285
 30
0.0
 11
908.7092379999999
 21
86.48973000000003
 31
0.0
  0
LINE
  5
DDD
330
6B
100
AcDbEntity
  8
0
100
AcDbLine
 10
908.7092379999999
 20
86.48973000000003
 30
0.0
 11
908.7540029999999
 21
86.549711
 31
0.0
  0
LINE
  5
DDE
330
6B
100
AcDbEntity
  8
0
100
AcDbLine
 10
908.7540029999999
 20
86.549711
 30
0.0
 11
908.7930019999999
 21
86.614187
 31
0.0
  0
LINE
  5
DDF
330
6B
100
AcDbEntity
  8
0
100
AcDbLine
 10
908.7930019999999
 20
86.614187
 30
0.0
 11
908.825775
 21
86.682147
 31
0.0
  0
LINE
  5
DE0
330
6B
100
AcDbEntity
  8
0
100
AcDbLine
 10
908.825775
 20
86.682147
 30
0.0
 11
908.852433
 21
86.754172
 31
0.0
  0
LINE
  5
DE1
330
6B
100
AcDbEntity
  8
0
100
AcDbLine
 10
908.852433
 20
86.754172
 30
0.0
 11
908.8711120000001
 21
86.828441
 31
0.0
  0
LINE
  5
DE2
330
6B
100
AcDbEntity
  8
0
100
AcDbLine
 10
908.8711120000001
 20
86.828441
 30
0.0
 11
908.8815309999999
 21
86.906537
 31
0.0
  0
LINE
  5
DE3
330
6B
100
AcDbEntity
  8
0
100
AcDbLine
 10
908.8815309999999
 20
86.906537
 30
0.0
 11
908.8869139999999
 21
86.98544
 31
0.0
  0
LINE
  5
DE4
330
6B
100
AcDbEntity
  8
0
100
AcDbLine
 10
893.5660659999998
 20
87.765149
 30
0.0
 11
893.0305109999999
 21
87.37529399999997
 31
0.0
  0
LINE
  5
DE5
330
6B
100
AcDbEntity
  8
0
100
AcDbLine
 10
893.0305109999999
 20
87.37529399999997
 30
0.0
 11
892.787077
 21
86.98544
 31
0.0
  0
LINE
  5
DE6
330
6B
100
AcDbEntity
  8
0
100
AcDbLine
 10
892.787077
 20
86.98544
 30
0.0
 11
893.0305109999999
 21
86.59558500000001
 31
0.0
  0
LINE
  5
DE7
330
6B
100
AcDbEntity
  8
0
100
AcDbLine
 10
893.0305109999999
 20
86.59558500000001
 30
0.0
 11
893.5660659999998
 21
86.20573099999999
 31
0.0
  0
LINE
  5
DE8
330
6B
100
AcDbEntity
  8
0
100
AcDbLine
 10
908.8869139999999
 20
86.98544
 30
0.0
 11
908.8815309999999
 21
87.06434300000003
 31
0.0
  0
LINE
  5
DE9
330
6B
100
AcDbEntity
  8
0
100
AcDbLine
 10
908.8815309999999
 20
87.06434300000003
 30
0.0
 11
908.8711120000001
 21
87.14243899999997
 31
0.0
  0
LINE
  5
DEA
330
6B
100
AcDbEntity
  8
0
100
AcDbLine
 10
908.8711120000001
 20
87.14243899999997
 30
0.0
 11
908.852433
 21
87.216707
 31
0.0
  0
LINE
  5
DEB
330
6B
100
AcDbEntity
  8
0
100
AcDbLine
 10
908.852433
 20
87.216707
 30
0.0
 11
908.825775
 21
87.288732
 31
0.0
  0
LINE
  5
DEC
330
6B
100
AcDbEntity
  8
0
100
AcDbLine
 10
908.825775
 20
87.288732
 30
0.0
 11
908.7930019999999
 21
87.35669300000003
 31
0.0
  0
LINE
  5
DED
330
6B
100
AcDbEntity
  8
0
100
AcDbLine
 10
908.7930019999999
 20
87.35669300000003
 30
0.0
 11
908.7540029999999
 21
87.42116899999997
 31
0.0
  0
LINE
  5
DEE
330
6B
100
AcDbEntity
  8
0
100
AcDbLine
 10
908.7540029999999
 20
87.42116899999997
 30
0.0
 11
908.7092379999999
 21
87.481149
 31
0.0
  0
LINE
  5
DEF
330
6B
100
AcDbEntity
  8
0
100
AcDbLine
 10
908.7092379999999
 20
87.481149
 30
0.0
 11
908.6589
 21
87.53659499999995
 31
0.0
  0
LINE
  5
DF0
330
6B
100
AcDbEntity
  8
0
100
AcDbLine
 10
908.6589
 20
87.53659499999995
 30
0.0
 11
908.603506
 21
87.587012
 31
0.0
  0
LINE
  5
DF1
330
6B
100
AcDbEntity
  8
0
100
AcDbLine
 10
908.603506
 20
87.587012
 30
0.0
 11
908.5435659999999
 21
87.631858
 31
0.0
  0
LINE
  5
DF2
330
6B
100
AcDbEntity
  8
0
100
AcDbLine
 10
908.5435659999999
 20
87.631858
 30
0.0
 11
908.479085
 21
87.67095299999999
 31
0.0
  0
LINE
  5
DF3
330
6B
100
AcDbEntity
  8
0
100
AcDbLine
 10
908.479085
 20
87.67095299999999
 30
0.0
 11
908.411105
 21
87.703807
 31
0.0
  0
LINE
  5
DF4
330
6B
100
AcDbEntity
  8
0
100
AcDbLine
 10
908.411105
 20
87.703807
 30
0.0
 11
908.3389889999999
 21
87.73054999999997
 31
0.0
  0
LINE
  5
DF5
330
6B
100
AcDbEntity
  8
0
100
AcDbLine
 10
908.3389889999999
 20
87.73054999999997
 30
0.0
 11
908.264617
 21
87.74928800000003
 31
0.0
  0
LINE
  5
DF6
330
6B
100
AcDbEntity
  8
0
100
AcDbLine
 10
908.264617
 20
87.74928800000003
 30
0.0
 11
908.186317
 21
87.75974899999999
 31
0.0
  0
LINE
  5
DF7
330
6B
100
AcDbEntity
  8
0
100
AcDbLine
 10
908.186317
 20
87.75974899999999
 30
0.0
 11
908.1072050000001
 21
87.765149
 31
0.0
  0
LINE
  5
DF8
330
6B
100
AcDbEntity
  8
0
100
AcDbLine
 10
881.255441
 20
86.20573099999999
 30
0.0
 11
881.3343769999999
 21
86.211139
 31
0.0
  0
LINE
  5
DF9
330
6B
100
AcDbEntity
  8
0
100
AcDbLine
 10
881.3343769999999
 20
86.211139
 30
0.0
 11
881.4125019999996
 21
86.221592
 31
0.0
  0
LINE
  5
DFA
330
6B
100
AcDbEntity
  8
0
100
AcDbLine
 10
881.4125019999996
 20
86.221592
 30
0.0
 11
881.486856
 21
86.240337
 31
0.0
  0
LINE
  5
DFB
330
6B
100
AcDbEntity
  8
0
100
AcDbLine
 10
881.486856
 20
86.240337
 30
0.0
 11
881.558959
 21
86.26707299999997
 31
0.0
  0
LINE
  5
DFC
330
6B
100
AcDbEntity
  8
0
100
AcDbLine
 10
881.558959
 20
86.26707299999997
 30
0.0
 11
881.627034
 21
86.29993699999998
 31
0.0
  0
LINE
  5
DFD
330
6B
100
AcDbEntity
  8
0
100
AcDbLine
 10
881.627034
 20
86.29993699999998
 30
0.0
 11
881.691625
 21
86.339021
 31
0.0
  0
LINE
  5
DFE
330
6B
100
AcDbEntity
  8
0
100
AcDbLine
 10
881.691625
 20
86.339021
 30
0.0
 11
881.751734
 21
86.38386999999999
 31
0.0
  0
LINE
  5
DFF
330
6B
100
AcDbEntity
  8
0
100
AcDbLine
 10
881.751734
 20
86.38386999999999
 30
0.0
 11
881.807316
 21
86.434285
 31
0.0
  0
LINE
  5
E00
330
6B
100
AcDbEntity
  8
0
100
AcDbLine
 10
881.807316
 20
86.434285
 30
0.0
 11
881.8578589999999
 21
86.489726
 31
0.0
  0
LINE
  5
E01
330
6B
100
AcDbEntity
  8
0
100
AcDbLine
 10
881.8578589999999
 20
86.489726
 30
0.0
 11
881.9028429999999
 21
86.549711
 31
0.0
  0
LINE
  5
E02
330
6B
100
AcDbEntity
  8
0
100
AcDbLine
 10
881.9028429999999
 20
86.549711
 30
0.0
 11
881.942047
 21
86.614176
 31
0.0
  0
LINE
  5
E03
330
6B
100
AcDbEntity
  8
0
100
AcDbLine
 10
881.942047
 20
86.614176
 30
0.0
 11
881.9750220000001
 21
86.682147
 31
0.0
  0
LINE
  5
E04
330
6B
100
AcDbEntity
  8
0
100
AcDbLine
 10
881.9750220000001
 20
86.682147
 30
0.0
 11
882.0018519999999
 21
86.75416
 31
0.0
  0
LINE
  5
E05
330
6B
100
AcDbEntity
  8
0
100
AcDbLine
 10
882.0018519999999
 20
86.75416
 30
0.0
 11
882.020666
 21
86.828441
 31
0.0
  0
LINE
  5
E06
330
6B
100
AcDbEntity
  8
0
100
AcDbLine
 10
882.020666
 20
86.828441
 30
0.0
 11
882.0311609999999
 21
86.906531
 31
0.0
  0
LINE
  5
E07
330
6B
100
AcDbEntity
  8
0
100
AcDbLine
 10
882.0311609999999
 20
86.906531
 30
0.0
 11
882.0365890000001
 21
86.98544
 31
0.0
  0
LINE
  5
E08
330
6B
100
AcDbEntity
  8
0
100
AcDbLine
 10
866.7135829999999
 20
87.765149
 30
0.0
 11
866.178522
 21
87.37529399999997
 31
0.0
  0
LINE
  5
E09
330
6B
100
AcDbEntity
  8
0
100
AcDbLine
 10
866.178522
 20
87.37529399999997
 30
0.0
 11
865.9353130000001
 21
86.98544
 31
0.0
  0
LINE
  5
E0A
330
6B
100
AcDbEntity
  8
0
100
AcDbLine
 10
865.9353130000001
 20
86.98544
 30
0.0
 11
866.178522
 21
86.59558500000001
 31
0.0
  0
LINE
  5
E0B
330
6B
100
AcDbEntity
  8
0
100
AcDbLine
 10
866.178522
 20
86.59558500000001
 30
0.0
 11
866.7135829999999
 21
86.20573099999999
 31
0.0
  0
LINE
  5
E0C
330
6B
100
AcDbEntity
  8
0
100
AcDbLine
 10
882.0365890000001
 20
86.98544
 30
0.0
 11
882.0311609999999
 21
87.064348
 31
0.0
  0
LINE
  5
E0D
330
6B
100
AcDbEntity
  8
0
100
AcDbLine
 10
882.0311609999999
 20
87.064348
 30
0.0
 11
882.020666
 21
87.14243899999997
 31
0.0
  0
LINE
  5
E0E
330
6B
100
AcDbEntity
  8
0
100
AcDbLine
 10
882.020666
 20
87.14243899999997
 30
0.0
 11
882.0018519999999
 21
87.21671999999998
 31
0.0
  0
LINE
  5
E0F
330
6B
100
AcDbEntity
  8
0
100
AcDbLine
 10
882.0018519999999
 20
87.21671999999998
 30
0.0
 11
881.9750220000001
 21
87.288732
 31
0.0
  0
LINE
  5
E10
330
6B
100
AcDbEntity
  8
0
100
AcDbLine
 10
881.9750220000001
 20
87.288732
 30
0.0
 11
881.942047
 21
87.356703
 31
0.0
  0
LINE
  5
E11
330
6B
100
AcDbEntity
  8
0
100
AcDbLine
 10
881.942047
 20
87.356703
 30
0.0
 11
881.9028429999999
 21
87.42116899999997
 31
0.0
  0
LINE
  5
E12
330
6B
100
AcDbEntity
  8
0
100
AcDbLine
 10
881.9028429999999
 20
87.42116899999997
 30
0.0
 11
881.8578589999999
 21
87.48115400000001
 31
0.0
  0
LINE
  5
E13
330
6B
100
AcDbEntity
  8
0
100
AcDbLine
 10
881.8578589999999
 20
87.48115400000001
 30
0.0
 11
881.807316
 21
87.53659499999995
 31
0.0
  0
LINE
  5
E14
330
6B
100
AcDbEntity
  8
0
100
AcDbLine
 10
881.807316
 20
87.53659499999995
 30
0.0
 11
881.751734
 21
87.58700899999999
 31
0.0
  0
LINE
  5
E15
330
6B
100
AcDbEntity
  8
0
100
AcDbLine
 10
881.751734
 20
87.58700899999999
 30
0.0
 11
881.691625
 21
87.631858
 31
0.0
  0
LINE
  5
E16
330
6B
100
AcDbEntity
  8
0
100
AcDbLine
 10
881.691625
 20
87.631858
 30
0.0
 11
881.627034
 21
87.67094300000001
 31
0.0
  0
LINE
  5
E17
330
6B
100
AcDbEntity
  8
0
100
AcDbLine
 10
881.627034
 20
87.67094300000001
 30
0.0
 11
881.558959
 21
87.703807
 31
0.0
  0
LINE
  5
E18
330
6B
100
AcDbEntity
  8
0
100
AcDbLine
 10
881.558959
 20
87.703807
 30
0.0
 11
881.486856
 21
87.73054300000003
 31
0.0
  0
LINE
  5
E19
330
6B
100
AcDbEntity
  8
0
100
AcDbLine
 10
881.486856
 20
87.73054300000003
 30
0.0
 11
881.4125019999996
 21
87.74928800000003
 31
0.0
  0
LINE
  5
E1A
330
6B
100
AcDbEntity
  8
0
100
AcDbLine
 10
881.4125019999996
 20
87.74928800000003
 30
0.0
 11
881.3343769999999
 21
87.759741
 31
0.0
  0
LINE
  5
E1B
330
6B
100
AcDbEntity
  8
0
100
AcDbLine
 10
881.3343769999999
 20
87.759741
 30
0.0
 11
881.255441
 21
87.765149
 31
0.0
  0
LINE
  5
E1C
330
6B
100
AcDbEntity
  8
0
100
AcDbLine
 10
934.957531
 20
92.69946899999998
 30
0.0
 11
935.03667
 21
92.70484899999999
 31
0.0
  0
LINE
  5
E1D
330
6B
100
AcDbEntity
  8
0
100
AcDbLine
 10
935.03667
 20
92.70484899999999
 30
0.0
 11
935.1150039999996
 21
92.715271
 31
0.0
  0
LINE
  5
E1E
330
6B
100
AcDbEntity
  8
0
100
AcDbLine
 10
935.1150039999996
 20
92.715271
 30
0.0
 11
935.18945
 21
92.73394600000001
 31
0.0
  0
LINE
  5
E1F
330
6B
100
AcDbEntity
  8
0
100
AcDbLine
 10
935.18945
 20
92.73394600000001
 30
0.0
 11
935.261655
 21
92.76060800000001
 31
0.0
  0
LINE
  5
E20
330
6B
100
AcDbEntity
  8
0
100
AcDbLine
 10
935.261655
 20
92.76060800000001
 30
0.0
 11
935.3297429999999
 21
92.79337400000001
 31
0.0
  0
LINE
  5
E21
330
6B
100
AcDbEntity
  8
0
100
AcDbLine
 10
935.3297429999999
 20
92.79337400000001
 30
0.0
 11
935.394347
 21
92.83238
 31
0.0
  0
LINE
  5
E22
330
6B
100
AcDbEntity
  8
0
100
AcDbLine
 10
935.394347
 20
92.83238
 30
0.0
 11
935.454415
 21
92.87713899999999
 31
0.0
  0
LINE
  5
E23
330
6B
100
AcDbEntity
  8
0
100
AcDbLine
 10
935.454415
 20
92.87713899999999
 30
0.0
 11
935.509944
 21
92.92748299999999
 31
0.0
  0
LINE
  5
E24
330
6B
100
AcDbEntity
  8
0
100
AcDbLine
 10
935.509944
 20
92.92748299999999
 30
0.0
 11
935.5604170000001
 21
92.982872
 31
0.0
  0
LINE
  5
E25
330
6B
100
AcDbEntity
  8
0
100
AcDbLine
 10
935.5604170000001
 20
92.982872
 30
0.0
 11
935.6053119999996
 21
93.042817
 31
0.0
  0
LINE
  5
E26
330
6B
100
AcDbEntity
  8
0
100
AcDbLine
 10
935.6053119999996
 20
93.042817
 30
0.0
 11
935.644437
 21
93.10729399999999
 31
0.0
  0
LINE
  5
E27
330
6B
100
AcDbEntity
  8
0
100
AcDbLine
 10
935.644437
 20
93.10729399999999
 30
0.0
 11
935.6773139999999
 21
93.175278
 31
0.0
  0
LINE
  5
E28
330
6B
100
AcDbEntity
  8
0
100
AcDbLine
 10
935.6773139999999
 20
93.175278
 30
0.0
 11
935.7040699999997
 21
93.247393
 31
0.0
  0
LINE
  5
E29
330
6B
100
AcDbEntity
  8
0
100
AcDbLine
 10
935.7040699999997
 20
93.247393
 30
0.0
 11
935.722815
 21
93.321766
 31
0.0
  0
LINE
  5
E2A
330
6B
100
AcDbEntity
  8
0
100
AcDbLine
 10
935.722815
 20
93.321766
 30
0.0
 11
935.733278
 21
93.40006499999999
 31
0.0
  0
LINE
  5
E2B
330
6B
100
AcDbEntity
  8
0
100
AcDbLine
 10
935.733278
 20
93.40006499999999
 30
0.0
 11
935.7386779999997
 21
93.47917800000001
 31
0.0
  0
LINE
  5
E2C
330
6B
100
AcDbEntity
  8
0
100
AcDbLine
 10
920.4163919999999
 20
94.256009
 30
0.0
 11
919.881106
 21
93.86772800000001
 31
0.0
  0
LINE
  5
E2D
330
6B
100
AcDbEntity
  8
0
100
AcDbLine
 10
919.881106
 20
93.86772800000001
 30
0.0
 11
919.637402
 21
93.47917800000001
 31
0.0
  0
LINE
  5
E2E
330
6B
100
AcDbEntity
  8
0
100
AcDbLine
 10
919.637402
 20
93.47917800000001
 30
0.0
 11
919.8805660000001
 21
93.089458
 31
0.0
  0
LINE
  5
E2F
330
6B
100
AcDbEntity
  8
0
100
AcDbLine
 10
919.8805660000001
 20
93.089458
 30
0.0
 11
920.4163919999999
 21
92.69946899999998
 31
0.0
  0
LINE
  5
E30
330
6B
100
AcDbEntity
  8
0
100
AcDbLine
 10
935.7386779999997
 20
93.47917800000001
 30
0.0
 11
935.733272
 21
93.55781699999999
 31
0.0
  0
LINE
  5
E31
330
6B
100
AcDbEntity
  8
0
100
AcDbLine
 10
935.733272
 20
93.55781699999999
 30
0.0
 11
935.722815
 21
93.63564
 31
0.0
  0
LINE
  5
E32
330
6B
100
AcDbEntity
  8
0
100
AcDbLine
 10
935.722815
 20
93.63564
 30
0.0
 11
935.704063
 21
93.70965899999999
 31
0.0
  0
LINE
  5
E33
330
6B
100
AcDbEntity
  8
0
100
AcDbLine
 10
935.704063
 20
93.70965899999999
 30
0.0
 11
935.6773139999999
 21
93.781414
 31
0.0
  0
LINE
  5
E34
330
6B
100
AcDbEntity
  8
0
100
AcDbLine
 10
935.6773139999999
 20
93.781414
 30
0.0
 11
935.644424
 21
93.849142
 31
0.0
  0
LINE
  5
E35
330
6B
100
AcDbEntity
  8
0
100
AcDbLine
 10
935.644424
 20
93.849142
 30
0.0
 11
935.6053119999996
 21
93.913364
 31
0.0
  0
LINE
  5
E36
330
6B
100
AcDbEntity
  8
0
100
AcDbLine
 10
935.6053119999996
 20
93.913364
 30
0.0
 11
935.560405
 21
93.97313399999999
 31
0.0
  0
LINE
  5
E37
330
6B
100
AcDbEntity
  8
0
100
AcDbLine
 10
935.560405
 20
93.97313399999999
 30
0.0
 11
935.509944
 21
94.028354
 31
0.0
  0
LINE
  5
E38
330
6B
100
AcDbEntity
  8
0
100
AcDbLine
 10
935.509944
 20
94.028354
 30
0.0
 11
935.4544049999999
 21
94.07858799999999
 31
0.0
  0
LINE
  5
E39
330
6B
100
AcDbEntity
  8
0
100
AcDbLine
 10
935.4544049999999
 20
94.07858799999999
 30
0.0
 11
935.394347
 21
94.12325
 31
0.0
  0
LINE
  5
E3A
330
6B
100
AcDbEntity
  8
0
100
AcDbLine
 10
935.394347
 20
94.12325
 30
0.0
 11
935.3297369999999
 21
94.162195
 31
0.0
  0
LINE
  5
E3B
330
6B
100
AcDbEntity
  8
0
100
AcDbLine
 10
935.3297369999999
 20
94.162195
 30
0.0
 11
935.261655
 21
94.19491499999999
 31
0.0
  0
LINE
  5
E3C
330
6B
100
AcDbEntity
  8
0
100
AcDbLine
 10
935.261655
 20
94.19491499999999
 30
0.0
 11
935.189448
 21
94.221552
 31
0.0
  0
LINE
  5
E3D
330
6B
100
AcDbEntity
  8
0
100
AcDbLine
 10
935.189448
 20
94.221552
 30
0.0
 11
935.1150039999996
 21
94.24021299999999
 31
0.0
  0
LINE
  5
E3E
330
6B
100
AcDbEntity
  8
0
100
AcDbLine
 10
935.1150039999996
 20
94.24021299999999
 30
0.0
 11
935.03667
 21
94.25062999999999
 31
0.0
  0
LINE
  5
E3F
330
6B
100
AcDbEntity
  8
0
100
AcDbLine
 10
935.03667
 20
94.25062999999999
 30
0.0
 11
934.957531
 21
94.256009
 31
0.0
  0
LINE
  5
E40
330
6B
100
AcDbEntity
  8
0
100
AcDbLine
 10
866.7135829999999
 20
84.51828
 30
0.0
 11
866.634711
 21
84.512899
 31
0.0
  0
LINE
  5
E41
330
6B
100
AcDbEntity
  8
0
100
AcDbLine
 10
866.634711
 20
84.512899
 30
0.0
 11
866.556646
 21
84.50247799999997
 31
0.0
  0
LINE
  5
E42
330
6B
100
AcDbEntity
  8
0
100
AcDbLine
 10
866.556646
 20
84.50247799999997
 30
0.0
 11
866.482457
 21
84.48380099999999
 31
0.0
  0
LINE
  5
E43
330
6B
100
AcDbEntity
  8
0
100
AcDbLine
 10
866.482457
 20
84.48380099999999
 30
0.0
 11
866.4105150000001
 21
84.45714
 31
0.0
  0
LINE
  5
E44
330
6B
100
AcDbEntity
  8
0
100
AcDbLine
 10
866.4105150000001
 20
84.45714
 30
0.0
 11
866.3426669999999
 21
84.42436999999998
 31
0.0
  0
LINE
  5
E45
330
6B
100
AcDbEntity
  8
0
100
AcDbLine
 10
866.3426669999999
 20
84.42436999999998
 30
0.0
 11
866.2783099999996
 21
84.385369
 31
0.0
  0
LINE
  5
E46
330
6B
100
AcDbEntity
  8
0
100
AcDbLine
 10
866.2783099999996
 20
84.385369
 30
0.0
 11
866.218457
 21
84.34060100000001
 31
0.0
  0
LINE
  5
E47
330
6B
100
AcDbEntity
  8
0
100
AcDbLine
 10
866.218457
 20
84.34060100000001
 30
0.0
 11
866.163148
 21
84.290265
 31
0.0
  0
LINE
  5
E48
330
6B
100
AcDbEntity
  8
0
100
AcDbLine
 10
866.163148
 20
84.290265
 30
0.0
 11
866.1128599999997
 21
84.23486700000003
 31
0.0
  0
LINE
  5
E49
330
6B
100
AcDbEntity
  8
0
100
AcDbLine
 10
866.1128599999997
 20
84.23486700000003
 30
0.0
 11
866.068148
 21
84.174932
 31
0.0
  0
LINE
  5
E4A
330
6B
100
AcDbEntity
  8
0
100
AcDbLine
 10
866.068148
 20
84.174932
 30
0.0
 11
866.029171
 21
84.11044399999999
 31
0.0
  0
LINE
  5
E4B
330
6B
100
AcDbEntity
  8
0
100
AcDbLine
 10
866.029171
 20
84.11044399999999
 30
0.0
 11
865.99643
 21
84.04246999999998
 31
0.0
  0
LINE
  5
E4C
330
6B
100
AcDbEntity
  8
0
100
AcDbLine
 10
865.99643
 20
84.04246999999998
 30
0.0
 11
865.969778
 21
83.970348
 31
0.0
  0
LINE
  5
E4D
330
6B
100
AcDbEntity
  8
0
100
AcDbLine
 10
865.969778
 20
83.970348
 30
0.0
 11
865.9511119999999
 21
83.89598300000001
 31
0.0
  0
LINE
  5
E4E
330
6B
100
AcDbEntity
  8
0
100
AcDbLine
 10
865.9511119999999
 20
83.89598300000001
 30
0.0
 11
865.94069
 21
83.81768
 31
0.0
  0
LINE
  5
E4F
330
6B
100
AcDbEntity
  8
0
100
AcDbLine
 10
865.94069
 20
83.81768
 30
0.0
 11
865.9353130000001
 21
83.738571
 31
0.0
  0
LINE
  5
E50
330
6B
100
AcDbEntity
  8
0
100
AcDbLine
 10
881.255441
 20
82.95886199999998
 30
0.0
 11
881.79248
 21
83.34871600000003
 31
0.0
  0
LINE
  5
E51
330
6B
100
AcDbEntity
  8
0
100
AcDbLine
 10
881.79248
 20
83.34871600000003
 30
0.0
 11
882.0365890000001
 21
83.738571
 31
0.0
  0
LINE
  5
E52
330
6B
100
AcDbEntity
  8
0
100
AcDbLine
 10
882.0365890000001
 20
83.738571
 30
0.0
 11
881.79248
 21
84.128425
 31
0.0
  0
LINE
  5
E53
330
6B
100
AcDbEntity
  8
0
100
AcDbLine
 10
881.79248
 20
84.128425
 30
0.0
 11
881.255441
 21
84.51828
 31
0.0
  0
LINE
  5
E54
330
6B
100
AcDbEntity
  8
0
100
AcDbLine
 10
865.9353130000001
 20
83.738571
 30
0.0
 11
865.9406960000001
 21
83.659668
 31
0.0
  0
LINE
  5
E55
330
6B
100
AcDbEntity
  8
0
100
AcDbLine
 10
865.9406960000001
 20
83.659668
 30
0.0
 11
865.9511119999999
 21
83.58157199999999
 31
0.0
  0
LINE
  5
E56
330
6B
100
AcDbEntity
  8
0
100
AcDbLine
 10
865.9511119999999
 20
83.58157199999999
 30
0.0
 11
865.9697839999999
 21
83.507305
 31
0.0
  0
LINE
  5
E57
330
6B
100
AcDbEntity
  8
0
100
AcDbLine
 10
865.9697839999999
 20
83.507305
 30
0.0
 11
865.99643
 21
83.435278
 31
0.0
  0
LINE
  5
E58
330
6B
100
AcDbEntity
  8
0
100
AcDbLine
 10
865.99643
 20
83.435278
 30
0.0
 11
866.0291789999996
 21
83.36732099999997
 31
0.0
  0
LINE
  5
E59
330
6B
100
AcDbEntity
  8
0
100
AcDbLine
 10
866.0291789999996
 20
83.36732099999997
 30
0.0
 11
866.068148
 21
83.30284199999999
 31
0.0
  0
LINE
  5
E5A
330
6B
100
AcDbEntity
  8
0
100
AcDbLine
 10
866.068148
 20
83.30284199999999
 30
0.0
 11
866.112865
 21
83.242867
 31
0.0
  0
LINE
  5
E5B
330
6B
100
AcDbEntity
  8
0
100
AcDbLine
 10
866.112865
 20
83.242867
 30
0.0
 11
866.163148
 21
83.187416
 31
0.0
  0
LINE
  5
E5C
330
6B
100
AcDbEntity
  8
0
100
AcDbLine
 10
866.163148
 20
83.187416
 30
0.0
 11
866.218457
 21
83.13700500000001
 31
0.0
  0
LINE
  5
E5D
330
6B
100
AcDbEntity
  8
0
100
AcDbLine
 10
866.218457
 20
83.13700500000001
 30
0.0
 11
866.2783099999996
 21
83.092152
 31
0.0
  0
LINE
  5
E5E
330
6B
100
AcDbEntity
  8
0
100
AcDbLine
 10
866.2783099999996
 20
83.092152
 30
0.0
 11
866.3426630000001
 21
83.053064
 31
0.0
  0
LINE
  5
E5F
330
6B
100
AcDbEntity
  8
0
100
AcDbLine
 10
866.3426630000001
 20
83.053064
 30
0.0
 11
866.4105150000001
 21
83.02020400000001
 31
0.0
  0
LINE
  5
E60
330
6B
100
AcDbEntity
  8
0
100
AcDbLine
 10
866.4105150000001
 20
83.02020400000001
 30
0.0
 11
866.482451
 21
82.99346400000002
 31
0.0
  0
LINE
  5
E61
330
6B
100
AcDbEntity
  8
0
100
AcDbLine
 10
866.482451
 20
82.99346400000002
 30
0.0
 11
866.556646
 21
82.974723
 31
0.0
  0
LINE
  5
E62
330
6B
100
AcDbEntity
  8
0
100
AcDbLine
 10
866.556646
 20
82.974723
 30
0.0
 11
866.6347080000001
 21
82.964265
 31
0.0
  0
LINE
  5
E63
330
6B
100
AcDbEntity
  8
0
100
AcDbLine
 10
866.6347080000001
 20
82.964265
 30
0.0
 11
866.7135829999999
 21
82.95886199999998
 31
0.0
  0
LINE
  5
E64
330
6B
100
AcDbEntity
  8
0
100
AcDbLine
 10
908.1072050000001
 20
92.69946899999998
 30
0.0
 11
908.186315
 21
92.70484600000001
 31
0.0
  0
LINE
  5
E65
330
6B
100
AcDbEntity
  8
0
100
AcDbLine
 10
908.186315
 20
92.70484600000001
 30
0.0
 11
908.264617
 21
92.715271
 31
0.0
  0
LINE
  5
E66
330
6B
100
AcDbEntity
  8
0
100
AcDbLine
 10
908.264617
 20
92.715271
 30
0.0
 11
908.338984
 21
92.73394399999999
 31
0.0
  0
LINE
  5
E67
330
6B
100
AcDbEntity
  8
0
100
AcDbLine
 10
908.338984
 20
92.73394399999999
 30
0.0
 11
908.411105
 21
92.76060800000001
 31
0.0
  0
LINE
  5
E68
330
6B
100
AcDbEntity
  8
0
100
AcDbLine
 10
908.411105
 20
92.76060800000001
 30
0.0
 11
908.4790809999999
 21
92.79337299999999
 31
0.0
  0
LINE
  5
E69
330
6B
100
AcDbEntity
  8
0
100
AcDbLine
 10
908.4790809999999
 20
92.79337299999999
 30
0.0
 11
908.5435659999999
 21
92.83238
 31
0.0
  0
LINE
  5
E6A
330
6B
100
AcDbEntity
  8
0
100
AcDbLine
 10
908.5435659999999
 20
92.83238
 30
0.0
 11
908.603506
 21
92.877141
 31
0.0
  0
LINE
  5
E6B
330
6B
100
AcDbEntity
  8
0
100
AcDbLine
 10
908.603506
 20
92.877141
 30
0.0
 11
908.6589
 21
92.92748299999999
 31
0.0
  0
LINE
  5
E6C
330
6B
100
AcDbEntity
  8
0
100
AcDbLine
 10
908.6589
 20
92.92748299999999
 30
0.0
 11
908.7092420000001
 21
92.98287700000001
 31
0.0
  0
LINE
  5
E6D
330
6B
100
AcDbEntity
  8
0
100
AcDbLine
 10
908.7092420000001
 20
92.98287700000001
 30
0.0
 11
908.7540029999999
 21
93.042817
 31
0.0
  0
LINE
  5
E6E
330
6B
100
AcDbEntity
  8
0
100
AcDbLine
 10
908.7540029999999
 20
93.042817
 30
0.0
 11
908.7930099999999
 21
93.107302
 31
0.0
  0
LINE
  5
E6F
330
6B
100
AcDbEntity
  8
0
100
AcDbLine
 10
908.7930099999999
 20
93.107302
 30
0.0
 11
908.825775
 21
93.175278
 31
0.0
  0
LINE
  5
E70
330
6B
100
AcDbEntity
  8
0
100
AcDbLine
 10
908.825775
 20
93.175278
 30
0.0
 11
908.8524389999999
 21
93.247399
 31
0.0
  0
LINE
  5
E71
330
6B
100
AcDbEntity
  8
0
100
AcDbLine
 10
908.8524389999999
 20
93.247399
 30
0.0
 11
908.8711120000001
 21
93.321766
 31
0.0
  0
LINE
  5
E72
330
6B
100
AcDbEntity
  8
0
100
AcDbLine
 10
908.8711120000001
 20
93.321766
 30
0.0
 11
908.8815369999997
 21
93.40006800000001
 31
0.0
  0
LINE
  5
E73
330
6B
100
AcDbEntity
  8
0
100
AcDbLine
 10
908.8815369999997
 20
93.40006800000001
 30
0.0
 11
908.8869139999999
 21
93.47917800000001
 31
0.0
  0
LINE
  5
E74
330
6B
100
AcDbEntity
  8
0
100
AcDbLine
 10
893.5660659999998
 20
94.256009
 30
0.0
 11
893.030781
 21
93.86772800000001
 31
0.0
  0
LINE
  5
E75
330
6B
100
AcDbEntity
  8
0
100
AcDbLine
 10
893.030781
 20
93.86772800000001
 30
0.0
 11
892.787077
 21
93.47917800000001
 31
0.0
  0
LINE
  5
E76
330
6B
100
AcDbEntity
  8
0
100
AcDbLine
 10
892.787077
 20
93.47917800000001
 30
0.0
 11
893.0302410000001
 21
93.089458
 31
0.0
  0
LINE
  5
E77
330
6B
100
AcDbEntity
  8
0
100
AcDbLine
 10
893.0302410000001
 20
93.089458
 30
0.0
 11
893.5660659999998
 21
92.69946899999998
 31
0.0
  0
LINE
  5
E78
330
6B
100
AcDbEntity
  8
0
100
AcDbLine
 10
908.8869139999999
 20
93.47917800000001
 30
0.0
 11
908.8815309999999
 21
93.55781399999999
 31
0.0
  0
LINE
  5
E79
330
6B
100
AcDbEntity
  8
0
100
AcDbLine
 10
908.8815309999999
 20
93.55781399999999
 30
0.0
 11
908.8711120000001
 21
93.63564
 31
0.0
  0
LINE
  5
E7A
330
6B
100
AcDbEntity
  8
0
100
AcDbLine
 10
908.8711120000001
 20
93.63564
 30
0.0
 11
908.8524320000001
 21
93.709652
 31
0.0
  0
LINE
  5
E7B
330
6B
100
AcDbEntity
  8
0
100
AcDbLine
 10
908.8524320000001
 20
93.709652
 30
0.0
 11
908.825775
 21
93.781414
 31
0.0
  0
LINE
  5
E7C
330
6B
100
AcDbEntity
  8
0
100
AcDbLine
 10
908.825775
 20
93.781414
 30
0.0
 11
908.792998
 21
93.84913500000001
 31
0.0
  0
LINE
  5
E7D
330
6B
100
AcDbEntity
  8
0
100
AcDbLine
 10
908.792998
 20
93.84913500000001
 30
0.0
 11
908.7540029999999
 21
93.913364
 31
0.0
  0
LINE
  5
E7E
330
6B
100
AcDbEntity
  8
0
100
AcDbLine
 10
908.7540029999999
 20
93.913364
 30
0.0
 11
908.70923
 21
93.97312900000001
 31
0.0
  0
LINE
  5
E7F
330
6B
100
AcDbEntity
  8
0
100
AcDbLine
 10
908.70923
 20
93.97312900000001
 30
0.0
 11
908.6589
 21
94.028354
 31
0.0
  0
LINE
  5
E80
330
6B
100
AcDbEntity
  8
0
100
AcDbLine
 10
908.6589
 20
94.028354
 30
0.0
 11
908.603496
 21
94.078586
 31
0.0
  0
LINE
  5
E81
330
6B
100
AcDbEntity
  8
0
100
AcDbLine
 10
908.603496
 20
94.078586
 30
0.0
 11
908.5435659999999
 21
94.12325
 31
0.0
  0
LINE
  5
E82
330
6B
100
AcDbEntity
  8
0
100
AcDbLine
 10
908.5435659999999
 20
94.12325
 30
0.0
 11
908.4790749999999
 21
94.162197
 31
0.0
  0
LINE
  5
E83
330
6B
100
AcDbEntity
  8
0
100
AcDbLine
 10
908.4790749999999
 20
94.162197
 30
0.0
 11
908.411105
 21
94.19491499999999
 31
0.0
  0
LINE
  5
E84
330
6B
100
AcDbEntity
  8
0
100
AcDbLine
 10
908.411105
 20
94.19491499999999
 30
0.0
 11
908.3389809999999
 21
94.22155399999999
 31
0.0
  0
LINE
  5
E85
330
6B
100
AcDbEntity
  8
0
100
AcDbLine
 10
908.3389809999999
 20
94.22155399999999
 30
0.0
 11
908.264617
 21
94.24021299999999
 31
0.0
  0
LINE
  5
E86
330
6B
100
AcDbEntity
  8
0
100
AcDbLine
 10
908.264617
 20
94.24021299999999
 30
0.0
 11
908.1863140000001
 21
94.25063299999999
 31
0.0
  0
LINE
  5
E87
330
6B
100
AcDbEntity
  8
0
100
AcDbLine
 10
908.1863140000001
 20
94.25063299999999
 30
0.0
 11
908.1072050000001
 21
94.256009
 31
0.0
  0
LINE
  5
E88
330
6B
100
AcDbEntity
  8
0
100
AcDbLine
 10
934.957531
 20
89.45260000000002
 30
0.0
 11
935.0366729999999
 21
89.458002
 31
0.0
  0
LINE
  5
E89
330
6B
100
AcDbEntity
  8
0
100
AcDbLine
 10
935.0366729999999
 20
89.458002
 30
0.0
 11
935.1150039999996
 21
89.468458
 31
0.0
  0
LINE
  5
E8A
330
6B
100
AcDbEntity
  8
0
100
AcDbLine
 10
935.1150039999996
 20
89.468458
 30
0.0
 11
935.1894539999999
 21
89.48719
 31
0.0
  0
LINE
  5
E8B
330
6B
100
AcDbEntity
  8
0
100
AcDbLine
 10
935.1894539999999
 20
89.48719
 30
0.0
 11
935.261655
 21
89.513919
 31
0.0
  0
LINE
  5
E8C
330
6B
100
AcDbEntity
  8
0
100
AcDbLine
 10
935.261655
 20
89.513919
 30
0.0
 11
935.3297439999996
 21
89.546752
 31
0.0
  0
LINE
  5
E8D
330
6B
100
AcDbEntity
  8
0
100
AcDbLine
 10
935.3297439999996
 20
89.546752
 30
0.0
 11
935.394347
 21
89.58581399999998
 31
0.0
  0
LINE
  5
E8E
330
6B
100
AcDbEntity
  8
0
100
AcDbLine
 10
935.394347
 20
89.58581399999998
 30
0.0
 11
935.45441
 21
89.63061000000001
 31
0.0
  0
LINE
  5
E8F
330
6B
100
AcDbEntity
  8
0
100
AcDbLine
 10
935.45441
 20
89.63061000000001
 30
0.0
 11
935.509944
 21
89.68097399999996
 31
0.0
  0
LINE
  5
E90
330
6B
100
AcDbEntity
  8
0
100
AcDbLine
 10
935.509944
 20
89.68097399999996
 30
0.0
 11
935.560407
 21
89.736331
 31
0.0
  0
LINE
  5
E91
330
6B
100
AcDbEntity
  8
0
100
AcDbLine
 10
935.560407
 20
89.736331
 30
0.0
 11
935.6053119999996
 21
89.796229
 31
0.0
  0
LINE
  5
E92
330
6B
100
AcDbEntity
  8
0
100
AcDbLine
 10
935.6053119999996
 20
89.796229
 30
0.0
 11
935.644422
 21
89.86057
 31
0.0
  0
LINE
  5
E93
330
6B
100
AcDbEntity
  8
0
100
AcDbLine
 10
935.644422
 20
89.86057
 30
0.0
 11
935.6773139999999
 21
89.928409
 31
0.0
  0
LINE
  5
E94
330
6B
100
AcDbEntity
  8
0
100
AcDbLine
 10
935.6773139999999
 20
89.928409
 30
0.0
 11
935.7040609999996
 21
90.000248
 31
0.0
  0
LINE
  5
E95
330
6B
100
AcDbEntity
  8
0
100
AcDbLine
 10
935.7040609999996
 20
90.000248
 30
0.0
 11
935.722815
 21
90.07434600000001
 31
0.0
  0
LINE
  5
E96
330
6B
100
AcDbEntity
  8
0
100
AcDbLine
 10
935.722815
 20
90.07434600000001
 30
0.0
 11
935.7332699999997
 21
90.152201
 31
0.0
  0
LINE
  5
E97
330
6B
100
AcDbEntity
  8
0
100
AcDbLine
 10
935.7332699999997
 20
90.152201
 30
0.0
 11
935.7386779999997
 21
90.23087
 31
0.0
  0
LINE
  5
E98
330
6B
100
AcDbEntity
  8
0
100
AcDbLine
 10
920.4163919999999
 20
91.00914000000001
 30
0.0
 11
919.8808360000001
 21
90.62000500000001
 31
0.0
  0
LINE
  5
E99
330
6B
100
AcDbEntity
  8
0
100
AcDbLine
 10
919.8808360000001
 20
90.62000500000001
 30
0.0
 11
919.637402
 21
90.23087
 31
0.0
  0
LINE
  5
E9A
330
6B
100
AcDbEntity
  8
0
100
AcDbLine
 10
919.637402
 20
90.23087
 30
0.0
 11
919.8808360000001
 21
89.841735
 31
0.0
  0
LINE
  5
E9B
330
6B
100
AcDbEntity
  8
0
100
AcDbLine
 10
919.8808360000001
 20
89.841735
 30
0.0
 11
920.4163919999999
 21
89.45260000000002
 31
0.0
  0
LINE
  5
E9C
330
6B
100
AcDbEntity
  8
0
100
AcDbLine
 10
935.7386779999997
 20
90.23087
 30
0.0
 11
935.733281
 21
90.30995199999999
 31
0.0
  0
LINE
  5
E9D
330
6B
100
AcDbEntity
  8
0
100
AcDbLine
 10
935.733281
 20
90.30995199999999
 30
0.0
 11
935.722815
 21
90.38822000000001
 31
0.0
  0
LINE
  5
E9E
330
6B
100
AcDbEntity
  8
0
100
AcDbLine
 10
935.722815
 20
90.38822000000001
 30
0.0
 11
935.704072
 21
90.462514
 31
0.0
  0
LINE
  5
E9F
330
6B
100
AcDbEntity
  8
0
100
AcDbLine
 10
935.704072
 20
90.462514
 30
0.0
 11
935.6773139999999
 21
90.53454499999999
 31
0.0
  0
LINE
  5
EA0
330
6B
100
AcDbEntity
  8
0
100
AcDbLine
 10
935.6773139999999
 20
90.53454499999999
 30
0.0
 11
935.6444380000001
 21
90.602417
 31
0.0
  0
LINE
  5
EA1
330
6B
100
AcDbEntity
  8
0
100
AcDbLine
 10
935.6444380000001
 20
90.602417
 30
0.0
 11
935.6053119999996
 21
90.666776
 31
0.0
  0
LINE
  5
EA2
330
6B
100
AcDbEntity
  8
0
100
AcDbLine
 10
935.6053119999996
 20
90.666776
 30
0.0
 11
935.560416
 21
90.72659299999999
 31
0.0
  0
LINE
  5
EA3
330
6B
100
AcDbEntity
  8
0
100
AcDbLine
 10
935.560416
 20
90.72659299999999
 30
0.0
 11
935.509944
 21
90.78184499999997
 31
0.0
  0
LINE
  5
EA4
330
6B
100
AcDbEntity
  8
0
100
AcDbLine
 10
935.509944
 20
90.78184499999997
 30
0.0
 11
935.45441
 21
90.83205900000001
 31
0.0
  0
LINE
  5
EA5
330
6B
100
AcDbEntity
  8
0
100
AcDbLine
 10
935.45441
 20
90.83205900000001
 30
0.0
 11
935.394347
 21
90.87668499999999
 31
0.0
  0
LINE
  5
EA6
330
6B
100
AcDbEntity
  8
0
100
AcDbLine
 10
935.394347
 20
90.87668499999999
 30
0.0
 11
935.329736
 21
90.915572
 31
0.0
  0
LINE
  5
EA7
330
6B
100
AcDbEntity
  8
0
100
AcDbLine
 10
935.329736
 20
90.915572
 30
0.0
 11
935.261655
 21
90.948226
 31
0.0
  0
LINE
  5
EA8
330
6B
100
AcDbEntity
  8
0
100
AcDbLine
 10
935.261655
 20
90.948226
 30
0.0
 11
935.189444
 21
90.97479599999999
 31
0.0
  0
LINE
  5
EA9
330
6B
100
AcDbEntity
  8
0
100
AcDbLine
 10
935.189444
 20
90.97479599999999
 30
0.0
 11
935.1150039999996
 21
90.99339999999999
 31
0.0
  0
LINE
  5
EAA
330
6B
100
AcDbEntity
  8
0
100
AcDbLine
 10
935.1150039999996
 20
90.99339999999999
 30
0.0
 11
935.0366669999999
 21
91.003783
 31
0.0
  0
LINE
  5
EAB
330
6B
100
AcDbEntity
  8
0
100
AcDbLine
 10
935.0366669999999
 20
91.003783
 30
0.0
 11
934.957531
 21
91.00914000000001
 31
0.0
  0
LINE
  5
EAC
330
6B
100
AcDbEntity
  8
0
100
AcDbLine
 10
920.4163919999999
 20
84.51828
 30
0.0
 11
920.3372980000001
 21
84.51290400000003
 31
0.0
  0
LINE
  5
EAD
330
6B
100
AcDbEntity
  8
0
100
AcDbLine
 10
920.3372980000001
 20
84.51290400000003
 30
0.0
 11
920.259011
 21
84.50247799999997
 31
0.0
  0
LINE
  5
EAE
330
6B
100
AcDbEntity
  8
0
100
AcDbLine
 10
920.259011
 20
84.50247799999997
 30
0.0
 11
920.1846839999999
 21
84.483805
 31
0.0
  0
LINE
  5
EAF
330
6B
100
AcDbEntity
  8
0
100
AcDbLine
 10
920.1846839999999
 20
84.483805
 30
0.0
 11
920.112605
 21
84.45714
 31
0.0
  0
LINE
  5
EB0
330
6B
100
AcDbEntity
  8
0
100
AcDbLine
 10
920.112605
 20
84.45714
 30
0.0
 11
920.0446839999999
 21
84.42437700000002
 31
0.0
  0
LINE
  5
EB1
330
6B
100
AcDbEntity
  8
0
100
AcDbLine
 10
920.0446839999999
 20
84.42437700000002
 30
0.0
 11
919.980258
 21
84.385369
 31
0.0
  0
LINE
  5
EB2
330
6B
100
AcDbEntity
  8
0
100
AcDbLine
 10
919.980258
 20
84.385369
 30
0.0
 11
919.9203820000001
 21
84.34060699999998
 31
0.0
  0
LINE
  5
EB3
330
6B
100
AcDbEntity
  8
0
100
AcDbLine
 10
919.9203820000001
 20
84.34060699999998
 30
0.0
 11
919.8650569999999
 21
84.290265
 31
0.0
  0
LINE
  5
EB4
330
6B
100
AcDbEntity
  8
0
100
AcDbLine
 10
919.8650569999999
 20
84.290265
 30
0.0
 11
919.81478
 21
84.23486899999998
 31
0.0
  0
LINE
  5
EB5
330
6B
100
AcDbEntity
  8
0
100
AcDbLine
 10
919.81478
 20
84.23486899999998
 30
0.0
 11
919.7700859999999
 21
84.174932
 31
0.0
  0
LINE
  5
EB6
330
6B
100
AcDbEntity
  8
0
100
AcDbLine
 10
919.7700859999999
 20
84.174932
 30
0.0
 11
919.7311369999999
 21
84.110443
 31
0.0
  0
LINE
  5
EB7
330
6B
100
AcDbEntity
  8
0
100
AcDbLine
 10
919.7311369999999
 20
84.110443
 30
0.0
 11
919.6984290000001
 21
84.04246999999998
 31
0.0
  0
LINE
  5
EB8
330
6B
100
AcDbEntity
  8
0
100
AcDbLine
 10
919.6984290000001
 20
84.04246999999998
 30
0.0
 11
919.671811
 21
83.97034599999997
 31
0.0
  0
LINE
  5
EB9
330
6B
100
AcDbEntity
  8
0
100
AcDbLine
 10
919.671811
 20
83.97034599999997
 30
0.0
 11
919.653173
 21
83.89598300000001
 31
0.0
  0
LINE
  5
EBA
330
6B
100
AcDbEntity
  8
0
100
AcDbLine
 10
919.653173
 20
83.89598300000001
 30
0.0
 11
919.6427680000001
 21
83.81767899999998
 31
0.0
  0
LINE
  5
EBB
330
6B
100
AcDbEntity
  8
0
100
AcDbLine
 10
919.6427680000001
 20
83.81767899999998
 30
0.0
 11
919.637402
 21
83.738571
 31
0.0
  0
LINE
  5
EBC
330
6B
100
AcDbEntity
  8
0
100
AcDbLine
 10
934.957531
 20
82.95886199999998
 30
0.0
 11
935.49457
 21
83.34871600000003
 31
0.0
  0
LINE
  5
EBD
330
6B
100
AcDbEntity
  8
0
100
AcDbLine
 10
935.49457
 20
83.34871600000003
 30
0.0
 11
935.7386779999997
 21
83.738571
 31
0.0
  0
LINE
  5
EBE
330
6B
100
AcDbEntity
  8
0
100
AcDbLine
 10
935.7386779999997
 20
83.738571
 30
0.0
 11
935.49457
 21
84.128425
 31
0.0
  0
LINE
  5
EBF
330
6B
100
AcDbEntity
  8
0
100
AcDbLine
 10
935.49457
 20
84.128425
 30
0.0
 11
934.957531
 21
84.51828
 31
0.0
  0
LINE
  5
EC0
330
6B
100
AcDbEntity
  8
0
100
AcDbLine
 10
919.637402
 20
83.738571
 30
0.0
 11
919.642774
 21
83.65966999999997
 31
0.0
  0
LINE
  5
EC1
330
6B
100
AcDbEntity
  8
0
100
AcDbLine
 10
919.642774
 20
83.65966999999997
 30
0.0
 11
919.653173
 21
83.58157199999999
 31
0.0
  0
LINE
  5
EC2
330
6B
100
AcDbEntity
  8
0
100
AcDbLine
 10
919.653173
 20
83.58157199999999
 30
0.0
 11
919.671817
 21
83.50730699999997
 31
0.0
  0
LINE
  5
EC3
330
6B
100
AcDbEntity
  8
0
100
AcDbLine
 10
919.671817
 20
83.50730699999997
 30
0.0
 11
919.6984290000001
 21
83.435278
 31
0.0
  0
LINE
  5
EC4
330
6B
100
AcDbEntity
  8
0
100
AcDbLine
 10
919.6984290000001
 20
83.435278
 30
0.0
 11
919.7311449999999
 21
83.367322
 31
0.0
  0
LINE
  5
EC5
330
6B
100
AcDbEntity
  8
0
100
AcDbLine
 10
919.7311449999999
 20
83.367322
 30
0.0
 11
919.7700859999999
 21
83.30284199999999
 31
0.0
  0
LINE
  5
EC6
330
6B
100
AcDbEntity
  8
0
100
AcDbLine
 10
919.7700859999999
 20
83.30284199999999
 30
0.0
 11
919.8147849999999
 21
83.242864
 31
0.0
  0
LINE
  5
EC7
330
6B
100
AcDbEntity
  8
0
100
AcDbLine
 10
919.8147849999999
 20
83.242864
 30
0.0
 11
919.8650569999999
 21
83.187416
 31
0.0
  0
LINE
  5
EC8
330
6B
100
AcDbEntity
  8
0
100
AcDbLine
 10
919.8650569999999
 20
83.187416
 30
0.0
 11
919.920383
 21
83.13699900000001
 31
0.0
  0
LINE
  5
EC9
330
6B
100
AcDbEntity
  8
0
100
AcDbLine
 10
919.920383
 20
83.13699900000001
 30
0.0
 11
919.980258
 21
83.092152
 31
0.0
  0
LINE
  5
ECA
330
6B
100
AcDbEntity
  8
0
100
AcDbLine
 10
919.980258
 20
83.092152
 30
0.0
 11
920.0446799999999
 21
83.05305699999998
 31
0.0
  0
LINE
  5
ECB
330
6B
100
AcDbEntity
  8
0
100
AcDbLine
 10
920.0446799999999
 20
83.05305699999998
 30
0.0
 11
920.112605
 21
83.02020400000001
 31
0.0
  0
LINE
  5
ECC
330
6B
100
AcDbEntity
  8
0
100
AcDbLine
 10
920.112605
 20
83.02020400000001
 30
0.0
 11
920.1846789999999
 21
82.993459
 31
0.0
  0
LINE
  5
ECD
330
6B
100
AcDbEntity
  8
0
100
AcDbLine
 10
920.1846789999999
 20
82.993459
 30
0.0
 11
920.259011
 21
82.974723
 31
0.0
  0
LINE
  5
ECE
330
6B
100
AcDbEntity
  8
0
100
AcDbLine
 10
920.259011
 20
82.974723
 30
0.0
 11
920.337295
 21
82.96426
 31
0.0
  0
LINE
  5
ECF
330
6B
100
AcDbEntity
  8
0
100
AcDbLine
 10
920.337295
 20
82.96426
 30
0.0
 11
920.4163919999999
 21
82.95886199999998
 31
0.0
  0
LINE
  5
ED0
330
6B
100
AcDbEntity
  8
0
100
AcDbLine
 10
934.957531
 20
86.20573099999999
 30
0.0
 11
935.0366729999999
 21
86.21113299999995
 31
0.0
  0
LINE
  5
ED1
330
6B
100
AcDbEntity
  8
0
100
AcDbLine
 10
935.0366729999999
 20
86.21113299999995
 30
0.0
 11
935.1150039999996
 21
86.221592
 31
0.0
  0
LINE
  5
ED2
330
6B
100
AcDbEntity
  8
0
100
AcDbLine
 10
935.1150039999996
 20
86.221592
 30
0.0
 11
935.1894559999999
 21
86.24033100000003
 31
0.0
  0
LINE
  5
ED3
330
6B
100
AcDbEntity
  8
0
100
AcDbLine
 10
935.1894559999999
 20
86.24033100000003
 30
0.0
 11
935.261655
 21
86.26707299999997
 31
0.0
  0
LINE
  5
ED4
330
6B
100
AcDbEntity
  8
0
100
AcDbLine
 10
935.261655
 20
86.26707299999997
 30
0.0
 11
935.3297469999999
 21
86.29992900000003
 31
0.0
  0
LINE
  5
ED5
330
6B
100
AcDbEntity
  8
0
100
AcDbLine
 10
935.3297469999999
 20
86.29992900000003
 30
0.0
 11
935.394347
 21
86.339021
 31
0.0
  0
LINE
  5
ED6
330
6B
100
AcDbEntity
  8
0
100
AcDbLine
 10
935.394347
 20
86.339021
 30
0.0
 11
935.454415
 21
86.383866
 31
0.0
  0
LINE
  5
ED7
330
6B
100
AcDbEntity
  8
0
100
AcDbLine
 10
935.454415
 20
86.383866
 30
0.0
 11
935.509944
 21
86.434285
 31
0.0
  0
LINE
  5
ED8
330
6B
100
AcDbEntity
  8
0
100
AcDbLine
 10
935.509944
 20
86.434285
 30
0.0
 11
935.5604130000001
 21
86.489726
 31
0.0
  0
LINE
  5
ED9
330
6B
100
AcDbEntity
  8
0
100
AcDbLine
 10
935.5604130000001
 20
86.489726
 30
0.0
 11
935.6053119999996
 21
86.549711
 31
0.0
  0
LINE
  5
EDA
330
6B
100
AcDbEntity
  8
0
100
AcDbLine
 10
935.6053119999996
 20
86.549711
 30
0.0
 11
935.6444289999997
 21
86.61418000000002
 31
0.0
  0
LINE
  5
EDB
330
6B
100
AcDbEntity
  8
0
100
AcDbLine
 10
935.6444289999997
 20
86.61418000000002
 30
0.0
 11
935.6773139999999
 21
86.682147
 31
0.0
  0
LINE
  5
EDC
330
6B
100
AcDbEntity
  8
0
100
AcDbLine
 10
935.6773139999999
 20
86.682147
 30
0.0
 11
935.704065
 21
86.754166
 31
0.0
  0
LINE
  5
EDD
330
6B
100
AcDbEntity
  8
0
100
AcDbLine
 10
935.704065
 20
86.754166
 30
0.0
 11
935.722815
 21
86.828441
 31
0.0
  0
LINE
  5
EDE
330
6B
100
AcDbEntity
  8
0
100
AcDbLine
 10
935.722815
 20
86.828441
 30
0.0
 11
935.7332730000001
 21
86.906534
 31
0.0
  0
LINE
  5
EDF
330
6B
100
AcDbEntity
  8
0
100
AcDbLine
 10
935.7332730000001
 20
86.906534
 30
0.0
 11
935.7386779999997
 21
86.98544
 31
0.0
  0
LINE
  5
EE0
330
6B
100
AcDbEntity
  8
0
100
AcDbLine
 10
920.4163919999999
 20
87.765149
 30
0.0
 11
919.8808360000001
 21
87.37529399999997
 31
0.0
  0
LINE
  5
EE1
330
6B
100
AcDbEntity
  8
0
100
AcDbLine
 10
919.8808360000001
 20
87.37529399999997
 30
0.0
 11
919.637402
 21
86.98544
 31
0.0
  0
LINE
  5
EE2
330
6B
100
AcDbEntity
  8
0
100
AcDbLine
 10
919.637402
 20
86.98544
 30
0.0
 11
919.8808360000001
 21
86.59558500000001
 31
0.0
  0
LINE
  5
EE3
330
6B
100
AcDbEntity
  8
0
100
AcDbLine
 10
919.8808360000001
 20
86.59558500000001
 30
0.0
 11
920.4163919999999
 21
86.20573099999999
 31
0.0
  0
LINE
  5
EE4
330
6B
100
AcDbEntity
  8
0
100
AcDbLine
 10
935.7386779999997
 20
86.98544
 30
0.0
 11
935.7332730000001
 21
87.06434599999999
 31
0.0
  0
LINE
  5
EE5
330
6B
100
AcDbEntity
  8
0
100
AcDbLine
 10
935.7332730000001
 20
87.06434599999999
 30
0.0
 11
935.722815
 21
87.14243899999997
 31
0.0
  0
LINE
  5
EE6
330
6B
100
AcDbEntity
  8
0
100
AcDbLine
 10
935.722815
 20
87.14243899999997
 30
0.0
 11
935.704065
 21
87.21671399999998
 31
0.0
  0
LINE
  5
EE7
330
6B
100
AcDbEntity
  8
0
100
AcDbLine
 10
935.704065
 20
87.21671399999998
 30
0.0
 11
935.6773139999999
 21
87.288732
 31
0.0
  0
LINE
  5
EE8
330
6B
100
AcDbEntity
  8
0
100
AcDbLine
 10
935.6773139999999
 20
87.288732
 30
0.0
 11
935.6444289999997
 21
87.3567
 31
0.0
  0
LINE
  5
EE9
330
6B
100
AcDbEntity
  8
0
100
AcDbLine
 10
935.6444289999997
 20
87.3567
 30
0.0
 11
935.6053119999996
 21
87.42116899999997
 31
0.0
  0
LINE
  5
EEA
330
6B
100
AcDbEntity
  8
0
100
AcDbLine
 10
935.6053119999996
 20
87.42116899999997
 30
0.0
 11
935.5604130000001
 21
87.48115400000001
 31
0.0
  0
LINE
  5
EEB
330
6B
100
AcDbEntity
  8
0
100
AcDbLine
 10
935.5604130000001
 20
87.48115400000001
 30
0.0
 11
935.509944
 21
87.53659499999995
 31
0.0
  0
LINE
  5
EEC
330
6B
100
AcDbEntity
  8
0
100
AcDbLine
 10
935.509944
 20
87.53659499999995
 30
0.0
 11
935.454415
 21
87.58701399999997
 31
0.0
  0
LINE
  5
EED
330
6B
100
AcDbEntity
  8
0
100
AcDbLine
 10
935.454415
 20
87.58701399999997
 30
0.0
 11
935.394347
 21
87.631858
 31
0.0
  0
LINE
  5
EEE
330
6B
100
AcDbEntity
  8
0
100
AcDbLine
 10
935.394347
 20
87.631858
 30
0.0
 11
935.3297469999999
 21
87.670951
 31
0.0
  0
LINE
  5
EEF
330
6B
100
AcDbEntity
  8
0
100
AcDbLine
 10
935.3297469999999
 20
87.670951
 30
0.0
 11
935.261655
 21
87.703807
 31
0.0
  0
LINE
  5
EF0
330
6B
100
AcDbEntity
  8
0
100
AcDbLine
 10
935.261655
 20
87.703807
 30
0.0
 11
935.1894559999999
 21
87.730548
 31
0.0
  0
LINE
  5
EF1
330
6B
100
AcDbEntity
  8
0
100
AcDbLine
 10
935.1894559999999
 20
87.730548
 30
0.0
 11
935.1150039999996
 21
87.74928800000003
 31
0.0
  0
LINE
  5
EF2
330
6B
100
AcDbEntity
  8
0
100
AcDbLine
 10
935.1150039999996
 20
87.74928800000003
 30
0.0
 11
935.0366729999999
 21
87.75974599999996
 31
0.0
  0
LINE
  5
EF3
330
6B
100
AcDbEntity
  8
0
100
AcDbLine
 10
935.0366729999999
 20
87.75974599999996
 30
0.0
 11
934.957531
 21
87.765149
 31
0.0
  0
LINE
  5
EF4
330
6B
100
AcDbEntity
  8
0
100
AcDbLine
 10
1041.072763
 20
119.830541
 30
0.0
 11
1041.123765
 21
119.78145
 31
0.0
  0
LINE
  5
EF5
330
6B
100
AcDbEntity
  8
0
100
AcDbLine
 10
1041.123765
 20
119.78145
 30
0.0
 11
1041.17541
 21
119.733052
 31
0.0
  0
LINE
  5
EF6
330
6B
100
AcDbEntity
  8
0
100
AcDbLine
 10
1041.17541
 20
119.733052
 30
0.0
 11
1041.228144
 21
119.685937
 31
0.0
  0
LINE
  5
EF7
330
6B
100
AcDbEntity
  8
0
100
AcDbLine
 10
1041.228144
 20
119.685937
 30
0.0
 11
1041.281918
 21
119.639997
 31
0.0
  0
LINE
  5
EF8
330
6B
100
AcDbEntity
  8
0
100
AcDbLine
 10
1041.281918
 20
119.639997
 30
0.0
 11
1041.336545
 21
119.595048
 31
0.0
  0
LINE
  5
EF9
330
6B
100
AcDbEntity
  8
0
100
AcDbLine
 10
1041.336545
 20
119.595048
 30
0.0
 11
1041.391967
 21
119.551089
 31
0.0
  0
LINE
  5
EFA
330
6B
100
AcDbEntity
  8
0
100
AcDbLine
 10
1041.391967
 20
119.551089
 30
0.0
 11
1041.448236
 21
119.508081
 31
0.0
  0
LINE
  5
EFB
330
6B
100
AcDbEntity
  8
0
100
AcDbLine
 10
1041.448236
 20
119.508081
 30
0.0
 11
1041.505235
 21
119.466042
 31
0.0
  0
LINE
  5
EFC
330
6B
100
AcDbEntity
  8
0
100
AcDbLine
 10
1041.505235
 20
119.466042
 30
0.0
 11
1041.563004
 21
119.424856
 31
0.0
  0
LINE
  5
EFD
330
6B
100
AcDbEntity
  8
0
100
AcDbLine
 10
1041.563004
 20
119.424856
 30
0.0
 11
1041.621403
 21
119.384568
 31
0.0
  0
LINE
  5
EFE
330
6B
100
AcDbEntity
  8
0
100
AcDbLine
 10
1041.621403
 20
119.384568
 30
0.0
 11
1041.680509
 21
119.34507
 31
0.0
  0
LINE
  5
EFF
330
6B
100
AcDbEntity
  8
0
100
AcDbLine
 10
1041.680509
 20
119.34507
 30
0.0
 11
1041.74015
 21
119.306382
 31
0.0
  0
LINE
  5
F00
330
6B
100
AcDbEntity
  8
0
100
AcDbLine
 10
1041.74015
 20
119.306382
 30
0.0
 11
1041.800402
 21
119.268384
 31
0.0
  0
LINE
  5
F01
330
6B
100
AcDbEntity
  8
0
100
AcDbLine
 10
1041.800402
 20
119.268384
 30
0.0
 11
1041.861156
 21
119.231197
 31
0.0
  0
LINE
  5
F02
330
6B
100
AcDbEntity
  8
0
100
AcDbLine
 10
1041.861156
 20
119.231197
 30
0.0
 11
1041.922497
 21
119.194741
 31
0.0
  0
LINE
  5
F03
330
6B
100
AcDbEntity
  8
0
100
AcDbLine
 10
1041.922497
 20
119.194741
 30
0.0
 11
1041.984101
 21
119.158726
 31
0.0
  0
LINE
  5
F04
330
6B
100
AcDbEntity
  8
0
100
AcDbLine
 10
1047.332012
 20
119.980153
 30
0.0
 11
1045.75134
 21
119.006674
 31
0.0
  0
LINE
  5
F05
330
6B
100
AcDbEntity
  8
0
100
AcDbLine
 10
1045.75134
 20
119.006674
 30
0.0
 11
1044.131178
 21
118.568909
 31
0.0
  0
LINE
  5
F06
330
6B
100
AcDbEntity
  8
0
100
AcDbLine
 10
1044.131178
 20
118.568909
 30
0.0
 11
1043.065639
 21
118.755295
 31
0.0
  0
LINE
  5
F07
330
6B
100
AcDbEntity
  8
0
100
AcDbLine
 10
1043.065639
 20
118.755295
 30
0.0
 11
1041.984101
 21
119.158726
 31
0.0
  0
LINE
  5
F08
330
6B
100
AcDbEntity
  8
0
100
AcDbLine
 10
760.4318389999997
 20
69.074205
 30
0.0
 11
759.4155849999999
 21
70.878204
 31
0.0
  0
LINE
  5
F09
330
6B
100
AcDbEntity
  8
0
100
AcDbLine
 10
759.4155849999999
 20
70.878204
 30
0.0
 11
759.393687
 21
68.807767
 31
0.0
  0
LINE
  5
F0A
330
6B
100
AcDbEntity
  8
0
100
AcDbLine
 10
758.241238
 20
55.151797
 30
0.0
 11
758.332574
 21
57.22033399999999
 31
0.0
  0
LINE
  5
F0B
330
6B
100
AcDbEntity
  8
0
100
AcDbLine
 10
758.332574
 20
57.22033399999999
 30
0.0
 11
757.2192059999999
 21
55.47459599999999
 31
0.0
  0
LINE
  5
F0C
330
6B
100
AcDbEntity
  8
0
100
AcDbLine
 10
772.955057
 20
69.372573
 30
0.0
 11
771.80982
 21
71.097571
 31
0.0
  0
LINE
  5
F0D
330
6B
100
AcDbEntity
  8
0
100
AcDbLine
 10
771.80982
 20
71.097571
 30
0.0
 11
771.939125
 21
69.03106
 31
0.0
  0
LINE
  5
F0E
330
6B
100
AcDbEntity
  8
0
100
AcDbLine
 10
786.313411
 20
69.104298
 30
0.0
 11
785.0815219999997
 21
70.76852099999998
 31
0.0
  0
LINE
  5
F0F
330
6B
100
AcDbEntity
  8
0
100
AcDbLine
 10
785.0815219999997
 20
70.76852099999998
 30
0.0
 11
785.3162580000002
 21
68.71131700000001
 31
0.0
  0
LINE
  5
F10
330
6B
100
AcDbEntity
  8
0
100
AcDbLine
 10
799.127004
 20
69.50415200000001
 30
0.0
 11
797.8048079999996
 21
71.097571
 31
0.0
  0
LINE
  5
F11
330
6B
100
AcDbEntity
  8
0
100
AcDbLine
 10
797.8048079999996
 20
71.097571
 30
0.0
 11
798.1531539999997
 21
69.05653199999999
 31
0.0
  0
LINE
  5
F12
330
6B
100
AcDbEntity
  8
0
100
AcDbLine
 10
812.580559
 20
69.23785600000001
 30
0.0
 11
811.186194
 21
70.76852099999998
 31
0.0
  0
LINE
  5
F13
330
6B
100
AcDbEntity
  8
0
100
AcDbLine
 10
811.186194
 20
70.76852099999998
 30
0.0
 11
811.628417
 21
68.74574399999999
 31
0.0
  0
LINE
  5
F14
330
6B
100
AcDbEntity
  8
0
100
AcDbLine
 10
1015.802449
 20
121.755421
 30
0.0
 11
1015.420865
 21
119.720334
 31
0.0
  0
LINE
  5
F15
330
6B
100
AcDbEntity
  8
0
100
AcDbLine
 10
1015.420865
 20
119.720334
 30
0.0
 11
1016.76887
 21
121.29198
 31
0.0
  0
LINE
  5
F16
330
6B
100
AcDbEntity
  8
0
100
AcDbLine
 10
902.0204389999999
 20
148.919274
 30
0.0
 11
900.83689
 21
147.220334
 31
0.0
  0
LINE
  5
F17
330
6B
100
AcDbEntity
  8
0
100
AcDbLine
 10
900.83689
 20
147.220334
 30
0.0
 11
902.7113429999999
 21
148.099885
 31
0.0
  0
LINE
  5
F18
330
6B
100
AcDbEntity
  8
0
100
AcDbLine
 10
746.8576320000003
 20
136.290734
 30
0.0
 11
746.832574
 21
134.220334
 31
0.0
  0
LINE
  5
F19
330
6B
100
AcDbEntity
  8
0
100
AcDbLine
 10
746.832574
 20
134.220334
 30
0.0
 11
747.8894749999997
 21
136.000825
 31
0.0
  0
LINE
  5
F1A
330
6B
100
AcDbEntity
  8
0
100
AcDbLine
 10
753.278683
 20
130.516427
 30
0.0
 11
752.8273719999997
 21
128.495659
 31
0.0
  0
LINE
  5
F1B
330
6B
100
AcDbEntity
  8
0
100
AcDbLine
 10
752.8273719999997
 20
128.495659
 30
0.0
 11
754.228603
 21
130.02004
 31
0.0
  0
LINE
  5
F1C
330
6B
100
AcDbEntity
  8
0
100
AcDbLine
 10
1068.416253
 20
68.642955
 30
0.0
 11
1067.189743
 21
66.97476400000001
 31
0.0
  0
LINE
  5
F1D
330
6B
100
AcDbEntity
  8
0
100
AcDbLine
 10
1067.189743
 20
66.97476400000001
 30
0.0
 11
1069.086027
 21
67.80620500000001
 31
0.0
  0
LINE
  5
F1E
330
6B
100
AcDbEntity
  8
0
100
AcDbLine
 10
814.813071
 20
57.22033399999999
 30
0.0
 11
838.5577929999998
 21
57.22033399999998
 31
0.0
  0
LINE
  5
F1F
330
6B
100
AcDbEntity
  8
0
100
AcDbLine
 10
786.832574
 20
147.220334
 30
0.0
 11
838.5577929999998
 21
147.220334
 31
0.0
  0
LINE
  5
F20
330
6B
100
AcDbEntity
  8
0
100
AcDbLine
 10
837.3077929999999
 20
59.72033399999998
 30
0.0
 11
837.3077929999999
 21
144.7203339999999
 31
0.0
  0
LINE
  5
F24
330
6B
100
AcDbEntity
  8
0
100
AcDbLine
 10
744.332574
 20
132.470334
 30
0.0
 11
744.332574
 21
169.8743
 31
0.0
  0
LINE
  5
F25
330
6B
100
AcDbEntity
  8
0
100
AcDbLine
 10
824.3325739999997
 20
132.470334
 30
0.0
 11
824.3325739999997
 21
169.8743
 31
0.0
  0
LINE
  5
F26
330
6B
100
AcDbEntity
  8
0
100
AcDbLine
 10
746.832574
 20
168.6243
 30
0.0
 11
821.8325739999997
 21
168.6243
 31
0.0
  0
LINE
  5
F2A
330
6B
100
AcDbEntity
  8
0
100
AcDbLine
 10
854.58689
 20
134.970334
 30
0.0
 11
854.58689
 21
169.8743
 31
0.0
  0
LINE
  5
F2B
330
6B
100
AcDbEntity
  8
0
100
AcDbLine
 10
947.0868900000001
 20
134.970334
 30
0.0
 11
947.0868900000001
 21
169.8743
 31
0.0
  0
LINE
  5
F2C
330
6B
100
AcDbEntity
  8
0
100
AcDbLine
 10
857.08689
 20
168.6243
 30
0.0
 11
944.58689
 21
168.6243
 31
0.0
  0
TEXT
  5
F30
330
6B
100
AcDbEntity
  8
0
 62
     4
100
AcDbText
 10
836.6827929999997
 20
98.97033400000012
 30
0.0
 40
3.0
  1
180
 50
90.0
100
AcDbText
  0
LINE
  5
F31
330
6B
100
AcDbEntity
  8
0
  6
ByBlock
 62
     0
370
    -2
100
AcDbLine
 10
836.6379204999997
 20
144.7203339999999
 30
0.0
 11
837.3077929999999
 21
147.220334
 31
0.0
  0
LINE
  5
F32
330
6B
100
AcDbEntity
  8
0
  6
ByBlock
 62
     0
370
    -2
100
AcDbLine
 10
837.3077929999999
 20
147.220334
 30
0.0
 11
837.9776654999998
 21
144.7203339999999
 31
0.0
  0
LINE
  5
F33
330
6B
100
AcDbEntity
  8
0
  6
ByBlock
 62
     0
370
    -2
100
AcDbLine
 10
837.3077929999999
 20
147.220334
 30
0.0
 11
837.3077929999999
 21
144.7203339999999
 31
0.0
  0
LINE
  5
F34
330
6B
100
AcDbEntity
  8
0
  6
ByBlock
 62
     0
370
    -2
100
AcDbLine
 10
837.9776654999998
 20
59.72033399999998
 30
0.0
 11
837.3077929999999
 21
57.22033399999998
 31
0.0
  0
LINE
  5
F35
330
6B
100
AcDbEntity
  8
0
  6
ByBlock
 62
     0
370
    -2
100
AcDbLine
 10
837.3077929999999
 20
57.22033399999998
 30
0.0
 11
836.6379204999997
 21
59.72033399999998
 31
0.0
  0
LINE
  5
F36
330
6B
100
AcDbEntity
  8
0
  6
ByBlock
 62
     0
370
    -2
100
AcDbLine
 10
837.3077929999999
 20
57.22033399999998
 30
0.0
 11
837.3077929999999
 21
59.72033399999998
 31
0.0
  0
TEXT
  5
F37
330
6B
100
AcDbEntity
  8
0
 62
     4
100
AcDbText
 10
781.0825739999998
 20
169.2493
 30
0.0
 40
3.0
  1
160
100
AcDbText
  0
LINE
  5
F38
330
6B
100
AcDbEntity
  8
0
  6
ByBlock
 62
     0
370
    -2
100
AcDbLine
 10
821.8325739999997
 20
169.2941725
 30
0.0
 11
824.3325739999997
 21
168.6243
 31
0.0
  0
LINE
  5
F39
330
6B
100
AcDbEntity
  8
0
  6
ByBlock
 62
     0
370
    -2
100
AcDbLine
 10
824.3325739999997
 20
168.6243
 30
0.0
 11
821.8325739999997
 21
167.9544275
 31
0.0
  0
LINE
  5
F3A
330
6B
100
AcDbEntity
  8
0
  6
ByBlock
 62
     0
370
    -2
100
AcDbLine
 10
824.3325739999997
 20
168.6243
 30
0.0
 11
821.8325739999997
 21
168.6243
 31
0.0
  0
LINE
  5
F3B
330
6B
100
AcDbEntity
  8
0
  6
ByBlock
 62
     0
370
    -2
100
AcDbLine
 10
746.832574
 20
167.9544275
 30
0.0
 11
744.332574
 21
168.6243
 31
0.0
  0
LINE
  5
F3C
330
6B
100
AcDbEntity
  8
0
  6
ByBlock
 62
     0
370
    -2
100
AcDbLine
 10
744.332574
 20
168.6243
 30
0.0
 11
746.832574
 21
169.2941725
 31
0.0
  0
LINE
  5
F3D
330
6B
100
AcDbEntity
  8
0
  6
ByBlock
 62
     0
370
    -2
100
AcDbLine
 10
744.332574
 20
168.6243
 30
0.0
 11
746.832574
 21
168.6243
 31
0.0
  0
TEXT
  5
F3E
330
6B
100
AcDbEntity
  8
0
 62
     4
100
AcDbText
 10
897.0868900000001
 20
169.2493
 30
0.0
 40
3.0
  1
220
100
AcDbText
  0
LINE
  5
F3F
330
6B
100
AcDbEntity
  8
0
  6
ByBlock
 62
     0
370
    -2
100
AcDbLine
 10
944.58689
 20
169.2941725
 30
0.0
 11
947.0868900000001
 21
168.6243
 31
0.0
  0
LINE
  5
F40
330
6B
100
AcDbEntity
  8
0
  6
ByBlock
 62
     0
370
    -2
100
AcDbLine
 10
947.0868900000001
 20
168.6243
 30
0.0
 11
944.58689
 21
167.9544275
 31
0.0
  0
LINE
  5
F41
330
6B
100
AcDbEntity
  8
0
  6
ByBlock
 62
     0
370
    -2
100
AcDbLine
 10
947.0868900000001
 20
168.6243
 30
0.0
 11
944.58689
 21
168.6243
 31
0.0
  0
LINE
  5
F42
330
6B
100
AcDbEntity
  8
0
  6
ByBlock
 62
     0
370
    -2
100
AcDbLine
 10
857.08689
 20
167.9544275
 30
0.0
 11
854.58689
 21
168.6243
 31
0.0
  0
LINE
  5
F43
330
6B
100
AcDbEntity
  8
0
  6
ByBlock
 62
     0
370
    -2
100
AcDbLine
 10
854.58689
 20
168.6243
 30
0.0
 11
857.08689
 21
169.2941725
 31
0.0
  0
LINE
  5
F44
330
6B
100
AcDbEntity
  8
0
  6
ByBlock
 62
     0
370
    -2
100
AcDbLine
 10
854.58689
 20
168.6243
 30
0.0
 11
857.08689
 21
168.6243
 31
0.0
  0
ENDSEC
  0
SECTION
  2
OBJECTS
  0
DICTIONARY
  5
C
330
0
100
AcDbDictionary
281
     1
  3
ACAD_2007HEADERVARS_RT
350
F48
  3
ACAD_COLOR
350
62
  3
ACAD_GROUP
350
D
  3
ACAD_LAYOUT
350
61
  3
ACAD_MATERIAL
350
10
  3
ACAD_MLEADERSTYLE
350
65
  3
ACAD_MLINESTYLE
350
5E
  3
ACAD_PLOTSETTINGS
350
60
  3
ACAD_PLOTSTYLENAME
350
E
  3
ACAD_SCALELIST
350
42
  3
ACAD_TABLESTYLE
350
63
  3
ACAD_VISUALSTYLE
350
29
  3
ACDB_RECOMPOSE_DATA
350
F46
  3
AcDbVariableDictionary
350
9FE
  3
AEC_PROPERTY_SET_DEFS
350
AE7
  3
DWGPROPS
350
F47
  0
DICTIONARY
  5
84F
330
2
100
AcDbDictionary
280
     1
281
     1
  3
ACAD_LAYERSTATES
360
850
  0
DICTIONARY
  5
9FC
330
54
100
AcDbDictionary
280
     1
281
     1
  3
ADSK_XREC_LAYER_RECONCILED
360
9FD
  0
DICTIONARY
  5
BBE
330
6B
100
AcDbDictionary
280
     1
281
     1
  3
ACAD_SORTENTS
360
BBF
  0
DICTIONARY
  5
F48
102
{ACAD_REACTORS
330
C
102
}
330
C
100
AcDbDictionary
281
     1
  3
DIMARCSYM
350
F4A
  3
DIMFXL
350
F49
  3
DIMJOGANG
350
F4B
  0
DICTIONARY
  5
62
102
{ACAD_REACTORS
330
C
102
}
330
C
100
AcDbDictionary
281
     1
  0
DICTIONARY
  5
D
102
{ACAD_REACTORS
330
C
102
}
330
C
100
AcDbDictionary
281
     1
  0
DICTIONARY
  5
61
102
{ACAD_REACTORS
330
C
102
}
330
C
100
AcDbDictionary
281
     1
  3
Model
350
6E
  3
レイアウト1
350
6A
  0
DICTIONARY
  5
10
102
{ACAD_REACTORS
330
C
102
}
330
C
100
AcDbDictionary
281
     1
  3
ByBlock
350
19
  3
ByLayer
350
11
  3
Global
350
21
  0
DICTIONARY
  5
65
102
{ACAD_REACTORS
330
C
102
}
330
C
100
AcDbDictionary
281
     1
  3
Standard
350
66
  0
DICTIONARY
  5
5E
102
{ACAD_REACTORS
330
C
102
}
330
C
100
AcDbDictionary
281
     1
  3
Standard
350
5F
  0
DICTIONARY
  5
60
102
{ACAD_REACTORS
330
C
102
}
330
C
100
AcDbDictionary
281
     1
  0
ACDBDICTIONARYWDFLT
  5
E
102
{ACAD_REACTORS
330
C
102
}
330
C
100
AcDbDictionary
281
     1
  3
Normal
350
F
100
AcDbDictionaryWithDefault
340
F
  0
DICTIONARY
  5
42
102
{ACAD_REACTORS
330
C
102
}
330
C
100
AcDbDictionary
281
     1
  3
A0
350
43
  3
A1
350
44
  3
A2
350
45
  3
A3
350
46
  3
A4
350
47
  3
A5
350
48
  3
A6
350
49
  3
A7
350
4A
  3
A8
350
4B
  3
A9
350
4C
  3
B0
350
4D
  3
B1
350
4E
  3
B2
350
4F
  3
B3
350
50
  3
B4
350
51
  3
B5
350
52
  3
B6
350
53
  0
DICTIONARY
  5
63
102
{ACAD_REACTORS
330
C
102
}
330
C
100
AcDbDictionary
281
     1
  3
Standard
350
64
  0
DICTIONARY
  5
29
102
{ACAD_REACTORS
330
C
102
}
330
C
100
AcDbDictionary
281
     1
  3
2dWireframe
350
2F
  3
3dWireframe
350
84C
  3
Basic
350
2E
  3
Brighten
350
35
  3
ColorChange
350
39
  3
Conceptual
350
32
  3
Dim
350
34
  3
EdgeColorOff
350
41
  3
Facepattern
350
38
  3
Flat
350
2A
  3
FlatWithEdges
350
2B
  3
Gouraud
350
2C
  3
GouraudWithEdges
350
2D
  3
Hidden
350
31
  3
JitterOff
350
3F
  3
Linepattern
350
37
  3
OverhangOff
350
40
  3
Realistic
350
33
  3
Shaded
350
3E
  3
Shaded with edges
350
3D
  3
Shades of Gray
350
3A
  3
Sketchy
350
3B
  3
Thicken
350
36
  3
Wireframe
350
30
  3
X-Ray
350
3C
  0
XRECORD
  5
F46
102
{ACAD_REACTORS
330
C
102
}
330
C
100
AcDbXrecord
280
     1
 90
        1
330
64
  0
DICTIONARY
  5
9FE
102
{ACAD_REACTORS
330
C
102
}
330
C
100
AcDbDictionary
281
     1
  3
CANNOSCALE
350
A01
  3
CMLEADERSTYLE
350
A00
  3
CTABLESTYLE
350
9FF
  3
DIMASSOC
350
A04
  3
INDEXCTL
350
A03
  3
SORTENTS
350
A02
  3
XCLIPFRAME
350
B6D
  0
DICTIONARY
  5
AE7
102
{ACAD_REACTORS
330
C
102
}
330
C
100
AcDbDictionary
281
     1
  0
XRECORD
  5
F47
102
{ACAD_REACTORS
330
C
102
}
330
C
100
AcDbXrecord
280
     1
  1
DWGPROPS COOKIE
  2

  3

  4

  6

  7

  8
imamura
  9

300
=
301
=
302
=
303
=
304
=
305
=
306
=
307
=
308
=
309
=
 40
0.0132452199074074
 41
2456352.467710775
 42
2459144.615872361
  1

 90
        0
  0
DICTIONARY
  5
850
102
{ACAD_REACTORS
330
84F
102
}
330
84F
100
AcDbDictionary
281
     1
  0
XRECORD
  5
9FD
102
{ACAD_REACTORS
330
9FC
102
}
330
9FC
100
AcDbXrecord
280
     1
290
     1
  0
SORTENTSTABLE
  5
BBF
102
{ACAD_REACTORS
330
BBE
102
}
330
BBE
100
AcDbSortentsTable
330
6B
331
DF8
  5
C20
331
228
  5
265
331
128
  5
156
331
738
  5
EBE
331
F18
  5
1F1
331
CA0
  5
D94
331
DB0
  5
C6C
331
E09
  5
C1C
331
749
  5
ECF
331
3C9
  5
BF4
331
239
  5
276
331
139
  5
160
331
CB1
  5
D87
331
DC1
  5
C68
331
E1A
  5
C18
331
24A
  5
287
331
14A
  5
17C
331
75A
  5
EE0
331
CC2
  5
D84
331
D2
  5
11E
331
E2B
  5
C09
331
253
  5
290
331
15B
  5
18D
331
76B
  5
EF1
331
CD3
  5
D6B
331
F43
  5
CE
331
E3C
  5
BF0
331
CDB
  5
D53
331
77C
  5
F02
331
264
  5
2BB
331
CEC
  5
D3A
331
E45
  5
BD9
331
78D
  5
F13
331
60D
  5
DC6
331
275
  5
2E6
331
175
  5
1B7
331
BED
  5
E53
331
CFD
  5
D2B
331
164
  5
1A0
331
F32
  5
110
331
7A6
  5
F2C
331
79E
  5
F24
331
456
  5
C66
331
286
  5
485
331
186
  5
1E1
331
D0E
  5
D27
331
E67
  5
BAF
331
88F
  5
F38
331
197
  5
1EF
331
D1F
  5
D23
331
E78
  5
884
331
C20
  5
E1C
331
2B0
  5
71A
331
1A8
  5
1FA
331
E89
  5
798
331
BB9
  5
E95
331
2C1
  5
72B
331
C31
  5
E03
331
BCA
  5
E7A
331
6A2
  5
E3D
331
E9A
  5
794
331
C42
  5
DF4
331
EAB
  5
790
331
BDB
  5
E6B
331
4EB
  5
CDD
331
EC3
  5
75E
331
D5B
  5
CCB
331
D6C
  5
CBC
331
ED4
  5
74F
331
1E4
  5
221
331
C6D
  5
DD5
331
EE5
  5
736
331
1F5
  5
232
331
E5
  5
134
331
D7D
  5
CA3
331
DD6
  5
C48
331
71E
  5
EA4
331
EF6
  5
60D
331
206
  5
243
331
C7E
  5
DBC
331
D8E
  5
C94
331
DE7
  5
C44
331
C8F
  5
DAD
331
F07
  5
5CA
331
217
  5
254
331
117
  5
145
331
D9F
  5
C90
331
106
  5
139
331
C53
  5
DF0
331
D41
  5
CFB
331
D30
  5
CFF
331
C0F
  5
E2B
331
BFE
  5
E44
331
E56
  5
BC0
331
DE8
  5
C30
331
218
  5
255
331
118
  5
146
331
728
  5
EAE
331
578
  5
D4F
331
F08
  5
219
331
C90
  5
DAE
331
DA0
  5
C7C
331
DF9
  5
C21
331
229
  5
266
331
739
  5
EBF
331
F19
  5
1F2
331
CA1
  5
D95
331
DB1
  5
C6D
331
E0A
  5
C1D
331
23A
  5
277
331
13A
  5
161
331
74A
  5
ED0
331
CB2
  5
D88
331
DC2
  5
C69
331
E1B
  5
C19
331
24B
  5
288
331
14B
  5
17D
331
75B
  5
EE1
331
F33
  5
111
331
CC3
  5
D85
331
D3
  5
11F
331
E2C
  5
BF5
331
254
  5
291
331
15C
  5
18E
331
76C
  5
EF2
331
CD4
  5
D6C
331
F44
  5
CF
331
CDC
  5
D54
331
E3D
  5
BF1
331
77D
  5
F03
331
265
  5
2BC
331
CED
  5
D3B
331
E46
  5
BDA
331
78E
  5
F14
331
276
  5
30D
331
176
  5
1B8
331
BEE
  5
E54
331
CFE
  5
D2C
331
165
  5
1A6
331
F2A
  5
C3
331
79F
  5
F25
331
287
  5
48D
331
187
  5
1E2
331
D0F
  5
D28
331
E68
  5
BB0
331
890
  5
F39
331
198
  5
1F0
331
D20
  5
D04
331
E79
  5
885
331
C21
  5
E1D
331
2B1
  5
71B
331
E8A
  5
799
331
BBA
  5
E96
331
2C2
  5
72C
331
C32
  5
E04
331
BCB
  5
E7B
331
E9B
  5
795
331
C43
  5
DF5
331
EAC
  5
771
331
BDC
  5
E6C
331
EC4
  5
75F
331
D5C
  5
CCC
331
D6D
  5
CBD
331
ED5
  5
750
331
1E5
  5
222
331
C6E
  5
DD6
331
EE6
  5
737
331
1F6
  5
233
331
E6
  5
135
331
D7E
  5
CA4
331
DD7
  5
C49
331
71F
  5
EA5
331
EF7
  5
615
331
C7F
  5
DBD
331
D8F
  5
C95
331
207
  5
244
331
C54
  5
DDC
331
D42
  5
CFC
331
D31
  5
D00
331
C10
  5
E2C
331
BFF
  5
E45
331
E57
  5
BC1
331
DD8
  5
C4A
331
720
  5
EA6
331
EF8
  5
63C
331
208
  5
245
331
C80
  5
DBE
331
D90
  5
C96
331
DE9
  5
C31
331
219
  5
256
331
119
  5
147
331
729
  5
EAF
331
F09
  5
21A
331
C91
  5
DAF
331
DA1
  5
C7D
331
DFA
  5
C22
331
22A
  5
267
331
73A
  5
EC0
331
F1A
  5
1EC
331
CA2
  5
D96
331
DB2
  5
C6E
331
E0B
  5
C1E
331
23B
  5
278
331
13B
  5
162
331
74B
  5
ED1
331
CB3
  5
D89
331
C3
  5
113
331
DC3
  5
C6A
331
E1C
  5
BFA
331
24C
  5
289
331
14C
  5
17E
331
75C
  5
EE2
331
F34
  5
10A
331
CC4
  5
D71
331
D4
  5
120
331
E2D
  5
BF6
331
76D
  5
EF3
331
255
  5
2AC
331
15D
  5
18F
331
CD5
  5
D6D
331
CDD
  5
D55
331
77E
  5
F04
331
5E6
  5
DA5
331
266
  5
2BD
331
166
  5
1A7
331
E3E
  5
BF2
331
CEE
  5
D3C
331
F2B
  5
C6
331
78F
  5
F15
331
277
  5
315
331
177
  5
1BE
331
BEF
  5
E55
331
CFF
  5
D2D
331
C00
  5
E46
331
288
  5
4B4
331
188
  5
1E3
331
891
  5
F3A
331
E69
  5
BB1
331
C11
  5
E2D
331
D21
  5
D05
331
C22
  5
E1E
331
2B2
  5
71C
331
D32
  5
D01
331
E8B
  5
79A
331
BBB
  5
E97
331
C33
  5
E05
331
D43
  5
CFD
331
BCC
  5
E7C
331
E9C
  5
781
331
EAD
  5
772
331
BDD
  5
E6D
331
30D
  5
76B
331
EC5
  5
760
331
D5D
  5
CCD
331
D6E
  5
CBE
331
ED6
  5
751
331
1E6
  5
223
331
C6F
  5
DD7
331
EE7
  5
738
331
1F7
  5
234
331
D7F
  5
CA5
331
C55
  5
DDD
331
C44
  5
DF6
331
2C3
  5
72D
331
E7A
  5
886
331
D10
  5
D14
331
E58
  5
BC2
331
E47
  5
BDB
331
DC8
  5
C5A
331
B00
  5
F42
331
EE8
  5
739
331
1F8
  5
235
331
F8
  5
136
331
C70
  5
DD8
331
D80
  5
CA6
331
DD9
  5
C4B
331
721
  5
EA7
331
EF9
  5
644
331
209
  5
246
331
C81
  5
DBF
331
D91
  5
C97
331
DEA
  5
C32
331
21A
  5
257
331
11A
  5
148
331
72A
  5
EB0
331
39A
  5
BCE
331
F0A
  5
214
331
C92
  5
DB0
331
DA2
  5
C7E
331
22B
  5
268
331
73B
  5
EC1
331
F1B
  5
1ED
331
CA3
  5
D97
331
DB3
  5
C6F
331
E0C
  5
C0A
331
23C
  5
279
331
13C
  5
163
331
74C
  5
ED2
331
CB4
  5
D76
331
DC4
  5
C56
331
E1D
  5
BFB
331
24D
  5
28A
331
14D
  5
17F
331
75D
  5
EE3
331
F35
  5
10B
331
CC5
  5
D72
331
D5
  5
121
331
E2E
  5
BF7
331
76E
  5
EF4
331
256
  5
2AD
331
15E
  5
190
331
CD6
  5
D6E
331
CDE
  5
D56
331
77F
  5
F05
331
427
  5
C40
331
267
  5
2BE
331
E3F
  5
BF3
331
E48
  5
BDC
331
790
  5
F16
331
278
  5
33C
331
178
  5
1BF
331
BF0
  5
E56
331
D00
  5
D2E
331
CEF
  5
D3D
331
F2C
  5
C8
331
DFB
  5
C23
331
C01
  5
E47
331
289
  5
4BC
331
189
  5
1E4
331
892
  5
F3B
331
E6A
  5
BB2
331
C12
  5
E2E
331
D22
  5
D06
331
E7B
  5
887
331
C23
  5
E1F
331
66B
  5
E12
331
2B3
  5
71D
331
D33
  5
D02
331
E8C
  5
79B
331
BBC
  5
E98
331
4B4
  5
CB2
331
C34
  5
E06
331
D44
  5
CDE
331
BCD
  5
E7D
331
E9D
  5
782
331
EAE
  5
773
331
BDE
  5
E6E
331
EC6
  5
761
331
C56
  5
DDE
331
D5E
  5
CCE
331
D6F
  5
CBF
331
ED7
  5
752
331
1E7
  5
224
331
C45
  5
DF7
331
2C4
  5
72E
331
D11
  5
D15
331
E59
  5
BC3
331
6F8
  5
E84
331
ED8
  5
753
331
1E8
  5
225
331
C60
  5
DE8
331
D70
  5
CC0
331
DC9
  5
C5B
331
B01
  5
F43
331
541
  5
D24
331
EE9
  5
73A
331
1F9
  5
236
331
C71
  5
DD9
331
D81
  5
CA7
331
DDA
  5
C4C
331
722
  5
EA8
331
EFA
  5
66B
331
20A
  5
247
331
10A
  5
13A
331
C82
  5
DC0
331
D92
  5
C98
331
DEB
  5
C33
331
21B
  5
258
331
11B
  5
149
331
72B
  5
EB1
331
F0B
  5
215
331
C93
  5
DB1
331
DA3
  5
C7F
331
DFC
  5
C24
331
22C
  5
269
331
73C
  5
EC2
331
F1C
  5
1B0
331
CA4
  5
D98
331
E0D
  5
C0B
331
23D
  5
27A
331
13D
  5
164
331
74D
  5
ED3
331
CB5
  5
D77
331
DC5
  5
C57
331
E1E
  5
BFC
331
24E
  5
28B
331
14E
  5
180
331
75E
  5
EE4
331
F36
  5
10C
331
CC6
  5
D73
331
E2F
  5
BF8
331
76F
  5
EF5
331
257
  5
2AE
331
15F
  5
196
331
CD7
  5
D6F
331
CDF
  5
D57
331
780
  5
F06
331
CF0
  5
D3E
331
268
  5
2BF
331
791
  5
F17
331
279
  5
344
331
179
  5
1C0
331
BF1
  5
E57
331
D01
  5
D2F
331
C02
  5
E48
331
28A
  5
4E3
331
18A
  5
1E5
331
D12
  5
D16
331
893
  5
F3C
331
C13
  5
E2F
331
D23
  5
D07
331
E7C
  5
888
331
BAC
  5
E8A
331
2B4
  5
71E
331
C24
  5
E20
331
D34
  5
CEE
331
BBD
  5
E99
331
2C5
  5
72F
331
C35
  5
E07
331
D45
  5
CDF
331
BCE
  5
E7E
331
2E6
  5
74A
331
1CE
  5
211
331
C46
  5
DF8
331
EAF
  5
774
331
BDF
  5
E6F
331
EC7
  5
762
331
C57
  5
DDF
331
D5F
  5
CCF
331
E9E
  5
783
331
E8D
  5
79C
331
E6B
  5
BB3
331
E5A
  5
BC4
331
E49
  5
BDD
331
DB4
  5
C70
331
EB0
  5
775
331
BE0
  5
E70
331
EC8
  5
763
331
1D8
  5
218
331
C58
  5
DE0
331
D60
  5
CD0
331
C61
  5
DE9
331
ED9
  5
754
331
1E9
  5
226
331
D71
  5
CC1
331
DCA
  5
C5C
331
B02
  5
F44
331
EEA
  5
73B
331
1FA
  5
237
331
FA
  5
137
331
C72
  5
DDA
331
D82
  5
CA8
331
DDB
  5
C4D
331
723
  5
EA9
331
373
  5
B00
331
EFB
  5
673
331
20B
  5
248
331
10B
  5
13B
331
C83
  5
DC1
331
D93
  5
C99
331
DEC
  5
C34
331
21C
  5
259
331
11C
  5
14A
331
72C
  5
EB2
331
F0C
  5
20F
331
C94
  5
DB2
331
DA4
  5
C80
331
22D
  5
26A
331
73D
  5
EC3
331
F1D
  5
1B6
331
CA5
  5
D99
331
E0E
  5
C0C
331
74E
  5
ED4
331
23E
  5
27B
331
13E
  5
165
331
CB6
  5
D78
331
DC6
  5
C58
331
E1F
  5
BFD
331
24F
  5
28C
331
14F
  5
181
331
75F
  5
EE5
331
F37
  5
F8
331
CC7
  5
D74
331
E30
  5
BE4
331
770
  5
EF6
331
258
  5
2AF
331
CE0
  5
D58
331
781
  5
F07
331
CF1
  5
D3F
331
269
  5
2C0
331
E4A
  5
BDE
331
792
  5
F18
331
27A
  5
36B
331
17A
  5
1C6
331
C6
  5
114
331
DB5
  5
C71
331
DFD
  5
C25
331
D02
  5
D30
331
E5B
  5
BC5
331
C03
  5
E49
331
28B
  5
4EB
331
D13
  5
D17
331
894
  5
F3D
331
E6C
  5
BB4
331
C14
  5
E30
331
D24
  5
D08
331
E7D
  5
889
331
C25
  5
E21
331
2B5
  5
71F
331
D35
  5
CEF
331
E8E
  5
79D
331
C36
  5
E08
331
2C6
  5
730
331
D46
  5
CE0
331
E9F
  5
784
331
BCF
  5
E7F
331
1CF
  5
212
331
C47
  5
DF9
331
1BE
  5
207
331
18B
  5
1E6
331
BF2
  5
E58
331
EA0
  5
785
331
BD0
  5
E80
331
EB8
  5
77D
331
1D0
  5
213
331
C48
  5
DFA
331
D50
  5
CEA
331
EB1
  5
776
331
BE1
  5
E71
331
6D1
  5
E63
331
EC9
  5
764
331
C59
  5
DE1
331
D61
  5
CD1
331
C62
  5
DEA
331
51A
  5
D03
331
EDA
  5
755
331
1EA
  5
227
331
DA
  5
122
331
D72
  5
CC2
331
DCB
  5
C5D
331
C73
  5
DDB
331
EEB
  5
73C
331
1FB
  5
238
331
D83
  5
CA9
331
DDC
  5
C4E
331
724
  5
EAA
331
EFC
  5
69A
331
20C
  5
249
331
10C
  5
13C
331
C84
  5
DC2
331
D94
  5
C9A
331
DED
  5
C35
331
21D
  5
25A
331
11D
  5
14B
331
72D
  5
EB3
331
F0D
  5
210
331
DA5
  5
C81
331
DFE
  5
C26
331
22E
  5
26B
331
73E
  5
EC4
331
F1E
  5
FA
331
CA6
  5
D9A
331
E0F
  5
C0D
331
74F
  5
ED5
331
5A7
  5
D75
331
23F
  5
27C
331
13F
  5
166
331
CB7
  5
D79
331
E20
  5
BFE
331
150
  5
182
331
760
  5
EE6
331
3F8
  5
C1A
331
F38
  5
E4
331
CC8
  5
D60
331
E31
  5
BE5
331
771
  5
EF7
331
259
  5
2B0
331
782
  5
F08
331
26A
  5
2C1
331
CE1
  5
D59
331
CF2
  5
D40
331
E4B
  5
BDF
331
793
  5
F19
331
27B
  5
373
331
BF3
  5
E59
331
D03
  5
D31
331
E5C
  5
BC6
331
884
  5
F2D
331
63C
  5
DEC
331
28C
  5
512
331
C04
  5
E4A
331
D14
  5
D18
331
895
  5
F3E
331
485
  5
C8C
331
E6D
  5
BB5
331
C15
  5
E31
331
D25
  5
D09
331
E7E
  5
88A
331
C26
  5
E22
331
2B6
  5
720
331
1AE
  5
1FD
331
D36
  5
CF0
331
C37
  5
E09
331
2C7
  5
731
331
1BF
  5
208
331
D47
  5
CE1
331
E8F
  5
79E
331
18C
  5
1E7
331
17B
  5
1C7
331
DC7
  5
C59
331
DB6
  5
C72
331
C95
  5
DB3
331
E90
  5
79F
331
BC0
  5
E85
331
2C8
  5
732
331
1C0
  5
209
331
C38
  5
E0A
331
D48
  5
CE2
331
EA1
  5
786
331
BD1
  5
E81
331
EB9
  5
77E
331
C49
  5
DFB
331
D51
  5
CEB
331
EB2
  5
777
331
BE2
  5
E72
331
ECA
  5
765
331
C5A
  5
DE2
331
D62
  5
CD2
331
C63
  5
DEB
331
EDB
  5
756
331
1EB
  5
228
331
DB
  5
123
331
D73
  5
CC3
331
DCC
  5
C5E
331
714
  5
E9A
331
EEC
  5
73D
331
1FC
  5
239
331
C74
  5
DC7
331
D84
  5
CAA
331
DDD
  5
C4F
331
725
  5
EAB
331
EFD
  5
6A2
331
20D
  5
24A
331
D95
  5
C9B
331
DEE
  5
C36
331
21E
  5
25B
331
11E
  5
14C
331
C85
  5
DC3
331
72E
  5
EB4
331
C96
  5
DB4
331
DA6
  5
C82
331
DFF
  5
C27
331
22F
  5
26C
331
73F
  5
EC5
331
F1F
  5
100
331
CA7
  5
D9B
331
DB7
  5
C73
331
E10
  5
C0E
331
750
  5
ED6
331
240
  5
27D
331
140
  5
16D
331
CB8
  5
D7A
331
C8
  5
115
331
151
  5
183
331
761
  5
EE7
331
F39
  5
E5
331
CC9
  5
D61
331
E32
  5
BE6
331
772
  5
EF8
331
CE2
  5
D5A
331
783
  5
F09
331
26B
  5
2C2
331
25A
  5
2B1
331
CF3
  5
D41
331
E4C
  5
BE0
331
794
  5
F1A
331
27C
  5
39A
331
17C
  5
1C8
331
BF4
  5
E5A
331
E21
  5
BFF
331
F0E
  5
20A
331
E5D
  5
BC7
331
885
  5
F2E
331
28D
  5
51A
331
C05
  5
E4B
331
D15
  5
D19
331
E6E
  5
BB6
331
896
  5
F3F
331
19E
  5
1F3
331
C16
  5
E32
331
D26
  5
D0A
331
E7F
  5
88B
331
BAF
  5
E8B
331
2B7
  5
721
331
1AF
  5
1FE
331
D37
  5
CF1
331
C27
  5
E23
331
18D
  5
1E8
331
D04
  5
D32
331
E80
  5
88C
331
BB0
  5
E8C
331
2B8
  5
722
331
1B0
  5
1FF
331
C28
  5
E24
331
D38
  5
CF2
331
E91
  5
7A0
331
BC1
  5
E86
331
2C9
  5
733
331
C39
  5
E0B
331
D49
  5
CE3
331
EA2
  5
787
331
BD2
  5
E82
331
EBA
  5
77F
331
C4A
  5
DFC
331
EB3
  5
778
331
BE3
  5
E73
331
ECB
  5
766
331
C5B
  5
DE3
331
D63
  5
CD3
331
C64
  5
DCC
331
33C
  5
791
331
EDC
  5
757
331
1EC
  5
229
331
DC
  5
124
331
D74
  5
CC4
331
DCD
  5
C5F
331
715
  5
E9B
331
EED
  5
73E
331
1FD
  5
23A
331
C75
  5
DC8
331
D85
  5
CAB
331
DDE
  5
C50
331
726
  5
EAC
331
EFE
  5
6C9
331
20E
  5
24B
331
D96
  5
C9C
331
DEF
  5
C37
331
21F
  5
25C
331
11F
  5
14D
331
C86
  5
DC4
331
72F
  5
EB5
331
C97
  5
DB5
331
DA7
  5
C83
331
E00
  5
C28
331
230
  5
26D
331
130
  5
157
331
740
  5
EC6
331
F20
  5
106
331
CA8
  5
D9C
331
DB8
  5
C74
331
E11
  5
C0F
331
751
  5
ED7
331
3D1
  5
BF9
331
241
  5
27E
331
141
  5
16E
331
CB9
  5
D7B
331
152
  5
184
331
762
  5
EE8
331
5C2
  5
D8A
331
F3A
  5
E6
331
CCA
  5
D62
331
E33
  5
BE7
331
773
  5
EF9
331
CE3
  5
D5B
331
784
  5
F0A
331
26C
  5
2C3
331
CF4
  5
D42
331
E4D
  5
BE1
331
795
  5
F1B
331
615
  5
DCB
331
27D
  5
3A2
331
17D
  5
1CE
331
D05
  5
D33
331
E5E
  5
BC8
331
886
  5
F2F
331
45E
  5
C6B
331
28E
  5
541
331
C06
  5
E4C
331
D16
  5
D1A
331
E6F
  5
BB7
331
897
  5
F40
331
19F
  5
1F4
331
C17
  5
E33
331
D27
  5
D0B
331
18E
  5
1E9
331
BF5
  5
E5B
331
25B
  5
2B2
331
E22
  5
C00
331
F0F
  5
20B
331
D52
  5
CEC
331
E70
  5
BB8
331
898
  5
F41
331
1A0
  5
1F5
331
C18
  5
E34
331
D28
  5
D0C
331
E81
  5
88D
331
BB1
  5
E8D
331
2B9
  5
723
331
C29
  5
E25
331
D39
  5
CF3
331
E92
  5
7A1
331
BC2
  5
E87
331
69A
  5
E38
331
2CA
  5
734
331
C3A
  5
E0C
331
D4A
  5
CE4
331
EA3
  5
788
331
BD3
  5
E83
331
4E3
  5
CD8
331
EBB
  5
780
331
C4B
  5
DFD
331
D53
  5
CED
331
BE4
  5
E5F
331
ECC
  5
767
331
C5C
  5
DE4
331
D64
  5
CD4
331
C65
  5
DCD
331
EDD
  5
758
331
1ED
  5
22A
331
DD
  5
125
331
D75
  5
CC5
331
DCE
  5
C60
331
716
  5
E9C
331
EEE
  5
73F
331
1FE
  5
23B
331
C76
  5
DC9
331
D86
  5
CAC
331
DDF
  5
C51
331
727
  5
EAD
331
EFF
  5
6D1
331
20F
  5
24C
331
10F
  5
13D
331
C87
  5
DC5
331
D97
  5
C9D
331
DF0
  5
C38
331
220
  5
25D
331
120
  5
14E
331
730
  5
EB6
331
C98
  5
DA1
331
DA8
  5
C84
331
E01
  5
C29
331
741
  5
EC7
331
231
  5
26E
331
131
  5
158
331
CA9
  5
D9D
331
DB9
  5
C75
331
752
  5
ED8
331
242
  5
27F
331
142
  5
16F
331
CBA
  5
D7C
331
CA
  5
116
331
153
  5
185
331
763
  5
EE9
331
F3B
  5
E1
331
CCB
  5
D63
331
E34
  5
BE8
331
774
  5
EFA
331
CE4
  5
D5C
331
785
  5
F0B
331
26D
  5
2C4
331
16D
  5
1A8
331
CF5
  5
D43
331
E4E
  5
BE2
331
796
  5
F1C
331
27E
  5
3C9
331
17E
  5
1CF
331
BF6
  5
E5C
331
25C
  5
2B3
331
E23
  5
C01
331
E12
  5
C10
331
F10
  5
205
331
E5F
  5
BC9
331
887
  5
F30
331
28F
  5
549
331
C07
  5
E4D
331
D17
  5
D1B
331
18F
  5
1EA
331
D06
  5
D34
331
EB4
  5
779
331
E60
  5
BCA
331
888
  5
F31
331
290
  5
570
331
190
  5
1EB
331
C08
  5
E39
331
D18
  5
D1C
331
C19
  5
E35
331
E71
  5
BB9
331
D29
  5
D0D
331
E82
  5
88E
331
BB2
  5
E8E
331
2BA
  5
724
331
C2A
  5
E26
331
D3A
  5
CF4
331
BC3
  5
E88
331
E93
  5
7A2
331
C3B
  5
E0D
331
D4B
  5
CE5
331
EA4
  5
789
331
BD4
  5
E64
331
C4C
  5
DFE
331
D54
  5
CD9
331
EB5
  5
77A
331
BE5
  5
E60
331
315
  5
770
331
ECD
  5
768
331
EBC
  5
76C
331
D65
  5
CD5
331
C66
  5
DCE
331
EDE
  5
759
331
1EE
  5
22B
331
DE
  5
126
331
D76
  5
CC6
331
DCF
  5
C61
331
717
  5
E9D
331
EEF
  5
740
331
1FF
  5
23C
331
C77
  5
DCA
331
D87
  5
CAD
331
DE0
  5
C52
331
C88
  5
DA6
331
570
  5
D4A
331
F00
  5
6F8
331
210
  5
24D
331
110
  5
13E
331
D98
  5
C9E
331
DF1
  5
C39
331
221
  5
25E
331
121
  5
14F
331
731
  5
EB7
331
F11
  5
206
331
DA9
  5
C85
331
E02
  5
C2A
331
742
  5
EC8
331
232
  5
26F
331
132
  5
159
331
CAA
  5
D9E
331
DBA
  5
C76
331
E13
  5
C11
331
753
  5
ED9
331
243
  5
280
331
CBB
  5
D7D
331
CB
  5
117
331
E24
  5
C02
331
764
  5
EEA
331
F3C
  5
E2
331
CCC
  5
D64
331
E35
  5
BE9
331
775
  5
EFB
331
CE5
  5
D5D
331
786
  5
F0C
331
26E
  5
2C5
331
16E
  5
1AE
331
CF6
  5
D44
331
E4F
  5
BE3
331
797
  5
F1D
331
27F
  5
3D1
331
17F
  5
1D0
331
BF7
  5
E5D
331
25D
  5
2B4
331
154
  5
186
331
143
  5
175
331
C99
  5
DA2
331
D07
  5
D35
331
C5D
  5
DE5
331
E50
  5
BCF
331
7A0
  5
F26
331
798
  5
F1E
331
280
  5
3F8
331
180
  5
1D6
331
BF8
  5
E3E
331
D08
  5
D36
331
E61
  5
BCB
331
889
  5
F32
331
291
  5
578
331
C09
  5
E3A
331
D19
  5
D1D
331
C1A
  5
E36
331
E72
  5
BBA
331
D2A
  5
D0E
331
E83
  5
88F
331
BB3
  5
E8F
331
673
  5
E17
331
2BB
  5
725
331
C2B
  5
E27
331
D3B
  5
CF5
331
BC4
  5
E74
331
4BC
  5
CB7
331
C3C
  5
E0E
331
D4C
  5
CE6
331
EA5
  5
78A
331
BD5
  5
E65
331
C4D
  5
DFF
331
D55
  5
CDA
331
EB6
  5
77B
331
BE6
  5
E61
331
ECE
  5
769
331
1DE
  5
21B
331
C5E
  5
DE6
331
D66
  5
CD6
331
C67
  5
DCF
331
EDF
  5
75A
331
1EF
  5
22C
331
DF
  5
127
331
D77
  5
CC7
331
DD0
  5
C62
331
718
  5
E9E
331
EF0
  5
741
331
200
  5
23D
331
100
  5
138
331
C78
  5
DB6
331
D88
  5
CAE
331
DE1
  5
C53
331
C89
  5
DA7
331
F01
  5
700
331
211
  5
24E
331
111
  5
13F
331
D99
  5
C9F
331
DF2
  5
C3A
331
222
  5
25F
331
122
  5
150
331
732
  5
EB8
331
3A2
  5
BD3
331
F12
  5
200
331
EBD
  5
76D
331
E94
  5
7A3
331
DAA
  5
C86
331
E03
  5
C2B
331
743
  5
EC9
331
233
  5
270
331
CAB
  5
D9F
331
DBB
  5
C77
331
E14
  5
C12
331
754
  5
EDA
331
244
  5
281
331
CBC
  5
D7E
331
CC
  5
118
331
E25
  5
C03
331
765
  5
EEB
331
F3D
  5
E3
331
CCD
  5
D65
331
E36
  5
BEA
331
776
  5
EFC
331
5DE
  5
DA0
331
CE6
  5
D5E
331
787
  5
F0D
331
42F
  5
C45
331
26F
  5
2C6
331
16F
  5
1AF
331
CF7
  5
D45
331
25E
  5
2B5
331
155
  5
187
331
144
  5
176
331
133
  5
15A
331
C9A
  5
DA3
331
E40
  5
BD4
331
788
  5
F0E
331
270
  5
2C7
331
BE8
  5
E4E
331
CF8
  5
D46
331
E51
  5
BD0
331
7A1
  5
F27
331
799
  5
F1F
331
281
  5
400
331
181
  5
1D7
331
BF9
  5
E3F
331
D09
  5
D37
331
88A
  5
F33
331
E62
  5
BCC
331
C0A
  5
E3B
331
D1A
  5
D1E
331
C1B
  5
E37
331
E73
  5
BBB
331
D2B
  5
D0F
331
BB4
  5
E90
331
2BC
  5
726
331
C2C
  5
E13
331
D3C
  5
CF6
331
BC5
  5
E75
331
E95
  5
7A4
331
D4D
  5
CE7
331
EA6
  5
78B
331
BD6
  5
E66
331
EBE
  5
76E
331
1D6
  5
216
331
C4E
  5
E00
331
D56
  5
CDB
331
EB7
  5
77C
331
BE7
  5
E62
331
ECF
  5
76A
331
1DF
  5
21C
331
C5F
  5
DE7
331
D67
  5
CD7
331
700
  5
E89
331
EE0
  5
746
331
1F0
  5
22D
331
E0
  5
128
331
C68
  5
DD0
331
D78
  5
CB3
331
719
  5
E9F
331
549
  5
D29
331
EF1
  5
742
331
201
  5
23E
331
C79
  5
DB7
331
D89
  5
CAF
331
DE2
  5
C54
331
C8A
  5
DA8
331
F02
  5
714
331
212
  5
24F
331
112
  5
140
331
D9A
  5
CA0
331
DF3
  5
C3B
331
223
  5
260
331
123
  5
151
331
DD1
  5
C63
331
C3D
  5
E0F
331
E84
  5
890
331
733
  5
EB9
331
C9B
  5
DA4
331
DAB
  5
C87
331
E04
  5
C2C
331
234
  5
271
331
134
  5
15B
331
744
  5
ECA
331
F24
  5
DE
331
CAC
  5
D8B
331
DBC
  5
C78
331
755
  5
EDB
331
245
  5
282
331
145
  5
177
331
CBD
  5
D7F
331
CD
  5
119
331
E26
  5
C04
331
156
  5
188
331
766
  5
EEC
331
F3E
  5
DD
331
CCE
  5
D66
331
777
  5
EFD
331
25F
  5
2B6
331
CE7
  5
D5F
331
E37
  5
BEB
331
E15
  5
C13
331
F13
  5
201
331
E38
  5
BEC
331
778
  5
EFE
331
260
  5
2B7
331
160
  5
197
331
CE8
  5
D4B
331
E41
  5
BD5
331
789
  5
F0F
331
271
  5
2C8
331
BE9
  5
E4F
331
CF9
  5
D47
331
E52
  5
BD1
331
7A2
  5
F28
331
79A
  5
F20
331
282
  5
427
331
182
  5
1D8
331
BFA
  5
E40
331
D0A
  5
D38
331
88B
  5
F34
331
E63
  5
BCD
331
C0B
  5
E3C
331
E74
  5
895
331
C1C
  5
E18
331
2AC
  5
716
331
D2C
  5
D10
331
E85
  5
891
331
BB5
  5
E91
331
2BD
  5
727
331
C2D
  5
E14
331
D3D
  5
CF7
331
BC6
  5
E76
331
2DE
  5
745
331
1C6
  5
20C
331
C3E
  5
E10
331
D4E
  5
CE8
331
EA7
  5
78C
331
BD7
  5
E67
331
EBF
  5
76F
331
1D7
  5
217
331
C4F
  5
E01
331
D57
  5
CDC
331
D68
  5
CB8
331
ED0
  5
74B
331
1E0
  5
21D
331
C69
  5
DD1
331
EE1
  5
747
331
1F1
  5
22E
331
E1
  5
130
331
D79
  5
CB4
331
DD2
  5
C64
331
71A
  5
EA0
331
EF2
  5
743
331
202
  5
23F
331
C7A
  5
DB8
331
D8A
  5
CB0
331
DE3
  5
C55
331
C8B
  5
DA9
331
F03
  5
715
331
213
  5
250
331
113
  5
141
331
D9B
  5
CA1
331
DF4
  5
C3C
331
224
  5
261
331
734
  5
EBA
331
F14
  5
1FB
331
124
  5
152
331
E96
  5
7A5
331
D1B
  5
D1F
331
DAC
  5
C88
331
E05
  5
C2D
331
235
  5
272
331
135
  5
15C
331
745
  5
ECB
331
F25
  5
DF
331
CAD
  5
D8C
331
DBD
  5
C79
331
756
  5
EDC
331
246
  5
283
331
146
  5
178
331
CBE
  5
D80
331
CE
  5
11A
331
E27
  5
C05
331
157
  5
189
331
767
  5
EED
331
F3F
  5
D3
331
CCF
  5
D67
331
E16
  5
C14
331
C9C
  5
D90
331
E28
  5
C06
331
250
  5
28D
331
158
  5
18A
331
768
  5
EEE
331
400
  5
C1F
331
F40
  5
D4
331
CD8
  5
D50
331
CD0
  5
D68
331
E39
  5
BED
331
779
  5
EFF
331
261
  5
2B8
331
161
  5
198
331
CE9
  5
D4C
331
E42
  5
BD6
331
78A
  5
F10
331
272
  5
2C9
331
BEA
  5
E50
331
CFA
  5
D48
331
E53
  5
BD2
331
7A3
  5
F29
331
79B
  5
F21
331
283
  5
42F
331
183
  5
1DE
331
D0B
  5
D39
331
88C
  5
F35
331
644
  5
DF1
331
E64
  5
B01
331
C0C
  5
E28
331
E75
  5
896
331
C1D
  5
E19
331
48D
  5
C91
331
2AD
  5
717
331
D2D
  5
D11
331
E86
  5
892
331
BB6
  5
E92
331
2BE
  5
728
331
1B6
  5
202
331
C2E
  5
E15
331
D3E
  5
CF8
331
BC7
  5
E77
331
1C7
  5
20D
331
C3F
  5
E11
331
D4F
  5
CE9
331
EA8
  5
78D
331
BD8
  5
E68
331
EC0
  5
75B
331
C50
  5
DED
331
D58
  5
CC8
331
D69
  5
CB9
331
ED1
  5
74C
331
1E1
  5
21E
331
C6A
  5
DD2
331
EE2
  5
748
331
1F2
  5
22F
331
E2
  5
131
331
D7A
  5
CB5
331
DD3
  5
C65
331
71B
  5
EA1
331
36B
  5
894
331
EF3
  5
744
331
203
  5
240
331
C7B
  5
DB9
331
D8B
  5
CB1
331
C8C
  5
DAA
331
F04
  5
59F
331
214
  5
251
331
114
  5
142
331
D9C
  5
C8D
331
DF5
  5
C3D
331
225
  5
262
331
125
  5
153
331
735
  5
EBB
331
F15
  5
1FC
331
DE4
  5
C41
331
E97
  5
7A6
331
D1C
  5
D20
331
BFB
  5
E41
331
DAD
  5
C89
331
E06
  5
C2E
331
236
  5
273
331
136
  5
15D
331
746
  5
ECC
331
F26
  5
E0
331
CAE
  5
D8D
331
DBE
  5
C7A
331
757
  5
EDD
331
247
  5
284
331
147
  5
179
331
CBF
  5
D81
331
CF
  5
11B
331
E17
  5
C15
331
C9D
  5
D91
331
E18
  5
C16
331
248
  5
285
331
148
  5
17A
331
758
  5
EDE
331
F30
  5
112
331
CC0
  5
D82
331
D0
  5
11C
331
E29
  5
C07
331
251
  5
28E
331
159
  5
18B
331
769
  5
EEF
331
F41
  5
D5
331
CD9
  5
D51
331
CD1
  5
D69
331
E3A
  5
BEE
331
77A
  5
F00
331
262
  5
2B9
331
162
  5
19E
331
E43
  5
BD7
331
CEA
  5
D4D
331
78B
  5
F11
331
273
  5
2CA
331
BEB
  5
E51
331
CFB
  5
D49
331
7A4
  5
F2A
331
79C
  5
F22
331
284
  5
456
331
184
  5
1DF
331
D0C
  5
D25
331
88D
  5
F36
331
E65
  5
B02
331
C0D
  5
E29
331
E76
  5
897
331
C1E
  5
E1A
331
2AE
  5
718
331
1A6
  5
1F8
331
D2E
  5
D12
331
E87
  5
893
331
BB7
  5
E93
331
2BF
  5
729
331
1B7
  5
203
331
C2F
  5
E16
331
D3F
  5
CF9
331
BC8
  5
E78
331
1C8
  5
20E
331
C40
  5
DF2
331
EA9
  5
78E
331
BD9
  5
E69
331
6C9
  5
E5E
331
EC1
  5
75C
331
C51
  5
DEE
331
D59
  5
CC9
331
512
  5
CFE
331
ED2
  5
74D
331
1E2
  5
21F
331
D6A
  5
CBA
331
C6B
  5
DD3
331
EE3
  5
749
331
1F3
  5
230
331
E3
  5
132
331
DD4
  5
C46
331
71C
  5
EA2
331
EF4
  5
5DE
331
204
  5
241
331
C7C
  5
DBA
331
D8C
  5
C92
331
C8D
  5
DAB
331
F05
  5
5A7
331
215
  5
252
331
115
  5
143
331
D9D
  5
C8E
331
DF6
  5
C3E
331
226
  5
263
331
126
  5
154
331
736
  5
EBC
331
F16
  5
1F6
331
DE5
  5
C42
331
D7B
  5
CB6
331
E98
  5
792
331
D1D
  5
D21
331
BFC
  5
E42
331
DAE
  5
C8A
331
E07
  5
C2F
331
747
  5
ECD
331
59F
  5
D70
331
237
  5
274
331
137
  5
15E
331
CAF
  5
D8E
331
DBF
  5
C7B
331
C9E
  5
D92
331
E54
  5
BBC
331
E08
  5
C1B
331
748
  5
ECE
331
238
  5
275
331
138
  5
15F
331
CB0
  5
D86
331
DC0
  5
C67
331
E19
  5
C17
331
249
  5
286
331
759
  5
EDF
331
F31
  5
10F
331
CC1
  5
D83
331
D1
  5
11D
331
E2A
  5
C08
331
252
  5
28F
331
15A
  5
18C
331
76A
  5
EF0
331
5CA
  5
D8F
331
CD2
  5
D6A
331
F42
  5
CD
331
149
  5
17B
331
E3B
  5
BEF
331
CDA
  5
D52
331
77B
  5
F01
331
263
  5
2BA
331
CEB
  5
D4E
331
E44
  5
BD8
331
78C
  5
F12
331
274
  5
2DE
331
BEC
  5
E52
331
CFC
  5
D2A
331
163
  5
19F
331
7A5
  5
F2B
331
79D
  5
F23
331
285
  5
45E
331
185
  5
1E0
331
D0D
  5
D26
331
E66
  5
BAC
331
88E
  5
F37
331
196
  5
1EE
331
D1E
  5
D22
331
E77
  5
898
331
C1F
  5
E1B
331
2AF
  5
719
331
1A7
  5
1F9
331
D2F
  5
D13
331
E88
  5
797
331
BB8
  5
E94
331
2C0
  5
72A
331
1B8
  5
204
331
C30
  5
E02
331
BC9
  5
E79
331
E99
  5
793
331
C41
  5
DF3
331
EAA
  5
78F
331
BDA
  5
E6A
331
EC2
  5
75D
331
D5A
  5
CCA
331
D6B
  5
CBB
331
ED3
  5
74E
331
1E3
  5
220
331
C6C
  5
DD4
331
344
  5
796
331
EE4
  5
735
331
1F4
  5
231
331
E4
  5
133
331
D7C
  5
CA2
331
DD5
  5
C47
331
71D
  5
EA3
331
EF5
  5
5E6
331
C7D
  5
DBB
331
D8D
  5
C93
331
DE6
  5
C43
331
C8E
  5
DAC
331
F06
  5
5C2
331
216
  5
253
331
116
  5
144
331
DF7
  5
C3F
331
227
  5
264
331
127
  5
155
331
737
  5
EBD
331
F17
  5
1F7
331
D9E
  5
C8F
331
205
  5
242
331
C52
  5
DEF
331
D40
  5
CFA
331
C0E
  5
E2A
331
BFD
  5
E43
331
DAF
  5
C8B
331
C9F
  5
D93
331
E55
  5
BBD
  0
XRECORD
  5
F4A
102
{ACAD_REACTORS
330
F48
102
}
330
F48
100
AcDbXrecord
280
     1
 70
     2
  0
XRECORD
  5
F49
102
{ACAD_REACTORS
330
F48
102
}
330
F48
100
AcDbXrecord
280
     1
 40
1.25
  0
XRECORD
  5
F4B
102
{ACAD_REACTORS
330
F48
102
}
330
F48
100
AcDbXrecord
280
     1
 40
1.570796326794896
  0
LAYOUT
  5
6E
102
{ACAD_XDICTIONARY
360
F7F
102
}
102
{ACAD_REACTORS
330
61
102
}
330
61
100
AcDbPlotSettings
  1

  2
FX DP 205
  4

  6

 40
0.0
 41
0.0
 42
0.0
 43
0.0
 44
0.0
 45
0.0
 46
0.0
 47
0.0
 48
0.0
 49
0.0
140
0.0
141
0.0
142
1.0
143
1.0
 70
  1712
 72
     0
 73
     0
 74
     0
  7

 75
     0
147
1.0
148
0.0
149
0.0
100
AcDbLayout
  1
Model
 70
     1
 71
     0
 10
0.0
 20
0.0
 11
12.0
 21
9.0
 12
0.0
 22
0.0
 32
0.0
 14
0.0
 24
0.0
 34
0.0
 15
0.0
 25
0.0
 35
0.0
146
0.0
 13
0.0
 23
0.0
 33
0.0
 16
1.0
 26
0.0
 36
0.0
 17
0.0
 27
1.0
 37
0.0
 76
     0
330
6B
331
8B
  0
LAYOUT
  5
6A
102
{ACAD_XDICTIONARY
360
F7D
102
}
102
{ACAD_REACTORS
330
61
102
}
330
61
100
AcDbPlotSettings
  1

  2
FX DP 205
  4

  6

 40
0.0
 41
0.0
 42
0.0
 43
0.0
 44
0.0
 45
0.0
 46
0.0
 47
0.0
 48
0.0
 49
0.0
140
0.0
141
0.0
142
1.0
143
1.0
 70
   688
 72
     0
 73
     0
 74
     5
  7

 75
    16
147
1.0
148
0.0
149
0.0
100
AcDbLayout
  1
レイアウト1
 70
     1
 71
     1
 10
0.0
 20
0.0
 11
12.0
 21
9.0
 12
0.0
 22
0.0
 32
0.0
 14
1.000000000000000E+20
 24
1.000000000000000E+20
 34
1.000000000000000E+20
 15
-1.000000000000000E+20
 25
-1.000000000000000E+20
 35
-1.000000000000000E+20
146
0.0
 13
0.0
 23
0.0
 33
0.0
 16
1.0
 26
0.0
 36
0.0
 17
0.0
 27
1.0
 37
0.0
 76
     0
330
67
  0
MATERIAL
  5
19
102
{ACAD_XDICTIONARY
360
1A
102
}
102
{ACAD_REACTORS
330
10
102
}
330
10
100
AcDbMaterial
  1
ByBlock
 72
     0
 43
0.0208333333333333
 43
0.0
 43
0.0
 43
0.0
 43
0.0
 43
0.0208333333333333
 43
0.0
 43
0.0
 43
0.0
 43
0.0
 43
1.0
 43
0.0
 43
0.0
 43
0.0
 43
0.0
 43
1.0
 77
     0
 47
0.0208333333333333
 47
0.0
 47
0.0
 47
0.0
 47
0.0
 47
0.0208333333333333
 47
0.0
 47
0.0
 47
0.0
 47
0.0
 47
1.0
 47
0.0
 47
0.0
 47
0.0
 47
0.0
 47
1.0
171
     0
 49
0.0208333333333333
 49
0.0
 49
0.0
 49
0.0
 49
0.0
 49
0.0208333333333333
 49
0.0
 49
0.0
 49
0.0
 49
0.0
 49
1.0
 49
0.0
 49
0.0
 49
0.0
 49
0.0
 49
1.0
175
     0
142
0.0208333333333333
142
0.0
142
0.0
142
0.0
142
0.0
142
0.0208333333333333
142
0.0
142
0.0
142
0.0
142
0.0
142
1.0
142
0.0
142
0.0
142
0.0
142
0.0
142
1.0
179
     0
144
0.0208333333333333
144
0.0
144
0.0
144
0.0
144
0.0
144
0.0208333333333333
144
0.0
144
0.0
144
0.0
144
0.0
144
1.0
144
0.0
144
0.0
144
0.0
144
0.0
144
1.0
147
0.0208333333333333
147
0.0
147
0.0
147
0.0
147
0.0
147
0.0208333333333333
147
0.0
147
0.0
147
0.0
147
0.0
147
1.0
147
0.0
147
0.0
147
0.0
147
0.0
147
1.0
  0
MATERIAL
  5
11
102
{ACAD_XDICTIONARY
360
12
102
}
102
{ACAD_REACTORS
330
10
102
}
330
10
100
AcDbMaterial
  1
ByLayer
 72
     0
 43
0.0208333333333333
 43
0.0
 43
0.0
 43
0.0
 43
0.0
 43
0.0208333333333333
 43
0.0
 43
0.0
 43
0.0
 43
0.0
 43
1.0
 43
0.0
 43
0.0
 43
0.0
 43
0.0
 43
1.0
 77
     0
 47
0.0208333333333333
 47
0.0
 47
0.0
 47
0.0
 47
0.0
 47
0.0208333333333333
 47
0.0
 47
0.0
 47
0.0
 47
0.0
 47
1.0
 47
0.0
 47
0.0
 47
0.0
 47
0.0
 47
1.0
171
     0
 49
0.0208333333333333
 49
0.0
 49
0.0
 49
0.0
 49
0.0
 49
0.0208333333333333
 49
0.0
 49
0.0
 49
0.0
 49
0.0
 49
1.0
 49
0.0
 49
0.0
 49
0.0
 49
0.0
 49
1.0
175
     0
142
0.0208333333333333
142
0.0
142
0.0
142
0.0
142
0.0
142
0.0208333333333333
142
0.0
142
0.0
142
0.0
142
0.0
142
1.0
142
0.0
142
0.0
142
0.0
142
0.0
142
1.0
179
     0
144
0.0208333333333333
144
0.0
144
0.0
144
0.0
144
0.0
144
0.0208333333333333
144
0.0
144
0.0
144
0.0
144
0.0
144
1.0
144
0.0
144
0.0
144
0.0
144
0.0
144
1.0
147
0.0208333333333333
147
0.0
147
0.0
147
0.0
147
0.0
147
0.0208333333333333
147
0.0
147
0.0
147
0.0
147
0.0
147
1.0
147
0.0
147
0.0
147
0.0
147
0.0
147
1.0
  0
MATERIAL
  5
21
102
{ACAD_XDICTIONARY
360
22
102
}
102
{ACAD_REACTORS
330
10
102
}
330
10
100
AcDbMaterial
  1
Global
 72
     0
 43
0.0208333333333333
 43
0.0
 43
0.0
 43
0.0
 43
0.0
 43
0.0208333333333333
 43
0.0
 43
0.0
 43
0.0
 43
0.0
 43
1.0
 43
0.0
 43
0.0
 43
0.0
 43
0.0
 43
1.0
 77
     0
 47
0.0208333333333333
 47
0.0
 47
0.0
 47
0.0
 47
0.0
 47
0.0208333333333333
 47
0.0
 47
0.0
 47
0.0
 47
0.0
 47
1.0
 47
0.0
 47
0.0
 47
0.0
 47
0.0
 47
1.0
171
     0
 49
0.0208333333333333
 49
0.0
 49
0.0
 49
0.0
 49
0.0
 49
0.0208333333333333
 49
0.0
 49
0.0
 49
0.0
 49
0.0
 49
1.0
 49
0.0
 49
0.0
 49
0.0
 49
0.0
 49
1.0
175
     0
142
0.0208333333333333
142
0.0
142
0.0
142
0.0
142
0.0
142
0.0208333333333333
142
0.0
142
0.0
142
0.0
142
0.0
142
1.0
142
0.0
142
0.0
142
0.0
142
0.0
142
1.0
179
     0
144
0.0208333333333333
144
0.0
144
0.0
144
0.0
144
0.0
144
0.0208333333333333
144
0.0
144
0.0
144
0.0
144
0.0
144
1.0
144
0.0
144
0.0
144
0.0
144
0.0
144
1.0
147
0.0208333333333333
147
0.0
147
0.0
147
0.0
147
0.0
147
0.0208333333333333
147
0.0
147
0.0
147
0.0
147
0.0
147
1.0
147
0.0
147
0.0
147
0.0
147
0.0
147
1.0
  0
MLEADERSTYLE
  5
66
102
{ACAD_REACTORS
330
65
102
}
330
65
100
AcDbMLeaderStyle
170
     2
171
     1
172
     0
 90
        2
 40
0.0
 41
0.0
173
     1
 91
-1056964608
340
5A
 92
       -2
290
     1
 42
0.09
291
     1
 43
0.36
  3
Standard
 44
0.18
300

342
55
174
     1
178
     6
175
     1
176
     0
 93
-1056964608
 45
0.18
292
     0
297
     0
 46
0.18
 94
-1056964608
 47
1.0
 49
1.0
140
1.0
293
     1
141
0.0
294
     1
177
     0
142
1.0
295
     0
296
     0
143
0.125
1001
ACAD_MLEADERVER
1070
     2
  0
MLINESTYLE
  5
5F
102
{ACAD_REACTORS
330
5E
102
}
330
5E
100
AcDbMlineStyle
  2
STANDARD
 70
     0
  3

 62
   256
 51
90.0
 52
90.0
 71
     2
 49
0.5
 62
   256
  6
BYLAYER
 49
-0.5
 62
   256
  6
BYLAYER
  0
ACDBPLACEHOLDER
  5
F
102
{ACAD_REACTORS
330
E
102
}
330
E
  0
SCALE
  5
43
102
{ACAD_REACTORS
330
42
102
}
330
42
100
AcDbScale
 70
     0
300
1:1
140
1.0
141
1.0
290
     1
  0
SCALE
  5
44
102
{ACAD_REACTORS
330
42
102
}
330
42
100
AcDbScale
 70
     0
300
1/128" = 1'-0"
140
0.0078125
141
12.0
290
     0
  0
SCALE
  5
45
102
{ACAD_REACTORS
330
42
102
}
330
42
100
AcDbScale
 70
     0
300
1/64" = 1'-0"
140
0.015625
141
12.0
290
     0
  0
SCALE
  5
46
102
{ACAD_REACTORS
330
42
102
}
330
42
100
AcDbScale
 70
     0
300
1/32" = 1'-0"
140
0.03125
141
12.0
290
     0
  0
SCALE
  5
47
102
{ACAD_REACTORS
330
42
102
}
330
42
100
AcDbScale
 70
     0
300
1/16" = 1'-0"
140
0.0625
141
12.0
290
     0
  0
SCALE
  5
48
102
{ACAD_REACTORS
330
42
102
}
330
42
100
AcDbScale
 70
     0
300
3/32" = 1'-0"
140
0.09375
141
12.0
290
     0
  0
SCALE
  5
49
102
{ACAD_REACTORS
330
42
102
}
330
42
100
AcDbScale
 70
     0
300
1/8" = 1'-0"
140
0.125
141
12.0
290
     0
  0
SCALE
  5
4A
102
{ACAD_REACTORS
330
42
102
}
330
42
100
AcDbScale
 70
     0
300
3/16" = 1'-0"
140
0.1875
141
12.0
290
     0
  0
SCALE
  5
4B
102
{ACAD_REACTORS
330
42
102
}
330
42
100
AcDbScale
 70
     0
300
1/4" = 1'-0"
140
0.25
141
12.0
290
     0
  0
SCALE
  5
4C
102
{ACAD_REACTORS
330
42
102
}
330
42
100
AcDbScale
 70
     0
300
3/8" = 1'-0"
140
0.375
141
12.0
290
     0
  0
SCALE
  5
4D
102
{ACAD_REACTORS
330
42
102
}
330
42
100
AcDbScale
 70
     0
300
1/2" = 1'-0"
140
0.5
141
12.0
290
     0
  0
SCALE
  5
4E
102
{ACAD_REACTORS
330
42
102
}
330
42
100
AcDbScale
 70
     0
300
3/4" = 1'-0"
140
0.75
141
12.0
290
     0
  0
SCALE
  5
4F
102
{ACAD_REACTORS
330
42
102
}
330
42
100
AcDbScale
 70
     0
300
1" = 1'-0"
140
1.0
141
12.0
290
     0
  0
SCALE
  5
50
102
{ACAD_REACTORS
330
42
102
}
330
42
100
AcDbScale
 70
     0
300
1-1/2" = 1'-0"
140
1.5
141
12.0
290
     0
  0
SCALE
  5
51
102
{ACAD_REACTORS
330
42
102
}
330
42
100
AcDbScale
 70
     0
300
3" = 1'-0"
140
3.0
141
12.0
290
     0
  0
SCALE
  5
52
102
{ACAD_REACTORS
330
42
102
}
330
42
100
AcDbScale
 70
     0
300
6" = 1'-0"
140
6.0
141
12.0
290
     0
  0
SCALE
  5
53
102
{ACAD_REACTORS
330
42
102
}
330
42
100
AcDbScale
 70
     0
300
1'-0" = 1'-0"
140
12.0
141
12.0
290
     0
  0
TABLESTYLE
  5
64
102
{ACAD_XDICTIONARY
360
A06
102
}
102
{ACAD_REACTORS
330
63
102
}
330
63
100
AcDbTableStyle
  3
Standard
 70
     0
 71
     0
 40
0.06
 41
0.06
280
     0
281
     0
  7
STANDARD
140
0.18
170
     2
 62
     0
 63
     7
283
     0
274
    -2
284
     1
 64
     0
275
    -2
285
     1
 65
     0
276
    -2
286
     1
 66
     0
277
    -2
287
     1
 67
     0
278
    -2
288
     1
 68
     0
279
    -2
289
     1
 69
     0
  7
STANDARD
140
0.25
170
     5
 62
     0
 63
     7
283
     0
274
    -2
284
     1
 64
     0
275
    -2
285
     1
 65
     0
276
    -2
286
     1
 66
     0
277
    -2
287
     1
 67
     0
278
    -2
288
     1
 68
     0
279
    -2
289
     1
 69
     0
  7
STANDARD
140
0.18
170
     5
 62
     0
 63
     7
283
     0
274
    -2
284
     1
 64
     0
275
    -2
285
     1
 65
     0
276
    -2
286
     1
 66
     0
277
    -2
287
     1
 67
     0
278
    -2
288
     1
 68
     0
279
    -2
289
     1
 69
     0
  0
VISUALSTYLE
  5
2F
102
{ACAD_XDICTIONARY
360
F56
102
}
102
{ACAD_REACTORS
330
29
102
}
330
29
100
AcDbVisualStyle
  2

 70
     4
 71
     0
 72
     2
 73
     0
 90
        0
 40
-0.6
 41
-30.0
 62
     5
 63
     7
 74
     1
 91
        4
 64
     7
 65
   257
 75
     1
175
     1
 42
1.0
 92
        0
 66
   257
 43
1.0
 76
     1
 77
     6
 78
     2
 67
     7
 79
     5
170
     0
171
     0
290
     0
174
     0
 93
        1
 44
0.0
173
     0
291
     0
 45
0.0
1001
ACAD
1000
AcDbSavedByObjectVersion
1070
     0
  0
VISUALSTYLE
  5
84C
102
{ACAD_XDICTIONARY
360
F81
102
}
102
{ACAD_REACTORS
330
29
102
}
330
29
100
AcDbVisualStyle
  2

 70
     5
 71
     0
 72
     2
 73
     1
 90
        0
 40
-0.6
 41
-30.0
 62
     5
 63
     7
 74
     1
 91
        4
 64
     7
 65
   257
 75
     1
175
     1
 42
1.0
 92
        0
 66
   257
 43
1.0
 76
     1
 77
     6
 78
     2
 67
     7
 79
     5
170
     0
171
     0
290
     0
174
     0
 93
        1
 44
0.0
173
     0
291
     0
 45
0.0
1001
ACAD
1000
AcDbSavedByObjectVersion
1070
     0
  0
VISUALSTYLE
  5
2E
102
{ACAD_XDICTIONARY
360
F54
102
}
102
{ACAD_REACTORS
330
29
102
}
330
29
100
AcDbVisualStyle
  2

 70
     7
 71
     1
 72
     0
 73
     1
 90
        0
 40
-0.6
 41
-30.0
 62
     5
 63
     7
 74
     0
 91
        4
 64
     7
 65
   257
 75
     1
175
     1
 42
1.0
 92
        8
 66
     7
 43
1.0
 76
     1
 77
     6
 78
     2
 67
     7
 79
     5
170
     0
171
     0
290
     0
174
     0
 93
        1
 44
0.0
173
     0
291
     1
 45
0.0
1001
ACAD
1000
AcDbSavedByObjectVersion
1070
     0
  0
VISUALSTYLE
  5
35
102
{ACAD_XDICTIONARY
360
F62
102
}
102
{ACAD_REACTORS
330
29
102
}
330
29
100
AcDbVisualStyle
  2

 70
    12
 71
     2
 72
     2
 73
     0
 90
        0
 40
-0.6
 41
-30.0
 62
     5
 63
     7
 74
     1
 91
        4
 64
     7
 65
   257
 75
     1
175
     1
 42
1.0
 92
        8
 66
     7
 43
1.0
 76
     1
 77
     6
 78
     2
 67
     7
 79
     5
170
     0
171
     0
290
     0
174
     0
 93
        1
 44
50.0
173
     0
291
     1
 45
0.0
1001
ACAD
1000
AcDbSavedByObjectVersion
1070
     0
  0
VISUALSTYLE
  5
39
102
{ACAD_XDICTIONARY
360
F6A
102
}
102
{ACAD_REACTORS
330
29
102
}
330
29
100
AcDbVisualStyle
  2

 70
    16
 71
     2
 72
     2
 73
     3
 90
        0
 40
-0.6
 41
-30.0
 62
     5
 63
     8
 74
     1
 91
        4
 64
     7
 65
   257
 75
     1
175
     1
 42
1.0
 92
        8
 66
     8
 43
1.0
 76
     1
 77
     6
 78
     2
 67
     7
 79
     5
170
     0
171
     0
290
     0
174
     0
 93
        1
 44
0.0
173
     0
291
     1
 45
0.0
1001
ACAD
1000
AcDbSavedByObjectVersion
1070
     0
  0
VISUALSTYLE
  5
32
102
{ACAD_XDICTIONARY
360
F5C
102
}
102
{ACAD_REACTORS
330
29
102
}
330
29
100
AcDbVisualStyle
  2

 70
     9
 71
     3
 72
     2
 73
     0
 90
        0
 40
-0.6
 41
-30.0
 62
     5
 63
     7
 74
     2
 91
        2
 64
     7
 65
   257
 75
     1
175
     1
 42
179.0
 92
        8
 66
     7
 43
1.0
 76
     1
 77
     6
 78
     2
 67
     7
 79
     3
170
     0
171
     0
290
     0
174
     0
 93
        1
 44
0.0
173
     0
291
     0
 45
0.0
1001
ACAD
1000
AcDbSavedByObjectVersion
1070
     0
  0
VISUALSTYLE
  5
34
102
{ACAD_XDICTIONARY
360
F60
102
}
102
{ACAD_REACTORS
330
29
102
}
330
29
100
AcDbVisualStyle
  2

 70
    11
 71
     2
 72
     2
 73
     0
 90
        0
 40
-0.6
 41
-30.0
 62
     5
 63
     7
 74
     1
 91
        4
 64
     7
 65
   257
 75
     1
175
     1
 42
1.0
 92
        8
 66
     7
 43
1.0
 76
     1
 77
     6
 78
     2
 67
     7
 79
     5
170
     0
171
     0
290
     0
174
     0
 93
        1
 44
-50.0
173
     0
291
     1
 45
0.0
1001
ACAD
1000
AcDbSavedByObjectVersion
1070
     0
  0
VISUALSTYLE
  5
41
102
{ACAD_XDICTIONARY
360
F7A
102
}
102
{ACAD_REACTORS
330
29
102
}
330
29
100
AcDbVisualStyle
  2

 70
    22
 71
     2
 72
     2
 73
     0
 90
        0
 40
-0.6
 41
-30.0
 62
     5
 63
     7
 74
     1
 91
        4
 64
     7
 65
   257
 75
     1
175
     1
 42
1.0
 92
        8
 66
     7
 43
1.0
 76
     1
 77
     6
 78
     2
 67
     7
 79
     5
170
     0
171
     0
290
     0
174
     0
 93
        1
 44
0.0
173
     0
291
     1
 45
0.0
1001
ACAD
1000
AcDbSavedByObjectVersion
1070
     0
  0
VISUALSTYLE
  5
38
102
{ACAD_XDICTIONARY
360
F68
102
}
102
{ACAD_REACTORS
330
29
102
}
330
29
100
AcDbVisualStyle
  2

 70
    15
 71
     2
 72
     2
 73
     0
 90
        0
 40
-0.6
 41
-30.0
 62
     5
 63
     7
 74
     1
 91
        4
 64
     7
 65
   257
 75
     1
175
     1
 42
1.0
 92
        8
 66
     7
 43
1.0
 76
     1
 77
     6
 78
     2
 67
     7
 79
     5
170
     0
171
     0
290
     0
174
     0
 93
        1
 44
0.0
173
     0
291
     1
 45
0.0
1001
ACAD
1000
AcDbSavedByObjectVersion
1070
     0
  0
VISUALSTYLE
  5
2A
102
{ACAD_XDICTIONARY
360
F4C
102
}
102
{ACAD_REACTORS
330
29
102
}
330
29
100
AcDbVisualStyle
  2

 70
     0
 71
     2
 72
     1
 73
     1
 90
        2
 40
-0.6
 41
30.0
 62
     5
 63
     7
 74
     0
 91
        0
 64
     7
 65
   257
 75
     1
175
     1
 42
1.0
 92
        8
 66
     7
 43
1.0
 76
     1
 77
     6
 78
     2
 67
     7
 79
     5
170
     0
171
     0
290
     0
174
     0
 93
       13
 44
0.0
173
     0
291
     1
 45
0.0
1001
ACAD
1000
AcDbSavedByObjectVersion
1070
     0
  0
VISUALSTYLE
  5
2B
102
{ACAD_XDICTIONARY
360
F4E
102
}
102
{ACAD_REACTORS
330
29
102
}
330
29
100
AcDbVisualStyle
  2

 70
     1
 71
     2
 72
     1
 73
     1
 90
        2
 40
-0.6
 41
30.0
 62
     5
 63
     7
 74
     1
 91
        0
 64
     7
 65
   257
 75
     1
175
     1
 42
1.0
 92
        0
 66
   257
 43
1.0
 76
     1
 77
     6
 78
     2
 67
     7
 79
     5
170
     0
171
     0
290
     0
174
     0
 93
       13
 44
0.0
173
     0
291
     1
 45
0.0
1001
ACAD
1000
AcDbSavedByObjectVersion
1070
     0
  0
VISUALSTYLE
  5
2C
102
{ACAD_XDICTIONARY
360
F50
102
}
102
{ACAD_REACTORS
330
29
102
}
330
29
100
AcDbVisualStyle
  2

 70
     2
 71
     2
 72
     2
 73
     1
 90
        2
 40
-0.6
 41
30.0
 62
     5
 63
     7
 74
     0
 91
        0
 64
     7
 65
   257
 75
     1
175
     1
 42
1.0
 92
        0
 66
     7
 43
1.0
 76
     1
 77
     6
 78
     2
 67
     7
 79
     5
170
     0
171
     0
290
     0
174
     0
 93
       13
 44
0.0
173
     0
291
     1
 45
0.0
1001
ACAD
1000
AcDbSavedByObjectVersion
1070
     0
  0
VISUALSTYLE
  5
2D
102
{ACAD_XDICTIONARY
360
F52
102
}
102
{ACAD_REACTORS
330
29
102
}
330
29
100
AcDbVisualStyle
  2

 70
     3
 71
     2
 72
     2
 73
     1
 90
        2
 40
-0.6
 41
30.0
 62
     5
 63
     7
 74
     1
 91
        0
 64
     7
 65
   257
 75
     1
175
     1
 42
1.0
 92
        0
 66
   257
 43
1.0
 76
     1
 77
     6
 78
     2
 67
     7
 79
     5
170
     0
171
     0
290
     0
174
     0
 93
       13
 44
0.0
173
     0
291
     1
 45
0.0
1001
ACAD
1000
AcDbSavedByObjectVersion
1070
     0
  0
VISUALSTYLE
  5
31
102
{ACAD_XDICTIONARY
360
F5A
102
}
102
{ACAD_REACTORS
330
29
102
}
330
29
100
AcDbVisualStyle
  2

 70
     6
 71
     1
 72
     2
 73
     2
 90
        0
 40
-0.6
 41
-30.0
 62
     5
 63
     7
 74
     2
 91
        2
 64
     7
 65
   257
 75
     2
175
     1
 42
40.0
 92
        0
 66
   257
 43
1.0
 76
     1
 77
     6
 78
     2
 67
     7
 79
     3
170
     0
171
     0
290
     0
174
     0
 93
        1
 44
0.0
173
     0
291
     0
 45
0.0
1001
ACAD
1000
AcDbSavedByObjectVersion
1070
     0
  0
VISUALSTYLE
  5
3F
102
{ACAD_XDICTIONARY
360
F76
102
}
102
{ACAD_REACTORS
330
29
102
}
330
29
100
AcDbVisualStyle
  2

 70
    20
 71
     2
 72
     2
 73
     0
 90
        0
 40
-0.6
 41
-30.0
 62
     5
 63
     7
 74
     1
 91
        4
 64
     7
 65
   257
 75
     1
175
     1
 42
1.0
 92
       10
 66
     7
 43
1.0
 76
     1
 77
     6
 78
     2
 67
     7
 79
     5
170
     0
171
     0
290
     0
174
     0
 93
        1
 44
0.0
173
     0
291
     1
 45
0.0
1001
ACAD
1000
AcDbSavedByObjectVersion
1070
     0
  0
VISUALSTYLE
  5
37
102
{ACAD_XDICTIONARY
360
F66
102
}
102
{ACAD_REACTORS
330
29
102
}
330
29
100
AcDbVisualStyle
  2

 70
    14
 71
     2
 72
     2
 73
     0
 90
        0
 40
-0.6
 41
-30.0
 62
     5
 63
     7
 74
     1
 91
        4
 64
     7
 65
   257
 75
     7
175
     7
 42
1.0
 92
        8
 66
     7
 43
1.0
 76
     1
 77
     6
 78
     2
 67
     7
 79
     5
170
     0
171
     0
290
     0
174
     0
 93
        1
 44
0.0
173
     0
291
     1
 45
0.0
1001
ACAD
1000
AcDbSavedByObjectVersion
1070
     0
  0
VISUALSTYLE
  5
40
102
{ACAD_XDICTIONARY
360
F78
102
}
102
{ACAD_REACTORS
330
29
102
}
330
29
100
AcDbVisualStyle
  2

 70
    21
 71
     2
 72
     2
 73
     0
 90
        0
 40
-0.6
 41
-30.0
 62
     5
 63
     7
 74
     1
 91
        4
 64
     7
 65
   257
 75
     1
175
     1
 42
1.0
 92
        9
 66
     7
 43
1.0
 76
     1
 77
     6
 78
     2
 67
     7
 79
     5
170
     0
171
     0
290
     0
174
     0
 93
        1
 44
0.0
173
     0
291
     1
 45
0.0
1001
ACAD
1000
AcDbSavedByObjectVersion
1070
     0
  0
VISUALSTYLE
  5
33
102
{ACAD_XDICTIONARY
360
F5E
102
}
102
{ACAD_REACTORS
330
29
102
}
330
29
100
AcDbVisualStyle
  2

 70
     8
 71
     2
 72
     3
 73
     0
 90
        2
 40
-0.6
 41
30.0
 62
     5
 63
     7
 74
     0
 91
        0
 64
     7
 65
   257
 75
     1
175
     1
 42
1.0
 92
        8
 66
   257
 43
1.0
 76
     1
 77
     6
 78
     2
 67
     7
 79
     3
170
     0
171
     0
290
     0
174
     0
 93
       13
 44
0.0
173
     0
291
     0
 45
0.0
1001
ACAD
1000
AcDbSavedByObjectVersion
1070
     0
  0
VISUALSTYLE
  5
3E
102
{ACAD_XDICTIONARY
360
F74
102
}
102
{ACAD_REACTORS
330
29
102
}
330
29
100
AcDbVisualStyle
  2

 70
    27
 71
     2
 72
     2
 73
     1
 90
        2
 40
-0.6
 41
30.0
 62
     5
 63
     7
 74
     0
 91
        4
 64
     7
 65
   257
 75
     1
175
     1
 42
1.0
 92
        8
 66
   257
 43
1.0
 76
     1
 77
     6
 78
     2
 67
     8
 79
     3
170
     0
171
     0
290
     0
174
     0
 93
        5
 44
0.0
173
     0
291
     0
 45
0.0
1001
ACAD
1000
AcDbSavedByObjectVersion
1070
     0
  0
VISUALSTYLE
  5
3D
102
{ACAD_XDICTIONARY
360
F72
102
}
102
{ACAD_REACTORS
330
29
102
}
330
29
100
AcDbVisualStyle
  2

 70
    26
 71
     2
 72
     2
 73
     1
 90
        2
 40
-0.6
 41
30.0
 62
     5
 63
     7
 74
     1
 91
       10
 64
     7
 65
   257
 75
     2
175
     1
 42
1.0
 92
        8
 66
   257
 43
1.0
 76
     1
 77
     6
 78
     2
 67
     7
 79
     3
170
     0
171
     0
290
     0
174
     0
 93
        5
 44
0.0
173
     0
291
     0
 45
0.0
1001
ACAD
1000
AcDbSavedByObjectVersion
1070
     0
  0
VISUALSTYLE
  5
3A
102
{ACAD_XDICTIONARY
360
F6C
102
}
102
{ACAD_REACTORS
330
29
102
}
330
29
100
AcDbVisualStyle
  2

 70
    23
 71
     2
 72
     2
 73
     3
 90
        0
 40
-0.6
 41
-30.0
 62
     5
 63
     7
 74
     2
 91
        2
 64
     7
 65
     7
 75
     1
175
     1
 42
40.0
 92
        8
 66
     7
 43
1.0
 76
     1
 77
     6
 78
     2
 67
     7
 79
     3
170
     0
171
     0
290
     0
174
     0
 93
        1
 44
0.0
173
     0
291
     0
 45
0.0
1001
ACAD
1000
AcDbSavedByObjectVersion
1070
     0
  0
VISUALSTYLE
  5
3B
102
{ACAD_XDICTIONARY
360
F6E
102
}
102
{ACAD_REACTORS
330
29
102
}
330
29
100
AcDbVisualStyle
  2

 70
    24
 71
     1
 72
     2
 73
     2
 90
        0
 40
-0.6
 41
-30.0
 62
     5
 63
     7
 74
     2
 91
        2
 64
     7
 65
     7
 75
     1
175
     1
 42
40.0
 92
       11
 66
     7
 43
1.0
 76
     1
 77
     6
 78
     2
 67
     7
 79
     6
170
     0
171
     0
290
     0
174
     0
 93
        1
 44
0.0
173
     0
291
     0
 45
0.0
1001
ACAD
1000
AcDbSavedByObjectVersion
1070
     0
  0
VISUALSTYLE
  5
36
102
{ACAD_XDICTIONARY
360
F64
102
}
102
{ACAD_REACTORS
330
29
102
}
330
29
100
AcDbVisualStyle
  2

 70
    13
 71
     2
 72
     2
 73
     0
 90
        0
 40
-0.6
 41
-30.0
 62
     5
 63
     7
 74
     1
 91
        4
 64
     7
 65
   257
 75
     1
175
     1
 42
1.0
 92
       12
 66
     7
 43
1.0
 76
     1
 77
     6
 78
     2
 67
     7
 79
     5
170
     0
171
     0
290
     0
174
     0
 93
        1
 44
0.0
173
     0
291
     1
 45
0.0
1001
ACAD
1000
AcDbSavedByObjectVersion
1070
     0
  0
VISUALSTYLE
  5
30
102
{ACAD_XDICTIONARY
360
F58
102
}
102
{ACAD_REACTORS
330
29
102
}
330
29
100
AcDbVisualStyle
  2

 70
     5
 71
     0
 72
     2
 73
     0
 90
        0
 40
-0.6
 41
-30.0
 62
     5
 63
     7
 74
     1
 91
        4
 64
     7
 65
   257
 75
     1
175
     1
 42
1.0
 92
        0
 66
   257
 43
1.0
 76
     1
 77
     6
 78
     2
 67
     7
 79
     3
170
     0
171
     0
290
     0
174
     0
 93
        1
 44
0.0
173
     0
291
     0
 45
0.0
1001
ACAD
1000
AcDbSavedByObjectVersion
1070
     0
  0
VISUALSTYLE
  5
3C
102
{ACAD_XDICTIONARY
360
F70
102
}
102
{ACAD_REACTORS
330
29
102
}
330
29
100
AcDbVisualStyle
  2

 70
    25
 71
     2
 72
     2
 73
     1
 90
        1
 40
0.5
 41
-30.0
 62
     5
 63
     7
 74
     1
 91
        0
 64
     7
 65
   257
 75
     1
175
     1
 42
1.0
 92
        8
 66
     7
 43
1.0
 76
     1
 77
     6
 78
     2
 67
     7
 79
     3
170
     0
171
     0
290
     0
174
     0
 93
       13
 44
0.0
173
     0
291
     0
 45
0.0
1001
ACAD
1000
AcDbSavedByObjectVersion
1070
     0
  0
DICTIONARYVAR
  5
A01
102
{ACAD_REACTORS
330
9FE
102
}
330
9FE
100
DictionaryVariables
280
     0
  1
1:1
  0
DICTIONARYVAR
  5
A00
102
{ACAD_REACTORS
330
9FE
102
}
330
9FE
100
DictionaryVariables
280
     0
  1
STANDARD
  0
DICTIONARYVAR
  5
9FF
102
{ACAD_REACTORS
330
9FE
102
}
330
9FE
100
DictionaryVariables
280
     0
  1
STANDARD
  0
DICTIONARYVAR
  5
A04
102
{ACAD_REACTORS
330
9FE
102
}
330
9FE
100
DictionaryVariables
280
     0
  1
1
  0
DICTIONARYVAR
  5
A03
102
{ACAD_REACTORS
330
9FE
102
}
330
9FE
100
DictionaryVariables
280
     0
  1
0
  0
DICTIONARYVAR
  5
A02
102
{ACAD_REACTORS
330
9FE
102
}
330
9FE
100
DictionaryVariables
280
     0
  1
127
  0
DICTIONARYVAR
  5
B6D
102
{ACAD_REACTORS
330
9FE
102
}
330
9FE
100
DictionaryVariables
280
     0
  1
2
  0
DICTIONARY
  5
F7F
330
6E
100
AcDbDictionary
280
     1
281
     1
  3
ACAD_XREC_ROUNDTRIP
360
F80
  0
DICTIONARY
  5
F7D
330
6A
100
AcDbDictionary
280
     1
281
     1
  3
ACAD_XREC_ROUNDTRIP
360
F7E
  0
DICTIONARY
  5
1A
330
19
100
AcDbDictionary
280
     1
281
     1
  3
ACAD_XREC_ROUNDTRIP
360
A0F
  3
BUMPTILE
360
1C
  3
DIFFUSETILE
360
1B
  3
OPACITYTILE
360
1F
  3
REFLECTIONTILE
360
1E
  3
REFRACTIONTILE
360
20
  3
SPECULARTILE
360
1D
  0
DICTIONARY
  5
12
330
11
100
AcDbDictionary
280
     1
281
     1
  3
ACAD_XREC_ROUNDTRIP
360
A0E
  3
BUMPTILE
360
14
  3
DIFFUSETILE
360
13
  3
OPACITYTILE
360
17
  3
REFLECTIONTILE
360
16
  3
REFRACTIONTILE
360
18
  3
SPECULARTILE
360
15
  0
DICTIONARY
  5
22
330
21
100
AcDbDictionary
280
     1
281
     1
  3
ACAD_XREC_ROUNDTRIP
360
A10
  3
BUMPTILE
360
24
  3
DIFFUSETILE
360
23
  3
OPACITYTILE
360
27
  3
REFLECTIONTILE
360
26
  3
REFRACTIONTILE
360
28
  3
SPECULARTILE
360
25
  0
DICTIONARY
  5
A06
330
64
100
AcDbDictionary
280
     1
281
     1
  3
ACAD_ROUNDTRIP_2008_TABLESTYLE_CELLSTYLEMAP
360
F45
  3
ACAD_XREC_ROUNDTRIP
360
F7C
  0
DICTIONARY
  5
F56
330
2F
100
AcDbDictionary
280
     1
281
     1
  3
ACAD_XREC_ROUNDTRIP
360
F57
  0
DICTIONARY
  5
F81
330
84C
100
AcDbDictionary
280
     1
281
     1
  3
ACAD_XREC_ROUNDTRIP
360
F82
  0
DICTIONARY
  5
F54
330
2E
100
AcDbDictionary
280
     1
281
     1
  3
ACAD_XREC_ROUNDTRIP
360
F55
  0
DICTIONARY
  5
F62
330
35
100
AcDbDictionary
280
     1
281
     1
  3
ACAD_XREC_ROUNDTRIP
360
F63
  0
DICTIONARY
  5
F6A
330
39
100
AcDbDictionary
280
     1
281
     1
  3
ACAD_XREC_ROUNDTRIP
360
F6B
  0
DICTIONARY
  5
F5C
330
32
100
AcDbDictionary
280
     1
281
     1
  3
ACAD_XREC_ROUNDTRIP
360
F5D
  0
DICTIONARY
  5
F60
330
34
100
AcDbDictionary
280
     1
281
     1
  3
ACAD_XREC_ROUNDTRIP
360
F61
  0
DICTIONARY
  5
F7A
330
41
100
AcDbDictionary
280
     1
281
     1
  3
ACAD_XREC_ROUNDTRIP
360
F7B
  0
DICTIONARY
  5
F68
330
38
100
AcDbDictionary
280
     1
281
     1
  3
ACAD_XREC_ROUNDTRIP
360
F69
  0
DICTIONARY
  5
F4C
330
2A
100
AcDbDictionary
280
     1
281
     1
  3
ACAD_XREC_ROUNDTRIP
360
F4D
  0
DICTIONARY
  5
F4E
330
2B
100
AcDbDictionary
280
     1
281
     1
  3
ACAD_XREC_ROUNDTRIP
360
F4F
  0
DICTIONARY
  5
F50
330
2C
100
AcDbDictionary
280
     1
281
     1
  3
ACAD_XREC_ROUNDTRIP
360
F51
  0
DICTIONARY
  5
F52
330
2D
100
AcDbDictionary
280
     1
281
     1
  3
ACAD_XREC_ROUNDTRIP
360
F53
  0
DICTIONARY
  5
F5A
330
31
100
AcDbDictionary
280
     1
281
     1
  3
ACAD_XREC_ROUNDTRIP
360
F5B
  0
DICTIONARY
  5
F76
330
3F
100
AcDbDictionary
280
     1
281
     1
  3
ACAD_XREC_ROUNDTRIP
360
F77
  0
DICTIONARY
  5
F66
330
37
100
AcDbDictionary
280
     1
281
     1
  3
ACAD_XREC_ROUNDTRIP
360
F67
  0
DICTIONARY
  5
F78
330
40
100
AcDbDictionary
280
     1
281
     1
  3
ACAD_XREC_ROUNDTRIP
360
F79
  0
DICTIONARY
  5
F5E
330
33
100
AcDbDictionary
280
     1
281
     1
  3
ACAD_XREC_ROUNDTRIP
360
F5F
  0
DICTIONARY
  5
F74
330
3E
100
AcDbDictionary
280
     1
281
     1
  3
ACAD_XREC_ROUNDTRIP
360
F75
  0
DICTIONARY
  5
F72
330
3D
100
AcDbDictionary
280
     1
281
     1
  3
ACAD_XREC_ROUNDTRIP
360
F73
  0
DICTIONARY
  5
F6C
330
3A
100
AcDbDictionary
280
     1
281
     1
  3
ACAD_XREC_ROUNDTRIP
360
F6D
  0
DICTIONARY
  5
F6E
330
3B
100
AcDbDictionary
280
     1
281
     1
  3
ACAD_XREC_ROUNDTRIP
360
F6F
  0
DICTIONARY
  5
F64
330
36
100
AcDbDictionary
280
     1
281
     1
  3
ACAD_XREC_ROUNDTRIP
360
F65
  0
DICTIONARY
  5
F58
330
30
100
AcDbDictionary
280
     1
281
     1
  3
ACAD_XREC_ROUNDTRIP
360
F59
  0
DICTIONARY
  5
F70
330
3C
100
AcDbDictionary
280
     1
281
     1
  3
ACAD_XREC_ROUNDTRIP
360
F71
  0
XRECORD
  5
F80
102
{ACAD_REACTORS
330
F7F
102
}
330
F7F
100
AcDbXrecord
280
     1
102
SHADEPLOT
 70
     0
102
SHADEPLOTRESLEVEL
 70
     2
102
SHADEPLOTCUSTOMDPI
 70
   300
  0
XRECORD
  5
F7E
102
{ACAD_REACTORS
330
F7D
102
}
330
F7D
100
AcDbXrecord
280
     1
102
SHADEPLOT
 70
     0
102
SHADEPLOTRESLEVEL
 70
     2
102
SHADEPLOTCUSTOMDPI
 70
   300
  0
XRECORD
  5
A0F
102
{ACAD_REACTORS
330
1A
102
}
330
1A
100
AcDbXrecord
280
     1
102
MATERIAL
148
0.0
149
0.0
149
0.0
 93
        0
 94
      127
282
     0
 72
     0
 77
     0
171
     0
175
     0
179
     0
273
     0
  0
XRECORD
  5
1C
102
{ACAD_REACTORS
330
1A
102
}
330
1A
100
AcDbXrecord
280
     1
270
     1
271
     1
  0
XRECORD
  5
1B
102
{ACAD_REACTORS
330
1A
102
}
330
1A
100
AcDbXrecord
280
     1
270
     1
271
     1
  0
XRECORD
  5
1F
102
{ACAD_REACTORS
330
1A
102
}
330
1A
100
AcDbXrecord
280
     1
270
     1
271
     1
  0
XRECORD
  5
1E
102
{ACAD_REACTORS
330
1A
102
}
330
1A
100
AcDbXrecord
280
     1
270
     1
271
     1
  0
XRECORD
  5
20
102
{ACAD_REACTORS
330
1A
102
}
330
1A
100
AcDbXrecord
280
     1
270
     1
271
     1
  0
XRECORD
  5
1D
102
{ACAD_REACTORS
330
1A
102
}
330
1A
100
AcDbXrecord
280
     1
270
     1
271
     1
  0
XRECORD
  5
A0E
102
{ACAD_REACTORS
330
12
102
}
330
12
100
AcDbXrecord
280
     1
102
MATERIAL
148
0.0
149
0.0
149
0.0
 93
        0
 94
      127
282
     0
 72
     0
 77
     0
171
     0
175
     0
179
     0
273
     0
  0
XRECORD
  5
14
102
{ACAD_REACTORS
330
12
102
}
330
12
100
AcDbXrecord
280
     1
270
     1
271
     1
  0
XRECORD
  5
13
102
{ACAD_REACTORS
330
12
102
}
330
12
100
AcDbXrecord
280
     1
270
     1
271
     1
  0
XRECORD
  5
17
102
{ACAD_REACTORS
330
12
102
}
330
12
100
AcDbXrecord
280
     1
270
     1
271
     1
  0
XRECORD
  5
16
102
{ACAD_REACTORS
330
12
102
}
330
12
100
AcDbXrecord
280
     1
270
     1
271
     1
  0
XRECORD
  5
18
102
{ACAD_REACTORS
330
12
102
}
330
12
100
AcDbXrecord
280
     1
270
     1
271
     1
  0
XRECORD
  5
15
102
{ACAD_REACTORS
330
12
102
}
330
12
100
AcDbXrecord
280
     1
270
     1
271
     1
  0
XRECORD
  5
A10
102
{ACAD_REACTORS
330
22
102
}
330
22
100
AcDbXrecord
280
     1
102
MATERIAL
148
0.0
149
0.0
149
0.0
 93
        0
 94
      127
282
     0
 72
     0
 77
     0
171
     0
175
     0
179
     0
273
     0
  0
XRECORD
  5
24
102
{ACAD_REACTORS
330
22
102
}
330
22
100
AcDbXrecord
280
     1
270
     1
271
     1
  0
XRECORD
  5
23
102
{ACAD_REACTORS
330
22
102
}
330
22
100
AcDbXrecord
280
     1
270
     1
271
     1
  0
XRECORD
  5
27
102
{ACAD_REACTORS
330
22
102
}
330
22
100
AcDbXrecord
280
     1
270
     1
271
     1
  0
XRECORD
  5
26
102
{ACAD_REACTORS
330
22
102
}
330
22
100
AcDbXrecord
280
     1
270
     1
271
     1
  0
XRECORD
  5
28
102
{ACAD_REACTORS
330
22
102
}
330
22
100
AcDbXrecord
280
     1
270
     1
271
     1
  0
XRECORD
  5
25
102
{ACAD_REACTORS
330
22
102
}
330
22
100
AcDbXrecord
280
     1
270
     1
271
     1
  0
CELLSTYLEMAP
  5
F45
102
{ACAD_REACTORS
330
A06
102
}
330
A06
100
AcDbCellStyleMap
 90
        3
300
CELLSTYLE
  1
TABLEFORMAT_BEGIN
 90
        5
170
     1
 91
        0
 92
    32768
 62
   257
 93
        1
300
CONTENTFORMAT
  1
CONTENTFORMAT_BEGIN
 90
        0
 91
        0
 92
      512
 93
        0
300

 40
0.0
140
1.0
 94
        5
 62
     0
340
55
144
0.25
309
CONTENTFORMAT_END
171
     1
301
MARGIN
  1
CELLMARGIN_BEGIN
 40
0.06
 40
0.06
 40
0.06
 40
0.06
 40
0.18
 40
0.18
309
CELLMARGIN_END
 94
        6
 95
        1
302
GRIDFORMAT
  1
GRIDFORMAT_BEGIN
 90
        0
 91
        1
 62
     0
 92
       -2
340
0
 93
        0
 40
0.045
309
GRIDFORMAT_END
 95
        2
302
GRIDFORMAT
  1
GRIDFORMAT_BEGIN
 90
        0
 91
        1
 62
     0
 92
       -2
340
0
 93
        0
 40
0.045
309
GRIDFORMAT_END
 95
        4
302
GRIDFORMAT
  1
GRIDFORMAT_BEGIN
 90
        0
 91
        1
 62
     0
 92
       -2
340
0
 93
        0
 40
0.045
309
GRIDFORMAT_END
 95
        8
302
GRIDFORMAT
  1
GRIDFORMAT_BEGIN
 90
        0
 91
        1
 62
     0
 92
       -2
340
0
 93
        0
 40
0.045
309
GRIDFORMAT_END
 95
       16
302
GRIDFORMAT
  1
GRIDFORMAT_BEGIN
 90
        0
 91
        1
 62
     0
 92
       -2
340
0
 93
        0
 40
0.045
309
GRIDFORMAT_END
 95
       32
302
GRIDFORMAT
  1
GRIDFORMAT_BEGIN
 90
        0
 91
        1
 62
     0
 92
       -2
340
0
 93
        0
 40
0.045
309
GRIDFORMAT_END
309
TABLEFORMAT_END
  1
CELLSTYLE_BEGIN
 90
        1
 91
        1
300
_TITLE
309
CELLSTYLE_END
300
CELLSTYLE
  1
TABLEFORMAT_BEGIN
 90
        5
170
     1
 91
        0
 92
        0
 62
   257
 93
        1
300
CONTENTFORMAT
  1
CONTENTFORMAT_BEGIN
 90
        0
 91
        0
 92
      512
 93
        0
300

 40
0.0
140
1.0
 94
        5
 62
     0
340
55
144
0.18
309
CONTENTFORMAT_END
171
     1
301
MARGIN
  1
CELLMARGIN_BEGIN
 40
0.06
 40
0.06
 40
0.06
 40
0.06
 40
0.18
 40
0.18
309
CELLMARGIN_END
 94
        6
 95
        1
302
GRIDFORMAT
  1
GRIDFORMAT_BEGIN
 90
        0
 91
        1
 62
     0
 92
       -2
340
0
 93
        0
 40
0.045
309
GRIDFORMAT_END
 95
        2
302
GRIDFORMAT
  1
GRIDFORMAT_BEGIN
 90
        0
 91
        1
 62
     0
 92
       -2
340
0
 93
        0
 40
0.045
309
GRIDFORMAT_END
 95
        4
302
GRIDFORMAT
  1
GRIDFORMAT_BEGIN
 90
        0
 91
        1
 62
     0
 92
       -2
340
0
 93
        0
 40
0.045
309
GRIDFORMAT_END
 95
        8
302
GRIDFORMAT
  1
GRIDFORMAT_BEGIN
 90
        0
 91
        1
 62
     0
 92
       -2
340
0
 93
        0
 40
0.045
309
GRIDFORMAT_END
 95
       16
302
GRIDFORMAT
  1
GRIDFORMAT_BEGIN
 90
        0
 91
        1
 62
     0
 92
       -2
340
0
 93
        0
 40
0.045
309
GRIDFORMAT_END
 95
       32
302
GRIDFORMAT
  1
GRIDFORMAT_BEGIN
 90
        0
 91
        1
 62
     0
 92
       -2
340
0
 93
        0
 40
0.045
309
GRIDFORMAT_END
309
TABLEFORMAT_END
  1
CELLSTYLE_BEGIN
 90
        2
 91
        1
300
_HEADER
309
CELLSTYLE_END
300
CELLSTYLE
  1
TABLEFORMAT_BEGIN
 90
        5
170
     1
 91
        0
 92
        0
 62
   257
 93
        1
300
CONTENTFORMAT
  1
CONTENTFORMAT_BEGIN
 90
        0
 91
        0
 92
      512
 93
        0
300

 40
0.0
140
1.0
 94
        2
 62
     0
340
55
144
0.18
309
CONTENTFORMAT_END
171
     1
301
MARGIN
  1
CELLMARGIN_BEGIN
 40
0.06
 40
0.06
 40
0.06
 40
0.06
 40
0.18
 40
0.18
309
CELLMARGIN_END
 94
        6
 95
        1
302
GRIDFORMAT
  1
GRIDFORMAT_BEGIN
 90
        0
 91
        1
 62
     0
 92
       -2
340
0
 93
        0
 40
0.045
309
GRIDFORMAT_END
 95
        2
302
GRIDFORMAT
  1
GRIDFORMAT_BEGIN
 90
        0
 91
        1
 62
     0
 92
       -2
340
0
 93
        0
 40
0.045
309
GRIDFORMAT_END
 95
        4
302
GRIDFORMAT
  1
GRIDFORMAT_BEGIN
 90
        0
 91
        1
 62
     0
 92
       -2
340
0
 93
        0
 40
0.045
309
GRIDFORMAT_END
 95
        8
302
GRIDFORMAT
  1
GRIDFORMAT_BEGIN
 90
        0
 91
        1
 62
     0
 92
       -2
340
0
 93
        0
 40
0.045
309
GRIDFORMAT_END
 95
       16
302
GRIDFORMAT
  1
GRIDFORMAT_BEGIN
 90
        0
 91
        1
 62
     0
 92
       -2
340
0
 93
        0
 40
0.045
309
GRIDFORMAT_END
 95
       32
302
GRIDFORMAT
  1
GRIDFORMAT_BEGIN
 90
        0
 91
        1
 62
     0
 92
       -2
340
0
 93
        0
 40
0.045
309
GRIDFORMAT_END
309
TABLEFORMAT_END
  1
CELLSTYLE_BEGIN
 90
        3
 91
        2
300
_DATA
309
CELLSTYLE_END
  0
XRECORD
  5
F7C
102
{ACAD_REACTORS
330
A06
102
}
330
A06
100
AcDbXrecord
280
     1
102
ACAD_ROUNDTRIP_PRE2007_TABLESTYLE
 90
      512
 91
        0
  1

 92
      512
 93
        0
  2

 94
      512
 95
        0
  3

  0
XRECORD
  5
F57
102
{ACAD_REACTORS
330
F56
102
}
330
F56
100
AcDbXrecord
280
     1
102
RTVSPropertyOp0
 70
     1
102
RTVSPropertyOp1
 70
     1
102
RTVSPropertyOp2
 70
     1
102
RTVSPropertyOp3
 70
     1
102
RTVSPropertyOp4
 70
     1
102
RTVSPropertyOp5
 70
     1
102
RTVSPropertyOp6
 70
     1
102
RTVSPropertyOp7
 70
     1
102
RTVSPropertyOp8
 70
     1
102
RTVSPropertyOp9
 70
     1
102
RTVSPropertyOp10
 70
     1
102
RTVSPropertyOp11
 70
     1
102
RTVSPropertyOp12
 70
     1
102
RTVSPropertyOp13
 70
     1
102
RTVSPropertyOp14
 70
     1
102
RTVSPropertyOp15
 70
     1
102
RTVSPropertyOp16
 70
     1
102
RTVSPropertyOp17
 70
     1
102
RTVSPropertyOp18
 70
     1
102
RTVSPropertyOp19
 70
     1
102
RTVSPropertyOp20
 70
     1
102
RTVSPropertyOp21
 70
     1
102
RTVSPropertyOp22
 70
     1
102
RTVSPropertyOp23
 70
     1
102
RTVSPropertyOp24
 70
     1
102
RTVSPropertyOp25
 70
     1
102
RTVSPropertyOp26
 70
     1
102
RTVSPropertyOp27
 70
     1
102
RTVSPropertyOp28
 70
     1
102
RTVSPropertyOp29
 70
     1
102
RTVSPropertyOp30
 70
     1
102
RTVSPropertyOp31
 70
     1
102
RTVSPropertyOp32
 70
     1
  0
XRECORD
  5
F82
102
{ACAD_REACTORS
330
F81
102
}
330
F81
100
AcDbXrecord
280
     1
102
RTVSPropertyOp0
 70
     1
102
RTVSPropertyOp1
 70
     1
102
RTVSPropertyOp2
 70
     1
102
RTVSPropertyOp3
 70
     1
102
RTVSPropertyOp4
 70
     1
102
RTVSPropertyOp5
 70
     1
102
RTVSPropertyOp6
 70
     1
102
RTVSPropertyOp7
 70
     1
102
RTVSPropertyOp8
 70
     1
102
RTVSPropertyOp9
 70
     1
102
RTVSPropertyOp10
 70
     1
102
RTVSPropertyOp11
 70
     1
102
RTVSPropertyOp12
 70
     1
102
RTVSPropertyOp13
 70
     1
102
RTVSPropertyOp14
 70
     1
102
RTVSPropertyOp15
 70
     1
102
RTVSPropertyOp16
 70
     1
102
RTVSPropertyOp17
 70
     1
102
RTVSPropertyOp18
 70
     1
102
RTVSPropertyOp19
 70
     1
102
RTVSPropertyOp20
 70
     1
102
RTVSPropertyOp21
 70
     1
102
RTVSPropertyOp22
 70
     1
102
RTVSPropertyOp23
 70
     1
102
RTVSPropertyOp24
 70
     1
102
RTVSPropertyOp25
 70
     1
102
RTVSPropertyOp26
 70
     1
102
RTVSPropertyOp27
 70
     1
102
RTVSPropertyOp28
 70
     1
102
RTVSPropertyOp29
 70
     1
102
RTVSPropertyOp30
 70
     1
102
RTVSPropertyOp31
 70
     1
102
RTVSPropertyOp32
 70
     1
  0
XRECORD
  5
F55
102
{ACAD_REACTORS
330
F54
102
}
330
F54
100
AcDbXrecord
280
     1
102
RTVSPropertyOp0
 70
     1
102
RTVSPropertyOp1
 70
     1
102
RTVSPropertyOp2
 70
     1
102
RTVSPropertyOp3
 70
     1
102
RTVSPropertyOp4
 70
     1
102
RTVSPropertyOp5
 70
     1
102
RTVSPropertyOp6
 70
     1
102
RTVSPropertyOp7
 70
     1
102
RTVSPropertyOp8
 70
     1
102
RTVSPropertyOp9
 70
     1
102
RTVSPropertyOp10
 70
     1
102
RTVSPropertyOp11
 70
     1
102
RTVSPropertyOp12
 70
     1
102
RTVSPropertyOp13
 70
     1
102
RTVSPropertyOp14
 70
     1
102
RTVSPropertyOp15
 70
     1
102
RTVSPropertyOp16
 70
     1
102
RTVSPropertyOp17
 70
     1
102
RTVSPropertyOp18
 70
     1
102
RTVSPropertyOp19
 70
     1
102
RTVSPropertyOp20
 70
     1
102
RTVSPropertyOp21
 70
     1
102
RTVSPropertyOp22
 70
     1
102
RTVSPropertyOp23
 70
     1
102
RTVSPropertyOp24
 70
     1
102
RTVSPropertyOp25
 70
     1
102
RTVSPropertyOp26
 70
     1
102
RTVSPropertyOp27
 70
     1
102
RTVSPropertyOp28
 70
     1
102
RTVSPropertyOp29
 70
     1
102
RTVSPropertyOp30
 70
     1
102
RTVSPropertyOp31
 70
     1
102
RTVSPropertyOp32
 70
     1
  0
XRECORD
  5
F63
102
{ACAD_REACTORS
330
F62
102
}
330
F62
100
AcDbXrecord
280
     1
102
RTVSPropertyOp0
 70
     1
102
RTVSPropertyOp1
 70
     1
102
RTVSPropertyOp2
 70
     1
102
RTVSPropertyOp3
 70
     1
102
RTVSPropertyOp4
 70
     1
102
RTVSPropertyOp5
 70
     1
102
RTVSPropertyOp6
 70
     1
102
RTVSPropertyOp7
 70
     1
102
RTVSPropertyOp8
 70
     1
102
RTVSPropertyOp9
 70
     1
102
RTVSPropertyOp10
 70
     1
102
RTVSPropertyOp11
 70
     1
102
RTVSPropertyOp12
 70
     1
102
RTVSPropertyOp13
 70
     1
102
RTVSPropertyOp14
 70
     1
102
RTVSPropertyOp15
 70
     1
102
RTVSPropertyOp16
 70
     1
102
RTVSPropertyOp17
 70
     1
102
RTVSPropertyOp18
 70
     1
102
RTVSPropertyOp19
 70
     1
102
RTVSPropertyOp20
 70
     1
102
RTVSPropertyOp21
 70
     1
102
RTVSPropertyOp22
 70
     1
102
RTVSPropertyOp23
 70
     1
102
RTVSPropertyOp24
 70
     1
102
RTVSPropertyOp25
 70
     1
102
RTVSPropertyOp26
 70
     1
102
RTVSPropertyOp27
 70
     1
102
RTVSPropertyOp28
 70
     1
102
RTVSPropertyOp29
 70
     1
102
RTVSPropertyOp30
 70
     1
102
RTVSPropertyOp31
 70
     1
102
RTVSPropertyOp32
 70
     1
  0
XRECORD
  5
F6B
102
{ACAD_REACTORS
330
F6A
102
}
330
F6A
100
AcDbXrecord
280
     1
102
RTVSPropertyOp0
 70
     1
102
RTVSPropertyOp1
 70
     1
102
RTVSPropertyOp2
 70
     1
102
RTVSPropertyOp3
 70
     1
102
RTVSPropertyOp4
 70
     1
102
RTVSPropertyOp5
 70
     1
102
RTVSPropertyOp6
 70
     1
102
RTVSPropertyOp7
 70
     1
102
RTVSPropertyOp8
 70
     1
102
RTVSPropertyOp9
 70
     1
102
RTVSPropertyOp10
 70
     1
102
RTVSPropertyOp11
 70
     1
102
RTVSPropertyOp12
 70
     1
102
RTVSPropertyOp13
 70
     1
102
RTVSPropertyOp14
 70
     1
102
RTVSPropertyOp15
 70
     1
102
RTVSPropertyOp16
 70
     1
102
RTVSPropertyOp17
 70
     1
102
RTVSPropertyOp18
 70
     1
102
RTVSPropertyOp19
 70
     1
102
RTVSPropertyOp20
 70
     1
102
RTVSPropertyOp21
 70
     1
102
RTVSPropertyOp22
 70
     1
102
RTVSPropertyOp23
 70
     1
102
RTVSPropertyOp24
 70
     1
102
RTVSPropertyOp25
 70
     1
102
RTVSPropertyOp26
 70
     1
102
RTVSPropertyOp27
 70
     1
102
RTVSPropertyOp28
 70
     1
102
RTVSPropertyOp29
 70
     1
102
RTVSPropertyOp30
 70
     1
102
RTVSPropertyOp31
 70
     1
102
RTVSPropertyOp32
 70
     1
  0
XRECORD
  5
F5D
102
{ACAD_REACTORS
330
F5C
102
}
330
F5C
100
AcDbXrecord
280
     1
102
RTVSPropertyOp0
 70
     1
102
RTVSPropertyOp1
 70
     1
102
RTVSPropertyOp2
 70
     1
102
RTVSPropertyOp3
 70
     1
102
RTVSPropertyOp4
 70
     1
102
RTVSPropertyOp5
 70
     1
102
RTVSPropertyOp6
 70
     1
102
RTVSPropertyOp7
 70
     1
102
RTVSPropertyOp8
 70
     1
102
RTVSPropertyOp9
 70
     1
102
RTVSPropertyOp10
 70
     1
102
RTVSPropertyOp11
 70
     1
102
RTVSPropertyOp12
 70
     1
102
RTVSPropertyOp13
 70
     1
102
RTVSPropertyOp14
 70
     1
102
RTVSPropertyOp15
 70
     1
102
RTVSPropertyOp16
 70
     1
102
RTVSPropertyOp17
 70
     1
102
RTVSPropertyOp18
 70
     1
102
RTVSPropertyOp19
 70
     1
102
RTVSPropertyOp20
 70
     1
102
RTVSPropertyOp21
 70
     1
102
RTVSPropertyOp22
 70
     1
102
RTVSPropertyOp23
 70
     1
102
RTVSPropertyOp24
 70
     1
102
RTVSPropertyOp25
 70
     1
102
RTVSPropertyOp26
 70
     1
102
RTVSPropertyOp27
 70
     1
102
RTVSPropertyOp28
 70
     1
102
RTVSPropertyOp29
 70
     1
102
RTVSPropertyOp30
 70
     1
102
RTVSPropertyOp31
 70
     1
102
RTVSPropertyOp32
 70
     1
  0
XRECORD
  5
F61
102
{ACAD_REACTORS
330
F60
102
}
330
F60
100
AcDbXrecord
280
     1
102
RTVSPropertyOp0
 70
     1
102
RTVSPropertyOp1
 70
     1
102
RTVSPropertyOp2
 70
     1
102
RTVSPropertyOp3
 70
     1
102
RTVSPropertyOp4
 70
     1
102
RTVSPropertyOp5
 70
     1
102
RTVSPropertyOp6
 70
     1
102
RTVSPropertyOp7
 70
     1
102
RTVSPropertyOp8
 70
     1
102
RTVSPropertyOp9
 70
     1
102
RTVSPropertyOp10
 70
     1
102
RTVSPropertyOp11
 70
     1
102
RTVSPropertyOp12
 70
     1
102
RTVSPropertyOp13
 70
     1
102
RTVSPropertyOp14
 70
     1
102
RTVSPropertyOp15
 70
     1
102
RTVSPropertyOp16
 70
     1
102
RTVSPropertyOp17
 70
     1
102
RTVSPropertyOp18
 70
     1
102
RTVSPropertyOp19
 70
     1
102
RTVSPropertyOp20
 70
     1
102
RTVSPropertyOp21
 70
     1
102
RTVSPropertyOp22
 70
     1
102
RTVSPropertyOp23
 70
     1
102
RTVSPropertyOp24
 70
     1
102
RTVSPropertyOp25
 70
     1
102
RTVSPropertyOp26
 70
     1
102
RTVSPropertyOp27
 70
     1
102
RTVSPropertyOp28
 70
     1
102
RTVSPropertyOp29
 70
     1
102
RTVSPropertyOp30
 70
     1
102
RTVSPropertyOp31
 70
     1
102
RTVSPropertyOp32
 70
     1
  0
XRECORD
  5
F7B
102
{ACAD_REACTORS
330
F7A
102
}
330
F7A
100
AcDbXrecord
280
     1
102
RTVSPropertyOp0
 70
     0
102
RTVSPropertyOp1
 70
     0
102
RTVSPropertyOp2
 70
     0
102
RTVSPropertyOp3
 70
     0
102
RTVSPropertyOp4
 70
     0
102
RTVSPropertyOp5
 70
     0
102
RTVSPropertyOp6
 70
     0
102
RTVSPropertyOp7
 70
     0
102
RTVSPropertyOp8
 70
     0
102
RTVSPropertyOp9
 70
     0
102
RTVSPropertyOp10
 70
     0
102
RTVSPropertyOp11
 70
     0
102
RTVSPropertyOp12
 70
     0
102
RTVSPropertyOp13
 70
     0
102
RTVSPropertyOp14
 70
     2
102
RTVSPropertyOp15
 70
     0
102
RTVSPropertyOp16
 70
     0
102
RTVSPropertyOp17
 70
     0
102
RTVSPropertyOp18
 70
     0
102
RTVSPropertyOp19
 70
     0
102
RTVSPropertyOp20
 70
     0
102
RTVSPropertyOp21
 70
     0
102
RTVSPropertyOp22
 70
     0
102
RTVSPropertyOp23
 70
     0
102
RTVSPropertyOp24
 70
     0
102
RTVSPropertyOp25
 70
     0
102
RTVSPropertyOp26
 70
     0
102
RTVSPropertyOp27
 70
     0
102
RTVSPropertyOp28
 70
     0
102
RTVSPropertyOp29
 70
     0
102
RTVSPropertyOp30
 70
     0
102
RTVSPropertyOp31
 70
     0
102
RTVSPropertyOp32
 70
     0
  0
XRECORD
  5
F69
102
{ACAD_REACTORS
330
F68
102
}
330
F68
100
AcDbXrecord
280
     1
102
RTVSPropertyOp0
 70
     1
102
RTVSPropertyOp1
 70
     1
102
RTVSPropertyOp2
 70
     1
102
RTVSPropertyOp3
 70
     1
102
RTVSPropertyOp4
 70
     1
102
RTVSPropertyOp5
 70
     1
102
RTVSPropertyOp6
 70
     1
102
RTVSPropertyOp7
 70
     1
102
RTVSPropertyOp8
 70
     1
102
RTVSPropertyOp9
 70
     1
102
RTVSPropertyOp10
 70
     1
102
RTVSPropertyOp11
 70
     1
102
RTVSPropertyOp12
 70
     1
102
RTVSPropertyOp13
 70
     1
102
RTVSPropertyOp14
 70
     1
102
RTVSPropertyOp15
 70
     1
102
RTVSPropertyOp16
 70
     1
102
RTVSPropertyOp17
 70
     1
102
RTVSPropertyOp18
 70
     1
102
RTVSPropertyOp19
 70
     1
102
RTVSPropertyOp20
 70
     1
102
RTVSPropertyOp21
 70
     1
102
RTVSPropertyOp22
 70
     1
102
RTVSPropertyOp23
 70
     1
102
RTVSPropertyOp24
 70
     1
102
RTVSPropertyOp25
 70
     1
102
RTVSPropertyOp26
 70
     1
102
RTVSPropertyOp27
 70
     1
102
RTVSPropertyOp28
 70
     1
102
RTVSPropertyOp29
 70
     1
102
RTVSPropertyOp30
 70
     1
102
RTVSPropertyOp31
 70
     1
102
RTVSPropertyOp32
 70
     1
  0
XRECORD
  5
F4D
102
{ACAD_REACTORS
330
F4C
102
}
330
F4C
100
AcDbXrecord
280
     1
102
RTVSPropertyOp0
 70
     1
102
RTVSPropertyOp1
 70
     1
102
RTVSPropertyOp2
 70
     1
102
RTVSPropertyOp3
 70
     1
102
RTVSPropertyOp4
 70
     1
102
RTVSPropertyOp5
 70
     1
102
RTVSPropertyOp6
 70
     1
102
RTVSPropertyOp7
 70
     1
102
RTVSPropertyOp8
 70
     1
102
RTVSPropertyOp9
 70
     1
102
RTVSPropertyOp10
 70
     1
102
RTVSPropertyOp11
 70
     1
102
RTVSPropertyOp12
 70
     1
102
RTVSPropertyOp13
 70
     1
102
RTVSPropertyOp14
 70
     1
102
RTVSPropertyOp15
 70
     1
102
RTVSPropertyOp16
 70
     1
102
RTVSPropertyOp17
 70
     1
102
RTVSPropertyOp18
 70
     1
102
RTVSPropertyOp19
 70
     1
102
RTVSPropertyOp20
 70
     1
102
RTVSPropertyOp21
 70
     1
102
RTVSPropertyOp22
 70
     1
102
RTVSPropertyOp23
 70
     1
102
RTVSPropertyOp24
 70
     1
102
RTVSPropertyOp25
 70
     1
102
RTVSPropertyOp26
 70
     1
102
RTVSPropertyOp27
 70
     1
102
RTVSPropertyOp28
 70
     1
102
RTVSPropertyOp29
 70
     1
102
RTVSPropertyOp30
 70
     1
102
RTVSPropertyOp31
 70
     1
102
RTVSPropertyOp32
 70
     1
  0
XRECORD
  5
F4F
102
{ACAD_REACTORS
330
F4E
102
}
330
F4E
100
AcDbXrecord
280
     1
102
RTVSPropertyOp0
 70
     1
102
RTVSPropertyOp1
 70
     1
102
RTVSPropertyOp2
 70
     1
102
RTVSPropertyOp3
 70
     1
102
RTVSPropertyOp4
 70
     1
102
RTVSPropertyOp5
 70
     1
102
RTVSPropertyOp6
 70
     1
102
RTVSPropertyOp7
 70
     1
102
RTVSPropertyOp8
 70
     1
102
RTVSPropertyOp9
 70
     1
102
RTVSPropertyOp10
 70
     1
102
RTVSPropertyOp11
 70
     1
102
RTVSPropertyOp12
 70
     1
102
RTVSPropertyOp13
 70
     1
102
RTVSPropertyOp14
 70
     1
102
RTVSPropertyOp15
 70
     1
102
RTVSPropertyOp16
 70
     1
102
RTVSPropertyOp17
 70
     1
102
RTVSPropertyOp18
 70
     1
102
RTVSPropertyOp19
 70
     1
102
RTVSPropertyOp20
 70
     1
102
RTVSPropertyOp21
 70
     1
102
RTVSPropertyOp22
 70
     1
102
RTVSPropertyOp23
 70
     1
102
RTVSPropertyOp24
 70
     1
102
RTVSPropertyOp25
 70
     1
102
RTVSPropertyOp26
 70
     1
102
RTVSPropertyOp27
 70
     1
102
RTVSPropertyOp28
 70
     1
102
RTVSPropertyOp29
 70
     1
102
RTVSPropertyOp30
 70
     1
102
RTVSPropertyOp31
 70
     1
102
RTVSPropertyOp32
 70
     1
  0
XRECORD
  5
F51
102
{ACAD_REACTORS
330
F50
102
}
330
F50
100
AcDbXrecord
280
     1
102
RTVSPropertyOp0
 70
     1
102
RTVSPropertyOp1
 70
     1
102
RTVSPropertyOp2
 70
     1
102
RTVSPropertyOp3
 70
     1
102
RTVSPropertyOp4
 70
     1
102
RTVSPropertyOp5
 70
     1
102
RTVSPropertyOp6
 70
     1
102
RTVSPropertyOp7
 70
     1
102
RTVSPropertyOp8
 70
     1
102
RTVSPropertyOp9
 70
     1
102
RTVSPropertyOp10
 70
     1
102
RTVSPropertyOp11
 70
     1
102
RTVSPropertyOp12
 70
     1
102
RTVSPropertyOp13
 70
     1
102
RTVSPropertyOp14
 70
     1
102
RTVSPropertyOp15
 70
     1
102
RTVSPropertyOp16
 70
     1
102
RTVSPropertyOp17
 70
     1
102
RTVSPropertyOp18
 70
     1
102
RTVSPropertyOp19
 70
     1
102
RTVSPropertyOp20
 70
     1
102
RTVSPropertyOp21
 70
     1
102
RTVSPropertyOp22
 70
     1
102
RTVSPropertyOp23
 70
     1
102
RTVSPropertyOp24
 70
     1
102
RTVSPropertyOp25
 70
     1
102
RTVSPropertyOp26
 70
     1
102
RTVSPropertyOp27
 70
     1
102
RTVSPropertyOp28
 70
     1
102
RTVSPropertyOp29
 70
     1
102
RTVSPropertyOp30
 70
     1
102
RTVSPropertyOp31
 70
     1
102
RTVSPropertyOp32
 70
     1
  0
XRECORD
  5
F53
102
{ACAD_REACTORS
330
F52
102
}
330
F52
100
AcDbXrecord
280
     1
102
RTVSPropertyOp0
 70
     1
102
RTVSPropertyOp1
 70
     1
102
RTVSPropertyOp2
 70
     1
102
RTVSPropertyOp3
 70
     1
102
RTVSPropertyOp4
 70
     1
102
RTVSPropertyOp5
 70
     1
102
RTVSPropertyOp6
 70
     1
102
RTVSPropertyOp7
 70
     1
102
RTVSPropertyOp8
 70
     1
102
RTVSPropertyOp9
 70
     1
102
RTVSPropertyOp10
 70
     1
102
RTVSPropertyOp11
 70
     1
102
RTVSPropertyOp12
 70
     1
102
RTVSPropertyOp13
 70
     1
102
RTVSPropertyOp14
 70
     1
102
RTVSPropertyOp15
 70
     1
102
RTVSPropertyOp16
 70
     1
102
RTVSPropertyOp17
 70
     1
102
RTVSPropertyOp18
 70
     1
102
RTVSPropertyOp19
 70
     1
102
RTVSPropertyOp20
 70
     1
102
RTVSPropertyOp21
 70
     1
102
RTVSPropertyOp22
 70
     1
102
RTVSPropertyOp23
 70
     1
102
RTVSPropertyOp24
 70
     1
102
RTVSPropertyOp25
 70
     1
102
RTVSPropertyOp26
 70
     1
102
RTVSPropertyOp27
 70
     1
102
RTVSPropertyOp28
 70
     1
102
RTVSPropertyOp29
 70
     1
102
RTVSPropertyOp30
 70
     1
102
RTVSPropertyOp31
 70
     1
102
RTVSPropertyOp32
 70
     1
  0
XRECORD
  5
F5B
102
{ACAD_REACTORS
330
F5A
102
}
330
F5A
100
AcDbXrecord
280
     1
102
RTVSPropertyOp0
 70
     1
102
RTVSPropertyOp1
 70
     1
102
RTVSPropertyOp2
 70
     1
102
RTVSPropertyOp3
 70
     1
102
RTVSPropertyOp4
 70
     1
102
RTVSPropertyOp5
 70
     1
102
RTVSPropertyOp6
 70
     1
102
RTVSPropertyOp7
 70
     1
102
RTVSPropertyOp8
 70
     1
102
RTVSPropertyOp9
 70
     1
102
RTVSPropertyOp10
 70
     1
102
RTVSPropertyOp11
 70
     1
102
RTVSPropertyOp12
 70
     1
102
RTVSPropertyOp13
 70
     1
102
RTVSPropertyOp14
 70
     1
102
RTVSPropertyOp15
 70
     1
102
RTVSPropertyOp16
 70
     1
102
RTVSPropertyOp17
 70
     1
102
RTVSPropertyOp18
 70
     1
102
RTVSPropertyOp19
 70
     1
102
RTVSPropertyOp20
 70
     1
102
RTVSPropertyOp21
 70
     1
102
RTVSPropertyOp22
 70
     1
102
RTVSPropertyOp23
 70
     1
102
RTVSPropertyOp24
 70
     1
102
RTVSPropertyOp25
 70
     1
102
RTVSPropertyOp26
 70
     1
102
RTVSPropertyOp27
 70
     1
102
RTVSPropertyOp28
 70
     1
102
RTVSPropertyOp29
 70
     1
102
RTVSPropertyOp30
 70
     1
102
RTVSPropertyOp31
 70
     1
102
RTVSPropertyOp32
 70
     1
  0
XRECORD
  5
F77
102
{ACAD_REACTORS
330
F76
102
}
330
F76
100
AcDbXrecord
280
     1
102
RTVSPropertyOp0
 70
     0
102
RTVSPropertyOp1
 70
     0
102
RTVSPropertyOp2
 70
     0
102
RTVSPropertyOp3
 70
     0
102
RTVSPropertyOp4
 70
     0
102
RTVSPropertyOp5
 70
     0
102
RTVSPropertyOp6
 70
     0
102
RTVSPropertyOp7
 70
     0
102
RTVSPropertyOp8
 70
     0
102
RTVSPropertyOp9
 70
     0
102
RTVSPropertyOp10
 70
     0
102
RTVSPropertyOp11
 70
     0
102
RTVSPropertyOp12
 70
     0
102
RTVSPropertyOp13
 70
     0
102
RTVSPropertyOp14
 70
     2
102
RTVSPropertyOp15
 70
     0
102
RTVSPropertyOp16
 70
     0
102
RTVSPropertyOp17
 70
     0
102
RTVSPropertyOp18
 70
     0
102
RTVSPropertyOp19
 70
     0
102
RTVSPropertyOp20
 70
     0
102
RTVSPropertyOp21
 70
     0
102
RTVSPropertyOp22
 70
     0
102
RTVSPropertyOp23
 70
     0
102
RTVSPropertyOp24
 70
     0
102
RTVSPropertyOp25
 70
     0
102
RTVSPropertyOp26
 70
     0
102
RTVSPropertyOp27
 70
     0
102
RTVSPropertyOp28
 70
     0
102
RTVSPropertyOp29
 70
     0
102
RTVSPropertyOp30
 70
     0
102
RTVSPropertyOp31
 70
     0
102
RTVSPropertyOp32
 70
     0
  0
XRECORD
  5
F67
102
{ACAD_REACTORS
330
F66
102
}
330
F66
100
AcDbXrecord
280
     1
102
RTVSPropertyOp0
 70
     1
102
RTVSPropertyOp1
 70
     1
102
RTVSPropertyOp2
 70
     1
102
RTVSPropertyOp3
 70
     1
102
RTVSPropertyOp4
 70
     1
102
RTVSPropertyOp5
 70
     1
102
RTVSPropertyOp6
 70
     1
102
RTVSPropertyOp7
 70
     1
102
RTVSPropertyOp8
 70
     1
102
RTVSPropertyOp9
 70
     1
102
RTVSPropertyOp10
 70
     1
102
RTVSPropertyOp11
 70
     1
102
RTVSPropertyOp12
 70
     1
102
RTVSPropertyOp13
 70
     1
102
RTVSPropertyOp14
 70
     1
102
RTVSPropertyOp15
 70
     1
102
RTVSPropertyOp16
 70
     1
102
RTVSPropertyOp17
 70
     1
102
RTVSPropertyOp18
 70
     1
102
RTVSPropertyOp19
 70
     1
102
RTVSPropertyOp20
 70
     1
102
RTVSPropertyOp21
 70
     1
102
RTVSPropertyOp22
 70
     1
102
RTVSPropertyOp23
 70
     1
102
RTVSPropertyOp24
 70
     1
102
RTVSPropertyOp25
 70
     1
102
RTVSPropertyOp26
 70
     1
102
RTVSPropertyOp27
 70
     1
102
RTVSPropertyOp28
 70
     1
102
RTVSPropertyOp29
 70
     1
102
RTVSPropertyOp30
 70
     1
102
RTVSPropertyOp31
 70
     1
102
RTVSPropertyOp32
 70
     1
  0
XRECORD
  5
F79
102
{ACAD_REACTORS
330
F78
102
}
330
F78
100
AcDbXrecord
280
     1
102
RTVSPropertyOp0
 70
     0
102
RTVSPropertyOp1
 70
     0
102
RTVSPropertyOp2
 70
     0
102
RTVSPropertyOp3
 70
     0
102
RTVSPropertyOp4
 70
     0
102
RTVSPropertyOp5
 70
     0
102
RTVSPropertyOp6
 70
     0
102
RTVSPropertyOp7
 70
     0
102
RTVSPropertyOp8
 70
     0
102
RTVSPropertyOp9
 70
     0
102
RTVSPropertyOp10
 70
     0
102
RTVSPropertyOp11
 70
     0
102
RTVSPropertyOp12
 70
     0
102
RTVSPropertyOp13
 70
     0
102
RTVSPropertyOp14
 70
     2
102
RTVSPropertyOp15
 70
     0
102
RTVSPropertyOp16
 70
     0
102
RTVSPropertyOp17
 70
     0
102
RTVSPropertyOp18
 70
     0
102
RTVSPropertyOp19
 70
     0
102
RTVSPropertyOp20
 70
     0
102
RTVSPropertyOp21
 70
     0
102
RTVSPropertyOp22
 70
     0
102
RTVSPropertyOp23
 70
     0
102
RTVSPropertyOp24
 70
     0
102
RTVSPropertyOp25
 70
     0
102
RTVSPropertyOp26
 70
     0
102
RTVSPropertyOp27
 70
     0
102
RTVSPropertyOp28
 70
     0
102
RTVSPropertyOp29
 70
     0
102
RTVSPropertyOp30
 70
     0
102
RTVSPropertyOp31
 70
     0
102
RTVSPropertyOp32
 70
     0
  0
XRECORD
  5
F5F
102
{ACAD_REACTORS
330
F5E
102
}
330
F5E
100
AcDbXrecord
280
     1
102
RTVSPropertyOp0
 70
     1
102
RTVSPropertyOp1
 70
     1
102
RTVSPropertyOp2
 70
     1
102
RTVSPropertyOp3
 70
     1
102
RTVSPropertyOp4
 70
     1
102
RTVSPropertyOp5
 70
     1
102
RTVSPropertyOp6
 70
     1
102
RTVSPropertyOp7
 70
     1
102
RTVSPropertyOp8
 70
     1
102
RTVSPropertyOp9
 70
     1
102
RTVSPropertyOp10
 70
     1
102
RTVSPropertyOp11
 70
     1
102
RTVSPropertyOp12
 70
     1
102
RTVSPropertyOp13
 70
     1
102
RTVSPropertyOp14
 70
     1
102
RTVSPropertyOp15
 70
     1
102
RTVSPropertyOp16
 70
     1
102
RTVSPropertyOp17
 70
     1
102
RTVSPropertyOp18
 70
     1
102
RTVSPropertyOp19
 70
     1
102
RTVSPropertyOp20
 70
     1
102
RTVSPropertyOp21
 70
     1
102
RTVSPropertyOp22
 70
     1
102
RTVSPropertyOp23
 70
     1
102
RTVSPropertyOp24
 70
     1
102
RTVSPropertyOp25
 70
     1
102
RTVSPropertyOp26
 70
     1
102
RTVSPropertyOp27
 70
     1
102
RTVSPropertyOp28
 70
     1
102
RTVSPropertyOp29
 70
     1
102
RTVSPropertyOp30
 70
     1
102
RTVSPropertyOp31
 70
     1
102
RTVSPropertyOp32
 70
     1
  0
XRECORD
  5
F75
102
{ACAD_REACTORS
330
F74
102
}
330
F74
100
AcDbXrecord
280
     1
102
RTVSPropertyOp0
 70
     1
102
RTVSPropertyOp1
 70
     1
102
RTVSPropertyOp2
 70
     1
102
RTVSPropertyOp3
 70
     1
102
RTVSPropertyOp4
 70
     1
102
RTVSPropertyOp5
 70
     1
102
RTVSPropertyOp6
 70
     1
102
RTVSPropertyOp7
 70
     1
102
RTVSPropertyOp8
 70
     1
102
RTVSPropertyOp9
 70
     1
102
RTVSPropertyOp10
 70
     1
102
RTVSPropertyOp11
 70
     1
102
RTVSPropertyOp12
 70
     1
102
RTVSPropertyOp13
 70
     1
102
RTVSPropertyOp14
 70
     1
102
RTVSPropertyOp15
 70
     1
102
RTVSPropertyOp16
 70
     1
102
RTVSPropertyOp17
 70
     1
102
RTVSPropertyOp18
 70
     1
102
RTVSPropertyOp19
 70
     1
102
RTVSPropertyOp20
 70
     1
102
RTVSPropertyOp21
 70
     1
102
RTVSPropertyOp22
 70
     1
102
RTVSPropertyOp23
 70
     1
102
RTVSPropertyOp24
 70
     1
102
RTVSPropertyOp25
 70
     1
102
RTVSPropertyOp26
 70
     1
102
RTVSPropertyOp27
 70
     1
102
RTVSPropertyOp28
 70
     1
102
RTVSPropertyOp29
 70
     1
102
RTVSPropertyOp30
 70
     1
102
RTVSPropertyOp31
 70
     1
102
RTVSPropertyOp32
 70
     1
  0
XRECORD
  5
F73
102
{ACAD_REACTORS
330
F72
102
}
330
F72
100
AcDbXrecord
280
     1
102
RTVSPropertyOp0
 70
     1
102
RTVSPropertyOp1
 70
     1
102
RTVSPropertyOp2
 70
     1
102
RTVSPropertyOp3
 70
     1
102
RTVSPropertyOp4
 70
     1
102
RTVSPropertyOp5
 70
     1
102
RTVSPropertyOp6
 70
     1
102
RTVSPropertyOp7
 70
     1
102
RTVSPropertyOp8
 70
     1
102
RTVSPropertyOp9
 70
     1
102
RTVSPropertyOp10
 70
     1
102
RTVSPropertyOp11
 70
     1
102
RTVSPropertyOp12
 70
     1
102
RTVSPropertyOp13
 70
     1
102
RTVSPropertyOp14
 70
     1
102
RTVSPropertyOp15
 70
     1
102
RTVSPropertyOp16
 70
     1
102
RTVSPropertyOp17
 70
     1
102
RTVSPropertyOp18
 70
     1
102
RTVSPropertyOp19
 70
     1
102
RTVSPropertyOp20
 70
     1
102
RTVSPropertyOp21
 70
     1
102
RTVSPropertyOp22
 70
     1
102
RTVSPropertyOp23
 70
     1
102
RTVSPropertyOp24
 70
     1
102
RTVSPropertyOp25
 70
     1
102
RTVSPropertyOp26
 70
     1
102
RTVSPropertyOp27
 70
     1
102
RTVSPropertyOp28
 70
     1
102
RTVSPropertyOp29
 70
     1
102
RTVSPropertyOp30
 70
     1
102
RTVSPropertyOp31
 70
     1
102
RTVSPropertyOp32
 70
     1
  0
XRECORD
  5
F6D
102
{ACAD_REACTORS
330
F6C
102
}
330
F6C
100
AcDbXrecord
280
     1
102
RTVSPropertyOp0
 70
     1
102
RTVSPropertyOp1
 70
     1
102
RTVSPropertyOp2
 70
     1
102
RTVSPropertyOp3
 70
     1
102
RTVSPropertyOp4
 70
     1
102
RTVSPropertyOp5
 70
     1
102
RTVSPropertyOp6
 70
     1
102
RTVSPropertyOp7
 70
     1
102
RTVSPropertyOp8
 70
     1
102
RTVSPropertyOp9
 70
     1
102
RTVSPropertyOp10
 70
     1
102
RTVSPropertyOp11
 70
     1
102
RTVSPropertyOp12
 70
     1
102
RTVSPropertyOp13
 70
     1
102
RTVSPropertyOp14
 70
     1
102
RTVSPropertyOp15
 70
     1
102
RTVSPropertyOp16
 70
     1
102
RTVSPropertyOp17
 70
     1
102
RTVSPropertyOp18
 70
     1
102
RTVSPropertyOp19
 70
     1
102
RTVSPropertyOp20
 70
     1
102
RTVSPropertyOp21
 70
     1
102
RTVSPropertyOp22
 70
     1
102
RTVSPropertyOp23
 70
     1
102
RTVSPropertyOp24
 70
     1
102
RTVSPropertyOp25
 70
     1
102
RTVSPropertyOp26
 70
     1
102
RTVSPropertyOp27
 70
     1
102
RTVSPropertyOp28
 70
     1
102
RTVSPropertyOp29
 70
     1
102
RTVSPropertyOp30
 70
     1
102
RTVSPropertyOp31
 70
     1
102
RTVSPropertyOp32
 70
     1
  0
XRECORD
  5
F6F
102
{ACAD_REACTORS
330
F6E
102
}
330
F6E
100
AcDbXrecord
280
     1
102
RTVSPropertyOp0
 70
     1
102
RTVSPropertyOp1
 70
     1
102
RTVSPropertyOp2
 70
     1
102
RTVSPropertyOp3
 70
     1
102
RTVSPropertyOp4
 70
     1
102
RTVSPropertyOp5
 70
     1
102
RTVSPropertyOp6
 70
     1
102
RTVSPropertyOp7
 70
     1
102
RTVSPropertyOp8
 70
     1
102
RTVSPropertyOp9
 70
     1
102
RTVSPropertyOp10
 70
     1
102
RTVSPropertyOp11
 70
     1
102
RTVSPropertyOp12
 70
     1
102
RTVSPropertyOp13
 70
     1
102
RTVSPropertyOp14
 70
     1
102
RTVSPropertyOp15
 70
     1
102
RTVSPropertyOp16
 70
     1
102
RTVSPropertyOp17
 70
     1
102
RTVSPropertyOp18
 70
     1
102
RTVSPropertyOp19
 70
     1
102
RTVSPropertyOp20
 70
     1
102
RTVSPropertyOp21
 70
     1
102
RTVSPropertyOp22
 70
     1
102
RTVSPropertyOp23
 70
     1
102
RTVSPropertyOp24
 70
     1
102
RTVSPropertyOp25
 70
     1
102
RTVSPropertyOp26
 70
     1
102
RTVSPropertyOp27
 70
     1
102
RTVSPropertyOp28
 70
     1
102
RTVSPropertyOp29
 70
     1
102
RTVSPropertyOp30
 70
     1
102
RTVSPropertyOp31
 70
     1
102
RTVSPropertyOp32
 70
     1
  0
XRECORD
  5
F65
102
{ACAD_REACTORS
330
F64
102
}
330
F64
100
AcDbXrecord
280
     1
102
RTVSPropertyOp0
 70
     1
102
RTVSPropertyOp1
 70
     1
102
RTVSPropertyOp2
 70
     1
102
RTVSPropertyOp3
 70
     1
102
RTVSPropertyOp4
 70
     1
102
RTVSPropertyOp5
 70
     1
102
RTVSPropertyOp6
 70
     1
102
RTVSPropertyOp7
 70
     1
102
RTVSPropertyOp8
 70
     1
102
RTVSPropertyOp9
 70
     1
102
RTVSPropertyOp10
 70
     1
102
RTVSPropertyOp11
 70
     1
102
RTVSPropertyOp12
 70
     1
102
RTVSPropertyOp13
 70
     1
102
RTVSPropertyOp14
 70
     1
102
RTVSPropertyOp15
 70
     1
102
RTVSPropertyOp16
 70
     1
102
RTVSPropertyOp17
 70
     1
102
RTVSPropertyOp18
 70
     1
102
RTVSPropertyOp19
 70
     1
102
RTVSPropertyOp20
 70
     1
102
RTVSPropertyOp21
 70
     1
102
RTVSPropertyOp22
 70
     1
102
RTVSPropertyOp23
 70
     1
102
RTVSPropertyOp24
 70
     1
102
RTVSPropertyOp25
 70
     1
102
RTVSPropertyOp26
 70
     1
102
RTVSPropertyOp27
 70
     1
102
RTVSPropertyOp28
 70
     1
102
RTVSPropertyOp29
 70
     1
102
RTVSPropertyOp30
 70
     1
102
RTVSPropertyOp31
 70
     1
102
RTVSPropertyOp32
 70
     1
  0
XRECORD
  5
F59
102
{ACAD_REACTORS
330
F58
102
}
330
F58
100
AcDbXrecord
280
     1
102
RTVSPropertyOp0
 70
     1
102
RTVSPropertyOp1
 70
     1
102
RTVSPropertyOp2
 70
     1
102
RTVSPropertyOp3
 70
     1
102
RTVSPropertyOp4
 70
     1
102
RTVSPropertyOp5
 70
     1
102
RTVSPropertyOp6
 70
     1
102
RTVSPropertyOp7
 70
     1
102
RTVSPropertyOp8
 70
     1
102
RTVSPropertyOp9
 70
     1
102
RTVSPropertyOp10
 70
     1
102
RTVSPropertyOp11
 70
     1
102
RTVSPropertyOp12
 70
     1
102
RTVSPropertyOp13
 70
     1
102
RTVSPropertyOp14
 70
     1
102
RTVSPropertyOp15
 70
     1
102
RTVSPropertyOp16
 70
     1
102
RTVSPropertyOp17
 70
     1
102
RTVSPropertyOp18
 70
     1
102
RTVSPropertyOp19
 70
     1
102
RTVSPropertyOp20
 70
     1
102
RTVSPropertyOp21
 70
     1
102
RTVSPropertyOp22
 70
     1
102
RTVSPropertyOp23
 70
     1
102
RTVSPropertyOp24
 70
     1
102
RTVSPropertyOp25
 70
     1
102
RTVSPropertyOp26
 70
     1
102
RTVSPropertyOp27
 70
     1
102
RTVSPropertyOp28
 70
     1
102
RTVSPropertyOp29
 70
     1
102
RTVSPropertyOp30
 70
     1
102
RTVSPropertyOp31
 70
     1
102
RTVSPropertyOp32
 70
     1
  0
XRECORD
  5
F71
102
{ACAD_REACTORS
330
F70
102
}
330
F70
100
AcDbXrecord
280
     1
102
RTVSPropertyOp0
 70
     1
102
RTVSPropertyOp1
 70
     1
102
RTVSPropertyOp2
 70
     1
102
RTVSPropertyOp3
 70
     1
102
RTVSPropertyOp4
 70
     1
102
RTVSPropertyOp5
 70
     1
102
RTVSPropertyOp6
 70
     1
102
RTVSPropertyOp7
 70
     1
102
RTVSPropertyOp8
 70
     1
102
RTVSPropertyOp9
 70
     1
102
RTVSPropertyOp10
 70
     1
102
RTVSPropertyOp11
 70
     1
102
RTVSPropertyOp12
 70
     1
102
RTVSPropertyOp13
 70
     1
102
RTVSPropertyOp14
 70
     1
102
RTVSPropertyOp15
 70
     1
102
RTVSPropertyOp16
 70
     1
102
RTVSPropertyOp17
 70
     1
102
RTVSPropertyOp18
 70
     1
102
RTVSPropertyOp19
 70
     1
102
RTVSPropertyOp20
 70
     1
102
RTVSPropertyOp21
 70
     1
102
RTVSPropertyOp22
 70
     1
102
RTVSPropertyOp23
 70
     1
102
RTVSPropertyOp24
 70
     1
102
RTVSPropertyOp25
 70
     1
102
RTVSPropertyOp26
 70
     1
102
RTVSPropertyOp27
 70
     1
102
RTVSPropertyOp28
 70
     1
102
RTVSPropertyOp29
 70
     1
102
RTVSPropertyOp30
 70
     1
102
RTVSPropertyOp31
 70
     1
102
RTVSPropertyOp32
 70
     1
  0
ENDSEC
  0
EOF
