  0
SECTION
  2
HEADER
  9
$ACADVER
  1
AC1015
  9
$ACADMAINTVER
 70
    20
  9
$DWGCODEPAGE
  3
ANSI_932
  9
$INSBASE
 10
0.0
 20
0.0
 30
0.0
  9
$EXTMIN
 10
1391.858689534726
 20
62.53897542083835
 30
0.0
  9
$EXTMAX
 10
1583.858689534725
 20
343.6611041508384
 30
0.0
  9
$LIMMIN
 10
0.0
 20
0.0
  9
$LIMMAX
 10
12.0
 20
9.0
  9
$ORTHOMODE
 70
     1
  9
$REGENMODE
 70
     1
  9
$FILLMODE
 70
     1
  9
$QTEXTMODE
 70
     0
  9
$MIRRTEXT
 70
     0
  9
$LTSCALE
 40
1.0
  9
$ATTMODE
 70
     1
  9
$TEXTSIZE
 40
3.2
  9
$TRACEWID
 40
0.05
  9
$TEXTSTYLE
  7
高3.2
  9
$CLAYER
  8
0
  9
$CELTYPE
  6
ByLayer
  9
$CECOLOR
 62
   256
  9
$CELTSCALE
 40
1.0
  9
$DISPSILH
 70
     0
  9
$DIMSCALE
 40
1.0
  9
$DIMASZ
 40
2.5
  9
$DIMEXO
 40
0.25
  9
$DIMDLI
 40
0.2
  9
$DIMRND
 40
0.0
  9
$DIMDLE
 40
0.0
  9
$DIMEXE
 40
1.25
  9
$DIMTP
 40
0.0
  9
$DIMTM
 40
0.0
  9
$DIMTXT
 40
3.0
  9
$DIMCEN
 40
0.0
  9
$DIMTSZ
 40
0.0
  9
$DIMTOL
 70
     0
  9
$DIMLIM
 70
     0
  9
$DIMTIH
 70
     0
  9
$DIMTOH
 70
     0
  9
$DIMSE1
 70
     0
  9
$DIMSE2
 70
     0
  9
$DIMTAD
 70
     3
  9
$DIMZIN
 70
     8
  9
$DIMBLK
  1
Open30
  9
$DIMASO
 70
     1
  9
$DIMSHO
 70
     1
  9
$DIMPOST
  1

  9
$DIMAPOST
  1

  9
$DIMALT
 70
     0
  9
$DIMALTD
 70
     3
  9
$DIMALTF
 40
0.03937007874016
  9
$DIMLFAC
 40
2.0
  9
$DIMTOFL
 70
     1
  9
$DIMTVP
 40
0.0
  9
$DIMTIX
 70
     0
  9
$DIMSOXD
 70
     0
  9
$DIMSAH
 70
     0
  9
$DIMBLK1
  1

  9
$DIMBLK2
  1

  9
$DIMSTYLE
  2
1／2
  9
$DIMCLRD
 70
     0
  9
$DIMCLRE
 70
     0
  9
$DIMCLRT
 70
     4
  9
$DIMTFAC
 40
1.0
  9
$DIMGAP
 40
0.625
  9
$DIMJUST
 70
     0
  9
$DIMSD1
 70
     0
  9
$DIMSD2
 70
     0
  9
$DIMTOLJ
 70
     0
  9
$DIMTZIN
 70
     8
  9
$DIMALTZ
 70
     0
  9
$DIMALTTZ
 70
     0
  9
$DIMUPT
 70
     1
  9
$DIMDEC
 70
     2
  9
$DIMTDEC
 70
     2
  9
$DIMALTU
 70
     2
  9
$DIMALTTD
 70
     3
  9
$DIMTXSTY
  7
Standard
  9
$DIMAUNIT
 70
     0
  9
$DIMADEC
 70
     1
  9
$DIMALTRND
 40
0.0
  9
$DIMAZIN
 70
     2
  9
$DIMDSEP
 70
    46
  9
$DIMATFIT
 70
     0
  9
$DIMFRAC
 70
     0
  9
$DIMLDRBLK
  1
Open30
  9
$DIMLUNIT
 70
     2
  9
$DIMLWD
 70
    -2
  9
$DIMLWE
 70
    -2
  9
$DIMTMOVE
 70
     0
  9
$LUNITS
 70
     2
  9
$LUPREC
 70
     4
  9
$SKETCHINC
 40
0.1
  9
$FILLETRAD
 40
0.0
  9
$AUNITS
 70
     0
  9
$AUPREC
 70
     0
  9
$MENU
  1
.
  9
$ELEVATION
 40
0.0
  9
$PELEVATION
 40
0.0
  9
$THICKNESS
 40
0.0
  9
$LIMCHECK
 70
     0
  9
$CHAMFERA
 40
0.0
  9
$CHAMFERB
 40
0.0
  9
$CHAMFERC
 40
0.0
  9
$CHAMFERD
 40
0.0
  9
$SKPOLY
 70
     0
  9
$TDCREATE
 40
2456609.477394861
  9
$TDUCREATE
 40
2456609.102394861
  9
$TDUPDATE
 40
2456870.420050475
  9
$TDUUPDATE
 40
2456870.045050474
  9
$TDINDWG
 40
0.1230720833
  9
$TDUSRTIMER
 40
0.1230718981
  9
$USRTIMER
 70
     1
  9
$ANGBASE
 50
0.0
  9
$ANGDIR
 70
     0
  9
$PDMODE
 70
     0
  9
$PDSIZE
 40
0.0
  9
$PLINEWID
 40
0.0
  9
$SPLFRAME
 70
     0
  9
$SPLINETYPE
 70
     6
  9
$SPLINESEGS
 70
     8
  9
$HANDSEED
  5
137B
  9
$SURFTAB1
 70
     6
  9
$SURFTAB2
 70
     6
  9
$SURFTYPE
 70
     6
  9
$SURFU
 70
     6
  9
$SURFV
 70
     6
  9
$UCSBASE
  2

  9
$UCSNAME
  2

  9
$UCSORG
 10
0.0
 20
0.0
 30
0.0
  9
$UCSXDIR
 10
1.0
 20
0.0
 30
0.0
  9
$UCSYDIR
 10
0.0
 20
1.0
 30
0.0
  9
$UCSORTHOREF
  2

  9
$UCSORTHOVIEW
 70
     0
  9
$UCSORGTOP
 10
0.0
 20
0.0
 30
0.0
  9
$UCSORGBOTTOM
 10
0.0
 20
0.0
 30
0.0
  9
$UCSORGLEFT
 10
0.0
 20
0.0
 30
0.0
  9
$UCSORGRIGHT
 10
0.0
 20
0.0
 30
0.0
  9
$UCSORGFRONT
 10
0.0
 20
0.0
 30
0.0
  9
$UCSORGBACK
 10
0.0
 20
0.0
 30
0.0
  9
$PUCSBASE
  2

  9
$PUCSNAME
  2

  9
$PUCSORG
 10
0.0
 20
0.0
 30
0.0
  9
$PUCSXDIR
 10
1.0
 20
0.0
 30
0.0
  9
$PUCSYDIR
 10
0.0
 20
1.0
 30
0.0
  9
$PUCSORTHOREF
  2

  9
$PUCSORTHOVIEW
 70
     0
  9
$PUCSORGTOP
 10
0.0
 20
0.0
 30
0.0
  9
$PUCSORGBOTTOM
 10
0.0
 20
0.0
 30
0.0
  9
$PUCSORGLEFT
 10
0.0
 20
0.0
 30
0.0
  9
$PUCSORGRIGHT
 10
0.0
 20
0.0
 30
0.0
  9
$PUCSORGFRONT
 10
0.0
 20
0.0
 30
0.0
  9
$PUCSORGBACK
 10
0.0
 20
0.0
 30
0.0
  9
$USERI1
 70
     0
  9
$USERI2
 70
     0
  9
$USERI3
 70
     0
  9
$USERI4
 70
     0
  9
$USERI5
 70
     0
  9
$USERR1
 40
0.0
  9
$USERR2
 40
0.0
  9
$USERR3
 40
0.0
  9
$USERR4
 40
0.0
  9
$USERR5
 40
0.0
  9
$WORLDVIEW
 70
     1
  9
$SHADEDGE
 70
     3
  9
$SHADEDIF
 70
    70
  9
$TILEMODE
 70
     1
  9
$MAXACTVP
 70
    64
  9
$PINSBASE
 10
0.0
 20
0.0
 30
0.0
  9
$PLIMCHECK
 70
     0
  9
$PEXTMIN
 10
0.0
 20
0.0
 30
0.0
  9
$PEXTMAX
 10
0.0
 20
0.0
 30
0.0
  9
$PLIMMIN
 10
0.0
 20
0.0
  9
$PLIMMAX
 10
12.0
 20
9.0
  9
$UNITMODE
 70
     0
  9
$VISRETAIN
 70
     1
  9
$PLINEGEN
 70
     0
  9
$PSLTSCALE
 70
     1
  9
$TREEDEPTH
 70
  3020
  9
$CMLSTYLE
  2
Standard
  9
$CMLJUST
 70
     0
  9
$CMLSCALE
 40
1.0
  9
$PROXYGRAPHICS
 70
     1
  9
$MEASUREMENT
 70
     1
  9
$CELWEIGHT
370
    -1
  9
$ENDCAPS
280
     0
  9
$JOINSTYLE
280
     0
  9
$LWDISPLAY
290
     0
  9
$INSUNITS
 70
     1
  9
$HYPERLINKBASE
  1

  9
$STYLESHEET
  1

  9
$XEDIT
290
     1
  9
$CEPSNTYPE
380
     0
  9
$PSTYLEMODE
290
     1
  9
$FINGERPRINTGUID
  2
{F3A692B7-43CB-4427-9475-26C4C1C0F657}
  9
$VERSIONGUID
  2
{FE39A218-D787-48FE-B9A6-60446B3B1B17}
  9
$EXTNAMES
290
     1
  9
$PSVPSCALE
 40
0.0
  9
$OLESTARTUP
290
     0
  0
ENDSEC
  0
SECTION
  2
CLASSES
  0
CLASS
  1
ACDBDICTIONARYWDFLT
  2
AcDbDictionaryWithDefault
  3
ObjectDBX Classes
 90
        0
280
     0
281
     0
  0
CLASS
  1
ACDBPLACEHOLDER
  2
AcDbPlaceHolder
  3
ObjectDBX Classes
 90
        0
280
     0
281
     0
  0
CLASS
  1
LAYOUT
  2
AcDbLayout
  3
ObjectDBX Classes
 90
        0
280
     0
281
     0
  0
CLASS
  1
DICTIONARYVAR
  2
AcDbDictionaryVar
  3
ObjectDBX Classes
 90
        0
280
     0
281
     0
  0
CLASS
  1
TABLESTYLE
  2
AcDbTableStyle
  3
ObjectDBX Classes
 90
     4095
280
     0
281
     0
  0
CLASS
  1
MATERIAL
  2
AcDbMaterial
  3
ObjectDBX Classes
 90
     1153
280
     0
281
     0
  0
CLASS
  1
VISUALSTYLE
  2
AcDbVisualStyle
  3
ObjectDBX Classes
 90
     4095
280
     0
281
     0
  0
CLASS
  1
SORTENTSTABLE
  2
AcDbSortentsTable
  3
ObjectDBX Classes
 90
        0
280
     0
281
     0
  0
CLASS
  1
DIMASSOC
  2
AcDbDimAssoc
  3
"AcDbDimAssoc|Product Desc:     AcDim ARX App For Dimension|Company:          Autodesk, Inc.|WEB Address:      www.autodesk.com"
 90
        0
280
     0
281
     0
  0
CLASS
  1
SCALE
  2
AcDbScale
  3
ObjectDBX Classes
 90
     1153
280
     0
281
     0
  0
CLASS
  1
MLEADERSTYLE
  2
AcDbMLeaderStyle
  3
ACDB_MLEADERSTYLE_CLASS
 90
     4095
280
     0
281
     0
  0
CLASS
  1
CELLSTYLEMAP
  2
AcDbCellStyleMap
  3
ObjectDBX Classes
 90
     1152
280
     0
281
     0
  0
ENDSEC
  0
SECTION
  2
TABLES
  0
TABLE
  2
VPORT
  5
8
330
0
100
AcDbSymbolTable
 70
     1
  0
VPORT
  5
94
330
8
100
AcDbSymbolTableRecord
100
AcDbViewportTableRecord
  2
*Active
 70
     0
 10
0.0
 20
0.0
 11
1.0
 21
1.0
 12
1529.256397007657
 22
170.8852888620508
 13
0.0
 23
0.0
 14
0.5
 24
0.5
 15
0.5
 25
0.5
 16
0.0
 26
0.0
 36
1.0
 17
0.0
 27
0.0
 37
0.0
 40
739.413271729544
 41
1.68673050615595
 42
50.0
 43
0.0
 44
0.0
 50
0.0
 51
0.0
 71
     0
 72
  1000
 73
     1
 74
     2
 75
     0
 76
     0
 77
     0
 78
     0
281
     0
 65
     1
110
0.0
120
0.0
130
0.0
111
1.0
121
0.0
131
0.0
112
0.0
122
1.0
132
0.0
 79
     0
146
0.0
  0
ENDTAB
  0
TABLE
  2
LTYPE
  5
5
330
0
100
AcDbSymbolTable
 70
     1
  0
LTYPE
  5
14
330
5
100
AcDbSymbolTableRecord
100
AcDbLinetypeTableRecord
  2
ByBlock
 70
     0
  3

 72
    65
 73
     0
 40
0.0
  0
LTYPE
  5
15
330
5
100
AcDbSymbolTableRecord
100
AcDbLinetypeTableRecord
  2
ByLayer
 70
     0
  3

 72
    65
 73
     0
 40
0.0
  0
LTYPE
  5
16
330
5
100
AcDbSymbolTableRecord
100
AcDbLinetypeTableRecord
  2
Continuous
 70
     0
  3
Solid line
 72
    65
 73
     0
 40
0.0
  0
ENDTAB
  0
TABLE
  2
LAYER
  5
2
102
{ACAD_XDICTIONARY
360
DD
102
}
330
0
100
AcDbSymbolTable
 70
     2
  0
LAYER
  5
10
102
{ACAD_XDICTIONARY
360
8E9
102
}
330
2
100
AcDbSymbolTableRecord
100
AcDbLayerTableRecord
  2
0
 70
     0
 62
     7
  6
Continuous
370
    -3
390
F
  0
LAYER
  5
D8
330
2
100
AcDbSymbolTableRecord
100
AcDbLayerTableRecord
  2
Defpoints
 70
     0
 62
     7
  6
Continuous
290
     0
370
    -3
390
F
  0
ENDTAB
  0
TABLE
  2
STYLE
  5
3
330
0
100
AcDbSymbolTable
 70
     6
  0
STYLE
  5
11
330
3
100
AcDbSymbolTableRecord
100
AcDbTextStyleTableRecord
  2
Standard
 70
     0
 40
0.0
 41
1.0
 50
0.0
 71
     0
 42
0.2
  3
txt.shx
  4
bigfont.shx
  0
STYLE
  5
11D
330
3
100
AcDbSymbolTableRecord
100
AcDbTextStyleTableRecord
  2
高3.2
 70
     0
 40
3.2
 41
1.0
 50
0.0
 71
     0
 42
3.2
  3
txt.shx
  4
bigfont.shx
  0
STYLE
  5
11E
330
3
100
AcDbSymbolTableRecord
100
AcDbTextStyleTableRecord
  2
高6.3
 70
     0
 40
6.299999999999998
 41
1.0
 50
0.0
 71
     0
 42
6.299999999999998
  3
txt.shx
  4
bigfont.shx
  0
STYLE
  5
11F
330
3
100
AcDbSymbolTableRecord
100
AcDbTextStyleTableRecord
  2
高2.5
 70
     0
 40
2.5
 41
1.0
 50
0.0
 71
     0
 42
0.2
  3
txt.shx
  4
bigfont.shx
  0
STYLE
  5
146
330
3
100
AcDbSymbolTableRecord
100
AcDbTextStyleTableRecord
  2
高4.5
 70
     0
 40
4.5
 41
1.0
 50
0.0
 71
     0
 42
6.299999999999998
  3
txt.shx
  4
bigfont.shx
  0
STYLE
  5
171
330
3
100
AcDbSymbolTableRecord
100
AcDbTextStyleTableRecord
  2
高2
 70
     0
 40
2.0
 41
1.0
 50
0.0
 71
     0
 42
6.299999999999998
  3
txt.shx
  4
bigfont.shx
  0
ENDTAB
  0
TABLE
  2
VIEW
  5
6
330
0
100
AcDbSymbolTable
 70
     0
  0
ENDTAB
  0
TABLE
  2
UCS
  5
7
330
0
100
AcDbSymbolTable
 70
     0
  0
ENDTAB
  0
TABLE
  2
APPID
  5
9
330
0
100
AcDbSymbolTable
 70
    11
  0
APPID
  5
12
330
9
100
AcDbSymbolTableRecord
100
AcDbRegAppTableRecord
  2
ACAD
 70
     0
  0
APPID
  5
DC
330
9
100
AcDbSymbolTableRecord
100
AcDbRegAppTableRecord
  2
ACAD_DSTYLE_DIMJOGGED_JOGANGLE_SYMBOL
 70
     0
  0
APPID
  5
3A5
330
9
100
AcDbSymbolTableRecord
100
AcDbRegAppTableRecord
  2
ACAD_EXEMPT_FROM_CAD_STANDARDS
 70
     0
  0
APPID
  5
70D
330
9
100
AcDbSymbolTableRecord
100
AcDbRegAppTableRecord
  2
ACAD_DSTYLE_DIMJAG
 70
     0
  0
APPID
  5
70E
330
9
100
AcDbSymbolTableRecord
100
AcDbRegAppTableRecord
  2
ACAD_DSTYLE_DIMBREAK
 70
     0
  0
APPID
  5
70F
330
9
100
AcDbSymbolTableRecord
100
AcDbRegAppTableRecord
  2
ACAD_DSTYLE_DIMTALN
 70
     0
  0
APPID
  5
D69
330
9
100
AcDbSymbolTableRecord
100
AcDbRegAppTableRecord
  2
GradientColor1ACI
 70
     0
  0
APPID
  5
D6A
330
9
100
AcDbSymbolTableRecord
100
AcDbRegAppTableRecord
  2
GradientColor2ACI
 70
     0
  0
APPID
  5
1040
330
9
100
AcDbSymbolTableRecord
100
AcDbRegAppTableRecord
  2
ACAD_DSTYLE_DIMARC_LENGTH_SYMBOL
 70
     0
  0
APPID
  5
1041
330
9
100
AcDbSymbolTableRecord
100
AcDbRegAppTableRecord
  2
ACAD_DSTYLE_DIMEXT_LENGTH
 70
     0
  0
APPID
  5
1056
330
9
100
AcDbSymbolTableRecord
100
AcDbRegAppTableRecord
  2
ACAD_MLEADERVER
 70
     0
  0
ENDTAB
  0
TABLE
  2
DIMSTYLE
  5
A
330
0
100
AcDbSymbolTable
 70
     2
100
AcDbDimStyleTable
 71
     2
340
128
340
D9
  0
DIMSTYLE
105
D9
330
A
100
AcDbSymbolTableRecord
100
AcDbDimStyleTableRecord
  2
1：1
 70
     0
 41
2.5
 42
0.25
 43
0.2
 44
1.25
 73
     0
 74
     0
 77
     3
 78
     8
 79
     2
140
3.0
141
0.0
143
0.03937007874016
147
0.625
171
     3
172
     1
178
     4
179
     1
271
     2
272
     2
274
     3
283
     0
284
     8
288
     1
289
     0
340
11
341
C6
342
C6
1001
ACAD_DSTYLE_DIMARC_LENGTH_SYMBOL
1070
   379
1070
     2
1001
ACAD_DSTYLE_DIMEXT_LENGTH
1070
   378
1040
1.25
1001
ACAD_DSTYLE_DIMJOGGED_JOGANGLE_SYMBOL
1070
   384
1040
1.570796326794896
  0
DIMSTYLE
105
128
330
A
100
AcDbSymbolTableRecord
100
AcDbDimStyleTableRecord
  2
1／2
 70
     0
 41
2.5
 42
0.25
 43
0.2
 44
1.25
 73
     0
 74
     0
 77
     3
 78
     8
 79
     2
140
3.0
141
0.0
143
0.03937007874016
144
2.0
147
0.625
171
     3
172
     1
178
     4
179
     1
271
     2
272
     2
274
     3
283
     0
284
     8
288
     1
289
     0
340
11
341
C6
342
C6
1001
ACAD_DSTYLE_DIMARC_LENGTH_SYMBOL
1070
   379
1070
     2
1001
ACAD_DSTYLE_DIMEXT_LENGTH
1070
   378
1040
1.25
1001
ACAD_DSTYLE_DIMJOGGED_JOGANGLE_SYMBOL
1070
   384
1040
1.570796326794896
  0
ENDTAB
  0
TABLE
  2
BLOCK_RECORD
  5
1
330
0
100
AcDbSymbolTable
 70
     6
  0
BLOCK_RECORD
  5
1F
102
{ACAD_XDICTIONARY
360
324
102
}
330
1
100
AcDbSymbolTableRecord
100
AcDbBlockTableRecord
  2
*Model_Space
340
22
  0
BLOCK_RECORD
  5
58
330
1
100
AcDbSymbolTableRecord
100
AcDbBlockTableRecord
  2
*Paper_Space
340
59
  0
BLOCK_RECORD
  5
5D
330
1
100
AcDbSymbolTableRecord
100
AcDbBlockTableRecord
  2
*Paper_Space0
340
5E
  0
BLOCK_RECORD
  5
C6
330
1
100
AcDbSymbolTableRecord
100
AcDbBlockTableRecord
  2
_Open30
340
0
102
{BLKREFS
331
11FA
331
11FB
331
1203
331
1204
331
120C
331
120D
102
}
  0
BLOCK_RECORD
  5
ECC
330
1
100
AcDbSymbolTableRecord
100
AcDbBlockTableRecord
  2
*D2
340
0
  0
BLOCK_RECORD
  5
EE4
330
1
100
AcDbSymbolTableRecord
100
AcDbBlockTableRecord
  2
*D3
340
0
  0
BLOCK_RECORD
  5
EFC
330
1
100
AcDbSymbolTableRecord
100
AcDbBlockTableRecord
  2
*D4
340
0
  0
BLOCK_RECORD
  5
F1D
330
1
100
AcDbSymbolTableRecord
100
AcDbBlockTableRecord
  2
_DotSmall
340
0
  0
ENDTAB
  0
ENDSEC
  0
SECTION
  2
BLOCKS
  0
BLOCK
  5
20
330
1F
100
AcDbEntity
  8
0
100
AcDbBlockBegin
  2
*Model_Space
 70
     0
 10
0.0
 20
0.0
 30
0.0
  3
*Model_Space
  1

  0
ENDBLK
  5
21
330
1F
100
AcDbEntity
  8
0
100
AcDbBlockEnd
  0
BLOCK
  5
5A
330
58
100
AcDbEntity
 67
     1
  8
0
100
AcDbBlockBegin
  2
*Paper_Space
 70
     0
 10
0.0
 20
0.0
 30
0.0
  3
*Paper_Space
  1

  0
ENDBLK
  5
5B
330
58
100
AcDbEntity
 67
     1
  8
0
100
AcDbBlockEnd
  0
BLOCK
  5
5F
330
5D
100
AcDbEntity
 67
     1
  8
0
100
AcDbBlockBegin
  2
*Paper_Space0
 70
     0
 10
0.0
 20
0.0
 30
0.0
  3
*Paper_Space0
  1

  0
ENDBLK
  5
60
330
5D
100
AcDbEntity
 67
     1
  8
0
100
AcDbBlockEnd
  0
BLOCK
  5
C7
330
C6
100
AcDbEntity
  8
0
100
AcDbBlockBegin
  2
_Open30
 70
     0
 10
0.0
 20
0.0
 30
0.0
  3
_Open30
  1

  0
LINE
  5
C8
330
C6
100
AcDbEntity
  8
0
  6
ByBlock
 62
     0
370
    -2
100
AcDbLine
 10
-1.0
 20
0.267949
 30
0.0
 11
0.0
 21
0.0
 31
0.0
  0
LINE
  5
C9
330
C6
100
AcDbEntity
  8
0
  6
ByBlock
 62
     0
370
    -2
100
AcDbLine
 10
0.0
 20
0.0
 30
0.0
 11
-1.0
 21
-0.267949
 31
0.0
  0
LINE
  5
CA
330
C6
100
AcDbEntity
  8
0
  6
ByBlock
 62
     0
370
    -2
100
AcDbLine
 10
0.0
 20
0.0
 30
0.0
 11
-1.0
 21
0.0
 31
0.0
  0
ENDBLK
  5
CB
330
C6
100
AcDbEntity
  8
0
100
AcDbBlockEnd
  0
BLOCK
  5
ECD
330
ECC
100
AcDbEntity
  8
0
100
AcDbBlockBegin
  2
*D2
 70
     1
 10
0.0
 20
0.0
 30
0.0
  3
*D2
  1

  0
LINE
  5
11F7
330
ECC
100
AcDbEntity
  8
0
 62
     0
370
    -2
100
AcDbLine
 10
1432.625965997251
 20
289.6291525686266
 30
0.0
 11
1412.284505900253
 21
289.6291525686266
 31
0.0
  0
LINE
  5
11F8
330
ECC
100
AcDbEntity
  8
0
 62
     0
370
    -2
100
AcDbLine
 10
1432.625965997251
 20
279.6291525686265
 30
0.0
 11
1412.284505900253
 21
279.6291525686265
 31
0.0
  0
LINE
  5
11F9
330
ECC
100
AcDbEntity
  8
0
 62
     0
370
    -2
100
AcDbLine
 10
1413.534505900253
 20
287.1291525686266
 30
0.0
 11
1413.534505900253
 21
282.1291525686265
 31
0.0
  0
INSERT
  5
11FA
330
ECC
100
AcDbEntity
  8
0
 62
     0
370
    -2
100
AcDbBlockReference
  2
_Open30
 10
1413.534505900253
 20
289.6291525686266
 30
0.0
 41
2.5
 42
2.5
 43
2.5
 50
90.0
  0
INSERT
  5
11FB
330
ECC
100
AcDbEntity
  8
0
 62
     0
370
    -2
100
AcDbBlockReference
  2
_Open30
 10
1413.534505900253
 20
279.6291525686265
 30
0.0
 41
2.5
 42
2.5
 43
2.5
 50
270.0
  0
MTEXT
  5
11FC
330
ECC
100
AcDbEntity
  8
0
 62
     4
100
AcDbMText
 10
1411.409505900253
 20
285.1294417862723
 30
0.0
 40
3.0
 41
0.0
 71
     5
 72
     1
  1
20
 11
0.0000000000000001
 21
1.0
 31
0.0
 73
     1
 44
1.0
1001
ACAD
1000
MTEXTBEGIN
1070
    73
1070
     1
1070
    44
1040
1.0
1070
    74
1070
     0
1000
MTEXTEND
  0
POINT
  5
11FD
330
ECC
100
AcDbEntity
  8
Defpoints
 62
     0
100
AcDbPoint
 10
1432.875965997251
 20
289.6291525686266
 30
0.0
  0
POINT
  5
11FE
330
ECC
100
AcDbEntity
  8
Defpoints
 62
     0
100
AcDbPoint
 10
1432.875965997251
 20
279.6291525686265
 30
0.0
  0
POINT
  5
11FF
330
ECC
100
AcDbEntity
  8
Defpoints
 62
     0
100
AcDbPoint
 10
1413.534505900253
 20
279.6291525686265
 30
0.0
  0
ENDBLK
  5
ECE
330
ECC
100
AcDbEntity
  8
0
100
AcDbBlockEnd
  0
BLOCK
  5
EE5
330
EE4
100
AcDbEntity
  8
0
100
AcDbBlockBegin
  2
*D3
 70
     1
 10
0.0
 20
0.0
 30
0.0
  3
*D3
  1

  0
LINE
  5
1200
330
EE4
100
AcDbEntity
  8
0
 62
     0
370
    -2
100
AcDbLine
 10
1425.875965997251
 20
252.6828073621177
 30
0.0
 11
1425.875965997251
 21
263.1725441561116
 31
0.0
  0
LINE
  5
1201
330
EE4
100
AcDbEntity
  8
0
 62
     0
370
    -2
100
AcDbLine
 10
1439.875965997251
 20
252.6828073621177
 30
0.0
 11
1439.875965997251
 21
263.1725441561116
 31
0.0
  0
LINE
  5
1202
330
EE4
100
AcDbEntity
  8
0
 62
     0
370
    -2
100
AcDbLine
 10
1428.375965997251
 20
261.9225441561116
 30
0.0
 11
1437.375965997251
 21
261.9225441561116
 31
0.0
  0
INSERT
  5
1203
330
EE4
100
AcDbEntity
  8
0
 62
     0
370
    -2
100
AcDbBlockReference
  2
_Open30
 10
1425.875965997251
 20
261.9225441561116
 30
0.0
 41
2.5
 42
2.5
 43
2.5
 50
180.0
  0
INSERT
  5
1204
330
EE4
100
AcDbEntity
  8
0
 62
     0
370
    -2
100
AcDbBlockReference
  2
_Open30
 10
1439.875965997251
 20
261.9225441561116
 30
0.0
 41
2.5
 42
2.5
 43
2.5
  0
MTEXT
  5
1205
330
EE4
100
AcDbEntity
  8
0
 62
     4
100
AcDbMText
 10
1433.02238906544
 20
264.0475441561116
 30
0.0
 40
3.0
 41
0.0
 71
     5
 72
     1
  1
28
 73
     1
 44
1.0
1001
ACAD
1000
MTEXTBEGIN
1070
    73
1070
     1
1070
    44
1040
1.0
1070
    74
1070
     0
1000
MTEXTEND
  0
POINT
  5
1206
330
EE4
100
AcDbEntity
  8
Defpoints
 62
     0
100
AcDbPoint
 10
1425.875965997251
 20
252.4328073621177
 30
0.0
  0
POINT
  5
1207
330
EE4
100
AcDbEntity
  8
Defpoints
 62
     0
100
AcDbPoint
 10
1439.875965997251
 20
252.4328073621177
 30
0.0
  0
POINT
  5
1208
330
EE4
100
AcDbEntity
  8
Defpoints
 62
     0
100
AcDbPoint
 10
1439.875965997251
 20
261.9225441561116
 30
0.0
  0
ENDBLK
  5
EE6
330
EE4
100
AcDbEntity
  8
0
100
AcDbBlockEnd
  0
BLOCK
  5
EFD
330
EFC
100
AcDbEntity
  8
0
100
AcDbBlockBegin
  2
*D4
 70
     1
 10
0.0
 20
0.0
 30
0.0
  3
*D4
  1

  0
LINE
  5
1209
330
EFC
100
AcDbEntity
  8
0
 62
     0
370
    -2
100
AcDbLine
 10
1425.625965997251
 20
252.4328073621177
 30
0.0
 11
1412.997942848939
 21
252.4328073621177
 31
0.0
  0
LINE
  5
120A
330
EFC
100
AcDbEntity
  8
0
 62
     0
370
    -2
100
AcDbLine
 10
1425.625965997251
 20
151.4328073621177
 30
0.0
 11
1412.997942848939
 21
151.4328073621177
 31
0.0
  0
LINE
  5
120B
330
EFC
100
AcDbEntity
  8
0
 62
     0
370
    -2
100
AcDbLine
 10
1414.247942848939
 20
249.9328073621177
 30
0.0
 11
1414.247942848939
 21
153.9328073621177
 31
0.0
  0
INSERT
  5
120C
330
EFC
100
AcDbEntity
  8
0
 62
     0
370
    -2
100
AcDbBlockReference
  2
_Open30
 10
1414.247942848939
 20
252.4328073621177
 30
0.0
 41
2.5
 42
2.5
 43
2.5
 50
90.0
  0
INSERT
  5
120D
330
EFC
100
AcDbEntity
  8
0
 62
     0
370
    -2
100
AcDbBlockReference
  2
_Open30
 10
1414.247942848939
 20
151.4328073621177
 30
0.0
 41
2.5
 42
2.5
 43
2.5
 50
270.0
  0
MTEXT
  5
120E
330
EFC
100
AcDbEntity
  8
0
 62
     4
100
AcDbMText
 10
1412.122942848939
 20
198.5837045775125
 30
0.0
 40
3.0
 41
0.0
 71
     5
 72
     1
  1
202
 11
0.0000000000000001
 21
1.0
 31
0.0
 73
     1
 44
1.0
1001
ACAD
1000
MTEXTBEGIN
1070
    73
1070
     1
1070
    44
1040
1.0
1070
    74
1070
     0
1000
MTEXTEND
  0
POINT
  5
120F
330
EFC
100
AcDbEntity
  8
Defpoints
 62
     0
100
AcDbPoint
 10
1425.875965997251
 20
252.4328073621177
 30
0.0
  0
POINT
  5
1210
330
EFC
100
AcDbEntity
  8
Defpoints
 62
     0
100
AcDbPoint
 10
1425.875965997251
 20
151.4328073621177
 30
0.0
  0
POINT
  5
1211
330
EFC
100
AcDbEntity
  8
Defpoints
 62
     0
100
AcDbPoint
 10
1414.247942848939
 20
151.4328073621177
 30
0.0
  0
ENDBLK
  5
EFE
330
EFC
100
AcDbEntity
  8
0
100
AcDbBlockEnd
  0
BLOCK
  5
F1F
330
F1D
100
AcDbEntity
  8
0
100
AcDbBlockBegin
  2
_DotSmall
 70
     0
 10
0.0
 20
0.0
 30
0.0
  3
_DotSmall
  1

  0
LWPOLYLINE
  5
F1E
330
F1D
100
AcDbEntity
  8
0
  6
ByBlock
 62
     0
100
AcDbPolyline
 90
        2
 70
     1
 43
0.5
 10
-0.0625
 20
0.0
 42
1.0
 10
0.0625
 20
0.0
 42
1.0
  0
ENDBLK
  5
F20
330
F1D
100
AcDbEntity
  8
0
100
AcDbBlockEnd
  0
ENDSEC
  0
SECTION
  2
ENTITIES
  0
LINE
  5
BD5
330
1F
100
AcDbEntity
  8
0
 62
     7
100
AcDbLine
 10
1513.909483278809
 20
211.5116702305937
 30
0.0
 11
1513.909483278809
 21
236.5116702305933
 31
0.0
  0
LINE
  5
BD6
330
1F
100
AcDbEntity
  8
0
 62
     7
100
AcDbLine
 10
1501.008900278808
 20
186.5116702305937
 30
0.0
 11
1578.320356871742
 21
186.5116702305936
 31
0.0
  0
LINE
  5
BD7
330
1F
100
AcDbEntity
  8
0
 62
     7
100
AcDbLine
 10
1501.008900278808
 20
191.5116702305936
 30
0.0
 11
1578.320356871742
 21
191.5116702305936
 31
0.0
  0
LINE
  5
BD8
330
1F
100
AcDbEntity
  8
0
 62
     7
100
AcDbLine
 10
1501.008900278808
 20
196.5116702305936
 30
0.0
 11
1578.320356871742
 21
196.5116702305936
 31
0.0
  0
LINE
  5
BD9
330
1F
100
AcDbEntity
  8
0
 62
     7
100
AcDbLine
 10
1501.008900278808
 20
206.5116702305936
 30
0.0
 11
1578.320356871742
 21
206.5116702305936
 31
0.0
  0
LINE
  5
BDA
330
1F
100
AcDbEntity
  8
0
 62
     7
100
AcDbLine
 10
1501.008900278808
 20
211.5116702305937
 30
0.0
 11
1578.320356871742
 21
211.5116702305937
 31
0.0
  0
LINE
  5
BDB
330
1F
100
AcDbEntity
  8
0
 62
     7
100
AcDbLine
 10
1513.909483278809
 20
216.5116702305939
 30
0.0
 11
1578.320356871742
 21
216.5116702305937
 31
0.0
  0
LINE
  5
BDC
330
1F
100
AcDbEntity
  8
0
 62
     7
100
AcDbLine
 10
1513.909483278809
 20
221.5116702305938
 30
0.0
 11
1578.320356871742
 21
221.5116702305939
 31
0.0
  0
LINE
  5
BDD
330
1F
100
AcDbEntity
  8
0
 62
     7
100
AcDbLine
 10
1513.909483278809
 20
226.5116702305937
 30
0.0
 11
1578.320356871742
 21
226.5116702305937
 31
0.0
  0
LINE
  5
BDE
330
1F
100
AcDbEntity
  8
0
 62
     7
100
AcDbLine
 10
1501.008900278809
 20
251.5116702305944
 30
0.0
 11
1578.320356871742
 21
251.5116702305942
 31
0.0
  0
LINE
  5
BDF
330
1F
100
AcDbEntity
  8
0
 62
     7
100
AcDbLine
 10
1501.008900278809
 20
256.5116702305943
 30
0.0
 11
1578.320356871742
 21
256.5116702305943
 31
0.0
  0
LINE
  5
BE0
330
1F
100
AcDbEntity
  8
0
 62
     7
100
AcDbLine
 10
1501.008900278809
 20
261.5116702305944
 30
0.0
 11
1578.320356871742
 21
261.5116702305944
 31
0.0
  0
LINE
  5
BE1
330
1F
100
AcDbEntity
  8
0
 62
     3
100
AcDbLine
 10
1501.008900278809
 20
266.5116702305941
 30
0.0
 11
1578.320356871742
 21
266.5116702305941
 31
0.0
  0
TEXT
  5
BE2
330
1F
100
AcDbEntity
  8
0
 62
     3
100
AcDbText
 10
1502.658839278808
 20
232.0116702305937
 30
0.0
 40
3.2
  1
照度
 41
0.8
  7
高3.2
100
AcDbText
  0
TEXT
  5
BE3
330
1F
100
AcDbEntity
  8
0
 62
     3
100
AcDbText
 10
1515.244129278809
 20
232.0116702305937
 30
0.0
 40
3.2
  1
1m
 41
0.8
  7
高3.2
100
AcDbText
  0
TEXT
  5
BE4
330
1F
100
AcDbEntity
  8
0
 62
     3
100
AcDbText
 10
1515.244129278809
 20
227.0116702305936
 30
0.0
 40
3.2
  1
2m
 41
0.8
  7
高3.2
100
AcDbText
  0
TEXT
  5
BE5
330
1F
100
AcDbEntity
  8
0
 62
     3
100
AcDbText
 10
1515.244129278809
 20
222.0116702305936
 30
0.0
 40
3.2
  1
3m
 41
0.8
  7
高3.2
100
AcDbText
  0
TEXT
  5
BE6
330
1F
100
AcDbEntity
  8
0
 62
     3
100
AcDbText
 10
1515.244129278809
 20
217.0116702305936
 30
0.0
 40
3.2
  1
4m
 41
0.8
  7
高3.2
100
AcDbText
  0
TEXT
  5
BE7
330
1F
100
AcDbEntity
  8
0
 62
     3
100
AcDbText
 10
1515.244129278809
 20
212.0116702305936
 30
0.0
 40
3.2
  1
5m
 41
0.8
  7
高3.2
100
AcDbText
  0
TEXT
  5
BE8
330
1F
100
AcDbEntity
  8
0
 62
     3
100
AcDbText
 10
1524.201927651634
 20
252.011670230594
 30
0.0
 40
3.2
  1
単4アルカリ乾電池x4本
 41
0.8
  7
高3.2
100
AcDbText
  0
TEXT
  5
BE9
330
1F
100
AcDbEntity
  8
0
 62
     3
100
AcDbText
 10
1502.658839278809
 20
262.0116702305942
 30
0.0
 40
3.2
  1
型　　　式
 41
0.8
  7
高3.2
100
AcDbText
  0
TEXT
  5
BEA
330
1F
100
AcDbEntity
  8
0
 62
     3
100
AcDbText
 10
1502.658839278809
 20
257.0116702305944
 30
0.0
 40
3.2
  1
光　　　源
 41
0.8
  7
高3.2
100
AcDbText
  0
TEXT
  5
BEB
330
1F
100
AcDbEntity
  8
0
 62
     3
100
AcDbText
 10
1502.658839278809
 20
252.0116702305942
 30
0.0
 40
3.2
  1
電　　　源
 41
0.8
  7
高3.2
100
AcDbText
  0
TEXT
  5
BEC
330
1F
100
AcDbEntity
  8
0
 62
     3
100
AcDbText
 10
1502.658839278809
 20
237.0116702305935
 30
0.0
 40
3.2
  1
定格　光束
 41
0.8
  7
高3.2
100
AcDbText
  0
TEXT
  5
BED
330
1F
100
AcDbEntity
  8
0
 62
     3
100
AcDbText
 10
1502.65883927881
 20
207.0116702305937
 30
0.0
 40
3.2
  1
照　射　角
 41
0.8
  7
高3.2
100
AcDbText
  0
TEXT
  5
BEE
330
1F
100
AcDbEntity
  8
0
 62
     3
100
AcDbText
 10
1502.65883927881
 20
202.0116702305936
 30
0.0
 40
3.2
  1
実用点灯時間
 41
0.8
  7
高3.2
100
AcDbText
  0
TEXT
  5
BEF
330
1F
100
AcDbEntity
  8
0
 62
     3
100
AcDbText
 10
1502.658839278808
 20
177.1834829178846
 30
0.0
 40
3.2
  1
質　　　量
 41
0.8
  7
高3.2
100
AcDbText
  0
LINE
  5
BF0
330
1F
100
AcDbEntity
  8
0
 62
     7
100
AcDbLine
 10
1522.551988651634
 20
266.5116702305941
 30
0.0
 11
1522.551988651632
 21
166.5116702305938
 31
0.0
  0
LINE
  5
BF1
330
1F
100
AcDbEntity
  8
0
 62
     3
100
AcDbLine
 10
1501.008900278809
 20
266.5116702305941
 30
0.0
 11
1501.008900278809
 21
166.5116702305938
 31
0.0
  0
TEXT
  5
BF2
330
1F
100
AcDbEntity
  8
0
 62
     3
100
AcDbText
 10
1524.201927651634
 20
257.0116702305941
 30
0.0
 40
3.2
  1
LED 24P+1P
 41
0.8
  7
高3.2
100
AcDbText
  0
TEXT
  5
BF3
330
1F
100
AcDbEntity
  8
0
 62
     3
100
AcDbText
 10
1524.201927651634
 20
237.0116702305935
 30
0.0
 40
3.2
  1
72Lm
 41
0.8
  7
高3.2
100
AcDbText
  0
TEXT
  5
BF4
330
1F
100
AcDbEntity
  8
0
 62
     3
100
AcDbText
 10
1524.201927651634
 20
232.0116702305935
 30
0.0
 40
3.2
  1
55Lx
 41
0.8
  7
高3.2
100
AcDbText
  0
TEXT
  5
BF5
330
1F
100
AcDbEntity
  8
0
 62
     3
100
AcDbText
 10
1524.201927651634
 20
227.0116702305936
 30
0.0
 40
3.2
  1
14Lx
 41
0.8
  7
高3.2
100
AcDbText
  0
TEXT
  5
BF7
330
1F
100
AcDbEntity
  8
0
 62
     3
100
AcDbText
 10
1524.201927651634
 20
202.0116702305936
 30
0.0
 40
3.2
  1
-
 41
0.8
  7
高3.2
100
AcDbText
  0
TEXT
  5
BF8
330
1F
100
AcDbEntity
  8
0
 62
     3
100
AcDbText
 10
1524.201927651634
 20
177.1834829178846
 30
0.0
 40
3.2
  1
55g(電池込102g)
 41
0.8
  7
高3.2
100
AcDbText
  0
TEXT
  5
BF9
330
1F
100
AcDbEntity
  8
0
 62
     3
100
AcDbText
 10
1502.658839278808
 20
182.1834829178844
 30
0.0
 40
3.2
  1
使用環境温度
 41
0.8
  7
高3.2
100
AcDbText
  0
TEXT
  5
BFA
330
1F
100
AcDbEntity
  8
0
 62
     3
100
AcDbText
 10
1524.201927651634
 20
182.1834829178841
 30
0.0
 40
3.2
  1
-5～60℃
 41
0.8
  7
高3.2
100
AcDbText
  0
TEXT
  5
BFB
330
1F
100
AcDbEntity
  8
0
 62
     3
100
AcDbText
 10
1524.201927651635
 20
222.0116702305933
 30
0.0
 40
3.2
  1
7Lx
 41
0.8
  7
高3.2
100
AcDbText
  0
TEXT
  5
BFC
330
1F
100
AcDbEntity
  8
0
 62
     3
100
AcDbText
 10
1524.201927651634
 20
217.0116702305936
 30
0.0
 40
3.2
  1
4Lx
 41
0.8
  7
高3.2
100
AcDbText
  0
TEXT
  5
BFD
330
1F
100
AcDbEntity
  8
0
 62
     3
100
AcDbText
 10
1524.201927651634
 20
212.0116702305936
 30
0.0
 40
3.2
  1
3Lx
 41
0.8
  7
高3.2
100
AcDbText
  0
TEXT
  5
BFE
330
1F
100
AcDbEntity
  8
0
 62
     3
100
AcDbText
 10
1524.197903390016
 20
262.0298840979438
 30
0.0
 40
3.2
  1
SST-24P
 41
0.8
  7
高3.2
100
AcDbText
  0
LINE
  5
BFF
330
1F
100
AcDbEntity
  8
0
 62
     7
100
AcDbLine
 10
1521.856445979807
 20
269.8160738401126
 30
0.0
 11
1560.484988884119
 21
269.8160738401126
 31
0.0
  0
TEXT
  5
C00
330
1F
100
AcDbEntity
  8
0
 62
     3
100
AcDbText
 10
1521.856445979807
 20
271.058758702246
 30
0.0
 40
4.5
  1
主　　仕　　様
  7
高4.5
100
AcDbText
  0
TEXT
  5
C01
330
1F
100
AcDbEntity
  8
0
 62
     7
100
AcDbText
 10
1499.786472386961
 20
145.4799312819106
 30
0.0
 40
2.5
  1
注３）：実用点灯時間は1m照度が初期照度の10%%%に低下するまでの時間です。
 41
0.8
  7
高2.5
100
AcDbText
  0
TEXT
  5
C02
330
1F
100
AcDbEntity
  8
0
 62
     7
100
AcDbText
 10
1499.786472386961
 20
160.6954580849946
 30
0.0
 40
2.5
  1
注１）：寿命は光束が70%%%まで低下するまでの時間です。
 41
0.8
  7
高2.5
100
AcDbText
  0
TEXT
  5
C03
330
1F
100
AcDbEntity
  8
0
 62
     7
100
AcDbText
 10
1499.786472386961
 20
156.5674239569909
 30
0.0
 40
2.5
  1
　　　　表示は設計値であり、製品の寿命を保証するものではありません。
 41
0.8
  7
高2.5
100
AcDbText
  0
TEXT
  5
C04
330
1F
100
AcDbEntity
  8
0
 62
     7
100
AcDbText
 10
1499.786472386961
 20
152.6315397816746
 30
0.0
 40
2.5
  1
注２）：照度は反射率などを含む当社実測値の為、
 41
0.8
  7
高2.5
100
AcDbText
  0
LINE
  5
C05
330
1F
100
AcDbEntity
  8
0
 62
     7
100
AcDbLine
 10
1501.008900278808
 20
181.5116702305936
 30
0.0
 11
1578.320356871742
 21
181.5116702305936
 31
0.0
  0
TEXT
  5
C06
330
1F
100
AcDbEntity
  8
0
 62
     3
100
AcDbText
 10
1502.658839278808
 20
187.3491455210243
 30
0.0
 40
3.2
  1
LED寿命
 41
0.8
  7
高3.2
100
AcDbText
  0
TEXT
  5
C07
330
1F
100
AcDbEntity
  8
0
 62
     3
100
AcDbText
 10
1524.201927651634
 20
187.3491455210243
 30
0.0
 40
3.2
  1
4万時間
 41
0.8
  7
高3.2
100
AcDbText
  0
LINE
  5
C08
330
1F
100
AcDbEntity
  8
0
 62
     3
100
AcDbLine
 10
1501.008900278808
 20
166.5116702305938
 30
0.0
 11
1578.320356871742
 21
166.5116702305939
 31
0.0
  0
TEXT
  5
C09
330
1F
100
AcDbEntity
  8
0
 62
     3
100
AcDbText
 10
1502.65883927881
 20
192.0116702305936
 30
0.0
 40
3.2
  1
色　温　度
 41
0.8
  7
高3.2
100
AcDbText
  0
TEXT
  5
C0A
330
1F
100
AcDbEntity
  8
0
 62
     3
100
AcDbText
 10
1524.201927651635
 20
192.0116702305936
 30
0.0
 40
3.2
  1
10000K
 41
0.8
  7
高3.2
100
AcDbText
  0
LINE
  5
C0B
330
1F
100
AcDbEntity
  8
0
 62
     3
100
AcDbLine
 10
1578.320356871742
 20
266.5116702305941
 30
0.0
 11
1578.320356871742
 21
166.5116702305938
 31
0.0
  0
TEXT
  5
C0C
330
1F
100
AcDbEntity
  8
0
 62
     7
100
AcDbText
 10
1499.786472386961
 20
148.8079003737124
 30
0.0
 40
2.5
  1
　　　　使用環境下により異なります。
 41
0.8
  7
高2.5
100
AcDbText
  0
LINE
  5
C0D
330
1F
100
AcDbEntity
  8
0
 62
     7
100
AcDbLine
 10
1501.008900278808
 20
236.5116702305932
 30
0.0
 11
1578.320356871742
 21
236.5116702305938
 31
0.0
  0
LINE
  5
C0E
330
1F
100
AcDbEntity
  8
0
 62
     7
100
AcDbLine
 10
1501.008900278808
 20
236.5116702305938
 30
0.0
 11
1578.320356871742
 21
236.5116702305938
 31
0.0
  0
LINE
  5
C0F
330
1F
100
AcDbEntity
  8
0
 62
     7
100
AcDbLine
 10
1513.909483278809
 20
231.5116702305936
 30
0.0
 11
1578.320356871742
 21
231.5116702305937
 31
0.0
  0
LINE
  5
C10
330
1F
100
AcDbEntity
  8
0
 62
     7
100
AcDbLine
 10
1522.551988651634
 20
246.5116702305937
 30
0.0
 11
1578.320356871742
 21
246.5116702305941
 31
0.0
  0
LINE
  5
C11
330
1F
100
AcDbEntity
  8
0
 62
     7
100
AcDbLine
 10
1501.008900278808
 20
201.5116702305936
 30
0.0
 11
1578.320356871742
 21
201.5116702305937
 31
0.0
  0
TEXT
  5
C12
330
1F
100
AcDbEntity
  8
0
 62
     3
100
AcDbText
 10
1502.65883927881
 20
197.0116702305936
 30
0.0
 40
3.2
  1
連続点灯時間
 41
0.8
  7
高3.2
100
AcDbText
  0
TEXT
  5
C13
330
1F
100
AcDbEntity
  8
0
 62
     3
100
AcDbText
 10
1524.201927651634
 20
197.0116702305936
 30
0.0
 40
3.2
  1
1時間
 41
0.8
  7
高3.2
100
AcDbText
  0
TEXT
  5
C14
330
1F
100
AcDbEntity
  8
0
 62
     7
100
AcDbText
 10
1499.786472386961
 20
142.0628227411246
 30
0.0
 40
2.5
  1
注４）：連続点灯時間は1m照度が、10Lx切るまでの時間です。
 41
0.8
  7
高2.5
100
AcDbText
  0
TEXT
  5
C15
330
1F
100
AcDbEntity
  8
0
 62
     3
100
AcDbText
 10
1502.658839278808
 20
172.1834829178842
 30
0.0
 40
3.2
  1
付　　　属
 41
0.8
  7
高3.2
100
AcDbText
  0
TEXT
  5
C16
330
1F
100
AcDbEntity
  8
0
 62
     3
100
AcDbText
 10
1524.201927651634
 20
172.1834829178842
 30
0.0
 40
3.2
  1
ストラップ
 41
0.8
  7
高3.2
100
AcDbText
  0
LINE
  5
C17
330
1F
100
AcDbEntity
  8
0
 62
     7
100
AcDbLine
 10
1501.008900278808
 20
176.5116702305936
 30
0.0
 11
1578.320356871742
 21
176.5116702305936
 31
0.0
  0
TEXT
  5
C18
330
1F
100
AcDbEntity
  8
0
 62
     3
100
AcDbText
 10
1524.201927651634
 20
167.1834829178842
 30
0.0
 40
3.2
  1
単4アルカリ乾電池x4本
 41
0.8
  7
高3.2
100
AcDbText
  0
LINE
  5
C19
330
1F
100
AcDbEntity
  8
0
 62
     7
100
AcDbLine
 10
1538.066684055636
 20
246.5116702305941
 30
0.0
 11
1538.066684055636
 21
191.5116702305936
 31
0.0
  0
TEXT
  5
C1D
330
1F
100
AcDbEntity
  8
0
 62
     3
100
AcDbText
 10
1539.716623055636
 20
232.0116702305935
 30
0.0
 40
3.2
  1
304Lx
 41
0.8
  7
高3.2
100
AcDbText
  0
TEXT
  5
C1E
330
1F
100
AcDbEntity
  8
0
 62
     3
100
AcDbText
 10
1539.716623055636
 20
227.0116702305936
 30
0.0
 40
3.2
  1
76x
 41
0.8
  7
高3.2
100
AcDbText
  0
TEXT
  5
C1F
330
1F
100
AcDbEntity
  8
0
 62
     3
100
AcDbText
 10
1539.716623055637
 20
222.0116702305935
 30
0.0
 40
3.2
  1
34Lx
 41
0.8
  7
高3.2
100
AcDbText
  0
TEXT
  5
C20
330
1F
100
AcDbEntity
  8
0
 62
     3
100
AcDbText
 10
1539.716623055636
 20
217.0116702305936
 30
0.0
 40
3.2
  1
18Lx
 41
0.8
  7
高3.2
100
AcDbText
  0
TEXT
  5
C21
330
1F
100
AcDbEntity
  8
0
 62
     3
100
AcDbText
 10
1539.716623055636
 20
212.0116702305936
 30
0.0
 40
3.2
  1
12Lx
 41
0.8
  7
高3.2
100
AcDbText
  0
TEXT
  5
C23
330
1F
100
AcDbEntity
  8
0
 62
     3
100
AcDbText
 10
1524.201927651635
 20
242.0116702305942
 30
0.0
 40
3.2
  1
24P
 41
0.8
  7
高3.2
100
AcDbText
  0
TEXT
  5
C24
330
1F
100
AcDbEntity
  8
0
 62
     3
100
AcDbText
 10
1539.716623055637
 20
242.0116702305939
 30
0.0
 40
3.2
  1
1P
 41
0.8
  7
高3.2
100
AcDbText
  0
TEXT
  5
C26
330
1F
100
AcDbEntity
  8
0
 62
     3
100
AcDbText
 10
1502.658839278809
 20
247.0116702305946
 30
0.0
 40
3.2
  1
点灯パターン
 41
0.8
  7
高3.2
100
AcDbText
  0
TEXT
  5
C27
330
1F
100
AcDbEntity
  8
0
 62
     3
100
AcDbText
 10
1524.201927651634
 20
247.0116702305946
 30
0.0
 40
3.2
  1
1P→24P→24P+1P→OFF
 41
0.8
  7
高3.2
100
AcDbText
  0
LINE
  5
C29
330
1F
100
AcDbEntity
  8
0
 62
     7
100
AcDbLine
 10
1501.008900278807
 20
241.511670230594
 30
0.0
 11
1578.320356871742
 21
241.511670230594
 31
0.0
  0
LINE
  5
C41
330
1F
100
AcDbEntity
  8
0
 62
     7
100
AcDbLine
 10
1554.733446454881
 20
246.5116702305941
 30
0.0
 11
1554.733446454881
 21
191.5116702305936
 31
0.0
  0
TEXT
  5
C42
330
1F
100
AcDbEntity
  8
0
 62
     3
100
AcDbText
 10
1556.383385454881
 20
232.0116702305935
 30
0.0
 40
3.2
  1
-
 41
0.8
  7
高3.2
100
AcDbText
  0
TEXT
  5
C43
330
1F
100
AcDbEntity
  8
0
 62
     3
100
AcDbText
 10
1556.383385454881
 20
227.0116702305936
 30
0.0
 40
3.2
  1
-
 41
0.8
  7
高3.2
100
AcDbText
  0
TEXT
  5
C44
330
1F
100
AcDbEntity
  8
0
 62
     3
100
AcDbText
 10
1556.383385454882
 20
222.0116702305935
 30
0.0
 40
3.2
  1
-
 41
0.8
  7
高3.2
100
AcDbText
  0
TEXT
  5
C45
330
1F
100
AcDbEntity
  8
0
 62
     3
100
AcDbText
 10
1556.383385454881
 20
217.0116702305936
 30
0.0
 40
3.2
  1
-
 41
0.8
  7
高3.2
100
AcDbText
  0
TEXT
  5
C46
330
1F
100
AcDbEntity
  8
0
 62
     3
100
AcDbText
 10
1556.383385454881
 20
212.0116702305936
 30
0.0
 40
3.2
  1
-
 41
0.8
  7
高3.2
100
AcDbText
  0
TEXT
  5
C47
330
1F
100
AcDbEntity
  8
0
 62
     3
100
AcDbText
 10
1556.383385454882
 20
242.0116702305939
 30
0.0
 40
3.2
  1
24P+1P
 41
0.8
  7
高3.2
100
AcDbText
  0
TEXT
  5
C48
330
1F
100
AcDbEntity
  8
0
 62
     3
100
AcDbText
 10
1539.716623055638
 20
237.0116702305935
 30
0.0
 40
3.2
  1
45Lm
 41
0.8
  7
高3.2
100
AcDbText
  0
TEXT
  5
C49
330
1F
100
AcDbEntity
  8
0
 62
     3
100
AcDbText
 10
1556.383385454883
 20
237.0116702305935
 30
0.0
 40
3.2
  1
-
 41
0.8
  7
高3.2
100
AcDbText
  0
TEXT
  5
C50
330
1F
100
AcDbEntity
  8
0
 62
     3
100
AcDbText
 10
1524.201927651634
 20
207.0116702305937
 30
0.0
 40
3.2
  1
120\U+00B0
 41
0.8
  7
高3.2
100
AcDbText
  0
TEXT
  5
C51
330
1F
100
AcDbEntity
  8
0
 62
     3
100
AcDbText
 10
1539.716623055637
 20
207.0116702305937
 30
0.0
 40
3.2
  1
90\U+00B0
 41
0.8
  7
高3.2
100
AcDbText
  0
TEXT
  5
C52
330
1F
100
AcDbEntity
  8
0
 62
     3
100
AcDbText
 10
1556.383385454882
 20
207.0116702305937
 30
0.0
 40
3.2
  1
-
 41
0.8
  7
高3.2
100
AcDbText
  0
TEXT
  5
C54
330
1F
100
AcDbEntity
  8
0
 62
     3
100
AcDbText
 10
1556.383385454882
 20
202.0116702305936
 30
0.0
 40
3.2
  1
24P:-/1P:1時間
 41
0.5
  7
高3.2
100
AcDbText
  0
TEXT
  5
C55
330
1F
100
AcDbEntity
  8
0
 62
     3
100
AcDbText
 10
1539.716623055637
 20
202.0116702305936
 30
0.0
 40
3.2
  1
8時間
 41
0.8
  7
高3.2
100
AcDbText
  0
TEXT
  5
C56
330
1F
100
AcDbEntity
  8
0
 62
     3
100
AcDbText
 10
1539.716623055637
 20
197.0116702305936
 30
0.0
 40
3.2
  1
8.5時間
 41
0.8
  7
高3.2
100
AcDbText
  0
TEXT
  5
C57
330
1F
100
AcDbEntity
  8
0
 62
     3
100
AcDbText
 10
1556.383385454882
 20
197.0116702305936
 30
0.0
 40
3.2
  1
24P:2時間/1P:1.5時間
 41
0.45
  7
高3.2
100
AcDbText
  0
TEXT
  5
C58
330
1F
100
AcDbEntity
  8
0
 62
     3
100
AcDbText
 10
1539.716623055638
 20
192.0116702305936
 30
0.0
 40
3.2
  1
8000K
 41
0.8
  7
高3.2
100
AcDbText
  0
LINE
  5
C59
330
1F
100
AcDbEntity
  8
0
 62
     3
100
AcDbLine
 10
1439.875965997251
 20
252.4328073621177
 30
0.0
 11
1425.875965997251
 21
252.4328073621177
 31
0.0
  0
LINE
  5
C5A
330
1F
100
AcDbEntity
  8
0
 62
     3
100
AcDbLine
 10
1425.875965997251
 20
282.8791525686264
 30
0.0
 11
1425.875965997251
 21
286.3791525686242
 31
0.0
  0
LINE
  5
C5B
330
1F
100
AcDbEntity
  8
0
 62
     3
100
AcDbLine
 10
1425.875965997251
 20
151.4328073621177
 30
0.0
 11
1439.875965997251
 21
151.4328073621177
 31
0.0
  0
LINE
  5
C5C
330
1F
100
AcDbEntity
  8
0
 62
     3
100
AcDbLine
 10
1439.875965997251
 20
282.8791525686261
 30
0.0
 11
1439.875965997251
 21
286.3791525686242
 31
0.0
  0
LINE
  5
C5D
330
1F
100
AcDbEntity
  8
0
 62
     3
100
AcDbLine
 10
1436.375965997251
 20
238.4328073621177
 30
0.0
 11
1429.375965997251
 21
238.4328073621177
 31
0.0
  0
LINE
  5
C5E
330
1F
100
AcDbEntity
  8
0
 62
     3
100
AcDbLine
 10
1436.375965997251
 20
212.9328073621177
 30
0.0
 11
1429.375965997251
 21
212.9328073621177
 31
0.0
  0
LINE
  5
C60
330
1F
100
AcDbEntity
  8
0
 62
     3
100
AcDbLine
 10
1437.875965997251
 20
214.4328073621177
 30
0.0
 11
1437.875965997251
 21
236.9328073621177
 31
0.0
  0
LINE
  5
C61
330
1F
100
AcDbEntity
  8
0
 62
     3
100
AcDbLine
 10
1427.875965997251
 20
214.4328073621177
 30
0.0
 11
1427.875965997251
 21
236.9328073621177
 31
0.0
  0
CIRCLE
  5
C6D
330
1F
100
AcDbEntity
  8
0
100
AcDbCircle
 10
1432.875965997251
 20
224.1828073621177
 30
0.0
 40
1.375
  0
CIRCLE
  5
C6E
330
1F
100
AcDbEntity
  8
0
100
AcDbCircle
 10
1432.875965997251
 20
227.1828073621177
 30
0.0
 40
1.375
  0
CIRCLE
  5
C6F
330
1F
100
AcDbEntity
  8
0
100
AcDbCircle
 10
1432.875965997251
 20
230.1828073621177
 30
0.0
 40
1.375
  0
CIRCLE
  5
C70
330
1F
100
AcDbEntity
  8
0
100
AcDbCircle
 10
1432.875965997251
 20
233.1828073621177
 30
0.0
 40
1.375
  0
CIRCLE
  5
C71
330
1F
100
AcDbEntity
  8
0
100
AcDbCircle
 10
1432.875965997251
 20
236.1828073621177
 30
0.0
 40
1.375
  0
CIRCLE
  5
C72
330
1F
100
AcDbEntity
  8
0
100
AcDbCircle
 10
1432.875965997251
 20
221.1828073621177
 30
0.0
 40
1.375
  0
CIRCLE
  5
C73
330
1F
100
AcDbEntity
  8
0
100
AcDbCircle
 10
1432.875965997251
 20
218.1828073621177
 30
0.0
 40
1.375
  0
CIRCLE
  5
C74
330
1F
100
AcDbEntity
  8
0
100
AcDbCircle
 10
1432.875965997251
 20
215.1828073621177
 30
0.0
 40
1.375
  0
CIRCLE
  5
C75
330
1F
100
AcDbEntity
  8
0
100
AcDbCircle
 10
1435.875965997251
 20
224.1828073621177
 30
0.0
 40
1.375
  0
CIRCLE
  5
C76
330
1F
100
AcDbEntity
  8
0
100
AcDbCircle
 10
1435.875965997251
 20
227.1828073621177
 30
0.0
 40
1.375
  0
CIRCLE
  5
C77
330
1F
100
AcDbEntity
  8
0
100
AcDbCircle
 10
1435.875965997251
 20
230.1828073621177
 30
0.0
 40
1.375
  0
CIRCLE
  5
C78
330
1F
100
AcDbEntity
  8
0
100
AcDbCircle
 10
1435.875965997251
 20
233.1828073621177
 30
0.0
 40
1.375
  0
CIRCLE
  5
C79
330
1F
100
AcDbEntity
  8
0
100
AcDbCircle
 10
1435.875965997251
 20
236.1828073621177
 30
0.0
 40
1.375
  0
CIRCLE
  5
C7A
330
1F
100
AcDbEntity
  8
0
100
AcDbCircle
 10
1435.875965997251
 20
221.1828073621177
 30
0.0
 40
1.375
  0
CIRCLE
  5
C7B
330
1F
100
AcDbEntity
  8
0
100
AcDbCircle
 10
1435.875965997251
 20
218.1828073621177
 30
0.0
 40
1.375
  0
CIRCLE
  5
C7C
330
1F
100
AcDbEntity
  8
0
100
AcDbCircle
 10
1435.875965997251
 20
215.1828073621177
 30
0.0
 40
1.375
  0
CIRCLE
  5
C7D
330
1F
100
AcDbEntity
  8
0
100
AcDbCircle
 10
1429.875965997251
 20
224.1828073621177
 30
0.0
 40
1.375
  0
CIRCLE
  5
C7E
330
1F
100
AcDbEntity
  8
0
100
AcDbCircle
 10
1429.875965997251
 20
227.1828073621177
 30
0.0
 40
1.375
  0
CIRCLE
  5
C7F
330
1F
100
AcDbEntity
  8
0
100
AcDbCircle
 10
1429.875965997251
 20
230.1828073621177
 30
0.0
 40
1.375
  0
CIRCLE
  5
C80
330
1F
100
AcDbEntity
  8
0
100
AcDbCircle
 10
1429.875965997251
 20
233.1828073621177
 30
0.0
 40
1.375
  0
CIRCLE
  5
C81
330
1F
100
AcDbEntity
  8
0
100
AcDbCircle
 10
1429.875965997251
 20
236.1828073621177
 30
0.0
 40
1.375
  0
CIRCLE
  5
C82
330
1F
100
AcDbEntity
  8
0
100
AcDbCircle
 10
1429.875965997251
 20
221.1828073621177
 30
0.0
 40
1.375
  0
CIRCLE
  5
C83
330
1F
100
AcDbEntity
  8
0
100
AcDbCircle
 10
1429.875965997251
 20
218.1828073621177
 30
0.0
 40
1.375
  0
CIRCLE
  5
C84
330
1F
100
AcDbEntity
  8
0
100
AcDbCircle
 10
1429.875965997251
 20
215.1828073621177
 30
0.0
 40
1.375
  0
ARC
  5
C85
330
1F
100
AcDbEntity
  8
0
 62
     3
100
AcDbCircle
 10
1436.375965997251
 20
214.4328073621177
 30
0.0
 40
1.5
100
AcDbArc
 50
270.0
 51
0.0
  0
ARC
  5
C86
330
1F
100
AcDbEntity
  8
0
 62
     3
100
AcDbCircle
 10
1436.375965997251
 20
236.9328073621175
 30
0.0
 40
1.5
100
AcDbArc
 50
0.0
 51
90.0
  0
ARC
  5
C87
330
1F
100
AcDbEntity
  8
0
 62
     3
100
AcDbCircle
 10
1429.375965997251
 20
214.432807362118
 30
0.0
 40
1.5
100
AcDbArc
 50
180.0
 51
270.0
  0
ARC
  5
C88
330
1F
100
AcDbEntity
  8
0
 62
     3
100
AcDbCircle
 10
1429.375965997251
 20
236.9328073621175
 30
0.0
 40
1.5
100
AcDbArc
 50
90.0
 51
180.0
  0
LINE
  5
C8B
330
1F
100
AcDbEntity
  8
0
100
AcDbLine
 10
1425.875965997251
 20
284.6291525686265
 30
0.0
 11
1427.125965997251
 21
284.6291525686265
 31
0.0
  0
LINE
  5
C8C
330
1F
100
AcDbEntity
  8
0
 62
     3
100
AcDbLine
 10
1439.875965997251
 20
252.4328073621177
 30
0.0
 11
1439.875965997251
 21
151.4328073621177
 31
0.0
  0
LINE
  5
C90
330
1F
100
AcDbEntity
  8
0
 62
     3
100
AcDbLine
 10
1425.875965997251
 20
252.4328073621177
 30
0.0
 11
1425.875965997251
 21
151.4328073621177
 31
0.0
  0
LINE
  5
C91
330
1F
100
AcDbEntity
  8
0
100
AcDbLine
 10
1438.375965997251
 20
161.4328073621177
 30
0.0
 11
1427.375965997251
 21
161.4328073621177
 31
0.0
  0
LINE
  5
C92
330
1F
100
AcDbEntity
  8
0
100
AcDbLine
 10
1438.375965997251
 20
197.4328073621177
 30
0.0
 11
1427.375965997251
 21
197.4328073621177
 31
0.0
  0
LINE
  5
C93
330
1F
100
AcDbEntity
  8
0
100
AcDbLine
 10
1438.375965997251
 20
197.4328073621177
 30
0.0
 11
1438.375965997251
 21
161.4328073621177
 31
0.0
  0
LINE
  5
C94
330
1F
100
AcDbEntity
  8
0
100
AcDbLine
 10
1427.375965997251
 20
197.4328073621177
 30
0.0
 11
1427.375965997251
 21
161.4328073621177
 31
0.0
  0
ARC
  5
D6F
330
1F
100
AcDbEntity
  8
0
 62
     3
100
AcDbCircle
 10
1432.875965997251
 20
280.4656910301651
 30
0.0
 40
9.163461538461543
100
AcDbArc
 50
40.19046238381577
 51
139.8095376161842
  0
ARC
  5
D70
330
1F
100
AcDbEntity
  8
0
 62
     3
100
AcDbCircle
 10
1432.875965997251
 20
288.7926141070878
 30
0.0
 40
9.163461538461508
100
AcDbArc
 50
220.1904623838158
 51
319.8095376161842
  0
ARC
  5
D71
330
1F
100
AcDbEntity
  8
0
100
AcDbCircle
 10
1432.875965997251
 20
288.7926141070878
 30
0.0
 40
7.913461538461507
100
AcDbArc
 50
223.3970568950769
 51
316.6029431049232
  0
ARC
  5
D72
330
1F
100
AcDbEntity
  8
0
100
AcDbCircle
 10
1432.875965997251
 20
280.4656910301651
 30
0.0
 40
7.913461538461543
100
AcDbArc
 50
43.39705689507689
 51
136.6029431049231
  0
LINE
  5
D73
330
1F
100
AcDbEntity
  8
0
100
AcDbLine
 10
1438.625965997251
 20
283.3556688691156
 30
0.0
 11
1438.625965997251
 21
285.9026362681375
 31
0.0
  0
LINE
  5
D74
330
1F
100
AcDbEntity
  8
0
100
AcDbLine
 10
1427.125965997251
 20
283.3556688691156
 30
0.0
 11
1427.125965997251
 21
285.9026362681375
 31
0.0
  0
CIRCLE
  5
D75
330
1F
100
AcDbEntity
  8
0
100
AcDbCircle
 10
1432.875965997251
 20
284.6291525686265
 30
0.0
 40
3.5
  0
CIRCLE
  5
D76
330
1F
100
AcDbEntity
  8
0
100
AcDbCircle
 10
1432.875965997251
 20
284.6291525686265
 30
0.0
 40
1.375
  0
LINE
  5
D77
330
1F
100
AcDbEntity
  8
0
100
AcDbLine
 10
1438.625965997251
 20
284.6291525686265
 30
0.0
 11
1439.875965997251
 21
284.6291525686265
 31
0.0
  0
LINE
  5
D78
330
1F
100
AcDbEntity
  8
0
 62
     3
100
AcDbLine
 10
1473.754688505008
 20
252.4328073621177
 30
0.0
 11
1459.754688505008
 21
252.4328073621177
 31
0.0
  0
LINE
  5
D7B
330
1F
100
AcDbEntity
  8
0
 62
     3
100
AcDbLine
 10
1459.754688505008
 20
151.4328073621177
 30
0.0
 11
1473.754688505008
 21
151.4328073621177
 31
0.0
  0
LINE
  5
D7F
330
1F
100
AcDbEntity
  8
0
 62
     3
100
AcDbLine
 10
1459.754688505008
 20
252.4328073621177
 30
0.0
 11
1459.754688505008
 21
151.4328073621177
 31
0.0
  0
LINE
  5
D84
330
1F
100
AcDbEntity
  8
0
 62
     3
100
AcDbLine
 10
1473.754688505008
 20
252.4328073621177
 30
0.0
 11
1473.754688505008
 21
151.4328073621177
 31
0.0
  0
CIRCLE
  5
DA5
330
1F
100
AcDbEntity
  8
0
100
AcDbCircle
 10
1471.004688505008
 20
246.1828073621177
 30
0.0
 40
1.0
  0
CIRCLE
  5
DA6
330
1F
100
AcDbEntity
  8
0
100
AcDbCircle
 10
1462.504688505008
 20
246.1828073621177
 30
0.0
 40
1.0
  0
ARC
  5
DA8
330
1F
100
AcDbEntity
  8
0
100
AcDbCircle
 10
1466.754688505008
 20
221.9328073621177
 30
0.0
 40
4.5
100
AcDbArc
 50
29.99999999999671
 51
150.0000000000033
  0
LINE
  5
DB7
330
1F
100
AcDbEntity
  8
0
100
AcDbLine
 10
1470.651802822038
 20
224.1828073621177
 30
0.0
 11
1470.651802822038
 21
219.6828073621177
 31
0.0
  0
LINE
  5
DB8
330
1F
100
AcDbEntity
  8
0
100
AcDbLine
 10
1462.857574187978
 20
224.1828073621177
 30
0.0
 11
1462.857574187978
 21
219.6828073621177
 31
0.0
  0
ARC
  5
DBC
330
1F
100
AcDbEntity
  8
0
100
AcDbCircle
 10
1466.754688505008
 20
221.9328073621177
 30
0.0
 40
4.5
100
AcDbArc
 50
209.9999999999967
 51
330.0000000000033
  0
CIRCLE
  5
DBD
330
1F
100
AcDbEntity
  8
0
100
AcDbCircle
 10
1466.754688505008
 20
221.9328073621177
 30
0.0
 40
3.25
  0
CIRCLE
  5
DBE
330
1F
100
AcDbEntity
  8
0
 62
     3
100
AcDbCircle
 10
1466.754688505008
 20
221.9328073621177
 30
0.0
 40
2.0
  0
ELLIPSE
  5
DC4
330
1F
100
AcDbEntity
  8
0
100
AcDbEllipse
 10
1466.754688505008
 20
208.4328073621177
 30
0.0
 11
0.0000000000000008
 21
4.5
 31
0.0
210
0.0
220
0.0
230
1.0
 40
0.7777777777777777
 41
0.0
 42
6.283185307179584
  0
CIRCLE
  5
DC5
330
1F
100
AcDbEntity
  8
0
 62
     3
100
AcDbCircle
 10
1466.754688505008
 20
208.4328073621177
 30
0.0
 40
2.375
  0
LINE
  5
DC6
330
1F
100
AcDbEntity
  8
0
 62
     3
100
AcDbLine
 10
1459.754688505008
 20
177.4328073621177
 30
0.0
 11
1473.754688505008
 21
177.4328073621177
 31
0.0
  0
LINE
  5
DCA
330
1F
100
AcDbEntity
  8
0
100
AcDbLine
 10
1467.404688505008
 20
155.3078073621177
 30
0.0
 11
1467.404688505008
 21
153.5578073621177
 31
0.0
  0
LINE
  5
DCB
330
1F
100
AcDbEntity
  8
0
100
AcDbLine
 10
1466.104688505008
 20
155.3078073621177
 30
0.0
 11
1466.104688505008
 21
153.5578073621177
 31
0.0
  0
ELLIPSE
  5
DCE
330
1F
100
AcDbEntity
  8
0
100
AcDbEllipse
 10
1467.404688505008
 20
154.4328073621177
 30
0.0
 11
-3.349999999999993
 21
0.0000000000000006
 31
0.0
210
0.0
220
0.0
230
1.0
 40
0.2611940298507467
 41
1.570796326794896
 42
4.712388980384688
  0
ELLIPSE
  5
DCF
330
1F
100
AcDbEntity
  8
0
100
AcDbEllipse
 10
1466.104688505008
 20
154.4328073621177
 30
0.0
 11
-3.349999999999993
 21
0.0000000000000006
 31
0.0
210
0.0
220
0.0
230
1.0
 40
0.2611940298507467
 41
4.712388980384688
 42
7.853981633974482
  0
LINE
  5
DD0
330
1F
100
AcDbEntity
  8
0
100
AcDbLine
 10
1465.554688505008
 20
166.9328073621177
 30
0.0
 11
1467.954688505008
 21
166.9328073621177
 31
0.0
  0
LINE
  5
DD4
330
1F
100
AcDbEntity
  8
0
100
AcDbLine
 10
1467.954688505008
 20
166.9328073621177
 30
0.0
 11
1466.754688505008
 21
165.6828073621177
 31
0.0
  0
LINE
  5
DD5
330
1F
100
AcDbEntity
  8
0
100
AcDbLine
 10
1466.754688505008
 20
165.6828073621177
 30
0.0
 11
1465.554688505008
 21
166.9328073621177
 31
0.0
  0
LINE
  5
EB5
330
1F
100
AcDbEntity
  8
0
100
AcDbLine
 10
1470.754688505008
 20
171.0828073621171
 30
0.0
 11
1470.754688505008
 21
173.0828073621182
 31
0.0
  0
LINE
  5
EB6
330
1F
100
AcDbEntity
  8
0
100
AcDbLine
 10
1462.754688505008
 20
171.0828073621171
 30
0.0
 11
1462.754688505008
 21
173.0828073621182
 31
0.0
  0
ARC
  5
EB7
330
1F
100
AcDbEntity
  8
0
100
AcDbCircle
 10
1466.754688505008
 20
167.8318814361919
 30
0.0
 40
6.600925925925832
100
AcDbArc
 50
52.700922491903
 51
127.299077508097
  0
ARC
  5
EB8
330
1F
100
AcDbEntity
  8
0
100
AcDbCircle
 10
1466.754688505008
 20
176.3337332880435
 30
0.0
 40
6.600925925925905
100
AcDbArc
 50
232.7009224919029
 51
307.2990775080969
  0
LINE
  5
EB9
330
1F
100
AcDbEntity
  8
0
100
AcDbLine
 10
1462.754688505008
 20
171.8328073621175
 30
0.0
 11
1470.754688505008
 21
171.8328073621175
 31
0.0
  0
LINE
  5
EBA
330
1F
100
AcDbEntity
  8
0
100
AcDbLine
 10
1462.754688505008
 20
172.3328073621175
 30
0.0
 11
1470.754688505008
 21
172.3328073621175
 31
0.0
  0
LINE
  5
EBB
330
1F
100
AcDbEntity
  8
0
100
AcDbLine
 10
1462.754688505008
 20
171.3328073621176
 30
0.0
 11
1470.754688505008
 21
171.3328073621176
 31
0.0
  0
LINE
  5
EBC
330
1F
100
AcDbEntity
  8
0
100
AcDbLine
 10
1462.754688505008
 20
172.8328073621175
 30
0.0
 11
1470.754688505008
 21
172.8328073621175
 31
0.0
  0
LINE
  5
EBD
330
1F
100
AcDbEntity
  8
0
100
AcDbLine
 10
1463.106122069127
 20
173.3328073621175
 30
0.0
 11
1470.403254940889
 21
173.3328073621175
 31
0.0
  0
LINE
  5
EBE
330
1F
100
AcDbEntity
  8
0
100
AcDbLine
 10
1463.106122069127
 20
170.8328073621176
 30
0.0
 11
1470.403254940889
 21
170.8328073621176
 31
0.0
  0
LINE
  5
EBF
330
1F
100
AcDbEntity
  8
0
100
AcDbLine
 10
1464.004941041856
 20
170.3328073621176
 30
0.0
 11
1469.50443596816
 21
170.3328073621176
 31
0.0
  0
LINE
  5
EC0
330
1F
100
AcDbEntity
  8
0
100
AcDbLine
 10
1464.004941041856
 20
173.8328073621175
 30
0.0
 11
1469.504435968161
 21
173.8328073621175
 31
0.0
  0
LINE
  5
EC1
330
1F
100
AcDbEntity
  8
0
100
AcDbLine
 10
1465.610055295116
 20
174.3328073621175
 30
0.0
 11
1467.899321714899
 21
174.3328073621175
 31
0.0
  0
LINE
  5
EC2
330
1F
100
AcDbEntity
  8
0
100
AcDbLine
 10
1465.610055295116
 20
169.8328073621176
 30
0.0
 11
1467.899321714899
 21
169.8328073621176
 31
0.0
  0
LINE
  5
F25
330
1F
100
AcDbEntity
  8
0
 62
     3
100
AcDbLine
 10
1392.346616364726
 20
201.0389754208384
 30
0.0
 11
1391.858689534726
 21
201.0389754208384
 31
0.0
  0
LINE
  5
F26
330
1F
100
AcDbEntity
  8
0
 62
     3
100
AcDbLine
 10
1403.858689534725
 20
339.5389754208384
 30
0.0
 11
1403.858689534725
 21
62.53897542083835
 31
0.0
  0
LINE
  5
F28
330
1F
100
AcDbEntity
  8
0
 62
     3
100
AcDbLine
 10
1583.858689534725
 20
62.53897542083835
 30
0.0
 11
1583.858689534725
 21
339.5389754208384
 31
0.0
  0
LINE
  5
F29
330
1F
100
AcDbEntity
  8
0
 62
     3
100
AcDbLine
 10
1403.858689534725
 20
62.53897542083835
 30
0.0
 11
1583.858689534725
 21
62.53897542083835
 31
0.0
  0
LINE
  5
F2A
330
1F
100
AcDbEntity
  8
0
 62
     3
100
AcDbLine
 10
1440.943041554725
 20
341.3264195208383
 30
0.0
 11
1441.378789464726
 21
341.0989513808384
 31
0.0
  0
LINE
  5
F2B
330
1F
100
AcDbEntity
  8
0
 62
     3
100
AcDbLine
 10
1440.943041554725
 20
337.5957890408384
 30
0.0
 11
1441.378789464726
 21
337.8232571808384
 31
0.0
  0
LINE
  5
F2C
330
1F
100
AcDbEntity
  8
0
 62
     3
100
AcDbLine
 10
1441.378789464726
 20
341.0989513808384
 30
0.0
 11
1441.378789464726
 21
337.8232571808384
 31
0.0
  0
LINE
  5
F2D
330
1F
100
AcDbEntity
  8
0
 62
     3
100
AcDbLine
 10
1442.482306884725
 20
337.5957890408384
 30
0.0
 11
1442.046558974725
 21
337.8232571808384
 31
0.0
  0
LINE
  5
F2E
330
1F
100
AcDbEntity
  8
0
 62
     3
100
AcDbLine
 10
1442.046558974725
 20
339.8201159908384
 30
0.0
 11
1442.046558974725
 21
337.8232571808384
 31
0.0
  0
LINE
  5
F2F
330
1F
100
AcDbEntity
  8
0
 62
     3
100
AcDbLine
 10
1445.024169664725
 20
341.3264195208383
 30
0.0
 11
1444.588421754725
 21
341.0989513808384
 31
0.0
  0
LINE
  5
F30
330
1F
100
AcDbEntity
  8
0
 62
     3
100
AcDbLine
 10
1443.484904334725
 20
341.3264195208383
 30
0.0
 11
1443.920652244726
 21
341.0989513808384
 31
0.0
  0
LINE
  5
F31
330
1F
100
AcDbEntity
  8
0
 62
     3
100
AcDbLine
 10
1443.920652244726
 20
341.0989513808384
 30
0.0
 11
1443.920652244726
 21
339.6566143208383
 31
0.0
  0
LINE
  5
F32
330
1F
100
AcDbEntity
  8
0
 62
     3
100
AcDbLine
 10
1444.588421754725
 20
341.0989513808384
 30
0.0
 11
1444.588421754725
 21
337.3842279008384
 31
0.0
  0
LINE
  5
F33
330
1F
100
AcDbEntity
  8
0
 62
     3
100
AcDbLine
 10
1445.239466864726
 20
341.3264168908384
 30
0.0
 11
1445.675213204725
 21
341.0989457508384
 31
0.0
  0
LINE
  5
F34
330
1F
100
AcDbEntity
  8
0
 62
     3
100
AcDbLine
 10
1445.239388894725
 20
337.5958390208384
 30
0.0
 11
1445.675144744726
 21
337.8232919408384
 31
0.0
  0
LINE
  5
F35
330
1F
100
AcDbEntity
  8
0
 62
     3
100
AcDbLine
 10
1445.675213204725
 20
341.0989457508384
 30
0.0
 11
1445.675213204725
 21
337.8232919408384
 31
0.0
  0
LINE
  5
F36
330
1F
100
AcDbEntity
  8
0
 62
     3
100
AcDbLine
 10
1447.169003264726
 20
341.3263932208383
 30
0.0
 11
1446.733252174726
 21
341.0989311908384
 31
0.0
  0
LINE
  5
F37
330
1F
100
AcDbEntity
  8
0
 62
     3
100
AcDbLine
 10
1446.733252174726
 20
341.0989311908384
 30
0.0
 11
1446.733252174726
 21
337.8232773708384
 31
0.0
  0
LINE
  5
F38
330
1F
100
AcDbEntity
  8
0
 62
     3
100
AcDbLine
 10
1447.169003264726
 20
337.5958153408384
 30
0.0
 11
1446.733252174726
 21
337.8232773708384
 31
0.0
  0
LINE
  5
F39
330
1F
100
AcDbEntity
  8
0
 62
     3
100
AcDbLine
 10
1450.859256704725
 20
341.3263522208384
 30
0.0
 11
1451.295003824725
 21
341.0988825808384
 31
0.0
  0
LINE
  5
F3A
330
1F
100
AcDbEntity
  8
0
 62
     3
100
AcDbLine
 10
1451.295003824725
 20
341.0988825808384
 30
0.0
 11
1451.294946654726
 21
337.8232287708383
 31
0.0
  0
LINE
  5
F3B
330
1F
100
AcDbEntity
  8
0
 62
     3
100
AcDbLine
 10
1450.859191594726
 20
337.5957743408384
 30
0.0
 11
1451.294946654726
 21
337.8232287708383
 31
0.0
  0
LINE
  5
F3C
330
1F
100
AcDbEntity
  8
0
 62
     3
100
AcDbLine
 10
1452.811517664726
 20
341.3263522208384
 30
0.0
 11
1452.375770544725
 21
341.0988825808384
 31
0.0
  0
LINE
  5
F3D
330
1F
100
AcDbEntity
  8
0
 62
     3
100
AcDbLine
 10
1452.811582774726
 20
337.5957743408384
 30
0.0
 11
1452.375827714725
 21
337.8232287708383
 31
0.0
  0
LINE
  5
F3E
330
1F
100
AcDbEntity
  8
0
 62
     3
100
AcDbLine
 10
1453.015245524726
 20
341.3263522208384
 30
0.0
 11
1453.450992654726
 21
341.0988825808384
 31
0.0
  0
LINE
  5
F3F
330
1F
100
AcDbEntity
  8
0
 62
     3
100
AcDbLine
 10
1453.015180414725
 20
337.5957743408384
 30
0.0
 11
1453.450935474726
 21
337.8232287708383
 31
0.0
  0
LINE
  5
F40
330
1F
100
AcDbEntity
  8
0
 62
     3
100
AcDbLine
 10
1454.967506494725
 20
341.3263522208384
 30
0.0
 11
1454.531759374726
 21
341.0988825808384
 31
0.0
  0
LINE
  5
F41
330
1F
100
AcDbEntity
  8
0
 62
     3
100
AcDbLine
 10
1454.531759374726
 20
341.0988825808384
 30
0.0
 11
1454.531816544725
 21
337.8232287708383
 31
0.0
  0
LINE
  5
F42
330
1F
100
AcDbEntity
  8
0
 62
     3
100
AcDbLine
 10
1454.967571604726
 20
337.5957743408384
 30
0.0
 11
1454.531816544725
 21
337.8232287708383
 31
0.0
  0
LINE
  5
F43
330
1F
100
AcDbEntity
  8
0
 62
     3
100
AcDbLine
 10
1453.450967744726
 20
339.6717494608383
 30
0.0
 11
1452.375795454726
 21
339.6717494608383
 31
0.0
  0
LINE
  5
F44
330
1F
100
AcDbEntity
  8
0
 62
     3
100
AcDbLine
 10
1453.450960384725
 20
339.2504591008384
 30
0.0
 11
1452.375802804725
 21
339.2504591008384
 31
0.0
  0
LINE
  5
F45
330
1F
100
AcDbEntity
  8
0
 62
     3
100
AcDbLine
 10
1453.450992654726
 20
341.0988825808384
 30
0.0
 11
1453.450967744726
 21
339.6717494608383
 31
0.0
  0
LINE
  5
F46
330
1F
100
AcDbEntity
  8
0
 62
     3
100
AcDbLine
 10
1453.450960384725
 20
339.2504591008384
 30
0.0
 11
1453.450935474726
 21
337.8232287708383
 31
0.0
  0
LINE
  5
F47
330
1F
100
AcDbEntity
  8
0
 62
     3
100
AcDbLine
 10
1452.375770544725
 20
341.0988825808384
 30
0.0
 11
1452.375795454726
 21
339.6717494608383
 31
0.0
  0
LINE
  5
F48
330
1F
100
AcDbEntity
  8
0
 62
     3
100
AcDbLine
 10
1452.375802804725
 20
339.2504591008384
 30
0.0
 11
1452.375827714725
 21
337.8232287708383
 31
0.0
  0
LINE
  5
F49
330
1F
100
AcDbEntity
  8
0
 62
     3
100
AcDbLine
 10
1455.174465614726
 20
341.3263522208384
 30
0.0
 11
1455.610212734725
 21
341.0988825808384
 31
0.0
  0
LINE
  5
F4A
330
1F
100
AcDbEntity
  8
0
 62
     3
100
AcDbLine
 10
1455.610212734725
 20
341.0988825808384
 30
0.0
 11
1455.610155564725
 21
337.8232287708383
 31
0.0
  0
LINE
  5
F4B
330
1F
100
AcDbEntity
  8
0
 62
     3
100
AcDbLine
 10
1455.174400504725
 20
337.5957743408384
 30
0.0
 11
1455.610155564725
 21
337.8232287708383
 31
0.0
  0
LINE
  5
F4C
330
1F
100
AcDbEntity
  8
0
 62
     3
100
AcDbLine
 10
1457.103975884725
 20
341.3263522208384
 30
0.0
 11
1456.668228764726
 21
341.0988825808384
 31
0.0
  0
LINE
  5
F4D
330
1F
100
AcDbEntity
  8
0
 62
     3
100
AcDbLine
 10
1456.668228764726
 20
341.0988825808384
 30
0.0
 11
1456.668285934726
 21
337.8232287708383
 31
0.0
  0
LINE
  5
F4E
330
1F
100
AcDbEntity
  8
0
 62
     3
100
AcDbLine
 10
1457.104040994726
 20
337.5957743408384
 30
0.0
 11
1456.668285934726
 21
337.8232287708383
 31
0.0
  0
LINE
  5
F4F
330
1F
100
AcDbEntity
  8
0
 62
     3
100
AcDbLine
 10
1457.318335454726
 20
341.3263522208384
 30
0.0
 11
1457.754082574725
 21
341.0988825808384
 31
0.0
  0
LINE
  5
F50
330
1F
100
AcDbEntity
  8
0
 62
     3
100
AcDbLine
 10
1457.754082574725
 20
341.0988825808384
 30
0.0
 11
1457.754025404725
 21
337.8232287708383
 31
0.0
  0
LINE
  5
F51
330
1F
100
AcDbEntity
  8
0
 62
     3
100
AcDbLine
 10
1457.318270344725
 20
337.5957743408384
 30
0.0
 11
1457.754025404725
 21
337.8232287708383
 31
0.0
  0
ARC
  5
F52
330
1F
100
AcDbEntity
  8
0
 62
     3
100
AcDbCircle
 10
1449.467345434725
 20
339.4704940408383
 30
0.0
 40
2.086285909999999
100
AcDbArc
 50
97.70152350999723
 51
270.0
  0
ARC
  5
F53
330
1F
100
AcDbEntity
  8
0
 62
     3
100
AcDbCircle
 10
1462.347946274725
 20
339.4495374108383
 30
0.0
 40
2.108943379999999
100
AcDbArc
 50
0.314250269999259
 51
69.00558245000215
  0
ARC
  5
F54
330
1F
100
AcDbEntity
  8
0
 62
     3
100
AcDbCircle
 10
1462.808621594725
 20
339.4495374108383
 30
0.0
 40
2.108943379999999
100
AcDbArc
 50
110.9944175499969
 51
148.1166110200035
  0
ARC
  5
F55
330
1F
100
AcDbEntity
  8
0
 62
     3
100
AcDbCircle
 10
1462.347946274725
 20
339.4726711508384
 30
0.0
 40
2.108943379999999
100
AcDbArc
 50
290.9944175499979
 51
359.6857497300007
  0
ARC
  5
F56
330
1F
100
AcDbEntity
  8
0
 62
     3
100
AcDbCircle
 10
1462.808621594725
 20
339.4726711508384
 30
0.0
 40
2.108943379999999
100
AcDbArc
 50
211.8833889799965
 51
249.0055824500021
  0
ARC
  5
F57
330
1F
100
AcDbEntity
  8
0
 62
     3
100
AcDbCircle
 10
1462.578283934726
 20
340.3239096708384
 30
0.0
 40
1.214070989999997
100
AcDbArc
 50
64.3651718999996
 51
115.6348281000004
  0
ARC
  5
F58
330
1F
100
AcDbEntity
  8
0
 62
     3
100
AcDbCircle
 10
1462.578283934726
 20
338.5982988908383
 30
0.0
 40
1.214070989999997
100
AcDbArc
 50
244.3651718999996
 51
295.6348281000004
  0
ARC
  5
F59
330
1F
100
AcDbEntity
  8
0
 62
     3
100
AcDbCircle
 10
1462.578283934726
 20
340.3469713508384
 30
0.0
 40
0.59585563
100
AcDbArc
 50
19.48660554000285
 51
160.5133944599971
  0
ARC
  5
F5A
330
1F
100
AcDbEntity
  8
0
 62
     3
100
AcDbCircle
 10
1462.578283934726
 20
338.5982988908383
 30
0.0
 40
1.214070989999997
100
AcDbArc
 50
244.3651718999996
 51
295.6348281000004
  0
ARC
  5
F5B
330
1F
100
AcDbEntity
  8
0
 62
     3
100
AcDbCircle
 10
1462.578283934726
 20
338.5752372108383
 30
0.0
 40
0.59585563
100
AcDbArc
 50
199.4866055400029
 51
340.5133944599971
  0
ARC
  5
F5C
330
1F
100
AcDbEntity
  8
0
 62
     3
100
AcDbCircle
 10
1457.835811434726
 20
317.2330444408383
 30
0.0
 40
26.04
100
AcDbArc
 50
69.50571479999543
 51
81.68998806999734
  0
ARC
  5
F5D
330
1F
100
AcDbEntity
  8
0
 62
     3
100
AcDbCircle
 10
1457.835811434726
 20
361.6891641208384
 30
0.0
 40
26.04
100
AcDbArc
 50
278.3100119300026
 51
290.4942852000047
  0
ARC
  5
F5E
330
1F
100
AcDbEntity
  8
0
 62
     3
100
AcDbCircle
 10
1466.144015564725
 20
339.4611042808384
 30
0.0
 40
2.31
100
AcDbArc
 50
290.4942852000047
 51
69.50571479999543
  0
ARC
  5
F5F
330
1F
100
AcDbEntity
  8
0
 62
     3
100
AcDbCircle
 10
1438.844015564725
 20
339.4611042808384
 30
0.0
 40
2.31
100
AcDbArc
 50
110.4942851999924
 51
249.5057147999946
  0
ARC
  5
F60
330
1F
100
AcDbEntity
  8
0
 62
     3
100
AcDbCircle
 10
1447.152219684725
 20
317.2330444408383
 30
0.0
 40
26.04
100
AcDbArc
 50
98.31001192998959
 51
110.4942851999924
  0
ARC
  5
F61
330
1F
100
AcDbEntity
  8
0
 62
     3
100
AcDbCircle
 10
1447.152219684725
 20
361.6891641208384
 30
0.0
 40
26.04
100
AcDbArc
 50
249.5057147999946
 51
261.6899880699973
  0
ARC
  5
F62
330
1F
100
AcDbEntity
  8
0
 62
     3
100
AcDbCircle
 10
1452.494015564725
 20
280.6611042808384
 30
0.0
 40
62.99999987
100
AcDbArc
 50
81.68998806999734
 51
98.31001192998959
  0
ARC
  5
F63
330
1F
100
AcDbEntity
  8
0
 62
     3
100
AcDbCircle
 10
1452.494015564725
 20
398.2611042808384
 30
0.0
 40
62.99999987
100
AcDbArc
 50
261.6899880699973
 51
278.3100119300026
  0
ARC
  5
F64
330
1F
100
AcDbEntity
  8
0
 62
     3
100
AcDbCircle
 10
1452.494015564725
 20
280.6611042808384
 30
0.0
 40
62.36999987
100
AcDbArc
 50
81.68998806999734
 51
98.31001192998959
  0
ARC
  5
F65
330
1F
100
AcDbEntity
  8
0
 62
     3
100
AcDbCircle
 10
1452.494015564725
 20
398.2611042808384
 30
0.0
 40
62.36999987
100
AcDbArc
 50
261.6899880699973
 51
278.3100119300026
  0
ARC
  5
F66
330
1F
100
AcDbEntity
  8
0
 62
     3
100
AcDbCircle
 10
1457.835811434726
 20
361.6891641208384
 30
0.0
 40
25.41
100
AcDbArc
 50
278.3100119300026
 51
290.4942852000047
  0
ARC
  5
F67
330
1F
100
AcDbEntity
  8
0
 62
     3
100
AcDbCircle
 10
1457.835811434726
 20
317.2330444408383
 30
0.0
 40
25.41
100
AcDbArc
 50
69.50571479999543
 51
81.68998806999734
  0
ARC
  5
F68
330
1F
100
AcDbEntity
  8
0
 62
     3
100
AcDbCircle
 10
1466.144015564725
 20
339.4611042808384
 30
0.0
 40
1.679999999999999
100
AcDbArc
 50
290.4942852000047
 51
69.50571479999543
  0
ARC
  5
F69
330
1F
100
AcDbEntity
  8
0
 62
     3
100
AcDbCircle
 10
1438.844015564725
 20
339.4611042808384
 30
0.0
 40
1.679999999999999
100
AcDbArc
 50
110.4942851999924
 51
249.5057147999946
  0
ARC
  5
F6A
330
1F
100
AcDbEntity
  8
0
 62
     3
100
AcDbCircle
 10
1447.152219684725
 20
317.2330444408383
 30
0.0
 40
25.41
100
AcDbArc
 50
98.31001192998959
 51
110.4942851999924
  0
ARC
  5
F6B
330
1F
100
AcDbEntity
  8
0
 62
     3
100
AcDbCircle
 10
1447.152219684725
 20
361.6891641208384
 30
0.0
 40
25.41
100
AcDbArc
 50
249.5057147999946
 51
261.6899880699973
  0
LINE
  5
F6C
330
1F
100
AcDbEntity
  8
0
 62
     3
100
AcDbLine
 10
1457.103976664726
 20
337.3842279008384
 30
0.0
 11
1455.174464834725
 21
337.3842279008384
 31
0.0
  0
LINE
  5
F6D
330
1F
100
AcDbEntity
  8
0
 62
     3
100
AcDbLine
 10
1457.103976664726
 20
337.5957890408384
 30
0.0
 11
1457.103976664726
 21
337.3842279008384
 31
0.0
  0
LINE
  5
F6E
330
1F
100
AcDbEntity
  8
0
 62
     3
100
AcDbLine
 10
1454.967507274726
 20
341.5378819408384
 30
0.0
 11
1453.015244744725
 21
341.5378819408384
 31
0.0
  0
LINE
  5
F6F
330
1F
100
AcDbEntity
  8
0
 62
     3
100
AcDbLine
 10
1454.967507274726
 20
341.5378819408384
 30
0.0
 11
1454.967507274726
 21
341.3264195208383
 31
0.0
  0
LINE
  5
F70
330
1F
100
AcDbEntity
  8
0
 62
     3
100
AcDbLine
 10
1454.967507274726
 20
337.5957890408384
 30
0.0
 11
1454.967507274726
 21
337.3841291908383
 31
0.0
  0
LINE
  5
F71
330
1F
100
AcDbEntity
  8
0
 62
     3
100
AcDbLine
 10
1454.967507274726
 20
337.3841291908383
 30
0.0
 11
1453.015244744725
 21
337.3841291908383
 31
0.0
  0
LINE
  5
F72
330
1F
100
AcDbEntity
  8
0
 62
     3
100
AcDbLine
 10
1457.103976664726
 20
341.5379806608383
 30
0.0
 11
1457.103976664726
 21
341.3264195208383
 31
0.0
  0
LINE
  5
F73
330
1F
100
AcDbEntity
  8
0
 62
     3
100
AcDbLine
 10
1457.103976664726
 20
341.5379806608383
 30
0.0
 11
1455.174464834725
 21
341.5379806608383
 31
0.0
  0
LINE
  5
F74
330
1F
100
AcDbEntity
  8
0
 62
     3
100
AcDbLine
 10
1455.174464834725
 20
341.5379806608383
 30
0.0
 11
1455.174464834725
 21
341.3264195208383
 31
0.0
  0
LINE
  5
F75
330
1F
100
AcDbEntity
  8
0
 62
     3
100
AcDbLine
 10
1457.318334664726
 20
337.5957890408384
 30
0.0
 11
1457.318334664726
 21
337.3842279008384
 31
0.0
  0
LINE
  5
F76
330
1F
100
AcDbEntity
  8
0
 62
     3
100
AcDbLine
 10
1459.302635224726
 20
337.3842279008384
 30
0.0
 11
1457.318334664726
 21
337.3842279008384
 31
0.0
  0
LINE
  5
F77
330
1F
100
AcDbEntity
  8
0
 62
     3
100
AcDbLine
 10
1458.812098594726
 20
340.8702111408384
 30
0.0
 11
1458.812098594726
 21
338.0519974208383
 31
0.0
  0
LINE
  5
F78
330
1F
100
AcDbEntity
  8
0
 62
     3
100
AcDbLine
 10
1458.812098594726
 20
338.0519974208383
 30
0.0
 11
1459.002147564725
 21
338.0519974208383
 31
0.0
  0
ARC
  5
F79
330
1F
100
AcDbEntity
  8
0
 62
     3
100
AcDbCircle
 10
1458.030361824725
 20
339.4611042808384
 30
0.0
 40
1.71170957
100
AcDbArc
 50
304.5919552700023
 51
55.4080447299977
  0
LINE
  5
F7A
330
1F
100
AcDbEntity
  8
0
 62
     3
100
AcDbLine
 10
1459.302635224726
 20
341.5379806608383
 30
0.0
 11
1457.318334664726
 21
341.5379806608383
 31
0.0
  0
LINE
  5
F7B
330
1F
100
AcDbEntity
  8
0
 62
     3
100
AcDbLine
 10
1457.318334664726
 20
341.5379806608383
 30
0.0
 11
1457.318334664726
 21
341.3264195208383
 31
0.0
  0
LINE
  5
F7C
330
1F
100
AcDbEntity
  8
0
 62
     3
100
AcDbLine
 10
1455.174464834725
 20
337.5957890408384
 30
0.0
 11
1455.174464834725
 21
337.3842279008384
 31
0.0
  0
LINE
  5
F7D
330
1F
100
AcDbEntity
  8
0
 62
     3
100
AcDbLine
 10
1458.812098594726
 20
340.8702111408384
 30
0.0
 11
1459.002147564725
 21
340.8702111408384
 31
0.0
  0
LINE
  5
F7E
330
1F
100
AcDbEntity
  8
0
 62
     3
100
AcDbLine
 10
1447.168938934726
 20
337.5957890408384
 30
0.0
 11
1447.168935244725
 21
337.3842081308384
 31
0.0
  0
LINE
  5
F7F
330
1F
100
AcDbEntity
  8
0
 62
     3
100
AcDbLine
 10
1445.239423404725
 20
337.3842476708384
 30
0.0
 11
1447.168935244725
 21
337.3842140008384
 31
0.0
  0
LINE
  5
F80
330
1F
100
AcDbEntity
  8
0
 62
     3
100
AcDbLine
 10
1440.943041554725
 20
337.3842279008384
 30
0.0
 11
1442.482306884725
 21
337.3842279008384
 31
0.0
  0
ARC
  5
F81
330
1F
100
AcDbEntity
  8
0
 62
     3
100
AcDbCircle
 10
1435.961098874726
 20
339.5100109008384
 30
0.0
 40
14.71356563
100
AcDbArc
 50
353.8660061899995
 51
357.6940342600001
  0
LINE
  5
F82
330
1F
100
AcDbEntity
  8
0
 62
     3
100
AcDbLine
 10
1449.677678734726
 20
338.9216432508384
 30
0.0
 11
1450.662749624726
 21
338.9179983708384
 31
0.0
  0
LINE
  5
F84
330
1F
100
AcDbEntity
  8
0
 62
     3
100
AcDbLine
 10
1449.681657154726
 20
339.9968579908383
 30
0.0
 11
1450.666728034726
 21
339.9932131208383
 31
0.0
  0
ARC
  5
F85
330
1F
100
AcDbEntity
  8
0
 62
     3
100
AcDbCircle
 10
1435.961098874726
 20
339.5100109008384
 30
0.0
 40
14.71356563
100
AcDbArc
 50
1.881965739999571
 51
5.709993809999332
  0
LINE
  5
F86
330
1F
100
AcDbEntity
  8
0
 62
     3
100
AcDbLine
 10
1447.169007734726
 20
341.5379608908383
 30
0.0
 11
1447.169004044726
 21
341.3264195208383
 31
0.0
  0
LINE
  5
F87
330
1F
100
AcDbEntity
  8
0
 62
     3
100
AcDbLine
 10
1445.239495904725
 20
341.5380004308383
 30
0.0
 11
1447.169007734726
 21
341.5379667508383
 31
0.0
  0
LINE
  5
F88
330
1F
100
AcDbEntity
  8
0
 62
     3
100
AcDbLine
 10
1445.239427094725
 20
337.5957890408384
 30
0.0
 11
1445.239423404725
 21
337.3842476708384
 31
0.0
  0
LINE
  5
F89
330
1F
100
AcDbEntity
  8
0
 62
     3
100
AcDbLine
 10
1445.239495904725
 20
341.5380004308383
 30
0.0
 11
1445.239492214725
 21
341.3264195208383
 31
0.0
  0
LINE
  5
F8A
330
1F
100
AcDbEntity
  8
0
 62
     3
100
AcDbLine
 10
1442.482306884725
 20
337.5957890408384
 30
0.0
 11
1442.482306884725
 21
337.3842279008384
 31
0.0
  0
LINE
  5
F8B
330
1F
100
AcDbEntity
  8
0
 62
     3
100
AcDbLine
 10
1442.046558974725
 20
339.8201159908384
 30
0.0
 11
1443.568989034726
 21
337.3842279008384
 31
0.0
  0
LINE
  5
F8C
330
1F
100
AcDbEntity
  8
0
 62
     3
100
AcDbLine
 10
1443.568989034726
 20
337.3842279008384
 30
0.0
 11
1444.588421754725
 21
337.3842279008384
 31
0.0
  0
LINE
  5
F8D
330
1F
100
AcDbEntity
  8
0
 62
     3
100
AcDbLine
 10
1445.024169664725
 20
341.5379806608383
 30
0.0
 11
1445.024169664725
 21
341.3264195208383
 31
0.0
  0
LINE
  5
F8E
330
1F
100
AcDbEntity
  8
0
 62
     3
100
AcDbLine
 10
1443.484904334725
 20
341.5379806608383
 30
0.0
 11
1445.024169664725
 21
341.5379806608383
 31
0.0
  0
LINE
  5
F8F
330
1F
100
AcDbEntity
  8
0
 62
     3
100
AcDbLine
 10
1443.484904334725
 20
341.5379806608383
 30
0.0
 11
1443.484904334725
 21
341.3264195208383
 31
0.0
  0
LINE
  5
F90
330
1F
100
AcDbEntity
  8
0
 62
     3
100
AcDbLine
 10
1443.920652244726
 20
339.6566143208383
 30
0.0
 11
1442.686005574725
 21
341.5379806608383
 31
0.0
  0
LINE
  5
F91
330
1F
100
AcDbEntity
  8
0
 62
     3
100
AcDbLine
 10
1440.943041554725
 20
341.5379806608383
 30
0.0
 11
1442.686005574725
 21
341.5379806608383
 31
0.0
  0
LINE
  5
F92
330
1F
100
AcDbEntity
  8
0
 62
     3
100
AcDbLine
 10
1450.859255914725
 20
341.5378819408384
 30
0.0
 11
1452.811518454725
 21
341.5378819408384
 31
0.0
  0
LINE
  5
F93
330
1F
100
AcDbEntity
  8
0
 62
     3
100
AcDbLine
 10
1450.859255914725
 20
341.3264195208383
 30
0.0
 11
1450.859255914725
 21
341.5378819408384
 31
0.0
  0
LINE
  5
F94
330
1F
100
AcDbEntity
  8
0
 62
     3
100
AcDbLine
 10
1450.859255914725
 20
337.3841291908383
 30
0.0
 11
1450.859255914725
 21
337.5957890408384
 31
0.0
  0
LINE
  5
F95
330
1F
100
AcDbEntity
  8
0
 62
     3
100
AcDbLine
 10
1450.859255914725
 20
337.3841291908383
 30
0.0
 11
1452.811518454725
 21
337.3841291908383
 31
0.0
  0
LINE
  5
F96
330
1F
100
AcDbEntity
  8
0
 62
     3
100
AcDbLine
 10
1453.015244744725
 20
337.5957890408384
 30
0.0
 11
1453.015244744725
 21
337.3841291908383
 31
0.0
  0
LINE
  5
F97
330
1F
100
AcDbEntity
  8
0
 62
     3
100
AcDbLine
 10
1452.811518454725
 20
337.5957890408384
 30
0.0
 11
1452.811518454725
 21
337.3841291908383
 31
0.0
  0
LINE
  5
F98
330
1F
100
AcDbEntity
  8
0
 62
     3
100
AcDbLine
 10
1452.811518454725
 20
341.3264195208383
 30
0.0
 11
1452.811518454725
 21
341.5378819408384
 31
0.0
  0
LINE
  5
F99
330
1F
100
AcDbEntity
  8
0
 62
     3
100
AcDbLine
 10
1453.015244744725
 20
341.3264195208383
 30
0.0
 11
1453.015244744725
 21
341.5378819408384
 31
0.0
  0
LINE
  5
F9A
330
1F
100
AcDbEntity
  8
0
 62
     3
100
AcDbLine
 10
1440.943041554725
 20
337.5957890408384
 30
0.0
 11
1440.943041554725
 21
337.3842279008384
 31
0.0
  0
LINE
  5
F9B
330
1F
100
AcDbEntity
  8
0
 62
     3
100
AcDbLine
 10
1440.943041554725
 20
341.5379806608383
 30
0.0
 11
1440.943041554725
 21
341.3264195208383
 31
0.0
  0
ARC
  5
F9C
330
1F
100
AcDbEntity
  8
0
 62
     3
100
AcDbCircle
 10
1459.512635224726
 20
339.8968521908383
 30
0.0
 40
1.641128469999999
100
AcDbArc
 50
17.30874897999839
 51
23.76507095999707
  0
ARC
  5
F9D
330
1F
100
AcDbEntity
  8
0
 62
     3
100
AcDbCircle
 10
1458.114361824726
 20
339.4611042808384
 30
0.0
 40
3.105725599999998
100
AcDbArc
 50
342.6912510200016
 51
17.30856644000006
  0
ARC
  5
F9E
330
1F
100
AcDbEntity
  8
0
 62
     3
100
AcDbCircle
 10
1459.512635224726
 20
339.0253563808383
 30
0.0
 40
1.641128469999999
100
AcDbArc
 50
336.2349290399988
 51
342.6912510200016
  0
ARC
  5
F9F
330
1F
100
AcDbEntity
  8
0
 62
     3
100
AcDbCircle
 10
1459.302635224726
 20
339.8968521908383
 30
0.0
 40
1.641128469999999
100
AcDbArc
 50
17.30874897999839
 51
90.0
  0
ARC
  5
FA0
330
1F
100
AcDbEntity
  8
0
 62
     3
100
AcDbCircle
 10
1457.904361824726
 20
339.4611042808384
 30
0.0
 40
3.105725599999998
100
AcDbArc
 50
342.6912510200016
 51
17.30856644000006
  0
ARC
  5
FA1
330
1F
100
AcDbEntity
  8
0
 62
     3
100
AcDbCircle
 10
1459.302635224726
 20
339.0253563808383
 30
0.0
 40
1.641128469999999
100
AcDbArc
 50
270.0
 51
342.6912510200016
  0
ARC
  5
FA2
330
1F
100
AcDbEntity
  8
0
 62
     3
100
AcDbCircle
 10
1449.178694854725
 20
339.4611042808384
 30
0.0
 40
2.076876379999998
100
AcDbArc
 50
46.75287960999649
 51
89.74999828999569
  0
ARC
  5
FA3
330
1F
100
AcDbEntity
  8
0
 62
     3
100
AcDbCircle
 10
1449.178694854725
 20
339.4611042808384
 30
0.0
 40
2.076876379999998
100
AcDbArc
 50
273.976333149997
 51
312.8231203899985
  0
ARC
  5
FA4
330
1F
100
AcDbEntity
  8
0
 62
     3
100
AcDbCircle
 10
1460.620502794725
 20
339.4290427508384
 30
0.0
 40
2.755888999999998
100
AcDbArc
 50
0.6665840599997753
 51
23.90392827000137
  0
ARC
  5
FA5
330
1F
100
AcDbEntity
  8
0
 62
     3
100
AcDbCircle
 10
1464.536065074726
 20
339.4290427508384
 30
0.0
 40
2.755888999999998
100
AcDbArc
 50
156.0960717299986
 51
179.3334159400002
  0
ARC
  5
FA6
330
1F
100
AcDbEntity
  8
0
 62
     3
100
AcDbCircle
 10
1460.620502794725
 20
339.4931658108384
 30
0.0
 40
2.755888999999998
100
AcDbArc
 50
336.0960717299986
 51
359.3334159400003
  0
ARC
  5
FA7
330
1F
100
AcDbEntity
  8
0
 62
     3
100
AcDbCircle
 10
1464.536065074726
 20
339.4931658108384
 30
0.0
 40
2.755888999999998
100
AcDbArc
 50
180.6665840599997
 51
203.9039282700014
  0
LINE
  5
FA8
330
1F
100
AcDbEntity
  8
0
 62
     3
100
AcDbLine
 10
1469.186352164725
 20
339.5389754208384
 30
0.0
 11
1583.858689534725
 21
339.5389754208384
 31
0.0
  0
LINE
  5
FAA
330
1F
100
AcDbEntity
  8
0
 62
     3
100
AcDbLine
 10
1435.773605644725
 20
339.5389754208384
 30
0.0
 11
1403.858689534725
 21
339.5389754208384
 31
0.0
  0
LINE
  5
FAB
330
1F
100
AcDbEntity
  8
0
 62
     3
100
AcDbLine
 10
1531.858689534726
 20
62.53897542083835
 30
0.0
 11
1531.858689534726
 21
102.5389754208383
 31
0.0
  0
LINE
  5
FAC
330
1F
100
AcDbEntity
  8
0
 62
     3
100
AcDbLine
 10
1544.858689534726
 20
72.53897542083837
 30
0.0
 11
1544.858689534726
 21
102.5389754208383
 31
0.0
  0
LINE
  5
FAD
330
1F
100
AcDbEntity
  8
0
 62
     3
100
AcDbLine
 10
1504.858689534725
 20
72.53897542083837
 30
0.0
 11
1504.858689534725
 21
86.53897542083837
 31
0.0
  0
LINE
  5
FAE
330
1F
100
AcDbEntity
  8
0
 62
     3
100
AcDbLine
 10
1514.858689534726
 20
86.53897542083837
 30
0.0
 11
1514.858689534726
 21
62.53897542083835
 31
0.0
  0
LINE
  5
FAF
330
1F
100
AcDbEntity
  8
0
 62
     3
100
AcDbLine
 10
1485.858689534726
 20
102.5389754208383
 30
0.0
 11
1485.858689534726
 21
79.53897542083836
 31
0.0
  0
LINE
  5
FB1
330
1F
100
AcDbEntity
  8
0
 62
     3
100
AcDbLine
 10
1557.858689534725
 20
79.53897542083836
 30
0.0
 11
1557.858689534726
 21
102.5389754208383
 31
0.0
  0
LINE
  5
FB2
330
1F
100
AcDbEntity
  8
0
 62
     3
100
AcDbLine
 10
1583.858689534725
 20
102.5389754208383
 30
0.0
 11
1472.613254894725
 21
102.5389754208384
 31
0.0
  0
LINE
  5
FB3
330
1F
100
AcDbEntity
  8
0
 62
     3
100
AcDbLine
 10
1583.858689534725
 20
93.53897542083835
 30
0.0
 11
1472.613254894725
 21
93.53897542083835
 31
0.0
  0
LINE
  5
FB4
330
1F
100
AcDbEntity
  8
0
 62
     3
100
AcDbLine
 10
1583.858689534725
 20
79.53897542083836
 30
0.0
 11
1472.613254894725
 21
79.53897542083836
 31
0.0
  0
LINE
  5
FB5
330
1F
100
AcDbEntity
  8
0
 62
     3
100
AcDbLine
 10
1583.858689534725
 20
72.53897542083837
 30
0.0
 11
1472.555247034726
 21
72.53897542083837
 31
0.0
  0
LINE
  5
FB6
330
1F
100
AcDbEntity
  8
0
 62
     3
100
AcDbLine
 10
1570.858689534726
 20
79.53897542083836
 30
0.0
 11
1570.858689534726
 21
102.5389754208383
 31
0.0
  0
LINE
  5
FB7
330
1F
100
AcDbEntity
  8
0
 62
     3
100
AcDbLine
 10
1472.613254894725
 20
102.5389754208384
 30
0.0
 11
1472.613254894725
 21
62.53897542083835
 31
0.0
  0
LINE
  5
FB8
330
1F
100
AcDbEntity
  8
0
 62
     3
100
AcDbLine
 10
1531.858689534726
 20
86.53897542083837
 30
0.0
 11
1472.613254894725
 21
86.53897542083836
 31
0.0
  0
LINE
  5
FB9
330
1F
100
AcDbEntity
  8
0
 62
     3
100
AcDbLine
 10
1515.137014464725
 20
67.37183668083836
 30
0.0
 11
1531.858689534726
 21
67.37183668083836
 31
0.0
  0
TEXT
  5
FBB
330
1F
100
AcDbEntity
  8
0
 62
     3
100
AcDbText
 10
1516.023014948041
 20
81.61207227420369
 30
0.0
 40
2.5
  1
黒
  7
高2.5
100
AcDbText
  0
TEXT
  5
FBC
330
1F
100
AcDbEntity
  8
0
 62
     3
100
AcDbText
 10
1487.055058229978
 20
81.83678982582227
 30
0.0
 40
2.5
  1
ABS
  7
高2.5
100
AcDbText
  0
TEXT
  5
FBD
330
1F
100
AcDbEntity
  8
0
 62
     3
100
AcDbText
 10
1487.319965984675
 20
94.85122494459623
 30
0.0
 40
4.5
  1
LEDスリムスティック24P
 41
0.6
  7
高4.5
100
AcDbText
1001
ACAD
1000
ACAD_MTEXT_DEFINED_HEIGHT_BEGIN
1070
    46
1040
0.0
1000
ACAD_MTEXT_DEFINED_HEIGHT_END
  0
TEXT
  5
FBE
330
1F
100
AcDbEntity
  8
0
 62
     3
100
AcDbText
 10
1573.9242786282
 20
99.05266751954195
 30
0.0
 40
2.0
  1
DEF
  7
高2
100
AcDbText
  0
TEXT
  5
FBF
330
1F
100
AcDbEntity
  8
0
 62
     3
100
AcDbText
 10
1559.985180274491
 20
99.05266751954187
 30
0.0
 40
2.0
  1
DESN
  7
高2
100
AcDbText
  0
TEXT
  5
FC0
330
1F
100
AcDbEntity
  8
0
 62
     3
100
AcDbText
 10
1533.730813334491
 20
99.05266751954195
 30
0.0
 40
2.0
  1
APPD
  7
高2
100
AcDbText
  0
TEXT
  5
FC1
330
1F
100
AcDbEntity
  8
0
 62
     3
100
AcDbText
 10
1546.843549434725
 20
99.05266751954201
 30
0.0
 40
2.0
  1
CHCK
  7
高2
100
AcDbText
  0
TEXT
  5
FC2
330
1F
100
AcDbEntity
  8
0
 62
     3
100
AcDbText
 10
1505.785855173878
 20
76.70737424406908
 30
0.0
 40
2.0
  1
SCALE
 41
0.8
  7
高2
100
AcDbText
  0
TEXT
  5
FC3
330
1F
100
AcDbEntity
  8
0
 62
     3
100
AcDbText
 10
1474.297833597772
 20
76.70737424406908
 30
0.0
 40
2.0
  1
3AD　ANGLE
 41
1.5
  7
高2
100
AcDbText
  0
TEXT
  5
FC4
330
1F
100
AcDbEntity
  8
0
 62
     3
100
AcDbText
 10
1505.055260864727
 20
83.45891231302619
 30
0.0
 40
2.0
  1
REMARKS
 41
0.7
  7
高2
100
AcDbText
  0
TEXT
  5
FC5
330
1F
100
AcDbEntity
  8
0
 62
     3
100
AcDbText
 10
1474.080925244726
 20
83.53897542083837
 30
0.0
 40
2.0
  1
MATERIAL
 41
0.7
  7
高2
100
AcDbText
  0
TEXT
  5
FC6
330
1F
100
AcDbEntity
  8
0
 62
     3
100
AcDbText
 10
1474.657412447479
 20
90.53897542083836
 30
0.0
 40
2.0
  1
MODEL
  7
高2
100
AcDbText
  0
TEXT
  5
FC7
330
1F
100
AcDbEntity
  8
0
 62
     3
100
AcDbText
 10
1474.294333328811
 20
99.24599677143739
 30
0.0
 40
2.0
  1
CONPONENTS
 41
0.5
  7
高2
100
AcDbText
  0
TEXT
  5
FC8
330
1F
100
AcDbEntity
  8
0
 62
     3
100
AcDbText
 10
1487.001448799978
 20
87.6264565486503
 30
0.0
 40
4.5
  1
SST-24P
  7
高4.5
100
AcDbText
  0
TEXT
  5
FC9
330
1F
100
AcDbEntity
  8
0
 62
     3
100
AcDbText
 10
1534.923735265344
 20
64.57743681620396
 30
0.0
 40
6.299999999999998
  1
SST-24P
  7
高6.3
100
AcDbText
1001
ACAD
1000
ACAD_MTEXT_DEFINED_HEIGHT_BEGIN
1070
    46
1040
0.0
1000
ACAD_MTEXT_DEFINED_HEIGHT_END
  0
TEXT
  5
FCA
330
1F
100
AcDbEntity
  8
0
 62
     3
100
AcDbText
 10
1548.422199285055
 20
73.63986457907138
 30
0.0
 40
3.2
  1
2013.11.12
  7
高3.2
100
AcDbText
1001
ACAD
1000
ACAD_MTEXT_DEFINED_HEIGHT_BEGIN
1070
    46
1040
0.0
1000
ACAD_MTEXT_DEFINED_HEIGHT_END
  0
TEXT
  5
FCB
330
1F
100
AcDbEntity
  8
0
 62
     3
100
AcDbText
 10
1518.646287429372
 20
73.63989242340624
 30
0.0
 40
3.2
  1
1/2
  7
高3.2
100
AcDbText
  0
TEXT
  5
FCC
330
1F
100
AcDbEntity
  8
0
 62
     3
100
AcDbText
 10
1515.723616404726
 20
63.35585359397433
 30
0.0
 40
3.2
  1
ZK-A4Y
 41
0.8
  7
高3.2
100
AcDbText
  0
TEXT
  5
FCD
330
1F
100
AcDbEntity
  8
0
 62
     3
100
AcDbText
 10
1473.443955934725
 20
69.06359584302619
 30
0.0
 40
2.0
  1
NICHIDO IND.CO.LTD
 41
1.3
  7
高2
100
AcDbText
  0
TEXT
  5
FCE
330
1F
100
AcDbEntity
  8
0
 62
     3
100
AcDbText
 10
1474.625479199683
 20
94.67950362872327
 30
0.0
 40
3.2
  1
品 名
  7
高3.2
100
AcDbText
1001
ACAD
1000
ACAD_MTEXT_DEFINED_HEIGHT_BEGIN
1070
    46
1040
0.0
1000
ACAD_MTEXT_DEFINED_HEIGHT_END
  0
TEXT
  5
FCF
330
1F
100
AcDbEntity
  8
0
 62
     3
100
AcDbText
 10
1474.625479199683
 20
87.03897542083835
 30
0.0
 40
3.2
  1
型 式
  7
高3.2
100
AcDbText
1001
ACAD
1000
ACAD_MTEXT_DEFINED_HEIGHT_BEGIN
1070
    46
1040
3.064735913775952
1000
ACAD_MTEXT_DEFINED_HEIGHT_END
  0
TEXT
  5
FD0
330
1F
100
AcDbEntity
  8
0
 62
     3
100
AcDbText
 10
1474.625479199683
 20
80.03897542083837
 30
0.0
 40
3.2
  1
材 質
  7
高3.2
100
AcDbText
1001
ACAD
1000
ACAD_MTEXT_DEFINED_HEIGHT_BEGIN
1070
    46
1040
0.0
1000
ACAD_MTEXT_DEFINED_HEIGHT_END
  0
TEXT
  5
FD1
330
1F
100
AcDbEntity
  8
0
 62
     3
100
AcDbText
 10
1474.320444249683
 20
73.00641541308461
 30
0.0
 40
3.2
  1
第 三 角 法
  7
高3.2
100
AcDbText
1001
ACAD
1000
ACAD_MTEXT_DEFINED_HEIGHT_BEGIN
1070
    46
1040
0.0
1000
ACAD_MTEXT_DEFINED_HEIGHT_END
  0
TEXT
  5
FD2
330
1F
100
AcDbEntity
  8
0
 62
     3
100
AcDbText
 10
1472.726976857211
 20
63.67950362872329
 30
0.0
 40
3.2
  1
日動工業株式会社
 41
1.199999999999999
  7
高3.2
100
AcDbText
1001
ACAD
1000
ACAD_MTEXT_DEFINED_HEIGHT_BEGIN
1070
    46
1040
0.0
1000
ACAD_MTEXT_DEFINED_HEIGHT_END
  0
TEXT
  5
FD3
330
1F
100
AcDbEntity
  8
0
 62
     3
100
AcDbText
 10
1506.36260105669
 20
79.92355395400593
 30
0.0
 40
3.2
  1
備考
  7
高3.2
100
AcDbText
1001
ACAD
1000
ACAD_MTEXT_DEFINED_HEIGHT_BEGIN
1070
    46
1040
0.0
1000
ACAD_MTEXT_DEFINED_HEIGHT_END
  0
TEXT
  5
FD4
330
1F
100
AcDbEntity
  8
0
 62
     3
100
AcDbText
 10
1516.011658503725
 20
68.68520544640865
 30
0.0
 40
2.5
  1
出図コード
  7
高2.5
100
AcDbText
1001
ACAD
1000
ACAD_MTEXT_DEFINED_HEIGHT_BEGIN
1070
    46
1040
0.0
1000
ACAD_MTEXT_DEFINED_HEIGHT_END
  0
TEXT
  5
FD5
330
1F
100
AcDbEntity
  8
0
 62
     3
100
AcDbText
 10
1506.203834938602
 20
72.99221033125127
 30
0.0
 40
3.2
  1
尺度
  7
高3.2
100
AcDbText
1001
ACAD
1000
ACAD_MTEXT_DEFINED_HEIGHT_BEGIN
1070
    46
1040
0.0
1000
ACAD_MTEXT_DEFINED_HEIGHT_END
  0
TEXT
  5
FD6
330
1F
100
AcDbEntity
  8
0
 62
     3
100
AcDbText
 10
1533.350096420381
 20
74.12368877936876
 30
0.0
 40
3.2
  1
作成日
  7
高3.2
100
AcDbText
1001
ACAD
1000
ACAD_MTEXT_DEFINED_HEIGHT_BEGIN
1070
    46
1040
0.0
1000
ACAD_MTEXT_DEFINED_HEIGHT_END
  0
TEXT
  5
FD7
330
1F
100
AcDbEntity
  8
0
 62
     3
100
AcDbText
 10
1533.244570427245
 20
94.67950362872327
 30
0.0
 40
3.2
  1
承 認
  7
高3.2
100
AcDbText
1001
ACAD
1000
ACAD_MTEXT_DEFINED_HEIGHT_BEGIN
1070
    46
1040
0.0
1000
ACAD_MTEXT_DEFINED_HEIGHT_END
  0
TEXT
  5
FD8
330
1F
100
AcDbEntity
  8
0
 62
     3
100
AcDbText
 10
1546.244570427245
 20
94.67950362872327
 30
0.0
 40
3.2
  1
検 図
  7
高3.2
100
AcDbText
1001
ACAD
1000
ACAD_MTEXT_DEFINED_HEIGHT_BEGIN
1070
    46
1040
0.0
1000
ACAD_MTEXT_DEFINED_HEIGHT_END
  0
TEXT
  5
FD9
330
1F
100
AcDbEntity
  8
0
 62
     3
100
AcDbText
 10
1559.244570427245
 20
94.67950362872327
 30
0.0
 40
3.2
  1
設 計
  7
高3.2
100
AcDbText
1001
ACAD
1000
ACAD_MTEXT_DEFINED_HEIGHT_BEGIN
1070
    46
1040
0.0
1000
ACAD_MTEXT_DEFINED_HEIGHT_END
  0
TEXT
  5
FDA
330
1F
100
AcDbEntity
  8
0
 62
     3
100
AcDbText
 10
1572.545206947245
 20
94.67950362872327
 30
0.0
 40
3.2
  1
製 図
  7
高3.2
100
AcDbText
1001
ACAD
1000
ACAD_MTEXT_DEFINED_HEIGHT_BEGIN
1070
    46
1040
0.0
1000
ACAD_MTEXT_DEFINED_HEIGHT_END
  0
TEXT
  5
FDB
330
1F
100
AcDbEntity
  8
0
 62
     3
100
AcDbText
 10
1571.358689534726
 20
330.0389754208384
 30
0.0
 40
3.2
  1
担　当
  7
高3.2
100
AcDbText
  0
TEXT
  5
FDC
330
1F
100
AcDbEntity
  8
0
 62
     3
100
AcDbText
 10
1527.358689534725
 20
330.0389754208384
 30
0.0
 40
3.2
  1
変更・追記内容
  7
高3.2
100
AcDbText
  0
TEXT
  5
FDD
330
1F
100
AcDbEntity
  8
0
 62
     3
100
AcDbText
 10
1502.472204535065
 20
325.3684369109302
 30
0.0
 40
2.0
  1
1
  7
高2
100
AcDbText
  0
TEXT
  5
FDE
330
1F
100
AcDbEntity
  8
0
 62
     3
100
AcDbText
 10
1502.163693058307
 20
320.1986201986572
 30
0.0
 40
2.0
  1
2
  7
高2
100
AcDbText
  0
TEXT
  5
FDF
330
1F
100
AcDbEntity
  8
0
 62
     3
100
AcDbText
 10
1509.358689534726
 20
330.0389754208384
 30
0.0
 40
3.2
  1
日　付
  7
高3.2
100
AcDbText
  0
TEXT
  5
FE0
330
1F
100
AcDbEntity
  8
0
 62
     3
100
AcDbText
 10
1509.358689534726
 20
335.0389754208384
 30
0.0
 40
3.2
  1
図　　　　面　　　　略　　　　歴
  7
高3.2
100
AcDbText
  0
TEXT
  5
FE1
330
1F
100
AcDbEntity
  8
0
 62
     3
100
AcDbText
 10
1499.358689534726
 20
330.0389754208384
 30
0.0
 40
3.2
  1
記号
  7
高3.2
100
AcDbText
  0
LINE
  5
FE2
330
1F
100
AcDbEntity
  8
0
 62
     7
100
AcDbLine
 10
1502.858689534726
 20
323.3298714208383
 30
0.0
 11
1500.958689534725
 21
320.0389754208384
 31
0.0
  0
LINE
  5
FE3
330
1F
100
AcDbEntity
  8
0
 62
     7
100
AcDbLine
 10
1502.858689534726
 20
323.3298714208383
 30
0.0
 11
1504.758689534726
 21
320.0389754208384
 31
0.0
  0
LINE
  5
FE4
330
1F
100
AcDbEntity
  8
0
 62
     7
100
AcDbLine
 10
1500.958689534725
 20
320.0389754208384
 30
0.0
 11
1504.758689534726
 21
320.0389754208384
 31
0.0
  0
LINE
  5
FE5
330
1F
100
AcDbEntity
  8
0
 62
     7
100
AcDbLine
 10
1502.858689534726
 20
328.3298724208385
 30
0.0
 11
1500.958689534725
 21
325.0389754208384
 31
0.0
  0
LINE
  5
FE6
330
1F
100
AcDbEntity
  8
0
 62
     7
100
AcDbLine
 10
1502.858689534726
 20
328.3298724208385
 30
0.0
 11
1504.758689534726
 21
325.0389754208384
 31
0.0
  0
LINE
  5
FE7
330
1F
100
AcDbEntity
  8
0
 62
     7
100
AcDbLine
 10
1500.958689534725
 20
325.0389754208384
 30
0.0
 11
1504.758689534726
 21
325.0389754208384
 31
0.0
  0
LINE
  5
FE8
330
1F
100
AcDbEntity
  8
0
 62
     3
100
AcDbLine
 10
1497.858689534726
 20
334.5389754208384
 30
0.0
 11
1583.858689534725
 21
334.5389754208384
 31
0.0
  0
LINE
  5
FE9
330
1F
100
AcDbEntity
  8
0
 62
     3
100
AcDbLine
 10
1497.858689534726
 20
329.5389754208384
 30
0.0
 11
1583.858689534725
 21
329.5389754208384
 31
0.0
  0
LINE
  5
FEA
330
1F
100
AcDbEntity
  8
0
 62
     7
100
AcDbLine
 10
1497.858689534726
 20
324.5389754208384
 30
0.0
 11
1583.858689534725
 21
324.5389754208384
 31
0.0
  0
LINE
  5
FEB
330
1F
100
AcDbEntity
  8
0
 62
     3
100
AcDbLine
 10
1497.858689534726
 20
319.5389754208384
 30
0.0
 11
1583.858689534725
 21
319.5389754208384
 31
0.0
  0
LINE
  5
FEC
330
1F
100
AcDbEntity
  8
0
 62
     7
100
AcDbLine
 10
1569.858689534726
 20
319.5389754208384
 30
0.0
 11
1569.858689534726
 21
334.5389754208384
 31
0.0
  0
LINE
  5
FED
330
1F
100
AcDbEntity
  8
0
 62
     7
100
AcDbLine
 10
1525.858689534725
 20
319.5389754208384
 30
0.0
 11
1525.858689534725
 21
334.5389754208384
 31
0.0
  0
LINE
  5
FEE
330
1F
100
AcDbEntity
  8
0
 62
     7
100
AcDbLine
 10
1507.858689534726
 20
319.5389754208384
 30
0.0
 11
1507.858689534726
 21
334.5389754208384
 31
0.0
  0
LINE
  5
FEF
330
1F
100
AcDbEntity
  8
0
 62
     3
100
AcDbLine
 10
1497.858689534726
 20
319.5389754208384
 30
0.0
 11
1497.858689534726
 21
339.5389754208384
 31
0.0
  0
TEXT
  5
1002
330
1F
100
AcDbEntity
  8
0
100
AcDbText
 10
1575.975180522366
 20
83.83247065835348
 30
0.0
 40
3.2
  1
I
  7
高3.2
100
AcDbText
  0
LINE
  5
1003
330
1F
100
AcDbEntity
  8
0
 62
     3
100
AcDbLine
 10
1583.858689534725
 20
108.5389754208383
 30
0.0
 11
1531.858689534725
 21
108.5389754208383
 31
0.0
  0
TEXT
  5
1004
330
1F
100
AcDbEntity
  8
0
 62
     3
100
AcDbText
 10
1537.596735518649
 20
103.1564225716335
 30
0.0
 40
4.5
  1
コード
  7
高4.5
100
AcDbText
  0
TEXT
  5
1005
330
1F
100
AcDbEntity
  8
0
 62
     3
100
AcDbText
 10
1561.580428026432
 20
103.1564225716335
 30
0.0
 40
4.5
  1
12063
  7
高4.5
100
AcDbText
  0
TEXT
  5
1006
330
1F
100
AcDbEntity
  8
0
 62
     4
100
AcDbText
 10
1463.034657751375
 20
144.5510708559898
 30
0.0
 40
3.2
  1
裏側
  7
高3.2
100
AcDbText
  0
TEXT
  5
1093
330
1F
100
AcDbEntity
  8
0
100
AcDbText
 10
1509.358689534726
 20
325.0389754208384
 30
0.0
 40
2.5
  1
'14.01.15
  7
高2.5
100
AcDbText
  0
TEXT
  5
1094
330
1F
100
AcDbEntity
  8
0
100
AcDbText
 10
1527.358689534725
 20
325.0389754208384
 30
0.0
 40
2.5
  1
色温度変更に伴う仕様変更
  7
高2.5
100
AcDbText
  0
TEXT
  5
1095
330
1F
100
AcDbEntity
  8
0
100
AcDbText
 10
1571.358689534726
 20
325.0389754208384
 30
0.0
 40
2.5
  1
今村
  7
高2.5
100
AcDbText
  0
LINE
  5
1193
330
1F
100
AcDbEntity
  8
0
 62
     3
100
AcDbLine
 10
1557.858689534726
 20
102.5389754208383
 30
0.0
 11
1557.858689534726
 21
108.5389754208383
 31
0.0
  0
LINE
  5
1194
330
1F
100
AcDbEntity
  8
0
 62
     3
100
AcDbLine
 10
1531.858689534726
 20
102.5389754208383
 30
0.0
 11
1531.858689534726
 21
108.5389754208383
 31
0.0
  0
TEXT
  5
1256
330
1F
100
AcDbEntity
  8
0
 62
     4
100
AcDbText
 10
1478.81642164299
 20
169.4770428891943
 30
0.0
 40
3.0
  1
電池蓋
100
AcDbText
1001
ACAD
1000
MTEXTBEGIN
1070
    73
1070
     1
1070
    44
1040
1.0
1070
    74
1070
     0
1000
MTEXTEND
  0
TEXT
  5
1259
330
1F
100
AcDbEntity
  8
0
 62
     4
100
AcDbText
 10
1478.343939147247
 20
225.8089347735343
 30
0.0
 40
3.0
  1
マグネット
100
AcDbText
1001
ACAD
1000
MTEXTBEGIN
1070
    73
1070
     1
1070
    44
1040
1.0
1070
    74
1070
     0
1000
MTEXTEND
  0
TEXT
  5
125C
330
1F
100
AcDbEntity
  8
0
 62
     4
100
AcDbText
 10
1478.516938020459
 20
211.5897163952479
 30
0.0
 40
3.0
  1
スイッチ
100
AcDbText
1001
ACAD
1000
MTEXTBEGIN
1070
    73
1070
     1
1070
    44
1040
1.0
1070
    74
1070
     0
1000
MTEXTEND
  0
LINE
  5
125F
330
1F
100
AcDbEntity
  8
0
100
AcDbLine
 10
1425.625965997251
 20
252.4328073621177
 30
0.0
 11
1412.997942848939
 21
252.4328073621177
 31
0.0
  0
LINE
  5
1260
330
1F
100
AcDbEntity
  8
0
100
AcDbLine
 10
1425.625965997251
 20
151.4328073621177
 30
0.0
 11
1412.997942848939
 21
151.4328073621177
 31
0.0
  0
LINE
  5
1261
330
1F
100
AcDbEntity
  8
0
100
AcDbLine
 10
1414.247942848939
 20
249.9328073621177
 30
0.0
 11
1414.247942848939
 21
153.9328073621177
 31
0.0
  0
LINE
  5
1265
330
1F
100
AcDbEntity
  8
0
100
AcDbLine
 10
1425.875965997251
 20
252.6828073621177
 30
0.0
 11
1425.875965997251
 21
263.1725441561116
 31
0.0
  0
LINE
  5
1266
330
1F
100
AcDbEntity
  8
0
100
AcDbLine
 10
1439.875965997251
 20
252.6828073621177
 30
0.0
 11
1439.875965997251
 21
263.1725441561116
 31
0.0
  0
LINE
  5
1267
330
1F
100
AcDbEntity
  8
0
100
AcDbLine
 10
1428.375965997251
 20
261.9225441561116
 30
0.0
 11
1437.375965997251
 21
261.9225441561116
 31
0.0
  0
LINE
  5
126B
330
1F
100
AcDbEntity
  8
0
100
AcDbLine
 10
1432.625965997251
 20
289.6291525686266
 30
0.0
 11
1412.284505900253
 21
289.6291525686266
 31
0.0
  0
LINE
  5
126C
330
1F
100
AcDbEntity
  8
0
100
AcDbLine
 10
1432.625965997251
 20
279.6291525686265
 30
0.0
 11
1412.284505900253
 21
279.6291525686265
 31
0.0
  0
LINE
  5
126D
330
1F
100
AcDbEntity
  8
0
100
AcDbLine
 10
1413.534505900253
 20
287.1291525686266
 30
0.0
 11
1413.534505900253
 21
282.1291525686265
 31
0.0
  0
TEXT
  5
1271
330
1F
100
AcDbEntity
  8
0
 62
     4
100
AcDbText
 10
1444.160518116605
 20
240.8002341772515
 30
0.0
 40
3.0
  1
24P
100
AcDbText
1001
ACAD
1000
MTEXTBEGIN
1070
    73
1070
     1
1070
    44
1040
1.0
1070
    74
1070
     0
1000
MTEXTEND
  0
TEXT
  5
1272
330
1F
100
AcDbEntity
  8
0
 62
     4
100
AcDbText
 10
1444.160518116605
 20
235.8002341772515
 30
0.0
 40
3.0
  1
LED
100
AcDbText
1001
ACAD
1000
MTEXTBEGIN
1070
    73
1070
     1
1070
    44
1040
1.0
1070
    74
1070
     0
1000
MTEXTEND
  0
TEXT
  5
1275
330
1F
100
AcDbEntity
  8
0
 62
     4
100
AcDbText
 10
1441.566594298836
 20
288.9480447269316
 30
0.0
 40
3.0
  1
1P LED
100
AcDbText
1001
ACAD
1000
MTEXTBEGIN
1070
    73
1070
     1
1070
    44
1040
1.0
1070
    74
1070
     0
1000
MTEXTEND
  0
LINE
  5
1278
330
1F
100
AcDbEntity
  8
0
 62
     3
100
AcDbLine
 10
1449.681657154726
 20
339.9968579908383
 30
0.0
 11
1449.663029624725
 21
340.1161257608384
 31
0.0
  0
LINE
  5
1279
330
1F
100
AcDbEntity
  8
0
 62
     3
100
AcDbLine
 10
1449.663029624725
 20
340.1161257608384
 30
0.0
 11
1449.640658444726
 21
340.2303305408383
 31
0.0
  0
LINE
  5
127A
330
1F
100
AcDbEntity
  8
0
 62
     3
100
AcDbLine
 10
1449.640658444726
 20
340.2303305408383
 30
0.0
 11
1449.614716514725
 21
340.3385896008384
 31
0.0
  0
LINE
  5
127B
330
1F
100
AcDbEntity
  8
0
 62
     3
100
AcDbLine
 10
1449.614716514725
 20
340.3385896008384
 30
0.0
 11
1449.585404374725
 21
340.4400661508383
 31
0.0
  0
LINE
  5
127C
330
1F
100
AcDbEntity
  8
0
 62
     3
100
AcDbLine
 10
1449.585404374725
 20
340.4400661508383
 30
0.0
 11
1449.552948564726
 21
340.5339758308384
 31
0.0
  0
LINE
  5
127D
330
1F
100
AcDbEntity
  8
0
 62
     3
100
AcDbLine
 10
1449.552948564726
 20
340.5339758308384
 30
0.0
 11
1449.517599974726
 21
340.6195927708384
 31
0.0
  0
LINE
  5
127E
330
1F
100
AcDbEntity
  8
0
 62
     3
100
AcDbLine
 10
1449.517599974726
 20
340.6195927708384
 30
0.0
 11
1449.479631824726
 21
340.6962551808384
 31
0.0
  0
LINE
  5
127F
330
1F
100
AcDbEntity
  8
0
 62
     3
100
AcDbLine
 10
1449.479631824726
 20
340.6962551808384
 30
0.0
 11
1449.439337574725
 21
340.7633705208383
 31
0.0
  0
LINE
  5
1280
330
1F
100
AcDbEntity
  8
0
 62
     3
100
AcDbLine
 10
1449.439337574725
 20
340.7633705208383
 30
0.0
 11
1449.397028704725
 21
340.8204200108384
 31
0.0
  0
LINE
  5
1281
330
1F
100
AcDbEntity
  8
0
 62
     3
100
AcDbLine
 10
1449.397028704725
 20
340.8204200108384
 30
0.0
 11
1449.353032214725
 21
340.8669626808384
 31
0.0
  0
LINE
  5
1282
330
1F
100
AcDbEntity
  8
0
 62
     3
100
AcDbLine
 10
1449.353032214725
 20
340.8669626808384
 30
0.0
 11
1449.307688194726
 21
340.9026388008383
 31
0.0
  0
LINE
  5
1283
330
1F
100
AcDbEntity
  8
0
 62
     3
100
AcDbLine
 10
1449.307688194726
 20
340.9026388008383
 30
0.0
 11
1449.261347124725
 21
340.9271725908384
 31
0.0
  0
LINE
  5
1284
330
1F
100
AcDbEntity
  8
0
 62
     3
100
AcDbLine
 10
1449.261347124725
 20
340.9271725908384
 30
0.0
 11
1449.214367184725
 21
340.9403744408384
 31
0.0
  0
LINE
  5
1285
330
1F
100
AcDbEntity
  8
0
 62
     3
100
AcDbLine
 10
1449.214367184725
 20
340.9403744408384
 30
0.0
 11
1449.167111524725
 21
340.9421422808384
 31
0.0
  0
LINE
  5
1286
330
1F
100
AcDbEntity
  8
0
 62
     3
100
AcDbLine
 10
1449.167111524725
 20
340.9421422808384
 30
0.0
 11
1449.119945394725
 21
340.9324624708383
 31
0.0
  0
LINE
  5
1287
330
1F
100
AcDbEntity
  8
0
 62
     3
100
AcDbLine
 10
1449.119945394725
 20
340.9324624708383
 30
0.0
 11
1449.073233364726
 21
340.9114098108383
 31
0.0
  0
LINE
  5
1288
330
1F
100
AcDbEntity
  8
0
 62
     3
100
AcDbLine
 10
1449.073233364726
 20
340.9114098108383
 30
0.0
 11
1449.027336504725
 21
340.8791470408384
 31
0.0
  0
LINE
  5
1289
330
1F
100
AcDbEntity
  8
0
 62
     3
100
AcDbLine
 10
1449.027336504725
 20
340.8791470408384
 30
0.0
 11
1448.982609564725
 21
340.8359235308383
 31
0.0
  0
LINE
  5
128A
330
1F
100
AcDbEntity
  8
0
 62
     3
100
AcDbLine
 10
1448.982609564725
 20
340.8359235308383
 30
0.0
 11
1448.939398254725
 21
340.7820733708384
 31
0.0
  0
LINE
  5
128B
330
1F
100
AcDbEntity
  8
0
 62
     3
100
AcDbLine
 10
1448.939398254725
 20
340.7820733708384
 30
0.0
 11
1448.898036594725
 21
340.7180128008384
 31
0.0
  0
LINE
  5
128C
330
1F
100
AcDbEntity
  8
0
 62
     3
100
AcDbLine
 10
1448.898036594725
 20
340.7180128008384
 30
0.0
 11
1448.858844274725
 21
340.6442369808384
 31
0.0
  0
LINE
  5
128D
330
1F
100
AcDbEntity
  8
0
 62
     3
100
AcDbLine
 10
1448.858844274725
 20
340.6442369808384
 30
0.0
 11
1448.822124234725
 21
340.5613161508384
 31
0.0
  0
LINE
  5
128E
330
1F
100
AcDbEntity
  8
0
 62
     3
100
AcDbLine
 10
1448.822124234725
 20
340.5613161508384
 30
0.0
 11
1448.788160304725
 21
340.4698912408384
 31
0.0
  0
LINE
  5
128F
330
1F
100
AcDbEntity
  8
0
 62
     3
100
AcDbLine
 10
1448.788160304725
 20
340.4698912408384
 30
0.0
 11
1448.757215004725
 21
340.3706689408384
 31
0.0
  0
LINE
  5
1290
330
1F
100
AcDbEntity
  8
0
 62
     3
100
AcDbLine
 10
1448.757215004725
 20
340.3706689408384
 30
0.0
 11
1448.729527524726
 21
340.2644161708384
 31
0.0
  0
LINE
  5
1291
330
1F
100
AcDbEntity
  8
0
 62
     3
100
AcDbLine
 10
1448.729527524726
 20
340.2644161708384
 30
0.0
 11
1448.705311874725
 21
340.1519542108384
 31
0.0
  0
LINE
  5
1292
330
1F
100
AcDbEntity
  8
0
 62
     3
100
AcDbLine
 10
1448.705311874725
 20
340.1519542108384
 30
0.0
 11
1448.684755234725
 21
340.0341523308384
 31
0.0
  0
LINE
  5
1293
330
1F
100
AcDbEntity
  8
0
 62
     3
100
AcDbLine
 10
1448.684755234725
 20
340.0341523308384
 30
0.0
 11
1448.668016494726
 21
339.9119210908383
 31
0.0
  0
LINE
  5
1294
330
1F
100
AcDbEntity
  8
0
 62
     3
100
AcDbLine
 10
1448.668016494726
 20
339.9119210908383
 30
0.0
 11
1448.655225034725
 21
339.7862052708384
 31
0.0
  0
LINE
  5
1295
330
1F
100
AcDbEntity
  8
0
 62
     3
100
AcDbLine
 10
1448.655225034725
 20
339.7862052708384
 30
0.0
 11
1448.646479724725
 21
339.6579765908384
 31
0.0
  0
LINE
  5
1296
330
1F
100
AcDbEntity
  8
0
 62
     3
100
AcDbLine
 10
1448.646479724725
 20
339.6579765908384
 30
0.0
 11
1448.641848164725
 21
339.5282261808384
 31
0.0
  0
LINE
  5
1297
330
1F
100
AcDbEntity
  8
0
 62
     3
100
AcDbLine
 10
1448.641848164725
 20
339.5282261808384
 30
0.0
 11
1448.641366154725
 21
339.3979569508384
 31
0.0
  0
LINE
  5
1298
330
1F
100
AcDbEntity
  8
0
 62
     3
100
AcDbLine
 10
1448.641366154725
 20
339.3979569508384
 30
0.0
 11
1448.645037414725
 21
339.2681758308384
 31
0.0
  0
LINE
  5
1299
330
1F
100
AcDbEntity
  8
0
 62
     3
100
AcDbLine
 10
1448.645037414725
 20
339.2681758308384
 30
0.0
 11
1448.652833574725
 21
339.1398859408384
 31
0.0
  0
LINE
  5
129A
330
1F
100
AcDbEntity
  8
0
 62
     3
100
AcDbLine
 10
1448.652833574725
 20
339.1398859408384
 30
0.0
 11
1448.664694374725
 21
339.0140789008384
 31
0.0
  0
LINE
  5
129B
330
1F
100
AcDbEntity
  8
0
 62
     3
100
AcDbLine
 10
1448.664694374725
 20
339.0140789008384
 30
0.0
 11
1448.680528134725
 21
338.8917271308384
 31
0.0
  0
LINE
  5
129C
330
1F
100
AcDbEntity
  8
0
 62
     3
100
AcDbLine
 10
1448.680528134725
 20
338.8917271308384
 30
0.0
 11
1448.700212454726
 21
338.7737763608384
 31
0.0
  0
LINE
  5
129D
330
1F
100
AcDbEntity
  8
0
 62
     3
100
AcDbLine
 10
1448.700212454726
 20
338.7737763608384
 30
0.0
 11
1448.723595214725
 21
338.6611382908384
 31
0.0
  0
LINE
  5
129E
330
1F
100
AcDbEntity
  8
0
 62
     3
100
AcDbLine
 10
1448.723595214725
 20
338.6611382908384
 30
0.0
 11
1448.750495644725
 21
338.5546835308383
 31
0.0
  0
LINE
  5
129F
330
1F
100
AcDbEntity
  8
0
 62
     3
100
AcDbLine
 10
1448.750495644725
 20
338.5546835308383
 30
0.0
 11
1448.780705844725
 21
338.4552349408384
 31
0.0
  0
LINE
  5
12A0
330
1F
100
AcDbEntity
  8
0
 62
     3
100
AcDbLine
 10
1448.780705844725
 20
338.4552349408384
 30
0.0
 11
1448.813992294726
 21
338.3635612108384
 31
0.0
  0
LINE
  5
12A1
330
1F
100
AcDbEntity
  8
0
 62
     3
100
AcDbLine
 10
1448.813992294726
 20
338.3635612108384
 30
0.0
 11
1448.850097694726
 21
338.2803709108384
 31
0.0
  0
LINE
  5
12A2
330
1F
100
AcDbEntity
  8
0
 62
     3
100
AcDbLine
 10
1448.850097694726
 20
338.2803709108384
 30
0.0
 11
1448.888742994725
 21
338.2063070808384
 31
0.0
  0
LINE
  5
12A3
330
1F
100
AcDbEntity
  8
0
 62
     3
100
AcDbLine
 10
1448.888742994725
 20
338.2063070808384
 30
0.0
 11
1448.929629474725
 21
338.1419421908383
 31
0.0
  0
LINE
  5
12A4
330
1F
100
AcDbEntity
  8
0
 62
     3
100
AcDbLine
 10
1448.929629474725
 20
338.1419421908383
 30
0.0
 11
1448.972441094725
 21
338.0877737408384
 31
0.0
  0
LINE
  5
12A5
330
1F
100
AcDbEntity
  8
0
 62
     3
100
AcDbLine
 10
1448.972441094725
 20
338.0877737408384
 30
0.0
 11
1449.016846954726
 21
338.0442204208384
 31
0.0
  0
LINE
  5
12A6
330
1F
100
AcDbEntity
  8
0
 62
     3
100
AcDbLine
 10
1449.016846954726
 20
338.0442204208384
 30
0.0
 11
1449.062503804725
 21
338.0116188908384
 31
0.0
  0
LINE
  5
12A7
330
1F
100
AcDbEntity
  8
0
 62
     3
100
AcDbLine
 10
1449.062503804725
 20
338.0116188908384
 30
0.0
 11
1449.109058764725
 21
337.9902211308384
 31
0.0
  0
LINE
  5
12A8
330
1F
100
AcDbEntity
  8
0
 62
     3
100
AcDbLine
 10
1449.109058764725
 20
337.9902211308384
 30
0.0
 11
1449.156151974725
 21
337.9801925508384
 31
0.0
  0
LINE
  5
12A9
330
1F
100
AcDbEntity
  8
0
 62
     3
100
AcDbLine
 10
1449.156151974725
 20
337.9801925508384
 30
0.0
 11
1449.203419424725
 21
337.9816106508384
 31
0.0
  0
LINE
  5
12AA
330
1F
100
AcDbEntity
  8
0
 62
     3
100
AcDbLine
 10
1449.203419424725
 20
337.9816106508384
 30
0.0
 11
1449.250495764725
 21
337.9944644708384
 31
0.0
  0
LINE
  5
12AB
330
1F
100
AcDbEntity
  8
0
 62
     3
100
AcDbLine
 10
1449.250495764725
 20
337.9944644708384
 30
0.0
 11
1449.297017124726
 21
338.0186546708384
 31
0.0
  0
LINE
  5
12AC
330
1F
100
AcDbEntity
  8
0
 62
     3
100
AcDbLine
 10
1449.297017124726
 20
338.0186546708384
 30
0.0
 11
1449.342623914725
 21
338.0539942508383
 31
0.0
  0
LINE
  5
12AD
330
1F
100
AcDbEntity
  8
0
 62
     3
100
AcDbLine
 10
1449.342623914725
 20
338.0539942508383
 30
0.0
 11
1449.386963614725
 21
338.1002100708383
 31
0.0
  0
LINE
  5
12AE
330
1F
100
AcDbEntity
  8
0
 62
     3
100
AcDbLine
 10
1449.386963614725
 20
338.1002100708383
 30
0.0
 11
1449.429693504725
 21
338.1569449108384
 31
0.0
  0
LINE
  5
12AF
330
1F
100
AcDbEntity
  8
0
 62
     3
100
AcDbLine
 10
1449.429693504725
 20
338.1569449108384
 30
0.0
 11
1449.470483304726
 21
338.2237602208383
 31
0.0
  0
LINE
  5
12B0
330
1F
100
AcDbEntity
  8
0
 62
     3
100
AcDbLine
 10
1449.470483304726
 20
338.2237602208383
 30
0.0
 11
1449.509017734725
 21
338.3001395708384
 31
0.0
  0
LINE
  5
12B1
330
1F
100
AcDbEntity
  8
0
 62
     3
100
AcDbLine
 10
1449.509017734725
 20
338.3001395708384
 30
0.0
 11
1449.544998934725
 21
338.3854925808383
 31
0.0
  0
LINE
  5
12B2
330
1F
100
AcDbEntity
  8
0
 62
     3
100
AcDbLine
 10
1449.544998934725
 20
338.3854925808383
 30
0.0
 11
1449.578148794725
 21
338.4791595108384
 31
0.0
  0
LINE
  5
12B3
330
1F
100
AcDbEntity
  8
0
 62
     3
100
AcDbLine
 10
1449.578148794725
 20
338.4791595108384
 30
0.0
 11
1449.608211074725
 21
338.5804163708383
 31
0.0
  0
LINE
  5
12B4
330
1F
100
AcDbEntity
  8
0
 62
     3
100
AcDbLine
 10
1449.608211074725
 20
338.5804163708383
 30
0.0
 11
1449.634953424725
 21
338.6884804908384
 31
0.0
  0
LINE
  5
12B5
330
1F
100
AcDbEntity
  8
0
 62
     3
100
AcDbLine
 10
1449.634953424725
 20
338.6884804908384
 30
0.0
 11
1449.658169124726
 21
338.8025166008384
 31
0.0
  0
LINE
  5
12B6
330
1F
100
AcDbEntity
  8
0
 62
     3
100
AcDbLine
 10
1449.658169124726
 20
338.8025166008384
 30
0.0
 11
1449.677678734726
 21
338.9216432508384
 31
0.0
  0
LINE
  5
12B7
330
1F
100
AcDbEntity
  8
0
100
AcDbLine
 10
1437.450457961375
 20
197.4328073621179
 30
0.0
 11
1438.375965997251
 21
196.507299326242
 31
0.0
1001
GradientColor1ACI
1070
     5
1001
GradientColor2ACI
1070
     2
1001
ACAD
1010
0.0
1020
0.0
1030
0.0
  0
LINE
  5
12B8
330
1F
100
AcDbEntity
  8
0
100
AcDbLine
 10
1436.327925946241
 20
197.4328073621178
 30
0.0
 11
1438.375965997251
 21
195.3847673111082
 31
0.0
1001
GradientColor1ACI
1070
     5
1001
GradientColor2ACI
1070
     2
1001
ACAD
1010
0.0
1020
0.0
1030
0.0
  0
LINE
  5
12B9
330
1F
100
AcDbEntity
  8
0
100
AcDbLine
 10
1435.205393931108
 20
197.4328073621178
 30
0.0
 11
1438.375965997251
 21
194.2622352959746
 31
0.0
1001
GradientColor1ACI
1070
     5
1001
GradientColor2ACI
1070
     2
1001
ACAD
1010
0.0
1020
0.0
1030
0.0
  0
LINE
  5
12BA
330
1F
100
AcDbEntity
  8
0
100
AcDbLine
 10
1434.082861915974
 20
197.4328073621178
 30
0.0
 11
1438.375965997251
 21
193.139703280841
 31
0.0
1001
GradientColor1ACI
1070
     5
1001
GradientColor2ACI
1070
     2
1001
ACAD
1010
0.0
1020
0.0
1030
0.0
  0
LINE
  5
12BB
330
1F
100
AcDbEntity
  8
0
100
AcDbLine
 10
1432.96032990084
 20
197.4328073621178
 30
0.0
 11
1438.375965997251
 21
192.0171712657073
 31
0.0
1001
GradientColor1ACI
1070
     5
1001
GradientColor2ACI
1070
     2
1001
ACAD
1010
0.0
1020
0.0
1030
0.0
  0
LINE
  5
12BC
330
1F
100
AcDbEntity
  8
0
100
AcDbLine
 10
1431.837797885707
 20
197.4328073621178
 30
0.0
 11
1438.375965997251
 21
190.8946392505737
 31
0.0
1001
GradientColor1ACI
1070
     5
1001
GradientColor2ACI
1070
     2
1001
ACAD
1010
0.0
1020
0.0
1030
0.0
  0
LINE
  5
12BD
330
1F
100
AcDbEntity
  8
0
100
AcDbLine
 10
1430.715265870573
 20
197.4328073621178
 30
0.0
 11
1438.375965997251
 21
189.7721072354401
 31
0.0
1001
GradientColor1ACI
1070
     5
1001
GradientColor2ACI
1070
     2
1001
ACAD
1010
0.0
1020
0.0
1030
0.0
  0
LINE
  5
12BE
330
1F
100
AcDbEntity
  8
0
100
AcDbLine
 10
1429.592733855439
 20
197.4328073621178
 30
0.0
 11
1438.375965997251
 21
188.6495752203065
 31
0.0
1001
GradientColor1ACI
1070
     5
1001
GradientColor2ACI
1070
     2
1001
ACAD
1010
0.0
1020
0.0
1030
0.0
  0
LINE
  5
12BF
330
1F
100
AcDbEntity
  8
0
100
AcDbLine
 10
1428.470201840306
 20
197.4328073621178
 30
0.0
 11
1438.375965997251
 21
187.5270432051728
 31
0.0
1001
GradientColor1ACI
1070
     5
1001
GradientColor2ACI
1070
     2
1001
ACAD
1010
0.0
1020
0.0
1030
0.0
  0
LINE
  5
12C0
330
1F
100
AcDbEntity
  8
0
100
AcDbLine
 10
1427.375965997251
 20
197.4045111900391
 30
0.0
 11
1438.375965997251
 21
186.4045111900392
 31
0.0
1001
GradientColor1ACI
1070
     5
1001
GradientColor2ACI
1070
     2
1001
ACAD
1010
0.0
1020
0.0
1030
0.0
  0
LINE
  5
12C1
330
1F
100
AcDbEntity
  8
0
100
AcDbLine
 10
1427.375965997251
 20
196.2819791749055
 30
0.0
 11
1438.375965997251
 21
185.2819791749056
 31
0.0
1001
GradientColor1ACI
1070
     5
1001
GradientColor2ACI
1070
     2
1001
ACAD
1010
0.0
1020
0.0
1030
0.0
  0
LINE
  5
12C2
330
1F
100
AcDbEntity
  8
0
100
AcDbLine
 10
1427.375965997251
 20
195.1594471597718
 30
0.0
 11
1438.375965997251
 21
184.1594471597719
 31
0.0
1001
GradientColor1ACI
1070
     5
1001
GradientColor2ACI
1070
     2
1001
ACAD
1010
0.0
1020
0.0
1030
0.0
  0
LINE
  5
12C3
330
1F
100
AcDbEntity
  8
0
100
AcDbLine
 10
1427.375965997251
 20
194.0369151446381
 30
0.0
 11
1438.375965997251
 21
183.0369151446381
 31
0.0
1001
GradientColor1ACI
1070
     5
1001
GradientColor2ACI
1070
     2
1001
ACAD
1010
0.0
1020
0.0
1030
0.0
  0
LINE
  5
12C4
330
1F
100
AcDbEntity
  8
0
100
AcDbLine
 10
1427.375965997251
 20
192.9143831295046
 30
0.0
 11
1438.375965997251
 21
181.9143831295046
 31
0.0
1001
GradientColor1ACI
1070
     5
1001
GradientColor2ACI
1070
     2
1001
ACAD
1010
0.0
1020
0.0
1030
0.0
  0
LINE
  5
12C5
330
1F
100
AcDbEntity
  8
0
100
AcDbLine
 10
1427.375965997251
 20
191.7918511143708
 30
0.0
 11
1438.375965997251
 21
180.7918511143708
 31
0.0
1001
GradientColor1ACI
1070
     5
1001
GradientColor2ACI
1070
     2
1001
ACAD
1010
0.0
1020
0.0
1030
0.0
  0
LINE
  5
12C6
330
1F
100
AcDbEntity
  8
0
100
AcDbLine
 10
1427.375965997251
 20
190.6693190992373
 30
0.0
 11
1438.375965997251
 21
179.6693190992373
 31
0.0
1001
GradientColor1ACI
1070
     5
1001
GradientColor2ACI
1070
     2
1001
ACAD
1010
0.0
1020
0.0
1030
0.0
  0
LINE
  5
12C7
330
1F
100
AcDbEntity
  8
0
100
AcDbLine
 10
1427.375965997251
 20
189.5467870841036
 30
0.0
 11
1438.375965997251
 21
178.5467870841036
 31
0.0
1001
GradientColor1ACI
1070
     5
1001
GradientColor2ACI
1070
     2
1001
ACAD
1010
0.0
1020
0.0
1030
0.0
  0
LINE
  5
12C8
330
1F
100
AcDbEntity
  8
0
100
AcDbLine
 10
1427.375965997251
 20
188.4242550689699
 30
0.0
 11
1438.375965997251
 21
177.4242550689699
 31
0.0
1001
GradientColor1ACI
1070
     5
1001
GradientColor2ACI
1070
     2
1001
ACAD
1010
0.0
1020
0.0
1030
0.0
  0
LINE
  5
12C9
330
1F
100
AcDbEntity
  8
0
100
AcDbLine
 10
1427.375965997251
 20
187.3017230538363
 30
0.0
 11
1438.375965997251
 21
176.3017230538364
 31
0.0
1001
GradientColor1ACI
1070
     5
1001
GradientColor2ACI
1070
     2
1001
ACAD
1010
0.0
1020
0.0
1030
0.0
  0
LINE
  5
12CA
330
1F
100
AcDbEntity
  8
0
100
AcDbLine
 10
1427.375965997251
 20
186.1791910387027
 30
0.0
 11
1438.375965997251
 21
175.1791910387027
 31
0.0
1001
GradientColor1ACI
1070
     5
1001
GradientColor2ACI
1070
     2
1001
ACAD
1010
0.0
1020
0.0
1030
0.0
  0
LINE
  5
12CB
330
1F
100
AcDbEntity
  8
0
100
AcDbLine
 10
1427.375965997251
 20
185.056659023569
 30
0.0
 11
1438.375965997251
 21
174.0566590235691
 31
0.0
1001
GradientColor1ACI
1070
     5
1001
GradientColor2ACI
1070
     2
1001
ACAD
1010
0.0
1020
0.0
1030
0.0
  0
LINE
  5
12CC
330
1F
100
AcDbEntity
  8
0
100
AcDbLine
 10
1427.375965997251
 20
183.9341270084354
 30
0.0
 11
1438.375965997251
 21
172.9341270084354
 31
0.0
1001
GradientColor1ACI
1070
     5
1001
GradientColor2ACI
1070
     2
1001
ACAD
1010
0.0
1020
0.0
1030
0.0
  0
LINE
  5
12CD
330
1F
100
AcDbEntity
  8
0
100
AcDbLine
 10
1427.375965997251
 20
182.8115949933018
 30
0.0
 11
1438.375965997251
 21
171.8115949933018
 31
0.0
1001
GradientColor1ACI
1070
     5
1001
GradientColor2ACI
1070
     2
1001
ACAD
1010
0.0
1020
0.0
1030
0.0
  0
LINE
  5
12CE
330
1F
100
AcDbEntity
  8
0
100
AcDbLine
 10
1427.375965997251
 20
181.6890629781681
 30
0.0
 11
1438.375965997251
 21
170.6890629781682
 31
0.0
1001
GradientColor1ACI
1070
     5
1001
GradientColor2ACI
1070
     2
1001
ACAD
1010
0.0
1020
0.0
1030
0.0
  0
LINE
  5
12CF
330
1F
100
AcDbEntity
  8
0
100
AcDbLine
 10
1427.375965997251
 20
180.5665309630345
 30
0.0
 11
1438.375965997251
 21
169.5665309630345
 31
0.0
1001
GradientColor1ACI
1070
     5
1001
GradientColor2ACI
1070
     2
1001
ACAD
1010
0.0
1020
0.0
1030
0.0
  0
LINE
  5
12D0
330
1F
100
AcDbEntity
  8
0
100
AcDbLine
 10
1427.375965997251
 20
179.4439989479008
 30
0.0
 11
1438.375965997251
 21
168.4439989479009
 31
0.0
1001
GradientColor1ACI
1070
     5
1001
GradientColor2ACI
1070
     2
1001
ACAD
1010
0.0
1020
0.0
1030
0.0
  0
LINE
  5
12D1
330
1F
100
AcDbEntity
  8
0
100
AcDbLine
 10
1427.375965997251
 20
178.3214669327672
 30
0.0
 11
1438.375965997251
 21
167.3214669327673
 31
0.0
1001
GradientColor1ACI
1070
     5
1001
GradientColor2ACI
1070
     2
1001
ACAD
1010
0.0
1020
0.0
1030
0.0
  0
LINE
  5
12D2
330
1F
100
AcDbEntity
  8
0
100
AcDbLine
 10
1427.375965997251
 20
177.1989349176335
 30
0.0
 11
1438.375965997251
 21
166.1989349176336
 31
0.0
1001
GradientColor1ACI
1070
     5
1001
GradientColor2ACI
1070
     2
1001
ACAD
1010
0.0
1020
0.0
1030
0.0
  0
LINE
  5
12D3
330
1F
100
AcDbEntity
  8
0
100
AcDbLine
 10
1427.375965997251
 20
176.0764029024999
 30
0.0
 11
1438.375965997251
 21
165.0764029025
 31
0.0
1001
GradientColor1ACI
1070
     5
1001
GradientColor2ACI
1070
     2
1001
ACAD
1010
0.0
1020
0.0
1030
0.0
  0
LINE
  5
12D4
330
1F
100
AcDbEntity
  8
0
100
AcDbLine
 10
1427.375965997251
 20
174.9538708873662
 30
0.0
 11
1438.375965997251
 21
163.9538708873663
 31
0.0
1001
GradientColor1ACI
1070
     5
1001
GradientColor2ACI
1070
     2
1001
ACAD
1010
0.0
1020
0.0
1030
0.0
  0
LINE
  5
12D5
330
1F
100
AcDbEntity
  8
0
100
AcDbLine
 10
1427.375965997251
 20
173.8313388722326
 30
0.0
 11
1438.375965997251
 21
162.8313388722326
 31
0.0
1001
GradientColor1ACI
1070
     5
1001
GradientColor2ACI
1070
     2
1001
ACAD
1010
0.0
1020
0.0
1030
0.0
  0
LINE
  5
12D6
330
1F
100
AcDbEntity
  8
0
100
AcDbLine
 10
1427.375965997251
 20
172.7088068570989
 30
0.0
 11
1438.375965997251
 21
161.708806857099
 31
0.0
1001
GradientColor1ACI
1070
     5
1001
GradientColor2ACI
1070
     2
1001
ACAD
1010
0.0
1020
0.0
1030
0.0
  0
LINE
  5
12D7
330
1F
100
AcDbEntity
  8
0
100
AcDbLine
 10
1427.375965997251
 20
171.5862748419653
 30
0.0
 11
1437.529433477098
 21
161.4328073621176
 31
0.0
1001
GradientColor1ACI
1070
     5
1001
GradientColor2ACI
1070
     2
1001
ACAD
1010
0.0
1020
0.0
1030
0.0
  0
LINE
  5
12D8
330
1F
100
AcDbEntity
  8
0
100
AcDbLine
 10
1427.375965997251
 20
170.4637428268316
 30
0.0
 11
1436.406901461965
 21
161.4328073621177
 31
0.0
1001
GradientColor1ACI
1070
     5
1001
GradientColor2ACI
1070
     2
1001
ACAD
1010
0.0
1020
0.0
1030
0.0
  0
LINE
  5
12D9
330
1F
100
AcDbEntity
  8
0
100
AcDbLine
 10
1427.375965997251
 20
169.341210811698
 30
0.0
 11
1435.284369446831
 21
161.4328073621178
 31
0.0
1001
GradientColor1ACI
1070
     5
1001
GradientColor2ACI
1070
     2
1001
ACAD
1010
0.0
1020
0.0
1030
0.0
  0
LINE
  5
12DA
330
1F
100
AcDbEntity
  8
0
100
AcDbLine
 10
1427.375965997251
 20
168.2186787965644
 30
0.0
 11
1434.161837431697
 21
161.4328073621178
 31
0.0
1001
GradientColor1ACI
1070
     5
1001
GradientColor2ACI
1070
     2
1001
ACAD
1010
0.0
1020
0.0
1030
0.0
  0
LINE
  5
12DB
330
1F
100
AcDbEntity
  8
0
100
AcDbLine
 10
1427.375965997251
 20
167.0961467814308
 30
0.0
 11
1433.039305416564
 21
161.4328073621178
 31
0.0
1001
GradientColor1ACI
1070
     5
1001
GradientColor2ACI
1070
     2
1001
ACAD
1010
0.0
1020
0.0
1030
0.0
  0
LINE
  5
12DC
330
1F
100
AcDbEntity
  8
0
100
AcDbLine
 10
1427.375965997251
 20
165.9736147662971
 30
0.0
 11
1431.91677340143
 21
161.4328073621178
 31
0.0
1001
GradientColor1ACI
1070
     5
1001
GradientColor2ACI
1070
     2
1001
ACAD
1010
0.0
1020
0.0
1030
0.0
  0
LINE
  5
12DD
330
1F
100
AcDbEntity
  8
0
100
AcDbLine
 10
1427.375965997251
 20
164.8510827511634
 30
0.0
 11
1430.794241386296
 21
161.4328073621178
 31
0.0
1001
GradientColor1ACI
1070
     5
1001
GradientColor2ACI
1070
     2
1001
ACAD
1010
0.0
1020
0.0
1030
0.0
  0
LINE
  5
12DE
330
1F
100
AcDbEntity
  8
0
100
AcDbLine
 10
1427.375965997251
 20
163.7285507360299
 30
0.0
 11
1429.671709371163
 21
161.4328073621178
 31
0.0
1001
GradientColor1ACI
1070
     5
1001
GradientColor2ACI
1070
     2
1001
ACAD
1010
0.0
1020
0.0
1030
0.0
  0
LINE
  5
12DF
330
1F
100
AcDbEntity
  8
0
100
AcDbLine
 10
1427.375965997251
 20
162.6060187208962
 30
0.0
 11
1428.549177356029
 21
161.4328073621178
 31
0.0
1001
GradientColor1ACI
1070
     5
1001
GradientColor2ACI
1070
     2
1001
ACAD
1010
0.0
1020
0.0
1030
0.0
  0
LINE
  5
12E0
330
1F
100
AcDbEntity
  8
0
100
AcDbLine
 10
1427.375965997251
 20
161.4834867057626
 30
0.0
 11
1427.426645340896
 21
161.4328073621178
 31
0.0
1001
GradientColor1ACI
1070
     5
1001
GradientColor2ACI
1070
     2
1001
ACAD
1010
0.0
1020
0.0
1030
0.0
  0
LINE
  5
12E1
330
1F
100
AcDbEntity
  8
0
100
AcDbLine
 10
1427.375965997251
 20
197.1173896631302
 30
0.0
 11
1427.691383696238
 21
197.4328073621176
 31
0.0
1001
GradientColor1ACI
1070
     5
1001
GradientColor2ACI
1070
     2
1001
ACAD
1010
0.0
1020
0.0
1030
0.0
  0
LINE
  5
12E2
330
1F
100
AcDbEntity
  8
0
100
AcDbLine
 10
1427.375965997251
 20
195.9948576479965
 30
0.0
 11
1428.813915711372
 21
197.4328073621176
 31
0.0
1001
GradientColor1ACI
1070
     5
1001
GradientColor2ACI
1070
     2
1001
ACAD
1010
0.0
1020
0.0
1030
0.0
  0
LINE
  5
12E3
330
1F
100
AcDbEntity
  8
0
100
AcDbLine
 10
1427.375965997251
 20
194.8723256328629
 30
0.0
 11
1429.936447726506
 21
197.4328073621175
 31
0.0
1001
GradientColor1ACI
1070
     5
1001
GradientColor2ACI
1070
     2
1001
ACAD
1010
0.0
1020
0.0
1030
0.0
  0
LINE
  5
12E4
330
1F
100
AcDbEntity
  8
0
100
AcDbLine
 10
1427.375965997251
 20
193.7497936177292
 30
0.0
 11
1431.058979741639
 21
197.4328073621176
 31
0.0
1001
GradientColor1ACI
1070
     5
1001
GradientColor2ACI
1070
     2
1001
ACAD
1010
0.0
1020
0.0
1030
0.0
  0
LINE
  5
12E5
330
1F
100
AcDbEntity
  8
0
100
AcDbLine
 10
1427.375965997251
 20
192.6272616025956
 30
0.0
 11
1432.181511756773
 21
197.4328073621175
 31
0.0
1001
GradientColor1ACI
1070
     5
1001
GradientColor2ACI
1070
     2
1001
ACAD
1010
0.0
1020
0.0
1030
0.0
  0
LINE
  5
12E6
330
1F
100
AcDbEntity
  8
0
100
AcDbLine
 10
1427.375965997251
 20
191.504729587462
 30
0.0
 11
1433.304043771906
 21
197.4328073621176
 31
0.0
1001
GradientColor1ACI
1070
     5
1001
GradientColor2ACI
1070
     2
1001
ACAD
1010
0.0
1020
0.0
1030
0.0
  0
LINE
  5
12E7
330
1F
100
AcDbEntity
  8
0
100
AcDbLine
 10
1427.375965997251
 20
190.3821975723284
 30
0.0
 11
1434.42657578704
 21
197.4328073621175
 31
0.0
1001
GradientColor1ACI
1070
     5
1001
GradientColor2ACI
1070
     2
1001
ACAD
1010
0.0
1020
0.0
1030
0.0
  0
LINE
  5
12E8
330
1F
100
AcDbEntity
  8
0
100
AcDbLine
 10
1427.375965997251
 20
189.2596655571947
 30
0.0
 11
1435.549107802174
 21
197.4328073621176
 31
0.0
1001
GradientColor1ACI
1070
     5
1001
GradientColor2ACI
1070
     2
1001
ACAD
1010
0.0
1020
0.0
1030
0.0
  0
LINE
  5
12E9
330
1F
100
AcDbEntity
  8
0
100
AcDbLine
 10
1427.375965997251
 20
188.1371335420611
 30
0.0
 11
1436.671639817307
 21
197.4328073621175
 31
0.0
1001
GradientColor1ACI
1070
     5
1001
GradientColor2ACI
1070
     2
1001
ACAD
1010
0.0
1020
0.0
1030
0.0
  0
LINE
  5
12EA
330
1F
100
AcDbEntity
  8
0
100
AcDbLine
 10
1427.375965997251
 20
187.0146015269274
 30
0.0
 11
1437.794171832441
 21
197.4328073621176
 31
0.0
1001
GradientColor1ACI
1070
     5
1001
GradientColor2ACI
1070
     2
1001
ACAD
1010
0.0
1020
0.0
1030
0.0
  0
LINE
  5
12EB
330
1F
100
AcDbEntity
  8
0
100
AcDbLine
 10
1427.375965997251
 20
185.8920695117937
 30
0.0
 11
1438.375965997251
 21
196.8920695117938
 31
0.0
1001
GradientColor1ACI
1070
     5
1001
GradientColor2ACI
1070
     2
1001
ACAD
1010
0.0
1020
0.0
1030
0.0
  0
LINE
  5
12EC
330
1F
100
AcDbEntity
  8
0
100
AcDbLine
 10
1427.375965997251
 20
184.76953749666
 30
0.0
 11
1438.375965997251
 21
195.76953749666
 31
0.0
1001
GradientColor1ACI
1070
     5
1001
GradientColor2ACI
1070
     2
1001
ACAD
1010
0.0
1020
0.0
1030
0.0
  0
LINE
  5
12ED
330
1F
100
AcDbEntity
  8
0
100
AcDbLine
 10
1427.37596599725
 20
183.6470054815264
 30
0.0
 11
1438.37596599725
 21
194.6470054815264
 31
0.0
1001
GradientColor1ACI
1070
     5
1001
GradientColor2ACI
1070
     2
1001
ACAD
1010
0.0
1020
0.0
1030
0.0
  0
LINE
  5
12EE
330
1F
100
AcDbEntity
  8
0
100
AcDbLine
 10
1427.375965997251
 20
182.5244734663928
 30
0.0
 11
1438.375965997251
 21
193.5244734663928
 31
0.0
1001
GradientColor1ACI
1070
     5
1001
GradientColor2ACI
1070
     2
1001
ACAD
1010
0.0
1020
0.0
1030
0.0
  0
LINE
  5
12EF
330
1F
100
AcDbEntity
  8
0
100
AcDbLine
 10
1427.375965997251
 20
181.4019414512592
 30
0.0
 11
1438.375965997251
 21
192.4019414512591
 31
0.0
1001
GradientColor1ACI
1070
     5
1001
GradientColor2ACI
1070
     2
1001
ACAD
1010
0.0
1020
0.0
1030
0.0
  0
LINE
  5
12F0
330
1F
100
AcDbEntity
  8
0
100
AcDbLine
 10
1427.375965997251
 20
180.2794094361255
 30
0.0
 11
1438.375965997251
 21
191.2794094361255
 31
0.0
1001
GradientColor1ACI
1070
     5
1001
GradientColor2ACI
1070
     2
1001
ACAD
1010
0.0
1020
0.0
1030
0.0
  0
LINE
  5
12F1
330
1F
100
AcDbEntity
  8
0
100
AcDbLine
 10
1427.375965997251
 20
179.1568774209919
 30
0.0
 11
1438.375965997251
 21
190.1568774209919
 31
0.0
1001
GradientColor1ACI
1070
     5
1001
GradientColor2ACI
1070
     2
1001
ACAD
1010
0.0
1020
0.0
1030
0.0
  0
LINE
  5
12F2
330
1F
100
AcDbEntity
  8
0
100
AcDbLine
 10
1427.375965997251
 20
178.0343454058582
 30
0.0
 11
1438.375965997251
 21
189.0343454058582
 31
0.0
1001
GradientColor1ACI
1070
     5
1001
GradientColor2ACI
1070
     2
1001
ACAD
1010
0.0
1020
0.0
1030
0.0
  0
LINE
  5
12F3
330
1F
100
AcDbEntity
  8
0
100
AcDbLine
 10
1427.375965997251
 20
176.9118133907245
 30
0.0
 11
1438.375965997251
 21
187.9118133907246
 31
0.0
1001
GradientColor1ACI
1070
     5
1001
GradientColor2ACI
1070
     2
1001
ACAD
1010
0.0
1020
0.0
1030
0.0
  0
LINE
  5
12F4
330
1F
100
AcDbEntity
  8
0
100
AcDbLine
 10
1427.375965997251
 20
175.7892813755909
 30
0.0
 11
1438.375965997251
 21
186.7892813755909
 31
0.0
1001
GradientColor1ACI
1070
     5
1001
GradientColor2ACI
1070
     2
1001
ACAD
1010
0.0
1020
0.0
1030
0.0
  0
LINE
  5
12F5
330
1F
100
AcDbEntity
  8
0
100
AcDbLine
 10
1427.375965997251
 20
174.6667493604573
 30
0.0
 11
1438.375965997251
 21
185.6667493604573
 31
0.0
1001
GradientColor1ACI
1070
     5
1001
GradientColor2ACI
1070
     2
1001
ACAD
1010
0.0
1020
0.0
1030
0.0
  0
LINE
  5
12F6
330
1F
100
AcDbEntity
  8
0
100
AcDbLine
 10
1427.375965997251
 20
173.5442173453237
 30
0.0
 11
1438.375965997251
 21
184.5442173453237
 31
0.0
1001
GradientColor1ACI
1070
     5
1001
GradientColor2ACI
1070
     2
1001
ACAD
1010
0.0
1020
0.0
1030
0.0
  0
LINE
  5
12F7
330
1F
100
AcDbEntity
  8
0
100
AcDbLine
 10
1427.375965997251
 20
172.4216853301899
 30
0.0
 11
1438.375965997251
 21
183.42168533019
 31
0.0
1001
GradientColor1ACI
1070
     5
1001
GradientColor2ACI
1070
     2
1001
ACAD
1010
0.0
1020
0.0
1030
0.0
  0
LINE
  5
12F8
330
1F
100
AcDbEntity
  8
0
100
AcDbLine
 10
1427.37596599725
 20
171.2991533150563
 30
0.0
 11
1438.37596599725
 21
182.2991533150563
 31
0.0
1001
GradientColor1ACI
1070
     5
1001
GradientColor2ACI
1070
     2
1001
ACAD
1010
0.0
1020
0.0
1030
0.0
  0
LINE
  5
12F9
330
1F
100
AcDbEntity
  8
0
100
AcDbLine
 10
1427.375965997251
 20
170.1766212999226
 30
0.0
 11
1438.375965997251
 21
181.1766212999226
 31
0.0
1001
GradientColor1ACI
1070
     5
1001
GradientColor2ACI
1070
     2
1001
ACAD
1010
0.0
1020
0.0
1030
0.0
  0
LINE
  5
12FA
330
1F
100
AcDbEntity
  8
0
100
AcDbLine
 10
1427.375965997251
 20
169.054089284789
 30
0.0
 11
1438.375965997251
 21
180.054089284789
 31
0.0
1001
GradientColor1ACI
1070
     5
1001
GradientColor2ACI
1070
     2
1001
ACAD
1010
0.0
1020
0.0
1030
0.0
  0
LINE
  5
12FB
330
1F
100
AcDbEntity
  8
0
100
AcDbLine
 10
1427.375965997251
 20
167.9315572696554
 30
0.0
 11
1438.375965997251
 21
178.9315572696554
 31
0.0
1001
GradientColor1ACI
1070
     5
1001
GradientColor2ACI
1070
     2
1001
ACAD
1010
0.0
1020
0.0
1030
0.0
  0
LINE
  5
12FC
330
1F
100
AcDbEntity
  8
0
100
AcDbLine
 10
1427.37596599725
 20
166.8090252545217
 30
0.0
 11
1438.37596599725
 21
177.8090252545218
 31
0.0
1001
GradientColor1ACI
1070
     5
1001
GradientColor2ACI
1070
     2
1001
ACAD
1010
0.0
1020
0.0
1030
0.0
  0
LINE
  5
12FD
330
1F
100
AcDbEntity
  8
0
100
AcDbLine
 10
1427.375965997251
 20
165.6864932393881
 30
0.0
 11
1438.375965997251
 21
176.6864932393881
 31
0.0
1001
GradientColor1ACI
1070
     5
1001
GradientColor2ACI
1070
     2
1001
ACAD
1010
0.0
1020
0.0
1030
0.0
  0
LINE
  5
12FE
330
1F
100
AcDbEntity
  8
0
100
AcDbLine
 10
1427.375965997251
 20
164.5639612242545
 30
0.0
 11
1438.375965997251
 21
175.5639612242545
 31
0.0
1001
GradientColor1ACI
1070
     5
1001
GradientColor2ACI
1070
     2
1001
ACAD
1010
0.0
1020
0.0
1030
0.0
  0
LINE
  5
12FF
330
1F
100
AcDbEntity
  8
0
100
AcDbLine
 10
1427.375965997251
 20
163.4414292091208
 30
0.0
 11
1438.375965997251
 21
174.4414292091208
 31
0.0
1001
GradientColor1ACI
1070
     5
1001
GradientColor2ACI
1070
     2
1001
ACAD
1010
0.0
1020
0.0
1030
0.0
  0
LINE
  5
1300
330
1F
100
AcDbEntity
  8
0
100
AcDbLine
 10
1427.375965997251
 20
162.3188971939872
 30
0.0
 11
1438.375965997251
 21
173.3188971939872
 31
0.0
1001
GradientColor1ACI
1070
     5
1001
GradientColor2ACI
1070
     2
1001
ACAD
1010
0.0
1020
0.0
1030
0.0
  0
LINE
  5
1301
330
1F
100
AcDbEntity
  8
0
100
AcDbLine
 10
1427.612408180515
 20
161.4328073621176
 30
0.0
 11
1438.375965997251
 21
172.1963651788535
 31
0.0
1001
GradientColor1ACI
1070
     5
1001
GradientColor2ACI
1070
     2
1001
ACAD
1010
0.0
1020
0.0
1030
0.0
  0
LINE
  5
1302
330
1F
100
AcDbEntity
  8
0
100
AcDbLine
 10
1428.734940195649
 20
161.4328073621177
 30
0.0
 11
1438.375965997251
 21
171.0738331637199
 31
0.0
1001
GradientColor1ACI
1070
     5
1001
GradientColor2ACI
1070
     2
1001
ACAD
1010
0.0
1020
0.0
1030
0.0
  0
LINE
  5
1303
330
1F
100
AcDbEntity
  8
0
100
AcDbLine
 10
1429.857472210782
 20
161.4328073621177
 30
0.0
 11
1438.37596599725
 21
169.9513011485862
 31
0.0
1001
GradientColor1ACI
1070
     5
1001
GradientColor2ACI
1070
     2
1001
ACAD
1010
0.0
1020
0.0
1030
0.0
  0
LINE
  5
1304
330
1F
100
AcDbEntity
  8
0
100
AcDbLine
 10
1430.980004225916
 20
161.4328073621177
 30
0.0
 11
1438.375965997251
 21
168.8287691334525
 31
0.0
1001
GradientColor1ACI
1070
     5
1001
GradientColor2ACI
1070
     2
1001
ACAD
1010
0.0
1020
0.0
1030
0.0
  0
LINE
  5
1305
330
1F
100
AcDbEntity
  8
0
100
AcDbLine
 10
1432.10253624105
 20
161.4328073621177
 30
0.0
 11
1438.375965997251
 21
167.7062371183189
 31
0.0
1001
GradientColor1ACI
1070
     5
1001
GradientColor2ACI
1070
     2
1001
ACAD
1010
0.0
1020
0.0
1030
0.0
  0
LINE
  5
1306
330
1F
100
AcDbEntity
  8
0
100
AcDbLine
 10
1433.225068256183
 20
161.4328073621177
 30
0.0
 11
1438.375965997251
 21
166.5837051031853
 31
0.0
1001
GradientColor1ACI
1070
     5
1001
GradientColor2ACI
1070
     2
1001
ACAD
1010
0.0
1020
0.0
1030
0.0
  0
LINE
  5
1307
330
1F
100
AcDbEntity
  8
0
100
AcDbLine
 10
1434.347600271317
 20
161.4328073621177
 30
0.0
 11
1438.37596599725
 21
165.4611730880517
 31
0.0
1001
GradientColor1ACI
1070
     5
1001
GradientColor2ACI
1070
     2
1001
ACAD
1010
0.0
1020
0.0
1030
0.0
  0
LINE
  5
1308
330
1F
100
AcDbEntity
  8
0
100
AcDbLine
 10
1435.47013228645
 20
161.4328073621176
 30
0.0
 11
1438.375965997251
 21
164.338641072918
 31
0.0
1001
GradientColor1ACI
1070
     5
1001
GradientColor2ACI
1070
     2
1001
ACAD
1010
0.0
1020
0.0
1030
0.0
  0
LINE
  5
1309
330
1F
100
AcDbEntity
  8
0
100
AcDbLine
 10
1436.592664301584
 20
161.4328073621176
 30
0.0
 11
1438.375965997251
 21
163.2161090577843
 31
0.0
1001
GradientColor1ACI
1070
     5
1001
GradientColor2ACI
1070
     2
1001
ACAD
1010
0.0
1020
0.0
1030
0.0
  0
LINE
  5
130A
330
1F
100
AcDbEntity
  8
0
100
AcDbLine
 10
1437.715196316718
 20
161.4328073621176
 30
0.0
 11
1438.375965997251
 21
162.0935770426507
 31
0.0
1001
GradientColor1ACI
1070
     5
1001
GradientColor2ACI
1070
     2
1001
ACAD
1010
0.0
1020
0.0
1030
0.0
  0
LINE
  5
130B
330
1F
100
AcDbEntity
  8
0
100
AcDbLine
 10
1470.347854092418
 20
165.7514556146336
 30
0.0
 11
1475.69142164299
 21
170.9770428891943
 31
0.0
1001
ACAD
1000
DSTYLE
1002
{
1070
   341
1005
F1D
1070
   147
1040
0.625
1070
    77
1070
     0
1002
}
  0
LINE
  5
130C
330
1F
100
AcDbEntity
  8
0
100
AcDbLine
 10
1475.69142164299
 20
170.9770428891943
 30
0.0
 11
1478.19142164299
 21
170.9770428891943
 31
0.0
1001
ACAD
1000
DSTYLE
1002
{
1070
   341
1005
F1D
1070
   147
1040
0.625
1070
    77
1070
     0
1002
}
  0
LINE
  5
130E
330
1F
100
AcDbEntity
  8
0
100
AcDbLine
 10
1470.530371572865
 20
224.3752470476663
 30
0.0
 11
1475.418939147247
 21
227.3089347735342
 31
0.0
1001
ACAD
1000
DSTYLE
1002
{
1070
   147
1040
0.625
1070
    77
1070
     0
1002
}
  0
LINE
  5
130F
330
1F
100
AcDbEntity
  8
0
100
AcDbLine
 10
1475.418939147247
 20
227.3089347735342
 30
0.0
 11
1477.918939147247
 21
227.3089347735342
 31
0.0
1001
ACAD
1000
DSTYLE
1002
{
1070
   147
1040
0.625
1070
    77
1070
     0
1002
}
  0
LINE
  5
1310
330
1F
100
AcDbEntity
  8
0
  6
ByBlock
 62
     0
370
    -2
100
AcDbLine
 10
1470.87506540249
 20
223.8008644834506
 30
0.0
 11
1468.386745120758
 21
223.088831238596
 31
0.0
  0
LINE
  5
1311
330
1F
100
AcDbEntity
  8
0
  6
ByBlock
 62
     0
370
    -2
100
AcDbLine
 10
1468.386745120758
 20
223.088831238596
 30
0.0
 11
1470.18567774324
 21
224.949629611882
 31
0.0
  0
LINE
  5
1312
330
1F
100
AcDbEntity
  8
0
  6
ByBlock
 62
     0
370
    -2
100
AcDbLine
 10
1468.386745120758
 20
223.088831238596
 30
0.0
 11
1470.530371572865
 21
224.3752470476663
 31
0.0
  0
LINE
  5
1313
330
1F
100
AcDbEntity
  8
0
100
AcDbLine
 10
1471.06751274517
 20
210.7055088544993
 30
0.0
 11
1475.591938020459
 21
213.0897163952479
 31
0.0
1001
ACAD
1000
DSTYLE
1002
{
1070
   147
1040
0.625
1070
    77
1070
     0
1002
}
  0
LINE
  5
1314
330
1F
100
AcDbEntity
  8
0
100
AcDbLine
 10
1475.591938020459
 20
213.0897163952479
 30
0.0
 11
1478.091938020459
 21
213.0897163952479
 31
0.0
1001
ACAD
1000
DSTYLE
1002
{
1070
   147
1040
0.625
1070
    77
1070
     0
1002
}
  0
LINE
  5
1315
330
1F
100
AcDbEntity
  8
0
  6
ByBlock
 62
     0
370
    -2
100
AcDbLine
 10
1471.379804074494
 20
210.112884781511
 30
0.0
 11
1468.855808006626
 21
209.5400209096882
 31
0.0
  0
LINE
  5
1316
330
1F
100
AcDbEntity
  8
0
  6
ByBlock
 62
     0
370
    -2
100
AcDbLine
 10
1468.855808006626
 20
209.5400209096882
 30
0.0
 11
1470.755221415846
 21
211.2981329274875
 31
0.0
  0
LINE
  5
1317
330
1F
100
AcDbEntity
  8
0
  6
ByBlock
 62
     0
370
    -2
100
AcDbLine
 10
1468.855808006626
 20
209.5400209096882
 30
0.0
 11
1471.06751274517
 21
210.7055088544993
 31
0.0
  0
TEXT
  5
1318
330
1F
100
AcDbEntity
  8
0
 62
     4
100
AcDbText
 10
1413.622942848939
 20
194.8337045775125
 30
0.0
 40
3.0
  1
202
 50
90.0
100
AcDbText
  0
LINE
  5
1319
330
1F
100
AcDbEntity
  8
0
  6
ByBlock
 62
     0
370
    -2
100
AcDbLine
 10
1414.917815348939
 20
153.9328073621177
 30
0.0
 11
1414.247942848939
 21
151.4328073621177
 31
0.0
  0
LINE
  5
131A
330
1F
100
AcDbEntity
  8
0
  6
ByBlock
 62
     0
370
    -2
100
AcDbLine
 10
1414.247942848939
 20
151.4328073621177
 30
0.0
 11
1413.578070348939
 21
153.9328073621177
 31
0.0
  0
LINE
  5
131B
330
1F
100
AcDbEntity
  8
0
  6
ByBlock
 62
     0
370
    -2
100
AcDbLine
 10
1414.247942848939
 20
151.4328073621177
 30
0.0
 11
1414.247942848939
 21
153.9328073621177
 31
0.0
  0
LINE
  5
131C
330
1F
100
AcDbEntity
  8
0
  6
ByBlock
 62
     0
370
    -2
100
AcDbLine
 10
1413.578070348939
 20
249.9328073621177
 30
0.0
 11
1414.247942848939
 21
252.4328073621177
 31
0.0
  0
LINE
  5
131D
330
1F
100
AcDbEntity
  8
0
  6
ByBlock
 62
     0
370
    -2
100
AcDbLine
 10
1414.247942848939
 20
252.4328073621177
 30
0.0
 11
1414.917815348939
 21
249.9328073621177
 31
0.0
  0
LINE
  5
131E
330
1F
100
AcDbEntity
  8
0
  6
ByBlock
 62
     0
370
    -2
100
AcDbLine
 10
1414.247942848939
 20
252.4328073621177
 30
0.0
 11
1414.247942848939
 21
249.9328073621177
 31
0.0
  0
TEXT
  5
131F
330
1F
100
AcDbEntity
  8
0
 62
     4
100
AcDbText
 10
1430.52238906544
 20
262.5475441561116
 30
0.0
 40
3.0
  1
28
100
AcDbText
  0
LINE
  5
1320
330
1F
100
AcDbEntity
  8
0
  6
ByBlock
 62
     0
370
    -2
100
AcDbLine
 10
1437.375965997251
 20
262.5924166561116
 30
0.0
 11
1439.875965997251
 21
261.9225441561116
 31
0.0
  0
LINE
  5
1321
330
1F
100
AcDbEntity
  8
0
  6
ByBlock
 62
     0
370
    -2
100
AcDbLine
 10
1439.875965997251
 20
261.9225441561116
 30
0.0
 11
1437.375965997251
 21
261.2526716561116
 31
0.0
  0
LINE
  5
1322
330
1F
100
AcDbEntity
  8
0
  6
ByBlock
 62
     0
370
    -2
100
AcDbLine
 10
1439.875965997251
 20
261.9225441561116
 30
0.0
 11
1437.375965997251
 21
261.9225441561116
 31
0.0
  0
LINE
  5
1323
330
1F
100
AcDbEntity
  8
0
  6
ByBlock
 62
     0
370
    -2
100
AcDbLine
 10
1428.375965997251
 20
261.2526716561116
 30
0.0
 11
1425.875965997251
 21
261.9225441561116
 31
0.0
  0
LINE
  5
1324
330
1F
100
AcDbEntity
  8
0
  6
ByBlock
 62
     0
370
    -2
100
AcDbLine
 10
1425.875965997251
 20
261.9225441561116
 30
0.0
 11
1428.375965997251
 21
262.5924166561116
 31
0.0
  0
LINE
  5
1325
330
1F
100
AcDbEntity
  8
0
  6
ByBlock
 62
     0
370
    -2
100
AcDbLine
 10
1425.875965997251
 20
261.9225441561116
 30
0.0
 11
1428.375965997251
 21
261.9225441561116
 31
0.0
  0
TEXT
  5
1326
330
1F
100
AcDbEntity
  8
0
 62
     4
100
AcDbText
 10
1412.909505900253
 20
282.8794417862723
 30
0.0
 40
3.0
  1
20
 50
90.0
100
AcDbText
  0
LINE
  5
1327
330
1F
100
AcDbEntity
  8
0
  6
ByBlock
 62
     0
370
    -2
100
AcDbLine
 10
1414.204378400253
 20
282.1291525686265
 30
0.0
 11
1413.534505900253
 21
279.6291525686265
 31
0.0
  0
LINE
  5
1328
330
1F
100
AcDbEntity
  8
0
  6
ByBlock
 62
     0
370
    -2
100
AcDbLine
 10
1413.534505900253
 20
279.6291525686265
 30
0.0
 11
1412.864633400253
 21
282.1291525686265
 31
0.0
  0
LINE
  5
1329
330
1F
100
AcDbEntity
  8
0
  6
ByBlock
 62
     0
370
    -2
100
AcDbLine
 10
1413.534505900253
 20
279.6291525686265
 30
0.0
 11
1413.534505900253
 21
282.1291525686265
 31
0.0
  0
LINE
  5
132A
330
1F
100
AcDbEntity
  8
0
  6
ByBlock
 62
     0
370
    -2
100
AcDbLine
 10
1412.864633400253
 20
287.1291525686266
 30
0.0
 11
1413.534505900253
 21
289.6291525686266
 31
0.0
  0
LINE
  5
132B
330
1F
100
AcDbEntity
  8
0
  6
ByBlock
 62
     0
370
    -2
100
AcDbLine
 10
1413.534505900253
 20
289.6291525686266
 30
0.0
 11
1414.204378400253
 21
287.1291525686266
 31
0.0
  0
LINE
  5
132C
330
1F
100
AcDbEntity
  8
0
  6
ByBlock
 62
     0
370
    -2
100
AcDbLine
 10
1413.534505900253
 20
289.6291525686266
 30
0.0
 11
1413.534505900253
 21
287.1291525686266
 31
0.0
  0
LINE
  5
132D
330
1F
100
AcDbEntity
  8
0
100
AcDbLine
 10
1438.374267578941
 20
239.1449204941448
 30
0.0
 11
1441.035518116606
 21
242.3002341772515
 31
0.0
1001
ACAD
1000
DSTYLE
1002
{
1070
   147
1040
0.625
1070
    77
1070
     0
1002
}
  0
LINE
  5
132E
330
1F
100
AcDbEntity
  8
0
100
AcDbLine
 10
1441.035518116606
 20
242.3002341772515
 30
0.0
 11
1443.535518116606
 21
242.3002341772515
 31
0.0
1001
ACAD
1000
DSTYLE
1002
{
1070
   147
1040
0.625
1070
    77
1070
     0
1002
}
  0
LINE
  5
132F
330
1F
100
AcDbEntity
  8
0
  6
ByBlock
 62
     0
370
    -2
100
AcDbLine
 10
1438.886329031594
 20
238.7130382938143
 30
0.0
 11
1436.762460106883
 21
237.2338797638048
 31
0.0
  0
LINE
  5
1330
330
1F
100
AcDbEntity
  8
0
  6
ByBlock
 62
     0
370
    -2
100
AcDbLine
 10
1436.762460106883
 20
237.2338797638048
 30
0.0
 11
1437.862206126287
 21
239.5768026944752
 31
0.0
  0
LINE
  5
1331
330
1F
100
AcDbEntity
  8
0
  6
ByBlock
 62
     0
370
    -2
100
AcDbLine
 10
1436.762460106883
 20
237.2338797638048
 30
0.0
 11
1438.374267578941
 21
239.1449204941448
 31
0.0
  0
LINE
  5
1332
330
1F
100
AcDbEntity
  8
0
100
AcDbLine
 10
1435.554386261277
 20
287.429454318305
 30
0.0
 11
1438.441594298836
 21
290.4480447269316
 31
0.0
1001
ACAD
1000
DSTYLE
1002
{
1070
   147
1040
0.625
1070
    77
1070
     0
1002
}
  0
LINE
  5
1333
330
1F
100
AcDbEntity
  8
0
100
AcDbLine
 10
1438.441594298836
 20
290.4480447269316
 30
0.0
 11
1440.941594298836
 21
290.4480447269316
 31
0.0
1001
ACAD
1000
DSTYLE
1002
{
1070
   147
1040
0.625
1070
    77
1070
     0
1002
}
  0
LINE
  5
1334
330
1F
100
AcDbEntity
  8
0
  6
ByBlock
 62
     0
370
    -2
100
AcDbLine
 10
1436.038475328067
 20
286.9664349432563
 30
0.0
 11
1433.826373187712
 21
285.6228080281899
 31
0.0
  0
LINE
  5
1335
330
1F
100
AcDbEntity
  8
0
  6
ByBlock
 62
     0
370
    -2
100
AcDbLine
 10
1433.826373187712
 20
285.6228080281899
 30
0.0
 11
1435.070297194487
 21
287.8924736933539
 31
0.0
  0
LINE
  5
1336
330
1F
100
AcDbEntity
  8
0
  6
ByBlock
 62
     0
370
    -2
100
AcDbLine
 10
1433.826373187712
 20
285.6228080281899
 30
0.0
 11
1435.554386261277
 21
287.429454318305
 31
0.0
  0
ARC
  5
1337
330
1F
100
AcDbEntity
  8
0
  6
ByBlock
 62
     0
100
AcDbCircle
 10
1470.347854092418
 20
165.7514556146336
 30
0.0
 40
0.1562500000000192
100
AcDbArc
 50
44.36045111978077
 51
224.3604511197808
  0
ARC
  5
1338
330
1F
100
AcDbEntity
  8
0
  6
ByBlock
 62
     0
100
AcDbCircle
 10
1470.347854092418
 20
165.7514556146336
 30
0.0
 40
0.1562500000000192
100
AcDbArc
 50
224.3604511197808
 51
44.36045111978077
  0
ENDSEC
  0
SECTION
  2
OBJECTS
  0
DICTIONARY
  5
C
330
0
100
AcDbDictionary
281
     1
  3
ACAD_2007HEADERVARS_RT
350
133C
  3
ACAD_COLOR
350
73
  3
ACAD_GROUP
350
D
  3
ACAD_LAYOUT
350
1A
  3
ACAD_MATERIAL
350
72
  3
ACAD_MLEADERSTYLE
350
168
  3
ACAD_MLINESTYLE
350
17
  3
ACAD_PLOTSETTINGS
350
19
  3
ACAD_PLOTSTYLENAME
350
E
  3
ACAD_SCALELIST
350
156
  3
ACAD_TABLESTYLE
350
86
  3
ACAD_VISUALSTYLE
350
99
  3
ACDB_RECOMPOSE_DATA
350
133A
  3
AcDbVariableDictionary
350
66
  3
DWGPROPS
350
133B
  0
DICTIONARY
  5
DD
330
2
100
AcDbDictionary
280
     1
281
     1
  3
ACAD_LAYERSTATES
360
DE
  0
DICTIONARY
  5
8E9
330
10
100
AcDbDictionary
280
     1
281
     1
  3
ADSK_XREC_LAYER_RECONCILED
360
1007
  0
DICTIONARY
  5
324
330
1F
100
AcDbDictionary
280
     1
281
     1
  3
ACAD_SORTENTS
360
325
  0
DICTIONARY
  5
133C
102
{ACAD_REACTORS
330
C
102
}
330
C
100
AcDbDictionary
281
     1
  3
DIMARCSYM
350
133E
  3
DIMFXL
350
133D
  3
DIMJOGANG
350
133F
  0
DICTIONARY
  5
73
102
{ACAD_REACTORS
330
C
102
}
330
C
100
AcDbDictionary
281
     1
  0
DICTIONARY
  5
D
102
{ACAD_REACTORS
330
C
102
}
330
C
100
AcDbDictionary
281
     1
  0
DICTIONARY
  5
1A
102
{ACAD_REACTORS
330
C
102
}
330
C
100
AcDbDictionary
281
     1
  3
Model
350
22
  3
レイアウト1
350
59
  3
レイアウト2
350
5E
  0
DICTIONARY
  5
72
102
{ACAD_REACTORS
330
C
102
}
330
C
100
AcDbDictionary
281
     1
  3
ByBlock
350
97
  3
ByLayer
350
96
  3
Global
350
98
  0
DICTIONARY
  5
168
102
{ACAD_REACTORS
330
C
102
}
330
C
100
AcDbDictionary
281
     1
  3
Standard
350
169
  0
DICTIONARY
  5
17
102
{ACAD_REACTORS
330
C
102
}
330
C
100
AcDbDictionary
281
     1
  3
Standard
350
18
  0
DICTIONARY
  5
19
102
{ACAD_REACTORS
330
C
102
}
330
C
100
AcDbDictionary
281
     1
  0
ACDBDICTIONARYWDFLT
  5
E
102
{ACAD_REACTORS
330
C
102
}
330
C
100
AcDbDictionary
281
     1
  3
Normal
350
F
100
AcDbDictionaryWithDefault
340
F
  0
DICTIONARY
  5
156
102
{ACAD_REACTORS
330
C
102
}
330
C
100
AcDbDictionary
281
     1
  3
A0
350
157
  3
A1
350
158
  3
A2
350
159
  3
A3
350
15A
  3
A4
350
15B
  3
A5
350
15C
  3
A6
350
15D
  3
A7
350
15E
  3
A8
350
15F
  3
A9
350
160
  3
B0
350
161
  3
B1
350
162
  3
B2
350
163
  3
B3
350
164
  3
B4
350
165
  3
B5
350
166
  3
B6
350
167
  0
DICTIONARY
  5
86
102
{ACAD_REACTORS
330
C
102
}
330
C
100
AcDbDictionary
281
     1
  3
Standard
350
87
  0
DICTIONARY
  5
99
102
{ACAD_REACTORS
330
C
102
}
330
C
100
AcDbDictionary
281
     1
  3
2dWireframe
350
9F
  3
3D Hidden
350
A1
  3
3dWireframe
350
A0
  3
Basic
350
9E
  3
Brighten
350
A5
  3
ColorChange
350
A9
  3
Conceptual
350
A2
  3
Dim
350
A4
  3
EdgeColorOff
350
155
  3
Facepattern
350
A8
  3
Flat
350
9A
  3
FlatWithEdges
350
9B
  3
Gouraud
350
9C
  3
GouraudWithEdges
350
9D
  3
Hidden
350
14D
  3
JitterOff
350
153
  3
Linepattern
350
A7
  3
OverhangOff
350
154
  3
Realistic
350
A3
  3
Shaded
350
152
  3
Shaded with edges
350
151
  3
Shades of Gray
350
14E
  3
Sketchy
350
14F
  3
Thicken
350
A6
  3
Wireframe
350
14C
  3
X-Ray
350
150
  0
XRECORD
  5
133A
102
{ACAD_REACTORS
330
C
102
}
330
C
100
AcDbXrecord
280
     1
 90
        1
330
87
  0
DICTIONARY
  5
66
102
{ACAD_REACTORS
330
C
102
}
330
C
100
AcDbDictionary
281
     1
  3
CANNOSCALE
350
24A
  3
CMLEADERSTYLE
350
248
  3
CTABLESTYLE
350
89
  3
DIMASSOC
350
67
  3
HIDETEXT
350
6B
  3
INDEXCTL
350
1009
  3
LAYEREVAL
350
24C
  3
LAYERNOTIFY
350
24D
  3
LIGHTINGUNITS
350
24B
  3
MSLTSCALE
350
249
  3
SORTENTS
350
1008
  3
XCLIPFRAME
350
1213
  0
XRECORD
  5
133B
102
{ACAD_REACTORS
330
C
102
}
330
C
100
AcDbXrecord
280
     1
  1
DWGPROPS COOKIE
  2

  3

  4

  6

  7

  8
imamura
  9

300
=
301
=
302
=
303
=
304
=
305
=
306
=
307
=
308
=
309
=
 40
0.1230719791666667
 41
2456609.477394861
 42
2456870.420050475
  1

 90
        0
  0
DICTIONARY
  5
DE
102
{ACAD_REACTORS
330
DD
102
}
330
DD
100
AcDbDictionary
281
     1
  0
XRECORD
  5
1007
102
{ACAD_REACTORS
330
8E9
102
}
330
8E9
100
AcDbXrecord
280
     1
290
     1
  0
SORTENTSTABLE
  5
325
102
{ACAD_REACTORS
330
324
102
}
330
324
100
AcDbSortentsTable
330
1F
331
12F4
  5
DC3
331
C0E
  5
C0E
331
132F
  5
12EF
331
12F0
  5
DBF
331
C0A
  5
C0A
331
132B
  5
1306
331
12EC
  5
DB9
331
1094
  5
1337
331
DB7
  5
F61
331
C06
  5
C06
331
C55
  5
C55
331
12E8
  5
DA7
331
F4D
  5
F93
331
C8C
  5
F1C
331
C02
  5
C02
331
C51
  5
C51
331
F49
  5
F8F
331
C88
  5
F40
331
1004
  5
1333
331
EC2
  5
F56
331
F86
  5
1276
331
1284
  5
FD8
331
1280
  5
FD4
331
12BF
  5
C76
331
F82
  5
FCB
331
FBD
  5
12AD
331
127C
  5
FD0
331
12BB
  5
C6D
331
F7E
  5
FC7
331
FB9
  5
12AA
331
1278
  5
FCC
331
F7A
  5
FC3
331
1327
  5
1308
331
1323
  5
130F
331
12E4
  5
D75
331
BFE
  5
BFE
331
131F
  5
1315
331
12E0
  5
D71
331
C49
  5
C49
331
F45
  5
F8B
331
C84
  5
F3C
331
EBE
  5
F54
331
BFA
  5
BFA
331
131B
  5
131E
331
12DC
  5
C93
331
F41
  5
F87
331
C80
  5
F38
331
C45
  5
C45
331
FEC
  5
12DC
331
EBA
  5
F4D
331
12D8
  5
C8F
331
F3D
  5
F83
331
C7C
  5
F34
331
BF2
  5
BF2
331
C41
  5
C41
331
FE8
  5
12D8
331
EB6
  5
F59
331
FE4
  5
12D4
331
F39
  5
F7F
331
C78
  5
F30
331
FE0
  5
12D0
331
12B7
  5
C68
331
12B3
  5
1270
331
FB5
  5
12A6
331
F76
  5
FBF
331
12AF
  5
126C
331
FB1
  5
12A0
331
F72
  5
FBB
331
126C
  5
1303
331
12AB
  5
1268
331
FAD
  5
129D
331
F6E
  5
FB7
331
F6A
  5
FB3
331
1317
  5
1322
331
1313
  5
1323
331
12D4
  5
C8B
331
BEE
  5
BEE
331
130F
  5
132A
331
12D0
  5
C87
331
C29
  5
C29
331
F35
  5
F7B
331
C74
  5
F2C
331
BEA
  5
BEA
331
130B
  5
132F
331
12CC
  5
C83
331
D7F
  5
F57
331
BE6
  5
BE6
331
FDC
  5
12CC
331
F31
  5
F77
331
C70
  5
F28
331
12C8
  5
C7F
331
F2D
  5
F72
331
D7B
  5
F4A
331
BE2
  5
BE2
331
FD8
  5
12C8
331
DCE
  5
F67
331
C21
  5
C21
331
F29
  5
F6E
331
FD4
  5
12C4
331
DCA
  5
F5C
331
FD0
  5
12C0
331
12A7
  5
1264
331
12A3
  5
1260
331
FA5
  5
1295
331
F66
  5
FAF
331
1260
  5
1317
331
129F
  5
125C
331
FA1
  5
1291
331
F62
  5
FAA
331
125C
  5
1325
331
129B
  5
1258
331
F9D
  5
128D
331
F5E
  5
FA6
331
F99
  5
1289
331
F5A
  5
FA2
331
1307
  5
EBE
331
1303
  5
EBA
331
12C4
  5
C7B
331
D77
  5
F42
331
BDE
  5
BDE
331
C1D
  5
C1D
331
12FF
  5
EB6
331
12C0
  5
C77
331
C19
  5
C19
331
DC6
  5
F4C
331
D73
  5
F1B
331
BDA
  5
BDA
331
12FB
  5
DCB
331
FCC
  5
12BC
331
C60
  5
F17
331
BD6
  5
BD6
331
C15
  5
C15
331
FC8
  5
12B8
331
DBE
  5
F64
331
C5C
  5
F18
331
C93
  5
F13
331
C11
  5
C11
331
FC4
  5
12B4
331
C58
  5
C58
331
FC0
  5
12B0
331
1297
  5
1193
331
F95
  5
1285
331
1293
  5
1006
331
F56
  5
F9D
331
1338
  5
132E
331
F91
  5
1281
331
128F
  5
FE3
331
F52
  5
F98
331
1334
  5
12E4
331
1194
  5
129B
331
128B
  5
FDF
331
F8D
  5
127D
331
F26
  5
F6C
331
1330
  5
12F0
331
F89
  5
1279
331
12F7
  5
DC7
331
12F3
  5
DC2
331
C0D
  5
C0D
331
132E
  5
12F6
331
12EF
  5
DBE
331
C09
  5
C09
331
132A
  5
1305
331
12EB
  5
DB8
331
1093
  5
1336
331
C05
  5
C05
331
C54
  5
C54
331
F4C
  5
F92
331
C8B
  5
F41
331
C01
  5
C01
331
C50
  5
C50
331
F48
  5
F8E
331
1003
  5
12A3
331
EC1
  5
F51
331
D6F
  5
F43
331
1287
  5
FDB
331
F85
  5
1275
331
1283
  5
FD7
331
127F
  5
FD3
331
12BE
  5
C75
331
F81
  5
FCA
331
FBC
  5
12AC
331
127B
  5
FCF
331
12BA
  5
C6C
331
F7D
  5
FC6
331
FB8
  5
12A9
331
F79
  5
FC2
331
1326
  5
130B
331
12E7
  5
D78
331
1322
  5
1314
331
12E3
  5
D74
331
C87
  5
F3F
331
BFD
  5
BFD
331
131E
  5
131B
331
12DF
  5
D6D
331
C48
  5
C48
331
F44
  5
F8A
331
C83
  5
F3B
331
FEF
  5
12DF
331
EBD
  5
F4F
331
BF9
  5
BF9
331
131A
  5
131D
331
12DB
  5
C92
331
DA6
  5
F5E
331
BF5
  5
BF5
331
C44
  5
C44
331
F40
  5
F86
331
FEB
  5
12DB
331
EB9
  5
F52
331
C7F
  5
F37
331
F3C
  5
F82
331
C7B
  5
F33
331
BF1
  5
BF1
331
FE7
  5
12D7
331
EB5
  5
F5A
331
FE3
  5
12D3
331
F38
  5
F7E
331
12B6
  5
1273
331
12B2
  5
126F
331
FB4
  5
12A5
331
F75
  5
FBE
331
12AE
  5
126B
331
F71
  5
FBA
331
126B
  5
1300
331
12AA
  5
1267
331
FAC
  5
129C
331
F6D
  5
FB6
331
FA8
  5
1298
331
F69
  5
FB2
331
1316
  5
1321
331
12D7
  5
C8E
331
1312
  5
1328
331
12D3
  5
C8A
331
C77
  5
F2F
331
BED
  5
BED
331
130E
  5
1329
331
12CF
  5
C86
331
F34
  5
F7A
331
C73
  5
F2B
331
FDF
  5
12CF
331
DD5
  5
F6A
331
BE9
  5
BE9
331
130A
  5
EC2
331
12CB
  5
C82
331
FDB
  5
12CB
331
F30
  5
F76
331
C6F
  5
F27
331
BE5
  5
BE5
331
C24
  5
C24
331
FD7
  5
12C7
331
F2C
  5
F71
331
BE1
  5
BE1
331
C20
  5
C20
331
FD3
  5
12C3
331
F28
  5
F6D
331
1267
  5
130E
331
12A6
  5
1263
331
12A2
  5
125F
331
FA4
  5
1294
331
F65
  5
FAE
331
125F
  5
1316
331
129E
  5
125B
331
FA0
  5
1290
331
F61
  5
FA9
331
129A
  5
1257
331
F9C
  5
128C
331
F5D
  5
FA5
331
F98
  5
1288
331
F59
  5
FA0
331
1306
  5
EBD
331
12C7
  5
C7E
331
1302
  5
EB9
331
12C3
  5
C7A
331
D76
  5
F48
331
BDD
  5
BDD
331
12FE
  5
DCE
331
C18
  5
C18
331
FCF
  5
12BF
331
DC5
  5
F66
331
D72
  5
F44
331
BD9
  5
BD9
331
12FA
  5
DCA
331
FCB
  5
12BB
331
BD5
  5
BD5
331
C14
  5
C14
331
C92
  5
EC7
331
C10
  5
C10
331
FC7
  5
12B7
331
DBD
  5
F63
331
C5B
  5
C65
331
FC3
  5
12B3
331
1296
  5
1095
331
F94
  5
1284
331
1292
  5
1005
331
F55
  5
F9C
331
1337
  5
132D
331
F90
  5
1280
331
128E
  5
FE2
331
F51
  5
F97
331
1333
  5
12EA
331
1193
  5
12A1
331
128A
  5
FDE
331
F8C
  5
127C
331
F25
  5
F6B
331
F88
  5
1278
331
12F6
  5
DC5
331
12F2
  5
DC1
331
C0C
  5
C0C
331
132D
  5
12F5
331
12EE
  5
DBD
331
C08
  5
C08
331
C57
  5
C57
331
1329
  5
130A
331
12EA
  5
DAF
331
F4F
  5
F95
331
C04
  5
C04
331
1006
  5
1335
331
F4B
  5
F91
331
C00
  5
C00
331
1002
  5
1332
331
EC0
  5
F50
331
1286
  5
FDA
331
F84
  5
1274
331
1282
  5
FD6
331
FBF
  5
12AF
331
127E
  5
FD2
331
12BD
  5
C72
331
F80
  5
FC9
331
FBB
  5
12AB
331
127A
  5
FCE
331
12B9
  5
C6A
331
F7C
  5
FC5
331
F78
  5
FC1
331
1325
  5
1311
331
12E6
  5
D77
331
1321
  5
1313
331
12E2
  5
D73
331
F47
  5
F8D
331
C86
  5
F3E
331
BFC
  5
BFC
331
131D
  5
131A
331
12DE
  5
C96
331
F43
  5
F89
331
C82
  5
F3A
331
BF8
  5
BF8
331
C47
  5
C47
331
FEE
  5
12DE
331
EBC
  5
F4E
331
1319
  5
131C
331
12DA
  5
C91
331
DA5
  5
F5D
331
BF4
  5
BF4
331
C43
  5
C43
331
EB8
  5
12E1
331
F3F
  5
F85
331
FEA
  5
12DA
331
C7E
  5
F36
331
FE6
  5
12D6
331
F3B
  5
F81
331
C7A
  5
F32
331
BF0
  5
BF0
331
FE2
  5
12D2
331
12B5
  5
1272
331
FB7
  5
12A8
331
1272
  5
12FD
331
12B1
  5
126E
331
FB3
  5
12A4
331
F74
  5
FBD
331
12AD
  5
126A
331
FAF
  5
129F
331
F70
  5
FB9
331
12A9
  5
1266
331
FAB
  5
129A
331
F6C
  5
FB5
331
F68
  5
FB1
331
1315
  5
1320
331
12D6
  5
C8D
331
1311
  5
1327
331
12D2
  5
C89
331
F37
  5
F7D
331
C76
  5
F2E
331
BEC
  5
BEC
331
12CE
  5
C85
331
C27
  5
C27
331
F33
  5
F79
331
C72
  5
F2A
331
FDE
  5
12CE
331
DD4
  5
F69
331
BE8
  5
BE8
331
1309
  5
EC1
331
12CA
  5
C81
331
F2F
  5
F75
331
C6E
  5
F26
331
BE4
  5
BE4
331
C23
  5
C23
331
FDA
  5
12CA
331
DD0
  5
F4B
331
FD6
  5
12C6
331
F2B
  5
F70
331
BE0
  5
BE0
331
FD2
  5
12C2
331
1266
  5
130D
331
12A5
  5
1262
331
FA7
  5
1297
331
12A1
  5
125E
331
FA3
  5
1293
331
F64
  5
FAD
331
129D
  5
125A
331
F9F
  5
128F
331
F60
  5
FA8
331
1299
  5
1256
331
F9B
  5
128B
331
F5C
  5
FA4
331
F58
  5
F9F
331
1305
  5
EBC
331
12C6
  5
C7D
331
C1F
  5
C1F
331
1301
  5
EB8
331
12C2
  5
C79
331
D75
  5
F47
331
BDC
  5
BDC
331
12FD
  5
DCD
331
C17
  5
C17
331
FCE
  5
12BE
331
DC4
  5
F65
331
D71
  5
F46
331
BD8
  5
BD8
331
12F9
  5
DC9
331
C13
  5
C13
331
FCA
  5
12BA
331
C5E
  5
C5B
331
FC6
  5
12B6
331
DBC
  5
F60
331
C5A
  5
EC8
331
C91
  5
EC4
331
FC2
  5
12B2
331
DB8
  5
F62
331
1256
  5
1331
331
1295
  5
1094
331
F97
  5
1287
331
F93
  5
1283
331
1291
  5
FE5
331
F54
  5
F9B
331
1336
  5
12E8
331
F8F
  5
127F
331
128D
  5
FE1
331
F50
  5
F96
331
1332
  5
12E9
331
F8B
  5
127B
331
1289
  5
FDD
331
12F5
  5
DC4
331
C0F
  5
C0F
331
12F1
  5
DC0
331
C0B
  5
C0B
331
132C
  5
1307
331
12ED
  5
DBC
331
1095
  5
1338
331
C07
  5
C07
331
C56
  5
C56
331
1328
  5
1309
331
12E9
  5
DAD
331
F4E
  5
F94
331
C03
  5
C03
331
C52
  5
C52
331
1005
  5
1334
331
F4A
  5
F90
331
F87
  5
1277
331
1285
  5
FD9
331
1281
  5
FD5
331
FBE
  5
12AE
331
127D
  5
FD1
331
12BC
  5
C70
331
F7F
  5
FC8
331
1279
  5
FCD
331
12B8
  5
C69
331
F7B
  5
FC4
331
1324
  5
1310
331
12E5
  5
D76
331
BFF
  5
BFF
331
1320
  5
1312
331
12E1
  5
D72
331
F46
  5
F8C
331
C85
  5
F3D
331
BFB
  5
BFB
331
EBF
  5
F55
331
131C
  5
1319
331
12DD
  5
C94
331
DA8
  5
F5F
331
BF7
  5
BF7
331
C46
  5
C46
331
F42
  5
F88
331
FED
  5
12DD
331
EBB
  5
F53
331
C81
  5
F39
331
1318
  5
131F
331
12D9
  5
C90
331
EB7
  5
12E0
331
F3E
  5
F84
331
C7D
  5
F35
331
BF3
  5
BF3
331
C42
  5
C42
331
FE9
  5
12D9
331
FE5
  5
12D5
331
F3A
  5
F80
331
C79
  5
F31
331
FE1
  5
12D1
331
1275
  5
12EB
331
12B4
  5
1271
331
FB6
  5
12A7
331
F77
  5
FC0
331
1271
  5
12F7
331
12B0
  5
126D
331
FB2
  5
12A2
331
F73
  5
FBC
331
126D
  5
1304
331
12AC
  5
1269
331
FAE
  5
129E
331
F6F
  5
FB8
331
12A8
  5
1265
331
FAA
  5
1299
331
F6B
  5
FB4
331
1314
  5
1324
331
12D5
  5
C8C
331
BEF
  5
BEF
331
1310
  5
1326
331
12D1
  5
C88
331
D84
  5
F58
331
F36
  5
F7C
331
C75
  5
F2D
331
BEB
  5
BEB
331
130C
  5
1330
331
12CD
  5
C84
331
FDD
  5
12CD
331
F32
  5
F78
331
C71
  5
F29
331
BE7
  5
BE7
331
C26
  5
C26
331
1308
  5
EBF
331
12C9
  5
C80
331
F2E
  5
F73
331
C6D
  5
F25
331
BE3
  5
BE3
331
FD9
  5
12C9
331
DCF
  5
F68
331
F2A
  5
F6F
331
D78
  5
F49
331
FD5
  5
12C5
331
DCB
  5
F5B
331
FD1
  5
12C1
331
1265
  5
130C
331
12A4
  5
1261
331
FA6
  5
1296
331
F67
  5
FB0
331
1261
  5
1318
331
12A0
  5
125D
331
FA2
  5
1292
331
F63
  5
FAB
331
129C
  5
1259
331
F9E
  5
128E
331
F5F
  5
FA7
331
1259
  5
132B
331
1298
  5
1194
331
F9A
  5
128A
331
F5B
  5
FA3
331
1304
  5
EBB
331
12C5
  5
C7C
331
BDF
  5
BDF
331
C1E
  5
C1E
331
1300
  5
EB7
331
12C1
  5
C78
331
D74
  5
ECB
331
BDB
  5
BDB
331
12FC
  5
DCC
331
C16
  5
C16
331
D70
  5
F45
331
FCD
  5
12BD
331
C61
  5
F14
331
BD7
  5
BD7
331
12F8
  5
DC8
331
C94
  5
EFB
331
C12
  5
C12
331
FC9
  5
12B9
331
C5D
  5
C5A
331
C90
  5
EE3
331
FC5
  5
12B5
331
C59
  5
C59
331
FC1
  5
12B1
331
F96
  5
1286
331
1294
  5
1093
331
F57
  5
F9E
331
F92
  5
1282
331
1290
  5
FE4
331
F53
  5
F99
331
1335
  5
12E7
331
F8E
  5
127E
331
128C
  5
FE0
331
1331
  5
12F1
331
F8A
  5
127A
331
1288
  5
FDC
  0
XRECORD
  5
133E
102
{ACAD_REACTORS
330
133C
102
}
330
133C
100
AcDbXrecord
280
     1
 70
     2
  0
XRECORD
  5
133D
102
{ACAD_REACTORS
330
133C
102
}
330
133C
100
AcDbXrecord
280
     1
 40
1.25
  0
XRECORD
  5
133F
102
{ACAD_REACTORS
330
133C
102
}
330
133C
100
AcDbXrecord
280
     1
 40
1.570796326794896
  0
LAYOUT
  5
22
102
{ACAD_XDICTIONARY
360
1340
102
}
102
{ACAD_REACTORS
330
1A
102
}
330
1A
100
AcDbPlotSettings
  1

  2
none_device
  4
ANSI_A_(8.50_x_11.00_Inches)
  6

 40
6.349999904632567
 41
19.04999923706055
 42
6.350006103515625
 43
19.04998779296875
 44
215.8999938964844
 45
279.3999938964844
 46
0.0
 47
0.0
 48
0.0
 49
0.0
140
0.0
141
0.0
142
1.0
143
2.584895464708373
 70
 11952
 72
     0
 73
     1
 74
     0
  7

 75
     0
147
0.3868628397755418
148
0.0
149
0.0
100
AcDbLayout
  1
Model
 70
     1
 71
     0
 10
0.0
 20
0.0
 11
12.0
 21
9.0
 12
0.0
 22
0.0
 32
0.0
 14
0.0
 24
0.0
 34
0.0
 15
0.0
 25
0.0
 35
0.0
146
0.0
 13
0.0
 23
0.0
 33
0.0
 16
1.0
 26
0.0
 36
0.0
 17
0.0
 27
1.0
 37
0.0
 76
     0
330
1F
331
94
  0
LAYOUT
  5
59
102
{ACAD_XDICTIONARY
360
1342
102
}
102
{ACAD_REACTORS
330
1A
102
}
330
1A
100
AcDbPlotSettings
  1

  2
None
  4

  6

 40
0.0
 41
0.0
 42
0.0
 43
0.0
 44
0.0
 45
0.0
 46
0.0
 47
0.0
 48
0.0
 49
0.0
140
0.0
141
0.0
142
1.0
143
1.0
 70
   688
 72
     0
 73
     0
 74
     5
  7

 75
    16
147
1.0
148
0.0
149
0.0
100
AcDbLayout
  1
レイアウト1
 70
     1
 71
     1
 10
0.0
 20
0.0
 11
12.0
 21
9.0
 12
0.0
 22
0.0
 32
0.0
 14
0.0
 24
0.0
 34
0.0
 15
0.0
 25
0.0
 35
0.0
146
0.0
 13
0.0
 23
0.0
 33
0.0
 16
1.0
 26
0.0
 36
0.0
 17
0.0
 27
1.0
 37
0.0
 76
     0
330
58
  0
LAYOUT
  5
5E
102
{ACAD_XDICTIONARY
360
1344
102
}
102
{ACAD_REACTORS
330
1A
102
}
330
1A
100
AcDbPlotSettings
  1

  2
None
  4

  6

 40
0.0
 41
0.0
 42
0.0
 43
0.0
 44
0.0
 45
0.0
 46
0.0
 47
0.0
 48
0.0
 49
0.0
140
0.0
141
0.0
142
1.0
143
1.0
 70
   688
 72
     0
 73
     0
 74
     5
  7

 75
    16
147
1.0
148
0.0
149
0.0
100
AcDbLayout
  1
レイアウト2
 70
     1
 71
     2
 10
0.0
 20
0.0
 11
12.0
 21
9.0
 12
0.0
 22
0.0
 32
0.0
 14
0.0
 24
0.0
 34
0.0
 15
0.0
 25
0.0
 35
0.0
146
0.0
 13
0.0
 23
0.0
 33
0.0
 16
1.0
 26
0.0
 36
0.0
 17
0.0
 27
1.0
 37
0.0
 76
     0
330
5D
  0
MATERIAL
  5
97
102
{ACAD_XDICTIONARY
360
101C
102
}
102
{ACAD_REACTORS
330
72
102
}
330
72
100
AcDbMaterial
  1
ByBlock
 73
     1
 78
     1
172
     1
176
     1
270
     1
274
     1
  0
MATERIAL
  5
96
102
{ACAD_XDICTIONARY
360
101A
102
}
102
{ACAD_REACTORS
330
72
102
}
330
72
100
AcDbMaterial
  1
ByLayer
 73
     1
 78
     1
172
     1
176
     1
270
     1
274
     1
  0
MATERIAL
  5
98
102
{ACAD_XDICTIONARY
360
101E
102
}
102
{ACAD_REACTORS
330
72
102
}
330
72
100
AcDbMaterial
  1
Global
 73
     1
 78
     1
172
     1
176
     1
270
     1
274
     1
  0
MLEADERSTYLE
  5
169
102
{ACAD_REACTORS
330
168
102
}
330
168
100
AcDbMLeaderStyle
170
     2
171
     1
172
     0
 90
        2
 40
0.0
 41
0.0
173
     1
 91
-1056964608
340
14
 92
       -2
290
     1
 42
2.0
291
     1
 43
0.36
  3
Standard
 44
4.0
300

342
11
174
     1
178
     6
175
     1
176
     0
 93
-1056964608
 45
4.0
292
     0
297
     0
 46
4.0
 94
-1056964608
 47
1.0
 49
1.0
140
1.0
293
     1
141
0.0
294
     1
177
     0
142
1.0
295
     0
296
     0
143
0.125
1001
ACAD_MLEADERVER
1070
     2
  0
MLINESTYLE
  5
18
102
{ACAD_REACTORS
330
17
102
}
330
17
100
AcDbMlineStyle
  2
STANDARD
 70
     0
  3

 62
   256
 51
90.0
 52
90.0
 71
     2
 49
0.5
 62
   256
  6
BYLAYER
 49
-0.5
 62
   256
  6
BYLAYER
  0
ACDBPLACEHOLDER
  5
F
102
{ACAD_REACTORS
330
E
102
}
330
E
  0
SCALE
  5
157
102
{ACAD_REACTORS
330
156
102
}
330
156
100
AcDbScale
 70
     0
300
1:1
140
1.0
141
1.0
290
     1
  0
SCALE
  5
158
102
{ACAD_REACTORS
330
156
102
}
330
156
100
AcDbScale
 70
     0
300
1:2
140
1.0
141
2.0
290
     0
  0
SCALE
  5
159
102
{ACAD_REACTORS
330
156
102
}
330
156
100
AcDbScale
 70
     0
300
1:4
140
1.0
141
4.0
290
     0
  0
SCALE
  5
15A
102
{ACAD_REACTORS
330
156
102
}
330
156
100
AcDbScale
 70
     0
300
1:5
140
1.0
141
5.0
290
     0
  0
SCALE
  5
15B
102
{ACAD_REACTORS
330
156
102
}
330
156
100
AcDbScale
 70
     0
300
1:8
140
1.0
141
8.0
290
     0
  0
SCALE
  5
15C
102
{ACAD_REACTORS
330
156
102
}
330
156
100
AcDbScale
 70
     0
300
1:10
140
1.0
141
10.0
290
     0
  0
SCALE
  5
15D
102
{ACAD_REACTORS
330
156
102
}
330
156
100
AcDbScale
 70
     0
300
1:16
140
1.0
141
16.0
290
     0
  0
SCALE
  5
15E
102
{ACAD_REACTORS
330
156
102
}
330
156
100
AcDbScale
 70
     0
300
1:20
140
1.0
141
20.0
290
     0
  0
SCALE
  5
15F
102
{ACAD_REACTORS
330
156
102
}
330
156
100
AcDbScale
 70
     0
300
1:30
140
1.0
141
30.0
290
     0
  0
SCALE
  5
160
102
{ACAD_REACTORS
330
156
102
}
330
156
100
AcDbScale
 70
     0
300
1:40
140
1.0
141
40.0
290
     0
  0
SCALE
  5
161
102
{ACAD_REACTORS
330
156
102
}
330
156
100
AcDbScale
 70
     0
300
1:50
140
1.0
141
50.0
290
     0
  0
SCALE
  5
162
102
{ACAD_REACTORS
330
156
102
}
330
156
100
AcDbScale
 70
     0
300
1:100
140
1.0
141
100.0
290
     0
  0
SCALE
  5
163
102
{ACAD_REACTORS
330
156
102
}
330
156
100
AcDbScale
 70
     0
300
2:1
140
2.0
141
1.0
290
     0
  0
SCALE
  5
164
102
{ACAD_REACTORS
330
156
102
}
330
156
100
AcDbScale
 70
     0
300
4:1
140
4.0
141
1.0
290
     0
  0
SCALE
  5
165
102
{ACAD_REACTORS
330
156
102
}
330
156
100
AcDbScale
 70
     0
300
8:1
140
8.0
141
1.0
290
     0
  0
SCALE
  5
166
102
{ACAD_REACTORS
330
156
102
}
330
156
100
AcDbScale
 70
     0
300
10:1
140
10.0
141
1.0
290
     0
  0
SCALE
  5
167
102
{ACAD_REACTORS
330
156
102
}
330
156
100
AcDbScale
 70
     0
300
100:1
140
100.0
141
1.0
290
     0
  0
TABLESTYLE
  5
87
102
{ACAD_XDICTIONARY
360
100B
102
}
102
{ACAD_REACTORS
330
86
102
}
330
86
100
AcDbTableStyle
  3
Standard
 70
     0
 71
     0
 40
0.06
 41
0.06
280
     0
281
     0
  7
Standard
140
0.18
170
     2
 62
     0
 63
     7
283
     0
274
    -2
284
     1
 64
     0
275
    -2
285
     1
 65
     0
276
    -2
286
     1
 66
     0
277
    -2
287
     1
 67
     0
278
    -2
288
     1
 68
     0
279
    -2
289
     1
 69
     0
  7
Standard
140
0.25
170
     5
 62
     0
 63
     7
283
     0
274
    -2
284
     1
 64
     0
275
    -2
285
     1
 65
     0
276
    -2
286
     1
 66
     0
277
    -2
287
     1
 67
     0
278
    -2
288
     1
 68
     0
279
    -2
289
     1
 69
     0
  7
Standard
140
0.18
170
     5
 62
     0
 63
     7
283
     0
274
    -2
284
     1
 64
     0
275
    -2
285
     1
 65
     0
276
    -2
286
     1
 66
     0
277
    -2
287
     1
 67
     0
278
    -2
288
     1
 68
     0
279
    -2
289
     1
 69
     0
  0
VISUALSTYLE
  5
9F
102
{ACAD_XDICTIONARY
360
1351
102
}
102
{ACAD_REACTORS
330
99
102
}
330
99
100
AcDbVisualStyle
  2

 70
     4
 71
     0
 72
     2
 73
     1
 90
        0
 40
-0.6
 41
-30.0
 62
     5
 63
     7
 74
     1
 91
        4
 64
     7
 65
   257
 75
     1
175
     1
 42
1.0
 92
        0
 66
   257
 43
1.0
 76
     1
 77
     6
 78
     2
 67
     7
 79
     5
170
     0
171
     0
290
     0
174
     0
 93
        1
 44
0.0
173
     0
291
     0
 45
0.0
1001
ACAD
1000
AcDbSavedByObjectVersion
1070
     0
  0
VISUALSTYLE
  5
A1
102
{ACAD_XDICTIONARY
360
1355
102
}
102
{ACAD_REACTORS
330
99
102
}
330
99
100
AcDbVisualStyle
  2

 70
     6
 71
     1
 72
     2
 73
     2
 90
        0
 40
-0.6
 41
-30.0
 62
     5
 63
     7
 74
     2
 91
        2
 64
     7
 65
   257
 75
     2
175
     1
 42
40.0
 92
        0
 66
   257
 43
1.0
 76
     1
 77
     6
 78
     2
 67
     7
 79
     3
170
     0
171
     0
290
     0
174
     0
 93
        1
 44
0.0
173
     0
291
     0
 45
0.0
1001
ACAD
1000
AcDbSavedByObjectVersion
1070
     0
  0
VISUALSTYLE
  5
A0
102
{ACAD_XDICTIONARY
360
1353
102
}
102
{ACAD_REACTORS
330
99
102
}
330
99
100
AcDbVisualStyle
  2

 70
     5
 71
     0
 72
     2
 73
     1
 90
        0
 40
-0.6
 41
-30.0
 62
     5
 63
     7
 74
     1
 91
        4
 64
     7
 65
   257
 75
     1
175
     1
 42
1.0
 92
        0
 66
   257
 43
1.0
 76
     1
 77
     6
 78
     2
 67
     7
 79
     5
170
     0
171
     0
290
     0
174
     0
 93
        1
 44
0.0
173
     0
291
     0
 45
0.0
1001
ACAD
1000
AcDbSavedByObjectVersion
1070
     0
  0
VISUALSTYLE
  5
9E
102
{ACAD_XDICTIONARY
360
134F
102
}
102
{ACAD_REACTORS
330
99
102
}
330
99
100
AcDbVisualStyle
  2

 70
     7
 71
     1
 72
     0
 73
     1
 90
        0
 40
-0.6
 41
-30.0
 62
     5
 63
     7
 74
     0
 91
        4
 64
     7
 65
   257
 75
     1
175
     1
 42
1.0
 92
        8
 66
     7
 43
1.0
 76
     1
 77
     6
 78
     2
 67
     7
 79
     5
170
     0
171
     0
290
     0
174
     0
 93
        1
 44
0.0
173
     0
291
     1
 45
0.0
1001
ACAD
1000
AcDbSavedByObjectVersion
1070
     0
  0
VISUALSTYLE
  5
A5
102
{ACAD_XDICTIONARY
360
135D
102
}
102
{ACAD_REACTORS
330
99
102
}
330
99
100
AcDbVisualStyle
  2

 70
    12
 71
     2
 72
     2
 73
     1
 90
        0
 40
-0.6
 41
-30.0
 62
     5
 63
     7
 74
     1
 91
        4
 64
     7
 65
   257
 75
     1
175
     1
 42
1.0
 92
        8
 66
     7
 43
1.0
 76
     1
 77
     6
 78
     2
 67
     7
 79
     5
170
     0
171
     0
290
     0
174
     0
 93
        1
 44
50.0
173
     0
291
     1
 45
0.0
1001
ACAD
1000
AcDbSavedByObjectVersion
1070
     0
  0
VISUALSTYLE
  5
A9
102
{ACAD_XDICTIONARY
360
1365
102
}
102
{ACAD_REACTORS
330
99
102
}
330
99
100
AcDbVisualStyle
  2

 70
    16
 71
     2
 72
     2
 73
     3
 90
        0
 40
-0.6
 41
-30.0
 62
     5
 63
     8
 74
     1
 91
        4
 64
     7
 65
   257
 75
     1
175
     1
 42
1.0
 92
        8
 66
     8
 43
1.0
 76
     1
 77
     6
 78
     2
 67
     7
 79
     5
170
     0
171
     0
290
     0
174
     0
 93
        1
 44
0.0
173
     0
291
     1
 45
0.0
1001
ACAD
1000
AcDbSavedByObjectVersion
1070
     0
  0
VISUALSTYLE
  5
A2
102
{ACAD_XDICTIONARY
360
1357
102
}
102
{ACAD_REACTORS
330
99
102
}
330
99
100
AcDbVisualStyle
  2

 70
     9
 71
     3
 72
     2
 73
     1
 90
        0
 40
-0.6
 41
-30.0
 62
     5
 63
     7
 74
     2
 91
        2
 64
     7
 65
   257
 75
     1
175
     1
 42
40.0
 92
        8
 66
     7
 43
1.0
 76
     1
 77
     6
 78
     2
 67
     7
 79
     3
170
     0
171
     0
290
     0
174
     0
 93
        1
 44
0.0
173
     0
291
     0
 45
0.0
1001
ACAD
1000
AcDbSavedByObjectVersion
1070
     0
  0
VISUALSTYLE
  5
A4
102
{ACAD_XDICTIONARY
360
135B
102
}
102
{ACAD_REACTORS
330
99
102
}
330
99
100
AcDbVisualStyle
  2

 70
    11
 71
     2
 72
     2
 73
     1
 90
        0
 40
-0.6
 41
-30.0
 62
     5
 63
     7
 74
     1
 91
        4
 64
     7
 65
   257
 75
     1
175
     1
 42
1.0
 92
        8
 66
     7
 43
1.0
 76
     1
 77
     6
 78
     2
 67
     7
 79
     5
170
     0
171
     0
290
     0
174
     0
 93
        1
 44
-50.0
173
     0
291
     1
 45
0.0
1001
ACAD
1000
AcDbSavedByObjectVersion
1070
     0
  0
VISUALSTYLE
  5
155
102
{ACAD_XDICTIONARY
360
1379
102
}
102
{ACAD_REACTORS
330
99
102
}
330
99
100
AcDbVisualStyle
  2

 70
    22
 71
     2
 72
     2
 73
     0
 90
        0
 40
-0.6
 41
-30.0
 62
     5
 63
     7
 74
     1
 91
        4
 64
     7
 65
   257
 75
     1
175
     1
 42
1.0
 92
        8
 66
     7
 43
1.0
 76
     1
 77
     6
 78
     2
 67
     7
 79
     5
170
     0
171
     0
290
     0
174
     0
 93
        1
 44
0.0
173
     0
291
     1
 45
0.0
1001
ACAD
1000
AcDbSavedByObjectVersion
1070
     0
  0
VISUALSTYLE
  5
A8
102
{ACAD_XDICTIONARY
360
1363
102
}
102
{ACAD_REACTORS
330
99
102
}
330
99
100
AcDbVisualStyle
  2

 70
    15
 71
     2
 72
     2
 73
     1
 90
        0
 40
-0.6
 41
-30.0
 62
     5
 63
     7
 74
     1
 91
        4
 64
     7
 65
   257
 75
     1
175
     1
 42
1.0
 92
        8
 66
     7
 43
1.0
 76
     1
 77
     6
 78
     2
 67
     7
 79
     5
170
     0
171
     0
290
     0
174
     0
 93
        1
 44
0.0
173
     0
291
     1
 45
0.0
1001
ACAD
1000
AcDbSavedByObjectVersion
1070
     0
  0
VISUALSTYLE
  5
9A
102
{ACAD_XDICTIONARY
360
1347
102
}
102
{ACAD_REACTORS
330
99
102
}
330
99
100
AcDbVisualStyle
  2

 70
     0
 71
     2
 72
     1
 73
     1
 90
        2
 40
-0.6
 41
30.0
 62
     5
 63
     7
 74
     0
 91
        4
 64
     7
 65
   257
 75
     1
175
     1
 42
1.0
 92
        8
 66
     7
 43
1.0
 76
     1
 77
     6
 78
     2
 67
     7
 79
     5
170
     0
171
     0
290
     0
174
     0
 93
        1
 44
0.0
173
     0
291
     1
 45
0.0
1001
ACAD
1000
AcDbSavedByObjectVersion
1070
     0
  0
VISUALSTYLE
  5
9B
102
{ACAD_XDICTIONARY
360
1349
102
}
102
{ACAD_REACTORS
330
99
102
}
330
99
100
AcDbVisualStyle
  2

 70
     1
 71
     2
 72
     1
 73
     1
 90
        2
 40
-0.6
 41
30.0
 62
     5
 63
     7
 74
     1
 91
        4
 64
     7
 65
   257
 75
     1
175
     1
 42
1.0
 92
        0
 66
   257
 43
1.0
 76
     1
 77
     6
 78
     2
 67
     7
 79
     5
170
     0
171
     0
290
     0
174
     0
 93
        1
 44
0.0
173
     0
291
     1
 45
0.0
1001
ACAD
1000
AcDbSavedByObjectVersion
1070
     0
  0
VISUALSTYLE
  5
9C
102
{ACAD_XDICTIONARY
360
134B
102
}
102
{ACAD_REACTORS
330
99
102
}
330
99
100
AcDbVisualStyle
  2

 70
     2
 71
     2
 72
     2
 73
     1
 90
        2
 40
-0.6
 41
30.0
 62
     5
 63
     7
 74
     0
 91
        4
 64
     7
 65
   257
 75
     1
175
     1
 42
1.0
 92
        0
 66
     7
 43
1.0
 76
     1
 77
     6
 78
     2
 67
     7
 79
     5
170
     0
171
     0
290
     0
174
     0
 93
        1
 44
0.0
173
     0
291
     1
 45
0.0
1001
ACAD
1000
AcDbSavedByObjectVersion
1070
     0
  0
VISUALSTYLE
  5
9D
102
{ACAD_XDICTIONARY
360
134D
102
}
102
{ACAD_REACTORS
330
99
102
}
330
99
100
AcDbVisualStyle
  2

 70
     3
 71
     2
 72
     2
 73
     1
 90
        2
 40
-0.6
 41
30.0
 62
     5
 63
     7
 74
     1
 91
        4
 64
     7
 65
   257
 75
     1
175
     1
 42
1.0
 92
        0
 66
   257
 43
1.0
 76
     1
 77
     6
 78
     2
 67
     7
 79
     5
170
     0
171
     0
290
     0
174
     0
 93
        1
 44
0.0
173
     0
291
     1
 45
0.0
1001
ACAD
1000
AcDbSavedByObjectVersion
1070
     0
  0
VISUALSTYLE
  5
14D
102
{ACAD_XDICTIONARY
360
1369
102
}
102
{ACAD_REACTORS
330
99
102
}
330
99
100
AcDbVisualStyle
  2

 70
     6
 71
     1
 72
     2
 73
     2
 90
        0
 40
-0.6
 41
-30.0
 62
     5
 63
     7
 74
     2
 91
        2
 64
     7
 65
   257
 75
     2
175
     1
 42
40.0
 92
        0
 66
   257
 43
1.0
 76
     1
 77
     6
 78
     2
 67
     7
 79
     3
170
     0
171
     0
290
     0
174
     0
 93
        1
 44
0.0
173
     0
291
     0
 45
0.0
1001
ACAD
1000
AcDbSavedByObjectVersion
1070
     0
  0
VISUALSTYLE
  5
153
102
{ACAD_XDICTIONARY
360
1375
102
}
102
{ACAD_REACTORS
330
99
102
}
330
99
100
AcDbVisualStyle
  2

 70
    20
 71
     2
 72
     2
 73
     0
 90
        0
 40
-0.6
 41
-30.0
 62
     5
 63
     7
 74
     1
 91
        4
 64
     7
 65
   257
 75
     1
175
     1
 42
1.0
 92
       10
 66
     7
 43
1.0
 76
     1
 77
     6
 78
     2
 67
     7
 79
     5
170
     0
171
     0
290
     0
174
     0
 93
        1
 44
0.0
173
     0
291
     1
 45
0.0
1001
ACAD
1000
AcDbSavedByObjectVersion
1070
     0
  0
VISUALSTYLE
  5
A7
102
{ACAD_XDICTIONARY
360
1361
102
}
102
{ACAD_REACTORS
330
99
102
}
330
99
100
AcDbVisualStyle
  2

 70
    14
 71
     2
 72
     2
 73
     1
 90
        0
 40
-0.6
 41
-30.0
 62
     5
 63
     7
 74
     1
 91
        4
 64
     7
 65
   257
 75
     7
175
     7
 42
1.0
 92
        8
 66
     7
 43
1.0
 76
     1
 77
     6
 78
     2
 67
     7
 79
     5
170
     0
171
     0
290
     0
174
     0
 93
        1
 44
0.0
173
     0
291
     1
 45
0.0
1001
ACAD
1000
AcDbSavedByObjectVersion
1070
     0
  0
VISUALSTYLE
  5
154
102
{ACAD_XDICTIONARY
360
1377
102
}
102
{ACAD_REACTORS
330
99
102
}
330
99
100
AcDbVisualStyle
  2

 70
    21
 71
     2
 72
     2
 73
     0
 90
        0
 40
-0.6
 41
-30.0
 62
     5
 63
     7
 74
     1
 91
        4
 64
     7
 65
   257
 75
     1
175
     1
 42
1.0
 92
        9
 66
     7
 43
1.0
 76
     1
 77
     6
 78
     2
 67
     7
 79
     5
170
     0
171
     0
290
     0
174
     0
 93
        1
 44
0.0
173
     0
291
     1
 45
0.0
1001
ACAD
1000
AcDbSavedByObjectVersion
1070
     0
  0
VISUALSTYLE
  5
A3
102
{ACAD_XDICTIONARY
360
1359
102
}
102
{ACAD_REACTORS
330
99
102
}
330
99
100
AcDbVisualStyle
  2

 70
     8
 71
     2
 72
     2
 73
     1
 90
        0
 40
-0.6
 41
-30.0
 62
     5
 63
     7
 74
     1
 91
        0
 64
     7
 65
   257
 75
     1
175
     1
 42
1.0
 92
        8
 66
     8
 43
1.0
 76
     1
 77
     6
 78
     2
 67
     7
 79
     5
170
     0
171
     0
290
     0
174
     0
 93
       13
 44
0.0
173
     0
291
     0
 45
0.0
1001
ACAD
1000
AcDbSavedByObjectVersion
1070
     0
  0
VISUALSTYLE
  5
152
102
{ACAD_XDICTIONARY
360
1373
102
}
102
{ACAD_REACTORS
330
99
102
}
330
99
100
AcDbVisualStyle
  2

 70
    27
 71
     2
 72
     2
 73
     1
 90
        2
 40
-0.6
 41
30.0
 62
     5
 63
     7
 74
     0
 91
        4
 64
     7
 65
   257
 75
     1
175
     1
 42
1.0
 92
        8
 66
   257
 43
1.0
 76
     1
 77
     6
 78
     2
 67
     8
 79
     3
170
     0
171
     0
290
     0
174
     0
 93
        5
 44
0.0
173
     0
291
     0
 45
0.0
1001
ACAD
1000
AcDbSavedByObjectVersion
1070
     0
  0
VISUALSTYLE
  5
151
102
{ACAD_XDICTIONARY
360
1371
102
}
102
{ACAD_REACTORS
330
99
102
}
330
99
100
AcDbVisualStyle
  2

 70
    26
 71
     2
 72
     2
 73
     1
 90
        2
 40
-0.6
 41
30.0
 62
     5
 63
     7
 74
     1
 91
       10
 64
     7
 65
   257
 75
     2
175
     1
 42
1.0
 92
        8
 66
   257
 43
1.0
 76
     1
 77
     6
 78
     2
 67
     7
 79
     3
170
     0
171
     0
290
     0
174
     0
 93
        5
 44
0.0
173
     0
291
     0
 45
0.0
1001
ACAD
1000
AcDbSavedByObjectVersion
1070
     0
  0
VISUALSTYLE
  5
14E
102
{ACAD_XDICTIONARY
360
136B
102
}
102
{ACAD_REACTORS
330
99
102
}
330
99
100
AcDbVisualStyle
  2

 70
    23
 71
     2
 72
     2
 73
     3
 90
        0
 40
-0.6
 41
-30.0
 62
     5
 63
     7
 74
     2
 91
        2
 64
     7
 65
     7
 75
     1
175
     1
 42
40.0
 92
        8
 66
     7
 43
1.0
 76
     1
 77
     6
 78
     2
 67
     7
 79
     3
170
     0
171
     0
290
     0
174
     0
 93
        1
 44
0.0
173
     0
291
     0
 45
0.0
1001
ACAD
1000
AcDbSavedByObjectVersion
1070
     0
  0
VISUALSTYLE
  5
14F
102
{ACAD_XDICTIONARY
360
136D
102
}
102
{ACAD_REACTORS
330
99
102
}
330
99
100
AcDbVisualStyle
  2

 70
    24
 71
     1
 72
     2
 73
     2
 90
        0
 40
-0.6
 41
-30.0
 62
     5
 63
     7
 74
     2
 91
        2
 64
     7
 65
     7
 75
     1
175
     1
 42
40.0
 92
       11
 66
     7
 43
1.0
 76
     1
 77
     6
 78
     2
 67
     7
 79
     6
170
     0
171
     0
290
     0
174
     0
 93
        1
 44
0.0
173
     0
291
     0
 45
0.0
1001
ACAD
1000
AcDbSavedByObjectVersion
1070
     0
  0
VISUALSTYLE
  5
A6
102
{ACAD_XDICTIONARY
360
135F
102
}
102
{ACAD_REACTORS
330
99
102
}
330
99
100
AcDbVisualStyle
  2

 70
    13
 71
     2
 72
     2
 73
     1
 90
        0
 40
-0.6
 41
-30.0
 62
     5
 63
     7
 74
     1
 91
        4
 64
     7
 65
   257
 75
     1
175
     1
 42
1.0
 92
       12
 66
     7
 43
1.0
 76
     1
 77
     6
 78
     2
 67
     7
 79
     5
170
     0
171
     0
290
     0
174
     0
 93
        1
 44
0.0
173
     0
291
     1
 45
0.0
1001
ACAD
1000
AcDbSavedByObjectVersion
1070
     0
  0
VISUALSTYLE
  5
14C
102
{ACAD_XDICTIONARY
360
1367
102
}
102
{ACAD_REACTORS
330
99
102
}
330
99
100
AcDbVisualStyle
  2

 70
     5
 71
     0
 72
     2
 73
     0
 90
        0
 40
-0.6
 41
-30.0
 62
     5
 63
     7
 74
     1
 91
        4
 64
     7
 65
   257
 75
     1
175
     1
 42
1.0
 92
        0
 66
   257
 43
1.0
 76
     1
 77
     6
 78
     2
 67
     7
 79
     3
170
     0
171
     0
290
     0
174
     0
 93
        1
 44
0.0
173
     0
291
     0
 45
0.0
1001
ACAD
1000
AcDbSavedByObjectVersion
1070
     0
  0
VISUALSTYLE
  5
150
102
{ACAD_XDICTIONARY
360
136F
102
}
102
{ACAD_REACTORS
330
99
102
}
330
99
100
AcDbVisualStyle
  2

 70
    25
 71
     2
 72
     2
 73
     1
 90
        1
 40
0.5
 41
-30.0
 62
     5
 63
     7
 74
     1
 91
        0
 64
     7
 65
   257
 75
     1
175
     1
 42
1.0
 92
        8
 66
     7
 43
1.0
 76
     1
 77
     6
 78
     2
 67
     7
 79
     3
170
     0
171
     0
290
     0
174
     0
 93
       13
 44
0.0
173
     0
291
     0
 45
0.0
1001
ACAD
1000
AcDbSavedByObjectVersion
1070
     0
  0
DICTIONARYVAR
  5
24A
102
{ACAD_REACTORS
330
66
102
}
330
66
100
DictionaryVariables
280
     0
  1
1:1
  0
DICTIONARYVAR
  5
248
102
{ACAD_REACTORS
330
66
102
}
330
66
100
DictionaryVariables
280
     0
  1
STANDARD
  0
DICTIONARYVAR
  5
89
102
{ACAD_REACTORS
330
66
102
}
330
66
100
DictionaryVariables
280
     0
  1
STANDARD
  0
DICTIONARYVAR
  5
67
102
{ACAD_REACTORS
330
66
102
}
330
66
100
DictionaryVariables
280
     0
  1
2
  0
DICTIONARYVAR
  5
6B
102
{ACAD_REACTORS
330
66
102
}
330
66
100
DictionaryVariables
280
     0
  1
1
  0
DICTIONARYVAR
  5
1009
102
{ACAD_REACTORS
330
66
102
}
330
66
100
DictionaryVariables
280
     0
  1
0
  0
DICTIONARYVAR
  5
24C
102
{ACAD_REACTORS
330
66
102
}
330
66
100
DictionaryVariables
280
     0
  1
1
  0
DICTIONARYVAR
  5
24D
102
{ACAD_REACTORS
330
66
102
}
330
66
100
DictionaryVariables
280
     0
  1
15
  0
DICTIONARYVAR
  5
24B
102
{ACAD_REACTORS
330
66
102
}
330
66
100
DictionaryVariables
280
     0
  1
0
  0
DICTIONARYVAR
  5
249
102
{ACAD_REACTORS
330
66
102
}
330
66
100
DictionaryVariables
280
     0
  1
0
  0
DICTIONARYVAR
  5
1008
102
{ACAD_REACTORS
330
66
102
}
330
66
100
DictionaryVariables
280
     0
  1
127
  0
DICTIONARYVAR
  5
1213
102
{ACAD_REACTORS
330
66
102
}
330
66
100
DictionaryVariables
280
     0
  1
2
  0
DICTIONARY
  5
1340
330
22
100
AcDbDictionary
280
     1
281
     1
  3
ACAD_XREC_ROUNDTRIP
360
1341
  0
DICTIONARY
  5
1342
330
59
100
AcDbDictionary
280
     1
281
     1
  3
ACAD_XREC_ROUNDTRIP
360
1343
  0
DICTIONARY
  5
1344
330
5E
100
AcDbDictionary
280
     1
281
     1
  3
ACAD_XREC_ROUNDTRIP
360
1345
  0
DICTIONARY
  5
101C
330
97
100
AcDbDictionary
280
     1
281
     1
  3
ACAD_XREC_ROUNDTRIP
360
101D
  0
DICTIONARY
  5
101A
330
96
100
AcDbDictionary
280
     1
281
     1
  3
ACAD_XREC_ROUNDTRIP
360
101B
  0
DICTIONARY
  5
101E
330
98
100
AcDbDictionary
280
     1
281
     1
  3
ACAD_XREC_ROUNDTRIP
360
101F
  0
DICTIONARY
  5
100B
330
87
100
AcDbDictionary
280
     1
281
     1
  3
ACAD_ROUNDTRIP_2008_TABLESTYLE_CELLSTYLEMAP
360
1339
  3
ACAD_XREC_ROUNDTRIP
360
1346
  0
DICTIONARY
  5
1351
330
9F
100
AcDbDictionary
280
     1
281
     1
  3
ACAD_XREC_ROUNDTRIP
360
1352
  0
DICTIONARY
  5
1355
330
A1
100
AcDbDictionary
280
     1
281
     1
  3
ACAD_XREC_ROUNDTRIP
360
1356
  0
DICTIONARY
  5
1353
330
A0
100
AcDbDictionary
280
     1
281
     1
  3
ACAD_XREC_ROUNDTRIP
360
1354
  0
DICTIONARY
  5
134F
330
9E
100
AcDbDictionary
280
     1
281
     1
  3
ACAD_XREC_ROUNDTRIP
360
1350
  0
DICTIONARY
  5
135D
330
A5
100
AcDbDictionary
280
     1
281
     1
  3
ACAD_XREC_ROUNDTRIP
360
135E
  0
DICTIONARY
  5
1365
330
A9
100
AcDbDictionary
280
     1
281
     1
  3
ACAD_XREC_ROUNDTRIP
360
1366
  0
DICTIONARY
  5
1357
330
A2
100
AcDbDictionary
280
     1
281
     1
  3
ACAD_XREC_ROUNDTRIP
360
1358
  0
DICTIONARY
  5
135B
330
A4
100
AcDbDictionary
280
     1
281
     1
  3
ACAD_XREC_ROUNDTRIP
360
135C
  0
DICTIONARY
  5
1379
330
155
100
AcDbDictionary
280
     1
281
     1
  3
ACAD_XREC_ROUNDTRIP
360
137A
  0
DICTIONARY
  5
1363
330
A8
100
AcDbDictionary
280
     1
281
     1
  3
ACAD_XREC_ROUNDTRIP
360
1364
  0
DICTIONARY
  5
1347
330
9A
100
AcDbDictionary
280
     1
281
     1
  3
ACAD_XREC_ROUNDTRIP
360
1348
  0
DICTIONARY
  5
1349
330
9B
100
AcDbDictionary
280
     1
281
     1
  3
ACAD_XREC_ROUNDTRIP
360
134A
  0
DICTIONARY
  5
134B
330
9C
100
AcDbDictionary
280
     1
281
     1
  3
ACAD_XREC_ROUNDTRIP
360
134C
  0
DICTIONARY
  5
134D
330
9D
100
AcDbDictionary
280
     1
281
     1
  3
ACAD_XREC_ROUNDTRIP
360
134E
  0
DICTIONARY
  5
1369
330
14D
100
AcDbDictionary
280
     1
281
     1
  3
ACAD_XREC_ROUNDTRIP
360
136A
  0
DICTIONARY
  5
1375
330
153
100
AcDbDictionary
280
     1
281
     1
  3
ACAD_XREC_ROUNDTRIP
360
1376
  0
DICTIONARY
  5
1361
330
A7
100
AcDbDictionary
280
     1
281
     1
  3
ACAD_XREC_ROUNDTRIP
360
1362
  0
DICTIONARY
  5
1377
330
154
100
AcDbDictionary
280
     1
281
     1
  3
ACAD_XREC_ROUNDTRIP
360
1378
  0
DICTIONARY
  5
1359
330
A3
100
AcDbDictionary
280
     1
281
     1
  3
ACAD_XREC_ROUNDTRIP
360
135A
  0
DICTIONARY
  5
1373
330
152
100
AcDbDictionary
280
     1
281
     1
  3
ACAD_XREC_ROUNDTRIP
360
1374
  0
DICTIONARY
  5
1371
330
151
100
AcDbDictionary
280
     1
281
     1
  3
ACAD_XREC_ROUNDTRIP
360
1372
  0
DICTIONARY
  5
136B
330
14E
100
AcDbDictionary
280
     1
281
     1
  3
ACAD_XREC_ROUNDTRIP
360
136C
  0
DICTIONARY
  5
136D
330
14F
100
AcDbDictionary
280
     1
281
     1
  3
ACAD_XREC_ROUNDTRIP
360
136E
  0
DICTIONARY
  5
135F
330
A6
100
AcDbDictionary
280
     1
281
     1
  3
ACAD_XREC_ROUNDTRIP
360
1360
  0
DICTIONARY
  5
1367
330
14C
100
AcDbDictionary
280
     1
281
     1
  3
ACAD_XREC_ROUNDTRIP
360
1368
  0
DICTIONARY
  5
136F
330
150
100
AcDbDictionary
280
     1
281
     1
  3
ACAD_XREC_ROUNDTRIP
360
1370
  0
XRECORD
  5
1341
102
{ACAD_REACTORS
330
1340
102
}
330
1340
100
AcDbXrecord
280
     1
102
SHADEPLOT
 70
     0
102
SHADEPLOTRESLEVEL
 70
     2
102
SHADEPLOTCUSTOMDPI
 70
   300
  0
XRECORD
  5
1343
102
{ACAD_REACTORS
330
1342
102
}
330
1342
100
AcDbXrecord
280
     1
102
SHADEPLOT
 70
     0
102
SHADEPLOTRESLEVEL
 70
     2
102
SHADEPLOTCUSTOMDPI
 70
   300
  0
XRECORD
  5
1345
102
{ACAD_REACTORS
330
1344
102
}
330
1344
100
AcDbXrecord
280
     1
102
SHADEPLOT
 70
     0
102
SHADEPLOTRESLEVEL
 70
     2
102
SHADEPLOTCUSTOMDPI
 70
   300
  0
XRECORD
  5
101D
102
{ACAD_REACTORS
330
101C
102
}
330
101C
100
AcDbXrecord
280
     1
102
MATERIAL
148
0.0
149
0.0
149
0.0
 93
        0
 94
      127
282
     0
 72
     1
 77
     1
171
     1
175
     1
179
     1
273
     0
  0
XRECORD
  5
101B
102
{ACAD_REACTORS
330
101A
102
}
330
101A
100
AcDbXrecord
280
     1
102
MATERIAL
148
0.0
149
0.0
149
0.0
 93
        0
 94
      127
282
     0
 72
     1
 77
     1
171
     1
175
     1
179
     1
273
     0
  0
XRECORD
  5
101F
102
{ACAD_REACTORS
330
101E
102
}
330
101E
100
AcDbXrecord
280
     1
102
MATERIAL
148
0.0
149
0.0
149
0.0
 93
        0
 94
      127
282
     0
 72
     1
 77
     1
171
     1
175
     1
179
     1
273
     0
  0
CELLSTYLEMAP
  5
1339
102
{ACAD_REACTORS
330
100B
102
}
330
100B
100
AcDbCellStyleMap
 90
        3
300
CELLSTYLE
  1
TABLEFORMAT_BEGIN
 90
        5
170
     1
 91
        0
 92
    32768
 62
   257
 93
        1
300
CONTENTFORMAT
  1
CONTENTFORMAT_BEGIN
 90
        0
 91
        0
 92
      512
 93
        0
300

 40
0.0
140
1.0
 94
        5
 62
     0
340
11
144
0.25
309
CONTENTFORMAT_END
171
     1
301
MARGIN
  1
CELLMARGIN_BEGIN
 40
0.06
 40
0.06
 40
0.06
 40
0.06
 40
0.18
 40
0.18
309
CELLMARGIN_END
 94
        6
 95
        1
302
GRIDFORMAT
  1
GRIDFORMAT_BEGIN
 90
        0
 91
        1
 62
     0
 92
       -2
340
0
 93
        0
 40
0.045
309
GRIDFORMAT_END
 95
        2
302
GRIDFORMAT
  1
GRIDFORMAT_BEGIN
 90
        0
 91
        1
 62
     0
 92
       -2
340
0
 93
        0
 40
0.045
309
GRIDFORMAT_END
 95
        4
302
GRIDFORMAT
  1
GRIDFORMAT_BEGIN
 90
        0
 91
        1
 62
     0
 92
       -2
340
0
 93
        0
 40
0.045
309
GRIDFORMAT_END
 95
        8
302
GRIDFORMAT
  1
GRIDFORMAT_BEGIN
 90
        0
 91
        1
 62
     0
 92
       -2
340
0
 93
        0
 40
0.045
309
GRIDFORMAT_END
 95
       16
302
GRIDFORMAT
  1
GRIDFORMAT_BEGIN
 90
        0
 91
        1
 62
     0
 92
       -2
340
0
 93
        0
 40
0.045
309
GRIDFORMAT_END
 95
       32
302
GRIDFORMAT
  1
GRIDFORMAT_BEGIN
 90
        0
 91
        1
 62
     0
 92
       -2
340
0
 93
        0
 40
0.045
309
GRIDFORMAT_END
309
TABLEFORMAT_END
  1
CELLSTYLE_BEGIN
 90
        1
 91
        1
300
_TITLE
309
CELLSTYLE_END
300
CELLSTYLE
  1
TABLEFORMAT_BEGIN
 90
        5
170
     1
 91
        0
 92
        0
 62
   257
 93
        1
300
CONTENTFORMAT
  1
CONTENTFORMAT_BEGIN
 90
        0
 91
        0
 92
      512
 93
        0
300

 40
0.0
140
1.0
 94
        5
 62
     0
340
11
144
0.18
309
CONTENTFORMAT_END
171
     1
301
MARGIN
  1
CELLMARGIN_BEGIN
 40
0.06
 40
0.06
 40
0.06
 40
0.06
 40
0.18
 40
0.18
309
CELLMARGIN_END
 94
        6
 95
        1
302
GRIDFORMAT
  1
GRIDFORMAT_BEGIN
 90
        0
 91
        1
 62
     0
 92
       -2
340
0
 93
        0
 40
0.045
309
GRIDFORMAT_END
 95
        2
302
GRIDFORMAT
  1
GRIDFORMAT_BEGIN
 90
        0
 91
        1
 62
     0
 92
       -2
340
0
 93
        0
 40
0.045
309
GRIDFORMAT_END
 95
        4
302
GRIDFORMAT
  1
GRIDFORMAT_BEGIN
 90
        0
 91
        1
 62
     0
 92
       -2
340
0
 93
        0
 40
0.045
309
GRIDFORMAT_END
 95
        8
302
GRIDFORMAT
  1
GRIDFORMAT_BEGIN
 90
        0
 91
        1
 62
     0
 92
       -2
340
0
 93
        0
 40
0.045
309
GRIDFORMAT_END
 95
       16
302
GRIDFORMAT
  1
GRIDFORMAT_BEGIN
 90
        0
 91
        1
 62
     0
 92
       -2
340
0
 93
        0
 40
0.045
309
GRIDFORMAT_END
 95
       32
302
GRIDFORMAT
  1
GRIDFORMAT_BEGIN
 90
        0
 91
        1
 62
     0
 92
       -2
340
0
 93
        0
 40
0.045
309
GRIDFORMAT_END
309
TABLEFORMAT_END
  1
CELLSTYLE_BEGIN
 90
        2
 91
        1
300
_HEADER
309
CELLSTYLE_END
300
CELLSTYLE
  1
TABLEFORMAT_BEGIN
 90
        5
170
     1
 91
        0
 92
        0
 62
   257
 93
        1
300
CONTENTFORMAT
  1
CONTENTFORMAT_BEGIN
 90
        0
 91
        0
 92
      512
 93
        0
300

 40
0.0
140
1.0
 94
        2
 62
     0
340
11
144
0.18
309
CONTENTFORMAT_END
171
     1
301
MARGIN
  1
CELLMARGIN_BEGIN
 40
0.06
 40
0.06
 40
0.06
 40
0.06
 40
0.18
 40
0.18
309
CELLMARGIN_END
 94
        6
 95
        1
302
GRIDFORMAT
  1
GRIDFORMAT_BEGIN
 90
        0
 91
        1
 62
     0
 92
       -2
340
0
 93
        0
 40
0.045
309
GRIDFORMAT_END
 95
        2
302
GRIDFORMAT
  1
GRIDFORMAT_BEGIN
 90
        0
 91
        1
 62
     0
 92
       -2
340
0
 93
        0
 40
0.045
309
GRIDFORMAT_END
 95
        4
302
GRIDFORMAT
  1
GRIDFORMAT_BEGIN
 90
        0
 91
        1
 62
     0
 92
       -2
340
0
 93
        0
 40
0.045
309
GRIDFORMAT_END
 95
        8
302
GRIDFORMAT
  1
GRIDFORMAT_BEGIN
 90
        0
 91
        1
 62
     0
 92
       -2
340
0
 93
        0
 40
0.045
309
GRIDFORMAT_END
 95
       16
302
GRIDFORMAT
  1
GRIDFORMAT_BEGIN
 90
        0
 91
        1
 62
     0
 92
       -2
340
0
 93
        0
 40
0.045
309
GRIDFORMAT_END
 95
       32
302
GRIDFORMAT
  1
GRIDFORMAT_BEGIN
 90
        0
 91
        1
 62
     0
 92
       -2
340
0
 93
        0
 40
0.045
309
GRIDFORMAT_END
309
TABLEFORMAT_END
  1
CELLSTYLE_BEGIN
 90
        3
 91
        2
300
_DATA
309
CELLSTYLE_END
  0
XRECORD
  5
1346
102
{ACAD_REACTORS
330
100B
102
}
330
100B
100
AcDbXrecord
280
     1
102
ACAD_ROUNDTRIP_PRE2007_TABLESTYLE
 90
      512
 91
        0
  1

 92
      512
 93
        0
  2

 94
      512
 95
        0
  3

  0
XRECORD
  5
1352
102
{ACAD_REACTORS
330
1351
102
}
330
1351
100
AcDbXrecord
280
     1
102
RTVSPropertyOp0
 70
     1
102
RTVSPropertyOp1
 70
     1
102
RTVSPropertyOp2
 70
     1
102
RTVSPropertyOp3
 70
     1
102
RTVSPropertyOp4
 70
     1
102
RTVSPropertyOp5
 70
     1
102
RTVSPropertyOp6
 70
     1
102
RTVSPropertyOp7
 70
     1
102
RTVSPropertyOp8
 70
     1
102
RTVSPropertyOp9
 70
     1
102
RTVSPropertyOp10
 70
     1
102
RTVSPropertyOp11
 70
     1
102
RTVSPropertyOp12
 70
     1
102
RTVSPropertyOp13
 70
     1
102
RTVSPropertyOp14
 70
     1
102
RTVSPropertyOp15
 70
     1
102
RTVSPropertyOp16
 70
     1
102
RTVSPropertyOp17
 70
     1
102
RTVSPropertyOp18
 70
     1
102
RTVSPropertyOp19
 70
     1
102
RTVSPropertyOp20
 70
     1
102
RTVSPropertyOp21
 70
     1
102
RTVSPropertyOp22
 70
     1
102
RTVSPropertyOp23
 70
     1
102
RTVSPropertyOp24
 70
     1
102
RTVSPropertyOp25
 70
     1
102
RTVSPropertyOp26
 70
     1
102
RTVSPropertyOp27
 70
     1
102
RTVSPropertyOp28
 70
     1
102
RTVSPropertyOp29
 70
     1
102
RTVSPropertyOp30
 70
     1
102
RTVSPropertyOp31
 70
     1
102
RTVSPropertyOp32
 70
     1
  0
XRECORD
  5
1356
102
{ACAD_REACTORS
330
1355
102
}
330
1355
100
AcDbXrecord
280
     1
102
RTVSPropertyOp0
 70
     1
102
RTVSPropertyOp1
 70
     1
102
RTVSPropertyOp2
 70
     1
102
RTVSPropertyOp3
 70
     1
102
RTVSPropertyOp4
 70
     1
102
RTVSPropertyOp5
 70
     1
102
RTVSPropertyOp6
 70
     1
102
RTVSPropertyOp7
 70
     1
102
RTVSPropertyOp8
 70
     1
102
RTVSPropertyOp9
 70
     1
102
RTVSPropertyOp10
 70
     1
102
RTVSPropertyOp11
 70
     1
102
RTVSPropertyOp12
 70
     1
102
RTVSPropertyOp13
 70
     1
102
RTVSPropertyOp14
 70
     1
102
RTVSPropertyOp15
 70
     1
102
RTVSPropertyOp16
 70
     1
102
RTVSPropertyOp17
 70
     1
102
RTVSPropertyOp18
 70
     1
102
RTVSPropertyOp19
 70
     1
102
RTVSPropertyOp20
 70
     1
102
RTVSPropertyOp21
 70
     1
102
RTVSPropertyOp22
 70
     1
102
RTVSPropertyOp23
 70
     1
102
RTVSPropertyOp24
 70
     1
102
RTVSPropertyOp25
 70
     1
102
RTVSPropertyOp26
 70
     1
102
RTVSPropertyOp27
 70
     1
102
RTVSPropertyOp28
 70
     1
102
RTVSPropertyOp29
 70
     1
102
RTVSPropertyOp30
 70
     1
102
RTVSPropertyOp31
 70
     1
102
RTVSPropertyOp32
 70
     1
  0
XRECORD
  5
1354
102
{ACAD_REACTORS
330
1353
102
}
330
1353
100
AcDbXrecord
280
     1
102
RTVSPropertyOp0
 70
     1
102
RTVSPropertyOp1
 70
     1
102
RTVSPropertyOp2
 70
     1
102
RTVSPropertyOp3
 70
     1
102
RTVSPropertyOp4
 70
     1
102
RTVSPropertyOp5
 70
     1
102
RTVSPropertyOp6
 70
     1
102
RTVSPropertyOp7
 70
     1
102
RTVSPropertyOp8
 70
     1
102
RTVSPropertyOp9
 70
     1
102
RTVSPropertyOp10
 70
     1
102
RTVSPropertyOp11
 70
     1
102
RTVSPropertyOp12
 70
     1
102
RTVSPropertyOp13
 70
     1
102
RTVSPropertyOp14
 70
     1
102
RTVSPropertyOp15
 70
     1
102
RTVSPropertyOp16
 70
     1
102
RTVSPropertyOp17
 70
     1
102
RTVSPropertyOp18
 70
     1
102
RTVSPropertyOp19
 70
     1
102
RTVSPropertyOp20
 70
     1
102
RTVSPropertyOp21
 70
     1
102
RTVSPropertyOp22
 70
     1
102
RTVSPropertyOp23
 70
     1
102
RTVSPropertyOp24
 70
     1
102
RTVSPropertyOp25
 70
     1
102
RTVSPropertyOp26
 70
     1
102
RTVSPropertyOp27
 70
     1
102
RTVSPropertyOp28
 70
     1
102
RTVSPropertyOp29
 70
     1
102
RTVSPropertyOp30
 70
     1
102
RTVSPropertyOp31
 70
     1
102
RTVSPropertyOp32
 70
     1
  0
XRECORD
  5
1350
102
{ACAD_REACTORS
330
134F
102
}
330
134F
100
AcDbXrecord
280
     1
102
RTVSPropertyOp0
 70
     1
102
RTVSPropertyOp1
 70
     1
102
RTVSPropertyOp2
 70
     1
102
RTVSPropertyOp3
 70
     1
102
RTVSPropertyOp4
 70
     1
102
RTVSPropertyOp5
 70
     1
102
RTVSPropertyOp6
 70
     1
102
RTVSPropertyOp7
 70
     1
102
RTVSPropertyOp8
 70
     1
102
RTVSPropertyOp9
 70
     1
102
RTVSPropertyOp10
 70
     1
102
RTVSPropertyOp11
 70
     1
102
RTVSPropertyOp12
 70
     1
102
RTVSPropertyOp13
 70
     1
102
RTVSPropertyOp14
 70
     1
102
RTVSPropertyOp15
 70
     1
102
RTVSPropertyOp16
 70
     1
102
RTVSPropertyOp17
 70
     1
102
RTVSPropertyOp18
 70
     1
102
RTVSPropertyOp19
 70
     1
102
RTVSPropertyOp20
 70
     1
102
RTVSPropertyOp21
 70
     1
102
RTVSPropertyOp22
 70
     1
102
RTVSPropertyOp23
 70
     1
102
RTVSPropertyOp24
 70
     1
102
RTVSPropertyOp25
 70
     1
102
RTVSPropertyOp26
 70
     1
102
RTVSPropertyOp27
 70
     1
102
RTVSPropertyOp28
 70
     1
102
RTVSPropertyOp29
 70
     1
102
RTVSPropertyOp30
 70
     1
102
RTVSPropertyOp31
 70
     1
102
RTVSPropertyOp32
 70
     1
  0
XRECORD
  5
135E
102
{ACAD_REACTORS
330
135D
102
}
330
135D
100
AcDbXrecord
280
     1
102
RTVSPropertyOp0
 70
     1
102
RTVSPropertyOp1
 70
     1
102
RTVSPropertyOp2
 70
     1
102
RTVSPropertyOp3
 70
     1
102
RTVSPropertyOp4
 70
     1
102
RTVSPropertyOp5
 70
     1
102
RTVSPropertyOp6
 70
     1
102
RTVSPropertyOp7
 70
     1
102
RTVSPropertyOp8
 70
     1
102
RTVSPropertyOp9
 70
     1
102
RTVSPropertyOp10
 70
     1
102
RTVSPropertyOp11
 70
     1
102
RTVSPropertyOp12
 70
     1
102
RTVSPropertyOp13
 70
     1
102
RTVSPropertyOp14
 70
     1
102
RTVSPropertyOp15
 70
     1
102
RTVSPropertyOp16
 70
     1
102
RTVSPropertyOp17
 70
     1
102
RTVSPropertyOp18
 70
     1
102
RTVSPropertyOp19
 70
     1
102
RTVSPropertyOp20
 70
     1
102
RTVSPropertyOp21
 70
     1
102
RTVSPropertyOp22
 70
     1
102
RTVSPropertyOp23
 70
     1
102
RTVSPropertyOp24
 70
     1
102
RTVSPropertyOp25
 70
     1
102
RTVSPropertyOp26
 70
     1
102
RTVSPropertyOp27
 70
     1
102
RTVSPropertyOp28
 70
     1
102
RTVSPropertyOp29
 70
     1
102
RTVSPropertyOp30
 70
     1
102
RTVSPropertyOp31
 70
     1
102
RTVSPropertyOp32
 70
     1
  0
XRECORD
  5
1366
102
{ACAD_REACTORS
330
1365
102
}
330
1365
100
AcDbXrecord
280
     1
102
RTVSPropertyOp0
 70
     1
102
RTVSPropertyOp1
 70
     1
102
RTVSPropertyOp2
 70
     1
102
RTVSPropertyOp3
 70
     1
102
RTVSPropertyOp4
 70
     1
102
RTVSPropertyOp5
 70
     1
102
RTVSPropertyOp6
 70
     1
102
RTVSPropertyOp7
 70
     1
102
RTVSPropertyOp8
 70
     1
102
RTVSPropertyOp9
 70
     1
102
RTVSPropertyOp10
 70
     1
102
RTVSPropertyOp11
 70
     1
102
RTVSPropertyOp12
 70
     1
102
RTVSPropertyOp13
 70
     1
102
RTVSPropertyOp14
 70
     1
102
RTVSPropertyOp15
 70
     1
102
RTVSPropertyOp16
 70
     1
102
RTVSPropertyOp17
 70
     1
102
RTVSPropertyOp18
 70
     1
102
RTVSPropertyOp19
 70
     1
102
RTVSPropertyOp20
 70
     1
102
RTVSPropertyOp21
 70
     1
102
RTVSPropertyOp22
 70
     1
102
RTVSPropertyOp23
 70
     1
102
RTVSPropertyOp24
 70
     1
102
RTVSPropertyOp25
 70
     1
102
RTVSPropertyOp26
 70
     1
102
RTVSPropertyOp27
 70
     1
102
RTVSPropertyOp28
 70
     1
102
RTVSPropertyOp29
 70
     1
102
RTVSPropertyOp30
 70
     1
102
RTVSPropertyOp31
 70
     1
102
RTVSPropertyOp32
 70
     1
  0
XRECORD
  5
1358
102
{ACAD_REACTORS
330
1357
102
}
330
1357
100
AcDbXrecord
280
     1
102
RTVSPropertyOp0
 70
     1
102
RTVSPropertyOp1
 70
     1
102
RTVSPropertyOp2
 70
     1
102
RTVSPropertyOp3
 70
     1
102
RTVSPropertyOp4
 70
     1
102
RTVSPropertyOp5
 70
     1
102
RTVSPropertyOp6
 70
     1
102
RTVSPropertyOp7
 70
     1
102
RTVSPropertyOp8
 70
     1
102
RTVSPropertyOp9
 70
     1
102
RTVSPropertyOp10
 70
     1
102
RTVSPropertyOp11
 70
     1
102
RTVSPropertyOp12
 70
     1
102
RTVSPropertyOp13
 70
     1
102
RTVSPropertyOp14
 70
     1
102
RTVSPropertyOp15
 70
     1
102
RTVSPropertyOp16
 70
     1
102
RTVSPropertyOp17
 70
     1
102
RTVSPropertyOp18
 70
     1
102
RTVSPropertyOp19
 70
     1
102
RTVSPropertyOp20
 70
     1
102
RTVSPropertyOp21
 70
     1
102
RTVSPropertyOp22
 70
     1
102
RTVSPropertyOp23
 70
     1
102
RTVSPropertyOp24
 70
     1
102
RTVSPropertyOp25
 70
     1
102
RTVSPropertyOp26
 70
     1
102
RTVSPropertyOp27
 70
     1
102
RTVSPropertyOp28
 70
     1
102
RTVSPropertyOp29
 70
     1
102
RTVSPropertyOp30
 70
     1
102
RTVSPropertyOp31
 70
     1
102
RTVSPropertyOp32
 70
     1
  0
XRECORD
  5
135C
102
{ACAD_REACTORS
330
135B
102
}
330
135B
100
AcDbXrecord
280
     1
102
RTVSPropertyOp0
 70
     1
102
RTVSPropertyOp1
 70
     1
102
RTVSPropertyOp2
 70
     1
102
RTVSPropertyOp3
 70
     1
102
RTVSPropertyOp4
 70
     1
102
RTVSPropertyOp5
 70
     1
102
RTVSPropertyOp6
 70
     1
102
RTVSPropertyOp7
 70
     1
102
RTVSPropertyOp8
 70
     1
102
RTVSPropertyOp9
 70
     1
102
RTVSPropertyOp10
 70
     1
102
RTVSPropertyOp11
 70
     1
102
RTVSPropertyOp12
 70
     1
102
RTVSPropertyOp13
 70
     1
102
RTVSPropertyOp14
 70
     1
102
RTVSPropertyOp15
 70
     1
102
RTVSPropertyOp16
 70
     1
102
RTVSPropertyOp17
 70
     1
102
RTVSPropertyOp18
 70
     1
102
RTVSPropertyOp19
 70
     1
102
RTVSPropertyOp20
 70
     1
102
RTVSPropertyOp21
 70
     1
102
RTVSPropertyOp22
 70
     1
102
RTVSPropertyOp23
 70
     1
102
RTVSPropertyOp24
 70
     1
102
RTVSPropertyOp25
 70
     1
102
RTVSPropertyOp26
 70
     1
102
RTVSPropertyOp27
 70
     1
102
RTVSPropertyOp28
 70
     1
102
RTVSPropertyOp29
 70
     1
102
RTVSPropertyOp30
 70
     1
102
RTVSPropertyOp31
 70
     1
102
RTVSPropertyOp32
 70
     1
  0
XRECORD
  5
137A
102
{ACAD_REACTORS
330
1379
102
}
330
1379
100
AcDbXrecord
280
     1
102
RTVSPropertyOp0
 70
     0
102
RTVSPropertyOp1
 70
     0
102
RTVSPropertyOp2
 70
     0
102
RTVSPropertyOp3
 70
     0
102
RTVSPropertyOp4
 70
     0
102
RTVSPropertyOp5
 70
     0
102
RTVSPropertyOp6
 70
     0
102
RTVSPropertyOp7
 70
     0
102
RTVSPropertyOp8
 70
     0
102
RTVSPropertyOp9
 70
     0
102
RTVSPropertyOp10
 70
     0
102
RTVSPropertyOp11
 70
     0
102
RTVSPropertyOp12
 70
     0
102
RTVSPropertyOp13
 70
     0
102
RTVSPropertyOp14
 70
     2
102
RTVSPropertyOp15
 70
     0
102
RTVSPropertyOp16
 70
     0
102
RTVSPropertyOp17
 70
     0
102
RTVSPropertyOp18
 70
     0
102
RTVSPropertyOp19
 70
     0
102
RTVSPropertyOp20
 70
     0
102
RTVSPropertyOp21
 70
     0
102
RTVSPropertyOp22
 70
     0
102
RTVSPropertyOp23
 70
     0
102
RTVSPropertyOp24
 70
     0
102
RTVSPropertyOp25
 70
     0
102
RTVSPropertyOp26
 70
     0
102
RTVSPropertyOp27
 70
     0
102
RTVSPropertyOp28
 70
     1
102
RTVSPropertyOp29
 70
     1
102
RTVSPropertyOp30
 70
     1
102
RTVSPropertyOp31
 70
     1
102
RTVSPropertyOp32
 70
     1
  0
XRECORD
  5
1364
102
{ACAD_REACTORS
330
1363
102
}
330
1363
100
AcDbXrecord
280
     1
102
RTVSPropertyOp0
 70
     1
102
RTVSPropertyOp1
 70
     1
102
RTVSPropertyOp2
 70
     1
102
RTVSPropertyOp3
 70
     1
102
RTVSPropertyOp4
 70
     1
102
RTVSPropertyOp5
 70
     1
102
RTVSPropertyOp6
 70
     1
102
RTVSPropertyOp7
 70
     1
102
RTVSPropertyOp8
 70
     1
102
RTVSPropertyOp9
 70
     1
102
RTVSPropertyOp10
 70
     1
102
RTVSPropertyOp11
 70
     1
102
RTVSPropertyOp12
 70
     1
102
RTVSPropertyOp13
 70
     1
102
RTVSPropertyOp14
 70
     1
102
RTVSPropertyOp15
 70
     1
102
RTVSPropertyOp16
 70
     1
102
RTVSPropertyOp17
 70
     1
102
RTVSPropertyOp18
 70
     1
102
RTVSPropertyOp19
 70
     1
102
RTVSPropertyOp20
 70
     1
102
RTVSPropertyOp21
 70
     1
102
RTVSPropertyOp22
 70
     1
102
RTVSPropertyOp23
 70
     1
102
RTVSPropertyOp24
 70
     1
102
RTVSPropertyOp25
 70
     1
102
RTVSPropertyOp26
 70
     1
102
RTVSPropertyOp27
 70
     1
102
RTVSPropertyOp28
 70
     1
102
RTVSPropertyOp29
 70
     1
102
RTVSPropertyOp30
 70
     1
102
RTVSPropertyOp31
 70
     1
102
RTVSPropertyOp32
 70
     1
  0
XRECORD
  5
1348
102
{ACAD_REACTORS
330
1347
102
}
330
1347
100
AcDbXrecord
280
     1
102
RTVSPropertyOp0
 70
     1
102
RTVSPropertyOp1
 70
     1
102
RTVSPropertyOp2
 70
     1
102
RTVSPropertyOp3
 70
     1
102
RTVSPropertyOp4
 70
     1
102
RTVSPropertyOp5
 70
     1
102
RTVSPropertyOp6
 70
     1
102
RTVSPropertyOp7
 70
     1
102
RTVSPropertyOp8
 70
     1
102
RTVSPropertyOp9
 70
     1
102
RTVSPropertyOp10
 70
     1
102
RTVSPropertyOp11
 70
     1
102
RTVSPropertyOp12
 70
     1
102
RTVSPropertyOp13
 70
     1
102
RTVSPropertyOp14
 70
     1
102
RTVSPropertyOp15
 70
     1
102
RTVSPropertyOp16
 70
     1
102
RTVSPropertyOp17
 70
     1
102
RTVSPropertyOp18
 70
     1
102
RTVSPropertyOp19
 70
     1
102
RTVSPropertyOp20
 70
     1
102
RTVSPropertyOp21
 70
     1
102
RTVSPropertyOp22
 70
     1
102
RTVSPropertyOp23
 70
     1
102
RTVSPropertyOp24
 70
     1
102
RTVSPropertyOp25
 70
     1
102
RTVSPropertyOp26
 70
     1
102
RTVSPropertyOp27
 70
     1
102
RTVSPropertyOp28
 70
     1
102
RTVSPropertyOp29
 70
     1
102
RTVSPropertyOp30
 70
     1
102
RTVSPropertyOp31
 70
     1
102
RTVSPropertyOp32
 70
     1
  0
XRECORD
  5
134A
102
{ACAD_REACTORS
330
1349
102
}
330
1349
100
AcDbXrecord
280
     1
102
RTVSPropertyOp0
 70
     1
102
RTVSPropertyOp1
 70
     1
102
RTVSPropertyOp2
 70
     1
102
RTVSPropertyOp3
 70
     1
102
RTVSPropertyOp4
 70
     1
102
RTVSPropertyOp5
 70
     1
102
RTVSPropertyOp6
 70
     1
102
RTVSPropertyOp7
 70
     1
102
RTVSPropertyOp8
 70
     1
102
RTVSPropertyOp9
 70
     1
102
RTVSPropertyOp10
 70
     1
102
RTVSPropertyOp11
 70
     1
102
RTVSPropertyOp12
 70
     1
102
RTVSPropertyOp13
 70
     1
102
RTVSPropertyOp14
 70
     1
102
RTVSPropertyOp15
 70
     1
102
RTVSPropertyOp16
 70
     1
102
RTVSPropertyOp17
 70
     1
102
RTVSPropertyOp18
 70
     1
102
RTVSPropertyOp19
 70
     1
102
RTVSPropertyOp20
 70
     1
102
RTVSPropertyOp21
 70
     1
102
RTVSPropertyOp22
 70
     1
102
RTVSPropertyOp23
 70
     1
102
RTVSPropertyOp24
 70
     1
102
RTVSPropertyOp25
 70
     1
102
RTVSPropertyOp26
 70
     1
102
RTVSPropertyOp27
 70
     1
102
RTVSPropertyOp28
 70
     1
102
RTVSPropertyOp29
 70
     1
102
RTVSPropertyOp30
 70
     1
102
RTVSPropertyOp31
 70
     1
102
RTVSPropertyOp32
 70
     1
  0
XRECORD
  5
134C
102
{ACAD_REACTORS
330
134B
102
}
330
134B
100
AcDbXrecord
280
     1
102
RTVSPropertyOp0
 70
     1
102
RTVSPropertyOp1
 70
     1
102
RTVSPropertyOp2
 70
     1
102
RTVSPropertyOp3
 70
     1
102
RTVSPropertyOp4
 70
     1
102
RTVSPropertyOp5
 70
     1
102
RTVSPropertyOp6
 70
     1
102
RTVSPropertyOp7
 70
     1
102
RTVSPropertyOp8
 70
     1
102
RTVSPropertyOp9
 70
     1
102
RTVSPropertyOp10
 70
     1
102
RTVSPropertyOp11
 70
     1
102
RTVSPropertyOp12
 70
     1
102
RTVSPropertyOp13
 70
     1
102
RTVSPropertyOp14
 70
     1
102
RTVSPropertyOp15
 70
     1
102
RTVSPropertyOp16
 70
     1
102
RTVSPropertyOp17
 70
     1
102
RTVSPropertyOp18
 70
     1
102
RTVSPropertyOp19
 70
     1
102
RTVSPropertyOp20
 70
     1
102
RTVSPropertyOp21
 70
     1
102
RTVSPropertyOp22
 70
     1
102
RTVSPropertyOp23
 70
     1
102
RTVSPropertyOp24
 70
     1
102
RTVSPropertyOp25
 70
     1
102
RTVSPropertyOp26
 70
     1
102
RTVSPropertyOp27
 70
     1
102
RTVSPropertyOp28
 70
     1
102
RTVSPropertyOp29
 70
     1
102
RTVSPropertyOp30
 70
     1
102
RTVSPropertyOp31
 70
     1
102
RTVSPropertyOp32
 70
     1
  0
XRECORD
  5
134E
102
{ACAD_REACTORS
330
134D
102
}
330
134D
100
AcDbXrecord
280
     1
102
RTVSPropertyOp0
 70
     1
102
RTVSPropertyOp1
 70
     1
102
RTVSPropertyOp2
 70
     1
102
RTVSPropertyOp3
 70
     1
102
RTVSPropertyOp4
 70
     1
102
RTVSPropertyOp5
 70
     1
102
RTVSPropertyOp6
 70
     1
102
RTVSPropertyOp7
 70
     1
102
RTVSPropertyOp8
 70
     1
102
RTVSPropertyOp9
 70
     1
102
RTVSPropertyOp10
 70
     1
102
RTVSPropertyOp11
 70
     1
102
RTVSPropertyOp12
 70
     1
102
RTVSPropertyOp13
 70
     1
102
RTVSPropertyOp14
 70
     1
102
RTVSPropertyOp15
 70
     1
102
RTVSPropertyOp16
 70
     1
102
RTVSPropertyOp17
 70
     1
102
RTVSPropertyOp18
 70
     1
102
RTVSPropertyOp19
 70
     1
102
RTVSPropertyOp20
 70
     1
102
RTVSPropertyOp21
 70
     1
102
RTVSPropertyOp22
 70
     1
102
RTVSPropertyOp23
 70
     1
102
RTVSPropertyOp24
 70
     1
102
RTVSPropertyOp25
 70
     1
102
RTVSPropertyOp26
 70
     1
102
RTVSPropertyOp27
 70
     1
102
RTVSPropertyOp28
 70
     1
102
RTVSPropertyOp29
 70
     1
102
RTVSPropertyOp30
 70
     1
102
RTVSPropertyOp31
 70
     1
102
RTVSPropertyOp32
 70
     1
  0
XRECORD
  5
136A
102
{ACAD_REACTORS
330
1369
102
}
330
1369
100
AcDbXrecord
280
     1
102
RTVSPropertyOp0
 70
     1
102
RTVSPropertyOp1
 70
     1
102
RTVSPropertyOp2
 70
     1
102
RTVSPropertyOp3
 70
     1
102
RTVSPropertyOp4
 70
     1
102
RTVSPropertyOp5
 70
     1
102
RTVSPropertyOp6
 70
     1
102
RTVSPropertyOp7
 70
     1
102
RTVSPropertyOp8
 70
     1
102
RTVSPropertyOp9
 70
     1
102
RTVSPropertyOp10
 70
     1
102
RTVSPropertyOp11
 70
     1
102
RTVSPropertyOp12
 70
     1
102
RTVSPropertyOp13
 70
     1
102
RTVSPropertyOp14
 70
     1
102
RTVSPropertyOp15
 70
     1
102
RTVSPropertyOp16
 70
     1
102
RTVSPropertyOp17
 70
     1
102
RTVSPropertyOp18
 70
     1
102
RTVSPropertyOp19
 70
     1
102
RTVSPropertyOp20
 70
     1
102
RTVSPropertyOp21
 70
     1
102
RTVSPropertyOp22
 70
     1
102
RTVSPropertyOp23
 70
     1
102
RTVSPropertyOp24
 70
     1
102
RTVSPropertyOp25
 70
     1
102
RTVSPropertyOp26
 70
     1
102
RTVSPropertyOp27
 70
     1
102
RTVSPropertyOp28
 70
     1
102
RTVSPropertyOp29
 70
     1
102
RTVSPropertyOp30
 70
     1
102
RTVSPropertyOp31
 70
     1
102
RTVSPropertyOp32
 70
     1
  0
XRECORD
  5
1376
102
{ACAD_REACTORS
330
1375
102
}
330
1375
100
AcDbXrecord
280
     1
102
RTVSPropertyOp0
 70
     0
102
RTVSPropertyOp1
 70
     0
102
RTVSPropertyOp2
 70
     0
102
RTVSPropertyOp3
 70
     0
102
RTVSPropertyOp4
 70
     0
102
RTVSPropertyOp5
 70
     0
102
RTVSPropertyOp6
 70
     0
102
RTVSPropertyOp7
 70
     0
102
RTVSPropertyOp8
 70
     0
102
RTVSPropertyOp9
 70
     0
102
RTVSPropertyOp10
 70
     0
102
RTVSPropertyOp11
 70
     0
102
RTVSPropertyOp12
 70
     0
102
RTVSPropertyOp13
 70
     0
102
RTVSPropertyOp14
 70
     2
102
RTVSPropertyOp15
 70
     0
102
RTVSPropertyOp16
 70
     0
102
RTVSPropertyOp17
 70
     0
102
RTVSPropertyOp18
 70
     0
102
RTVSPropertyOp19
 70
     0
102
RTVSPropertyOp20
 70
     0
102
RTVSPropertyOp21
 70
     0
102
RTVSPropertyOp22
 70
     0
102
RTVSPropertyOp23
 70
     0
102
RTVSPropertyOp24
 70
     0
102
RTVSPropertyOp25
 70
     0
102
RTVSPropertyOp26
 70
     0
102
RTVSPropertyOp27
 70
     0
102
RTVSPropertyOp28
 70
     1
102
RTVSPropertyOp29
 70
     1
102
RTVSPropertyOp30
 70
     1
102
RTVSPropertyOp31
 70
     1
102
RTVSPropertyOp32
 70
     1
  0
XRECORD
  5
1362
102
{ACAD_REACTORS
330
1361
102
}
330
1361
100
AcDbXrecord
280
     1
102
RTVSPropertyOp0
 70
     1
102
RTVSPropertyOp1
 70
     1
102
RTVSPropertyOp2
 70
     1
102
RTVSPropertyOp3
 70
     1
102
RTVSPropertyOp4
 70
     1
102
RTVSPropertyOp5
 70
     1
102
RTVSPropertyOp6
 70
     1
102
RTVSPropertyOp7
 70
     1
102
RTVSPropertyOp8
 70
     1
102
RTVSPropertyOp9
 70
     1
102
RTVSPropertyOp10
 70
     1
102
RTVSPropertyOp11
 70
     1
102
RTVSPropertyOp12
 70
     1
102
RTVSPropertyOp13
 70
     1
102
RTVSPropertyOp14
 70
     1
102
RTVSPropertyOp15
 70
     1
102
RTVSPropertyOp16
 70
     1
102
RTVSPropertyOp17
 70
     1
102
RTVSPropertyOp18
 70
     1
102
RTVSPropertyOp19
 70
     1
102
RTVSPropertyOp20
 70
     1
102
RTVSPropertyOp21
 70
     1
102
RTVSPropertyOp22
 70
     1
102
RTVSPropertyOp23
 70
     1
102
RTVSPropertyOp24
 70
     1
102
RTVSPropertyOp25
 70
     1
102
RTVSPropertyOp26
 70
     1
102
RTVSPropertyOp27
 70
     1
102
RTVSPropertyOp28
 70
     1
102
RTVSPropertyOp29
 70
     1
102
RTVSPropertyOp30
 70
     1
102
RTVSPropertyOp31
 70
     1
102
RTVSPropertyOp32
 70
     1
  0
XRECORD
  5
1378
102
{ACAD_REACTORS
330
1377
102
}
330
1377
100
AcDbXrecord
280
     1
102
RTVSPropertyOp0
 70
     0
102
RTVSPropertyOp1
 70
     0
102
RTVSPropertyOp2
 70
     0
102
RTVSPropertyOp3
 70
     0
102
RTVSPropertyOp4
 70
     0
102
RTVSPropertyOp5
 70
     0
102
RTVSPropertyOp6
 70
     0
102
RTVSPropertyOp7
 70
     0
102
RTVSPropertyOp8
 70
     0
102
RTVSPropertyOp9
 70
     0
102
RTVSPropertyOp10
 70
     0
102
RTVSPropertyOp11
 70
     0
102
RTVSPropertyOp12
 70
     0
102
RTVSPropertyOp13
 70
     0
102
RTVSPropertyOp14
 70
     2
102
RTVSPropertyOp15
 70
     0
102
RTVSPropertyOp16
 70
     0
102
RTVSPropertyOp17
 70
     0
102
RTVSPropertyOp18
 70
     0
102
RTVSPropertyOp19
 70
     0
102
RTVSPropertyOp20
 70
     0
102
RTVSPropertyOp21
 70
     0
102
RTVSPropertyOp22
 70
     0
102
RTVSPropertyOp23
 70
     0
102
RTVSPropertyOp24
 70
     0
102
RTVSPropertyOp25
 70
     0
102
RTVSPropertyOp26
 70
     0
102
RTVSPropertyOp27
 70
     0
102
RTVSPropertyOp28
 70
     1
102
RTVSPropertyOp29
 70
     1
102
RTVSPropertyOp30
 70
     1
102
RTVSPropertyOp31
 70
     1
102
RTVSPropertyOp32
 70
     1
  0
XRECORD
  5
135A
102
{ACAD_REACTORS
330
1359
102
}
330
1359
100
AcDbXrecord
280
     1
102
RTVSPropertyOp0
 70
     1
102
RTVSPropertyOp1
 70
     1
102
RTVSPropertyOp2
 70
     1
102
RTVSPropertyOp3
 70
     1
102
RTVSPropertyOp4
 70
     1
102
RTVSPropertyOp5
 70
     1
102
RTVSPropertyOp6
 70
     1
102
RTVSPropertyOp7
 70
     1
102
RTVSPropertyOp8
 70
     1
102
RTVSPropertyOp9
 70
     1
102
RTVSPropertyOp10
 70
     1
102
RTVSPropertyOp11
 70
     1
102
RTVSPropertyOp12
 70
     1
102
RTVSPropertyOp13
 70
     1
102
RTVSPropertyOp14
 70
     1
102
RTVSPropertyOp15
 70
     1
102
RTVSPropertyOp16
 70
     1
102
RTVSPropertyOp17
 70
     1
102
RTVSPropertyOp18
 70
     1
102
RTVSPropertyOp19
 70
     1
102
RTVSPropertyOp20
 70
     1
102
RTVSPropertyOp21
 70
     1
102
RTVSPropertyOp22
 70
     1
102
RTVSPropertyOp23
 70
     1
102
RTVSPropertyOp24
 70
     1
102
RTVSPropertyOp25
 70
     1
102
RTVSPropertyOp26
 70
     1
102
RTVSPropertyOp27
 70
     1
102
RTVSPropertyOp28
 70
     1
102
RTVSPropertyOp29
 70
     1
102
RTVSPropertyOp30
 70
     1
102
RTVSPropertyOp31
 70
     1
102
RTVSPropertyOp32
 70
     1
  0
XRECORD
  5
1374
102
{ACAD_REACTORS
330
1373
102
}
330
1373
100
AcDbXrecord
280
     1
102
RTVSPropertyOp0
 70
     1
102
RTVSPropertyOp1
 70
     1
102
RTVSPropertyOp2
 70
     1
102
RTVSPropertyOp3
 70
     1
102
RTVSPropertyOp4
 70
     1
102
RTVSPropertyOp5
 70
     1
102
RTVSPropertyOp6
 70
     1
102
RTVSPropertyOp7
 70
     1
102
RTVSPropertyOp8
 70
     1
102
RTVSPropertyOp9
 70
     1
102
RTVSPropertyOp10
 70
     1
102
RTVSPropertyOp11
 70
     1
102
RTVSPropertyOp12
 70
     1
102
RTVSPropertyOp13
 70
     1
102
RTVSPropertyOp14
 70
     1
102
RTVSPropertyOp15
 70
     1
102
RTVSPropertyOp16
 70
     1
102
RTVSPropertyOp17
 70
     1
102
RTVSPropertyOp18
 70
     1
102
RTVSPropertyOp19
 70
     1
102
RTVSPropertyOp20
 70
     1
102
RTVSPropertyOp21
 70
     1
102
RTVSPropertyOp22
 70
     1
102
RTVSPropertyOp23
 70
     1
102
RTVSPropertyOp24
 70
     1
102
RTVSPropertyOp25
 70
     1
102
RTVSPropertyOp26
 70
     1
102
RTVSPropertyOp27
 70
     1
102
RTVSPropertyOp28
 70
     1
102
RTVSPropertyOp29
 70
     1
102
RTVSPropertyOp30
 70
     1
102
RTVSPropertyOp31
 70
     1
102
RTVSPropertyOp32
 70
     1
  0
XRECORD
  5
1372
102
{ACAD_REACTORS
330
1371
102
}
330
1371
100
AcDbXrecord
280
     1
102
RTVSPropertyOp0
 70
     1
102
RTVSPropertyOp1
 70
     1
102
RTVSPropertyOp2
 70
     1
102
RTVSPropertyOp3
 70
     1
102
RTVSPropertyOp4
 70
     1
102
RTVSPropertyOp5
 70
     1
102
RTVSPropertyOp6
 70
     1
102
RTVSPropertyOp7
 70
     1
102
RTVSPropertyOp8
 70
     1
102
RTVSPropertyOp9
 70
     1
102
RTVSPropertyOp10
 70
     1
102
RTVSPropertyOp11
 70
     1
102
RTVSPropertyOp12
 70
     1
102
RTVSPropertyOp13
 70
     1
102
RTVSPropertyOp14
 70
     1
102
RTVSPropertyOp15
 70
     1
102
RTVSPropertyOp16
 70
     1
102
RTVSPropertyOp17
 70
     1
102
RTVSPropertyOp18
 70
     1
102
RTVSPropertyOp19
 70
     1
102
RTVSPropertyOp20
 70
     1
102
RTVSPropertyOp21
 70
     1
102
RTVSPropertyOp22
 70
     1
102
RTVSPropertyOp23
 70
     1
102
RTVSPropertyOp24
 70
     1
102
RTVSPropertyOp25
 70
     1
102
RTVSPropertyOp26
 70
     1
102
RTVSPropertyOp27
 70
     1
102
RTVSPropertyOp28
 70
     1
102
RTVSPropertyOp29
 70
     1
102
RTVSPropertyOp30
 70
     1
102
RTVSPropertyOp31
 70
     1
102
RTVSPropertyOp32
 70
     1
  0
XRECORD
  5
136C
102
{ACAD_REACTORS
330
136B
102
}
330
136B
100
AcDbXrecord
280
     1
102
RTVSPropertyOp0
 70
     1
102
RTVSPropertyOp1
 70
     1
102
RTVSPropertyOp2
 70
     1
102
RTVSPropertyOp3
 70
     1
102
RTVSPropertyOp4
 70
     1
102
RTVSPropertyOp5
 70
     1
102
RTVSPropertyOp6
 70
     1
102
RTVSPropertyOp7
 70
     1
102
RTVSPropertyOp8
 70
     1
102
RTVSPropertyOp9
 70
     1
102
RTVSPropertyOp10
 70
     1
102
RTVSPropertyOp11
 70
     1
102
RTVSPropertyOp12
 70
     1
102
RTVSPropertyOp13
 70
     1
102
RTVSPropertyOp14
 70
     1
102
RTVSPropertyOp15
 70
     1
102
RTVSPropertyOp16
 70
     1
102
RTVSPropertyOp17
 70
     1
102
RTVSPropertyOp18
 70
     1
102
RTVSPropertyOp19
 70
     1
102
RTVSPropertyOp20
 70
     1
102
RTVSPropertyOp21
 70
     1
102
RTVSPropertyOp22
 70
     1
102
RTVSPropertyOp23
 70
     1
102
RTVSPropertyOp24
 70
     1
102
RTVSPropertyOp25
 70
     1
102
RTVSPropertyOp26
 70
     1
102
RTVSPropertyOp27
 70
     1
102
RTVSPropertyOp28
 70
     1
102
RTVSPropertyOp29
 70
     1
102
RTVSPropertyOp30
 70
     1
102
RTVSPropertyOp31
 70
     1
102
RTVSPropertyOp32
 70
     1
  0
XRECORD
  5
136E
102
{ACAD_REACTORS
330
136D
102
}
330
136D
100
AcDbXrecord
280
     1
102
RTVSPropertyOp0
 70
     1
102
RTVSPropertyOp1
 70
     1
102
RTVSPropertyOp2
 70
     1
102
RTVSPropertyOp3
 70
     1
102
RTVSPropertyOp4
 70
     1
102
RTVSPropertyOp5
 70
     1
102
RTVSPropertyOp6
 70
     1
102
RTVSPropertyOp7
 70
     1
102
RTVSPropertyOp8
 70
     1
102
RTVSPropertyOp9
 70
     1
102
RTVSPropertyOp10
 70
     1
102
RTVSPropertyOp11
 70
     1
102
RTVSPropertyOp12
 70
     1
102
RTVSPropertyOp13
 70
     1
102
RTVSPropertyOp14
 70
     1
102
RTVSPropertyOp15
 70
     1
102
RTVSPropertyOp16
 70
     1
102
RTVSPropertyOp17
 70
     1
102
RTVSPropertyOp18
 70
     1
102
RTVSPropertyOp19
 70
     1
102
RTVSPropertyOp20
 70
     1
102
RTVSPropertyOp21
 70
     1
102
RTVSPropertyOp22
 70
     1
102
RTVSPropertyOp23
 70
     1
102
RTVSPropertyOp24
 70
     1
102
RTVSPropertyOp25
 70
     1
102
RTVSPropertyOp26
 70
     1
102
RTVSPropertyOp27
 70
     1
102
RTVSPropertyOp28
 70
     1
102
RTVSPropertyOp29
 70
     1
102
RTVSPropertyOp30
 70
     1
102
RTVSPropertyOp31
 70
     1
102
RTVSPropertyOp32
 70
     1
  0
XRECORD
  5
1360
102
{ACAD_REACTORS
330
135F
102
}
330
135F
100
AcDbXrecord
280
     1
102
RTVSPropertyOp0
 70
     1
102
RTVSPropertyOp1
 70
     1
102
RTVSPropertyOp2
 70
     1
102
RTVSPropertyOp3
 70
     1
102
RTVSPropertyOp4
 70
     1
102
RTVSPropertyOp5
 70
     1
102
RTVSPropertyOp6
 70
     1
102
RTVSPropertyOp7
 70
     1
102
RTVSPropertyOp8
 70
     1
102
RTVSPropertyOp9
 70
     1
102
RTVSPropertyOp10
 70
     1
102
RTVSPropertyOp11
 70
     1
102
RTVSPropertyOp12
 70
     1
102
RTVSPropertyOp13
 70
     1
102
RTVSPropertyOp14
 70
     1
102
RTVSPropertyOp15
 70
     1
102
RTVSPropertyOp16
 70
     1
102
RTVSPropertyOp17
 70
     1
102
RTVSPropertyOp18
 70
     1
102
RTVSPropertyOp19
 70
     1
102
RTVSPropertyOp20
 70
     1
102
RTVSPropertyOp21
 70
     1
102
RTVSPropertyOp22
 70
     1
102
RTVSPropertyOp23
 70
     1
102
RTVSPropertyOp24
 70
     1
102
RTVSPropertyOp25
 70
     1
102
RTVSPropertyOp26
 70
     1
102
RTVSPropertyOp27
 70
     1
102
RTVSPropertyOp28
 70
     1
102
RTVSPropertyOp29
 70
     1
102
RTVSPropertyOp30
 70
     1
102
RTVSPropertyOp31
 70
     1
102
RTVSPropertyOp32
 70
     1
  0
XRECORD
  5
1368
102
{ACAD_REACTORS
330
1367
102
}
330
1367
100
AcDbXrecord
280
     1
102
RTVSPropertyOp0
 70
     1
102
RTVSPropertyOp1
 70
     1
102
RTVSPropertyOp2
 70
     1
102
RTVSPropertyOp3
 70
     1
102
RTVSPropertyOp4
 70
     1
102
RTVSPropertyOp5
 70
     1
102
RTVSPropertyOp6
 70
     1
102
RTVSPropertyOp7
 70
     1
102
RTVSPropertyOp8
 70
     1
102
RTVSPropertyOp9
 70
     1
102
RTVSPropertyOp10
 70
     1
102
RTVSPropertyOp11
 70
     1
102
RTVSPropertyOp12
 70
     1
102
RTVSPropertyOp13
 70
     1
102
RTVSPropertyOp14
 70
     1
102
RTVSPropertyOp15
 70
     1
102
RTVSPropertyOp16
 70
     1
102
RTVSPropertyOp17
 70
     1
102
RTVSPropertyOp18
 70
     1
102
RTVSPropertyOp19
 70
     1
102
RTVSPropertyOp20
 70
     1
102
RTVSPropertyOp21
 70
     1
102
RTVSPropertyOp22
 70
     1
102
RTVSPropertyOp23
 70
     1
102
RTVSPropertyOp24
 70
     1
102
RTVSPropertyOp25
 70
     1
102
RTVSPropertyOp26
 70
     1
102
RTVSPropertyOp27
 70
     1
102
RTVSPropertyOp28
 70
     1
102
RTVSPropertyOp29
 70
     1
102
RTVSPropertyOp30
 70
     1
102
RTVSPropertyOp31
 70
     1
102
RTVSPropertyOp32
 70
     1
  0
XRECORD
  5
1370
102
{ACAD_REACTORS
330
136F
102
}
330
136F
100
AcDbXrecord
280
     1
102
RTVSPropertyOp0
 70
     1
102
RTVSPropertyOp1
 70
     1
102
RTVSPropertyOp2
 70
     1
102
RTVSPropertyOp3
 70
     1
102
RTVSPropertyOp4
 70
     1
102
RTVSPropertyOp5
 70
     1
102
RTVSPropertyOp6
 70
     1
102
RTVSPropertyOp7
 70
     1
102
RTVSPropertyOp8
 70
     1
102
RTVSPropertyOp9
 70
     1
102
RTVSPropertyOp10
 70
     1
102
RTVSPropertyOp11
 70
     1
102
RTVSPropertyOp12
 70
     1
102
RTVSPropertyOp13
 70
     1
102
RTVSPropertyOp14
 70
     1
102
RTVSPropertyOp15
 70
     1
102
RTVSPropertyOp16
 70
     1
102
RTVSPropertyOp17
 70
     1
102
RTVSPropertyOp18
 70
     1
102
RTVSPropertyOp19
 70
     1
102
RTVSPropertyOp20
 70
     1
102
RTVSPropertyOp21
 70
     1
102
RTVSPropertyOp22
 70
     1
102
RTVSPropertyOp23
 70
     1
102
RTVSPropertyOp24
 70
     1
102
RTVSPropertyOp25
 70
     1
102
RTVSPropertyOp26
 70
     1
102
RTVSPropertyOp27
 70
     1
102
RTVSPropertyOp28
 70
     1
102
RTVSPropertyOp29
 70
     1
102
RTVSPropertyOp30
 70
     1
102
RTVSPropertyOp31
 70
     1
102
RTVSPropertyOp32
 70
     1
  0
ENDSEC
  0
EOF
