  0
SECTION
  2
HEADER
  9
$ACADVER
  1
AC1015
  9
$ACADMAINTVER
 70
    20
  9
$DWGCODEPAGE
  3
ANSI_932
  9
$INSBASE
 10
0.0
 20
0.0
 30
0.0
  9
$EXTMIN
 10
40.65175006539272
 20
14.01381023329941
 30
0.0
  9
$EXTMAX
 10
445.6517500653927
 20
293.7890761332994
 30
0.0
  9
$LIMMIN
 10
0.0
 20
0.0
  9
$LIMMAX
 10
12.0
 20
9.0
  9
$ORTHOMODE
 70
     1
  9
$REGENMODE
 70
     1
  9
$FILLMODE
 70
     1
  9
$QTEXTMODE
 70
     0
  9
$MIRRTEXT
 70
     0
  9
$LTSCALE
 40
1.0
  9
$ATTMODE
 70
     1
  9
$TEXTSIZE
 40
3.2
  9
$TRACEWID
 40
0.05
  9
$TEXTSTYLE
  7
高3.2
  9
$CLAYER
  8
0
  9
$CELTYPE
  6
ByLayer
  9
$CECOLOR
 62
   256
  9
$CELTSCALE
 40
1.0
  9
$DISPSILH
 70
     0
  9
$DIMSCALE
 40
1.0
  9
$DIMASZ
 40
2.5
  9
$DIMEXO
 40
0.25
  9
$DIMDLI
 40
0.2
  9
$DIMRND
 40
0.0
  9
$DIMDLE
 40
0.0
  9
$DIMEXE
 40
1.25
  9
$DIMTP
 40
0.0
  9
$DIMTM
 40
0.0
  9
$DIMTXT
 40
3.0
  9
$DIMCEN
 40
0.0
  9
$DIMTSZ
 40
0.0
  9
$DIMTOL
 70
     0
  9
$DIMLIM
 70
     0
  9
$DIMTIH
 70
     0
  9
$DIMTOH
 70
     0
  9
$DIMSE1
 70
     0
  9
$DIMSE2
 70
     0
  9
$DIMTAD
 70
     3
  9
$DIMZIN
 70
     8
  9
$DIMBLK
  1
Open30
  9
$DIMASO
 70
     1
  9
$DIMSHO
 70
     1
  9
$DIMPOST
  1

  9
$DIMAPOST
  1

  9
$DIMALT
 70
     0
  9
$DIMALTD
 70
     3
  9
$DIMALTF
 40
0.03937007874016
  9
$DIMLFAC
 40
1.0
  9
$DIMTOFL
 70
     1
  9
$DIMTVP
 40
0.0
  9
$DIMTIX
 70
     0
  9
$DIMSOXD
 70
     0
  9
$DIMSAH
 70
     0
  9
$DIMBLK1
  1

  9
$DIMBLK2
  1

  9
$DIMSTYLE
  2
1：1
  9
$DIMCLRD
 70
     0
  9
$DIMCLRE
 70
     0
  9
$DIMCLRT
 70
     4
  9
$DIMTFAC
 40
1.0
  9
$DIMGAP
 40
0.625
  9
$DIMJUST
 70
     0
  9
$DIMSD1
 70
     0
  9
$DIMSD2
 70
     0
  9
$DIMTOLJ
 70
     0
  9
$DIMTZIN
 70
     8
  9
$DIMALTZ
 70
     0
  9
$DIMALTTZ
 70
     0
  9
$DIMUPT
 70
     1
  9
$DIMDEC
 70
     2
  9
$DIMTDEC
 70
     2
  9
$DIMALTU
 70
     2
  9
$DIMALTTD
 70
     3
  9
$DIMTXSTY
  7
Standard
  9
$DIMAUNIT
 70
     0
  9
$DIMADEC
 70
     1
  9
$DIMALTRND
 40
0.0
  9
$DIMAZIN
 70
     2
  9
$DIMDSEP
 70
    46
  9
$DIMATFIT
 70
     0
  9
$DIMFRAC
 70
     0
  9
$DIMLDRBLK
  1
Open30
  9
$DIMLUNIT
 70
     2
  9
$DIMLWD
 70
    -2
  9
$DIMLWE
 70
    -2
  9
$DIMTMOVE
 70
     0
  9
$LUNITS
 70
     2
  9
$LUPREC
 70
     4
  9
$SKETCHINC
 40
0.1
  9
$FILLETRAD
 40
0.0
  9
$AUNITS
 70
     0
  9
$AUPREC
 70
     0
  9
$MENU
  1
.
  9
$ELEVATION
 40
0.0
  9
$PELEVATION
 40
0.0
  9
$THICKNESS
 40
0.0
  9
$LIMCHECK
 70
     0
  9
$CHAMFERA
 40
0.0
  9
$CHAMFERB
 40
0.0
  9
$CHAMFERC
 40
0.0
  9
$CHAMFERD
 40
0.0
  9
$SKPOLY
 70
     0
  9
$TDCREATE
 40
2456367.846280035
  9
$TDUCREATE
 40
2456367.471280035
  9
$TDUPDATE
 40
2459531.707789780
  9
$TDUUPDATE
 40
2459531.332789780
  9
$TDINDWG
 40
0.0146525231
  9
$TDUSRTIMER
 40
0.0146518634
  9
$USRTIMER
 70
     1
  9
$ANGBASE
 50
0.0
  9
$ANGDIR
 70
     0
  9
$PDMODE
 70
     0
  9
$PDSIZE
 40
0.0
  9
$PLINEWID
 40
0.0
  9
$SPLFRAME
 70
     0
  9
$SPLINETYPE
 70
     6
  9
$SPLINESEGS
 70
     8
  9
$HANDSEED
  5
1CA5
  9
$SURFTAB1
 70
     6
  9
$SURFTAB2
 70
     6
  9
$SURFTYPE
 70
     6
  9
$SURFU
 70
     6
  9
$SURFV
 70
     6
  9
$UCSBASE
  2

  9
$UCSNAME
  2

  9
$UCSORG
 10
0.0
 20
0.0
 30
0.0
  9
$UCSXDIR
 10
1.0
 20
0.0
 30
0.0
  9
$UCSYDIR
 10
0.0
 20
1.0
 30
0.0
  9
$UCSORTHOREF
  2

  9
$UCSORTHOVIEW
 70
     0
  9
$UCSORGTOP
 10
0.0
 20
0.0
 30
0.0
  9
$UCSORGBOTTOM
 10
0.0
 20
0.0
 30
0.0
  9
$UCSORGLEFT
 10
0.0
 20
0.0
 30
0.0
  9
$UCSORGRIGHT
 10
0.0
 20
0.0
 30
0.0
  9
$UCSORGFRONT
 10
0.0
 20
0.0
 30
0.0
  9
$UCSORGBACK
 10
0.0
 20
0.0
 30
0.0
  9
$PUCSBASE
  2

  9
$PUCSNAME
  2

  9
$PUCSORG
 10
0.0
 20
0.0
 30
0.0
  9
$PUCSXDIR
 10
1.0
 20
0.0
 30
0.0
  9
$PUCSYDIR
 10
0.0
 20
1.0
 30
0.0
  9
$PUCSORTHOREF
  2

  9
$PUCSORTHOVIEW
 70
     0
  9
$PUCSORGTOP
 10
0.0
 20
0.0
 30
0.0
  9
$PUCSORGBOTTOM
 10
0.0
 20
0.0
 30
0.0
  9
$PUCSORGLEFT
 10
0.0
 20
0.0
 30
0.0
  9
$PUCSORGRIGHT
 10
0.0
 20
0.0
 30
0.0
  9
$PUCSORGFRONT
 10
0.0
 20
0.0
 30
0.0
  9
$PUCSORGBACK
 10
0.0
 20
0.0
 30
0.0
  9
$USERI1
 70
     0
  9
$USERI2
 70
     0
  9
$USERI3
 70
     0
  9
$USERI4
 70
     0
  9
$USERI5
 70
     0
  9
$USERR1
 40
0.0
  9
$USERR2
 40
0.0
  9
$USERR3
 40
0.0
  9
$USERR4
 40
0.0
  9
$USERR5
 40
0.0
  9
$WORLDVIEW
 70
     1
  9
$SHADEDGE
 70
     3
  9
$SHADEDIF
 70
    70
  9
$TILEMODE
 70
     1
  9
$MAXACTVP
 70
    64
  9
$PINSBASE
 10
0.0
 20
0.0
 30
0.0
  9
$PLIMCHECK
 70
     0
  9
$PEXTMIN
 10
0.0
 20
0.0
 30
0.0
  9
$PEXTMAX
 10
0.0
 20
0.0
 30
0.0
  9
$PLIMMIN
 10
0.0
 20
0.0
  9
$PLIMMAX
 10
12.0
 20
9.0
  9
$UNITMODE
 70
     0
  9
$VISRETAIN
 70
     1
  9
$PLINEGEN
 70
     0
  9
$PSLTSCALE
 70
     1
  9
$TREEDEPTH
 70
  3020
  9
$CMLSTYLE
  2
Standard
  9
$CMLJUST
 70
     0
  9
$CMLSCALE
 40
1.0
  9
$PROXYGRAPHICS
 70
     1
  9
$MEASUREMENT
 70
     1
  9
$CELWEIGHT
370
    -1
  9
$ENDCAPS
280
     0
  9
$JOINSTYLE
280
     0
  9
$LWDISPLAY
290
     0
  9
$INSUNITS
 70
     1
  9
$HYPERLINKBASE
  1

  9
$STYLESHEET
  1

  9
$XEDIT
290
     1
  9
$CEPSNTYPE
380
     0
  9
$PSTYLEMODE
290
     1
  9
$FINGERPRINTGUID
  2
{33F0D87C-BF9D-43D7-A321-46E08CD2AF95}
  9
$VERSIONGUID
  2
{88C4DBCE-65B1-473B-B411-DDC60AD7B678}
  9
$EXTNAMES
290
     1
  9
$PSVPSCALE
 40
0.0
  9
$OLESTARTUP
290
     0
  0
ENDSEC
  0
SECTION
  2
CLASSES
  0
CLASS
  1
ACDBDICTIONARYWDFLT
  2
AcDbDictionaryWithDefault
  3
ObjectDBX Classes
 90
        0
280
     0
281
     0
  0
CLASS
  1
ACDBPLACEHOLDER
  2
AcDbPlaceHolder
  3
ObjectDBX Classes
 90
        0
280
     0
281
     0
  0
CLASS
  1
LAYOUT
  2
AcDbLayout
  3
ObjectDBX Classes
 90
        0
280
     0
281
     0
  0
CLASS
  1
DICTIONARYVAR
  2
AcDbDictionaryVar
  3
ObjectDBX Classes
 90
        0
280
     0
281
     0
  0
CLASS
  1
TABLESTYLE
  2
AcDbTableStyle
  3
ObjectDBX Classes
 90
     4095
280
     0
281
     0
  0
CLASS
  1
MATERIAL
  2
AcDbMaterial
  3
ObjectDBX Classes
 90
     1153
280
     0
281
     0
  0
CLASS
  1
VISUALSTYLE
  2
AcDbVisualStyle
  3
ObjectDBX Classes
 90
     4095
280
     0
281
     0
  0
CLASS
  1
SORTENTSTABLE
  2
AcDbSortentsTable
  3
ObjectDBX Classes
 90
        0
280
     0
281
     0
  0
CLASS
  1
DIMASSOC
  2
AcDbDimAssoc
  3
"AcDbDimAssoc|Product Desc:     AcDim ARX App For Dimension|Company:          Autodesk, Inc.|WEB Address:      www.autodesk.com"
 90
        0
280
     0
281
     0
  0
CLASS
  1
SCALE
  2
AcDbScale
  3
ObjectDBX Classes
 90
     1153
280
     0
281
     0
  0
CLASS
  1
MLEADERSTYLE
  2
AcDbMLeaderStyle
  3
ACDB_MLEADERSTYLE_CLASS
 90
     4095
280
     0
281
     0
  0
CLASS
  1
CELLSTYLEMAP
  2
AcDbCellStyleMap
  3
ObjectDBX Classes
 90
     1152
280
     0
281
     0
  0
ENDSEC
  0
SECTION
  2
TABLES
  0
TABLE
  2
VPORT
  5
8
330
0
100
AcDbSymbolTable
 70
     1
  0
VPORT
  5
94
330
8
100
AcDbSymbolTableRecord
100
AcDbViewportTableRecord
  2
*Active
 70
     0
 10
0.0
 20
0.0
 11
1.0
 21
1.0
 12
441.5075815930372
 22
142.020095341597
 13
0.0
 23
0.0
 14
0.5
 24
0.5
 15
0.5
 25
0.5
 16
0.0
 26
0.0
 36
1.0
 17
0.0
 27
0.0
 37
0.0
 40
655.1500050992264
 41
1.722560975609756
 42
50.0
 43
0.0
 44
0.0
 50
0.0
 51
0.0
 71
     0
 72
  1000
 73
     1
 74
     2
 75
     0
 76
     0
 77
     0
 78
     0
281
     0
 65
     1
110
0.0
120
0.0
130
0.0
111
1.0
121
0.0
131
0.0
112
0.0
122
1.0
132
0.0
 79
     0
146
0.0
  0
ENDTAB
  0
TABLE
  2
LTYPE
  5
5
330
0
100
AcDbSymbolTable
 70
     4
  0
LTYPE
  5
14
330
5
100
AcDbSymbolTableRecord
100
AcDbLinetypeTableRecord
  2
ByBlock
 70
     0
  3

 72
    65
 73
     0
 40
0.0
  0
LTYPE
  5
15
330
5
100
AcDbSymbolTableRecord
100
AcDbLinetypeTableRecord
  2
ByLayer
 70
     0
  3

 72
    65
 73
     0
 40
0.0
  0
LTYPE
  5
16
330
5
100
AcDbSymbolTableRecord
100
AcDbLinetypeTableRecord
  2
Continuous
 70
     0
  3
Solid line
 72
    65
 73
     0
 40
0.0
  0
LTYPE
  5
148
330
5
100
AcDbSymbolTableRecord
100
AcDbLinetypeTableRecord
  2
CENTER
 70
     0
  3
Center ____ _ ____ _ ____ _ ____ _ ____ _ ____
 72
    65
 73
     4
 40
50.8
 49
31.75
 74
     0
 49
-6.349999999999997
 74
     0
 49
6.349999999999997
 74
     0
 49
-6.349999999999997
 74
     0
  0
LTYPE
  5
149
330
5
100
AcDbSymbolTableRecord
100
AcDbLinetypeTableRecord
  2
HIDDEN
 70
     0
  3
Hidden __ __ __ __ __ __ __ __ __ __ __ __ __ __
 72
    65
 73
     2
 40
9.524999999999996
 49
6.349999999999997
 74
     0
 49
-3.174999999999998
 74
     0
  0
ENDTAB
  0
TABLE
  2
LAYER
  5
2
102
{ACAD_XDICTIONARY
360
DD
102
}
330
0
100
AcDbSymbolTable
 70
     2
  0
LAYER
  5
10
102
{ACAD_XDICTIONARY
360
97D
102
}
330
2
100
AcDbSymbolTableRecord
100
AcDbLayerTableRecord
  2
0
 70
     0
 62
     7
  6
Continuous
370
    -3
390
F
  0
LAYER
  5
D8
330
2
100
AcDbSymbolTableRecord
100
AcDbLayerTableRecord
  2
Defpoints
 70
     0
 62
     7
  6
Continuous
290
     0
370
    -3
390
F
  0
ENDTAB
  0
TABLE
  2
STYLE
  5
3
330
0
100
AcDbSymbolTable
 70
     6
  0
STYLE
  5
11
330
3
100
AcDbSymbolTableRecord
100
AcDbTextStyleTableRecord
  2
Standard
 70
     0
 40
0.0
 41
1.0
 50
0.0
 71
     0
 42
0.2
  3
txt.shx
  4
bigfont.shx
  0
STYLE
  5
11D
330
3
100
AcDbSymbolTableRecord
100
AcDbTextStyleTableRecord
  2
高3.2
 70
     0
 40
3.2
 41
1.0
 50
0.0
 71
     0
 42
3.2
  3
txt.shx
  4
bigfont.shx
  0
STYLE
  5
11E
330
3
100
AcDbSymbolTableRecord
100
AcDbTextStyleTableRecord
  2
高6.3
 70
     0
 40
6.299999999999998
 41
1.0
 50
0.0
 71
     0
 42
6.299999999999998
  3
txt.shx
  4
bigfont.shx
  0
STYLE
  5
11F
330
3
100
AcDbSymbolTableRecord
100
AcDbTextStyleTableRecord
  2
高2.5
 70
     0
 40
2.5
 41
1.0
 50
0.0
 71
     0
 42
0.2
  3
txt.shx
  4
bigfont.shx
  0
STYLE
  5
146
330
3
100
AcDbSymbolTableRecord
100
AcDbTextStyleTableRecord
  2
高4.5
 70
     0
 40
4.5
 41
1.0
 50
0.0
 71
     0
 42
6.299999999999998
  3
txt.shx
  4
bigfont.shx
  0
STYLE
  5
2FD
330
3
100
AcDbSymbolTableRecord
100
AcDbTextStyleTableRecord
  2
高2
 70
     0
 40
2.0
 41
1.0
 50
0.0
 71
     0
 42
6.299999999999998
  3
txt.shx
  4
bigfont.shx
  0
ENDTAB
  0
TABLE
  2
VIEW
  5
6
330
0
100
AcDbSymbolTable
 70
     0
  0
ENDTAB
  0
TABLE
  2
UCS
  5
7
330
0
100
AcDbSymbolTable
 70
     0
  0
ENDTAB
  0
TABLE
  2
APPID
  5
9
330
0
100
AcDbSymbolTable
 70
     9
  0
APPID
  5
12
330
9
100
AcDbSymbolTableRecord
100
AcDbRegAppTableRecord
  2
ACAD
 70
     0
  0
APPID
  5
DC
330
9
100
AcDbSymbolTableRecord
100
AcDbRegAppTableRecord
  2
ACAD_DSTYLE_DIMJOGGED_JOGANGLE_SYMBOL
 70
     0
  0
APPID
  5
2FF
330
9
100
AcDbSymbolTableRecord
100
AcDbRegAppTableRecord
  2
ACAD_DSTYLE_DIMRADIAL_EXTENSION
 70
     0
  0
APPID
  5
300
330
9
100
AcDbSymbolTableRecord
100
AcDbRegAppTableRecord
  2
GradientColor1ACI
 70
     0
  0
APPID
  5
301
330
9
100
AcDbSymbolTableRecord
100
AcDbRegAppTableRecord
  2
GradientColor2ACI
 70
     0
  0
APPID
  5
97B
330
9
100
AcDbSymbolTableRecord
100
AcDbRegAppTableRecord
  2
ACAD_EXEMPT_FROM_CAD_STANDARDS
 70
     0
  0
APPID
  5
9BA
330
9
100
AcDbSymbolTableRecord
100
AcDbRegAppTableRecord
  2
ACAD_DSTYLE_DIMARC_LENGTH_SYMBOL
 70
     0
  0
APPID
  5
9BB
330
9
100
AcDbSymbolTableRecord
100
AcDbRegAppTableRecord
  2
ACAD_DSTYLE_DIMEXT_LENGTH
 70
     0
  0
APPID
  5
9D0
330
9
100
AcDbSymbolTableRecord
100
AcDbRegAppTableRecord
  2
ACAD_MLEADERVER
 70
     0
  0
ENDTAB
  0
TABLE
  2
DIMSTYLE
  5
A
330
0
100
AcDbSymbolTable
 70
     2
100
AcDbDimStyleTable
 71
     1
340
D9
  0
DIMSTYLE
105
D9
330
A
100
AcDbSymbolTableRecord
100
AcDbDimStyleTableRecord
  2
1：1
 70
     0
 41
2.5
 42
0.25
 43
0.2
 44
1.25
 73
     0
 74
     0
 77
     3
 78
     8
 79
     2
140
3.0
141
0.0
143
0.03937007874016
147
0.625
171
     3
172
     1
178
     4
179
     1
271
     2
272
     2
274
     3
283
     0
284
     8
288
     1
289
     0
340
11
341
C6
342
C6
1001
ACAD_DSTYLE_DIMARC_LENGTH_SYMBOL
1070
   379
1070
     2
1001
ACAD_DSTYLE_DIMEXT_LENGTH
1070
   378
1040
1.25
1001
ACAD_DSTYLE_DIMJOGGED_JOGANGLE_SYMBOL
1070
   384
1040
1.570796326794896
  0
DIMSTYLE
105
2FE
330
A
100
AcDbSymbolTableRecord
100
AcDbDimStyleTableRecord
  2
1／4
 70
     0
 41
2.5
 42
0.25
 43
0.2
 44
1.25
 73
     0
 74
     0
 77
     3
 78
     8
 79
     2
140
3.0
141
0.0
143
0.03937007874016
144
4.0
147
0.625
171
     3
172
     1
178
     4
179
     1
271
     2
272
     2
274
     3
283
     0
284
     8
288
     1
289
     0
340
11
341
C6
342
C6
1001
ACAD_DSTYLE_DIMARC_LENGTH_SYMBOL
1070
   379
1070
     2
1001
ACAD_DSTYLE_DIMEXT_LENGTH
1070
   378
1040
1.25
1001
ACAD_DSTYLE_DIMJOGGED_JOGANGLE_SYMBOL
1070
   384
1040
1.570796326794896
  0
ENDTAB
  0
TABLE
  2
BLOCK_RECORD
  5
1
330
0
100
AcDbSymbolTable
 70
    33
  0
BLOCK_RECORD
  5
1F
102
{ACAD_XDICTIONARY
360
1205
102
}
330
1
100
AcDbSymbolTableRecord
100
AcDbBlockTableRecord
  2
*Model_Space
340
22
  0
BLOCK_RECORD
  5
58
330
1
100
AcDbSymbolTableRecord
100
AcDbBlockTableRecord
  2
*Paper_Space
340
59
  0
BLOCK_RECORD
  5
5D
330
1
100
AcDbSymbolTableRecord
100
AcDbBlockTableRecord
  2
*Paper_Space0
340
5E
  0
BLOCK_RECORD
  5
C6
330
1
100
AcDbSymbolTableRecord
100
AcDbBlockTableRecord
  2
_Open30
340
0
102
{BLKREFS
331
18C9
331
18CA
331
18D2
331
18D3
331
18DD
331
18DE
331
18E6
331
18E7
331
18EF
331
18F0
331
18F8
331
18F9
331
1901
331
1902
331
190A
331
190B
331
1913
331
1914
331
191C
331
191D
331
1927
331
1928
331
1930
331
1931
331
1938
331
1939
331
193F
331
1940
331
194A
331
194B
331
1953
331
1954
331
195E
331
195F
331
1967
331
1968
331
1971
331
1972
331
197A
331
197B
331
1983
331
1984
331
198C
331
198D
331
1997
331
1998
331
19A0
331
19A1
331
19AB
331
19AC
331
19B4
331
19B5
331
19BD
331
19BE
331
19C6
331
19C7
331
19D1
331
19D2
331
19DC
331
19DD
102
}
  0
BLOCK_RECORD
  5
2F7
330
1
100
AcDbSymbolTableRecord
100
AcDbBlockTableRecord
  2
_DotSmall
340
0
  0
BLOCK_RECORD
  5
76C
330
1
100
AcDbSymbolTableRecord
100
AcDbBlockTableRecord
  2
*D3
340
0
  0
BLOCK_RECORD
  5
778
330
1
100
AcDbSymbolTableRecord
100
AcDbBlockTableRecord
  2
*D4
340
0
  0
BLOCK_RECORD
  5
784
330
1
100
AcDbSymbolTableRecord
100
AcDbBlockTableRecord
  2
*D5
340
0
  0
BLOCK_RECORD
  5
790
330
1
100
AcDbSymbolTableRecord
100
AcDbBlockTableRecord
  2
*D6
340
0
  0
BLOCK_RECORD
  5
79C
330
1
100
AcDbSymbolTableRecord
100
AcDbBlockTableRecord
  2
*D7
340
0
  0
BLOCK_RECORD
  5
7A8
330
1
100
AcDbSymbolTableRecord
100
AcDbBlockTableRecord
  2
*D8
340
0
  0
BLOCK_RECORD
  5
7B6
330
1
100
AcDbSymbolTableRecord
100
AcDbBlockTableRecord
  2
*D9
340
0
  0
BLOCK_RECORD
  5
7C2
330
1
100
AcDbSymbolTableRecord
100
AcDbBlockTableRecord
  2
*D10
340
0
  0
BLOCK_RECORD
  5
7D0
330
1
100
AcDbSymbolTableRecord
100
AcDbBlockTableRecord
  2
*D11
340
0
  0
BLOCK_RECORD
  5
7DB
330
1
100
AcDbSymbolTableRecord
100
AcDbBlockTableRecord
  2
*D12
340
0
  0
BLOCK_RECORD
  5
7E7
330
1
100
AcDbSymbolTableRecord
100
AcDbBlockTableRecord
  2
*D13
340
0
  0
BLOCK_RECORD
  5
7F5
330
1
100
AcDbSymbolTableRecord
100
AcDbBlockTableRecord
  2
*D14
340
0
  0
BLOCK_RECORD
  5
815
330
1
100
AcDbSymbolTableRecord
100
AcDbBlockTableRecord
  2
*D15
340
0
  0
BLOCK_RECORD
  5
82C
330
1
100
AcDbSymbolTableRecord
100
AcDbBlockTableRecord
  2
*D16
340
0
  0
BLOCK_RECORD
  5
841
330
1
100
AcDbSymbolTableRecord
100
AcDbBlockTableRecord
  2
*D17
340
0
  0
BLOCK_RECORD
  5
856
330
1
100
AcDbSymbolTableRecord
100
AcDbBlockTableRecord
  2
*D18
340
0
  0
BLOCK_RECORD
  5
862
330
1
100
AcDbSymbolTableRecord
100
AcDbBlockTableRecord
  2
*D19
340
0
  0
BLOCK_RECORD
  5
879
330
1
100
AcDbSymbolTableRecord
100
AcDbBlockTableRecord
  2
*D20
340
0
  0
BLOCK_RECORD
  5
884
330
1
100
AcDbSymbolTableRecord
100
AcDbBlockTableRecord
  2
*D21
340
0
  0
BLOCK_RECORD
  5
88F
330
1
100
AcDbSymbolTableRecord
100
AcDbBlockTableRecord
  2
*D22
340
0
  0
BLOCK_RECORD
  5
8AE
330
1
100
AcDbSymbolTableRecord
100
AcDbBlockTableRecord
  2
*D23
340
0
  0
BLOCK_RECORD
  5
8CD
330
1
100
AcDbSymbolTableRecord
100
AcDbBlockTableRecord
  2
*D24
340
0
  0
BLOCK_RECORD
  5
8DB
330
1
100
AcDbSymbolTableRecord
100
AcDbBlockTableRecord
  2
*D25
340
0
  0
BLOCK_RECORD
  5
8E7
330
1
100
AcDbSymbolTableRecord
100
AcDbBlockTableRecord
  2
*D26
340
0
  0
BLOCK_RECORD
  5
8F3
330
1
100
AcDbSymbolTableRecord
100
AcDbBlockTableRecord
  2
*D27
340
0
  0
BLOCK_RECORD
  5
8FF
330
1
100
AcDbSymbolTableRecord
100
AcDbBlockTableRecord
  2
*D28
340
0
  0
BLOCK_RECORD
  5
90D
330
1
100
AcDbSymbolTableRecord
100
AcDbBlockTableRecord
  2
*D29
340
0
  0
BLOCK_RECORD
  5
919
330
1
100
AcDbSymbolTableRecord
100
AcDbBlockTableRecord
  2
*D30
340
0
  0
BLOCK_RECORD
  5
927
330
1
100
AcDbSymbolTableRecord
100
AcDbBlockTableRecord
  2
*D31
340
0
  0
BLOCK_RECORD
  5
933
330
1
100
AcDbSymbolTableRecord
100
AcDbBlockTableRecord
  2
*D32
340
0
  0
ENDTAB
  0
ENDSEC
  0
SECTION
  2
BLOCKS
  0
BLOCK
  5
20
330
1F
100
AcDbEntity
  8
0
100
AcDbBlockBegin
  2
*Model_Space
 70
     0
 10
0.0
 20
0.0
 30
0.0
  3
*Model_Space
  1

  0
ENDBLK
  5
21
330
1F
100
AcDbEntity
  8
0
100
AcDbBlockEnd
  0
BLOCK
  5
5A
330
58
100
AcDbEntity
 67
     1
  8
0
100
AcDbBlockBegin
  2
*Paper_Space
 70
     0
 10
0.0
 20
0.0
 30
0.0
  3
*Paper_Space
  1

  0
ENDBLK
  5
5B
330
58
100
AcDbEntity
 67
     1
  8
0
100
AcDbBlockEnd
  0
BLOCK
  5
5F
330
5D
100
AcDbEntity
 67
     1
  8
0
100
AcDbBlockBegin
  2
*Paper_Space0
 70
     0
 10
0.0
 20
0.0
 30
0.0
  3
*Paper_Space0
  1

  0
ENDBLK
  5
60
330
5D
100
AcDbEntity
 67
     1
  8
0
100
AcDbBlockEnd
  0
BLOCK
  5
C7
330
C6
100
AcDbEntity
  8
0
100
AcDbBlockBegin
  2
_Open30
 70
     0
 10
0.0
 20
0.0
 30
0.0
  3
_Open30
  1

  0
LINE
  5
C8
330
C6
100
AcDbEntity
  8
0
  6
ByBlock
 62
     0
370
    -2
100
AcDbLine
 10
-1.0
 20
0.267949
 30
0.0
 11
0.0
 21
0.0
 31
0.0
  0
LINE
  5
C9
330
C6
100
AcDbEntity
  8
0
  6
ByBlock
 62
     0
370
    -2
100
AcDbLine
 10
0.0
 20
0.0
 30
0.0
 11
-1.0
 21
-0.267949
 31
0.0
  0
LINE
  5
CA
330
C6
100
AcDbEntity
  8
0
  6
ByBlock
 62
     0
370
    -2
100
AcDbLine
 10
0.0
 20
0.0
 30
0.0
 11
-1.0
 21
0.0
 31
0.0
  0
ENDBLK
  5
CB
330
C6
100
AcDbEntity
  8
0
100
AcDbBlockEnd
  0
BLOCK
  5
2F8
330
2F7
100
AcDbEntity
  8
0
100
AcDbBlockBegin
  2
_DotSmall
 70
     0
 10
0.0
 20
0.0
 30
0.0
  3
_DotSmall
  1

  0
LWPOLYLINE
  5
2F9
330
2F7
100
AcDbEntity
  8
0
  6
ByBlock
 62
     0
100
AcDbPolyline
 90
        2
 70
     1
 43
0.5
 10
-0.0625
 20
0.0
 42
1.0
 10
0.0625
 20
0.0
 42
1.0
  0
ENDBLK
  5
2FA
330
2F7
100
AcDbEntity
  8
0
100
AcDbBlockEnd
  0
BLOCK
  5
76D
330
76C
100
AcDbEntity
  8
0
100
AcDbBlockBegin
  2
*D3
 70
     1
 10
0.0
 20
0.0
 30
0.0
  3
*D3
  1

  0
LINE
  5
18C6
330
76C
100
AcDbEntity
  8
0
 62
     0
370
    -2
100
AcDbLine
 10
351.8099283054499
 20
128.6673529265779
 30
0.0
 11
351.8099283054499
 21
147.7636068129242
 31
0.0
  0
LINE
  5
18C7
330
76C
100
AcDbEntity
  8
0
 62
     0
370
    -2
100
AcDbLine
 10
326.8099283054499
 20
128.4923529265778
 30
0.0
 11
326.8099283054499
 21
147.7636068129242
 31
0.0
  0
LINE
  5
18C8
330
76C
100
AcDbEntity
  8
0
 62
     0
370
    -2
100
AcDbLine
 10
349.3099283054499
 20
146.5136068129242
 30
0.0
 11
329.3099283054499
 21
146.5136068129242
 31
0.0
  0
INSERT
  5
18C9
330
76C
100
AcDbEntity
  8
0
 62
     0
370
    -2
100
AcDbBlockReference
  2
_Open30
 10
351.8099283054499
 20
146.5136068129242
 30
0.0
 41
2.5
 42
2.5
 43
2.5
  0
INSERT
  5
18CA
330
76C
100
AcDbEntity
  8
0
 62
     0
370
    -2
100
AcDbBlockReference
  2
_Open30
 10
326.8099283054499
 20
146.5136068129242
 30
0.0
 41
2.5
 42
2.5
 43
2.5
 50
180.0
  0
MTEXT
  5
18CB
330
76C
100
AcDbEntity
  8
0
 62
     4
100
AcDbMText
 10
339.1356313760307
 20
148.6386068129242
 30
0.0
 40
3.0
 41
0.0
 71
     5
 72
     1
  1
100
 73
     1
 44
1.0
1001
ACAD
1000
MTEXTBEGIN
1070
    73
1070
     1
1070
    44
1040
1.0
1070
    74
1070
     0
1000
MTEXTEND
  0
POINT
  5
18CC
330
76C
100
AcDbEntity
  8
Defpoints
 62
     0
100
AcDbPoint
 10
351.8099283054499
 20
128.4173529265779
 30
0.0
  0
POINT
  5
18CD
330
76C
100
AcDbEntity
  8
Defpoints
 62
     0
100
AcDbPoint
 10
326.8099283054499
 20
128.2423529265778
 30
0.0
  0
POINT
  5
18CE
330
76C
100
AcDbEntity
  8
Defpoints
 62
     0
100
AcDbPoint
 10
326.8099283054499
 20
146.5136068129242
 30
0.0
  0
ENDBLK
  5
76E
330
76C
100
AcDbEntity
  8
0
100
AcDbBlockEnd
  0
BLOCK
  5
779
330
778
100
AcDbEntity
  8
0
100
AcDbBlockBegin
  2
*D4
 70
     1
 10
0.0
 20
0.0
 30
0.0
  3
*D4
  1

  0
LINE
  5
18CF
330
778
100
AcDbEntity
  8
0
 62
     0
370
    -2
100
AcDbLine
 10
326.857630554294
 20
128.4877597224397
 30
0.0
 11
329.0658242514151
 21
139.8479314750044
 31
0.0
  0
LINE
  5
18D0
330
778
100
AcDbEntity
  8
0
 62
     0
370
    -2
100
AcDbLine
 10
130.5321938647612
 20
166.6495587977488
 30
0.0
 11
132.7403875618823
 21
178.0097305503134
 31
0.0
  0
LINE
  5
18D1
330
778
100
AcDbEntity
  8
0
 62
     0
370
    -2
100
AcDbLine
 10
326.3732450485753
 20
139.0979199841362
 30
0.0
 11
134.9559442762808
 21
176.3056740825625
 31
0.0
  0
INSERT
  5
18D2
330
778
100
AcDbEntity
  8
0
 62
     0
370
    -2
100
AcDbBlockReference
  2
_Open30
 10
328.8273130071944
 20
138.6208974956948
 30
0.0
 41
2.5
 42
2.5
 43
2.5
 50
348.9999999999999
  0
INSERT
  5
18D3
330
778
100
AcDbEntity
  8
0
 62
     0
370
    -2
100
AcDbBlockReference
  2
_Open30
 10
132.5018763176616
 20
176.7826965710038
 30
0.0
 41
2.5
 42
2.5
 43
2.5
 50
168.9999999999999
  0
MTEXT
  5
18D4
330
778
100
AcDbEntity
  8
0
 62
     4
100
AcDbMText
 10
234.4661837922598
 20
159.1276159398578
 30
0.0
 40
3.0
 41
0.0
 71
     5
 72
     1
  1
800
 11
0.9816271834476639
 21
-0.1908089953765453
 31
0.0
 73
     1
 44
1.0
1001
ACAD
1000
MTEXTBEGIN
1070
    73
1070
     1
1070
    44
1040
1.0
1070
    74
1070
     0
1000
MTEXTEND
  0
POINT
  5
18D5
330
778
100
AcDbEntity
  8
Defpoints
 62
     0
100
AcDbPoint
 10
326.8099283054499
 20
128.2423529265777
 30
0.0
  0
POINT
  5
18D6
330
778
100
AcDbEntity
  8
Defpoints
 62
     0
100
AcDbPoint
 10
130.4844916159171
 20
166.4041520018868
 30
0.0
  0
POINT
  5
18D7
330
778
100
AcDbEntity
  8
Defpoints
 62
     0
100
AcDbPoint
 10
132.5018763176616
 20
176.7826965710038
 30
0.0
  0
ENDBLK
  5
77A
330
778
100
AcDbEntity
  8
0
100
AcDbBlockEnd
  0
BLOCK
  5
785
330
784
100
AcDbEntity
  8
0
100
AcDbBlockBegin
  2
*D5
 70
     1
 10
0.0
 20
0.0
 30
0.0
  3
*D5
  1

  0
LINE
  5
18E3
330
784
100
AcDbEntity
  8
0
 62
     0
370
    -2
100
AcDbLine
 10
345.5599283054499
 20
196.1209457048565
 30
0.0
 11
345.5599283054499
 21
183.0188805999488
 31
0.0
  0
LINE
  5
18E4
330
784
100
AcDbEntity
  8
0
 62
     0
370
    -2
100
AcDbLine
 10
326.8099283054499
 20
196.1209457048565
 30
0.0
 11
326.8099283054499
 21
183.0188805999488
 31
0.0
  0
LINE
  5
18E5
330
784
100
AcDbEntity
  8
0
 62
     0
370
    -2
100
AcDbLine
 10
343.0599283054499
 20
184.2688805999488
 30
0.0
 11
329.3099283054499
 21
184.2688805999488
 31
0.0
  0
INSERT
  5
18E6
330
784
100
AcDbEntity
  8
0
 62
     0
370
    -2
100
AcDbBlockReference
  2
_Open30
 10
345.5599283054499
 20
184.2688805999488
 30
0.0
 41
2.5
 42
2.5
 43
2.5
  0
INSERT
  5
18E7
330
784
100
AcDbEntity
  8
0
 62
     0
370
    -2
100
AcDbBlockReference
  2
_Open30
 10
326.8099283054499
 20
184.2688805999488
 30
0.0
 41
2.5
 42
2.5
 43
2.5
 50
180.0
  0
MTEXT
  5
18E8
330
784
100
AcDbEntity
  8
0
 62
     4
100
AcDbMText
 10
336.7524737694094
 20
186.3938805999488
 30
0.0
 40
3.0
 41
0.0
 71
     5
 72
     1
  1
75
 73
     1
 44
1.0
1001
ACAD
1000
MTEXTBEGIN
1070
    73
1070
     1
1070
    44
1040
1.0
1070
    74
1070
     0
1000
MTEXTEND
  0
POINT
  5
18E9
330
784
100
AcDbEntity
  8
Defpoints
 62
     0
100
AcDbPoint
 10
345.5599283054499
 20
196.3709457048565
 30
0.0
  0
POINT
  5
18EA
330
784
100
AcDbEntity
  8
Defpoints
 62
     0
100
AcDbPoint
 10
326.8099283054499
 20
196.3709457048565
 30
0.0
  0
POINT
  5
18EB
330
784
100
AcDbEntity
  8
Defpoints
 62
     0
100
AcDbPoint
 10
326.8099283054499
 20
184.2688805999488
 30
0.0
  0
ENDBLK
  5
786
330
784
100
AcDbEntity
  8
0
100
AcDbBlockEnd
  0
BLOCK
  5
791
330
790
100
AcDbEntity
  8
0
100
AcDbBlockBegin
  2
*D6
 70
     1
 10
0.0
 20
0.0
 30
0.0
  3
*D6
  1

  0
LINE
  5
18F5
330
790
100
AcDbEntity
  8
0
 62
     0
370
    -2
100
AcDbLine
 10
342.3099283054499
 20
236.3709457048566
 30
0.0
 11
363.5810763824695
 21
236.3709457048566
 31
0.0
  0
LINE
  5
18F6
330
790
100
AcDbEntity
  8
0
 62
     0
370
    -2
100
AcDbLine
 10
342.3099283054499
 20
225.1209457048566
 30
0.0
 11
363.5810763824695
 21
225.1209457048566
 31
0.0
  0
LINE
  5
18F7
330
790
100
AcDbEntity
  8
0
 62
     0
370
    -2
100
AcDbLine
 10
362.3310763824695
 20
233.8709457048566
 30
0.0
 11
362.3310763824695
 21
227.6209457048566
 31
0.0
  0
INSERT
  5
18F8
330
790
100
AcDbEntity
  8
0
 62
     0
370
    -2
100
AcDbBlockReference
  2
_Open30
 10
362.3310763824695
 20
236.3709457048566
 30
0.0
 41
2.5
 42
2.5
 43
2.5
 50
90.0
  0
INSERT
  5
18F9
330
790
100
AcDbEntity
  8
0
 62
     0
370
    -2
100
AcDbBlockReference
  2
_Open30
 10
362.3310763824695
 20
225.1209457048566
 30
0.0
 41
2.5
 42
2.5
 43
2.5
 50
270.0
  0
MTEXT
  5
18FA
330
790
100
AcDbEntity
  8
0
 62
     4
100
AcDbMText
 10
360.2060763824694
 20
230.5988763723527
 30
0.0
 40
3.0
 41
0.0
 71
     5
 72
     1
  1
45
 11
0.0000000000000001
 21
1.0
 31
0.0
 73
     1
 44
1.0
1001
ACAD
1000
MTEXTBEGIN
1070
    73
1070
     1
1070
    44
1040
1.0
1070
    74
1070
     0
1000
MTEXTEND
  0
POINT
  5
18FB
330
790
100
AcDbEntity
  8
Defpoints
 62
     0
100
AcDbPoint
 10
342.0599283054499
 20
236.3709457048566
 30
0.0
  0
POINT
  5
18FC
330
790
100
AcDbEntity
  8
Defpoints
 62
     0
100
AcDbPoint
 10
342.0599283054499
 20
225.1209457048566
 30
0.0
  0
POINT
  5
18FD
330
790
100
AcDbEntity
  8
Defpoints
 62
     0
100
AcDbPoint
 10
362.3310763824695
 20
225.1209457048566
 30
0.0
  0
ENDBLK
  5
792
330
790
100
AcDbEntity
  8
0
100
AcDbBlockEnd
  0
BLOCK
  5
79D
330
79C
100
AcDbEntity
  8
0
100
AcDbBlockBegin
  2
*D7
 70
     1
 10
0.0
 20
0.0
 30
0.0
  3
*D7
  1

  0
LINE
  5
1907
330
79C
100
AcDbEntity
  8
0
 62
     0
370
    -2
100
AcDbLine
 10
341.8099283054499
 20
197.1209457048565
 30
0.0
 11
341.8099283054499
 21
188.7600639016483
 31
0.0
  0
LINE
  5
1908
330
79C
100
AcDbEntity
  8
0
 62
     0
370
    -2
100
AcDbLine
 10
330.5599283054499
 20
197.1209457048565
 30
0.0
 11
330.5599283054499
 21
188.7600639016483
 31
0.0
  0
LINE
  5
1909
330
79C
100
AcDbEntity
  8
0
 62
     0
370
    -2
100
AcDbLine
 10
339.3099283054499
 20
190.0100639016483
 30
0.0
 11
333.0599283054499
 21
190.0100639016483
 31
0.0
  0
INSERT
  5
190A
330
79C
100
AcDbEntity
  8
0
 62
     0
370
    -2
100
AcDbBlockReference
  2
_Open30
 10
341.8099283054499
 20
190.0100639016483
 30
0.0
 41
2.5
 42
2.5
 43
2.5
  0
INSERT
  5
190B
330
79C
100
AcDbEntity
  8
0
 62
     0
370
    -2
100
AcDbBlockReference
  2
_Open30
 10
330.5599283054499
 20
190.0100639016483
 30
0.0
 41
2.5
 42
2.5
 43
2.5
 50
180.0
  0
MTEXT
  5
190C
330
79C
100
AcDbEntity
  8
0
 62
     4
100
AcDbMText
 10
335.7588922450028
 20
192.1350639016483
 30
0.0
 40
3.0
 41
0.0
 71
     5
 72
     1
  1
45
 73
     1
 44
1.0
1001
ACAD
1000
MTEXTBEGIN
1070
    73
1070
     1
1070
    44
1040
1.0
1070
    74
1070
     0
1000
MTEXTEND
  0
POINT
  5
190D
330
79C
100
AcDbEntity
  8
Defpoints
 62
     0
100
AcDbPoint
 10
341.8099283054499
 20
197.3709457048565
 30
0.0
  0
POINT
  5
190E
330
79C
100
AcDbEntity
  8
Defpoints
 62
     0
100
AcDbPoint
 10
330.5599283054499
 20
197.3709457048565
 30
0.0
  0
POINT
  5
190F
330
79C
100
AcDbEntity
  8
Defpoints
 62
     0
100
AcDbPoint
 10
330.5599283054499
 20
190.0100639016483
 30
0.0
  0
ENDBLK
  5
79E
330
79C
100
AcDbEntity
  8
0
100
AcDbBlockEnd
  0
BLOCK
  5
7A9
330
7A8
100
AcDbEntity
  8
0
100
AcDbBlockBegin
  2
*D8
 70
     1
 10
0.0
 20
0.0
 30
0.0
  3
*D8
  1

  0
LINE
  5
1922
330
7A8
100
AcDbEntity
  8
0
 62
     0
370
    -2
100
AcDbLine
 10
327.8099283054499
 20
121.4423529265779
 30
0.0
 11
297.7196481162613
 21
121.4423529265779
 31
0.0
  0
LINE
  5
1923
330
7A8
100
AcDbEntity
  8
0
 62
     0
370
    -2
100
AcDbLine
 10
327.8099283054499
 20
120.3173529265779
 30
0.0
 11
297.7196481162613
 21
120.3173529265779
 31
0.0
  0
LINE
  5
1924
330
7A8
100
AcDbEntity
  8
0
 62
     0
370
    -2
100
AcDbLine
 10
298.9696481162614
 20
123.9423529265779
 30
0.0
 11
298.9696481162614
 21
126.4423529265779
 31
0.0
  0
LINE
  5
1925
330
7A8
100
AcDbEntity
  8
0
 62
     0
370
    -2
100
AcDbLine
 10
298.9696481162614
 20
117.8173529265779
 30
0.0
 11
298.9696481162614
 21
101.5673529265781
 31
0.0
  0
LINE
  5
1926
330
7A8
100
AcDbEntity
  8
0
 62
     0
370
    -2
100
AcDbLine
 10
298.9696481162614
 20
121.4423529265779
 30
0.0
 11
298.9696481162614
 21
120.3173529265779
 31
0.0
  0
INSERT
  5
1927
330
7A8
100
AcDbEntity
  8
0
 62
     0
370
    -2
100
AcDbBlockReference
  2
_Open30
 10
298.9696481162614
 20
121.4423529265779
 30
0.0
 41
2.5
 42
2.5
 43
2.5
 50
270.0
  0
INSERT
  5
1928
330
7A8
100
AcDbEntity
  8
0
 62
     0
370
    -2
100
AcDbBlockReference
  2
_Open30
 10
298.9696481162614
 20
120.3173529265779
 30
0.0
 41
2.5
 42
2.5
 43
2.5
 50
90.0
  0
MTEXT
  5
1929
330
7A8
100
AcDbEntity
  8
0
 62
     4
100
AcDbMText
 10
296.8446481162613
 20
108.1923529265782
 30
0.0
 40
3.0
 41
0.0
 71
     5
 72
     1
  1
t=4.5
 11
0.0000000000000001
 21
1.0
 31
0.0
 73
     1
 44
1.0
1001
ACAD
1000
MTEXTBEGIN
1070
    73
1070
     1
1070
    44
1040
1.0
1070
    74
1070
     0
1000
MTEXTEND
  0
POINT
  5
192A
330
7A8
100
AcDbEntity
  8
Defpoints
 62
     0
100
AcDbPoint
 10
328.0599283054499
 20
121.4423529265779
 30
0.0
  0
POINT
  5
192B
330
7A8
100
AcDbEntity
  8
Defpoints
 62
     0
100
AcDbPoint
 10
328.0599283054499
 20
120.3173529265779
 30
0.0
  0
POINT
  5
192C
330
7A8
100
AcDbEntity
  8
Defpoints
 62
     0
100
AcDbPoint
 10
298.9696481162614
 20
120.3173529265779
 30
0.0
  0
ENDBLK
  5
7AA
330
7A8
100
AcDbEntity
  8
0
100
AcDbBlockEnd
  0
BLOCK
  5
7B7
330
7B6
100
AcDbEntity
  8
0
100
AcDbBlockBegin
  2
*D9
 70
     1
 10
0.0
 20
0.0
 30
0.0
  3
*D9
  1

  0
LINE
  5
1947
330
7B6
100
AcDbEntity
  8
0
 62
     0
370
    -2
100
AcDbLine
 10
111.0743668477453
 20
123.4195966991495
 30
0.0
 11
102.5038175660702
 21
125.0855427180015
 31
0.0
  0
LINE
  5
1948
330
7B6
100
AcDbEntity
  8
0
 62
     0
370
    -2
100
AcDbLine
 10
106.1133329679554
 20
97.89728992951022
 30
0.0
 11
97.54278368628034
 21
99.5632359483622
 31
0.0
  0
LINE
  5
1949
330
7B6
100
AcDbEntity
  8
0
 62
     0
370
    -2
100
AcDbLine
 10
103.2538290569384
 20
122.3929635151616
 30
0.0
 11
99.24684015403125
 21
101.7787926627607
 31
0.0
  0
INSERT
  5
194A
330
7B6
100
AcDbEntity
  8
0
 62
     0
370
    -2
100
AcDbBlockReference
  2
_Open30
 10
103.7308515453797
 20
124.8470314737808
 30
0.0
 41
2.5
 42
2.5
 43
2.5
 50
79.00000000000059
  0
INSERT
  5
194B
330
7B6
100
AcDbEntity
  8
0
 62
     0
370
    -2
100
AcDbBlockReference
  2
_Open30
 10
98.76981766558991
 20
99.32472470414154
 30
0.0
 41
2.5
 42
2.5
 43
2.5
 50
259.0000000000006
  0
MTEXT
  5
194C
330
7B6
100
AcDbEntity
  8
0
 62
     4
100
AcDbMText
 10
99.16437684065853
 20
112.4913472041361
 30
0.0
 40
3.0
 41
0.0
 71
     5
 72
     1
  1
104
 11
0.190808995376534
 21
0.981627183447666
 31
0.0
 73
     1
 44
1.0
1001
ACAD
1000
MTEXTBEGIN
1070
    73
1070
     1
1070
    44
1040
1.0
1070
    74
1070
     0
1000
MTEXTEND
  0
POINT
  5
194D
330
7B6
100
AcDbEntity
  8
Defpoints
 62
     0
100
AcDbPoint
 10
111.3197736436073
 20
123.3718944503054
 30
0.0
  0
POINT
  5
194E
330
7B6
100
AcDbEntity
  8
Defpoints
 62
     0
100
AcDbPoint
 10
106.3587397638174
 20
97.84958768066609
 30
0.0
  0
POINT
  5
194F
330
7B6
100
AcDbEntity
  8
Defpoints
 62
     0
100
AcDbPoint
 10
98.76981766558991
 20
99.32472470414154
 30
0.0
  0
ENDBLK
  5
7B8
330
7B6
100
AcDbEntity
  8
0
100
AcDbBlockEnd
  0
BLOCK
  5
7C3
330
7C2
100
AcDbEntity
  8
0
100
AcDbBlockBegin
  2
*D10
 70
     1
 10
0.0
 20
0.0
 30
0.0
  3
*D10
  1

  0
LINE
  5
1959
330
7C2
100
AcDbEntity
  8
0
 62
     0
370
    -2
100
AcDbLine
 10
119.209380116114
 20
129.3621041117353
 30
0.0
 11
120.1775777673661
 21
134.3430492267353
 31
0.0
  0
LINE
  5
195A
330
7C2
100
AcDbEntity
  8
0
 62
     0
370
    -2
100
AcDbLine
 10
115.2828713823241
 20
130.1253400932416
 30
0.0
 11
116.2510690335762
 21
135.1062852082416
 31
0.0
  0
LINE
  5
195B
330
7C2
100
AcDbEntity
  8
0
 62
     0
370
    -2
100
AcDbLine
 10
122.3931344817644
 20
132.6389927589842
 30
0.0
 11
124.8472024403836
 21
132.1619702705428
 31
0.0
  0
LINE
  5
195C
330
7C2
100
AcDbEntity
  8
0
 62
     0
370
    -2
100
AcDbLine
 10
113.5584898307363
 20
134.3562737173736
 30
0.0
 11
105.7974999116033
 21
135.8648573370698
 31
0.0
  0
LINE
  5
195D
330
7C2
100
AcDbEntity
  8
0
 62
     0
370
    -2
100
AcDbLine
 10
119.9390665231453
 20
133.1160152474258
 30
0.0
 11
116.0125577893554
 21
133.879251228932
 31
0.0
  0
INSERT
  5
195E
330
7C2
100
AcDbEntity
  8
0
 62
     0
370
    -2
100
AcDbBlockReference
  2
_Open30
 10
119.9390665231453
 20
133.1160152474258
 30
0.0
 41
2.5
 42
2.5
 43
2.5
 50
168.9999999999964
  0
INSERT
  5
195F
330
7C2
100
AcDbEntity
  8
0
 62
     0
370
    -2
100
AcDbBlockReference
  2
_Open30
 10
116.0125577893554
 20
133.879251228932
 30
0.0
 41
2.5
 42
2.5
 43
2.5
 50
348.9999999999965
  0
MTEXT
  5
1960
330
7C2
100
AcDbEntity
  8
0
 62
     4
100
AcDbMText
 10
108.7797403833287
 20
137.4499414890326
 30
0.0
 40
3.0
 41
0.0
 71
     5
 72
     1
  1
16
 11
0.9816271834476522
 21
-0.1908089953766054
 31
0.0
 73
     1
 44
1.0
1001
ACAD
1000
MTEXTBEGIN
1070
    73
1070
     1
1070
    44
1040
1.0
1070
    74
1070
     0
1000
MTEXTEND
  0
POINT
  5
1961
330
7C2
100
AcDbEntity
  8
Defpoints
 62
     0
100
AcDbPoint
 10
119.1616778672699
 20
129.1166973158734
 30
0.0
  0
POINT
  5
1962
330
7C2
100
AcDbEntity
  8
Defpoints
 62
     0
100
AcDbPoint
 10
115.23516913348
 20
129.8799332973797
 30
0.0
  0
POINT
  5
1963
330
7C2
100
AcDbEntity
  8
Defpoints
 62
     0
100
AcDbPoint
 10
116.0125577893554
 20
133.879251228932
 30
0.0
  0
ENDBLK
  5
7C4
330
7C2
100
AcDbEntity
  8
0
100
AcDbBlockEnd
  0
BLOCK
  5
7D1
330
7D0
100
AcDbEntity
  8
0
100
AcDbBlockBegin
  2
*D11
 70
     1
 10
0.0
 20
0.0
 30
0.0
  3
*D11
  1

  0
LINE
  5
1964
330
7D0
100
AcDbEntity
  8
0
 62
     0
370
    -2
100
AcDbLine
 10
115.7796149986977
 20
99.11363476604741
 30
0.0
 11
117.6767118671416
 21
100.7418311521569
 31
0.0
  0
LINE
  5
1965
330
7D0
100
AcDbEntity
  8
0
 62
     0
370
    -2
100
AcDbLine
 10
109.8986147065221
 20
94.06622596910855
 30
0.0
 11
88.67290388137595
 21
75.84911421642553
 31
0.0
  0
LINE
  5
1966
330
7D0
100
AcDbEntity
  8
0
 62
     0
370
    -2
100
AcDbLine
 10
113.8825181302537
 20
97.48543837993789
 30
0.0
 11
111.7957115749661
 21
95.69442235521806
 31
0.0
  0
INSERT
  5
1967
330
7D0
100
AcDbEntity
  8
0
 62
     0
370
    -2
100
AcDbBlockReference
  2
_Open30
 10
113.8825181302537
 20
97.48543837993789
 30
0.0
 41
2.5
 42
2.5
 43
2.5
 50
220.6380689009939
  0
INSERT
  5
1968
330
7D0
100
AcDbEntity
  8
0
 62
     0
370
    -2
100
AcDbBlockReference
  2
_Open30
 10
111.7957115749661
 20
95.69442235521806
 30
0.0
 41
2.5
 42
2.5
 43
2.5
 50
40.63806890099399
  0
MTEXT
  5
1969
102
{ACAD_XDICTIONARY
360
1CA3
102
}
330
7D0
100
AcDbEntity
  8
0
 62
     4
100
AcDbMText
 10
93.75803727457673
 20
83.01379623123642
 30
0.0
 40
3.0
 41
0.0
 71
     5
 72
     1
  1
4-\U+220511穴
 11
0.7588387473775861
 21
0.6512785544438079
 31
0.0
 73
     1
 44
1.0
1001
ACAD
1000
MTEXTBEGIN
1070
    73
1070
     1
1070
    44
1040
1.0
1070
    74
1070
     0
1000
MTEXTEND
  0
POINT
  5
196A
330
7D0
100
AcDbEntity
  8
Defpoints
 62
     0
100
AcDbPoint
 10
111.7957115749661
 20
95.69442235521806
 30
0.0
  0
POINT
  5
196B
330
7D0
100
AcDbEntity
  8
Defpoints
 62
     0
100
AcDbPoint
 10
113.8825181302537
 20
97.48543837993789
 30
0.0
  0
ENDBLK
  5
7D2
330
7D0
100
AcDbEntity
  8
0
100
AcDbBlockEnd
  0
BLOCK
  5
7DC
330
7DB
100
AcDbEntity
  8
0
100
AcDbBlockBegin
  2
*D12
 70
     1
 10
0.0
 20
0.0
 30
0.0
  3
*D12
  1

  0
LINE
  5
19C3
330
7DB
100
AcDbEntity
  8
0
 62
     0
370
    -2
100
AcDbLine
 10
326.8099283054499
 20
93.8342147383779
 30
0.0
 11
326.8099283054499
 21
107.0429981902313
 31
0.0
  0
LINE
  5
19C4
330
7DB
100
AcDbEntity
  8
0
 62
     0
370
    -2
100
AcDbLine
 10
351.0599283054499
 20
93.4592147383779
 30
0.0
 11
351.0599283054499
 21
107.0429981902313
 31
0.0
  0
LINE
  5
19C5
330
7DB
100
AcDbEntity
  8
0
 62
     0
370
    -2
100
AcDbLine
 10
329.3099283054499
 20
105.7929981902313
 30
0.0
 11
348.5599283054499
 21
105.7929981902313
 31
0.0
  0
INSERT
  5
19C6
330
7DB
100
AcDbEntity
  8
0
 62
     0
370
    -2
100
AcDbBlockReference
  2
_Open30
 10
326.8099283054499
 20
105.7929981902313
 30
0.0
 41
2.5
 42
2.5
 43
2.5
 50
180.0
  0
INSERT
  5
19C7
330
7DB
100
AcDbEntity
  8
0
 62
     0
370
    -2
100
AcDbBlockReference
  2
_Open30
 10
351.0599283054499
 20
105.7929981902313
 30
0.0
 41
2.5
 42
2.5
 43
2.5
  0
MTEXT
  5
19C8
330
7DB
100
AcDbEntity
  8
0
 62
     4
100
AcDbMText
 10
337.8099283054499
 20
107.9179981902313
 30
0.0
 40
3.0
 41
0.0
 71
     5
 72
     1
  1
97
 73
     1
 44
1.0
1001
ACAD
1000
MTEXTBEGIN
1070
    73
1070
     1
1070
    44
1040
1.0
1070
    74
1070
     0
1000
MTEXTEND
  0
POINT
  5
19C9
330
7DB
100
AcDbEntity
  8
Defpoints
 62
     0
100
AcDbPoint
 10
326.8099283054499
 20
93.58421473837791
 30
0.0
  0
POINT
  5
19CA
330
7DB
100
AcDbEntity
  8
Defpoints
 62
     0
100
AcDbPoint
 10
351.0599283054499
 20
93.2092147383779
 30
0.0
  0
POINT
  5
19CB
330
7DB
100
AcDbEntity
  8
Defpoints
 62
     0
100
AcDbPoint
 10
351.0599283054499
 20
105.7929981902313
 30
0.0
  0
ENDBLK
  5
7DD
330
7DB
100
AcDbEntity
  8
0
100
AcDbBlockEnd
  0
BLOCK
  5
7E8
330
7E7
100
AcDbEntity
  8
0
100
AcDbBlockBegin
  2
*D13
 70
     1
 10
0.0
 20
0.0
 30
0.0
  3
*D13
  1

  0
LINE
  5
19CC
330
7E7
100
AcDbEntity
  8
0
 62
     0
370
    -2
100
AcDbLine
 10
228.4018031648216
 20
147.3709547130765
 30
0.0
 11
226.0313980111837
 21
147.8317147996223
 31
0.0
  0
LINE
  5
19CD
330
7E7
100
AcDbEntity
  8
0
 62
     0
370
    -2
100
AcDbLine
 10
227.1043019962611
 20
140.6958898656326
 30
0.0
 11
224.7338968426231
 21
141.1566499521784
 31
0.0
  0
LINE
  5
19CE
330
7E7
100
AcDbEntity
  8
0
 62
     0
370
    -2
100
AcDbLine
 10
227.7354544789346
 20
150.0472715140208
 30
0.0
 11
228.212476967376
 21
152.50133947264
 31
0.0
  0
LINE
  5
19CF
330
7E7
100
AcDbEntity
  8
0
 62
     0
370
    -2
100
AcDbLine
 10
225.4839083334913
 20
138.4640707493386
 30
0.0
 11
217.7847653700473
 21
98.85541389722533
 31
0.0
  0
LINE
  5
19D0
330
7E7
100
AcDbEntity
  8
0
 62
     0
370
    -2
100
AcDbLine
 10
227.2584319904932
 20
147.5932035554016
 30
0.0
 11
225.9609308219327
 21
140.9181387079577
 31
0.0
  0
INSERT
  5
19D1
330
7E7
100
AcDbEntity
  8
0
 62
     0
370
    -2
100
AcDbBlockReference
  2
_Open30
 10
227.2584319904932
 20
147.5932035554016
 30
0.0
 41
2.5
 42
2.5
 43
2.5
 50
258.9999999999995
  0
INSERT
  5
19D2
330
7E7
100
AcDbEntity
  8
0
 62
     0
370
    -2
100
AcDbBlockReference
  2
_Open30
 10
225.9609308219327
 20
140.9181387079577
 30
0.0
 41
2.5
 42
2.5
 43
2.5
 50
78.99999999999946
  0
MTEXT
  5
19D3
330
7E7
100
AcDbEntity
  8
0
 62
     4
100
AcDbMText
 10
219.3098678427223
 20
117.8381774591475
 30
0.0
 40
3.0
 41
0.0
 71
     5
 72
     1
  1
%%C27.2　t2.6パイプ
 11
0.1908089953765541
 21
0.9816271834476621
 31
0.0
 73
     1
 44
1.0
1001
ACAD
1000
MTEXTBEGIN
1070
    73
1070
     1
1070
    44
1040
1.0
1070
    74
1070
     0
1000
MTEXTEND
  0
POINT
  5
19D4
330
7E7
100
AcDbEntity
  8
Defpoints
 62
     0
100
AcDbPoint
 10
228.6472099606835
 20
147.3232524642324
 30
0.0
  0
POINT
  5
19D5
330
7E7
100
AcDbEntity
  8
Defpoints
 62
     0
100
AcDbPoint
 10
227.349708792123
 20
140.6481876167885
 30
0.0
  0
POINT
  5
19D6
330
7E7
100
AcDbEntity
  8
Defpoints
 62
     0
100
AcDbPoint
 10
225.9609308219327
 20
140.9181387079577
 30
0.0
  0
ENDBLK
  5
7E9
330
7E7
100
AcDbEntity
  8
0
100
AcDbBlockEnd
  0
BLOCK
  5
7F6
330
7F5
100
AcDbEntity
  8
0
100
AcDbBlockBegin
  2
*D14
 70
     1
 10
0.0
 20
0.0
 30
0.0
  3
*D14
  1

  0
LINE
  5
19D7
330
7F5
100
AcDbEntity
  8
0
 62
     0
370
    -2
100
AcDbLine
 10
345.5599283054499
 20
87.03421473837796
 30
0.0
 11
345.5599283054499
 21
101.6206882991833
 31
0.0
  0
LINE
  5
19D8
330
7F5
100
AcDbEntity
  8
0
 62
     0
370
    -2
100
AcDbLine
 10
351.0599283054499
 20
93.4592147383779
 30
0.0
 11
351.0599283054499
 21
101.6206882991833
 31
0.0
  0
LINE
  5
19D9
330
7F5
100
AcDbEntity
  8
0
 62
     0
370
    -2
100
AcDbLine
 10
353.5599283054499
 20
100.3706882991833
 30
0.0
 11
356.0599283054499
 21
100.3706882991833
 31
0.0
  0
LINE
  5
19DA
330
7F5
100
AcDbEntity
  8
0
 62
     0
370
    -2
100
AcDbLine
 10
343.0599283054499
 20
100.3706882991833
 30
0.0
 11
330.3099283054499
 21
100.3706882991833
 31
0.0
  0
LINE
  5
19DB
330
7F5
100
AcDbEntity
  8
0
 62
     0
370
    -2
100
AcDbLine
 10
351.0599283054499
 20
100.3706882991833
 30
0.0
 11
345.5599283054499
 21
100.3706882991833
 31
0.0
  0
INSERT
  5
19DC
330
7F5
100
AcDbEntity
  8
0
 62
     0
370
    -2
100
AcDbBlockReference
  2
_Open30
 10
351.0599283054499
 20
100.3706882991833
 30
0.0
 41
2.5
 42
2.5
 43
2.5
 50
180.0
  0
INSERT
  5
19DD
330
7F5
100
AcDbEntity
  8
0
 62
     0
370
    -2
100
AcDbBlockReference
  2
_Open30
 10
345.5599283054499
 20
100.3706882991833
 30
0.0
 41
2.5
 42
2.5
 43
2.5
  0
MTEXT
  5
19DE
330
7F5
100
AcDbEntity
  8
0
 62
     4
100
AcDbMText
 10
335.4349283054499
 20
102.4956882991833
 30
0.0
 40
3.0
 41
0.0
 71
     5
 72
     1
  1
(22)
 73
     1
 44
1.0
1001
ACAD
1000
MTEXTBEGIN
1070
    73
1070
     1
1070
    44
1040
1.0
1070
    74
1070
     0
1000
MTEXTEND
  0
POINT
  5
19DF
330
7F5
100
AcDbEntity
  8
Defpoints
 62
     0
100
AcDbPoint
 10
345.5599283054499
 20
86.78421473837795
 30
0.0
  0
POINT
  5
19E0
330
7F5
100
AcDbEntity
  8
Defpoints
 62
     0
100
AcDbPoint
 10
351.0599283054499
 20
93.2092147383779
 30
0.0
  0
POINT
  5
19E1
330
7F5
100
AcDbEntity
  8
Defpoints
 62
     0
100
AcDbPoint
 10
351.0599283054499
 20
100.3706882991833
 30
0.0
  0
ENDBLK
  5
7F7
330
7F5
100
AcDbEntity
  8
0
100
AcDbBlockEnd
  0
BLOCK
  5
816
330
815
100
AcDbEntity
  8
0
100
AcDbBlockBegin
  2
*D15
 70
     1
 10
0.0
 20
0.0
 30
0.0
  3
*D15
  1

  0
LINE
  5
18D8
330
815
100
AcDbEntity
  8
0
 62
     0
370
    -2
100
AcDbLine
 10
121.0885661839133
 20
161.3032613662992
 30
0.0
 11
113.4184727547196
 21
162.7941764981802
 31
0.0
  0
LINE
  5
18D9
330
815
100
AcDbEntity
  8
0
 62
     0
370
    -2
100
AcDbLine
 10
120.8739060641148
 20
160.1989307849206
 30
0.0
 11
113.2038126349211
 21
161.6898459168016
 31
0.0
  0
LINE
  5
18DA
330
815
100
AcDbEntity
  8
0
 62
     0
370
    -2
100
AcDbLine
 10
115.1225292224703
 20
165.0097332125788
 30
0.0
 11
115.5995517109114
 21
167.4638011711981
 31
0.0
  0
LINE
  5
18DB
330
815
100
AcDbEntity
  8
0
 62
     0
370
    -2
100
AcDbLine
 10
113.9538241257896
 20
158.9972667139618
 30
0.0
 11
110.8531779509226
 21
143.0458249829372
 31
0.0
  0
LINE
  5
18DC
330
815
100
AcDbEntity
  8
0
 62
     0
370
    -2
100
AcDbLine
 10
114.6455067340292
 20
162.5556652539596
 30
0.0
 11
114.4308466142307
 21
161.451334672581
 31
0.0
  0
INSERT
  5
18DD
330
815
100
AcDbEntity
  8
0
 62
     0
370
    -2
100
AcDbBlockReference
  2
_Open30
 10
114.6455067340292
 20
162.5556652539596
 30
0.0
 41
2.5
 42
2.5
 43
2.5
 50
259.0000000000065
  0
INSERT
  5
18DE
330
815
100
AcDbEntity
  8
0
 62
     0
370
    -2
100
AcDbBlockReference
  2
_Open30
 10
114.4308466142307
 20
161.451334672581
 30
0.0
 41
2.5
 42
2.5
 43
2.5
 50
79.00000000000648
  0
MTEXT
  5
18DF
330
815
100
AcDbEntity
  8
0
 62
     4
100
AcDbMText
 10
110.0313297804652
 20
149.954574188453
 30
0.0
 40
3.0
 41
0.0
 71
     5
 72
     1
  1
t=4.5
 11
0.1908089953764338
 21
0.9816271834476854
 31
0.0
 73
     1
 44
1.0
1001
ACAD
1000
MTEXTBEGIN
1070
    73
1070
     1
1070
    44
1040
1.0
1070
    74
1070
     0
1000
MTEXTEND
  0
POINT
  5
18E0
330
815
100
AcDbEntity
  8
Defpoints
 62
     0
100
AcDbPoint
 10
121.3339729797752
 20
161.2555591174551
 30
0.0
  0
POINT
  5
18E1
330
815
100
AcDbEntity
  8
Defpoints
 62
     0
100
AcDbPoint
 10
121.1193128599767
 20
160.1512285360765
 30
0.0
  0
POINT
  5
18E2
330
815
100
AcDbEntity
  8
Defpoints
 62
     0
100
AcDbPoint
 10
114.4308466142307
 20
161.451334672581
 30
0.0
  0
ENDBLK
  5
817
330
815
100
AcDbEntity
  8
0
100
AcDbBlockEnd
  0
BLOCK
  5
82D
330
82C
100
AcDbEntity
  8
0
100
AcDbBlockBegin
  2
*D16
 70
     1
 10
0.0
 20
0.0
 30
0.0
  3
*D16
  1

  0
LINE
  5
18EC
330
82C
100
AcDbEntity
  8
0
 62
     0
370
    -2
100
AcDbLine
 10
344.8099283054499
 20
225.1209457048566
 30
0.0
 11
363.5810763824695
 21
225.1209457048566
 31
0.0
  0
LINE
  5
18ED
330
82C
100
AcDbEntity
  8
0
 62
     0
370
    -2
100
AcDbLine
 10
344.8099283054499
 20
211.3709457048566
 30
0.0
 11
363.5810763824695
 21
211.3709457048566
 31
0.0
  0
LINE
  5
18EE
330
82C
100
AcDbEntity
  8
0
 62
     0
370
    -2
100
AcDbLine
 10
362.3310763824695
 20
222.6209457048566
 30
0.0
 11
362.3310763824695
 21
213.8709457048566
 31
0.0
  0
INSERT
  5
18EF
330
82C
100
AcDbEntity
  8
0
 62
     0
370
    -2
100
AcDbBlockReference
  2
_Open30
 10
362.3310763824695
 20
225.1209457048566
 30
0.0
 41
2.5
 42
2.5
 43
2.5
 50
90.0
  0
INSERT
  5
18F0
330
82C
100
AcDbEntity
  8
0
 62
     0
370
    -2
100
AcDbBlockReference
  2
_Open30
 10
362.3310763824695
 20
211.3709457048566
 30
0.0
 41
2.5
 42
2.5
 43
2.5
 50
270.0
  0
MTEXT
  5
18F1
330
82C
100
AcDbEntity
  8
0
 62
     4
100
AcDbMText
 10
360.2060763824694
 20
218.2459457048566
 30
0.0
 40
3.0
 41
0.0
 71
     5
 72
     1
  1
55
 11
0.0000000000000001
 21
1.0
 31
0.0
 73
     1
 44
1.0
1001
ACAD
1000
MTEXTBEGIN
1070
    73
1070
     1
1070
    44
1040
1.0
1070
    74
1070
     0
1000
MTEXTEND
  0
POINT
  5
18F2
330
82C
100
AcDbEntity
  8
Defpoints
 62
     0
100
AcDbPoint
 10
344.5599283054499
 20
225.1209457048566
 30
0.0
  0
POINT
  5
18F3
330
82C
100
AcDbEntity
  8
Defpoints
 62
     0
100
AcDbPoint
 10
344.5599283054499
 20
211.3709457048566
 30
0.0
  0
POINT
  5
18F4
330
82C
100
AcDbEntity
  8
Defpoints
 62
     0
100
AcDbPoint
 10
362.3310763824695
 20
211.3709457048566
 30
0.0
  0
ENDBLK
  5
82E
330
82C
100
AcDbEntity
  8
0
100
AcDbBlockEnd
  0
BLOCK
  5
842
330
841
100
AcDbEntity
  8
0
100
AcDbBlockBegin
  2
*D17
 70
     1
 10
0.0
 20
0.0
 30
0.0
  3
*D17
  1

  0
LINE
  5
18FE
330
841
100
AcDbEntity
  8
0
 62
     0
370
    -2
100
AcDbLine
 10
344.8099283054499
 20
211.3709457048566
 30
0.0
 11
363.5810763824695
 21
211.3709457048566
 31
0.0
  0
LINE
  5
18FF
330
841
100
AcDbEntity
  8
0
 62
     0
370
    -2
100
AcDbLine
 10
344.8099283054499
 20
200.1209457048566
 30
0.0
 11
363.5810763824695
 21
200.1209457048566
 31
0.0
  0
LINE
  5
1900
330
841
100
AcDbEntity
  8
0
 62
     0
370
    -2
100
AcDbLine
 10
362.3310763824695
 20
208.8709457048566
 30
0.0
 11
362.3310763824695
 21
202.6209457048566
 31
0.0
  0
INSERT
  5
1901
330
841
100
AcDbEntity
  8
0
 62
     0
370
    -2
100
AcDbBlockReference
  2
_Open30
 10
362.3310763824695
 20
211.3709457048566
 30
0.0
 41
2.5
 42
2.5
 43
2.5
 50
90.0
  0
INSERT
  5
1902
330
841
100
AcDbEntity
  8
0
 62
     0
370
    -2
100
AcDbBlockReference
  2
_Open30
 10
362.3310763824695
 20
200.1209457048566
 30
0.0
 41
2.5
 42
2.5
 43
2.5
 50
270.0
  0
MTEXT
  5
1903
330
841
100
AcDbEntity
  8
0
 62
     4
100
AcDbMText
 10
360.2060763824694
 20
206.1408200954176
 30
0.0
 40
3.0
 41
0.0
 71
     5
 72
     1
  1
45
 11
0.0000000000000001
 21
1.0
 31
0.0
 73
     1
 44
1.0
1001
ACAD
1000
MTEXTBEGIN
1070
    73
1070
     1
1070
    44
1040
1.0
1070
    74
1070
     0
1000
MTEXTEND
  0
POINT
  5
1904
330
841
100
AcDbEntity
  8
Defpoints
 62
     0
100
AcDbPoint
 10
344.5599283054499
 20
211.3709457048566
 30
0.0
  0
POINT
  5
1905
330
841
100
AcDbEntity
  8
Defpoints
 62
     0
100
AcDbPoint
 10
344.5599283054499
 20
200.1209457048566
 30
0.0
  0
POINT
  5
1906
330
841
100
AcDbEntity
  8
Defpoints
 62
     0
100
AcDbPoint
 10
362.3310763824695
 20
200.1209457048566
 30
0.0
  0
ENDBLK
  5
843
330
841
100
AcDbEntity
  8
0
100
AcDbBlockEnd
  0
BLOCK
  5
857
330
856
100
AcDbEntity
  8
0
100
AcDbBlockBegin
  2
*D18
 70
     1
 10
0.0
 20
0.0
 30
0.0
  3
*D18
  1

  0
LINE
  5
1910
330
856
100
AcDbEntity
  8
0
 62
     0
370
    -2
100
AcDbLine
 10
130.7344916159171
 20
166.4041520018869
 30
0.0
 11
361.9160705324048
 21
166.4041520018868
 31
0.0
  0
LINE
  5
1911
330
856
100
AcDbEntity
  8
0
 62
     0
370
    -2
100
AcDbLine
 10
345.8099283054499
 20
120.3173529265779
 30
0.0
 11
361.9160705324048
 21
120.3173529265779
 31
0.0
  0
LINE
  5
1912
330
856
100
AcDbEntity
  8
0
 62
     0
370
    -2
100
AcDbLine
 10
360.6660705324048
 20
163.9041520018868
 30
0.0
 11
360.6660705324048
 21
122.8173529265779
 31
0.0
  0
INSERT
  5
1913
330
856
100
AcDbEntity
  8
0
 62
     0
370
    -2
100
AcDbBlockReference
  2
_Open30
 10
360.6660705324048
 20
166.4041520018868
 30
0.0
 41
2.5
 42
2.5
 43
2.5
 50
90.0
  0
INSERT
  5
1914
330
856
100
AcDbEntity
  8
0
 62
     0
370
    -2
100
AcDbBlockReference
  2
_Open30
 10
360.6660705324048
 20
120.3173529265779
 30
0.0
 41
2.5
 42
2.5
 43
2.5
 50
270.0
  0
MTEXT
  5
1915
330
856
100
AcDbEntity
  8
0
 62
     4
100
AcDbMText
 10
358.5410705324048
 20
142.5341924820097
 30
0.0
 40
3.0
 41
0.0
 71
     5
 72
     1
  1
(184.3)
 11
0.0000000000000001
 21
1.0
 31
0.0
 73
     1
 44
1.0
1001
ACAD
1000
MTEXTBEGIN
1070
    73
1070
     1
1070
    44
1040
1.0
1070
    74
1070
     0
1000
MTEXTEND
  0
POINT
  5
1916
330
856
100
AcDbEntity
  8
Defpoints
 62
     0
100
AcDbPoint
 10
130.4844916159171
 20
166.4041520018869
 30
0.0
  0
POINT
  5
1917
330
856
100
AcDbEntity
  8
Defpoints
 62
     0
100
AcDbPoint
 10
345.5599283054499
 20
120.3173529265779
 30
0.0
  0
POINT
  5
1918
330
856
100
AcDbEntity
  8
Defpoints
 62
     0
100
AcDbPoint
 10
360.6660705324048
 20
120.3173529265779
 30
0.0
  0
ENDBLK
  5
858
330
856
100
AcDbEntity
  8
0
100
AcDbBlockEnd
  0
BLOCK
  5
863
330
862
100
AcDbEntity
  8
0
100
AcDbBlockBegin
  2
*D19
 70
     1
 10
0.0
 20
0.0
 30
0.0
  3
*D19
  1

  0
LINE
  5
1919
330
862
100
AcDbEntity
  8
0
 62
     0
370
    -2
100
AcDbLine
 10
345.8099283054499
 20
240.1209457048566
 30
0.0
 11
373.876656638623
 21
240.1209457048566
 31
0.0
  0
LINE
  5
191A
330
862
100
AcDbEntity
  8
0
 62
     0
370
    -2
100
AcDbLine
 10
345.8099283054499
 20
196.3709457048565
 30
0.0
 11
373.876656638623
 21
196.3709457048565
 31
0.0
  0
LINE
  5
191B
330
862
100
AcDbEntity
  8
0
 62
     0
370
    -2
100
AcDbLine
 10
372.6266566386231
 20
237.6209457048566
 30
0.0
 11
372.6266566386231
 21
198.8709457048565
 31
0.0
  0
INSERT
  5
191C
330
862
100
AcDbEntity
  8
0
 62
     0
370
    -2
100
AcDbBlockReference
  2
_Open30
 10
372.6266566386231
 20
240.1209457048566
 30
0.0
 41
2.5
 42
2.5
 43
2.5
 50
90.0
  0
INSERT
  5
191D
330
862
100
AcDbEntity
  8
0
 62
     0
370
    -2
100
AcDbBlockReference
  2
_Open30
 10
372.6266566386231
 20
196.3709457048565
 30
0.0
 41
2.5
 42
2.5
 43
2.5
 50
270.0
  0
MTEXT
  5
191E
330
862
100
AcDbEntity
  8
0
 62
     4
100
AcDbMText
 10
370.501656638623
 20
218.0349304315799
 30
0.0
 40
3.0
 41
0.0
 71
     5
 72
     1
  1
175
 11
0.0000000000000001
 21
1.0
 31
0.0
 73
     1
 44
1.0
1001
ACAD
1000
MTEXTBEGIN
1070
    73
1070
     1
1070
    44
1040
1.0
1070
    74
1070
     0
1000
MTEXTEND
  0
POINT
  5
191F
330
862
100
AcDbEntity
  8
Defpoints
 62
     0
100
AcDbPoint
 10
345.5599283054499
 20
240.1209457048566
 30
0.0
  0
POINT
  5
1920
330
862
100
AcDbEntity
  8
Defpoints
 62
     0
100
AcDbPoint
 10
345.5599283054499
 20
196.3709457048565
 30
0.0
  0
POINT
  5
1921
330
862
100
AcDbEntity
  8
Defpoints
 62
     0
100
AcDbPoint
 10
372.6266566386231
 20
196.3709457048565
 30
0.0
  0
ENDBLK
  5
864
330
862
100
AcDbEntity
  8
0
100
AcDbBlockEnd
  0
BLOCK
  5
87A
330
879
100
AcDbEntity
  8
0
100
AcDbBlockBegin
  2
*D20
 70
     1
 10
0.0
 20
0.0
 30
0.0
  3
*D20
  1

  0
LINE
  5
192D
330
879
100
AcDbEntity
  8
0
 62
     0
370
    -2
100
AcDbLine
 10
379.6872074221111
 20
127.4592793026323
 30
0.0
 11
377.6130719225113
 21
128.8549733698618
 31
0.0
  0
LINE
  5
192E
330
879
100
AcDbEntity
  8
0
 62
     0
370
    -2
100
AcDbLine
 10
387.4652155456091
 20
122.2254265505223
 30
0.0
 11
403.27012805256
 21
111.5902377582328
 31
0.0
  0
LINE
  5
192F
330
879
100
AcDbEntity
  8
0
 62
     0
370
    -2
100
AcDbLine
 10
381.7613429217109
 20
126.0635852354027
 30
0.0
 11
385.3910800460093
 21
123.6211206177519
 31
0.0
  0
INSERT
  5
1930
330
879
100
AcDbEntity
  8
0
 62
     0
370
    -2
100
AcDbBlockReference
  2
_Open30
 10
381.7613429217109
 20
126.0635852354027
 30
0.0
 41
2.5
 42
2.5
 43
2.5
 50
326.0632323384121
  0
INSERT
  5
1931
330
879
100
AcDbEntity
  8
0
 62
     0
370
    -2
100
AcDbBlockReference
  2
_Open30
 10
385.3910800460093
 20
123.6211206177519
 30
0.0
 41
2.5
 42
2.5
 43
2.5
 50
146.063232338412
  0
MTEXT
  5
1932
330
879
100
AcDbEntity
  8
0
 62
     4
100
AcDbMText
 10
397.7155276360058
 20
117.8892586513887
 30
0.0
 40
3.0
 41
0.0
 71
     5
 72
     1
  1
(%%C17.5)
 11
0.8296541998399273
 21
-0.5582776268918268
 31
0.0
 73
     1
 44
1.0
1001
ACAD
1000
MTEXTBEGIN
1070
    73
1070
     1
1070
    44
1040
1.0
1070
    74
1070
     0
1000
MTEXTEND
  0
POINT
  5
1933
330
879
100
AcDbEntity
  8
Defpoints
 62
     0
100
AcDbPoint
 10
385.3910800460093
 20
123.6211206177519
 30
0.0
  0
POINT
  5
1934
330
879
100
AcDbEntity
  8
Defpoints
 62
     0
100
AcDbPoint
 10
381.7613429217109
 20
126.0635852354027
 30
0.0
  0
ENDBLK
  5
87B
330
879
100
AcDbEntity
  8
0
100
AcDbBlockEnd
  0
BLOCK
  5
885
330
884
100
AcDbEntity
  8
0
100
AcDbBlockBegin
  2
*D21
 70
     1
 10
0.0
 20
0.0
 30
0.0
  3
*D21
  1

  0
LINE
  5
1935
330
884
100
AcDbEntity
  8
0
 62
     0
370
    -2
100
AcDbLine
 10
333.6538336114115
 20
235.1875581065841
 30
0.0
 11
335.988856483835
 21
234.2944353909067
 31
0.0
  0
LINE
  5
1936
330
884
100
AcDbEntity
  8
0
 62
     0
370
    -2
100
AcDbLine
 10
327.4660229994886
 20
237.5543333031295
 30
0.0
 11
305.3384228923162
 21
246.0179173358763
 31
0.0
  0
LINE
  5
1937
330
884
100
AcDbEntity
  8
0
 62
     0
370
    -2
100
AcDbLine
 10
331.318810738988
 20
236.0806808222616
 30
0.0
 11
329.8010458719121
 21
236.6612105874521
 31
0.0
  0
INSERT
  5
1938
330
884
100
AcDbEntity
  8
0
 62
     0
370
    -2
100
AcDbBlockReference
  2
_Open30
 10
331.318810738988
 20
236.0806808222616
 30
0.0
 41
2.5
 42
2.5
 43
2.5
 50
159.0686512032875
  0
INSERT
  5
1939
330
884
100
AcDbEntity
  8
0
 62
     0
370
    -2
100
AcDbBlockReference
  2
_Open30
 10
329.8010458719121
 20
236.6612105874521
 30
0.0
 41
2.5
 42
2.5
 43
2.5
 50
339.0686512032876
  0
MTEXT
  5
193A
102
{ACAD_XDICTIONARY
360
1CA1
102
}
330
884
100
AcDbEntity
  8
0
 62
     4
100
AcDbMText
 10
315.4610189190603
 20
244.4212646875695
 30
0.0
 40
3.0
 41
0.0
 71
     5
 72
     1
  1
8-\U+22056.5穴
 11
0.934009148969406
 21
-0.3572490862709738
 31
0.0
 73
     1
 44
1.0
1001
ACAD
1000
MTEXTBEGIN
1070
    73
1070
     1
1070
    44
1040
1.0
1070
    74
1070
     0
1000
MTEXTEND
  0
POINT
  5
193B
330
884
100
AcDbEntity
  8
Defpoints
 62
     0
100
AcDbPoint
 10
329.8010458719121
 20
236.6612105874521
 30
0.0
  0
POINT
  5
193C
330
884
100
AcDbEntity
  8
Defpoints
 62
     0
100
AcDbPoint
 10
331.318810738988
 20
236.0806808222616
 30
0.0
  0
ENDBLK
  5
886
330
884
100
AcDbEntity
  8
0
100
AcDbBlockEnd
  0
BLOCK
  5
890
330
88F
100
AcDbEntity
  8
0
100
AcDbBlockBegin
  2
*D22
 70
     1
 10
0.0
 20
0.0
 30
0.0
  3
*D22
  1

  0
LINE
  5
193D
330
88F
100
AcDbEntity
  8
0
 62
     0
370
    -2
100
AcDbLine
 10
325.9051627777069
 20
121.4423529265779
 30
0.0
 11
255.3476227469732
 21
121.4423529265779
 31
0.0
  0
ARC
  5
193E
330
88F
100
AcDbEntity
  8
0
 62
     0
370
    -2
100
AcDbCircle
 10
326.1551627777069
 20
121.4423529265779
 30
0.0
 40
69.55754003073369
100
AcDbArc
 50
171.0594052009007
 51
177.9405947990992
  0
INSERT
  5
193F
330
88F
100
AcDbEntity
  8
0
 62
     0
370
    -2
100
AcDbBlockReference
  2
_Open30
 10
257.8755906697896
 20
134.714557260706
 30
0.0
 41
2.5
 42
2.5
 43
2.5
 50
80.0297026004504
  0
INSERT
  5
1940
330
88F
100
AcDbEntity
  8
0
 62
     0
370
    -2
100
AcDbBlockReference
  2
_Open30
 10
256.5976227469732
 20
121.4423529265779
 30
0.0
 41
2.5
 42
2.5
 43
2.5
 50
268.9702973995497
  0
MTEXT
  5
1941
330
88F
100
AcDbEntity
  8
0
 62
     4
100
AcDbMText
 10
254.8026349418115
 20
128.3128199183847
 30
0.0
 40
3.0
 41
0.0
 71
     5
 72
     1
  1
11\U+00B0
 11
0.0958457525202237
 21
0.9953961983671788
 31
0.0
 73
     1
 44
1.0
1001
ACAD
1000
MTEXTBEGIN
1070
    73
1070
     1
1070
    44
1040
1.0
1070
    74
1070
     0
1000
MTEXTEND
  0
POINT
  5
1942
330
88F
100
AcDbEntity
  8
Defpoints
 62
     0
100
AcDbPoint
 10
257.1665789720792
 20
130.32079195723
 30
0.0
  0
POINT
  5
1943
330
88F
100
AcDbEntity
  8
Defpoints
 62
     0
100
AcDbPoint
 10
347.4099283054499
 20
121.4423529265779
 30
0.0
  0
POINT
  5
1944
330
88F
100
AcDbEntity
  8
Defpoints
 62
     0
100
AcDbPoint
 10
325.5124271368897
 20
121.5672880791338
 30
0.0
  0
POINT
  5
1945
330
88F
100
AcDbEntity
  8
Defpoints
 62
     0
100
AcDbPoint
 10
121.3339729797752
 20
161.2555591174551
 30
0.0
  0
POINT
  5
1946
330
88F
100
AcDbEntity
  8
Defpoints
 62
     0
100
AcDbPoint
 10
326.80992830545
 20
121.4423529265779
 30
0.0
  0
ENDBLK
  5
891
330
88F
100
AcDbEntity
  8
0
100
AcDbBlockEnd
  0
BLOCK
  5
8AF
330
8AE
100
AcDbEntity
  8
0
100
AcDbBlockBegin
  2
*D23
 70
     1
 10
0.0
 20
0.0
 30
0.0
  3
*D23
  1

  0
LINE
  5
1950
330
8AE
100
AcDbEntity
  8
0
 62
     0
370
    -2
100
AcDbLine
 10
121.3816752286193
 20
161.500965913317
 30
0.0
 11
124.8873700943011
 21
179.536202513326
 31
0.0
  0
LINE
  5
1951
330
8AE
100
AcDbEntity
  8
0
 62
     0
370
    -2
100
AcDbLine
 10
129.2346926962006
 20
159.9744939503046
 30
0.0
 11
132.7403875618824
 21
178.0097305503136
 31
0.0
  0
LINE
  5
1952
330
8AE
100
AcDbEntity
  8
0
 62
     0
370
    -2
100
AcDbLine
 10
127.1029268086996
 20
177.8321460455751
 30
0.0
 11
130.0478083590425
 21
177.2597190594454
 31
0.0
  0
INSERT
  5
1953
330
8AE
100
AcDbEntity
  8
0
 62
     0
370
    -2
100
AcDbBlockReference
  2
_Open30
 10
124.6488588500804
 20
178.3091685340165
 30
0.0
 41
2.5
 42
2.5
 43
2.5
 50
168.9999999999995
  0
INSERT
  5
1954
330
8AE
100
AcDbEntity
  8
0
 62
     0
370
    -2
100
AcDbBlockReference
  2
_Open30
 10
132.5018763176617
 20
176.782696571004
 30
0.0
 41
2.5
 42
2.5
 43
2.5
 50
348.9999999999995
  0
MTEXT
  5
1955
330
8AE
100
AcDbEntity
  8
0
 62
     4
100
AcDbMText
 10
128.9085659588024
 20
179.6459383261668
 30
0.0
 40
3.0
 41
0.0
 71
     5
 72
     1
  1
32
 11
0.9816271834476623
 21
-0.1908089953765531
 31
0.0
 73
     1
 44
1.0
1001
ACAD
1000
MTEXTBEGIN
1070
    73
1070
     1
1070
    44
1040
1.0
1070
    74
1070
     0
1000
MTEXTEND
  0
POINT
  5
1956
330
8AE
100
AcDbEntity
  8
Defpoints
 62
     0
100
AcDbPoint
 10
121.3339729797752
 20
161.2555591174551
 30
0.0
  0
POINT
  5
1957
330
8AE
100
AcDbEntity
  8
Defpoints
 62
     0
100
AcDbPoint
 10
129.1869904473565
 20
159.7290871544427
 30
0.0
  0
POINT
  5
1958
330
8AE
100
AcDbEntity
  8
Defpoints
 62
     0
100
AcDbPoint
 10
132.5018763176617
 20
176.782696571004
 30
0.0
  0
ENDBLK
  5
8B0
330
8AE
100
AcDbEntity
  8
0
100
AcDbBlockEnd
  0
BLOCK
  5
8CE
330
8CD
100
AcDbEntity
  8
0
100
AcDbBlockBegin
  2
*D24
 70
     1
 10
0.0
 20
0.0
 30
0.0
  3
*D24
  1

  0
LINE
  5
196C
330
8CD
100
AcDbEntity
  8
0
 62
     0
370
    -2
100
AcDbLine
 10
351.8099283054499
 20
214.4209457048568
 30
0.0
 11
351.8099283054499
 21
183.0188805999488
 31
0.0
  0
LINE
  5
196D
330
8CD
100
AcDbEntity
  8
0
 62
     0
370
    -2
100
AcDbLine
 10
345.5599283054499
 20
196.1209457048565
 30
0.0
 11
345.5599283054499
 21
183.0188805999488
 31
0.0
  0
LINE
  5
196E
330
8CD
100
AcDbEntity
  8
0
 62
     0
370
    -2
100
AcDbLine
 10
343.0599283054499
 20
184.2688805999488
 30
0.0
 11
340.5599283054499
 21
184.2688805999488
 31
0.0
  0
LINE
  5
196F
330
8CD
100
AcDbEntity
  8
0
 62
     0
370
    -2
100
AcDbLine
 10
354.3099283054499
 20
184.2688805999488
 30
0.0
 11
363.0599283054499
 21
184.2688805999488
 31
0.0
  0
LINE
  5
1970
330
8CD
100
AcDbEntity
  8
0
 62
     0
370
    -2
100
AcDbLine
 10
345.5599283054499
 20
184.2688805999488
 30
0.0
 11
351.8099283054499
 21
184.2688805999488
 31
0.0
  0
INSERT
  5
1971
330
8CD
100
AcDbEntity
  8
0
 62
     0
370
    -2
100
AcDbBlockReference
  2
_Open30
 10
345.5599283054499
 20
184.2688805999488
 30
0.0
 41
2.5
 42
2.5
 43
2.5
  0
INSERT
  5
1972
330
8CD
100
AcDbEntity
  8
0
 62
     0
370
    -2
100
AcDbBlockReference
  2
_Open30
 10
351.8099283054499
 20
184.2688805999488
 30
0.0
 41
2.5
 42
2.5
 43
2.5
 50
180.0
  0
MTEXT
  5
1973
330
8CD
100
AcDbEntity
  8
0
 62
     4
100
AcDbMText
 10
359.9349283054499
 20
186.3938805999488
 30
0.0
 40
3.0
 41
0.0
 71
     5
 72
     1
  1
25
 73
     1
 44
1.0
1001
ACAD
1000
MTEXTBEGIN
1070
    73
1070
     1
1070
    44
1040
1.0
1070
    74
1070
     0
1000
MTEXTEND
  0
POINT
  5
1974
330
8CD
100
AcDbEntity
  8
Defpoints
 62
     0
100
AcDbPoint
 10
351.8099283054499
 20
214.6709457048568
 30
0.0
  0
POINT
  5
1975
330
8CD
100
AcDbEntity
  8
Defpoints
 62
     0
100
AcDbPoint
 10
345.5599283054499
 20
196.3709457048565
 30
0.0
  0
POINT
  5
1976
330
8CD
100
AcDbEntity
  8
Defpoints
 62
     0
100
AcDbPoint
 10
345.5599283054499
 20
184.2688805999488
 30
0.0
  0
ENDBLK
  5
8CF
330
8CD
100
AcDbEntity
  8
0
100
AcDbBlockEnd
  0
BLOCK
  5
8DC
330
8DB
100
AcDbEntity
  8
0
100
AcDbBlockBegin
  2
*D25
 70
     1
 10
0.0
 20
0.0
 30
0.0
  3
*D25
  1

  0
LINE
  5
1977
330
8DB
100
AcDbEntity
  8
0
 62
     0
370
    -2
100
AcDbLine
 10
351.8099283054499
 20
222.0709457048569
 30
0.0
 11
351.8099283054499
 21
253.8102024599044
 31
0.0
  0
LINE
  5
1978
330
8DB
100
AcDbEntity
  8
0
 62
     0
370
    -2
100
AcDbLine
 10
121.1193128599767
 20
237.2459457048566
 30
0.0
 11
121.1193128599767
 21
253.8102024599044
 31
0.0
  0
LINE
  5
1979
330
8DB
100
AcDbEntity
  8
0
 62
     0
370
    -2
100
AcDbLine
 10
349.3099283054499
 20
252.5602024599044
 30
0.0
 11
123.6193128599767
 21
252.5602024599044
 31
0.0
  0
INSERT
  5
197A
330
8DB
100
AcDbEntity
  8
0
 62
     0
370
    -2
100
AcDbBlockReference
  2
_Open30
 10
351.8099283054499
 20
252.5602024599044
 30
0.0
 41
2.5
 42
2.5
 43
2.5
  0
INSERT
  5
197B
330
8DB
100
AcDbEntity
  8
0
 62
     0
370
    -2
100
AcDbBlockReference
  2
_Open30
 10
121.1193128599767
 20
252.5602024599044
 30
0.0
 41
2.5
 42
2.5
 43
2.5
 50
180.0
  0
MTEXT
  5
197C
330
8DB
100
AcDbEntity
  8
0
 62
     4
100
AcDbMText
 10
235.783091413937
 20
254.6852024599044
 30
0.0
 40
3.0
 41
0.0
 71
     5
 72
     1
  1
(922.8)
 73
     1
 44
1.0
1001
ACAD
1000
MTEXTBEGIN
1070
    73
1070
     1
1070
    44
1040
1.0
1070
    74
1070
     0
1000
MTEXTEND
  0
POINT
  5
197D
330
8DB
100
AcDbEntity
  8
Defpoints
 62
     0
100
AcDbPoint
 10
351.8099283054499
 20
221.8209457048569
 30
0.0
  0
POINT
  5
197E
330
8DB
100
AcDbEntity
  8
Defpoints
 62
     0
100
AcDbPoint
 10
121.1193128599767
 20
236.9959457048566
 30
0.0
  0
POINT
  5
197F
330
8DB
100
AcDbEntity
  8
Defpoints
 62
     0
100
AcDbPoint
 10
121.1193128599767
 20
252.5602024599044
 30
0.0
  0
ENDBLK
  5
8DD
330
8DB
100
AcDbEntity
  8
0
100
AcDbBlockEnd
  0
BLOCK
  5
8E8
330
8E7
100
AcDbEntity
  8
0
100
AcDbBlockBegin
  2
*D26
 70
     1
 10
0.0
 20
0.0
 30
0.0
  3
*D26
  1

  0
LINE
  5
1980
330
8E7
100
AcDbEntity
  8
0
 62
     0
370
    -2
100
AcDbLine
 10
110.3349819906613
 20
119.6157913632899
 30
0.0
 11
107.006358460396
 21
120.262810234106
 31
0.0
  0
LINE
  5
1981
330
8E7
100
AcDbEntity
  8
0
 62
     0
370
    -2
100
AcDbLine
 10
106.8527178250393
 20
101.70109526537
 30
0.0
 11
103.524094294774
 21
102.348114136186
 31
0.0
  0
LINE
  5
1982
330
8E7
100
AcDbEntity
  8
0
 62
     0
370
    -2
100
AcDbLine
 10
107.7563699512642
 20
117.5702310312661
 30
0.0
 11
105.2281507625249
 21
104.5636708505846
 31
0.0
  0
INSERT
  5
1983
330
8E7
100
AcDbEntity
  8
0
 62
     0
370
    -2
100
AcDbBlockReference
  2
_Open30
 10
108.2333924397056
 20
120.0242989898853
 30
0.0
 41
2.5
 42
2.5
 43
2.5
 50
78.99999999999979
  0
INSERT
  5
1984
330
8E7
100
AcDbEntity
  8
0
 62
     0
370
    -2
100
AcDbBlockReference
  2
_Open30
 10
104.7511282740836
 20
102.1096028919654
 30
0.0
 41
2.5
 42
2.5
 43
2.5
 50
258.9999999999998
  0
MTEXT
  5
1985
330
8E7
100
AcDbEntity
  8
0
 62
     4
100
AcDbMText
 10
104.2031371515487
 20
110.4272244731692
 30
0.0
 40
3.0
 41
0.0
 71
     5
 72
     1
  1
73
 11
0.1908089953765488
 21
0.9816271834476632
 31
0.0
 73
     1
 44
1.0
1001
ACAD
1000
MTEXTBEGIN
1070
    73
1070
     1
1070
    44
1040
1.0
1070
    74
1070
     0
1000
MTEXTEND
  0
POINT
  5
1986
330
8E7
100
AcDbEntity
  8
Defpoints
 62
     0
100
AcDbPoint
 10
110.5803887865232
 20
119.5680891144458
 30
0.0
  0
POINT
  5
1987
330
8E7
100
AcDbEntity
  8
Defpoints
 62
     0
100
AcDbPoint
 10
107.0981246209012
 20
101.6533930165259
 30
0.0
  0
POINT
  5
1988
330
8E7
100
AcDbEntity
  8
Defpoints
 62
     0
100
AcDbPoint
 10
104.7511282740836
 20
102.1096028919654
 30
0.0
  0
ENDBLK
  5
8E9
330
8E7
100
AcDbEntity
  8
0
100
AcDbBlockEnd
  0
BLOCK
  5
8F4
330
8F3
100
AcDbEntity
  8
0
100
AcDbBlockBegin
  2
*D27
 70
     1
 10
0.0
 20
0.0
 30
0.0
  3
*D27
  1

  0
LINE
  5
1989
330
8F3
100
AcDbEntity
  8
0
 62
     0
370
    -2
100
AcDbLine
 10
124.1808630276216
 20
113.0114219761164
 30
0.0
 11
128.0305952349469
 21
132.8165772637232
 31
0.0
  0
LINE
  5
198A
330
8F3
100
AcDbEntity
  8
0
 62
     0
370
    -2
100
AcDbLine
 10
116.3278455600402
 20
114.5378939391287
 30
0.0
 11
120.1775777673655
 21
134.3430492267355
 31
0.0
  0
LINE
  5
198B
330
8F3
100
AcDbEntity
  8
0
 62
     0
370
    -2
100
AcDbLine
 10
125.3380160321071
 20
132.066565772855
 30
0.0
 11
122.393134481764
 21
132.6389927589846
 31
0.0
  0
INSERT
  5
198C
330
8F3
100
AcDbEntity
  8
0
 62
     0
370
    -2
100
AcDbBlockReference
  2
_Open30
 10
127.7920839907263
 20
131.5895432844136
 30
0.0
 41
2.5
 42
2.5
 43
2.5
 50
349.0000000000005
  0
INSERT
  5
198D
330
8F3
100
AcDbEntity
  8
0
 62
     0
370
    -2
100
AcDbBlockReference
  2
_Open30
 10
119.9390665231448
 20
133.1160152474259
 30
0.0
 41
2.5
 42
2.5
 43
2.5
 50
169.0000000000005
  0
MTEXT
  5
198E
330
8F3
100
AcDbEntity
  8
0
 62
     4
100
AcDbMText
 10
123.9628966476233
 20
134.498634880692
 30
0.0
 40
3.0
 41
0.0
 71
     5
 72
     1
  1
32
 11
0.9816271834476658
 21
-0.1908089953765348
 31
0.0
 73
     1
 44
1.0
1001
ACAD
1000
MTEXTBEGIN
1070
    73
1070
     1
1070
    44
1040
1.0
1070
    74
1070
     0
1000
MTEXTEND
  0
POINT
  5
198F
330
8F3
100
AcDbEntity
  8
Defpoints
 62
     0
100
AcDbPoint
 10
124.1331607787775
 20
112.7660151802545
 30
0.0
  0
POINT
  5
1990
330
8F3
100
AcDbEntity
  8
Defpoints
 62
     0
100
AcDbPoint
 10
116.2801433111961
 20
114.2924871432668
 30
0.0
  0
POINT
  5
1991
330
8F3
100
AcDbEntity
  8
Defpoints
 62
     0
100
AcDbPoint
 10
119.9390665231448
 20
133.1160152474259
 30
0.0
  0
ENDBLK
  5
8F5
330
8F3
100
AcDbEntity
  8
0
100
AcDbBlockEnd
  0
BLOCK
  5
900
330
8FF
100
AcDbEntity
  8
0
100
AcDbBlockBegin
  2
*D28
 70
     1
 10
0.0
 20
0.0
 30
0.0
  3
*D28
  1

  0
LINE
  5
1992
330
8FF
100
AcDbEntity
  8
0
 62
     0
370
    -2
100
AcDbLine
 10
130.0706261283073
 20
111.866568003857
 30
0.0
 11
133.9203583356331
 21
131.6717232914634
 31
0.0
  0
LINE
  5
1993
330
8FF
100
AcDbEntity
  8
0
 62
     0
370
    -2
100
AcDbLine
 10
124.1808630276216
 20
113.0114219761163
 30
0.0
 11
128.0305952349474
 21
132.8165772637227
 31
0.0
  0
LINE
  5
1994
330
8FF
100
AcDbEntity
  8
0
 62
     0
370
    -2
100
AcDbLine
 10
125.3380160321076
 20
132.0665657728546
 30
0.0
 11
122.8839480734884
 21
132.5435882612959
 31
0.0
  0
LINE
  5
1995
330
8FF
100
AcDbEntity
  8
0
 62
     0
370
    -2
100
AcDbLine
 10
136.1359150500316
 20
129.9676668237124
 30
0.0
 11
144.7251529051986
 21
128.2980881141675
 31
0.0
  0
LINE
  5
1996
330
8FF
100
AcDbEntity
  8
0
 62
     0
370
    -2
100
AcDbLine
 10
127.7920839907267
 20
131.5895432844131
 30
0.0
 11
133.6818470914124
 21
130.4446893121538
 31
0.0
  0
INSERT
  5
1997
330
8FF
100
AcDbEntity
  8
0
 62
     0
370
    -2
100
AcDbBlockReference
  2
_Open30
 10
127.7920839907267
 20
131.5895432844131
 30
0.0
 41
2.5
 42
2.5
 43
2.5
 50
348.999999999999
  0
INSERT
  5
1998
330
8FF
100
AcDbEntity
  8
0
 62
     0
370
    -2
100
AcDbBlockReference
  2
_Open30
 10
133.6818470914124
 20
130.4446893121538
 30
0.0
 41
2.5
 42
2.5
 43
2.5
 50
168.999999999999
  0
MTEXT
  5
1999
330
8FF
100
AcDbEntity
  8
0
 62
     4
100
AcDbMText
 10
142.0630370720999
 20
130.9803239895455
 30
0.0
 40
3.0
 41
0.0
 71
     5
 72
     1
  1
24
 11
0.9816271834476609
 21
-0.190808995376561
 31
0.0
 73
     1
 44
1.0
1001
ACAD
1000
MTEXTBEGIN
1070
    73
1070
     1
1070
    44
1040
1.0
1070
    74
1070
     0
1000
MTEXTEND
  0
POINT
  5
199A
330
8FF
100
AcDbEntity
  8
Defpoints
 62
     0
100
AcDbPoint
 10
130.0229238794632
 20
111.6211612079951
 30
0.0
  0
POINT
  5
199B
330
8FF
100
AcDbEntity
  8
Defpoints
 62
     0
100
AcDbPoint
 10
124.1331607787775
 20
112.7660151802544
 30
0.0
  0
POINT
  5
199C
330
8FF
100
AcDbEntity
  8
Defpoints
 62
     0
100
AcDbPoint
 10
127.7920839907267
 20
131.5895432844131
 30
0.0
  0
ENDBLK
  5
901
330
8FF
100
AcDbEntity
  8
0
100
AcDbBlockEnd
  0
BLOCK
  5
90E
330
90D
100
AcDbEntity
  8
0
100
AcDbBlockBegin
  2
*D29
 70
     1
 10
0.0
 20
0.0
 30
0.0
  3
*D29
  1

  0
LINE
  5
199D
330
90D
100
AcDbEntity
  8
0
 62
     0
370
    -2
100
AcDbLine
 10
134.2291795645103
 20
112.2970985280297
 30
0.0
 11
139.6163986383838
 21
140.0119380494367
 31
0.0
  0
LINE
  5
199E
330
90D
100
AcDbEntity
  8
0
 62
     0
370
    -2
100
AcDbLine
 10
112.6333815286622
 20
116.4948964263137
 30
0.0
 11
118.0206006025357
 21
144.2097359477207
 31
0.0
  0
LINE
  5
199F
330
90D
100
AcDbEntity
  8
0
 62
     0
370
    -2
100
AcDbLine
 10
136.9238194355439
 20
139.2619265585685
 30
0.0
 11
120.2361573169342
 21
142.5056794799698
 31
0.0
  0
INSERT
  5
19A0
330
90D
100
AcDbEntity
  8
0
 62
     0
370
    -2
100
AcDbBlockReference
  2
_Open30
 10
139.3778873941631
 20
138.7849040701272
 30
0.0
 41
2.5
 42
2.5
 43
2.5
 50
348.9999999999997
  0
INSERT
  5
19A1
330
90D
100
AcDbEntity
  8
0
 62
     0
370
    -2
100
AcDbBlockReference
  2
_Open30
 10
117.782089358315
 20
142.9827019684111
 30
0.0
 41
2.5
 42
2.5
 43
2.5
 50
168.9999999999997
  0
MTEXT
  5
19A2
330
90D
100
AcDbEntity
  8
0
 62
     4
100
AcDbMText
 10
128.9854574914146
 20
142.9697607840954
 30
0.0
 40
3.0
 41
0.0
 71
     5
 72
     1
  1
88
 11
0.981627183447663
 21
-0.1908089953765497
 31
0.0
 73
     1
 44
1.0
1001
ACAD
1000
MTEXTBEGIN
1070
    73
1070
     1
1070
    44
1040
1.0
1070
    74
1070
     0
1000
MTEXTEND
  0
POINT
  5
19A3
330
90D
100
AcDbEntity
  8
Defpoints
 62
     0
100
AcDbPoint
 10
134.1814773156662
 20
112.0516917321678
 30
0.0
  0
POINT
  5
19A4
330
90D
100
AcDbEntity
  8
Defpoints
 62
     0
100
AcDbPoint
 10
112.5856792798181
 20
116.2494896304518
 30
0.0
  0
POINT
  5
19A5
330
90D
100
AcDbEntity
  8
Defpoints
 62
     0
100
AcDbPoint
 10
117.782089358315
 20
142.9827019684111
 30
0.0
  0
ENDBLK
  5
90F
330
90D
100
AcDbEntity
  8
0
100
AcDbBlockEnd
  0
BLOCK
  5
91A
330
919
100
AcDbEntity
  8
0
100
AcDbBlockBegin
  2
*D30
 70
     1
 10
0.0
 20
0.0
 30
0.0
  3
*D30
  1

  0
LINE
  5
19A6
330
919
100
AcDbEntity
  8
0
 62
     0
370
    -2
100
AcDbLine
 10
132.0417716693213
 20
99.73364969022798
 30
0.0
 11
136.6475684581592
 21
98.83837348658817
 31
0.0
  0
LINE
  5
19A7
330
919
100
AcDbEntity
  8
0
 62
     0
370
    -2
100
AcDbLine
 10
134.426884111528
 20
112.0039894833236
 30
0.0
 11
139.032680900366
 21
111.1087132796838
 31
0.0
  0
LINE
  5
19A8
330
919
100
AcDbEntity
  8
0
 62
     0
370
    -2
100
AcDbLine
 10
134.9435119904083
 20
96.62281677218969
 30
0.0
 11
134.466489501967
 21
94.16874881357051
 31
0.0
  0
LINE
  5
19A9
330
919
100
AcDbEntity
  8
0
 62
     0
370
    -2
100
AcDbLine
 10
138.2826694094977
 20
113.8012924825236
 30
0.0
 11
140.1907593632631
 21
123.6175643170002
 31
0.0
  0
LINE
  5
19AA
330
919
100
AcDbEntity
  8
0
 62
     0
370
    -2
100
AcDbLine
 10
135.4205344788496
 20
99.07688473080884
 30
0.0
 11
137.8056469210564
 21
111.3472245239045
 31
0.0
  0
INSERT
  5
19AB
330
919
100
AcDbEntity
  8
0
 62
     0
370
    -2
100
AcDbBlockReference
  2
_Open30
 10
135.4205344788496
 20
99.07688473080884
 30
0.0
 41
2.5
 42
2.5
 43
2.5
 50
79.00000000000027
  0
INSERT
  5
19AC
330
919
100
AcDbEntity
  8
0
 62
     0
370
    -2
100
AcDbBlockReference
  2
_Open30
 10
137.8056469210564
 20
111.3472245239045
 30
0.0
 41
2.5
 42
2.5
 43
2.5
 50
259.0000000000003
  0
MTEXT
  5
19AD
330
919
100
AcDbEntity
  8
0
 62
     4
100
AcDbMText
 10
137.5562257367293
 20
121.2008552797634
 30
0.0
 40
3.0
 41
0.0
 71
     5
 72
     1
  1
50
 11
0.1908089953765399
 21
0.9816271834476648
 31
0.0
 73
     1
 44
1.0
1001
ACAD
1000
MTEXTBEGIN
1070
    73
1070
     1
1070
    44
1040
1.0
1070
    74
1070
     0
1000
MTEXTEND
  0
POINT
  5
19AE
330
919
100
AcDbEntity
  8
Defpoints
 62
     0
100
AcDbPoint
 10
131.7963648734594
 20
99.78135193907212
 30
0.0
  0
POINT
  5
19AF
330
919
100
AcDbEntity
  8
Defpoints
 62
     0
100
AcDbPoint
 10
134.1814773156661
 20
112.0516917321678
 30
0.0
  0
POINT
  5
19B0
330
919
100
AcDbEntity
  8
Defpoints
 62
     0
100
AcDbPoint
 10
137.8056469210564
 20
111.3472245239045
 30
0.0
  0
ENDBLK
  5
91B
330
919
100
AcDbEntity
  8
0
100
AcDbBlockEnd
  0
BLOCK
  5
928
330
927
100
AcDbEntity
  8
0
100
AcDbBlockBegin
  2
*D31
 70
     1
 10
0.0
 20
0.0
 30
0.0
  3
*D31
  1

  0
LINE
  5
19B1
330
927
100
AcDbEntity
  8
0
 62
     0
370
    -2
100
AcDbLine
 10
107.5700475995425
 20
91.75651229310444
 30
0.0
 11
91.2955599408608
 21
94.91995223525705
 31
0.0
  0
LINE
  5
19B2
330
927
100
AcDbEntity
  8
0
 62
     0
370
    -2
100
AcDbLine
 10
114.725384926163
 20
128.5675316723915
 30
0.0
 11
98.45089726748133
 21
131.7309716145441
 31
0.0
  0
LINE
  5
19B3
330
927
100
AcDbEntity
  8
0
 62
     0
370
    -2
100
AcDbLine
 10
92.99961640861175
 20
97.13550894965553
 30
0.0
 11
99.20090875834953
 21
129.0383924117042
 31
0.0
  0
INSERT
  5
19B4
330
927
100
AcDbEntity
  8
0
 62
     0
370
    -2
100
AcDbBlockReference
  2
_Open30
 10
92.52259392017039
 20
94.68144099103637
 30
0.0
 41
2.5
 42
2.5
 43
2.5
 50
258.9999999999998
  0
INSERT
  5
19B5
330
927
100
AcDbEntity
  8
0
 62
     0
370
    -2
100
AcDbBlockReference
  2
_Open30
 10
99.6779312467909
 20
131.4924603703234
 30
0.0
 41
2.5
 42
2.5
 43
2.5
 50
78.99999999999979
  0
MTEXT
  5
19B6
330
927
100
AcDbEntity
  8
0
 62
     4
100
AcDbMText
 10
93.91124193302491
 20
112.9622072136926
 30
0.0
 40
3.0
 41
0.0
 71
     5
 72
     1
  1
150
 11
0.1908089953765484
 21
0.9816271834476633
 31
0.0
 73
     1
 44
1.0
1001
ACAD
1000
MTEXTBEGIN
1070
    73
1070
     1
1070
    44
1040
1.0
1070
    74
1070
     0
1000
MTEXTEND
  0
POINT
  5
19B7
330
927
100
AcDbEntity
  8
Defpoints
 62
     0
100
AcDbPoint
 10
107.8154543954044
 20
91.7088100442603
 30
0.0
  0
POINT
  5
19B8
330
927
100
AcDbEntity
  8
Defpoints
 62
     0
100
AcDbPoint
 10
114.970791722025
 20
128.5198294235474
 30
0.0
  0
POINT
  5
19B9
330
927
100
AcDbEntity
  8
Defpoints
 62
     0
100
AcDbPoint
 10
99.6779312467909
 20
131.4924603703234
 30
0.0
  0
ENDBLK
  5
929
330
927
100
AcDbEntity
  8
0
100
AcDbBlockEnd
  0
BLOCK
  5
934
330
933
100
AcDbEntity
  8
0
100
AcDbBlockBegin
  2
*D32
 70
     1
 10
0.0
 20
0.0
 30
0.0
  3
*D32
  1

  0
LINE
  5
19BA
330
933
100
AcDbEntity
  8
0
 62
     0
370
    -2
100
AcDbLine
 10
115.6207696141419
 20
89.93693128538593
 30
0.0
 11
114.5876206084637
 21
84.62184041912658
 31
0.0
  0
LINE
  5
19BB
330
933
100
AcDbEntity
  8
0
 62
     0
370
    -2
100
AcDbLine
 10
107.7677521465604
 20
91.46340324839774
 30
0.0
 11
106.7346031408822
 21
86.14831238213838
 31
0.0
  0
LINE
  5
19BC
330
933
100
AcDbEntity
  8
0
 62
     0
370
    -2
100
AcDbLine
 10
112.3720638940651
 20
86.32589688687735
 30
0.0
 11
109.427182343722
 21
86.89832387300681
 31
0.0
  0
INSERT
  5
19BD
330
933
100
AcDbEntity
  8
0
 62
     0
370
    -2
100
AcDbBlockReference
  2
_Open30
 10
114.8261318526843
 20
85.84887439843617
 30
0.0
 41
2.5
 42
2.5
 43
2.5
 50
349.0000000000042
  0
INSERT
  5
19BE
330
933
100
AcDbEntity
  8
0
 62
     0
370
    -2
100
AcDbBlockReference
  2
_Open30
 10
106.9731143851028
 20
87.37534636144799
 30
0.0
 41
2.5
 42
2.5
 43
2.5
 50
169.0000000000042
  0
MTEXT
  5
19BF
330
933
100
AcDbEntity
  8
0
 62
     4
100
AcDbMText
 10
110.965753453904
 20
88.76402892175917
 30
0.0
 40
3.0
 41
0.0
 71
     5
 72
     1
  1
32
 11
0.9816271834476779
 21
-0.1908089953764729
 31
0.0
 73
     1
 44
1.0
1001
ACAD
1000
MTEXTBEGIN
1070
    73
1070
     1
1070
    44
1040
1.0
1070
    74
1070
     0
1000
MTEXTEND
  0
POINT
  5
19C0
330
933
100
AcDbEntity
  8
Defpoints
 62
     0
100
AcDbPoint
 10
115.668471862986
 20
90.18233808124785
 30
0.0
  0
POINT
  5
19C1
330
933
100
AcDbEntity
  8
Defpoints
 62
     0
100
AcDbPoint
 10
107.8154543954045
 20
91.70881004425964
 30
0.0
  0
POINT
  5
19C2
330
933
100
AcDbEntity
  8
Defpoints
 62
     0
100
AcDbPoint
 10
106.9731143851028
 20
87.37534636144799
 30
0.0
  0
ENDBLK
  5
935
330
933
100
AcDbEntity
  8
0
100
AcDbBlockEnd
  0
ENDSEC
  0
SECTION
  2
ENTITIES
  0
LINE
  5
53A
330
1F
100
AcDbEntity
  8
0
 62
     3
100
AcDbLine
 10
393.9523865853931
 20
14.01381023329941
 30
0.0
 11
393.9523865853931
 21
53.67953276329945
 31
0.0
  0
LINE
  5
53B
330
1F
100
AcDbEntity
  8
0
 62
     3
100
AcDbLine
 10
406.952386585393
 20
23.67953276329945
 30
0.0
 11
406.952386585393
 21
51.67953276329933
 31
0.0
  0
LINE
  5
53C
330
1F
100
AcDbEntity
  8
0
 62
     3
100
AcDbLine
 10
366.898777155393
 20
23.67953276329945
 30
0.0
 11
366.898777155393
 21
37.67953276329933
 31
0.0
  0
LINE
  5
53D
330
1F
100
AcDbEntity
  8
0
 62
     3
100
AcDbLine
 10
377.2307115153931
 20
37.67953276329933
 30
0.0
 11
377.2307115153931
 21
14.01381023329941
 31
0.0
  0
LINE
  5
53E
330
1F
100
AcDbEntity
  8
0
 62
     3
100
AcDbLine
 10
347.5937422053926
 20
53.67953276329945
 30
0.0
 11
347.5937422053926
 21
30.67953276329945
 31
0.0
  0
LINE
  5
53F
330
1F
100
AcDbEntity
  8
0
 62
     3
100
AcDbLine
 10
406.952386585393
 20
51.67953276329933
 30
0.0
 11
406.952386585393
 21
53.67953276329945
 31
0.0
  0
LINE
  5
540
330
1F
100
AcDbEntity
  8
0
 62
     3
100
AcDbLine
 10
419.9523865853926
 20
30.67953276329945
 30
0.0
 11
419.9523865853926
 21
53.67953276329945
 31
0.0
  0
LINE
  5
541
330
1F
100
AcDbEntity
  8
0
 62
     3
100
AcDbLine
 10
445.6517500653927
 20
53.67953276329945
 30
0.0
 11
334.3483075653931
 21
53.67953276329945
 31
0.0
  0
LINE
  5
542
330
1F
100
AcDbEntity
  8
0
 62
     3
100
AcDbLine
 10
445.6517500653927
 20
59.67953276329946
 30
0.0
 11
393.9523865853931
 21
59.67953276329946
 31
0.0
  0
LINE
  5
543
330
1F
100
AcDbEntity
  8
0
 62
     3
100
AcDbLine
 10
445.6517500653927
 20
44.67953276329946
 30
0.0
 11
334.3483075653931
 21
44.67953276329946
 31
0.0
  0
LINE
  5
544
330
1F
100
AcDbEntity
  8
0
 62
     3
100
AcDbLine
 10
445.6517500653927
 20
30.67953276329945
 30
0.0
 11
334.3483075653931
 21
30.67953276329945
 31
0.0
  0
LINE
  5
545
330
1F
100
AcDbEntity
  8
0
 62
     3
100
AcDbLine
 10
445.6517500653927
 20
23.67953276329945
 30
0.0
 11
334.3483075653931
 21
23.67953276329945
 31
0.0
  0
LINE
  5
546
330
1F
100
AcDbEntity
  8
0
 62
     3
100
AcDbLine
 10
432.9523865853926
 20
30.67953276329945
 30
0.0
 11
432.9523865853926
 21
53.67953276329945
 31
0.0
  0
LINE
  5
547
330
1F
100
AcDbEntity
  8
0
 62
     3
100
AcDbLine
 10
334.3483075653931
 20
53.67953276329945
 30
0.0
 11
334.3483075653931
 21
14.01381023329941
 31
0.0
  0
LINE
  5
548
330
1F
100
AcDbEntity
  8
0
 62
     3
100
AcDbLine
 10
393.9523865853931
 20
37.67953276329933
 30
0.0
 11
334.3483075653931
 21
37.67953276329933
 31
0.0
  0
LINE
  5
549
330
1F
100
AcDbEntity
  8
0
 62
     3
100
AcDbLine
 10
377.2307115153931
 20
18.84667149329948
 30
0.0
 11
393.9523865853931
 21
18.84667149329948
 31
0.0
  0
LINE
  5
54A
330
1F
100
AcDbEntity
  8
0
 62
     3
100
AcDbLine
 10
55.65175006539273
 20
288.0138102332993
 30
0.0
 11
55.65175006539273
 21
14.01381023329941
 31
0.0
  0
LINE
  5
54B
330
1F
100
AcDbEntity
  8
0
 62
     3
100
AcDbLine
 10
445.6517500653927
 20
14.01381023329941
 30
0.0
 11
445.6517500653927
 21
288.0138102332993
 31
0.0
  0
LINE
  5
54E
330
1F
100
AcDbEntity
  8
0
 62
     3
100
AcDbLine
 10
55.65175006539273
 20
14.01381023329941
 30
0.0
 11
445.6517500653927
 21
14.01381023329941
 31
0.0
  0
TEXT
  5
550
330
1F
100
AcDbEntity
  8
0
 62
     3
100
AcDbText
 10
349.0951458506452
 20
33.04561776106459
 30
0.0
 40
2.5
  1
鋼管
  7
高2.5
100
AcDbText
  0
TEXT
  5
551
330
1F
100
AcDbEntity
  8
0
 62
     3
100
AcDbText
 10
349.4136630353424
 20
45.99600042164275
 30
0.0
 40
4.5
  1
ストレートアーム白
 41
0.8
  7
高4.5
100
AcDbText
1001
ACAD
1000
ACAD_MTEXT_DEFINED_HEIGHT_BEGIN
1070
    46
1040
0.0
1000
ACAD_MTEXT_DEFINED_HEIGHT_END
  0
TEXT
  5
552
330
1F
100
AcDbEntity
  8
0
 62
     3
100
AcDbText
 10
435.7173391588666
 20
50.19322486200302
 30
0.0
 40
2.0
  1
DEF
  7
高2
100
AcDbText
  0
TEXT
  5
553
330
1F
100
AcDbEntity
  8
0
 62
     3
100
AcDbText
 10
422.0788773251583
 20
50.19322486200293
 30
0.0
 40
2.0
  1
DESN
  7
高2
100
AcDbText
  0
TEXT
  5
554
330
1F
100
AcDbEntity
  8
0
 62
     3
100
AcDbText
 10
395.8245103851583
 20
50.19322486200302
 30
0.0
 40
2.0
  1
APPD
  7
高2
100
AcDbText
  0
TEXT
  5
555
330
1F
100
AcDbEntity
  8
0
 62
     3
100
AcDbText
 10
408.9372464853926
 20
50.19322486200302
 30
0.0
 40
2.0
  1
CHCK
  7
高2
100
AcDbText
  0
TEXT
  5
556
330
1F
100
AcDbEntity
  8
0
 62
     3
100
AcDbText
 10
368.1578771545456
 20
27.84793158653008
 30
0.0
 40
2.0
  1
SCALE
 41
0.8
  7
高2
100
AcDbText
  0
TEXT
  5
557
330
1F
100
AcDbEntity
  8
0
 62
     3
100
AcDbText
 10
346.5450840082736
 20
27.84793158653008
 30
0.0
 40
2.0
  1
ANGLE
 41
1.5
  7
高2
100
AcDbText
  0
TEXT
  5
558
330
1F
100
AcDbEntity
  8
0
 62
     3
100
AcDbText
 10
336.0328862684387
 20
27.8479315865302
 30
0.0
 40
2.0
  1
3AD
 41
1.5
  7
高2
100
AcDbText
  0
TEXT
  5
559
330
1F
100
AcDbEntity
  8
0
 62
     3
100
AcDbText
 10
367.4272828453941
 20
34.59946965548727
 30
0.0
 40
2.0
  1
REMARKS
 41
0.7
  7
高2
100
AcDbText
  0
TEXT
  5
55A
330
1F
100
AcDbEntity
  8
0
 62
     3
100
AcDbText
 10
335.815977915393
 20
34.59946965548727
 30
0.0
 40
2.0
  1
MATERIAL
 41
0.7
  7
高2
100
AcDbText
  0
TEXT
  5
55B
330
1F
100
AcDbEntity
  8
0
 62
     3
100
AcDbText
 10
335.7715338051485
 20
41.93527229762856
 30
0.0
 40
2.0
  1
MODEL
  7
高2
100
AcDbText
  0
TEXT
  5
55C
330
1F
100
AcDbEntity
  8
0
 62
     3
100
AcDbText
 10
336.0293859994782
 20
50.38655411389846
 30
0.0
 40
2.0
  1
CONPONENTS
 41
0.5
  7
高2
100
AcDbText
  0
TEXT
  5
55D
330
1F
100
AcDbEntity
  8
0
 62
     3
100
AcDbText
 10
349.0951458506452
 20
38.76701389111133
 30
0.0
 40
4.5
  1
SS-900
  7
高4.5
100
AcDbText
  0
TEXT
  5
55E
330
1F
100
AcDbEntity
  8
0
 62
     3
100
AcDbText
 10
397.0174323160114
 20
16.05227162866504
 30
0.0
 40
6.299999999999998
  1
SS-900
  7
高6.3
100
AcDbText
1001
ACAD
1000
ACAD_MTEXT_DEFINED_HEIGHT_BEGIN
1070
    46
1040
0.0
1000
ACAD_MTEXT_DEFINED_HEIGHT_END
  0
TEXT
  5
55F
330
1F
100
AcDbEntity
  8
0
 62
     3
100
AcDbText
 10
410.5158963357219
 20
24.78042192153238
 30
0.0
 40
3.2
  1
2011.04.22
  7
高3.2
100
AcDbText
1001
ACAD
1000
ACAD_MTEXT_DEFINED_HEIGHT_BEGIN
1070
    46
1040
0.0
1000
ACAD_MTEXT_DEFINED_HEIGHT_END
  0
TEXT
  5
560
330
1F
100
AcDbEntity
  8
0
 62
     3
100
AcDbText
 10
380.7399844800394
 20
24.78044976586728
 30
0.0
 40
3.2
  1
1/4
  7
高3.2
100
AcDbText
  0
TEXT
  5
561
330
1F
100
AcDbEntity
  8
0
 62
     3
100
AcDbText
 10
377.8173134553927
 20
14.83068840643534
 30
0.0
 40
3.2
  1
ZK-A3X
 41
0.8
  7
高3.2
100
AcDbText
  0
TEXT
  5
562
330
1F
100
AcDbEntity
  8
0
 62
     3
100
AcDbText
 10
335.815977915393
 20
20.53843065548722
 30
0.0
 40
2.0
  1
NICHIDO IND.CO.LTD
 41
1.3
  7
高2
100
AcDbText
  0
TEXT
  5
563
330
1F
100
AcDbEntity
  8
0
 62
     3
100
AcDbText
 10
336.3605318703499
 20
45.82006097118436
 30
0.0
 40
3.2
  1
品 名
  7
高3.2
100
AcDbText
1001
ACAD
1000
ACAD_MTEXT_DEFINED_HEIGHT_BEGIN
1070
    46
1040
0.0
1000
ACAD_MTEXT_DEFINED_HEIGHT_END
  0
TEXT
  5
564
330
1F
100
AcDbEntity
  8
0
 62
     3
100
AcDbText
 10
336.3605318703499
 20
38.28958897604207
 30
0.0
 40
3.2
  1
型 式
  7
高3.2
100
AcDbText
1001
ACAD
1000
ACAD_MTEXT_DEFINED_HEIGHT_BEGIN
1070
    46
1040
3.064735913775952
1000
ACAD_MTEXT_DEFINED_HEIGHT_END
  0
TEXT
  5
565
330
1F
100
AcDbEntity
  8
0
 62
     3
100
AcDbText
 10
336.3605318703499
 20
30.92754934852962
 30
0.0
 40
3.2
  1
材 質
  7
高3.2
100
AcDbText
1001
ACAD
1000
ACAD_MTEXT_DEFINED_HEIGHT_BEGIN
1070
    46
1040
0.0
1000
ACAD_MTEXT_DEFINED_HEIGHT_END
  0
TEXT
  5
566
330
1F
100
AcDbEntity
  8
0
 62
     3
100
AcDbText
 10
336.3605318703499
 20
24.14697275554568
 30
0.0
 40
3.2
  1
第 三 角 法
  7
高3.2
100
AcDbText
1001
ACAD
1000
ACAD_MTEXT_DEFINED_HEIGHT_BEGIN
1070
    46
1040
0.0
1000
ACAD_MTEXT_DEFINED_HEIGHT_END
  0
TEXT
  5
567
330
1F
100
AcDbEntity
  8
0
 62
     3
100
AcDbText
 10
335.0989988378788
 20
15.15433844118433
 30
0.0
 40
3.2
  1
日動工業株式会社
 41
1.199999999999999
  7
高3.2
100
AcDbText
1001
ACAD
1000
ACAD_MTEXT_DEFINED_HEIGHT_BEGIN
1070
    46
1040
0.0
1000
ACAD_MTEXT_DEFINED_HEIGHT_END
  0
TEXT
  5
568
330
1F
100
AcDbEntity
  8
0
 62
     3
100
AcDbText
 10
368.7346230373574
 20
31.06411129646699
 30
0.0
 40
3.2
  1
備考
  7
高3.2
100
AcDbText
1001
ACAD
1000
ACAD_MTEXT_DEFINED_HEIGHT_BEGIN
1070
    46
1040
0.0
1000
ACAD_MTEXT_DEFINED_HEIGHT_END
  0
TEXT
  5
569
330
1F
100
AcDbEntity
  8
0
 62
     3
100
AcDbText
 10
378.1053555543927
 20
20.16004025886969
 30
0.0
 40
2.5
  1
出図コード
  7
高2.5
100
AcDbText
1001
ACAD
1000
ACAD_MTEXT_DEFINED_HEIGHT_BEGIN
1070
    46
1040
0.0
1000
ACAD_MTEXT_DEFINED_HEIGHT_END
  0
TEXT
  5
56A
330
1F
100
AcDbEntity
  8
0
 62
     3
100
AcDbText
 10
368.5758569192699
 20
24.13276767371236
 30
0.0
 40
3.2
  1
尺度
  7
高3.2
100
AcDbText
1001
ACAD
1000
ACAD_MTEXT_DEFINED_HEIGHT_BEGIN
1070
    46
1040
0.0
1000
ACAD_MTEXT_DEFINED_HEIGHT_END
  0
TEXT
  5
56B
330
1F
100
AcDbEntity
  8
0
 62
     3
100
AcDbText
 10
395.4437934710487
 20
25.26424612182984
 30
0.0
 40
3.2
  1
作成日
  7
高3.2
100
AcDbText
1001
ACAD
1000
ACAD_MTEXT_DEFINED_HEIGHT_BEGIN
1070
    46
1040
0.0
1000
ACAD_MTEXT_DEFINED_HEIGHT_END
  0
TEXT
  5
56C
330
1F
100
AcDbEntity
  8
0
 62
     3
100
AcDbText
 10
395.3382674779128
 20
45.82006097118436
 30
0.0
 40
3.2
  1
承 認
  7
高3.2
100
AcDbText
1001
ACAD
1000
ACAD_MTEXT_DEFINED_HEIGHT_BEGIN
1070
    46
1040
0.0
1000
ACAD_MTEXT_DEFINED_HEIGHT_END
  0
TEXT
  5
56D
330
1F
100
AcDbEntity
  8
0
 62
     3
100
AcDbText
 10
408.3382674779127
 20
45.82006097118436
 30
0.0
 40
3.2
  1
検 図
  7
高3.2
100
AcDbText
1001
ACAD
1000
ACAD_MTEXT_DEFINED_HEIGHT_BEGIN
1070
    46
1040
0.0
1000
ACAD_MTEXT_DEFINED_HEIGHT_END
  0
TEXT
  5
56E
330
1F
100
AcDbEntity
  8
0
 62
     3
100
AcDbText
 10
421.3382674779126
 20
45.82006097118436
 30
0.0
 40
3.2
  1
設 計
  7
高3.2
100
AcDbText
1001
ACAD
1000
ACAD_MTEXT_DEFINED_HEIGHT_BEGIN
1070
    46
1040
0.0
1000
ACAD_MTEXT_DEFINED_HEIGHT_END
  0
TEXT
  5
56F
330
1F
100
AcDbEntity
  8
0
 62
     3
100
AcDbText
 10
434.3382674779125
 20
45.82006097118436
 30
0.0
 40
3.2
  1
製 図
  7
高3.2
100
AcDbText
1001
ACAD
1000
ACAD_MTEXT_DEFINED_HEIGHT_BEGIN
1070
    46
1040
0.0
1000
ACAD_MTEXT_DEFINED_HEIGHT_END
  0
LINE
  5
570
330
1F
100
AcDbEntity
  8
0
 62
     3
100
AcDbLine
 10
233.4266395353928
 20
290.4538123732995
 30
0.0
 11
234.0491365453928
 21
290.1288578932994
 31
0.0
  0
LINE
  5
571
330
1F
100
AcDbEntity
  8
0
 62
     3
100
AcDbLine
 10
233.4266395353928
 20
285.1243402732995
 30
0.0
 11
234.0491365453928
 21
285.4492947532993
 31
0.0
  0
LINE
  5
572
330
1F
100
AcDbEntity
  8
0
 62
     3
100
AcDbLine
 10
234.0491365453928
 20
290.1288578932994
 30
0.0
 11
234.0491365453928
 21
285.4492947532993
 31
0.0
  0
LINE
  5
573
330
1F
100
AcDbEntity
  8
0
 62
     3
100
AcDbLine
 10
235.6255900053928
 20
285.1243402732995
 30
0.0
 11
235.0030929953928
 21
285.4492947532993
 31
0.0
  0
LINE
  5
574
330
1F
100
AcDbEntity
  8
0
 62
     3
100
AcDbLine
 10
235.0030929953928
 20
288.3019502032995
 30
0.0
 11
235.0030929953928
 21
285.4492947532993
 31
0.0
  0
LINE
  5
575
330
1F
100
AcDbEntity
  8
0
 62
     3
100
AcDbLine
 10
239.2568225453929
 20
290.4538123732995
 30
0.0
 11
238.6343255453929
 21
290.1288578932994
 31
0.0
  0
LINE
  5
576
330
1F
100
AcDbEntity
  8
0
 62
     3
100
AcDbLine
 10
237.0578720753929
 20
290.4538123732995
 30
0.0
 11
237.6803690853929
 21
290.1288578932994
 31
0.0
  0
LINE
  5
577
330
1F
100
AcDbEntity
  8
0
 62
     3
100
AcDbLine
 10
237.6803690853929
 20
290.1288578932994
 30
0.0
 11
237.6803690853929
 21
288.0683763732994
 31
0.0
  0
LINE
  5
578
330
1F
100
AcDbEntity
  8
0
 62
     3
100
AcDbLine
 10
238.6343255453929
 20
290.1288578932994
 30
0.0
 11
238.6343255453929
 21
284.8221100632994
 31
0.0
  0
LINE
  5
579
330
1F
100
AcDbEntity
  8
0
 62
     3
100
AcDbLine
 10
239.5643899853929
 20
290.4538086232997
 30
0.0
 11
240.1868847453928
 21
290.1288498532993
 31
0.0
  0
LINE
  5
57A
330
1F
100
AcDbEntity
  8
0
 62
     3
100
AcDbLine
 10
239.5642785953929
 20
285.1244116632994
 30
0.0
 11
240.1867869453927
 21
285.4493444132994
 31
0.0
  0
LINE
  5
57B
330
1F
100
AcDbEntity
  8
0
 62
     3
100
AcDbLine
 10
240.1868847453928
 20
290.1288498532993
 30
0.0
 11
240.1868847453928
 21
285.4493444132994
 31
0.0
  0
LINE
  5
57C
330
1F
100
AcDbEntity
  8
0
 62
     3
100
AcDbLine
 10
242.3208705453929
 20
290.4537748032993
 30
0.0
 11
241.6983689853928
 21
290.1288290432993
 31
0.0
  0
LINE
  5
57D
330
1F
100
AcDbEntity
  8
0
 62
     3
100
AcDbLine
 10
241.6983689853928
 20
290.1288290432993
 30
0.0
 11
241.6983689853928
 21
285.4493236032994
 31
0.0
  0
LINE
  5
57E
330
1F
100
AcDbEntity
  8
0
 62
     3
100
AcDbLine
 10
242.3208705453929
 20
285.1243778432994
 30
0.0
 11
241.6983689853928
 21
285.4493236032994
 31
0.0
  0
LINE
  5
57F
330
1F
100
AcDbEntity
  8
0
 62
     3
100
AcDbLine
 10
247.5926611753928
 20
290.4537162332994
 30
0.0
 11
248.2151570553929
 21
290.1287596132994
 31
0.0
  0
LINE
  5
580
330
1F
100
AcDbEntity
  8
0
 62
     3
100
AcDbLine
 10
248.2151570553929
 20
290.1287596132994
 30
0.0
 11
248.2150753853928
 21
285.4492541632993
 31
0.0
  0
LINE
  5
581
330
1F
100
AcDbEntity
  8
0
 62
     3
100
AcDbLine
 10
247.5925681553929
 20
285.1243192732994
 30
0.0
 11
248.2150753853928
 21
285.4492541632993
 31
0.0
  0
LINE
  5
582
330
1F
100
AcDbEntity
  8
0
 62
     3
100
AcDbLine
 10
250.3816054153929
 20
290.4537162332994
 30
0.0
 11
249.7591095253929
 21
290.1287596132994
 31
0.0
  0
LINE
  5
583
330
1F
100
AcDbEntity
  8
0
 62
     3
100
AcDbLine
 10
250.3816984253929
 20
285.1243192732994
 30
0.0
 11
249.7591911953928
 21
285.4492541632993
 31
0.0
  0
LINE
  5
584
330
1F
100
AcDbEntity
  8
0
 62
     3
100
AcDbLine
 10
250.6726452153928
 20
290.4537162332994
 30
0.0
 11
251.2951410953929
 21
290.1287596132994
 31
0.0
  0
LINE
  5
585
330
1F
100
AcDbEntity
  8
0
 62
     3
100
AcDbLine
 10
250.6725521953929
 20
285.1243192732994
 30
0.0
 11
251.2950594253928
 21
285.4492541632993
 31
0.0
  0
LINE
  5
586
330
1F
100
AcDbEntity
  8
0
 62
     3
100
AcDbLine
 10
253.4615894453928
 20
290.4537162332994
 30
0.0
 11
252.8390935653929
 21
290.1287596132994
 31
0.0
  0
LINE
  5
587
330
1F
100
AcDbEntity
  8
0
 62
     3
100
AcDbLine
 10
252.8390935653929
 20
290.1287596132994
 30
0.0
 11
252.8391752353928
 21
285.4492541632993
 31
0.0
  0
LINE
  5
588
330
1F
100
AcDbEntity
  8
0
 62
     3
100
AcDbLine
 10
253.4616824653929
 20
285.1243192732994
 30
0.0
 11
252.8391752353928
 21
285.4492541632993
 31
0.0
  0
LINE
  5
589
330
1F
100
AcDbEntity
  8
0
 62
     3
100
AcDbLine
 10
251.2951055153929
 20
288.0899980132994
 30
0.0
 11
249.7591451053927
 21
288.0899980132994
 31
0.0
  0
LINE
  5
58A
330
1F
100
AcDbEntity
  8
0
 62
     3
100
AcDbLine
 10
251.2950950153927
 20
287.4881546332994
 30
0.0
 11
249.7591556053929
 21
287.4881546332994
 31
0.0
  0
LINE
  5
58B
330
1F
100
AcDbEntity
  8
0
 62
     3
100
AcDbLine
 10
251.2951410953929
 20
290.1287596132994
 30
0.0
 11
251.2951055153929
 21
288.0899980132994
 31
0.0
  0
LINE
  5
58C
330
1F
100
AcDbEntity
  8
0
 62
     3
100
AcDbLine
 10
251.2950950153927
 20
287.4881546332994
 30
0.0
 11
251.2950594253928
 21
285.4492541632993
 31
0.0
  0
LINE
  5
58D
330
1F
100
AcDbEntity
  8
0
 62
     3
100
AcDbLine
 10
249.7591095253929
 20
290.1287596132994
 30
0.0
 11
249.7591451053927
 21
288.0899980132994
 31
0.0
  0
LINE
  5
58E
330
1F
100
AcDbEntity
  8
0
 62
     3
100
AcDbLine
 10
249.7591556053929
 20
287.4881546332994
 30
0.0
 11
249.7591911953928
 21
285.4492541632993
 31
0.0
  0
LINE
  5
58F
330
1F
100
AcDbEntity
  8
0
 62
     3
100
AcDbLine
 10
253.7572453353929
 20
290.4537162332994
 30
0.0
 11
254.3797412253928
 21
290.1287596132994
 31
0.0
  0
LINE
  5
590
330
1F
100
AcDbEntity
  8
0
 62
     3
100
AcDbLine
 10
254.3797412253928
 20
290.1287596132994
 30
0.0
 11
254.3796595453928
 21
285.4492541632993
 31
0.0
  0
LINE
  5
591
330
1F
100
AcDbEntity
  8
0
 62
     3
100
AcDbLine
 10
253.7571523153929
 20
285.1243192732994
 30
0.0
 11
254.3796595453928
 21
285.4492541632993
 31
0.0
  0
LINE
  5
592
330
1F
100
AcDbEntity
  8
0
 62
     3
100
AcDbLine
 10
256.5136885753928
 20
290.4537162332994
 30
0.0
 11
255.8911926853928
 21
290.1287596132994
 31
0.0
  0
LINE
  5
593
330
1F
100
AcDbEntity
  8
0
 62
     3
100
AcDbLine
 10
255.8911926853928
 20
290.1287596132994
 30
0.0
 11
255.8912743653928
 21
285.4492541632993
 31
0.0
  0
LINE
  5
594
330
1F
100
AcDbEntity
  8
0
 62
     3
100
AcDbLine
 10
256.5137815953929
 20
285.1243192732994
 30
0.0
 11
255.8912743653928
 21
285.4492541632993
 31
0.0
  0
LINE
  5
595
330
1F
100
AcDbEntity
  8
0
 62
     3
100
AcDbLine
 10
256.8199165253928
 20
290.4537162332994
 30
0.0
 11
257.4424124153928
 21
290.1287596132994
 31
0.0
  0
LINE
  5
596
330
1F
100
AcDbEntity
  8
0
 62
     3
100
AcDbLine
 10
257.4424124153928
 20
290.1287596132994
 30
0.0
 11
257.4423307453929
 21
285.4492541632993
 31
0.0
  0
LINE
  5
597
330
1F
100
AcDbEntity
  8
0
 62
     3
100
AcDbLine
 10
256.8198235153928
 20
285.1243192732994
 30
0.0
 11
257.4423307453929
 21
285.4492541632993
 31
0.0
  0
ARC
  5
598
330
1F
100
AcDbEntity
  8
0
 62
     3
100
AcDbCircle
 10
245.6042165053928
 20
287.8024902632995
 30
0.0
 40
2.98040844
100
AcDbArc
 50
97.70152350999763
 51
270.0
  0
ARC
  5
599
330
1F
100
AcDbEntity
  8
0
 62
     3
100
AcDbCircle
 10
264.0050748453928
 20
287.7725522232994
 30
0.0
 40
3.012776259999998
100
AcDbArc
 50
0.3142502699943961
 51
69.0055824499765
  0
ARC
  5
59A
330
1F
100
AcDbEntity
  8
0
 62
     3
100
AcDbCircle
 10
264.6631824553929
 20
287.7725522232994
 30
0.0
 40
3.012776259999998
100
AcDbArc
 50
110.9944175500235
 51
148.1166110199973
  0
ARC
  5
59B
330
1F
100
AcDbEntity
  8
0
 62
     3
100
AcDbCircle
 10
264.0050748453928
 20
287.8056004232993
 30
0.0
 40
3.012776259999998
100
AcDbArc
 50
290.9944175500235
 51
359.6857497300056
  0
ARC
  5
59C
330
1F
100
AcDbEntity
  8
0
 62
     3
100
AcDbCircle
 10
264.6631824553929
 20
287.8056004232993
 30
0.0
 40
3.012776259999998
100
AcDbArc
 50
211.8833889800027
 51
249.0055824499765
  0
ARC
  5
59D
330
1F
100
AcDbEntity
  8
0
 62
     3
100
AcDbCircle
 10
264.3341286553928
 20
289.0216554532993
 30
0.0
 40
1.73438712
100
AcDbArc
 50
64.36517190000059
 51
115.6348280999994
  0
ARC
  5
59E
330
1F
100
AcDbEntity
  8
0
 62
     3
100
AcDbCircle
 10
264.3341286553928
 20
286.5564971932993
 30
0.0
 40
1.73438712
100
AcDbArc
 50
244.3651719000006
 51
295.6348280999994
  0
ARC
  5
59F
330
1F
100
AcDbEntity
  8
0
 62
     3
100
AcDbCircle
 10
264.3341286553928
 20
289.0546007132995
 30
0.0
 40
0.85122233
100
AcDbArc
 50
19.48660553999981
 51
160.5133944600002
  0
ARC
  5
5A0
330
1F
100
AcDbEntity
  8
0
 62
     3
100
AcDbCircle
 10
264.3341286553928
 20
286.5564971932993
 30
0.0
 40
1.73438712
100
AcDbArc
 50
244.3651719000006
 51
295.6348280999994
  0
ARC
  5
5A1
330
1F
100
AcDbEntity
  8
0
 62
     3
100
AcDbCircle
 10
264.3341286553928
 20
286.5235519332992
 30
0.0
 40
0.85122233
100
AcDbArc
 50
199.4866055399997
 51
340.5133944600002
  0
ARC
  5
5A2
330
1F
100
AcDbEntity
  8
0
 62
     3
100
AcDbCircle
 10
257.559167935393
 20
256.0347051232994
 30
0.0
 40
37.20000000000001
100
AcDbArc
 50
69.50571479996757
 51
81.68998807001013
  0
ARC
  5
5A3
330
1F
100
AcDbEntity
  8
0
 62
     3
100
AcDbCircle
 10
257.559167935393
 20
319.5434475232995
 30
0.0
 40
37.20000000000001
100
AcDbArc
 50
278.3100119299898
 51
290.4942851999768
  0
ARC
  5
5A4
330
1F
100
AcDbEntity
  8
0
 62
     3
100
AcDbCircle
 10
269.4280309753927
 20
287.7890763232993
 30
0.0
 40
3.299999999999998
100
AcDbArc
 50
290.4942851999768
 51
69.50571479996757
  0
ARC
  5
5A5
330
1F
100
AcDbEntity
  8
0
 62
     3
100
AcDbCircle
 10
230.4280309753929
 20
287.7890763232993
 30
0.0
 40
3.299999999999998
100
AcDbArc
 50
110.4942852000324
 51
249.5057147999676
  0
ARC
  5
5A6
330
1F
100
AcDbEntity
  8
0
 62
     3
100
AcDbCircle
 10
242.2968940053928
 20
256.0347051232994
 30
0.0
 40
37.20000000000001
100
AcDbArc
 50
98.31001192998988
 51
110.4942852000324
  0
ARC
  5
5A7
330
1F
100
AcDbEntity
  8
0
 62
     3
100
AcDbCircle
 10
242.2968940053928
 20
319.5434475232995
 30
0.0
 40
37.20000000000001
100
AcDbArc
 50
249.5057147999676
 51
261.6899880700101
  0
ARC
  5
5A8
330
1F
100
AcDbEntity
  8
0
 62
     3
100
AcDbCircle
 10
249.9280309753929
 20
203.7890763232994
 30
0.0
 40
89.99999981
100
AcDbArc
 50
81.68998807001013
 51
98.31001192998988
  0
ARC
  5
5A9
330
1F
100
AcDbEntity
  8
0
 62
     3
100
AcDbCircle
 10
249.9280309753929
 20
371.7890763232994
 30
0.0
 40
89.99999981
100
AcDbArc
 50
261.6899880700101
 51
278.3100119299898
  0
ARC
  5
5AA
330
1F
100
AcDbEntity
  8
0
 62
     3
100
AcDbCircle
 10
249.9280309753929
 20
203.7890763232994
 30
0.0
 40
89.09999981
100
AcDbArc
 50
81.68998807001013
 51
98.31001192998988
  0
ARC
  5
5AB
330
1F
100
AcDbEntity
  8
0
 62
     3
100
AcDbCircle
 10
249.9280309753929
 20
371.7890763232994
 30
0.0
 40
89.09999981
100
AcDbArc
 50
261.6899880700101
 51
278.3100119299898
  0
ARC
  5
5AC
330
1F
100
AcDbEntity
  8
0
 62
     3
100
AcDbCircle
 10
257.559167935393
 20
319.5434475232995
 30
0.0
 40
36.3
100
AcDbArc
 50
278.3100119299898
 51
290.4942851999768
  0
ARC
  5
5AD
330
1F
100
AcDbEntity
  8
0
 62
     3
100
AcDbCircle
 10
257.559167935393
 20
256.0347051232994
 30
0.0
 40
36.3
100
AcDbArc
 50
69.50571479996757
 51
81.68998807001013
  0
ARC
  5
5AE
330
1F
100
AcDbEntity
  8
0
 62
     3
100
AcDbCircle
 10
269.4280309753927
 20
287.7890763232993
 30
0.0
 40
2.399999999999999
100
AcDbArc
 50
290.4942851999768
 51
69.50571479996757
  0
ARC
  5
5AF
330
1F
100
AcDbEntity
  8
0
 62
     3
100
AcDbCircle
 10
230.4280309753929
 20
287.7890763232993
 30
0.0
 40
2.399999999999999
100
AcDbArc
 50
110.4942852000324
 51
249.5057147999676
  0
ARC
  5
5B0
330
1F
100
AcDbEntity
  8
0
 62
     3
100
AcDbCircle
 10
242.2968940053928
 20
256.0347051232994
 30
0.0
 40
36.3
100
AcDbArc
 50
98.31001192998988
 51
110.4942852000324
  0
ARC
  5
5B1
330
1F
100
AcDbEntity
  8
0
 62
     3
100
AcDbCircle
 10
242.2968940053928
 20
319.5434475232995
 30
0.0
 40
36.3
100
AcDbArc
 50
249.5057147999676
 51
261.6899880700101
  0
LINE
  5
5B2
330
1F
100
AcDbEntity
  8
0
 62
     3
100
AcDbLine
 10
256.5136896953928
 20
284.8221100632994
 30
0.0
 11
253.7572442153928
 21
284.8221100632994
 31
0.0
  0
LINE
  5
5B3
330
1F
100
AcDbEntity
  8
0
 62
     3
100
AcDbLine
 10
256.5136896953928
 20
285.1243402732995
 30
0.0
 11
256.5136896953928
 21
284.8221100632994
 31
0.0
  0
LINE
  5
5B4
330
1F
100
AcDbEntity
  8
0
 62
     3
100
AcDbLine
 10
253.4615905653928
 20
290.7559015532994
 30
0.0
 11
250.6726440953928
 21
290.7559015532994
 31
0.0
  0
LINE
  5
5B5
330
1F
100
AcDbEntity
  8
0
 62
     3
100
AcDbLine
 10
253.4615905653928
 20
290.7559015532994
 30
0.0
 11
253.4615905653928
 21
290.4538123732995
 31
0.0
  0
LINE
  5
5B6
330
1F
100
AcDbEntity
  8
0
 62
     3
100
AcDbLine
 10
253.4615905653928
 20
285.1243402732995
 30
0.0
 11
253.4615905653928
 21
284.8219690432994
 31
0.0
  0
LINE
  5
5B7
330
1F
100
AcDbEntity
  8
0
 62
     3
100
AcDbLine
 10
253.4615905653928
 20
284.8219690432994
 30
0.0
 11
250.6726440953928
 21
284.8219690432994
 31
0.0
  0
LINE
  5
5B8
330
1F
100
AcDbEntity
  8
0
 62
     3
100
AcDbLine
 10
256.5136896953928
 20
290.7560425832993
 30
0.0
 11
256.5136896953928
 21
290.4538123732995
 31
0.0
  0
LINE
  5
5B9
330
1F
100
AcDbEntity
  8
0
 62
     3
100
AcDbLine
 10
256.5136896953928
 20
290.7560425832993
 30
0.0
 11
253.7572442153928
 21
290.7560425832993
 31
0.0
  0
LINE
  5
5BA
330
1F
100
AcDbEntity
  8
0
 62
     3
100
AcDbLine
 10
253.7572442153928
 20
290.7560425832993
 30
0.0
 11
253.7572442153928
 21
290.4538123732995
 31
0.0
  0
LINE
  5
5BB
330
1F
100
AcDbEntity
  8
0
 62
     3
100
AcDbLine
 10
256.8199154053928
 20
285.1243402732995
 30
0.0
 11
256.8199154053928
 21
284.8221100632994
 31
0.0
  0
LINE
  5
5BC
330
1F
100
AcDbEntity
  8
0
 62
     3
100
AcDbLine
 10
259.6546304953927
 20
284.8221100632994
 30
0.0
 11
256.8199154053928
 21
284.8221100632994
 31
0.0
  0
LINE
  5
5BD
330
1F
100
AcDbEntity
  8
0
 62
     3
100
AcDbLine
 10
258.9538638853929
 20
289.8020861232993
 30
0.0
 11
258.9538638853929
 21
285.7760665232994
 31
0.0
  0
LINE
  5
5BE
330
1F
100
AcDbEntity
  8
0
 62
     3
100
AcDbLine
 10
258.9538638853929
 20
285.7760665232994
 30
0.0
 11
259.2253624053929
 21
285.7760665232994
 31
0.0
  0
ARC
  5
5BF
330
1F
100
AcDbEntity
  8
0
 62
     3
100
AcDbCircle
 10
257.8370970653928
 20
287.7890763232993
 30
0.0
 40
2.44529939
100
AcDbArc
 50
304.5919552700177
 51
55.4080447299823
  0
LINE
  5
5C0
330
1F
100
AcDbEntity
  8
0
 62
     3
100
AcDbLine
 10
259.6546304953927
 20
290.7560425832993
 30
0.0
 11
256.8199154053928
 21
290.7560425832993
 31
0.0
  0
LINE
  5
5C1
330
1F
100
AcDbEntity
  8
0
 62
     3
100
AcDbLine
 10
256.8199154053928
 20
290.7560425832993
 30
0.0
 11
256.8199154053928
 21
290.4538123732995
 31
0.0
  0
LINE
  5
5C2
330
1F
100
AcDbEntity
  8
0
 62
     3
100
AcDbLine
 10
253.7572442153928
 20
285.1243402732995
 30
0.0
 11
253.7572442153928
 21
284.8221100632994
 31
0.0
  0
LINE
  5
5C3
330
1F
100
AcDbEntity
  8
0
 62
     3
100
AcDbLine
 10
258.9538638853929
 20
289.8020861232993
 30
0.0
 11
259.2253624053929
 21
289.8020861232993
 31
0.0
  0
LINE
  5
5C4
330
1F
100
AcDbEntity
  8
0
 62
     3
100
AcDbLine
 10
242.3207786453927
 20
285.1243402732995
 30
0.0
 11
242.3207733753928
 21
284.8220818232993
 31
0.0
  0
LINE
  5
5C5
330
1F
100
AcDbEntity
  8
0
 62
     3
100
AcDbLine
 10
239.5643278953929
 20
284.8221383132994
 30
0.0
 11
242.3207733753928
 21
284.8220902032993
 31
0.0
  0
LINE
  5
5C6
330
1F
100
AcDbEntity
  8
0
 62
     3
100
AcDbLine
 10
233.4266395353928
 20
284.8221100632994
 30
0.0
 11
235.6255900053928
 21
284.8221100632994
 31
0.0
  0
ARC
  5
5C7
330
1F
100
AcDbEntity
  8
0
 62
     3
100
AcDbCircle
 10
226.3095785653927
 20
287.8589429332997
 30
0.0
 40
21.01937947
100
AcDbArc
 50
353.866006189995
 51
357.6940342600066
  0
LINE
  5
5C8
330
1F
100
AcDbEntity
  8
0
 62
     3
100
AcDbLine
 10
245.9046926553929
 20
287.0184177132994
 30
0.0
 11
247.3119367753928
 21
287.0132107432995
 31
0.0
  0
LINE
  5
5CA
330
1F
100
AcDbEntity
  8
0
 62
     3
100
AcDbLine
 10
245.9103761053928
 20
288.5544387732995
 30
0.0
 11
247.3176202253929
 21
288.5492318032994
 31
0.0
  0
ARC
  5
5CB
330
1F
100
AcDbEntity
  8
0
 62
     3
100
AcDbCircle
 10
226.3095785653927
 20
287.8589429332997
 30
0.0
 40
21.01937947
100
AcDbArc
 50
1.881965739991413
 51
5.709993809994037
  0
LINE
  5
5CC
330
1F
100
AcDbEntity
  8
0
 62
     3
100
AcDbLine
 10
242.3208769353928
 20
290.7560143332995
 30
0.0
 11
242.3208716653929
 21
290.4538123732995
 31
0.0
  0
LINE
  5
5CD
330
1F
100
AcDbEntity
  8
0
 62
     3
100
AcDbLine
 10
239.5644314553929
 20
290.7560708232994
 30
0.0
 11
242.3208769353928
 21
290.7560227132993
 31
0.0
  0
LINE
  5
5CE
330
1F
100
AcDbEntity
  8
0
 62
     3
100
AcDbLine
 10
239.5643331653928
 20
285.1243402732995
 30
0.0
 11
239.5643278953929
 21
284.8221383132994
 31
0.0
  0
LINE
  5
5CF
330
1F
100
AcDbEntity
  8
0
 62
     3
100
AcDbLine
 10
239.5644314553929
 20
290.7560708232994
 30
0.0
 11
239.5644261853927
 21
290.4538123732995
 31
0.0
  0
LINE
  5
5D0
330
1F
100
AcDbEntity
  8
0
 62
     3
100
AcDbLine
 10
235.6255900053928
 20
285.1243402732995
 30
0.0
 11
235.6255900053928
 21
284.8221100632994
 31
0.0
  0
LINE
  5
5D1
330
1F
100
AcDbEntity
  8
0
 62
     3
100
AcDbLine
 10
235.0030929953928
 20
288.3019502032995
 30
0.0
 11
237.1779930753929
 21
284.8221100632994
 31
0.0
  0
LINE
  5
5D2
330
1F
100
AcDbEntity
  8
0
 62
     3
100
AcDbLine
 10
237.1779930753929
 20
284.8221100632994
 30
0.0
 11
238.6343255453929
 21
284.8221100632994
 31
0.0
  0
LINE
  5
5D3
330
1F
100
AcDbEntity
  8
0
 62
     3
100
AcDbLine
 10
239.2568225453929
 20
290.7560425832993
 30
0.0
 11
239.2568225453929
 21
290.4538123732995
 31
0.0
  0
LINE
  5
5D4
330
1F
100
AcDbEntity
  8
0
 62
     3
100
AcDbLine
 10
237.0578720753929
 20
290.7560425832993
 30
0.0
 11
239.2568225453929
 21
290.7560425832993
 31
0.0
  0
LINE
  5
5D5
330
1F
100
AcDbEntity
  8
0
 62
     3
100
AcDbLine
 10
237.0578720753929
 20
290.7560425832993
 30
0.0
 11
237.0578720753929
 21
290.4538123732995
 31
0.0
  0
LINE
  5
5D6
330
1F
100
AcDbEntity
  8
0
 62
     3
100
AcDbLine
 10
237.6803690853929
 20
288.0683763732994
 30
0.0
 11
235.9165881453928
 21
290.7560425832993
 31
0.0
  0
LINE
  5
5D7
330
1F
100
AcDbEntity
  8
0
 62
     3
100
AcDbLine
 10
233.4266395353928
 20
290.7560425832993
 30
0.0
 11
235.9165881453928
 21
290.7560425832993
 31
0.0
  0
LINE
  5
5D8
330
1F
100
AcDbEntity
  8
0
 62
     3
100
AcDbLine
 10
247.5926600553929
 20
290.7559015532994
 30
0.0
 11
250.3816065353929
 21
290.7559015532994
 31
0.0
  0
LINE
  5
5D9
330
1F
100
AcDbEntity
  8
0
 62
     3
100
AcDbLine
 10
247.5926600553929
 20
290.4538123732995
 30
0.0
 11
247.5926600553929
 21
290.7559015532994
 31
0.0
  0
LINE
  5
5DA
330
1F
100
AcDbEntity
  8
0
 62
     3
100
AcDbLine
 10
247.5926600553929
 20
284.8219690432994
 30
0.0
 11
247.5926600553929
 21
285.1243402732995
 31
0.0
  0
LINE
  5
5DB
330
1F
100
AcDbEntity
  8
0
 62
     3
100
AcDbLine
 10
247.5926600553929
 20
284.8219690432994
 30
0.0
 11
250.3816065353929
 21
284.8219690432994
 31
0.0
  0
LINE
  5
5DC
330
1F
100
AcDbEntity
  8
0
 62
     3
100
AcDbLine
 10
250.6726440953928
 20
285.1243402732995
 30
0.0
 11
250.6726440953928
 21
284.8219690432994
 31
0.0
  0
LINE
  5
5DD
330
1F
100
AcDbEntity
  8
0
 62
     3
100
AcDbLine
 10
250.3816065353929
 20
285.1243402732995
 30
0.0
 11
250.3816065353929
 21
284.8219690432994
 31
0.0
  0
LINE
  5
5DE
330
1F
100
AcDbEntity
  8
0
 62
     3
100
AcDbLine
 10
250.3816065353929
 20
290.4538123732995
 30
0.0
 11
250.3816065353929
 21
290.7559015532994
 31
0.0
  0
LINE
  5
5DF
330
1F
100
AcDbEntity
  8
0
 62
     3
100
AcDbLine
 10
250.6726440953928
 20
290.4538123732995
 30
0.0
 11
250.6726440953928
 21
290.7559015532994
 31
0.0
  0
LINE
  5
5E0
330
1F
100
AcDbEntity
  8
0
 62
     3
100
AcDbLine
 10
233.4266395353928
 20
285.1243402732995
 30
0.0
 11
233.4266395353928
 21
284.8221100632994
 31
0.0
  0
LINE
  5
5E1
330
1F
100
AcDbEntity
  8
0
 62
     3
100
AcDbLine
 10
233.4266395353928
 20
290.7560425832993
 30
0.0
 11
233.4266395353928
 21
290.4538123732995
 31
0.0
  0
ARC
  5
5E2
330
1F
100
AcDbEntity
  8
0
 62
     3
100
AcDbCircle
 10
259.9546304953929
 20
288.4115733332997
 30
0.0
 40
2.344469249999999
100
AcDbArc
 50
17.30874897998988
 51
23.76507095999901
  0
ARC
  5
5E3
330
1F
100
AcDbEntity
  8
0
 62
     3
100
AcDbCircle
 10
257.9570970653929
 20
287.7890763232993
 30
0.0
 40
4.43675086
100
AcDbArc
 50
342.6912510200101
 51
17.30856643999931
  0
ARC
  5
5E4
330
1F
100
AcDbEntity
  8
0
 62
     3
100
AcDbCircle
 10
259.9546304953929
 20
287.1665793132994
 30
0.0
 40
2.344469249999999
100
AcDbArc
 50
336.234929040001
 51
342.6912510200101
  0
ARC
  5
5E5
330
1F
100
AcDbEntity
  8
0
 62
     3
100
AcDbCircle
 10
259.6546304953927
 20
288.4115733332997
 30
0.0
 40
2.344469249999999
100
AcDbArc
 50
17.30874897998988
 51
90.0
  0
ARC
  5
5E6
330
1F
100
AcDbEntity
  8
0
 62
     3
100
AcDbCircle
 10
257.6570970653928
 20
287.7890763232993
 30
0.0
 40
4.43675086
100
AcDbArc
 50
342.6912510200101
 51
17.30856643999931
  0
ARC
  5
5E7
330
1F
100
AcDbEntity
  8
0
 62
     3
100
AcDbCircle
 10
259.6546304953927
 20
287.1665793132994
 30
0.0
 40
2.344469249999999
100
AcDbArc
 50
270.0
 51
342.6912510200101
  0
ARC
  5
5E8
330
1F
100
AcDbEntity
  8
0
 62
     3
100
AcDbCircle
 10
245.1918585253928
 20
287.7890763232993
 30
0.0
 40
2.966966259999998
100
AcDbArc
 50
46.75287961000649
 51
89.74999828999569
  0
ARC
  5
5E9
330
1F
100
AcDbEntity
  8
0
 62
     3
100
AcDbCircle
 10
245.1918585253928
 20
287.7890763232993
 30
0.0
 40
2.966966259999998
100
AcDbArc
 50
273.9763331500101
 51
312.8231203899785
  0
ARC
  5
5EA
330
1F
100
AcDbEntity
  8
0
 62
     3
100
AcDbCircle
 10
261.5372984553929
 20
287.7432741432993
 30
0.0
 40
3.936984289999998
100
AcDbArc
 50
0.6665840599916574
 51
23.90392827000695
  0
ARC
  5
5EB
330
1F
100
AcDbEntity
  8
0
 62
     3
100
AcDbCircle
 10
267.1309588453929
 20
287.7432741432993
 30
0.0
 40
3.936984289999998
100
AcDbArc
 50
156.096071729993
 51
179.3334159400083
  0
ARC
  5
5EC
330
1F
100
AcDbEntity
  8
0
 62
     3
100
AcDbCircle
 10
261.5372984553929
 20
287.8348785032994
 30
0.0
 40
3.936984289999998
100
AcDbArc
 50
336.0960717299931
 51
359.3334159400084
  0
ARC
  5
5ED
330
1F
100
AcDbEntity
  8
0
 62
     3
100
AcDbCircle
 10
267.1309588453929
 20
287.8348785032994
 30
0.0
 40
3.936984289999998
100
AcDbArc
 50
180.6665840599916
 51
203.9039282700069
  0
LINE
  5
5EE
330
1F
100
AcDbEntity
  8
0
 62
     3
100
AcDbLine
 10
274.3084752453929
 20
288.0138102332993
 30
0.0
 11
445.6517500653927
 21
288.0138102332993
 31
0.0
  0
LINE
  5
5EF
330
1F
100
AcDbEntity
  8
0
 62
     3
100
AcDbLine
 10
225.7544405753929
 20
288.0138102332993
 30
0.0
 11
55.65175006539273
 21
288.0138102332993
 31
0.0
  0
LINE
  5
5F0
330
1F
100
AcDbEntity
  8
0
 62
     3
100
AcDbLine
 10
43.24982627539276
 20
154.4584491832994
 30
0.0
 11
40.65175006539272
 21
152.9584491832994
 31
0.0
  0
LINE
  5
5F1
330
1F
100
AcDbEntity
  8
0
 62
     3
100
AcDbLine
 10
43.24982627539276
 20
154.4584491832994
 30
0.0
 11
40.65175006539272
 21
155.9584491832994
 31
0.0
  0
LINE
  5
5F2
330
1F
100
AcDbEntity
  8
0
 62
     3
100
AcDbLine
 10
40.65175006539272
 20
152.9584491832994
 30
0.0
 11
40.65175006539272
 21
155.9584491832994
 31
0.0
  0
LINE
  5
5F4
330
1F
100
AcDbEntity
  8
0
 62
     3
100
AcDbLine
 10
347.4099283054499
 20
121.4423529265779
 30
0.0
 11
326.8099283054499
 21
121.4423529265779
 31
0.0
  0
LINE
  5
5F5
330
1F
100
AcDbEntity
  8
0
 62
     3
100
AcDbLine
 10
345.5599283054499
 20
120.3173529265779
 30
0.0
 11
326.8099283054499
 21
120.3173529265779
 31
0.0
  0
LINE
  5
5F6
330
1F
100
AcDbEntity
  8
0
 62
     3
100
AcDbLine
 10
347.4099283054499
 20
128.2423529265778
 30
0.0
 11
326.8099283054499
 21
128.2423529265778
 31
0.0
  0
LINE
  5
5F7
330
1F
100
AcDbEntity
  8
0
 62
     3
100
AcDbLine
 10
351.8099283054499
 20
128.4173529265779
 30
0.0
 11
351.8099283054499
 21
121.2673529265779
 31
0.0
  0
LINE
  5
5F8
330
1F
100
AcDbEntity
  8
0
 62
     3
100
AcDbLine
 10
345.5599283054499
 20
121.4423529265779
 30
0.0
 11
345.5599283054499
 21
120.3173529265779
 31
0.0
  0
LINE
  5
5F9
330
1F
100
AcDbEntity
  8
0
 62
     3
100
AcDbLine
 10
326.8099283054499
 20
121.4423529265779
 30
0.0
 11
326.8099283054499
 21
120.3173529265779
 31
0.0
  0
LINE
  5
5FA
330
1F
100
AcDbEntity
  8
0
100
AcDbLine
 10
351.1849283054499
 20
128.7173529265779
 30
0.0
 11
351.1849283054499
 21
120.9673529265778
 31
0.0
  0
LINE
  5
5FB
330
1F
100
AcDbEntity
  8
0
 62
     3
100
AcDbLine
 10
347.4099283054499
 20
128.4173529265779
 30
0.0
 11
347.4099283054499
 21
121.2673529265779
 31
0.0
  0
LINE
  5
5FC
330
1F
100
AcDbEntity
  8
0
 62
     3
100
AcDbLine
 10
348.1599283054499
 20
128.8586618321234
 30
0.0
 11
348.1599283054499
 21
128.7173529265779
 31
0.0
  0
LINE
  5
5FD
330
1F
100
AcDbEntity
  8
0
100
AcDbLine
 10
348.1599283054499
 20
128.7173529265779
 30
0.0
 11
348.1599283054499
 21
120.9673529265778
 31
0.0
  0
LINE
  5
5FE
330
1F
100
AcDbEntity
  8
0
 62
     3
100
AcDbLine
 10
348.1599283054499
 20
120.9673529265778
 30
0.0
 11
348.1599283054499
 21
120.8260440210325
 31
0.0
  0
LINE
  5
5FF
330
1F
100
AcDbEntity
  8
0
  6
CENTER
100
AcDbLine
 10
326.8099283054499
 20
124.8423529265779
 30
0.0
 11
354.0901640764364
 21
124.8423529265779
 31
0.0
  0
LINE
  5
600
330
1F
100
AcDbEntity
  8
0
  6
CENTER
100
AcDbLine
 10
377.6361472450154
 20
124.8423529265779
 30
0.0
 11
389.5162757227031
 21
124.8423529265779
 31
0.0
  0
LINE
  5
601
330
1F
100
AcDbEntity
  8
0
  6
HIDDEN
 62
     2
100
AcDbLine
 10
351.1849283054499
 20
122.6548529265778
 30
0.0
 11
347.4099283054499
 21
122.6548529265778
 31
0.0
  0
LINE
  5
602
330
1F
100
AcDbEntity
  8
0
  6
HIDDEN
 62
     2
100
AcDbLine
 10
351.1849283054499
 20
127.029852926578
 30
0.0
 11
347.4099283054499
 21
127.029852926578
 31
0.0
  0
LINE
  5
603
330
1F
100
AcDbEntity
  8
0
 62
     3
100
AcDbLine
 10
351.1849283054499
 20
120.9673529265778
 30
0.0
 11
351.1437063397476
 21
120.9673529265778
 31
0.0
  0
LINE
  5
604
330
1F
100
AcDbEntity
  8
0
 62
     3
100
AcDbLine
 10
351.1849283054499
 20
128.7173529265779
 30
0.0
 11
351.1437063397476
 21
128.7173529265779
 31
0.0
  0
LINE
  5
605
330
1F
100
AcDbEntity
  8
0
 62
     3
100
AcDbLine
 10
351.1849283054499
 20
128.7173529265779
 30
0.0
 11
351.8099283054499
 21
128.4173529265779
 31
0.0
  0
LINE
  5
606
330
1F
100
AcDbEntity
  8
0
 62
     3
100
AcDbLine
 10
348.1599283054499
 20
128.7173529265779
 30
0.0
 11
347.4099283054499
 21
128.4173529265779
 31
0.0
  0
LINE
  5
607
330
1F
100
AcDbEntity
  8
0
 62
     3
100
AcDbLine
 10
351.8099283054499
 20
121.2673529265779
 30
0.0
 11
351.1849283054499
 21
120.9673529265778
 31
0.0
  0
LINE
  5
608
330
1F
100
AcDbEntity
  8
0
 62
     3
100
AcDbLine
 10
347.4099283054499
 20
121.2673529265779
 30
0.0
 11
348.1599283054499
 21
120.9673529265778
 31
0.0
  0
LINE
  5
609
330
1F
100
AcDbEntity
  8
0
  6
HIDDEN
 62
     2
100
AcDbLine
 10
351.8099283054499
 20
122.0923529265778
 30
0.0
 11
351.1849283054499
 21
122.6548529265778
 31
0.0
  0
LINE
  5
60A
330
1F
100
AcDbEntity
  8
0
  6
HIDDEN
 62
     2
100
AcDbLine
 10
351.8099283054499
 20
127.592352926578
 30
0.0
 11
351.1849283054499
 21
127.029852926578
 31
0.0
  0
LINE
  5
60B
330
1F
100
AcDbEntity
  8
0
  6
CENTER
100
AcDbLine
 10
326.1611777211697
 20
124.9048205028558
 30
0.0
 11
116.3277543409547
 21
165.6923062069276
 31
0.0
  0
LINE
  5
60D
330
1F
100
AcDbEntity
  8
0
 62
     3
100
AcDbLine
 10
325.5124271368896
 20
121.5672880791338
 30
0.0
 11
121.3339729797752
 21
161.2555591174551
 31
0.0
  0
LINE
  5
60E
330
1F
100
AcDbEntity
  8
0
 62
     3
100
AcDbLine
 10
142.7151108958247
 20
155.9534306377904
 30
0.0
 11
121.1193128599764
 21
160.1512285360765
 31
0.0
  0
LINE
  5
60F
330
1F
100
AcDbEntity
  8
0
 62
     3
100
AcDbLine
 10
326.8099283054499
 20
128.2423529265778
 30
0.0
 11
130.4844916159171
 21
166.4041520018869
 31
0.0
  0
LINE
  5
610
330
1F
100
AcDbEntity
  8
0
 62
     3
100
AcDbLine
 10
130.4844916159171
 20
166.4041520018869
 30
0.0
 11
129.1869904473565
 21
159.7290871544427
 31
0.0
  0
LINE
  5
611
330
1F
100
AcDbEntity
  8
0
 62
     3
100
AcDbLine
 10
121.3339729797752
 20
161.2555591174551
 30
0.0
 11
121.1193128599764
 21
160.1512285360765
 31
0.0
  0
LINE
  5
612
330
1F
100
AcDbEntity
  8
0
 62
     3
100
AcDbLine
 10
142.9297710156234
 20
157.0577612191691
 30
0.0
 11
142.7151108958247
 21
155.9534306377904
 31
0.0
  0
CIRCLE
  5
613
330
1F
100
AcDbEntity
  8
0
 62
     3
100
AcDbCircle
 10
383.576211483859
 20
124.8423529265779
 30
0.0
 40
3.875
  0
ARC
  5
614
330
1F
100
AcDbEntity
  8
0
100
AcDbCircle
 10
382.2508834284723
 20
128.4836618321234
 30
0.0
 40
0.3749999999999809
100
AcDbArc
 50
17.22654059791966
 51
202.7734594020779
  0
ARC
  5
615
330
1F
100
AcDbEntity
  8
0
100
AcDbCircle
 10
381.0854094963239
 20
127.8107751436639
 30
0.0
 40
0.3749999999999809
100
AcDbArc
 50
37.22654059791715
 51
222.7734594020977
  0
ARC
  5
616
330
1F
100
AcDbEntity
  8
0
100
AcDbCircle
 10
379.7600814409372
 20
125.5152396150373
 30
0.0
 40
0.3749999999999809
100
AcDbArc
 50
77.22654059789545
 51
262.7734594020653
  0
ARC
  5
617
330
1F
100
AcDbEntity
  8
0
100
AcDbCircle
 10
379.7600814409372
 20
124.1694662381185
 30
0.0
 40
0.3749999999999809
100
AcDbArc
 50
97.2265405979347
 51
282.7734594021046
  0
ARC
  5
618
330
1F
100
AcDbEntity
  8
0
100
AcDbCircle
 10
381.0854094963239
 20
121.8739307094919
 30
0.0
 40
0.3749999999999809
100
AcDbArc
 50
137.2265405978975
 51
322.7734594020828
  0
ARC
  5
619
330
1F
100
AcDbEntity
  8
0
100
AcDbCircle
 10
382.2508834284723
 20
121.2010440210325
 30
0.0
 40
0.3749999999999809
100
AcDbArc
 50
157.226540597905
 51
342.7734594020803
  0
ARC
  5
61A
330
1F
100
AcDbEntity
  8
0
100
AcDbCircle
 10
384.9015395392462
 20
121.2010440210325
 30
0.0
 40
0.3749999999999809
100
AcDbArc
 50
197.2265405979033
 51
22.77345940209501
  0
ARC
  5
61B
330
1F
100
AcDbEntity
  8
0
100
AcDbCircle
 10
386.0670134713947
 20
121.8739307094919
 30
0.0
 40
0.3749999999999809
100
AcDbArc
 50
217.2265405979171
 51
42.77345940210252
  0
ARC
  5
61C
330
1F
100
AcDbEntity
  8
0
100
AcDbCircle
 10
387.3923415267814
 20
124.1694662381185
 30
0.0
 40
0.3749999999999809
100
AcDbArc
 50
257.2265405978955
 51
82.77345940206531
  0
ARC
  5
61D
330
1F
100
AcDbEntity
  8
0
100
AcDbCircle
 10
387.3923415267814
 20
125.5152396150373
 30
0.0
 40
0.3749999999999809
100
AcDbArc
 50
277.2265405979347
 51
102.7734594021045
  0
ARC
  5
61E
330
1F
100
AcDbEntity
  8
0
100
AcDbCircle
 10
386.0670134713947
 20
127.8107751436639
 30
0.0
 40
0.3749999999999809
100
AcDbArc
 50
317.2265405979023
 51
142.7734594020828
  0
ARC
  5
61F
330
1F
100
AcDbEntity
  8
0
100
AcDbCircle
 10
384.9015395392462
 20
128.4836618321234
 30
0.0
 40
0.3749999999999809
100
AcDbArc
 50
337.226540597922
 51
162.7734594020803
  0
LINE
  5
620
330
1F
100
AcDbEntity
  8
0
100
AcDbLine
 10
348.1599283054499
 20
125.8902396150373
 30
0.0
 11
350.8114177045913
 21
125.8902396150373
 31
0.0
  0
LINE
  5
621
330
1F
100
AcDbEntity
  8
0
100
AcDbLine
 10
348.1599283054499
 20
125.1432184133201
 30
0.0
 11
350.8114177045913
 21
125.1432184133201
 31
0.0
  0
LINE
  5
622
330
1F
100
AcDbEntity
  8
0
100
AcDbLine
 10
348.1599283054499
 20
124.5414874398357
 30
0.0
 11
350.8114177045913
 21
124.5414874398357
 31
0.0
  0
LINE
  5
623
330
1F
100
AcDbEntity
  8
0
100
AcDbLine
 10
348.1599283054499
 20
123.7944662381185
 30
0.0
 11
350.8114177045913
 21
123.7944662381185
 31
0.0
  0
ARC
  5
624
330
1F
100
AcDbEntity
  8
0
100
AcDbCircle
 10
350.8114177045913
 20
125.5167290141786
 30
0.0
 40
0.373510600858566
100
AcDbArc
 50
270.0
 51
90.0
  0
ARC
  5
625
330
1F
100
AcDbEntity
  8
0
100
AcDbCircle
 10
350.8114177045913
 20
124.1679768389771
 30
0.0
 40
0.373510600858566
100
AcDbArc
 50
270.0
 51
90.0
  0
LINE
  5
626
330
1F
100
AcDbEntity
  8
0
 62
     3
100
AcDbLine
 10
350.8114177045913
 20
128.8586618321234
 30
0.0
 11
348.1599283054499
 21
128.8586618321234
 31
0.0
  0
LINE
  5
627
330
1F
100
AcDbEntity
  8
0
100
AcDbLine
 10
348.1599283054499
 20
128.3385036376154
 30
0.0
 11
350.8114177045913
 21
128.3385036376154
 31
0.0
  0
ELLIPSE
  5
628
330
1F
100
AcDbEntity
  8
0
100
AcDbEllipse
 10
350.8114177045913
 20
128.5985827348694
 30
0.0
 11
-0.3735106008586161
 21
0.0000000000000363
 31
0.0
210
0.0
220
0.0
230
1.0
 40
0.696309814650703
 41
1.570796326794964
 42
3.615840576879776
  0
ELLIPSE
  5
629
330
1F
100
AcDbEntity
  8
0
 62
     3
100
AcDbEllipse
 10
350.8114177045913
 20
128.5985827348694
 30
0.0
 11
0.3735106008585256
 21
0.0000000000002022
 31
0.0
210
0.0
220
0.0
230
1.0
 40
0.6963098146508717
 41
0.4742479232890662
 42
1.570796326794519
  0
LINE
  5
62A
330
1F
100
AcDbEntity
  8
0
100
AcDbLine
 10
348.1599283054499
 20
128.1857751436638
 30
0.0
 11
350.8114177045913
 21
128.1857751436638
 31
0.0
  0
LINE
  5
62B
330
1F
100
AcDbEntity
  8
0
100
AcDbLine
 10
348.1599283054499
 20
127.5561121365027
 30
0.0
 11
350.8114177045913
 21
127.5561121365027
 31
0.0
  0
ELLIPSE
  5
62C
330
1F
100
AcDbEntity
  8
0
100
AcDbEllipse
 10
350.8114177045913
 20
127.8709436400833
 30
0.0
 11
0.3735106008585944
 21
0.0
 31
0.0
210
0.0
220
0.0
230
1.0
 40
0.842898442124224
 41
4.712388980384688
 42
7.853981633974482
  0
LINE
  5
62D
330
1F
100
AcDbEntity
  8
0
 62
     3
100
AcDbLine
 10
350.8114177045913
 20
120.8260440210325
 30
0.0
 11
348.1599283054499
 21
120.8260440210325
 31
0.0
  0
LINE
  5
62E
330
1F
100
AcDbEntity
  8
0
100
AcDbLine
 10
348.1599283054499
 20
121.3462022155405
 30
0.0
 11
350.8114177045913
 21
121.3462022155405
 31
0.0
  0
ELLIPSE
  5
62F
330
1F
100
AcDbEntity
  8
0
100
AcDbEllipse
 10
350.8114177045913
 20
121.0861231182865
 30
0.0
 11
0.3735106008586161
 21
0.0000000000000363
 31
0.0
210
0.0
220
0.0
230
-1.0
 40
0.696309814650703
 41
-1.570796326794829
 42
0.4742479232899833
  0
ELLIPSE
  5
630
330
1F
100
AcDbEntity
  8
0
 62
     3
100
AcDbEllipse
 10
350.8114177045913
 20
121.0861231182865
 30
0.0
 11
-0.3735106008585256
 21
0.0000000000002022
 31
0.0
210
0.0
220
0.0
230
-1.0
 40
0.6963098146508717
 41
3.615840576878857
 42
4.712388980384311
  0
LINE
  5
631
330
1F
100
AcDbEntity
  8
0
100
AcDbLine
 10
348.1599283054499
 20
121.498930709492
 30
0.0
 11
350.8114177045913
 21
121.498930709492
 31
0.0
  0
LINE
  5
632
330
1F
100
AcDbEntity
  8
0
100
AcDbLine
 10
348.1599283054499
 20
122.1285937166532
 30
0.0
 11
350.8114177045913
 21
122.1285937166532
 31
0.0
  0
ELLIPSE
  5
633
330
1F
100
AcDbEntity
  8
0
100
AcDbEllipse
 10
350.8114177045913
 20
121.8137622130725
 30
0.0
 11
0.3735106008585944
 21
0.0
 31
0.0
210
0.0
220
0.0
230
-1.0
 40
0.842898442124224
 41
4.712388980384688
 42
7.853981633974482
  0
LINE
  5
634
330
1F
100
AcDbEntity
  8
0
 62
     3
100
AcDbLine
 10
347.4099283054499
 20
214.8459457048567
 30
0.0
 11
129.8357410316367
 21
214.8459457048567
 31
0.0
  0
LINE
  5
635
330
1F
100
AcDbEntity
  8
0
 62
     3
100
AcDbLine
 10
347.4099283054499
 20
221.6459457048567
 30
0.0
 11
129.8357410316367
 21
221.6459457048564
 31
0.0
  0
LINE
  5
636
330
1F
100
AcDbEntity
  8
0
 62
     3
100
AcDbLine
 10
351.8099283054499
 20
221.8209457048569
 30
0.0
 11
351.8099283054499
 21
214.6709457048568
 31
0.0
  0
LINE
  5
637
330
1F
100
AcDbEntity
  8
0
 62
     3
100
AcDbLine
 10
345.5599283054499
 20
240.1209457048566
 30
0.0
 11
345.5599283054499
 21
221.6459457048567
 31
0.0
  0
LINE
  5
638
330
1F
100
AcDbEntity
  8
0
 62
     3
100
AcDbLine
 10
345.5599283054499
 20
214.8459457048567
 30
0.0
 11
345.5599283054499
 21
196.3709457048565
 31
0.0
  0
LINE
  5
63A
330
1F
100
AcDbEntity
  8
0
 62
     3
100
AcDbLine
 10
326.8099283054499
 20
240.1209457048566
 30
0.0
 11
326.8099283054499
 21
221.6459457048567
 31
0.0
  0
LINE
  5
63C
330
1F
100
AcDbEntity
  8
0
 62
     3
100
AcDbLine
 10
326.8099283054499
 20
214.8459457048567
 30
0.0
 11
326.8099283054499
 21
196.3709457048565
 31
0.0
  0
LINE
  5
63E
330
1F
100
AcDbEntity
  8
0
 62
     3
100
AcDbLine
 10
351.1849283054499
 20
222.2081201044572
 30
0.0
 11
351.1849283054499
 21
222.1209457048568
 31
0.0
  0
LINE
  5
63F
330
1F
100
AcDbEntity
  8
0
100
AcDbLine
 10
351.1849283054499
 20
222.1209457048568
 30
0.0
 11
351.1849283054499
 21
214.3709457048568
 31
0.0
  0
LINE
  5
640
330
1F
100
AcDbEntity
  8
0
 62
     3
100
AcDbLine
 10
351.1849283054499
 20
214.3709457048568
 30
0.0
 11
351.1849283054499
 21
214.2837713052564
 31
0.0
  0
LINE
  5
641
330
1F
100
AcDbEntity
  8
0
 62
     3
100
AcDbLine
 10
347.4099283054499
 20
221.8209457048569
 30
0.0
 11
347.4099283054499
 21
214.6709457048568
 31
0.0
  0
LINE
  5
642
330
1F
100
AcDbEntity
  8
0
 62
     3
100
AcDbLine
 10
348.1599283054499
 20
222.437075747779
 30
0.0
 11
348.1599283054499
 21
222.1209457048568
 31
0.0
  0
LINE
  5
643
330
1F
100
AcDbEntity
  8
0
100
AcDbLine
 10
348.1599283054499
 20
222.1209457048568
 30
0.0
 11
348.1599283054499
 21
214.3709457048568
 31
0.0
  0
LINE
  5
644
330
1F
100
AcDbEntity
  8
0
 62
     3
100
AcDbLine
 10
348.1599283054499
 20
214.3709457048568
 30
0.0
 11
348.1599283054499
 21
214.0548156619344
 31
0.0
  0
LINE
  5
645
330
1F
100
AcDbEntity
  8
0
 62
     3
100
AcDbLine
 10
351.1849283054499
 20
222.1209457048568
 30
0.0
 11
351.8099283054499
 21
221.8209457048569
 31
0.0
  0
LINE
  5
646
330
1F
100
AcDbEntity
  8
0
 62
     3
100
AcDbLine
 10
348.1599283054499
 20
222.1209457048568
 30
0.0
 11
347.4099283054499
 21
221.8209457048569
 31
0.0
  0
LINE
  5
647
330
1F
100
AcDbEntity
  8
0
 62
     3
100
AcDbLine
 10
351.8099283054499
 20
214.6709457048568
 30
0.0
 11
351.1849283054499
 21
214.3709457048568
 31
0.0
  0
LINE
  5
648
330
1F
100
AcDbEntity
  8
0
 62
     3
100
AcDbLine
 10
347.4099283054499
 20
214.6709457048568
 30
0.0
 11
348.1599283054499
 21
214.3709457048568
 31
0.0
  0
LINE
  5
649
330
1F
100
AcDbEntity
  8
0
 62
     3
100
AcDbLine
 10
350.8114177045913
 20
222.437075747779
 30
0.0
 11
348.1599283054499
 21
222.437075747779
 31
0.0
  0
LINE
  5
64A
330
1F
100
AcDbEntity
  8
0
100
AcDbLine
 10
348.1599283054499
 20
221.9791644611352
 30
0.0
 11
350.8114177045913
 21
221.9791644611352
 31
0.0
  0
ELLIPSE
  5
64B
330
1F
100
AcDbEntity
  8
0
100
AcDbEllipse
 10
350.8114177045913
 20
222.2081201044572
 30
0.0
 11
0.3735106008585944
 21
0.0000000000000293
 31
0.0
210
0.0
220
0.0
230
1.0
 40
0.6129829857458404
 41
4.712388980384641
 42
6.283185307296146
  0
ELLIPSE
  5
64C
330
1F
100
AcDbEntity
  8
0
 62
     3
100
AcDbEllipse
 10
350.8114177045913
 20
222.2081201044572
 30
0.0
 11
-0.3735106008585944
 21
0.0000000000000598
 31
0.0
210
0.0
220
0.0
230
1.0
 40
0.6129829857458407
 41
3.141592653706741
 42
4.712388980384787
  0
LINE
  5
64D
330
1F
100
AcDbEntity
  8
0
100
AcDbLine
 10
348.1599283054499
 20
221.1117476923922
 30
0.0
 11
350.8114177045913
 21
221.1117476923922
 31
0.0
  0
LINE
  5
64E
330
1F
100
AcDbEntity
  8
0
100
AcDbLine
 10
348.1599283054499
 20
220.4381540287621
 30
0.0
 11
350.8114177045913
 21
220.4381540287621
 31
0.0
  0
LINE
  5
64F
330
1F
100
AcDbEntity
  8
0
100
AcDbLine
 10
348.1599283054499
 20
219.9462737602438
 30
0.0
 11
350.8114177045913
 21
219.9462737602438
 31
0.0
  0
LINE
  5
650
330
1F
100
AcDbEntity
  8
0
100
AcDbLine
 10
348.1599283054499
 20
219.2130957796762
 30
0.0
 11
350.8114177045913
 21
219.2130957796762
 31
0.0
  0
ELLIPSE
  5
651
330
1F
100
AcDbEntity
  8
0
100
AcDbEllipse
 10
350.8114177045913
 20
220.7749508605772
 30
0.0
 11
0.3735106008585944
 21
0.0
 31
0.0
210
0.0
220
0.0
230
1.0
 40
0.9017062194238192
 41
4.712388980384688
 42
7.853981633974482
  0
ELLIPSE
  5
652
330
1F
100
AcDbEntity
  8
0
100
AcDbEllipse
 10
350.8114177045913
 20
219.5796847699599
 30
0.0
 11
0.3735106008585944
 21
0.0
 31
0.0
210
0.0
220
0.0
230
1.0
 40
0.9814687707418398
 41
4.712388980384688
 42
7.853981633974482
  0
LINE
  5
653
330
1F
100
AcDbEntity
  8
0
 62
     3
100
AcDbLine
 10
350.8114177045913
 20
214.0548156619344
 30
0.0
 11
348.1599283054499
 21
214.0548156619344
 31
0.0
  0
LINE
  5
654
330
1F
100
AcDbEntity
  8
0
100
AcDbLine
 10
348.1599283054499
 20
214.5127269485783
 30
0.0
 11
350.8114177045913
 21
214.5127269485783
 31
0.0
  0
ELLIPSE
  5
655
330
1F
100
AcDbEntity
  8
0
100
AcDbEllipse
 10
350.8114177045913
 20
214.2837713052564
 30
0.0
 11
-0.3735106008585944
 21
0.0000000000001235
 31
0.0
210
0.0
220
0.0
230
-1.0
 40
0.6129829857458407
 41
1.570796326794694
 42
3.141592653589252
  0
ELLIPSE
  5
656
330
1F
100
AcDbEntity
  8
0
 62
     3
100
AcDbEllipse
 10
350.8114177045913
 20
214.2837713052564
 30
0.0
 11
0.3735106008585944
 21
0.0000000000001234
 31
0.0
210
0.0
220
0.0
230
-1.0
 40
0.6129829857458404
 41
0.0000000000005389
 42
1.570796326795099
  0
LINE
  5
657
330
1F
100
AcDbEntity
  8
0
100
AcDbLine
 10
348.1599283054499
 20
215.3801437173214
 30
0.0
 11
350.8114177045913
 21
215.3801437173214
 31
0.0
  0
LINE
  5
658
330
1F
100
AcDbEntity
  8
0
100
AcDbLine
 10
348.1599283054499
 20
216.0537373809514
 30
0.0
 11
350.8114177045913
 21
216.0537373809514
 31
0.0
  0
LINE
  5
659
330
1F
100
AcDbEntity
  8
0
100
AcDbLine
 10
348.1599283054499
 20
216.5456176494698
 30
0.0
 11
350.8114177045913
 21
216.5456176494698
 31
0.0
  0
LINE
  5
65A
330
1F
100
AcDbEntity
  8
0
100
AcDbLine
 10
348.1599283054499
 20
217.2787956300373
 30
0.0
 11
350.8114177045913
 21
217.2787956300373
 31
0.0
  0
ELLIPSE
  5
65B
330
1F
100
AcDbEntity
  8
0
100
AcDbEllipse
 10
350.8114177045913
 20
215.7169405491365
 30
0.0
 11
0.3735106008585944
 21
0.0
 31
0.0
210
0.0
220
0.0
230
-1.0
 40
0.9017062194238192
 41
4.712388980384688
 42
7.853981633974482
  0
ELLIPSE
  5
65C
330
1F
100
AcDbEntity
  8
0
100
AcDbEllipse
 10
350.8114177045913
 20
216.9122066397536
 30
0.0
 11
0.3735106008585944
 21
0.0
 31
0.0
210
0.0
220
0.0
230
-1.0
 40
0.9814687707418398
 41
4.712388980384688
 42
7.853981633974482
  0
LINE
  5
65D
330
1F
100
AcDbEntity
  8
0
  6
CENTER
100
AcDbLine
 10
115.7062199898369
 20
218.2459457048566
 30
0.0
 11
354.0901640764364
 21
218.2459457048566
 31
0.0
  0
LINE
  5
65E
330
1F
100
AcDbEntity
  8
0
  6
CENTER
100
AcDbLine
 10
344.5599283054499
 20
211.3709457048566
 30
0.0
 11
327.8099283054499
 21
211.3709457048566
 31
0.0
  0
LINE
  5
65F
330
1F
100
AcDbEntity
  8
0
  6
CENTER
100
AcDbLine
 10
344.5599283054499
 20
200.1209457048566
 30
0.0
 11
327.8099283054499
 21
200.1209457048566
 31
0.0
  0
LINE
  5
660
330
1F
100
AcDbEntity
  8
0
  6
CENTER
100
AcDbLine
 10
344.5599283054499
 20
225.1209457048566
 30
0.0
 11
327.8099283054499
 21
225.1209457048566
 31
0.0
  0
LINE
  5
661
330
1F
100
AcDbEntity
  8
0
  6
CENTER
100
AcDbLine
 10
344.5599283054499
 20
236.3709457048566
 30
0.0
 11
327.8099283054499
 21
236.3709457048566
 31
0.0
  0
LINE
  5
662
330
1F
100
AcDbEntity
  8
0
 62
     3
100
AcDbLine
 10
345.5599283054499
 20
196.3709457048565
 30
0.0
 11
326.8099283054499
 21
196.3709457048565
 31
0.0
  0
LINE
  5
663
330
1F
100
AcDbEntity
  8
0
 62
     3
100
AcDbLine
 10
326.8099283054499
 20
240.1209457048566
 30
0.0
 11
345.5599283054499
 21
240.1209457048566
 31
0.0
  0
LINE
  5
665
330
1F
100
AcDbEntity
  8
0
 62
     3
100
AcDbLine
 10
121.1193128599767
 20
199.4959457048565
 30
0.0
 11
129.1869904473561
 21
199.4959457048565
 31
0.0
  0
LINE
  5
667
330
1F
100
AcDbEntity
  8
0
 62
     3
100
AcDbLine
 10
129.1869904473563
 20
236.9959457048566
 30
0.0
 11
121.1193128599767
 21
236.9959457048566
 31
0.0
  0
ELLIPSE
  5
668
330
1F
100
AcDbEntity
  8
0
 62
     3
100
AcDbEllipse
 10
129.8357410316367
 20
218.2459457048566
 30
0.0
 11
0.0
 21
3.399999999999832
 31
0.0
210
0.0
220
0.0
230
-1.0
 40
0.1908089953765536
 41
0.0
 42
6.283185307179584
  0
LINE
  5
669
330
1F
100
AcDbEntity
  8
0
  6
CENTER
100
AcDbLine
 10
330.5599283054499
 20
239.2459457048566
 30
0.0
 11
330.5599283054499
 21
197.2459457048566
 31
0.0
  0
LINE
  5
66A
330
1F
100
AcDbEntity
  8
0
  6
CENTER
100
AcDbLine
 10
341.8099283054499
 20
239.2459457048566
 30
0.0
 11
341.8099283054499
 21
197.2459457048566
 31
0.0
  0
CIRCLE
  5
66B
330
1F
100
AcDbEntity
  8
0
 62
     3
100
AcDbCircle
 10
341.8099283054499
 20
236.3709457048566
 30
0.0
 40
0.8125
  0
CIRCLE
  5
66C
330
1F
100
AcDbEntity
  8
0
 62
     3
100
AcDbCircle
 10
330.5599283054499
 20
236.3709457048566
 30
0.0
 40
0.8125
  0
CIRCLE
  5
66D
330
1F
100
AcDbEntity
  8
0
 62
     3
100
AcDbCircle
 10
330.5599283054499
 20
225.1209457048566
 30
0.0
 40
0.8125
  0
CIRCLE
  5
66E
330
1F
100
AcDbEntity
  8
0
 62
     3
100
AcDbCircle
 10
341.8099283054499
 20
225.1209457048566
 30
0.0
 40
0.8125
  0
CIRCLE
  5
66F
330
1F
100
AcDbEntity
  8
0
 62
     3
100
AcDbCircle
 10
341.8099283054499
 20
211.3709457048566
 30
0.0
 40
0.8125
  0
CIRCLE
  5
670
330
1F
100
AcDbEntity
  8
0
 62
     3
100
AcDbCircle
 10
330.5599283054499
 20
211.3709457048566
 30
0.0
 40
0.8125
  0
CIRCLE
  5
671
330
1F
100
AcDbEntity
  8
0
 62
     3
100
AcDbCircle
 10
341.8099283054499
 20
200.1209457048566
 30
0.0
 40
0.8125
  0
CIRCLE
  5
672
330
1F
100
AcDbEntity
  8
0
 62
     3
100
AcDbCircle
 10
330.5599283054499
 20
200.1209457048566
 30
0.0
 40
0.8125
  0
LINE
  5
673
330
1F
100
AcDbEntity
  8
0
  6
CENTER
100
AcDbLine
 10
341.8099283054499
 20
126.1135215790415
 30
0.0
 11
341.8099283054499
 21
113.7115749957969
 31
0.0
  0
LINE
  5
674
330
1F
100
AcDbEntity
  8
0
  6
CENTER
100
AcDbLine
 10
330.5599283054499
 20
126.1135215790415
 30
0.0
 11
330.5599283054499
 21
113.7115749957969
 31
0.0
  0
LINE
  5
675
330
1F
100
AcDbEntity
  8
0
  6
HIDDEN
 62
     2
100
AcDbLine
 10
118.5973899420156
 20
105.2503153471697
 30
0.0
 11
119.8948911105759
 21
111.9253801946137
 31
0.0
  0
LINE
  5
676
330
1F
100
AcDbEntity
  8
0
  6
CENTER
100
AcDbLine
 10
144.1861169395981
 20
103.7400074457865
 30
0.0
 11
109.6497221735986
 21
110.4532025369037
 31
0.0
  0
LINE
  5
678
330
1F
100
AcDbEntity
  8
0
 62
     3
100
AcDbLine
 10
115.6684718629862
 20
90.18233808124771
 30
0.0
 11
107.8154543954045
 21
91.70881004426032
 31
0.0
  0
LINE
  5
67B
330
1F
100
AcDbEntity
  8
0
 62
     3
100
AcDbLine
 10
122.8238091896055
 20
126.9933574605353
 30
0.0
 11
114.970791722025
 21
128.5198294235474
 31
0.0
  0
LINE
  5
67D
330
1F
100
AcDbEntity
  8
0
 62
     3
100
AcDbLine
 10
138.9957296831767
 20
101.2852797623865
 30
0.0
 11
132.3401705102824
 21
102.578989411898
 31
0.0
  0
LINE
  5
67E
330
1F
100
AcDbEntity
  8
0
  6
HIDDEN
 62
     2
100
AcDbLine
 10
132.3401705102824
 20
102.578989411898
 30
0.0
 11
118.5973899420156
 21
105.2503153471697
 31
0.0
  0
LINE
  5
67F
330
1F
100
AcDbEntity
  8
0
 62
     3
100
AcDbLine
 10
140.2932308517373
 20
107.9603446098305
 30
0.0
 11
133.637671678843
 21
109.2540542593418
 31
0.0
  0
LINE
  5
680
330
1F
100
AcDbEntity
  8
0
  6
HIDDEN
 62
     2
100
AcDbLine
 10
133.637671678843
 20
109.2540542593418
 30
0.0
 11
119.8948911105759
 21
111.9253801946137
 31
0.0
  0
LINE
  5
681
330
1F
100
AcDbEntity
  8
0
  6
CENTER
100
AcDbLine
 10
124.1331607787775
 20
112.7660151802545
 30
0.0
 11
122.2121377413948
 21
102.8832083985165
 31
0.0
  0
LINE
  5
683
330
1F
100
AcDbEntity
  8
0
 62
     3
100
AcDbLine
 10
134.1814773156663
 20
112.0516917321678
 30
0.0
 11
131.7963648734594
 21
99.78135193907213
 31
0.0
  0
ARC
  5
686
330
1F
100
AcDbEntity
  8
0
 62
     3
100
AcDbCircle
 10
123.1726492600861
 20
107.8246117893854
 30
0.0
 40
1.5
100
AcDbArc
 50
78.99999999998728
 51
258.9999999999873
  0
LINE
  5
687
330
1F
100
AcDbEntity
  8
0
  6
CENTER
100
AcDbLine
 10
383.576211483859
 20
130.7824171654218
 30
0.0
 11
383.576211483859
 21
118.9022886877341
 31
0.0
  0
CIRCLE
  5
688
330
1F
100
AcDbEntity
  8
0
 62
     3
100
AcDbCircle
 10
383.576211483859
 20
124.8423529265779
 30
0.0
 40
2.1875
  0
CIRCLE
  5
689
330
1F
100
AcDbEntity
  8
0
100
AcDbCircle
 10
383.576211483859
 20
124.8423529265779
 30
0.0
 40
2.75
  0
CIRCLE
  5
68A
330
1F
100
AcDbEntity
  8
0
100
AcDbCircle
 10
383.576211483859
 20
124.8423529265779
 30
0.0
 40
3.574999999999988
  0
ARC
  5
68B
330
1F
100
AcDbEntity
  8
0
 62
     3
100
AcDbCircle
 10
138.2166510371431
 20
106.6321724547166
 30
0.0
 40
2.465000000000037
100
AcDbArc
 50
305.3971810273076
 51
32.60281897271283
  0
ARC
  5
68C
330
1F
100
AcDbEntity
  8
0
 62
     3
100
AcDbCircle
 10
141.721060082051
 20
105.9509843412223
 30
0.0
 40
2.465000000000037
100
AcDbArc
 50
125.3971810273076
 51
212.6028189727128
  0
ARC
  5
68D
330
1F
100
AcDbEntity
  8
0
 62
     3
100
AcDbCircle
 10
137.5679004528629
 20
103.2946400309945
 30
0.0
 40
2.465000000000037
100
AcDbArc
 50
305.3971810273076
 51
32.60281897271283
  0
ARC
  5
68E
330
1F
100
AcDbEntity
  8
0
100
AcDbCircle
 10
137.8247117777205
 20
106.5428162661961
 30
0.0
 40
2.645368220832581
100
AcDbArc
 50
313.4646922948868
 51
24.53530770511108
  0
ARC
  5
68F
330
1F
100
AcDbEntity
  8
0
100
AcDbCircle
 10
142.0740467835285
 20
105.7168292141375
 30
0.0
 40
2.664519978088673
100
AcDbArc
 50
133.7582910133784
 51
204.2417089866441
  0
TEXT
  5
6AD
330
1F
100
AcDbEntity
  8
0
 62
     3
100
AcDbText
 10
400.5285784070482
 20
54.29438413391435
 30
0.0
 40
4.5
  1
コード
  7
高4.5
100
AcDbText
  0
TEXT
  5
6AE
330
1F
100
AcDbEntity
  8
0
 62
     3
100
AcDbText
 10
424.1861053946881
 20
54.29438413391435
 30
0.0
 40
4.5
  1
12351
  7
高4.5
100
AcDbText
  0
ARC
  5
6B2
330
1F
100
AcDbEntity
  8
0
 62
     3
100
AcDbCircle
 10
326.8099283054499
 20
128.2423529265778
 30
0.0
 40
6.799999999999998
100
AcDbArc
 50
258.9999999999873
 51
270.0
  0
LINE
  5
6BA
330
1F
100
AcDbEntity
  8
0
 62
     3
100
AcDbLine
 10
107.8154543954045
 20
91.70881004426032
 30
0.0
 11
114.970791722025
 21
128.5198294235474
 31
0.0
  0
LINE
  5
6BD
330
1F
100
AcDbEntity
  8
0
  6
CENTER
100
AcDbLine
 10
124.2805238211923
 20
120.8525798241296
 30
0.0
 11
111.3197736436073
 21
123.3718944503054
 31
0.0
  0
LINE
  5
6BE
330
1F
100
AcDbEntity
  8
0
  6
CENTER
100
AcDbLine
 10
119.1616778672699
 20
129.1166973158734
 30
0.0
 11
111.4775857177399
 21
89.58547018892204
 31
0.0
  0
LINE
  5
6BF
330
1F
100
AcDbEntity
  8
0
  6
CENTER
100
AcDbLine
 10
119.3194899414021
 20
95.33027305449037
 30
0.0
 11
106.3587397638174
 21
97.84958768066609
 31
0.0
  0
LINE
  5
6C1
330
1F
100
AcDbEntity
  8
0
100
AcDbLine
 10
136.7371591911906
 20
161.8854366376172
 30
0.0
 11
134.9502820321905
 21
152.6927505732369
 31
0.0
  0
LINE
  5
6C2
330
1F
100
AcDbEntity
  8
0
100
AcDbLine
 10
125.9392601732673
 20
163.9843355867606
 30
0.0
 11
124.1523830142671
 21
154.7916495223802
 31
0.0
  0
LINE
  5
6CB
330
1F
100
AcDbEntity
  8
0
 62
     3
100
AcDbLine
 10
121.3339729797752
 20
236.9959457048566
 30
0.0
 11
121.3339729797752
 21
199.4959457048565
 31
0.0
  0
LINE
  5
6CC
330
1F
100
AcDbEntity
  8
0
 62
     3
100
AcDbLine
 10
121.1193128599767
 20
236.9959457048566
 30
0.0
 11
121.1193128599767
 21
199.4959457048565
 31
0.0
  0
TEXT
  5
6D4
330
1F
100
AcDbEntity
  8
0
100
AcDbText
 10
371.1517500653926
 20
273.5138102332993
 30
0.0
 40
2.5
  1
'12.08.21
  7
高2.5
100
AcDbText
  0
TEXT
  5
6D5
330
1F
100
AcDbEntity
  8
0
100
AcDbText
 10
389.1517500653927
 20
273.5138102332993
 30
0.0
 40
2.5
  1
形状変更
  7
高2.5
100
AcDbText
  0
TEXT
  5
6D6
330
1F
100
AcDbEntity
  8
0
100
AcDbText
 10
433.1517500653927
 20
273.5138102332993
 30
0.0
 40
2.5
  1
今村
  7
高2.5
100
AcDbText
  0
TEXT
  5
6D7
330
1F
100
AcDbEntity
  8
0
100
AcDbText
 10
437.6809522141543
 20
34.91064551497618
 30
0.0
 40
4.5
  1
I
  7
高4.5
100
AcDbText
  0
TEXT
  5
6D8
330
1F
100
AcDbEntity
  8
0
 62
     3
100
AcDbText
 10
379.0133245959506
 20
32.48196987570634
 30
0.0
 40
2.5
  1
粉体塗装
  7
高2.5
100
AcDbText
  0
ARC
  5
6D9
330
1F
100
AcDbEntity
  8
0
 62
     3
100
AcDbCircle
 10
129.062412360772
 20
106.6797578171262
 30
0.0
 40
1.5
100
AcDbArc
 50
258.9999999999873
 51
78.99999999998728
  0
LINE
  5
6DA
330
1F
100
AcDbEntity
  8
0
 62
     3
100
AcDbLine
 10
122.8238091896055
 20
126.9933574605353
 30
0.0
 11
134.1814773156663
 21
112.0516917321678
 31
0.0
  0
LINE
  5
6DE
330
1F
100
AcDbEntity
  8
0
 62
     3
100
AcDbLine
 10
131.7963648734594
 20
99.78135193907213
 30
0.0
 11
115.6684718629862
 21
90.18233808124771
 31
0.0
  0
LINE
  5
6E0
330
1F
100
AcDbEntity
  8
0
 62
     3
100
AcDbLine
 10
123.4588627531507
 20
109.297052564557
 30
0.0
 11
129.3486258538369
 21
108.1521985922976
 31
0.0
  0
LINE
  5
6E1
330
1F
100
AcDbEntity
  8
0
 62
     3
100
AcDbLine
 10
122.8864357670214
 20
106.3521710142139
 30
0.0
 11
128.7761988677071
 21
105.2073170419547
 31
0.0
  0
LINE
  5
6E2
330
1F
100
AcDbEntity
  8
0
  6
CENTER
100
AcDbLine
 10
123.5411389641081
 20
117.0487744882699
 30
0.0
 11
110.5803887865232
 21
119.5680891144458
 31
0.0
  0
LINE
  5
6E3
330
1F
100
AcDbEntity
  8
0
  6
CENTER
100
AcDbLine
 10
120.0588747984862
 20
99.13407839035016
 30
0.0
 11
107.0981246209012
 21
101.6533930165259
 31
0.0
  0
CIRCLE
  5
6E7
330
1F
100
AcDbEntity
  8
0
 62
     3
100
AcDbCircle
 10
117.0607638753159
 20
118.3084318013579
 30
0.0
 40
1.375
  0
CIRCLE
  5
6E8
330
1F
100
AcDbEntity
  8
0
 62
     3
100
AcDbCircle
 10
113.5784997096937
 20
100.393735703438
 30
0.0
 40
1.375
  0
CIRCLE
  5
6E9
330
1F
100
AcDbEntity
  8
0
 62
     3
100
AcDbCircle
 10
112.8391148526096
 20
96.58993036757818
 30
0.0
 40
1.375
  0
CIRCLE
  5
6EA
330
1F
100
AcDbEntity
  8
0
 62
     3
100
AcDbCircle
 10
117.8001487323998
 20
122.1122371372174
 30
0.0
 40
1.375
  0
LINE
  5
6EE
330
1F
100
AcDbEntity
  8
0
  6
CENTER
100
AcDbLine
 10
130.0229238794632
 20
111.6211612079951
 30
0.0
 11
128.1019008420808
 21
101.7383544262571
 31
0.0
  0
LINE
  5
701
330
1F
100
AcDbEntity
  8
0
 62
     3
100
AcDbLine
 10
142.9297710156239
 20
224.4959457048564
 30
0.0
 11
142.9297710156239
 21
221.6459457048564
 31
0.0
  0
LINE
  5
702
330
1F
100
AcDbEntity
  8
0
 62
     3
100
AcDbLine
 10
142.9297710156239
 20
214.8459457048567
 30
0.0
 11
142.9297710156239
 21
211.9959457048568
 31
0.0
  0
LINE
  5
703
330
1F
100
AcDbEntity
  8
0
 62
     3
100
AcDbLine
 10
129.1869904473563
 20
236.9959457048566
 30
0.0
 11
142.9297710156239
 21
224.4959457048564
 31
0.0
  0
LINE
  5
705
330
1F
100
AcDbEntity
  8
0
 62
     3
100
AcDbLine
 10
142.9297710156239
 20
211.9959457048568
 30
0.0
 11
129.1869904473561
 21
199.4959457048565
 31
0.0
  0
ELLIPSE
  5
708
330
1F
100
AcDbEntity
  8
0
 62
     3
100
AcDbEllipse
 10
125.2604817135657
 20
205.2459457048566
 30
0.0
 11
0.0
 21
1.375
 31
0.0
210
0.0
220
0.0
230
1.0
 40
0.9816271834476786
 41
0.0
 42
6.283185307179584
  0
ELLIPSE
  5
709
330
1F
100
AcDbEntity
  8
0
 62
     3
100
AcDbEllipse
 10
125.2604817135657
 20
209.1209457048566
 30
0.0
 11
0.0
 21
-1.375
 31
0.0
210
0.0
220
0.0
230
1.0
 40
0.9816271834476783
 41
0.0
 42
6.283185307179584
  0
ELLIPSE
  5
70A
330
1F
100
AcDbEntity
  8
0
 62
     3
100
AcDbEllipse
 10
125.2604817135657
 20
227.3709457048566
 30
0.0
 11
0.0
 21
1.375
 31
0.0
210
0.0
220
0.0
230
1.0
 40
0.9816271834476786
 41
0.0
 42
6.283185307179584
  0
ELLIPSE
  5
70B
330
1F
100
AcDbEntity
  8
0
 62
     3
100
AcDbEllipse
 10
125.2604817135657
 20
231.2459457048568
 30
0.0
 11
0.0
 21
1.374999999999884
 31
0.0
210
0.0
220
0.0
230
1.0
 40
0.9816271834477598
 41
0.0
 42
6.283185307179584
  0
ELLIPSE
  5
70C
330
1F
100
AcDbEntity
  8
0
 62
     3
100
AcDbEllipse
 10
125.0458215937672
 20
205.2459457048566
 30
0.0
 11
0.0
 21
1.375
 31
0.0
210
0.0
220
0.0
230
1.0
 40
0.9816271834476786
 41
3.221195914385595
 42
6.203582046383782
  0
ELLIPSE
  5
70D
330
1F
100
AcDbEntity
  8
0
 62
     3
100
AcDbEllipse
 10
125.0458215937672
 20
209.1209457048566
 30
0.0
 11
0.0
 21
-1.375
 31
0.0
210
0.0
220
0.0
230
1.0
 40
0.9816271834476783
 41
0.0796032607958041
 42
3.061989392793988
  0
ELLIPSE
  5
70E
330
1F
100
AcDbEntity
  8
0
 62
     3
100
AcDbEllipse
 10
125.0458215937672
 20
227.3709457048566
 30
0.0
 11
0.0
 21
1.375
 31
0.0
210
0.0
220
0.0
230
1.0
 40
0.9816271834476786
 41
3.221195914385595
 42
6.203582046383782
  0
ELLIPSE
  5
70F
330
1F
100
AcDbEntity
  8
0
 62
     3
100
AcDbEllipse
 10
125.0458215937672
 20
231.2459457048566
 30
0.0
 11
0.0
 21
-1.375
 31
0.0
210
0.0
220
0.0
230
1.0
 40
0.9816271834476783
 41
0.079603260797154
 42
3.061989392793988
  0
ARC
  5
710
330
1F
100
AcDbEntity
  8
0
100
AcDbCircle
 10
142.9297710156234
 20
157.0577612191691
 30
0.0
 40
1.12500000000009
100
AcDbArc
 50
258.9999999999873
 51
78.99999999998728
  0
ARC
  5
711
330
1F
100
AcDbEntity
  8
0
100
AcDbCircle
 10
129.1869904473565
 20
159.7290871544428
 30
0.0
 40
1.125000000000915
100
AcDbArc
 50
78.99999999998728
 51
169.0000000000013
  0
LINE
  5
712
330
1F
100
AcDbEntity
  8
0
100
AcDbLine
 10
129.4016505671553
 20
160.8334177358223
 30
0.0
 11
143.1444311354221
 21
158.1620918005478
 31
0.0
  0
ARC
  5
713
330
1F
100
AcDbEntity
  8
0
100
AcDbCircle
 10
345.5599283054499
 20
121.4423529265779
 30
0.0
 40
1.125
100
AcDbArc
 50
270.0
 51
90.0
  0
ARC
  5
714
330
1F
100
AcDbEntity
  8
0
100
AcDbCircle
 10
326.8099283054499
 20
121.4423529265779
 30
0.0
 40
1.125
100
AcDbArc
 50
90.0
 51
270.0
  0
LINE
  5
715
330
1F
100
AcDbEntity
  8
0
100
AcDbLine
 10
326.8099283054499
 20
122.5673529265778
 30
0.0
 11
345.5599283054499
 21
122.5673529265778
 31
0.0
  0
ARC
  5
716
330
1F
100
AcDbEntity
  8
0
100
AcDbCircle
 10
326.8099283054499
 20
128.2423529265778
 30
0.0
 40
3.399999999999863
100
AcDbArc
 50
258.9999999999873
 51
270.0
  0
LINE
  5
717
330
1F
100
AcDbEntity
  8
0
 62
     3
100
AcDbLine
 10
347.4099283054499
 20
86.78421473837795
 30
0.0
 11
326.8099283054499
 21
86.78421473837795
 31
0.0
  0
LINE
  5
718
330
1F
100
AcDbEntity
  8
0
 62
     3
100
AcDbLine
 10
345.5599283054499
 20
85.65921473837795
 30
0.0
 11
326.8099283054499
 21
85.65921473837795
 31
0.0
  0
LINE
  5
719
330
1F
100
AcDbEntity
  8
0
 62
     3
100
AcDbLine
 10
350.6849283054499
 20
93.58421473837791
 30
0.0
 11
326.8099283054499
 21
93.58421473837791
 31
0.0
  0
LINE
  5
71A
330
1F
100
AcDbEntity
  8
0
 62
     3
100
AcDbLine
 10
351.8099283054499
 20
90.18421473837804
 30
0.0
 11
351.8099283054499
 21
86.60921473837801
 31
0.0
  0
LINE
  5
71B
330
1F
100
AcDbEntity
  8
0
 62
     3
100
AcDbLine
 10
351.0599283054499
 20
93.2092147383779
 30
0.0
 11
351.0599283054499
 21
90.18421473837804
 31
0.0
  0
LINE
  5
71C
330
1F
100
AcDbEntity
  8
0
 62
     3
100
AcDbLine
 10
350.6849283054499
 20
93.58421473837791
 30
0.0
 11
351.0599283054499
 21
93.2092147383779
 31
0.0
  0
LINE
  5
71D
330
1F
100
AcDbEntity
  8
0
 62
     3
100
AcDbLine
 10
345.5599283054499
 20
86.78421473837795
 30
0.0
 11
345.5599283054499
 21
85.65921473837795
 31
0.0
  0
LINE
  5
71E
330
1F
100
AcDbEntity
  8
0
 62
     3
100
AcDbLine
 10
326.8099283054499
 20
86.78421473837795
 30
0.0
 11
326.8099283054499
 21
85.65921473837795
 31
0.0
  0
LINE
  5
71F
330
1F
100
AcDbEntity
  8
0
100
AcDbLine
 10
351.1849283054499
 20
90.18421473837804
 30
0.0
 11
351.1849283054499
 21
86.30921473837805
 31
0.0
  0
LINE
  5
720
330
1F
100
AcDbEntity
  8
0
 62
     3
100
AcDbLine
 10
347.4099283054499
 20
90.18421473837804
 30
0.0
 11
347.4099283054499
 21
86.60921473837801
 31
0.0
  0
LINE
  5
721
330
1F
100
AcDbEntity
  8
0
100
AcDbLine
 10
348.1599283054499
 20
90.18421473837817
 30
0.0
 11
348.1599283054499
 21
86.30921473837805
 31
0.0
  0
LINE
  5
722
330
1F
100
AcDbEntity
  8
0
 62
     3
100
AcDbLine
 10
348.1599283054499
 20
86.30921473837805
 30
0.0
 11
348.1599283054499
 21
86.16790583283259
 31
0.0
  0
LINE
  5
723
330
1F
100
AcDbEntity
  8
0
  6
CENTER
100
AcDbLine
 10
326.8099283054499
 20
90.18421473837804
 30
0.0
 11
354.0901640764364
 21
90.18421473837804
 31
0.0
  0
LINE
  5
724
330
1F
100
AcDbEntity
  8
0
  6
HIDDEN
 62
     2
100
AcDbLine
 10
351.1849283054499
 20
87.99671473837804
 30
0.0
 11
347.4099283054499
 21
87.99671473837804
 31
0.0
  0
LINE
  5
725
330
1F
100
AcDbEntity
  8
0
 62
     3
100
AcDbLine
 10
351.1849283054499
 20
86.30921473837805
 30
0.0
 11
351.1437063397476
 21
86.30921473837805
 31
0.0
  0
LINE
  5
726
330
1F
100
AcDbEntity
  8
0
 62
     3
100
AcDbLine
 10
351.8099283054499
 20
86.60921473837801
 30
0.0
 11
351.1849283054499
 21
86.30921473837805
 31
0.0
  0
LINE
  5
727
330
1F
100
AcDbEntity
  8
0
 62
     3
100
AcDbLine
 10
347.4099283054499
 20
86.60921473837801
 30
0.0
 11
348.1599283054499
 21
86.30921473837805
 31
0.0
  0
LINE
  5
728
330
1F
100
AcDbEntity
  8
0
  6
HIDDEN
 62
     2
100
AcDbLine
 10
351.8099283054499
 20
87.43421473837804
 30
0.0
 11
351.1849283054499
 21
87.99671473837804
 31
0.0
  0
LINE
  5
729
330
1F
100
AcDbEntity
  8
0
100
AcDbLine
 10
348.1599283054499
 20
89.88334925163588
 30
0.0
 11
350.8114177045913
 21
89.88334925163588
 31
0.0
  0
LINE
  5
72A
330
1F
100
AcDbEntity
  8
0
100
AcDbLine
 10
348.1599283054499
 20
89.13632804991868
 30
0.0
 11
350.8114177045913
 21
89.13632804991868
 31
0.0
  0
ARC
  5
72B
330
1F
100
AcDbEntity
  8
0
100
AcDbCircle
 10
350.8114177045913
 20
89.50983865077715
 30
0.0
 40
0.373510600858566
100
AcDbArc
 50
270.0
 51
90.0
  0
LINE
  5
72C
330
1F
100
AcDbEntity
  8
0
 62
     3
100
AcDbLine
 10
350.8114177045913
 20
86.16790583283259
 30
0.0
 11
348.1599283054499
 21
86.16790583283259
 31
0.0
  0
LINE
  5
72D
330
1F
100
AcDbEntity
  8
0
100
AcDbLine
 10
348.1599283054499
 20
86.68806402734061
 30
0.0
 11
350.8114177045913
 21
86.68806402734061
 31
0.0
  0
ELLIPSE
  5
72E
330
1F
100
AcDbEntity
  8
0
100
AcDbEllipse
 10
350.8114177045913
 20
86.4279849300866
 30
0.0
 11
0.3735106008586161
 21
0.0000000000000363
 31
0.0
210
0.0
220
0.0
230
-1.0
 40
0.696309814650703
 41
-1.570796326794829
 42
0.4742479232899833
  0
ELLIPSE
  5
72F
330
1F
100
AcDbEntity
  8
0
 62
     3
100
AcDbEllipse
 10
350.8114177045913
 20
86.4279849300866
 30
0.0
 11
-0.3735106008585256
 21
0.0000000000002022
 31
0.0
210
0.0
220
0.0
230
-1.0
 40
0.6963098146508717
 41
3.615840576878857
 42
4.712388980384311
  0
LINE
  5
730
330
1F
100
AcDbEntity
  8
0
100
AcDbLine
 10
348.1599283054499
 20
86.84079252129221
 30
0.0
 11
350.8114177045913
 21
86.84079252129221
 31
0.0
  0
LINE
  5
731
330
1F
100
AcDbEntity
  8
0
100
AcDbLine
 10
348.1599283054499
 20
87.47045552845326
 30
0.0
 11
350.8114177045913
 21
87.47045552845326
 31
0.0
  0
ELLIPSE
  5
732
330
1F
100
AcDbEntity
  8
0
100
AcDbEllipse
 10
350.8114177045913
 20
87.15562402487273
 30
0.0
 11
0.3735106008585944
 21
0.0
 31
0.0
210
0.0
220
0.0
230
-1.0
 40
0.842898442124224
 41
4.712388980384688
 42
7.853981633974482
  0
LINE
  5
733
330
1F
100
AcDbEntity
  8
0
  6
CENTER
100
AcDbLine
 10
341.8099283054499
 20
91.45538339084158
 30
0.0
 11
341.8099283054499
 21
79.05343680759699
 31
0.0
  0
LINE
  5
734
330
1F
100
AcDbEntity
  8
0
  6
CENTER
100
AcDbLine
 10
330.5599283054499
 20
91.45538339084158
 30
0.0
 11
330.5599283054499
 21
79.05343680759699
 31
0.0
  0
ARC
  5
735
330
1F
100
AcDbEntity
  8
0
 62
     3
100
AcDbCircle
 10
326.8099283054499
 20
93.58421473837791
 30
0.0
 40
6.799999999999998
100
AcDbArc
 50
258.9999999999873
 51
270.0
  0
ARC
  5
736
330
1F
100
AcDbEntity
  8
0
100
AcDbCircle
 10
326.8099283054499
 20
93.58421473837791
 30
0.0
 40
3.399999999999863
100
AcDbArc
 50
258.9999999999873
 51
270.0
  0
LINE
  5
737
330
1F
100
AcDbEntity
  8
0
 62
     3
100
AcDbLine
 10
350.6849283054499
 20
93.58421473837791
 30
0.0
 11
350.6849283054499
 21
90.18421473837804
 31
0.0
  0
TEXT
  5
742
330
1F
100
AcDbEntity
  8
0
 62
     3
100
AcDbText
 10
82.73951691205963
 20
33.04561776106459
 30
0.0
 40
2.5
  1
注）溶接部は1周する事。(別途打合せ)
  7
高2.5
100
AcDbText
  0
TEXT
  5
751
330
1F
100
AcDbEntity
  8
0
 62
     3
100
AcDbText
 10
433.1517500653927
 20
278.5138102332993
 30
0.0
 40
3.2
  1
担　当
  7
高3.2
100
AcDbText
  0
TEXT
  5
752
330
1F
100
AcDbEntity
  8
0
 62
     3
100
AcDbText
 10
389.1517500653927
 20
278.5138102332993
 30
0.0
 40
3.2
  1
変更・追記内容
  7
高3.2
100
AcDbText
  0
TEXT
  5
753
330
1F
100
AcDbEntity
  8
0
 62
     3
100
AcDbText
 10
364.265265065732
 20
273.843271723391
 30
0.0
 40
2.0
  1
1
  7
高2
100
AcDbText
  0
TEXT
  5
754
330
1F
100
AcDbEntity
  8
0
 62
     3
100
AcDbText
 10
363.9567535889747
 20
268.6734550111181
 30
0.0
 40
2.0
  1
2
  7
高2
100
AcDbText
  0
TEXT
  5
755
330
1F
100
AcDbEntity
  8
0
 62
     3
100
AcDbText
 10
371.1517500653926
 20
278.5138102332993
 30
0.0
 40
3.2
  1
日　付
  7
高3.2
100
AcDbText
  0
TEXT
  5
756
330
1F
100
AcDbEntity
  8
0
 62
     3
100
AcDbText
 10
371.1517500653926
 20
283.5138102332993
 30
0.0
 40
3.2
  1
図　　　　面　　　　略　　　　歴
  7
高3.2
100
AcDbText
  0
TEXT
  5
757
330
1F
100
AcDbEntity
  8
0
 62
     3
100
AcDbText
 10
361.1517500653927
 20
278.5138102332993
 30
0.0
 40
3.2
  1
記号
  7
高3.2
100
AcDbText
  0
LINE
  5
758
330
1F
100
AcDbEntity
  8
0
 62
     7
100
AcDbLine
 10
364.6517500653926
 20
271.8047062332993
 30
0.0
 11
362.7517500653926
 21
268.5138102332993
 31
0.0
  0
LINE
  5
759
330
1F
100
AcDbEntity
  8
0
 62
     7
100
AcDbLine
 10
364.6517500653926
 20
271.8047062332993
 30
0.0
 11
366.5517500653924
 21
268.5138102332993
 31
0.0
  0
LINE
  5
75A
330
1F
100
AcDbEntity
  8
0
 62
     7
100
AcDbLine
 10
362.7517500653926
 20
268.5138102332993
 30
0.0
 11
366.5517500653924
 21
268.5138102332993
 31
0.0
  0
LINE
  5
75B
330
1F
100
AcDbEntity
  8
0
 62
     7
100
AcDbLine
 10
364.6517500653926
 20
276.8047072332994
 30
0.0
 11
362.7517500653926
 21
273.5138102332993
 31
0.0
  0
LINE
  5
75C
330
1F
100
AcDbEntity
  8
0
 62
     7
100
AcDbLine
 10
364.6517500653926
 20
276.8047072332994
 30
0.0
 11
366.5517500653924
 21
273.5138102332993
 31
0.0
  0
LINE
  5
75D
330
1F
100
AcDbEntity
  8
0
 62
     7
100
AcDbLine
 10
362.7517500653926
 20
273.5138102332993
 30
0.0
 11
366.5517500653924
 21
273.5138102332993
 31
0.0
  0
LINE
  5
75E
330
1F
100
AcDbEntity
  8
0
 62
     3
100
AcDbLine
 10
359.6517500653927
 20
283.0138102332993
 30
0.0
 11
445.6517500653927
 21
283.0138102332993
 31
0.0
  0
LINE
  5
75F
330
1F
100
AcDbEntity
  8
0
 62
     3
100
AcDbLine
 10
359.6517500653927
 20
278.0138102332993
 30
0.0
 11
445.6517500653927
 21
278.0138102332993
 31
0.0
  0
LINE
  5
760
330
1F
100
AcDbEntity
  8
0
 62
     7
100
AcDbLine
 10
359.6517500653927
 20
273.0138102332993
 30
0.0
 11
445.6517500653927
 21
273.0138102332993
 31
0.0
  0
LINE
  5
761
330
1F
100
AcDbEntity
  8
0
 62
     7
100
AcDbLine
 10
359.6517500653927
 20
268.0138102332993
 30
0.0
 11
445.6517500653927
 21
268.0138102332993
 31
0.0
  0
LINE
  5
762
330
1F
100
AcDbEntity
  8
0
 62
     7
100
AcDbLine
 10
431.6517500653926
 20
263.0138102332993
 30
0.0
 11
431.6517500653926
 21
283.0138102332993
 31
0.0
  0
LINE
  5
763
330
1F
100
AcDbEntity
  8
0
 62
     7
100
AcDbLine
 10
387.6517500653926
 20
263.0138102332993
 30
0.0
 11
387.6517500653926
 21
283.0138102332993
 31
0.0
  0
LINE
  5
764
330
1F
100
AcDbEntity
  8
0
 62
     7
100
AcDbLine
 10
369.6517500653927
 20
263.0138102332993
 30
0.0
 11
369.6517500653927
 21
283.0138102332993
 31
0.0
  0
LINE
  5
765
330
1F
100
AcDbEntity
  8
0
 62
     3
100
AcDbLine
 10
359.6517500653927
 20
263.0138102332993
 30
0.0
 11
359.6517500653927
 21
288.0138102332993
 31
0.0
  0
TEXT
  5
978
330
1F
100
AcDbEntity
  8
0
100
AcDbText
 10
371.1517500653926
 20
268.5138102332993
 30
0.0
 40
2.5
  1
'13.03.15
  7
高2.5
100
AcDbText
  0
TEXT
  5
979
330
1F
100
AcDbEntity
  8
0
100
AcDbText
 10
389.1517500653927
 20
268.5138102332993
 30
0.0
 40
2.5
  1
形状変更
  7
高2.5
100
AcDbText
  0
TEXT
  5
97A
330
1F
100
AcDbEntity
  8
0
100
AcDbText
 10
433.1517500653927
 20
268.5138102332993
 30
0.0
 40
2.5
  1
今村
  7
高2.5
100
AcDbText
  0
TEXT
  5
F38
330
1F
100
AcDbEntity
  8
0
 62
     4
100
AcDbText
 10
373.9323516200869
 20
77.2451864095209
 30
0.0
 40
4.5
  1
質量：2.2kg
  7
高4.5
100
AcDbText
  0
LINE
  5
1204
330
1F
100
AcDbEntity
  8
0
 62
     3
100
AcDbLine
 10
393.9523865853931
 20
53.67953276329945
 30
0.0
 11
393.9523865853931
 21
59.67953276329946
 31
0.0
  0
LINE
  5
1207
330
1F
100
AcDbEntity
  8
0
 62
     3
100
AcDbLine
 10
419.9523865853926
 20
53.67953276329945
 30
0.0
 11
419.9523865853926
 21
59.67953276329946
 31
0.0
  0
TEXT
  5
1710
330
1F
100
AcDbEntity
  8
0
 62
     3
100
AcDbText
 10
363.9567535889747
 20
263.6734550111181
 30
0.0
 40
2.0
  1
3
  7
高2
100
AcDbText
  0
LINE
  5
1711
330
1F
100
AcDbEntity
  8
0
 62
     7
100
AcDbLine
 10
364.6517500653926
 20
266.8047062332993
 30
0.0
 11
362.7517500653926
 21
263.5138102332993
 31
0.0
  0
LINE
  5
1712
330
1F
100
AcDbEntity
  8
0
 62
     7
100
AcDbLine
 10
364.6517500653926
 20
266.8047062332993
 30
0.0
 11
366.5517500653924
 21
263.5138102332993
 31
0.0
  0
LINE
  5
1713
330
1F
100
AcDbEntity
  8
0
 62
     7
100
AcDbLine
 10
362.7517500653926
 20
263.5138102332993
 30
0.0
 11
366.5517500653924
 21
263.5138102332993
 31
0.0
  0
LINE
  5
1714
330
1F
100
AcDbEntity
  8
0
 62
     3
100
AcDbLine
 10
359.6517500653927
 20
263.0138102332993
 30
0.0
 11
445.6517500653927
 21
263.0138102332993
 31
0.0
  0
TEXT
  5
1715
330
1F
100
AcDbEntity
  8
0
100
AcDbText
 10
371.1517500653926
 20
263.5138102332993
 30
0.0
 40
2.5
  1
'18.07.09
  7
高2.5
100
AcDbText
  0
TEXT
  5
1716
330
1F
100
AcDbEntity
  8
0
100
AcDbText
 10
389.1517500653927
 20
263.5138102332993
 30
0.0
 40
2.5
  1
質量変更
  7
高2.5
100
AcDbText
  0
TEXT
  5
1717
330
1F
100
AcDbEntity
  8
0
100
AcDbText
 10
433.1517500653927
 20
263.5138102332993
 30
0.0
 40
2.5
  1
今村
  7
高2.5
100
AcDbText
  0
TEXT
  5
1A2B
330
1F
100
AcDbEntity
  8
0
 62
     4
100
AcDbText
 10
78.83133116399818
 20
227.4750048834454
 30
0.0
 40
3.0
  1
この面、穴なし
100
AcDbText
1001
ACAD
1000
MTEXTBEGIN
1070
    73
1070
     1
1070
    44
1040
1.0
1070
    74
1070
     0
1000
MTEXTEND
  0
TEXT
  5
1A2E
330
1F
100
AcDbEntity
  8
0
 62
     4
100
AcDbText
 10
133.4008113513414
 20
85.33982567385704
 30
0.0
 40
3.0
  1
12x36長穴
100
AcDbText
1001
ACAD
1000
MTEXTBEGIN
1070
    73
1070
     1
1070
    44
1040
1.0
1070
    74
1070
     0
1000
MTEXTEND
  0
TEXT
  5
1A2F
330
1F
100
AcDbEntity
  8
0
 62
     4
100
AcDbText
 10
133.4008113513414
 20
80.33982567385704
 30
0.0
 40
3.0
  1
(板金およびパイプ)
100
AcDbText
1001
ACAD
1000
MTEXTBEGIN
1070
    73
1070
     1
1070
    44
1040
1.0
1070
    74
1070
     0
1000
MTEXTEND
  0
TEXT
  5
1A32
330
1F
100
AcDbEntity
  8
0
 62
     4
100
AcDbText
 10
153.5020282154733
 20
136.5696303778683
 30
0.0
 40
3.0
  1
溶接(周)
100
AcDbText
1001
ACAD
1000
MTEXTBEGIN
1070
    73
1070
     1
1070
    44
1040
1.0
1070
    74
1070
     0
1000
MTEXTEND
  0
TEXT
  5
1A35
330
1F
100
AcDbEntity
  8
0
 62
     4
100
AcDbText
 10
306.1940969062596
 20
111.7774550016553
 30
0.0
 40
3.0
  1
溶接(周)
100
AcDbText
1001
ACAD
1000
MTEXTBEGIN
1070
    73
1070
     1
1070
    44
1040
1.0
1070
    74
1070
     0
1000
MTEXTEND
  0
TEXT
  5
1A38
330
1F
100
AcDbEntity
  8
0
 62
     4
100
AcDbText
 10
357.2033703357174
 20
100.6115402451287
 30
0.0
 40
3.0
  1
C1.5
 50
44.99999999999997
100
AcDbText
1001
ACAD
1000
MTEXTBEGIN
1070
    73
1070
     1
1070
    44
1040
1.0
1070
    74
1070
     0
1000
MTEXTEND
  0
LINE
  5
1A3B
330
1F
100
AcDbEntity
  8
0
100
AcDbLine
 10
345.5599283054499
 20
87.03421473837796
 30
0.0
 11
345.5599283054499
 21
101.6206882991833
 31
0.0
  0
LINE
  5
1A3C
330
1F
100
AcDbEntity
  8
0
100
AcDbLine
 10
351.0599283054499
 20
93.4592147383779
 30
0.0
 11
351.0599283054499
 21
101.6206882991833
 31
0.0
  0
LINE
  5
1A3D
330
1F
100
AcDbEntity
  8
0
100
AcDbLine
 10
353.5599283054499
 20
100.3706882991833
 30
0.0
 11
356.0599283054499
 21
100.3706882991833
 31
0.0
  0
LINE
  5
1A3E
330
1F
100
AcDbEntity
  8
0
100
AcDbLine
 10
343.0599283054499
 20
100.3706882991833
 30
0.0
 11
330.3099283054499
 21
100.3706882991833
 31
0.0
  0
LINE
  5
1A3F
330
1F
100
AcDbEntity
  8
0
100
AcDbLine
 10
351.0599283054499
 20
100.3706882991833
 30
0.0
 11
345.5599283054499
 21
100.3706882991833
 31
0.0
  0
LINE
  5
1A43
330
1F
100
AcDbEntity
  8
0
100
AcDbLine
 10
228.4018031648216
 20
147.3709547130765
 30
0.0
 11
226.0313980111837
 21
147.8317147996223
 31
0.0
  0
LINE
  5
1A44
330
1F
100
AcDbEntity
  8
0
100
AcDbLine
 10
227.1043019962611
 20
140.6958898656326
 30
0.0
 11
224.7338968426231
 21
141.1566499521784
 31
0.0
  0
LINE
  5
1A45
330
1F
100
AcDbEntity
  8
0
100
AcDbLine
 10
227.7354544789346
 20
150.0472715140208
 30
0.0
 11
228.212476967376
 21
152.50133947264
 31
0.0
  0
LINE
  5
1A46
330
1F
100
AcDbEntity
  8
0
100
AcDbLine
 10
225.4839083334913
 20
138.4640707493386
 30
0.0
 11
217.7847653700473
 21
98.85541389722533
 31
0.0
  0
LINE
  5
1A47
330
1F
100
AcDbEntity
  8
0
100
AcDbLine
 10
227.2584319904932
 20
147.5932035554016
 30
0.0
 11
225.9609308219327
 21
140.9181387079577
 31
0.0
  0
LINE
  5
1A4B
330
1F
100
AcDbEntity
  8
0
100
AcDbLine
 10
326.8099283054499
 20
93.8342147383779
 30
0.0
 11
326.8099283054499
 21
107.0429981902313
 31
0.0
  0
LINE
  5
1A4C
330
1F
100
AcDbEntity
  8
0
100
AcDbLine
 10
351.0599283054499
 20
93.4592147383779
 30
0.0
 11
351.0599283054499
 21
107.0429981902313
 31
0.0
  0
LINE
  5
1A4D
330
1F
100
AcDbEntity
  8
0
100
AcDbLine
 10
329.3099283054499
 20
105.7929981902313
 30
0.0
 11
348.5599283054499
 21
105.7929981902313
 31
0.0
  0
LINE
  5
1A51
330
1F
100
AcDbEntity
  8
0
100
AcDbLine
 10
115.6207696141419
 20
89.93693128538593
 30
0.0
 11
114.5876206084637
 21
84.62184041912658
 31
0.0
  0
LINE
  5
1A52
330
1F
100
AcDbEntity
  8
0
100
AcDbLine
 10
107.7677521465604
 20
91.46340324839774
 30
0.0
 11
106.7346031408822
 21
86.14831238213838
 31
0.0
  0
LINE
  5
1A53
330
1F
100
AcDbEntity
  8
0
100
AcDbLine
 10
112.3720638940651
 20
86.32589688687735
 30
0.0
 11
109.427182343722
 21
86.89832387300681
 31
0.0
  0
LINE
  5
1A57
330
1F
100
AcDbEntity
  8
0
100
AcDbLine
 10
107.5700475995425
 20
91.75651229310444
 30
0.0
 11
91.2955599408608
 21
94.91995223525705
 31
0.0
  0
LINE
  5
1A58
330
1F
100
AcDbEntity
  8
0
100
AcDbLine
 10
114.725384926163
 20
128.5675316723915
 30
0.0
 11
98.45089726748133
 21
131.7309716145441
 31
0.0
  0
LINE
  5
1A59
330
1F
100
AcDbEntity
  8
0
100
AcDbLine
 10
92.99961640861175
 20
97.13550894965553
 30
0.0
 11
99.20090875834953
 21
129.0383924117042
 31
0.0
  0
LINE
  5
1A5D
330
1F
100
AcDbEntity
  8
0
100
AcDbLine
 10
132.0417716693213
 20
99.73364969022798
 30
0.0
 11
136.6475684581592
 21
98.83837348658817
 31
0.0
  0
LINE
  5
1A5E
330
1F
100
AcDbEntity
  8
0
100
AcDbLine
 10
134.426884111528
 20
112.0039894833236
 30
0.0
 11
139.032680900366
 21
111.1087132796838
 31
0.0
  0
LINE
  5
1A5F
330
1F
100
AcDbEntity
  8
0
100
AcDbLine
 10
134.9435119904083
 20
96.62281677218969
 30
0.0
 11
134.466489501967
 21
94.16874881357051
 31
0.0
  0
LINE
  5
1A60
330
1F
100
AcDbEntity
  8
0
100
AcDbLine
 10
138.2826694094977
 20
113.8012924825236
 30
0.0
 11
140.1907593632631
 21
123.6175643170002
 31
0.0
  0
LINE
  5
1A61
330
1F
100
AcDbEntity
  8
0
100
AcDbLine
 10
135.4205344788496
 20
99.07688473080884
 30
0.0
 11
137.8056469210564
 21
111.3472245239045
 31
0.0
  0
LINE
  5
1A65
330
1F
100
AcDbEntity
  8
0
100
AcDbLine
 10
134.2291795645103
 20
112.2970985280297
 30
0.0
 11
139.6163986383838
 21
140.0119380494367
 31
0.0
  0
LINE
  5
1A66
330
1F
100
AcDbEntity
  8
0
100
AcDbLine
 10
112.6333815286622
 20
116.4948964263137
 30
0.0
 11
118.0206006025357
 21
144.2097359477207
 31
0.0
  0
LINE
  5
1A67
330
1F
100
AcDbEntity
  8
0
100
AcDbLine
 10
136.9238194355439
 20
139.2619265585685
 30
0.0
 11
120.2361573169342
 21
142.5056794799698
 31
0.0
  0
LINE
  5
1A6B
330
1F
100
AcDbEntity
  8
0
100
AcDbLine
 10
130.0706261283073
 20
111.866568003857
 30
0.0
 11
133.9203583356331
 21
131.6717232914634
 31
0.0
  0
LINE
  5
1A6C
330
1F
100
AcDbEntity
  8
0
100
AcDbLine
 10
124.1808630276216
 20
113.0114219761163
 30
0.0
 11
128.0305952349474
 21
132.8165772637227
 31
0.0
  0
LINE
  5
1A6D
330
1F
100
AcDbEntity
  8
0
100
AcDbLine
 10
125.3380160321076
 20
132.0665657728546
 30
0.0
 11
122.8839480734884
 21
132.5435882612959
 31
0.0
  0
LINE
  5
1A6E
330
1F
100
AcDbEntity
  8
0
100
AcDbLine
 10
136.1359150500316
 20
129.9676668237124
 30
0.0
 11
144.7251529051986
 21
128.2980881141675
 31
0.0
  0
LINE
  5
1A6F
330
1F
100
AcDbEntity
  8
0
100
AcDbLine
 10
127.7920839907267
 20
131.5895432844131
 30
0.0
 11
133.6818470914124
 21
130.4446893121538
 31
0.0
  0
LINE
  5
1A73
330
1F
100
AcDbEntity
  8
0
100
AcDbLine
 10
124.1808630276216
 20
113.0114219761164
 30
0.0
 11
128.0305952349469
 21
132.8165772637232
 31
0.0
  0
LINE
  5
1A74
330
1F
100
AcDbEntity
  8
0
100
AcDbLine
 10
116.3278455600402
 20
114.5378939391287
 30
0.0
 11
120.1775777673655
 21
134.3430492267355
 31
0.0
  0
LINE
  5
1A75
330
1F
100
AcDbEntity
  8
0
100
AcDbLine
 10
125.3380160321071
 20
132.066565772855
 30
0.0
 11
122.393134481764
 21
132.6389927589846
 31
0.0
  0
LINE
  5
1A79
330
1F
100
AcDbEntity
  8
0
100
AcDbLine
 10
110.3349819906613
 20
119.6157913632899
 30
0.0
 11
107.006358460396
 21
120.262810234106
 31
0.0
  0
LINE
  5
1A7A
330
1F
100
AcDbEntity
  8
0
100
AcDbLine
 10
106.8527178250393
 20
101.70109526537
 30
0.0
 11
103.524094294774
 21
102.348114136186
 31
0.0
  0
LINE
  5
1A7B
330
1F
100
AcDbEntity
  8
0
100
AcDbLine
 10
107.7563699512642
 20
117.5702310312661
 30
0.0
 11
105.2281507625249
 21
104.5636708505846
 31
0.0
  0
LINE
  5
1A7F
330
1F
100
AcDbEntity
  8
0
100
AcDbLine
 10
351.8099283054499
 20
222.0709457048569
 30
0.0
 11
351.8099283054499
 21
253.8102024599044
 31
0.0
  0
LINE
  5
1A80
330
1F
100
AcDbEntity
  8
0
100
AcDbLine
 10
121.1193128599767
 20
237.2459457048566
 30
0.0
 11
121.1193128599767
 21
253.8102024599044
 31
0.0
  0
LINE
  5
1A81
330
1F
100
AcDbEntity
  8
0
100
AcDbLine
 10
349.3099283054499
 20
252.5602024599044
 30
0.0
 11
123.6193128599767
 21
252.5602024599044
 31
0.0
  0
LINE
  5
1A85
330
1F
100
AcDbEntity
  8
0
100
AcDbLine
 10
351.8099283054499
 20
214.4209457048568
 30
0.0
 11
351.8099283054499
 21
183.0188805999488
 31
0.0
  0
LINE
  5
1A86
330
1F
100
AcDbEntity
  8
0
100
AcDbLine
 10
345.5599283054499
 20
196.1209457048565
 30
0.0
 11
345.5599283054499
 21
183.0188805999488
 31
0.0
  0
LINE
  5
1A87
330
1F
100
AcDbEntity
  8
0
100
AcDbLine
 10
343.0599283054499
 20
184.2688805999488
 30
0.0
 11
340.5599283054499
 21
184.2688805999488
 31
0.0
  0
LINE
  5
1A88
330
1F
100
AcDbEntity
  8
0
100
AcDbLine
 10
354.3099283054499
 20
184.2688805999488
 30
0.0
 11
363.0599283054499
 21
184.2688805999488
 31
0.0
  0
LINE
  5
1A89
330
1F
100
AcDbEntity
  8
0
100
AcDbLine
 10
345.5599283054499
 20
184.2688805999488
 30
0.0
 11
351.8099283054499
 21
184.2688805999488
 31
0.0
  0
LINE
  5
1A8D
330
1F
100
AcDbEntity
  8
0
100
AcDbLine
 10
115.7796149986977
 20
99.11363476604741
 30
0.0
 11
117.6767118671416
 21
100.7418311521569
 31
0.0
  0
LINE
  5
1A8E
330
1F
100
AcDbEntity
  8
0
100
AcDbLine
 10
109.8986147065221
 20
94.06622596910855
 30
0.0
 11
88.67290388137595
 21
75.84911421642553
 31
0.0
  0
LINE
  5
1A8F
330
1F
100
AcDbEntity
  8
0
100
AcDbLine
 10
113.8825181302537
 20
97.48543837993789
 30
0.0
 11
111.7957115749661
 21
95.69442235521806
 31
0.0
  0
LINE
  5
1A93
330
1F
100
AcDbEntity
  8
0
100
AcDbLine
 10
119.209380116114
 20
129.3621041117353
 30
0.0
 11
120.1775777673661
 21
134.3430492267353
 31
0.0
  0
LINE
  5
1A94
330
1F
100
AcDbEntity
  8
0
100
AcDbLine
 10
115.2828713823241
 20
130.1253400932416
 30
0.0
 11
116.2510690335762
 21
135.1062852082416
 31
0.0
  0
LINE
  5
1A95
330
1F
100
AcDbEntity
  8
0
100
AcDbLine
 10
122.3931344817644
 20
132.6389927589842
 30
0.0
 11
124.8472024403836
 21
132.1619702705428
 31
0.0
  0
LINE
  5
1A96
330
1F
100
AcDbEntity
  8
0
100
AcDbLine
 10
113.5584898307363
 20
134.3562737173736
 30
0.0
 11
105.7974999116033
 21
135.8648573370698
 31
0.0
  0
LINE
  5
1A97
330
1F
100
AcDbEntity
  8
0
100
AcDbLine
 10
119.9390665231453
 20
133.1160152474258
 30
0.0
 11
116.0125577893554
 21
133.879251228932
 31
0.0
  0
LINE
  5
1A9B
330
1F
100
AcDbEntity
  8
0
100
AcDbLine
 10
121.3816752286193
 20
161.500965913317
 30
0.0
 11
124.8873700943011
 21
179.536202513326
 31
0.0
  0
LINE
  5
1A9C
330
1F
100
AcDbEntity
  8
0
100
AcDbLine
 10
129.2346926962006
 20
159.9744939503046
 30
0.0
 11
132.7403875618824
 21
178.0097305503136
 31
0.0
  0
LINE
  5
1A9D
330
1F
100
AcDbEntity
  8
0
100
AcDbLine
 10
127.1029268086996
 20
177.8321460455751
 30
0.0
 11
130.0478083590425
 21
177.2597190594454
 31
0.0
  0
LINE
  5
1AA1
330
1F
100
AcDbEntity
  8
0
100
AcDbLine
 10
111.0743668477453
 20
123.4195966991495
 30
0.0
 11
102.5038175660702
 21
125.0855427180015
 31
0.0
  0
LINE
  5
1AA2
330
1F
100
AcDbEntity
  8
0
100
AcDbLine
 10
106.1133329679554
 20
97.89728992951022
 30
0.0
 11
97.54278368628034
 21
99.5632359483622
 31
0.0
  0
LINE
  5
1AA3
330
1F
100
AcDbEntity
  8
0
100
AcDbLine
 10
103.2538290569384
 20
122.3929635151616
 30
0.0
 11
99.24684015403125
 21
101.7787926627607
 31
0.0
  0
LINE
  5
1AA7
330
1F
100
AcDbEntity
  8
0
100
AcDbLine
 10
325.9051627777069
 20
121.4423529265779
 30
0.0
 11
255.3476227469732
 21
121.4423529265779
 31
0.0
  0
ARC
  5
1AA8
330
1F
100
AcDbEntity
  8
0
100
AcDbCircle
 10
326.1551627777069
 20
121.4423529265779
 30
0.0
 40
69.55754003073369
100
AcDbArc
 50
171.0594052009007
 51
177.9405947990992
  0
LINE
  5
1AAC
330
1F
100
AcDbEntity
  8
0
100
AcDbLine
 10
333.6538336114115
 20
235.1875581065841
 30
0.0
 11
335.988856483835
 21
234.2944353909067
 31
0.0
  0
LINE
  5
1AAD
330
1F
100
AcDbEntity
  8
0
100
AcDbLine
 10
327.4660229994886
 20
237.5543333031295
 30
0.0
 11
305.3384228923162
 21
246.0179173358763
 31
0.0
  0
LINE
  5
1AAE
330
1F
100
AcDbEntity
  8
0
100
AcDbLine
 10
331.318810738988
 20
236.0806808222616
 30
0.0
 11
329.8010458719121
 21
236.6612105874521
 31
0.0
  0
TEXT
  5
1AB2
330
1F
100
AcDbEntity
  8
0
 62
     4
100
AcDbText
 10
390.1712945347384
 20
141.2706371178889
 30
0.0
 40
3.0
  1
サンピーキャップ
100
AcDbText
1001
ACAD
1000
MTEXTBEGIN
1070
    73
1070
     1
1070
    44
1040
1.0
1070
    74
1070
     0
1000
MTEXTEND
  0
TEXT
  5
1AB3
330
1F
100
AcDbEntity
  8
0
 62
     4
100
AcDbText
 10
389.9712945347384
 20
136.2706371178889
 30
0.0
 40
3.0
  1
ウ25ミリ
100
AcDbText
1001
ACAD
1000
MTEXTBEGIN
1070
    73
1070
     1
1070
    44
1040
1.0
1070
    74
1070
     0
1000
MTEXTEND
  0
LINE
  5
1AB6
330
1F
100
AcDbEntity
  8
0
100
AcDbLine
 10
379.6872074221111
 20
127.4592793026323
 30
0.0
 11
377.6130719225113
 21
128.8549733698618
 31
0.0
  0
LINE
  5
1AB7
330
1F
100
AcDbEntity
  8
0
100
AcDbLine
 10
387.4652155456091
 20
122.2254265505223
 30
0.0
 11
403.27012805256
 21
111.5902377582328
 31
0.0
  0
LINE
  5
1AB8
330
1F
100
AcDbEntity
  8
0
100
AcDbLine
 10
381.7613429217109
 20
126.0635852354027
 30
0.0
 11
385.3910800460093
 21
123.6211206177519
 31
0.0
  0
LINE
  5
1ABC
330
1F
100
AcDbEntity
  8
0
100
AcDbLine
 10
327.8099283054499
 20
121.4423529265779
 30
0.0
 11
297.7196481162613
 21
121.4423529265779
 31
0.0
  0
LINE
  5
1ABD
330
1F
100
AcDbEntity
  8
0
100
AcDbLine
 10
327.8099283054499
 20
120.3173529265779
 30
0.0
 11
297.7196481162613
 21
120.3173529265779
 31
0.0
  0
LINE
  5
1ABE
330
1F
100
AcDbEntity
  8
0
100
AcDbLine
 10
298.9696481162614
 20
123.9423529265779
 30
0.0
 11
298.9696481162614
 21
126.4423529265779
 31
0.0
  0
LINE
  5
1ABF
330
1F
100
AcDbEntity
  8
0
100
AcDbLine
 10
298.9696481162614
 20
117.8173529265779
 30
0.0
 11
298.9696481162614
 21
101.5673529265781
 31
0.0
  0
LINE
  5
1AC0
330
1F
100
AcDbEntity
  8
0
100
AcDbLine
 10
298.9696481162614
 20
121.4423529265779
 30
0.0
 11
298.9696481162614
 21
120.3173529265779
 31
0.0
  0
LINE
  5
1AC4
330
1F
100
AcDbEntity
  8
0
100
AcDbLine
 10
345.8099283054499
 20
240.1209457048566
 30
0.0
 11
373.876656638623
 21
240.1209457048566
 31
0.0
  0
LINE
  5
1AC5
330
1F
100
AcDbEntity
  8
0
100
AcDbLine
 10
345.8099283054499
 20
196.3709457048565
 30
0.0
 11
373.876656638623
 21
196.3709457048565
 31
0.0
  0
LINE
  5
1AC6
330
1F
100
AcDbEntity
  8
0
100
AcDbLine
 10
372.6266566386231
 20
237.6209457048566
 30
0.0
 11
372.6266566386231
 21
198.8709457048565
 31
0.0
  0
LINE
  5
1ACA
330
1F
100
AcDbEntity
  8
0
100
AcDbLine
 10
130.7344916159171
 20
166.4041520018869
 30
0.0
 11
361.9160705324048
 21
166.4041520018868
 31
0.0
  0
LINE
  5
1ACB
330
1F
100
AcDbEntity
  8
0
100
AcDbLine
 10
345.8099283054499
 20
120.3173529265779
 30
0.0
 11
361.9160705324048
 21
120.3173529265779
 31
0.0
  0
LINE
  5
1ACC
330
1F
100
AcDbEntity
  8
0
100
AcDbLine
 10
360.6660705324048
 20
163.9041520018868
 30
0.0
 11
360.6660705324048
 21
122.8173529265779
 31
0.0
  0
LINE
  5
1AD0
330
1F
100
AcDbEntity
  8
0
100
AcDbLine
 10
341.8099283054499
 20
197.1209457048565
 30
0.0
 11
341.8099283054499
 21
188.7600639016483
 31
0.0
  0
LINE
  5
1AD1
330
1F
100
AcDbEntity
  8
0
100
AcDbLine
 10
330.5599283054499
 20
197.1209457048565
 30
0.0
 11
330.5599283054499
 21
188.7600639016483
 31
0.0
  0
LINE
  5
1AD2
330
1F
100
AcDbEntity
  8
0
100
AcDbLine
 10
339.3099283054499
 20
190.0100639016483
 30
0.0
 11
333.0599283054499
 21
190.0100639016483
 31
0.0
  0
LINE
  5
1AD6
330
1F
100
AcDbEntity
  8
0
100
AcDbLine
 10
344.8099283054499
 20
211.3709457048566
 30
0.0
 11
363.5810763824695
 21
211.3709457048566
 31
0.0
  0
LINE
  5
1AD7
330
1F
100
AcDbEntity
  8
0
100
AcDbLine
 10
344.8099283054499
 20
200.1209457048566
 30
0.0
 11
363.5810763824695
 21
200.1209457048566
 31
0.0
  0
LINE
  5
1AD8
330
1F
100
AcDbEntity
  8
0
100
AcDbLine
 10
362.3310763824695
 20
208.8709457048566
 30
0.0
 11
362.3310763824695
 21
202.6209457048566
 31
0.0
  0
LINE
  5
1ADC
330
1F
100
AcDbEntity
  8
0
100
AcDbLine
 10
342.3099283054499
 20
236.3709457048566
 30
0.0
 11
363.5810763824695
 21
236.3709457048566
 31
0.0
  0
LINE
  5
1ADD
330
1F
100
AcDbEntity
  8
0
100
AcDbLine
 10
342.3099283054499
 20
225.1209457048566
 30
0.0
 11
363.5810763824695
 21
225.1209457048566
 31
0.0
  0
LINE
  5
1ADE
330
1F
100
AcDbEntity
  8
0
100
AcDbLine
 10
362.3310763824695
 20
233.8709457048566
 30
0.0
 11
362.3310763824695
 21
227.6209457048566
 31
0.0
  0
LINE
  5
1AE2
330
1F
100
AcDbEntity
  8
0
100
AcDbLine
 10
344.8099283054499
 20
225.1209457048566
 30
0.0
 11
363.5810763824695
 21
225.1209457048566
 31
0.0
  0
LINE
  5
1AE3
330
1F
100
AcDbEntity
  8
0
100
AcDbLine
 10
344.8099283054499
 20
211.3709457048566
 30
0.0
 11
363.5810763824695
 21
211.3709457048566
 31
0.0
  0
LINE
  5
1AE4
330
1F
100
AcDbEntity
  8
0
100
AcDbLine
 10
362.3310763824695
 20
222.6209457048566
 30
0.0
 11
362.3310763824695
 21
213.8709457048566
 31
0.0
  0
LINE
  5
1AE8
330
1F
100
AcDbEntity
  8
0
100
AcDbLine
 10
345.5599283054499
 20
196.1209457048565
 30
0.0
 11
345.5599283054499
 21
183.0188805999488
 31
0.0
  0
LINE
  5
1AE9
330
1F
100
AcDbEntity
  8
0
100
AcDbLine
 10
326.8099283054499
 20
196.1209457048565
 30
0.0
 11
326.8099283054499
 21
183.0188805999488
 31
0.0
  0
LINE
  5
1AEA
330
1F
100
AcDbEntity
  8
0
100
AcDbLine
 10
343.0599283054499
 20
184.2688805999488
 30
0.0
 11
329.3099283054499
 21
184.2688805999488
 31
0.0
  0
LINE
  5
1AEE
330
1F
100
AcDbEntity
  8
0
100
AcDbLine
 10
121.0885661839133
 20
161.3032613662992
 30
0.0
 11
113.4184727547196
 21
162.7941764981802
 31
0.0
  0
LINE
  5
1AEF
330
1F
100
AcDbEntity
  8
0
100
AcDbLine
 10
120.8739060641148
 20
160.1989307849206
 30
0.0
 11
113.2038126349211
 21
161.6898459168016
 31
0.0
  0
LINE
  5
1AF0
330
1F
100
AcDbEntity
  8
0
100
AcDbLine
 10
115.1225292224703
 20
165.0097332125788
 30
0.0
 11
115.5995517109114
 21
167.4638011711981
 31
0.0
  0
LINE
  5
1AF1
330
1F
100
AcDbEntity
  8
0
100
AcDbLine
 10
113.9538241257896
 20
158.9972667139618
 30
0.0
 11
110.8531779509226
 21
143.0458249829372
 31
0.0
  0
LINE
  5
1AF2
330
1F
100
AcDbEntity
  8
0
100
AcDbLine
 10
114.6455067340292
 20
162.5556652539596
 30
0.0
 11
114.4308466142307
 21
161.451334672581
 31
0.0
  0
LINE
  5
1AF6
330
1F
100
AcDbEntity
  8
0
100
AcDbLine
 10
326.857630554294
 20
128.4877597224397
 30
0.0
 11
329.0658242514151
 21
139.8479314750044
 31
0.0
  0
LINE
  5
1AF7
330
1F
100
AcDbEntity
  8
0
100
AcDbLine
 10
130.5321938647612
 20
166.6495587977488
 30
0.0
 11
132.7403875618823
 21
178.0097305503134
 31
0.0
  0
LINE
  5
1AF8
330
1F
100
AcDbEntity
  8
0
100
AcDbLine
 10
326.3732450485753
 20
139.0979199841362
 30
0.0
 11
134.9559442762808
 21
176.3056740825625
 31
0.0
  0
LINE
  5
1AFC
330
1F
100
AcDbEntity
  8
0
100
AcDbLine
 10
351.8099283054499
 20
128.6673529265779
 30
0.0
 11
351.8099283054499
 21
147.7636068129242
 31
0.0
  0
LINE
  5
1AFD
330
1F
100
AcDbEntity
  8
0
100
AcDbLine
 10
326.8099283054499
 20
128.4923529265778
 30
0.0
 11
326.8099283054499
 21
147.7636068129242
 31
0.0
  0
LINE
  5
1AFE
330
1F
100
AcDbEntity
  8
0
100
AcDbLine
 10
349.3099283054499
 20
146.5136068129242
 30
0.0
 11
329.3099283054499
 21
146.5136068129242
 31
0.0
  0
LINE
  5
1B02
330
1F
100
AcDbEntity
  8
0
100
AcDbLine
 10
128.1738371935179
 20
159.9260241971279
 30
0.0
 11
129.0984071743245
 21
160.8505941779344
 31
0.0
1001
GradientColor1ACI
1070
     5
1001
GradientColor2ACI
1070
     2
1001
ACAD
1010
0.0
1020
0.0
1030
0.0
  0
LINE
  5
1B03
330
1F
100
AcDbEntity
  8
0
100
AcDbLine
 10
129.1136819034026
 20
159.7433368918789
 30
0.0
 11
129.2081165518909
 21
159.8377715403671
 31
0.0
1001
GradientColor1ACI
1070
     5
1001
GradientColor2ACI
1070
     2
1001
ACAD
1010
0.0
1020
0.0
1030
0.0
  0
LINE
  5
1B04
330
1F
100
AcDbEntity
  8
0
100
AcDbLine
 10
129.2081165518909
 20
159.8377715403671
 30
0.0
 11
130.0732224057514
 21
160.7028773942276
 31
0.0
1001
GradientColor1ACI
1070
     5
1001
GradientColor2ACI
1070
     2
1001
ACAD
1010
0.0
1020
0.0
1030
0.0
  0
LINE
  5
1B05
330
1F
100
AcDbEntity
  8
0
100
AcDbLine
 10
130.0535266132876
 20
159.5606495866301
 30
0.0
 11
131.0130671156361
 21
160.5201900889786
 31
0.0
1001
GradientColor1ACI
1070
     5
1001
GradientColor2ACI
1070
     2
1001
ACAD
1010
0.0
1020
0.0
1030
0.0
  0
LINE
  5
1B06
330
1F
100
AcDbEntity
  8
0
100
AcDbLine
 10
130.9933713231723
 20
159.3779622813813
 30
0.0
 11
131.9529118255206
 21
160.3375027837296
 31
0.0
1001
GradientColor1ACI
1070
     5
1001
GradientColor2ACI
1070
     2
1001
ACAD
1010
0.0
1020
0.0
1030
0.0
  0
LINE
  5
1B07
330
1F
100
AcDbEntity
  8
0
100
AcDbLine
 10
131.9332160330571
 20
159.1952749761324
 30
0.0
 11
132.8927565354053
 21
160.1548154784806
 31
0.0
1001
GradientColor1ACI
1070
     5
1001
GradientColor2ACI
1070
     2
1001
ACAD
1010
0.0
1020
0.0
1030
0.0
  0
LINE
  5
1B08
330
1F
100
AcDbEntity
  8
0
100
AcDbLine
 10
132.8730607429418
 20
159.0125876708835
 30
0.0
 11
133.8326012452899
 21
159.9721281732315
 31
0.0
1001
GradientColor1ACI
1070
     5
1001
GradientColor2ACI
1070
     2
1001
ACAD
1010
0.0
1020
0.0
1030
0.0
  0
LINE
  5
1B09
330
1F
100
AcDbEntity
  8
0
100
AcDbLine
 10
133.8129054528266
 20
158.8299003656348
 30
0.0
 11
134.7724459551745
 21
159.7894408679826
 31
0.0
1001
GradientColor1ACI
1070
     5
1001
GradientColor2ACI
1070
     2
1001
ACAD
1010
0.0
1020
0.0
1030
0.0
  0
LINE
  5
1B0A
330
1F
100
AcDbEntity
  8
0
100
AcDbLine
 10
134.7527501627113
 20
158.6472130603858
 30
0.0
 11
135.7122906650591
 21
159.6067535627335
 31
0.0
1001
GradientColor1ACI
1070
     5
1001
GradientColor2ACI
1070
     2
1001
ACAD
1010
0.0
1020
0.0
1030
0.0
  0
LINE
  5
1B0B
330
1F
100
AcDbEntity
  8
0
100
AcDbLine
 10
135.6925948725962
 20
158.4645257551369
 30
0.0
 11
136.163793141495
 21
158.9357240240356
 31
0.0
1001
GradientColor1ACI
1070
     5
1001
GradientColor2ACI
1070
     2
1001
ACAD
1010
0.0
1020
0.0
1030
0.0
  0
LINE
  5
1B0C
330
1F
100
AcDbEntity
  8
0
100
AcDbLine
 10
136.163793141495
 20
158.9357240240356
 30
0.0
 11
136.6521353749438
 21
159.4240662574844
 31
0.0
1001
GradientColor1ACI
1070
     5
1001
GradientColor2ACI
1070
     2
1001
ACAD
1010
0.0
1020
0.0
1030
0.0
  0
LINE
  5
1B0D
330
1F
100
AcDbEntity
  8
0
100
AcDbLine
 10
136.6324395824811
 20
158.2818384498881
 30
0.0
 11
137.5919800848284
 21
159.2413789522353
 31
0.0
1001
GradientColor1ACI
1070
     5
1001
GradientColor2ACI
1070
     2
1001
ACAD
1010
0.0
1020
0.0
1030
0.0
  0
LINE
  5
1B0E
330
1F
100
AcDbEntity
  8
0
100
AcDbLine
 10
137.5722842923658
 20
158.0991511446393
 30
0.0
 11
138.5318247947131
 21
159.0586916469864
 31
0.0
1001
GradientColor1ACI
1070
     5
1001
GradientColor2ACI
1070
     2
1001
ACAD
1010
0.0
1020
0.0
1030
0.0
  0
LINE
  5
1B0F
330
1F
100
AcDbEntity
  8
0
100
AcDbLine
 10
138.5121290022506
 20
157.9164638393903
 30
0.0
 11
139.4716695045977
 21
158.8760043417374
 31
0.0
1001
GradientColor1ACI
1070
     5
1001
GradientColor2ACI
1070
     2
1001
ACAD
1010
0.0
1020
0.0
1030
0.0
  0
LINE
  5
1B10
330
1F
100
AcDbEntity
  8
0
100
AcDbLine
 10
139.4519737121355
 20
157.7337765341416
 30
0.0
 11
140.4115142144823
 21
158.6933170364884
 31
0.0
1001
GradientColor1ACI
1070
     5
1001
GradientColor2ACI
1070
     2
1001
ACAD
1010
0.0
1020
0.0
1030
0.0
  0
LINE
  5
1B11
330
1F
100
AcDbEntity
  8
0
100
AcDbLine
 10
140.3918184220202
 20
157.5510892288927
 30
0.0
 11
141.3513589243668
 21
158.5106297312393
 31
0.0
1001
GradientColor1ACI
1070
     5
1001
GradientColor2ACI
1070
     2
1001
ACAD
1010
0.0
1020
0.0
1030
0.0
  0
LINE
  5
1B12
330
1F
100
AcDbEntity
  8
0
100
AcDbLine
 10
141.3316631319051
 20
157.3684019236439
 30
0.0
 11
142.2912036342516
 21
158.3279424259904
 31
0.0
1001
GradientColor1ACI
1070
     5
1001
GradientColor2ACI
1070
     2
1001
ACAD
1010
0.0
1020
0.0
1030
0.0
  0
LINE
  5
1B13
330
1F
100
AcDbEntity
  8
0
100
AcDbLine
 10
142.2715078417898
 20
157.185714618395
 30
0.0
 11
143.228239460239
 21
158.1424462368442
 31
0.0
1001
GradientColor1ACI
1070
     5
1001
GradientColor2ACI
1070
     2
1001
ACAD
1010
0.0
1020
0.0
1030
0.0
  0
LINE
  5
1B14
330
1F
100
AcDbEntity
  8
0
100
AcDbLine
 10
142.8486246628968
 20
156.6402994243684
 30
0.0
 11
143.2113525516745
 21
157.003027313146
 31
0.0
1001
GradientColor1ACI
1070
     5
1001
GradientColor2ACI
1070
     2
1001
ACAD
1010
0.0
1020
0.0
1030
0.0
  0
LINE
  5
1B15
330
1F
100
AcDbEntity
  8
0
100
AcDbLine
 10
143.2113525516746
 20
157.0030273131463
 30
0.0
 11
143.8754475344112
 21
157.6671222958827
 31
0.0
1001
GradientColor1ACI
1070
     5
1001
GradientColor2ACI
1070
     2
1001
ACAD
1010
0.0
1020
0.0
1030
0.0
  0
LINE
  5
1B16
330
1F
100
AcDbEntity
  8
0
100
AcDbLine
 10
143.3417777879226
 20
156.0109205342604
 30
0.0
 11
143.9766117005321
 21
156.64575444687
 31
0.0
1001
GradientColor1ACI
1070
     5
1001
GradientColor2ACI
1070
     2
1001
ACAD
1010
0.0
1020
0.0
1030
0.0
  0
LINE
  5
1B17
330
1F
100
AcDbEntity
  8
0
100
AcDbLine
 10
325.8100549268007
 20
121.9579867372116
 30
0.0
 11
326.294294494816
 21
122.4422263052268
 31
0.0
1001
GradientColor1ACI
1070
     5
1001
GradientColor2ACI
1070
     2
1001
ACAD
1010
0.0
1020
0.0
1030
0.0
  0
LINE
  5
1B18
330
1F
100
AcDbEntity
  8
0
100
AcDbLine
 10
325.8425936984512
 20
120.8679934937284
 30
0.0
 11
326.4169531313007
 21
121.442352926578
 31
0.0
1001
GradientColor1ACI
1070
     5
1001
GradientColor2ACI
1070
     2
1001
ACAD
1010
0.0
1020
0.0
1030
0.0
  0
LINE
  5
1B19
330
1F
100
AcDbEntity
  8
0
100
AcDbLine
 10
326.4169531313007
 20
121.442352926578
 30
0.0
 11
327.5419531313005
 21
122.5673529265777
 31
0.0
1001
GradientColor1ACI
1070
     5
1001
GradientColor2ACI
1070
     2
1001
ACAD
1010
0.0
1020
0.0
1030
0.0
  0
LINE
  5
1B1A
330
1F
100
AcDbEntity
  8
0
100
AcDbLine
 10
326.4677773065915
 20
120.3706450867352
 30
0.0
 11
326.8099283054498
 21
120.7127960855935
 31
0.0
1001
GradientColor1ACI
1070
     5
1001
GradientColor2ACI
1070
     2
1001
ACAD
1010
0.0
1020
0.0
1030
0.0
  0
LINE
  5
1B1B
330
1F
100
AcDbEntity
  8
0
100
AcDbLine
 10
327.5394851464342
 20
121.4423529265779
 30
0.0
 11
328.6644851464341
 21
122.5673529265777
 31
0.0
1001
GradientColor1ACI
1070
     5
1001
GradientColor2ACI
1070
     2
1001
ACAD
1010
0.0
1020
0.0
1030
0.0
  0
LINE
  5
1B1C
330
1F
100
AcDbEntity
  8
0
100
AcDbLine
 10
328.662017161568
 20
121.442352926578
 30
0.0
 11
329.7870171615678
 21
122.5673529265778
 31
0.0
1001
GradientColor1ACI
1070
     5
1001
GradientColor2ACI
1070
     2
1001
ACAD
1010
0.0
1020
0.0
1030
0.0
  0
LINE
  5
1B1D
330
1F
100
AcDbEntity
  8
0
100
AcDbLine
 10
329.7845491767016
 20
121.442352926578
 30
0.0
 11
330.5599283054497
 21
122.2177320553262
 31
0.0
1001
GradientColor1ACI
1070
     5
1001
GradientColor2ACI
1070
     2
1001
ACAD
1010
0.0
1020
0.0
1030
0.0
  0
LINE
  5
1B1E
330
1F
100
AcDbEntity
  8
0
100
AcDbLine
 10
330.5599283054497
 20
122.2177320553262
 30
0.0
 11
330.9095491767015
 21
122.5673529265778
 31
0.0
1001
GradientColor1ACI
1070
     5
1001
GradientColor2ACI
1070
     2
1001
ACAD
1010
0.0
1020
0.0
1030
0.0
  0
LINE
  5
1B1F
330
1F
100
AcDbEntity
  8
0
100
AcDbLine
 10
330.9070811918352
 20
121.442352926578
 30
0.0
 11
332.032081191835
 21
122.5673529265778
 31
0.0
1001
GradientColor1ACI
1070
     5
1001
GradientColor2ACI
1070
     2
1001
ACAD
1010
0.0
1020
0.0
1030
0.0
  0
LINE
  5
1B20
330
1F
100
AcDbEntity
  8
0
100
AcDbLine
 10
332.0296132069688
 20
121.4423529265779
 30
0.0
 11
333.1546132069688
 21
122.5673529265778
 31
0.0
1001
GradientColor1ACI
1070
     5
1001
GradientColor2ACI
1070
     2
1001
ACAD
1010
0.0
1020
0.0
1030
0.0
  0
LINE
  5
1B21
330
1F
100
AcDbEntity
  8
0
100
AcDbLine
 10
333.1521452221025
 20
121.442352926578
 30
0.0
 11
334.2771452221023
 21
122.5673529265777
 31
0.0
1001
GradientColor1ACI
1070
     5
1001
GradientColor2ACI
1070
     2
1001
ACAD
1010
0.0
1020
0.0
1030
0.0
  0
LINE
  5
1B22
330
1F
100
AcDbEntity
  8
0
100
AcDbLine
 10
334.2746772372361
 20
121.4423529265779
 30
0.0
 11
335.3996772372361
 21
122.5673529265778
 31
0.0
1001
GradientColor1ACI
1070
     5
1001
GradientColor2ACI
1070
     2
1001
ACAD
1010
0.0
1020
0.0
1030
0.0
  0
LINE
  5
1B23
330
1F
100
AcDbEntity
  8
0
100
AcDbLine
 10
335.3972092523697
 20
121.4423529265779
 30
0.0
 11
336.5222092523697
 21
122.5673529265778
 31
0.0
1001
GradientColor1ACI
1070
     5
1001
GradientColor2ACI
1070
     2
1001
ACAD
1010
0.0
1020
0.0
1030
0.0
  0
LINE
  5
1B24
330
1F
100
AcDbEntity
  8
0
100
AcDbLine
 10
336.5197412675035
 20
121.4423529265779
 30
0.0
 11
337.6447412675034
 21
122.5673529265778
 31
0.0
1001
GradientColor1ACI
1070
     5
1001
GradientColor2ACI
1070
     2
1001
ACAD
1010
0.0
1020
0.0
1030
0.0
  0
LINE
  5
1B25
330
1F
100
AcDbEntity
  8
0
100
AcDbLine
 10
337.642273282637
 20
121.4423529265779
 30
0.0
 11
338.767273282637
 21
122.5673529265778
 31
0.0
1001
GradientColor1ACI
1070
     5
1001
GradientColor2ACI
1070
     2
1001
ACAD
1010
0.0
1020
0.0
1030
0.0
  0
LINE
  5
1B26
330
1F
100
AcDbEntity
  8
0
100
AcDbLine
 10
338.7648052977707
 20
121.4423529265779
 30
0.0
 11
339.8898052977707
 21
122.5673529265778
 31
0.0
1001
GradientColor1ACI
1070
     5
1001
GradientColor2ACI
1070
     2
1001
ACAD
1010
0.0
1020
0.0
1030
0.0
  0
LINE
  5
1B27
330
1F
100
AcDbEntity
  8
0
100
AcDbLine
 10
339.8873373129044
 20
121.4423529265779
 30
0.0
 11
341.0123373129043
 21
122.5673529265778
 31
0.0
1001
GradientColor1ACI
1070
     5
1001
GradientColor2ACI
1070
     2
1001
ACAD
1010
0.0
1020
0.0
1030
0.0
  0
LINE
  5
1B28
330
1F
100
AcDbEntity
  8
0
100
AcDbLine
 10
341.009869328038
 20
121.4423529265779
 30
0.0
 11
341.8099283054498
 21
122.2424119039897
 31
0.0
1001
GradientColor1ACI
1070
     5
1001
GradientColor2ACI
1070
     2
1001
ACAD
1010
0.0
1020
0.0
1030
0.0
  0
LINE
  5
1B29
330
1F
100
AcDbEntity
  8
0
100
AcDbLine
 10
341.8099283054498
 20
122.2424119039897
 30
0.0
 11
342.1348693280379
 21
122.5673529265778
 31
0.0
1001
GradientColor1ACI
1070
     5
1001
GradientColor2ACI
1070
     2
1001
ACAD
1010
0.0
1020
0.0
1030
0.0
  0
LINE
  5
1B2A
330
1F
100
AcDbEntity
  8
0
100
AcDbLine
 10
342.1324013431716
 20
121.4423529265779
 30
0.0
 11
343.2574013431715
 21
122.5673529265777
 31
0.0
1001
GradientColor1ACI
1070
     5
1001
GradientColor2ACI
1070
     2
1001
ACAD
1010
0.0
1020
0.0
1030
0.0
  0
LINE
  5
1B2B
330
1F
100
AcDbEntity
  8
0
100
AcDbLine
 10
343.2549333583053
 20
121.4423529265779
 30
0.0
 11
344.3799333583052
 21
122.5673529265777
 31
0.0
1001
GradientColor1ACI
1070
     5
1001
GradientColor2ACI
1070
     2
1001
ACAD
1010
0.0
1020
0.0
1030
0.0
  0
LINE
  5
1B2C
330
1F
100
AcDbEntity
  8
0
100
AcDbLine
 10
344.3774653734389
 20
121.4423529265779
 30
0.0
 11
345.5024653734388
 21
122.5673529265777
 31
0.0
1001
GradientColor1ACI
1070
     5
1001
GradientColor2ACI
1070
     2
1001
ACAD
1010
0.0
1020
0.0
1030
0.0
  0
LINE
  5
1B2D
330
1F
100
AcDbEntity
  8
0
100
AcDbLine
 10
345.4999973885727
 20
121.442352926578
 30
0.0
 11
346.324893391965
 21
122.2672489299704
 31
0.0
1001
GradientColor1ACI
1070
     5
1001
GradientColor2ACI
1070
     2
1001
ACAD
1010
0.0
1020
0.0
1030
0.0
  0
LINE
  5
1B2E
330
1F
100
AcDbEntity
  8
0
100
AcDbLine
 10
345.5599283054498
 20
120.3797518283215
 30
0.0
 11
346.6225294037061
 21
121.4423529265779
 31
0.0
1001
GradientColor1ACI
1070
     5
1001
GradientColor2ACI
1070
     2
1001
ACAD
1010
0.0
1020
0.0
1030
0.0
  0
LINE
  5
1B2F
330
1F
100
AcDbEntity
  8
0
100
AcDbLine
 10
346.6225294037061
 20
121.4423529265779
 30
0.0
 11
346.6832864755036
 21
121.5031099983753
 31
0.0
1001
GradientColor1ACI
1070
     5
1001
GradientColor2ACI
1070
     2
1001
ACAD
1010
0.0
1020
0.0
1030
0.0
  0
LINE
  5
1B30
330
1F
100
AcDbEntity
  8
0
 62
     3
100
AcDbLine
 10
245.9103761053928
 20
288.5544387732995
 30
0.0
 11
245.8837653553929
 21
288.7248212932994
 31
0.0
  0
LINE
  5
1B31
330
1F
100
AcDbEntity
  8
0
 62
     3
100
AcDbLine
 10
245.8837653553929
 20
288.7248212932994
 30
0.0
 11
245.8518065253928
 21
288.8879709832994
 31
0.0
  0
LINE
  5
1B32
330
1F
100
AcDbEntity
  8
0
 62
     3
100
AcDbLine
 10
245.8518065253928
 20
288.8879709832994
 30
0.0
 11
245.8147466253927
 21
289.0426267832994
 31
0.0
  0
LINE
  5
1B33
330
1F
100
AcDbEntity
  8
0
 62
     3
100
AcDbLine
 10
245.8147466253927
 20
289.0426267832994
 30
0.0
 11
245.7728721253928
 21
289.1875932832994
 31
0.0
  0
LINE
  5
1B34
330
1F
100
AcDbEntity
  8
0
 62
     3
100
AcDbLine
 10
245.7728721253928
 20
289.1875932832994
 30
0.0
 11
245.7265066953929
 21
289.3217499732994
 31
0.0
  0
LINE
  5
1B35
330
1F
100
AcDbEntity
  8
0
 62
     3
100
AcDbLine
 10
245.7265066953929
 20
289.3217499732994
 30
0.0
 11
245.6760087053929
 21
289.4440598732994
 31
0.0
  0
LINE
  5
1B36
330
1F
100
AcDbEntity
  8
0
 62
     3
100
AcDbLine
 10
245.6760087053929
 20
289.4440598732994
 30
0.0
 11
245.6217684853928
 21
289.5535776132994
 31
0.0
  0
LINE
  5
1B37
330
1F
100
AcDbEntity
  8
0
 62
     3
100
AcDbLine
 10
245.6217684853928
 20
289.5535776132994
 30
0.0
 11
245.5642052853928
 21
289.6494566632995
 31
0.0
  0
LINE
  5
1B38
330
1F
100
AcDbEntity
  8
0
 62
     3
100
AcDbLine
 10
245.5642052853928
 20
289.6494566632995
 30
0.0
 11
245.5037640353928
 21
289.7309559332992
 31
0.0
  0
LINE
  5
1B39
330
1F
100
AcDbEntity
  8
0
 62
     3
100
AcDbLine
 10
245.5037640353928
 20
289.7309559332992
 30
0.0
 11
245.4409119153928
 21
289.7974454732995
 31
0.0
  0
LINE
  5
1B3A
330
1F
100
AcDbEntity
  8
0
 62
     3
100
AcDbLine
 10
245.4409119153928
 20
289.7974454732995
 30
0.0
 11
245.3761347353928
 21
289.8484113532994
 31
0.0
  0
LINE
  5
1B3B
330
1F
100
AcDbEntity
  8
0
 62
     3
100
AcDbLine
 10
245.3761347353928
 20
289.8484113532994
 30
0.0
 11
245.3099332053928
 21
289.8834596332994
 31
0.0
  0
LINE
  5
1B3C
330
1F
100
AcDbEntity
  8
0
 62
     3
100
AcDbLine
 10
245.3099332053928
 20
289.8834596332994
 30
0.0
 11
245.2428190153928
 21
289.9023194032994
 31
0.0
  0
LINE
  5
1B3D
330
1F
100
AcDbEntity
  8
0
 62
     3
100
AcDbLine
 10
245.2428190153928
 20
289.9023194032994
 30
0.0
 11
245.1753109253928
 21
289.9048449032995
 31
0.0
  0
LINE
  5
1B3E
330
1F
100
AcDbEntity
  8
0
 62
     3
100
AcDbLine
 10
245.1753109253928
 20
289.9048449032995
 30
0.0
 11
245.1079307353928
 21
289.8910165932995
 31
0.0
  0
LINE
  5
1B3F
330
1F
100
AcDbEntity
  8
0
 62
     3
100
AcDbLine
 10
245.1079307353928
 20
289.8910165932995
 30
0.0
 11
245.0411992653929
 21
289.8609413632995
 31
0.0
  0
LINE
  5
1B40
330
1F
100
AcDbEntity
  8
0
 62
     3
100
AcDbLine
 10
245.0411992653929
 20
289.8609413632995
 30
0.0
 11
244.9756323253928
 21
289.8148516932994
 31
0.0
  0
LINE
  5
1B41
330
1F
100
AcDbEntity
  8
0
 62
     3
100
AcDbLine
 10
244.9756323253928
 20
289.8148516932994
 30
0.0
 11
244.9117366853928
 21
289.7531038132994
 31
0.0
  0
LINE
  5
1B42
330
1F
100
AcDbEntity
  8
0
 62
     3
100
AcDbLine
 10
244.9117366853928
 20
289.7531038132994
 30
0.0
 11
244.8500062553929
 21
289.6761750232994
 31
0.0
  0
LINE
  5
1B43
330
1F
100
AcDbEntity
  8
0
 62
     3
100
AcDbLine
 10
244.8500062553929
 20
289.6761750232994
 30
0.0
 11
244.7909181653927
 21
289.5846599232994
 31
0.0
  0
LINE
  5
1B44
330
1F
100
AcDbEntity
  8
0
 62
     3
100
AcDbLine
 10
244.7909181653927
 20
289.5846599232994
 30
0.0
 11
244.7349291353928
 21
289.4792658932994
 31
0.0
  0
LINE
  5
1B45
330
1F
100
AcDbEntity
  8
0
 62
     3
100
AcDbLine
 10
244.7349291353928
 20
289.4792658932994
 30
0.0
 11
244.6824719353929
 21
289.3608075632995
 31
0.0
  0
LINE
  5
1B46
330
1F
100
AcDbEntity
  8
0
 62
     3
100
AcDbLine
 10
244.6824719353929
 20
289.3608075632995
 30
0.0
 11
244.6339520353927
 21
289.2302005532993
 31
0.0
  0
LINE
  5
1B47
330
1F
100
AcDbEntity
  8
0
 62
     3
100
AcDbLine
 10
244.6339520353927
 20
289.2302005532993
 30
0.0
 11
244.5897444553928
 21
289.0884544032994
 31
0.0
  0
LINE
  5
1B48
330
1F
100
AcDbEntity
  8
0
 62
     3
100
AcDbLine
 10
244.5897444553928
 20
289.0884544032994
 30
0.0
 11
244.5501909153928
 21
288.9366647332994
 31
0.0
  0
LINE
  5
1B49
330
1F
100
AcDbEntity
  8
0
 62
     3
100
AcDbLine
 10
244.5501909153928
 20
288.9366647332994
 30
0.0
 11
244.515597135393
 21
288.7760047932994
 31
0.0
  0
LINE
  5
1B4A
330
1F
100
AcDbEntity
  8
0
 62
     3
100
AcDbLine
 10
244.515597135393
 20
288.7760047932994
 30
0.0
 11
244.4862305053928
 21
288.6077164032993
 31
0.0
  0
LINE
  5
1B4B
330
1F
100
AcDbEntity
  8
0
 62
     3
100
AcDbLine
 10
244.4862305053928
 20
288.6077164032993
 30
0.0
 11
244.4623180153929
 21
288.4331003432993
 31
0.0
  0
LINE
  5
1B4C
330
1F
100
AcDbEntity
  8
0
 62
     3
100
AcDbLine
 10
244.4623180153929
 20
288.4331003432993
 30
0.0
 11
244.4440445053929
 21
288.2535063132995
 31
0.0
  0
LINE
  5
1B4D
330
1F
100
AcDbEntity
  8
0
 62
     3
100
AcDbLine
 10
244.4440445053929
 20
288.2535063132995
 30
0.0
 11
244.4315512053927
 21
288.0703224732993
 31
0.0
  0
LINE
  5
1B4E
330
1F
100
AcDbEntity
  8
0
 62
     3
100
AcDbLine
 10
244.4315512053927
 20
288.0703224732993
 30
0.0
 11
244.4249346953928
 21
287.8849647532994
 31
0.0
  0
LINE
  5
1B4F
330
1F
100
AcDbEntity
  8
0
 62
     3
100
AcDbLine
 10
244.4249346953928
 20
287.8849647532994
 30
0.0
 11
244.4242461053928
 21
287.6988658532995
 31
0.0
  0
LINE
  5
1B50
330
1F
100
AcDbEntity
  8
0
 62
     3
100
AcDbLine
 10
244.4242461053928
 20
287.6988658532995
 30
0.0
 11
244.4294907653928
 21
287.5134642432994
 31
0.0
  0
LINE
  5
1B51
330
1F
100
AcDbEntity
  8
0
 62
     3
100
AcDbLine
 10
244.4294907653928
 20
287.5134642432994
 30
0.0
 11
244.4406281353927
 21
287.3301929732993
 31
0.0
  0
LINE
  5
1B52
330
1F
100
AcDbEntity
  8
0
 62
     3
100
AcDbLine
 10
244.4406281353927
 20
287.3301929732993
 30
0.0
 11
244.4575721353929
 21
287.1504686332995
 31
0.0
  0
LINE
  5
1B53
330
1F
100
AcDbEntity
  8
0
 62
     3
100
AcDbLine
 10
244.4575721353929
 20
287.1504686332995
 30
0.0
 11
244.4801917853929
 21
286.9756804032994
 31
0.0
  0
LINE
  5
1B54
330
1F
100
AcDbEntity
  8
0
 62
     3
100
AcDbLine
 10
244.4801917853929
 20
286.9756804032994
 30
0.0
 11
244.5083122553929
 21
286.8071793032994
 31
0.0
  0
LINE
  5
1B55
330
1F
100
AcDbEntity
  8
0
 62
     3
100
AcDbLine
 10
244.5083122553929
 20
286.8071793032994
 30
0.0
 11
244.5417161853928
 21
286.6462677632993
 31
0.0
  0
LINE
  5
1B56
330
1F
100
AcDbEntity
  8
0
 62
     3
100
AcDbLine
 10
244.5417161853928
 20
286.6462677632993
 30
0.0
 11
244.5801453853929
 21
286.4941895432993
 31
0.0
  0
LINE
  5
1B57
330
1F
100
AcDbEntity
  8
0
 62
     3
100
AcDbLine
 10
244.5801453853929
 20
286.4941895432993
 30
0.0
 11
244.6233028053928
 21
286.3521201332996
 31
0.0
  0
LINE
  5
1B58
330
1F
100
AcDbEntity
  8
0
 62
     3
100
AcDbLine
 10
244.6233028053928
 20
286.3521201332996
 30
0.0
 11
244.6708548753928
 21
286.2211576532994
 31
0.0
  0
LINE
  5
1B59
330
1F
100
AcDbEntity
  8
0
 62
     3
100
AcDbLine
 10
244.6708548753928
 20
286.2211576532994
 30
0.0
 11
244.7224340253929
 21
286.1023143732995
 31
0.0
  0
LINE
  5
1B5A
330
1F
100
AcDbEntity
  8
0
 62
     3
100
AcDbLine
 10
244.7224340253929
 20
286.1023143732995
 30
0.0
 11
244.7776415953929
 21
285.9965089032993
 31
0.0
  0
LINE
  5
1B5B
330
1F
100
AcDbEntity
  8
0
 62
     3
100
AcDbLine
 10
244.7776415953929
 20
285.9965089032993
 30
0.0
 11
244.8360508453928
 21
285.9045590432994
 31
0.0
  0
LINE
  5
1B5C
330
1F
100
AcDbEntity
  8
0
 62
     3
100
AcDbLine
 10
244.8360508453928
 20
285.9045590432994
 30
0.0
 11
244.8972103053928
 21
285.8271755432994
 31
0.0
  0
LINE
  5
1B5D
330
1F
100
AcDbEntity
  8
0
 62
     3
100
AcDbLine
 10
244.8972103053928
 20
285.8271755432994
 30
0.0
 11
244.9606472453928
 21
285.7649565232993
 31
0.0
  0
LINE
  5
1B5E
330
1F
100
AcDbEntity
  8
0
 62
     3
100
AcDbLine
 10
244.9606472453928
 20
285.7649565232993
 30
0.0
 11
245.0258713253928
 21
285.7183829132995
 31
0.0
  0
LINE
  5
1B5F
330
1F
100
AcDbEntity
  8
0
 62
     3
100
AcDbLine
 10
245.0258713253928
 20
285.7183829132995
 30
0.0
 11
245.0923784053928
 21
285.6878146832995
 31
0.0
  0
LINE
  5
1B60
330
1F
100
AcDbEntity
  8
0
 62
     3
100
AcDbLine
 10
245.0923784053928
 20
285.6878146832995
 30
0.0
 11
245.1596544153929
 21
285.6734881332995
 31
0.0
  0
LINE
  5
1B61
330
1F
100
AcDbEntity
  8
0
 62
     3
100
AcDbLine
 10
245.1596544153929
 20
285.6734881332995
 30
0.0
 11
245.2271793453929
 21
285.6755139932994
 31
0.0
  0
LINE
  5
1B62
330
1F
100
AcDbEntity
  8
0
 62
     3
100
AcDbLine
 10
245.2271793453929
 20
285.6755139932994
 30
0.0
 11
245.2944312653929
 21
285.6938765932995
 31
0.0
  0
LINE
  5
1B63
330
1F
100
AcDbEntity
  8
0
 62
     3
100
AcDbLine
 10
245.2944312653929
 20
285.6938765932995
 30
0.0
 11
245.3608903453929
 21
285.7284340132995
 31
0.0
  0
LINE
  5
1B64
330
1F
100
AcDbEntity
  8
0
 62
     3
100
AcDbLine
 10
245.3608903453929
 20
285.7284340132995
 30
0.0
 11
245.4260429053928
 21
285.7789191432995
 31
0.0
  0
LINE
  5
1B65
330
1F
100
AcDbEntity
  8
0
 62
     3
100
AcDbLine
 10
245.4260429053928
 20
285.7789191432995
 30
0.0
 11
245.4893853353929
 21
285.8449417432995
 31
0.0
  0
LINE
  5
1B66
330
1F
100
AcDbEntity
  8
0
 62
     3
100
AcDbLine
 10
245.4893853353929
 20
285.8449417432995
 30
0.0
 11
245.5504280353928
 21
285.9259915032993
 31
0.0
  0
LINE
  5
1B67
330
1F
100
AcDbEntity
  8
0
 62
     3
100
AcDbLine
 10
245.5504280353928
 20
285.9259915032993
 30
0.0
 11
245.6086991753928
 21
286.0214419532994
 31
0.0
  0
LINE
  5
1B68
330
1F
100
AcDbEntity
  8
0
 62
     3
100
AcDbLine
 10
245.6086991753928
 20
286.0214419532994
 30
0.0
 11
245.6637483553928
 21
286.1305553132994
 31
0.0
  0
LINE
  5
1B69
330
1F
100
AcDbEntity
  8
0
 62
     3
100
AcDbLine
 10
245.6637483553928
 20
286.1305553132994
 30
0.0
 11
245.7151500753929
 21
286.2524881732994
 31
0.0
  0
LINE
  5
1B6A
330
1F
100
AcDbEntity
  8
0
 62
     3
100
AcDbLine
 10
245.7151500753929
 20
286.2524881732994
 30
0.0
 11
245.7625070153929
 21
286.3862980832995
 31
0.0
  0
LINE
  5
1B6B
330
1F
100
AcDbEntity
  8
0
 62
     3
100
AcDbLine
 10
245.7625070153929
 20
286.3862980832995
 30
0.0
 11
245.8054531353929
 21
286.5309507332994
 31
0.0
  0
LINE
  5
1B6C
330
1F
100
AcDbEntity
  8
0
 62
     3
100
AcDbLine
 10
245.8054531353929
 20
286.5309507332994
 30
0.0
 11
245.8436564853928
 21
286.6853280532995
 31
0.0
  0
LINE
  5
1B6D
330
1F
100
AcDbEntity
  8
0
 62
     3
100
AcDbLine
 10
245.8436564853928
 20
286.6853280532995
 30
0.0
 11
245.8768217753928
 21
286.8482367832993
 31
0.0
  0
LINE
  5
1B6E
330
1F
100
AcDbEntity
  8
0
 62
     3
100
AcDbLine
 10
245.8768217753928
 20
286.8482367832993
 30
0.0
 11
245.9046926553929
 21
287.0184177132994
 31
0.0
  0
LINE
  5
1B6F
330
1F
100
AcDbEntity
  8
0
100
AcDbLine
 10
127.555341734081
 20
219.2705329601491
 30
0.0
 11
105.9563311639982
 21
228.9750048834454
 31
0.0
1001
ACAD
1000
DSTYLE
1002
{
1070
   147
1040
0.625
1070
    77
1070
     0
1070
   343
1005
2F7
1070
   344
1005
C6
1002
}
  0
LINE
  5
1B70
330
1F
100
AcDbEntity
  8
0
100
AcDbLine
 10
105.9563311639982
 20
228.9750048834454
 30
0.0
 11
103.4563311639982
 21
228.9750048834454
 31
0.0
1001
ACAD
1000
DSTYLE
1002
{
1070
   147
1040
0.625
1070
    77
1070
     0
1070
   343
1005
2F7
1070
   344
1005
C6
1002
}
  0
LINE
  5
1B71
330
1F
100
AcDbEntity
  8
0
  6
ByBlock
 62
     0
370
    -2
100
AcDbLine
 10
127.8298788645494
 20
219.8815636715298
 30
0.0
 11
129.8357410316367
 21
218.2459457048566
 31
0.0
  0
LINE
  5
1B72
330
1F
100
AcDbEntity
  8
0
  6
ByBlock
 62
     0
370
    -2
100
AcDbLine
 10
129.8357410316367
 20
218.2459457048566
 30
0.0
 11
127.2808046036127
 21
218.6595022487683
 31
0.0
  0
LINE
  5
1B73
330
1F
100
AcDbEntity
  8
0
  6
ByBlock
 62
     0
370
    -2
100
AcDbLine
 10
129.8357410316367
 20
218.2459457048566
 30
0.0
 11
127.555341734081
 21
219.2705329601491
 31
0.0
  0
LINE
  5
1B74
330
1F
100
AcDbEntity
  8
0
100
AcDbLine
 10
128.9796342708439
 20
102.7156079825436
 30
0.0
 11
130.2758113513414
 21
86.83982567385703
 31
0.0
1001
ACAD
1000
DSTYLE
1002
{
1070
   147
1040
0.625
1070
    77
1070
     0
1070
   343
1005
2F7
1070
   344
1005
C6
1002
}
  0
LINE
  5
1B75
330
1F
100
AcDbEntity
  8
0
100
AcDbLine
 10
130.2758113513414
 20
86.83982567385703
 30
0.0
 11
132.7758113513414
 21
86.83982567385703
 31
0.0
1001
ACAD
1000
DSTYLE
1002
{
1070
   147
1040
0.625
1070
    77
1070
     0
1070
   343
1005
2F7
1070
   344
1005
C6
1002
}
  0
LINE
  5
1B76
330
1F
100
AcDbEntity
  8
0
  6
ByBlock
 62
     0
370
    -2
100
AcDbLine
 10
128.3119833200837
 20
102.6610976697086
 30
0.0
 11
128.7761988677073
 21
105.2073170419546
 31
0.0
  0
LINE
  5
1B77
330
1F
100
AcDbEntity
  8
0
  6
ByBlock
 62
     0
370
    -2
100
AcDbLine
 10
128.7761988677073
 20
105.2073170419546
 30
0.0
 11
129.647285221604
 21
102.7701182953786
 31
0.0
  0
LINE
  5
1B78
330
1F
100
AcDbEntity
  8
0
  6
ByBlock
 62
     0
370
    -2
100
AcDbLine
 10
128.7761988677073
 20
105.2073170419546
 30
0.0
 11
128.9796342708439
 21
102.7156079825436
 31
0.0
  0
LINE
  5
1B79
330
1F
100
AcDbEntity
  8
0
100
AcDbLine
 10
144.5681887531257
 20
153.8973354066118
 30
0.0
 11
150.3770282154733
 21
138.0696303778683
 31
0.0
1001
ACAD
1000
DSTYLE
1002
{
1070
   147
1040
0.625
1070
    77
1070
     0
1070
   173
1070
     1
1070
   342
1005
0
1070
   343
1005
2F7
1070
   344
1005
C6
1002
}
  0
LINE
  5
1B7A
330
1F
100
AcDbEntity
  8
0
100
AcDbLine
 10
150.3770282154733
 20
138.0696303778683
 30
0.0
 11
152.8770282154733
 21
138.0696303778683
 31
0.0
1001
ACAD
1000
DSTYLE
1002
{
1070
   147
1040
0.625
1070
    77
1070
     0
1070
   173
1070
     1
1070
   342
1005
0
1070
   343
1005
2F7
1070
   344
1005
C6
1002
}
  0
LINE
  5
1B7B
330
1F
100
AcDbEntity
  8
0
  6
ByBlock
 62
     0
370
    -2
100
AcDbLine
 10
143.9393300287403
 20
153.6665414053452
 30
0.0
 11
143.7068531957375
 21
156.2442698022818
 31
0.0
  0
LINE
  5
1B7C
330
1F
100
AcDbEntity
  8
0
  6
ByBlock
 62
     0
370
    -2
100
AcDbLine
 10
143.7068531957375
 20
156.2442698022818
 30
0.0
 11
145.197047477511
 21
154.1281294078784
 31
0.0
  0
LINE
  5
1B7D
330
1F
100
AcDbEntity
  8
0
  6
ByBlock
 62
     0
370
    -2
100
AcDbLine
 10
143.7068531957375
 20
156.2442698022818
 30
0.0
 11
144.5681887531257
 21
153.8973354066118
 31
0.0
  0
LINE
  5
1B7E
330
1F
100
AcDbEntity
  8
0
100
AcDbLine
 10
325.0987939083292
 20
118.3220014425611
 30
0.0
 11
323.1190969062596
 21
113.2774550016553
 31
0.0
1001
ACAD
1000
DSTYLE
1002
{
1070
   147
1040
0.625
1070
    77
1070
     0
1070
   173
1070
     1
1070
   342
1005
0
1070
   343
1005
2F7
1070
   344
1005
C6
1002
}
  0
LINE
  5
1B7F
330
1F
100
AcDbEntity
  8
0
100
AcDbLine
 10
323.1190969062596
 20
113.2774550016553
 30
0.0
 11
320.6190969062596
 21
113.2774550016553
 31
0.0
1001
ACAD
1000
DSTYLE
1002
{
1070
   147
1040
0.625
1070
    77
1070
     0
1070
   173
1070
     1
1070
   342
1005
0
1070
   343
1005
2F7
1070
   344
1005
C6
1002
}
  0
LINE
  5
1B80
330
1F
100
AcDbEntity
  8
0
  6
ByBlock
 62
     0
370
    -2
100
AcDbLine
 10
324.4752212313472
 20
118.5667181824415
 30
0.0
 11
326.0120898709207
 21
120.6492080265828
 31
0.0
  0
LINE
  5
1B81
330
1F
100
AcDbEntity
  8
0
  6
ByBlock
 62
     0
370
    -2
100
AcDbLine
 10
326.0120898709207
 20
120.6492080265828
 30
0.0
 11
325.7223665853112
 21
118.0772847026806
 31
0.0
  0
LINE
  5
1B82
330
1F
100
AcDbEntity
  8
0
  6
ByBlock
 62
     0
370
    -2
100
AcDbLine
 10
326.0120898709207
 20
120.6492080265828
 30
0.0
 11
325.0987939083292
 21
118.3220014425611
 31
0.0
  0
LINE
  5
1B83
330
1F
100
AcDbEntity
  8
0
100
AcDbLine
 10
352.6401952584163
 20
95.16448169134429
 30
0.0
 11
357.2033703357174
 21
99.72765676864552
 31
0.0
1001
ACAD
1000
DSTYLE
1002
{
1070
   173
1070
     1
1070
   342
1005
0
1070
   343
1005
2F7
1070
   344
1005
C6
1002
}
  0
LINE
  5
1B84
330
1F
100
AcDbEntity
  8
0
100
AcDbLine
 10
357.2033703357174
 20
99.72765676864552
 30
0.0
 11
357.645312073959
 21
100.1695985068871
 31
0.0
1001
ACAD
1000
DSTYLE
1002
{
1070
   173
1070
     1
1070
   342
1005
0
1070
   343
1005
2F7
1070
   344
1005
C6
1002
}
  0
LINE
  5
1B85
330
1F
100
AcDbEntity
  8
0
  6
ByBlock
 62
     0
370
    -2
100
AcDbLine
 10
353.1138666456966
 20
94.69081030406391
 30
0.0
 11
350.8724283054499
 21
93.39671473837791
 31
0.0
  0
LINE
  5
1B86
330
1F
100
AcDbEntity
  8
0
  6
ByBlock
 62
     0
370
    -2
100
AcDbLine
 10
350.8724283054499
 20
93.39671473837791
 30
0.0
 11
352.1665238711358
 21
95.63815307862467
 31
0.0
  0
LINE
  5
1B87
330
1F
100
AcDbEntity
  8
0
  6
ByBlock
 62
     0
370
    -2
100
AcDbLine
 10
350.8724283054499
 20
93.39671473837791
 30
0.0
 11
352.6401952584163
 21
95.16448169134429
 31
0.0
  0
TEXT
  5
1B88
330
1F
100
AcDbEntity
  8
0
 62
     4
100
AcDbText
 10
330.9349283054499
 20
100.9956882991833
 30
0.0
 40
3.0
  1
(22)
100
AcDbText
  0
LINE
  5
1B89
330
1F
100
AcDbEntity
  8
0
  6
ByBlock
 62
     0
370
    -2
100
AcDbLine
 10
343.0599283054499
 20
101.0405607991833
 30
0.0
 11
345.5599283054499
 21
100.3706882991833
 31
0.0
  0
LINE
  5
1B8A
330
1F
100
AcDbEntity
  8
0
  6
ByBlock
 62
     0
370
    -2
100
AcDbLine
 10
345.5599283054499
 20
100.3706882991833
 30
0.0
 11
343.0599283054499
 21
99.70081579918328
 31
0.0
  0
LINE
  5
1B8B
330
1F
100
AcDbEntity
  8
0
  6
ByBlock
 62
     0
370
    -2
100
AcDbLine
 10
345.5599283054499
 20
100.3706882991833
 30
0.0
 11
343.0599283054499
 21
100.3706882991833
 31
0.0
  0
LINE
  5
1B8C
330
1F
100
AcDbEntity
  8
0
  6
ByBlock
 62
     0
370
    -2
100
AcDbLine
 10
353.5599283054499
 20
99.70081579918328
 30
0.0
 11
351.0599283054499
 21
100.3706882991833
 31
0.0
  0
LINE
  5
1B8D
330
1F
100
AcDbEntity
  8
0
  6
ByBlock
 62
     0
370
    -2
100
AcDbLine
 10
351.0599283054499
 20
100.3706882991833
 30
0.0
 11
353.5599283054499
 21
101.0405607991833
 31
0.0
  0
LINE
  5
1B8E
330
1F
100
AcDbEntity
  8
0
  6
ByBlock
 62
     0
370
    -2
100
AcDbLine
 10
351.0599283054499
 20
100.3706882991833
 30
0.0
 11
353.5599283054499
 21
100.3706882991833
 31
0.0
  0
TEXT
  5
1B8F
330
1F
100
AcDbEntity
  8
0
 62
     4
100
AcDbText
 10
217.2905040025029
 20
99.58818650899054
 30
0.0
 40
3.0
  1
\U+220527.2　t2.6パイプ
 50
78.99999999999946
100
AcDbText
  0
LINE
  5
1B90
330
1F
100
AcDbEntity
  8
0
  6
ByBlock
 62
     0
370
    -2
100
AcDbLine
 10
224.8263432780472
 20
138.591888448094
 30
0.0
 11
225.9609308219327
 21
140.9181387079577
 31
0.0
  0
LINE
  5
1B91
330
1F
100
AcDbEntity
  8
0
  6
ByBlock
 62
     0
370
    -2
100
AcDbLine
 10
225.9609308219327
 20
140.9181387079577
 30
0.0
 11
226.1414733889353
 21
138.3362530505832
 31
0.0
  0
LINE
  5
1B92
330
1F
100
AcDbEntity
  8
0
  6
ByBlock
 62
     0
370
    -2
100
AcDbLine
 10
225.9609308219327
 20
140.9181387079577
 30
0.0
 11
225.4839083334913
 21
138.4640707493386
 31
0.0
  0
LINE
  5
1B93
330
1F
100
AcDbEntity
  8
0
  6
ByBlock
 62
     0
370
    -2
100
AcDbLine
 10
228.3930195343787
 20
149.9194538152654
 30
0.0
 11
227.2584319904932
 21
147.5932035554016
 31
0.0
  0
LINE
  5
1B94
330
1F
100
AcDbEntity
  8
0
  6
ByBlock
 62
     0
370
    -2
100
AcDbLine
 10
227.2584319904932
 20
147.5932035554016
 30
0.0
 11
227.0778894234906
 21
150.1750892127762
 31
0.0
  0
LINE
  5
1B95
330
1F
100
AcDbEntity
  8
0
  6
ByBlock
 62
     0
370
    -2
100
AcDbLine
 10
227.2584319904932
 20
147.5932035554016
 30
0.0
 11
227.7354544789346
 21
150.0472715140208
 31
0.0
  0
TEXT
  5
1B96
330
1F
100
AcDbEntity
  8
0
 62
     4
100
AcDbText
 10
335.3099283054499
 20
106.4179981902313
 30
0.0
 40
3.0
  1
97
100
AcDbText
  0
LINE
  5
1B97
330
1F
100
AcDbEntity
  8
0
  6
ByBlock
 62
     0
370
    -2
100
AcDbLine
 10
348.5599283054499
 20
106.4628706902313
 30
0.0
 11
351.0599283054499
 21
105.7929981902313
 31
0.0
  0
LINE
  5
1B98
330
1F
100
AcDbEntity
  8
0
  6
ByBlock
 62
     0
370
    -2
100
AcDbLine
 10
351.0599283054499
 20
105.7929981902313
 30
0.0
 11
348.5599283054499
 21
105.1231256902313
 31
0.0
  0
LINE
  5
1B99
330
1F
100
AcDbEntity
  8
0
  6
ByBlock
 62
     0
370
    -2
100
AcDbLine
 10
351.0599283054499
 20
105.7929981902313
 30
0.0
 11
348.5599283054499
 21
105.7929981902313
 31
0.0
  0
LINE
  5
1B9A
330
1F
100
AcDbEntity
  8
0
  6
ByBlock
 62
     0
370
    -2
100
AcDbLine
 10
329.3099283054499
 20
105.1231256902313
 30
0.0
 11
326.8099283054499
 21
105.7929981902313
 31
0.0
  0
LINE
  5
1B9B
330
1F
100
AcDbEntity
  8
0
  6
ByBlock
 62
     0
370
    -2
100
AcDbLine
 10
326.8099283054499
 20
105.7929981902313
 30
0.0
 11
329.3099283054499
 21
106.4628706902313
 31
0.0
  0
LINE
  5
1B9C
330
1F
100
AcDbEntity
  8
0
  6
ByBlock
 62
     0
370
    -2
100
AcDbLine
 10
326.8099283054499
 20
105.7929981902313
 30
0.0
 11
329.3099283054499
 21
105.7929981902313
 31
0.0
  0
TEXT
  5
1B9D
330
1F
100
AcDbEntity
  8
0
 62
     4
100
AcDbText
 10
108.2254720022201
 20
87.76861063502883
 30
0.0
 40
3.0
  1
32
 50
349.0000000000042
100
AcDbText
  0
LINE
  5
1B9E
330
1F
100
AcDbEntity
  8
0
  6
ByBlock
 62
     0
370
    -2
100
AcDbLine
 10
109.2993646449667
 20
86.24075881756274
 30
0.0
 11
106.9731143851028
 21
87.37534636144799
 31
0.0
  0
LINE
  5
1B9F
330
1F
100
AcDbEntity
  8
0
  6
ByBlock
 62
     0
370
    -2
100
AcDbLine
 10
106.9731143851028
 20
87.37534636144799
 30
0.0
 11
109.5550000424773
 21
87.55588892845086
 31
0.0
  0
LINE
  5
1BA0
330
1F
100
AcDbEntity
  8
0
  6
ByBlock
 62
     0
370
    -2
100
AcDbLine
 10
106.9731143851028
 20
87.37534636144799
 30
0.0
 11
109.427182343722
 21
86.89832387300681
 31
0.0
  0
LINE
  5
1BA1
330
1F
100
AcDbEntity
  8
0
  6
ByBlock
 62
     0
370
    -2
100
AcDbLine
 10
112.4998815928204
 20
86.98346194232142
 30
0.0
 11
114.8261318526843
 21
85.84887439843617
 31
0.0
  0
LINE
  5
1BA2
330
1F
100
AcDbEntity
  8
0
  6
ByBlock
 62
     0
370
    -2
100
AcDbLine
 10
114.8261318526843
 20
85.84887439843617
 30
0.0
 11
112.2442461953098
 21
85.6683318314333
 31
0.0
  0
LINE
  5
1BA3
330
1F
100
AcDbEntity
  8
0
  6
ByBlock
 62
     0
370
    -2
100
AcDbLine
 10
114.8261318526843
 20
85.84887439843617
 30
0.0
 11
112.3720638940651
 21
86.32589688687735
 31
0.0
  0
TEXT
  5
1BA4
330
1F
100
AcDbEntity
  8
0
 62
     4
100
AcDbText
 10
94.76355347322261
 20
109.4857053744228
 30
0.0
 40
3.0
  1
150
 50
78.99999999999979
100
AcDbText
  0
LINE
  5
1BA5
330
1F
100
AcDbEntity
  8
0
  6
ByBlock
 62
     0
370
    -2
100
AcDbLine
 10
98.54334370290549
 20
129.1662101104597
 30
0.0
 11
99.6779312467909
 21
131.4924603703234
 31
0.0
  0
LINE
  5
1BA6
330
1F
100
AcDbEntity
  8
0
  6
ByBlock
 62
     0
370
    -2
100
AcDbLine
 10
99.6779312467909
 20
131.4924603703234
 30
0.0
 11
99.85847381379358
 21
128.9105747129489
 31
0.0
  0
LINE
  5
1BA7
330
1F
100
AcDbEntity
  8
0
  6
ByBlock
 62
     0
370
    -2
100
AcDbLine
 10
99.6779312467909
 20
131.4924603703234
 30
0.0
 11
99.20090875834953
 21
129.0383924117042
 31
0.0
  0
LINE
  5
1BA8
330
1F
100
AcDbEntity
  8
0
  6
ByBlock
 62
     0
370
    -2
100
AcDbLine
 10
93.65718146405582
 20
97.00769125090015
 30
0.0
 11
92.52259392017039
 21
94.68144099103637
 31
0.0
  0
LINE
  5
1BA9
330
1F
100
AcDbEntity
  8
0
  6
ByBlock
 62
     0
370
    -2
100
AcDbLine
 10
92.52259392017039
 20
94.68144099103637
 30
0.0
 11
92.34205135316772
 21
97.26332664841091
 31
0.0
  0
LINE
  5
1BAA
330
1F
100
AcDbEntity
  8
0
  6
ByBlock
 62
     0
370
    -2
100
AcDbLine
 10
92.52259392017039
 20
94.68144099103637
 30
0.0
 11
92.99961640861177
 21
97.13550894965553
 31
0.0
  0
TEXT
  5
1BAB
330
1F
100
AcDbEntity
  8
0
 62
     4
100
AcDbText
 10
138.5993462723035
 20
118.7059806239413
 30
0.0
 40
3.0
  1
50
 50
79.00000000000028
100
AcDbText
  0
LINE
  5
1BAC
330
1F
100
AcDbEntity
  8
0
  6
ByBlock
 62
     0
370
    -2
100
AcDbLine
 10
138.9402344649418
 20
113.6734747837683
 30
0.0
 11
137.8056469210564
 21
111.3472245239045
 31
0.0
  0
LINE
  5
1BAD
330
1F
100
AcDbEntity
  8
0
  6
ByBlock
 62
     0
370
    -2
100
AcDbLine
 10
137.8056469210564
 20
111.3472245239045
 30
0.0
 11
137.6251043540537
 21
113.929110181279
 31
0.0
  0
LINE
  5
1BAE
330
1F
100
AcDbEntity
  8
0
  6
ByBlock
 62
     0
370
    -2
100
AcDbLine
 10
137.8056469210564
 20
111.3472245239045
 30
0.0
 11
138.2826694094977
 21
113.8012924825236
 31
0.0
  0
LINE
  5
1BAF
330
1F
100
AcDbEntity
  8
0
  6
ByBlock
 62
     0
370
    -2
100
AcDbLine
 10
134.2859469349642
 20
96.75063447094505
 30
0.0
 11
135.4205344788496
 21
99.07688473080884
 31
0.0
  0
LINE
  5
1BB0
330
1F
100
AcDbEntity
  8
0
  6
ByBlock
 62
     0
370
    -2
100
AcDbLine
 10
135.4205344788496
 20
99.07688473080884
 30
0.0
 11
135.6010770458524
 21
96.49499907343432
 31
0.0
  0
LINE
  5
1BB1
330
1F
100
AcDbEntity
  8
0
  6
ByBlock
 62
     0
370
    -2
100
AcDbLine
 10
135.4205344788496
 20
99.07688473080884
 30
0.0
 11
134.9435119904083
 21
96.62281677218969
 31
0.0
  0
TEXT
  5
1BB2
330
1F
100
AcDbEntity
  8
0
 62
     4
100
AcDbText
 10
126.2451760397306
 20
141.9743424973652
 30
0.0
 40
3.0
  1
88
 50
348.9999999999997
100
AcDbText
  0
LINE
  5
1BB3
330
1F
100
AcDbEntity
  8
0
  6
ByBlock
 62
     0
370
    -2
100
AcDbLine
 10
120.1083396181788
 20
141.8481144245257
 30
0.0
 11
117.782089358315
 21
142.9827019684111
 31
0.0
  0
LINE
  5
1BB4
330
1F
100
AcDbEntity
  8
0
  6
ByBlock
 62
     0
370
    -2
100
AcDbLine
 10
117.782089358315
 20
142.9827019684111
 30
0.0
 11
120.3639750156896
 21
143.1632445354138
 31
0.0
  0
LINE
  5
1BB5
330
1F
100
AcDbEntity
  8
0
  6
ByBlock
 62
     0
370
    -2
100
AcDbLine
 10
117.782089358315
 20
142.9827019684111
 30
0.0
 11
120.2361573169342
 21
142.5056794799698
 31
0.0
  0
LINE
  5
1BB6
330
1F
100
AcDbEntity
  8
0
  6
ByBlock
 62
     0
370
    -2
100
AcDbLine
 10
137.0516371342993
 20
139.9194916140126
 30
0.0
 11
139.3778873941631
 21
138.7849040701272
 31
0.0
  0
LINE
  5
1BB7
330
1F
100
AcDbEntity
  8
0
  6
ByBlock
 62
     0
370
    -2
100
AcDbLine
 10
139.3778873941631
 20
138.7849040701272
 30
0.0
 11
136.7960017367886
 21
138.6043615031245
 31
0.0
  0
LINE
  5
1BB8
330
1F
100
AcDbEntity
  8
0
  6
ByBlock
 62
     0
370
    -2
100
AcDbLine
 10
139.3778873941631
 20
138.7849040701272
 30
0.0
 11
136.9238194355439
 21
139.2619265585685
 31
0.0
  0
TEXT
  5
1BB9
330
1F
100
AcDbEntity
  8
0
 62
     4
100
AcDbText
 10
139.3227556204159
 20
129.9849057028154
 30
0.0
 40
3.0
  1
24
 50
348.999999999999
100
AcDbText
  0
LINE
  5
1BBA
330
1F
100
AcDbEntity
  8
0
  6
ByBlock
 62
     0
370
    -2
100
AcDbLine
 10
136.0080973512762
 20
129.3101017682684
 30
0.0
 11
133.6818470914124
 21
130.4446893121538
 31
0.0
  0
LINE
  5
1BBB
330
1F
100
AcDbEntity
  8
0
  6
ByBlock
 62
     0
370
    -2
100
AcDbLine
 10
133.6818470914124
 20
130.4446893121538
 30
0.0
 11
136.263732748787
 21
130.6252318791565
 31
0.0
  0
LINE
  5
1BBC
330
1F
100
AcDbEntity
  8
0
  6
ByBlock
 62
     0
370
    -2
100
AcDbLine
 10
133.6818470914124
 20
130.4446893121538
 30
0.0
 11
136.1359150500316
 21
129.9676668237124
 31
0.0
  0
LINE
  5
1BBD
330
1F
100
AcDbEntity
  8
0
  6
ByBlock
 62
     0
370
    -2
100
AcDbLine
 10
125.4658337308629
 20
132.7241308282986
 30
0.0
 11
127.7920839907267
 21
131.5895432844131
 31
0.0
  0
LINE
  5
1BBE
330
1F
100
AcDbEntity
  8
0
  6
ByBlock
 62
     0
370
    -2
100
AcDbLine
 10
127.7920839907267
 20
131.5895432844131
 30
0.0
 11
125.2101983333522
 21
131.4090007174105
 31
0.0
  0
LINE
  5
1BBF
330
1F
100
AcDbEntity
  8
0
  6
ByBlock
 62
     0
370
    -2
100
AcDbLine
 10
127.7920839907267
 20
131.5895432844131
 30
0.0
 11
125.3380160321076
 21
132.0665657728546
 31
0.0
  0
TEXT
  5
1BC0
330
1F
100
AcDbEntity
  8
0
 62
     4
100
AcDbText
 10
121.2226151959393
 20
133.5032165939618
 30
0.0
 40
3.0
  1
32
 50
349.0000000000005
100
AcDbText
  0
LINE
  5
1BC1
330
1F
100
AcDbEntity
  8
0
  6
ByBlock
 62
     0
370
    -2
100
AcDbLine
 10
122.2653167830086
 20
131.9814277035405
 30
0.0
 11
119.9390665231448
 21
133.1160152474259
 31
0.0
  0
LINE
  5
1BC2
330
1F
100
AcDbEntity
  8
0
  6
ByBlock
 62
     0
370
    -2
100
AcDbLine
 10
119.9390665231448
 20
133.1160152474259
 30
0.0
 11
122.5209521805194
 21
133.2965578144286
 31
0.0
  0
LINE
  5
1BC3
330
1F
100
AcDbEntity
  8
0
  6
ByBlock
 62
     0
370
    -2
100
AcDbLine
 10
119.9390665231448
 20
133.1160152474259
 30
0.0
 11
122.393134481764
 21
132.6389927589845
 31
0.0
  0
LINE
  5
1BC4
330
1F
100
AcDbEntity
  8
0
  6
ByBlock
 62
     0
370
    -2
100
AcDbLine
 10
125.4658337308625
 20
132.724130828299
 30
0.0
 11
127.7920839907263
 21
131.5895432844136
 31
0.0
  0
LINE
  5
1BC5
330
1F
100
AcDbEntity
  8
0
  6
ByBlock
 62
     0
370
    -2
100
AcDbLine
 10
127.7920839907263
 20
131.5895432844136
 30
0.0
 11
125.2101983333517
 21
131.4090007174109
 31
0.0
  0
LINE
  5
1BC6
330
1F
100
AcDbEntity
  8
0
  6
ByBlock
 62
     0
370
    -2
100
AcDbLine
 10
127.7920839907263
 20
131.5895432844136
 30
0.0
 11
125.3380160321071
 21
132.066565772855
 31
0.0
  0
TEXT
  5
1BC7
330
1F
100
AcDbEntity
  8
0
 62
     4
100
AcDbText
 10
105.1985554382788
 20
107.6869430214852
 30
0.0
 40
3.0
  1
73
 50
78.99999999999977
100
AcDbText
  0
LINE
  5
1BC8
330
1F
100
AcDbEntity
  8
0
  6
ByBlock
 62
     0
370
    -2
100
AcDbLine
 10
105.885715817969
 20
104.4358531518292
 30
0.0
 11
104.7511282740836
 21
102.1096028919654
 31
0.0
  0
LINE
  5
1BC9
330
1F
100
AcDbEntity
  8
0
  6
ByBlock
 62
     0
370
    -2
100
AcDbLine
 10
104.7511282740836
 20
102.1096028919654
 30
0.0
 11
104.5705857070809
 21
104.6914885493399
 31
0.0
  0
LINE
  5
1BCA
330
1F
100
AcDbEntity
  8
0
  6
ByBlock
 62
     0
370
    -2
100
AcDbLine
 10
104.7511282740836
 20
102.1096028919654
 30
0.0
 11
105.2281507625249
 21
104.5636708505846
 31
0.0
  0
LINE
  5
1BCB
330
1F
100
AcDbEntity
  8
0
  6
ByBlock
 62
     0
370
    -2
100
AcDbLine
 10
107.0988048958201
 20
117.6980487300215
 30
0.0
 11
108.2333924397056
 21
120.0242989898853
 31
0.0
  0
LINE
  5
1BCC
330
1F
100
AcDbEntity
  8
0
  6
ByBlock
 62
     0
370
    -2
100
AcDbLine
 10
108.2333924397056
 20
120.0242989898853
 30
0.0
 11
108.4139350067083
 21
117.4424133325107
 31
0.0
  0
LINE
  5
1BCD
330
1F
100
AcDbEntity
  8
0
  6
ByBlock
 62
     0
370
    -2
100
AcDbLine
 10
108.2333924397056
 20
120.0242989898853
 30
0.0
 11
107.7563699512642
 21
117.5702310312661
 31
0.0
  0
TEXT
  5
1BCE
330
1F
100
AcDbEntity
  8
0
 62
     4
100
AcDbText
 10
227.783091413937
 20
253.1852024599044
 30
0.0
 40
3.0
  1
(922.8)
100
AcDbText
  0
LINE
  5
1BCF
330
1F
100
AcDbEntity
  8
0
  6
ByBlock
 62
     0
370
    -2
100
AcDbLine
 10
123.6193128599767
 20
251.8903299599044
 30
0.0
 11
121.1193128599767
 21
252.5602024599044
 31
0.0
  0
LINE
  5
1BD0
330
1F
100
AcDbEntity
  8
0
  6
ByBlock
 62
     0
370
    -2
100
AcDbLine
 10
121.1193128599767
 20
252.5602024599044
 30
0.0
 11
123.6193128599767
 21
253.2300749599044
 31
0.0
  0
LINE
  5
1BD1
330
1F
100
AcDbEntity
  8
0
  6
ByBlock
 62
     0
370
    -2
100
AcDbLine
 10
121.1193128599767
 20
252.5602024599044
 30
0.0
 11
123.6193128599767
 21
252.5602024599044
 31
0.0
  0
LINE
  5
1BD2
330
1F
100
AcDbEntity
  8
0
  6
ByBlock
 62
     0
370
    -2
100
AcDbLine
 10
349.3099283054499
 20
253.2300749599044
 30
0.0
 11
351.8099283054499
 21
252.5602024599044
 31
0.0
  0
LINE
  5
1BD3
330
1F
100
AcDbEntity
  8
0
  6
ByBlock
 62
     0
370
    -2
100
AcDbLine
 10
351.8099283054499
 20
252.5602024599044
 30
0.0
 11
349.3099283054499
 21
251.8903299599044
 31
0.0
  0
LINE
  5
1BD4
330
1F
100
AcDbEntity
  8
0
  6
ByBlock
 62
     0
370
    -2
100
AcDbLine
 10
351.8099283054499
 20
252.5602024599044
 30
0.0
 11
349.3099283054499
 21
252.5602024599044
 31
0.0
  0
TEXT
  5
1BD5
330
1F
100
AcDbEntity
  8
0
 62
     4
100
AcDbText
 10
357.4349283054499
 20
184.8938805999488
 30
0.0
 40
3.0
  1
25
100
AcDbText
  0
LINE
  5
1BD6
330
1F
100
AcDbEntity
  8
0
  6
ByBlock
 62
     0
370
    -2
100
AcDbLine
 10
354.3099283054499
 20
183.5990080999488
 30
0.0
 11
351.8099283054499
 21
184.2688805999488
 31
0.0
  0
LINE
  5
1BD7
330
1F
100
AcDbEntity
  8
0
  6
ByBlock
 62
     0
370
    -2
100
AcDbLine
 10
351.8099283054499
 20
184.2688805999488
 30
0.0
 11
354.3099283054499
 21
184.9387530999488
 31
0.0
  0
LINE
  5
1BD8
330
1F
100
AcDbEntity
  8
0
  6
ByBlock
 62
     0
370
    -2
100
AcDbLine
 10
351.8099283054499
 20
184.2688805999488
 30
0.0
 11
354.3099283054499
 21
184.2688805999488
 31
0.0
  0
LINE
  5
1BD9
330
1F
100
AcDbEntity
  8
0
  6
ByBlock
 62
     0
370
    -2
100
AcDbLine
 10
343.0599283054499
 20
184.9387530999488
 30
0.0
 11
345.5599283054499
 21
184.2688805999488
 31
0.0
  0
LINE
  5
1BDA
330
1F
100
AcDbEntity
  8
0
  6
ByBlock
 62
     0
370
    -2
100
AcDbLine
 10
345.5599283054499
 20
184.2688805999488
 30
0.0
 11
343.0599283054499
 21
183.5990080999488
 31
0.0
  0
LINE
  5
1BDB
330
1F
100
AcDbEntity
  8
0
  6
ByBlock
 62
     0
370
    -2
100
AcDbLine
 10
345.5599283054499
 20
184.2688805999488
 30
0.0
 11
343.0599283054499
 21
184.2688805999488
 31
0.0
  0
TEXT
  5
1BDC
330
1F
100
AcDbEntity
  8
0
 62
     4
100
AcDbText
 10
88.7401290019595
 20
76.73043753006395
 30
0.0
 40
3.0
  1
4-\U+220511穴
 50
40.63806890099399
100
AcDbText
  0
LINE
  5
1BDD
330
1F
100
AcDbEntity
  8
0
  6
ByBlock
 62
     0
370
    -2
100
AcDbLine
 10
109.4623411130605
 20
94.57455117791123
 30
0.0
 11
111.7957115749661
 21
95.69442235521806
 31
0.0
  0
LINE
  5
1BDE
330
1F
100
AcDbEntity
  8
0
  6
ByBlock
 62
     0
370
    -2
100
AcDbLine
 10
111.7957115749661
 20
95.69442235521806
 30
0.0
 11
110.3348882999838
 21
93.55790076030585
 31
0.0
  0
LINE
  5
1BDF
330
1F
100
AcDbEntity
  8
0
  6
ByBlock
 62
     0
370
    -2
100
AcDbLine
 10
111.7957115749661
 20
95.69442235521806
 30
0.0
 11
109.8986147065221
 21
94.06622596910855
 31
0.0
  0
LINE
  5
1BE0
330
1F
100
AcDbEntity
  8
0
  6
ByBlock
 62
     0
370
    -2
100
AcDbLine
 10
116.2158885921593
 20
98.60530955724472
 30
0.0
 11
113.8825181302537
 21
97.48543837993789
 31
0.0
  0
LINE
  5
1BE1
330
1F
100
AcDbEntity
  8
0
  6
ByBlock
 62
     0
370
    -2
100
AcDbLine
 10
113.8825181302537
 20
97.48543837993789
 30
0.0
 11
115.343341405236
 21
99.62195997485011
 31
0.0
  0
LINE
  5
1BE2
330
1F
100
AcDbEntity
  8
0
  6
ByBlock
 62
     0
370
    -2
100
AcDbLine
 10
113.8825181302537
 20
97.48543837993789
 30
0.0
 11
115.7796149986977
 21
99.11363476604741
 31
0.0
  0
TEXT
  5
1BE3
330
1F
100
AcDbEntity
  8
0
 62
     4
100
AcDbText
 10
106.5302725233685
 20
136.3591187046143
 30
0.0
 40
3.0
  1
16
 50
348.9999999999965
100
AcDbText
  0
LINE
  5
1BE4
330
1F
100
AcDbEntity
  8
0
  6
ByBlock
 62
     0
370
    -2
100
AcDbLine
 10
113.6863075294917
 20
135.0138387728176
 30
0.0
 11
116.0125577893554
 21
133.879251228932
 31
0.0
  0
LINE
  5
1BE5
330
1F
100
AcDbEntity
  8
0
  6
ByBlock
 62
     0
370
    -2
100
AcDbLine
 10
116.0125577893554
 20
133.879251228932
 30
0.0
 11
113.4306721319809
 21
133.6987086619295
 31
0.0
  0
LINE
  5
1BE6
330
1F
100
AcDbEntity
  8
0
  6
ByBlock
 62
     0
370
    -2
100
AcDbLine
 10
116.0125577893554
 20
133.879251228932
 30
0.0
 11
113.5584898307363
 21
134.3562737173736
 31
0.0
  0
LINE
  5
1BE7
330
1F
100
AcDbEntity
  8
0
  6
ByBlock
 62
     0
370
    -2
100
AcDbLine
 10
122.265316783009
 20
131.9814277035402
 30
0.0
 11
119.9390665231453
 21
133.1160152474258
 31
0.0
  0
LINE
  5
1BE8
330
1F
100
AcDbEntity
  8
0
  6
ByBlock
 62
     0
370
    -2
100
AcDbLine
 10
119.9390665231453
 20
133.1160152474258
 30
0.0
 11
122.5209521805199
 21
133.2965578144283
 31
0.0
  0
LINE
  5
1BE9
330
1F
100
AcDbEntity
  8
0
  6
ByBlock
 62
     0
370
    -2
100
AcDbLine
 10
119.9390665231453
 20
133.1160152474258
 30
0.0
 11
122.3931344817644
 21
132.6389927589842
 31
0.0
  0
TEXT
  5
1BEA
330
1F
100
AcDbEntity
  8
0
 62
     4
100
AcDbText
 10
126.1682845071184
 20
178.6505200394366
 30
0.0
 40
3.0
  1
32
 50
348.9999999999995
100
AcDbText
  0
LINE
  5
1BEB
330
1F
100
AcDbEntity
  8
0
  6
ByBlock
 62
     0
370
    -2
100
AcDbLine
 10
130.1756260577979
 20
177.9172841148895
 30
0.0
 11
132.5018763176617
 21
176.782696571004
 31
0.0
  0
LINE
  5
1BEC
330
1F
100
AcDbEntity
  8
0
  6
ByBlock
 62
     0
370
    -2
100
AcDbLine
 10
132.5018763176617
 20
176.782696571004
 30
0.0
 11
129.9199906602872
 21
176.6021540040014
 31
0.0
  0
LINE
  5
1BED
330
1F
100
AcDbEntity
  8
0
  6
ByBlock
 62
     0
370
    -2
100
AcDbLine
 10
132.5018763176617
 20
176.782696571004
 30
0.0
 11
130.0478083590426
 21
177.2597190594454
 31
0.0
  0
LINE
  5
1BEE
330
1F
100
AcDbEntity
  8
0
  6
ByBlock
 62
     0
370
    -2
100
AcDbLine
 10
126.9751091099442
 20
177.174580990131
 30
0.0
 11
124.6488588500804
 21
178.3091685340165
 31
0.0
  0
LINE
  5
1BEF
330
1F
100
AcDbEntity
  8
0
  6
ByBlock
 62
     0
370
    -2
100
AcDbLine
 10
124.6488588500804
 20
178.3091685340165
 30
0.0
 11
127.230744507455
 21
178.4897111010191
 31
0.0
  0
LINE
  5
1BF0
330
1F
100
AcDbEntity
  8
0
  6
ByBlock
 62
     0
370
    -2
100
AcDbLine
 10
124.6488588500804
 20
178.3091685340165
 30
0.0
 11
127.1029268086996
 21
177.8321460455751
 31
0.0
  0
TEXT
  5
1BF1
330
1F
100
AcDbEntity
  8
0
 62
     4
100
AcDbText
 10
100.0166883808563
 20
109.0148453648664
 30
0.0
 40
3.0
  1
104
 50
79.00000000000064
100
AcDbText
  0
LINE
  5
1BF2
330
1F
100
AcDbEntity
  8
0
  6
ByBlock
 62
     0
370
    -2
100
AcDbLine
 10
99.90440520947529
 20
101.6509749640053
 30
0.0
 11
98.76981766558991
 21
99.32472470414154
 31
0.0
  0
LINE
  5
1BF3
330
1F
100
AcDbEntity
  8
0
  6
ByBlock
 62
     0
370
    -2
100
AcDbLine
 10
98.76981766558991
 20
99.32472470414154
 30
0.0
 11
98.58927509858718
 21
101.906610361516
 31
0.0
  0
LINE
  5
1BF4
330
1F
100
AcDbEntity
  8
0
  6
ByBlock
 62
     0
370
    -2
100
AcDbLine
 10
98.76981766558991
 20
99.32472470414154
 30
0.0
 11
99.24684015403123
 21
101.7787926627607
 31
0.0
  0
LINE
  5
1BF5
330
1F
100
AcDbEntity
  8
0
  6
ByBlock
 62
     0
370
    -2
100
AcDbLine
 10
102.5962640014944
 20
122.520781213917
 30
0.0
 11
103.7308515453797
 21
124.8470314737808
 31
0.0
  0
LINE
  5
1BF6
330
1F
100
AcDbEntity
  8
0
  6
ByBlock
 62
     0
370
    -2
100
AcDbLine
 10
103.7308515453797
 20
124.8470314737808
 30
0.0
 11
103.9113941123825
 21
122.2651458164063
 31
0.0
  0
LINE
  5
1BF7
330
1F
100
AcDbEntity
  8
0
  6
ByBlock
 62
     0
370
    -2
100
AcDbLine
 10
103.7308515453797
 20
124.8470314737808
 30
0.0
 11
103.2538290569384
 21
122.3929635151616
 31
0.0
  0
TEXT
  5
1BF8
330
1F
100
AcDbEntity
  8
0
 62
     4
100
AcDbText
 10
256.0561148580617
 20
125.6805607936864
 30
0.0
 40
3.0
  1
11\U+00B0
 50
84.50000000000002
100
AcDbText
  0
LINE
  5
1BF9
330
1F
100
AcDbEntity
  8
0
  6
ByBlock
 62
     0
370
    -2
100
AcDbLine
 10
257.312313904714
 20
123.929911109878
 30
0.0
 11
256.5976227469732
 21
121.4423529265779
 31
0.0
  0
LINE
  5
1BFA
330
1F
100
AcDbEntity
  8
0
  6
ByBlock
 62
     0
370
    -2
100
AcDbLine
 10
256.5976227469732
 20
121.4423529265779
 30
0.0
 11
255.9727852556679
 21
123.9539873099458
 31
0.0
  0
LINE
  5
1BFB
330
1F
100
AcDbEntity
  8
0
  6
ByBlock
 62
     0
370
    -2
100
AcDbLine
 10
256.5976227469732
 20
121.4423529265779
 30
0.0
 11
256.642549580191
 21
123.9419492099119
 31
0.0
  0
LINE
  5
1BFC
330
1F
100
AcDbEntity
  8
0
  6
ByBlock
 62
     0
370
    -2
100
AcDbLine
 10
256.7829907696435
 20
132.3682932890998
 30
0.0
 11
257.8755906697896
 21
134.714557260706
 31
0.0
  0
LINE
  5
1BFD
330
1F
100
AcDbEntity
  8
0
  6
ByBlock
 62
     0
370
    -2
100
AcDbLine
 10
257.8755906697896
 20
134.714557260706
 30
0.0
 11
258.1025024601015
 21
132.1363330257579
 31
0.0
  0
LINE
  5
1BFE
330
1F
100
AcDbEntity
  8
0
  6
ByBlock
 62
     0
370
    -2
100
AcDbLine
 10
257.8755906697896
 20
134.714557260706
 30
0.0
 11
257.4427466148725
 21
132.2523131574289
 31
0.0
  0
TEXT
  5
1BFF
330
1F
100
AcDbEntity
  8
0
 62
     4
100
AcDbText
 10
306.1454592893414
 20
246.3783923750625
 30
0.0
 40
3.0
  1
8-\U+22056.5穴
 50
339.0686512032876
100
AcDbText
  0
LINE
  5
1C00
330
1F
100
AcDbEntity
  8
0
  6
ByBlock
 62
     0
370
    -2
100
AcDbLine
 10
327.7053343380317
 20
238.1800003467725
 30
0.0
 11
329.8010458719121
 21
236.6612105874521
 31
0.0
  0
LINE
  5
1C01
330
1F
100
AcDbEntity
  8
0
  6
ByBlock
 62
     0
370
    -2
100
AcDbLine
 10
329.8010458719121
 20
236.6612105874521
 30
0.0
 11
327.2267116609456
 21
236.9286662594865
 31
0.0
  0
LINE
  5
1C02
330
1F
100
AcDbEntity
  8
0
  6
ByBlock
 62
     0
370
    -2
100
AcDbLine
 10
329.8010458719121
 20
236.6612105874521
 30
0.0
 11
327.4660229994887
 21
237.5543333031295
 31
0.0
  0
LINE
  5
1C03
330
1F
100
AcDbEntity
  8
0
  6
ByBlock
 62
     0
370
    -2
100
AcDbLine
 10
333.4145222728685
 20
234.5618910629411
 30
0.0
 11
331.318810738988
 21
236.0806808222616
 31
0.0
  0
LINE
  5
1C04
330
1F
100
AcDbEntity
  8
0
  6
ByBlock
 62
     0
370
    -2
100
AcDbLine
 10
331.318810738988
 20
236.0806808222616
 30
0.0
 11
333.8931449499546
 21
235.8132251502271
 31
0.0
  0
LINE
  5
1C05
330
1F
100
AcDbEntity
  8
0
  6
ByBlock
 62
     0
370
    -2
100
AcDbLine
 10
331.318810738988
 20
236.0806808222616
 30
0.0
 11
333.6538336114115
 21
235.1875581065841
 31
0.0
  0
LINE
  5
1C06
330
1F
100
AcDbEntity
  8
0
100
AcDbLine
 10
385.9928784744985
 20
131.1430953837769
 30
0.0
 11
387.2462945347384
 21
134.1456371178889
 31
0.0
  0
LINE
  5
1C07
330
1F
100
AcDbEntity
  8
0
100
AcDbLine
 10
387.2462945347384
 20
134.1456371178889
 30
0.0
 11
390.3712945347384
 21
134.1456371178889
 31
0.0
  0
LINE
  5
1C08
330
1F
100
AcDbEntity
  8
0
  6
ByBlock
 62
     0
370
    -2
100
AcDbLine
 10
386.6110498984629
 20
130.885038690684
 30
0.0
 11
385.0297970929933
 21
128.8360465649181
 31
0.0
  0
LINE
  5
1C09
330
1F
100
AcDbEntity
  8
0
  6
ByBlock
 62
     0
370
    -2
100
AcDbLine
 10
385.0297970929933
 20
128.8360465649181
 30
0.0
 11
385.374707050534
 21
131.4011520768699
 31
0.0
  0
LINE
  5
1C0A
330
1F
100
AcDbEntity
  8
0
  6
ByBlock
 62
     0
370
    -2
100
AcDbLine
 10
385.0297970929933
 20
128.8360465649181
 30
0.0
 11
385.9928784744985
 21
131.1430953837769
 31
0.0
  0
TEXT
  5
1C0B
330
1F
100
AcDbEntity
  8
0
 62
     4
100
AcDbText
 10
390.6557046968686
 20
120.8318595533175
 30
0.0
 40
3.0
  1
(\U+220517.5)
 50
326.0632323384121
100
AcDbText
  0
LINE
  5
1C0C
330
1F
100
AcDbEntity
  8
0
  6
ByBlock
 62
     0
370
    -2
100
AcDbLine
 10
387.091240715989
 20
121.66966401754
 30
0.0
 11
385.3910800460093
 21
123.6211206177519
 31
0.0
  0
LINE
  5
1C0D
330
1F
100
AcDbEntity
  8
0
  6
ByBlock
 62
     0
370
    -2
100
AcDbLine
 10
385.3910800460093
 20
123.6211206177519
 30
0.0
 11
387.8391903752292
 21
122.7811890835045
 31
0.0
  0
LINE
  5
1C0E
330
1F
100
AcDbEntity
  8
0
  6
ByBlock
 62
     0
370
    -2
100
AcDbLine
 10
385.3910800460093
 20
123.6211206177519
 30
0.0
 11
387.4652155456091
 21
122.2254265505223
 31
0.0
  0
LINE
  5
1C0F
330
1F
100
AcDbEntity
  8
0
  6
ByBlock
 62
     0
370
    -2
100
AcDbLine
 10
380.0611822517312
 20
128.0150418356145
 30
0.0
 11
381.7613429217109
 21
126.0635852354027
 31
0.0
  0
LINE
  5
1C10
330
1F
100
AcDbEntity
  8
0
  6
ByBlock
 62
     0
370
    -2
100
AcDbLine
 10
381.7613429217109
 20
126.0635852354027
 30
0.0
 11
379.3132325924911
 21
126.90351676965
 31
0.0
  0
LINE
  5
1C11
330
1F
100
AcDbEntity
  8
0
  6
ByBlock
 62
     0
370
    -2
100
AcDbLine
 10
381.7613429217109
 20
126.0635852354027
 30
0.0
 11
379.6872074221111
 21
127.4592793026322
 31
0.0
  0
TEXT
  5
1C12
330
1F
100
AcDbEntity
  8
0
 62
     4
100
AcDbText
 10
298.3446481162614
 20
102.1923529265782
 30
0.0
 40
3.0
  1
t=4.5
 50
90.0
100
AcDbText
  0
LINE
  5
1C13
330
1F
100
AcDbEntity
  8
0
  6
ByBlock
 62
     0
370
    -2
100
AcDbLine
 10
298.2997756162614
 20
117.8173529265779
 30
0.0
 11
298.9696481162614
 21
120.3173529265779
 31
0.0
  0
LINE
  5
1C14
330
1F
100
AcDbEntity
  8
0
  6
ByBlock
 62
     0
370
    -2
100
AcDbLine
 10
298.9696481162614
 20
120.3173529265779
 30
0.0
 11
299.6395206162613
 21
117.8173529265779
 31
0.0
  0
LINE
  5
1C15
330
1F
100
AcDbEntity
  8
0
  6
ByBlock
 62
     0
370
    -2
100
AcDbLine
 10
298.9696481162614
 20
120.3173529265779
 30
0.0
 11
298.9696481162614
 21
117.8173529265779
 31
0.0
  0
LINE
  5
1C16
330
1F
100
AcDbEntity
  8
0
  6
ByBlock
 62
     0
370
    -2
100
AcDbLine
 10
299.6395206162613
 20
123.9423529265779
 30
0.0
 11
298.9696481162614
 21
121.4423529265779
 31
0.0
  0
LINE
  5
1C17
330
1F
100
AcDbEntity
  8
0
  6
ByBlock
 62
     0
370
    -2
100
AcDbLine
 10
298.9696481162614
 20
121.4423529265779
 30
0.0
 11
298.2997756162614
 21
123.9423529265779
 31
0.0
  0
LINE
  5
1C18
330
1F
100
AcDbEntity
  8
0
  6
ByBlock
 62
     0
370
    -2
100
AcDbLine
 10
298.9696481162614
 20
121.4423529265779
 30
0.0
 11
298.9696481162614
 21
123.9423529265779
 31
0.0
  0
TEXT
  5
1C19
330
1F
100
AcDbEntity
  8
0
 62
     4
100
AcDbText
 10
372.001656638623
 20
214.5349304315799
 30
0.0
 40
3.0
  1
175
 50
90.0
100
AcDbText
  0
LINE
  5
1C1A
330
1F
100
AcDbEntity
  8
0
  6
ByBlock
 62
     0
370
    -2
100
AcDbLine
 10
373.296529138623
 20
198.8709457048565
 30
0.0
 11
372.6266566386231
 21
196.3709457048565
 31
0.0
  0
LINE
  5
1C1B
330
1F
100
AcDbEntity
  8
0
  6
ByBlock
 62
     0
370
    -2
100
AcDbLine
 10
372.6266566386231
 20
196.3709457048565
 30
0.0
 11
371.956784138623
 21
198.8709457048565
 31
0.0
  0
LINE
  5
1C1C
330
1F
100
AcDbEntity
  8
0
  6
ByBlock
 62
     0
370
    -2
100
AcDbLine
 10
372.6266566386231
 20
196.3709457048565
 30
0.0
 11
372.6266566386231
 21
198.8709457048565
 31
0.0
  0
LINE
  5
1C1D
330
1F
100
AcDbEntity
  8
0
  6
ByBlock
 62
     0
370
    -2
100
AcDbLine
 10
371.956784138623
 20
237.6209457048566
 30
0.0
 11
372.6266566386231
 21
240.1209457048566
 31
0.0
  0
LINE
  5
1C1E
330
1F
100
AcDbEntity
  8
0
  6
ByBlock
 62
     0
370
    -2
100
AcDbLine
 10
372.6266566386231
 20
240.1209457048566
 30
0.0
 11
373.296529138623
 21
237.6209457048566
 31
0.0
  0
LINE
  5
1C1F
330
1F
100
AcDbEntity
  8
0
  6
ByBlock
 62
     0
370
    -2
100
AcDbLine
 10
372.6266566386231
 20
240.1209457048566
 30
0.0
 11
372.6266566386231
 21
237.6209457048566
 31
0.0
  0
TEXT
  5
1C20
330
1F
100
AcDbEntity
  8
0
 62
     4
100
AcDbText
 10
360.0410705324048
 20
135.0341924820097
 30
0.0
 40
3.0
  1
(184.3)
 50
90.0
100
AcDbText
  0
LINE
  5
1C21
330
1F
100
AcDbEntity
  8
0
  6
ByBlock
 62
     0
370
    -2
100
AcDbLine
 10
361.3359430324048
 20
122.8173529265779
 30
0.0
 11
360.6660705324048
 21
120.3173529265779
 31
0.0
  0
LINE
  5
1C22
330
1F
100
AcDbEntity
  8
0
  6
ByBlock
 62
     0
370
    -2
100
AcDbLine
 10
360.6660705324048
 20
120.3173529265779
 30
0.0
 11
359.9961980324048
 21
122.8173529265779
 31
0.0
  0
LINE
  5
1C23
330
1F
100
AcDbEntity
  8
0
  6
ByBlock
 62
     0
370
    -2
100
AcDbLine
 10
360.6660705324048
 20
120.3173529265779
 30
0.0
 11
360.6660705324048
 21
122.8173529265779
 31
0.0
  0
LINE
  5
1C24
330
1F
100
AcDbEntity
  8
0
  6
ByBlock
 62
     0
370
    -2
100
AcDbLine
 10
359.9961980324049
 20
163.9041520018868
 30
0.0
 11
360.6660705324048
 21
166.4041520018868
 31
0.0
  0
LINE
  5
1C25
330
1F
100
AcDbEntity
  8
0
  6
ByBlock
 62
     0
370
    -2
100
AcDbLine
 10
360.6660705324048
 20
166.4041520018868
 30
0.0
 11
361.3359430324048
 21
163.9041520018868
 31
0.0
  0
LINE
  5
1C26
330
1F
100
AcDbEntity
  8
0
  6
ByBlock
 62
     0
370
    -2
100
AcDbLine
 10
360.6660705324048
 20
166.4041520018868
 30
0.0
 11
360.6660705324048
 21
163.9041520018868
 31
0.0
  0
TEXT
  5
1C27
330
1F
100
AcDbEntity
  8
0
 62
     4
100
AcDbText
 10
333.2588922450028
 20
190.6350639016483
 30
0.0
 40
3.0
  1
45
100
AcDbText
  0
LINE
  5
1C28
330
1F
100
AcDbEntity
  8
0
  6
ByBlock
 62
     0
370
    -2
100
AcDbLine
 10
333.0599283054499
 20
189.3401914016483
 30
0.0
 11
330.5599283054499
 21
190.0100639016483
 31
0.0
  0
LINE
  5
1C29
330
1F
100
AcDbEntity
  8
0
  6
ByBlock
 62
     0
370
    -2
100
AcDbLine
 10
330.5599283054499
 20
190.0100639016483
 30
0.0
 11
333.0599283054499
 21
190.6799364016483
 31
0.0
  0
LINE
  5
1C2A
330
1F
100
AcDbEntity
  8
0
  6
ByBlock
 62
     0
370
    -2
100
AcDbLine
 10
330.5599283054499
 20
190.0100639016483
 30
0.0
 11
333.0599283054499
 21
190.0100639016483
 31
0.0
  0
LINE
  5
1C2B
330
1F
100
AcDbEntity
  8
0
  6
ByBlock
 62
     0
370
    -2
100
AcDbLine
 10
339.3099283054499
 20
190.6799364016483
 30
0.0
 11
341.8099283054499
 21
190.0100639016483
 31
0.0
  0
LINE
  5
1C2C
330
1F
100
AcDbEntity
  8
0
  6
ByBlock
 62
     0
370
    -2
100
AcDbLine
 10
341.8099283054499
 20
190.0100639016483
 30
0.0
 11
339.3099283054499
 21
189.3401914016483
 31
0.0
  0
LINE
  5
1C2D
330
1F
100
AcDbEntity
  8
0
  6
ByBlock
 62
     0
370
    -2
100
AcDbLine
 10
341.8099283054499
 20
190.0100639016483
 30
0.0
 11
339.3099283054499
 21
190.0100639016483
 31
0.0
  0
TEXT
  5
1C2E
330
1F
100
AcDbEntity
  8
0
 62
     4
100
AcDbText
 10
361.7060763824694
 20
203.6408200954176
 30
0.0
 40
3.0
  1
45
 50
90.0
100
AcDbText
  0
LINE
  5
1C2F
330
1F
100
AcDbEntity
  8
0
  6
ByBlock
 62
     0
370
    -2
100
AcDbLine
 10
363.0009488824695
 20
202.6209457048566
 30
0.0
 11
362.3310763824695
 21
200.1209457048566
 31
0.0
  0
LINE
  5
1C30
330
1F
100
AcDbEntity
  8
0
  6
ByBlock
 62
     0
370
    -2
100
AcDbLine
 10
362.3310763824695
 20
200.1209457048566
 30
0.0
 11
361.6612038824694
 21
202.6209457048566
 31
0.0
  0
LINE
  5
1C31
330
1F
100
AcDbEntity
  8
0
  6
ByBlock
 62
     0
370
    -2
100
AcDbLine
 10
362.3310763824695
 20
200.1209457048566
 30
0.0
 11
362.3310763824695
 21
202.6209457048566
 31
0.0
  0
LINE
  5
1C32
330
1F
100
AcDbEntity
  8
0
  6
ByBlock
 62
     0
370
    -2
100
AcDbLine
 10
361.6612038824694
 20
208.8709457048566
 30
0.0
 11
362.3310763824695
 21
211.3709457048566
 31
0.0
  0
LINE
  5
1C33
330
1F
100
AcDbEntity
  8
0
  6
ByBlock
 62
     0
370
    -2
100
AcDbLine
 10
362.3310763824695
 20
211.3709457048566
 30
0.0
 11
363.0009488824695
 21
208.8709457048566
 31
0.0
  0
LINE
  5
1C34
330
1F
100
AcDbEntity
  8
0
  6
ByBlock
 62
     0
370
    -2
100
AcDbLine
 10
362.3310763824695
 20
211.3709457048566
 30
0.0
 11
362.3310763824695
 21
208.8709457048566
 31
0.0
  0
TEXT
  5
1C35
330
1F
100
AcDbEntity
  8
0
 62
     4
100
AcDbText
 10
361.7060763824694
 20
228.0988763723527
 30
0.0
 40
3.0
  1
45
 50
90.0
100
AcDbText
  0
LINE
  5
1C36
330
1F
100
AcDbEntity
  8
0
  6
ByBlock
 62
     0
370
    -2
100
AcDbLine
 10
363.0009488824695
 20
227.6209457048566
 30
0.0
 11
362.3310763824695
 21
225.1209457048566
 31
0.0
  0
LINE
  5
1C37
330
1F
100
AcDbEntity
  8
0
  6
ByBlock
 62
     0
370
    -2
100
AcDbLine
 10
362.3310763824695
 20
225.1209457048566
 30
0.0
 11
361.6612038824694
 21
227.6209457048566
 31
0.0
  0
LINE
  5
1C38
330
1F
100
AcDbEntity
  8
0
  6
ByBlock
 62
     0
370
    -2
100
AcDbLine
 10
362.3310763824695
 20
225.1209457048566
 30
0.0
 11
362.3310763824695
 21
227.6209457048566
 31
0.0
  0
LINE
  5
1C39
330
1F
100
AcDbEntity
  8
0
  6
ByBlock
 62
     0
370
    -2
100
AcDbLine
 10
361.6612038824694
 20
233.8709457048566
 30
0.0
 11
362.3310763824695
 21
236.3709457048566
 31
0.0
  0
LINE
  5
1C3A
330
1F
100
AcDbEntity
  8
0
  6
ByBlock
 62
     0
370
    -2
100
AcDbLine
 10
362.3310763824695
 20
236.3709457048566
 30
0.0
 11
363.0009488824695
 21
233.8709457048566
 31
0.0
  0
LINE
  5
1C3B
330
1F
100
AcDbEntity
  8
0
  6
ByBlock
 62
     0
370
    -2
100
AcDbLine
 10
362.3310763824695
 20
236.3709457048566
 30
0.0
 11
362.3310763824695
 21
233.8709457048566
 31
0.0
  0
TEXT
  5
1C3C
330
1F
100
AcDbEntity
  8
0
 62
     4
100
AcDbText
 10
361.7060763824694
 20
215.7459457048566
 30
0.0
 40
3.0
  1
55
 50
90.0
100
AcDbText
  0
LINE
  5
1C3D
330
1F
100
AcDbEntity
  8
0
  6
ByBlock
 62
     0
370
    -2
100
AcDbLine
 10
363.0009488824695
 20
213.8709457048566
 30
0.0
 11
362.3310763824695
 21
211.3709457048566
 31
0.0
  0
LINE
  5
1C3E
330
1F
100
AcDbEntity
  8
0
  6
ByBlock
 62
     0
370
    -2
100
AcDbLine
 10
362.3310763824695
 20
211.3709457048566
 30
0.0
 11
361.6612038824694
 21
213.8709457048566
 31
0.0
  0
LINE
  5
1C3F
330
1F
100
AcDbEntity
  8
0
  6
ByBlock
 62
     0
370
    -2
100
AcDbLine
 10
362.3310763824695
 20
211.3709457048566
 30
0.0
 11
362.3310763824695
 21
213.8709457048566
 31
0.0
  0
LINE
  5
1C40
330
1F
100
AcDbEntity
  8
0
  6
ByBlock
 62
     0
370
    -2
100
AcDbLine
 10
361.6612038824694
 20
222.6209457048566
 30
0.0
 11
362.3310763824695
 21
225.1209457048566
 31
0.0
  0
LINE
  5
1C41
330
1F
100
AcDbEntity
  8
0
  6
ByBlock
 62
     0
370
    -2
100
AcDbLine
 10
362.3310763824695
 20
225.1209457048566
 30
0.0
 11
363.0009488824695
 21
222.6209457048566
 31
0.0
  0
LINE
  5
1C42
330
1F
100
AcDbEntity
  8
0
  6
ByBlock
 62
     0
370
    -2
100
AcDbLine
 10
362.3310763824695
 20
225.1209457048566
 30
0.0
 11
362.3310763824695
 21
222.6209457048566
 31
0.0
  0
TEXT
  5
1C43
330
1F
100
AcDbEntity
  8
0
 62
     4
100
AcDbText
 10
334.2524737694094
 20
184.8938805999488
 30
0.0
 40
3.0
  1
75
100
AcDbText
  0
LINE
  5
1C44
330
1F
100
AcDbEntity
  8
0
  6
ByBlock
 62
     0
370
    -2
100
AcDbLine
 10
329.3099283054499
 20
183.5990080999488
 30
0.0
 11
326.8099283054499
 21
184.2688805999488
 31
0.0
  0
LINE
  5
1C45
330
1F
100
AcDbEntity
  8
0
  6
ByBlock
 62
     0
370
    -2
100
AcDbLine
 10
326.8099283054499
 20
184.2688805999488
 30
0.0
 11
329.3099283054499
 21
184.9387530999488
 31
0.0
  0
LINE
  5
1C46
330
1F
100
AcDbEntity
  8
0
  6
ByBlock
 62
     0
370
    -2
100
AcDbLine
 10
326.8099283054499
 20
184.2688805999488
 30
0.0
 11
329.3099283054499
 21
184.2688805999488
 31
0.0
  0
LINE
  5
1C47
330
1F
100
AcDbEntity
  8
0
  6
ByBlock
 62
     0
370
    -2
100
AcDbLine
 10
343.0599283054499
 20
184.9387530999488
 30
0.0
 11
345.5599283054499
 21
184.2688805999488
 31
0.0
  0
LINE
  5
1C48
330
1F
100
AcDbEntity
  8
0
  6
ByBlock
 62
     0
370
    -2
100
AcDbLine
 10
345.5599283054499
 20
184.2688805999488
 30
0.0
 11
343.0599283054499
 21
183.5990080999488
 31
0.0
  0
LINE
  5
1C49
330
1F
100
AcDbEntity
  8
0
  6
ByBlock
 62
     0
370
    -2
100
AcDbLine
 10
345.5599283054499
 20
184.2688805999488
 30
0.0
 11
343.0599283054499
 21
184.2688805999488
 31
0.0
  0
TEXT
  5
1C4A
330
1F
100
AcDbEntity
  8
0
 62
     4
100
AcDbText
 10
110.3589165833781
 20
143.7785975947022
 30
0.0
 40
3.0
  1
t=4.5
 50
79.00000000000648
100
AcDbText
  0
LINE
  5
1C4B
330
1F
100
AcDbEntity
  8
0
  6
ByBlock
 62
     0
370
    -2
100
AcDbLine
 10
113.2962590703456
 20
159.1250844127171
 30
0.0
 11
114.4308466142307
 21
161.451334672581
 31
0.0
  0
LINE
  5
1C4C
330
1F
100
AcDbEntity
  8
0
  6
ByBlock
 62
     0
370
    -2
100
AcDbLine
 10
114.4308466142307
 20
161.451334672581
 30
0.0
 11
114.6113891812337
 21
158.8694490152065
 31
0.0
  0
LINE
  5
1C4D
330
1F
100
AcDbEntity
  8
0
  6
ByBlock
 62
     0
370
    -2
100
AcDbLine
 10
114.4308466142307
 20
161.451334672581
 30
0.0
 11
113.9538241257896
 21
158.9972667139618
 31
0.0
  0
LINE
  5
1C4E
330
1F
100
AcDbEntity
  8
0
  6
ByBlock
 62
     0
370
    -2
100
AcDbLine
 10
115.7800942779144
 20
164.8819155138235
 30
0.0
 11
114.6455067340292
 21
162.5556652539596
 31
0.0
  0
LINE
  5
1C4F
330
1F
100
AcDbEntity
  8
0
  6
ByBlock
 62
     0
370
    -2
100
AcDbLine
 10
114.6455067340292
 20
162.5556652539596
 30
0.0
 11
114.4649641670262
 21
165.1375509113341
 31
0.0
  0
LINE
  5
1C50
330
1F
100
AcDbEntity
  8
0
  6
ByBlock
 62
     0
370
    -2
100
AcDbLine
 10
114.6455067340292
 20
162.5556652539596
 30
0.0
 11
115.1225292224703
 21
165.0097332125788
 31
0.0
  0
TEXT
  5
1C51
330
1F
100
AcDbEntity
  8
0
 62
     4
100
AcDbText
 10
230.7442751571282
 20
158.3230066485042
 30
0.0
 40
3.0
  1
800
 50
348.9999999999999
100
AcDbText
  0
LINE
  5
1C52
330
1F
100
AcDbEntity
  8
0
  6
ByBlock
 62
     0
370
    -2
100
AcDbLine
 10
134.8281265775254
 20
175.6481090271184
 30
0.0
 11
132.5018763176616
 21
176.7826965710038
 31
0.0
  0
LINE
  5
1C53
330
1F
100
AcDbEntity
  8
0
  6
ByBlock
 62
     0
370
    -2
100
AcDbLine
 10
132.5018763176616
 20
176.7826965710038
 30
0.0
 11
135.0837619750361
 21
176.9632391380065
 31
0.0
  0
LINE
  5
1C54
330
1F
100
AcDbEntity
  8
0
  6
ByBlock
 62
     0
370
    -2
100
AcDbLine
 10
132.5018763176616
 20
176.7826965710038
 30
0.0
 11
134.9559442762808
 21
176.3056740825625
 31
0.0
  0
LINE
  5
1C55
330
1F
100
AcDbEntity
  8
0
  6
ByBlock
 62
     0
370
    -2
100
AcDbLine
 10
326.5010627473306
 20
139.7554850395802
 30
0.0
 11
328.8273130071944
 21
138.6208974956948
 31
0.0
  0
LINE
  5
1C56
330
1F
100
AcDbEntity
  8
0
  6
ByBlock
 62
     0
370
    -2
100
AcDbLine
 10
328.8273130071944
 20
138.6208974956948
 30
0.0
 11
326.2454273498199
 21
138.4403549286921
 31
0.0
  0
LINE
  5
1C57
330
1F
100
AcDbEntity
  8
0
  6
ByBlock
 62
     0
370
    -2
100
AcDbLine
 10
328.8273130071944
 20
138.6208974956948
 30
0.0
 11
326.3732450485753
 21
139.0979199841362
 31
0.0
  0
TEXT
  5
1C58
330
1F
100
AcDbEntity
  8
0
 62
     4
100
AcDbText
 10
336.1356313760307
 20
147.1386068129242
 30
0.0
 40
3.0
  1
100
100
AcDbText
  0
LINE
  5
1C59
330
1F
100
AcDbEntity
  8
0
  6
ByBlock
 62
     0
370
    -2
100
AcDbLine
 10
329.3099283054499
 20
145.8437343129242
 30
0.0
 11
326.8099283054499
 21
146.5136068129242
 31
0.0
  0
LINE
  5
1C5A
330
1F
100
AcDbEntity
  8
0
  6
ByBlock
 62
     0
370
    -2
100
AcDbLine
 10
326.8099283054499
 20
146.5136068129242
 30
0.0
 11
329.3099283054499
 21
147.1834793129242
 31
0.0
  0
LINE
  5
1C5B
330
1F
100
AcDbEntity
  8
0
  6
ByBlock
 62
     0
370
    -2
100
AcDbLine
 10
326.8099283054499
 20
146.5136068129242
 30
0.0
 11
329.3099283054499
 21
146.5136068129242
 31
0.0
  0
LINE
  5
1C5C
330
1F
100
AcDbEntity
  8
0
  6
ByBlock
 62
     0
370
    -2
100
AcDbLine
 10
349.3099283054499
 20
147.1834793129242
 30
0.0
 11
351.8099283054499
 21
146.5136068129242
 31
0.0
  0
LINE
  5
1C5D
330
1F
100
AcDbEntity
  8
0
  6
ByBlock
 62
     0
370
    -2
100
AcDbLine
 10
351.8099283054499
 20
146.5136068129242
 30
0.0
 11
349.3099283054499
 21
145.8437343129242
 31
0.0
  0
LINE
  5
1C5E
330
1F
100
AcDbEntity
  8
0
  6
ByBlock
 62
     0
370
    -2
100
AcDbLine
 10
351.8099283054499
 20
146.5136068129242
 30
0.0
 11
349.3099283054499
 21
146.5136068129242
 31
0.0
  0
ENDSEC
  0
SECTION
  2
OBJECTS
  0
DICTIONARY
  5
C
330
0
100
AcDbDictionary
281
     1
  3
ACAD_2007HEADERVARS_RT
350
1C62
  3
ACAD_COLOR
350
73
  3
ACAD_GROUP
350
D
  3
ACAD_LAYOUT
350
1A
  3
ACAD_MATERIAL
350
72
  3
ACAD_MLEADERSTYLE
350
168
  3
ACAD_MLINESTYLE
350
17
  3
ACAD_PLOTSETTINGS
350
19
  3
ACAD_PLOTSTYLENAME
350
E
  3
ACAD_SCALELIST
350
156
  3
ACAD_TABLESTYLE
350
86
  3
ACAD_VISUALSTYLE
350
99
  3
ACDB_RECOMPOSE_DATA
350
1C60
  3
AcDbVariableDictionary
350
66
  3
DWGPROPS
350
1C61
  0
DICTIONARY
  5
DD
330
2
100
AcDbDictionary
280
     1
281
     1
  3
ACAD_LAYERSTATES
360
DE
  0
DICTIONARY
  5
97D
330
10
100
AcDbDictionary
280
     1
281
     1
  3
ADSK_XREC_LAYER_RECONCILED
360
97E
  0
DICTIONARY
  5
1205
330
1F
100
AcDbDictionary
280
     1
281
     1
  3
ACAD_SORTENTS
360
1206
  0
DICTIONARY
  5
1CA3
330
1969
100
AcDbDictionary
280
     1
281
     1
  3
ACAD_MTEXT_RT
360
1CA4
  0
DICTIONARY
  5
1CA1
330
193A
100
AcDbDictionary
280
     1
281
     1
  3
ACAD_MTEXT_RT
360
1CA2
  0
DICTIONARY
  5
1C62
102
{ACAD_REACTORS
330
C
102
}
330
C
100
AcDbDictionary
281
     1
  3
DIMARCSYM
350
1C64
  3
DIMFXL
350
1C63
  3
DIMJOGANG
350
1C65
  0
DICTIONARY
  5
73
102
{ACAD_REACTORS
330
C
102
}
330
C
100
AcDbDictionary
281
     1
  0
DICTIONARY
  5
D
102
{ACAD_REACTORS
330
C
102
}
330
C
100
AcDbDictionary
281
     1
  0
DICTIONARY
  5
1A
102
{ACAD_REACTORS
330
C
102
}
330
C
100
AcDbDictionary
281
     1
  3
Model
350
22
  3
レイアウト1
350
59
  3
レイアウト2
350
5E
  0
DICTIONARY
  5
72
102
{ACAD_REACTORS
330
C
102
}
330
C
100
AcDbDictionary
281
     1
  3
ByBlock
350
97
  3
ByLayer
350
96
  3
Global
350
98
  0
DICTIONARY
  5
168
102
{ACAD_REACTORS
330
C
102
}
330
C
100
AcDbDictionary
281
     1
  3
Standard
350
169
  0
DICTIONARY
  5
17
102
{ACAD_REACTORS
330
C
102
}
330
C
100
AcDbDictionary
281
     1
  3
Standard
350
18
  0
DICTIONARY
  5
19
102
{ACAD_REACTORS
330
C
102
}
330
C
100
AcDbDictionary
281
     1
  0
ACDBDICTIONARYWDFLT
  5
E
102
{ACAD_REACTORS
330
C
102
}
330
C
100
AcDbDictionary
281
     1
  3
Normal
350
F
100
AcDbDictionaryWithDefault
340
F
  0
DICTIONARY
  5
156
102
{ACAD_REACTORS
330
C
102
}
330
C
100
AcDbDictionary
281
     1
  3
A0
350
157
  3
A1
350
158
  3
A2
350
159
  3
A3
350
15A
  3
A4
350
15B
  3
A5
350
15C
  3
A6
350
15D
  3
A7
350
15E
  3
A8
350
15F
  3
A9
350
160
  3
B0
350
161
  3
B1
350
162
  3
B2
350
163
  3
B3
350
164
  3
B4
350
165
  3
B5
350
166
  3
B6
350
167
  0
DICTIONARY
  5
86
102
{ACAD_REACTORS
330
C
102
}
330
C
100
AcDbDictionary
281
     1
  3
Standard
350
87
  0
DICTIONARY
  5
99
102
{ACAD_REACTORS
330
C
102
}
330
C
100
AcDbDictionary
281
     1
  3
2dWireframe
350
9F
  3
3D Hidden
350
A1
  3
3dWireframe
350
A0
  3
Basic
350
9E
  3
Brighten
350
A5
  3
ColorChange
350
A9
  3
Conceptual
350
A2
  3
Dim
350
A4
  3
EdgeColorOff
350
155
  3
Facepattern
350
A8
  3
Flat
350
9A
  3
FlatWithEdges
350
9B
  3
Gouraud
350
9C
  3
GouraudWithEdges
350
9D
  3
Hidden
350
14D
  3
JitterOff
350
153
  3
Linepattern
350
A7
  3
OverhangOff
350
154
  3
Realistic
350
A3
  3
Shaded
350
152
  3
Shaded with edges
350
151
  3
Shades of Gray
350
14E
  3
Sketchy
350
14F
  3
Thicken
350
A6
  3
Wireframe
350
14C
  3
X-Ray
350
150
  0
XRECORD
  5
1C60
102
{ACAD_REACTORS
330
C
102
}
330
C
100
AcDbXrecord
280
     1
 90
        1
330
87
  0
DICTIONARY
  5
66
102
{ACAD_REACTORS
330
C
102
}
330
C
100
AcDbDictionary
281
     1
  3
CANNOSCALE
350
981
  3
CMLEADERSTYLE
350
980
  3
CTABLESTYLE
350
89
  3
DIMASSOC
350
67
  3
HIDETEXT
350
6B
  3
INDEXCTL
350
983
  3
SORTENTS
350
982
  3
XCLIPFRAME
350
19E4
  0
XRECORD
  5
1C61
102
{ACAD_REACTORS
330
C
102
}
330
C
100
AcDbXrecord
280
     1
  1
DWGPROPS COOKIE
  2

  3

  4

  6

  7

  8
imamura
  9

300
=
301
=
302
=
303
=
304
=
305
=
306
=
307
=
308
=
309
=
 40
0.0146524074074074
 41
2456367.846280035
 42
2459531.70778978
  1

 90
        0
  0
DICTIONARY
  5
DE
102
{ACAD_REACTORS
330
DD
102
}
330
DD
100
AcDbDictionary
281
     1
  0
XRECORD
  5
97E
102
{ACAD_REACTORS
330
97D
102
}
330
97D
100
AcDbXrecord
280
     1
290
     1
  0
SORTENTSTABLE
  5
1206
102
{ACAD_REACTORS
330
1205
102
}
330
1205
100
AcDbSortentsTable
330
1F
331
1A9C
  5
1B23
331
1B12
  5
680
331
1B51
  5
5ED
331
646
  5
716
331
60F
  5
68A
331
556
  5
558
331
58D
  5
58F
331
589
  5
58B
331
681
  5
763
331
642
  5
712
331
60B
  5
66B
331
5CC
  5
60F
331
552
  5
554
331
67D
  5
75F
331
63E
  5
70E
331
607
  5
667
331
5C8
  5
5CA
331
63A
  5
70C
331
603
  5
661
331
5C4
  5
5C6
331
1C0F
  5
1AE8
331
1C4E
  5
1A54
331
5C0
  5
5C2
331
6E9
  5
1B85
331
1B95
  5
1C0D
331
1BD4
  5
1B68
331
1C0B
  5
1AF4
331
1C4A
  5
1A60
331
1A2F
  5
1C37
331
1A6E
  5
1B95
331
1A2B
  5
1C52
331
1B91
  5
1C0F
331
1BD0
  5
1B6A
331
1C07
  5
1AF9
331
1C46
  5
1A74
331
6E1
  5
1B76
331
1B8D
  5
1C18
331
1BCC
  5
1B7D
331
1C03
  5
1B01
331
1C42
  5
1A7E
331
765
  5
1C4C
331
1A66
  5
1B9F
331
716
  5
1BDA
331
761
  5
1C48
331
1B89
  5
1C1A
331
1BC8
  5
1B7F
331
712
  5
1BD6
331
75D
  5
1C44
331
70E
  5
1BD2
331
759
  5
1C40
331
70A
  5
1BCE
331
1AD7
  5
1A97
331
1B4D
  5
5E9
331
1B49
  5
5E5
331
585
  5
587
331
1B84
  5
1C23
331
1B0E
  5
67B
331
1B45
  5
5E1
331
581
  5
583
331
1B80
  5
1C25
331
1ACB
  5
1AB7
331
1B0A
  5
674
331
1B41
  5
5DD
331
5BC
  5
5BE
331
675
  5
75B
331
5FF
  5
65D
331
54E
  5
551
331
57D
  5
57F
331
579
  5
57B
331
5B8
  5
5BA
331
671
  5
757
331
5FB
  5
659
331
54A
  5
54E
331
66D
  5
753
331
636
  5
709
331
5F7
  5
655
331
669
  5
737
331
632
  5
6F2
331
6D5
  5
1B6E
331
1C3E
  5
1A80
331
1A5E
  5
1BA9
331
1BC4
  5
1B8A
331
1C3A
  5
1A8A
331
1BC0
  5
1B90
331
1BFF
  5
1B07
331
1C36
  5
1A8F
331
1BBC
  5
1B9C
331
1BFB
  5
1B10
331
1C32
  5
1A99
331
755
  5
1C3C
331
1A95
  5
1B31
331
751
  5
1C38
331
1A52
  5
1BBF
331
1BB8
  5
1BA3
331
735
  5
1BF9
331
731
  5
1BF5
331
1B7C
  5
1C2C
331
1B06
  5
670
331
1B3D
  5
5D9
331
1B78
  5
1C33
331
1B02
  5
66C
331
1B39
  5
5D5
331
546
  5
548
331
575
  5
577
331
5B4
  5
5B6
331
1B74
  5
1C34
331
1ABF
  5
1AD3
331
1AFE
  5
1715
331
1B35
  5
5D1
331
542
  5
544
331
571
  5
573
331
5B0
  5
5B2
331
1B70
  5
1C51
331
1B31
  5
5CD
331
5AC
  5
5AE
331
665
  5
734
331
62E
  5
6E9
331
5EF
  5
632
331
53E
  5
53F
331
56D
  5
56F
331
569
  5
56B
331
5A8
  5
5AA
331
661
  5
731
331
62A
  5
6E2
331
5EB
  5
62E
331
53A
  5
53A
331
65D
  5
72D
331
626
  5
6DA
331
5E7
  5
62A
331
6D8
  5
1B71
331
659
  5
729
331
622
  5
6D6
331
5E3
  5
626
331
1BF7
  5
1B1B
331
1C2E
  5
1AA5
331
6C1
  5
1B20
331
1BB4
  5
1BA5
331
1BF3
  5
1B1D
331
1C2A
  5
1AB4
331
1A8D
  5
1B49
331
1BB0
  5
1BAE
331
1BEF
  5
1B26
331
1C26
  5
1ABB
331
1A89
  5
1B57
331
1204
  5
53B
331
1BAC
  5
1BB0
331
1BEB
  5
1B28
331
1C22
  5
1ABD
331
1A46
  5
1C09
331
1A85
  5
1B53
331
72D
  5
1BF1
331
1BA8
  5
1BB7
331
729
  5
1BED
331
1A81
  5
1B65
331
725
  5
1BE9
331
721
  5
1BE5
331
1AB7
  5
1AE3
331
1AF6
  5
1A36
331
1B2D
  5
64F
331
1B6C
  5
609
331
1AB3
  5
1AFB
331
1AF2
  5
1A53
331
1B29
  5
64B
331
1B68
  5
605
331
565
  5
567
331
5A4
  5
5A6
331
1AEE
  5
1A4C
331
1B25
  5
647
331
1B64
  5
601
331
561
  5
563
331
5A0
  5
5A2
331
1AEA
  5
1A66
331
1B21
  5
643
331
1B60
  5
5FD
331
59C
  5
59E
331
655
  5
725
331
61E
  5
6C3
331
5DF
  5
622
331
55D
  5
55F
331
598
  5
59A
331
651
  5
721
331
61A
  5
6BE
331
5DB
  5
61E
331
559
  5
55B
331
68C
  5
1207
331
64D
  5
71D
331
616
  5
691
331
5D7
  5
61A
331
688
  5
769
331
649
  5
719
331
612
  5
68D
331
5D3
  5
616
331
6AD
  5
1AFC
331
1C5D
  5
1A2D
331
1BE7
  5
1B37
331
1C1E
  5
1AC7
331
1A3E
  5
1C15
331
1BA4
  5
1BBD
331
1BE3
  5
1B46
331
1C1A
  5
1AC9
331
1C59
  5
1A32
331
1BA0
  5
1BC6
331
1BDF
  5
1B51
331
1C16
  5
1AD5
331
1C55
  5
1A3C
331
1A79
  5
1B79
331
1B9C
  5
1C01
331
1BDB
  5
1B5A
331
1C12
  5
1AE1
331
1C51
  5
1A48
331
1714
  5
1C5B
331
1A75
  5
1B89
331
71D
  5
1BE1
331
1710
  5
1C57
331
1A32
  5
1C30
331
1B98
  5
1C03
331
719
  5
1BDD
331
F38
  5
1C56
331
1AA7
  5
1B09
331
1B1D
  5
63F
331
1B5C
  5
5F9
331
1AA3
  5
1B18
331
1AE2
  5
1A76
331
1B19
  5
638
331
1B58
  5
5F4
331
594
  5
596
331
1ADE
  5
1A88
331
1B15
  5
686
331
1B54
  5
5F0
331
590
  5
592
331
1A9B
  5
1B22
331
1B11
  5
67F
331
1B50
  5
5EC
331
645
  5
715
331
60E
  5
689
331
5CF
  5
612
331
555
  5
557
331
58C
  5
58E
331
588
  5
58A
331
680
  5
762
331
641
  5
711
331
60A
  5
66A
331
5CB
  5
60D
331
551
  5
553
331
606
  5
665
331
5C7
  5
5C9
331
678
  5
75D
331
602
  5
660
331
5C3
  5
5C5
331
1BD7
  5
1B5C
331
1C0E
  5
1AF3
331
1C4D
  5
1A5F
331
6E8
  5
1B84
331
1B94
  5
1C0C
331
1BD3
  5
1B67
331
1C0A
  5
1AF7
331
1C49
  5
1A6C
331
1A2E
  5
1C36
331
1A6D
  5
1B94
331
1B90
  5
1C0E
331
1BCF
  5
1B69
331
1C06
  5
1AF8
331
1C45
  5
1A6E
331
6E0
  5
1B75
331
1B8C
  5
1C17
331
1BCB
  5
1B7C
331
1C02
  5
1B06
331
1C41
  5
1A7A
331
764
  5
1C4B
331
1A65
  5
1B9E
331
715
  5
1BD9
331
1B88
  5
1C1D
331
760
  5
1C47
331
1A61
  5
1BAC
331
711
  5
1BD5
331
75C
  5
1C43
331
70D
  5
1BD1
331
758
  5
1C3F
331
709
  5
1BCD
331
1AD6
  5
1A96
331
1B4C
  5
5E8
331
1B87
  5
1C21
331
1AD2
  5
1AA8
331
1B48
  5
5E4
331
584
  5
586
331
1B83
  5
1C22
331
1B0D
  5
678
331
1B44
  5
5E0
331
580
  5
582
331
5BF
  5
5C1
331
1ACA
  5
1AB6
331
1B09
  5
673
331
1B40
  5
5DC
331
5BB
  5
5BD
331
674
  5
75A
331
5FE
  5
65C
331
57C
  5
57E
331
578
  5
57A
331
670
  5
756
331
5FA
  5
658
331
549
  5
54B
331
703
  5
1BCA
331
66C
  5
744
331
635
  5
708
331
5F6
  5
654
331
668
  5
736
331
631
  5
6EE
331
5F2
  5
635
331
6D4
  5
1B6D
331
1BC7
  5
1B82
331
1C3D
  5
1A7F
331
1A5D
  5
1BA8
331
1BC3
  5
1B8F
331
1C39
  5
1A89
331
6CC
  5
1B62
331
1A59
  5
1BB6
331
1BBF
  5
1B99
331
1BFE
  5
1B0D
331
1C35
  5
1A92
331
1BBB
  5
1B9B
331
1BFA
  5
1B0F
331
1C31
  5
1AA4
331
754
  5
1C3B
331
1A94
  5
1B30
331
1A51
  5
1BBE
331
734
  5
1BF8
331
730
  5
1BF4
331
1B7F
  5
1C29
331
1B7B
  5
1C2B
331
1AC6
  5
1AC2
331
1B05
  5
66F
331
1B3C
  5
5D8
331
5B7
  5
5B9
331
1B77
  5
1C32
331
1B38
  5
5D4
331
545
  5
547
331
574
  5
576
331
5B3
  5
5B5
331
1B73
  5
1C4F
331
1ABE
  5
1AD2
331
1AFD
  5
1714
331
1B34
  5
5D0
331
541
  5
543
331
570
  5
572
331
5AF
  5
5B1
331
1B30
  5
5CC
331
5AB
  5
5AD
331
62D
  5
6E7
331
5EE
  5
631
331
53D
  5
53E
331
56C
  5
56E
331
660
  5
730
331
629
  5
6E1
331
5EA
  5
62D
331
568
  5
56A
331
65C
  5
72C
331
625
  5
6D9
331
5E6
  5
629
331
658
  5
728
331
621
  5
6D4
331
5E2
  5
625
331
1BB7
  5
1BA2
331
1BF6
  5
1B1A
331
1C2D
  5
1AAE
331
1A4D
  5
1BFE
331
1BB3
  5
1BA4
331
1BF2
  5
1B1C
331
1C29
  5
1AB0
331
1207
  5
542
331
1BAF
  5
1BAD
331
1BEE
  5
1B25
331
1C25
  5
1ABA
331
1A88
  5
1B56
331
1A45
  5
1C08
331
1BAB
  5
1BB3
331
1BEA
  5
1B2E
331
1C21
  5
1ABC
331
72C
  5
1BF0
331
728
  5
1BEC
331
1A80
  5
1B64
331
724
  5
1BE8
331
720
  5
1BE4
331
1B6F
  5
1C50
331
1AB6
  5
1AE2
331
1B2C
  5
64E
331
1B6B
  5
608
331
5A7
  5
5A9
331
1AB2
  5
1AFA
331
1AF1
  5
1A52
331
1B28
  5
64A
331
1B67
  5
604
331
564
  5
566
331
5A3
  5
5A5
331
1AAE
  5
1B00
331
1B24
  5
646
331
1B63
  5
600
331
6BF
  5
1B15
331
560
  5
562
331
59F
  5
5A1
331
1AE9
  5
1A65
331
1B20
  5
642
331
59B
  5
59D
331
654
  5
724
331
61D
  5
6C1
331
5DE
  5
621
331
55C
  5
55E
331
68F
  5
1712
331
650
  5
720
331
619
  5
6BA
331
558
  5
55A
331
5DA
  5
61D
331
68B
  5
1204
331
64C
  5
71C
331
615
  5
690
331
5D6
  5
619
331
648
  5
718
331
611
  5
68C
331
5D2
  5
615
331
1BA7
  5
1BBC
331
1BE6
  5
1B43
331
1C1D
  5
1AC6
331
1C5C
  5
1A2C
331
1A3D
  5
1C14
331
1BA3
  5
1BC3
331
1BE2
  5
1B4E
331
1C19
  5
1ACC
331
1C58
  5
1A35
331
97A
  5
1C55
331
1717
  5
1C5E
331
1B9F
  5
1BC5
331
1BDE
  5
1B50
331
1C15
  5
1AE0
331
1C54
  5
1A47
331
1B9B
  5
1C00
331
1BDA
  5
1B59
331
1C11
  5
1AED
331
1C50
  5
1A59
331
1713
  5
1C5A
331
1A35
  5
1C2A
331
1A74
  5
1B88
331
71C
  5
1BE0
331
718
  5
1BDC
331
1B5F
  5
5FC
331
1B1C
  5
63E
331
1B5B
  5
5F8
331
597
  5
599
331
1AA2
  5
1B17
331
1B18
  5
637
331
1B57
  5
5F3
331
593
  5
595
331
1ADD
  5
1A87
331
1B14
  5
683
331
1B53
  5
5EF
331
687
  5
766
331
58F
  5
591
331
1B10
  5
67E
331
58B
  5
58D
331
683
  5
764
331
644
  5
714
331
60D
  5
688
331
5CE
  5
611
331
554
  5
556
331
67F
  5
761
331
640
  5
710
331
609
  5
669
331
5CA
  5
60C
331
550
  5
552
331
67B
  5
75E
331
63C
  5
70D
331
605
  5
663
331
5C6
  5
5C8
331
638
  5
70B
331
601
  5
65F
331
5C2
  5
5C4
331
1B97
  5
1C02
331
1BD6
  5
1B5B
331
1C0D
  5
1AEF
331
1C4C
  5
1A5E
331
6E7
  5
1B83
331
1B93
  5
1C0B
331
1BD2
  5
1B66
331
1C09
  5
1AF6
331
1C48
  5
1A68
331
1A6C
  5
1B93
331
6E3
  5
1B78
331
1B8F
  5
1C11
331
1BCE
  5
1B6C
331
1C05
  5
1B03
331
1C44
  5
1A6D
331
763
  5
1C4A
331
1B8B
  5
1C1C
331
1BCA
  5
1B81
331
1C01
  5
1B05
331
1C40
  5
1A79
331
714
  5
1BD8
331
75F
  5
1C46
331
1A60
  5
1BAB
331
710
  5
1BD4
331
75B
  5
1C42
331
70C
  5
1BD0
331
708
  5
1BCC
331
1B4F
  5
5EB
331
1B4B
  5
5E7
331
587
  5
589
331
1B86
  5
1C20
331
1AD1
  5
1AA7
331
1B47
  5
5E3
331
583
  5
585
331
1B82
  5
1C27
331
1B0C
  5
676
331
1B43
  5
5DF
331
5BE
  5
5C0
331
57F
  5
581
331
1B08
  5
672
331
5BA
  5
5BC
331
673
  5
759
331
5FD
  5
65B
331
57B
  5
57D
331
66F
  5
755
331
5F9
  5
657
331
548
  5
54A
331
702
  5
1BC9
331
66B
  5
73B
331
634
  5
705
331
5F5
  5
653
331
630
  5
6EB
331
6D7
  5
1B70
331
5F1
  5
634
331
1BC6
  5
1B8C
331
1C3C
  5
1A85
331
1BC2
  5
1B8E
331
1C38
  5
1A91
331
6CB
  5
1B5F
331
1BBE
  5
1B98
331
1BFD
  5
1B0C
331
1C34
  5
1A9E
331
757
  5
1C3E
331
1A58
  5
1BB5
331
1A97
  5
1B36
331
1BBA
  5
1B9A
331
1BF9
  5
1B0E
331
1C30
  5
1AA0
331
753
  5
1C3A
331
1A93
  5
1B2F
331
737
  5
1BFB
331
733
  5
1BF7
331
1B7E
  5
1C28
331
1B3F
  5
5DB
331
1B7A
  5
1C2F
331
1AC5
  5
1AC1
331
1B04
  5
66E
331
1B3B
  5
5D7
331
577
  5
579
331
5B6
  5
5B8
331
1B76
  5
1C31
331
1B37
  5
5D3
331
544
  5
546
331
573
  5
575
331
5B2
  5
5B4
331
1B72
  5
1C4E
331
1ABD
  5
1AD1
331
1AFC
  5
1713
331
1B33
  5
5CF
331
667
  5
735
331
540
  5
541
331
56F
  5
571
331
5AE
  5
5B0
331
1AF8
  5
1A3B
331
5AA
  5
5AC
331
663
  5
733
331
62C
  5
6E4
331
5ED
  5
630
331
53C
  5
53D
331
56B
  5
56D
331
6DE
  5
1B74
331
65F
  5
72F
331
628
  5
6E0
331
5E9
  5
62C
331
6DA
  5
1B73
331
65B
  5
72B
331
624
  5
6D8
331
5E5
  5
628
331
620
  5
6D1
331
5E1
  5
624
331
1BB6
  5
1BA1
331
1BF5
  5
1B19
331
1C2C
  5
1AAD
331
1A8F
  5
1B4B
331
1A4C
  5
1BFD
331
1BB2
  5
1BA7
331
1BF1
  5
1B1F
331
1C28
  5
1AAF
331
1BAE
  5
1BB2
331
1BED
  5
1B2D
331
1C24
  5
1AB9
331
72F
  5
1BF3
331
1A87
  5
1B55
331
1A44
  5
1C07
331
1BAA
  5
1BB9
331
1BE9
  5
1B39
331
1C20
  5
1ABF
331
72B
  5
1BEF
331
727
  5
1BEB
331
723
  5
1BE7
331
1B2F
  5
651
331
1B6E
  5
60B
331
1B2B
  5
64D
331
1B6A
  5
607
331
567
  5
569
331
5A6
  5
5A8
331
1AF0
  5
1A4E
331
1B27
  5
649
331
1B66
  5
603
331
563
  5
565
331
5A2
  5
5A4
331
1AAD
  5
1AFF
331
1B23
  5
645
331
1B62
  5
5FF
331
6BE
  5
1B14
331
657
  5
727
331
55F
  5
561
331
59E
  5
5A0
331
1AE8
  5
1A64
331
59A
  5
59C
331
6BA
  5
1B12
331
653
  5
723
331
61C
  5
6C0
331
5DD
  5
620
331
55B
  5
55D
331
68E
  5
1711
331
64F
  5
71F
331
618
  5
6B2
331
5D9
  5
61C
331
68A
  5
F38
331
64B
  5
71B
331
614
  5
68F
331
5D5
  5
618
331
610
  5
68B
331
5D1
  5
614
331
1BA6
  5
1BBB
331
1BE5
  5
1B40
331
1C1C
  5
1ACB
331
1C5B
  5
1A34
331
1A7F
  5
1B63
331
1BA2
  5
1BC2
331
1BE1
  5
1B4D
331
1C18
  5
1ADA
331
1C57
  5
1A41
331
1A3C
  5
1C13
331
1A7B
  5
1B7B
331
979
  5
1C54
331
1716
  5
1C5D
331
1A38
  5
1C24
331
1B9E
  5
1BC4
331
1BDD
  5
1B4F
331
1C14
  5
1ADF
331
1C53
  5
1A46
331
71F
  5
1BE3
331
1B9A
  5
1BFF
331
1BD9
  5
1B58
331
1C10
  5
1AE9
331
1712
  5
1C59
331
1A73
  5
1B87
331
71B
  5
1BDF
331
1B1F
  5
641
331
1B5E
  5
5FB
331
1AE4
  5
1A78
331
1B1B
  5
63C
331
1B5A
  5
5F7
331
596
  5
598
331
1AA1
  5
1B16
331
1B17
  5
636
331
1B56
  5
5F2
331
592
  5
594
331
1A9D
  5
1B24
331
1ADC
  5
1A86
331
1B13
  5
681
331
1B52
  5
5EE
331
686
  5
765
331
647
  5
717
331
557
  5
559
331
58E
  5
590
331
1AD8
  5
1A98
331
58A
  5
58C
331
643
  5
713
331
5CD
  5
610
331
553
  5
555
331
67E
  5
760
331
63F
  5
70F
331
608
  5
668
331
604
  5
662
331
5C5
  5
5C7
331
600
  5
65E
331
6EE
  5
1B91
331
1C4F
  5
1A58
331
5C1
  5
5C3
331
6EA
  5
1B86
331
1B96
  5
1C05
331
1BD5
  5
1B5E
331
1C0C
  5
1AEE
331
1C4B
  5
1A5A
331
1A6F
  5
1B96
331
1B92
  5
1C10
331
1BD1
  5
1B6B
331
1C08
  5
1AF5
331
1C47
  5
1A67
331
1A6B
  5
1B92
331
6E2
  5
1B77
331
1B8E
  5
1C19
331
1BCD
  5
1B7E
331
1C04
  5
1B02
331
1C43
  5
1A75
331
717
  5
1BDB
331
1A67
  5
1BA0
331
762
  5
1C49
331
1B8A
  5
1C1B
331
1BC9
  5
1B80
331
1C00
  5
1B04
331
713
  5
1BD7
331
75E
  5
1C45
331
70F
  5
1BD3
331
75A
  5
1C41
331
70B
  5
1BCF
331
1B4E
  5
5EA
331
1B4A
  5
5E6
331
586
  5
588
331
1B85
  5
1C1F
331
1AD0
  5
1AA6
331
1B0F
  5
67D
331
1B46
  5
5E2
331
582
  5
584
331
1B81
  5
1C26
331
1ACC
  5
1AB8
331
1B0B
  5
675
331
1B42
  5
5DE
331
5BD
  5
5BF
331
676
  5
75C
331
57E
  5
580
331
57A
  5
57C
331
5B9
  5
5BB
331
672
  5
758
331
5FC
  5
65A
331
54B
  5
550
331
705
  5
1BCB
331
66E
  5
754
331
637
  5
70A
331
5F8
  5
656
331
701
  5
1BC8
331
66A
  5
738
331
633
  5
703
331
5F4
  5
652
331
6D6
  5
1B6F
331
1C3F
  5
1A84
331
5F0
  5
633
331
1A5F
  5
1BAA
331
1BC5
  5
1B8B
331
1C3B
  5
1A8E
331
1BC1
  5
1B8D
331
1C37
  5
1A90
331
1BBD
  5
1B97
331
1BFC
  5
1B0B
331
1C33
  5
1A9A
331
756
  5
1C3D
331
1A57
  5
1BB4
331
1A96
  5
1B35
331
752
  5
1C39
331
1A53
  5
1BC0
331
1BB9
  5
1B9D
331
1BF8
  5
1B11
331
736
  5
1BFA
331
732
  5
1BF6
331
1B7D
  5
1C2D
331
1B07
  5
671
331
1B3E
  5
5DA
331
1B79
  5
1C2E
331
1AC4
  5
1AC0
331
1B03
  5
66D
331
1B3A
  5
5D6
331
576
  5
578
331
5B5
  5
5B7
331
547
  5
549
331
1B75
  5
1C35
331
1AC0
  5
1AD4
331
1B36
  5
5D2
331
543
  5
545
331
572
  5
574
331
5B1
  5
5B3
331
1B71
  5
1C4D
331
1ABC
  5
1AD0
331
1B32
  5
5CE
331
5AD
  5
5AF
331
62F
  5
6EA
331
53F
  5
540
331
56E
  5
570
331
1AB8
  5
1AE7
331
5A9
  5
5AB
331
662
  5
732
331
62B
  5
6E3
331
5EC
  5
62F
331
53B
  5
53C
331
56A
  5
56C
331
65E
  5
72E
331
627
  5
6DE
331
5E8
  5
62B
331
6D9
  5
1B72
331
65A
  5
72A
331
623
  5
6D7
331
5E4
  5
627
331
1C2F
  5
1A9F
331
5E0
  5
623
331
6C2
  5
1B21
331
1BB5
  5
1BA6
331
1BF4
  5
1B1E
331
1C2B
  5
1AAC
331
1A8E
  5
1B4A
331
1A4B
  5
1BFC
331
1BB1
  5
1BAF
331
1BF0
  5
1B27
331
1C27
  5
1AB5
331
6B2
  5
1B08
331
1BAD
  5
1BB1
331
1BEC
  5
1B29
331
1C23
  5
1ABE
331
1A47
  5
1C0A
331
1A86
  5
1B54
331
72E
  5
1BF2
331
1A43
  5
1C06
331
1BA9
  5
1BB8
331
1BE8
  5
1B38
331
72A
  5
1BEE
331
726
  5
1BEA
331
722
  5
1BE6
331
1AF7
  5
1A3A
331
1B2E
  5
650
331
1B6D
  5
60A
331
1B2A
  5
64C
331
1B69
  5
606
331
566
  5
568
331
5A5
  5
5A7
331
1AEF
  5
1A4D
331
1B26
  5
648
331
1B65
  5
602
331
562
  5
564
331
5A1
  5
5A3
331
1AAC
  5
1AFE
331
1B22
  5
644
331
1B61
  5
5FE
331
6BD
  5
1B13
331
656
  5
726
331
61F
  5
6C6
331
55E
  5
560
331
59D
  5
59F
331
1AA8
  5
1B0A
331
599
  5
59B
331
652
  5
722
331
61B
  5
6BF
331
5DC
  5
61F
331
55A
  5
55C
331
68D
  5
1710
331
64E
  5
71E
331
617
  5
6AF
331
5D8
  5
61B
331
689
  5
97A
331
64A
  5
71A
331
613
  5
68E
331
5D4
  5
617
331
6AE
  5
1AFD
331
1C5E
  5
1A2E
331
1C1F
  5
1AC8
331
5D0
  5
613
331
1A3F
  5
1C16
331
1BA5
  5
1BBA
331
1BE4
  5
1B3D
331
1C1B
  5
1ACA
331
1C5A
  5
1A33
331
1BA1
  5
1BC1
331
1BE0
  5
1B4C
331
1C17
  5
1AD9
331
1C56
  5
1A40
331
1A3B
  5
1C12
331
1A7A
  5
1B7A
331
978
  5
1C53
331
1715
  5
1C5C
331
1B9D
  5
1BC7
331
1BDC
  5
1B52
331
1C13
  5
1ADB
331
1C52
  5
1A42
331
71E
  5
1BE2
331
1711
  5
1C58
331
1B99
  5
1C04
331
1BD8
  5
1B5D
331
71A
  5
1BDE
331
742
  5
1C1E
331
1B1E
  5
640
331
1B5D
  5
5FA
331
1AE3
  5
1A77
331
1B1A
  5
63A
331
1B59
  5
5F6
331
595
  5
597
331
1B16
  5
687
331
1B55
  5
5F1
331
591
  5
593
  0
XRECORD
  5
1CA4
102
{ACAD_REACTORS
330
1CA3
102
}
330
1CA3
100
AcDbXrecord
280
     1
 40
587.0
  1
4-\U+220511穴
  0
XRECORD
  5
1CA2
102
{ACAD_REACTORS
330
1CA1
102
}
330
1CA1
100
AcDbXrecord
280
     1
 40
1010.0
  1
8-\U+22056.5穴
  0
XRECORD
  5
1C64
102
{ACAD_REACTORS
330
1C62
102
}
330
1C62
100
AcDbXrecord
280
     1
 70
     2
  0
XRECORD
  5
1C63
102
{ACAD_REACTORS
330
1C62
102
}
330
1C62
100
AcDbXrecord
280
     1
 40
1.25
  0
XRECORD
  5
1C65
102
{ACAD_REACTORS
330
1C62
102
}
330
1C62
100
AcDbXrecord
280
     1
 40
1.570796326794896
  0
LAYOUT
  5
22
102
{ACAD_XDICTIONARY
360
1C66
102
}
102
{ACAD_REACTORS
330
1A
102
}
330
1A
100
AcDbPlotSettings
  1

  2
none_device
  4
ANSI_A_(8.50_x_11.00_Inches)
  6

 40
6.349999904632567
 41
19.04999923706055
 42
6.350006103515625
 43
19.04998779296875
 44
215.8999938964844
 45
279.3999938964844
 46
0.0
 47
0.0
 48
0.0
 49
0.0
140
0.0
141
0.0
142
1.0
143
2.584895464708373
 70
 11952
 72
     0
 73
     1
 74
     0
  7

 75
     0
147
0.3868628397755418
148
0.0
149
0.0
100
AcDbLayout
  1
Model
 70
     1
 71
     0
 10
0.0
 20
0.0
 11
12.0
 21
9.0
 12
0.0
 22
0.0
 32
0.0
 14
0.0
 24
0.0
 34
0.0
 15
0.0
 25
0.0
 35
0.0
146
0.0
 13
0.0
 23
0.0
 33
0.0
 16
1.0
 26
0.0
 36
0.0
 17
0.0
 27
1.0
 37
0.0
 76
     0
330
1F
331
94
  0
LAYOUT
  5
59
102
{ACAD_XDICTIONARY
360
1C68
102
}
102
{ACAD_REACTORS
330
1A
102
}
330
1A
100
AcDbPlotSettings
  1

  2
None
  4

  6

 40
0.0
 41
0.0
 42
0.0
 43
0.0
 44
0.0
 45
0.0
 46
0.0
 47
0.0
 48
0.0
 49
0.0
140
0.0
141
0.0
142
1.0
143
1.0
 70
   688
 72
     0
 73
     0
 74
     5
  7

 75
    16
147
1.0
148
0.0
149
0.0
100
AcDbLayout
  1
レイアウト1
 70
     1
 71
     1
 10
0.0
 20
0.0
 11
12.0
 21
9.0
 12
0.0
 22
0.0
 32
0.0
 14
0.0
 24
0.0
 34
0.0
 15
0.0
 25
0.0
 35
0.0
146
0.0
 13
0.0
 23
0.0
 33
0.0
 16
1.0
 26
0.0
 36
0.0
 17
0.0
 27
1.0
 37
0.0
 76
     0
330
58
  0
LAYOUT
  5
5E
102
{ACAD_XDICTIONARY
360
1C6A
102
}
102
{ACAD_REACTORS
330
1A
102
}
330
1A
100
AcDbPlotSettings
  1

  2
None
  4

  6

 40
0.0
 41
0.0
 42
0.0
 43
0.0
 44
0.0
 45
0.0
 46
0.0
 47
0.0
 48
0.0
 49
0.0
140
0.0
141
0.0
142
1.0
143
1.0
 70
   688
 72
     0
 73
     0
 74
     5
  7

 75
    16
147
1.0
148
0.0
149
0.0
100
AcDbLayout
  1
レイアウト2
 70
     1
 71
     2
 10
0.0
 20
0.0
 11
12.0
 21
9.0
 12
0.0
 22
0.0
 32
0.0
 14
0.0
 24
0.0
 34
0.0
 15
0.0
 25
0.0
 35
0.0
146
0.0
 13
0.0
 23
0.0
 33
0.0
 16
1.0
 26
0.0
 36
0.0
 17
0.0
 27
1.0
 37
0.0
 76
     0
330
5D
  0
MATERIAL
  5
97
102
{ACAD_XDICTIONARY
360
996
102
}
102
{ACAD_REACTORS
330
72
102
}
330
72
100
AcDbMaterial
  1
ByBlock
 73
     1
 78
     1
172
     1
176
     1
270
     1
274
     1
  0
MATERIAL
  5
96
102
{ACAD_XDICTIONARY
360
994
102
}
102
{ACAD_REACTORS
330
72
102
}
330
72
100
AcDbMaterial
  1
ByLayer
 73
     1
 78
     1
172
     1
176
     1
270
     1
274
     1
  0
MATERIAL
  5
98
102
{ACAD_XDICTIONARY
360
998
102
}
102
{ACAD_REACTORS
330
72
102
}
330
72
100
AcDbMaterial
  1
Global
 73
     1
 78
     1
172
     1
176
     1
270
     1
274
     1
  0
MLEADERSTYLE
  5
169
102
{ACAD_REACTORS
330
168
102
}
330
168
100
AcDbMLeaderStyle
170
     2
171
     1
172
     0
 90
        2
 40
0.0
 41
0.0
173
     1
 91
-1056964608
340
14
 92
       -2
290
     1
 42
2.0
291
     1
 43
0.36
  3
Standard
 44
4.0
300

342
11
174
     1
178
     6
175
     1
176
     0
 93
-1056964608
 45
4.0
292
     0
297
     0
 46
4.0
 94
-1056964608
 47
1.0
 49
1.0
140
1.0
293
     1
141
0.0
294
     1
177
     0
142
1.0
295
     0
296
     0
143
0.125
1001
ACAD_MLEADERVER
1070
     2
  0
MLINESTYLE
  5
18
102
{ACAD_REACTORS
330
17
102
}
330
17
100
AcDbMlineStyle
  2
STANDARD
 70
     0
  3

 62
   256
 51
90.0
 52
90.0
 71
     2
 49
0.5
 62
   256
  6
BYLAYER
 49
-0.5
 62
   256
  6
BYLAYER
  0
ACDBPLACEHOLDER
  5
F
102
{ACAD_REACTORS
330
E
102
}
330
E
  0
SCALE
  5
157
102
{ACAD_REACTORS
330
156
102
}
330
156
100
AcDbScale
 70
     0
300
1:1
140
1.0
141
1.0
290
     1
  0
SCALE
  5
158
102
{ACAD_REACTORS
330
156
102
}
330
156
100
AcDbScale
 70
     0
300
1:2
140
1.0
141
2.0
290
     0
  0
SCALE
  5
159
102
{ACAD_REACTORS
330
156
102
}
330
156
100
AcDbScale
 70
     0
300
1:4
140
1.0
141
4.0
290
     0
  0
SCALE
  5
15A
102
{ACAD_REACTORS
330
156
102
}
330
156
100
AcDbScale
 70
     0
300
1:5
140
1.0
141
5.0
290
     0
  0
SCALE
  5
15B
102
{ACAD_REACTORS
330
156
102
}
330
156
100
AcDbScale
 70
     0
300
1:8
140
1.0
141
8.0
290
     0
  0
SCALE
  5
15C
102
{ACAD_REACTORS
330
156
102
}
330
156
100
AcDbScale
 70
     0
300
1:10
140
1.0
141
10.0
290
     0
  0
SCALE
  5
15D
102
{ACAD_REACTORS
330
156
102
}
330
156
100
AcDbScale
 70
     0
300
1:16
140
1.0
141
16.0
290
     0
  0
SCALE
  5
15E
102
{ACAD_REACTORS
330
156
102
}
330
156
100
AcDbScale
 70
     0
300
1:20
140
1.0
141
20.0
290
     0
  0
SCALE
  5
15F
102
{ACAD_REACTORS
330
156
102
}
330
156
100
AcDbScale
 70
     0
300
1:30
140
1.0
141
30.0
290
     0
  0
SCALE
  5
160
102
{ACAD_REACTORS
330
156
102
}
330
156
100
AcDbScale
 70
     0
300
1:40
140
1.0
141
40.0
290
     0
  0
SCALE
  5
161
102
{ACAD_REACTORS
330
156
102
}
330
156
100
AcDbScale
 70
     0
300
1:50
140
1.0
141
50.0
290
     0
  0
SCALE
  5
162
102
{ACAD_REACTORS
330
156
102
}
330
156
100
AcDbScale
 70
     0
300
1:100
140
1.0
141
100.0
290
     0
  0
SCALE
  5
163
102
{ACAD_REACTORS
330
156
102
}
330
156
100
AcDbScale
 70
     0
300
2:1
140
2.0
141
1.0
290
     0
  0
SCALE
  5
164
102
{ACAD_REACTORS
330
156
102
}
330
156
100
AcDbScale
 70
     0
300
4:1
140
4.0
141
1.0
290
     0
  0
SCALE
  5
165
102
{ACAD_REACTORS
330
156
102
}
330
156
100
AcDbScale
 70
     0
300
8:1
140
8.0
141
1.0
290
     0
  0
SCALE
  5
166
102
{ACAD_REACTORS
330
156
102
}
330
156
100
AcDbScale
 70
     0
300
10:1
140
10.0
141
1.0
290
     0
  0
SCALE
  5
167
102
{ACAD_REACTORS
330
156
102
}
330
156
100
AcDbScale
 70
     0
300
100:1
140
100.0
141
1.0
290
     0
  0
TABLESTYLE
  5
87
102
{ACAD_XDICTIONARY
360
985
102
}
102
{ACAD_REACTORS
330
86
102
}
330
86
100
AcDbTableStyle
  3
Standard
 70
     0
 71
     0
 40
0.06
 41
0.06
280
     0
281
     0
  7
Standard
140
0.18
170
     2
 62
     0
 63
     7
283
     0
274
    -2
284
     1
 64
     0
275
    -2
285
     1
 65
     0
276
    -2
286
     1
 66
     0
277
    -2
287
     1
 67
     0
278
    -2
288
     1
 68
     0
279
    -2
289
     1
 69
     0
  7
Standard
140
0.25
170
     5
 62
     0
 63
     7
283
     0
274
    -2
284
     1
 64
     0
275
    -2
285
     1
 65
     0
276
    -2
286
     1
 66
     0
277
    -2
287
     1
 67
     0
278
    -2
288
     1
 68
     0
279
    -2
289
     1
 69
     0
  7
Standard
140
0.18
170
     5
 62
     0
 63
     7
283
     0
274
    -2
284
     1
 64
     0
275
    -2
285
     1
 65
     0
276
    -2
286
     1
 66
     0
277
    -2
287
     1
 67
     0
278
    -2
288
     1
 68
     0
279
    -2
289
     1
 69
     0
  0
VISUALSTYLE
  5
9F
102
{ACAD_XDICTIONARY
360
1C77
102
}
102
{ACAD_REACTORS
330
99
102
}
330
99
100
AcDbVisualStyle
  2

 70
     4
 71
     0
 72
     2
 73
     1
 90
        0
 40
-0.6
 41
-30.0
 62
     5
 63
     7
 74
     1
 91
        4
 64
     7
 65
   257
 75
     1
175
     1
 42
1.0
 92
        0
 66
   257
 43
1.0
 76
     1
 77
     6
 78
     2
 67
     7
 79
     5
170
     0
171
     0
290
     0
174
     0
 93
        1
 44
0.0
173
     0
291
     0
 45
0.0
1001
ACAD
1000
AcDbSavedByObjectVersion
1070
     0
  0
VISUALSTYLE
  5
A1
102
{ACAD_XDICTIONARY
360
1C7B
102
}
102
{ACAD_REACTORS
330
99
102
}
330
99
100
AcDbVisualStyle
  2

 70
     6
 71
     1
 72
     2
 73
     2
 90
        0
 40
-0.6
 41
-30.0
 62
     5
 63
     7
 74
     2
 91
        2
 64
     7
 65
   257
 75
     2
175
     1
 42
40.0
 92
        0
 66
   257
 43
1.0
 76
     1
 77
     6
 78
     2
 67
     7
 79
     3
170
     0
171
     0
290
     0
174
     0
 93
        1
 44
0.0
173
     0
291
     0
 45
0.0
1001
ACAD
1000
AcDbSavedByObjectVersion
1070
     0
  0
VISUALSTYLE
  5
A0
102
{ACAD_XDICTIONARY
360
1C79
102
}
102
{ACAD_REACTORS
330
99
102
}
330
99
100
AcDbVisualStyle
  2

 70
     5
 71
     0
 72
     2
 73
     1
 90
        0
 40
-0.6
 41
-30.0
 62
     5
 63
     7
 74
     1
 91
        4
 64
     7
 65
   257
 75
     1
175
     1
 42
1.0
 92
        0
 66
   257
 43
1.0
 76
     1
 77
     6
 78
     2
 67
     7
 79
     5
170
     0
171
     0
290
     0
174
     0
 93
        1
 44
0.0
173
     0
291
     0
 45
0.0
1001
ACAD
1000
AcDbSavedByObjectVersion
1070
     0
  0
VISUALSTYLE
  5
9E
102
{ACAD_XDICTIONARY
360
1C75
102
}
102
{ACAD_REACTORS
330
99
102
}
330
99
100
AcDbVisualStyle
  2

 70
     7
 71
     1
 72
     0
 73
     1
 90
        0
 40
-0.6
 41
-30.0
 62
     5
 63
     7
 74
     0
 91
        4
 64
     7
 65
   257
 75
     1
175
     1
 42
1.0
 92
        8
 66
     7
 43
1.0
 76
     1
 77
     6
 78
     2
 67
     7
 79
     5
170
     0
171
     0
290
     0
174
     0
 93
        1
 44
0.0
173
     0
291
     1
 45
0.0
1001
ACAD
1000
AcDbSavedByObjectVersion
1070
     0
  0
VISUALSTYLE
  5
A5
102
{ACAD_XDICTIONARY
360
1C83
102
}
102
{ACAD_REACTORS
330
99
102
}
330
99
100
AcDbVisualStyle
  2

 70
    12
 71
     2
 72
     2
 73
     1
 90
        0
 40
-0.6
 41
-30.0
 62
     5
 63
     7
 74
     1
 91
        4
 64
     7
 65
   257
 75
     1
175
     1
 42
1.0
 92
        8
 66
     7
 43
1.0
 76
     1
 77
     6
 78
     2
 67
     7
 79
     5
170
     0
171
     0
290
     0
174
     0
 93
        1
 44
50.0
173
     0
291
     1
 45
0.0
1001
ACAD
1000
AcDbSavedByObjectVersion
1070
     0
  0
VISUALSTYLE
  5
A9
102
{ACAD_XDICTIONARY
360
1C8B
102
}
102
{ACAD_REACTORS
330
99
102
}
330
99
100
AcDbVisualStyle
  2

 70
    16
 71
     2
 72
     2
 73
     3
 90
        0
 40
-0.6
 41
-30.0
 62
     5
 63
     8
 74
     1
 91
        4
 64
     7
 65
   257
 75
     1
175
     1
 42
1.0
 92
        8
 66
     8
 43
1.0
 76
     1
 77
     6
 78
     2
 67
     7
 79
     5
170
     0
171
     0
290
     0
174
     0
 93
        1
 44
0.0
173
     0
291
     1
 45
0.0
1001
ACAD
1000
AcDbSavedByObjectVersion
1070
     0
  0
VISUALSTYLE
  5
A2
102
{ACAD_XDICTIONARY
360
1C7D
102
}
102
{ACAD_REACTORS
330
99
102
}
330
99
100
AcDbVisualStyle
  2

 70
     9
 71
     3
 72
     2
 73
     1
 90
        0
 40
-0.6
 41
-30.0
 62
     5
 63
     7
 74
     2
 91
        2
 64
     7
 65
   257
 75
     1
175
     1
 42
40.0
 92
        8
 66
     7
 43
1.0
 76
     1
 77
     6
 78
     2
 67
     7
 79
     3
170
     0
171
     0
290
     0
174
     0
 93
        1
 44
0.0
173
     0
291
     0
 45
0.0
1001
ACAD
1000
AcDbSavedByObjectVersion
1070
     0
  0
VISUALSTYLE
  5
A4
102
{ACAD_XDICTIONARY
360
1C81
102
}
102
{ACAD_REACTORS
330
99
102
}
330
99
100
AcDbVisualStyle
  2

 70
    11
 71
     2
 72
     2
 73
     1
 90
        0
 40
-0.6
 41
-30.0
 62
     5
 63
     7
 74
     1
 91
        4
 64
     7
 65
   257
 75
     1
175
     1
 42
1.0
 92
        8
 66
     7
 43
1.0
 76
     1
 77
     6
 78
     2
 67
     7
 79
     5
170
     0
171
     0
290
     0
174
     0
 93
        1
 44
-50.0
173
     0
291
     1
 45
0.0
1001
ACAD
1000
AcDbSavedByObjectVersion
1070
     0
  0
VISUALSTYLE
  5
155
102
{ACAD_XDICTIONARY
360
1C9F
102
}
102
{ACAD_REACTORS
330
99
102
}
330
99
100
AcDbVisualStyle
  2

 70
    22
 71
     2
 72
     2
 73
     0
 90
        0
 40
-0.6
 41
-30.0
 62
     5
 63
     7
 74
     1
 91
        4
 64
     7
 65
   257
 75
     1
175
     1
 42
1.0
 92
        8
 66
     7
 43
1.0
 76
     1
 77
     6
 78
     2
 67
     7
 79
     5
170
     0
171
     0
290
     0
174
     0
 93
        1
 44
0.0
173
     0
291
     1
 45
0.0
1001
ACAD
1000
AcDbSavedByObjectVersion
1070
     0
  0
VISUALSTYLE
  5
A8
102
{ACAD_XDICTIONARY
360
1C89
102
}
102
{ACAD_REACTORS
330
99
102
}
330
99
100
AcDbVisualStyle
  2

 70
    15
 71
     2
 72
     2
 73
     1
 90
        0
 40
-0.6
 41
-30.0
 62
     5
 63
     7
 74
     1
 91
        4
 64
     7
 65
   257
 75
     1
175
     1
 42
1.0
 92
        8
 66
     7
 43
1.0
 76
     1
 77
     6
 78
     2
 67
     7
 79
     5
170
     0
171
     0
290
     0
174
     0
 93
        1
 44
0.0
173
     0
291
     1
 45
0.0
1001
ACAD
1000
AcDbSavedByObjectVersion
1070
     0
  0
VISUALSTYLE
  5
9A
102
{ACAD_XDICTIONARY
360
1C6D
102
}
102
{ACAD_REACTORS
330
99
102
}
330
99
100
AcDbVisualStyle
  2

 70
     0
 71
     2
 72
     1
 73
     1
 90
        2
 40
-0.6
 41
30.0
 62
     5
 63
     7
 74
     0
 91
        4
 64
     7
 65
   257
 75
     1
175
     1
 42
1.0
 92
        8
 66
     7
 43
1.0
 76
     1
 77
     6
 78
     2
 67
     7
 79
     5
170
     0
171
     0
290
     0
174
     0
 93
        1
 44
0.0
173
     0
291
     1
 45
0.0
1001
ACAD
1000
AcDbSavedByObjectVersion
1070
     0
  0
VISUALSTYLE
  5
9B
102
{ACAD_XDICTIONARY
360
1C6F
102
}
102
{ACAD_REACTORS
330
99
102
}
330
99
100
AcDbVisualStyle
  2

 70
     1
 71
     2
 72
     1
 73
     1
 90
        2
 40
-0.6
 41
30.0
 62
     5
 63
     7
 74
     1
 91
        4
 64
     7
 65
   257
 75
     1
175
     1
 42
1.0
 92
        0
 66
   257
 43
1.0
 76
     1
 77
     6
 78
     2
 67
     7
 79
     5
170
     0
171
     0
290
     0
174
     0
 93
        1
 44
0.0
173
     0
291
     1
 45
0.0
1001
ACAD
1000
AcDbSavedByObjectVersion
1070
     0
  0
VISUALSTYLE
  5
9C
102
{ACAD_XDICTIONARY
360
1C71
102
}
102
{ACAD_REACTORS
330
99
102
}
330
99
100
AcDbVisualStyle
  2

 70
     2
 71
     2
 72
     2
 73
     1
 90
        2
 40
-0.6
 41
30.0
 62
     5
 63
     7
 74
     0
 91
        4
 64
     7
 65
   257
 75
     1
175
     1
 42
1.0
 92
        0
 66
     7
 43
1.0
 76
     1
 77
     6
 78
     2
 67
     7
 79
     5
170
     0
171
     0
290
     0
174
     0
 93
        1
 44
0.0
173
     0
291
     1
 45
0.0
1001
ACAD
1000
AcDbSavedByObjectVersion
1070
     0
  0
VISUALSTYLE
  5
9D
102
{ACAD_XDICTIONARY
360
1C73
102
}
102
{ACAD_REACTORS
330
99
102
}
330
99
100
AcDbVisualStyle
  2

 70
     3
 71
     2
 72
     2
 73
     1
 90
        2
 40
-0.6
 41
30.0
 62
     5
 63
     7
 74
     1
 91
        4
 64
     7
 65
   257
 75
     1
175
     1
 42
1.0
 92
        0
 66
   257
 43
1.0
 76
     1
 77
     6
 78
     2
 67
     7
 79
     5
170
     0
171
     0
290
     0
174
     0
 93
        1
 44
0.0
173
     0
291
     1
 45
0.0
1001
ACAD
1000
AcDbSavedByObjectVersion
1070
     0
  0
VISUALSTYLE
  5
14D
102
{ACAD_XDICTIONARY
360
1C8F
102
}
102
{ACAD_REACTORS
330
99
102
}
330
99
100
AcDbVisualStyle
  2

 70
     6
 71
     1
 72
     2
 73
     2
 90
        0
 40
-0.6
 41
-30.0
 62
     5
 63
     7
 74
     2
 91
        2
 64
     7
 65
   257
 75
     2
175
     1
 42
40.0
 92
        0
 66
   257
 43
1.0
 76
     1
 77
     6
 78
     2
 67
     7
 79
     3
170
     0
171
     0
290
     0
174
     0
 93
        1
 44
0.0
173
     0
291
     0
 45
0.0
1001
ACAD
1000
AcDbSavedByObjectVersion
1070
     0
  0
VISUALSTYLE
  5
153
102
{ACAD_XDICTIONARY
360
1C9B
102
}
102
{ACAD_REACTORS
330
99
102
}
330
99
100
AcDbVisualStyle
  2

 70
    20
 71
     2
 72
     2
 73
     0
 90
        0
 40
-0.6
 41
-30.0
 62
     5
 63
     7
 74
     1
 91
        4
 64
     7
 65
   257
 75
     1
175
     1
 42
1.0
 92
       10
 66
     7
 43
1.0
 76
     1
 77
     6
 78
     2
 67
     7
 79
     5
170
     0
171
     0
290
     0
174
     0
 93
        1
 44
0.0
173
     0
291
     1
 45
0.0
1001
ACAD
1000
AcDbSavedByObjectVersion
1070
     0
  0
VISUALSTYLE
  5
A7
102
{ACAD_XDICTIONARY
360
1C87
102
}
102
{ACAD_REACTORS
330
99
102
}
330
99
100
AcDbVisualStyle
  2

 70
    14
 71
     2
 72
     2
 73
     1
 90
        0
 40
-0.6
 41
-30.0
 62
     5
 63
     7
 74
     1
 91
        4
 64
     7
 65
   257
 75
     7
175
     7
 42
1.0
 92
        8
 66
     7
 43
1.0
 76
     1
 77
     6
 78
     2
 67
     7
 79
     5
170
     0
171
     0
290
     0
174
     0
 93
        1
 44
0.0
173
     0
291
     1
 45
0.0
1001
ACAD
1000
AcDbSavedByObjectVersion
1070
     0
  0
VISUALSTYLE
  5
154
102
{ACAD_XDICTIONARY
360
1C9D
102
}
102
{ACAD_REACTORS
330
99
102
}
330
99
100
AcDbVisualStyle
  2

 70
    21
 71
     2
 72
     2
 73
     0
 90
        0
 40
-0.6
 41
-30.0
 62
     5
 63
     7
 74
     1
 91
        4
 64
     7
 65
   257
 75
     1
175
     1
 42
1.0
 92
        9
 66
     7
 43
1.0
 76
     1
 77
     6
 78
     2
 67
     7
 79
     5
170
     0
171
     0
290
     0
174
     0
 93
        1
 44
0.0
173
     0
291
     1
 45
0.0
1001
ACAD
1000
AcDbSavedByObjectVersion
1070
     0
  0
VISUALSTYLE
  5
A3
102
{ACAD_XDICTIONARY
360
1C7F
102
}
102
{ACAD_REACTORS
330
99
102
}
330
99
100
AcDbVisualStyle
  2

 70
     8
 71
     2
 72
     2
 73
     1
 90
        0
 40
-0.6
 41
-30.0
 62
     5
 63
     7
 74
     1
 91
        0
 64
     7
 65
   257
 75
     1
175
     1
 42
1.0
 92
        8
 66
     8
 43
1.0
 76
     1
 77
     6
 78
     2
 67
     7
 79
     5
170
     0
171
     0
290
     0
174
     0
 93
       13
 44
0.0
173
     0
291
     0
 45
0.0
1001
ACAD
1000
AcDbSavedByObjectVersion
1070
     0
  0
VISUALSTYLE
  5
152
102
{ACAD_XDICTIONARY
360
1C99
102
}
102
{ACAD_REACTORS
330
99
102
}
330
99
100
AcDbVisualStyle
  2

 70
    27
 71
     2
 72
     2
 73
     1
 90
        2
 40
-0.6
 41
30.0
 62
     5
 63
     7
 74
     0
 91
        4
 64
     7
 65
   257
 75
     1
175
     1
 42
1.0
 92
        8
 66
   257
 43
1.0
 76
     1
 77
     6
 78
     2
 67
     8
 79
     3
170
     0
171
     0
290
     0
174
     0
 93
        5
 44
0.0
173
     0
291
     0
 45
0.0
1001
ACAD
1000
AcDbSavedByObjectVersion
1070
     0
  0
VISUALSTYLE
  5
151
102
{ACAD_XDICTIONARY
360
1C97
102
}
102
{ACAD_REACTORS
330
99
102
}
330
99
100
AcDbVisualStyle
  2

 70
    26
 71
     2
 72
     2
 73
     1
 90
        2
 40
-0.6
 41
30.0
 62
     5
 63
     7
 74
     1
 91
       10
 64
     7
 65
   257
 75
     2
175
     1
 42
1.0
 92
        8
 66
   257
 43
1.0
 76
     1
 77
     6
 78
     2
 67
     7
 79
     3
170
     0
171
     0
290
     0
174
     0
 93
        5
 44
0.0
173
     0
291
     0
 45
0.0
1001
ACAD
1000
AcDbSavedByObjectVersion
1070
     0
  0
VISUALSTYLE
  5
14E
102
{ACAD_XDICTIONARY
360
1C91
102
}
102
{ACAD_REACTORS
330
99
102
}
330
99
100
AcDbVisualStyle
  2

 70
    23
 71
     2
 72
     2
 73
     3
 90
        0
 40
-0.6
 41
-30.0
 62
     5
 63
     7
 74
     2
 91
        2
 64
     7
 65
     7
 75
     1
175
     1
 42
40.0
 92
        8
 66
     7
 43
1.0
 76
     1
 77
     6
 78
     2
 67
     7
 79
     3
170
     0
171
     0
290
     0
174
     0
 93
        1
 44
0.0
173
     0
291
     0
 45
0.0
1001
ACAD
1000
AcDbSavedByObjectVersion
1070
     0
  0
VISUALSTYLE
  5
14F
102
{ACAD_XDICTIONARY
360
1C93
102
}
102
{ACAD_REACTORS
330
99
102
}
330
99
100
AcDbVisualStyle
  2

 70
    24
 71
     1
 72
     2
 73
     2
 90
        0
 40
-0.6
 41
-30.0
 62
     5
 63
     7
 74
     2
 91
        2
 64
     7
 65
     7
 75
     1
175
     1
 42
40.0
 92
       11
 66
     7
 43
1.0
 76
     1
 77
     6
 78
     2
 67
     7
 79
     6
170
     0
171
     0
290
     0
174
     0
 93
        1
 44
0.0
173
     0
291
     0
 45
0.0
1001
ACAD
1000
AcDbSavedByObjectVersion
1070
     0
  0
VISUALSTYLE
  5
A6
102
{ACAD_XDICTIONARY
360
1C85
102
}
102
{ACAD_REACTORS
330
99
102
}
330
99
100
AcDbVisualStyle
  2

 70
    13
 71
     2
 72
     2
 73
     1
 90
        0
 40
-0.6
 41
-30.0
 62
     5
 63
     7
 74
     1
 91
        4
 64
     7
 65
   257
 75
     1
175
     1
 42
1.0
 92
       12
 66
     7
 43
1.0
 76
     1
 77
     6
 78
     2
 67
     7
 79
     5
170
     0
171
     0
290
     0
174
     0
 93
        1
 44
0.0
173
     0
291
     1
 45
0.0
1001
ACAD
1000
AcDbSavedByObjectVersion
1070
     0
  0
VISUALSTYLE
  5
14C
102
{ACAD_XDICTIONARY
360
1C8D
102
}
102
{ACAD_REACTORS
330
99
102
}
330
99
100
AcDbVisualStyle
  2

 70
     5
 71
     0
 72
     2
 73
     0
 90
        0
 40
-0.6
 41
-30.0
 62
     5
 63
     7
 74
     1
 91
        4
 64
     7
 65
   257
 75
     1
175
     1
 42
1.0
 92
        0
 66
   257
 43
1.0
 76
     1
 77
     6
 78
     2
 67
     7
 79
     3
170
     0
171
     0
290
     0
174
     0
 93
        1
 44
0.0
173
     0
291
     0
 45
0.0
1001
ACAD
1000
AcDbSavedByObjectVersion
1070
     0
  0
VISUALSTYLE
  5
150
102
{ACAD_XDICTIONARY
360
1C95
102
}
102
{ACAD_REACTORS
330
99
102
}
330
99
100
AcDbVisualStyle
  2

 70
    25
 71
     2
 72
     2
 73
     1
 90
        1
 40
0.5
 41
-30.0
 62
     5
 63
     7
 74
     1
 91
        0
 64
     7
 65
   257
 75
     1
175
     1
 42
1.0
 92
        8
 66
     7
 43
1.0
 76
     1
 77
     6
 78
     2
 67
     7
 79
     3
170
     0
171
     0
290
     0
174
     0
 93
       13
 44
0.0
173
     0
291
     0
 45
0.0
1001
ACAD
1000
AcDbSavedByObjectVersion
1070
     0
  0
DICTIONARYVAR
  5
981
102
{ACAD_REACTORS
330
66
102
}
330
66
100
DictionaryVariables
280
     0
  1
1:1
  0
DICTIONARYVAR
  5
980
102
{ACAD_REACTORS
330
66
102
}
330
66
100
DictionaryVariables
280
     0
  1
STANDARD
  0
DICTIONARYVAR
  5
89
102
{ACAD_REACTORS
330
66
102
}
330
66
100
DictionaryVariables
280
     0
  1
STANDARD
  0
DICTIONARYVAR
  5
67
102
{ACAD_REACTORS
330
66
102
}
330
66
100
DictionaryVariables
280
     0
  1
2
  0
DICTIONARYVAR
  5
6B
102
{ACAD_REACTORS
330
66
102
}
330
66
100
DictionaryVariables
280
     0
  1
1
  0
DICTIONARYVAR
  5
983
102
{ACAD_REACTORS
330
66
102
}
330
66
100
DictionaryVariables
280
     0
  1
0
  0
DICTIONARYVAR
  5
982
102
{ACAD_REACTORS
330
66
102
}
330
66
100
DictionaryVariables
280
     0
  1
127
  0
DICTIONARYVAR
  5
19E4
102
{ACAD_REACTORS
330
66
102
}
330
66
100
DictionaryVariables
280
     0
  1
2
  0
DICTIONARY
  5
1C66
330
22
100
AcDbDictionary
280
     1
281
     1
  3
ACAD_XREC_ROUNDTRIP
360
1C67
  0
DICTIONARY
  5
1C68
330
59
100
AcDbDictionary
280
     1
281
     1
  3
ACAD_XREC_ROUNDTRIP
360
1C69
  0
DICTIONARY
  5
1C6A
330
5E
100
AcDbDictionary
280
     1
281
     1
  3
ACAD_XREC_ROUNDTRIP
360
1C6B
  0
DICTIONARY
  5
996
330
97
100
AcDbDictionary
280
     1
281
     1
  3
ACAD_XREC_ROUNDTRIP
360
997
  0
DICTIONARY
  5
994
330
96
100
AcDbDictionary
280
     1
281
     1
  3
ACAD_XREC_ROUNDTRIP
360
995
  0
DICTIONARY
  5
998
330
98
100
AcDbDictionary
280
     1
281
     1
  3
ACAD_XREC_ROUNDTRIP
360
999
  0
DICTIONARY
  5
985
330
87
100
AcDbDictionary
280
     1
281
     1
  3
ACAD_ROUNDTRIP_2008_TABLESTYLE_CELLSTYLEMAP
360
1C5F
  3
ACAD_XREC_ROUNDTRIP
360
1C6C
  0
DICTIONARY
  5
1C77
330
9F
100
AcDbDictionary
280
     1
281
     1
  3
ACAD_XREC_ROUNDTRIP
360
1C78
  0
DICTIONARY
  5
1C7B
330
A1
100
AcDbDictionary
280
     1
281
     1
  3
ACAD_XREC_ROUNDTRIP
360
1C7C
  0
DICTIONARY
  5
1C79
330
A0
100
AcDbDictionary
280
     1
281
     1
  3
ACAD_XREC_ROUNDTRIP
360
1C7A
  0
DICTIONARY
  5
1C75
330
9E
100
AcDbDictionary
280
     1
281
     1
  3
ACAD_XREC_ROUNDTRIP
360
1C76
  0
DICTIONARY
  5
1C83
330
A5
100
AcDbDictionary
280
     1
281
     1
  3
ACAD_XREC_ROUNDTRIP
360
1C84
  0
DICTIONARY
  5
1C8B
330
A9
100
AcDbDictionary
280
     1
281
     1
  3
ACAD_XREC_ROUNDTRIP
360
1C8C
  0
DICTIONARY
  5
1C7D
330
A2
100
AcDbDictionary
280
     1
281
     1
  3
ACAD_XREC_ROUNDTRIP
360
1C7E
  0
DICTIONARY
  5
1C81
330
A4
100
AcDbDictionary
280
     1
281
     1
  3
ACAD_XREC_ROUNDTRIP
360
1C82
  0
DICTIONARY
  5
1C9F
330
155
100
AcDbDictionary
280
     1
281
     1
  3
ACAD_XREC_ROUNDTRIP
360
1CA0
  0
DICTIONARY
  5
1C89
330
A8
100
AcDbDictionary
280
     1
281
     1
  3
ACAD_XREC_ROUNDTRIP
360
1C8A
  0
DICTIONARY
  5
1C6D
330
9A
100
AcDbDictionary
280
     1
281
     1
  3
ACAD_XREC_ROUNDTRIP
360
1C6E
  0
DICTIONARY
  5
1C6F
330
9B
100
AcDbDictionary
280
     1
281
     1
  3
ACAD_XREC_ROUNDTRIP
360
1C70
  0
DICTIONARY
  5
1C71
330
9C
100
AcDbDictionary
280
     1
281
     1
  3
ACAD_XREC_ROUNDTRIP
360
1C72
  0
DICTIONARY
  5
1C73
330
9D
100
AcDbDictionary
280
     1
281
     1
  3
ACAD_XREC_ROUNDTRIP
360
1C74
  0
DICTIONARY
  5
1C8F
330
14D
100
AcDbDictionary
280
     1
281
     1
  3
ACAD_XREC_ROUNDTRIP
360
1C90
  0
DICTIONARY
  5
1C9B
330
153
100
AcDbDictionary
280
     1
281
     1
  3
ACAD_XREC_ROUNDTRIP
360
1C9C
  0
DICTIONARY
  5
1C87
330
A7
100
AcDbDictionary
280
     1
281
     1
  3
ACAD_XREC_ROUNDTRIP
360
1C88
  0
DICTIONARY
  5
1C9D
330
154
100
AcDbDictionary
280
     1
281
     1
  3
ACAD_XREC_ROUNDTRIP
360
1C9E
  0
DICTIONARY
  5
1C7F
330
A3
100
AcDbDictionary
280
     1
281
     1
  3
ACAD_XREC_ROUNDTRIP
360
1C80
  0
DICTIONARY
  5
1C99
330
152
100
AcDbDictionary
280
     1
281
     1
  3
ACAD_XREC_ROUNDTRIP
360
1C9A
  0
DICTIONARY
  5
1C97
330
151
100
AcDbDictionary
280
     1
281
     1
  3
ACAD_XREC_ROUNDTRIP
360
1C98
  0
DICTIONARY
  5
1C91
330
14E
100
AcDbDictionary
280
     1
281
     1
  3
ACAD_XREC_ROUNDTRIP
360
1C92
  0
DICTIONARY
  5
1C93
330
14F
100
AcDbDictionary
280
     1
281
     1
  3
ACAD_XREC_ROUNDTRIP
360
1C94
  0
DICTIONARY
  5
1C85
330
A6
100
AcDbDictionary
280
     1
281
     1
  3
ACAD_XREC_ROUNDTRIP
360
1C86
  0
DICTIONARY
  5
1C8D
330
14C
100
AcDbDictionary
280
     1
281
     1
  3
ACAD_XREC_ROUNDTRIP
360
1C8E
  0
DICTIONARY
  5
1C95
330
150
100
AcDbDictionary
280
     1
281
     1
  3
ACAD_XREC_ROUNDTRIP
360
1C96
  0
XRECORD
  5
1C67
102
{ACAD_REACTORS
330
1C66
102
}
330
1C66
100
AcDbXrecord
280
     1
102
SHADEPLOT
 70
     0
102
SHADEPLOTRESLEVEL
 70
     2
102
SHADEPLOTCUSTOMDPI
 70
   300
  0
XRECORD
  5
1C69
102
{ACAD_REACTORS
330
1C68
102
}
330
1C68
100
AcDbXrecord
280
     1
102
SHADEPLOT
 70
     0
102
SHADEPLOTRESLEVEL
 70
     2
102
SHADEPLOTCUSTOMDPI
 70
   300
  0
XRECORD
  5
1C6B
102
{ACAD_REACTORS
330
1C6A
102
}
330
1C6A
100
AcDbXrecord
280
     1
102
SHADEPLOT
 70
     0
102
SHADEPLOTRESLEVEL
 70
     2
102
SHADEPLOTCUSTOMDPI
 70
   300
  0
XRECORD
  5
997
102
{ACAD_REACTORS
330
996
102
}
330
996
100
AcDbXrecord
280
     1
102
MATERIAL
148
0.0
149
0.0
149
0.0
 93
        0
 94
      127
282
     0
 72
     1
 77
     1
171
     1
175
     1
179
     1
273
     0
  0
XRECORD
  5
995
102
{ACAD_REACTORS
330
994
102
}
330
994
100
AcDbXrecord
280
     1
102
MATERIAL
148
0.0
149
0.0
149
0.0
 93
        0
 94
      127
282
     0
 72
     1
 77
     1
171
     1
175
     1
179
     1
273
     0
  0
XRECORD
  5
999
102
{ACAD_REACTORS
330
998
102
}
330
998
100
AcDbXrecord
280
     1
102
MATERIAL
148
0.0
149
0.0
149
0.0
 93
        0
 94
      127
282
     0
 72
     1
 77
     1
171
     1
175
     1
179
     1
273
     0
  0
CELLSTYLEMAP
  5
1C5F
102
{ACAD_REACTORS
330
985
102
}
330
985
100
AcDbCellStyleMap
 90
        3
300
CELLSTYLE
  1
TABLEFORMAT_BEGIN
 90
        5
170
     1
 91
        0
 92
    32768
 62
   257
 93
        1
300
CONTENTFORMAT
  1
CONTENTFORMAT_BEGIN
 90
        0
 91
        0
 92
      512
 93
        0
300

 40
0.0
140
1.0
 94
        5
 62
     0
340
11
144
0.25
309
CONTENTFORMAT_END
171
     1
301
MARGIN
  1
CELLMARGIN_BEGIN
 40
0.06
 40
0.06
 40
0.06
 40
0.06
 40
0.18
 40
0.18
309
CELLMARGIN_END
 94
        6
 95
        1
302
GRIDFORMAT
  1
GRIDFORMAT_BEGIN
 90
        0
 91
        1
 62
     0
 92
       -2
340
0
 93
        0
 40
0.045
309
GRIDFORMAT_END
 95
        2
302
GRIDFORMAT
  1
GRIDFORMAT_BEGIN
 90
        0
 91
        1
 62
     0
 92
       -2
340
0
 93
        0
 40
0.045
309
GRIDFORMAT_END
 95
        4
302
GRIDFORMAT
  1
GRIDFORMAT_BEGIN
 90
        0
 91
        1
 62
     0
 92
       -2
340
0
 93
        0
 40
0.045
309
GRIDFORMAT_END
 95
        8
302
GRIDFORMAT
  1
GRIDFORMAT_BEGIN
 90
        0
 91
        1
 62
     0
 92
       -2
340
0
 93
        0
 40
0.045
309
GRIDFORMAT_END
 95
       16
302
GRIDFORMAT
  1
GRIDFORMAT_BEGIN
 90
        0
 91
        1
 62
     0
 92
       -2
340
0
 93
        0
 40
0.045
309
GRIDFORMAT_END
 95
       32
302
GRIDFORMAT
  1
GRIDFORMAT_BEGIN
 90
        0
 91
        1
 62
     0
 92
       -2
340
0
 93
        0
 40
0.045
309
GRIDFORMAT_END
309
TABLEFORMAT_END
  1
CELLSTYLE_BEGIN
 90
        1
 91
        1
300
_TITLE
309
CELLSTYLE_END
300
CELLSTYLE
  1
TABLEFORMAT_BEGIN
 90
        5
170
     1
 91
        0
 92
        0
 62
   257
 93
        1
300
CONTENTFORMAT
  1
CONTENTFORMAT_BEGIN
 90
        0
 91
        0
 92
      512
 93
        0
300

 40
0.0
140
1.0
 94
        5
 62
     0
340
11
144
0.18
309
CONTENTFORMAT_END
171
     1
301
MARGIN
  1
CELLMARGIN_BEGIN
 40
0.06
 40
0.06
 40
0.06
 40
0.06
 40
0.18
 40
0.18
309
CELLMARGIN_END
 94
        6
 95
        1
302
GRIDFORMAT
  1
GRIDFORMAT_BEGIN
 90
        0
 91
        1
 62
     0
 92
       -2
340
0
 93
        0
 40
0.045
309
GRIDFORMAT_END
 95
        2
302
GRIDFORMAT
  1
GRIDFORMAT_BEGIN
 90
        0
 91
        1
 62
     0
 92
       -2
340
0
 93
        0
 40
0.045
309
GRIDFORMAT_END
 95
        4
302
GRIDFORMAT
  1
GRIDFORMAT_BEGIN
 90
        0
 91
        1
 62
     0
 92
       -2
340
0
 93
        0
 40
0.045
309
GRIDFORMAT_END
 95
        8
302
GRIDFORMAT
  1
GRIDFORMAT_BEGIN
 90
        0
 91
        1
 62
     0
 92
       -2
340
0
 93
        0
 40
0.045
309
GRIDFORMAT_END
 95
       16
302
GRIDFORMAT
  1
GRIDFORMAT_BEGIN
 90
        0
 91
        1
 62
     0
 92
       -2
340
0
 93
        0
 40
0.045
309
GRIDFORMAT_END
 95
       32
302
GRIDFORMAT
  1
GRIDFORMAT_BEGIN
 90
        0
 91
        1
 62
     0
 92
       -2
340
0
 93
        0
 40
0.045
309
GRIDFORMAT_END
309
TABLEFORMAT_END
  1
CELLSTYLE_BEGIN
 90
        2
 91
        1
300
_HEADER
309
CELLSTYLE_END
300
CELLSTYLE
  1
TABLEFORMAT_BEGIN
 90
        5
170
     1
 91
        0
 92
        0
 62
   257
 93
        1
300
CONTENTFORMAT
  1
CONTENTFORMAT_BEGIN
 90
        0
 91
        0
 92
      512
 93
        0
300

 40
0.0
140
1.0
 94
        2
 62
     0
340
11
144
0.18
309
CONTENTFORMAT_END
171
     1
301
MARGIN
  1
CELLMARGIN_BEGIN
 40
0.06
 40
0.06
 40
0.06
 40
0.06
 40
0.18
 40
0.18
309
CELLMARGIN_END
 94
        6
 95
        1
302
GRIDFORMAT
  1
GRIDFORMAT_BEGIN
 90
        0
 91
        1
 62
     0
 92
       -2
340
0
 93
        0
 40
0.045
309
GRIDFORMAT_END
 95
        2
302
GRIDFORMAT
  1
GRIDFORMAT_BEGIN
 90
        0
 91
        1
 62
     0
 92
       -2
340
0
 93
        0
 40
0.045
309
GRIDFORMAT_END
 95
        4
302
GRIDFORMAT
  1
GRIDFORMAT_BEGIN
 90
        0
 91
        1
 62
     0
 92
       -2
340
0
 93
        0
 40
0.045
309
GRIDFORMAT_END
 95
        8
302
GRIDFORMAT
  1
GRIDFORMAT_BEGIN
 90
        0
 91
        1
 62
     0
 92
       -2
340
0
 93
        0
 40
0.045
309
GRIDFORMAT_END
 95
       16
302
GRIDFORMAT
  1
GRIDFORMAT_BEGIN
 90
        0
 91
        1
 62
     0
 92
       -2
340
0
 93
        0
 40
0.045
309
GRIDFORMAT_END
 95
       32
302
GRIDFORMAT
  1
GRIDFORMAT_BEGIN
 90
        0
 91
        1
 62
     0
 92
       -2
340
0
 93
        0
 40
0.045
309
GRIDFORMAT_END
309
TABLEFORMAT_END
  1
CELLSTYLE_BEGIN
 90
        3
 91
        2
300
_DATA
309
CELLSTYLE_END
  0
XRECORD
  5
1C6C
102
{ACAD_REACTORS
330
985
102
}
330
985
100
AcDbXrecord
280
     1
102
ACAD_ROUNDTRIP_PRE2007_TABLESTYLE
 90
      512
 91
        0
  1

 92
      512
 93
        0
  2

 94
      512
 95
        0
  3

  0
XRECORD
  5
1C78
102
{ACAD_REACTORS
330
1C77
102
}
330
1C77
100
AcDbXrecord
280
     1
102
RTVSPropertyOp0
 70
     1
102
RTVSPropertyOp1
 70
     1
102
RTVSPropertyOp2
 70
     1
102
RTVSPropertyOp3
 70
     1
102
RTVSPropertyOp4
 70
     1
102
RTVSPropertyOp5
 70
     1
102
RTVSPropertyOp6
 70
     1
102
RTVSPropertyOp7
 70
     1
102
RTVSPropertyOp8
 70
     1
102
RTVSPropertyOp9
 70
     1
102
RTVSPropertyOp10
 70
     1
102
RTVSPropertyOp11
 70
     1
102
RTVSPropertyOp12
 70
     1
102
RTVSPropertyOp13
 70
     1
102
RTVSPropertyOp14
 70
     1
102
RTVSPropertyOp15
 70
     1
102
RTVSPropertyOp16
 70
     1
102
RTVSPropertyOp17
 70
     1
102
RTVSPropertyOp18
 70
     1
102
RTVSPropertyOp19
 70
     1
102
RTVSPropertyOp20
 70
     1
102
RTVSPropertyOp21
 70
     1
102
RTVSPropertyOp22
 70
     1
102
RTVSPropertyOp23
 70
     1
102
RTVSPropertyOp24
 70
     1
102
RTVSPropertyOp25
 70
     1
102
RTVSPropertyOp26
 70
     1
102
RTVSPropertyOp27
 70
     1
102
RTVSPropertyOp28
 70
     1
102
RTVSPropertyOp29
 70
     1
102
RTVSPropertyOp30
 70
     1
102
RTVSPropertyOp31
 70
     1
102
RTVSPropertyOp32
 70
     1
  0
XRECORD
  5
1C7C
102
{ACAD_REACTORS
330
1C7B
102
}
330
1C7B
100
AcDbXrecord
280
     1
102
RTVSPropertyOp0
 70
     1
102
RTVSPropertyOp1
 70
     1
102
RTVSPropertyOp2
 70
     1
102
RTVSPropertyOp3
 70
     1
102
RTVSPropertyOp4
 70
     1
102
RTVSPropertyOp5
 70
     1
102
RTVSPropertyOp6
 70
     1
102
RTVSPropertyOp7
 70
     1
102
RTVSPropertyOp8
 70
     1
102
RTVSPropertyOp9
 70
     1
102
RTVSPropertyOp10
 70
     1
102
RTVSPropertyOp11
 70
     1
102
RTVSPropertyOp12
 70
     1
102
RTVSPropertyOp13
 70
     1
102
RTVSPropertyOp14
 70
     1
102
RTVSPropertyOp15
 70
     1
102
RTVSPropertyOp16
 70
     1
102
RTVSPropertyOp17
 70
     1
102
RTVSPropertyOp18
 70
     1
102
RTVSPropertyOp19
 70
     1
102
RTVSPropertyOp20
 70
     1
102
RTVSPropertyOp21
 70
     1
102
RTVSPropertyOp22
 70
     1
102
RTVSPropertyOp23
 70
     1
102
RTVSPropertyOp24
 70
     1
102
RTVSPropertyOp25
 70
     1
102
RTVSPropertyOp26
 70
     1
102
RTVSPropertyOp27
 70
     1
102
RTVSPropertyOp28
 70
     1
102
RTVSPropertyOp29
 70
     1
102
RTVSPropertyOp30
 70
     1
102
RTVSPropertyOp31
 70
     1
102
RTVSPropertyOp32
 70
     1
  0
XRECORD
  5
1C7A
102
{ACAD_REACTORS
330
1C79
102
}
330
1C79
100
AcDbXrecord
280
     1
102
RTVSPropertyOp0
 70
     1
102
RTVSPropertyOp1
 70
     1
102
RTVSPropertyOp2
 70
     1
102
RTVSPropertyOp3
 70
     1
102
RTVSPropertyOp4
 70
     1
102
RTVSPropertyOp5
 70
     1
102
RTVSPropertyOp6
 70
     1
102
RTVSPropertyOp7
 70
     1
102
RTVSPropertyOp8
 70
     1
102
RTVSPropertyOp9
 70
     1
102
RTVSPropertyOp10
 70
     1
102
RTVSPropertyOp11
 70
     1
102
RTVSPropertyOp12
 70
     1
102
RTVSPropertyOp13
 70
     1
102
RTVSPropertyOp14
 70
     1
102
RTVSPropertyOp15
 70
     1
102
RTVSPropertyOp16
 70
     1
102
RTVSPropertyOp17
 70
     1
102
RTVSPropertyOp18
 70
     1
102
RTVSPropertyOp19
 70
     1
102
RTVSPropertyOp20
 70
     1
102
RTVSPropertyOp21
 70
     1
102
RTVSPropertyOp22
 70
     1
102
RTVSPropertyOp23
 70
     1
102
RTVSPropertyOp24
 70
     1
102
RTVSPropertyOp25
 70
     1
102
RTVSPropertyOp26
 70
     1
102
RTVSPropertyOp27
 70
     1
102
RTVSPropertyOp28
 70
     1
102
RTVSPropertyOp29
 70
     1
102
RTVSPropertyOp30
 70
     1
102
RTVSPropertyOp31
 70
     1
102
RTVSPropertyOp32
 70
     1
  0
XRECORD
  5
1C76
102
{ACAD_REACTORS
330
1C75
102
}
330
1C75
100
AcDbXrecord
280
     1
102
RTVSPropertyOp0
 70
     1
102
RTVSPropertyOp1
 70
     1
102
RTVSPropertyOp2
 70
     1
102
RTVSPropertyOp3
 70
     1
102
RTVSPropertyOp4
 70
     1
102
RTVSPropertyOp5
 70
     1
102
RTVSPropertyOp6
 70
     1
102
RTVSPropertyOp7
 70
     1
102
RTVSPropertyOp8
 70
     1
102
RTVSPropertyOp9
 70
     1
102
RTVSPropertyOp10
 70
     1
102
RTVSPropertyOp11
 70
     1
102
RTVSPropertyOp12
 70
     1
102
RTVSPropertyOp13
 70
     1
102
RTVSPropertyOp14
 70
     1
102
RTVSPropertyOp15
 70
     1
102
RTVSPropertyOp16
 70
     1
102
RTVSPropertyOp17
 70
     1
102
RTVSPropertyOp18
 70
     1
102
RTVSPropertyOp19
 70
     1
102
RTVSPropertyOp20
 70
     1
102
RTVSPropertyOp21
 70
     1
102
RTVSPropertyOp22
 70
     1
102
RTVSPropertyOp23
 70
     1
102
RTVSPropertyOp24
 70
     1
102
RTVSPropertyOp25
 70
     1
102
RTVSPropertyOp26
 70
     1
102
RTVSPropertyOp27
 70
     1
102
RTVSPropertyOp28
 70
     1
102
RTVSPropertyOp29
 70
     1
102
RTVSPropertyOp30
 70
     1
102
RTVSPropertyOp31
 70
     1
102
RTVSPropertyOp32
 70
     1
  0
XRECORD
  5
1C84
102
{ACAD_REACTORS
330
1C83
102
}
330
1C83
100
AcDbXrecord
280
     1
102
RTVSPropertyOp0
 70
     1
102
RTVSPropertyOp1
 70
     1
102
RTVSPropertyOp2
 70
     1
102
RTVSPropertyOp3
 70
     1
102
RTVSPropertyOp4
 70
     1
102
RTVSPropertyOp5
 70
     1
102
RTVSPropertyOp6
 70
     1
102
RTVSPropertyOp7
 70
     1
102
RTVSPropertyOp8
 70
     1
102
RTVSPropertyOp9
 70
     1
102
RTVSPropertyOp10
 70
     1
102
RTVSPropertyOp11
 70
     1
102
RTVSPropertyOp12
 70
     1
102
RTVSPropertyOp13
 70
     1
102
RTVSPropertyOp14
 70
     1
102
RTVSPropertyOp15
 70
     1
102
RTVSPropertyOp16
 70
     1
102
RTVSPropertyOp17
 70
     1
102
RTVSPropertyOp18
 70
     1
102
RTVSPropertyOp19
 70
     1
102
RTVSPropertyOp20
 70
     1
102
RTVSPropertyOp21
 70
     1
102
RTVSPropertyOp22
 70
     1
102
RTVSPropertyOp23
 70
     1
102
RTVSPropertyOp24
 70
     1
102
RTVSPropertyOp25
 70
     1
102
RTVSPropertyOp26
 70
     1
102
RTVSPropertyOp27
 70
     1
102
RTVSPropertyOp28
 70
     1
102
RTVSPropertyOp29
 70
     1
102
RTVSPropertyOp30
 70
     1
102
RTVSPropertyOp31
 70
     1
102
RTVSPropertyOp32
 70
     1
  0
XRECORD
  5
1C8C
102
{ACAD_REACTORS
330
1C8B
102
}
330
1C8B
100
AcDbXrecord
280
     1
102
RTVSPropertyOp0
 70
     1
102
RTVSPropertyOp1
 70
     1
102
RTVSPropertyOp2
 70
     1
102
RTVSPropertyOp3
 70
     1
102
RTVSPropertyOp4
 70
     1
102
RTVSPropertyOp5
 70
     1
102
RTVSPropertyOp6
 70
     1
102
RTVSPropertyOp7
 70
     1
102
RTVSPropertyOp8
 70
     1
102
RTVSPropertyOp9
 70
     1
102
RTVSPropertyOp10
 70
     1
102
RTVSPropertyOp11
 70
     1
102
RTVSPropertyOp12
 70
     1
102
RTVSPropertyOp13
 70
     1
102
RTVSPropertyOp14
 70
     1
102
RTVSPropertyOp15
 70
     1
102
RTVSPropertyOp16
 70
     1
102
RTVSPropertyOp17
 70
     1
102
RTVSPropertyOp18
 70
     1
102
RTVSPropertyOp19
 70
     1
102
RTVSPropertyOp20
 70
     1
102
RTVSPropertyOp21
 70
     1
102
RTVSPropertyOp22
 70
     1
102
RTVSPropertyOp23
 70
     1
102
RTVSPropertyOp24
 70
     1
102
RTVSPropertyOp25
 70
     1
102
RTVSPropertyOp26
 70
     1
102
RTVSPropertyOp27
 70
     1
102
RTVSPropertyOp28
 70
     1
102
RTVSPropertyOp29
 70
     1
102
RTVSPropertyOp30
 70
     1
102
RTVSPropertyOp31
 70
     1
102
RTVSPropertyOp32
 70
     1
  0
XRECORD
  5
1C7E
102
{ACAD_REACTORS
330
1C7D
102
}
330
1C7D
100
AcDbXrecord
280
     1
102
RTVSPropertyOp0
 70
     1
102
RTVSPropertyOp1
 70
     1
102
RTVSPropertyOp2
 70
     1
102
RTVSPropertyOp3
 70
     1
102
RTVSPropertyOp4
 70
     1
102
RTVSPropertyOp5
 70
     1
102
RTVSPropertyOp6
 70
     1
102
RTVSPropertyOp7
 70
     1
102
RTVSPropertyOp8
 70
     1
102
RTVSPropertyOp9
 70
     1
102
RTVSPropertyOp10
 70
     1
102
RTVSPropertyOp11
 70
     1
102
RTVSPropertyOp12
 70
     1
102
RTVSPropertyOp13
 70
     1
102
RTVSPropertyOp14
 70
     1
102
RTVSPropertyOp15
 70
     1
102
RTVSPropertyOp16
 70
     1
102
RTVSPropertyOp17
 70
     1
102
RTVSPropertyOp18
 70
     1
102
RTVSPropertyOp19
 70
     1
102
RTVSPropertyOp20
 70
     1
102
RTVSPropertyOp21
 70
     1
102
RTVSPropertyOp22
 70
     1
102
RTVSPropertyOp23
 70
     1
102
RTVSPropertyOp24
 70
     1
102
RTVSPropertyOp25
 70
     1
102
RTVSPropertyOp26
 70
     1
102
RTVSPropertyOp27
 70
     1
102
RTVSPropertyOp28
 70
     1
102
RTVSPropertyOp29
 70
     1
102
RTVSPropertyOp30
 70
     1
102
RTVSPropertyOp31
 70
     1
102
RTVSPropertyOp32
 70
     1
  0
XRECORD
  5
1C82
102
{ACAD_REACTORS
330
1C81
102
}
330
1C81
100
AcDbXrecord
280
     1
102
RTVSPropertyOp0
 70
     1
102
RTVSPropertyOp1
 70
     1
102
RTVSPropertyOp2
 70
     1
102
RTVSPropertyOp3
 70
     1
102
RTVSPropertyOp4
 70
     1
102
RTVSPropertyOp5
 70
     1
102
RTVSPropertyOp6
 70
     1
102
RTVSPropertyOp7
 70
     1
102
RTVSPropertyOp8
 70
     1
102
RTVSPropertyOp9
 70
     1
102
RTVSPropertyOp10
 70
     1
102
RTVSPropertyOp11
 70
     1
102
RTVSPropertyOp12
 70
     1
102
RTVSPropertyOp13
 70
     1
102
RTVSPropertyOp14
 70
     1
102
RTVSPropertyOp15
 70
     1
102
RTVSPropertyOp16
 70
     1
102
RTVSPropertyOp17
 70
     1
102
RTVSPropertyOp18
 70
     1
102
RTVSPropertyOp19
 70
     1
102
RTVSPropertyOp20
 70
     1
102
RTVSPropertyOp21
 70
     1
102
RTVSPropertyOp22
 70
     1
102
RTVSPropertyOp23
 70
     1
102
RTVSPropertyOp24
 70
     1
102
RTVSPropertyOp25
 70
     1
102
RTVSPropertyOp26
 70
     1
102
RTVSPropertyOp27
 70
     1
102
RTVSPropertyOp28
 70
     1
102
RTVSPropertyOp29
 70
     1
102
RTVSPropertyOp30
 70
     1
102
RTVSPropertyOp31
 70
     1
102
RTVSPropertyOp32
 70
     1
  0
XRECORD
  5
1CA0
102
{ACAD_REACTORS
330
1C9F
102
}
330
1C9F
100
AcDbXrecord
280
     1
102
RTVSPropertyOp0
 70
     0
102
RTVSPropertyOp1
 70
     0
102
RTVSPropertyOp2
 70
     0
102
RTVSPropertyOp3
 70
     0
102
RTVSPropertyOp4
 70
     0
102
RTVSPropertyOp5
 70
     0
102
RTVSPropertyOp6
 70
     0
102
RTVSPropertyOp7
 70
     0
102
RTVSPropertyOp8
 70
     0
102
RTVSPropertyOp9
 70
     0
102
RTVSPropertyOp10
 70
     0
102
RTVSPropertyOp11
 70
     0
102
RTVSPropertyOp12
 70
     0
102
RTVSPropertyOp13
 70
     0
102
RTVSPropertyOp14
 70
     2
102
RTVSPropertyOp15
 70
     0
102
RTVSPropertyOp16
 70
     0
102
RTVSPropertyOp17
 70
     0
102
RTVSPropertyOp18
 70
     0
102
RTVSPropertyOp19
 70
     0
102
RTVSPropertyOp20
 70
     0
102
RTVSPropertyOp21
 70
     0
102
RTVSPropertyOp22
 70
     0
102
RTVSPropertyOp23
 70
     0
102
RTVSPropertyOp24
 70
     0
102
RTVSPropertyOp25
 70
     0
102
RTVSPropertyOp26
 70
     0
102
RTVSPropertyOp27
 70
     0
102
RTVSPropertyOp28
 70
     0
102
RTVSPropertyOp29
 70
     0
102
RTVSPropertyOp30
 70
     0
102
RTVSPropertyOp31
 70
     0
102
RTVSPropertyOp32
 70
     0
  0
XRECORD
  5
1C8A
102
{ACAD_REACTORS
330
1C89
102
}
330
1C89
100
AcDbXrecord
280
     1
102
RTVSPropertyOp0
 70
     1
102
RTVSPropertyOp1
 70
     1
102
RTVSPropertyOp2
 70
     1
102
RTVSPropertyOp3
 70
     1
102
RTVSPropertyOp4
 70
     1
102
RTVSPropertyOp5
 70
     1
102
RTVSPropertyOp6
 70
     1
102
RTVSPropertyOp7
 70
     1
102
RTVSPropertyOp8
 70
     1
102
RTVSPropertyOp9
 70
     1
102
RTVSPropertyOp10
 70
     1
102
RTVSPropertyOp11
 70
     1
102
RTVSPropertyOp12
 70
     1
102
RTVSPropertyOp13
 70
     1
102
RTVSPropertyOp14
 70
     1
102
RTVSPropertyOp15
 70
     1
102
RTVSPropertyOp16
 70
     1
102
RTVSPropertyOp17
 70
     1
102
RTVSPropertyOp18
 70
     1
102
RTVSPropertyOp19
 70
     1
102
RTVSPropertyOp20
 70
     1
102
RTVSPropertyOp21
 70
     1
102
RTVSPropertyOp22
 70
     1
102
RTVSPropertyOp23
 70
     1
102
RTVSPropertyOp24
 70
     1
102
RTVSPropertyOp25
 70
     1
102
RTVSPropertyOp26
 70
     1
102
RTVSPropertyOp27
 70
     1
102
RTVSPropertyOp28
 70
     1
102
RTVSPropertyOp29
 70
     1
102
RTVSPropertyOp30
 70
     1
102
RTVSPropertyOp31
 70
     1
102
RTVSPropertyOp32
 70
     1
  0
XRECORD
  5
1C6E
102
{ACAD_REACTORS
330
1C6D
102
}
330
1C6D
100
AcDbXrecord
280
     1
102
RTVSPropertyOp0
 70
     1
102
RTVSPropertyOp1
 70
     1
102
RTVSPropertyOp2
 70
     1
102
RTVSPropertyOp3
 70
     1
102
RTVSPropertyOp4
 70
     1
102
RTVSPropertyOp5
 70
     1
102
RTVSPropertyOp6
 70
     1
102
RTVSPropertyOp7
 70
     1
102
RTVSPropertyOp8
 70
     1
102
RTVSPropertyOp9
 70
     1
102
RTVSPropertyOp10
 70
     1
102
RTVSPropertyOp11
 70
     1
102
RTVSPropertyOp12
 70
     1
102
RTVSPropertyOp13
 70
     1
102
RTVSPropertyOp14
 70
     1
102
RTVSPropertyOp15
 70
     1
102
RTVSPropertyOp16
 70
     1
102
RTVSPropertyOp17
 70
     1
102
RTVSPropertyOp18
 70
     1
102
RTVSPropertyOp19
 70
     1
102
RTVSPropertyOp20
 70
     1
102
RTVSPropertyOp21
 70
     1
102
RTVSPropertyOp22
 70
     1
102
RTVSPropertyOp23
 70
     1
102
RTVSPropertyOp24
 70
     1
102
RTVSPropertyOp25
 70
     1
102
RTVSPropertyOp26
 70
     1
102
RTVSPropertyOp27
 70
     1
102
RTVSPropertyOp28
 70
     1
102
RTVSPropertyOp29
 70
     1
102
RTVSPropertyOp30
 70
     1
102
RTVSPropertyOp31
 70
     1
102
RTVSPropertyOp32
 70
     1
  0
XRECORD
  5
1C70
102
{ACAD_REACTORS
330
1C6F
102
}
330
1C6F
100
AcDbXrecord
280
     1
102
RTVSPropertyOp0
 70
     1
102
RTVSPropertyOp1
 70
     1
102
RTVSPropertyOp2
 70
     1
102
RTVSPropertyOp3
 70
     1
102
RTVSPropertyOp4
 70
     1
102
RTVSPropertyOp5
 70
     1
102
RTVSPropertyOp6
 70
     1
102
RTVSPropertyOp7
 70
     1
102
RTVSPropertyOp8
 70
     1
102
RTVSPropertyOp9
 70
     1
102
RTVSPropertyOp10
 70
     1
102
RTVSPropertyOp11
 70
     1
102
RTVSPropertyOp12
 70
     1
102
RTVSPropertyOp13
 70
     1
102
RTVSPropertyOp14
 70
     1
102
RTVSPropertyOp15
 70
     1
102
RTVSPropertyOp16
 70
     1
102
RTVSPropertyOp17
 70
     1
102
RTVSPropertyOp18
 70
     1
102
RTVSPropertyOp19
 70
     1
102
RTVSPropertyOp20
 70
     1
102
RTVSPropertyOp21
 70
     1
102
RTVSPropertyOp22
 70
     1
102
RTVSPropertyOp23
 70
     1
102
RTVSPropertyOp24
 70
     1
102
RTVSPropertyOp25
 70
     1
102
RTVSPropertyOp26
 70
     1
102
RTVSPropertyOp27
 70
     1
102
RTVSPropertyOp28
 70
     1
102
RTVSPropertyOp29
 70
     1
102
RTVSPropertyOp30
 70
     1
102
RTVSPropertyOp31
 70
     1
102
RTVSPropertyOp32
 70
     1
  0
XRECORD
  5
1C72
102
{ACAD_REACTORS
330
1C71
102
}
330
1C71
100
AcDbXrecord
280
     1
102
RTVSPropertyOp0
 70
     1
102
RTVSPropertyOp1
 70
     1
102
RTVSPropertyOp2
 70
     1
102
RTVSPropertyOp3
 70
     1
102
RTVSPropertyOp4
 70
     1
102
RTVSPropertyOp5
 70
     1
102
RTVSPropertyOp6
 70
     1
102
RTVSPropertyOp7
 70
     1
102
RTVSPropertyOp8
 70
     1
102
RTVSPropertyOp9
 70
     1
102
RTVSPropertyOp10
 70
     1
102
RTVSPropertyOp11
 70
     1
102
RTVSPropertyOp12
 70
     1
102
RTVSPropertyOp13
 70
     1
102
RTVSPropertyOp14
 70
     1
102
RTVSPropertyOp15
 70
     1
102
RTVSPropertyOp16
 70
     1
102
RTVSPropertyOp17
 70
     1
102
RTVSPropertyOp18
 70
     1
102
RTVSPropertyOp19
 70
     1
102
RTVSPropertyOp20
 70
     1
102
RTVSPropertyOp21
 70
     1
102
RTVSPropertyOp22
 70
     1
102
RTVSPropertyOp23
 70
     1
102
RTVSPropertyOp24
 70
     1
102
RTVSPropertyOp25
 70
     1
102
RTVSPropertyOp26
 70
     1
102
RTVSPropertyOp27
 70
     1
102
RTVSPropertyOp28
 70
     1
102
RTVSPropertyOp29
 70
     1
102
RTVSPropertyOp30
 70
     1
102
RTVSPropertyOp31
 70
     1
102
RTVSPropertyOp32
 70
     1
  0
XRECORD
  5
1C74
102
{ACAD_REACTORS
330
1C73
102
}
330
1C73
100
AcDbXrecord
280
     1
102
RTVSPropertyOp0
 70
     1
102
RTVSPropertyOp1
 70
     1
102
RTVSPropertyOp2
 70
     1
102
RTVSPropertyOp3
 70
     1
102
RTVSPropertyOp4
 70
     1
102
RTVSPropertyOp5
 70
     1
102
RTVSPropertyOp6
 70
     1
102
RTVSPropertyOp7
 70
     1
102
RTVSPropertyOp8
 70
     1
102
RTVSPropertyOp9
 70
     1
102
RTVSPropertyOp10
 70
     1
102
RTVSPropertyOp11
 70
     1
102
RTVSPropertyOp12
 70
     1
102
RTVSPropertyOp13
 70
     1
102
RTVSPropertyOp14
 70
     1
102
RTVSPropertyOp15
 70
     1
102
RTVSPropertyOp16
 70
     1
102
RTVSPropertyOp17
 70
     1
102
RTVSPropertyOp18
 70
     1
102
RTVSPropertyOp19
 70
     1
102
RTVSPropertyOp20
 70
     1
102
RTVSPropertyOp21
 70
     1
102
RTVSPropertyOp22
 70
     1
102
RTVSPropertyOp23
 70
     1
102
RTVSPropertyOp24
 70
     1
102
RTVSPropertyOp25
 70
     1
102
RTVSPropertyOp26
 70
     1
102
RTVSPropertyOp27
 70
     1
102
RTVSPropertyOp28
 70
     1
102
RTVSPropertyOp29
 70
     1
102
RTVSPropertyOp30
 70
     1
102
RTVSPropertyOp31
 70
     1
102
RTVSPropertyOp32
 70
     1
  0
XRECORD
  5
1C90
102
{ACAD_REACTORS
330
1C8F
102
}
330
1C8F
100
AcDbXrecord
280
     1
102
RTVSPropertyOp0
 70
     1
102
RTVSPropertyOp1
 70
     1
102
RTVSPropertyOp2
 70
     1
102
RTVSPropertyOp3
 70
     1
102
RTVSPropertyOp4
 70
     1
102
RTVSPropertyOp5
 70
     1
102
RTVSPropertyOp6
 70
     1
102
RTVSPropertyOp7
 70
     1
102
RTVSPropertyOp8
 70
     1
102
RTVSPropertyOp9
 70
     1
102
RTVSPropertyOp10
 70
     1
102
RTVSPropertyOp11
 70
     1
102
RTVSPropertyOp12
 70
     1
102
RTVSPropertyOp13
 70
     1
102
RTVSPropertyOp14
 70
     1
102
RTVSPropertyOp15
 70
     1
102
RTVSPropertyOp16
 70
     1
102
RTVSPropertyOp17
 70
     1
102
RTVSPropertyOp18
 70
     1
102
RTVSPropertyOp19
 70
     1
102
RTVSPropertyOp20
 70
     1
102
RTVSPropertyOp21
 70
     1
102
RTVSPropertyOp22
 70
     1
102
RTVSPropertyOp23
 70
     1
102
RTVSPropertyOp24
 70
     1
102
RTVSPropertyOp25
 70
     1
102
RTVSPropertyOp26
 70
     1
102
RTVSPropertyOp27
 70
     1
102
RTVSPropertyOp28
 70
     1
102
RTVSPropertyOp29
 70
     1
102
RTVSPropertyOp30
 70
     1
102
RTVSPropertyOp31
 70
     1
102
RTVSPropertyOp32
 70
     1
  0
XRECORD
  5
1C9C
102
{ACAD_REACTORS
330
1C9B
102
}
330
1C9B
100
AcDbXrecord
280
     1
102
RTVSPropertyOp0
 70
     0
102
RTVSPropertyOp1
 70
     0
102
RTVSPropertyOp2
 70
     0
102
RTVSPropertyOp3
 70
     0
102
RTVSPropertyOp4
 70
     0
102
RTVSPropertyOp5
 70
     0
102
RTVSPropertyOp6
 70
     0
102
RTVSPropertyOp7
 70
     0
102
RTVSPropertyOp8
 70
     0
102
RTVSPropertyOp9
 70
     0
102
RTVSPropertyOp10
 70
     0
102
RTVSPropertyOp11
 70
     0
102
RTVSPropertyOp12
 70
     0
102
RTVSPropertyOp13
 70
     0
102
RTVSPropertyOp14
 70
     2
102
RTVSPropertyOp15
 70
     0
102
RTVSPropertyOp16
 70
     0
102
RTVSPropertyOp17
 70
     0
102
RTVSPropertyOp18
 70
     0
102
RTVSPropertyOp19
 70
     0
102
RTVSPropertyOp20
 70
     0
102
RTVSPropertyOp21
 70
     0
102
RTVSPropertyOp22
 70
     0
102
RTVSPropertyOp23
 70
     0
102
RTVSPropertyOp24
 70
     0
102
RTVSPropertyOp25
 70
     0
102
RTVSPropertyOp26
 70
     0
102
RTVSPropertyOp27
 70
     0
102
RTVSPropertyOp28
 70
     0
102
RTVSPropertyOp29
 70
     0
102
RTVSPropertyOp30
 70
     0
102
RTVSPropertyOp31
 70
     0
102
RTVSPropertyOp32
 70
     0
  0
XRECORD
  5
1C88
102
{ACAD_REACTORS
330
1C87
102
}
330
1C87
100
AcDbXrecord
280
     1
102
RTVSPropertyOp0
 70
     1
102
RTVSPropertyOp1
 70
     1
102
RTVSPropertyOp2
 70
     1
102
RTVSPropertyOp3
 70
     1
102
RTVSPropertyOp4
 70
     1
102
RTVSPropertyOp5
 70
     1
102
RTVSPropertyOp6
 70
     1
102
RTVSPropertyOp7
 70
     1
102
RTVSPropertyOp8
 70
     1
102
RTVSPropertyOp9
 70
     1
102
RTVSPropertyOp10
 70
     1
102
RTVSPropertyOp11
 70
     1
102
RTVSPropertyOp12
 70
     1
102
RTVSPropertyOp13
 70
     1
102
RTVSPropertyOp14
 70
     1
102
RTVSPropertyOp15
 70
     1
102
RTVSPropertyOp16
 70
     1
102
RTVSPropertyOp17
 70
     1
102
RTVSPropertyOp18
 70
     1
102
RTVSPropertyOp19
 70
     1
102
RTVSPropertyOp20
 70
     1
102
RTVSPropertyOp21
 70
     1
102
RTVSPropertyOp22
 70
     1
102
RTVSPropertyOp23
 70
     1
102
RTVSPropertyOp24
 70
     1
102
RTVSPropertyOp25
 70
     1
102
RTVSPropertyOp26
 70
     1
102
RTVSPropertyOp27
 70
     1
102
RTVSPropertyOp28
 70
     1
102
RTVSPropertyOp29
 70
     1
102
RTVSPropertyOp30
 70
     1
102
RTVSPropertyOp31
 70
     1
102
RTVSPropertyOp32
 70
     1
  0
XRECORD
  5
1C9E
102
{ACAD_REACTORS
330
1C9D
102
}
330
1C9D
100
AcDbXrecord
280
     1
102
RTVSPropertyOp0
 70
     0
102
RTVSPropertyOp1
 70
     0
102
RTVSPropertyOp2
 70
     0
102
RTVSPropertyOp3
 70
     0
102
RTVSPropertyOp4
 70
     0
102
RTVSPropertyOp5
 70
     0
102
RTVSPropertyOp6
 70
     0
102
RTVSPropertyOp7
 70
     0
102
RTVSPropertyOp8
 70
     0
102
RTVSPropertyOp9
 70
     0
102
RTVSPropertyOp10
 70
     0
102
RTVSPropertyOp11
 70
     0
102
RTVSPropertyOp12
 70
     0
102
RTVSPropertyOp13
 70
     0
102
RTVSPropertyOp14
 70
     2
102
RTVSPropertyOp15
 70
     0
102
RTVSPropertyOp16
 70
     0
102
RTVSPropertyOp17
 70
     0
102
RTVSPropertyOp18
 70
     0
102
RTVSPropertyOp19
 70
     0
102
RTVSPropertyOp20
 70
     0
102
RTVSPropertyOp21
 70
     0
102
RTVSPropertyOp22
 70
     0
102
RTVSPropertyOp23
 70
     0
102
RTVSPropertyOp24
 70
     0
102
RTVSPropertyOp25
 70
     0
102
RTVSPropertyOp26
 70
     0
102
RTVSPropertyOp27
 70
     0
102
RTVSPropertyOp28
 70
     0
102
RTVSPropertyOp29
 70
     0
102
RTVSPropertyOp30
 70
     0
102
RTVSPropertyOp31
 70
     0
102
RTVSPropertyOp32
 70
     0
  0
XRECORD
  5
1C80
102
{ACAD_REACTORS
330
1C7F
102
}
330
1C7F
100
AcDbXrecord
280
     1
102
RTVSPropertyOp0
 70
     1
102
RTVSPropertyOp1
 70
     1
102
RTVSPropertyOp2
 70
     1
102
RTVSPropertyOp3
 70
     1
102
RTVSPropertyOp4
 70
     1
102
RTVSPropertyOp5
 70
     1
102
RTVSPropertyOp6
 70
     1
102
RTVSPropertyOp7
 70
     1
102
RTVSPropertyOp8
 70
     1
102
RTVSPropertyOp9
 70
     1
102
RTVSPropertyOp10
 70
     1
102
RTVSPropertyOp11
 70
     1
102
RTVSPropertyOp12
 70
     1
102
RTVSPropertyOp13
 70
     1
102
RTVSPropertyOp14
 70
     1
102
RTVSPropertyOp15
 70
     1
102
RTVSPropertyOp16
 70
     1
102
RTVSPropertyOp17
 70
     1
102
RTVSPropertyOp18
 70
     1
102
RTVSPropertyOp19
 70
     1
102
RTVSPropertyOp20
 70
     1
102
RTVSPropertyOp21
 70
     1
102
RTVSPropertyOp22
 70
     1
102
RTVSPropertyOp23
 70
     1
102
RTVSPropertyOp24
 70
     1
102
RTVSPropertyOp25
 70
     1
102
RTVSPropertyOp26
 70
     1
102
RTVSPropertyOp27
 70
     1
102
RTVSPropertyOp28
 70
     1
102
RTVSPropertyOp29
 70
     1
102
RTVSPropertyOp30
 70
     1
102
RTVSPropertyOp31
 70
     1
102
RTVSPropertyOp32
 70
     1
  0
XRECORD
  5
1C9A
102
{ACAD_REACTORS
330
1C99
102
}
330
1C99
100
AcDbXrecord
280
     1
102
RTVSPropertyOp0
 70
     1
102
RTVSPropertyOp1
 70
     1
102
RTVSPropertyOp2
 70
     1
102
RTVSPropertyOp3
 70
     1
102
RTVSPropertyOp4
 70
     1
102
RTVSPropertyOp5
 70
     1
102
RTVSPropertyOp6
 70
     1
102
RTVSPropertyOp7
 70
     1
102
RTVSPropertyOp8
 70
     1
102
RTVSPropertyOp9
 70
     1
102
RTVSPropertyOp10
 70
     1
102
RTVSPropertyOp11
 70
     1
102
RTVSPropertyOp12
 70
     1
102
RTVSPropertyOp13
 70
     1
102
RTVSPropertyOp14
 70
     1
102
RTVSPropertyOp15
 70
     1
102
RTVSPropertyOp16
 70
     1
102
RTVSPropertyOp17
 70
     1
102
RTVSPropertyOp18
 70
     1
102
RTVSPropertyOp19
 70
     1
102
RTVSPropertyOp20
 70
     1
102
RTVSPropertyOp21
 70
     1
102
RTVSPropertyOp22
 70
     1
102
RTVSPropertyOp23
 70
     1
102
RTVSPropertyOp24
 70
     1
102
RTVSPropertyOp25
 70
     1
102
RTVSPropertyOp26
 70
     1
102
RTVSPropertyOp27
 70
     1
102
RTVSPropertyOp28
 70
     1
102
RTVSPropertyOp29
 70
     1
102
RTVSPropertyOp30
 70
     1
102
RTVSPropertyOp31
 70
     1
102
RTVSPropertyOp32
 70
     1
  0
XRECORD
  5
1C98
102
{ACAD_REACTORS
330
1C97
102
}
330
1C97
100
AcDbXrecord
280
     1
102
RTVSPropertyOp0
 70
     1
102
RTVSPropertyOp1
 70
     1
102
RTVSPropertyOp2
 70
     1
102
RTVSPropertyOp3
 70
     1
102
RTVSPropertyOp4
 70
     1
102
RTVSPropertyOp5
 70
     1
102
RTVSPropertyOp6
 70
     1
102
RTVSPropertyOp7
 70
     1
102
RTVSPropertyOp8
 70
     1
102
RTVSPropertyOp9
 70
     1
102
RTVSPropertyOp10
 70
     1
102
RTVSPropertyOp11
 70
     1
102
RTVSPropertyOp12
 70
     1
102
RTVSPropertyOp13
 70
     1
102
RTVSPropertyOp14
 70
     1
102
RTVSPropertyOp15
 70
     1
102
RTVSPropertyOp16
 70
     1
102
RTVSPropertyOp17
 70
     1
102
RTVSPropertyOp18
 70
     1
102
RTVSPropertyOp19
 70
     1
102
RTVSPropertyOp20
 70
     1
102
RTVSPropertyOp21
 70
     1
102
RTVSPropertyOp22
 70
     1
102
RTVSPropertyOp23
 70
     1
102
RTVSPropertyOp24
 70
     1
102
RTVSPropertyOp25
 70
     1
102
RTVSPropertyOp26
 70
     1
102
RTVSPropertyOp27
 70
     1
102
RTVSPropertyOp28
 70
     1
102
RTVSPropertyOp29
 70
     1
102
RTVSPropertyOp30
 70
     1
102
RTVSPropertyOp31
 70
     1
102
RTVSPropertyOp32
 70
     1
  0
XRECORD
  5
1C92
102
{ACAD_REACTORS
330
1C91
102
}
330
1C91
100
AcDbXrecord
280
     1
102
RTVSPropertyOp0
 70
     1
102
RTVSPropertyOp1
 70
     1
102
RTVSPropertyOp2
 70
     1
102
RTVSPropertyOp3
 70
     1
102
RTVSPropertyOp4
 70
     1
102
RTVSPropertyOp5
 70
     1
102
RTVSPropertyOp6
 70
     1
102
RTVSPropertyOp7
 70
     1
102
RTVSPropertyOp8
 70
     1
102
RTVSPropertyOp9
 70
     1
102
RTVSPropertyOp10
 70
     1
102
RTVSPropertyOp11
 70
     1
102
RTVSPropertyOp12
 70
     1
102
RTVSPropertyOp13
 70
     1
102
RTVSPropertyOp14
 70
     1
102
RTVSPropertyOp15
 70
     1
102
RTVSPropertyOp16
 70
     1
102
RTVSPropertyOp17
 70
     1
102
RTVSPropertyOp18
 70
     1
102
RTVSPropertyOp19
 70
     1
102
RTVSPropertyOp20
 70
     1
102
RTVSPropertyOp21
 70
     1
102
RTVSPropertyOp22
 70
     1
102
RTVSPropertyOp23
 70
     1
102
RTVSPropertyOp24
 70
     1
102
RTVSPropertyOp25
 70
     1
102
RTVSPropertyOp26
 70
     1
102
RTVSPropertyOp27
 70
     1
102
RTVSPropertyOp28
 70
     1
102
RTVSPropertyOp29
 70
     1
102
RTVSPropertyOp30
 70
     1
102
RTVSPropertyOp31
 70
     1
102
RTVSPropertyOp32
 70
     1
  0
XRECORD
  5
1C94
102
{ACAD_REACTORS
330
1C93
102
}
330
1C93
100
AcDbXrecord
280
     1
102
RTVSPropertyOp0
 70
     1
102
RTVSPropertyOp1
 70
     1
102
RTVSPropertyOp2
 70
     1
102
RTVSPropertyOp3
 70
     1
102
RTVSPropertyOp4
 70
     1
102
RTVSPropertyOp5
 70
     1
102
RTVSPropertyOp6
 70
     1
102
RTVSPropertyOp7
 70
     1
102
RTVSPropertyOp8
 70
     1
102
RTVSPropertyOp9
 70
     1
102
RTVSPropertyOp10
 70
     1
102
RTVSPropertyOp11
 70
     1
102
RTVSPropertyOp12
 70
     1
102
RTVSPropertyOp13
 70
     1
102
RTVSPropertyOp14
 70
     1
102
RTVSPropertyOp15
 70
     1
102
RTVSPropertyOp16
 70
     1
102
RTVSPropertyOp17
 70
     1
102
RTVSPropertyOp18
 70
     1
102
RTVSPropertyOp19
 70
     1
102
RTVSPropertyOp20
 70
     1
102
RTVSPropertyOp21
 70
     1
102
RTVSPropertyOp22
 70
     1
102
RTVSPropertyOp23
 70
     1
102
RTVSPropertyOp24
 70
     1
102
RTVSPropertyOp25
 70
     1
102
RTVSPropertyOp26
 70
     1
102
RTVSPropertyOp27
 70
     1
102
RTVSPropertyOp28
 70
     1
102
RTVSPropertyOp29
 70
     1
102
RTVSPropertyOp30
 70
     1
102
RTVSPropertyOp31
 70
     1
102
RTVSPropertyOp32
 70
     1
  0
XRECORD
  5
1C86
102
{ACAD_REACTORS
330
1C85
102
}
330
1C85
100
AcDbXrecord
280
     1
102
RTVSPropertyOp0
 70
     1
102
RTVSPropertyOp1
 70
     1
102
RTVSPropertyOp2
 70
     1
102
RTVSPropertyOp3
 70
     1
102
RTVSPropertyOp4
 70
     1
102
RTVSPropertyOp5
 70
     1
102
RTVSPropertyOp6
 70
     1
102
RTVSPropertyOp7
 70
     1
102
RTVSPropertyOp8
 70
     1
102
RTVSPropertyOp9
 70
     1
102
RTVSPropertyOp10
 70
     1
102
RTVSPropertyOp11
 70
     1
102
RTVSPropertyOp12
 70
     1
102
RTVSPropertyOp13
 70
     1
102
RTVSPropertyOp14
 70
     1
102
RTVSPropertyOp15
 70
     1
102
RTVSPropertyOp16
 70
     1
102
RTVSPropertyOp17
 70
     1
102
RTVSPropertyOp18
 70
     1
102
RTVSPropertyOp19
 70
     1
102
RTVSPropertyOp20
 70
     1
102
RTVSPropertyOp21
 70
     1
102
RTVSPropertyOp22
 70
     1
102
RTVSPropertyOp23
 70
     1
102
RTVSPropertyOp24
 70
     1
102
RTVSPropertyOp25
 70
     1
102
RTVSPropertyOp26
 70
     1
102
RTVSPropertyOp27
 70
     1
102
RTVSPropertyOp28
 70
     1
102
RTVSPropertyOp29
 70
     1
102
RTVSPropertyOp30
 70
     1
102
RTVSPropertyOp31
 70
     1
102
RTVSPropertyOp32
 70
     1
  0
XRECORD
  5
1C8E
102
{ACAD_REACTORS
330
1C8D
102
}
330
1C8D
100
AcDbXrecord
280
     1
102
RTVSPropertyOp0
 70
     1
102
RTVSPropertyOp1
 70
     1
102
RTVSPropertyOp2
 70
     1
102
RTVSPropertyOp3
 70
     1
102
RTVSPropertyOp4
 70
     1
102
RTVSPropertyOp5
 70
     1
102
RTVSPropertyOp6
 70
     1
102
RTVSPropertyOp7
 70
     1
102
RTVSPropertyOp8
 70
     1
102
RTVSPropertyOp9
 70
     1
102
RTVSPropertyOp10
 70
     1
102
RTVSPropertyOp11
 70
     1
102
RTVSPropertyOp12
 70
     1
102
RTVSPropertyOp13
 70
     1
102
RTVSPropertyOp14
 70
     1
102
RTVSPropertyOp15
 70
     1
102
RTVSPropertyOp16
 70
     1
102
RTVSPropertyOp17
 70
     1
102
RTVSPropertyOp18
 70
     1
102
RTVSPropertyOp19
 70
     1
102
RTVSPropertyOp20
 70
     1
102
RTVSPropertyOp21
 70
     1
102
RTVSPropertyOp22
 70
     1
102
RTVSPropertyOp23
 70
     1
102
RTVSPropertyOp24
 70
     1
102
RTVSPropertyOp25
 70
     1
102
RTVSPropertyOp26
 70
     1
102
RTVSPropertyOp27
 70
     1
102
RTVSPropertyOp28
 70
     1
102
RTVSPropertyOp29
 70
     1
102
RTVSPropertyOp30
 70
     1
102
RTVSPropertyOp31
 70
     1
102
RTVSPropertyOp32
 70
     1
  0
XRECORD
  5
1C96
102
{ACAD_REACTORS
330
1C95
102
}
330
1C95
100
AcDbXrecord
280
     1
102
RTVSPropertyOp0
 70
     1
102
RTVSPropertyOp1
 70
     1
102
RTVSPropertyOp2
 70
     1
102
RTVSPropertyOp3
 70
     1
102
RTVSPropertyOp4
 70
     1
102
RTVSPropertyOp5
 70
     1
102
RTVSPropertyOp6
 70
     1
102
RTVSPropertyOp7
 70
     1
102
RTVSPropertyOp8
 70
     1
102
RTVSPropertyOp9
 70
     1
102
RTVSPropertyOp10
 70
     1
102
RTVSPropertyOp11
 70
     1
102
RTVSPropertyOp12
 70
     1
102
RTVSPropertyOp13
 70
     1
102
RTVSPropertyOp14
 70
     1
102
RTVSPropertyOp15
 70
     1
102
RTVSPropertyOp16
 70
     1
102
RTVSPropertyOp17
 70
     1
102
RTVSPropertyOp18
 70
     1
102
RTVSPropertyOp19
 70
     1
102
RTVSPropertyOp20
 70
     1
102
RTVSPropertyOp21
 70
     1
102
RTVSPropertyOp22
 70
     1
102
RTVSPropertyOp23
 70
     1
102
RTVSPropertyOp24
 70
     1
102
RTVSPropertyOp25
 70
     1
102
RTVSPropertyOp26
 70
     1
102
RTVSPropertyOp27
 70
     1
102
RTVSPropertyOp28
 70
     1
102
RTVSPropertyOp29
 70
     1
102
RTVSPropertyOp30
 70
     1
102
RTVSPropertyOp31
 70
     1
102
RTVSPropertyOp32
 70
     1
  0
ENDSEC
  0
EOF
