  0
SECTION
  2
HEADER
  9
$ACADVER
  1
AC1015
  9
$ACADMAINTVER
 70
    20
  9
$DWGCODEPAGE
  3
ANSI_932
  9
$INSBASE
 10
0.0
 20
0.0
 30
0.0
  9
$EXTMIN
 10
1391.673323161295
 20
9.118078647326118
 30
0.0
  9
$EXTMAX
 10
1583.673323161296
 20
290.2402073773262
 30
0.0
  9
$LIMMIN
 10
0.0
 20
0.0
  9
$LIMMAX
 10
12.0
 20
9.0
  9
$ORTHOMODE
 70
     1
  9
$REGENMODE
 70
     1
  9
$FILLMODE
 70
     1
  9
$QTEXTMODE
 70
     0
  9
$MIRRTEXT
 70
     0
  9
$LTSCALE
 40
1.0
  9
$ATTMODE
 70
     1
  9
$TEXTSIZE
 40
3.2
  9
$TRACEWID
 40
0.05
  9
$TEXTSTYLE
  7
高3.2
  9
$CLAYER
  8
0
  9
$CELTYPE
  6
ByLayer
  9
$CECOLOR
 62
   256
  9
$CELTSCALE
 40
1.0
  9
$DISPSILH
 70
     0
  9
$DIMSCALE
 40
1.0
  9
$DIMASZ
 40
2.5
  9
$DIMEXO
 40
0.25
  9
$DIMDLI
 40
0.2
  9
$DIMRND
 40
0.0
  9
$DIMDLE
 40
0.0
  9
$DIMEXE
 40
1.25
  9
$DIMTP
 40
0.0
  9
$DIMTM
 40
0.0
  9
$DIMTXT
 40
3.0
  9
$DIMCEN
 40
0.0
  9
$DIMTSZ
 40
0.0
  9
$DIMTOL
 70
     0
  9
$DIMLIM
 70
     0
  9
$DIMTIH
 70
     0
  9
$DIMTOH
 70
     0
  9
$DIMSE1
 70
     0
  9
$DIMSE2
 70
     0
  9
$DIMTAD
 70
     3
  9
$DIMZIN
 70
     8
  9
$DIMBLK
  1
Open30
  9
$DIMASO
 70
     1
  9
$DIMSHO
 70
     1
  9
$DIMPOST
  1

  9
$DIMAPOST
  1

  9
$DIMALT
 70
     0
  9
$DIMALTD
 70
     3
  9
$DIMALTF
 40
0.03937007874016
  9
$DIMLFAC
 40
1.0
  9
$DIMTOFL
 70
     1
  9
$DIMTVP
 40
0.0
  9
$DIMTIX
 70
     0
  9
$DIMSOXD
 70
     0
  9
$DIMSAH
 70
     0
  9
$DIMBLK1
  1

  9
$DIMBLK2
  1

  9
$DIMSTYLE
  2
1：1
  9
$DIMCLRD
 70
     0
  9
$DIMCLRE
 70
     0
  9
$DIMCLRT
 70
     4
  9
$DIMTFAC
 40
1.0
  9
$DIMGAP
 40
0.625
  9
$DIMJUST
 70
     0
  9
$DIMSD1
 70
     0
  9
$DIMSD2
 70
     0
  9
$DIMTOLJ
 70
     0
  9
$DIMTZIN
 70
     8
  9
$DIMALTZ
 70
     0
  9
$DIMALTTZ
 70
     0
  9
$DIMUPT
 70
     1
  9
$DIMDEC
 70
     2
  9
$DIMTDEC
 70
     2
  9
$DIMALTU
 70
     2
  9
$DIMALTTD
 70
     3
  9
$DIMTXSTY
  7
Standard
  9
$DIMAUNIT
 70
     0
  9
$DIMADEC
 70
     1
  9
$DIMALTRND
 40
0.0
  9
$DIMAZIN
 70
     2
  9
$DIMDSEP
 70
    46
  9
$DIMATFIT
 70
     0
  9
$DIMFRAC
 70
     0
  9
$DIMLDRBLK
  1
Open30
  9
$DIMLUNIT
 70
     2
  9
$DIMLWD
 70
    -2
  9
$DIMLWE
 70
    -2
  9
$DIMTMOVE
 70
     0
  9
$LUNITS
 70
     2
  9
$LUPREC
 70
     4
  9
$SKETCHINC
 40
0.1
  9
$FILLETRAD
 40
0.0
  9
$AUNITS
 70
     0
  9
$AUPREC
 70
     0
  9
$MENU
  1
.
  9
$ELEVATION
 40
0.0
  9
$PELEVATION
 40
0.0
  9
$THICKNESS
 40
0.0
  9
$LIMCHECK
 70
     0
  9
$CHAMFERA
 40
0.0
  9
$CHAMFERB
 40
0.0
  9
$CHAMFERC
 40
0.0
  9
$CHAMFERD
 40
0.0
  9
$SKPOLY
 70
     0
  9
$TDCREATE
 40
2458506.476397593
  9
$TDUCREATE
 40
2458506.101397593
  9
$TDUPDATE
 40
2458561.718444908
  9
$TDUUPDATE
 40
2458561.343444908
  9
$TDINDWG
 40
0.0243758449
  9
$TDUSRTIMER
 40
0.0243756366
  9
$USRTIMER
 70
     1
  9
$ANGBASE
 50
0.0
  9
$ANGDIR
 70
     0
  9
$PDMODE
 70
     0
  9
$PDSIZE
 40
0.0
  9
$PLINEWID
 40
0.0
  9
$SPLFRAME
 70
     0
  9
$SPLINETYPE
 70
     6
  9
$SPLINESEGS
 70
     8
  9
$HANDSEED
  5
1300
  9
$SURFTAB1
 70
     6
  9
$SURFTAB2
 70
     6
  9
$SURFTYPE
 70
     6
  9
$SURFU
 70
     6
  9
$SURFV
 70
     6
  9
$UCSBASE
  2

  9
$UCSNAME
  2

  9
$UCSORG
 10
0.0
 20
0.0
 30
0.0
  9
$UCSXDIR
 10
1.0
 20
0.0
 30
0.0
  9
$UCSYDIR
 10
0.0
 20
1.0
 30
0.0
  9
$UCSORTHOREF
  2

  9
$UCSORTHOVIEW
 70
     0
  9
$UCSORGTOP
 10
0.0
 20
0.0
 30
0.0
  9
$UCSORGBOTTOM
 10
0.0
 20
0.0
 30
0.0
  9
$UCSORGLEFT
 10
0.0
 20
0.0
 30
0.0
  9
$UCSORGRIGHT
 10
0.0
 20
0.0
 30
0.0
  9
$UCSORGFRONT
 10
0.0
 20
0.0
 30
0.0
  9
$UCSORGBACK
 10
0.0
 20
0.0
 30
0.0
  9
$PUCSBASE
  2

  9
$PUCSNAME
  2

  9
$PUCSORG
 10
0.0
 20
0.0
 30
0.0
  9
$PUCSXDIR
 10
1.0
 20
0.0
 30
0.0
  9
$PUCSYDIR
 10
0.0
 20
1.0
 30
0.0
  9
$PUCSORTHOREF
  2

  9
$PUCSORTHOVIEW
 70
     0
  9
$PUCSORGTOP
 10
0.0
 20
0.0
 30
0.0
  9
$PUCSORGBOTTOM
 10
0.0
 20
0.0
 30
0.0
  9
$PUCSORGLEFT
 10
0.0
 20
0.0
 30
0.0
  9
$PUCSORGRIGHT
 10
0.0
 20
0.0
 30
0.0
  9
$PUCSORGFRONT
 10
0.0
 20
0.0
 30
0.0
  9
$PUCSORGBACK
 10
0.0
 20
0.0
 30
0.0
  9
$USERI1
 70
     0
  9
$USERI2
 70
     0
  9
$USERI3
 70
     0
  9
$USERI4
 70
     0
  9
$USERI5
 70
     0
  9
$USERR1
 40
0.0
  9
$USERR2
 40
0.0
  9
$USERR3
 40
0.0
  9
$USERR4
 40
0.0
  9
$USERR5
 40
0.0
  9
$WORLDVIEW
 70
     1
  9
$SHADEDGE
 70
     3
  9
$SHADEDIF
 70
    70
  9
$TILEMODE
 70
     1
  9
$MAXACTVP
 70
    64
  9
$PINSBASE
 10
0.0
 20
0.0
 30
0.0
  9
$PLIMCHECK
 70
     0
  9
$PEXTMIN
 10
0.0
 20
0.0
 30
0.0
  9
$PEXTMAX
 10
0.0
 20
0.0
 30
0.0
  9
$PLIMMIN
 10
0.0
 20
0.0
  9
$PLIMMAX
 10
12.0
 20
9.0
  9
$UNITMODE
 70
     0
  9
$VISRETAIN
 70
     1
  9
$PLINEGEN
 70
     0
  9
$PSLTSCALE
 70
     1
  9
$TREEDEPTH
 70
  3020
  9
$CMLSTYLE
  2
Standard
  9
$CMLJUST
 70
     0
  9
$CMLSCALE
 40
1.0
  9
$PROXYGRAPHICS
 70
     1
  9
$MEASUREMENT
 70
     1
  9
$CELWEIGHT
370
    -1
  9
$ENDCAPS
280
     0
  9
$JOINSTYLE
280
     0
  9
$LWDISPLAY
290
     0
  9
$INSUNITS
 70
     1
  9
$HYPERLINKBASE
  1

  9
$STYLESHEET
  1

  9
$XEDIT
290
     1
  9
$CEPSNTYPE
380
     0
  9
$PSTYLEMODE
290
     1
  9
$FINGERPRINTGUID
  2
{FCF34D8C-D8D3-4CF8-A970-41A511159D8E}
  9
$VERSIONGUID
  2
{FE5C3AC3-7726-48A7-94B9-9FF3C422FF30}
  9
$EXTNAMES
290
     1
  9
$PSVPSCALE
 40
0.0
  9
$OLESTARTUP
290
     0
  0
ENDSEC
  0
SECTION
  2
CLASSES
  0
CLASS
  1
ACDBDICTIONARYWDFLT
  2
AcDbDictionaryWithDefault
  3
ObjectDBX Classes
 90
        0
280
     0
281
     0
  0
CLASS
  1
ACDBPLACEHOLDER
  2
AcDbPlaceHolder
  3
ObjectDBX Classes
 90
        0
280
     0
281
     0
  0
CLASS
  1
LAYOUT
  2
AcDbLayout
  3
ObjectDBX Classes
 90
        0
280
     0
281
     0
  0
CLASS
  1
DICTIONARYVAR
  2
AcDbDictionaryVar
  3
ObjectDBX Classes
 90
        0
280
     0
281
     0
  0
CLASS
  1
TABLESTYLE
  2
AcDbTableStyle
  3
ObjectDBX Classes
 90
     4095
280
     0
281
     0
  0
CLASS
  1
MATERIAL
  2
AcDbMaterial
  3
ObjectDBX Classes
 90
     1153
280
     0
281
     0
  0
CLASS
  1
VISUALSTYLE
  2
AcDbVisualStyle
  3
ObjectDBX Classes
 90
     4095
280
     0
281
     0
  0
CLASS
  1
SORTENTSTABLE
  2
AcDbSortentsTable
  3
ObjectDBX Classes
 90
        0
280
     0
281
     0
  0
CLASS
  1
DIMASSOC
  2
AcDbDimAssoc
  3
"AcDbDimAssoc|Product Desc:     AcDim ARX App For Dimension|Company:          Autodesk, Inc.|WEB Address:      www.autodesk.com"
 90
        0
280
     0
281
     0
  0
CLASS
  1
SCALE
  2
AcDbScale
  3
ObjectDBX Classes
 90
     1153
280
     0
281
     0
  0
CLASS
  1
MLEADERSTYLE
  2
AcDbMLeaderStyle
  3
ACDB_MLEADERSTYLE_CLASS
 90
     4095
280
     0
281
     0
  0
CLASS
  1
CELLSTYLEMAP
  2
AcDbCellStyleMap
  3
ObjectDBX Classes
 90
     1152
280
     0
281
     0
  0
CLASS
  1
AEC_REFEDIT_STATUS_TRACKER
  2
AecDbRefEditStatusTracker
  3
AecArchBase60|Product Desc: Autodesk Architectural Desktop 2007 |Company: Autodesk,Inc. |WEB Address: www.autodesk.com
 90
      129
280
     0
281
     0
  0
CLASS
  1
NPOCOLLECTION
  2
AcDbImpNonPersistentObjectsCollection
  3
ObjectDBX Classes
 90
     1153
280
     0
281
     0
  0
ENDSEC
  0
SECTION
  2
TABLES
  0
TABLE
  2
VPORT
  5
8
102
{ACAD_XDICTIONARY
360
829
102
}
330
0
100
AcDbSymbolTable
 70
     1
  0
VPORT
  5
94
330
8
100
AcDbSymbolTableRecord
100
AcDbViewportTableRecord
  2
*Active
 70
     0
 10
0.0
 20
0.0
 11
1.0
 21
1.0
 12
1501.374865673466
 22
144.5244479177719
 13
0.0
 23
0.0
 14
0.5
 24
0.5
 15
0.5
 25
0.5
 16
0.0
 26
0.0
 36
1.0
 17
0.0
 27
0.0
 37
0.0
 40
411.0980247132776
 41
1.452445652173913
 42
50.0
 43
0.0
 44
0.0
 50
0.0
 51
0.0
 71
     0
 72
  1000
 73
     1
 74
     2
 75
     0
 76
     0
 77
     0
 78
     0
281
     0
 65
     1
110
0.0
120
0.0
130
0.0
111
1.0
121
0.0
131
0.0
112
0.0
122
1.0
132
0.0
 79
     0
146
0.0
  0
ENDTAB
  0
TABLE
  2
LTYPE
  5
5
330
0
100
AcDbSymbolTable
 70
     5
  0
LTYPE
  5
14
330
5
100
AcDbSymbolTableRecord
100
AcDbLinetypeTableRecord
  2
ByBlock
 70
     0
  3

 72
    65
 73
     0
 40
0.0
  0
LTYPE
  5
15
330
5
100
AcDbSymbolTableRecord
100
AcDbLinetypeTableRecord
  2
ByLayer
 70
     0
  3

 72
    65
 73
     0
 40
0.0
  0
LTYPE
  5
16
330
5
100
AcDbSymbolTableRecord
100
AcDbLinetypeTableRecord
  2
Continuous
 70
     0
  3
Solid line
 72
    65
 73
     0
 40
0.0
  0
LTYPE
  5
148
330
5
100
AcDbSymbolTableRecord
100
AcDbLinetypeTableRecord
  2
CENTER
 70
     0
  3
Center ____ _ ____ _ ____ _ ____ _ ____ _ ____
 72
    65
 73
     4
 40
50.8
 49
31.75
 74
     0
 49
-6.349999999999997
 74
     0
 49
6.349999999999997
 74
     0
 49
-6.349999999999997
 74
     0
  0
LTYPE
  5
149
330
5
100
AcDbSymbolTableRecord
100
AcDbLinetypeTableRecord
  2
HIDDEN
 70
     0
  3
Hidden __ __ __ __ __ __ __ __ __ __ __ __ __ __
 72
    65
 73
     2
 40
9.524999999999996
 49
6.349999999999997
 74
     0
 49
-3.174999999999998
 74
     0
  0
LTYPE
  5
14A
330
5
100
AcDbSymbolTableRecord
100
AcDbLinetypeTableRecord
  2
PHANTOM
 70
     0
  3
Phantom ______  __  __  ______  __  __  ______
 72
    65
 73
     6
 40
63.5
 49
31.75
 74
     0
 49
-6.349999999999997
 74
     0
 49
6.349999999999997
 74
     0
 49
-6.349999999999997
 74
     0
 49
6.349999999999997
 74
     0
 49
-6.349999999999997
 74
     0
  0
ENDTAB
  0
TABLE
  2
LAYER
  5
2
102
{ACAD_XDICTIONARY
360
DD
102
}
330
0
100
AcDbSymbolTable
 70
     2
  0
LAYER
  5
10
102
{ACAD_XDICTIONARY
360
81D
102
}
330
2
100
AcDbSymbolTableRecord
100
AcDbLayerTableRecord
  2
0
 70
     0
 62
     7
  6
Continuous
370
    -3
390
F
  0
LAYER
  5
D8
330
2
100
AcDbSymbolTableRecord
100
AcDbLayerTableRecord
  2
Defpoints
 70
     0
 62
     7
  6
Continuous
290
     0
370
    -3
390
F
  0
ENDTAB
  0
TABLE
  2
STYLE
  5
3
330
0
100
AcDbSymbolTable
 70
     6
  0
STYLE
  5
11
330
3
100
AcDbSymbolTableRecord
100
AcDbTextStyleTableRecord
  2
Standard
 70
     0
 40
0.0
 41
1.0
 50
0.0
 71
     0
 42
0.2
  3
txt.shx
  4
bigfont.shx
  0
STYLE
  5
11D
330
3
100
AcDbSymbolTableRecord
100
AcDbTextStyleTableRecord
  2
高3.2
 70
     0
 40
3.2
 41
1.0
 50
0.0
 71
     0
 42
3.2
  3
txt.shx
  4
bigfont.shx
  0
STYLE
  5
11E
330
3
100
AcDbSymbolTableRecord
100
AcDbTextStyleTableRecord
  2
高6.3
 70
     0
 40
6.299999999999998
 41
1.0
 50
0.0
 71
     0
 42
6.299999999999998
  3
txt.shx
  4
bigfont.shx
  0
STYLE
  5
11F
330
3
100
AcDbSymbolTableRecord
100
AcDbTextStyleTableRecord
  2
高2.5
 70
     0
 40
2.5
 41
1.0
 50
0.0
 71
     0
 42
0.2
  3
txt.shx
  4
bigfont.shx
  0
STYLE
  5
146
330
3
100
AcDbSymbolTableRecord
100
AcDbTextStyleTableRecord
  2
高4.5
 70
     0
 40
4.5
 41
1.0
 50
0.0
 71
     0
 42
6.299999999999998
  3
txt.shx
  4
bigfont.shx
  0
STYLE
  5
171
330
3
100
AcDbSymbolTableRecord
100
AcDbTextStyleTableRecord
  2
高2
 70
     0
 40
2.0
 41
1.0
 50
0.0
 71
     0
 42
6.299999999999998
  3
txt.shx
  4
bigfont.shx
  0
ENDTAB
  0
TABLE
  2
VIEW
  5
6
330
0
100
AcDbSymbolTable
 70
     0
  0
ENDTAB
  0
TABLE
  2
UCS
  5
7
330
0
100
AcDbSymbolTable
 70
     0
  0
ENDTAB
  0
TABLE
  2
APPID
  5
9
330
0
100
AcDbSymbolTable
 70
     9
  0
APPID
  5
12
330
9
100
AcDbSymbolTableRecord
100
AcDbRegAppTableRecord
  2
ACAD
 70
     0
  0
APPID
  5
DC
330
9
100
AcDbSymbolTableRecord
100
AcDbRegAppTableRecord
  2
ACAD_DSTYLE_DIMJOGGED_JOGANGLE_SYMBOL
 70
     0
  0
APPID
  5
566
330
9
100
AcDbSymbolTableRecord
100
AcDbRegAppTableRecord
  2
ACAD_EXEMPT_FROM_CAD_STANDARDS
 70
     0
  0
APPID
  5
647
330
9
100
AcDbSymbolTableRecord
100
AcDbRegAppTableRecord
  2
ACAD_DSTYLE_DIMJAG
 70
     0
  0
APPID
  5
648
330
9
100
AcDbSymbolTableRecord
100
AcDbRegAppTableRecord
  2
ACAD_DSTYLE_DIMBREAK
 70
     0
  0
APPID
  5
649
330
9
100
AcDbSymbolTableRecord
100
AcDbRegAppTableRecord
  2
ACAD_DSTYLE_DIMTALN
 70
     0
  0
APPID
  5
858
330
9
100
AcDbSymbolTableRecord
100
AcDbRegAppTableRecord
  2
ACAD_DSTYLE_DIMARC_LENGTH_SYMBOL
 70
     0
  0
APPID
  5
859
330
9
100
AcDbSymbolTableRecord
100
AcDbRegAppTableRecord
  2
ACAD_DSTYLE_DIMEXT_LENGTH
 70
     0
  0
APPID
  5
86E
330
9
100
AcDbSymbolTableRecord
100
AcDbRegAppTableRecord
  2
ACAD_MLEADERVER
 70
     0
  0
ENDTAB
  0
TABLE
  2
DIMSTYLE
  5
A
330
0
100
AcDbSymbolTable
 70
    10
100
AcDbDimStyleTable
 71
     5
340
D9
340
DB
340
DA
340
127
340
129
  0
DIMSTYLE
105
D9
330
A
100
AcDbSymbolTableRecord
100
AcDbDimStyleTableRecord
  2
1：1
 70
     0
 41
2.5
 42
0.25
 43
0.2
 44
1.25
 73
     0
 74
     0
 77
     3
 78
     8
 79
     2
140
3.0
141
0.0
143
0.03937007874016
147
0.625
171
     3
172
     1
178
     4
179
     1
271
     2
272
     2
274
     3
283
     0
284
     8
288
     1
289
     0
340
11
341
C6
342
C6
1001
ACAD_DSTYLE_DIMARC_LENGTH_SYMBOL
1070
   379
1070
     2
1001
ACAD_DSTYLE_DIMEXT_LENGTH
1070
   378
1040
1.25
1001
ACAD_DSTYLE_DIMJOGGED_JOGANGLE_SYMBOL
1070
   384
1040
1.570796326794896
  0
DIMSTYLE
105
DA
330
A
100
AcDbSymbolTableRecord
100
AcDbDimStyleTableRecord
  2
2：1
 70
     0
 41
2.5
 42
0.25
 43
0.2
 44
1.25
 73
     0
 74
     0
 77
     3
 78
     8
 79
     2
140
3.0
141
0.0
143
0.03937007874016
144
0.5
147
0.625
171
     3
172
     1
178
     4
179
     1
271
     2
272
     2
274
     3
283
     0
284
     8
288
     1
289
     0
340
11
341
C6
342
C6
1001
ACAD_DSTYLE_DIMARC_LENGTH_SYMBOL
1070
   379
1070
     2
1001
ACAD_DSTYLE_DIMEXT_LENGTH
1070
   378
1040
1.25
1001
ACAD_DSTYLE_DIMJOGGED_JOGANGLE_SYMBOL
1070
   384
1040
1.570796326794896
  0
DIMSTYLE
105
DB
330
A
100
AcDbSymbolTableRecord
100
AcDbDimStyleTableRecord
  2
5：1
 70
     0
 41
2.5
 42
0.25
 43
0.2
 44
1.25
 73
     0
 74
     0
 77
     3
 78
     8
 79
     2
140
3.0
141
0.0
143
0.03937007874016
144
0.2
147
0.625
171
     3
172
     1
178
     4
179
     1
271
     2
272
     2
274
     3
283
     0
284
     8
288
     1
289
     0
340
11
341
C6
342
C6
1001
ACAD_DSTYLE_DIMARC_LENGTH_SYMBOL
1070
   379
1070
     2
1001
ACAD_DSTYLE_DIMEXT_LENGTH
1070
   378
1040
1.25
1001
ACAD_DSTYLE_DIMJOGGED_JOGANGLE_SYMBOL
1070
   384
1040
1.570796326794896
  0
DIMSTYLE
105
127
330
A
100
AcDbSymbolTableRecord
100
AcDbDimStyleTableRecord
  2
10：1
 70
     0
 41
2.5
 42
0.25
 43
0.2
 44
1.25
 73
     0
 74
     0
 77
     3
 78
     8
 79
     2
140
3.0
141
0.0
143
0.03937007874016
144
0.1
147
0.625
171
     3
172
     1
178
     4
179
     1
271
     2
272
     2
274
     3
283
     0
284
     8
288
     1
289
     0
340
11
341
C6
342
C6
1001
ACAD_DSTYLE_DIMARC_LENGTH_SYMBOL
1070
   379
1070
     2
1001
ACAD_DSTYLE_DIMEXT_LENGTH
1070
   378
1040
1.25
1001
ACAD_DSTYLE_DIMJOGGED_JOGANGLE_SYMBOL
1070
   384
1040
1.570796326794896
  0
DIMSTYLE
105
128
330
A
100
AcDbSymbolTableRecord
100
AcDbDimStyleTableRecord
  2
1／2
 70
     0
 41
2.5
 42
0.25
 43
0.2
 44
1.25
 73
     0
 74
     0
 77
     3
 78
     8
 79
     2
140
3.0
141
0.0
143
0.03937007874016
144
2.0
147
0.625
171
     3
172
     1
178
     4
179
     1
271
     2
272
     2
274
     3
283
     0
284
     8
288
     1
289
     0
340
11
341
C6
342
C6
1001
ACAD_DSTYLE_DIMARC_LENGTH_SYMBOL
1070
   379
1070
     2
1001
ACAD_DSTYLE_DIMEXT_LENGTH
1070
   378
1040
1.25
1001
ACAD_DSTYLE_DIMJOGGED_JOGANGLE_SYMBOL
1070
   384
1040
1.570796326794896
  0
DIMSTYLE
105
129
330
A
100
AcDbSymbolTableRecord
100
AcDbDimStyleTableRecord
  2
1／5
 70
     0
 41
2.5
 42
0.25
 43
0.2
 44
1.25
 73
     0
 74
     0
 77
     3
 78
     8
 79
     2
140
3.0
141
0.0
143
0.03937007874016
144
5.0
147
0.625
171
     3
172
     1
178
     4
179
     1
271
     2
272
     2
274
     3
283
     0
284
     8
288
     1
289
     0
340
11
341
C6
342
C6
1001
ACAD_DSTYLE_DIMARC_LENGTH_SYMBOL
1070
   379
1070
     2
1001
ACAD_DSTYLE_DIMEXT_LENGTH
1070
   378
1040
1.25
1001
ACAD_DSTYLE_DIMJOGGED_JOGANGLE_SYMBOL
1070
   384
1040
1.570796326794896
  0
DIMSTYLE
105
12A
330
A
100
AcDbSymbolTableRecord
100
AcDbDimStyleTableRecord
  2
1／10
 70
     0
 41
2.5
 42
0.25
 43
0.2
 44
1.25
 73
     0
 74
     0
 77
     3
 78
     8
 79
     2
140
3.0
141
0.0
143
0.03937007874016
144
10.0
147
0.625
171
     3
172
     1
178
     4
179
     1
271
     2
272
     2
274
     3
283
     0
284
     8
288
     1
289
     0
340
11
341
C6
342
C6
1001
ACAD_DSTYLE_DIMARC_LENGTH_SYMBOL
1070
   379
1070
     2
1001
ACAD_DSTYLE_DIMEXT_LENGTH
1070
   378
1040
1.25
1001
ACAD_DSTYLE_DIMJOGGED_JOGANGLE_SYMBOL
1070
   384
1040
1.570796326794896
  0
DIMSTYLE
105
644
330
A
100
AcDbSymbolTableRecord
100
AcDbDimStyleTableRecord
  2
1／4
 70
     0
 41
2.5
 42
0.25
 43
0.2
 44
1.25
 73
     0
 74
     0
 77
     3
 78
     8
 79
     2
140
3.0
141
0.0
143
0.03937007874016
144
4.0
147
0.625
171
     3
172
     1
178
     4
179
     1
271
     2
272
     2
274
     3
283
     0
284
     8
288
     1
289
     0
340
11
341
C6
342
C6
1001
ACAD_DSTYLE_DIMARC_LENGTH_SYMBOL
1070
   379
1070
     2
1001
ACAD_DSTYLE_DIMEXT_LENGTH
1070
   378
1040
1.25
1001
ACAD_DSTYLE_DIMJOGGED_JOGANGLE_SYMBOL
1070
   384
1040
1.570796326794896
  0
DIMSTYLE
105
645
330
A
100
AcDbSymbolTableRecord
100
AcDbDimStyleTableRecord
  2
1／3
 70
     0
 41
2.5
 42
0.25
 43
0.2
 44
1.25
 73
     0
 74
     0
 77
     3
 78
     8
 79
     2
140
3.0
141
0.0
143
0.03937007874016
144
3.0
147
0.625
171
     3
172
     1
178
     4
179
     1
271
     2
272
     2
274
     3
283
     0
284
     8
288
     1
289
     0
340
11
341
C6
342
C6
1001
ACAD_DSTYLE_DIMARC_LENGTH_SYMBOL
1070
   379
1070
     2
1001
ACAD_DSTYLE_DIMEXT_LENGTH
1070
   378
1040
1.25
1001
ACAD_DSTYLE_DIMJOGGED_JOGANGLE_SYMBOL
1070
   384
1040
1.570796326794896
  0
DIMSTYLE
105
646
330
A
100
AcDbSymbolTableRecord
100
AcDbDimStyleTableRecord
  2
FREE
 70
     0
 41
2.5
 42
0.25
 43
0.2
 44
1.25
 73
     0
 74
     0
 77
     3
 78
     8
 79
     2
140
3.0
141
0.0
143
0.03937007874016
147
0.625
171
     3
172
     1
178
     4
179
     1
271
     2
272
     2
274
     3
283
     0
284
     8
288
     1
289
     0
340
11
341
C6
342
C6
1001
ACAD_DSTYLE_DIMBREAK
1070
   391
1040
3.75
1001
ACAD_DSTYLE_DIMJAG
1070
   388
1040
1.5
1001
ACAD_DSTYLE_DIMTALN
1070
   392
1070
     0
1001
ACAD_DSTYLE_DIMARC_LENGTH_SYMBOL
1070
   379
1070
     2
1001
ACAD_DSTYLE_DIMEXT_LENGTH
1070
   378
1040
1.25
1001
ACAD_DSTYLE_DIMJOGGED_JOGANGLE_SYMBOL
1070
   384
1040
1.570796326794896
  0
ENDTAB
  0
TABLE
  2
BLOCK_RECORD
  5
1
330
0
100
AcDbSymbolTable
 70
     7
  0
BLOCK_RECORD
  5
1F
102
{ACAD_XDICTIONARY
360
31A
102
}
330
1
100
AcDbSymbolTableRecord
100
AcDbBlockTableRecord
  2
*Model_Space
340
22
  0
BLOCK_RECORD
  5
58
330
1
100
AcDbSymbolTableRecord
100
AcDbBlockTableRecord
  2
*Paper_Space
340
59
  0
BLOCK_RECORD
  5
5D
330
1
100
AcDbSymbolTableRecord
100
AcDbBlockTableRecord
  2
*Paper_Space0
340
5E
  0
BLOCK_RECORD
  5
C6
330
1
100
AcDbSymbolTableRecord
100
AcDbBlockTableRecord
  2
_Open30
340
0
102
{BLKREFS
331
BA3
331
BA4
331
BB1
331
BB2
331
120B
331
120C
331
1216
331
1217
102
}
  0
BLOCK_RECORD
  5
ACA
102
{ACAD_XDICTIONARY
360
B94
102
}
330
1
100
AcDbSymbolTableRecord
100
AcDbBlockTableRecord
  2
A$C3C162290
340
0
1001
ACAD
1000
DesignCenter Data
1002
{
1070
     1
1070
     1
1002
}
  0
BLOCK_RECORD
  5
B9E
330
1
100
AcDbSymbolTableRecord
100
AcDbBlockTableRecord
  2
*D3
340
0
  0
BLOCK_RECORD
  5
BAA
330
1
100
AcDbSymbolTableRecord
100
AcDbBlockTableRecord
  2
*D4
340
0
  0
BLOCK_RECORD
  5
1019
330
1
100
AcDbSymbolTableRecord
100
AcDbBlockTableRecord
  2
*D5
340
0
  0
BLOCK_RECORD
  5
1025
330
1
100
AcDbSymbolTableRecord
100
AcDbBlockTableRecord
  2
*D6
340
0
  0
ENDTAB
  0
ENDSEC
  0
SECTION
  2
BLOCKS
  0
BLOCK
  5
20
330
1F
100
AcDbEntity
  8
0
100
AcDbBlockBegin
  2
*Model_Space
 70
     0
 10
0.0
 20
0.0
 30
0.0
  3
*Model_Space
  1

  0
ENDBLK
  5
21
330
1F
100
AcDbEntity
  8
0
100
AcDbBlockEnd
  0
BLOCK
  5
5A
330
58
100
AcDbEntity
 67
     1
  8
0
100
AcDbBlockBegin
  2
*Paper_Space
 70
     0
 10
0.0
 20
0.0
 30
0.0
  3
*Paper_Space
  1

  0
ENDBLK
  5
5B
330
58
100
AcDbEntity
 67
     1
  8
0
100
AcDbBlockEnd
  0
BLOCK
  5
5F
330
5D
100
AcDbEntity
 67
     1
  8
0
100
AcDbBlockBegin
  2
*Paper_Space0
 70
     0
 10
0.0
 20
0.0
 30
0.0
  3
*Paper_Space0
  1

  0
ENDBLK
  5
60
330
5D
100
AcDbEntity
 67
     1
  8
0
100
AcDbBlockEnd
  0
BLOCK
  5
C7
330
C6
100
AcDbEntity
  8
0
100
AcDbBlockBegin
  2
_Open30
 70
     0
 10
0.0
 20
0.0
 30
0.0
  3
_Open30
  1

  0
LINE
  5
C8
330
C6
100
AcDbEntity
  8
0
  6
ByBlock
 62
     0
370
    -2
100
AcDbLine
 10
-1.0
 20
0.267949
 30
0.0
 11
0.0
 21
0.0
 31
0.0
  0
LINE
  5
C9
330
C6
100
AcDbEntity
  8
0
  6
ByBlock
 62
     0
370
    -2
100
AcDbLine
 10
0.0
 20
0.0
 30
0.0
 11
-1.0
 21
-0.267949
 31
0.0
  0
LINE
  5
CA
330
C6
100
AcDbEntity
  8
0
  6
ByBlock
 62
     0
370
    -2
100
AcDbLine
 10
0.0
 20
0.0
 30
0.0
 11
-1.0
 21
0.0
 31
0.0
  0
ENDBLK
  5
CB
330
C6
100
AcDbEntity
  8
0
100
AcDbBlockEnd
  0
BLOCK
  5
B96
330
ACA
100
AcDbEntity
  8
0
100
AcDbBlockBegin
  2
A$C3C162290
 70
     0
 10
0.0
 20
0.0
 30
0.0
  3
A$C3C162290
  1

  0
LINE
  5
ACB
330
ACA
100
AcDbEntity
  8
0
 62
     3
100
AcDbLine
 10
8.487926473143485
 20
138.4999995915839
 30
0.0
 11
7.999999643143496
 21
138.4999995915839
 31
0.0
  0
LINE
  5
ACC
330
ACA
100
AcDbEntity
  8
0
 62
     3
100
AcDbLine
 10
19.9999996431435
 20
276.9999995915839
 30
0.0
 11
19.9999996431435
 21
-0.0000004084160992
 31
0.0
  0
LINE
  5
ACD
330
ACA
100
AcDbEntity
  8
0
 62
   254
100
AcDbLine
 10
-0.0000003568565035
 20
286.9999995915839
 30
0.0
 11
-0.0000003568565035
 21
-0.0000004084160992
 31
0.0
  0
LINE
  5
ACE
330
ACA
100
AcDbEntity
  8
0
 62
     3
100
AcDbLine
 10
199.9999996431435
 20
-0.0000004084160992
 30
0.0
 11
199.9999996431435
 21
276.9999995915839
 31
0.0
  0
LINE
  5
ACF
330
ACA
100
AcDbEntity
  8
0
 62
     3
100
AcDbLine
 10
19.9999996431435
 20
-0.0000004084160992
 30
0.0
 11
199.9999996431435
 21
-0.0000004084160992
 31
0.0
  0
LINE
  5
AD0
330
ACA
100
AcDbEntity
  8
0
 62
     3
100
AcDbLine
 10
85.32766227314345
 20
276.9999995915839
 30
0.0
 11
199.9999996431435
 21
276.9999995915839
 31
0.0
  0
LINE
  5
AD1
330
ACA
100
AcDbEntity
  8
0
 62
   254
100
AcDbLine
 10
-0.0000003568565035
 20
286.9999995915839
 30
0.0
 11
199.9999996431435
 21
286.9999995915839
 31
0.0
  0
LINE
  5
AD2
330
ACA
100
AcDbEntity
  8
0
 62
     3
100
AcDbLine
 10
51.91491575314353
 20
276.9999995915839
 30
0.0
 11
19.9999996431435
 21
276.9999995915839
 31
0.0
  0
LINE
  5
AD3
330
ACA
100
AcDbEntity
  8
0
 62
     3
100
AcDbLine
 10
147.9999996431435
 20
-0.0000004084160992
 30
0.0
 11
147.9999996431435
 21
39.99999959158391
 31
0.0
  0
LINE
  5
AD4
330
ACA
100
AcDbEntity
  8
0
 62
     3
100
AcDbLine
 10
160.9999996431435
 20
9.9999995915839
 30
0.0
 11
160.9999996431435
 21
37.9999995915839
 31
0.0
  0
LINE
  5
AD5
330
ACA
100
AcDbEntity
  8
0
 62
     3
100
AcDbLine
 10
120.9999996431435
 20
9.9999995915839
 30
0.0
 11
120.9999996431435
 21
23.99999959158389
 31
0.0
  0
LINE
  5
AD6
330
ACA
100
AcDbEntity
  8
0
 62
     3
100
AcDbLine
 10
130.9999996431435
 20
23.99999959158389
 30
0.0
 11
130.9999996431435
 21
-0.0000004084160992
 31
0.0
  0
LINE
  5
AD7
330
ACA
100
AcDbEntity
  8
0
 62
     3
100
AcDbLine
 10
101.9999996431435
 20
39.99999959158389
 30
0.0
 11
101.9999996431435
 21
16.99999959158391
 31
0.0
  0
LINE
  5
AD8
330
ACA
100
AcDbEntity
  8
0
 62
     3
100
AcDbLine
 10
160.9999996431435
 20
37.9999995915839
 30
0.0
 11
160.9999996431435
 21
39.99999959158391
 31
0.0
  0
LINE
  5
AD9
330
ACA
100
AcDbEntity
  8
0
 62
     3
100
AcDbLine
 10
173.9999996431435
 20
16.99999959158391
 30
0.0
 11
173.9999996431435
 21
39.99999959158391
 31
0.0
  0
LINE
  5
ADA
330
ACA
100
AcDbEntity
  8
0
 62
     3
100
AcDbLine
 10
199.9999996431435
 20
39.99999959158391
 30
0.0
 11
88.75456500314362
 21
39.99999959158392
 31
0.0
  0
LINE
  5
ADB
330
ACA
100
AcDbEntity
  8
0
 62
     3
100
AcDbLine
 10
199.9999996431435
 20
30.9999995915839
 30
0.0
 11
88.75456500314355
 21
30.99999959158391
 31
0.0
  0
LINE
  5
ADC
330
ACA
100
AcDbEntity
  8
0
 62
     3
100
AcDbLine
 10
199.9999996431435
 20
16.99999959158391
 30
0.0
 11
88.75456500314355
 21
16.99999959158391
 31
0.0
  0
LINE
  5
ADD
330
ACA
100
AcDbEntity
  8
0
 62
     3
100
AcDbLine
 10
199.9999996431435
 20
9.9999995915839
 30
0.0
 11
88.69655714314342
 21
9.9999995915839
 31
0.0
  0
LINE
  5
ADE
330
ACA
100
AcDbEntity
  8
0
 62
     3
100
AcDbLine
 10
186.9999996431435
 20
16.99999959158391
 30
0.0
 11
186.9999996431435
 21
39.99999959158391
 31
0.0
  0
LINE
  5
ADF
330
ACA
100
AcDbEntity
  8
0
 62
     3
100
AcDbLine
 10
88.75456500314355
 20
39.99999959158392
 30
0.0
 11
88.75456500314355
 21
-0.0000004084160992
 31
0.0
  0
LINE
  5
AE0
330
ACA
100
AcDbEntity
  8
0
 62
     3
100
AcDbLine
 10
147.9999996431435
 20
23.99999959158389
 30
0.0
 11
88.75456500314355
 21
23.99999959158389
 31
0.0
  0
LINE
  5
AE1
330
ACA
100
AcDbEntity
  8
0
 62
     3
100
AcDbLine
 10
131.2783245731434
 20
4.832860851583888
 30
0.0
 11
147.9999996431435
 21
4.832860851583888
 31
0.0
  0
TEXT
  5
AE2
330
ACA
100
AcDbEntity
  8
0
 62
     3
100
AcDbText
 10
132.1643250564592
 20
19.07309644494925
 30
0.0
 40
2.5
  1
******
  7
高2.5
100
AcDbText
  0
TEXT
  5
AE3
330
ACA
100
AcDbEntity
  8
0
 62
     3
100
AcDbText
 10
103.1963683383957
 20
19.2978139965678
 30
0.0
 40
2.5
  1
*****
  7
高2.5
100
AcDbText
  0
TEXT
  5
AE4
330
ACA
100
AcDbEntity
  8
0
 62
     3
100
AcDbText
 10
103.4612760930931
 20
32.31224911534179
 30
0.0
 40
4.5
  1
**********
  7
高4.5
100
AcDbText
1001
ACAD
1000
ACAD_MTEXT_DEFINED_HEIGHT_BEGIN
1070
    46
1040
0.0
1000
ACAD_MTEXT_DEFINED_HEIGHT_END
  0
TEXT
  5
AE5
330
ACA
100
AcDbEntity
  8
0
 62
     3
100
AcDbText
 10
190.0655887366175
 20
36.51369169028749
 30
0.0
 40
2.0
  1
DEF
  7
高2
100
AcDbText
  0
TEXT
  5
AE6
330
ACA
100
AcDbEntity
  8
0
 62
     3
100
AcDbText
 10
176.1264903829093
 20
36.5136916902874
 30
0.0
 40
2.0
  1
DESN
  7
高2
100
AcDbText
  0
TEXT
  5
AE7
330
ACA
100
AcDbEntity
  8
0
 62
     3
100
AcDbText
 10
149.8721234429091
 20
36.51369169028749
 30
0.0
 40
2.0
  1
APPD
  7
高2
100
AcDbText
  0
TEXT
  5
AE8
330
ACA
100
AcDbEntity
  8
0
 62
     3
100
AcDbText
 10
162.9848595431434
 20
36.51369169028751
 30
0.0
 40
2.0
  1
CHCK
  7
高2
100
AcDbText
  0
TEXT
  5
AE9
330
ACA
100
AcDbEntity
  8
0
 62
     3
100
AcDbText
 10
121.9271652822962
 20
14.16839841481461
 30
0.0
 40
2.0
  1
SCALE
 41
0.8
  7
高2
100
AcDbText
  0
TEXT
  5
AEA
330
ACA
100
AcDbEntity
  8
0
 62
     3
100
AcDbText
 10
90.43914370618962
 20
14.16839841481463
 30
0.0
 40
2.0
  1
3AD　ANGLE
 41
1.5
  7
高2
100
AcDbText
  0
TEXT
  5
AEB
330
ACA
100
AcDbEntity
  8
0
 62
     3
100
AcDbText
 10
121.1965709731449
 20
20.91993648377173
 30
0.0
 40
2.0
  1
REMARKS
 41
0.7
  7
高2
100
AcDbText
  0
TEXT
  5
AEC
330
ACA
100
AcDbEntity
  8
0
 62
     3
100
AcDbText
 10
90.22223535314344
 20
20.99999959158391
 30
0.0
 40
2.0
  1
MATERIAL
 41
0.7
  7
高2
100
AcDbText
  0
TEXT
  5
AED
330
ACA
100
AcDbEntity
  8
0
 62
     3
100
AcDbText
 10
90.7987225558976
 20
27.99999959158389
 30
0.0
 40
2.0
  1
MODEL
  7
高2
100
AcDbText
  0
TEXT
  5
AEE
330
ACA
100
AcDbEntity
  8
0
 62
     3
100
AcDbText
 10
90.43564343722879
 20
36.70702094218292
 30
0.0
 40
2.0
  1
CONPONENTS
 41
0.5
  7
高2
100
AcDbText
  0
TEXT
  5
AEF
330
ACA
100
AcDbEntity
  8
0
 62
     3
100
AcDbText
 10
103.1427589083956
 20
25.08748071939586
 30
0.0
 40
4.5
  1
********
  7
高4.5
100
AcDbText
  0
TEXT
  5
AF0
330
ACA
100
AcDbEntity
  8
0
 62
     3
100
AcDbText
 10
151.065045373762
 20
1.23186144700821
 30
0.0
 40
6.299999999999998
  1
*-********
 41
0.6
  7
高6.3
100
AcDbText
1001
ACAD
1000
ACAD_MTEXT_DEFINED_HEIGHT_BEGIN
1070
    46
1040
0.0
1000
ACAD_MTEXT_DEFINED_HEIGHT_END
  0
TEXT
  5
AF1
330
ACA
100
AcDbEntity
  8
0
 62
     3
100
AcDbText
 10
164.563509393473
 20
11.1008887498169
 30
0.0
 40
3.2
  1
******
  7
高3.2
100
AcDbText
1001
ACAD
1000
ACAD_MTEXT_DEFINED_HEIGHT_BEGIN
1070
    46
1040
0.0
1000
ACAD_MTEXT_DEFINED_HEIGHT_END
  0
TEXT
  5
AF2
330
ACA
100
AcDbEntity
  8
0
 62
     3
100
AcDbText
 10
134.7875975377898
 20
11.10091659415177
 30
0.0
 40
3.2
  1
1/1
  7
高3.2
100
AcDbText
  0
TEXT
  5
AF3
330
ACA
100
AcDbEntity
  8
0
 62
     3
100
AcDbText
 10
131.8649265131434
 20
0.8168777647198622
 30
0.0
 40
3.2
  1
ZK-A4Y
 41
0.8
  7
高3.2
100
AcDbText
  0
TEXT
  5
AF4
330
ACA
100
AcDbEntity
  8
0
 62
     3
100
AcDbText
 10
89.58526604314341
 20
6.524620013771727
 30
0.0
 40
2.0
  1
NICHIDO IND.CO.LTD
 41
1.3
  7
高2
100
AcDbText
  0
TEXT
  5
AF5
330
ACA
100
AcDbEntity
  8
0
 62
     3
100
AcDbText
 10
90.76678930810066
 20
32.14052779946884
 30
0.0
 40
3.2
  1
品 名
  7
高3.2
100
AcDbText
1001
ACAD
1000
ACAD_MTEXT_DEFINED_HEIGHT_BEGIN
1070
    46
1040
0.0
1000
ACAD_MTEXT_DEFINED_HEIGHT_END
  0
TEXT
  5
AF6
330
ACA
100
AcDbEntity
  8
0
 62
     3
100
AcDbText
 10
90.76678930810066
 20
24.49999959158389
 30
0.0
 40
3.2
  1
型 式
  7
高3.2
100
AcDbText
1001
ACAD
1000
ACAD_MTEXT_DEFINED_HEIGHT_BEGIN
1070
    46
1040
3.064735913775952
1000
ACAD_MTEXT_DEFINED_HEIGHT_END
  0
TEXT
  5
AF7
330
ACA
100
AcDbEntity
  8
0
 62
     3
100
AcDbText
 10
90.76678930810066
 20
17.4999995915839
 30
0.0
 40
3.2
  1
材 質
  7
高3.2
100
AcDbText
1001
ACAD
1000
ACAD_MTEXT_DEFINED_HEIGHT_BEGIN
1070
    46
1040
0.0
1000
ACAD_MTEXT_DEFINED_HEIGHT_END
  0
TEXT
  5
AF8
330
ACA
100
AcDbEntity
  8
0
 62
     3
100
AcDbText
 10
90.46175435810059
 20
10.46743958383014
 30
0.0
 40
3.2
  1
第 三 角 法
  7
高3.2
100
AcDbText
1001
ACAD
1000
ACAD_MTEXT_DEFINED_HEIGHT_BEGIN
1070
    46
1040
0.0
1000
ACAD_MTEXT_DEFINED_HEIGHT_END
  0
TEXT
  5
AF9
330
ACA
100
AcDbEntity
  8
0
 62
     3
100
AcDbText
 10
88.86828696562952
 20
1.140527799468832
 30
0.0
 40
3.2
  1
日動工業株式会社
 41
1.199999999999999
  7
高3.2
100
AcDbText
1001
ACAD
1000
ACAD_MTEXT_DEFINED_HEIGHT_BEGIN
1070
    46
1040
0.0
1000
ACAD_MTEXT_DEFINED_HEIGHT_END
  0
TEXT
  5
AFA
330
ACA
100
AcDbEntity
  8
0
 62
     3
100
AcDbText
 10
122.503911165108
 20
17.38457812475146
 30
0.0
 40
3.2
  1
備考
  7
高3.2
100
AcDbText
1001
ACAD
1000
ACAD_MTEXT_DEFINED_HEIGHT_BEGIN
1070
    46
1040
0.0
1000
ACAD_MTEXT_DEFINED_HEIGHT_END
  0
TEXT
  5
AFB
330
ACA
100
AcDbEntity
  8
0
 62
     3
100
AcDbText
 10
132.1529686121434
 20
6.146229617154192
 30
0.0
 40
2.5
  1
出図コード
  7
高2.5
100
AcDbText
1001
ACAD
1000
ACAD_MTEXT_DEFINED_HEIGHT_BEGIN
1070
    46
1040
0.0
1000
ACAD_MTEXT_DEFINED_HEIGHT_END
  0
TEXT
  5
AFC
330
ACA
100
AcDbEntity
  8
0
 62
     3
100
AcDbText
 10
122.3451450470205
 20
10.45323450199681
 30
0.0
 40
3.2
  1
尺度
  7
高3.2
100
AcDbText
1001
ACAD
1000
ACAD_MTEXT_DEFINED_HEIGHT_BEGIN
1070
    46
1040
0.0
1000
ACAD_MTEXT_DEFINED_HEIGHT_END
  0
TEXT
  5
AFD
330
ACA
100
AcDbEntity
  8
0
 62
     3
100
AcDbText
 10
149.4914065287993
 20
11.58471295011431
 30
0.0
 40
3.2
  1
作成日
  7
高3.2
100
AcDbText
1001
ACAD
1000
ACAD_MTEXT_DEFINED_HEIGHT_BEGIN
1070
    46
1040
0.0
1000
ACAD_MTEXT_DEFINED_HEIGHT_END
  0
TEXT
  5
AFE
330
ACA
100
AcDbEntity
  8
0
 62
     3
100
AcDbText
 10
149.3858805356633
 20
32.14052779946884
 30
0.0
 40
3.2
  1
承 認
  7
高3.2
100
AcDbText
1001
ACAD
1000
ACAD_MTEXT_DEFINED_HEIGHT_BEGIN
1070
    46
1040
0.0
1000
ACAD_MTEXT_DEFINED_HEIGHT_END
  0
TEXT
  5
AFF
330
ACA
100
AcDbEntity
  8
0
 62
     3
100
AcDbText
 10
162.3858805356632
 20
32.14052779946884
 30
0.0
 40
3.2
  1
検 図
  7
高3.2
100
AcDbText
1001
ACAD
1000
ACAD_MTEXT_DEFINED_HEIGHT_BEGIN
1070
    46
1040
0.0
1000
ACAD_MTEXT_DEFINED_HEIGHT_END
  0
TEXT
  5
B00
330
ACA
100
AcDbEntity
  8
0
 62
     3
100
AcDbText
 10
175.3858805356632
 20
32.14052779946884
 30
0.0
 40
3.2
  1
設 計
  7
高3.2
100
AcDbText
1001
ACAD
1000
ACAD_MTEXT_DEFINED_HEIGHT_BEGIN
1070
    46
1040
0.0
1000
ACAD_MTEXT_DEFINED_HEIGHT_END
  0
TEXT
  5
B01
330
ACA
100
AcDbEntity
  8
0
 62
     3
100
AcDbText
 10
188.6865170556632
 20
32.14052779946884
 30
0.0
 40
3.2
  1
製 図
  7
高3.2
100
AcDbText
1001
ACAD
1000
ACAD_MTEXT_DEFINED_HEIGHT_BEGIN
1070
    46
1040
0.0
1000
ACAD_MTEXT_DEFINED_HEIGHT_END
  0
LINE
  5
B02
330
ACA
100
AcDbEntity
  8
0
 62
     3
100
AcDbLine
 10
59.25293360287717
 20
278.4481801852499
 30
0.0
 11
59.25293360287717
 21
275.2948313915841
 31
0.0
  0
LINE
  5
B03
330
ACA
100
AcDbEntity
  8
0
 62
     3
100
AcDbLine
 10
59.89576267797656
 20
277.2171083655226
 30
0.0
 11
59.89576267797656
 21
275.2948313915841
 31
0.0
  0
LINE
  5
B04
330
ACA
100
AcDbEntity
  8
0
 62
     3
100
AcDbLine
 10
61.6998595658506
 20
278.4481801852499
 30
0.0
 11
61.6998595658506
 21
277.0597132644989
 31
0.0
  0
LINE
  5
B05
330
ACA
100
AcDbEntity
  8
0
 62
     3
100
AcDbLine
 10
62.34268796709443
 20
278.4481801852499
 30
0.0
 11
62.34268796709443
 21
274.8721993930075
 31
0.0
  0
LINE
  5
B06
330
ACA
100
AcDbEntity
  8
0
 62
     3
100
AcDbLine
 10
63.36663412467465
 20
278.4265210809052
 30
0.0
 11
63.36663412467465
 21
275.2732106969974
 31
0.0
  0
LINE
  5
B07
330
ACA
100
AcDbEntity
  8
0
 62
     3
100
AcDbLine
 10
64.38515577894964
 20
278.4265069299419
 30
0.0
 11
64.38515577894964
 21
275.2731965460339
 31
0.0
  0
LINE
  5
B08
330
ACA
100
AcDbEntity
  8
0
 62
     3
100
AcDbLine
 10
68.15597884937665
 20
278.4264597600639
 30
0.0
 11
68.15592359323386
 21
275.2731500500114
 31
0.0
  0
LINE
  5
B09
330
ACA
100
AcDbEntity
  8
0
 62
     3
100
AcDbLine
 10
71.27184308874848
 20
278.4264597600639
 30
0.0
 11
71.27189834489104
 21
275.2731500500114
 31
0.0
  0
LINE
  5
B0A
330
ACA
100
AcDbEntity
  8
0
 62
     3
100
AcDbLine
 10
70.23141843857614
 20
277.05262965244
 30
0.0
 11
69.19640349954898
 21
277.05262965244
 31
0.0
  0
LINE
  5
B0B
330
ACA
100
AcDbEntity
  8
0
 62
     3
100
AcDbLine
 10
70.23141170002213
 20
276.6470738235357
 30
0.0
 11
69.19641091195831
 21
276.6470738235357
 31
0.0
  0
LINE
  5
B0C
330
ACA
100
AcDbEntity
  8
0
 62
     3
100
AcDbLine
 10
70.23144269737054
 20
278.4264597600639
 30
0.0
 11
70.23141843857614
 21
277.05262965244
 31
0.0
  0
LINE
  5
B0D
330
ACA
100
AcDbEntity
  8
0
 62
     3
100
AcDbLine
 10
70.23141170002213
 20
276.6470738235357
 30
0.0
 11
70.23138744122753
 21
275.2731500500114
 31
0.0
  0
LINE
  5
B0E
330
ACA
100
AcDbEntity
  8
0
 62
     3
100
AcDbLine
 10
69.19637924075459
 20
278.4264597600639
 30
0.0
 11
69.19640349954898
 21
277.05262965244
 31
0.0
  0
LINE
  5
B0F
330
ACA
100
AcDbEntity
  8
0
 62
     3
100
AcDbLine
 10
69.19641091195831
 20
276.6470738235357
 30
0.0
 11
69.19643449689714
 21
275.2731500500114
 31
0.0
  0
LINE
  5
B10
330
ACA
100
AcDbEntity
  8
0
 62
     3
100
AcDbLine
 10
72.29826422648716
 20
278.4264597600639
 30
0.0
 11
72.29820897034461
 21
275.2731500500114
 31
0.0
  0
LINE
  5
B11
330
ACA
100
AcDbEntity
  8
0
 62
     3
100
AcDbLine
 10
73.31676431738968
 20
278.4264597600639
 30
0.0
 11
73.31681889967693
 21
275.2731500500114
 31
0.0
  0
LINE
  5
B12
330
ACA
100
AcDbEntity
  8
0
 62
     3
100
AcDbLine
 10
74.35500991471371
 20
278.4264597600639
 30
0.0
 11
74.35495533242647
 21
275.2731500500114
 31
0.0
  0
ARC
  5
B13
330
ACA
100
AcDbEntity
  8
0
 62
     3
100
AcDbCircle
 10
66.62693773325168
 20
276.8588908343133
 30
0.0
 40
2.008364022758428
100
AcDbArc
 50
97.70152399999972
 51
266.0248408089554
  0
ARC
  5
B14
330
ACA
100
AcDbEntity
  8
0
 62
     3
100
AcDbCircle
 10
78.74673843866117
 20
276.8387169513708
 30
0.0
 40
2.030175374321248
100
AcDbArc
 50
0.3142499999973636
 51
69.00558199999754
  0
ARC
  5
B15
330
ACA
100
AcDbEntity
  8
0
 62
     3
100
AcDbCircle
 10
79.19020739389337
 20
276.8387169513708
 30
0.0
 40
2.030175374321248
100
AcDbArc
 50
110.9944180000024
 51
148.1166110000007
  0
ARC
  5
B16
330
ACA
100
AcDbEntity
  8
0
 62
     3
100
AcDbCircle
 10
78.74673843866117
 20
276.8609865246051
 30
0.0
 40
2.030175374321248
100
AcDbArc
 50
290.9944180000024
 51
359.685749999999
  0
ARC
  5
B17
330
ACA
100
AcDbEntity
  8
0
 62
     3
100
AcDbCircle
 10
79.19020739389337
 20
276.8609865246051
 30
0.0
 40
2.030175374321248
100
AcDbArc
 50
211.8833889999977
 51
249.0055819999976
  0
ARC
  5
B18
330
ACA
100
AcDbEntity
  8
0
 62
     3
100
AcDbCircle
 10
78.96847325320504
 20
277.6804317521362
 30
0.0
 40
1.168726044333501
100
AcDbArc
 50
64.3651719999999
 51
115.6348280000001
  0
ARC
  5
B19
330
ACA
100
AcDbEntity
  8
0
 62
     3
100
AcDbCircle
 10
78.96847325320504
 20
276.0192717238397
 30
0.0
 40
1.168726044333501
100
AcDbArc
 50
244.3651719999999
 51
295.6348280000002
  0
ARC
  5
B1A
330
ACA
100
AcDbEntity
  8
0
 62
     3
100
AcDbCircle
 10
78.96847325320504
 20
277.7026325921198
 30
0.0
 40
0.5736005406576802
100
AcDbArc
 50
19.48660599999859
 51
160.5133940000014
  0
ARC
  5
B1B
330
ACA
100
AcDbEntity
  8
0
 62
     3
100
AcDbCircle
 10
78.96847325320504
 20
275.9970715577115
 30
0.0
 40
0.5736005406576802
100
AcDbArc
 50
199.4866059999986
 51
340.5133940000014
  0
LINE
  5
B1C
330
ACA
100
AcDbEntity
  8
0
 62
     3
100
AcDbLine
 10
73.65396743405449
 20
274.8505456795062
 30
0.0
 11
71.96106110982238
 21
274.8505456795062
 31
0.0
  0
LINE
  5
B1D
330
ACA
100
AcDbEntity
  8
0
 62
     3
100
AcDbLine
 10
73.65396743405449
 20
275.0542049968205
 30
0.0
 11
73.65396743405449
 21
274.8505456795062
 31
0.0
  0
LINE
  5
B1E
330
ACA
100
AcDbEntity
  8
0
 62
     3
100
AcDbLine
 10
71.6090468792688
 20
278.8490627828584
 30
0.0
 11
69.89423958070552
 21
278.8490627828584
 31
0.0
  0
LINE
  5
B1F
330
ACA
100
AcDbEntity
  8
0
 62
     3
100
AcDbLine
 10
71.6090468792688
 20
278.8490627828584
 30
0.0
 11
71.6090468792688
 21
278.6454984791553
 31
0.0
  0
LINE
  5
B20
330
ACA
100
AcDbEntity
  8
0
 62
     3
100
AcDbLine
 10
71.6090468792688
 20
275.0542049968205
 30
0.0
 11
71.6090468792688
 21
274.8504506658949
 31
0.0
  0
LINE
  5
B21
330
ACA
100
AcDbEntity
  8
0
 62
     3
100
AcDbLine
 10
71.6090468792688
 20
274.8504506658949
 30
0.0
 11
69.89423958070552
 21
274.8504506658949
 31
0.0
  0
LINE
  5
B22
330
ACA
100
AcDbEntity
  8
0
 62
     3
100
AcDbLine
 10
73.65396743405449
 20
278.8491577964696
 30
0.0
 11
73.65396743405449
 21
278.6454984791553
 31
0.0
  0
LINE
  5
B23
330
ACA
100
AcDbEntity
  8
0
 62
     3
100
AcDbLine
 10
73.65396743405449
 20
278.8491577964696
 30
0.0
 11
71.96106110982238
 21
278.8491577964696
 31
0.0
  0
LINE
  5
B24
330
ACA
100
AcDbEntity
  8
0
 62
     3
100
AcDbLine
 10
71.96106110982238
 20
278.8491577964696
 30
0.0
 11
71.96106110982238
 21
278.6454984791553
 31
0.0
  0
LINE
  5
B25
330
ACA
100
AcDbEntity
  8
0
 62
     3
100
AcDbLine
 10
74.01780679804892
 20
275.0542049968205
 30
0.0
 11
74.01780679804892
 21
274.8505456795062
 31
0.0
  0
LINE
  5
B26
330
ACA
100
AcDbEntity
  8
0
 62
     3
100
AcDbLine
 10
75.84572495832481
 20
274.8505456795062
 30
0.0
 11
74.01780679804892
 21
274.8505456795062
 31
0.0
  0
LINE
  5
B27
330
ACA
100
AcDbEntity
  8
0
 62
     3
100
AcDbLine
 10
75.37351000561624
 20
278.2063293952258
 30
0.0
 11
75.37351000561624
 21
275.4933740807501
 31
0.0
  0
LINE
  5
B28
330
ACA
100
AcDbEntity
  8
0
 62
     3
100
AcDbLine
 10
75.37351000561624
 20
275.4933740807501
 30
0.0
 11
75.55646039880094
 21
275.4933740807501
 31
0.0
  0
ARC
  5
B29
330
ACA
100
AcDbEntity
  8
0
 62
     3
100
AcDbCircle
 10
74.62097053296566
 20
276.8498517379879
 30
0.0
 40
1.647777933922859
100
AcDbArc
 50
304.5919550000009
 51
55.40804499999918
  0
LINE
  5
B2A
330
ACA
100
AcDbEntity
  8
0
 62
     3
100
AcDbLine
 10
75.84572495832481
 20
278.8491577964696
 30
0.0
 11
74.01780679804892
 21
278.8491577964696
 31
0.0
  0
LINE
  5
B2B
330
ACA
100
AcDbEntity
  8
0
 62
     3
100
AcDbLine
 10
74.01780679804892
 20
278.8491577964696
 30
0.0
 11
74.01780679804892
 21
278.6454984791553
 31
0.0
  0
LINE
  5
B2C
330
ACA
100
AcDbEntity
  8
0
 62
     3
100
AcDbLine
 10
71.96106110982238
 20
275.0542049968205
 30
0.0
 11
71.96106110982238
 21
274.8505456795062
 31
0.0
  0
LINE
  5
B2D
330
ACA
100
AcDbEntity
  8
0
 62
     3
100
AcDbLine
 10
75.37351000561624
 20
278.2063293952258
 30
0.0
 11
75.55646039880094
 21
278.2063293952258
 31
0.0
  0
LINE
  5
B2E
330
ACA
100
AcDbEntity
  8
0
 62
     3
100
AcDbLine
 10
64.72230027005207
 20
275.0541986224044
 30
0.0
 11
64.72229622691975
 21
274.8505204371389
 31
0.0
  0
LINE
  5
B2F
330
ACA
100
AcDbEntity
  8
0
 62
     3
100
AcDbLine
 10
58.91573048621217
 20
274.8721993930075
 30
0.0
 11
60.23296579464136
 21
274.8721993930075
 31
0.0
  0
ARC
  5
B30
330
ACA
100
AcDbEntity
  8
0
 62
     3
100
AcDbCircle
 10
53.62514174043872
 20
276.8969319931671
 30
0.0
 40
14.16402202796531
100
AcDbArc
 50
353.8660059999992
 51
357.694034000001
  0
LINE
  5
B31
330
ACA
100
AcDbEntity
  8
0
 62
     3
100
AcDbLine
 10
66.82941578205123
 20
276.3305396837151
 30
0.0
 11
67.77769474950878
 21
276.3270309186513
 31
0.0
  0
LWPOLYLINE
  5
B32
330
ACA
100
AcDbEntity
  8
0
 62
     3
100
AcDbPolyline
 90
       64
 70
     0
 43
0.0
 10
66.83324530228515
 20
277.3655957279217
 10
66.81531333625571
 20
277.4804085585561
 10
66.79377759155113
 20
277.5903480669433
 10
66.76880518431062
 20
277.6945638475691
 10
66.7405874894671
 20
277.7922499693764
 10
66.70934418388106
 20
277.8826523881731
 10
66.67531583392997
 20
277.965071642055
 10
66.63876524321927
 20
278.0388702638143
 10
66.59997610487244
 20
278.1034788456387
 10
66.5592476106865
 20
278.1583980606774
 10
66.51689445113311
 20
278.2032020323179
 10
66.47324411993621
 20
278.2375457465958
 10
66.42863354479527
 20
278.2611630306287
 10
66.3834084135301
 20
278.2738719434584
 10
66.3379177832378
 20
278.275574102197
 10
66.29251340643645
 20
278.2662553558807
 10
66.24754568793401
 20
278.2459891547484
 10
66.20336301097154
 20
278.2149318332525
 10
66.1603070202366
 20
278.1733226100598
 10
66.11870925258563
 20
278.1214835880512
 10
66.07889248475498
 20
278.059815711189
 10
66.04116399480678
 20
277.9887953952409
 10
66.00581556212842
 20
277.9089711585015
 10
65.97312009815687
 20
277.8209609263721
 10
65.94333029866698
 20
277.7254446189504
 10
65.91667729606047
 20
277.6231607817542
 10
65.89336594237898
 20
277.5148991733112
 10
65.8735768308693
 20
277.4014967220273
 10
65.85746360056259
 20
277.2838307876325
 10
65.84514956699672
 20
277.1628104010602
 10
65.8367310914939
 20
277.0393708736045
 10
65.8322728641724
 20
276.9144670583663
 10
65.83180857780234
 20
276.7890632424218
 10
65.83534294937158
 20
276.6641291036907
 10
65.84284767695293
 20
276.5406309508153
 10
65.85426548283772
 20
276.4195222891857
 10
65.86950809196878
 20
276.3017404516621
 10
65.88845690579546
 20
276.1881951430336
 10
65.91096637155192
 20
276.0797643968855
 10
65.93686196068961
 20
275.9772851416234
 10
65.9659442120103
 20
275.8815511789078
 10
65.9979873839552
 20
275.7933010542562
 10
66.03274417159309
 20
275.7132180570435
 10
66.06994638047467
 20
275.6419207865263
 10
66.10930560048927
 20
275.5799597825655
 10
66.1505179228518
 20
275.5278141563501
 10
66.1932652878138
 20
275.4858875472644
 10
66.23721683237431
 20
275.4545040797554
 10
66.28203293341198
 20
275.4339056679111
 10
66.32736722925165
 20
275.4242513416061
 10
66.37286931508583
 20
275.425616572645
 10
66.41818743839599
 20
275.437989905486
 10
66.46297119437463
 20
275.4612770003731
 10
66.50687489520167
 20
275.4952965902041
 10
66.54955824390071
 20
275.5397865452286
 10
66.59069239903693
 20
275.5944018514821
 10
66.62995862700654
 20
275.6587220231956
 10
66.66705369287956
 20
275.7322484073737
 10
66.70169120811171
 20
275.81441361777
 10
66.73360297825388
 20
275.9045822087433
 10
66.76254237222997
 20
276.0020574138105
 10
66.78828567004734
 20
276.1060851887801
 10
66.81063475821884
 20
276.2158622980159
 10
66.82941578205123
 20
276.3305396837151
  0
LINE
  5
B33
330
ACA
100
AcDbEntity
  8
0
 62
     3
100
AcDbLine
 10
66.83324530228515
 20
277.3655957279217
 30
0.0
 11
67.7815242697427
 21
277.3620869628577
 31
0.0
  0
ARC
  5
B34
330
ACA
100
AcDbEntity
  8
0
 62
     3
100
AcDbCircle
 10
53.62514174043872
 20
276.8969319931671
 30
0.0
 40
14.16402202796531
100
AcDbArc
 50
1.881965999999206
 51
5.709993999999093
  0
LINE
  5
B35
330
ACA
100
AcDbEntity
  8
0
 62
     3
100
AcDbLine
 10
64.72236630803535
 20
278.8491402896916
 30
0.0
 11
64.72236293875835
 21
278.6454998403284
 31
0.0
  0
LINE
  5
B36
330
ACA
100
AcDbEntity
  8
0
 62
     3
100
AcDbLine
 10
63.02939394595137
 20
275.0542036356474
 30
0.0
 11
63.02939057667436
 21
274.8505631862842
 31
0.0
  0
LINE
  5
B37
330
ACA
100
AcDbEntity
  8
0
 62
     3
100
AcDbLine
 10
63.02945998378049
 20
278.8491759773598
 30
0.0
 11
63.02945661450348
 21
278.6454971182388
 31
0.0
  0
LINE
  5
B38
330
ACA
100
AcDbEntity
  8
0
 62
     3
100
AcDbLine
 10
60.23296579464136
 20
275.075858710322
 30
0.0
 11
60.23296579464136
 21
274.8721993930075
 31
0.0
  0
LINE
  5
B39
330
ACA
100
AcDbEntity
  8
0
 62
     3
100
AcDbLine
 10
59.89576267797656
 20
277.2171083655226
 30
0.0
 11
61.3613307857986
 21
274.8721993930075
 31
0.0
  0
LINE
  5
B3A
330
ACA
100
AcDbEntity
  8
0
 62
     3
100
AcDbLine
 10
61.3613307857986
 20
274.8721993930075
 30
0.0
 11
62.34268796709443
 21
274.8721993930075
 31
0.0
  0
LINE
  5
B3B
330
ACA
100
AcDbEntity
  8
0
 62
     3
100
AcDbLine
 10
62.67989108375922
 20
278.870811509971
 30
0.0
 11
62.67989108375922
 21
278.6671521926566
 31
0.0
  0
LINE
  5
B3C
330
ACA
100
AcDbEntity
  8
0
 62
     3
100
AcDbLine
 10
61.36265644918558
 20
278.870811509971
 30
0.0
 11
62.67989108375922
 21
278.870811509971
 31
0.0
  0
LINE
  5
B3D
330
ACA
100
AcDbEntity
  8
0
 62
     3
100
AcDbLine
 10
61.36265644918558
 20
278.870811509971
 30
0.0
 11
61.36265644918558
 21
278.6671521926566
 31
0.0
  0
LINE
  5
B3E
330
ACA
100
AcDbEntity
  8
0
 62
     3
100
AcDbLine
 10
61.6998595658506
 20
277.0597132644989
 30
0.0
 11
60.51132621591159
 21
278.870811509971
 31
0.0
  0
LINE
  5
B3F
330
ACA
100
AcDbEntity
  8
0
 62
     3
100
AcDbLine
 10
58.91573048621217
 20
278.870811509971
 30
0.0
 11
60.51132621591159
 21
278.870811509971
 31
0.0
  0
LINE
  5
B40
330
ACA
100
AcDbEntity
  8
0
 62
     3
100
AcDbLine
 10
67.81877573271163
 20
278.8490627828584
 30
0.0
 11
69.53358235741939
 21
278.8490627828583
 31
0.0
  0
LINE
  5
B41
330
ACA
100
AcDbEntity
  8
0
 62
     3
100
AcDbLine
 10
67.81877573271163
 20
278.6454984791553
 30
0.0
 11
67.81877573271163
 21
278.8490627828584
 31
0.0
  0
LINE
  5
B42
330
ACA
100
AcDbEntity
  8
0
 62
     3
100
AcDbLine
 10
67.81877573271163
 20
274.8504506658949
 30
0.0
 11
67.81877573271163
 21
275.0542049968205
 31
0.0
  0
LINE
  5
B43
330
ACA
100
AcDbEntity
  8
0
 62
     3
100
AcDbLine
 10
67.81877573271163
 20
274.8504506658948
 30
0.0
 11
69.53358235741939
 21
274.8504506658949
 31
0.0
  0
LINE
  5
B44
330
ACA
100
AcDbEntity
  8
0
 62
     3
100
AcDbLine
 10
69.89423958070552
 20
275.0542049968205
 30
0.0
 11
69.89423958070552
 21
274.8504506658949
 31
0.0
  0
LINE
  5
B45
330
ACA
100
AcDbEntity
  8
0
 62
     3
100
AcDbLine
 10
69.53358235741939
 20
275.0542049968205
 30
0.0
 11
69.53358235741939
 21
274.8504506658949
 31
0.0
  0
LINE
  5
B46
330
ACA
100
AcDbEntity
  8
0
 62
     3
100
AcDbLine
 10
69.53358235741939
 20
278.6454984791553
 30
0.0
 11
69.53358235741939
 21
278.8490627828584
 31
0.0
  0
LINE
  5
B47
330
ACA
100
AcDbEntity
  8
0
 62
     3
100
AcDbLine
 10
69.89423958070552
 20
278.6454984791553
 30
0.0
 11
69.89423958070552
 21
278.8490627828584
 31
0.0
  0
LINE
  5
B48
330
ACA
100
AcDbEntity
  8
0
 62
     3
100
AcDbLine
 10
58.91573048621217
 20
275.075858710322
 30
0.0
 11
58.91573048621217
 21
274.8721993930075
 31
0.0
  0
LINE
  5
B49
330
ACA
100
AcDbEntity
  8
0
 62
     3
100
AcDbLine
 10
58.91573048621217
 20
278.870811509971
 30
0.0
 11
58.91573048621217
 21
278.6671521926566
 31
0.0
  0
ARC
  5
B4A
330
ACA
100
AcDbEntity
  8
0
 62
     3
100
AcDbCircle
 10
76.0173242060589
 20
277.2693247024529
 30
0.0
 40
1.579833094016801
100
AcDbArc
 50
17.30874900000322
 51
23.76507099999849
  0
ARC
  5
B4B
330
ACA
100
AcDbEntity
  8
0
 62
     3
100
AcDbCircle
 10
74.67127580883515
 20
276.8498517379879
 30
0.0
 40
2.989728616463745
100
AcDbArc
 50
342.6912509999968
 51
17.30856599999721
  0
ARC
  5
B4C
330
ACA
100
AcDbEntity
  8
0
 62
     3
100
AcDbCircle
 10
76.0173242060589
 20
276.430378773523
 30
0.0
 40
1.579833094016801
100
AcDbArc
 50
336.2349290000015
 51
342.6912509999968
  0
ARC
  5
B4D
330
ACA
100
AcDbEntity
  8
0
 62
     3
100
AcDbCircle
 10
75.84572495832481
 20
277.2693247024529
 30
0.0
 40
1.579833094016801
100
AcDbArc
 50
17.30874900000322
 51
90.0
  0
ARC
  5
B4E
330
ACA
100
AcDbEntity
  8
0
 62
     3
100
AcDbCircle
 10
74.49967317843402
 20
276.8498607706099
 30
0.0
 40
2.989728616463745
100
AcDbArc
 50
342.6912509999968
 51
17.30856599999721
  0
ARC
  5
B4F
330
ACA
100
AcDbEntity
  8
0
 62
     3
100
AcDbCircle
 10
75.84572495832481
 20
276.430378773523
 30
0.0
 40
1.579833094016801
100
AcDbArc
 50
270.0
 51
342.6912509999968
  0
ARC
  5
B50
330
ACA
100
AcDbEntity
  8
0
 62
     3
100
AcDbCircle
 10
66.34906806852905
 20
276.8498517379879
 30
0.0
 40
1.999306058481749
100
AcDbArc
 50
46.7528800000023
 51
89.74999799999961
  0
ARC
  5
B51
330
ACA
100
AcDbEntity
  8
0
 62
     3
100
AcDbCircle
 10
66.34906806852905
 20
276.8498517379879
 30
0.0
 40
1.999306058481749
100
AcDbArc
 50
273.9763330000016
 51
312.8231199999934
  0
ARC
  5
B52
330
ACA
100
AcDbEntity
  8
0
 62
     3
100
AcDbCircle
 10
77.08381358307406
 20
276.8189878129916
 30
0.0
 40
2.652957925148358
100
AcDbArc
 50
0.666583999999372
 51
23.90392800000306
  0
ARC
  5
B53
330
ACA
100
AcDbEntity
  8
0
 62
     3
100
AcDbCircle
 10
80.8531322494805
 20
276.8189878129916
 30
0.0
 40
2.652957925148358
100
AcDbArc
 50
156.0960719999969
 51
179.3334160000006
  0
ARC
  5
B54
330
ACA
100
AcDbEntity
  8
0
 62
     3
100
AcDbCircle
 10
77.08381358307406
 20
276.8807156629842
 30
0.0
 40
2.652957925148358
100
AcDbArc
 50
336.0960719999969
 51
359.3334159999979
  0
ARC
  5
B55
330
ACA
100
AcDbEntity
  8
0
 62
     3
100
AcDbCircle
 10
80.8531322494805
 20
276.8807156629842
 30
0.0
 40
2.652957925148358
100
AcDbArc
 50
180.6665839999993
 51
203.903928000003
  0
LINE
  5
B56
330
ACA
100
AcDbEntity
  8
0
  6
Continuous
 62
     3
100
AcDbLine
 10
58.91573048621217
 20
278.6671521926566
 30
0.0
 11
59.25293360287717
 21
278.4481801852499
 31
0.0
  0
LINE
  5
B57
330
ACA
100
AcDbEntity
  8
0
  6
Continuous
 62
     3
100
AcDbLine
 10
61.36265644918558
 20
278.6671521926566
 30
0.0
 11
61.6998595658506
 21
278.4481801852499
 31
0.0
  0
LINE
  5
B58
330
ACA
100
AcDbEntity
  8
0
  6
Continuous
 62
     3
100
AcDbLine
 10
62.67989108375922
 20
278.6671521926566
 30
0.0
 11
62.34268796709443
 21
278.4481801852499
 31
0.0
  0
LINE
  5
B59
330
ACA
100
AcDbEntity
  8
0
  6
Continuous
 62
     3
100
AcDbLine
 10
63.02945661450348
 20
278.6454971182388
 30
0.0
 11
63.36663412467465
 21
278.4265210809052
 31
0.0
  0
LINE
  5
B5A
330
ACA
100
AcDbEntity
  8
0
  6
Continuous
 62
     3
100
AcDbLine
 10
64.72236293875835
 20
278.6454998403284
 30
0.0
 11
64.38515577894964
 21
278.4265069299419
 31
0.0
  0
LINE
  5
B5B
330
ACA
100
AcDbEntity
  8
0
  6
Continuous
 62
     3
100
AcDbLine
 10
67.81877573271163
 20
278.6454984791553
 30
0.0
 11
68.15597884937665
 21
278.4264597600639
 31
0.0
  0
LINE
  5
B5C
330
ACA
100
AcDbEntity
  8
0
  6
Continuous
 62
     3
100
AcDbLine
 10
69.53358235741939
 20
278.6454984791553
 30
0.0
 11
69.19637924075459
 21
278.4264597600639
 31
0.0
  0
LINE
  5
B5D
330
ACA
100
AcDbEntity
  8
0
  6
Continuous
 62
     3
100
AcDbLine
 10
69.89423958070552
 20
278.6454984791553
 30
0.0
 11
70.23144269737054
 21
278.4264597600639
 31
0.0
  0
LINE
  5
B5E
330
ACA
100
AcDbEntity
  8
0
  6
Continuous
 62
     3
100
AcDbLine
 10
71.6090468792688
 20
278.6454984791553
 30
0.0
 11
71.27184308874848
 21
278.4264597600639
 31
0.0
  0
LINE
  5
B5F
330
ACA
100
AcDbEntity
  8
0
  6
Continuous
 62
     3
100
AcDbLine
 10
71.96106110982238
 20
278.6454984791553
 30
0.0
 11
72.29826422648716
 21
278.4264597600639
 31
0.0
  0
LINE
  5
B60
330
ACA
100
AcDbEntity
  8
0
  6
Continuous
 62
     3
100
AcDbLine
 10
73.65396743405449
 20
278.6454984791553
 30
0.0
 11
73.31676431738968
 21
278.4264597600639
 31
0.0
  0
LINE
  5
B61
330
ACA
100
AcDbEntity
  8
0
  6
Continuous
 62
     3
100
AcDbLine
 10
74.01780679804892
 20
278.6454984791553
 30
0.0
 11
74.35500991471371
 21
278.4264597600639
 31
0.0
  0
LINE
  5
B62
330
ACA
100
AcDbEntity
  8
0
  6
Continuous
 62
     3
100
AcDbLine
 10
74.35495533242647
 20
275.2731500500114
 30
0.0
 11
74.01780679804892
 21
275.0542049968205
 31
0.0
  0
LINE
  5
B63
330
ACA
100
AcDbEntity
  8
0
  6
Continuous
 62
     3
100
AcDbLine
 10
73.31681889967693
 20
275.2731500500114
 30
0.0
 11
73.65396743405449
 21
275.0542049968205
 31
0.0
  0
LINE
  5
B64
330
ACA
100
AcDbEntity
  8
0
  6
Continuous
 62
     3
100
AcDbLine
 10
72.29820897034461
 20
275.2731500500114
 30
0.0
 11
71.96106110982238
 21
275.0542049968205
 31
0.0
  0
LINE
  5
B65
330
ACA
100
AcDbEntity
  8
0
  6
Continuous
 62
     3
100
AcDbLine
 10
71.6090468792688
 20
275.0542049968205
 30
0.0
 11
71.27189834489104
 21
275.2731500500114
 31
0.0
  0
LINE
  5
B66
330
ACA
100
AcDbEntity
  8
0
  6
Continuous
 62
     3
100
AcDbLine
 10
69.89423958070552
 20
275.0542049968205
 30
0.0
 11
70.23138744122753
 21
275.2731500500114
 31
0.0
  0
LINE
  5
B67
330
ACA
100
AcDbEntity
  8
0
  6
Continuous
 62
     3
100
AcDbLine
 10
69.53358235741939
 20
275.0542049968205
 30
0.0
 11
69.19643449689714
 21
275.2731500500114
 31
0.0
  0
LINE
  5
B68
330
ACA
100
AcDbEntity
  8
0
  6
Continuous
 62
     3
100
AcDbLine
 10
68.15592359323386
 20
275.2731500500114
 30
0.0
 11
67.81877573271163
 21
275.0542049968205
 31
0.0
  0
LINE
  5
B69
330
ACA
100
AcDbEntity
  8
0
  6
Continuous
 62
     3
100
AcDbLine
 10
64.72230027021101
 20
275.0542066299256
 30
0.0
 11
64.38515577894964
 21
275.2731965460339
 31
0.0
  0
LINE
  5
B6A
330
ACA
100
AcDbEntity
  8
0
  6
Continuous
 62
     3
100
AcDbLine
 10
63.02939394595137
 20
275.0542036356474
 30
0.0
 11
63.36656808684529
 21
275.2732106969974
 31
0.0
  0
LINE
  5
B6B
330
ACA
100
AcDbEntity
  8
0
  6
Continuous
 62
     3
100
AcDbLine
 10
60.23296579464136
 20
275.075858710322
 30
0.0
 11
59.89576267797656
 21
275.2948313915841
 31
0.0
  0
LINE
  5
B6C
330
ACA
100
AcDbEntity
  8
0
  6
Continuous
 62
     3
100
AcDbLine
 10
58.91573048621217
 20
275.075858710322
 30
0.0
 11
59.25293360287717
 21
275.2948313915841
 31
0.0
  0
LINE
  5
B6D
330
ACA
100
AcDbEntity
  8
0
  6
Continuous
 62
     3
100
AcDbLine
 10
64.72229622707867
 20
274.8505284446602
 30
0.0
 11
63.02939057667436
 21
274.8505631862842
 31
0.0
  0
LINE
  5
B6E
330
ACA
100
AcDbEntity
  8
0
  6
Continuous
 62
     3
100
AcDbLine
 10
63.02945998378049
 20
278.8491759773598
 30
0.0
 11
64.72236630803535
 21
278.8491402896916
 31
0.0
  0
ARC
  5
B6F
330
ACA
100
AcDbEntity
  8
0
  6
Continuous
 62
     3
100
AcDbCircle
 10
82.24372228088146
 20
276.8377054007734
 30
0.0
 40
0.9989999999999998
100
AcDbArc
 50
293.7485430905184
 51
66.25145690948149
  0
ARC
  5
B70
330
ACA
100
AcDbEntity
  8
0
  6
Continuous
 62
     3
100
AcDbCircle
 10
82.24372228088146
 20
276.8377054007734
 30
0.0
 40
1.498499999999999
100
AcDbArc
 50
293.7485430905184
 51
66.25145690948149
  0
ARC
  5
B71
330
ACA
100
AcDbEntity
  8
0
  6
Continuous
 62
     3
100
AcDbCircle
 10
74.59962913488856
 20
259.463983837004
 30
0.0
 40
19.98
100
AcDbArc
 50
66.25145690948149
 51
81.41597019517911
  0
ARC
  5
B72
330
ACA
100
AcDbEntity
  8
0
  6
Continuous
 62
     3
100
AcDbCircle
 10
74.59962913488856
 20
259.463983837004
 30
0.0
 40
20.4795
100
AcDbArc
 50
66.25145690948149
 51
81.41597019517911
  0
ARC
  5
B73
330
ACA
100
AcDbEntity
  8
0
  6
Continuous
 62
     3
100
AcDbCircle
 10
56.21958147402825
 20
276.8377054007734
 30
0.0
 40
0.9989999999999998
100
AcDbArc
 50
113.7485430905185
 51
246.2514569094815
  0
ARC
  5
B74
330
ACA
100
AcDbEntity
  8
0
  6
Continuous
 62
     3
100
AcDbCircle
 10
56.21958147402825
 20
276.8377054007734
 30
0.0
 40
1.498499999999999
100
AcDbArc
 50
113.7485430905185
 51
246.2514569094815
  0
ARC
  5
B75
330
ACA
100
AcDbEntity
  8
0
  6
Continuous
 62
     3
100
AcDbCircle
 10
63.86367462002089
 20
259.463983837004
 30
0.0
 40
19.98
100
AcDbArc
 50
98.5840298048209
 51
113.7485430905185
  0
ARC
  5
B76
330
ACA
100
AcDbEntity
  8
0
  6
Continuous
 62
     3
100
AcDbCircle
 10
63.86367462002089
 20
259.463983837004
 30
0.0
 40
20.4795
100
AcDbArc
 50
98.5840298048209
 51
113.7485430905185
  0
ARC
  5
B77
330
ACA
100
AcDbEntity
  8
0
  6
Continuous
 62
     3
100
AcDbCircle
 10
74.59962913488856
 20
294.2114269645427
 30
0.0
 40
19.98
100
AcDbArc
 50
278.5840298048209
 51
293.7485430905184
  0
ARC
  5
B78
330
ACA
100
AcDbEntity
  8
0
  6
Continuous
 62
     3
100
AcDbCircle
 10
74.59962913488856
 20
294.2114269645427
 30
0.0
 40
20.4795
100
AcDbArc
 50
278.5840298048209
 51
293.7485430905184
  0
ARC
  5
B79
330
ACA
100
AcDbEntity
  8
0
  6
Continuous
 62
     3
100
AcDbCircle
 10
63.86367462002089
 20
294.2114269645427
 30
0.0
 40
19.98
100
AcDbArc
 50
246.2514569094815
 51
261.4159701951791
  0
ARC
  5
B7A
330
ACA
100
AcDbEntity
  8
0
  6
Continuous
 62
     3
100
AcDbCircle
 10
63.86367462002089
 20
294.2114269645427
 30
0.0
 40
20.4795
100
AcDbArc
 50
246.2514569094815
 51
261.4159701951791
  0
ARC
  5
B7B
330
ACA
100
AcDbEntity
  8
0
  6
Continuous
 62
     3
100
AcDbCircle
 10
69.23165187745485
 20
223.9028517379889
 30
0.0
 40
56.44349999999903
100
AcDbArc
 50
81.41597019517911
 51
98.5840298048209
  0
ARC
  5
B7C
330
ACA
100
AcDbEntity
  8
0
  6
Continuous
 62
     3
100
AcDbCircle
 10
69.23165187745485
 20
223.9028517379897
 30
0.0
 40
55.94399999999822
100
AcDbArc
 50
81.41597019517911
 51
98.5840298048209
  0
ARC
  5
B7D
330
ACA
100
AcDbEntity
  8
0
  6
Continuous
 62
     3
100
AcDbCircle
 10
69.23165187745485
 20
329.7725590635579
 30
0.0
 40
56.44349999999903
100
AcDbArc
 50
261.4159701951791
 51
278.5840298048209
  0
ARC
  5
B7E
330
ACA
100
AcDbEntity
  8
0
  6
Continuous
 62
     3
100
AcDbCircle
 10
69.23165187745485
 20
329.7725590635571
 30
0.0
 40
55.94399999999822
100
AcDbArc
 50
261.4159701951791
 51
278.5840298048209
  0
TEXT
  5
B7F
330
ACA
100
AcDbEntity
  8
0
 62
     3
100
AcDbText
 10
187.4999996431435
 20
267.4999995915839
 30
0.0
 40
3.2
  1
担　当
  7
高3.2
100
AcDbText
  0
TEXT
  5
B80
330
ACA
100
AcDbEntity
  8
0
 62
     3
100
AcDbText
 10
143.4999996431435
 20
267.4999995915839
 30
0.0
 40
3.2
  1
変更・追記内容
  7
高3.2
100
AcDbText
  0
TEXT
  5
B81
330
ACA
100
AcDbEntity
  8
0
 62
     3
100
AcDbText
 10
118.6135146434827
 20
262.8294610816756
 30
0.0
 40
2.0
  1
1
  7
高2
100
AcDbText
  0
TEXT
  5
B82
330
ACA
100
AcDbEntity
  8
0
 62
     3
100
AcDbText
 10
118.3050031667254
 20
257.6596443694027
 30
0.0
 40
2.0
  1
2
  7
高2
100
AcDbText
  0
TEXT
  5
B83
330
ACA
100
AcDbEntity
  8
0
 62
     3
100
AcDbText
 10
125.4999996431435
 20
267.4999995915839
 30
0.0
 40
3.2
  1
日　付
  7
高3.2
100
AcDbText
  0
TEXT
  5
B84
330
ACA
100
AcDbEntity
  8
0
 62
     3
100
AcDbText
 10
125.4999996431435
 20
272.4999995915839
 30
0.0
 40
3.2
  1
図　　　　面　　　　略　　　　歴
  7
高3.2
100
AcDbText
  0
TEXT
  5
B85
330
ACA
100
AcDbEntity
  8
0
 62
     3
100
AcDbText
 10
115.4999996431435
 20
267.4999995915839
 30
0.0
 40
3.2
  1
記号
  7
高3.2
100
AcDbText
  0
LINE
  5
B86
330
ACA
100
AcDbEntity
  8
0
100
AcDbLine
 10
118.9999996431435
 20
260.790895591584
 30
0.0
 11
117.0999996431435
 21
257.4999995915839
 31
0.0
  0
LINE
  5
B87
330
ACA
100
AcDbEntity
  8
0
100
AcDbLine
 10
118.9999996431435
 20
260.790895591584
 30
0.0
 11
120.8999996431435
 21
257.4999995915839
 31
0.0
  0
LINE
  5
B88
330
ACA
100
AcDbEntity
  8
0
100
AcDbLine
 10
117.0999996431435
 20
257.4999995915839
 30
0.0
 11
120.8999996431435
 21
257.4999995915839
 31
0.0
  0
LINE
  5
B89
330
ACA
100
AcDbEntity
  8
0
100
AcDbLine
 10
118.9999996431435
 20
265.790896591584
 30
0.0
 11
117.0999996431435
 21
262.4999995915839
 31
0.0
  0
LINE
  5
B8A
330
ACA
100
AcDbEntity
  8
0
100
AcDbLine
 10
118.9999996431435
 20
265.790896591584
 30
0.0
 11
120.8999996431435
 21
262.4999995915839
 31
0.0
  0
LINE
  5
B8B
330
ACA
100
AcDbEntity
  8
0
100
AcDbLine
 10
117.0999996431435
 20
262.4999995915839
 30
0.0
 11
120.8999996431435
 21
262.4999995915839
 31
0.0
  0
LINE
  5
B8C
330
ACA
100
AcDbEntity
  8
0
 62
     3
100
AcDbLine
 10
113.9999996431435
 20
271.9999995915839
 30
0.0
 11
199.9999996431435
 21
271.9999995915839
 31
0.0
  0
LINE
  5
B8D
330
ACA
100
AcDbEntity
  8
0
 62
     3
100
AcDbLine
 10
113.9999996431435
 20
266.9999995915839
 30
0.0
 11
199.9999996431435
 21
266.9999995915839
 31
0.0
  0
LINE
  5
B8E
330
ACA
100
AcDbEntity
  8
0
 62
     7
100
AcDbLine
 10
113.9999996431435
 20
261.9999995915839
 30
0.0
 11
199.9999996431435
 21
261.9999995915839
 31
0.0
  0
LINE
  5
B8F
330
ACA
100
AcDbEntity
  8
0
 62
     3
100
AcDbLine
 10
113.9999996431435
 20
256.9999995915839
 30
0.0
 11
199.9999996431435
 21
256.9999995915839
 31
0.0
  0
LINE
  5
B90
330
ACA
100
AcDbEntity
  8
0
 62
     7
100
AcDbLine
 10
185.9999996431435
 20
256.9999995915839
 30
0.0
 11
185.9999996431435
 21
271.9999995915839
 31
0.0
  0
LINE
  5
B91
330
ACA
100
AcDbEntity
  8
0
 62
     7
100
AcDbLine
 10
141.9999996431435
 20
256.9999995915839
 30
0.0
 11
141.9999996431435
 21
271.9999995915839
 31
0.0
  0
LINE
  5
B92
330
ACA
100
AcDbEntity
  8
0
 62
     7
100
AcDbLine
 10
123.9999996431435
 20
256.9999995915839
 30
0.0
 11
123.9999996431435
 21
271.9999995915839
 31
0.0
  0
LINE
  5
B93
330
ACA
100
AcDbEntity
  8
0
 62
     3
100
AcDbLine
 10
113.9999996431435
 20
256.9999995915839
 30
0.0
 11
113.9999996431435
 21
276.9999995915839
 31
0.0
  0
ENDBLK
  5
B97
330
ACA
100
AcDbEntity
  8
0
100
AcDbBlockEnd
  0
BLOCK
  5
B9F
330
B9E
100
AcDbEntity
  8
0
100
AcDbBlockBegin
  2
*D3
 70
     1
 10
0.0
 20
0.0
 30
0.0
  3
*D3
  1

  0
LINE
  5
BA0
330
B9E
100
AcDbEntity
  8
0
 62
     0
370
    -2
100
AcDbLine
 10
1751.194261534398
 20
-295.5781734026812
 30
0.0
 11
1739.070647483131
 21
-295.5781734026812
 31
0.0
  0
LINE
  5
BA1
330
B9E
100
AcDbEntity
  8
0
 62
     0
370
    -2
100
AcDbLine
 10
1752.944261534399
 20
-434.8781734026813
 30
0.0
 11
1739.070647483131
 21
-434.8781734026813
 31
0.0
  0
LINE
  5
BA2
330
B9E
100
AcDbEntity
  8
0
 62
     0
370
    -2
100
AcDbLine
 10
1740.320647483131
 20
-298.0781734026812
 30
0.0
 11
1740.320647483131
 21
-432.3781734026812
 31
0.0
  0
INSERT
  5
BA3
330
B9E
100
AcDbEntity
  8
0
 62
     0
370
    -2
100
AcDbBlockReference
  2
_Open30
 10
1740.320647483131
 20
-295.5781734026812
 30
0.0
 41
2.5
 42
2.5
 43
2.5
 50
90.0
  0
INSERT
  5
BA4
330
B9E
100
AcDbEntity
  8
0
 62
     0
370
    -2
100
AcDbBlockReference
  2
_Open30
 10
1740.320647483131
 20
-434.8781734026813
 30
0.0
 41
2.5
 42
2.5
 43
2.5
 50
270.0
  0
MTEXT
  5
BA5
330
B9E
100
AcDbEntity
  8
0
 62
     4
100
AcDbMText
 10
1738.195647483131
 20
-374.3021712988971
 30
0.0
 40
3.0
 41
0.0
 71
     5
 72
     1
  1
139.3
 11
0.0000000000000001
 21
1.0
 31
0.0
 73
     1
 44
1.0
1001
ACAD
1000
MTEXTBEGIN
1070
    73
1070
     1
1070
    44
1040
1.0
1070
    74
1070
     0
1000
MTEXTEND
  0
POINT
  5
BA6
330
B9E
100
AcDbEntity
  8
Defpoints
 62
     0
100
AcDbPoint
 10
1751.444261534398
 20
-295.5781734026812
 30
0.0
  0
POINT
  5
BA7
330
B9E
100
AcDbEntity
  8
Defpoints
 62
     0
100
AcDbPoint
 10
1753.194261534398
 20
-434.8781734026813
 30
0.0
  0
POINT
  5
BA8
330
B9E
100
AcDbEntity
  8
Defpoints
 62
     0
100
AcDbPoint
 10
1740.320647483131
 20
-434.8781734026813
 30
0.0
  0
ENDBLK
  5
BA9
330
B9E
100
AcDbEntity
  8
0
100
AcDbBlockEnd
  0
BLOCK
  5
BAB
330
BAA
100
AcDbEntity
  8
0
100
AcDbBlockBegin
  2
*D4
 70
     1
 10
0.0
 20
0.0
 30
0.0
  3
*D4
  1

  0
LINE
  5
BAC
330
BAA
100
AcDbEntity
  8
0
 62
     0
370
    -2
100
AcDbLine
 10
1763.444261534399
 20
-419.128173402681
 30
0.0
 11
1763.444261534399
 21
-445.15166707051
 31
0.0
  0
LINE
  5
BAD
330
BAA
100
AcDbEntity
  8
0
 62
     0
370
    -2
100
AcDbLine
 10
1749.944261534398
 20
-419.128173402681
 30
0.0
 11
1749.944261534398
 21
-445.15166707051
 31
0.0
  0
LINE
  5
BAE
330
BAA
100
AcDbEntity
  8
0
 62
     0
370
    -2
100
AcDbLine
 10
1765.944261534398
 20
-443.9016670705099
 30
0.0
 11
1768.444261534398
 21
-443.9016670705099
 31
0.0
  0
LINE
  5
BAF
330
BAA
100
AcDbEntity
  8
0
 62
     0
370
    -2
100
AcDbLine
 10
1747.444261534399
 20
-443.9016670705099
 30
0.0
 11
1732.694261534399
 21
-443.9016670705099
 31
0.0
  0
LINE
  5
BB0
330
BAA
100
AcDbEntity
  8
0
 62
     0
370
    -2
100
AcDbLine
 10
1763.444261534399
 20
-443.9016670705099
 30
0.0
 11
1749.944261534398
 21
-443.9016670705099
 31
0.0
  0
INSERT
  5
BB1
330
BAA
100
AcDbEntity
  8
0
 62
     0
370
    -2
100
AcDbBlockReference
  2
_Open30
 10
1763.444261534399
 20
-443.9016670705099
 30
0.0
 41
2.5
 42
2.5
 43
2.5
 50
180.0
  0
INSERT
  5
BB2
330
BAA
100
AcDbEntity
  8
0
 62
     0
370
    -2
100
AcDbBlockReference
  2
_Open30
 10
1749.944261534398
 20
-443.9016670705099
 30
0.0
 41
2.5
 42
2.5
 43
2.5
  0
MTEXT
  5
BB3
330
BAA
100
AcDbEntity
  8
0
 62
     4
100
AcDbMText
 10
1738.819261534399
 20
-441.7766670705097
 30
0.0
 40
3.0
 41
0.0
 71
     5
 72
     1
  1
%%C13.5
 73
     1
 44
1.0
1001
ACAD
1000
MTEXTBEGIN
1070
    73
1070
     1
1070
    44
1040
1.0
1070
    74
1070
     0
1000
MTEXTEND
  0
POINT
  5
BB4
330
BAA
100
AcDbEntity
  8
Defpoints
 62
     0
100
AcDbPoint
 10
1763.444261534399
 20
-418.8781734026813
 30
0.0
  0
POINT
  5
BB5
330
BAA
100
AcDbEntity
  8
Defpoints
 62
     0
100
AcDbPoint
 10
1749.944261534398
 20
-418.8781734026813
 30
0.0
  0
POINT
  5
BB6
330
BAA
100
AcDbEntity
  8
Defpoints
 62
     0
100
AcDbPoint
 10
1749.944261534398
 20
-443.9016670705099
 30
0.0
  0
ENDBLK
  5
BB7
330
BAA
100
AcDbEntity
  8
0
100
AcDbBlockEnd
  0
BLOCK
  5
101A
330
1019
100
AcDbEntity
  8
0
100
AcDbBlockBegin
  2
*D5
 70
     1
 10
0.0
 20
0.0
 30
0.0
  3
*D5
  1

  0
LINE
  5
1208
330
1019
100
AcDbEntity
  8
0
 62
     0
370
    -2
100
AcDbLine
 10
1426.509174786514
 20
226.0642806292582
 30
0.0
 11
1414.385560735246
 21
226.0642806292582
 31
0.0
  0
LINE
  5
1209
330
1019
100
AcDbEntity
  8
0
 62
     0
370
    -2
100
AcDbLine
 10
1428.259174786514
 20
86.76428062925799
 30
0.0
 11
1414.385560735246
 21
86.76428062925799
 31
0.0
  0
LINE
  5
120A
330
1019
100
AcDbEntity
  8
0
 62
     0
370
    -2
100
AcDbLine
 10
1415.635560735246
 20
223.5642806292582
 30
0.0
 11
1415.635560735246
 21
89.26428062925799
 31
0.0
  0
INSERT
  5
120B
330
1019
100
AcDbEntity
  8
0
 62
     0
370
    -2
100
AcDbBlockReference
  2
_Open30
 10
1415.635560735246
 20
226.0642806292582
 30
0.0
 41
2.5
 42
2.5
 43
2.5
 50
90.0
  0
INSERT
  5
120C
330
1019
100
AcDbEntity
  8
0
 62
     0
370
    -2
100
AcDbBlockReference
  2
_Open30
 10
1415.635560735246
 20
86.76428062925799
 30
0.0
 41
2.5
 42
2.5
 43
2.5
 50
270.0
  0
MTEXT
  5
120D
330
1019
100
AcDbEntity
  8
0
 62
     4
100
AcDbMText
 10
1413.510560735246
 20
147.3402827330422
 30
0.0
 40
3.0
 41
0.0
 71
     5
 72
     1
  1
139.3
 11
0.0000000000000001
 21
1.0
 31
0.0
 73
     1
 44
1.0
1001
ACAD
1000
MTEXTBEGIN
1070
    73
1070
     1
1070
    44
1040
1.0
1070
    74
1070
     0
1000
MTEXTEND
  0
POINT
  5
120E
330
1019
100
AcDbEntity
  8
Defpoints
 62
     0
100
AcDbPoint
 10
1426.759174786514
 20
226.0642806292582
 30
0.0
  0
POINT
  5
120F
330
1019
100
AcDbEntity
  8
Defpoints
 62
     0
100
AcDbPoint
 10
1428.509174786514
 20
86.76428062925799
 30
0.0
  0
POINT
  5
1210
330
1019
100
AcDbEntity
  8
Defpoints
 62
     0
100
AcDbPoint
 10
1415.635560735246
 20
86.76428062925799
 30
0.0
  0
ENDBLK
  5
101B
330
1019
100
AcDbEntity
  8
0
100
AcDbBlockEnd
  0
BLOCK
  5
1026
330
1025
100
AcDbEntity
  8
0
100
AcDbBlockBegin
  2
*D6
 70
     1
 10
0.0
 20
0.0
 30
0.0
  3
*D6
  1

  0
LINE
  5
1211
330
1025
100
AcDbEntity
  8
0
 62
     0
370
    -2
100
AcDbLine
 10
1438.759174786514
 20
102.514280629258
 30
0.0
 11
1438.759174786514
 21
76.49078696142931
 31
0.0
  0
LINE
  5
1212
330
1025
100
AcDbEntity
  8
0
 62
     0
370
    -2
100
AcDbLine
 10
1425.259174786514
 20
102.514280629258
 30
0.0
 11
1425.259174786514
 21
76.49078696142931
 31
0.0
  0
LINE
  5
1213
330
1025
100
AcDbEntity
  8
0
 62
     0
370
    -2
100
AcDbLine
 10
1441.259174786514
 20
77.74078696142931
 30
0.0
 11
1443.759174786514
 21
77.74078696142931
 31
0.0
  0
LINE
  5
1214
330
1025
100
AcDbEntity
  8
0
 62
     0
370
    -2
100
AcDbLine
 10
1422.759174786514
 20
77.74078696142931
 30
0.0
 11
1408.009174786514
 21
77.74078696142931
 31
0.0
  0
LINE
  5
1215
330
1025
100
AcDbEntity
  8
0
 62
     0
370
    -2
100
AcDbLine
 10
1438.759174786514
 20
77.74078696142931
 30
0.0
 11
1425.259174786514
 21
77.74078696142931
 31
0.0
  0
INSERT
  5
1216
330
1025
100
AcDbEntity
  8
0
 62
     0
370
    -2
100
AcDbBlockReference
  2
_Open30
 10
1438.759174786514
 20
77.74078696142931
 30
0.0
 41
2.5
 42
2.5
 43
2.5
 50
180.0
  0
INSERT
  5
1217
330
1025
100
AcDbEntity
  8
0
 62
     0
370
    -2
100
AcDbBlockReference
  2
_Open30
 10
1425.259174786514
 20
77.74078696142931
 30
0.0
 41
2.5
 42
2.5
 43
2.5
  0
MTEXT
  5
1218
330
1025
100
AcDbEntity
  8
0
 62
     4
100
AcDbMText
 10
1414.134174786514
 20
79.86578696142931
 30
0.0
 40
3.0
 41
0.0
 71
     5
 72
     1
  1
%%C13.5
 73
     1
 44
1.0
1001
ACAD
1000
MTEXTBEGIN
1070
    73
1070
     1
1070
    44
1040
1.0
1070
    74
1070
     0
1000
MTEXTEND
  0
POINT
  5
1219
330
1025
100
AcDbEntity
  8
Defpoints
 62
     0
100
AcDbPoint
 10
1438.759174786514
 20
102.764280629258
 30
0.0
  0
POINT
  5
121A
330
1025
100
AcDbEntity
  8
Defpoints
 62
     0
100
AcDbPoint
 10
1425.259174786514
 20
102.764280629258
 30
0.0
  0
POINT
  5
121B
330
1025
100
AcDbEntity
  8
Defpoints
 62
     0
100
AcDbPoint
 10
1425.259174786514
 20
77.74078696142931
 30
0.0
  0
ENDBLK
  5
1027
330
1025
100
AcDbEntity
  8
0
100
AcDbBlockEnd
  0
ENDSEC
  0
SECTION
  2
ENTITIES
  0
LINE
  5
DED
330
1F
100
AcDbEntity
  8
0
 62
     3
100
AcDbLine
 10
1392.161249991295
 20
147.6180786473261
 30
0.0
 11
1391.673323161295
 21
147.6180786473261
 31
0.0
  0
LINE
  5
DEE
330
1F
100
AcDbEntity
  8
0
 62
     3
100
AcDbLine
 10
1403.673323161295
 20
286.1180786473262
 30
0.0
 11
1403.673323161295
 21
9.118078647326118
 31
0.0
  0
LINE
  5
DEF
330
1F
100
AcDbEntity
  8
0
 62
     3
100
AcDbLine
 10
1583.673323161296
 20
9.118078647326118
 30
0.0
 11
1583.673323161296
 21
286.1180786473262
 31
0.0
  0
LINE
  5
DF0
330
1F
100
AcDbEntity
  8
0
 62
     3
100
AcDbLine
 10
1403.673323161295
 20
9.118078647326118
 30
0.0
 11
1583.673323161296
 21
9.118078647326118
 31
0.0
  0
LINE
  5
DF1
330
1F
100
AcDbEntity
  8
0
 62
     3
100
AcDbLine
 10
1440.757675181296
 20
287.9055227473262
 30
0.0
 11
1441.193423091295
 21
287.6780546073259
 31
0.0
  0
LINE
  5
DF2
330
1F
100
AcDbEntity
  8
0
 62
     3
100
AcDbLine
 10
1440.757675181296
 20
284.1748922673259
 30
0.0
 11
1441.193423091295
 21
284.4023604073262
 31
0.0
  0
LINE
  5
DF3
330
1F
100
AcDbEntity
  8
0
 62
     3
100
AcDbLine
 10
1441.193423091295
 20
287.6780546073259
 30
0.0
 11
1441.193423091295
 21
284.4023604073262
 31
0.0
  0
LINE
  5
DF4
330
1F
100
AcDbEntity
  8
0
 62
     3
100
AcDbLine
 10
1442.296940511295
 20
284.1748922673259
 30
0.0
 11
1441.861192601295
 21
284.4023604073262
 31
0.0
  0
LINE
  5
DF5
330
1F
100
AcDbEntity
  8
0
 62
     3
100
AcDbLine
 10
1441.861192601295
 20
286.399219217326
 30
0.0
 11
1441.861192601295
 21
284.4023604073262
 31
0.0
  0
LINE
  5
DF6
330
1F
100
AcDbEntity
  8
0
 62
     3
100
AcDbLine
 10
1444.838803291296
 20
287.9055227473262
 30
0.0
 11
1444.403055381295
 21
287.6780546073259
 31
0.0
  0
LINE
  5
DF7
330
1F
100
AcDbEntity
  8
0
 62
     3
100
AcDbLine
 10
1443.299537961296
 20
287.9055227473262
 30
0.0
 11
1443.735285871295
 21
287.6780546073259
 31
0.0
  0
LINE
  5
DF8
330
1F
100
AcDbEntity
  8
0
 62
     3
100
AcDbLine
 10
1443.735285871295
 20
287.6780546073259
 30
0.0
 11
1443.735285871295
 21
286.2357175473262
 31
0.0
  0
LINE
  5
DF9
330
1F
100
AcDbEntity
  8
0
 62
     3
100
AcDbLine
 10
1444.403055381295
 20
287.6780546073259
 30
0.0
 11
1444.403055381295
 21
283.9633311273262
 31
0.0
  0
LINE
  5
DFA
330
1F
100
AcDbEntity
  8
0
 62
     3
100
AcDbLine
 10
1445.054100491296
 20
287.9055201173258
 30
0.0
 11
1445.489846831295
 21
287.6780489773259
 31
0.0
  0
LINE
  5
DFB
330
1F
100
AcDbEntity
  8
0
 62
     3
100
AcDbLine
 10
1445.054022521295
 20
284.1749422473263
 30
0.0
 11
1445.489778371295
 21
284.402395167326
 31
0.0
  0
LINE
  5
DFC
330
1F
100
AcDbEntity
  8
0
 62
     3
100
AcDbLine
 10
1445.489846831295
 20
287.6780489773259
 30
0.0
 11
1445.489846831295
 21
284.402395167326
 31
0.0
  0
LINE
  5
DFD
330
1F
100
AcDbEntity
  8
0
 62
     3
100
AcDbLine
 10
1446.983636891295
 20
287.905496447326
 30
0.0
 11
1446.547885801296
 21
287.6780344173262
 31
0.0
  0
LINE
  5
DFE
330
1F
100
AcDbEntity
  8
0
 62
     3
100
AcDbLine
 10
1446.547885801296
 20
287.6780344173262
 30
0.0
 11
1446.547885801296
 21
284.4023805973261
 31
0.0
  0
LINE
  5
DFF
330
1F
100
AcDbEntity
  8
0
 62
     3
100
AcDbLine
 10
1446.983636891295
 20
284.1749185673263
 30
0.0
 11
1446.547885801296
 21
284.4023805973261
 31
0.0
  0
LINE
  5
E00
330
1F
100
AcDbEntity
  8
0
 62
     3
100
AcDbLine
 10
1450.673890331296
 20
287.905455447326
 30
0.0
 11
1451.109637451295
 21
287.6779858073259
 31
0.0
  0
LINE
  5
E01
330
1F
100
AcDbEntity
  8
0
 62
     3
100
AcDbLine
 10
1451.109637451295
 20
287.6779858073259
 30
0.0
 11
1451.109580281295
 21
284.4023319973262
 31
0.0
  0
LINE
  5
E02
330
1F
100
AcDbEntity
  8
0
 62
     3
100
AcDbLine
 10
1450.673825221295
 20
284.1748775673262
 30
0.0
 11
1451.109580281295
 21
284.4023319973262
 31
0.0
  0
LINE
  5
E03
330
1F
100
AcDbEntity
  8
0
 62
     3
100
AcDbLine
 10
1452.626151291295
 20
287.905455447326
 30
0.0
 11
1452.190404171294
 21
287.6779858073259
 31
0.0
  0
LINE
  5
E04
330
1F
100
AcDbEntity
  8
0
 62
     3
100
AcDbLine
 10
1452.626216401295
 20
284.1748775673262
 30
0.0
 11
1452.190461341297
 21
284.4023319973262
 31
0.0
  0
LINE
  5
E05
330
1F
100
AcDbEntity
  8
0
 62
     3
100
AcDbLine
 10
1452.829879151296
 20
287.905455447326
 30
0.0
 11
1453.265626281296
 21
287.6779858073259
 31
0.0
  0
LINE
  5
E06
330
1F
100
AcDbEntity
  8
0
 62
     3
100
AcDbLine
 10
1452.829814041297
 20
284.1748775673262
 30
0.0
 11
1453.265569101295
 21
284.4023319973262
 31
0.0
  0
LINE
  5
E07
330
1F
100
AcDbEntity
  8
0
 62
     3
100
AcDbLine
 10
1454.782140121294
 20
287.905455447326
 30
0.0
 11
1454.346393001295
 21
287.6779858073259
 31
0.0
  0
LINE
  5
E08
330
1F
100
AcDbEntity
  8
0
 62
     3
100
AcDbLine
 10
1454.346393001295
 20
287.6779858073259
 30
0.0
 11
1454.346450171295
 21
284.4023319973262
 31
0.0
  0
LINE
  5
E09
330
1F
100
AcDbEntity
  8
0
 62
     3
100
AcDbLine
 10
1454.782205231295
 20
284.1748775673262
 30
0.0
 11
1454.346450171295
 21
284.4023319973262
 31
0.0
  0
LINE
  5
E0A
330
1F
100
AcDbEntity
  8
0
 62
     3
100
AcDbLine
 10
1453.265601371295
 20
286.2508526873261
 30
0.0
 11
1452.190429081295
 21
286.2508526873261
 31
0.0
  0
LINE
  5
E0B
330
1F
100
AcDbEntity
  8
0
 62
     3
100
AcDbLine
 10
1453.265594011295
 20
285.8295623273262
 30
0.0
 11
1452.190436431294
 21
285.8295623273262
 31
0.0
  0
LINE
  5
E0C
330
1F
100
AcDbEntity
  8
0
 62
     3
100
AcDbLine
 10
1453.265626281296
 20
287.6779858073259
 30
0.0
 11
1453.265601371295
 21
286.2508526873261
 31
0.0
  0
LINE
  5
E0D
330
1F
100
AcDbEntity
  8
0
 62
     3
100
AcDbLine
 10
1453.265594011295
 20
285.8295623273262
 30
0.0
 11
1453.265569101295
 21
284.4023319973262
 31
0.0
  0
LINE
  5
E0E
330
1F
100
AcDbEntity
  8
0
 62
     3
100
AcDbLine
 10
1452.190404171294
 20
287.6779858073259
 30
0.0
 11
1452.190429081295
 21
286.2508526873261
 31
0.0
  0
LINE
  5
E0F
330
1F
100
AcDbEntity
  8
0
 62
     3
100
AcDbLine
 10
1452.190436431294
 20
285.8295623273262
 30
0.0
 11
1452.190461341297
 21
284.4023319973262
 31
0.0
  0
LINE
  5
E10
330
1F
100
AcDbEntity
  8
0
 62
     3
100
AcDbLine
 10
1454.989099241295
 20
287.905455447326
 30
0.0
 11
1455.424846361295
 21
287.6779858073259
 31
0.0
  0
LINE
  5
E11
330
1F
100
AcDbEntity
  8
0
 62
     3
100
AcDbLine
 10
1455.424846361295
 20
287.6779858073259
 30
0.0
 11
1455.424789191295
 21
284.4023319973262
 31
0.0
  0
LINE
  5
E12
330
1F
100
AcDbEntity
  8
0
 62
     3
100
AcDbLine
 10
1454.989034131295
 20
284.1748775673262
 30
0.0
 11
1455.424789191295
 21
284.4023319973262
 31
0.0
  0
LINE
  5
E13
330
1F
100
AcDbEntity
  8
0
 62
     3
100
AcDbLine
 10
1456.918609511295
 20
287.905455447326
 30
0.0
 11
1456.482862391295
 21
287.6779858073259
 31
0.0
  0
LINE
  5
E14
330
1F
100
AcDbEntity
  8
0
 62
     3
100
AcDbLine
 10
1456.482862391295
 20
287.6779858073259
 30
0.0
 11
1456.482919561296
 21
284.4023319973262
 31
0.0
  0
LINE
  5
E15
330
1F
100
AcDbEntity
  8
0
 62
     3
100
AcDbLine
 10
1456.918674621295
 20
284.1748775673262
 30
0.0
 11
1456.482919561296
 21
284.4023319973262
 31
0.0
  0
LINE
  5
E16
330
1F
100
AcDbEntity
  8
0
 62
     3
100
AcDbLine
 10
1457.132969081295
 20
287.905455447326
 30
0.0
 11
1457.568716201295
 21
287.6779858073259
 31
0.0
  0
LINE
  5
E17
330
1F
100
AcDbEntity
  8
0
 62
     3
100
AcDbLine
 10
1457.568716201295
 20
287.6779858073259
 30
0.0
 11
1457.568659031295
 21
284.4023319973262
 31
0.0
  0
LINE
  5
E18
330
1F
100
AcDbEntity
  8
0
 62
     3
100
AcDbLine
 10
1457.132903971294
 20
284.1748775673262
 30
0.0
 11
1457.568659031295
 21
284.4023319973262
 31
0.0
  0
ARC
  5
E19
330
1F
100
AcDbEntity
  8
0
 62
     3
100
AcDbCircle
 10
1449.281979061296
 20
286.0495972673263
 30
0.0
 40
2.086285909999999
100
AcDbArc
 50
97.70152350999723
 51
270.0
  0
ARC
  5
E1A
330
1F
100
AcDbEntity
  8
0
 62
     3
100
AcDbCircle
 10
1462.162579901295
 20
286.0286406373262
 30
0.0
 40
2.108943379999999
100
AcDbArc
 50
0.3142502700008875
 51
69.0055824500031
  0
ARC
  5
E1B
330
1F
100
AcDbEntity
  8
0
 62
     3
100
AcDbCircle
 10
1462.623255221294
 20
286.0286406373262
 30
0.0
 40
2.108943379999999
100
AcDbArc
 50
110.9944175499969
 51
148.1166110199878
  0
ARC
  5
E1C
330
1F
100
AcDbEntity
  8
0
 62
     3
100
AcDbCircle
 10
1462.162579901295
 20
286.0517743773258
 30
0.0
 40
2.108943379999999
100
AcDbArc
 50
290.9944175499969
 51
359.6857497299991
  0
ARC
  5
E1D
330
1F
100
AcDbEntity
  8
0
 62
     3
100
AcDbCircle
 10
1462.623255221294
 20
286.0517743773258
 30
0.0
 40
2.108943379999999
100
AcDbArc
 50
211.8833889800141
 51
249.0055824500031
  0
ARC
  5
E1E
330
1F
100
AcDbEntity
  8
0
 62
     3
100
AcDbCircle
 10
1462.392917561295
 20
286.9030128973262
 30
0.0
 40
1.214070989999997
100
AcDbArc
 50
64.36517189999985
 51
115.6348281000001
  0
ARC
  5
E1F
330
1F
100
AcDbEntity
  8
0
 62
     3
100
AcDbCircle
 10
1462.392917561295
 20
285.1774021173262
 30
0.0
 40
1.214070989999997
100
AcDbArc
 50
244.3651718999996
 51
295.6348281000004
  0
ARC
  5
E20
330
1F
100
AcDbEntity
  8
0
 62
     3
100
AcDbCircle
 10
1462.392917561295
 20
286.926074577326
 30
0.0
 40
0.59585563
100
AcDbArc
 50
19.48660554000631
 51
160.5133944599935
  0
ARC
  5
E21
330
1F
100
AcDbEntity
  8
0
 62
     3
100
AcDbCircle
 10
1462.392917561295
 20
285.1774021173262
 30
0.0
 40
1.214070989999997
100
AcDbArc
 50
244.3651718999996
 51
295.6348281000004
  0
ARC
  5
E22
330
1F
100
AcDbEntity
  8
0
 62
     3
100
AcDbCircle
 10
1462.392917561295
 20
285.1543404373263
 30
0.0
 40
0.59585563
100
AcDbArc
 50
199.4866055400063
 51
340.5133944599937
  0
ARC
  5
E23
330
1F
100
AcDbEntity
  8
0
 62
     3
100
AcDbCircle
 10
1457.650445061295
 20
263.8121476673263
 30
0.0
 40
26.04
100
AcDbArc
 50
69.5057147999945
 51
81.68998807001051
  0
ARC
  5
E24
330
1F
100
AcDbEntity
  8
0
 62
     3
100
AcDbCircle
 10
1457.650445061295
 20
308.2682673473258
 30
0.0
 40
26.04
100
AcDbArc
 50
278.3100119299894
 51
290.4942852000055
  0
ARC
  5
E25
330
1F
100
AcDbEntity
  8
0
 62
     3
100
AcDbCircle
 10
1465.958649191295
 20
286.0402075073261
 30
0.0
 40
2.31
100
AcDbArc
 50
290.4942852000055
 51
69.5057147999945
  0
ARC
  5
E26
330
1F
100
AcDbEntity
  8
0
 62
     3
100
AcDbCircle
 10
1438.658649191296
 20
286.0402075073261
 30
0.0
 40
2.31
100
AcDbArc
 50
110.4942852000055
 51
249.5057147999945
  0
ARC
  5
E27
330
1F
100
AcDbEntity
  8
0
 62
     3
100
AcDbCircle
 10
1446.966853311295
 20
263.8121476673263
 30
0.0
 40
26.04
100
AcDbArc
 50
98.31001192998948
 51
110.4942852000055
  0
ARC
  5
E28
330
1F
100
AcDbEntity
  8
0
 62
     3
100
AcDbCircle
 10
1446.966853311295
 20
308.2682673473258
 30
0.0
 40
26.04
100
AcDbArc
 50
249.5057147999945
 51
261.6899880699842
  0
ARC
  5
E29
330
1F
100
AcDbEntity
  8
0
 62
     3
100
AcDbCircle
 10
1452.308649191295
 20
227.2402075073262
 30
0.0
 40
62.99999987
100
AcDbArc
 50
81.68998807001051
 51
98.31001192998948
  0
ARC
  5
E2A
330
1F
100
AcDbEntity
  8
0
 62
     3
100
AcDbCircle
 10
1452.308649191295
 20
344.8402075073262
 30
0.0
 40
62.99999987
100
AcDbArc
 50
261.6899880699842
 51
278.3100119299894
  0
ARC
  5
E2B
330
1F
100
AcDbEntity
  8
0
 62
     3
100
AcDbCircle
 10
1452.308649191295
 20
227.2402075073262
 30
0.0
 40
62.36999987
100
AcDbArc
 50
81.68998807001051
 51
98.31001192998948
  0
ARC
  5
E2C
330
1F
100
AcDbEntity
  8
0
 62
     3
100
AcDbCircle
 10
1452.308649191295
 20
344.8402075073262
 30
0.0
 40
62.36999987
100
AcDbArc
 50
261.6899880699842
 51
278.3100119299894
  0
ARC
  5
E2D
330
1F
100
AcDbEntity
  8
0
 62
     3
100
AcDbCircle
 10
1457.650445061295
 20
308.2682673473258
 30
0.0
 40
25.41
100
AcDbArc
 50
278.3100119299894
 51
290.4942852000055
  0
ARC
  5
E2E
330
1F
100
AcDbEntity
  8
0
 62
     3
100
AcDbCircle
 10
1457.650445061295
 20
263.8121476673263
 30
0.0
 40
25.41
100
AcDbArc
 50
69.5057147999945
 51
81.68998807001051
  0
ARC
  5
E2F
330
1F
100
AcDbEntity
  8
0
 62
     3
100
AcDbCircle
 10
1465.958649191295
 20
286.0402075073261
 30
0.0
 40
1.679999999999999
100
AcDbArc
 50
290.4942852000055
 51
69.5057147999945
  0
ARC
  5
E30
330
1F
100
AcDbEntity
  8
0
 62
     3
100
AcDbCircle
 10
1438.658649191296
 20
286.0402075073261
 30
0.0
 40
1.679999999999999
100
AcDbArc
 50
110.4942852000055
 51
249.5057147999945
  0
ARC
  5
E31
330
1F
100
AcDbEntity
  8
0
 62
     3
100
AcDbCircle
 10
1446.966853311295
 20
263.8121476673263
 30
0.0
 40
25.41
100
AcDbArc
 50
98.31001192998948
 51
110.4942852000055
  0
ARC
  5
E32
330
1F
100
AcDbEntity
  8
0
 62
     3
100
AcDbCircle
 10
1446.966853311295
 20
308.2682673473258
 30
0.0
 40
25.41
100
AcDbArc
 50
249.5057147999945
 51
261.6899880699842
  0
LINE
  5
E33
330
1F
100
AcDbEntity
  8
0
 62
     3
100
AcDbLine
 10
1456.918610291295
 20
283.9633311273262
 30
0.0
 11
1454.989098461296
 21
283.9633311273262
 31
0.0
  0
LINE
  5
E34
330
1F
100
AcDbEntity
  8
0
 62
     3
100
AcDbLine
 10
1456.918610291295
 20
284.1748922673259
 30
0.0
 11
1456.918610291295
 21
283.9633311273262
 31
0.0
  0
LINE
  5
E35
330
1F
100
AcDbEntity
  8
0
 62
     3
100
AcDbLine
 10
1454.782140901295
 20
288.1169851673262
 30
0.0
 11
1452.829878371296
 21
288.1169851673262
 31
0.0
  0
LINE
  5
E36
330
1F
100
AcDbEntity
  8
0
 62
     3
100
AcDbLine
 10
1454.782140901295
 20
288.1169851673262
 30
0.0
 11
1454.782140901295
 21
287.9055227473262
 31
0.0
  0
LINE
  5
E37
330
1F
100
AcDbEntity
  8
0
 62
     3
100
AcDbLine
 10
1454.782140901295
 20
284.1748922673259
 30
0.0
 11
1454.782140901295
 21
283.9632324173262
 31
0.0
  0
LINE
  5
E38
330
1F
100
AcDbEntity
  8
0
 62
     3
100
AcDbLine
 10
1454.782140901295
 20
283.9632324173262
 30
0.0
 11
1452.829878371296
 21
283.9632324173262
 31
0.0
  0
LINE
  5
E39
330
1F
100
AcDbEntity
  8
0
 62
     3
100
AcDbLine
 10
1456.918610291295
 20
288.1170838873261
 30
0.0
 11
1456.918610291295
 21
287.9055227473262
 31
0.0
  0
LINE
  5
E3A
330
1F
100
AcDbEntity
  8
0
 62
     3
100
AcDbLine
 10
1456.918610291295
 20
288.1170838873261
 30
0.0
 11
1454.989098461296
 21
288.1170838873261
 31
0.0
  0
LINE
  5
E3B
330
1F
100
AcDbEntity
  8
0
 62
     3
100
AcDbLine
 10
1454.989098461296
 20
288.1170838873261
 30
0.0
 11
1454.989098461296
 21
287.9055227473262
 31
0.0
  0
LINE
  5
E3C
330
1F
100
AcDbEntity
  8
0
 62
     3
100
AcDbLine
 10
1457.132968291295
 20
284.1748922673259
 30
0.0
 11
1457.132968291295
 21
283.9633311273262
 31
0.0
  0
LINE
  5
E3D
330
1F
100
AcDbEntity
  8
0
 62
     3
100
AcDbLine
 10
1459.117268851295
 20
283.9633311273262
 30
0.0
 11
1457.132968291295
 21
283.9633311273262
 31
0.0
  0
LINE
  5
E3E
330
1F
100
AcDbEntity
  8
0
 62
     3
100
AcDbLine
 10
1458.626732221295
 20
287.4493143673262
 30
0.0
 11
1458.626732221295
 21
284.6311006473262
 31
0.0
  0
LINE
  5
E3F
330
1F
100
AcDbEntity
  8
0
 62
     3
100
AcDbLine
 10
1458.626732221295
 20
284.6311006473262
 30
0.0
 11
1458.816781191295
 21
284.6311006473262
 31
0.0
  0
ARC
  5
E40
330
1F
100
AcDbEntity
  8
0
 62
     3
100
AcDbCircle
 10
1457.844995451296
 20
286.0402075073261
 30
0.0
 40
1.71170957
100
AcDbArc
 50
304.5919552699867
 51
55.40804473001387
  0
LINE
  5
E41
330
1F
100
AcDbEntity
  8
0
 62
     3
100
AcDbLine
 10
1459.117268851295
 20
288.1170838873261
 30
0.0
 11
1457.132968291295
 21
288.1170838873261
 31
0.0
  0
LINE
  5
E42
330
1F
100
AcDbEntity
  8
0
 62
     3
100
AcDbLine
 10
1457.132968291295
 20
288.1170838873261
 30
0.0
 11
1457.132968291295
 21
287.9055227473262
 31
0.0
  0
LINE
  5
E43
330
1F
100
AcDbEntity
  8
0
 62
     3
100
AcDbLine
 10
1454.989098461296
 20
284.1748922673259
 30
0.0
 11
1454.989098461296
 21
283.9633311273262
 31
0.0
  0
LINE
  5
E44
330
1F
100
AcDbEntity
  8
0
 62
     3
100
AcDbLine
 10
1458.626732221295
 20
287.4493143673262
 30
0.0
 11
1458.816781191295
 21
287.4493143673262
 31
0.0
  0
LINE
  5
E45
330
1F
100
AcDbEntity
  8
0
 62
     3
100
AcDbLine
 10
1446.983572561294
 20
284.1748922673259
 30
0.0
 11
1446.983568871296
 21
283.9633113573262
 31
0.0
  0
LINE
  5
E46
330
1F
100
AcDbEntity
  8
0
 62
     3
100
AcDbLine
 10
1445.054057031295
 20
283.9633508973262
 30
0.0
 11
1446.983568871296
 21
283.9633172273261
 31
0.0
  0
LINE
  5
E47
330
1F
100
AcDbEntity
  8
0
 62
     3
100
AcDbLine
 10
1440.757675181296
 20
283.9633311273262
 30
0.0
 11
1442.296940511295
 21
283.9633311273262
 31
0.0
  0
ARC
  5
E48
330
1F
100
AcDbEntity
  8
0
 62
     3
100
AcDbCircle
 10
1435.775732501296
 20
286.089114127326
 30
0.0
 40
14.71356563
100
AcDbArc
 50
353.8660061900012
 51
357.6940342600003
  0
LINE
  5
E49
330
1F
100
AcDbEntity
  8
0
 62
     3
100
AcDbLine
 10
1449.492312361296
 20
285.500746477326
 30
0.0
 11
1450.477383251296
 21
285.4971015973262
 31
0.0
  0
LINE
  5
E4B
330
1F
100
AcDbEntity
  8
0
 62
     3
100
AcDbLine
 10
1449.496290781295
 20
286.5759612173263
 30
0.0
 11
1450.481361661295
 21
286.5723163473262
 31
0.0
  0
ARC
  5
E4C
330
1F
100
AcDbEntity
  8
0
 62
     3
100
AcDbCircle
 10
1435.775732501296
 20
286.089114127326
 30
0.0
 40
14.71356563
100
AcDbArc
 50
1.88196573999784
 51
5.709993809999941
  0
LINE
  5
E4D
330
1F
100
AcDbEntity
  8
0
 62
     3
100
AcDbLine
 10
1446.983641361295
 20
288.1170641173262
 30
0.0
 11
1446.983637671295
 21
287.9055227473262
 31
0.0
  0
LINE
  5
E4E
330
1F
100
AcDbEntity
  8
0
 62
     3
100
AcDbLine
 10
1445.054129531295
 20
288.1171036573262
 30
0.0
 11
1446.983641361295
 21
288.1170699773262
 31
0.0
  0
LINE
  5
E4F
330
1F
100
AcDbEntity
  8
0
 62
     3
100
AcDbLine
 10
1445.054060721296
 20
284.1748922673259
 30
0.0
 11
1445.054057031295
 21
283.9633508973262
 31
0.0
  0
LINE
  5
E50
330
1F
100
AcDbEntity
  8
0
 62
     3
100
AcDbLine
 10
1445.054129531295
 20
288.1171036573262
 30
0.0
 11
1445.054125841294
 21
287.9055227473262
 31
0.0
  0
LINE
  5
E51
330
1F
100
AcDbEntity
  8
0
 62
     3
100
AcDbLine
 10
1442.296940511295
 20
284.1748922673259
 30
0.0
 11
1442.296940511295
 21
283.9633311273262
 31
0.0
  0
LINE
  5
E52
330
1F
100
AcDbEntity
  8
0
 62
     3
100
AcDbLine
 10
1441.861192601295
 20
286.399219217326
 30
0.0
 11
1443.383622661295
 21
283.9633311273262
 31
0.0
  0
LINE
  5
E53
330
1F
100
AcDbEntity
  8
0
 62
     3
100
AcDbLine
 10
1443.383622661295
 20
283.9633311273262
 30
0.0
 11
1444.403055381295
 21
283.9633311273262
 31
0.0
  0
LINE
  5
E54
330
1F
100
AcDbEntity
  8
0
 62
     3
100
AcDbLine
 10
1444.838803291296
 20
288.1170838873261
 30
0.0
 11
1444.838803291296
 21
287.9055227473262
 31
0.0
  0
LINE
  5
E55
330
1F
100
AcDbEntity
  8
0
 62
     3
100
AcDbLine
 10
1443.299537961296
 20
288.1170838873261
 30
0.0
 11
1444.838803291296
 21
288.1170838873261
 31
0.0
  0
LINE
  5
E56
330
1F
100
AcDbEntity
  8
0
 62
     3
100
AcDbLine
 10
1443.299537961296
 20
288.1170838873261
 30
0.0
 11
1443.299537961296
 21
287.9055227473262
 31
0.0
  0
LINE
  5
E57
330
1F
100
AcDbEntity
  8
0
 62
     3
100
AcDbLine
 10
1443.735285871295
 20
286.2357175473262
 30
0.0
 11
1442.500639201296
 21
288.1170838873261
 31
0.0
  0
LINE
  5
E58
330
1F
100
AcDbEntity
  8
0
 62
     3
100
AcDbLine
 10
1440.757675181296
 20
288.1170838873261
 30
0.0
 11
1442.500639201296
 21
288.1170838873261
 31
0.0
  0
LINE
  5
E59
330
1F
100
AcDbEntity
  8
0
 62
     3
100
AcDbLine
 10
1450.673889541295
 20
288.1169851673262
 30
0.0
 11
1452.626152081295
 21
288.1169851673262
 31
0.0
  0
LINE
  5
E5A
330
1F
100
AcDbEntity
  8
0
 62
     3
100
AcDbLine
 10
1450.673889541295
 20
287.9055227473262
 30
0.0
 11
1450.673889541295
 21
288.1169851673262
 31
0.0
  0
LINE
  5
E5B
330
1F
100
AcDbEntity
  8
0
 62
     3
100
AcDbLine
 10
1450.673889541295
 20
283.9632324173262
 30
0.0
 11
1450.673889541295
 21
284.1748922673259
 31
0.0
  0
LINE
  5
E5C
330
1F
100
AcDbEntity
  8
0
 62
     3
100
AcDbLine
 10
1450.673889541295
 20
283.9632324173262
 30
0.0
 11
1452.626152081295
 21
283.9632324173262
 31
0.0
  0
LINE
  5
E5D
330
1F
100
AcDbEntity
  8
0
 62
     3
100
AcDbLine
 10
1452.829878371296
 20
284.1748922673259
 30
0.0
 11
1452.829878371296
 21
283.9632324173262
 31
0.0
  0
LINE
  5
E5E
330
1F
100
AcDbEntity
  8
0
 62
     3
100
AcDbLine
 10
1452.626152081295
 20
284.1748922673259
 30
0.0
 11
1452.626152081295
 21
283.9632324173262
 31
0.0
  0
LINE
  5
E5F
330
1F
100
AcDbEntity
  8
0
 62
     3
100
AcDbLine
 10
1452.626152081295
 20
287.9055227473262
 30
0.0
 11
1452.626152081295
 21
288.1169851673262
 31
0.0
  0
LINE
  5
E60
330
1F
100
AcDbEntity
  8
0
 62
     3
100
AcDbLine
 10
1452.829878371296
 20
287.9055227473262
 30
0.0
 11
1452.829878371296
 21
288.1169851673262
 31
0.0
  0
LINE
  5
E61
330
1F
100
AcDbEntity
  8
0
 62
     3
100
AcDbLine
 10
1440.757675181296
 20
284.1748922673259
 30
0.0
 11
1440.757675181296
 21
283.9633311273262
 31
0.0
  0
LINE
  5
E62
330
1F
100
AcDbEntity
  8
0
 62
     3
100
AcDbLine
 10
1440.757675181296
 20
288.1170838873261
 30
0.0
 11
1440.757675181296
 21
287.9055227473262
 31
0.0
  0
ARC
  5
E63
330
1F
100
AcDbEntity
  8
0
 62
     3
100
AcDbCircle
 10
1459.327268851296
 20
286.4759554173259
 30
0.0
 40
1.641128469999999
100
AcDbArc
 50
17.30874897999459
 51
23.76507096000285
  0
ARC
  5
E64
330
1F
100
AcDbEntity
  8
0
 62
     3
100
AcDbCircle
 10
1457.928995451295
 20
286.0402075073261
 30
0.0
 40
3.105725599999998
100
AcDbArc
 50
342.6912510200054
 51
17.30856643999821
  0
ARC
  5
E65
330
1F
100
AcDbEntity
  8
0
 62
     3
100
AcDbCircle
 10
1459.327268851296
 20
285.6044596073262
 30
0.0
 40
1.641128469999999
100
AcDbArc
 50
336.2349290399972
 51
342.6912510200054
  0
ARC
  5
E66
330
1F
100
AcDbEntity
  8
0
 62
     3
100
AcDbCircle
 10
1459.117268851295
 20
286.4759554173259
 30
0.0
 40
1.641128469999999
100
AcDbArc
 50
17.30874897999459
 51
90.0
  0
ARC
  5
E67
330
1F
100
AcDbEntity
  8
0
 62
     3
100
AcDbCircle
 10
1457.718995451294
 20
286.0402075073261
 30
0.0
 40
3.105725599999998
100
AcDbArc
 50
342.6912510200054
 51
17.30856643999821
  0
ARC
  5
E68
330
1F
100
AcDbEntity
  8
0
 62
     3
100
AcDbCircle
 10
1459.117268851295
 20
285.6044596073262
 30
0.0
 40
1.641128469999999
100
AcDbArc
 50
270.0
 51
342.6912510200054
  0
ARC
  5
E69
330
1F
100
AcDbEntity
  8
0
 62
     3
100
AcDbCircle
 10
1448.993328481295
 20
286.0402075073261
 30
0.0
 40
2.076876379999998
100
AcDbArc
 50
46.75287961001065
 51
89.74999828999569
  0
ARC
  5
E6A
330
1F
100
AcDbEntity
  8
0
 62
     3
100
AcDbCircle
 10
1448.993328481295
 20
286.0402075073261
 30
0.0
 40
2.076876379999998
100
AcDbArc
 50
273.976333149984
 51
312.8231203899976
  0
ARC
  5
E6B
330
1F
100
AcDbEntity
  8
0
 62
     3
100
AcDbCircle
 10
1460.435136421296
 20
286.008145977326
 30
0.0
 40
2.755888999999998
100
AcDbArc
 50
0.6665840599981471
 51
23.90392826999617
  0
ARC
  5
E6C
330
1F
100
AcDbEntity
  8
0
 62
     3
100
AcDbCircle
 10
1464.350698701295
 20
286.008145977326
 30
0.0
 40
2.755888999999998
100
AcDbArc
 50
156.0960717300038
 51
179.3334159400018
  0
ARC
  5
E6D
330
1F
100
AcDbEntity
  8
0
 62
     3
100
AcDbCircle
 10
1460.435136421296
 20
286.0722690373263
 30
0.0
 40
2.755888999999998
100
AcDbArc
 50
336.0960717300038
 51
359.3334159400019
  0
ARC
  5
E6E
330
1F
100
AcDbEntity
  8
0
 62
     3
100
AcDbCircle
 10
1464.350698701295
 20
286.0722690373263
 30
0.0
 40
2.755888999999998
100
AcDbArc
 50
180.6665840599981
 51
203.9039282699961
  0
LINE
  5
E6F
330
1F
100
AcDbEntity
  8
0
 62
     3
100
AcDbLine
 10
1469.000985791295
 20
286.1180786473262
 30
0.0
 11
1583.673323161296
 21
286.1180786473262
 31
0.0
  0
LINE
  5
E70
330
1F
100
AcDbEntity
  8
0
 62
     3
100
AcDbLine
 10
1435.588239271296
 20
286.1180786473262
 30
0.0
 11
1403.673323161295
 21
286.1180786473262
 31
0.0
  0
LINE
  5
E71
330
1F
100
AcDbEntity
  8
0
 62
     3
100
AcDbLine
 10
1531.673323161296
 20
9.118078647326118
 30
0.0
 11
1531.673323161296
 21
49.11807864732622
 31
0.0
  0
LINE
  5
E72
330
1F
100
AcDbEntity
  8
0
 62
     3
100
AcDbLine
 10
1544.673323161295
 20
19.11807864732617
 30
0.0
 11
1544.673323161295
 21
47.11807864732622
 31
0.0
  0
LINE
  5
E73
330
1F
100
AcDbEntity
  8
0
 62
     3
100
AcDbLine
 10
1504.673323161296
 20
19.11807864732617
 30
0.0
 11
1504.673323161296
 21
33.11807864732617
 31
0.0
  0
LINE
  5
E74
330
1F
100
AcDbEntity
  8
0
 62
     3
100
AcDbLine
 10
1514.673323161296
 20
33.11807864732617
 30
0.0
 11
1514.673323161296
 21
9.118078647326118
 31
0.0
  0
LINE
  5
E75
330
1F
100
AcDbEntity
  8
0
 62
     3
100
AcDbLine
 10
1485.673323161296
 20
49.11807864732622
 30
0.0
 11
1485.673323161296
 21
26.11807864732618
 31
0.0
  0
LINE
  5
E76
330
1F
100
AcDbEntity
  8
0
 62
     3
100
AcDbLine
 10
1544.673323161295
 20
47.11807864732622
 30
0.0
 11
1544.673323161295
 21
49.11807864732622
 31
0.0
  0
LINE
  5
E77
330
1F
100
AcDbEntity
  8
0
 62
     3
100
AcDbLine
 10
1557.673323161295
 20
26.11807864732618
 30
0.0
 11
1557.673323161295
 21
49.11807864732622
 31
0.0
  0
LINE
  5
E78
330
1F
100
AcDbEntity
  8
0
 62
     3
100
AcDbLine
 10
1583.673323161296
 20
49.11807864732622
 30
0.0
 11
1472.427888521296
 21
49.11807864732622
 31
0.0
  0
LINE
  5
E79
330
1F
100
AcDbEntity
  8
0
 62
     3
100
AcDbLine
 10
1583.673323161296
 20
55.11807864732627
 30
0.0
 11
1531.673323161296
 21
55.11807864732627
 31
0.0
  0
LINE
  5
E7A
330
1F
100
AcDbEntity
  8
0
 62
     3
100
AcDbLine
 10
1583.673323161296
 20
40.11807864732623
 30
0.0
 11
1472.427888521296
 21
40.11807864732623
 31
0.0
  0
LINE
  5
E7B
330
1F
100
AcDbEntity
  8
0
 62
     3
100
AcDbLine
 10
1583.673323161296
 20
26.11807864732618
 30
0.0
 11
1472.427888521296
 21
26.11807864732618
 31
0.0
  0
LINE
  5
E7C
330
1F
100
AcDbEntity
  8
0
 62
     3
100
AcDbLine
 10
1583.673323161296
 20
19.11807864732617
 30
0.0
 11
1472.427888521296
 21
19.11807864732617
 31
0.0
  0
LINE
  5
E7D
330
1F
100
AcDbEntity
  8
0
 62
     3
100
AcDbLine
 10
1570.673323161296
 20
26.11807864732618
 30
0.0
 11
1570.673323161296
 21
49.11807864732622
 31
0.0
  0
LINE
  5
E7E
330
1F
100
AcDbEntity
  8
0
 62
     3
100
AcDbLine
 10
1472.427888521296
 20
49.11807864732622
 30
0.0
 11
1472.427888521296
 21
9.118078647326118
 31
0.0
  0
LINE
  5
E7F
330
1F
100
AcDbEntity
  8
0
 62
     3
100
AcDbLine
 10
1531.673323161296
 20
33.11807864732617
 30
0.0
 11
1472.427888521296
 21
33.11807864732617
 31
0.0
  0
LINE
  5
E80
330
1F
100
AcDbEntity
  8
0
 62
     3
100
AcDbLine
 10
1514.951648091296
 20
13.95093990732618
 30
0.0
 11
1531.673323161296
 21
13.95093990732618
 31
0.0
  0
TEXT
  5
E81
330
1F
100
AcDbEntity
  8
0
 62
     3
100
AcDbText
 10
1515.837648574612
 20
28.1911755006916
 30
0.0
 40
2.5
  1
-
  7
高2.5
100
AcDbText
  0
TEXT
  5
E82
330
1F
100
AcDbEntity
  8
0
 62
     3
100
AcDbText
 10
1486.869691856549
 20
29.92265556033078
 30
0.0
 40
2.5
  1
本体:アルミ
 41
0.6
  7
高2.5
100
AcDbText
  0
TEXT
  5
E83
330
1F
100
AcDbEntity
  8
0
 62
     3
100
AcDbText
 10
1487.134599611245
 20
41.4303281710841
 30
0.0
 40
4.5
  1
電池式ペンライト
  7
高4.5
100
AcDbText
1001
ACAD
1000
ACAD_MTEXT_DEFINED_HEIGHT_BEGIN
1070
    46
1040
0.0
1000
ACAD_MTEXT_DEFINED_HEIGHT_END
  0
TEXT
  5
E84
330
1F
100
AcDbEntity
  8
0
 62
     3
100
AcDbText
 10
1573.73891225477
 20
45.63177074602982
 30
0.0
 40
2.0
  1
DEF
  7
高2
100
AcDbText
  0
TEXT
  5
E85
330
1F
100
AcDbEntity
  8
0
 62
     3
100
AcDbText
 10
1559.799813901062
 20
45.63177074602982
 30
0.0
 40
2.0
  1
DESN
  7
高2
100
AcDbText
  0
TEXT
  5
E86
330
1F
100
AcDbEntity
  8
0
 62
     3
100
AcDbText
 10
1533.545446961062
 20
45.63177074602982
 30
0.0
 40
2.0
  1
APPD
  7
高2
100
AcDbText
  0
TEXT
  5
E87
330
1F
100
AcDbEntity
  8
0
 62
     3
100
AcDbText
 10
1546.658183061295
 20
45.63177074602982
 30
0.0
 40
2.0
  1
CHCK
  7
高2
100
AcDbText
  0
TEXT
  5
E88
330
1F
100
AcDbEntity
  8
0
 62
     3
100
AcDbText
 10
1505.600488800448
 20
23.28647747055697
 30
0.0
 40
2.0
  1
SCALE
 41
0.8
  7
高2
100
AcDbText
  0
TEXT
  5
E89
330
1F
100
AcDbEntity
  8
0
 62
     3
100
AcDbText
 10
1474.112467224341
 20
23.28647747055697
 30
0.0
 40
2.0
  1
3AD　ANGLE
 41
1.5
  7
高2
100
AcDbText
  0
TEXT
  5
E8A
330
1F
100
AcDbEntity
  8
0
 62
     3
100
AcDbText
 10
1504.869894491297
 20
30.03801553951405
 30
0.0
 40
2.0
  1
REMARKS
 41
0.7
  7
高2
100
AcDbText
  0
TEXT
  5
E8B
330
1F
100
AcDbEntity
  8
0
 62
     3
100
AcDbText
 10
1473.895558871295
 20
30.11807864732618
 30
0.0
 40
2.0
  1
MATERIAL
 41
0.7
  7
高2
100
AcDbText
  0
TEXT
  5
E8C
330
1F
100
AcDbEntity
  8
0
 62
     3
100
AcDbText
 10
1474.472046074049
 20
37.11807864732617
 30
0.0
 40
2.0
  1
MODEL
  7
高2
100
AcDbText
  0
TEXT
  5
E8D
330
1F
100
AcDbEntity
  8
0
 62
     3
100
AcDbText
 10
1474.108966955381
 20
45.82509999792521
 30
0.0
 40
2.0
  1
CONPONENTS
 41
0.5
  7
高2
100
AcDbText
  0
TEXT
  5
E8E
330
1F
100
AcDbEntity
  8
0
 62
     3
100
AcDbText
 10
1486.816082426548
 20
34.20555977513817
 30
0.0
 40
4.5
  1
SL-2PEN
  7
高4.5
100
AcDbText
  0
TEXT
  5
E8F
330
1F
100
AcDbEntity
  8
0
 62
     3
100
AcDbText
 10
1534.738368891913
 20
10.54568357159769
 30
0.0
 40
6.299999999999998
  1
SL-2PEN
  7
高6.3
100
AcDbText
1001
ACAD
1000
ACAD_MTEXT_DEFINED_HEIGHT_BEGIN
1070
    46
1040
0.0
1000
ACAD_MTEXT_DEFINED_HEIGHT_END
  0
TEXT
  5
E90
330
1F
100
AcDbEntity
  8
0
 62
     3
100
AcDbText
 10
1548.236832911626
 20
20.21896780555932
 30
0.0
 40
3.2
  1
2019.02.05
  7
高3.2
100
AcDbText
1001
ACAD
1000
ACAD_MTEXT_DEFINED_HEIGHT_BEGIN
1070
    46
1040
0.0
1000
ACAD_MTEXT_DEFINED_HEIGHT_END
  0
TEXT
  5
E91
330
1F
100
AcDbEntity
  8
0
 62
     3
100
AcDbText
 10
1518.460921055943
 20
20.21899564989405
 30
0.0
 40
3.2
  1
1/1
  7
高3.2
100
AcDbText
  0
TEXT
  5
E92
330
1F
100
AcDbEntity
  8
0
 62
     3
100
AcDbText
 10
1515.538250031296
 20
9.934956820462216
 30
0.0
 40
3.2
  1
ZK-A4Y
 41
0.8
  7
高3.2
100
AcDbText
  0
TEXT
  5
E93
330
1F
100
AcDbEntity
  8
0
 62
     3
100
AcDbText
 10
1473.258589561296
 20
15.64269906951404
 30
0.0
 40
2.0
  1
NICHIDO IND.CO.LTD
 41
1.3
  7
高2
100
AcDbText
  0
TEXT
  5
E94
330
1F
100
AcDbEntity
  8
0
 62
     3
100
AcDbText
 10
1474.440112826252
 20
41.25860685521121
 30
0.0
 40
3.2
  1
品 名
  7
高3.2
100
AcDbText
1001
ACAD
1000
ACAD_MTEXT_DEFINED_HEIGHT_BEGIN
1070
    46
1040
0.0
1000
ACAD_MTEXT_DEFINED_HEIGHT_END
  0
TEXT
  5
E95
330
1F
100
AcDbEntity
  8
0
 62
     3
100
AcDbText
 10
1474.440112826252
 20
33.61807864732617
 30
0.0
 40
3.2
  1
型 式
  7
高3.2
100
AcDbText
1001
ACAD
1000
ACAD_MTEXT_DEFINED_HEIGHT_BEGIN
1070
    46
1040
3.064735913775952
1000
ACAD_MTEXT_DEFINED_HEIGHT_END
  0
TEXT
  5
E96
330
1F
100
AcDbEntity
  8
0
 62
     3
100
AcDbText
 10
1474.440112826252
 20
26.61807864732617
 30
0.0
 40
3.2
  1
材 質
  7
高3.2
100
AcDbText
1001
ACAD
1000
ACAD_MTEXT_DEFINED_HEIGHT_BEGIN
1070
    46
1040
0.0
1000
ACAD_MTEXT_DEFINED_HEIGHT_END
  0
TEXT
  5
E97
330
1F
100
AcDbEntity
  8
0
 62
     3
100
AcDbText
 10
1474.135077876252
 20
19.5855186395724
 30
0.0
 40
3.2
  1
第 三 角 法
  7
高3.2
100
AcDbText
1001
ACAD
1000
ACAD_MTEXT_DEFINED_HEIGHT_BEGIN
1070
    46
1040
0.0
1000
ACAD_MTEXT_DEFINED_HEIGHT_END
  0
TEXT
  5
E98
330
1F
100
AcDbEntity
  8
0
 62
     3
100
AcDbText
 10
1472.541610483781
 20
10.25860685521121
 30
0.0
 40
3.2
  1
日動工業株式会社
 41
1.199999999999999
  7
高3.2
100
AcDbText
1001
ACAD
1000
ACAD_MTEXT_DEFINED_HEIGHT_BEGIN
1070
    46
1040
0.0
1000
ACAD_MTEXT_DEFINED_HEIGHT_END
  0
TEXT
  5
E99
330
1F
100
AcDbEntity
  8
0
 62
     3
100
AcDbText
 10
1506.177234683259
 20
26.50265718049377
 30
0.0
 40
3.2
  1
備考
  7
高3.2
100
AcDbText
1001
ACAD
1000
ACAD_MTEXT_DEFINED_HEIGHT_BEGIN
1070
    46
1040
0.0
1000
ACAD_MTEXT_DEFINED_HEIGHT_END
  0
TEXT
  5
E9A
330
1F
100
AcDbEntity
  8
0
 62
     3
100
AcDbText
 10
1515.826292130296
 20
15.2643086728965
 30
0.0
 40
2.5
  1
出図コード
  7
高2.5
100
AcDbText
1001
ACAD
1000
ACAD_MTEXT_DEFINED_HEIGHT_BEGIN
1070
    46
1040
0.0
1000
ACAD_MTEXT_DEFINED_HEIGHT_END
  0
TEXT
  5
E9B
330
1F
100
AcDbEntity
  8
0
 62
     3
100
AcDbText
 10
1506.018468565172
 20
19.57131355773919
 30
0.0
 40
3.2
  1
尺度
  7
高3.2
100
AcDbText
1001
ACAD
1000
ACAD_MTEXT_DEFINED_HEIGHT_BEGIN
1070
    46
1040
0.0
1000
ACAD_MTEXT_DEFINED_HEIGHT_END
  0
TEXT
  5
E9C
330
1F
100
AcDbEntity
  8
0
 62
     3
100
AcDbText
 10
1533.164730046952
 20
20.70279200585662
 30
0.0
 40
3.2
  1
作成日
  7
高3.2
100
AcDbText
1001
ACAD
1000
ACAD_MTEXT_DEFINED_HEIGHT_BEGIN
1070
    46
1040
0.0
1000
ACAD_MTEXT_DEFINED_HEIGHT_END
  0
TEXT
  5
E9D
330
1F
100
AcDbEntity
  8
0
 62
     3
100
AcDbText
 10
1533.059204053815
 20
41.25860685521121
 30
0.0
 40
3.2
  1
承 認
  7
高3.2
100
AcDbText
1001
ACAD
1000
ACAD_MTEXT_DEFINED_HEIGHT_BEGIN
1070
    46
1040
0.0
1000
ACAD_MTEXT_DEFINED_HEIGHT_END
  0
TEXT
  5
E9E
330
1F
100
AcDbEntity
  8
0
 62
     3
100
AcDbText
 10
1546.059204053815
 20
41.25860685521121
 30
0.0
 40
3.2
  1
検 図
  7
高3.2
100
AcDbText
1001
ACAD
1000
ACAD_MTEXT_DEFINED_HEIGHT_BEGIN
1070
    46
1040
0.0
1000
ACAD_MTEXT_DEFINED_HEIGHT_END
  0
TEXT
  5
E9F
330
1F
100
AcDbEntity
  8
0
 62
     3
100
AcDbText
 10
1559.059204053816
 20
41.25860685521121
 30
0.0
 40
3.2
  1
設 計
  7
高3.2
100
AcDbText
1001
ACAD
1000
ACAD_MTEXT_DEFINED_HEIGHT_BEGIN
1070
    46
1040
0.0
1000
ACAD_MTEXT_DEFINED_HEIGHT_END
  0
TEXT
  5
EA0
330
1F
100
AcDbEntity
  8
0
 62
     3
100
AcDbText
 10
1572.359840573815
 20
41.25860685521121
 30
0.0
 40
3.2
  1
製 図
  7
高3.2
100
AcDbText
1001
ACAD
1000
ACAD_MTEXT_DEFINED_HEIGHT_BEGIN
1070
    46
1040
0.0
1000
ACAD_MTEXT_DEFINED_HEIGHT_END
  0
TEXT
  5
EA1
330
1F
100
AcDbEntity
  8
0
 62
     3
100
AcDbText
 10
1571.173323161296
 20
276.6180786473262
 30
0.0
 40
3.2
  1
担　当
  7
高3.2
100
AcDbText
  0
TEXT
  5
EA2
330
1F
100
AcDbEntity
  8
0
 62
     3
100
AcDbText
 10
1527.173323161295
 20
276.6180786473262
 30
0.0
 40
3.2
  1
変更・追記内容
  7
高3.2
100
AcDbText
  0
TEXT
  5
EA3
330
1F
100
AcDbEntity
  8
0
 62
     3
100
AcDbText
 10
1502.286838161634
 20
271.9475401374179
 30
0.0
 40
2.0
  1
1
  7
高2
100
AcDbText
  0
TEXT
  5
EA4
330
1F
100
AcDbEntity
  8
0
 62
     3
100
AcDbText
 10
1501.978326684877
 20
266.7777234251448
 30
0.0
 40
2.0
  1
2
  7
高2
100
AcDbText
  0
TEXT
  5
EA5
330
1F
100
AcDbEntity
  8
0
 62
     3
100
AcDbText
 10
1509.173323161296
 20
276.6180786473262
 30
0.0
 40
3.2
  1
日　付
  7
高3.2
100
AcDbText
  0
TEXT
  5
EA6
330
1F
100
AcDbEntity
  8
0
 62
     3
100
AcDbText
 10
1509.173323161296
 20
281.6180786473262
 30
0.0
 40
3.2
  1
図　　　　面　　　　略　　　　歴
  7
高3.2
100
AcDbText
  0
TEXT
  5
EA7
330
1F
100
AcDbEntity
  8
0
 62
     3
100
AcDbText
 10
1499.173323161295
 20
276.6180786473262
 30
0.0
 40
3.2
  1
記号
  7
高3.2
100
AcDbText
  0
LINE
  5
EA8
330
1F
100
AcDbEntity
  8
0
 62
     7
100
AcDbLine
 10
1502.673323161294
 20
269.9089746473263
 30
0.0
 11
1500.773323161295
 21
266.6180786473262
 31
0.0
  0
LINE
  5
EA9
330
1F
100
AcDbEntity
  8
0
 62
     7
100
AcDbLine
 10
1502.673323161294
 20
269.9089746473263
 30
0.0
 11
1504.573323161296
 21
266.6180786473262
 31
0.0
  0
LINE
  5
EAA
330
1F
100
AcDbEntity
  8
0
 62
     7
100
AcDbLine
 10
1500.773323161295
 20
266.6180786473262
 30
0.0
 11
1504.573323161296
 21
266.6180786473262
 31
0.0
  0
LINE
  5
EAB
330
1F
100
AcDbEntity
  8
0
 62
     7
100
AcDbLine
 10
1502.673323161294
 20
274.9089756473261
 30
0.0
 11
1500.773323161295
 21
271.6180786473262
 31
0.0
  0
LINE
  5
EAC
330
1F
100
AcDbEntity
  8
0
 62
     7
100
AcDbLine
 10
1502.673323161294
 20
274.9089756473261
 30
0.0
 11
1504.573323161296
 21
271.6180786473262
 31
0.0
  0
LINE
  5
EAD
330
1F
100
AcDbEntity
  8
0
 62
     7
100
AcDbLine
 10
1500.773323161295
 20
271.6180786473262
 30
0.0
 11
1504.573323161296
 21
271.6180786473262
 31
0.0
  0
LINE
  5
EAE
330
1F
100
AcDbEntity
  8
0
 62
     3
100
AcDbLine
 10
1497.673323161295
 20
281.1180786473262
 30
0.0
 11
1583.673323161296
 21
281.1180786473262
 31
0.0
  0
LINE
  5
EAF
330
1F
100
AcDbEntity
  8
0
 62
     3
100
AcDbLine
 10
1497.673323161295
 20
276.1180786473262
 30
0.0
 11
1583.673323161296
 21
276.1180786473262
 31
0.0
  0
LINE
  5
EB0
330
1F
100
AcDbEntity
  8
0
 62
     7
100
AcDbLine
 10
1497.673323161295
 20
271.1180786473262
 30
0.0
 11
1583.673323161296
 21
271.1180786473262
 31
0.0
  0
LINE
  5
EB1
330
1F
100
AcDbEntity
  8
0
 62
     3
100
AcDbLine
 10
1497.673323161295
 20
266.1180786473261
 30
0.0
 11
1583.673323161296
 21
266.1180786473261
 31
0.0
  0
LINE
  5
EB2
330
1F
100
AcDbEntity
  8
0
 62
     7
100
AcDbLine
 10
1569.673323161295
 20
266.1180786473261
 30
0.0
 11
1569.673323161295
 21
281.1180786473262
 31
0.0
  0
LINE
  5
EB3
330
1F
100
AcDbEntity
  8
0
 62
     7
100
AcDbLine
 10
1525.673323161296
 20
266.1180786473261
 30
0.0
 11
1525.673323161296
 21
281.1180786473262
 31
0.0
  0
LINE
  5
EB4
330
1F
100
AcDbEntity
  8
0
 62
     7
100
AcDbLine
 10
1507.673323161295
 20
266.1180786473261
 30
0.0
 11
1507.673323161295
 21
281.1180786473262
 31
0.0
  0
LINE
  5
EB5
330
1F
100
AcDbEntity
  8
0
 62
     3
100
AcDbLine
 10
1497.673323161295
 20
266.1180786473261
 30
0.0
 11
1497.673323161295
 21
286.1180786473262
 31
0.0
  0
LINE
  5
EB6
330
1F
100
AcDbEntity
  8
0
 62
     3
100
AcDbLine
 10
1557.673323161295
 20
49.11807864732622
 30
0.0
 11
1557.673323161295
 21
55.11807864732627
 31
0.0
  0
LINE
  5
EB7
330
1F
100
AcDbEntity
  8
0
 62
     3
100
AcDbLine
 10
1531.673323161296
 20
49.11807864732622
 30
0.0
 11
1531.673323161296
 21
55.11807864732627
 31
0.0
  0
TEXT
  5
EB8
330
1F
100
AcDbEntity
  8
0
 62
     3
100
AcDbText
 10
1536.985107557887
 20
49.49112948763739
 30
0.0
 40
4.5
  1
コード
  7
高4.5
100
AcDbText
  0
TEXT
  5
EB9
330
1F
100
AcDbEntity
  8
0
 62
     3
100
AcDbText
 10
1561.548585945051
 20
49.49112948763739
 30
0.0
 40
4.5
  1
12574
  7
高4.5
100
AcDbText
  0
TEXT
  5
EBA
330
1F
100
AcDbEntity
  8
0
100
AcDbText
 10
1576.712771646266
 20
31.41295895422542
 30
0.0
 40
3.2
  1
I
  7
高3.2
100
AcDbText
  0
LINE
  5
EBB
330
1F
100
AcDbEntity
  8
0
 62
     3
100
AcDbLine
 10
1571.421693128321
 20
218.5493133121628
 30
0.0
 11
1503.724849660661
 21
218.5493133121628
 31
0.0
  0
LINE
  5
EBC
330
1F
100
AcDbEntity
  8
0
 62
     7
100
AcDbLine
 10
1571.421693128321
 20
213.0493133121628
 30
0.0
 11
1503.724849660661
 21
213.0493133121628
 31
0.0
  0
LINE
  5
EBD
330
1F
100
AcDbEntity
  8
0
 62
     7
100
AcDbLine
 10
1571.421693128321
 20
185.5493133121681
 30
0.0
 11
1503.724849660661
 21
185.5493133121681
 31
0.0
  0
TEXT
  5
EBE
330
1F
100
AcDbEntity
  8
0
 62
     3
100
AcDbText
 10
1505.224849660661
 20
214.0493133121629
 30
0.0
 40
3.2
  1
型　　　式
  7
高3.2
100
AcDbText
  0
TEXT
  5
EBF
330
1F
100
AcDbEntity
  8
0
 62
     3
100
AcDbText
 10
1505.224849660661
 20
192.0493133121675
 30
0.0
 40
3.2
  1
定格　光束
  7
高3.2
100
AcDbText
  0
TEXT
  5
EC0
330
1F
100
AcDbEntity
  8
0
 62
     3
100
AcDbText
 10
1505.224849660661
 20
197.549313312168
 30
0.0
 40
3.2
  1
本体　電池
  7
高3.2
100
AcDbText
  0
TEXT
  5
EC1
330
1F
100
AcDbEntity
  8
0
 62
     3
100
AcDbText
 10
1505.224849660661
 20
148.0493133121669
 30
0.0
 40
3.2
  1
連続点灯時間
  7
高3.2
100
AcDbText
  0
TEXT
  5
EC2
330
1F
100
AcDbEntity
  8
0
 62
     3
100
AcDbText
 10
1530.593612326819
 20
197.549313312168
 30
0.0
 40
3.2
  1
単4電池x2本
 41
0.8
  7
高3.2
100
AcDbText
  0
LINE
  5
EC3
330
1F
100
AcDbEntity
  8
0
 62
     3
100
AcDbLine
 10
1503.724849660661
 20
218.5493133121628
 30
0.0
 11
1503.724849660661
 21
125.0493133121687
 31
0.0
  0
LINE
  5
EC4
330
1F
100
AcDbEntity
  8
0
 62
     7
100
AcDbLine
 10
1529.093612326819
 20
125.0493133121687
 30
0.0
 11
1529.093612326819
 21
218.5493133121628
 31
0.0
  0
TEXT
  5
EC5
330
1F
100
AcDbEntity
  8
0
 62
     3
100
AcDbText
 10
1530.593612326819
 20
214.0493133121629
 30
0.0
 40
3.2
  1
SL-2PEN
  7
高3.2
100
AcDbText
  0
TEXT
  5
EC6
330
1F
100
AcDbEntity
  8
0
 62
     3
100
AcDbText
 10
1530.593612326819
 20
126.0493133121687
 30
0.0
 40
3.2
  1
22g　(44g電池含)
  7
高3.2
100
AcDbText
  0
TEXT
  5
EC7
330
1F
100
AcDbEntity
  8
0
 62
     3
100
AcDbText
 10
1505.224849660661
 20
126.0493133121687
 30
0.0
 40
3.2
  1
本体　質量
  7
高3.2
100
AcDbText
  0
TEXT
  5
EC8
330
1F
100
AcDbEntity
  8
0
 62
     3
100
AcDbText
 10
1530.593612326819
 20
148.0493133121669
 30
0.0
 40
3.2
  1
9.5時間
  7
高3.2
100
AcDbText
  0
LINE
  5
EC9
330
1F
100
AcDbEntity
  8
0
 62
     3
100
AcDbLine
 10
1571.421693128321
 20
125.0493133121687
 30
0.0
 11
1503.724849660661
 21
125.0493133121687
 31
0.0
  0
TEXT
  5
ECA
330
1F
100
AcDbEntity
  8
0
 62
     3
100
AcDbText
 10
1530.593612326819
 20
175.5493133121675
 30
0.0
 40
3.2
  1
630Lx
  7
高3.2
100
AcDbText
  0
TEXT
  5
ECB
330
1F
100
AcDbEntity
  8
0
 62
     3
100
AcDbText
 10
1530.593612326819
 20
192.0493133121675
 30
0.0
 40
3.2
  1
120Lm
  7
高3.2
100
AcDbText
  0
TEXT
  5
ECC
330
1F
100
AcDbEntity
  8
0
 62
     3
100
AcDbText
 10
1514.903993748774
 20
175.5493133121675
 30
0.0
 40
3.2
  1
1m
  7
高3.2
100
AcDbText
  0
LINE
  5
ECD
330
1F
100
AcDbEntity
  8
0
 62
     7
100
AcDbLine
 10
1571.421693128321
 20
174.5493133121676
 30
0.0
 11
1513.403993748774
 21
174.5493133121676
 31
0.0
  0
TEXT
  5
ECE
330
1F
100
AcDbEntity
  8
0
 62
     3
100
AcDbText
 10
1530.593612326819
 20
170.0493133121675
 30
0.0
 40
3.2
  1
160Lx
  7
高3.2
100
AcDbText
  0
TEXT
  5
ECF
330
1F
100
AcDbEntity
  8
0
 62
     3
100
AcDbText
 10
1514.903993748774
 20
170.0493133121675
 30
0.0
 40
3.2
  1
2m
  7
高3.2
100
AcDbText
  0
LINE
  5
ED0
330
1F
100
AcDbEntity
  8
0
 62
     7
100
AcDbLine
 10
1571.421693128321
 20
169.0493133121676
 30
0.0
 11
1513.403993748774
 21
169.0493133121675
 31
0.0
  0
TEXT
  5
ED1
330
1F
100
AcDbEntity
  8
0
 62
     3
100
AcDbText
 10
1530.593612326819
 20
164.5493133121673
 30
0.0
 40
3.2
  1
70Lx
  7
高3.2
100
AcDbText
  0
TEXT
  5
ED2
330
1F
100
AcDbEntity
  8
0
 62
     3
100
AcDbText
 10
1514.903993748774
 20
164.5493133121673
 30
0.0
 40
3.2
  1
3m
  7
高3.2
100
AcDbText
  0
LINE
  5
ED3
330
1F
100
AcDbEntity
  8
0
 62
     7
100
AcDbLine
 10
1571.421693128321
 20
163.5493133121675
 30
0.0
 11
1513.403993748774
 21
163.5493133121675
 31
0.0
  0
TEXT
  5
ED4
330
1F
100
AcDbEntity
  8
0
 62
     3
100
AcDbText
 10
1530.593612326819
 20
159.0493133121675
 30
0.0
 40
3.2
  1
40Lx
  7
高3.2
100
AcDbText
  0
TEXT
  5
ED5
330
1F
100
AcDbEntity
  8
0
 62
     3
100
AcDbText
 10
1514.903993748774
 20
159.0493133121675
 30
0.0
 40
3.2
  1
4m
  7
高3.2
100
AcDbText
  0
LINE
  5
ED6
330
1F
100
AcDbEntity
  8
0
 62
     7
100
AcDbLine
 10
1571.421693128321
 20
158.0493133121675
 30
0.0
 11
1513.403993748774
 21
158.0493133121675
 31
0.0
  0
TEXT
  5
ED7
330
1F
100
AcDbEntity
  8
0
 62
     3
100
AcDbText
 10
1530.593612326819
 20
153.5493133121673
 30
0.0
 40
3.2
  1
25Lx
  7
高3.2
100
AcDbText
  0
TEXT
  5
ED8
330
1F
100
AcDbEntity
  8
0
 62
     3
100
AcDbText
 10
1514.903993748774
 20
153.5493133121673
 30
0.0
 40
3.2
  1
5m
  7
高3.2
100
AcDbText
  0
LINE
  5
ED9
330
1F
100
AcDbEntity
  8
0
 62
     7
100
AcDbLine
 10
1571.421693128321
 20
152.5493133121672
 30
0.0
 11
1503.724849660661
 21
152.5493133121672
 31
0.0
  0
TEXT
  5
EDA
330
1F
100
AcDbEntity
  8
0
 62
     3
100
AcDbText
 10
1530.593612326819
 20
186.5493133121679
 30
0.0
 40
3.2
  1
6000K
  7
高3.2
100
AcDbText
  0
TEXT
  5
EDB
330
1F
100
AcDbEntity
  8
0
 62
     3
100
AcDbText
 10
1505.224849660661
 20
186.5493133121679
 30
0.0
 40
3.2
  1
色　温　度
  7
高3.2
100
AcDbText
  0
LINE
  5
EDC
330
1F
100
AcDbEntity
  8
0
 62
     7
100
AcDbLine
 10
1513.403993748774
 20
152.5493133121673
 30
0.0
 11
1513.403993748774
 21
180.0493133121675
 31
0.0
  0
LINE
  5
EDD
330
1F
100
AcDbEntity
  8
0
 62
     3
100
AcDbLine
 10
1571.421693128321
 20
218.5493133121628
 30
0.0
 11
1571.421693128321
 21
125.0493133121687
 31
0.0
  0
LINE
  5
EDE
330
1F
100
AcDbEntity
  8
0
 62
     7
100
AcDbLine
 10
1571.421693128321
 20
202.0493133121679
 30
0.0
 11
1503.724849660661
 21
202.0493133121679
 31
0.0
  0
TEXT
  5
EDF
330
1F
100
AcDbEntity
  8
0
 62
     3
100
AcDbText
 10
1530.593612326819
 20
203.049313312168
 30
0.0
 40
3.2
  1
LED
  7
高3.2
100
AcDbText
  0
TEXT
  5
EE0
330
1F
100
AcDbEntity
  8
0
 62
     3
100
AcDbText
 10
1505.224849660661
 20
203.049313312168
 30
0.0
 40
3.2
  1
光　　　源
  7
高3.2
100
AcDbText
  0
LINE
  5
EE1
330
1F
100
AcDbEntity
  8
0
 62
     7
100
AcDbLine
 10
1571.421693128321
 20
191.0493133121675
 30
0.0
 11
1503.724849660661
 21
191.0493133121675
 31
0.0
  0
TEXT
  5
EE2
330
1F
100
AcDbEntity
  8
0
 62
     3
100
AcDbText
 10
1530.593612326819
 20
181.0493133121679
 30
0.0
 40
3.2
  1
40\U+00B0
  7
高3.2
100
AcDbText
  0
TEXT
  5
EE3
330
1F
100
AcDbEntity
  8
0
 62
     3
100
AcDbText
 10
1505.224849660661
 20
181.0493133121679
 30
0.0
 40
3.2
  1
照射　角度
  7
高3.2
100
AcDbText
  0
TEXT
  5
EE4
330
1F
100
AcDbEntity
  8
0
 62
     3
100
AcDbText
 10
1519.378075622403
 20
223.5187065322969
 30
0.0
 40
4.5
  1
主　　仕　　様
  7
高4.5
100
AcDbText
  0
LINE
  5
EE5
330
1F
100
AcDbEntity
  8
0
100
AcDbLine
 10
1518.277161254647
 20
222.6529534484543
 30
0.0
 11
1556.869381534335
 21
222.6529534484543
 31
0.0
  0
TEXT
  5
EE6
330
1F
100
AcDbEntity
  8
0
 62
     7
100
AcDbText
 10
1502.773923458557
 20
112.7683105214233
 30
0.0
 40
2.5
  1
注３）照度は当社実測値の為、使用環境下により異なります。
 41
0.8
  7
高2.5
100
AcDbText
  0
TEXT
  5
EE7
330
1F
100
AcDbEntity
  8
0
 62
     7
100
AcDbText
 10
1502.773923458557
 20
109.7683105214233
 30
0.0
 40
2.5
  1
注４）連続点灯時間は満充電時から1m照度が10Lx切るまでの時間、
 41
0.8
  7
高2.5
100
AcDbText
  0
TEXT
  5
EE8
330
1F
100
AcDbEntity
  8
0
 62
     7
100
AcDbText
 10
1502.773923458557
 20
100.7683105214233
 30
0.0
 40
2.5
  1
注５）球寿命は光束が70%%%に低下するまでの時間です。
 41
0.8
  7
高2.5
100
AcDbText
  0
TEXT
  5
EE9
330
1F
100
AcDbEntity
  8
0
 62
     7
100
AcDbText
 10
1502.773923458557
 20
97.7683105214233
 30
0.0
 40
2.5
  1
　　　表示は設計値であり、製品の寿命を保証するものではありません。
 41
0.8
  7
高2.5
100
AcDbText
  0
TEXT
  5
EEA
330
1F
100
AcDbEntity
  8
0
 62
     7
100
AcDbText
 10
1502.773923458557
 20
115.7683105214233
 30
0.0
 40
2.5
  1
注２）LEDの光色、明るさにはバラツキがあります。
 41
0.8
  7
高2.5
100
AcDbText
  0
TEXT
  5
EEB
330
1F
100
AcDbEntity
  8
0
 62
     7
100
AcDbText
 10
1502.773923458557
 20
118.7683105214233
 30
0.0
 40
2.5
  1
注１）当器具のLED素子交換はできません。
 41
0.8
  7
高2.5
100
AcDbText
  0
TEXT
  5
EEC
330
1F
100
AcDbEntity
  8
0
 62
     7
100
AcDbText
 10
1502.773923458557
 20
94.7683105214233
 30
0.0
 40
2.5
  1
注６）安全にご使用いただくため、取扱説明書をご参照ください。
 41
0.8
  7
高2.5
100
AcDbText
  0
TEXT
  5
EED
330
1F
100
AcDbEntity
  8
0
 62
     7
100
AcDbText
 10
1502.773923458557
 20
106.7683105214233
 30
0.0
 40
2.5
  1
　　　実用点灯時間は満充電時から1m照度が初期照度の10%%%に低下
 41
0.8
  7
高2.5
100
AcDbText
  0
TEXT
  5
EEE
330
1F
100
AcDbEntity
  8
0
 62
     7
100
AcDbText
 10
1502.773923458557
 20
91.76831052142331
 30
0.0
 40
2.5
  1
注７）仕様変更は予告なく行う場合があります。予めご了承ください。
 41
0.8
  7
高2.5
100
AcDbText
  0
LINE
  5
EEF
330
1F
100
AcDbEntity
  8
0
 62
     7
100
AcDbLine
 10
1571.421693128321
 20
196.5493133121633
 30
0.0
 11
1503.724849660661
 21
196.5493133121633
 31
0.0
  0
LINE
  5
EF0
330
1F
100
AcDbEntity
  8
0
 62
     7
100
AcDbLine
 10
1571.421693128321
 20
180.0493133121675
 30
0.0
 11
1503.724849660661
 21
180.0493133121675
 31
0.0
  0
TEXT
  5
EF1
330
1F
100
AcDbEntity
  8
0
 62
     3
100
AcDbText
 10
1505.224849660661
 20
175.5493133121675
 30
0.0
 40
3.2
  1
照度
  7
高3.2
100
AcDbText
  0
LINE
  5
EF2
330
1F
100
AcDbEntity
  8
0
 62
     7
100
AcDbLine
 10
1571.421693128321
 20
207.549313312168
 30
0.0
 11
1503.724849660661
 21
207.549313312168
 31
0.0
  0
TEXT
  5
EF3
330
1F
100
AcDbEntity
  8
0
 62
     3
100
AcDbText
 10
1530.593612326819
 20
208.5493133121679
 30
0.0
 40
3.2
  1
屋内型
  7
高3.2
100
AcDbText
  0
TEXT
  5
EF4
330
1F
100
AcDbEntity
  8
0
 62
     3
100
AcDbText
 10
1505.224849660661
 20
208.5493133121679
 30
0.0
 40
3.2
  1
使用　場所
  7
高3.2
100
AcDbText
  0
LINE
  5
EF5
330
1F
100
AcDbEntity
  8
0
 62
     7
100
AcDbLine
 10
1571.421693128321
 20
141.5493133121665
 30
0.0
 11
1503.724849660661
 21
141.5493133121665
 31
0.0
  0
TEXT
  5
EF6
330
1F
100
AcDbEntity
  8
0
 62
     3
100
AcDbText
 10
1505.224849660661
 20
137.0493133121662
 30
0.0
 40
3.2
  1
球　寿　命
  7
高3.2
100
AcDbText
  0
TEXT
  5
EF7
330
1F
100
AcDbEntity
  8
0
 62
     3
100
AcDbText
 10
1530.593612326819
 20
137.0493133121662
 30
0.0
 40
3.2
  1
50000時間
  7
高3.2
100
AcDbText
  0
LINE
  5
EF8
330
1F
100
AcDbEntity
  8
0
 62
     7
100
AcDbLine
 10
1571.421693128321
 20
136.0493133121661
 30
0.0
 11
1503.724849660661
 21
136.0493133121661
 31
0.0
  0
TEXT
  5
EF9
330
1F
100
AcDbEntity
  8
0
 62
     3
100
AcDbText
 10
1505.224849660661
 20
131.5493133121657
 30
0.0
 40
3.2
  1
使用環境温度
  7
高3.2
100
AcDbText
  0
TEXT
  5
EFA
330
1F
100
AcDbEntity
  8
0
 62
     3
100
AcDbText
 10
1530.593612326819
 20
131.5493133121657
 30
0.0
 40
3.2
  1
-10～40℃
  7
高3.2
100
AcDbText
  0
LINE
  5
EFB
330
1F
100
AcDbEntity
  8
0
 62
     7
100
AcDbLine
 10
1571.421693128321
 20
130.5493133121655
 30
0.0
 11
1503.724849660661
 21
130.5493133121655
 31
0.0
  0
LINE
  5
EFC
330
1F
100
AcDbEntity
  8
0
 62
     3
100
AcDbLine
 10
1471.182630956917
 20
225.0642806292582
 30
0.0
 11
1471.182630956917
 21
226.0642806292582
 31
0.0
  0
LINE
  5
EFD
330
1F
100
AcDbEntity
  8
0
 62
     3
100
AcDbLine
 10
1481.682630956917
 20
225.0642806292568
 30
0.0
 11
1481.682630956917
 21
226.0642806292582
 31
0.0
  0
LINE
  5
EFE
330
1F
100
AcDbEntity
  8
0
 62
     3
100
AcDbLine
 10
1469.932630956917
 20
146.4642806292578
 30
0.0
 11
1469.932630956917
 21
151.0642806292576
 31
0.0
  0
LINE
  5
EFF
330
1F
100
AcDbEntity
  8
0
 62
     3
100
AcDbLine
 10
1469.932630956917
 20
151.8642806292579
 30
0.0
 11
1469.932630956917
 21
179.4642806292578
 31
0.0
  0
LINE
  5
F00
330
1F
100
AcDbEntity
  8
0
 62
     3
100
AcDbLine
 10
1482.932630956917
 20
146.4642806292578
 30
0.0
 11
1482.932630956917
 21
151.0642806292576
 31
0.0
  0
LINE
  5
F01
330
1F
100
AcDbEntity
  8
0
 62
     3
100
AcDbLine
 10
1482.932630956917
 20
151.864280629257
 30
0.0
 11
1482.932630956917
 21
179.4642806292578
 31
0.0
  0
LINE
  5
F02
330
1F
100
AcDbEntity
  8
0
 62
     3
100
AcDbLine
 10
1483.182630956917
 20
102.764280629258
 30
0.0
 11
1483.182630956917
 21
103.4642806292578
 31
0.0
  0
LINE
  5
F03
330
1F
100
AcDbEntity
  8
0
 62
     3
100
AcDbLine
 10
1465.782630956917
 20
104.4642806292573
 30
0.0
 11
1465.782630956917
 21
132.3642806292579
 31
0.0
  0
ARC
  5
F04
330
1F
100
AcDbEntity
  8
0
 62
     3
100
AcDbCircle
 10
1466.482630956917
 20
132.3642806292579
 30
0.0
 40
0.7
100
AcDbArc
 50
145.4234454819088
 51
180.0
  0
LINE
  5
F05
330
1F
100
AcDbEntity
  8
0
 62
     3
100
AcDbLine
 10
1466.482630956917
 20
104.4642806292578
 30
0.0
 11
1466.482630956917
 21
132.3642806292579
 31
0.0
  0
LINE
  5
F06
330
1F
100
AcDbEntity
  8
0
100
AcDbLine
 10
1475.432630956917
 20
93.56428062925772
 30
0.0
 11
1475.432630956917
 21
101.0642806292582
 31
0.0
  0
LINE
  5
F07
330
1F
100
AcDbEntity
  8
0
100
AcDbLine
 10
1477.432630956917
 20
93.5642806292582
 30
0.0
 11
1477.432630956917
 21
101.0642806292582
 31
0.0
  0
LINE
  5
F08
330
1F
100
AcDbEntity
  8
0
 62
     3
100
AcDbLine
 10
1470.182630956917
 20
101.764280629258
 30
0.0
 11
1470.182630956917
 21
102.764280629258
 31
0.0
  0
LINE
  5
F09
330
1F
100
AcDbEntity
  8
0
 62
     3
100
AcDbLine
 10
1482.682630956917
 20
101.764280629258
 30
0.0
 11
1482.682630956917
 21
102.764280629258
 31
0.0
  0
LINE
  5
F0A
330
1F
100
AcDbEntity
  8
0
 62
     3
100
AcDbLine
 10
1469.732630956917
 20
103.4642806292578
 30
0.0
 11
1469.732630956917
 21
107.9642806292578
 31
0.0
  0
LINE
  5
F0B
330
1F
100
AcDbEntity
  8
0
 62
     3
100
AcDbLine
 10
1469.732630956917
 20
108.9642806292578
 30
0.0
 11
1469.732630956917
 21
137.9642806292578
 31
0.0
  0
LINE
  5
F0C
330
1F
100
AcDbEntity
  8
0
 62
     3
100
AcDbLine
 10
1469.732630956917
 20
138.9642806292582
 30
0.0
 11
1469.732630956917
 21
146.4642806292578
 31
0.0
  0
LINE
  5
F0D
330
1F
100
AcDbEntity
  8
0
 62
     3
100
AcDbLine
 10
1469.732630956917
 20
101.0642806292582
 30
0.0
 11
1469.732630956917
 21
93.5642806292582
 31
0.0
  0
LINE
  5
F0E
330
1F
100
AcDbEntity
  8
0
 62
     3
100
AcDbLine
 10
1483.132630956917
 20
103.4642806292578
 30
0.0
 11
1483.132630956917
 21
107.9642806292573
 31
0.0
  0
LINE
  5
F0F
330
1F
100
AcDbEntity
  8
0
 62
     3
100
AcDbLine
 10
1483.132630956917
 20
108.9642806292578
 30
0.0
 11
1483.132630956917
 21
137.9642806292573
 31
0.0
  0
LINE
  5
F10
330
1F
100
AcDbEntity
  8
0
 62
     3
100
AcDbLine
 10
1483.132630956917
 20
138.9642806292578
 30
0.0
 11
1483.132630956917
 21
146.4642806292578
 31
0.0
  0
LINE
  5
F11
330
1F
100
AcDbEntity
  8
0
 62
     3
100
AcDbLine
 10
1483.132630956917
 20
101.0642806292582
 30
0.0
 11
1483.132630956917
 21
93.5642806292582
 31
0.0
  0
LINE
  5
F12
330
1F
100
AcDbEntity
  8
0
 62
     3
100
AcDbLine
 10
1472.932630956917
 20
86.76428062925799
 30
0.0
 11
1472.932630956917
 21
90.56428062925816
 31
0.0
  0
LINE
  5
F13
330
1F
100
AcDbEntity
  8
0
 62
     3
100
AcDbLine
 10
1479.932630956917
 20
86.76428062925799
 30
0.0
 11
1479.932630956917
 21
90.56428062925816
 31
0.0
  0
LINE
  5
F14
330
1F
100
AcDbEntity
  8
0
 62
     3
100
AcDbLine
 10
1481.682630956917
 20
226.0642806292582
 30
0.0
 11
1471.182630956917
 21
226.0642806292582
 31
0.0
  0
LINE
  5
F15
330
1F
100
AcDbEntity
  8
0
 62
     3
100
AcDbLine
 10
1481.682630956917
 20
225.0642806292582
 30
0.0
 11
1471.182630956917
 21
225.0642806292582
 31
0.0
  0
LINE
  5
F16
330
1F
100
AcDbEntity
  8
0
 62
     3
100
AcDbLine
 10
1482.491357481884
 20
206.5642806292577
 30
0.0
 11
1470.37390443195
 21
206.5642806292577
 31
0.0
  0
LINE
  5
F17
330
1F
100
AcDbEntity
  8
0
100
AcDbLine
 10
1482.649721551514
 20
201.1642806292576
 30
0.0
 11
1470.21554036232
 21
201.1642806292576
 31
0.0
  0
LINE
  5
F18
330
1F
100
AcDbEntity
  8
0
100
AcDbLine
 10
1482.62847347882
 20
201.9642806292578
 30
0.0
 11
1470.236788435013
 21
201.9642806292578
 31
0.0
  0
LINE
  5
F19
330
1F
100
AcDbEntity
  8
0
100
AcDbLine
 10
1482.744417902277
 20
197.1642806292575
 30
0.0
 11
1470.120844011556
 21
197.1642806292575
 31
0.0
  0
LINE
  5
F1A
330
1F
100
AcDbEntity
  8
0
100
AcDbLine
 10
1482.727017655106
 20
197.9642806292578
 30
0.0
 11
1470.138244258728
 21
197.9642806292578
 31
0.0
  0
LINE
  5
F1B
330
1F
100
AcDbEntity
  8
0
100
AcDbLine
 10
1482.819878852359
 20
193.1642806292576
 30
0.0
 11
1470.045383061474
 21
193.1642806292576
 31
0.0
  0
LINE
  5
F1C
330
1F
100
AcDbEntity
  8
0
100
AcDbLine
 10
1482.80632522404
 20
193.9642806292573
 30
0.0
 11
1470.058936689794
 21
193.9642806292578
 31
0.0
  0
LINE
  5
F1D
330
1F
100
AcDbEntity
  8
0
 62
     3
100
AcDbLine
 10
1481.432630956917
 20
90.56428062925816
 30
0.0
 11
1471.432630956917
 21
90.56428062925816
 31
0.0
  0
LINE
  5
F1E
330
1F
100
AcDbEntity
  8
0
100
AcDbLine
 10
1483.132630956917
 20
93.5642806292582
 30
0.0
 11
1482.670008406589
 21
93.5642806292582
 31
0.0
  0
LINE
  5
F1F
330
1F
100
AcDbEntity
  8
0
100
AcDbLine
 10
1481.670008406588
 20
93.5642806292582
 30
0.0
 11
1477.432630956917
 21
93.5642806292582
 31
0.0
  0
LINE
  5
F20
330
1F
100
AcDbEntity
  8
0
100
AcDbLine
 10
1475.432630956916
 20
93.5642806292582
 30
0.0
 11
1471.195253507245
 21
93.5642806292582
 31
0.0
  0
LINE
  5
F21
330
1F
100
AcDbEntity
  8
0
100
AcDbLine
 10
1470.195253507245
 20
93.5642806292582
 30
0.0
 11
1469.732630956917
 21
93.5642806292582
 31
0.0
  0
LINE
  5
F22
330
1F
100
AcDbEntity
  8
0
100
AcDbLine
 10
1469.732630956917
 20
101.0642806292582
 30
0.0
 11
1470.195253507245
 21
101.0642806292582
 31
0.0
  0
LINE
  5
F23
330
1F
100
AcDbEntity
  8
0
100
AcDbLine
 10
1471.195253507245
 20
101.0642806292582
 30
0.0
 11
1475.432630956917
 21
101.0642806292582
 31
0.0
  0
LINE
  5
F24
330
1F
100
AcDbEntity
  8
0
100
AcDbLine
 10
1477.432630956917
 20
101.0642806292582
 30
0.0
 11
1481.670008406588
 21
101.0642806292582
 31
0.0
  0
LINE
  5
F25
330
1F
100
AcDbEntity
  8
0
100
AcDbLine
 10
1482.670008406589
 20
101.0642806292582
 30
0.0
 11
1483.132630956917
 21
101.0642806292582
 31
0.0
  0
LINE
  5
F26
330
1F
100
AcDbEntity
  8
0
 62
     3
100
AcDbLine
 10
1483.182630956917
 20
102.764280629258
 30
0.0
 11
1467.482630956916
 21
102.764280629258
 31
0.0
  0
LINE
  5
F27
330
1F
100
AcDbEntity
  8
0
 62
     3
100
AcDbLine
 10
1483.182630956917
 20
103.4642806292578
 30
0.0
 11
1467.482630956917
 21
103.4642806292578
 31
0.0
  0
LINE
  5
F28
330
1F
100
AcDbEntity
  8
0
100
AcDbLine
 10
1483.132630956917
 20
108.9642806292578
 30
0.0
 11
1469.732630956916
 21
108.9642806292582
 31
0.0
  0
LINE
  5
F29
330
1F
100
AcDbEntity
  8
0
100
AcDbLine
 10
1483.132630956917
 20
107.9642806292573
 30
0.0
 11
1469.732630956917
 21
107.9642806292578
 31
0.0
  0
LINE
  5
F2A
330
1F
100
AcDbEntity
  8
0
 62
     3
100
AcDbLine
 10
1483.132630956917
 20
143.4642806292578
 30
0.0
 11
1469.732630956917
 21
143.4642806292578
 31
0.0
  0
LINE
  5
F2B
330
1F
100
AcDbEntity
  8
0
 62
     3
100
AcDbLine
 10
1483.132630956917
 20
146.4642806292578
 30
0.0
 11
1469.732630956917
 21
146.4642806292578
 31
0.0
  0
LINE
  5
F2C
330
1F
100
AcDbEntity
  8
0
100
AcDbLine
 10
1482.932630956918
 20
151.8642806292579
 30
0.0
 11
1469.932630956917
 21
151.8642806292579
 31
0.0
  0
LINE
  5
F2D
330
1F
100
AcDbEntity
  8
0
100
AcDbLine
 10
1482.932630956917
 20
151.0642806292576
 30
0.0
 11
1469.932630956917
 21
151.0642806292576
 31
0.0
  0
LINE
  5
F2E
330
1F
100
AcDbEntity
  8
0
 62
     3
100
AcDbLine
 10
1470.182630956917
 20
101.764280629258
 30
0.0
 11
1482.682630956917
 21
101.764280629258
 31
0.0
  0
LINE
  5
F2F
330
1F
100
AcDbEntity
  8
0
 62
     3
100
AcDbLine
 10
1472.932630956917
 20
86.76428062925799
 30
0.0
 11
1479.932630956917
 21
86.76428062925799
 31
0.0
  0
LINE
  5
F30
330
1F
100
AcDbEntity
  8
0
 62
     3
100
AcDbLine
 10
1481.432630956917
 20
90.56428062925816
 30
0.0
 11
1483.132630956917
 21
93.5642806292582
 31
0.0
  0
LINE
  5
F31
330
1F
100
AcDbEntity
  8
0
 62
     3
100
AcDbLine
 10
1471.432630956917
 20
90.56428062925816
 30
0.0
 11
1469.732630956917
 21
93.5642806292582
 31
0.0
  0
LINE
  5
F32
330
1F
100
AcDbEntity
  8
0
 62
     3
100
AcDbLine
 10
1483.132630956917
 20
101.0642806292582
 30
0.0
 11
1482.682630956917
 21
101.764280629258
 31
0.0
  0
LINE
  5
F33
330
1F
100
AcDbEntity
  8
0
 62
     3
100
AcDbLine
 10
1469.732630956917
 20
101.0642806292582
 30
0.0
 11
1470.182630956917
 21
101.764280629258
 31
0.0
  0
CIRCLE
  5
F34
330
1F
100
AcDbEntity
  8
0
 62
     3
100
AcDbCircle
 10
1432.009174786514
 20
58.32951989973444
 30
0.0
 40
6.699999999999986
  0
ARC
  5
F35
330
1F
100
AcDbEntity
  8
0
 62
     3
100
AcDbCircle
 10
1440.315144940839
 20
58.32951989973444
 30
0.0
 40
1.955970154324915
100
AcDbArc
 50
149.2525228100891
 51
210.7474771899548
  0
ARC
  5
F36
330
1F
100
AcDbEntity
  8
0
100
AcDbCircle
 10
1476.432630956917
 20
94.06498090937031
 30
0.0
 40
1.118347338935719
100
AcDbArc
 50
206.597140660987
 51
333.402859339013
  0
ARC
  5
F37
330
1F
100
AcDbEntity
  8
0
100
AcDbCircle
 10
1476.432630956917
 20
100.4181355045408
 30
0.0
 40
1.190589569161379
100
AcDbArc
 50
32.86832641254143
 51
147.1316735874585
  0
ARC
  5
F38
330
1F
100
AcDbEntity
  8
0
 62
     3
100
AcDbCircle
 10
1436.162159863676
 20
65.52270105645459
 30
0.0
 40
1.955970154324915
100
AcDbArc
 50
209.2525228100576
 51
270.7474771899223
  0
ARC
  5
F39
330
1F
100
AcDbEntity
  8
0
 62
     3
100
AcDbCircle
 10
1427.856189709352
 20
65.52270105645459
 30
0.0
 40
1.955970154324915
100
AcDbArc
 50
269.2525228100777
 51
330.7474771899423
  0
ARC
  5
F3A
330
1F
100
AcDbEntity
  8
0
 62
     3
100
AcDbCircle
 10
1423.70320463219
 20
58.32951989973444
 30
0.0
 40
1.955970154324915
100
AcDbArc
 50
329.2525228100452
 51
30.74747718995477
  0
ARC
  5
F3B
330
1F
100
AcDbEntity
  8
0
 62
     3
100
AcDbCircle
 10
1427.856189709353
 20
51.13633874301388
 30
0.0
 40
1.955970154324915
100
AcDbArc
 50
29.25252281005768
 51
90.74747718994837
  0
ARC
  5
F3C
330
1F
100
AcDbEntity
  8
0
 62
     3
100
AcDbCircle
 10
1436.162159863676
 20
51.13633874301388
 30
0.0
 40
1.955970154324915
100
AcDbArc
 50
89.2525228100777
 51
150.7474771899423
  0
LINE
  5
F3D
330
1F
100
AcDbEntity
  8
0
100
AcDbLine
 10
1482.670008406589
 20
101.0642806292582
 30
0.0
 11
1482.670008406589
 21
93.5642806292582
 31
0.0
  0
LINE
  5
F3E
330
1F
100
AcDbEntity
  8
0
100
AcDbLine
 10
1481.670008406588
 20
101.0642806292582
 30
0.0
 11
1481.670008406588
 21
93.5642806292582
 31
0.0
  0
ELLIPSE
  5
F3F
330
1F
100
AcDbEntity
  8
0
100
AcDbEllipse
 10
1481.931892270948
 20
93.5642806292582
 30
0.0
 11
0.7381161356407233
 21
-0.0000000000000001
 31
0.0
210
0.0
220
0.0
230
0.9999999999999998
 40
0.8367884523853044
 41
4.712388980384688
 42
6.283185307179584
  0
ELLIPSE
  5
F40
330
1F
100
AcDbEntity
  8
0
100
AcDbEllipse
 10
1481.931892270948
 20
101.0642806292582
 30
0.0
 11
-0.7381161356407233
 21
0.0000000000000001
 31
0.0
210
0.0
220
0.0
230
0.9999999999999998
 40
0.7376135246950623
 41
3.141592653589792
 42
4.712388980384688
  0
ELLIPSE
  5
F41
330
1F
100
AcDbEntity
  8
0
100
AcDbEllipse
 10
1481.931892270948
 20
93.5642806292582
 30
0.0
 11
-0.0000000000000001
 21
-0.6176470588234225
 31
0.0
210
0.0
220
0.0
230
1.0
 40
0.4240024470584105
 41
4.712388980384688
 42
6.283185307179584
  0
ELLIPSE
  5
F42
330
1F
100
AcDbEntity
  8
0
100
AcDbEllipse
 10
1481.931892270948
 20
101.0642806292582
 30
0.0
 11
0.0000000000000001
 21
0.5444444444442526
 31
0.0
210
0.0
220
0.0
230
1.0
 40
0.4810111794360978
 41
0.0
 42
1.570796326794896
  0
LINE
  5
F43
330
1F
100
AcDbEntity
  8
0
100
AcDbLine
 10
1470.195253507245
 20
101.0642806292582
 30
0.0
 11
1470.195253507245
 21
93.5642806292582
 31
0.0
  0
LINE
  5
F44
330
1F
100
AcDbEntity
  8
0
100
AcDbLine
 10
1471.195253507245
 20
101.0642806292582
 30
0.0
 11
1471.195253507245
 21
93.5642806292582
 31
0.0
  0
ELLIPSE
  5
F45
330
1F
100
AcDbEntity
  8
0
100
AcDbEllipse
 10
1470.933369642886
 20
93.5642806292582
 30
0.0
 11
-0.7381161356407233
 21
0.0000000000000001
 31
0.0
210
0.0
220
0.0
230
-0.9999999999999998
 40
0.8367884523853044
 41
4.712388980384688
 42
6.283185307179584
  0
ELLIPSE
  5
F46
330
1F
100
AcDbEntity
  8
0
100
AcDbEllipse
 10
1470.933369642886
 20
101.0642806292582
 30
0.0
 11
0.7381161356407233
 21
-0.0000000000000001
 31
0.0
210
0.0
220
0.0
230
-0.9999999999999998
 40
0.7376135246950623
 41
3.141592653589792
 42
4.712388980384688
  0
ELLIPSE
  5
F47
330
1F
100
AcDbEntity
  8
0
100
AcDbEllipse
 10
1470.933369642886
 20
93.5642806292582
 30
0.0
 11
-0.0000000000000001
 21
-0.6176470588234225
 31
0.0
210
0.0
220
0.0
230
-1.0
 40
0.4240024470584105
 41
4.712388980384688
 42
6.283185307179584
  0
ELLIPSE
  5
F48
330
1F
100
AcDbEntity
  8
0
100
AcDbEllipse
 10
1470.933369642886
 20
101.0642806292582
 30
0.0
 11
0.0000000000000001
 21
0.5444444444442526
 31
0.0
210
0.0
220
0.0
230
-1.0
 40
0.4810111794360978
 41
0.0
 42
1.570796326794896
  0
ARC
  5
F49
330
1F
100
AcDbEntity
  8
0
 62
     3
100
AcDbCircle
 10
1467.482630956916
 20
104.4642806292573
 30
0.0
 40
1.0
100
AcDbArc
 50
179.9999999999739
 51
270.000000000026
  0
ARC
  5
F4A
330
1F
100
AcDbEntity
  8
0
 62
     3
100
AcDbCircle
 10
1467.482630956916
 20
104.4642806292573
 30
0.0
 40
1.7
100
AcDbArc
 50
179.9999999999739
 51
270.000000000026
  0
ARC
  5
F4B
330
1F
100
AcDbEntity
  8
0
 62
     3
100
AcDbCircle
 10
1467.532630956917
 20
137.764280629258
 30
0.0
 40
1.5
100
AcDbArc
 50
325.423445481907
 51
25.79999999998973
  0
ARC
  5
F4C
330
1F
100
AcDbEntity
  8
0
 62
     3
100
AcDbCircle
 10
1467.532630956917
 20
137.764280629258
 30
0.0
 40
2.2
100
AcDbArc
 50
325.423445481907
 51
25.79999999998973
  0
LINE
  5
F4D
330
1F
100
AcDbEntity
  8
0
 62
     3
100
AcDbLine
 10
1466.482630956917
 20
132.3642806292579
 30
0.0
 11
1469.344042012785
 21
136.5157655165427
 31
0.0
  0
LINE
  5
F4E
330
1F
100
AcDbEntity
  8
0
 62
     3
100
AcDbLine
 10
1465.906272893685
 20
132.7615354378491
 30
0.0
 11
1468.767683949554
 21
136.9130203251339
 31
0.0
  0
LINE
  5
F4F
330
1F
100
AcDbEntity
  8
0
 62
     3
100
AcDbLine
 10
1468.88310911402
 20
138.4171272783161
 30
0.0
 11
1466.928892328751
 21
142.459618859698
 31
0.0
  0
LINE
  5
F50
330
1F
100
AcDbEntity
  8
0
 62
     3
100
AcDbLine
 10
1469.513332254001
 20
138.7217890478765
 30
0.0
 11
1467.559115468731
 21
142.764280629258
 31
0.0
  0
LINE
  5
F51
330
1F
100
AcDbEntity
  8
0
 62
     3
100
AcDbLine
 10
1467.559115468731
 20
142.764280629258
 30
0.0
 11
1466.928892328751
 21
142.459618859698
 31
0.0
  0
ARC
  5
F52
330
1F
100
AcDbEntity
  8
0
 62
     3
100
AcDbCircle
 10
1483.657630956917
 20
108.4642806292578
 30
0.0
 40
0.7249999999999425
100
AcDbArc
 50
136.3971810272891
 51
223.6028189727096
  0
ARC
  5
F53
330
1F
100
AcDbEntity
  8
0
 62
     3
100
AcDbCircle
 10
1469.207630956916
 20
108.4642806292578
 30
0.0
 40
0.7250000000002305
100
AcDbArc
 50
316.3971810273277
 51
43.60281897267356
  0
LINE
  5
F54
330
1F
100
AcDbEntity
  8
0
100
AcDbLine
 10
1483.132630956917
 20
138.9642806292578
 30
0.0
 11
1469.732630956916
 21
138.9642806292582
 31
0.0
  0
LINE
  5
F55
330
1F
100
AcDbEntity
  8
0
100
AcDbLine
 10
1483.132630956917
 20
137.9642806292573
 30
0.0
 11
1469.732630956917
 21
137.9642806292578
 31
0.0
  0
ARC
  5
F56
330
1F
100
AcDbEntity
  8
0
 62
     3
100
AcDbCircle
 10
1483.657630956917
 20
138.4642806292578
 30
0.0
 40
0.7249999999999425
100
AcDbArc
 50
136.3971810272891
 51
223.6028189727096
  0
ARC
  5
F57
330
1F
100
AcDbEntity
  8
0
 62
     3
100
AcDbCircle
 10
1469.207630956916
 20
138.4642806292578
 30
0.0
 40
0.7250000000002305
100
AcDbArc
 50
316.3971810273277
 51
43.60281897267356
  0
CIRCLE
  5
F58
330
1F
100
AcDbEntity
  8
0
 62
     3
100
AcDbCircle
 10
1432.009174786514
 20
58.32951989973444
 30
0.0
 40
3.5
  0
CIRCLE
  5
F59
330
1F
100
AcDbEntity
  8
0
100
AcDbCircle
 10
1432.009174786514
 20
58.32951989973444
 30
0.0
 40
5.0
  0
ARC
  5
F5A
330
1F
100
AcDbEntity
  8
0
 62
     3
100
AcDbCircle
 10
650.5636309568973
 20
179.4642806292578
 30
0.0
 40
832.3690000000194
100
AcDbArc
 50
0.0
 51
0.943076477221367
  0
ARC
  5
F5B
330
1F
100
AcDbEntity
  8
0
 62
     3
100
AcDbCircle
 10
650.5636309568973
 20
179.4642806292578
 30
0.0
 40
832.3690000000194
100
AcDbArc
 50
0.9981520545287573
 51
1.218464097236805
  0
ARC
  5
F5C
330
1F
100
AcDbEntity
  8
0
 62
     3
100
AcDbCircle
 10
650.5636309568973
 20
179.4642806292578
 30
0.0
 40
832.3690000000194
100
AcDbArc
 50
1.273544796046487
 51
1.493879873213135
  0
ARC
  5
F5D
330
1F
100
AcDbEntity
  8
0
 62
     3
100
AcDbCircle
 10
650.5636309568973
 20
179.4642806292578
 30
0.0
 40
832.3690000000194
100
AcDbArc
 50
1.548966967970138
 51
3.140429532036663
  0
ARC
  5
F5E
330
1F
100
AcDbEntity
  8
0
 62
     3
100
AcDbCircle
 10
2302.301630956935
 20
179.4642806292582
 30
0.0
 40
832.3690000000183
100
AcDbArc
 50
176.8595704679633
 51
178.4510330320298
  0
ARC
  5
F5F
330
1F
100
AcDbEntity
  8
0
 62
     3
100
AcDbCircle
 10
2302.301630956935
 20
179.4642806292582
 30
0.0
 40
832.3690000000183
100
AcDbArc
 50
178.5061201267869
 51
178.7264552039534
  0
ARC
  5
F60
330
1F
100
AcDbEntity
  8
0
 62
     3
100
AcDbCircle
 10
2302.301630956935
 20
179.4642806292582
 30
0.0
 40
832.3690000000183
100
AcDbArc
 50
178.7815359027631
 51
179.0018479454712
  0
ARC
  5
F61
330
1F
100
AcDbEntity
  8
0
 62
     3
100
AcDbCircle
 10
2302.301630956935
 20
179.4642806292582
 30
0.0
 40
832.3690000000183
100
AcDbArc
 50
179.0569235227786
 51
180.0
  0
ARC
  5
F62
330
1F
100
AcDbEntity
  8
0
 62
     3
100
AcDbCircle
 10
1483.232630956917
 20
151.4642806292573
 30
0.0
 40
0.4999999999995115
100
AcDbArc
 50
126.8698976457723
 51
233.1301023541618
  0
ARC
  5
F63
330
1F
100
AcDbEntity
  8
0
 62
     3
100
AcDbCircle
 10
1469.632630956917
 20
151.4642806292578
 30
0.0
 40
0.4999999999996703
100
AcDbArc
 50
306.8698976457731
 51
53.13010235422764
  0
ARC
  5
F64
330
1F
100
AcDbEntity
  8
0
 62
     3
100
AcDbCircle
 10
1482.513270562598
 20
193.5592008737836
 30
0.0
 40
0.4999706420246362
100
AcDbArc
 50
307.8250596083488
 51
54.11616892350149
  0
ARC
  5
F65
330
1F
100
AcDbEntity
  8
0
 62
     3
100
AcDbCircle
 10
1482.435839862694
 20
197.5577581919339
 30
0.0
 40
0.5000449968181587
100
AcDbArc
 50
308.1047086157953
 51
54.38730027737811
  0
ARC
  5
F66
330
1F
100
AcDbEntity
  8
0
 62
     3
100
AcDbCircle
 10
1482.339161605041
 20
201.5563143042306
 30
0.0
 40
0.5001378636598192
100
AcDbArc
 50
308.3854452877133
 51
54.6574015534631
  0
ARC
  5
F67
330
1F
100
AcDbEntity
  8
0
 62
     3
100
AcDbCircle
 10
1470.351991351235
 20
193.5592008737836
 30
0.0
 40
0.4999706420246362
100
AcDbArc
 50
125.8838310764984
 51
232.1749403916512
  0
ARC
  5
F68
330
1F
100
AcDbEntity
  8
0
 62
     3
100
AcDbCircle
 10
1470.42942205114
 20
197.5577581919339
 30
0.0
 40
0.5000449968181587
100
AcDbArc
 50
125.6126997226206
 51
231.8952913842046
  0
ARC
  5
F69
330
1F
100
AcDbEntity
  8
0
 62
     3
100
AcDbCircle
 10
1470.526100308793
 20
201.5563143042306
 30
0.0
 40
0.5001378636598192
100
AcDbArc
 50
125.3425984465369
 51
231.6145547122868
  0
LINE
  5
F6A
330
1F
100
AcDbEntity
  8
0
 62
     3
100
AcDbLine
 10
1429.009174786514
 20
238.8481709665676
 30
0.0
 11
1429.009174786514
 21
241.6174676583947
 31
0.0
  0
LINE
  5
F6B
330
1F
100
AcDbEntity
  8
0
 62
     3
100
AcDbLine
 10
1435.009174786514
 20
238.8481709665676
 30
0.0
 11
1435.009174786514
 21
241.6174676583947
 31
0.0
  0
LINE
  5
F6C
330
1F
100
AcDbEntity
  8
0
 62
     3
100
AcDbLine
 10
1428.709174786514
 20
238.8481709665676
 30
0.0
 11
1428.709174786514
 21
238.1481709665674
 31
0.0
  0
LINE
  5
F6D
330
1F
100
AcDbEntity
  8
0
 62
     3
100
AcDbLine
 10
1435.309174786514
 20
238.1481709665674
 30
0.0
 11
1435.309174786514
 21
238.8481709665676
 31
0.0
  0
LINE
  5
F6E
330
1F
100
AcDbEntity
  8
0
 62
     3
100
AcDbLine
 10
1434.209174786514
 20
238.1481709665674
 30
0.0
 11
1434.209174786514
 21
238.8481709665676
 31
0.0
  0
LINE
  5
F6F
330
1F
100
AcDbEntity
  8
0
 62
     3
100
AcDbLine
 10
1429.509174786514
 20
241.2486491236706
 30
0.0
 11
1429.509174786514
 21
241.878872263652
 31
0.0
  0
LINE
  5
F70
330
1F
100
AcDbEntity
  8
0
 62
     3
100
AcDbLine
 10
1434.509174786514
 20
241.2486491236706
 30
0.0
 11
1434.509174786514
 21
241.878872263652
 31
0.0
  0
CIRCLE
  5
F71
330
1F
100
AcDbEntity
  8
0
 62
     3
100
AcDbCircle
 10
1432.009174786514
 20
248.7981709665675
 30
0.0
 40
5.25
  0
CIRCLE
  5
F72
330
1F
100
AcDbEntity
  8
0
100
AcDbCircle
 10
1432.009174786514
 20
248.7981709665675
 30
0.0
 40
4.25
  0
CIRCLE
  5
F73
330
1F
100
AcDbEntity
  8
0
 62
     3
100
AcDbCircle
 10
1432.009174786514
 20
248.7981709665675
 30
0.0
 40
6.5
  0
CIRCLE
  5
F74
330
1F
100
AcDbEntity
  8
0
 62
     3
100
AcDbCircle
 10
1432.009174786514
 20
248.7981709665675
 30
0.0
 40
6.699999999999986
  0
ARC
  5
F75
330
1F
100
AcDbEntity
  8
0
 62
     3
100
AcDbCircle
 10
1432.009174786514
 20
248.7981709665675
 30
0.0
 40
6.75
100
AcDbArc
 50
304.8499045790537
 51
235.1500954209464
  0
CIRCLE
  5
F76
330
1F
100
AcDbEntity
  8
0
 62
     3
100
AcDbCircle
 10
1432.009174786514
 20
248.7981709665675
 30
0.0
 40
4.0
  0
CIRCLE
  5
F77
330
1F
100
AcDbEntity
  8
0
  6
HIDDEN
100
AcDbCircle
 10
1432.009174786514
 20
248.7981709665675
 30
0.0
 40
1.5
  0
LINE
  5
F78
330
1F
100
AcDbEntity
  8
0
 62
     3
100
AcDbLine
 10
1432.009174786514
 20
239.9246554783819
 30
0.0
 11
1434.509174786514
 21
241.878872263652
 31
0.0
  0
LINE
  5
F79
330
1F
100
AcDbEntity
  8
0
 62
     3
100
AcDbLine
 10
1434.509174786514
 20
241.2486491236706
 30
0.0
 11
1432.009174786514
 21
239.2944323384014
 31
0.0
  0
LINE
  5
F7A
330
1F
100
AcDbEntity
  8
0
 62
     3
100
AcDbLine
 10
1429.509174786514
 20
241.878872263652
 30
0.0
 11
1432.009174786514
 21
239.9246554783819
 31
0.0
  0
LINE
  5
F7B
330
1F
100
AcDbEntity
  8
0
 62
     3
100
AcDbLine
 10
1429.509174786514
 20
241.2486491236706
 30
0.0
 11
1432.009174786514
 21
239.2944323384014
 31
0.0
  0
LINE
  5
F7C
330
1F
100
AcDbEntity
  8
0
 62
     3
100
AcDbLine
 10
1432.009174786514
 20
239.9246554783819
 30
0.0
 11
1432.009174786514
 21
239.2944323384014
 31
0.0
  0
LINE
  5
F7D
330
1F
100
AcDbEntity
  8
0
 62
     3
100
AcDbLine
 10
1428.709174786514
 20
238.1481709665674
 30
0.0
 11
1435.309174786514
 21
238.1481709665674
 31
0.0
  0
LINE
  5
F7E
330
1F
100
AcDbEntity
  8
0
 62
     3
100
AcDbLine
 10
1428.709174786514
 20
238.8481709665676
 30
0.0
 11
1429.809174786514
 21
238.8481709665676
 31
0.0
  0
LINE
  5
F7F
330
1F
100
AcDbEntity
  8
0
 62
     3
100
AcDbLine
 10
1434.209174786514
 20
238.8481709665676
 30
0.0
 11
1435.309174786514
 21
238.8481709665676
 31
0.0
  0
ARC
  5
F80
330
1F
100
AcDbEntity
  8
0
 62
     3
100
AcDbCircle
 10
1427.086113760974
 20
238.8481709665676
 30
0.0
 40
7.123061025539299
100
AcDbArc
 50
0.0
 51
15.91039335441706
  0
ARC
  5
F81
330
1F
100
AcDbEntity
  8
0
 62
     3
100
AcDbCircle
 10
1426.483723645801
 20
238.1481709665674
 30
0.0
 40
7.725451140712721
100
AcDbArc
 50
0.0
 51
19.13470424369588
  0
LINE
  5
F82
330
1F
100
AcDbEntity
  8
0
 62
     3
100
AcDbLine
 10
1429.809174786514
 20
238.1481709665674
 30
0.0
 11
1429.809174786514
 21
238.8481709665676
 31
0.0
  0
ARC
  5
F83
330
1F
100
AcDbEntity
  8
0
 62
     3
100
AcDbCircle
 10
1436.932235812053
 20
238.8481709665676
 30
0.0
 40
7.123061025539299
100
AcDbArc
 50
164.0896066455829
 51
180.0
  0
ARC
  5
F84
330
1F
100
AcDbEntity
  8
0
 62
     3
100
AcDbCircle
 10
1437.534625927227
 20
238.1481709665674
 30
0.0
 40
7.725451140712721
100
AcDbArc
 50
160.8652957563041
 51
180.0
  0
ARC
  5
F85
330
1F
100
AcDbEntity
  8
0
 62
     3
100
AcDbCircle
 10
1437.009174786514
 20
241.6174676583947
 30
0.0
 40
2.0
100
AcDbArc
 50
124.8499045790543
 51
179.9999999999739
  0
ARC
  5
F86
330
1F
100
AcDbEntity
  8
0
 62
     3
100
AcDbCircle
 10
1427.009174786513
 20
241.6174676583947
 30
0.0
 40
2.0
100
AcDbArc
 50
0.0
 51
55.15009542093153
  0
ARC
  5
F87
330
1F
100
AcDbEntity
  8
0
 62
     3
100
AcDbCircle
 10
1432.009174786514
 20
227.7385513305031
 30
0.0
 40
14.35961963606444
100
AcDbArc
 50
79.97375168882467
 51
100.0262483111753
  0
LINE
  5
F88
330
1F
100
AcDbEntity
  8
0
 62
     3
100
AcDbLine
 10
1435.009174786514
 20
68.97951989973456
 30
0.0
 11
1435.009174786514
 21
65.51022320790719
 31
0.0
  0
LINE
  5
F89
330
1F
100
AcDbEntity
  8
0
 62
     3
100
AcDbLine
 10
1429.009174786514
 20
68.97951989973456
 30
0.0
 11
1429.009174786514
 21
65.51022320790719
 31
0.0
  0
LINE
  5
F8A
330
1F
100
AcDbEntity
  8
0
 62
     3
100
AcDbLine
 10
1435.309174786514
 20
68.27951989973428
 30
0.0
 11
1435.309174786514
 21
68.97951989973456
 31
0.0
  0
LINE
  5
F8B
330
1F
100
AcDbEntity
  8
0
 62
     3
100
AcDbLine
 10
1428.709174786514
 20
68.97951989973456
 30
0.0
 11
1428.709174786514
 21
68.27951989973428
 31
0.0
  0
ARC
  5
F8C
330
1F
100
AcDbEntity
  8
0
 62
     3
100
AcDbCircle
 10
1432.009174786514
 20
58.32951989973444
 30
0.0
 40
6.75
100
AcDbArc
 50
124.8499045790376
 51
55.15009542096235
  0
LINE
  5
F8D
330
1F
100
AcDbEntity
  8
0
 62
     3
100
AcDbLine
 10
1435.309174786514
 20
68.97951989973456
 30
0.0
 11
1428.709174786514
 21
68.97951989973456
 31
0.0
  0
LINE
  5
F8E
330
1F
100
AcDbEntity
  8
0
 62
     3
100
AcDbLine
 10
1435.309174786514
 20
68.27951989973428
 30
0.0
 11
1435.009174786514
 21
68.27951989973428
 31
0.0
  0
LINE
  5
F8F
330
1F
100
AcDbEntity
  8
0
 62
     3
100
AcDbLine
 10
1429.009174786514
 20
68.27951989973428
 30
0.0
 11
1428.709174786514
 21
68.27951989973428
 31
0.0
  0
ARC
  5
F90
330
1F
100
AcDbEntity
  8
0
 62
     3
100
AcDbCircle
 10
1427.009174786513
 20
65.51022320790719
 30
0.0
 40
2.0
100
AcDbArc
 50
304.849904579069
 51
359.999999999974
  0
ARC
  5
F91
330
1F
100
AcDbEntity
  8
0
 62
     3
100
AcDbCircle
 10
1437.009174786515
 20
65.51022320790719
 30
0.0
 40
2.0
100
AcDbArc
 50
180.0
 51
235.1500954209309
  0
LINE
  5
F92
330
1F
100
AcDbEntity
  8
0
  6
HIDDEN
 62
     2
100
AcDbLine
 10
1426.909174786513
 20
154.9642806292578
 30
0.0
 11
1426.909174786513
 21
197.9642806292578
 31
0.0
  0
LINE
  5
F93
330
1F
100
AcDbEntity
  8
0
  6
HIDDEN
 62
     2
100
AcDbLine
 10
1426.909174786513
 20
153.4642806292578
 30
0.0
 11
1426.909174786513
 21
110.4642806292578
 31
0.0
  0
LINE
  5
F94
330
1F
100
AcDbEntity
  8
0
  6
HIDDEN
 62
     2
100
AcDbLine
 10
1437.109174786514
 20
154.9642806292578
 30
0.0
 11
1437.109174786514
 21
197.9642806292578
 31
0.0
  0
LINE
  5
F95
330
1F
100
AcDbEntity
  8
0
  6
HIDDEN
 62
     2
100
AcDbLine
 10
1437.109174786514
 20
153.4642806292578
 30
0.0
 11
1437.109174786514
 21
110.4642806292578
 31
0.0
  0
LINE
  5
F96
330
1F
100
AcDbEntity
  8
0
  6
HIDDEN
 62
     2
100
AcDbLine
 10
1430.309174786513
 20
199.4642806292578
 30
0.0
 11
1430.309174786513
 21
197.9642806292578
 31
0.0
  0
LINE
  5
F97
330
1F
100
AcDbEntity
  8
0
  6
HIDDEN
 62
     2
100
AcDbLine
 10
1430.309174786513
 20
154.9642806292578
 30
0.0
 11
1430.309174786513
 21
153.4642806292578
 31
0.0
  0
LINE
  5
F98
330
1F
100
AcDbEntity
  8
0
  6
HIDDEN
 62
     2
100
AcDbLine
 10
1433.709174786514
 20
199.4642806292578
 30
0.0
 11
1433.709174786514
 21
197.9642806292578
 31
0.0
  0
LINE
  5
F99
330
1F
100
AcDbEntity
  8
0
  6
HIDDEN
 62
     2
100
AcDbLine
 10
1433.709174786514
 20
154.9642806292578
 30
0.0
 11
1433.709174786514
 21
153.4642806292578
 31
0.0
  0
LINE
  5
F9A
330
1F
100
AcDbEntity
  8
0
 62
     3
100
AcDbLine
 10
1426.759174786514
 20
225.0642806292582
 30
0.0
 11
1426.759174786514
 21
226.0642806292582
 31
0.0
  0
LINE
  5
F9B
330
1F
100
AcDbEntity
  8
0
 62
     3
100
AcDbLine
 10
1437.259174786514
 20
225.0642806292568
 30
0.0
 11
1437.259174786514
 21
226.0642806292582
 31
0.0
  0
LINE
  5
F9C
330
1F
100
AcDbEntity
  8
0
 62
     3
100
AcDbLine
 10
1425.509174786514
 20
146.4642806292578
 30
0.0
 11
1425.509174786514
 21
151.0642806292576
 31
0.0
  0
LINE
  5
F9D
330
1F
100
AcDbEntity
  8
0
 62
     3
100
AcDbLine
 10
1425.509174786514
 20
151.8642806292579
 30
0.0
 11
1425.509174786514
 21
179.4642806292578
 31
0.0
  0
LINE
  5
F9E
330
1F
100
AcDbEntity
  8
0
 62
     3
100
AcDbLine
 10
1438.509174786514
 20
146.4642806292578
 30
0.0
 11
1438.509174786514
 21
151.0642806292576
 31
0.0
  0
LINE
  5
F9F
330
1F
100
AcDbEntity
  8
0
 62
     3
100
AcDbLine
 10
1438.509174786514
 20
151.864280629257
 30
0.0
 11
1438.509174786514
 21
179.4642806292578
 31
0.0
  0
LINE
  5
FA0
330
1F
100
AcDbEntity
  8
0
 62
     3
100
AcDbLine
 10
1438.759174786514
 20
102.764280629258
 30
0.0
 11
1438.759174786514
 21
103.4642806292578
 31
0.0
  0
LINE
  5
FA1
330
1F
100
AcDbEntity
  8
0
 62
     3
100
AcDbLine
 10
1425.759174786514
 20
101.764280629258
 30
0.0
 11
1425.759174786514
 21
102.764280629258
 31
0.0
  0
LINE
  5
FA2
330
1F
100
AcDbEntity
  8
0
 62
     3
100
AcDbLine
 10
1438.259174786514
 20
101.764280629258
 30
0.0
 11
1438.259174786514
 21
102.764280629258
 31
0.0
  0
LINE
  5
FA3
330
1F
100
AcDbEntity
  8
0
 62
     3
100
AcDbLine
 10
1425.309174786514
 20
103.4642806292578
 30
0.0
 11
1425.309174786514
 21
107.9642806292578
 31
0.0
  0
LINE
  5
FA4
330
1F
100
AcDbEntity
  8
0
 62
     3
100
AcDbLine
 10
1425.309174786514
 20
108.9642806292578
 30
0.0
 11
1425.309174786514
 21
137.9642806292578
 31
0.0
  0
LINE
  5
FA5
330
1F
100
AcDbEntity
  8
0
 62
     3
100
AcDbLine
 10
1425.309174786514
 20
138.9642806292582
 30
0.0
 11
1425.309174786514
 21
146.4642806292578
 31
0.0
  0
LINE
  5
FA6
330
1F
100
AcDbEntity
  8
0
 62
     3
100
AcDbLine
 10
1438.709174786514
 20
103.4642806292578
 30
0.0
 11
1438.709174786514
 21
107.9642806292573
 31
0.0
  0
LINE
  5
FA7
330
1F
100
AcDbEntity
  8
0
 62
     3
100
AcDbLine
 10
1438.709174786514
 20
108.9642806292578
 30
0.0
 11
1438.709174786514
 21
137.9642806292573
 31
0.0
  0
LINE
  5
FA8
330
1F
100
AcDbEntity
  8
0
 62
     3
100
AcDbLine
 10
1438.709174786514
 20
138.9642806292578
 30
0.0
 11
1438.709174786514
 21
146.4642806292578
 31
0.0
  0
LINE
  5
FA9
330
1F
100
AcDbEntity
  8
0
 62
     3
100
AcDbLine
 10
1428.509174786514
 20
86.76428062925799
 30
0.0
 11
1428.509174786514
 21
90.56428062925816
 31
0.0
  0
LINE
  5
FAA
330
1F
100
AcDbEntity
  8
0
 62
     3
100
AcDbLine
 10
1435.509174786514
 20
86.76428062925799
 30
0.0
 11
1435.509174786514
 21
90.56428062925816
 31
0.0
  0
LINE
  5
FAB
330
1F
100
AcDbEntity
  8
0
 62
     3
100
AcDbLine
 10
1437.259174786514
 20
226.0642806292582
 30
0.0
 11
1426.759174786514
 21
226.0642806292582
 31
0.0
  0
LINE
  5
FAC
330
1F
100
AcDbEntity
  8
0
 62
     3
100
AcDbLine
 10
1437.259174786514
 20
225.0642806292582
 30
0.0
 11
1426.759174786514
 21
225.0642806292582
 31
0.0
  0
LINE
  5
FAD
330
1F
100
AcDbEntity
  8
0
 62
     3
100
AcDbLine
 10
1438.06790131148
 20
206.5642806292577
 30
0.0
 11
1425.950448261547
 21
206.5642806292577
 31
0.0
  0
LINE
  5
FAE
330
1F
100
AcDbEntity
  8
0
100
AcDbLine
 10
1438.226265381111
 20
201.1642806292576
 30
0.0
 11
1425.792084191917
 21
201.1642806292576
 31
0.0
  0
LINE
  5
FAF
330
1F
100
AcDbEntity
  8
0
100
AcDbLine
 10
1438.205017308417
 20
201.9642806292578
 30
0.0
 11
1425.81333226461
 21
201.9642806292578
 31
0.0
  0
LINE
  5
FB0
330
1F
100
AcDbEntity
  8
0
100
AcDbLine
 10
1438.320961731874
 20
197.1642806292575
 30
0.0
 11
1425.697387841153
 21
197.1642806292575
 31
0.0
  0
LINE
  5
FB1
330
1F
100
AcDbEntity
  8
0
100
AcDbLine
 10
1438.303561484703
 20
197.9642806292578
 30
0.0
 11
1425.714788088324
 21
197.9642806292578
 31
0.0
  0
LINE
  5
FB2
330
1F
100
AcDbEntity
  8
0
100
AcDbLine
 10
1438.396422681956
 20
193.1642806292576
 30
0.0
 11
1425.621926891071
 21
193.1642806292576
 31
0.0
  0
LINE
  5
FB3
330
1F
100
AcDbEntity
  8
0
100
AcDbLine
 10
1438.382869053636
 20
193.9642806292573
 30
0.0
 11
1425.635480519391
 21
193.9642806292578
 31
0.0
  0
LINE
  5
FB4
330
1F
100
AcDbEntity
  8
0
 62
     3
100
AcDbLine
 10
1437.009174786514
 20
90.56428062925816
 30
0.0
 11
1427.009174786514
 21
90.56428062925816
 31
0.0
  0
LINE
  5
FB5
330
1F
100
AcDbEntity
  8
0
100
AcDbLine
 10
1438.634127616535
 20
93.56428062925862
 30
0.0
 11
1436.187676605215
 21
93.56428062925862
 31
0.0
  0
LINE
  5
FB6
330
1F
100
AcDbEntity
  8
0
100
AcDbLine
 10
1434.455625797739
 20
93.56428062925862
 30
0.0
 11
1429.562723775288
 21
93.56428062925862
 31
0.0
  0
LINE
  5
FB7
330
1F
100
AcDbEntity
  8
0
100
AcDbLine
 10
1427.830672967812
 20
93.56428062925862
 30
0.0
 11
1425.384221956492
 21
93.56428062925862
 31
0.0
  0
LINE
  5
FB8
330
1F
100
AcDbEntity
  8
0
100
AcDbLine
 10
1425.384221956492
 20
101.0642806292582
 30
0.0
 11
1427.830672967812
 21
101.0642806292582
 31
0.0
  0
LINE
  5
FB9
330
1F
100
AcDbEntity
  8
0
100
AcDbLine
 10
1429.562723775288
 20
101.0642806292582
 30
0.0
 11
1434.455625797739
 21
101.0642806292582
 31
0.0
  0
LINE
  5
FBA
330
1F
100
AcDbEntity
  8
0
100
AcDbLine
 10
1436.187676605215
 20
101.0642806292582
 30
0.0
 11
1438.634127616535
 21
101.0642806292582
 31
0.0
  0
LINE
  5
FBB
330
1F
100
AcDbEntity
  8
0
 62
     3
100
AcDbLine
 10
1438.759174786514
 20
102.764280629258
 30
0.0
 11
1425.259174786514
 21
102.764280629258
 31
0.0
  0
LINE
  5
FBC
330
1F
100
AcDbEntity
  8
0
 62
     3
100
AcDbLine
 10
1438.759174786514
 20
103.4642806292578
 30
0.0
 11
1435.009174786514
 21
103.4642806292578
 31
0.0
  0
LINE
  5
FBD
330
1F
100
AcDbEntity
  8
0
 62
     3
100
AcDbLine
 10
1429.009174786513
 20
103.4642806292582
 30
0.0
 11
1425.259174786514
 21
103.4642806292582
 31
0.0
  0
LINE
  5
FBE
330
1F
100
AcDbEntity
  8
0
100
AcDbLine
 10
1438.709174786514
 20
108.9642806292578
 30
0.0
 11
1435.249815234688
 21
108.9642806292578
 31
0.0
  0
LINE
  5
FBF
330
1F
100
AcDbEntity
  8
0
100
AcDbLine
 10
1428.768534338339
 20
108.9642806292582
 30
0.0
 11
1425.309174786514
 21
108.9642806292582
 31
0.0
  0
LINE
  5
FC0
330
1F
100
AcDbEntity
  8
0
100
AcDbLine
 10
1438.709174786514
 20
107.9642806292573
 30
0.0
 11
1435.219831588765
 21
107.9642806292573
 31
0.0
  0
LINE
  5
FC1
330
1F
100
AcDbEntity
  8
0
100
AcDbLine
 10
1428.798517984262
 20
107.9642806292578
 30
0.0
 11
1425.309174786514
 21
107.9642806292578
 31
0.0
  0
LINE
  5
FC2
330
1F
100
AcDbEntity
  8
0
 62
     3
100
AcDbLine
 10
1438.709174786514
 20
143.4642806292578
 30
0.0
 11
1425.309174786514
 21
143.4642806292578
 31
0.0
  0
LINE
  5
FC3
330
1F
100
AcDbEntity
  8
0
 62
     3
100
AcDbLine
 10
1438.709174786514
 20
146.4642806292578
 30
0.0
 11
1425.309174786514
 21
146.4642806292578
 31
0.0
  0
LINE
  5
FC4
330
1F
100
AcDbEntity
  8
0
100
AcDbLine
 10
1438.509174786515
 20
151.8642806292579
 30
0.0
 11
1425.509174786514
 21
151.8642806292579
 31
0.0
  0
LINE
  5
FC5
330
1F
100
AcDbEntity
  8
0
100
AcDbLine
 10
1438.509174786514
 20
151.0642806292576
 30
0.0
 11
1425.509174786514
 21
151.0642806292576
 31
0.0
  0
LINE
  5
FC6
330
1F
100
AcDbEntity
  8
0
100
AcDbLine
 10
1425.759174786514
 20
101.764280629258
 30
0.0
 11
1438.259174786514
 21
101.764280629258
 31
0.0
  0
LINE
  5
FC7
330
1F
100
AcDbEntity
  8
0
 62
     3
100
AcDbLine
 10
1428.509174786514
 20
86.76428062925799
 30
0.0
 11
1435.509174786514
 21
86.76428062925799
 31
0.0
  0
LINE
  5
FC8
330
1F
100
AcDbEntity
  8
0
 62
     3
100
AcDbLine
 10
1437.009174786514
 20
90.56428062925816
 30
0.0
 11
1438.359174786514
 21
92.94663357043431
 31
0.0
  0
LINE
  5
FC9
330
1F
100
AcDbEntity
  8
0
 62
     3
100
AcDbLine
 10
1427.009174786514
 20
90.56428062925816
 30
0.0
 11
1425.659174786515
 21
92.94663357043337
 31
0.0
  0
LINE
  5
FCA
330
1F
100
AcDbEntity
  8
0
 62
     3
100
AcDbLine
 10
1438.359174786514
 20
101.6087250737019
 30
0.0
 11
1438.259174786514
 21
101.764280629258
 31
0.0
  0
LINE
  5
FCB
330
1F
100
AcDbEntity
  8
0
100
AcDbLine
 10
1425.659174786513
 20
101.6087250737019
 30
0.0
 11
1425.759174786514
 21
101.764280629258
 31
0.0
  0
ARC
  5
FCC
330
1F
100
AcDbEntity
  8
0
 62
     3
100
AcDbCircle
 10
1439.234174786514
 20
108.4642806292578
 30
0.0
 40
0.7249999999999425
100
AcDbArc
 50
136.3971810272891
 51
223.6028189727096
  0
ARC
  5
FCD
330
1F
100
AcDbEntity
  8
0
 62
     3
100
AcDbCircle
 10
1424.784174786513
 20
108.4642806292578
 30
0.0
 40
0.7250000000002305
100
AcDbArc
 50
316.3971810273277
 51
43.60281897267356
  0
LINE
  5
FCE
330
1F
100
AcDbEntity
  8
0
100
AcDbLine
 10
1438.709174786514
 20
138.9642806292578
 30
0.0
 11
1434.489444300136
 21
138.9642806292582
 31
0.0
  0
LINE
  5
FCF
330
1F
100
AcDbEntity
  8
0
100
AcDbLine
 10
1429.528905272892
 20
138.9642806292582
 30
0.0
 11
1425.309174786514
 21
138.9642806292582
 31
0.0
  0
LINE
  5
FD0
330
1F
100
AcDbEntity
  8
0
100
AcDbLine
 10
1438.709174786514
 20
137.9642806292573
 30
0.0
 11
1434.439185245369
 21
137.9642806292573
 31
0.0
  0
LINE
  5
FD1
330
1F
100
AcDbEntity
  8
0
100
AcDbLine
 10
1429.579164327658
 20
137.9642806292578
 30
0.0
 11
1425.309174786514
 21
137.9642806292578
 31
0.0
  0
ARC
  5
FD2
330
1F
100
AcDbEntity
  8
0
 62
     3
100
AcDbCircle
 10
1439.234174786514
 20
138.4642806292578
 30
0.0
 40
0.7249999999999425
100
AcDbArc
 50
136.3971810272891
 51
223.6028189727096
  0
ARC
  5
FD3
330
1F
100
AcDbEntity
  8
0
 62
     3
100
AcDbCircle
 10
1424.784174786513
 20
138.4642806292578
 30
0.0
 40
0.7250000000002305
100
AcDbArc
 50
316.3971810273277
 51
43.60281897267356
  0
ARC
  5
FD4
330
1F
100
AcDbEntity
  8
0
 62
     3
100
AcDbCircle
 10
606.1401747864941
 20
179.4642806292578
 30
0.0
 40
832.3690000000194
100
AcDbArc
 50
0.0
 51
0.943076477221367
  0
ARC
  5
FD5
330
1F
100
AcDbEntity
  8
0
 62
     3
100
AcDbCircle
 10
606.1401747864941
 20
179.4642806292578
 30
0.0
 40
832.3690000000194
100
AcDbArc
 50
0.9981520545287573
 51
1.218464097236805
  0
ARC
  5
FD6
330
1F
100
AcDbEntity
  8
0
 62
     3
100
AcDbCircle
 10
606.1401747864941
 20
179.4642806292578
 30
0.0
 40
832.3690000000194
100
AcDbArc
 50
1.273544796046487
 51
1.493879873213135
  0
ARC
  5
FD7
330
1F
100
AcDbEntity
  8
0
 62
     3
100
AcDbCircle
 10
606.1401747864941
 20
179.4642806292578
 30
0.0
 40
832.3690000000194
100
AcDbArc
 50
1.548966967970138
 51
3.140429532036663
  0
ARC
  5
FD8
330
1F
100
AcDbEntity
  8
0
 62
     3
100
AcDbCircle
 10
2257.878174786533
 20
179.4642806292582
 30
0.0
 40
832.3690000000183
100
AcDbArc
 50
176.8595704679633
 51
178.4510330320298
  0
ARC
  5
FD9
330
1F
100
AcDbEntity
  8
0
 62
     3
100
AcDbCircle
 10
2257.878174786533
 20
179.4642806292582
 30
0.0
 40
832.3690000000183
100
AcDbArc
 50
178.5061201267869
 51
178.7264552039534
  0
ARC
  5
FDA
330
1F
100
AcDbEntity
  8
0
 62
     3
100
AcDbCircle
 10
2257.878174786533
 20
179.4642806292582
 30
0.0
 40
832.3690000000183
100
AcDbArc
 50
178.7815359027631
 51
179.0018479454712
  0
ARC
  5
FDB
330
1F
100
AcDbEntity
  8
0
 62
     3
100
AcDbCircle
 10
2257.878174786533
 20
179.4642806292582
 30
0.0
 40
832.3690000000183
100
AcDbArc
 50
179.0569235227786
 51
180.0
  0
ARC
  5
FDC
330
1F
100
AcDbEntity
  8
0
 62
     3
100
AcDbCircle
 10
1438.809174786513
 20
151.4642806292573
 30
0.0
 40
0.4999999999995115
100
AcDbArc
 50
126.8698976457723
 51
233.1301023541618
  0
ARC
  5
FDD
330
1F
100
AcDbEntity
  8
0
 62
     3
100
AcDbCircle
 10
1425.209174786514
 20
151.4642806292578
 30
0.0
 40
0.4999999999996703
100
AcDbArc
 50
306.8698976457731
 51
53.13010235422764
  0
ARC
  5
FDE
330
1F
100
AcDbEntity
  8
0
 62
     3
100
AcDbCircle
 10
1438.089814392195
 20
193.5592008737836
 30
0.0
 40
0.4999706420246362
100
AcDbArc
 50
307.8250596083488
 51
54.11616892350149
  0
ARC
  5
FDF
330
1F
100
AcDbEntity
  8
0
 62
     3
100
AcDbCircle
 10
1438.012383692291
 20
197.5577581919339
 30
0.0
 40
0.5000449968181587
100
AcDbArc
 50
308.1047086157953
 51
54.38730027737811
  0
ARC
  5
FE0
330
1F
100
AcDbEntity
  8
0
 62
     3
100
AcDbCircle
 10
1437.915705434637
 20
201.5563143042306
 30
0.0
 40
0.5001378636598192
100
AcDbArc
 50
308.3854452877133
 51
54.6574015534631
  0
ARC
  5
FE1
330
1F
100
AcDbEntity
  8
0
 62
     3
100
AcDbCircle
 10
1425.928535180832
 20
193.5592008737836
 30
0.0
 40
0.4999706420246362
100
AcDbArc
 50
125.8838310764984
 51
232.1749403916512
  0
ARC
  5
FE2
330
1F
100
AcDbEntity
  8
0
 62
     3
100
AcDbCircle
 10
1426.005965880737
 20
197.5577581919339
 30
0.0
 40
0.5000449968181587
100
AcDbArc
 50
125.6126997226206
 51
231.8952913842046
  0
ARC
  5
FE3
330
1F
100
AcDbEntity
  8
0
 62
     3
100
AcDbCircle
 10
1426.10264413839
 20
201.5563143042306
 30
0.0
 40
0.5001378636598192
100
AcDbArc
 50
125.3425984465369
 51
231.6145547122868
  0
LINE
  5
FE4
330
1F
100
AcDbEntity
  8
0
 62
     3
100
AcDbLine
 10
1438.634127616535
 20
93.5642806292582
 30
0.0
 11
1438.634127616535
 21
101.0642806292582
 31
0.0
  0
LINE
  5
FE5
330
1F
100
AcDbEntity
  8
0
 62
     3
100
AcDbLine
 10
1438.359174786514
 20
92.94663357043475
 30
0.0
 11
1438.634127616535
 21
93.5642806292582
 31
0.0
  0
LINE
  5
FE6
330
1F
100
AcDbEntity
  8
0
 62
     3
100
AcDbLine
 10
1438.359174786514
 20
101.6087250737024
 30
0.0
 11
1438.634127616535
 21
101.0642806292582
 31
0.0
  0
LINE
  5
FE7
330
1F
100
AcDbEntity
  8
0
 62
     3
100
AcDbLine
 10
1425.384221956492
 20
93.5642806292582
 30
0.0
 11
1425.384221956492
 21
101.0642806292582
 31
0.0
  0
LINE
  5
FE8
330
1F
100
AcDbEntity
  8
0
 62
     3
100
AcDbLine
 10
1425.659174786513
 20
92.94663357043475
 30
0.0
 11
1425.384221956492
 21
93.5642806292582
 31
0.0
  0
LINE
  5
FE9
330
1F
100
AcDbEntity
  8
0
 62
     3
100
AcDbLine
 10
1425.659174786513
 20
101.6087250737024
 30
0.0
 11
1425.384221956492
 21
101.0642806292582
 31
0.0
  0
LINE
  5
FEA
330
1F
100
AcDbEntity
  8
0
100
AcDbLine
 10
1436.187676605215
 20
93.56428062925862
 30
0.0
 11
1436.187676605215
 21
101.0642806292582
 31
0.0
  0
LINE
  5
FEB
330
1F
100
AcDbEntity
  8
0
100
AcDbLine
 10
1434.455625797739
 20
101.0642806292582
 30
0.0
 11
1434.455625797739
 21
93.56428062925862
 31
0.0
  0
ELLIPSE
  5
FEC
330
1F
100
AcDbEntity
  8
0
100
AcDbEllipse
 10
1435.184174786513
 20
93.56428062925862
 30
0.0
 11
1.003501818702146
 21
-0.0000000000000002
 31
0.0
210
0.0
220
0.0
230
1.0
 40
0.6154917184133203
 41
4.712388980384688
 42
6.283185307179584
  0
ELLIPSE
  5
FED
330
1F
100
AcDbEntity
  8
0
100
AcDbEllipse
 10
1435.184174786513
 20
101.0642806292582
 30
0.0
 11
1.003501818702146
 21
-0.0000000000000002
 31
0.0
210
0.0
220
0.0
230
1.0
 40
0.5425445517860597
 41
6.283185307179584
 42
7.853981633974482
  0
ELLIPSE
  5
FEE
330
1F
100
AcDbEntity
  8
0
100
AcDbEllipse
 10
1435.184174786513
 20
93.56428062925862
 30
0.0
 11
0.7285489887737811
 21
-0.0000000000000001
 31
0.0
210
0.0
220
0.0
230
1.0
 40
0.8477769763477912
 41
3.141592653589792
 42
4.712388980384688
  0
ELLIPSE
  5
FEF
330
1F
100
AcDbEntity
  8
0
100
AcDbEllipse
 10
1435.184174786513
 20
101.0642806292582
 30
0.0
 11
-0.7285489887737811
 21
0.0000000000000001
 31
0.0
210
0.0
220
0.0
230
1.0
 40
0.7472997050762578
 41
4.712388980384688
 42
6.283185307179584
  0
LINE
  5
FF0
330
1F
100
AcDbEntity
  8
0
100
AcDbLine
 10
1427.830672967812
 20
93.56428062925862
 30
0.0
 11
1427.830672967812
 21
101.0642806292582
 31
0.0
  0
LINE
  5
FF1
330
1F
100
AcDbEntity
  8
0
100
AcDbLine
 10
1429.562723775288
 20
101.0642806292582
 30
0.0
 11
1429.562723775288
 21
93.56428062925862
 31
0.0
  0
ELLIPSE
  5
FF2
330
1F
100
AcDbEntity
  8
0
100
AcDbEllipse
 10
1428.834174786514
 20
93.56428062925862
 30
0.0
 11
-1.003501818702146
 21
0.0000000000000002
 31
0.0
210
0.0
220
0.0
230
-1.0
 40
0.6154917184133203
 41
4.712388980384688
 42
6.283185307179584
  0
ELLIPSE
  5
FF3
330
1F
100
AcDbEntity
  8
0
100
AcDbEllipse
 10
1428.834174786514
 20
101.0642806292582
 30
0.0
 11
-1.003501818702146
 21
0.0000000000000002
 31
0.0
210
0.0
220
0.0
230
-1.0
 40
0.5425445517860597
 41
6.283185307179584
 42
7.853981633974482
  0
ELLIPSE
  5
FF4
330
1F
100
AcDbEntity
  8
0
100
AcDbEllipse
 10
1428.834174786514
 20
93.56428062925862
 30
0.0
 11
-0.7285489887737811
 21
0.0000000000000001
 31
0.0
210
0.0
220
0.0
230
-1.0
 40
0.8477769763477912
 41
3.141592653589792
 42
4.712388980384688
  0
ELLIPSE
  5
FF5
330
1F
100
AcDbEntity
  8
0
100
AcDbEllipse
 10
1428.834174786514
 20
101.0642806292582
 30
0.0
 11
0.7285489887737811
 21
-0.0000000000000001
 31
0.0
210
0.0
220
0.0
230
-1.0
 40
0.7472997050762578
 41
4.712388980384688
 42
6.283185307179584
  0
LINE
  5
FF6
330
1F
100
AcDbEntity
  8
0
100
AcDbLine
 10
1435.009174786514
 20
102.764280629258
 30
0.0
 11
1435.009174786514
 21
103.4642806292578
 31
0.0
  0
LINE
  5
FF7
330
1F
100
AcDbEntity
  8
0
100
AcDbLine
 10
1429.009174786514
 20
102.764280629258
 30
0.0
 11
1429.009174786514
 21
103.4642806292578
 31
0.0
  0
LINE
  5
FF8
330
1F
100
AcDbEntity
  8
0
 62
     3
100
AcDbLine
 10
1425.259174786514
 20
102.764280629258
 30
0.0
 11
1425.259174786514
 21
103.4642806292578
 31
0.0
  0
ARC
  5
FF9
330
1F
100
AcDbEntity
  8
0
 62
     3
100
AcDbCircle
 10
1433.009174786514
 20
138.7217890478765
 30
0.0
 40
1.5
100
AcDbArc
 50
0.0
 51
35.00699261063378
  0
LINE
  5
FFA
330
1F
100
AcDbEntity
  8
0
 62
     3
100
AcDbLine
 10
1432.009174786514
 20
142.764280629258
 30
0.0
 11
1434.237797841385
 21
139.58230365498
 31
0.0
  0
LINE
  5
FFB
330
1F
100
AcDbEntity
  8
0
 62
     3
100
AcDbLine
 10
1433.609174786514
 20
136.5157655165427
 30
0.0
 11
1433.967770436944
 21
137.2579089721731
 31
0.0
  0
ARC
  5
FFC
330
1F
100
AcDbEntity
  8
0
 62
     3
100
AcDbCircle
 10
1433.009174786514
 20
138.4171272783161
 30
0.0
 40
1.5
100
AcDbArc
 50
313.8837645919543
 51
35.0069926105944
  0
LINE
  5
FFD
330
1F
100
AcDbEntity
  8
0
 62
     3
100
AcDbLine
 10
1433.609174786514
 20
136.9130203251339
 30
0.0
 11
1434.048971222697
 21
137.3360059292991
 31
0.0
  0
LINE
  5
FFE
330
1F
100
AcDbEntity
  8
0
 62
     3
100
AcDbLine
 10
1432.009174786514
 20
142.459618859698
 30
0.0
 11
1434.237797841385
 21
139.2776418854192
 31
0.0
  0
ARC
  5
FFF
330
1F
100
AcDbEntity
  8
0
 62
     3
100
AcDbCircle
 10
1431.009174786513
 20
138.7217890478761
 30
0.0
 40
1.5
100
AcDbArc
 50
144.9930073894055
 51
180.000000000026
  0
LINE
  5
1000
330
1F
100
AcDbEntity
  8
0
 62
     3
100
AcDbLine
 10
1432.009174786512
 20
142.764280629258
 30
0.0
 11
1429.780551731642
 21
139.5823036549792
 31
0.0
  0
LINE
  5
1001
330
1F
100
AcDbEntity
  8
0
 62
     3
100
AcDbLine
 10
1430.409174786514
 20
136.5157655165422
 30
0.0
 11
1430.050579136084
 21
137.2579089721722
 31
0.0
  0
ARC
  5
1002
330
1F
100
AcDbEntity
  8
0
 62
     3
100
AcDbCircle
 10
1431.009174786513
 20
138.4171272783156
 30
0.0
 40
1.5
100
AcDbArc
 50
144.9930073894127
 51
226.1162354080628
  0
LINE
  5
1003
330
1F
100
AcDbEntity
  8
0
 62
     3
100
AcDbLine
 10
1430.409174786514
 20
136.9130203251335
 30
0.0
 11
1429.96937835033
 21
137.3360059292982
 31
0.0
  0
LINE
  5
1004
330
1F
100
AcDbEntity
  8
0
 62
     3
100
AcDbLine
 10
1432.009174786512
 20
142.459618859698
 30
0.0
 11
1429.780551731642
 21
139.2776418854183
 31
0.0
  0
ARC
  5
1005
330
1F
100
AcDbEntity
  8
0
 62
     3
100
AcDbCircle
 10
1271.491505079312
 20
113.3739023084264
 30
0.0
 40
163.8176697072016
100
AcDbArc
 50
356.5319593043148
 51
8.261482854715266
  0
ARC
  5
1006
330
1F
100
AcDbEntity
  8
0
 62
     3
100
AcDbCircle
 10
1592.526844493715
 20
113.3739023084264
 30
0.0
 40
163.8176697072016
100
AcDbArc
 50
171.7385171452847
 51
183.468040695685
  0
LINE
  5
1007
330
1F
100
AcDbEntity
  8
0
 62
     3
100
AcDbLine
 10
1434.509174786514
 20
138.7217890478765
 30
0.0
 11
1434.509174786514
 21
138.4171272783161
 31
0.0
  0
LINE
  5
1008
330
1F
100
AcDbEntity
  8
0
 62
     3
100
AcDbLine
 10
1429.509174786513
 20
138.7217890478756
 30
0.0
 11
1429.509174786513
 21
138.4171272783156
 31
0.0
  0
LINE
  5
1009
330
1F
100
AcDbEntity
  8
0
  6
HIDDEN
 62
     2
100
AcDbLine
 10
1430.309174786513
 20
199.4642806292578
 30
0.0
 11
1433.709174786514
 21
199.4642806292578
 31
0.0
  0
LINE
  5
100A
330
1F
100
AcDbEntity
  8
0
  6
HIDDEN
 62
     2
100
AcDbLine
 10
1437.109174786514
 20
154.9642806292578
 30
0.0
 11
1426.909174786513
 21
154.9642806292578
 31
0.0
  0
LINE
  5
100B
330
1F
100
AcDbEntity
  8
0
  6
HIDDEN
 62
     2
100
AcDbLine
 10
1437.109174786514
 20
197.9642806292578
 30
0.0
 11
1426.909174786513
 21
197.9642806292578
 31
0.0
  0
LINE
  5
100C
330
1F
100
AcDbEntity
  8
0
  6
HIDDEN
 62
     2
100
AcDbLine
 10
1437.109174786514
 20
110.4642806292578
 30
0.0
 11
1426.909174786513
 21
110.4642806292578
 31
0.0
  0
LINE
  5
100D
330
1F
100
AcDbEntity
  8
0
  6
HIDDEN
 62
     2
100
AcDbLine
 10
1426.909174786513
 20
153.4642806292578
 30
0.0
 11
1437.109174786514
 21
153.4642806292578
 31
0.0
  0
TEXT
  5
1014
330
1F
100
AcDbEntity
  8
0
 62
     3
100
AcDbText
 10
1486.869691856549
 20
26.79687043325674
 30
0.0
 40
2.5
  1
クリップ部:スチール
 41
0.6
  7
高2.5
100
AcDbText
  0
TEXT
  5
1015
330
1F
100
AcDbEntity
  8
0
 62
     3
100
AcDbText
 10
1505.224849660661
 20
142.5493133121666
 30
0.0
 40
3.2
  1
実用点灯時間
  7
高3.2
100
AcDbText
  0
TEXT
  5
1016
330
1F
100
AcDbEntity
  8
0
 62
     3
100
AcDbText
 10
1530.593612326819
 20
142.5493133121666
 30
0.0
 40
3.2
  1
5.5時間
  7
高3.2
100
AcDbText
  0
LINE
  5
1017
330
1F
100
AcDbEntity
  8
0
 62
     7
100
AcDbLine
 10
1571.421693128321
 20
147.0493133121669
 30
0.0
 11
1503.724849660661
 21
147.0493133121669
 31
0.0
  0
TEXT
  5
1018
330
1F
100
AcDbEntity
  8
0
 62
     7
100
AcDbText
 10
1502.773923458557
 20
103.7683105214233
 30
0.0
 40
2.5
  1
　　　するまでの時間です。
 41
0.8
  7
高2.5
100
AcDbText
  0
LINE
  5
1261
330
1F
100
AcDbEntity
  8
0
100
AcDbLine
 10
1438.759174786514
 20
102.514280629258
 30
0.0
 11
1438.759174786514
 21
76.49078696142931
 31
0.0
  0
LINE
  5
1264
330
1F
100
AcDbEntity
  8
0
100
AcDbLine
 10
1425.259174786514
 20
102.514280629258
 30
0.0
 11
1425.259174786514
 21
76.49078696142931
 31
0.0
  0
LINE
  5
1265
330
1F
100
AcDbEntity
  8
0
100
AcDbLine
 10
1441.259174786514
 20
77.74078696142931
 30
0.0
 11
1443.759174786514
 21
77.74078696142931
 31
0.0
  0
LINE
  5
1266
330
1F
100
AcDbEntity
  8
0
100
AcDbLine
 10
1422.759174786514
 20
77.74078696142931
 30
0.0
 11
1408.009174786514
 21
77.74078696142931
 31
0.0
  0
LINE
  5
1267
330
1F
100
AcDbEntity
  8
0
100
AcDbLine
 10
1438.759174786514
 20
77.74078696142931
 30
0.0
 11
1425.259174786514
 21
77.74078696142931
 31
0.0
  0
LINE
  5
126B
330
1F
100
AcDbEntity
  8
0
100
AcDbLine
 10
1426.509174786514
 20
226.0642806292582
 30
0.0
 11
1414.385560735246
 21
226.0642806292582
 31
0.0
  0
LINE
  5
126C
330
1F
100
AcDbEntity
  8
0
100
AcDbLine
 10
1428.259174786514
 20
86.76428062925799
 30
0.0
 11
1414.385560735246
 21
86.76428062925799
 31
0.0
  0
LINE
  5
126D
330
1F
100
AcDbEntity
  8
0
100
AcDbLine
 10
1415.635560735246
 20
223.5642806292582
 30
0.0
 11
1415.635560735246
 21
89.26428062925799
 31
0.0
  0
LINE
  5
1271
330
1F
100
AcDbEntity
  8
0
 62
     3
100
AcDbLine
 10
1449.496290781295
 20
286.5759612173263
 30
0.0
 11
1449.477663251296
 21
286.6952289873262
 31
0.0
  0
LINE
  5
1272
330
1F
100
AcDbEntity
  8
0
 62
     3
100
AcDbLine
 10
1449.477663251296
 20
286.6952289873262
 30
0.0
 11
1449.455292071295
 21
286.8094337673262
 31
0.0
  0
LINE
  5
1273
330
1F
100
AcDbEntity
  8
0
 62
     3
100
AcDbLine
 10
1449.455292071295
 20
286.8094337673262
 30
0.0
 11
1449.429350141295
 21
286.917692827326
 31
0.0
  0
LINE
  5
1274
330
1F
100
AcDbEntity
  8
0
 62
     3
100
AcDbLine
 10
1449.429350141295
 20
286.917692827326
 30
0.0
 11
1449.400038001296
 21
287.019169377326
 31
0.0
  0
LINE
  5
1275
330
1F
100
AcDbEntity
  8
0
 62
     3
100
AcDbLine
 10
1449.400038001296
 20
287.019169377326
 30
0.0
 11
1449.367582191294
 21
287.1130790573262
 31
0.0
  0
LINE
  5
1276
330
1F
100
AcDbEntity
  8
0
 62
     3
100
AcDbLine
 10
1449.367582191294
 20
287.1130790573262
 30
0.0
 11
1449.332233601294
 21
287.1986959973262
 31
0.0
  0
LINE
  5
1277
330
1F
100
AcDbEntity
  8
0
 62
     3
100
AcDbLine
 10
1449.332233601294
 20
287.1986959973262
 30
0.0
 11
1449.294265451295
 21
287.2753584073259
 31
0.0
  0
LINE
  5
1278
330
1F
100
AcDbEntity
  8
0
 62
     3
100
AcDbLine
 10
1449.294265451295
 20
287.2753584073259
 30
0.0
 11
1449.253971201295
 21
287.3424737473263
 31
0.0
  0
LINE
  5
1279
330
1F
100
AcDbEntity
  8
0
 62
     3
100
AcDbLine
 10
1449.253971201295
 20
287.3424737473263
 30
0.0
 11
1449.211662331295
 21
287.3995232373262
 31
0.0
  0
LINE
  5
127A
330
1F
100
AcDbEntity
  8
0
 62
     3
100
AcDbLine
 10
1449.211662331295
 20
287.3995232373262
 30
0.0
 11
1449.167665841296
 21
287.4460659073262
 31
0.0
  0
LINE
  5
127B
330
1F
100
AcDbEntity
  8
0
 62
     3
100
AcDbLine
 10
1449.167665841296
 20
287.4460659073262
 30
0.0
 11
1449.122321821295
 21
287.4817420273262
 31
0.0
  0
LINE
  5
127C
330
1F
100
AcDbEntity
  8
0
 62
     3
100
AcDbLine
 10
1449.122321821295
 20
287.4817420273262
 30
0.0
 11
1449.075980751294
 21
287.5062758173262
 31
0.0
  0
LINE
  5
127D
330
1F
100
AcDbEntity
  8
0
 62
     3
100
AcDbLine
 10
1449.075980751294
 20
287.5062758173262
 30
0.0
 11
1449.029000811296
 21
287.5194776673262
 31
0.0
  0
LINE
  5
127E
330
1F
100
AcDbEntity
  8
0
 62
     3
100
AcDbLine
 10
1449.029000811296
 20
287.5194776673262
 30
0.0
 11
1448.981745151295
 21
287.5212455073259
 31
0.0
  0
LINE
  5
127F
330
1F
100
AcDbEntity
  8
0
 62
     3
100
AcDbLine
 10
1448.981745151295
 20
287.5212455073259
 30
0.0
 11
1448.934579021296
 21
287.5115656973262
 31
0.0
  0
LINE
  5
1280
330
1F
100
AcDbEntity
  8
0
 62
     3
100
AcDbLine
 10
1448.934579021296
 20
287.5115656973262
 30
0.0
 11
1448.887866991295
 21
287.4905130373262
 31
0.0
  0
LINE
  5
1281
330
1F
100
AcDbEntity
  8
0
 62
     3
100
AcDbLine
 10
1448.887866991295
 20
287.4905130373262
 30
0.0
 11
1448.841970131295
 21
287.4582502673261
 31
0.0
  0
LINE
  5
1282
330
1F
100
AcDbEntity
  8
0
 62
     3
100
AcDbLine
 10
1448.841970131295
 20
287.4582502673261
 30
0.0
 11
1448.797243191295
 21
287.4150267573262
 31
0.0
  0
LINE
  5
1283
330
1F
100
AcDbEntity
  8
0
 62
     3
100
AcDbLine
 10
1448.797243191295
 20
287.4150267573262
 30
0.0
 11
1448.754031881295
 21
287.3611765973262
 31
0.0
  0
LINE
  5
1284
330
1F
100
AcDbEntity
  8
0
 62
     3
100
AcDbLine
 10
1448.754031881295
 20
287.3611765973262
 30
0.0
 11
1448.712670221295
 21
287.297116027326
 31
0.0
  0
LINE
  5
1285
330
1F
100
AcDbEntity
  8
0
 62
     3
100
AcDbLine
 10
1448.712670221295
 20
287.297116027326
 30
0.0
 11
1448.673477901294
 21
287.2233402073263
 31
0.0
  0
LINE
  5
1286
330
1F
100
AcDbEntity
  8
0
 62
     3
100
AcDbLine
 10
1448.673477901294
 20
287.2233402073263
 30
0.0
 11
1448.636757861296
 21
287.1404193773261
 31
0.0
  0
LINE
  5
1287
330
1F
100
AcDbEntity
  8
0
 62
     3
100
AcDbLine
 10
1448.636757861296
 20
287.1404193773261
 30
0.0
 11
1448.602793931296
 21
287.0489944673261
 31
0.0
  0
LINE
  5
1288
330
1F
100
AcDbEntity
  8
0
 62
     3
100
AcDbLine
 10
1448.602793931296
 20
287.0489944673261
 30
0.0
 11
1448.571848631296
 21
286.9497721673263
 31
0.0
  0
LINE
  5
1289
330
1F
100
AcDbEntity
  8
0
 62
     3
100
AcDbLine
 10
1448.571848631296
 20
286.9497721673263
 30
0.0
 11
1448.544161151295
 21
286.843519397326
 31
0.0
  0
LINE
  5
128A
330
1F
100
AcDbEntity
  8
0
 62
     3
100
AcDbLine
 10
1448.544161151295
 20
286.843519397326
 30
0.0
 11
1448.519945501296
 21
286.7310574373261
 31
0.0
  0
LINE
  5
128B
330
1F
100
AcDbEntity
  8
0
 62
     3
100
AcDbLine
 10
1448.519945501296
 20
286.7310574373261
 30
0.0
 11
1448.499388861296
 21
286.613255557326
 31
0.0
  0
LINE
  5
128C
330
1F
100
AcDbEntity
  8
0
 62
     3
100
AcDbLine
 10
1448.499388861296
 20
286.613255557326
 30
0.0
 11
1448.482650121295
 21
286.4910243173262
 31
0.0
  0
LINE
  5
128D
330
1F
100
AcDbEntity
  8
0
 62
     3
100
AcDbLine
 10
1448.482650121295
 20
286.4910243173262
 30
0.0
 11
1448.469858661297
 21
286.3653084973261
 31
0.0
  0
LINE
  5
128E
330
1F
100
AcDbEntity
  8
0
 62
     3
100
AcDbLine
 10
1448.469858661297
 20
286.3653084973261
 30
0.0
 11
1448.461113351296
 21
286.2370798173263
 31
0.0
  0
LINE
  5
128F
330
1F
100
AcDbEntity
  8
0
 62
     3
100
AcDbLine
 10
1448.461113351296
 20
286.2370798173263
 30
0.0
 11
1448.456481791295
 21
286.1073294073262
 31
0.0
  0
LINE
  5
1290
330
1F
100
AcDbEntity
  8
0
 62
     3
100
AcDbLine
 10
1448.456481791295
 20
286.1073294073262
 30
0.0
 11
1448.455999781296
 21
285.9770601773261
 31
0.0
  0
LINE
  5
1291
330
1F
100
AcDbEntity
  8
0
 62
     3
100
AcDbLine
 10
1448.455999781296
 20
285.9770601773261
 30
0.0
 11
1448.459671041296
 21
285.8472790573262
 31
0.0
  0
LINE
  5
1292
330
1F
100
AcDbEntity
  8
0
 62
     3
100
AcDbLine
 10
1448.459671041296
 20
285.8472790573262
 30
0.0
 11
1448.467467201296
 21
285.7189891673261
 31
0.0
  0
LINE
  5
1293
330
1F
100
AcDbEntity
  8
0
 62
     3
100
AcDbLine
 10
1448.467467201296
 20
285.7189891673261
 30
0.0
 11
1448.479328001295
 21
285.5931821273263
 31
0.0
  0
LINE
  5
1294
330
1F
100
AcDbEntity
  8
0
 62
     3
100
AcDbLine
 10
1448.479328001295
 20
285.5931821273263
 30
0.0
 11
1448.495161761295
 21
285.4708303573262
 31
0.0
  0
LINE
  5
1295
330
1F
100
AcDbEntity
  8
0
 62
     3
100
AcDbLine
 10
1448.495161761295
 20
285.4708303573262
 30
0.0
 11
1448.514846081295
 21
285.3528795873263
 31
0.0
  0
LINE
  5
1296
330
1F
100
AcDbEntity
  8
0
 62
     3
100
AcDbLine
 10
1448.514846081295
 20
285.3528795873263
 30
0.0
 11
1448.538228841296
 21
285.2402415173262
 31
0.0
  0
LINE
  5
1297
330
1F
100
AcDbEntity
  8
0
 62
     3
100
AcDbLine
 10
1448.538228841296
 20
285.2402415173262
 30
0.0
 11
1448.565129271295
 21
285.1337867573262
 31
0.0
  0
LINE
  5
1298
330
1F
100
AcDbEntity
  8
0
 62
     3
100
AcDbLine
 10
1448.565129271295
 20
285.1337867573262
 30
0.0
 11
1448.595339471295
 21
285.0343381673263
 31
0.0
  0
LINE
  5
1299
330
1F
100
AcDbEntity
  8
0
 62
     3
100
AcDbLine
 10
1448.595339471295
 20
285.0343381673263
 30
0.0
 11
1448.628625921295
 21
284.9426644373263
 31
0.0
  0
LINE
  5
129A
330
1F
100
AcDbEntity
  8
0
 62
     3
100
AcDbLine
 10
1448.628625921295
 20
284.9426644373263
 30
0.0
 11
1448.664731321295
 21
284.8594741373263
 31
0.0
  0
LINE
  5
129B
330
1F
100
AcDbEntity
  8
0
 62
     3
100
AcDbLine
 10
1448.664731321295
 20
284.8594741373263
 30
0.0
 11
1448.703376621296
 21
284.7854103073262
 31
0.0
  0
LINE
  5
129C
330
1F
100
AcDbEntity
  8
0
 62
     3
100
AcDbLine
 10
1448.703376621296
 20
284.7854103073262
 30
0.0
 11
1448.744263101295
 21
284.721045417326
 31
0.0
  0
LINE
  5
129D
330
1F
100
AcDbEntity
  8
0
 62
     3
100
AcDbLine
 10
1448.744263101295
 20
284.721045417326
 30
0.0
 11
1448.787074721295
 21
284.6668769673258
 31
0.0
  0
LINE
  5
129E
330
1F
100
AcDbEntity
  8
0
 62
     3
100
AcDbLine
 10
1448.787074721295
 20
284.6668769673258
 30
0.0
 11
1448.831480581295
 21
284.6233236473258
 31
0.0
  0
LINE
  5
129F
330
1F
100
AcDbEntity
  8
0
 62
     3
100
AcDbLine
 10
1448.831480581295
 20
284.6233236473258
 30
0.0
 11
1448.877137431295
 21
284.5907221173261
 31
0.0
  0
LINE
  5
12A0
330
1F
100
AcDbEntity
  8
0
 62
     3
100
AcDbLine
 10
1448.877137431295
 20
284.5907221173261
 30
0.0
 11
1448.923692391295
 21
284.5693243573262
 31
0.0
  0
LINE
  5
12A1
330
1F
100
AcDbEntity
  8
0
 62
     3
100
AcDbLine
 10
1448.923692391295
 20
284.5693243573262
 30
0.0
 11
1448.970785601295
 21
284.5592957773263
 31
0.0
  0
LINE
  5
12A2
330
1F
100
AcDbEntity
  8
0
 62
     3
100
AcDbLine
 10
1448.970785601295
 20
284.5592957773263
 30
0.0
 11
1449.018053051296
 21
284.5607138773262
 31
0.0
  0
LINE
  5
12A3
330
1F
100
AcDbEntity
  8
0
 62
     3
100
AcDbLine
 10
1449.018053051296
 20
284.5607138773262
 30
0.0
 11
1449.065129391295
 21
284.5735676973262
 31
0.0
  0
LINE
  5
12A4
330
1F
100
AcDbEntity
  8
0
 62
     3
100
AcDbLine
 10
1449.065129391295
 20
284.5735676973262
 30
0.0
 11
1449.111650751295
 21
284.5977578973262
 31
0.0
  0
LINE
  5
12A5
330
1F
100
AcDbEntity
  8
0
 62
     3
100
AcDbLine
 10
1449.111650751295
 20
284.5977578973262
 30
0.0
 11
1449.157257541295
 21
284.6330974773263
 31
0.0
  0
LINE
  5
12A6
330
1F
100
AcDbEntity
  8
0
 62
     3
100
AcDbLine
 10
1449.157257541295
 20
284.6330974773263
 30
0.0
 11
1449.201597241295
 21
284.6793132973262
 31
0.0
  0
LINE
  5
12A7
330
1F
100
AcDbEntity
  8
0
 62
     3
100
AcDbLine
 10
1449.201597241295
 20
284.6793132973262
 30
0.0
 11
1449.244327131293
 21
284.7360481373258
 31
0.0
  0
LINE
  5
12A8
330
1F
100
AcDbEntity
  8
0
 62
     3
100
AcDbLine
 10
1449.244327131293
 20
284.7360481373258
 30
0.0
 11
1449.285116931295
 21
284.8028634473262
 31
0.0
  0
LINE
  5
12A9
330
1F
100
AcDbEntity
  8
0
 62
     3
100
AcDbLine
 10
1449.285116931295
 20
284.8028634473262
 30
0.0
 11
1449.323651361295
 21
284.8792427973263
 31
0.0
  0
LINE
  5
12AA
330
1F
100
AcDbEntity
  8
0
 62
     3
100
AcDbLine
 10
1449.323651361295
 20
284.8792427973263
 30
0.0
 11
1449.359632561296
 21
284.964595807326
 31
0.0
  0
LINE
  5
12AB
330
1F
100
AcDbEntity
  8
0
 62
     3
100
AcDbLine
 10
1449.359632561296
 20
284.964595807326
 30
0.0
 11
1449.392782421296
 21
285.0582627373262
 31
0.0
  0
LINE
  5
12AC
330
1F
100
AcDbEntity
  8
0
 62
     3
100
AcDbLine
 10
1449.392782421296
 20
285.0582627373262
 30
0.0
 11
1449.422844701295
 21
285.1595195973263
 31
0.0
  0
LINE
  5
12AD
330
1F
100
AcDbEntity
  8
0
 62
     3
100
AcDbLine
 10
1449.422844701295
 20
285.1595195973263
 30
0.0
 11
1449.449587051296
 21
285.2675837173263
 31
0.0
  0
LINE
  5
12AE
330
1F
100
AcDbEntity
  8
0
 62
     3
100
AcDbLine
 10
1449.449587051296
 20
285.2675837173263
 30
0.0
 11
1449.472802751295
 21
285.381619827326
 31
0.0
  0
LINE
  5
12AF
330
1F
100
AcDbEntity
  8
0
 62
     3
100
AcDbLine
 10
1449.472802751295
 20
285.381619827326
 30
0.0
 11
1449.492312361296
 21
285.500746477326
 31
0.0
  0
TEXT
  5
12B0
330
1F
100
AcDbEntity
  8
0
 62
     4
100
AcDbText
 10
1408.634174786514
 20
78.36578696142931
 30
0.0
 40
3.0
  1
\U+220513.5
100
AcDbText
  0
LINE
  5
12B1
330
1F
100
AcDbEntity
  8
0
  6
ByBlock
 62
     0
370
    -2
100
AcDbLine
 10
1422.759174786514
 20
78.4106594614293
 30
0.0
 11
1425.259174786514
 21
77.74078696142931
 31
0.0
  0
LINE
  5
12B2
330
1F
100
AcDbEntity
  8
0
  6
ByBlock
 62
     0
370
    -2
100
AcDbLine
 10
1425.259174786514
 20
77.74078696142931
 30
0.0
 11
1422.759174786514
 21
77.07091446142931
 31
0.0
  0
LINE
  5
12B3
330
1F
100
AcDbEntity
  8
0
  6
ByBlock
 62
     0
370
    -2
100
AcDbLine
 10
1425.259174786514
 20
77.74078696142931
 30
0.0
 11
1422.759174786514
 21
77.74078696142931
 31
0.0
  0
LINE
  5
12B4
330
1F
100
AcDbEntity
  8
0
  6
ByBlock
 62
     0
370
    -2
100
AcDbLine
 10
1441.259174786514
 20
77.07091446142931
 30
0.0
 11
1438.759174786514
 21
77.74078696142931
 31
0.0
  0
LINE
  5
12B5
330
1F
100
AcDbEntity
  8
0
  6
ByBlock
 62
     0
370
    -2
100
AcDbLine
 10
1438.759174786514
 20
77.74078696142931
 30
0.0
 11
1441.259174786514
 21
78.4106594614293
 31
0.0
  0
LINE
  5
12B6
330
1F
100
AcDbEntity
  8
0
  6
ByBlock
 62
     0
370
    -2
100
AcDbLine
 10
1438.759174786514
 20
77.74078696142931
 30
0.0
 11
1441.259174786514
 21
77.74078696142931
 31
0.0
  0
TEXT
  5
12B7
330
1F
100
AcDbEntity
  8
0
 62
     4
100
AcDbText
 10
1415.010560735246
 20
141.8402827330422
 30
0.0
 40
3.0
  1
139.3
 50
90.0
100
AcDbText
  0
LINE
  5
12B8
330
1F
100
AcDbEntity
  8
0
  6
ByBlock
 62
     0
370
    -2
100
AcDbLine
 10
1416.305433235246
 20
89.26428062925799
 30
0.0
 11
1415.635560735246
 21
86.76428062925799
 31
0.0
  0
LINE
  5
12B9
330
1F
100
AcDbEntity
  8
0
  6
ByBlock
 62
     0
370
    -2
100
AcDbLine
 10
1415.635560735246
 20
86.76428062925799
 30
0.0
 11
1414.965688235246
 21
89.26428062925799
 31
0.0
  0
LINE
  5
12BA
330
1F
100
AcDbEntity
  8
0
  6
ByBlock
 62
     0
370
    -2
100
AcDbLine
 10
1415.635560735246
 20
86.76428062925799
 30
0.0
 11
1415.635560735246
 21
89.26428062925799
 31
0.0
  0
LINE
  5
12BB
330
1F
100
AcDbEntity
  8
0
  6
ByBlock
 62
     0
370
    -2
100
AcDbLine
 10
1414.965688235246
 20
223.5642806292582
 30
0.0
 11
1415.635560735246
 21
226.0642806292582
 31
0.0
  0
LINE
  5
12BC
330
1F
100
AcDbEntity
  8
0
  6
ByBlock
 62
     0
370
    -2
100
AcDbLine
 10
1415.635560735246
 20
226.0642806292582
 30
0.0
 11
1416.305433235246
 21
223.5642806292582
 31
0.0
  0
LINE
  5
12BD
330
1F
100
AcDbEntity
  8
0
  6
ByBlock
 62
     0
370
    -2
100
AcDbLine
 10
1415.635560735246
 20
226.0642806292582
 30
0.0
 11
1415.635560735246
 21
223.5642806292582
 31
0.0
  0
ENDSEC
  0
SECTION
  2
OBJECTS
  0
DICTIONARY
  5
C
330
0
100
AcDbDictionary
281
     1
  3
ACAD_2007HEADERVARS_RT
350
12C1
  3
ACAD_COLOR
350
73
  3
ACAD_GROUP
350
D
  3
ACAD_LAYOUT
350
1A
  3
ACAD_MATERIAL
350
72
  3
ACAD_MLEADERSTYLE
350
168
  3
ACAD_MLINESTYLE
350
17
  3
ACAD_PLOTSETTINGS
350
19
  3
ACAD_PLOTSTYLENAME
350
E
  3
ACAD_SCALELIST
350
156
  3
ACAD_TABLESTYLE
350
86
  3
ACAD_VISUALSTYLE
350
99
  3
ACDB_RECOMPOSE_DATA
350
12BF
  3
AcDbVariableDictionary
350
66
  3
AEC_PROPERTY_SET_DEFS
350
DE9
  3
DWGPROPS
350
12C0
  0
DICTIONARY
  5
829
330
8
100
AcDbDictionary
280
     1
281
     1
  0
DICTIONARY
  5
DD
330
2
100
AcDbDictionary
280
     1
281
     1
  3
ACAD_LAYERSTATES
360
DE
  0
DICTIONARY
  5
81D
330
10
100
AcDbDictionary
280
     1
281
     1
  3
ADSK_XREC_LAYER_RECONCILED
360
1034
  0
DICTIONARY
  5
31A
330
1F
100
AcDbDictionary
280
     1
281
     1
  3
ACAD_SORTENTS
360
31B
  0
DICTIONARY
  5
B94
330
ACA
100
AcDbDictionary
280
     1
281
     1
  3
ACAD_SORTENTS
360
B95
  0
DICTIONARY
  5
12C1
102
{ACAD_REACTORS
330
C
102
}
330
C
100
AcDbDictionary
281
     1
  3
DIMARCSYM
350
12C3
  3
DIMFXL
350
12C2
  3
DIMJOGANG
350
12C4
  0
DICTIONARY
  5
73
102
{ACAD_REACTORS
330
C
102
}
330
C
100
AcDbDictionary
281
     1
  0
DICTIONARY
  5
D
102
{ACAD_REACTORS
330
C
102
}
330
C
100
AcDbDictionary
281
     1
  0
DICTIONARY
  5
1A
102
{ACAD_REACTORS
330
C
102
}
330
C
100
AcDbDictionary
281
     1
  3
Model
350
22
  3
レイアウト1
350
59
  3
レイアウト2
350
5E
  0
DICTIONARY
  5
72
102
{ACAD_REACTORS
330
C
102
}
330
C
100
AcDbDictionary
281
     1
  3
ByBlock
350
97
  3
ByLayer
350
96
  3
Global
350
98
  0
DICTIONARY
  5
168
102
{ACAD_REACTORS
330
C
102
}
330
C
100
AcDbDictionary
281
     1
  3
Standard
350
169
  0
DICTIONARY
  5
17
102
{ACAD_REACTORS
330
C
102
}
330
C
100
AcDbDictionary
281
     1
  3
Standard
350
18
  0
DICTIONARY
  5
19
102
{ACAD_REACTORS
330
C
102
}
330
C
100
AcDbDictionary
281
     1
  0
ACDBDICTIONARYWDFLT
  5
E
102
{ACAD_REACTORS
330
C
102
}
330
C
100
AcDbDictionary
281
     1
  3
Normal
350
F
100
AcDbDictionaryWithDefault
340
F
  0
DICTIONARY
  5
156
102
{ACAD_REACTORS
330
C
102
}
330
C
100
AcDbDictionary
281
     1
  3
A0
350
157
  3
A1
350
158
  3
A2
350
159
  3
A3
350
15A
  3
A4
350
15B
  3
A5
350
15C
  3
A6
350
15D
  3
A7
350
15E
  3
A8
350
15F
  3
A9
350
160
  3
B0
350
161
  3
B1
350
162
  3
B2
350
163
  3
B3
350
164
  3
B4
350
165
  3
B5
350
166
  3
B6
350
167
  0
DICTIONARY
  5
86
102
{ACAD_REACTORS
330
C
102
}
330
C
100
AcDbDictionary
281
     1
  3
Standard
350
87
  0
DICTIONARY
  5
99
102
{ACAD_REACTORS
330
C
102
}
330
C
100
AcDbDictionary
281
     1
  3
2dWireframe
350
9F
  3
3D Hidden
350
A1
  3
3dWireframe
350
A0
  3
Basic
350
9E
  3
Brighten
350
A5
  3
ColorChange
350
A9
  3
Conceptual
350
A2
  3
Dim
350
A4
  3
EdgeColorOff
350
155
  3
Facepattern
350
A8
  3
Flat
350
9A
  3
FlatWithEdges
350
9B
  3
Gouraud
350
9C
  3
GouraudWithEdges
350
9D
  3
Hidden
350
14D
  3
JitterOff
350
153
  3
Linepattern
350
A7
  3
OverhangOff
350
154
  3
Realistic
350
A3
  3
Shaded
350
152
  3
Shaded with edges
350
151
  3
Shades of Gray
350
14E
  3
Sketchy
350
14F
  3
Thicken
350
A6
  3
Wireframe
350
14C
  3
X-Ray
350
150
  0
XRECORD
  5
12BF
102
{ACAD_REACTORS
330
C
102
}
330
C
100
AcDbXrecord
280
     1
 90
        1
330
87
  0
DICTIONARY
  5
66
102
{ACAD_REACTORS
330
C
102
}
330
C
100
AcDbDictionary
281
     1
  3
CANNOSCALE
350
245
  3
CMLEADERSTYLE
350
243
  3
CTABLESTYLE
350
89
  3
DIMASSOC
350
67
  3
HIDETEXT
350
6B
  3
INDEXCTL
350
870
  3
LAYEREVAL
350
247
  3
LAYERNOTIFY
350
248
  3
LIGHTINGUNITS
350
246
  3
MSLTSCALE
350
244
  3
SORTENTS
350
86F
  3
XCLIPFRAME
350
121E
  0
DICTIONARY
  5
DE9
102
{ACAD_REACTORS
330
C
102
}
330
C
100
AcDbDictionary
281
     1
  0
XRECORD
  5
12C0
102
{ACAD_REACTORS
330
C
102
}
330
C
100
AcDbXrecord
280
     1
  1
DWGPROPS COOKIE
  2

  3

  4

  6

  7

  8
kaiha
  9

300
=
301
=
302
=
303
=
304
=
305
=
306
=
307
=
308
=
309
=
 40
0.0243757291666667
 41
2458506.476397593
 42
2458561.718444908
  1

 90
        0
  0
DICTIONARY
  5
DE
102
{ACAD_REACTORS
330
DD
102
}
330
DD
100
AcDbDictionary
281
     1
  0
XRECORD
  5
1034
102
{ACAD_REACTORS
330
81D
102
}
330
81D
100
AcDbXrecord
280
     1
290
     1
  0
SORTENTSTABLE
  5
31B
102
{ACAD_REACTORS
330
31A
102
}
330
31A
100
AcDbSortentsTable
330
1F
331
F48
  5
F87
331
F59
  5
F98
331
F6A
  5
FA9
331
F7B
  5
FBA
331
F8C
  5
FCB
331
E4C
  5
E8B
331
F9D
  5
FDC
331
FAE
  5
FED
331
E6E
  5
EAD
331
1267
  5
12B1
331
E90
  5
ECF
331
FB8
  5
FF7
331
EC8
  5
F07
331
EA1
  5
EE0
331
FC9
  5
1008
331
ED9
  5
F18
331
EB2
  5
EF1
331
FDA
  5
1269
331
FEB
  5
127A
331
EEA
  5
F29
331
FFC
  5
128B
331
1015
  5
12BA
331
F0C
  5
F4B
331
F1D
  5
F5C
331
EFB
  5
F3A
331
129A
  5
E74
331
1289
  5
E63
331
1278
  5
E52
331
E7F
  5
EBE
331
E5D
  5
E9C
331
E43
  5
E43
331
E32
  5
E32
331
E21
  5
E21
331
E10
  5
E10
331
F2E
  5
F6D
331
12B7
  5
12AC
331
DFF
  5
DFF
331
DEE
  5
DEE
331
12B8
  5
12A6
331
F38
  5
F77
331
F49
  5
F88
331
F5A
  5
F99
331
F6B
  5
FAA
331
F7C
  5
FBB
331
F8D
  5
FCC
331
E4D
  5
E8C
331
F9E
  5
FDD
331
FAF
  5
FEE
331
E6F
  5
EAE
331
E91
  5
ED0
331
FB9
  5
FF8
331
EC9
  5
F08
331
EA2
  5
EE1
331
FCA
  5
1009
331
EDA
  5
F19
331
EB3
  5
EF2
331
FDB
  5
126A
331
FEC
  5
127B
331
EEB
  5
F2A
331
FFD
  5
128C
331
1016
  5
12BB
331
F0D
  5
F4C
331
F1E
  5
F5D
331
EFC
  5
F3B
331
129B
  5
E75
331
128A
  5
E64
331
1279
  5
E53
331
E80
  5
EBF
331
E5E
  5
E9D
331
E44
  5
E44
331
E33
  5
E33
331
E22
  5
E22
331
E11
  5
E11
331
E00
  5
E00
331
F2F
  5
F6E
331
DEF
  5
DEF
331
F30
  5
F6F
331
12A8
  5
E82
331
12B9
  5
12A7
331
F39
  5
F78
331
F4A
  5
F89
331
F5B
  5
F9A
331
F6C
  5
FAB
331
F7D
  5
FBC
331
F8E
  5
FCD
331
E4E
  5
E8D
331
F9F
  5
FDE
331
E81
  5
EC0
331
E70
  5
EAF
331
FBA
  5
FF9
331
127A
  5
E54
331
ECA
  5
F09
331
EA3
  5
EE2
331
FCB
  5
100A
331
EDB
  5
F1A
331
EB4
  5
EF3
331
FDC
  5
126B
331
FED
  5
127C
331
EEC
  5
F2B
331
FFE
  5
128D
331
1017
  5
12BC
331
F0E
  5
F4D
331
F1F
  5
F5E
331
EFD
  5
F3C
331
129C
  5
E76
331
128B
  5
E65
331
E92
  5
ED1
331
E5F
  5
E9E
331
E45
  5
E45
331
E34
  5
E34
331
E23
  5
E23
331
E12
  5
E12
331
E01
  5
E01
331
DF0
  5
DF0
331
F20
  5
F5F
331
F31
  5
F70
331
12A9
  5
E83
331
12BA
  5
12AB
331
F3A
  5
F79
331
F4B
  5
F8A
331
F5C
  5
F9B
331
F6D
  5
FAC
331
F7E
  5
FBD
331
1018
  5
12BD
331
F8F
  5
FCE
331
E4F
  5
E8E
331
FA0
  5
FDF
331
E82
  5
EC1
331
FBB
  5
FFA
331
127B
  5
E55
331
ECB
  5
F0A
331
EA4
  5
EE3
331
FCC
  5
100B
331
EDC
  5
F1B
331
EB5
  5
EF4
331
FDD
  5
126C
331
FEE
  5
127D
331
EED
  5
F2C
331
FFF
  5
128E
331
F0F
  5
F4E
331
EFE
  5
F3D
331
129D
  5
E77
331
128C
  5
E66
331
E93
  5
ED2
331
E71
  5
EB0
331
E60
  5
E9F
331
E46
  5
E46
331
E35
  5
E35
331
E24
  5
E24
331
E13
  5
E13
331
E02
  5
E02
331
DF1
  5
DF1
331
1008
  5
1297
331
1000
  5
128F
331
F21
  5
F60
331
F10
  5
F4F
331
F32
  5
F71
331
12AA
  5
E84
331
12BB
  5
12A3
331
F3B
  5
F7A
331
F4C
  5
F8B
331
F5D
  5
F9C
331
F6E
  5
FAD
331
F7F
  5
FBE
331
F90
  5
FCF
331
E50
  5
E8F
331
FA1
  5
FE0
331
126B
  5
129D
331
E83
  5
EC2
331
E72
  5
EB1
331
FBC
  5
FFB
331
127C
  5
E56
331
ECC
  5
F0B
331
EA5
  5
EE4
331
FCD
  5
100C
331
EDD
  5
F1C
331
EB6
  5
EF5
331
FDE
  5
126D
331
FEF
  5
127E
331
EEE
  5
F2D
331
EFF
  5
F3E
331
129E
  5
E78
331
128D
  5
E67
331
E94
  5
ED3
331
E61
  5
EA0
331
E47
  5
E47
331
E36
  5
E36
331
E25
  5
E25
331
E14
  5
E14
331
E03
  5
E03
331
DF2
  5
DF2
331
FF0
  5
127F
331
1009
  5
1298
331
F00
  5
F3F
331
F22
  5
F61
331
F11
  5
F50
331
1001
  5
1290
331
F33
  5
F72
331
12AB
  5
E85
331
12BC
  5
12A4
331
F3C
  5
F7B
331
F4D
  5
F8C
331
F5E
  5
F9D
331
F80
  5
FBF
331
F6F
  5
FAE
331
F91
  5
FD0
331
E51
  5
E90
331
FA2
  5
FE1
331
126C
  5
129E
331
E84
  5
EC3
331
E73
  5
EB2
331
FBD
  5
FFC
331
127D
  5
E57
331
ECD
  5
F0C
331
EA6
  5
EE5
331
FCE
  5
100D
331
EDE
  5
F1D
331
EB7
  5
EF6
331
FDF
  5
126E
331
EEF
  5
F2E
331
129F
  5
E79
331
128E
  5
E68
331
E95
  5
ED4
331
E62
  5
EA1
331
E37
  5
E37
331
E26
  5
E26
331
E15
  5
E15
331
E04
  5
E04
331
DF3
  5
DF3
331
EB8
  5
EF7
331
FE0
  5
126F
331
12A0
  5
E7A
331
FF1
  5
1280
331
EF0
  5
F2F
331
100A
  5
1299
331
1002
  5
1291
331
F23
  5
F62
331
F12
  5
F51
331
F01
  5
F40
331
F34
  5
F73
331
12AC
  5
E86
331
12BD
  5
12A5
331
F3D
  5
F7C
331
F4E
  5
F8D
331
F5F
  5
F9E
331
F81
  5
FC0
331
F70
  5
FAF
331
F92
  5
FD1
331
E52
  5
E91
331
FA3
  5
FE2
331
126D
  5
129F
331
E85
  5
EC4
331
E74
  5
EB3
331
FBE
  5
FFD
331
127E
  5
E58
331
ECE
  5
F0D
331
EA7
  5
EE6
331
FCF
  5
1014
331
EDF
  5
F1E
331
128F
  5
E69
331
E96
  5
ED5
331
E63
  5
EA2
331
E38
  5
E38
331
E27
  5
E27
331
E16
  5
E16
331
E05
  5
E05
331
DF4
  5
DF4
331
EA8
  5
EE7
331
FD0
  5
1015
331
1290
  5
E6A
331
EE0
  5
F1F
331
EB9
  5
EF8
331
FE1
  5
1270
331
FF2
  5
1281
331
EF1
  5
F30
331
100B
  5
129A
331
1003
  5
1292
331
F24
  5
F63
331
F13
  5
F52
331
F02
  5
F41
331
12A1
  5
E7B
331
F35
  5
F74
331
12AD
  5
E87
331
F3E
  5
F7D
331
F4F
  5
F8E
331
F60
  5
F9F
331
F82
  5
FC1
331
F71
  5
FB0
331
F93
  5
FD2
331
E53
  5
E92
331
FA4
  5
FE3
331
E86
  5
EC5
331
E75
  5
EB4
331
FBF
  5
FFE
331
127F
  5
E59
331
ECF
  5
F0E
331
E97
  5
ED6
331
E64
  5
EA3
331
E39
  5
E39
331
E28
  5
E28
331
E17
  5
E17
331
E06
  5
E06
331
DF5
  5
DF5
331
E98
  5
ED7
331
FC0
  5
FFF
331
1280
  5
E5A
331
ED0
  5
F0F
331
EA9
  5
EE8
331
FD1
  5
1016
331
EE1
  5
F20
331
EBA
  5
EF9
331
FE2
  5
1271
331
FF3
  5
1282
331
EF2
  5
F31
331
100C
  5
129B
331
1004
  5
1293
331
F25
  5
F64
331
F14
  5
F53
331
F03
  5
F42
331
12A2
  5
E7C
331
1291
  5
E6B
331
F36
  5
F75
331
12AE
  5
E88
331
F3F
  5
F7E
331
F50
  5
F8F
331
F61
  5
FA0
331
F83
  5
FC2
331
F72
  5
FB1
331
F94
  5
FD3
331
E54
  5
E93
331
FA5
  5
FE4
331
E87
  5
EC6
331
E76
  5
EB5
331
E65
  5
EA4
331
E3A
  5
E3A
331
E29
  5
E29
331
E18
  5
E18
331
E07
  5
E07
331
DF6
  5
DF6
331
E88
  5
EC7
331
FB0
  5
FEF
331
EC0
  5
EFF
331
E99
  5
ED8
331
FC1
  5
1000
331
ED1
  5
F10
331
EAA
  5
EE9
331
FD2
  5
1017
331
EE2
  5
F21
331
EBB
  5
EFA
331
FE3
  5
1272
331
FF4
  5
1283
331
EF3
  5
F32
331
100D
  5
129C
331
1005
  5
1294
331
F26
  5
F65
331
F15
  5
F54
331
F04
  5
F43
331
12A3
  5
E7D
331
1292
  5
E6C
331
1281
  5
E5B
331
F37
  5
F76
331
12AF
  5
E89
331
F40
  5
F7F
331
F51
  5
F90
331
F62
  5
FA1
331
F84
  5
FC3
331
F73
  5
FB2
331
F95
  5
FD4
331
E55
  5
E94
331
FA6
  5
FE5
331
E77
  5
EB6
331
E66
  5
EA5
331
E3B
  5
E3B
331
E2A
  5
E2A
331
E19
  5
E19
331
E08
  5
E08
331
DF7
  5
DF7
331
E89
  5
EC8
331
E78
  5
EB7
331
FB1
  5
FF0
331
EC1
  5
F00
331
E9A
  5
ED9
331
FC2
  5
1001
331
ED2
  5
F11
331
EAB
  5
EEA
331
FD3
  5
1018
331
EE3
  5
F22
331
EBC
  5
EFB
331
FE4
  5
1273
331
FF5
  5
1284
331
EF4
  5
F33
331
1006
  5
1295
331
F27
  5
F66
331
F16
  5
F55
331
F05
  5
F44
331
12A4
  5
E7E
331
1293
  5
E6D
331
1282
  5
E5C
331
1271
  5
E4B
331
12B0
  5
12B8
331
F41
  5
F80
331
F52
  5
F91
331
F63
  5
FA2
331
F85
  5
FC4
331
F74
  5
FB3
331
F96
  5
FD5
331
E56
  5
E95
331
FA7
  5
FE6
331
E67
  5
EA6
331
E3C
  5
E3C
331
E2B
  5
E2B
331
E1A
  5
E1A
331
E09
  5
E09
331
DF8
  5
DF8
331
FA8
  5
FE7
331
E68
  5
EA7
331
1261
  5
12AD
331
E79
  5
EB8
331
FB2
  5
FF1
331
1272
  5
E4C
331
EC2
  5
F01
331
E9B
  5
EDA
331
FC3
  5
1002
331
ED3
  5
F12
331
EAC
  5
EEB
331
FD4
  5
1261
331
EE4
  5
F23
331
EBD
  5
EFC
331
FE5
  5
1274
331
FF6
  5
1285
331
EF5
  5
F34
331
1007
  5
1296
331
F28
  5
F67
331
F17
  5
F56
331
F06
  5
F45
331
12A5
  5
E7F
331
1294
  5
E6E
331
1283
  5
E5D
331
E8A
  5
EC9
331
12B1
  5
12B5
331
F42
  5
F81
331
F53
  5
F92
331
F64
  5
FA3
331
F86
  5
FC5
331
F75
  5
FB4
331
F97
  5
FD6
331
E57
  5
E96
331
E3D
  5
E3D
331
E2C
  5
E2C
331
E1B
  5
E1B
331
E0A
  5
E0A
331
DF9
  5
DF9
331
F98
  5
FD7
331
E58
  5
E97
331
FA9
  5
FE8
331
E69
  5
EA8
331
E8B
  5
ECA
331
FB3
  5
FF2
331
EC3
  5
F02
331
E9C
  5
EDB
331
FC4
  5
1003
331
ED4
  5
F13
331
EAD
  5
EEC
331
FD5
  5
1264
331
EE5
  5
F24
331
EBE
  5
EFD
331
FE6
  5
1275
331
FF7
  5
1286
331
EF6
  5
F35
331
F29
  5
F68
331
F18
  5
F57
331
F07
  5
F46
331
12A6
  5
E80
331
1295
  5
E6F
331
1284
  5
E5E
331
1273
  5
E4D
331
E7A
  5
EB9
331
12B2
  5
12B6
331
F43
  5
F82
331
F54
  5
F93
331
F65
  5
FA4
331
F87
  5
FC6
331
F76
  5
FB5
331
E3E
  5
E3E
331
E2D
  5
E2D
331
E1C
  5
E1C
331
E0B
  5
E0B
331
DFA
  5
DFA
331
F88
  5
FC7
331
F99
  5
FD8
331
E59
  5
E98
331
FAA
  5
FE9
331
E8C
  5
ECB
331
E7B
  5
EBA
331
FB4
  5
FF3
331
EC4
  5
F03
331
E9D
  5
EDC
331
FC5
  5
1004
331
ED5
  5
F14
331
EAE
  5
EED
331
FD6
  5
1265
331
EE6
  5
F25
331
EBF
  5
EFE
331
FE7
  5
1276
331
FF8
  5
1287
331
EF7
  5
F36
331
F2A
  5
F69
331
F19
  5
F58
331
F08
  5
F47
331
12A7
  5
E81
331
1296
  5
E70
331
1285
  5
E5F
331
1274
  5
E4E
331
E6A
  5
EA9
331
E48
  5
E48
331
12B3
  5
12B7
331
F44
  5
F83
331
F55
  5
F94
331
F66
  5
FA5
331
F77
  5
FB6
331
E3F
  5
E3F
331
E2E
  5
E2E
331
E1D
  5
E1D
331
E0C
  5
E0C
331
DFB
  5
DFB
331
F78
  5
FB7
331
F89
  5
FC8
331
F9A
  5
FD9
331
E5A
  5
E99
331
FAB
  5
FEA
331
1264
  5
12AE
331
E7C
  5
EBB
331
FB5
  5
FF4
331
1275
  5
E4F
331
EC5
  5
F04
331
E9E
  5
EDD
331
FC6
  5
1005
331
ED6
  5
F15
331
EAF
  5
EEE
331
FD7
  5
1266
331
FE8
  5
1277
331
EE7
  5
F26
331
FF9
  5
1288
331
F2B
  5
F6A
331
F1A
  5
F59
331
F09
  5
F48
331
EF8
  5
F37
331
1297
  5
E71
331
1286
  5
E60
331
E8D
  5
ECC
331
E6B
  5
EAA
331
E49
  5
E49
331
E40
  5
E40
331
12B4
  5
12B2
331
F45
  5
F84
331
F56
  5
F95
331
F67
  5
FA6
331
E2F
  5
E2F
331
E1E
  5
E1E
331
E0D
  5
E0D
331
DFC
  5
DFC
331
F68
  5
FA7
331
F79
  5
FB8
331
F9B
  5
FDA
331
E5B
  5
E9A
331
FAC
  5
FEB
331
1265
  5
12AF
331
E7D
  5
EBC
331
FB6
  5
FF5
331
1276
  5
E50
331
EC6
  5
F05
331
E9F
  5
EDE
331
FC7
  5
1006
331
ED7
  5
F16
331
EB0
  5
EEF
331
FD8
  5
1267
331
FE9
  5
1278
331
EE8
  5
F27
331
FFA
  5
1289
331
F2C
  5
F6B
331
F1B
  5
F5A
331
F0A
  5
F49
331
EF9
  5
F38
331
1298
  5
E72
331
1287
  5
E61
331
E8E
  5
ECD
331
E6C
  5
EAB
331
F8A
  5
FC9
331
E41
  5
E41
331
E30
  5
E30
331
12B5
  5
12B3
331
F46
  5
F85
331
F57
  5
F96
331
E1F
  5
E1F
331
E0E
  5
E0E
331
DFD
  5
DFD
331
F58
  5
F97
331
F69
  5
FA8
331
F7A
  5
FB9
331
F8B
  5
FCA
331
E4B
  5
E8A
331
F9C
  5
FDB
331
FAD
  5
FEC
331
E6D
  5
EAC
331
1266
  5
12B0
331
E8F
  5
ECE
331
FB7
  5
FF6
331
EC7
  5
F06
331
EA0
  5
EDF
331
FC8
  5
1007
331
ED8
  5
F17
331
EB1
  5
EF0
331
FD9
  5
1268
331
FEA
  5
1279
331
EE9
  5
F28
331
FFB
  5
128A
331
1014
  5
12B9
331
F0B
  5
F4A
331
F1C
  5
F5B
331
EFA
  5
F39
331
1299
  5
E73
331
1288
  5
E62
331
1277
  5
E51
331
E7E
  5
EBD
331
E5C
  5
E9B
331
E42
  5
E42
331
E31
  5
E31
331
E20
  5
E20
331
F2D
  5
F6C
331
12B6
  5
12B4
331
F47
  5
F86
331
E0F
  5
E0F
331
DFE
  5
DFE
331
DED
  5
DED
  0
SORTENTSTABLE
  5
B95
102
{ACAD_REACTORS
330
B94
102
}
330
B94
100
AcDbSortentsTable
330
ACA
  0
XRECORD
  5
12C3
102
{ACAD_REACTORS
330
12C1
102
}
330
12C1
100
AcDbXrecord
280
     1
 70
     2
  0
XRECORD
  5
12C2
102
{ACAD_REACTORS
330
12C1
102
}
330
12C1
100
AcDbXrecord
280
     1
 40
1.25
  0
XRECORD
  5
12C4
102
{ACAD_REACTORS
330
12C1
102
}
330
12C1
100
AcDbXrecord
280
     1
 40
1.570796326794896
  0
LAYOUT
  5
22
102
{ACAD_XDICTIONARY
360
12C5
102
}
102
{ACAD_REACTORS
330
1A
102
}
330
1A
100
AcDbPlotSettings
  1

  2
none_device
  4
ANSI_A_(8.50_x_11.00_Inches)
  6

 40
6.349999904632567
 41
19.04999923706055
 42
6.350006103515625
 43
19.04998779296875
 44
215.8999938964844
 45
279.3999938964844
 46
0.0
 47
0.0
 48
0.0
 49
0.0
140
0.0
141
0.0
142
1.0
143
2.584895464708373
 70
 11952
 72
     0
 73
     1
 74
     0
  7

 75
     0
147
0.3868628397755418
148
0.0
149
0.0
100
AcDbLayout
  1
Model
 70
     1
 71
     0
 10
0.0
 20
0.0
 11
12.0
 21
9.0
 12
0.0
 22
0.0
 32
0.0
 14
0.0
 24
0.0
 34
0.0
 15
0.0
 25
0.0
 35
0.0
146
0.0
 13
0.0
 23
0.0
 33
0.0
 16
1.0
 26
0.0
 36
0.0
 17
0.0
 27
1.0
 37
0.0
 76
     0
330
1F
331
94
  0
LAYOUT
  5
59
102
{ACAD_XDICTIONARY
360
12C7
102
}
102
{ACAD_REACTORS
330
1A
102
}
330
1A
100
AcDbPlotSettings
  1

  2
None
  4

  6

 40
0.0
 41
0.0
 42
0.0
 43
0.0
 44
0.0
 45
0.0
 46
0.0
 47
0.0
 48
0.0
 49
0.0
140
0.0
141
0.0
142
1.0
143
1.0
 70
   688
 72
     0
 73
     0
 74
     5
  7

 75
    16
147
1.0
148
0.0
149
0.0
100
AcDbLayout
  1
レイアウト1
 70
     1
 71
     1
 10
0.0
 20
0.0
 11
12.0
 21
9.0
 12
0.0
 22
0.0
 32
0.0
 14
0.0
 24
0.0
 34
0.0
 15
0.0
 25
0.0
 35
0.0
146
0.0
 13
0.0
 23
0.0
 33
0.0
 16
1.0
 26
0.0
 36
0.0
 17
0.0
 27
1.0
 37
0.0
 76
     0
330
58
  0
LAYOUT
  5
5E
102
{ACAD_XDICTIONARY
360
12C9
102
}
102
{ACAD_REACTORS
330
1A
102
}
330
1A
100
AcDbPlotSettings
  1

  2
None
  4

  6

 40
0.0
 41
0.0
 42
0.0
 43
0.0
 44
0.0
 45
0.0
 46
0.0
 47
0.0
 48
0.0
 49
0.0
140
0.0
141
0.0
142
1.0
143
1.0
 70
   688
 72
     0
 73
     0
 74
     5
  7

 75
    16
147
1.0
148
0.0
149
0.0
100
AcDbLayout
  1
レイアウト2
 70
     1
 71
     2
 10
0.0
 20
0.0
 11
12.0
 21
9.0
 12
0.0
 22
0.0
 32
0.0
 14
0.0
 24
0.0
 34
0.0
 15
0.0
 25
0.0
 35
0.0
146
0.0
 13
0.0
 23
0.0
 33
0.0
 16
1.0
 26
0.0
 36
0.0
 17
0.0
 27
1.0
 37
0.0
 76
     0
330
5D
  0
MATERIAL
  5
97
102
{ACAD_XDICTIONARY
360
10D6
102
}
102
{ACAD_REACTORS
330
72
102
}
330
72
100
AcDbMaterial
  1
ByBlock
 73
     1
 78
     1
172
     1
176
     1
270
     1
274
     1
  0
MATERIAL
  5
96
102
{ACAD_XDICTIONARY
360
10D4
102
}
102
{ACAD_REACTORS
330
72
102
}
330
72
100
AcDbMaterial
  1
ByLayer
 73
     1
 78
     1
172
     1
176
     1
270
     1
274
     1
  0
MATERIAL
  5
98
102
{ACAD_XDICTIONARY
360
10D8
102
}
102
{ACAD_REACTORS
330
72
102
}
330
72
100
AcDbMaterial
  1
Global
 73
     1
 78
     1
172
     1
176
     1
270
     1
274
     1
  0
MLEADERSTYLE
  5
169
102
{ACAD_REACTORS
330
168
102
}
330
168
100
AcDbMLeaderStyle
170
     2
171
     1
172
     0
 90
        2
 40
0.0
 41
0.0
173
     1
 91
-1056964608
340
14
 92
       -2
290
     1
 42
2.0
291
     1
 43
0.36
  3
Standard
 44
4.0
300

342
11
174
     1
178
     6
175
     1
176
     0
 93
-1056964608
 45
4.0
292
     0
297
     0
 46
4.0
 94
-1056964608
 47
1.0
 49
1.0
140
1.0
293
     1
141
0.0
294
     1
177
     0
142
1.0
295
     0
296
     0
143
0.125
1001
ACAD_MLEADERVER
1070
     2
  0
MLINESTYLE
  5
18
102
{ACAD_REACTORS
330
17
102
}
330
17
100
AcDbMlineStyle
  2
STANDARD
 70
     0
  3

 62
   256
 51
90.0
 52
90.0
 71
     2
 49
0.5
 62
   256
  6
BYLAYER
 49
-0.5
 62
   256
  6
BYLAYER
  0
ACDBPLACEHOLDER
  5
F
102
{ACAD_REACTORS
330
E
102
}
330
E
  0
SCALE
  5
157
102
{ACAD_REACTORS
330
156
102
}
330
156
100
AcDbScale
 70
     0
300
1:1
140
1.0
141
1.0
290
     1
  0
SCALE
  5
158
102
{ACAD_REACTORS
330
156
102
}
330
156
100
AcDbScale
 70
     0
300
1:2
140
1.0
141
2.0
290
     0
  0
SCALE
  5
159
102
{ACAD_REACTORS
330
156
102
}
330
156
100
AcDbScale
 70
     0
300
1:4
140
1.0
141
4.0
290
     0
  0
SCALE
  5
15A
102
{ACAD_REACTORS
330
156
102
}
330
156
100
AcDbScale
 70
     0
300
1:5
140
1.0
141
5.0
290
     0
  0
SCALE
  5
15B
102
{ACAD_REACTORS
330
156
102
}
330
156
100
AcDbScale
 70
     0
300
1:8
140
1.0
141
8.0
290
     0
  0
SCALE
  5
15C
102
{ACAD_REACTORS
330
156
102
}
330
156
100
AcDbScale
 70
     0
300
1:10
140
1.0
141
10.0
290
     0
  0
SCALE
  5
15D
102
{ACAD_REACTORS
330
156
102
}
330
156
100
AcDbScale
 70
     0
300
1:16
140
1.0
141
16.0
290
     0
  0
SCALE
  5
15E
102
{ACAD_REACTORS
330
156
102
}
330
156
100
AcDbScale
 70
     0
300
1:20
140
1.0
141
20.0
290
     0
  0
SCALE
  5
15F
102
{ACAD_REACTORS
330
156
102
}
330
156
100
AcDbScale
 70
     0
300
1:30
140
1.0
141
30.0
290
     0
  0
SCALE
  5
160
102
{ACAD_REACTORS
330
156
102
}
330
156
100
AcDbScale
 70
     0
300
1:40
140
1.0
141
40.0
290
     0
  0
SCALE
  5
161
102
{ACAD_REACTORS
330
156
102
}
330
156
100
AcDbScale
 70
     0
300
1:50
140
1.0
141
50.0
290
     0
  0
SCALE
  5
162
102
{ACAD_REACTORS
330
156
102
}
330
156
100
AcDbScale
 70
     0
300
1:100
140
1.0
141
100.0
290
     0
  0
SCALE
  5
163
102
{ACAD_REACTORS
330
156
102
}
330
156
100
AcDbScale
 70
     0
300
2:1
140
2.0
141
1.0
290
     0
  0
SCALE
  5
164
102
{ACAD_REACTORS
330
156
102
}
330
156
100
AcDbScale
 70
     0
300
4:1
140
4.0
141
1.0
290
     0
  0
SCALE
  5
165
102
{ACAD_REACTORS
330
156
102
}
330
156
100
AcDbScale
 70
     0
300
8:1
140
8.0
141
1.0
290
     0
  0
SCALE
  5
166
102
{ACAD_REACTORS
330
156
102
}
330
156
100
AcDbScale
 70
     0
300
10:1
140
10.0
141
1.0
290
     0
  0
SCALE
  5
167
102
{ACAD_REACTORS
330
156
102
}
330
156
100
AcDbScale
 70
     0
300
100:1
140
100.0
141
1.0
290
     0
  0
TABLESTYLE
  5
87
102
{ACAD_XDICTIONARY
360
821
102
}
102
{ACAD_REACTORS
330
86
102
}
330
86
100
AcDbTableStyle
  3
Standard
 70
     0
 71
     0
 40
0.06
 41
0.06
280
     0
281
     0
  7
Standard
140
0.18
170
     2
 62
     0
 63
     7
283
     0
274
    -2
284
     1
 64
     0
275
    -2
285
     1
 65
     0
276
    -2
286
     1
 66
     0
277
    -2
287
     1
 67
     0
278
    -2
288
     1
 68
     0
279
    -2
289
     1
 69
     0
  7
Standard
140
0.25
170
     5
 62
     0
 63
     7
283
     0
274
    -2
284
     1
 64
     0
275
    -2
285
     1
 65
     0
276
    -2
286
     1
 66
     0
277
    -2
287
     1
 67
     0
278
    -2
288
     1
 68
     0
279
    -2
289
     1
 69
     0
  7
Standard
140
0.18
170
     5
 62
     0
 63
     7
283
     0
274
    -2
284
     1
 64
     0
275
    -2
285
     1
 65
     0
276
    -2
286
     1
 66
     0
277
    -2
287
     1
 67
     0
278
    -2
288
     1
 68
     0
279
    -2
289
     1
 69
     0
  0
VISUALSTYLE
  5
9F
102
{ACAD_XDICTIONARY
360
12D6
102
}
102
{ACAD_REACTORS
330
99
102
}
330
99
100
AcDbVisualStyle
  2

 70
     4
 71
     0
 72
     2
 73
     1
 90
        0
 40
-0.6
 41
-30.0
 62
     5
 63
     7
 74
     1
 91
        4
 64
     7
 65
   257
 75
     1
175
     1
 42
1.0
 92
        0
 66
   257
 43
1.0
 76
     1
 77
     6
 78
     2
 67
     7
 79
     5
170
     0
171
     0
290
     0
174
     0
 93
        1
 44
0.0
173
     0
291
     0
 45
0.0
1001
ACAD
1000
AcDbSavedByObjectVersion
1070
     0
  0
VISUALSTYLE
  5
A1
102
{ACAD_XDICTIONARY
360
12DA
102
}
102
{ACAD_REACTORS
330
99
102
}
330
99
100
AcDbVisualStyle
  2

 70
     6
 71
     1
 72
     2
 73
     2
 90
        0
 40
-0.6
 41
-30.0
 62
     5
 63
     7
 74
     2
 91
        2
 64
     7
 65
   257
 75
     2
175
     1
 42
40.0
 92
        0
 66
   257
 43
1.0
 76
     1
 77
     6
 78
     2
 67
     7
 79
     3
170
     0
171
     0
290
     0
174
     0
 93
        1
 44
0.0
173
     0
291
     0
 45
0.0
1001
ACAD
1000
AcDbSavedByObjectVersion
1070
     0
  0
VISUALSTYLE
  5
A0
102
{ACAD_XDICTIONARY
360
12D8
102
}
102
{ACAD_REACTORS
330
99
102
}
330
99
100
AcDbVisualStyle
  2

 70
     5
 71
     0
 72
     2
 73
     1
 90
        0
 40
-0.6
 41
-30.0
 62
     5
 63
     7
 74
     1
 91
        4
 64
     7
 65
   257
 75
     1
175
     1
 42
1.0
 92
        0
 66
   257
 43
1.0
 76
     1
 77
     6
 78
     2
 67
     7
 79
     5
170
     0
171
     0
290
     0
174
     0
 93
        1
 44
0.0
173
     0
291
     0
 45
0.0
1001
ACAD
1000
AcDbSavedByObjectVersion
1070
     0
  0
VISUALSTYLE
  5
9E
102
{ACAD_XDICTIONARY
360
12D4
102
}
102
{ACAD_REACTORS
330
99
102
}
330
99
100
AcDbVisualStyle
  2

 70
     7
 71
     1
 72
     0
 73
     1
 90
        0
 40
-0.6
 41
-30.0
 62
     5
 63
     7
 74
     0
 91
        4
 64
     7
 65
   257
 75
     1
175
     1
 42
1.0
 92
        8
 66
     7
 43
1.0
 76
     1
 77
     6
 78
     2
 67
     7
 79
     5
170
     0
171
     0
290
     0
174
     0
 93
        1
 44
0.0
173
     0
291
     1
 45
0.0
1001
ACAD
1000
AcDbSavedByObjectVersion
1070
     0
  0
VISUALSTYLE
  5
A5
102
{ACAD_XDICTIONARY
360
12E2
102
}
102
{ACAD_REACTORS
330
99
102
}
330
99
100
AcDbVisualStyle
  2

 70
    12
 71
     2
 72
     2
 73
     1
 90
        0
 40
-0.6
 41
-30.0
 62
     5
 63
     7
 74
     1
 91
        4
 64
     7
 65
   257
 75
     1
175
     1
 42
1.0
 92
        8
 66
     7
 43
1.0
 76
     1
 77
     6
 78
     2
 67
     7
 79
     5
170
     0
171
     0
290
     0
174
     0
 93
        1
 44
50.0
173
     0
291
     1
 45
0.0
1001
ACAD
1000
AcDbSavedByObjectVersion
1070
     0
  0
VISUALSTYLE
  5
A9
102
{ACAD_XDICTIONARY
360
12EA
102
}
102
{ACAD_REACTORS
330
99
102
}
330
99
100
AcDbVisualStyle
  2

 70
    16
 71
     2
 72
     2
 73
     3
 90
        0
 40
-0.6
 41
-30.0
 62
     5
 63
     8
 74
     1
 91
        4
 64
     7
 65
   257
 75
     1
175
     1
 42
1.0
 92
        8
 66
     8
 43
1.0
 76
     1
 77
     6
 78
     2
 67
     7
 79
     5
170
     0
171
     0
290
     0
174
     0
 93
        1
 44
0.0
173
     0
291
     1
 45
0.0
1001
ACAD
1000
AcDbSavedByObjectVersion
1070
     0
  0
VISUALSTYLE
  5
A2
102
{ACAD_XDICTIONARY
360
12DC
102
}
102
{ACAD_REACTORS
330
99
102
}
330
99
100
AcDbVisualStyle
  2

 70
     9
 71
     3
 72
     2
 73
     1
 90
        0
 40
-0.6
 41
-30.0
 62
     5
 63
     7
 74
     2
 91
        2
 64
     7
 65
   257
 75
     1
175
     1
 42
40.0
 92
        8
 66
     7
 43
1.0
 76
     1
 77
     6
 78
     2
 67
     7
 79
     3
170
     0
171
     0
290
     0
174
     0
 93
        1
 44
0.0
173
     0
291
     0
 45
0.0
1001
ACAD
1000
AcDbSavedByObjectVersion
1070
     0
  0
VISUALSTYLE
  5
A4
102
{ACAD_XDICTIONARY
360
12E0
102
}
102
{ACAD_REACTORS
330
99
102
}
330
99
100
AcDbVisualStyle
  2

 70
    11
 71
     2
 72
     2
 73
     1
 90
        0
 40
-0.6
 41
-30.0
 62
     5
 63
     7
 74
     1
 91
        4
 64
     7
 65
   257
 75
     1
175
     1
 42
1.0
 92
        8
 66
     7
 43
1.0
 76
     1
 77
     6
 78
     2
 67
     7
 79
     5
170
     0
171
     0
290
     0
174
     0
 93
        1
 44
-50.0
173
     0
291
     1
 45
0.0
1001
ACAD
1000
AcDbSavedByObjectVersion
1070
     0
  0
VISUALSTYLE
  5
155
102
{ACAD_XDICTIONARY
360
12FE
102
}
102
{ACAD_REACTORS
330
99
102
}
330
99
100
AcDbVisualStyle
  2

 70
    22
 71
     2
 72
     2
 73
     0
 90
        0
 40
-0.6
 41
-30.0
 62
     5
 63
     7
 74
     1
 91
        4
 64
     7
 65
   257
 75
     1
175
     1
 42
1.0
 92
        8
 66
     7
 43
1.0
 76
     1
 77
     6
 78
     2
 67
     7
 79
     5
170
     0
171
     0
290
     0
174
     0
 93
        1
 44
0.0
173
     0
291
     1
 45
0.0
1001
ACAD
1000
AcDbSavedByObjectVersion
1070
     0
  0
VISUALSTYLE
  5
A8
102
{ACAD_XDICTIONARY
360
12E8
102
}
102
{ACAD_REACTORS
330
99
102
}
330
99
100
AcDbVisualStyle
  2

 70
    15
 71
     2
 72
     2
 73
     1
 90
        0
 40
-0.6
 41
-30.0
 62
     5
 63
     7
 74
     1
 91
        4
 64
     7
 65
   257
 75
     1
175
     1
 42
1.0
 92
        8
 66
     7
 43
1.0
 76
     1
 77
     6
 78
     2
 67
     7
 79
     5
170
     0
171
     0
290
     0
174
     0
 93
        1
 44
0.0
173
     0
291
     1
 45
0.0
1001
ACAD
1000
AcDbSavedByObjectVersion
1070
     0
  0
VISUALSTYLE
  5
9A
102
{ACAD_XDICTIONARY
360
12CC
102
}
102
{ACAD_REACTORS
330
99
102
}
330
99
100
AcDbVisualStyle
  2

 70
     0
 71
     2
 72
     1
 73
     1
 90
        2
 40
-0.6
 41
30.0
 62
     5
 63
     7
 74
     0
 91
        4
 64
     7
 65
   257
 75
     1
175
     1
 42
1.0
 92
        8
 66
     7
 43
1.0
 76
     1
 77
     6
 78
     2
 67
     7
 79
     5
170
     0
171
     0
290
     0
174
     0
 93
        1
 44
0.0
173
     0
291
     1
 45
0.0
1001
ACAD
1000
AcDbSavedByObjectVersion
1070
     0
  0
VISUALSTYLE
  5
9B
102
{ACAD_XDICTIONARY
360
12CE
102
}
102
{ACAD_REACTORS
330
99
102
}
330
99
100
AcDbVisualStyle
  2

 70
     1
 71
     2
 72
     1
 73
     1
 90
        2
 40
-0.6
 41
30.0
 62
     5
 63
     7
 74
     1
 91
        4
 64
     7
 65
   257
 75
     1
175
     1
 42
1.0
 92
        0
 66
   257
 43
1.0
 76
     1
 77
     6
 78
     2
 67
     7
 79
     5
170
     0
171
     0
290
     0
174
     0
 93
        1
 44
0.0
173
     0
291
     1
 45
0.0
1001
ACAD
1000
AcDbSavedByObjectVersion
1070
     0
  0
VISUALSTYLE
  5
9C
102
{ACAD_XDICTIONARY
360
12D0
102
}
102
{ACAD_REACTORS
330
99
102
}
330
99
100
AcDbVisualStyle
  2

 70
     2
 71
     2
 72
     2
 73
     1
 90
        2
 40
-0.6
 41
30.0
 62
     5
 63
     7
 74
     0
 91
        4
 64
     7
 65
   257
 75
     1
175
     1
 42
1.0
 92
        0
 66
     7
 43
1.0
 76
     1
 77
     6
 78
     2
 67
     7
 79
     5
170
     0
171
     0
290
     0
174
     0
 93
        1
 44
0.0
173
     0
291
     1
 45
0.0
1001
ACAD
1000
AcDbSavedByObjectVersion
1070
     0
  0
VISUALSTYLE
  5
9D
102
{ACAD_XDICTIONARY
360
12D2
102
}
102
{ACAD_REACTORS
330
99
102
}
330
99
100
AcDbVisualStyle
  2

 70
     3
 71
     2
 72
     2
 73
     1
 90
        2
 40
-0.6
 41
30.0
 62
     5
 63
     7
 74
     1
 91
        4
 64
     7
 65
   257
 75
     1
175
     1
 42
1.0
 92
        0
 66
   257
 43
1.0
 76
     1
 77
     6
 78
     2
 67
     7
 79
     5
170
     0
171
     0
290
     0
174
     0
 93
        1
 44
0.0
173
     0
291
     1
 45
0.0
1001
ACAD
1000
AcDbSavedByObjectVersion
1070
     0
  0
VISUALSTYLE
  5
14D
102
{ACAD_XDICTIONARY
360
12EE
102
}
102
{ACAD_REACTORS
330
99
102
}
330
99
100
AcDbVisualStyle
  2

 70
     6
 71
     1
 72
     2
 73
     2
 90
        0
 40
-0.6
 41
-30.0
 62
     5
 63
     7
 74
     2
 91
        2
 64
     7
 65
   257
 75
     2
175
     1
 42
40.0
 92
        0
 66
   257
 43
1.0
 76
     1
 77
     6
 78
     2
 67
     7
 79
     3
170
     0
171
     0
290
     0
174
     0
 93
        1
 44
0.0
173
     0
291
     0
 45
0.0
1001
ACAD
1000
AcDbSavedByObjectVersion
1070
     0
  0
VISUALSTYLE
  5
153
102
{ACAD_XDICTIONARY
360
12FA
102
}
102
{ACAD_REACTORS
330
99
102
}
330
99
100
AcDbVisualStyle
  2

 70
    20
 71
     2
 72
     2
 73
     0
 90
        0
 40
-0.6
 41
-30.0
 62
     5
 63
     7
 74
     1
 91
        4
 64
     7
 65
   257
 75
     1
175
     1
 42
1.0
 92
       10
 66
     7
 43
1.0
 76
     1
 77
     6
 78
     2
 67
     7
 79
     5
170
     0
171
     0
290
     0
174
     0
 93
        1
 44
0.0
173
     0
291
     1
 45
0.0
1001
ACAD
1000
AcDbSavedByObjectVersion
1070
     0
  0
VISUALSTYLE
  5
A7
102
{ACAD_XDICTIONARY
360
12E6
102
}
102
{ACAD_REACTORS
330
99
102
}
330
99
100
AcDbVisualStyle
  2

 70
    14
 71
     2
 72
     2
 73
     1
 90
        0
 40
-0.6
 41
-30.0
 62
     5
 63
     7
 74
     1
 91
        4
 64
     7
 65
   257
 75
     7
175
     7
 42
1.0
 92
        8
 66
     7
 43
1.0
 76
     1
 77
     6
 78
     2
 67
     7
 79
     5
170
     0
171
     0
290
     0
174
     0
 93
        1
 44
0.0
173
     0
291
     1
 45
0.0
1001
ACAD
1000
AcDbSavedByObjectVersion
1070
     0
  0
VISUALSTYLE
  5
154
102
{ACAD_XDICTIONARY
360
12FC
102
}
102
{ACAD_REACTORS
330
99
102
}
330
99
100
AcDbVisualStyle
  2

 70
    21
 71
     2
 72
     2
 73
     0
 90
        0
 40
-0.6
 41
-30.0
 62
     5
 63
     7
 74
     1
 91
        4
 64
     7
 65
   257
 75
     1
175
     1
 42
1.0
 92
        9
 66
     7
 43
1.0
 76
     1
 77
     6
 78
     2
 67
     7
 79
     5
170
     0
171
     0
290
     0
174
     0
 93
        1
 44
0.0
173
     0
291
     1
 45
0.0
1001
ACAD
1000
AcDbSavedByObjectVersion
1070
     0
  0
VISUALSTYLE
  5
A3
102
{ACAD_XDICTIONARY
360
12DE
102
}
102
{ACAD_REACTORS
330
99
102
}
330
99
100
AcDbVisualStyle
  2

 70
     8
 71
     2
 72
     2
 73
     1
 90
        0
 40
-0.6
 41
-30.0
 62
     5
 63
     7
 74
     1
 91
        0
 64
     7
 65
   257
 75
     1
175
     1
 42
1.0
 92
        8
 66
     8
 43
1.0
 76
     1
 77
     6
 78
     2
 67
     7
 79
     5
170
     0
171
     0
290
     0
174
     0
 93
       13
 44
0.0
173
     0
291
     0
 45
0.0
1001
ACAD
1000
AcDbSavedByObjectVersion
1070
     0
  0
VISUALSTYLE
  5
152
102
{ACAD_XDICTIONARY
360
12F8
102
}
102
{ACAD_REACTORS
330
99
102
}
330
99
100
AcDbVisualStyle
  2

 70
    27
 71
     2
 72
     2
 73
     1
 90
        2
 40
-0.6
 41
30.0
 62
     5
 63
     7
 74
     0
 91
        4
 64
     7
 65
   257
 75
     1
175
     1
 42
1.0
 92
        8
 66
   257
 43
1.0
 76
     1
 77
     6
 78
     2
 67
     8
 79
     3
170
     0
171
     0
290
     0
174
     0
 93
        5
 44
0.0
173
     0
291
     0
 45
0.0
1001
ACAD
1000
AcDbSavedByObjectVersion
1070
     0
  0
VISUALSTYLE
  5
151
102
{ACAD_XDICTIONARY
360
12F6
102
}
102
{ACAD_REACTORS
330
99
102
}
330
99
100
AcDbVisualStyle
  2

 70
    26
 71
     2
 72
     2
 73
     1
 90
        2
 40
-0.6
 41
30.0
 62
     5
 63
     7
 74
     1
 91
       10
 64
     7
 65
   257
 75
     2
175
     1
 42
1.0
 92
        8
 66
   257
 43
1.0
 76
     1
 77
     6
 78
     2
 67
     7
 79
     3
170
     0
171
     0
290
     0
174
     0
 93
        5
 44
0.0
173
     0
291
     0
 45
0.0
1001
ACAD
1000
AcDbSavedByObjectVersion
1070
     0
  0
VISUALSTYLE
  5
14E
102
{ACAD_XDICTIONARY
360
12F0
102
}
102
{ACAD_REACTORS
330
99
102
}
330
99
100
AcDbVisualStyle
  2

 70
    23
 71
     2
 72
     2
 73
     3
 90
        0
 40
-0.6
 41
-30.0
 62
     5
 63
     7
 74
     2
 91
        2
 64
     7
 65
     7
 75
     1
175
     1
 42
40.0
 92
        8
 66
     7
 43
1.0
 76
     1
 77
     6
 78
     2
 67
     7
 79
     3
170
     0
171
     0
290
     0
174
     0
 93
        1
 44
0.0
173
     0
291
     0
 45
0.0
1001
ACAD
1000
AcDbSavedByObjectVersion
1070
     0
  0
VISUALSTYLE
  5
14F
102
{ACAD_XDICTIONARY
360
12F2
102
}
102
{ACAD_REACTORS
330
99
102
}
330
99
100
AcDbVisualStyle
  2

 70
    24
 71
     1
 72
     2
 73
     2
 90
        0
 40
-0.6
 41
-30.0
 62
     5
 63
     7
 74
     2
 91
        2
 64
     7
 65
     7
 75
     1
175
     1
 42
40.0
 92
       11
 66
     7
 43
1.0
 76
     1
 77
     6
 78
     2
 67
     7
 79
     6
170
     0
171
     0
290
     0
174
     0
 93
        1
 44
0.0
173
     0
291
     0
 45
0.0
1001
ACAD
1000
AcDbSavedByObjectVersion
1070
     0
  0
VISUALSTYLE
  5
A6
102
{ACAD_XDICTIONARY
360
12E4
102
}
102
{ACAD_REACTORS
330
99
102
}
330
99
100
AcDbVisualStyle
  2

 70
    13
 71
     2
 72
     2
 73
     1
 90
        0
 40
-0.6
 41
-30.0
 62
     5
 63
     7
 74
     1
 91
        4
 64
     7
 65
   257
 75
     1
175
     1
 42
1.0
 92
       12
 66
     7
 43
1.0
 76
     1
 77
     6
 78
     2
 67
     7
 79
     5
170
     0
171
     0
290
     0
174
     0
 93
        1
 44
0.0
173
     0
291
     1
 45
0.0
1001
ACAD
1000
AcDbSavedByObjectVersion
1070
     0
  0
VISUALSTYLE
  5
14C
102
{ACAD_XDICTIONARY
360
12EC
102
}
102
{ACAD_REACTORS
330
99
102
}
330
99
100
AcDbVisualStyle
  2

 70
     5
 71
     0
 72
     2
 73
     0
 90
        0
 40
-0.6
 41
-30.0
 62
     5
 63
     7
 74
     1
 91
        4
 64
     7
 65
   257
 75
     1
175
     1
 42
1.0
 92
        0
 66
   257
 43
1.0
 76
     1
 77
     6
 78
     2
 67
     7
 79
     3
170
     0
171
     0
290
     0
174
     0
 93
        1
 44
0.0
173
     0
291
     0
 45
0.0
1001
ACAD
1000
AcDbSavedByObjectVersion
1070
     0
  0
VISUALSTYLE
  5
150
102
{ACAD_XDICTIONARY
360
12F4
102
}
102
{ACAD_REACTORS
330
99
102
}
330
99
100
AcDbVisualStyle
  2

 70
    25
 71
     2
 72
     2
 73
     1
 90
        1
 40
0.5
 41
-30.0
 62
     5
 63
     7
 74
     1
 91
        0
 64
     7
 65
   257
 75
     1
175
     1
 42
1.0
 92
        8
 66
     7
 43
1.0
 76
     1
 77
     6
 78
     2
 67
     7
 79
     3
170
     0
171
     0
290
     0
174
     0
 93
       13
 44
0.0
173
     0
291
     0
 45
0.0
1001
ACAD
1000
AcDbSavedByObjectVersion
1070
     0
  0
DICTIONARYVAR
  5
245
102
{ACAD_REACTORS
330
66
102
}
330
66
100
DictionaryVariables
280
     0
  1
1:1
  0
DICTIONARYVAR
  5
243
102
{ACAD_REACTORS
330
66
102
}
330
66
100
DictionaryVariables
280
     0
  1
STANDARD
  0
DICTIONARYVAR
  5
89
102
{ACAD_REACTORS
330
66
102
}
330
66
100
DictionaryVariables
280
     0
  1
STANDARD
  0
DICTIONARYVAR
  5
67
102
{ACAD_REACTORS
330
66
102
}
330
66
100
DictionaryVariables
280
     0
  1
2
  0
DICTIONARYVAR
  5
6B
102
{ACAD_REACTORS
330
66
102
}
330
66
100
DictionaryVariables
280
     0
  1
1
  0
DICTIONARYVAR
  5
870
102
{ACAD_REACTORS
330
66
102
}
330
66
100
DictionaryVariables
280
     0
  1
0
  0
DICTIONARYVAR
  5
247
102
{ACAD_REACTORS
330
66
102
}
330
66
100
DictionaryVariables
280
     0
  1
1
  0
DICTIONARYVAR
  5
248
102
{ACAD_REACTORS
330
66
102
}
330
66
100
DictionaryVariables
280
     0
  1
15
  0
DICTIONARYVAR
  5
246
102
{ACAD_REACTORS
330
66
102
}
330
66
100
DictionaryVariables
280
     0
  1
0
  0
DICTIONARYVAR
  5
244
102
{ACAD_REACTORS
330
66
102
}
330
66
100
DictionaryVariables
280
     0
  1
0
  0
DICTIONARYVAR
  5
86F
102
{ACAD_REACTORS
330
66
102
}
330
66
100
DictionaryVariables
280
     0
  1
127
  0
DICTIONARYVAR
  5
121E
102
{ACAD_REACTORS
330
66
102
}
330
66
100
DictionaryVariables
280
     0
  1
2
  0
DICTIONARY
  5
12C5
330
22
100
AcDbDictionary
280
     1
281
     1
  3
ACAD_XREC_ROUNDTRIP
360
12C6
  0
DICTIONARY
  5
12C7
330
59
100
AcDbDictionary
280
     1
281
     1
  3
ACAD_XREC_ROUNDTRIP
360
12C8
  0
DICTIONARY
  5
12C9
330
5E
100
AcDbDictionary
280
     1
281
     1
  3
ACAD_XREC_ROUNDTRIP
360
12CA
  0
DICTIONARY
  5
10D6
330
97
100
AcDbDictionary
280
     1
281
     1
  3
ACAD_XREC_ROUNDTRIP
360
10D7
  0
DICTIONARY
  5
10D4
330
96
100
AcDbDictionary
280
     1
281
     1
  3
ACAD_XREC_ROUNDTRIP
360
10D5
  0
DICTIONARY
  5
10D8
330
98
100
AcDbDictionary
280
     1
281
     1
  3
ACAD_XREC_ROUNDTRIP
360
10D9
  0
DICTIONARY
  5
821
330
87
100
AcDbDictionary
280
     1
281
     1
  3
ACAD_ROUNDTRIP_2008_TABLESTYLE_CELLSTYLEMAP
360
12BE
  3
ACAD_XREC_ROUNDTRIP
360
12CB
  0
DICTIONARY
  5
12D6
330
9F
100
AcDbDictionary
280
     1
281
     1
  3
ACAD_XREC_ROUNDTRIP
360
12D7
  0
DICTIONARY
  5
12DA
330
A1
100
AcDbDictionary
280
     1
281
     1
  3
ACAD_XREC_ROUNDTRIP
360
12DB
  0
DICTIONARY
  5
12D8
330
A0
100
AcDbDictionary
280
     1
281
     1
  3
ACAD_XREC_ROUNDTRIP
360
12D9
  0
DICTIONARY
  5
12D4
330
9E
100
AcDbDictionary
280
     1
281
     1
  3
ACAD_XREC_ROUNDTRIP
360
12D5
  0
DICTIONARY
  5
12E2
330
A5
100
AcDbDictionary
280
     1
281
     1
  3
ACAD_XREC_ROUNDTRIP
360
12E3
  0
DICTIONARY
  5
12EA
330
A9
100
AcDbDictionary
280
     1
281
     1
  3
ACAD_XREC_ROUNDTRIP
360
12EB
  0
DICTIONARY
  5
12DC
330
A2
100
AcDbDictionary
280
     1
281
     1
  3
ACAD_XREC_ROUNDTRIP
360
12DD
  0
DICTIONARY
  5
12E0
330
A4
100
AcDbDictionary
280
     1
281
     1
  3
ACAD_XREC_ROUNDTRIP
360
12E1
  0
DICTIONARY
  5
12FE
330
155
100
AcDbDictionary
280
     1
281
     1
  3
ACAD_XREC_ROUNDTRIP
360
12FF
  0
DICTIONARY
  5
12E8
330
A8
100
AcDbDictionary
280
     1
281
     1
  3
ACAD_XREC_ROUNDTRIP
360
12E9
  0
DICTIONARY
  5
12CC
330
9A
100
AcDbDictionary
280
     1
281
     1
  3
ACAD_XREC_ROUNDTRIP
360
12CD
  0
DICTIONARY
  5
12CE
330
9B
100
AcDbDictionary
280
     1
281
     1
  3
ACAD_XREC_ROUNDTRIP
360
12CF
  0
DICTIONARY
  5
12D0
330
9C
100
AcDbDictionary
280
     1
281
     1
  3
ACAD_XREC_ROUNDTRIP
360
12D1
  0
DICTIONARY
  5
12D2
330
9D
100
AcDbDictionary
280
     1
281
     1
  3
ACAD_XREC_ROUNDTRIP
360
12D3
  0
DICTIONARY
  5
12EE
330
14D
100
AcDbDictionary
280
     1
281
     1
  3
ACAD_XREC_ROUNDTRIP
360
12EF
  0
DICTIONARY
  5
12FA
330
153
100
AcDbDictionary
280
     1
281
     1
  3
ACAD_XREC_ROUNDTRIP
360
12FB
  0
DICTIONARY
  5
12E6
330
A7
100
AcDbDictionary
280
     1
281
     1
  3
ACAD_XREC_ROUNDTRIP
360
12E7
  0
DICTIONARY
  5
12FC
330
154
100
AcDbDictionary
280
     1
281
     1
  3
ACAD_XREC_ROUNDTRIP
360
12FD
  0
DICTIONARY
  5
12DE
330
A3
100
AcDbDictionary
280
     1
281
     1
  3
ACAD_XREC_ROUNDTRIP
360
12DF
  0
DICTIONARY
  5
12F8
330
152
100
AcDbDictionary
280
     1
281
     1
  3
ACAD_XREC_ROUNDTRIP
360
12F9
  0
DICTIONARY
  5
12F6
330
151
100
AcDbDictionary
280
     1
281
     1
  3
ACAD_XREC_ROUNDTRIP
360
12F7
  0
DICTIONARY
  5
12F0
330
14E
100
AcDbDictionary
280
     1
281
     1
  3
ACAD_XREC_ROUNDTRIP
360
12F1
  0
DICTIONARY
  5
12F2
330
14F
100
AcDbDictionary
280
     1
281
     1
  3
ACAD_XREC_ROUNDTRIP
360
12F3
  0
DICTIONARY
  5
12E4
330
A6
100
AcDbDictionary
280
     1
281
     1
  3
ACAD_XREC_ROUNDTRIP
360
12E5
  0
DICTIONARY
  5
12EC
330
14C
100
AcDbDictionary
280
     1
281
     1
  3
ACAD_XREC_ROUNDTRIP
360
12ED
  0
DICTIONARY
  5
12F4
330
150
100
AcDbDictionary
280
     1
281
     1
  3
ACAD_XREC_ROUNDTRIP
360
12F5
  0
XRECORD
  5
12C6
102
{ACAD_REACTORS
330
12C5
102
}
330
12C5
100
AcDbXrecord
280
     1
102
SHADEPLOT
 70
     0
102
SHADEPLOTRESLEVEL
 70
     2
102
SHADEPLOTCUSTOMDPI
 70
   300
  0
XRECORD
  5
12C8
102
{ACAD_REACTORS
330
12C7
102
}
330
12C7
100
AcDbXrecord
280
     1
102
SHADEPLOT
 70
     0
102
SHADEPLOTRESLEVEL
 70
     2
102
SHADEPLOTCUSTOMDPI
 70
   300
  0
XRECORD
  5
12CA
102
{ACAD_REACTORS
330
12C9
102
}
330
12C9
100
AcDbXrecord
280
     1
102
SHADEPLOT
 70
     0
102
SHADEPLOTRESLEVEL
 70
     2
102
SHADEPLOTCUSTOMDPI
 70
   300
  0
XRECORD
  5
10D7
102
{ACAD_REACTORS
330
10D6
102
}
330
10D6
100
AcDbXrecord
280
     1
102
MATERIAL
148
0.0
149
0.0
149
0.0
 93
        0
 94
      127
282
     0
 72
     1
 77
     1
171
     1
175
     1
179
     1
273
     0
  0
XRECORD
  5
10D5
102
{ACAD_REACTORS
330
10D4
102
}
330
10D4
100
AcDbXrecord
280
     1
102
MATERIAL
148
0.0
149
0.0
149
0.0
 93
        0
 94
      127
282
     0
 72
     1
 77
     1
171
     1
175
     1
179
     1
273
     0
  0
XRECORD
  5
10D9
102
{ACAD_REACTORS
330
10D8
102
}
330
10D8
100
AcDbXrecord
280
     1
102
MATERIAL
148
0.0
149
0.0
149
0.0
 93
        0
 94
      127
282
     0
 72
     1
 77
     1
171
     1
175
     1
179
     1
273
     0
  0
CELLSTYLEMAP
  5
12BE
102
{ACAD_REACTORS
330
821
102
}
330
821
100
AcDbCellStyleMap
 90
        3
300
CELLSTYLE
  1
TABLEFORMAT_BEGIN
 90
        5
170
     1
 91
        0
 92
    32768
 62
   257
 93
        1
300
CONTENTFORMAT
  1
CONTENTFORMAT_BEGIN
 90
        0
 91
        0
 92
      512
 93
        0
300

 40
0.0
140
1.0
 94
        5
 62
     0
340
11
144
0.25
309
CONTENTFORMAT_END
171
     1
301
MARGIN
  1
CELLMARGIN_BEGIN
 40
0.06
 40
0.06
 40
0.06
 40
0.06
 40
0.18
 40
0.18
309
CELLMARGIN_END
 94
        6
 95
        1
302
GRIDFORMAT
  1
GRIDFORMAT_BEGIN
 90
        0
 91
        1
 62
     0
 92
       -2
340
0
 93
        0
 40
0.045
309
GRIDFORMAT_END
 95
        2
302
GRIDFORMAT
  1
GRIDFORMAT_BEGIN
 90
        0
 91
        1
 62
     0
 92
       -2
340
0
 93
        0
 40
0.045
309
GRIDFORMAT_END
 95
        4
302
GRIDFORMAT
  1
GRIDFORMAT_BEGIN
 90
        0
 91
        1
 62
     0
 92
       -2
340
0
 93
        0
 40
0.045
309
GRIDFORMAT_END
 95
        8
302
GRIDFORMAT
  1
GRIDFORMAT_BEGIN
 90
        0
 91
        1
 62
     0
 92
       -2
340
0
 93
        0
 40
0.045
309
GRIDFORMAT_END
 95
       16
302
GRIDFORMAT
  1
GRIDFORMAT_BEGIN
 90
        0
 91
        1
 62
     0
 92
       -2
340
0
 93
        0
 40
0.045
309
GRIDFORMAT_END
 95
       32
302
GRIDFORMAT
  1
GRIDFORMAT_BEGIN
 90
        0
 91
        1
 62
     0
 92
       -2
340
0
 93
        0
 40
0.045
309
GRIDFORMAT_END
309
TABLEFORMAT_END
  1
CELLSTYLE_BEGIN
 90
        1
 91
        1
300
_TITLE
309
CELLSTYLE_END
300
CELLSTYLE
  1
TABLEFORMAT_BEGIN
 90
        5
170
     1
 91
        0
 92
        0
 62
   257
 93
        1
300
CONTENTFORMAT
  1
CONTENTFORMAT_BEGIN
 90
        0
 91
        0
 92
      512
 93
        0
300

 40
0.0
140
1.0
 94
        5
 62
     0
340
11
144
0.18
309
CONTENTFORMAT_END
171
     1
301
MARGIN
  1
CELLMARGIN_BEGIN
 40
0.06
 40
0.06
 40
0.06
 40
0.06
 40
0.18
 40
0.18
309
CELLMARGIN_END
 94
        6
 95
        1
302
GRIDFORMAT
  1
GRIDFORMAT_BEGIN
 90
        0
 91
        1
 62
     0
 92
       -2
340
0
 93
        0
 40
0.045
309
GRIDFORMAT_END
 95
        2
302
GRIDFORMAT
  1
GRIDFORMAT_BEGIN
 90
        0
 91
        1
 62
     0
 92
       -2
340
0
 93
        0
 40
0.045
309
GRIDFORMAT_END
 95
        4
302
GRIDFORMAT
  1
GRIDFORMAT_BEGIN
 90
        0
 91
        1
 62
     0
 92
       -2
340
0
 93
        0
 40
0.045
309
GRIDFORMAT_END
 95
        8
302
GRIDFORMAT
  1
GRIDFORMAT_BEGIN
 90
        0
 91
        1
 62
     0
 92
       -2
340
0
 93
        0
 40
0.045
309
GRIDFORMAT_END
 95
       16
302
GRIDFORMAT
  1
GRIDFORMAT_BEGIN
 90
        0
 91
        1
 62
     0
 92
       -2
340
0
 93
        0
 40
0.045
309
GRIDFORMAT_END
 95
       32
302
GRIDFORMAT
  1
GRIDFORMAT_BEGIN
 90
        0
 91
        1
 62
     0
 92
       -2
340
0
 93
        0
 40
0.045
309
GRIDFORMAT_END
309
TABLEFORMAT_END
  1
CELLSTYLE_BEGIN
 90
        2
 91
        1
300
_HEADER
309
CELLSTYLE_END
300
CELLSTYLE
  1
TABLEFORMAT_BEGIN
 90
        5
170
     1
 91
        0
 92
        0
 62
   257
 93
        1
300
CONTENTFORMAT
  1
CONTENTFORMAT_BEGIN
 90
        0
 91
        0
 92
      512
 93
        0
300

 40
0.0
140
1.0
 94
        2
 62
     0
340
11
144
0.18
309
CONTENTFORMAT_END
171
     1
301
MARGIN
  1
CELLMARGIN_BEGIN
 40
0.06
 40
0.06
 40
0.06
 40
0.06
 40
0.18
 40
0.18
309
CELLMARGIN_END
 94
        6
 95
        1
302
GRIDFORMAT
  1
GRIDFORMAT_BEGIN
 90
        0
 91
        1
 62
     0
 92
       -2
340
0
 93
        0
 40
0.045
309
GRIDFORMAT_END
 95
        2
302
GRIDFORMAT
  1
GRIDFORMAT_BEGIN
 90
        0
 91
        1
 62
     0
 92
       -2
340
0
 93
        0
 40
0.045
309
GRIDFORMAT_END
 95
        4
302
GRIDFORMAT
  1
GRIDFORMAT_BEGIN
 90
        0
 91
        1
 62
     0
 92
       -2
340
0
 93
        0
 40
0.045
309
GRIDFORMAT_END
 95
        8
302
GRIDFORMAT
  1
GRIDFORMAT_BEGIN
 90
        0
 91
        1
 62
     0
 92
       -2
340
0
 93
        0
 40
0.045
309
GRIDFORMAT_END
 95
       16
302
GRIDFORMAT
  1
GRIDFORMAT_BEGIN
 90
        0
 91
        1
 62
     0
 92
       -2
340
0
 93
        0
 40
0.045
309
GRIDFORMAT_END
 95
       32
302
GRIDFORMAT
  1
GRIDFORMAT_BEGIN
 90
        0
 91
        1
 62
     0
 92
       -2
340
0
 93
        0
 40
0.045
309
GRIDFORMAT_END
309
TABLEFORMAT_END
  1
CELLSTYLE_BEGIN
 90
        3
 91
        2
300
_DATA
309
CELLSTYLE_END
  0
XRECORD
  5
12CB
102
{ACAD_REACTORS
330
821
102
}
330
821
100
AcDbXrecord
280
     1
102
ACAD_ROUNDTRIP_PRE2007_TABLESTYLE
 90
      512
 91
        0
  1

 92
      512
 93
        0
  2

 94
      512
 95
        0
  3

  0
XRECORD
  5
12D7
102
{ACAD_REACTORS
330
12D6
102
}
330
12D6
100
AcDbXrecord
280
     1
102
RTVSPropertyOp0
 70
     1
102
RTVSPropertyOp1
 70
     1
102
RTVSPropertyOp2
 70
     1
102
RTVSPropertyOp3
 70
     1
102
RTVSPropertyOp4
 70
     1
102
RTVSPropertyOp5
 70
     1
102
RTVSPropertyOp6
 70
     1
102
RTVSPropertyOp7
 70
     1
102
RTVSPropertyOp8
 70
     1
102
RTVSPropertyOp9
 70
     1
102
RTVSPropertyOp10
 70
     1
102
RTVSPropertyOp11
 70
     1
102
RTVSPropertyOp12
 70
     1
102
RTVSPropertyOp13
 70
     1
102
RTVSPropertyOp14
 70
     1
102
RTVSPropertyOp15
 70
     1
102
RTVSPropertyOp16
 70
     1
102
RTVSPropertyOp17
 70
     1
102
RTVSPropertyOp18
 70
     1
102
RTVSPropertyOp19
 70
     1
102
RTVSPropertyOp20
 70
     1
102
RTVSPropertyOp21
 70
     1
102
RTVSPropertyOp22
 70
     1
102
RTVSPropertyOp23
 70
     1
102
RTVSPropertyOp24
 70
     1
102
RTVSPropertyOp25
 70
     1
102
RTVSPropertyOp26
 70
     1
102
RTVSPropertyOp27
 70
     1
102
RTVSPropertyOp28
 70
     1
102
RTVSPropertyOp29
 70
     1
102
RTVSPropertyOp30
 70
     1
102
RTVSPropertyOp31
 70
     1
102
RTVSPropertyOp32
 70
     1
  0
XRECORD
  5
12DB
102
{ACAD_REACTORS
330
12DA
102
}
330
12DA
100
AcDbXrecord
280
     1
102
RTVSPropertyOp0
 70
     1
102
RTVSPropertyOp1
 70
     1
102
RTVSPropertyOp2
 70
     1
102
RTVSPropertyOp3
 70
     1
102
RTVSPropertyOp4
 70
     1
102
RTVSPropertyOp5
 70
     1
102
RTVSPropertyOp6
 70
     1
102
RTVSPropertyOp7
 70
     1
102
RTVSPropertyOp8
 70
     1
102
RTVSPropertyOp9
 70
     1
102
RTVSPropertyOp10
 70
     1
102
RTVSPropertyOp11
 70
     1
102
RTVSPropertyOp12
 70
     1
102
RTVSPropertyOp13
 70
     1
102
RTVSPropertyOp14
 70
     1
102
RTVSPropertyOp15
 70
     1
102
RTVSPropertyOp16
 70
     1
102
RTVSPropertyOp17
 70
     1
102
RTVSPropertyOp18
 70
     1
102
RTVSPropertyOp19
 70
     1
102
RTVSPropertyOp20
 70
     1
102
RTVSPropertyOp21
 70
     1
102
RTVSPropertyOp22
 70
     1
102
RTVSPropertyOp23
 70
     1
102
RTVSPropertyOp24
 70
     1
102
RTVSPropertyOp25
 70
     1
102
RTVSPropertyOp26
 70
     1
102
RTVSPropertyOp27
 70
     1
102
RTVSPropertyOp28
 70
     1
102
RTVSPropertyOp29
 70
     1
102
RTVSPropertyOp30
 70
     1
102
RTVSPropertyOp31
 70
     1
102
RTVSPropertyOp32
 70
     1
  0
XRECORD
  5
12D9
102
{ACAD_REACTORS
330
12D8
102
}
330
12D8
100
AcDbXrecord
280
     1
102
RTVSPropertyOp0
 70
     1
102
RTVSPropertyOp1
 70
     1
102
RTVSPropertyOp2
 70
     1
102
RTVSPropertyOp3
 70
     1
102
RTVSPropertyOp4
 70
     1
102
RTVSPropertyOp5
 70
     1
102
RTVSPropertyOp6
 70
     1
102
RTVSPropertyOp7
 70
     1
102
RTVSPropertyOp8
 70
     1
102
RTVSPropertyOp9
 70
     1
102
RTVSPropertyOp10
 70
     1
102
RTVSPropertyOp11
 70
     1
102
RTVSPropertyOp12
 70
     1
102
RTVSPropertyOp13
 70
     1
102
RTVSPropertyOp14
 70
     1
102
RTVSPropertyOp15
 70
     1
102
RTVSPropertyOp16
 70
     1
102
RTVSPropertyOp17
 70
     1
102
RTVSPropertyOp18
 70
     1
102
RTVSPropertyOp19
 70
     1
102
RTVSPropertyOp20
 70
     1
102
RTVSPropertyOp21
 70
     1
102
RTVSPropertyOp22
 70
     1
102
RTVSPropertyOp23
 70
     1
102
RTVSPropertyOp24
 70
     1
102
RTVSPropertyOp25
 70
     1
102
RTVSPropertyOp26
 70
     1
102
RTVSPropertyOp27
 70
     1
102
RTVSPropertyOp28
 70
     1
102
RTVSPropertyOp29
 70
     1
102
RTVSPropertyOp30
 70
     1
102
RTVSPropertyOp31
 70
     1
102
RTVSPropertyOp32
 70
     1
  0
XRECORD
  5
12D5
102
{ACAD_REACTORS
330
12D4
102
}
330
12D4
100
AcDbXrecord
280
     1
102
RTVSPropertyOp0
 70
     1
102
RTVSPropertyOp1
 70
     1
102
RTVSPropertyOp2
 70
     1
102
RTVSPropertyOp3
 70
     1
102
RTVSPropertyOp4
 70
     1
102
RTVSPropertyOp5
 70
     1
102
RTVSPropertyOp6
 70
     1
102
RTVSPropertyOp7
 70
     1
102
RTVSPropertyOp8
 70
     1
102
RTVSPropertyOp9
 70
     1
102
RTVSPropertyOp10
 70
     1
102
RTVSPropertyOp11
 70
     1
102
RTVSPropertyOp12
 70
     1
102
RTVSPropertyOp13
 70
     1
102
RTVSPropertyOp14
 70
     1
102
RTVSPropertyOp15
 70
     1
102
RTVSPropertyOp16
 70
     1
102
RTVSPropertyOp17
 70
     1
102
RTVSPropertyOp18
 70
     1
102
RTVSPropertyOp19
 70
     1
102
RTVSPropertyOp20
 70
     1
102
RTVSPropertyOp21
 70
     1
102
RTVSPropertyOp22
 70
     1
102
RTVSPropertyOp23
 70
     1
102
RTVSPropertyOp24
 70
     1
102
RTVSPropertyOp25
 70
     1
102
RTVSPropertyOp26
 70
     1
102
RTVSPropertyOp27
 70
     1
102
RTVSPropertyOp28
 70
     1
102
RTVSPropertyOp29
 70
     1
102
RTVSPropertyOp30
 70
     1
102
RTVSPropertyOp31
 70
     1
102
RTVSPropertyOp32
 70
     1
  0
XRECORD
  5
12E3
102
{ACAD_REACTORS
330
12E2
102
}
330
12E2
100
AcDbXrecord
280
     1
102
RTVSPropertyOp0
 70
     1
102
RTVSPropertyOp1
 70
     1
102
RTVSPropertyOp2
 70
     1
102
RTVSPropertyOp3
 70
     1
102
RTVSPropertyOp4
 70
     1
102
RTVSPropertyOp5
 70
     1
102
RTVSPropertyOp6
 70
     1
102
RTVSPropertyOp7
 70
     1
102
RTVSPropertyOp8
 70
     1
102
RTVSPropertyOp9
 70
     1
102
RTVSPropertyOp10
 70
     1
102
RTVSPropertyOp11
 70
     1
102
RTVSPropertyOp12
 70
     1
102
RTVSPropertyOp13
 70
     1
102
RTVSPropertyOp14
 70
     1
102
RTVSPropertyOp15
 70
     1
102
RTVSPropertyOp16
 70
     1
102
RTVSPropertyOp17
 70
     1
102
RTVSPropertyOp18
 70
     1
102
RTVSPropertyOp19
 70
     1
102
RTVSPropertyOp20
 70
     1
102
RTVSPropertyOp21
 70
     1
102
RTVSPropertyOp22
 70
     1
102
RTVSPropertyOp23
 70
     1
102
RTVSPropertyOp24
 70
     1
102
RTVSPropertyOp25
 70
     1
102
RTVSPropertyOp26
 70
     1
102
RTVSPropertyOp27
 70
     1
102
RTVSPropertyOp28
 70
     1
102
RTVSPropertyOp29
 70
     1
102
RTVSPropertyOp30
 70
     1
102
RTVSPropertyOp31
 70
     1
102
RTVSPropertyOp32
 70
     1
  0
XRECORD
  5
12EB
102
{ACAD_REACTORS
330
12EA
102
}
330
12EA
100
AcDbXrecord
280
     1
102
RTVSPropertyOp0
 70
     1
102
RTVSPropertyOp1
 70
     1
102
RTVSPropertyOp2
 70
     1
102
RTVSPropertyOp3
 70
     1
102
RTVSPropertyOp4
 70
     1
102
RTVSPropertyOp5
 70
     1
102
RTVSPropertyOp6
 70
     1
102
RTVSPropertyOp7
 70
     1
102
RTVSPropertyOp8
 70
     1
102
RTVSPropertyOp9
 70
     1
102
RTVSPropertyOp10
 70
     1
102
RTVSPropertyOp11
 70
     1
102
RTVSPropertyOp12
 70
     1
102
RTVSPropertyOp13
 70
     1
102
RTVSPropertyOp14
 70
     1
102
RTVSPropertyOp15
 70
     1
102
RTVSPropertyOp16
 70
     1
102
RTVSPropertyOp17
 70
     1
102
RTVSPropertyOp18
 70
     1
102
RTVSPropertyOp19
 70
     1
102
RTVSPropertyOp20
 70
     1
102
RTVSPropertyOp21
 70
     1
102
RTVSPropertyOp22
 70
     1
102
RTVSPropertyOp23
 70
     1
102
RTVSPropertyOp24
 70
     1
102
RTVSPropertyOp25
 70
     1
102
RTVSPropertyOp26
 70
     1
102
RTVSPropertyOp27
 70
     1
102
RTVSPropertyOp28
 70
     1
102
RTVSPropertyOp29
 70
     1
102
RTVSPropertyOp30
 70
     1
102
RTVSPropertyOp31
 70
     1
102
RTVSPropertyOp32
 70
     1
  0
XRECORD
  5
12DD
102
{ACAD_REACTORS
330
12DC
102
}
330
12DC
100
AcDbXrecord
280
     1
102
RTVSPropertyOp0
 70
     1
102
RTVSPropertyOp1
 70
     1
102
RTVSPropertyOp2
 70
     1
102
RTVSPropertyOp3
 70
     1
102
RTVSPropertyOp4
 70
     1
102
RTVSPropertyOp5
 70
     1
102
RTVSPropertyOp6
 70
     1
102
RTVSPropertyOp7
 70
     1
102
RTVSPropertyOp8
 70
     1
102
RTVSPropertyOp9
 70
     1
102
RTVSPropertyOp10
 70
     1
102
RTVSPropertyOp11
 70
     1
102
RTVSPropertyOp12
 70
     1
102
RTVSPropertyOp13
 70
     1
102
RTVSPropertyOp14
 70
     1
102
RTVSPropertyOp15
 70
     1
102
RTVSPropertyOp16
 70
     1
102
RTVSPropertyOp17
 70
     1
102
RTVSPropertyOp18
 70
     1
102
RTVSPropertyOp19
 70
     1
102
RTVSPropertyOp20
 70
     1
102
RTVSPropertyOp21
 70
     1
102
RTVSPropertyOp22
 70
     1
102
RTVSPropertyOp23
 70
     1
102
RTVSPropertyOp24
 70
     1
102
RTVSPropertyOp25
 70
     1
102
RTVSPropertyOp26
 70
     1
102
RTVSPropertyOp27
 70
     1
102
RTVSPropertyOp28
 70
     1
102
RTVSPropertyOp29
 70
     1
102
RTVSPropertyOp30
 70
     1
102
RTVSPropertyOp31
 70
     1
102
RTVSPropertyOp32
 70
     1
  0
XRECORD
  5
12E1
102
{ACAD_REACTORS
330
12E0
102
}
330
12E0
100
AcDbXrecord
280
     1
102
RTVSPropertyOp0
 70
     1
102
RTVSPropertyOp1
 70
     1
102
RTVSPropertyOp2
 70
     1
102
RTVSPropertyOp3
 70
     1
102
RTVSPropertyOp4
 70
     1
102
RTVSPropertyOp5
 70
     1
102
RTVSPropertyOp6
 70
     1
102
RTVSPropertyOp7
 70
     1
102
RTVSPropertyOp8
 70
     1
102
RTVSPropertyOp9
 70
     1
102
RTVSPropertyOp10
 70
     1
102
RTVSPropertyOp11
 70
     1
102
RTVSPropertyOp12
 70
     1
102
RTVSPropertyOp13
 70
     1
102
RTVSPropertyOp14
 70
     1
102
RTVSPropertyOp15
 70
     1
102
RTVSPropertyOp16
 70
     1
102
RTVSPropertyOp17
 70
     1
102
RTVSPropertyOp18
 70
     1
102
RTVSPropertyOp19
 70
     1
102
RTVSPropertyOp20
 70
     1
102
RTVSPropertyOp21
 70
     1
102
RTVSPropertyOp22
 70
     1
102
RTVSPropertyOp23
 70
     1
102
RTVSPropertyOp24
 70
     1
102
RTVSPropertyOp25
 70
     1
102
RTVSPropertyOp26
 70
     1
102
RTVSPropertyOp27
 70
     1
102
RTVSPropertyOp28
 70
     1
102
RTVSPropertyOp29
 70
     1
102
RTVSPropertyOp30
 70
     1
102
RTVSPropertyOp31
 70
     1
102
RTVSPropertyOp32
 70
     1
  0
XRECORD
  5
12FF
102
{ACAD_REACTORS
330
12FE
102
}
330
12FE
100
AcDbXrecord
280
     1
102
RTVSPropertyOp0
 70
     0
102
RTVSPropertyOp1
 70
     0
102
RTVSPropertyOp2
 70
     0
102
RTVSPropertyOp3
 70
     0
102
RTVSPropertyOp4
 70
     0
102
RTVSPropertyOp5
 70
     0
102
RTVSPropertyOp6
 70
     0
102
RTVSPropertyOp7
 70
     0
102
RTVSPropertyOp8
 70
     0
102
RTVSPropertyOp9
 70
     0
102
RTVSPropertyOp10
 70
     0
102
RTVSPropertyOp11
 70
     0
102
RTVSPropertyOp12
 70
     0
102
RTVSPropertyOp13
 70
     0
102
RTVSPropertyOp14
 70
     2
102
RTVSPropertyOp15
 70
     0
102
RTVSPropertyOp16
 70
     0
102
RTVSPropertyOp17
 70
     0
102
RTVSPropertyOp18
 70
     0
102
RTVSPropertyOp19
 70
     0
102
RTVSPropertyOp20
 70
     0
102
RTVSPropertyOp21
 70
     0
102
RTVSPropertyOp22
 70
     0
102
RTVSPropertyOp23
 70
     0
102
RTVSPropertyOp24
 70
     0
102
RTVSPropertyOp25
 70
     0
102
RTVSPropertyOp26
 70
     0
102
RTVSPropertyOp27
 70
     0
102
RTVSPropertyOp28
 70
     1
102
RTVSPropertyOp29
 70
     1
102
RTVSPropertyOp30
 70
     1
102
RTVSPropertyOp31
 70
     1
102
RTVSPropertyOp32
 70
     1
  0
XRECORD
  5
12E9
102
{ACAD_REACTORS
330
12E8
102
}
330
12E8
100
AcDbXrecord
280
     1
102
RTVSPropertyOp0
 70
     1
102
RTVSPropertyOp1
 70
     1
102
RTVSPropertyOp2
 70
     1
102
RTVSPropertyOp3
 70
     1
102
RTVSPropertyOp4
 70
     1
102
RTVSPropertyOp5
 70
     1
102
RTVSPropertyOp6
 70
     1
102
RTVSPropertyOp7
 70
     1
102
RTVSPropertyOp8
 70
     1
102
RTVSPropertyOp9
 70
     1
102
RTVSPropertyOp10
 70
     1
102
RTVSPropertyOp11
 70
     1
102
RTVSPropertyOp12
 70
     1
102
RTVSPropertyOp13
 70
     1
102
RTVSPropertyOp14
 70
     1
102
RTVSPropertyOp15
 70
     1
102
RTVSPropertyOp16
 70
     1
102
RTVSPropertyOp17
 70
     1
102
RTVSPropertyOp18
 70
     1
102
RTVSPropertyOp19
 70
     1
102
RTVSPropertyOp20
 70
     1
102
RTVSPropertyOp21
 70
     1
102
RTVSPropertyOp22
 70
     1
102
RTVSPropertyOp23
 70
     1
102
RTVSPropertyOp24
 70
     1
102
RTVSPropertyOp25
 70
     1
102
RTVSPropertyOp26
 70
     1
102
RTVSPropertyOp27
 70
     1
102
RTVSPropertyOp28
 70
     1
102
RTVSPropertyOp29
 70
     1
102
RTVSPropertyOp30
 70
     1
102
RTVSPropertyOp31
 70
     1
102
RTVSPropertyOp32
 70
     1
  0
XRECORD
  5
12CD
102
{ACAD_REACTORS
330
12CC
102
}
330
12CC
100
AcDbXrecord
280
     1
102
RTVSPropertyOp0
 70
     1
102
RTVSPropertyOp1
 70
     1
102
RTVSPropertyOp2
 70
     1
102
RTVSPropertyOp3
 70
     1
102
RTVSPropertyOp4
 70
     1
102
RTVSPropertyOp5
 70
     1
102
RTVSPropertyOp6
 70
     1
102
RTVSPropertyOp7
 70
     1
102
RTVSPropertyOp8
 70
     1
102
RTVSPropertyOp9
 70
     1
102
RTVSPropertyOp10
 70
     1
102
RTVSPropertyOp11
 70
     1
102
RTVSPropertyOp12
 70
     1
102
RTVSPropertyOp13
 70
     1
102
RTVSPropertyOp14
 70
     1
102
RTVSPropertyOp15
 70
     1
102
RTVSPropertyOp16
 70
     1
102
RTVSPropertyOp17
 70
     1
102
RTVSPropertyOp18
 70
     1
102
RTVSPropertyOp19
 70
     1
102
RTVSPropertyOp20
 70
     1
102
RTVSPropertyOp21
 70
     1
102
RTVSPropertyOp22
 70
     1
102
RTVSPropertyOp23
 70
     1
102
RTVSPropertyOp24
 70
     1
102
RTVSPropertyOp25
 70
     1
102
RTVSPropertyOp26
 70
     1
102
RTVSPropertyOp27
 70
     1
102
RTVSPropertyOp28
 70
     1
102
RTVSPropertyOp29
 70
     1
102
RTVSPropertyOp30
 70
     1
102
RTVSPropertyOp31
 70
     1
102
RTVSPropertyOp32
 70
     1
  0
XRECORD
  5
12CF
102
{ACAD_REACTORS
330
12CE
102
}
330
12CE
100
AcDbXrecord
280
     1
102
RTVSPropertyOp0
 70
     1
102
RTVSPropertyOp1
 70
     1
102
RTVSPropertyOp2
 70
     1
102
RTVSPropertyOp3
 70
     1
102
RTVSPropertyOp4
 70
     1
102
RTVSPropertyOp5
 70
     1
102
RTVSPropertyOp6
 70
     1
102
RTVSPropertyOp7
 70
     1
102
RTVSPropertyOp8
 70
     1
102
RTVSPropertyOp9
 70
     1
102
RTVSPropertyOp10
 70
     1
102
RTVSPropertyOp11
 70
     1
102
RTVSPropertyOp12
 70
     1
102
RTVSPropertyOp13
 70
     1
102
RTVSPropertyOp14
 70
     1
102
RTVSPropertyOp15
 70
     1
102
RTVSPropertyOp16
 70
     1
102
RTVSPropertyOp17
 70
     1
102
RTVSPropertyOp18
 70
     1
102
RTVSPropertyOp19
 70
     1
102
RTVSPropertyOp20
 70
     1
102
RTVSPropertyOp21
 70
     1
102
RTVSPropertyOp22
 70
     1
102
RTVSPropertyOp23
 70
     1
102
RTVSPropertyOp24
 70
     1
102
RTVSPropertyOp25
 70
     1
102
RTVSPropertyOp26
 70
     1
102
RTVSPropertyOp27
 70
     1
102
RTVSPropertyOp28
 70
     1
102
RTVSPropertyOp29
 70
     1
102
RTVSPropertyOp30
 70
     1
102
RTVSPropertyOp31
 70
     1
102
RTVSPropertyOp32
 70
     1
  0
XRECORD
  5
12D1
102
{ACAD_REACTORS
330
12D0
102
}
330
12D0
100
AcDbXrecord
280
     1
102
RTVSPropertyOp0
 70
     1
102
RTVSPropertyOp1
 70
     1
102
RTVSPropertyOp2
 70
     1
102
RTVSPropertyOp3
 70
     1
102
RTVSPropertyOp4
 70
     1
102
RTVSPropertyOp5
 70
     1
102
RTVSPropertyOp6
 70
     1
102
RTVSPropertyOp7
 70
     1
102
RTVSPropertyOp8
 70
     1
102
RTVSPropertyOp9
 70
     1
102
RTVSPropertyOp10
 70
     1
102
RTVSPropertyOp11
 70
     1
102
RTVSPropertyOp12
 70
     1
102
RTVSPropertyOp13
 70
     1
102
RTVSPropertyOp14
 70
     1
102
RTVSPropertyOp15
 70
     1
102
RTVSPropertyOp16
 70
     1
102
RTVSPropertyOp17
 70
     1
102
RTVSPropertyOp18
 70
     1
102
RTVSPropertyOp19
 70
     1
102
RTVSPropertyOp20
 70
     1
102
RTVSPropertyOp21
 70
     1
102
RTVSPropertyOp22
 70
     1
102
RTVSPropertyOp23
 70
     1
102
RTVSPropertyOp24
 70
     1
102
RTVSPropertyOp25
 70
     1
102
RTVSPropertyOp26
 70
     1
102
RTVSPropertyOp27
 70
     1
102
RTVSPropertyOp28
 70
     1
102
RTVSPropertyOp29
 70
     1
102
RTVSPropertyOp30
 70
     1
102
RTVSPropertyOp31
 70
     1
102
RTVSPropertyOp32
 70
     1
  0
XRECORD
  5
12D3
102
{ACAD_REACTORS
330
12D2
102
}
330
12D2
100
AcDbXrecord
280
     1
102
RTVSPropertyOp0
 70
     1
102
RTVSPropertyOp1
 70
     1
102
RTVSPropertyOp2
 70
     1
102
RTVSPropertyOp3
 70
     1
102
RTVSPropertyOp4
 70
     1
102
RTVSPropertyOp5
 70
     1
102
RTVSPropertyOp6
 70
     1
102
RTVSPropertyOp7
 70
     1
102
RTVSPropertyOp8
 70
     1
102
RTVSPropertyOp9
 70
     1
102
RTVSPropertyOp10
 70
     1
102
RTVSPropertyOp11
 70
     1
102
RTVSPropertyOp12
 70
     1
102
RTVSPropertyOp13
 70
     1
102
RTVSPropertyOp14
 70
     1
102
RTVSPropertyOp15
 70
     1
102
RTVSPropertyOp16
 70
     1
102
RTVSPropertyOp17
 70
     1
102
RTVSPropertyOp18
 70
     1
102
RTVSPropertyOp19
 70
     1
102
RTVSPropertyOp20
 70
     1
102
RTVSPropertyOp21
 70
     1
102
RTVSPropertyOp22
 70
     1
102
RTVSPropertyOp23
 70
     1
102
RTVSPropertyOp24
 70
     1
102
RTVSPropertyOp25
 70
     1
102
RTVSPropertyOp26
 70
     1
102
RTVSPropertyOp27
 70
     1
102
RTVSPropertyOp28
 70
     1
102
RTVSPropertyOp29
 70
     1
102
RTVSPropertyOp30
 70
     1
102
RTVSPropertyOp31
 70
     1
102
RTVSPropertyOp32
 70
     1
  0
XRECORD
  5
12EF
102
{ACAD_REACTORS
330
12EE
102
}
330
12EE
100
AcDbXrecord
280
     1
102
RTVSPropertyOp0
 70
     1
102
RTVSPropertyOp1
 70
     1
102
RTVSPropertyOp2
 70
     1
102
RTVSPropertyOp3
 70
     1
102
RTVSPropertyOp4
 70
     1
102
RTVSPropertyOp5
 70
     1
102
RTVSPropertyOp6
 70
     1
102
RTVSPropertyOp7
 70
     1
102
RTVSPropertyOp8
 70
     1
102
RTVSPropertyOp9
 70
     1
102
RTVSPropertyOp10
 70
     1
102
RTVSPropertyOp11
 70
     1
102
RTVSPropertyOp12
 70
     1
102
RTVSPropertyOp13
 70
     1
102
RTVSPropertyOp14
 70
     1
102
RTVSPropertyOp15
 70
     1
102
RTVSPropertyOp16
 70
     1
102
RTVSPropertyOp17
 70
     1
102
RTVSPropertyOp18
 70
     1
102
RTVSPropertyOp19
 70
     1
102
RTVSPropertyOp20
 70
     1
102
RTVSPropertyOp21
 70
     1
102
RTVSPropertyOp22
 70
     1
102
RTVSPropertyOp23
 70
     1
102
RTVSPropertyOp24
 70
     1
102
RTVSPropertyOp25
 70
     1
102
RTVSPropertyOp26
 70
     1
102
RTVSPropertyOp27
 70
     1
102
RTVSPropertyOp28
 70
     1
102
RTVSPropertyOp29
 70
     1
102
RTVSPropertyOp30
 70
     1
102
RTVSPropertyOp31
 70
     1
102
RTVSPropertyOp32
 70
     1
  0
XRECORD
  5
12FB
102
{ACAD_REACTORS
330
12FA
102
}
330
12FA
100
AcDbXrecord
280
     1
102
RTVSPropertyOp0
 70
     0
102
RTVSPropertyOp1
 70
     0
102
RTVSPropertyOp2
 70
     0
102
RTVSPropertyOp3
 70
     0
102
RTVSPropertyOp4
 70
     0
102
RTVSPropertyOp5
 70
     0
102
RTVSPropertyOp6
 70
     0
102
RTVSPropertyOp7
 70
     0
102
RTVSPropertyOp8
 70
     0
102
RTVSPropertyOp9
 70
     0
102
RTVSPropertyOp10
 70
     0
102
RTVSPropertyOp11
 70
     0
102
RTVSPropertyOp12
 70
     0
102
RTVSPropertyOp13
 70
     0
102
RTVSPropertyOp14
 70
     2
102
RTVSPropertyOp15
 70
     0
102
RTVSPropertyOp16
 70
     0
102
RTVSPropertyOp17
 70
     0
102
RTVSPropertyOp18
 70
     0
102
RTVSPropertyOp19
 70
     0
102
RTVSPropertyOp20
 70
     0
102
RTVSPropertyOp21
 70
     0
102
RTVSPropertyOp22
 70
     0
102
RTVSPropertyOp23
 70
     0
102
RTVSPropertyOp24
 70
     0
102
RTVSPropertyOp25
 70
     0
102
RTVSPropertyOp26
 70
     0
102
RTVSPropertyOp27
 70
     0
102
RTVSPropertyOp28
 70
     1
102
RTVSPropertyOp29
 70
     1
102
RTVSPropertyOp30
 70
     1
102
RTVSPropertyOp31
 70
     1
102
RTVSPropertyOp32
 70
     1
  0
XRECORD
  5
12E7
102
{ACAD_REACTORS
330
12E6
102
}
330
12E6
100
AcDbXrecord
280
     1
102
RTVSPropertyOp0
 70
     1
102
RTVSPropertyOp1
 70
     1
102
RTVSPropertyOp2
 70
     1
102
RTVSPropertyOp3
 70
     1
102
RTVSPropertyOp4
 70
     1
102
RTVSPropertyOp5
 70
     1
102
RTVSPropertyOp6
 70
     1
102
RTVSPropertyOp7
 70
     1
102
RTVSPropertyOp8
 70
     1
102
RTVSPropertyOp9
 70
     1
102
RTVSPropertyOp10
 70
     1
102
RTVSPropertyOp11
 70
     1
102
RTVSPropertyOp12
 70
     1
102
RTVSPropertyOp13
 70
     1
102
RTVSPropertyOp14
 70
     1
102
RTVSPropertyOp15
 70
     1
102
RTVSPropertyOp16
 70
     1
102
RTVSPropertyOp17
 70
     1
102
RTVSPropertyOp18
 70
     1
102
RTVSPropertyOp19
 70
     1
102
RTVSPropertyOp20
 70
     1
102
RTVSPropertyOp21
 70
     1
102
RTVSPropertyOp22
 70
     1
102
RTVSPropertyOp23
 70
     1
102
RTVSPropertyOp24
 70
     1
102
RTVSPropertyOp25
 70
     1
102
RTVSPropertyOp26
 70
     1
102
RTVSPropertyOp27
 70
     1
102
RTVSPropertyOp28
 70
     1
102
RTVSPropertyOp29
 70
     1
102
RTVSPropertyOp30
 70
     1
102
RTVSPropertyOp31
 70
     1
102
RTVSPropertyOp32
 70
     1
  0
XRECORD
  5
12FD
102
{ACAD_REACTORS
330
12FC
102
}
330
12FC
100
AcDbXrecord
280
     1
102
RTVSPropertyOp0
 70
     0
102
RTVSPropertyOp1
 70
     0
102
RTVSPropertyOp2
 70
     0
102
RTVSPropertyOp3
 70
     0
102
RTVSPropertyOp4
 70
     0
102
RTVSPropertyOp5
 70
     0
102
RTVSPropertyOp6
 70
     0
102
RTVSPropertyOp7
 70
     0
102
RTVSPropertyOp8
 70
     0
102
RTVSPropertyOp9
 70
     0
102
RTVSPropertyOp10
 70
     0
102
RTVSPropertyOp11
 70
     0
102
RTVSPropertyOp12
 70
     0
102
RTVSPropertyOp13
 70
     0
102
RTVSPropertyOp14
 70
     2
102
RTVSPropertyOp15
 70
     0
102
RTVSPropertyOp16
 70
     0
102
RTVSPropertyOp17
 70
     0
102
RTVSPropertyOp18
 70
     0
102
RTVSPropertyOp19
 70
     0
102
RTVSPropertyOp20
 70
     0
102
RTVSPropertyOp21
 70
     0
102
RTVSPropertyOp22
 70
     0
102
RTVSPropertyOp23
 70
     0
102
RTVSPropertyOp24
 70
     0
102
RTVSPropertyOp25
 70
     0
102
RTVSPropertyOp26
 70
     0
102
RTVSPropertyOp27
 70
     0
102
RTVSPropertyOp28
 70
     1
102
RTVSPropertyOp29
 70
     1
102
RTVSPropertyOp30
 70
     1
102
RTVSPropertyOp31
 70
     1
102
RTVSPropertyOp32
 70
     1
  0
XRECORD
  5
12DF
102
{ACAD_REACTORS
330
12DE
102
}
330
12DE
100
AcDbXrecord
280
     1
102
RTVSPropertyOp0
 70
     1
102
RTVSPropertyOp1
 70
     1
102
RTVSPropertyOp2
 70
     1
102
RTVSPropertyOp3
 70
     1
102
RTVSPropertyOp4
 70
     1
102
RTVSPropertyOp5
 70
     1
102
RTVSPropertyOp6
 70
     1
102
RTVSPropertyOp7
 70
     1
102
RTVSPropertyOp8
 70
     1
102
RTVSPropertyOp9
 70
     1
102
RTVSPropertyOp10
 70
     1
102
RTVSPropertyOp11
 70
     1
102
RTVSPropertyOp12
 70
     1
102
RTVSPropertyOp13
 70
     1
102
RTVSPropertyOp14
 70
     1
102
RTVSPropertyOp15
 70
     1
102
RTVSPropertyOp16
 70
     1
102
RTVSPropertyOp17
 70
     1
102
RTVSPropertyOp18
 70
     1
102
RTVSPropertyOp19
 70
     1
102
RTVSPropertyOp20
 70
     1
102
RTVSPropertyOp21
 70
     1
102
RTVSPropertyOp22
 70
     1
102
RTVSPropertyOp23
 70
     1
102
RTVSPropertyOp24
 70
     1
102
RTVSPropertyOp25
 70
     1
102
RTVSPropertyOp26
 70
     1
102
RTVSPropertyOp27
 70
     1
102
RTVSPropertyOp28
 70
     1
102
RTVSPropertyOp29
 70
     1
102
RTVSPropertyOp30
 70
     1
102
RTVSPropertyOp31
 70
     1
102
RTVSPropertyOp32
 70
     1
  0
XRECORD
  5
12F9
102
{ACAD_REACTORS
330
12F8
102
}
330
12F8
100
AcDbXrecord
280
     1
102
RTVSPropertyOp0
 70
     1
102
RTVSPropertyOp1
 70
     1
102
RTVSPropertyOp2
 70
     1
102
RTVSPropertyOp3
 70
     1
102
RTVSPropertyOp4
 70
     1
102
RTVSPropertyOp5
 70
     1
102
RTVSPropertyOp6
 70
     1
102
RTVSPropertyOp7
 70
     1
102
RTVSPropertyOp8
 70
     1
102
RTVSPropertyOp9
 70
     1
102
RTVSPropertyOp10
 70
     1
102
RTVSPropertyOp11
 70
     1
102
RTVSPropertyOp12
 70
     1
102
RTVSPropertyOp13
 70
     1
102
RTVSPropertyOp14
 70
     1
102
RTVSPropertyOp15
 70
     1
102
RTVSPropertyOp16
 70
     1
102
RTVSPropertyOp17
 70
     1
102
RTVSPropertyOp18
 70
     1
102
RTVSPropertyOp19
 70
     1
102
RTVSPropertyOp20
 70
     1
102
RTVSPropertyOp21
 70
     1
102
RTVSPropertyOp22
 70
     1
102
RTVSPropertyOp23
 70
     1
102
RTVSPropertyOp24
 70
     1
102
RTVSPropertyOp25
 70
     1
102
RTVSPropertyOp26
 70
     1
102
RTVSPropertyOp27
 70
     1
102
RTVSPropertyOp28
 70
     1
102
RTVSPropertyOp29
 70
     1
102
RTVSPropertyOp30
 70
     1
102
RTVSPropertyOp31
 70
     1
102
RTVSPropertyOp32
 70
     1
  0
XRECORD
  5
12F7
102
{ACAD_REACTORS
330
12F6
102
}
330
12F6
100
AcDbXrecord
280
     1
102
RTVSPropertyOp0
 70
     1
102
RTVSPropertyOp1
 70
     1
102
RTVSPropertyOp2
 70
     1
102
RTVSPropertyOp3
 70
     1
102
RTVSPropertyOp4
 70
     1
102
RTVSPropertyOp5
 70
     1
102
RTVSPropertyOp6
 70
     1
102
RTVSPropertyOp7
 70
     1
102
RTVSPropertyOp8
 70
     1
102
RTVSPropertyOp9
 70
     1
102
RTVSPropertyOp10
 70
     1
102
RTVSPropertyOp11
 70
     1
102
RTVSPropertyOp12
 70
     1
102
RTVSPropertyOp13
 70
     1
102
RTVSPropertyOp14
 70
     1
102
RTVSPropertyOp15
 70
     1
102
RTVSPropertyOp16
 70
     1
102
RTVSPropertyOp17
 70
     1
102
RTVSPropertyOp18
 70
     1
102
RTVSPropertyOp19
 70
     1
102
RTVSPropertyOp20
 70
     1
102
RTVSPropertyOp21
 70
     1
102
RTVSPropertyOp22
 70
     1
102
RTVSPropertyOp23
 70
     1
102
RTVSPropertyOp24
 70
     1
102
RTVSPropertyOp25
 70
     1
102
RTVSPropertyOp26
 70
     1
102
RTVSPropertyOp27
 70
     1
102
RTVSPropertyOp28
 70
     1
102
RTVSPropertyOp29
 70
     1
102
RTVSPropertyOp30
 70
     1
102
RTVSPropertyOp31
 70
     1
102
RTVSPropertyOp32
 70
     1
  0
XRECORD
  5
12F1
102
{ACAD_REACTORS
330
12F0
102
}
330
12F0
100
AcDbXrecord
280
     1
102
RTVSPropertyOp0
 70
     1
102
RTVSPropertyOp1
 70
     1
102
RTVSPropertyOp2
 70
     1
102
RTVSPropertyOp3
 70
     1
102
RTVSPropertyOp4
 70
     1
102
RTVSPropertyOp5
 70
     1
102
RTVSPropertyOp6
 70
     1
102
RTVSPropertyOp7
 70
     1
102
RTVSPropertyOp8
 70
     1
102
RTVSPropertyOp9
 70
     1
102
RTVSPropertyOp10
 70
     1
102
RTVSPropertyOp11
 70
     1
102
RTVSPropertyOp12
 70
     1
102
RTVSPropertyOp13
 70
     1
102
RTVSPropertyOp14
 70
     1
102
RTVSPropertyOp15
 70
     1
102
RTVSPropertyOp16
 70
     1
102
RTVSPropertyOp17
 70
     1
102
RTVSPropertyOp18
 70
     1
102
RTVSPropertyOp19
 70
     1
102
RTVSPropertyOp20
 70
     1
102
RTVSPropertyOp21
 70
     1
102
RTVSPropertyOp22
 70
     1
102
RTVSPropertyOp23
 70
     1
102
RTVSPropertyOp24
 70
     1
102
RTVSPropertyOp25
 70
     1
102
RTVSPropertyOp26
 70
     1
102
RTVSPropertyOp27
 70
     1
102
RTVSPropertyOp28
 70
     1
102
RTVSPropertyOp29
 70
     1
102
RTVSPropertyOp30
 70
     1
102
RTVSPropertyOp31
 70
     1
102
RTVSPropertyOp32
 70
     1
  0
XRECORD
  5
12F3
102
{ACAD_REACTORS
330
12F2
102
}
330
12F2
100
AcDbXrecord
280
     1
102
RTVSPropertyOp0
 70
     1
102
RTVSPropertyOp1
 70
     1
102
RTVSPropertyOp2
 70
     1
102
RTVSPropertyOp3
 70
     1
102
RTVSPropertyOp4
 70
     1
102
RTVSPropertyOp5
 70
     1
102
RTVSPropertyOp6
 70
     1
102
RTVSPropertyOp7
 70
     1
102
RTVSPropertyOp8
 70
     1
102
RTVSPropertyOp9
 70
     1
102
RTVSPropertyOp10
 70
     1
102
RTVSPropertyOp11
 70
     1
102
RTVSPropertyOp12
 70
     1
102
RTVSPropertyOp13
 70
     1
102
RTVSPropertyOp14
 70
     1
102
RTVSPropertyOp15
 70
     1
102
RTVSPropertyOp16
 70
     1
102
RTVSPropertyOp17
 70
     1
102
RTVSPropertyOp18
 70
     1
102
RTVSPropertyOp19
 70
     1
102
RTVSPropertyOp20
 70
     1
102
RTVSPropertyOp21
 70
     1
102
RTVSPropertyOp22
 70
     1
102
RTVSPropertyOp23
 70
     1
102
RTVSPropertyOp24
 70
     1
102
RTVSPropertyOp25
 70
     1
102
RTVSPropertyOp26
 70
     1
102
RTVSPropertyOp27
 70
     1
102
RTVSPropertyOp28
 70
     1
102
RTVSPropertyOp29
 70
     1
102
RTVSPropertyOp30
 70
     1
102
RTVSPropertyOp31
 70
     1
102
RTVSPropertyOp32
 70
     1
  0
XRECORD
  5
12E5
102
{ACAD_REACTORS
330
12E4
102
}
330
12E4
100
AcDbXrecord
280
     1
102
RTVSPropertyOp0
 70
     1
102
RTVSPropertyOp1
 70
     1
102
RTVSPropertyOp2
 70
     1
102
RTVSPropertyOp3
 70
     1
102
RTVSPropertyOp4
 70
     1
102
RTVSPropertyOp5
 70
     1
102
RTVSPropertyOp6
 70
     1
102
RTVSPropertyOp7
 70
     1
102
RTVSPropertyOp8
 70
     1
102
RTVSPropertyOp9
 70
     1
102
RTVSPropertyOp10
 70
     1
102
RTVSPropertyOp11
 70
     1
102
RTVSPropertyOp12
 70
     1
102
RTVSPropertyOp13
 70
     1
102
RTVSPropertyOp14
 70
     1
102
RTVSPropertyOp15
 70
     1
102
RTVSPropertyOp16
 70
     1
102
RTVSPropertyOp17
 70
     1
102
RTVSPropertyOp18
 70
     1
102
RTVSPropertyOp19
 70
     1
102
RTVSPropertyOp20
 70
     1
102
RTVSPropertyOp21
 70
     1
102
RTVSPropertyOp22
 70
     1
102
RTVSPropertyOp23
 70
     1
102
RTVSPropertyOp24
 70
     1
102
RTVSPropertyOp25
 70
     1
102
RTVSPropertyOp26
 70
     1
102
RTVSPropertyOp27
 70
     1
102
RTVSPropertyOp28
 70
     1
102
RTVSPropertyOp29
 70
     1
102
RTVSPropertyOp30
 70
     1
102
RTVSPropertyOp31
 70
     1
102
RTVSPropertyOp32
 70
     1
  0
XRECORD
  5
12ED
102
{ACAD_REACTORS
330
12EC
102
}
330
12EC
100
AcDbXrecord
280
     1
102
RTVSPropertyOp0
 70
     1
102
RTVSPropertyOp1
 70
     1
102
RTVSPropertyOp2
 70
     1
102
RTVSPropertyOp3
 70
     1
102
RTVSPropertyOp4
 70
     1
102
RTVSPropertyOp5
 70
     1
102
RTVSPropertyOp6
 70
     1
102
RTVSPropertyOp7
 70
     1
102
RTVSPropertyOp8
 70
     1
102
RTVSPropertyOp9
 70
     1
102
RTVSPropertyOp10
 70
     1
102
RTVSPropertyOp11
 70
     1
102
RTVSPropertyOp12
 70
     1
102
RTVSPropertyOp13
 70
     1
102
RTVSPropertyOp14
 70
     1
102
RTVSPropertyOp15
 70
     1
102
RTVSPropertyOp16
 70
     1
102
RTVSPropertyOp17
 70
     1
102
RTVSPropertyOp18
 70
     1
102
RTVSPropertyOp19
 70
     1
102
RTVSPropertyOp20
 70
     1
102
RTVSPropertyOp21
 70
     1
102
RTVSPropertyOp22
 70
     1
102
RTVSPropertyOp23
 70
     1
102
RTVSPropertyOp24
 70
     1
102
RTVSPropertyOp25
 70
     1
102
RTVSPropertyOp26
 70
     1
102
RTVSPropertyOp27
 70
     1
102
RTVSPropertyOp28
 70
     1
102
RTVSPropertyOp29
 70
     1
102
RTVSPropertyOp30
 70
     1
102
RTVSPropertyOp31
 70
     1
102
RTVSPropertyOp32
 70
     1
  0
XRECORD
  5
12F5
102
{ACAD_REACTORS
330
12F4
102
}
330
12F4
100
AcDbXrecord
280
     1
102
RTVSPropertyOp0
 70
     1
102
RTVSPropertyOp1
 70
     1
102
RTVSPropertyOp2
 70
     1
102
RTVSPropertyOp3
 70
     1
102
RTVSPropertyOp4
 70
     1
102
RTVSPropertyOp5
 70
     1
102
RTVSPropertyOp6
 70
     1
102
RTVSPropertyOp7
 70
     1
102
RTVSPropertyOp8
 70
     1
102
RTVSPropertyOp9
 70
     1
102
RTVSPropertyOp10
 70
     1
102
RTVSPropertyOp11
 70
     1
102
RTVSPropertyOp12
 70
     1
102
RTVSPropertyOp13
 70
     1
102
RTVSPropertyOp14
 70
     1
102
RTVSPropertyOp15
 70
     1
102
RTVSPropertyOp16
 70
     1
102
RTVSPropertyOp17
 70
     1
102
RTVSPropertyOp18
 70
     1
102
RTVSPropertyOp19
 70
     1
102
RTVSPropertyOp20
 70
     1
102
RTVSPropertyOp21
 70
     1
102
RTVSPropertyOp22
 70
     1
102
RTVSPropertyOp23
 70
     1
102
RTVSPropertyOp24
 70
     1
102
RTVSPropertyOp25
 70
     1
102
RTVSPropertyOp26
 70
     1
102
RTVSPropertyOp27
 70
     1
102
RTVSPropertyOp28
 70
     1
102
RTVSPropertyOp29
 70
     1
102
RTVSPropertyOp30
 70
     1
102
RTVSPropertyOp31
 70
     1
102
RTVSPropertyOp32
 70
     1
  0
ENDSEC
  0
EOF
