  0
SECTION
  2
HEADER
  9
$ACADVER
  1
AC1015
  9
$ACADMAINTVER
 70
    20
  9
$DWGCODEPAGE
  3
ANSI_932
  9
$INSBASE
 10
0.0
 20
0.0
 30
0.0
  9
$EXTMIN
 10
2052.410791573775
 20
66.00372917914592
 30
0.0
  9
$EXTMAX
 10
2457.410791573775
 20
345.1867932993031
 30
0.0
  9
$LIMMIN
 10
0.0
 20
0.0
  9
$LIMMAX
 10
12.0
 20
9.0
  9
$ORTHOMODE
 70
     1
  9
$REGENMODE
 70
     1
  9
$FILLMODE
 70
     1
  9
$QTEXTMODE
 70
     0
  9
$MIRRTEXT
 70
     0
  9
$LTSCALE
 40
0.2
  9
$ATTMODE
 70
     1
  9
$TEXTSIZE
 40
3.2
  9
$TRACEWID
 40
0.05
  9
$TEXTSTYLE
  7
高3.2
  9
$CLAYER
  8
0
  9
$CELTYPE
  6
ByLayer
  9
$CECOLOR
 62
   256
  9
$CELTSCALE
 40
1.0
  9
$DISPSILH
 70
     0
  9
$DIMSCALE
 40
1.0
  9
$DIMASZ
 40
2.5
  9
$DIMEXO
 40
0.25
  9
$DIMDLI
 40
0.2
  9
$DIMRND
 40
0.0
  9
$DIMDLE
 40
0.0
  9
$DIMEXE
 40
1.25
  9
$DIMTP
 40
0.0
  9
$DIMTM
 40
0.0
  9
$DIMTXT
 40
3.0
  9
$DIMCEN
 40
0.0
  9
$DIMTSZ
 40
0.0
  9
$DIMTOL
 70
     0
  9
$DIMLIM
 70
     0
  9
$DIMTIH
 70
     0
  9
$DIMTOH
 70
     0
  9
$DIMSE1
 70
     0
  9
$DIMSE2
 70
     0
  9
$DIMTAD
 70
     3
  9
$DIMZIN
 70
     8
  9
$DIMBLK
  1
Open30
  9
$DIMASO
 70
     1
  9
$DIMSHO
 70
     1
  9
$DIMPOST
  1

  9
$DIMAPOST
  1

  9
$DIMALT
 70
     0
  9
$DIMALTD
 70
     3
  9
$DIMALTF
 40
0.03937007874016
  9
$DIMLFAC
 40
1.0
  9
$DIMTOFL
 70
     1
  9
$DIMTVP
 40
0.0
  9
$DIMTIX
 70
     0
  9
$DIMSOXD
 70
     0
  9
$DIMSAH
 70
     0
  9
$DIMBLK1
  1

  9
$DIMBLK2
  1

  9
$DIMSTYLE
  2
1：1
  9
$DIMCLRD
 70
     0
  9
$DIMCLRE
 70
     0
  9
$DIMCLRT
 70
     4
  9
$DIMTFAC
 40
1.0
  9
$DIMGAP
 40
0.625
  9
$DIMJUST
 70
     0
  9
$DIMSD1
 70
     0
  9
$DIMSD2
 70
     0
  9
$DIMTOLJ
 70
     0
  9
$DIMTZIN
 70
     8
  9
$DIMALTZ
 70
     0
  9
$DIMALTTZ
 70
     0
  9
$DIMUPT
 70
     1
  9
$DIMDEC
 70
     2
  9
$DIMTDEC
 70
     2
  9
$DIMALTU
 70
     2
  9
$DIMALTTD
 70
     3
  9
$DIMTXSTY
  7
Standard
  9
$DIMAUNIT
 70
     0
  9
$DIMADEC
 70
     1
  9
$DIMALTRND
 40
0.0
  9
$DIMAZIN
 70
     2
  9
$DIMDSEP
 70
    46
  9
$DIMATFIT
 70
     0
  9
$DIMFRAC
 70
     0
  9
$DIMLDRBLK
  1
Open30
  9
$DIMLUNIT
 70
     2
  9
$DIMLWD
 70
    -2
  9
$DIMLWE
 70
    -2
  9
$DIMTMOVE
 70
     0
  9
$LUNITS
 70
     2
  9
$LUPREC
 70
     4
  9
$SKETCHINC
 40
0.1
  9
$FILLETRAD
 40
0.0
  9
$AUNITS
 70
     0
  9
$AUPREC
 70
     0
  9
$MENU
  1
.
  9
$ELEVATION
 40
0.0
  9
$PELEVATION
 40
0.0
  9
$THICKNESS
 40
0.0
  9
$LIMCHECK
 70
     0
  9
$CHAMFERA
 40
0.0
  9
$CHAMFERB
 40
0.0
  9
$CHAMFERC
 40
0.0
  9
$CHAMFERD
 40
0.0
  9
$SKPOLY
 70
     0
  9
$TDCREATE
 40
2458365.546744375
  9
$TDUCREATE
 40
2458365.171744375
  9
$TDUPDATE
 40
2458746.590017778
  9
$TDUUPDATE
 40
2458746.215017778
  9
$TDINDWG
 40
0.3395245718
  9
$TDUSRTIMER
 40
0.3395228241
  9
$USRTIMER
 70
     1
  9
$ANGBASE
 50
0.0
  9
$ANGDIR
 70
     0
  9
$PDMODE
 70
     0
  9
$PDSIZE
 40
0.0
  9
$PLINEWID
 40
0.0
  9
$SPLFRAME
 70
     0
  9
$SPLINETYPE
 70
     6
  9
$SPLINESEGS
 70
     8
  9
$HANDSEED
  5
2348
  9
$SURFTAB1
 70
     6
  9
$SURFTAB2
 70
     6
  9
$SURFTYPE
 70
     6
  9
$SURFU
 70
     6
  9
$SURFV
 70
     6
  9
$UCSBASE
  2

  9
$UCSNAME
  2

  9
$UCSORG
 10
0.0
 20
0.0
 30
0.0
  9
$UCSXDIR
 10
1.0
 20
0.0
 30
0.0
  9
$UCSYDIR
 10
0.0
 20
1.0
 30
0.0
  9
$UCSORTHOREF
  2

  9
$UCSORTHOVIEW
 70
     0
  9
$UCSORGTOP
 10
0.0
 20
0.0
 30
0.0
  9
$UCSORGBOTTOM
 10
0.0
 20
0.0
 30
0.0
  9
$UCSORGLEFT
 10
0.0
 20
0.0
 30
0.0
  9
$UCSORGRIGHT
 10
0.0
 20
0.0
 30
0.0
  9
$UCSORGFRONT
 10
0.0
 20
0.0
 30
0.0
  9
$UCSORGBACK
 10
0.0
 20
0.0
 30
0.0
  9
$PUCSBASE
  2

  9
$PUCSNAME
  2

  9
$PUCSORG
 10
0.0
 20
0.0
 30
0.0
  9
$PUCSXDIR
 10
1.0
 20
0.0
 30
0.0
  9
$PUCSYDIR
 10
0.0
 20
1.0
 30
0.0
  9
$PUCSORTHOREF
  2

  9
$PUCSORTHOVIEW
 70
     0
  9
$PUCSORGTOP
 10
0.0
 20
0.0
 30
0.0
  9
$PUCSORGBOTTOM
 10
0.0
 20
0.0
 30
0.0
  9
$PUCSORGLEFT
 10
0.0
 20
0.0
 30
0.0
  9
$PUCSORGRIGHT
 10
0.0
 20
0.0
 30
0.0
  9
$PUCSORGFRONT
 10
0.0
 20
0.0
 30
0.0
  9
$PUCSORGBACK
 10
0.0
 20
0.0
 30
0.0
  9
$USERI1
 70
     0
  9
$USERI2
 70
     0
  9
$USERI3
 70
     0
  9
$USERI4
 70
     0
  9
$USERI5
 70
     0
  9
$USERR1
 40
0.0
  9
$USERR2
 40
0.0
  9
$USERR3
 40
0.0
  9
$USERR4
 40
0.0
  9
$USERR5
 40
0.0
  9
$WORLDVIEW
 70
     1
  9
$SHADEDGE
 70
     3
  9
$SHADEDIF
 70
    70
  9
$TILEMODE
 70
     1
  9
$MAXACTVP
 70
    64
  9
$PINSBASE
 10
0.0
 20
0.0
 30
0.0
  9
$PLIMCHECK
 70
     0
  9
$PEXTMIN
 10
0.0
 20
0.0
 30
0.0
  9
$PEXTMAX
 10
0.0
 20
0.0
 30
0.0
  9
$PLIMMIN
 10
0.0
 20
0.0
  9
$PLIMMAX
 10
12.0
 20
9.0
  9
$UNITMODE
 70
     0
  9
$VISRETAIN
 70
     1
  9
$PLINEGEN
 70
     0
  9
$PSLTSCALE
 70
     1
  9
$TREEDEPTH
 70
  3020
  9
$CMLSTYLE
  2
Standard
  9
$CMLJUST
 70
     0
  9
$CMLSCALE
 40
1.0
  9
$PROXYGRAPHICS
 70
     1
  9
$MEASUREMENT
 70
     1
  9
$CELWEIGHT
370
    -1
  9
$ENDCAPS
280
     0
  9
$JOINSTYLE
280
     0
  9
$LWDISPLAY
290
     0
  9
$INSUNITS
 70
     1
  9
$HYPERLINKBASE
  1

  9
$STYLESHEET
  1

  9
$XEDIT
290
     1
  9
$CEPSNTYPE
380
     0
  9
$PSTYLEMODE
290
     1
  9
$FINGERPRINTGUID
  2
{F428C498-2520-4006-83E7-316744D286FB}
  9
$VERSIONGUID
  2
{5DD0275F-3643-4190-9A01-51AAF6BBBB15}
  9
$EXTNAMES
290
     1
  9
$PSVPSCALE
 40
0.0
  9
$OLESTARTUP
290
     0
  0
ENDSEC
  0
SECTION
  2
CLASSES
  0
CLASS
  1
ACDBDICTIONARYWDFLT
  2
AcDbDictionaryWithDefault
  3
ObjectDBX Classes
 90
        0
280
     0
281
     0
  0
CLASS
  1
ACDBPLACEHOLDER
  2
AcDbPlaceHolder
  3
ObjectDBX Classes
 90
        0
280
     0
281
     0
  0
CLASS
  1
LAYOUT
  2
AcDbLayout
  3
ObjectDBX Classes
 90
        0
280
     0
281
     0
  0
CLASS
  1
DICTIONARYVAR
  2
AcDbDictionaryVar
  3
ObjectDBX Classes
 90
        0
280
     0
281
     0
  0
CLASS
  1
TABLESTYLE
  2
AcDbTableStyle
  3
ObjectDBX Classes
 90
     4095
280
     0
281
     0
  0
CLASS
  1
MATERIAL
  2
AcDbMaterial
  3
ObjectDBX Classes
 90
     1153
280
     0
281
     0
  0
CLASS
  1
VISUALSTYLE
  2
AcDbVisualStyle
  3
ObjectDBX Classes
 90
     4095
280
     0
281
     0
  0
CLASS
  1
SORTENTSTABLE
  2
AcDbSortentsTable
  3
ObjectDBX Classes
 90
        0
280
     0
281
     0
  0
CLASS
  1
DIMASSOC
  2
AcDbDimAssoc
  3
"AcDbDimAssoc|Product Desc:     AcDim ARX App For Dimension|Company:          Autodesk, Inc.|WEB Address:      www.autodesk.com"
 90
        0
280
     0
281
     0
  0
CLASS
  1
SCALE
  2
AcDbScale
  3
ObjectDBX Classes
 90
     1153
280
     0
281
     0
  0
CLASS
  1
MLEADERSTYLE
  2
AcDbMLeaderStyle
  3
ACDB_MLEADERSTYLE_CLASS
 90
     4095
280
     0
281
     0
  0
CLASS
  1
CELLSTYLEMAP
  2
AcDbCellStyleMap
  3
ObjectDBX Classes
 90
     1152
280
     0
281
     0
  0
CLASS
  1
AEC_REFEDIT_STATUS_TRACKER
  2
AecDbRefEditStatusTracker
  3
AecArchBase60|Product Desc: Autodesk Architectural Desktop 2007 |Company: Autodesk,Inc. |WEB Address: www.autodesk.com
 90
      129
280
     0
281
     0
  0
CLASS
  1
NPOCOLLECTION
  2
AcDbImpNonPersistentObjectsCollection
  3
ObjectDBX Classes
 90
     1153
280
     0
281
     0
  0
ENDSEC
  0
SECTION
  2
TABLES
  0
TABLE
  2
VPORT
  5
8
102
{ACAD_XDICTIONARY
360
AE9
102
}
330
0
100
AcDbSymbolTable
 70
     1
  0
VPORT
  5
94
330
8
100
AcDbSymbolTableRecord
100
AcDbViewportTableRecord
  2
*Active
 70
     0
 10
0.0
 20
0.0
 11
1.0
 21
1.0
 12
2362.36356010499
 22
184.8840794582518
 13
0.0
 23
0.0
 14
0.5
 24
0.5
 15
0.5
 25
0.5
 16
0.0
 26
0.0
 36
1.0
 17
0.0
 27
0.0
 37
0.0
 40
474.4735275560135
 41
1.489361702127659
 42
50.0
 43
0.0
 44
0.0
 50
0.0
 51
0.0
 71
     0
 72
  1000
 73
     1
 74
     2
 75
     0
 76
     0
 77
     0
 78
     0
281
     0
 65
     1
110
0.0
120
0.0
130
0.0
111
1.0
121
0.0
131
0.0
112
0.0
122
1.0
132
0.0
 79
     0
146
0.0
  0
ENDTAB
  0
TABLE
  2
LTYPE
  5
5
330
0
100
AcDbSymbolTable
 70
     5
  0
LTYPE
  5
14
330
5
100
AcDbSymbolTableRecord
100
AcDbLinetypeTableRecord
  2
ByBlock
 70
     0
  3

 72
    65
 73
     0
 40
0.0
  0
LTYPE
  5
15
330
5
100
AcDbSymbolTableRecord
100
AcDbLinetypeTableRecord
  2
ByLayer
 70
     0
  3

 72
    65
 73
     0
 40
0.0
  0
LTYPE
  5
16
330
5
100
AcDbSymbolTableRecord
100
AcDbLinetypeTableRecord
  2
Continuous
 70
     0
  3
Solid line
 72
    65
 73
     0
 40
0.0
  0
LTYPE
  5
148
330
5
100
AcDbSymbolTableRecord
100
AcDbLinetypeTableRecord
  2
CENTER
 70
     0
  3
Center ____ _ ____ _ ____ _ ____ _ ____ _ ____
 72
    65
 73
     4
 40
50.8
 49
31.75
 74
     0
 49
-6.349999999999997
 74
     0
 49
6.349999999999997
 74
     0
 49
-6.349999999999997
 74
     0
  0
LTYPE
  5
149
330
5
100
AcDbSymbolTableRecord
100
AcDbLinetypeTableRecord
  2
HIDDEN
 70
     0
  3
Hidden __ __ __ __ __ __ __ __ __ __ __ __ __ __
 72
    65
 73
     2
 40
9.524999999999996
 49
6.349999999999997
 74
     0
 49
-3.174999999999998
 74
     0
  0
LTYPE
  5
14A
330
5
100
AcDbSymbolTableRecord
100
AcDbLinetypeTableRecord
  2
PHANTOM
 70
     0
  3
Phantom ______  __  __  ______  __  __  ______
 72
    65
 73
     6
 40
63.5
 49
31.75
 74
     0
 49
-6.349999999999997
 74
     0
 49
6.349999999999997
 74
     0
 49
-6.349999999999997
 74
     0
 49
6.349999999999997
 74
     0
 49
-6.349999999999997
 74
     0
  0
ENDTAB
  0
TABLE
  2
LAYER
  5
2
102
{ACAD_XDICTIONARY
360
DD
102
}
330
0
100
AcDbSymbolTable
 70
     2
  0
LAYER
  5
10
102
{ACAD_XDICTIONARY
360
8E9
102
}
330
2
100
AcDbSymbolTableRecord
100
AcDbLayerTableRecord
  2
0
 70
     0
 62
     7
  6
Continuous
370
    -3
390
F
  0
LAYER
  5
D8
330
2
100
AcDbSymbolTableRecord
100
AcDbLayerTableRecord
  2
Defpoints
 70
     0
 62
     7
  6
Continuous
290
     0
370
    -3
390
F
  0
ENDTAB
  0
TABLE
  2
STYLE
  5
3
330
0
100
AcDbSymbolTable
 70
     6
  0
STYLE
  5
11
330
3
100
AcDbSymbolTableRecord
100
AcDbTextStyleTableRecord
  2
Standard
 70
     0
 40
0.0
 41
1.0
 50
0.0
 71
     0
 42
0.2
  3
txt.shx
  4
bigfont.shx
  0
STYLE
  5
11D
330
3
100
AcDbSymbolTableRecord
100
AcDbTextStyleTableRecord
  2
高3.2
 70
     0
 40
3.2
 41
1.0
 50
0.0
 71
     0
 42
3.2
  3
txt.shx
  4
bigfont.shx
  0
STYLE
  5
11E
330
3
100
AcDbSymbolTableRecord
100
AcDbTextStyleTableRecord
  2
高6.3
 70
     0
 40
6.299999999999998
 41
1.0
 50
0.0
 71
     0
 42
6.299999999999998
  3
txt.shx
  4
bigfont.shx
  0
STYLE
  5
11F
330
3
100
AcDbSymbolTableRecord
100
AcDbTextStyleTableRecord
  2
高2.5
 70
     0
 40
2.5
 41
1.0
 50
0.0
 71
     0
 42
0.2
  3
txt.shx
  4
bigfont.shx
  0
STYLE
  5
146
330
3
100
AcDbSymbolTableRecord
100
AcDbTextStyleTableRecord
  2
高4.5
 70
     0
 40
4.5
 41
1.0
 50
0.0
 71
     0
 42
6.299999999999998
  3
txt.shx
  4
bigfont.shx
  0
STYLE
  5
171
330
3
100
AcDbSymbolTableRecord
100
AcDbTextStyleTableRecord
  2
高2
 70
     0
 40
2.0
 41
1.0
 50
0.0
 71
     0
 42
6.299999999999998
  3
txt.shx
  4
bigfont.shx
  0
ENDTAB
  0
TABLE
  2
VIEW
  5
6
330
0
100
AcDbSymbolTable
 70
     0
  0
ENDTAB
  0
TABLE
  2
UCS
  5
7
330
0
100
AcDbSymbolTable
 70
     0
  0
ENDTAB
  0
TABLE
  2
APPID
  5
9
330
0
100
AcDbSymbolTable
 70
    12
  0
APPID
  5
12
330
9
100
AcDbSymbolTableRecord
100
AcDbRegAppTableRecord
  2
ACAD
 70
     0
  0
APPID
  5
DC
330
9
100
AcDbSymbolTableRecord
100
AcDbRegAppTableRecord
  2
ACAD_DSTYLE_DIMJOGGED_JOGANGLE_SYMBOL
 70
     0
  0
APPID
  5
3A5
330
9
100
AcDbSymbolTableRecord
100
AcDbRegAppTableRecord
  2
ACAD_EXEMPT_FROM_CAD_STANDARDS
 70
     0
  0
APPID
  5
70D
330
9
100
AcDbSymbolTableRecord
100
AcDbRegAppTableRecord
  2
ACAD_DSTYLE_DIMJAG
 70
     0
  0
APPID
  5
70E
330
9
100
AcDbSymbolTableRecord
100
AcDbRegAppTableRecord
  2
ACAD_DSTYLE_DIMBREAK
 70
     0
  0
APPID
  5
70F
330
9
100
AcDbSymbolTableRecord
100
AcDbRegAppTableRecord
  2
ACAD_DSTYLE_DIMTALN
 70
     0
  0
APPID
  5
B18
330
9
100
AcDbSymbolTableRecord
100
AcDbRegAppTableRecord
  2
ACAD_DSTYLE_DIMARC_LENGTH_SYMBOL
 70
     0
  0
APPID
  5
B19
330
9
100
AcDbSymbolTableRecord
100
AcDbRegAppTableRecord
  2
ACAD_DSTYLE_DIMEXT_LENGTH
 70
     0
  0
APPID
  5
B2E
330
9
100
AcDbSymbolTableRecord
100
AcDbRegAppTableRecord
  2
ACAD_MLEADERVER
 70
     0
  0
APPID
  5
F5A
330
9
100
AcDbSymbolTableRecord
100
AcDbRegAppTableRecord
  2
AcDbDynamicBlockGUID
 70
     0
  0
APPID
  5
F5B
330
9
100
AcDbSymbolTableRecord
100
AcDbRegAppTableRecord
  2
GradientColor1ACI
 70
     0
  0
APPID
  5
F5C
330
9
100
AcDbSymbolTableRecord
100
AcDbRegAppTableRecord
  2
GradientColor2ACI
 70
     0
  0
ENDTAB
  0
TABLE
  2
DIMSTYLE
  5
A
330
0
100
AcDbSymbolTable
 70
    10
100
AcDbDimStyleTable
 71
     5
340
D9
340
DB
340
DA
340
127
340
129
  0
DIMSTYLE
105
D9
330
A
100
AcDbSymbolTableRecord
100
AcDbDimStyleTableRecord
  2
1：1
 70
     0
 41
2.5
 42
0.25
 43
0.2
 44
1.25
 73
     0
 74
     0
 77
     3
 78
     8
 79
     2
140
3.0
141
0.0
143
0.03937007874016
147
0.625
171
     3
172
     1
178
     4
179
     1
271
     2
272
     2
274
     3
283
     0
284
     8
288
     1
289
     0
340
11
341
C6
342
C6
1001
ACAD_DSTYLE_DIMARC_LENGTH_SYMBOL
1070
   379
1070
     2
1001
ACAD_DSTYLE_DIMEXT_LENGTH
1070
   378
1040
1.25
1001
ACAD_DSTYLE_DIMJOGGED_JOGANGLE_SYMBOL
1070
   384
1040
1.570796326794896
  0
DIMSTYLE
105
DA
330
A
100
AcDbSymbolTableRecord
100
AcDbDimStyleTableRecord
  2
2：1
 70
     0
 41
2.5
 42
0.25
 43
0.2
 44
1.25
 73
     0
 74
     0
 77
     3
 78
     8
 79
     2
140
3.0
141
0.0
143
0.03937007874016
144
0.5
147
0.625
171
     3
172
     1
178
     4
179
     1
271
     2
272
     2
274
     3
283
     0
284
     8
288
     1
289
     0
340
11
341
C6
342
C6
1001
ACAD_DSTYLE_DIMARC_LENGTH_SYMBOL
1070
   379
1070
     2
1001
ACAD_DSTYLE_DIMEXT_LENGTH
1070
   378
1040
1.25
1001
ACAD_DSTYLE_DIMJOGGED_JOGANGLE_SYMBOL
1070
   384
1040
1.570796326794896
  0
DIMSTYLE
105
DB
330
A
100
AcDbSymbolTableRecord
100
AcDbDimStyleTableRecord
  2
5：1
 70
     0
 41
2.5
 42
0.25
 43
0.2
 44
1.25
 73
     0
 74
     0
 77
     3
 78
     8
 79
     2
140
3.0
141
0.0
143
0.03937007874016
144
0.2
147
0.625
171
     3
172
     1
178
     4
179
     1
271
     2
272
     2
274
     3
283
     0
284
     8
288
     1
289
     0
340
11
341
C6
342
C6
1001
ACAD_DSTYLE_DIMARC_LENGTH_SYMBOL
1070
   379
1070
     2
1001
ACAD_DSTYLE_DIMEXT_LENGTH
1070
   378
1040
1.25
1001
ACAD_DSTYLE_DIMJOGGED_JOGANGLE_SYMBOL
1070
   384
1040
1.570796326794896
  0
DIMSTYLE
105
127
330
A
100
AcDbSymbolTableRecord
100
AcDbDimStyleTableRecord
  2
10：1
 70
     0
 41
2.5
 42
0.25
 43
0.2
 44
1.25
 73
     0
 74
     0
 77
     3
 78
     8
 79
     2
140
3.0
141
0.0
143
0.03937007874016
144
0.1
147
0.625
171
     3
172
     1
178
     4
179
     1
271
     2
272
     2
274
     3
283
     0
284
     8
288
     1
289
     0
340
11
341
C6
342
C6
1001
ACAD_DSTYLE_DIMARC_LENGTH_SYMBOL
1070
   379
1070
     2
1001
ACAD_DSTYLE_DIMEXT_LENGTH
1070
   378
1040
1.25
1001
ACAD_DSTYLE_DIMJOGGED_JOGANGLE_SYMBOL
1070
   384
1040
1.570796326794896
  0
DIMSTYLE
105
128
330
A
100
AcDbSymbolTableRecord
100
AcDbDimStyleTableRecord
  2
1／2
 70
     0
 41
2.5
 42
0.25
 43
0.2
 44
1.25
 73
     0
 74
     0
 77
     3
 78
     8
 79
     2
140
3.0
141
0.0
143
0.03937007874016
144
2.0
147
0.625
171
     3
172
     1
178
     4
179
     1
271
     2
272
     2
274
     3
283
     0
284
     8
288
     1
289
     0
340
11
341
C6
342
C6
1001
ACAD_DSTYLE_DIMARC_LENGTH_SYMBOL
1070
   379
1070
     2
1001
ACAD_DSTYLE_DIMEXT_LENGTH
1070
   378
1040
1.25
1001
ACAD_DSTYLE_DIMJOGGED_JOGANGLE_SYMBOL
1070
   384
1040
1.570796326794896
  0
DIMSTYLE
105
129
330
A
100
AcDbSymbolTableRecord
100
AcDbDimStyleTableRecord
  2
1／5
 70
     0
 41
2.5
 42
0.25
 43
0.2
 44
1.25
 73
     0
 74
     0
 77
     3
 78
     8
 79
     2
140
3.0
141
0.0
143
0.03937007874016
144
5.0
147
0.625
171
     3
172
     1
178
     4
179
     1
271
     2
272
     2
274
     3
283
     0
284
     8
288
     1
289
     0
340
11
341
C6
342
C6
1001
ACAD_DSTYLE_DIMARC_LENGTH_SYMBOL
1070
   379
1070
     2
1001
ACAD_DSTYLE_DIMEXT_LENGTH
1070
   378
1040
1.25
1001
ACAD_DSTYLE_DIMJOGGED_JOGANGLE_SYMBOL
1070
   384
1040
1.570796326794896
  0
DIMSTYLE
105
12A
330
A
100
AcDbSymbolTableRecord
100
AcDbDimStyleTableRecord
  2
1／10
 70
     0
 41
2.5
 42
0.25
 43
0.2
 44
1.25
 73
     0
 74
     0
 77
     3
 78
     8
 79
     2
140
3.0
141
0.0
143
0.03937007874016
144
10.0
147
0.625
171
     3
172
     1
178
     4
179
     1
271
     2
272
     2
274
     3
283
     0
284
     8
288
     1
289
     0
340
11
341
C6
342
C6
1001
ACAD_DSTYLE_DIMARC_LENGTH_SYMBOL
1070
   379
1070
     2
1001
ACAD_DSTYLE_DIMEXT_LENGTH
1070
   378
1040
1.25
1001
ACAD_DSTYLE_DIMJOGGED_JOGANGLE_SYMBOL
1070
   384
1040
1.570796326794896
  0
DIMSTYLE
105
70A
330
A
100
AcDbSymbolTableRecord
100
AcDbDimStyleTableRecord
  2
1／4
 70
     0
 41
2.5
 42
0.25
 43
0.2
 44
1.25
 73
     0
 74
     0
 77
     3
 78
     8
 79
     2
140
3.0
141
0.0
143
0.03937007874016
144
4.0
147
0.625
171
     3
172
     1
178
     4
179
     1
271
     2
272
     2
274
     3
283
     0
284
     8
288
     1
289
     0
340
11
341
C6
342
C6
1001
ACAD_DSTYLE_DIMARC_LENGTH_SYMBOL
1070
   379
1070
     2
1001
ACAD_DSTYLE_DIMEXT_LENGTH
1070
   378
1040
1.25
1001
ACAD_DSTYLE_DIMJOGGED_JOGANGLE_SYMBOL
1070
   384
1040
1.570796326794896
  0
DIMSTYLE
105
70B
330
A
100
AcDbSymbolTableRecord
100
AcDbDimStyleTableRecord
  2
1／3
 70
     0
 41
2.5
 42
0.25
 43
0.2
 44
1.25
 73
     0
 74
     0
 77
     3
 78
     8
 79
     2
140
3.0
141
0.0
143
0.03937007874016
144
3.0
147
0.625
171
     3
172
     1
178
     4
179
     1
271
     2
272
     2
274
     3
283
     0
284
     8
288
     1
289
     0
340
11
341
C6
342
C6
1001
ACAD_DSTYLE_DIMARC_LENGTH_SYMBOL
1070
   379
1070
     2
1001
ACAD_DSTYLE_DIMEXT_LENGTH
1070
   378
1040
1.25
1001
ACAD_DSTYLE_DIMJOGGED_JOGANGLE_SYMBOL
1070
   384
1040
1.570796326794896
  0
DIMSTYLE
105
70C
330
A
100
AcDbSymbolTableRecord
100
AcDbDimStyleTableRecord
  2
FREE
 70
     0
 41
2.5
 42
0.25
 43
0.2
 44
1.25
 73
     0
 74
     0
 77
     3
 78
     8
 79
     2
140
3.0
141
0.0
143
0.03937007874016
147
0.625
171
     3
172
     1
178
     4
179
     1
271
     2
272
     2
274
     3
283
     0
284
     8
288
     1
289
     0
340
11
341
C6
342
C6
1001
ACAD_DSTYLE_DIMBREAK
1070
   391
1040
3.75
1001
ACAD_DSTYLE_DIMJAG
1070
   388
1040
1.5
1001
ACAD_DSTYLE_DIMTALN
1070
   392
1070
     0
1001
ACAD_DSTYLE_DIMARC_LENGTH_SYMBOL
1070
   379
1070
     2
1001
ACAD_DSTYLE_DIMEXT_LENGTH
1070
   378
1040
1.25
1001
ACAD_DSTYLE_DIMJOGGED_JOGANGLE_SYMBOL
1070
   384
1040
1.570796326794896
  0
ENDTAB
  0
TABLE
  2
BLOCK_RECORD
  5
1
330
0
100
AcDbSymbolTable
 70
    14
  0
BLOCK_RECORD
  5
1F
102
{ACAD_XDICTIONARY
360
324
102
}
330
1
100
AcDbSymbolTableRecord
100
AcDbBlockTableRecord
  2
*Model_Space
340
22
  0
BLOCK_RECORD
  5
58
330
1
100
AcDbSymbolTableRecord
100
AcDbBlockTableRecord
  2
*Paper_Space
340
59
  0
BLOCK_RECORD
  5
5D
330
1
100
AcDbSymbolTableRecord
100
AcDbBlockTableRecord
  2
*Paper_Space0
340
5E
  0
BLOCK_RECORD
  5
C6
330
1
100
AcDbSymbolTableRecord
100
AcDbBlockTableRecord
  2
_Open30
340
0
102
{BLKREFS
331
F47
331
F48
331
F53
331
F54
331
17DB
331
17DC
331
17E4
331
17E5
331
20C9
331
20CA
331
2216
331
2217
331
221F
331
2220
331
2228
331
2229
331
2231
331
2232
102
}
  0
BLOCK_RECORD
  5
E22
102
{ACAD_XDICTIONARY
360
F2C
102
}
330
1
100
AcDbSymbolTableRecord
100
AcDbBlockTableRecord
  2
A$C769D123E
340
0
1001
ACAD
1000
DesignCenter Data
1002
{
1070
     1
1070
     1
1002
}
  0
BLOCK_RECORD
  5
F36
102
{ACAD_XDICTIONARY
360
F37
102
}
330
1
100
AcDbSymbolTableRecord
100
AcDbBlockTableRecord
  2
A$C40587263
340
0
1001
AcDbDynamicBlockGUID
1000
{0EC1162F-8245-4081-8A99-67F3C098E888}
1001
ACAD
1000
DesignCenter Data
1002
{
1070
     1
1070
     1
1002
}
  0
BLOCK_RECORD
  5
F42
330
1
100
AcDbSymbolTableRecord
100
AcDbBlockTableRecord
  2
*D4
340
0
  0
BLOCK_RECORD
  5
F4E
330
1
100
AcDbSymbolTableRecord
100
AcDbBlockTableRecord
  2
*D5
340
0
  0
BLOCK_RECORD
  5
1644
330
1
100
AcDbSymbolTableRecord
100
AcDbBlockTableRecord
  2
*D6
340
0
  0
BLOCK_RECORD
  5
1650
330
1
100
AcDbSymbolTableRecord
100
AcDbBlockTableRecord
  2
*D7
340
0
  0
BLOCK_RECORD
  5
19A0
330
1
100
AcDbSymbolTableRecord
100
AcDbBlockTableRecord
  2
*D8
340
0
  0
BLOCK_RECORD
  5
1A08
330
1
100
AcDbSymbolTableRecord
100
AcDbBlockTableRecord
  2
*D9
340
0
  0
BLOCK_RECORD
  5
1A20
330
1
100
AcDbSymbolTableRecord
100
AcDbBlockTableRecord
  2
*D10
340
0
  0
BLOCK_RECORD
  5
1A38
330
1
100
AcDbSymbolTableRecord
100
AcDbBlockTableRecord
  2
*D11
340
0
  0
BLOCK_RECORD
  5
1A50
330
1
100
AcDbSymbolTableRecord
100
AcDbBlockTableRecord
  2
*D12
340
0
  0
BLOCK_RECORD
  5
1A6F
330
1
100
AcDbSymbolTableRecord
100
AcDbBlockTableRecord
  2
_DotSmall
340
0
  0
ENDTAB
  0
ENDSEC
  0
SECTION
  2
BLOCKS
  0
BLOCK
  5
20
330
1F
100
AcDbEntity
  8
0
100
AcDbBlockBegin
  2
*Model_Space
 70
     0
 10
0.0
 20
0.0
 30
0.0
  3
*Model_Space
  1

  0
ENDBLK
  5
21
330
1F
100
AcDbEntity
  8
0
100
AcDbBlockEnd
  0
BLOCK
  5
5A
330
58
100
AcDbEntity
 67
     1
  8
0
100
AcDbBlockBegin
  2
*Paper_Space
 70
     0
 10
0.0
 20
0.0
 30
0.0
  3
*Paper_Space
  1

  0
ENDBLK
  5
5B
330
58
100
AcDbEntity
 67
     1
  8
0
100
AcDbBlockEnd
  0
BLOCK
  5
5F
330
5D
100
AcDbEntity
 67
     1
  8
0
100
AcDbBlockBegin
  2
*Paper_Space0
 70
     0
 10
0.0
 20
0.0
 30
0.0
  3
*Paper_Space0
  1

  0
ENDBLK
  5
60
330
5D
100
AcDbEntity
 67
     1
  8
0
100
AcDbBlockEnd
  0
BLOCK
  5
C7
330
C6
100
AcDbEntity
  8
0
100
AcDbBlockBegin
  2
_Open30
 70
     0
 10
0.0
 20
0.0
 30
0.0
  3
_Open30
  1

  0
LINE
  5
C8
330
C6
100
AcDbEntity
  8
0
  6
ByBlock
 62
     0
370
    -2
100
AcDbLine
 10
-1.0
 20
0.267949
 30
0.0
 11
0.0
 21
0.0
 31
0.0
  0
LINE
  5
C9
330
C6
100
AcDbEntity
  8
0
  6
ByBlock
 62
     0
370
    -2
100
AcDbLine
 10
0.0
 20
0.0
 30
0.0
 11
-1.0
 21
-0.267949
 31
0.0
  0
LINE
  5
CA
330
C6
100
AcDbEntity
  8
0
  6
ByBlock
 62
     0
370
    -2
100
AcDbLine
 10
0.0
 20
0.0
 30
0.0
 11
-1.0
 21
0.0
 31
0.0
  0
ENDBLK
  5
CB
330
C6
100
AcDbEntity
  8
0
100
AcDbBlockEnd
  0
BLOCK
  5
F2E
330
E22
100
AcDbEntity
  8
0
100
AcDbBlockBegin
  2
A$C769D123E
 70
     0
 10
0.0
 20
0.0
 30
0.0
  3
A$C769D123E
  1

  0
LINE
  5
E23
330
E22
100
AcDbEntity
  8
0
 62
     3
100
AcDbLine
 10
19.99999818659637
 20
283.9999999941307
 30
0.0
 11
19.99999818659637
 21
9.999999994130716
 31
0.0
  0
LINE
  5
E24
330
E22
100
AcDbEntity
  8
0
 62
     3
100
AcDbLine
 10
409.9999981865964
 20
9.999999994130716
 30
0.0
 11
409.9999981865964
 21
283.9999999941307
 31
0.0
  0
LINE
  5
E25
330
E22
100
AcDbEntity
  8
0
 62
     3
100
AcDbLine
 10
19.99999818659637
 20
9.999999994130716
 30
0.0
 11
409.9999981865964
 21
9.999999994130716
 31
0.0
  0
LINE
  5
E26
330
E22
100
AcDbEntity
  8
0
 62
     3
100
AcDbLine
 10
238.6567233665965
 20
283.9999999941307
 30
0.0
 11
409.9999981865962
 21
283.9999999941307
 31
0.0
  0
LINE
  5
E27
330
E22
100
AcDbEntity
  8
0
 62
     3
100
AcDbLine
 10
190.1026886965965
 20
283.9999999941307
 30
0.0
 11
19.99999818659637
 21
283.9999999941307
 31
0.0
  0
LINE
  5
E28
330
E22
100
AcDbEntity
  8
0
 62
     3
100
AcDbLine
 10
7.598074396596302
 20
150.4446389441306
 30
0.0
 11
4.99999818659637
 21
148.9446389441306
 31
0.0
  0
LINE
  5
E29
330
E22
100
AcDbEntity
  8
0
 62
     3
100
AcDbLine
 10
7.598074396596302
 20
150.4446389441306
 30
0.0
 11
4.99999818659637
 21
151.9446389441307
 31
0.0
  0
LINE
  5
E2A
330
E22
100
AcDbEntity
  8
0
 62
     3
100
AcDbLine
 10
4.99999818659637
 20
148.9446389441306
 30
0.0
 11
4.99999818659637
 21
151.9446389441307
 31
0.0
  0
LINE
  5
E2B
330
E22
100
AcDbEntity
  8
0
 62
   254
370
     0
100
AcDbLine
 10
-0.0000018134035145
 20
-0.0000000058692819
 30
0.0
 11
-0.0000018134035145
 21
291.9999999941307
 31
0.0
  0
LINE
  5
E2C
330
E22
100
AcDbEntity
  8
0
 62
   254
370
     0
100
AcDbLine
 10
-0.0000018134035145
 20
291.9999999941307
 30
0.0
 11
419.9999981865961
 21
291.9999999941307
 31
0.0
  0
LINE
  5
E2D
330
E22
100
AcDbEntity
  8
0
 62
     3
100
AcDbLine
 10
357.9999981865965
 20
9.999999994130716
 30
0.0
 11
357.9999981865965
 21
49.99999999413072
 31
0.0
  0
LINE
  5
E2E
330
E22
100
AcDbEntity
  8
0
 62
     3
100
AcDbLine
 10
370.9999981865966
 20
19.99999999413072
 30
0.0
 11
370.9999981865966
 21
47.9999999941307
 31
0.0
  0
LINE
  5
E2F
330
E22
100
AcDbEntity
  8
0
 62
     3
100
AcDbLine
 10
330.9999981865965
 20
19.99999999413072
 30
0.0
 11
330.9999981865965
 21
33.99999999413072
 31
0.0
  0
LINE
  5
E30
330
E22
100
AcDbEntity
  8
0
 62
     3
100
AcDbLine
 10
340.9999981865965
 20
33.99999999413072
 30
0.0
 11
340.9999981865965
 21
9.999999994130716
 31
0.0
  0
LINE
  5
E31
330
E22
100
AcDbEntity
  8
0
 62
     3
100
AcDbLine
 10
311.9999981865965
 20
49.99999999413072
 30
0.0
 11
311.9999981865965
 21
26.99999999413072
 31
0.0
  0
LINE
  5
E32
330
E22
100
AcDbEntity
  8
0
 62
     3
100
AcDbLine
 10
370.9999981865966
 20
47.9999999941307
 30
0.0
 11
370.9999981865966
 21
49.99999999413072
 31
0.0
  0
LINE
  5
E33
330
E22
100
AcDbEntity
  8
0
 62
     3
100
AcDbLine
 10
383.9999981865966
 20
26.99999999413072
 30
0.0
 11
383.9999981865966
 21
49.99999999413072
 31
0.0
  0
LINE
  5
E34
330
E22
100
AcDbEntity
  8
0
 62
     3
100
AcDbLine
 10
409.9999981865964
 20
49.99999999413072
 30
0.0
 11
298.7545635465965
 21
49.99999999413073
 31
0.0
  0
LINE
  5
E35
330
E22
100
AcDbEntity
  8
0
 62
     3
100
AcDbLine
 10
409.9999981865964
 20
40.9999999941307
 30
0.0
 11
298.7545635465965
 21
40.9999999941307
 31
0.0
  0
LINE
  5
E36
330
E22
100
AcDbEntity
  8
0
 62
     3
100
AcDbLine
 10
409.9999981865964
 20
26.99999999413072
 30
0.0
 11
298.7545635465965
 21
26.99999999413072
 31
0.0
  0
LINE
  5
E37
330
E22
100
AcDbEntity
  8
0
 62
     3
100
AcDbLine
 10
409.9999981865964
 20
19.99999999413072
 30
0.0
 11
298.6965556865964
 21
19.99999999413072
 31
0.0
  0
LINE
  5
E38
330
E22
100
AcDbEntity
  8
0
 62
     3
100
AcDbLine
 10
396.9999981865965
 20
26.99999999413072
 30
0.0
 11
396.9999981865965
 21
49.99999999413072
 31
0.0
  0
LINE
  5
E39
330
E22
100
AcDbEntity
  8
0
 62
     3
100
AcDbLine
 10
298.7545635465965
 20
49.99999999413073
 30
0.0
 11
298.7545635465965
 21
9.999999994130716
 31
0.0
  0
LINE
  5
E3A
330
E22
100
AcDbEntity
  8
0
 62
     3
100
AcDbLine
 10
357.9999981865965
 20
33.99999999413072
 30
0.0
 11
298.7545635465965
 21
33.99999999413071
 31
0.0
  0
LINE
  5
E3B
330
E22
100
AcDbEntity
  8
0
 62
     3
100
AcDbLine
 10
341.2783231165963
 20
14.8328612541307
 30
0.0
 11
357.9999981865965
 21
14.8328612541307
 31
0.0
  0
TEXT
  5
E3C
330
E22
100
AcDbEntity
  8
0
 62
     3
100
AcDbText
 10
342.1643235999122
 20
29.07309684749606
 30
0.0
 40
2.5
  1
******
  7
高2.5
100
AcDbText
  0
TEXT
  5
E3D
330
E22
100
AcDbEntity
  8
0
 62
     3
100
AcDbText
 10
313.1963668818487
 20
29.29781439911463
 30
0.0
 40
2.5
  1
*****
  7
高2.5
100
AcDbText
  0
TEXT
  5
E3E
330
E22
100
AcDbEntity
  8
0
 62
     3
100
AcDbText
 10
313.461274636546
 20
42.3122495178886
 30
0.0
 40
4.5
  1
**********
  7
高4.5
100
AcDbText
1001
ACAD
1000
ACAD_MTEXT_DEFINED_HEIGHT_BEGIN
1070
    46
1040
0.0
1000
ACAD_MTEXT_DEFINED_HEIGHT_END
  0
TEXT
  5
E3F
330
E22
100
AcDbEntity
  8
0
 62
     3
100
AcDbText
 10
400.0655872800703
 20
46.5136920928343
 30
0.0
 40
2.0
  1
DEF
  7
高2
100
AcDbText
  0
TEXT
  5
E40
330
E22
100
AcDbEntity
  8
0
 62
     3
100
AcDbText
 10
386.1264889263623
 20
46.51369209283421
 30
0.0
 40
2.0
  1
DESN
  7
高2
100
AcDbText
  0
TEXT
  5
E41
330
E22
100
AcDbEntity
  8
0
 62
     3
100
AcDbText
 10
359.8721219863622
 20
46.5136920928343
 30
0.0
 40
2.0
  1
APPD
  7
高2
100
AcDbText
  0
TEXT
  5
E42
330
E22
100
AcDbEntity
  8
0
 62
     3
100
AcDbText
 10
372.9848580865964
 20
46.51369209283433
 30
0.0
 40
2.0
  1
CHCK
  7
高2
100
AcDbText
  0
TEXT
  5
E43
330
E22
100
AcDbEntity
  8
0
 62
     3
100
AcDbText
 10
331.9271638257492
 20
24.16839881736144
 30
0.0
 40
2.0
  1
SCALE
 41
0.8
  7
高2
100
AcDbText
  0
TEXT
  5
E44
330
E22
100
AcDbEntity
  8
0
 62
     3
100
AcDbText
 10
300.4391422496427
 20
24.16839881736145
 30
0.0
 40
2.0
  1
3AD　ANGLE
 41
1.5
  7
高2
100
AcDbText
  0
TEXT
  5
E45
330
E22
100
AcDbEntity
  8
0
 62
     3
100
AcDbText
 10
331.196569516598
 20
30.91993688631854
 30
0.0
 40
2.0
  1
REMARKS
 41
0.7
  7
高2
100
AcDbText
  0
TEXT
  5
E46
330
E22
100
AcDbEntity
  8
0
 62
     3
100
AcDbText
 10
300.2222338965964
 20
30.99999999413072
 30
0.0
 40
2.0
  1
MATERIAL
 41
0.7
  7
高2
100
AcDbText
  0
TEXT
  5
E47
330
E22
100
AcDbEntity
  8
0
 62
     3
100
AcDbText
 10
300.7987210993507
 20
37.99999999413071
 30
0.0
 40
2.0
  1
MODEL
  7
高2
100
AcDbText
  0
TEXT
  5
E48
330
E22
100
AcDbEntity
  8
0
 62
     3
100
AcDbText
 10
300.4356419806818
 20
46.7070213447297
 30
0.0
 40
2.0
  1
CONPONENTS
 41
0.5
  7
高2
100
AcDbText
  0
TEXT
  5
E49
330
E22
100
AcDbEntity
  8
0
 62
     3
100
AcDbText
 10
313.1427574518486
 20
35.08748112194266
 30
0.0
 40
4.5
  1
********
  7
高4.5
100
AcDbText
  0
TEXT
  5
E4A
330
E22
100
AcDbEntity
  8
0
 62
     3
100
AcDbText
 10
361.0953416256493
 20
11.14419095096582
 30
0.0
 40
6.299999999999998
  1
*-********
 41
0.6
  7
高6.3
100
AcDbText
1001
ACAD
1000
ACAD_MTEXT_DEFINED_HEIGHT_BEGIN
1070
    46
1040
0.0
1000
ACAD_MTEXT_DEFINED_HEIGHT_END
  0
TEXT
  5
E4B
330
E22
100
AcDbEntity
  8
0
 62
     3
100
AcDbText
 10
374.563507936926
 20
21.10088915236372
 30
0.0
 40
3.2
  1
******
  7
高3.2
100
AcDbText
1001
ACAD
1000
ACAD_MTEXT_DEFINED_HEIGHT_BEGIN
1070
    46
1040
0.0
1000
ACAD_MTEXT_DEFINED_HEIGHT_END
  0
TEXT
  5
E4C
330
E22
100
AcDbEntity
  8
0
 62
     3
100
AcDbText
 10
344.7875960812428
 20
21.10091699669859
 30
0.0
 40
3.2
  1
1/1
  7
高3.2
100
AcDbText
  0
TEXT
  5
E4D
330
E22
100
AcDbEntity
  8
0
 62
     3
100
AcDbText
 10
341.8649250565963
 20
10.81687816726668
 30
0.0
 40
3.2
  1
ZK-A3X
 41
0.8
  7
高3.2
100
AcDbText
  0
TEXT
  5
E4E
330
E22
100
AcDbEntity
  8
0
 62
     3
100
AcDbText
 10
299.5852645865964
 20
16.52462041631854
 30
0.0
 40
2.0
  1
NICHIDO IND.CO.LTD
 41
1.3
  7
高2
100
AcDbText
  0
TEXT
  5
E4F
330
E22
100
AcDbEntity
  8
0
 62
     3
100
AcDbText
 10
300.7667878515535
 20
42.14052820201565
 30
0.0
 40
3.2
  1
品 名
  7
高3.2
100
AcDbText
1001
ACAD
1000
ACAD_MTEXT_DEFINED_HEIGHT_BEGIN
1070
    46
1040
0.0
1000
ACAD_MTEXT_DEFINED_HEIGHT_END
  0
TEXT
  5
E50
330
E22
100
AcDbEntity
  8
0
 62
     3
100
AcDbText
 10
300.7667878515535
 20
34.49999999413071
 30
0.0
 40
3.2
  1
型 式
  7
高3.2
100
AcDbText
1001
ACAD
1000
ACAD_MTEXT_DEFINED_HEIGHT_BEGIN
1070
    46
1040
3.064735913775952
1000
ACAD_MTEXT_DEFINED_HEIGHT_END
  0
TEXT
  5
E51
330
E22
100
AcDbEntity
  8
0
 62
     3
100
AcDbText
 10
300.7667878515535
 20
27.49999999413072
 30
0.0
 40
3.2
  1
材 質
  7
高3.2
100
AcDbText
1001
ACAD
1000
ACAD_MTEXT_DEFINED_HEIGHT_BEGIN
1070
    46
1040
0.0
1000
ACAD_MTEXT_DEFINED_HEIGHT_END
  0
TEXT
  5
E52
330
E22
100
AcDbEntity
  8
0
 62
     3
100
AcDbText
 10
300.4617529015536
 20
20.46743998637696
 30
0.0
 40
3.2
  1
第 三 角 法
  7
高3.2
100
AcDbText
1001
ACAD
1000
ACAD_MTEXT_DEFINED_HEIGHT_BEGIN
1070
    46
1040
0.0
1000
ACAD_MTEXT_DEFINED_HEIGHT_END
  0
TEXT
  5
E53
330
E22
100
AcDbEntity
  8
0
 62
     3
100
AcDbText
 10
298.8682855090824
 20
11.14052820201564
 30
0.0
 40
3.2
  1
日動工業株式会社
 41
1.199999999999999
  7
高3.2
100
AcDbText
1001
ACAD
1000
ACAD_MTEXT_DEFINED_HEIGHT_BEGIN
1070
    46
1040
0.0
1000
ACAD_MTEXT_DEFINED_HEIGHT_END
  0
TEXT
  5
E54
330
E22
100
AcDbEntity
  8
0
 62
     3
100
AcDbText
 10
332.503909708561
 20
27.38457852729828
 30
0.0
 40
3.2
  1
備考
  7
高3.2
100
AcDbText
1001
ACAD
1000
ACAD_MTEXT_DEFINED_HEIGHT_BEGIN
1070
    46
1040
0.0
1000
ACAD_MTEXT_DEFINED_HEIGHT_END
  0
TEXT
  5
E55
330
E22
100
AcDbEntity
  8
0
 62
     3
100
AcDbText
 10
342.1529671555963
 20
16.14623001970101
 30
0.0
 40
2.5
  1
出図コード
  7
高2.5
100
AcDbText
1001
ACAD
1000
ACAD_MTEXT_DEFINED_HEIGHT_BEGIN
1070
    46
1040
0.0
1000
ACAD_MTEXT_DEFINED_HEIGHT_END
  0
TEXT
  5
E56
330
E22
100
AcDbEntity
  8
0
 62
     3
100
AcDbText
 10
332.3451435904735
 20
20.45323490454364
 30
0.0
 40
3.2
  1
尺度
  7
高3.2
100
AcDbText
1001
ACAD
1000
ACAD_MTEXT_DEFINED_HEIGHT_BEGIN
1070
    46
1040
0.0
1000
ACAD_MTEXT_DEFINED_HEIGHT_END
  0
TEXT
  5
E57
330
E22
100
AcDbEntity
  8
0
 62
     3
100
AcDbText
 10
359.4914050722524
 20
21.58471335266113
 30
0.0
 40
3.2
  1
作成日
  7
高3.2
100
AcDbText
1001
ACAD
1000
ACAD_MTEXT_DEFINED_HEIGHT_BEGIN
1070
    46
1040
0.0
1000
ACAD_MTEXT_DEFINED_HEIGHT_END
  0
TEXT
  5
E58
330
E22
100
AcDbEntity
  8
0
 62
     3
100
AcDbText
 10
359.3858790791162
 20
42.14052820201565
 30
0.0
 40
3.2
  1
承 認
  7
高3.2
100
AcDbText
1001
ACAD
1000
ACAD_MTEXT_DEFINED_HEIGHT_BEGIN
1070
    46
1040
0.0
1000
ACAD_MTEXT_DEFINED_HEIGHT_END
  0
TEXT
  5
E59
330
E22
100
AcDbEntity
  8
0
 62
     3
100
AcDbText
 10
372.3858790791162
 20
42.14052820201565
 30
0.0
 40
3.2
  1
検 図
  7
高3.2
100
AcDbText
1001
ACAD
1000
ACAD_MTEXT_DEFINED_HEIGHT_BEGIN
1070
    46
1040
0.0
1000
ACAD_MTEXT_DEFINED_HEIGHT_END
  0
TEXT
  5
E5A
330
E22
100
AcDbEntity
  8
0
 62
     3
100
AcDbText
 10
385.3858790791162
 20
42.14052820201565
 30
0.0
 40
3.2
  1
設 計
  7
高3.2
100
AcDbText
1001
ACAD
1000
ACAD_MTEXT_DEFINED_HEIGHT_BEGIN
1070
    46
1040
0.0
1000
ACAD_MTEXT_DEFINED_HEIGHT_END
  0
TEXT
  5
E5B
330
E22
100
AcDbEntity
  8
0
 62
     3
100
AcDbText
 10
398.6865155991162
 20
42.14052820201565
 30
0.0
 40
3.2
  1
製 図
  7
高3.2
100
AcDbText
1001
ACAD
1000
ACAD_MTEXT_DEFINED_HEIGHT_BEGIN
1070
    46
1040
0.0
1000
ACAD_MTEXT_DEFINED_HEIGHT_END
  0
LINE
  5
E5C
330
E22
100
AcDbEntity
  8
0
 62
     3
100
AcDbLine
 10
198.9789907271299
 20
286.3329566777442
 30
0.0
 11
198.9789907271299
 21
281.5981987292973
 31
0.0
  0
LINE
  5
E5D
330
E22
100
AcDbEntity
  8
0
 62
     3
100
AcDbLine
 10
199.9441995486006
 20
284.4845004919676
 30
0.0
 11
199.9441995486006
 21
281.5981987292973
 31
0.0
  0
LINE
  5
E5E
330
E22
100
AcDbEntity
  8
0
 62
     3
100
AcDbLine
 10
202.6530537345975
 20
286.3329566777442
 30
0.0
 11
202.6530537345975
 21
284.2481715114516
 31
0.0
  0
LINE
  5
E5F
330
E22
100
AcDbEntity
  8
0
 62
     3
100
AcDbLine
 10
203.6182615442728
 20
286.3329566777442
 30
0.0
 11
203.6182615442728
 21
280.9636161488519
 31
0.0
  0
LINE
  5
E60
330
E22
100
AcDbEntity
  8
0
 62
     3
100
AcDbLine
 10
205.1557182373362
 20
286.3004355000498
 30
0.0
 11
205.1557182373362
 21
281.5657352239116
 31
0.0
  0
LINE
  5
E61
330
E22
100
AcDbEntity
  8
0
 62
     3
100
AcDbLine
 10
206.6850300305421
 20
286.3004142523569
 30
0.0
 11
206.6850300305421
 21
281.5657139762189
 31
0.0
  0
LINE
  5
E62
330
E22
100
AcDbEntity
  8
0
 62
     3
100
AcDbLine
 10
212.3469265326846
 20
286.3003434267143
 30
0.0
 11
212.3468435655034
 21
281.5656441623712
 31
0.0
  0
LINE
  5
E63
330
E22
100
AcDbEntity
  8
0
 62
     3
100
AcDbLine
 10
217.0254013665763
 20
286.3003434267143
 30
0.0
 11
217.0254843337575
 21
281.5656441623712
 31
0.0
  0
LINE
  5
E64
330
E22
100
AcDbEntity
  8
0
 62
     3
100
AcDbLine
 10
215.4632021921434
 20
284.2375354573091
 30
0.0
 11
213.9091257071175
 21
284.2375354573091
 31
0.0
  0
LINE
  5
E65
330
E22
100
AcDbEntity
  8
0
 62
     3
100
AcDbLine
 10
215.4631920741945
 20
283.6285927712666
 30
0.0
 11
213.9091368368613
 21
283.6285927712666
 31
0.0
  0
LINE
  5
E66
330
E22
100
AcDbEntity
  8
0
 62
     3
100
AcDbLine
 10
215.4632386167596
 20
286.3003434267143
 30
0.0
 11
215.4632021921434
 21
284.2375354573091
 31
0.0
  0
LINE
  5
E67
330
E22
100
AcDbEntity
  8
0
 62
     3
100
AcDbLine
 10
215.4631920741945
 20
283.6285927712666
 30
0.0
 11
215.4631556495781
 21
281.5656441623712
 31
0.0
  0
LINE
  5
E68
330
E22
100
AcDbEntity
  8
0
 62
     3
100
AcDbLine
 10
213.9090892825013
 20
286.3003434267143
 30
0.0
 11
213.9091257071175
 21
284.2375354573091
 31
0.0
  0
LINE
  5
E69
330
E22
100
AcDbEntity
  8
0
 62
     3
100
AcDbLine
 10
213.9091368368613
 20
283.6285927712666
 30
0.0
 11
213.9091722496825
 21
281.5656441623712
 31
0.0
  0
LINE
  5
E6A
330
E22
100
AcDbEntity
  8
0
 62
     3
100
AcDbLine
 10
218.566574246064
 20
286.3003434267143
 30
0.0
 11
218.5664912788827
 21
281.5656441623712
 31
0.0
  0
LINE
  5
E6B
330
E22
100
AcDbEntity
  8
0
 62
     3
100
AcDbLine
 10
220.0958536618334
 20
286.3003434267143
 30
0.0
 11
220.0959356172195
 21
281.5656441623712
 31
0.0
  0
LINE
  5
E6C
330
E22
100
AcDbEntity
  8
0
 62
     3
100
AcDbLine
 10
221.6547809851429
 20
286.3003434267143
 30
0.0
 11
221.6546990297565
 21
281.5656441623712
 31
0.0
  0
ARC
  5
E6D
330
E22
100
AcDbEntity
  8
0
 62
     3
100
AcDbCircle
 10
210.0510690009655
 20
283.9466363309928
 30
0.0
 40
3.015561595733376
100
AcDbArc
 50
97.70152400000624
 51
266.0248408089489
  0
ARC
  5
E6E
330
E22
100
AcDbEntity
  8
0
 62
     3
100
AcDbCircle
 10
228.2489679580369
 20
283.9163452154633
 30
0.0
 40
3.048311372854727
100
AcDbArc
 50
0.3142499999975672
 51
69.00558200000452
  0
ARC
  5
E6F
330
E22
100
AcDbEntity
  8
0
 62
     3
100
AcDbCircle
 10
228.9148372601874
 20
283.9163452154633
 30
0.0
 40
3.048311372854727
100
AcDbArc
 50
110.9944179999954
 51
148.1166110000009
  0
ARC
  5
E70
330
E22
100
AcDbEntity
  8
0
 62
     3
100
AcDbCircle
 10
228.2489679580369
 20
283.9497830131125
 30
0.0
 40
3.048311372854727
100
AcDbArc
 50
290.9944179999955
 51
359.6857499999992
  0
ARC
  5
E71
330
E22
100
AcDbEntity
  8
0
 62
     3
100
AcDbCircle
 10
228.9148372601874
 20
283.9497830131125
 30
0.0
 40
3.048311372854727
100
AcDbArc
 50
211.8833889999971
 51
249.0055820000045
  0
ARC
  5
E72
330
E22
100
AcDbEntity
  8
0
 62
     3
100
AcDbCircle
 10
228.5819031150095
 20
285.1801812526487
 30
0.0
 40
1.754843910410663
100
AcDbArc
 50
64.36517200000682
 51
115.6348279999931
  0
ARC
  5
E73
330
E22
100
AcDbEntity
  8
0
 62
     3
100
AcDbCircle
 10
228.5819031150095
 20
282.6859469759272
 30
0.0
 40
1.754843910410663
100
AcDbArc
 50
244.3651720000068
 51
295.6348279999931
  0
ARC
  5
E74
330
E22
100
AcDbEntity
  8
0
 62
     3
100
AcDbCircle
 10
228.5819031150095
 20
285.2135158472186
 30
0.0
 40
0.8612620730595795
100
AcDbArc
 50
19.48660600000012
 51
160.5133939999998
  0
ARC
  5
E75
330
E22
100
AcDbEntity
  8
0
 62
     3
100
AcDbCircle
 10
228.5819031150095
 20
282.6526133931521
 30
0.0
 40
0.8612620730595795
100
AcDbArc
 50
199.4866060000001
 51
340.5133939999999
  0
LINE
  5
E76
330
E22
100
AcDbEntity
  8
0
 62
     3
100
AcDbLine
 10
220.6021646478169
 20
280.9311030655166
 30
0.0
 11
218.0602632600805
 21
280.9311030655166
 31
0.0
  0
LINE
  5
E77
330
E22
100
AcDbEntity
  8
0
 62
     3
100
AcDbLine
 10
220.6021646478169
 20
281.2368978362588
 30
0.0
 11
220.6021646478169
 21
280.9311030655166
 31
0.0
  0
LINE
  5
E78
330
E22
100
AcDbEntity
  8
0
 62
     3
100
AcDbLine
 10
217.5317133643546
 20
286.9348824999793
 30
0.0
 11
214.9569276307762
 21
286.9348824999793
 31
0.0
  0
LINE
  5
E79
330
E22
100
AcDbEntity
  8
0
 62
     3
100
AcDbLine
 10
217.5317133643546
 20
286.9348824999793
 30
0.0
 11
217.5317133643546
 21
286.629230392317
 31
0.0
  0
LINE
  5
E7A
330
E22
100
AcDbEntity
  8
0
 62
     3
100
AcDbLine
 10
217.5317133643546
 20
281.2368978362588
 30
0.0
 11
217.5317133643546
 21
280.9309604024365
 31
0.0
  0
LINE
  5
E7B
330
E22
100
AcDbEntity
  8
0
 62
     3
100
AcDbLine
 10
217.5317133643546
 20
280.9309604024365
 30
0.0
 11
214.9569276307762
 21
280.9309604024365
 31
0.0
  0
LINE
  5
E7C
330
E22
100
AcDbEntity
  8
0
 62
     3
100
AcDbLine
 10
220.6021646478169
 20
286.9350251630593
 30
0.0
 11
220.6021646478169
 21
286.629230392317
 31
0.0
  0
LINE
  5
E7D
330
E22
100
AcDbEntity
  8
0
 62
     3
100
AcDbLine
 10
220.6021646478169
 20
286.9350251630593
 30
0.0
 11
218.0602632600805
 21
286.9350251630593
 31
0.0
  0
LINE
  5
E7E
330
E22
100
AcDbEntity
  8
0
 62
     3
100
AcDbLine
 10
218.0602632600805
 20
286.9350251630593
 30
0.0
 11
218.0602632600805
 21
286.629230392317
 31
0.0
  0
LINE
  5
E7F
330
E22
100
AcDbEntity
  8
0
 62
     3
100
AcDbLine
 10
221.1484699991597
 20
281.2368978362588
 30
0.0
 11
221.1484699991597
 21
280.9311030655166
 31
0.0
  0
LINE
  5
E80
330
E22
100
AcDbEntity
  8
0
 62
     3
100
AcDbLine
 10
223.8930918614358
 20
280.9311030655166
 30
0.0
 11
221.1484699991597
 21
280.9311030655166
 31
0.0
  0
LINE
  5
E81
330
E22
100
AcDbEntity
  8
0
 62
     3
100
AcDbLine
 10
223.1840604009124
 20
285.9698173533837
 30
0.0
 11
223.1840604009124
 21
281.896310875192
 31
0.0
  0
LINE
  5
E82
330
E22
100
AcDbEntity
  8
0
 62
     3
100
AcDbLine
 10
223.1840604009124
 20
281.896310875192
 30
0.0
 11
223.4587606909795
 21
281.896310875192
 31
0.0
  0
ARC
  5
E83
330
E22
100
AcDbEntity
  8
0
 62
     3
100
AcDbCircle
 10
222.0541212527883
 20
283.9330641142879
 30
0.0
 40
2.474141041926213
100
AcDbArc
 50
304.591955000008
 51
55.408044999992
  0
LINE
  5
E84
330
E22
100
AcDbEntity
  8
0
 62
     3
100
AcDbLine
 10
223.8930918614358
 20
286.9350251630593
 30
0.0
 11
221.1484699991597
 21
286.9350251630593
 31
0.0
  0
LINE
  5
E85
330
E22
100
AcDbEntity
  8
0
 62
     3
100
AcDbLine
 10
221.1484699991597
 20
286.9350251630593
 30
0.0
 11
221.1484699991597
 21
286.629230392317
 31
0.0
  0
LINE
  5
E86
330
E22
100
AcDbEntity
  8
0
 62
     3
100
AcDbLine
 10
218.0602632600805
 20
281.2368978362588
 30
0.0
 11
218.0602632600805
 21
280.9311030655166
 31
0.0
  0
LINE
  5
E87
330
E22
100
AcDbEntity
  8
0
 62
     3
100
AcDbLine
 10
223.1840604009124
 20
285.9698173533837
 30
0.0
 11
223.4587606909795
 21
285.9698173533837
 31
0.0
  0
LINE
  5
E88
330
E22
100
AcDbEntity
  8
0
 62
     3
100
AcDbLine
 10
207.1912529901553
 20
281.2368882650634
 30
0.0
 11
207.1912469193862
 21
280.9310651640641
 31
0.0
  0
LINE
  5
E89
330
E22
100
AcDbEntity
  8
0
 62
     3
100
AcDbLine
 10
198.4726797411465
 20
280.9636161488519
 30
0.0
 11
200.4505105345838
 21
280.9636161488519
 31
0.0
  0
ARC
  5
E8A
330
E22
100
AcDbEntity
  8
0
 62
     3
100
AcDbCircle
 10
190.5288527955408
 20
284.0037551881305
 30
0.0
 40
21.26730034229026
100
AcDbArc
 50
353.8660059999985
 51
357.6940340000007
  0
LINE
  5
E8B
330
E22
100
AcDbEntity
  8
0
 62
     3
100
AcDbLine
 10
210.3550900952591
 20
283.1533162850495
 30
0.0
 11
211.7789323887391
 21
283.1480478690377
 31
0.0
  0
LINE
  5
E8C
330
E22
100
AcDbEntity
  8
0
 62
     3
100
AcDbLine
 10
210.3608401256404
 20
284.7074544895639
 30
0.0
 11
210.3339152517226
 21
284.8798461271531
 31
0.0
  0
LINE
  5
E8D
330
E22
100
AcDbEntity
  8
0
 62
     3
100
AcDbLine
 10
210.3339152517226
 20
284.8798461271531
 30
0.0
 11
210.3015792987126
 21
285.0449204640707
 31
0.0
  0
LINE
  5
E8E
330
E22
100
AcDbEntity
  8
0
 62
     3
100
AcDbLine
 10
210.3015792987126
 20
285.0449204640707
 30
0.0
 11
210.2640831917445
 21
285.2014006151606
 31
0.0
  0
LINE
  5
E8F
330
E22
100
AcDbEntity
  8
0
 62
     3
100
AcDbLine
 10
210.2640831917445
 20
285.2014006151606
 30
0.0
 11
210.2217142805682
 21
285.34807647373
 31
0.0
  0
LINE
  5
E90
330
E22
100
AcDbEntity
  8
0
 62
     3
100
AcDbLine
 10
210.2217142805682
 20
285.34807647373
 30
0.0
 11
210.174802410319
 21
285.4838158412927
 31
0.0
  0
LINE
  5
E91
330
E22
100
AcDbEntity
  8
0
 62
     3
100
AcDbLine
 10
210.174802410319
 20
285.4838158412927
 30
0.0
 11
210.1237087917736
 21
285.607568474749
 31
0.0
  0
LINE
  5
E92
330
E22
100
AcDbEntity
  8
0
 62
     3
100
AcDbLine
 10
210.1237087917736
 20
285.607568474749
 30
0.0
 11
210.068828024941
 21
285.7183772161294
 31
0.0
  0
LINE
  5
E93
330
E22
100
AcDbEntity
  8
0
 62
     3
100
AcDbLine
 10
210.068828024941
 20
285.7183772161294
 30
0.0
 11
210.0105860754711
 21
285.8153870987485
 31
0.0
  0
LINE
  5
E94
330
E22
100
AcDbEntity
  8
0
 62
     3
100
AcDbLine
 10
210.0105860754711
 20
285.8153870987485
 30
0.0
 11
209.9494321802972
 21
285.8978483825904
 31
0.0
  0
LINE
  5
E95
330
E22
100
AcDbEntity
  8
0
 62
     3
100
AcDbLine
 10
209.9494321802972
 20
285.8978483825904
 30
0.0
 11
209.8858388476344
 21
285.9651216132818
 31
0.0
  0
LINE
  5
E96
330
E22
100
AcDbEntity
  8
0
 62
     3
100
AcDbLine
 10
209.8858388476344
 20
285.9651216132818
 30
0.0
 11
209.8202978098011
 21
286.0166887518374
 31
0.0
  0
LINE
  5
E97
330
E22
100
AcDbEntity
  8
0
 62
     3
100
AcDbLine
 10
209.8202978098011
 20
286.0166887518374
 30
0.0
 11
209.753314964244
 21
286.052150139274
 31
0.0
  0
LINE
  5
E98
330
E22
100
AcDbEntity
  8
0
 62
     3
100
AcDbLine
 10
209.753314964244
 20
286.052150139274
 30
0.0
 11
209.685409361744
 21
286.0712325909704
 31
0.0
  0
LINE
  5
E99
330
E22
100
AcDbEntity
  8
0
 62
     3
100
AcDbLine
 10
209.685409361744
 20
286.0712325909704
 30
0.0
 11
209.6171051120557
 21
286.0737883848722
 31
0.0
  0
LINE
  5
E9A
330
E22
100
AcDbEntity
  8
0
 62
     3
100
AcDbLine
 10
209.6171051120557
 20
286.0737883848722
 30
0.0
 11
209.548930372114
 21
286.0597962732862
 31
0.0
  0
LINE
  5
E9B
330
E22
100
AcDbEntity
  8
0
 62
     3
100
AcDbLine
 10
209.548930372114
 20
286.0597962732862
 30
0.0
 11
209.4814112752633
 21
286.0293665418562
 31
0.0
  0
LINE
  5
E9C
330
E22
100
AcDbEntity
  8
0
 62
     3
100
AcDbLine
 10
209.4814112752633
 20
286.0293665418562
 30
0.0
 11
209.4150709194639
 21
285.9827339269975
 31
0.0
  0
LINE
  5
E9D
330
E22
100
AcDbEntity
  8
0
 62
     3
100
AcDbLine
 10
209.4150709194639
 20
285.9827339269975
 30
0.0
 11
209.3504222847266
 21
285.9202576158974
 31
0.0
  0
LINE
  5
E9E
330
E22
100
AcDbEntity
  8
0
 62
     3
100
AcDbLine
 10
209.3504222847266
 20
285.9202576158974
 30
0.0
 11
209.2879631741398
 21
285.842421246515
 31
0.0
  0
LINE
  5
E9F
330
E22
100
AcDbEntity
  8
0
 62
     3
100
AcDbLine
 10
209.2879631741398
 20
285.842421246515
 30
0.0
 11
209.2281782374571
 21
285.7498268368122
 31
0.0
  0
LINE
  5
EA0
330
E22
100
AcDbEntity
  8
0
 62
     3
100
AcDbLine
 10
209.2281782374571
 20
285.7498268368122
 30
0.0
 11
209.1715288531502
 21
285.6431897257789
 31
0.0
  0
LINE
  5
EA1
330
E22
100
AcDbEntity
  8
0
 62
     3
100
AcDbLine
 10
209.1715288531502
 20
285.6431897257789
 30
0.0
 11
209.1184531284079
 21
285.5233335144585
 31
0.0
  0
LINE
  5
EA2
330
E22
100
AcDbEntity
  8
0
 62
     3
100
AcDbLine
 10
209.1184531284079
 20
285.5233335144585
 30
0.0
 11
209.0693608401625
 21
285.3911860187687
 31
0.0
  0
LINE
  5
EA3
330
E22
100
AcDbEntity
  8
0
 62
     3
100
AcDbLine
 10
209.0693608401625
 20
285.3911860187687
 30
0.0
 11
209.024631411499
 21
285.2477681397571
 31
0.0
  0
LINE
  5
EA4
330
E22
100
AcDbEntity
  8
0
 62
     3
100
AcDbLine
 10
209.024631411499
 20
285.2477681397571
 30
0.0
 11
208.984611888066
 21
285.0941888046277
 31
0.0
  0
LINE
  5
EA5
330
E22
100
AcDbEntity
  8
0
 62
     3
100
AcDbLine
 10
208.984611888066
 20
285.0941888046277
 30
0.0
 11
208.9496098555112
 21
284.9316338369956
 31
0.0
  0
LINE
  5
EA6
330
E22
100
AcDbEntity
  8
0
 62
     3
100
AcDbLine
 10
208.9496098555112
 20
284.9316338369956
 30
0.0
 11
208.9198964748659
 21
284.7613598861189
 31
0.0
  0
LINE
  5
EA7
330
E22
100
AcDbEntity
  8
0
 62
     3
100
AcDbLine
 10
208.9198964748659
 20
284.7613598861189
 30
0.0
 11
208.8957024353663
 21
284.5846843089494
 31
0.0
  0
LINE
  5
EA8
330
E22
100
AcDbEntity
  8
0
 62
     3
100
AcDbLine
 10
208.8957024353663
 20
284.5846843089494
 30
0.0
 11
208.8772128954777
 21
284.4029720167987
 31
0.0
  0
LINE
  5
EA9
330
E22
100
AcDbEntity
  8
0
 62
     3
100
AcDbLine
 10
208.8772128954777
 20
284.4029720167987
 30
0.0
 11
208.8645725418698
 21
284.2176273809794
 31
0.0
  0
LINE
  5
EAA
330
E22
100
AcDbEntity
  8
0
 62
     3
100
AcDbLine
 10
208.8645725418698
 20
284.2176273809794
 30
0.0
 11
208.8578785068528
 21
284.0300841148561
 31
0.0
  0
LINE
  5
EAB
330
E22
100
AcDbEntity
  8
0
 62
     3
100
AcDbLine
 10
208.8578785068528
 20
284.0300841148561
 30
0.0
 11
208.8571813801709
 21
283.8417900969215
 31
0.0
  0
LINE
  5
EAC
330
E22
100
AcDbEntity
  8
0
 62
     3
100
AcDbLine
 10
208.8571813801709
 20
283.8417900969215
 30
0.0
 11
208.8624882443887
 21
283.6542013000278
 31
0.0
  0
LINE
  5
EAD
330
E22
100
AcDbEntity
  8
0
 62
     3
100
AcDbLine
 10
208.8624882443887
 20
283.6542013000278
 30
0.0
 11
208.8737566041207
 21
283.4687686380529
 31
0.0
  0
LINE
  5
EAE
330
E22
100
AcDbEntity
  8
0
 62
     3
100
AcDbLine
 10
208.8737566041207
 20
283.4687686380529
 30
0.0
 11
208.8909004568006
 21
283.286923800771
 31
0.0
  0
LINE
  5
EAF
330
E22
100
AcDbEntity
  8
0
 62
     3
100
AcDbLine
 10
208.8909004568006
 20
283.286923800771
 30
0.0
 11
208.9137872572974
 21
283.1100741948798
 31
0.0
  0
LINE
  5
EB0
330
E22
100
AcDbEntity
  8
0
 62
     3
100
AcDbLine
 10
208.9137872572974
 20
283.1100741948798
 30
0.0
 11
208.9422389297101
 21
282.9395857434857
 31
0.0
  0
LINE
  5
EB1
330
E22
100
AcDbEntity
  8
0
 62
     3
100
AcDbLine
 10
208.9422389297101
 20
282.9395857434857
 30
0.0
 11
208.9760369263413
 21
282.7767768153353
 31
0.0
  0
LINE
  5
EB2
330
E22
100
AcDbEntity
  8
0
 62
     3
100
AcDbLine
 10
208.9760369263413
 20
282.7767768153353
 30
0.0
 11
209.0149191923138
 21
282.6229040596865
 31
0.0
  0
LINE
  5
EB3
330
E22
100
AcDbEntity
  8
0
 62
     3
100
AcDbLine
 10
209.0149191923138
 20
282.6229040596865
 30
0.0
 11
209.0585862363389
 21
282.4791593709244
 31
0.0
  0
LINE
  5
EB4
330
E22
100
AcDbEntity
  8
0
 62
     3
100
AcDbLine
 10
209.0585862363389
 20
282.4791593709244
 30
0.0
 11
209.106699107127
 21
282.3466516762524
 31
0.0
  0
LINE
  5
EB5
330
E22
100
AcDbEntity
  8
0
 62
     3
100
AcDbLine
 10
209.106699107127
 20
282.3466516762524
 30
0.0
 11
209.1588864759526
 21
282.2264069356927
 31
0.0
  0
LINE
  5
EB6
330
E22
100
AcDbEntity
  8
0
 62
     3
100
AcDbLine
 10
209.1588864759526
 20
282.2264069356927
 30
0.0
 11
209.2147456484474
 21
282.1193539769581
 31
0.0
  0
LINE
  5
EB7
330
E22
100
AcDbEntity
  8
0
 62
     3
100
AcDbLine
 10
209.2147456484474
 20
282.1193539769581
 30
0.0
 11
209.2738435763974
 21
282.0263194364764
 31
0.0
  0
LINE
  5
EB8
330
E22
100
AcDbEntity
  8
0
 62
     3
100
AcDbLine
 10
209.2738435763974
 20
282.0263194364764
 30
0.0
 11
209.3357239403051
 21
281.9480227004174
 31
0.0
  0
LINE
  5
EB9
330
E22
100
AcDbEntity
  8
0
 62
     3
100
AcDbLine
 10
209.3357239403051
 20
281.9480227004174
 30
0.0
 11
209.3999091729809
 21
281.8850698339223
 31
0.0
  0
LINE
  5
EBA
330
E22
100
AcDbEntity
  8
0
 62
     3
100
AcDbLine
 10
209.3999091729809
 20
281.8850698339223
 30
0.0
 11
209.4659024831317
 21
281.837947510335
 31
0.0
  0
LINE
  5
EBB
330
E22
100
AcDbEntity
  8
0
 62
     3
100
AcDbLine
 10
209.4659024831317
 20
281.837947510335
 30
0.0
 11
209.5331939261312
 21
281.8070189640224
 31
0.0
  0
LINE
  5
EBC
330
E22
100
AcDbEntity
  8
0
 62
     3
100
AcDbLine
 10
209.5331939261312
 20
281.8070189640224
 30
0.0
 11
209.6012634394042
 21
281.7925229785795
 31
0.0
  0
LINE
  5
EBD
330
E22
100
AcDbEntity
  8
0
 62
     3
100
AcDbLine
 10
209.6012634394042
 20
281.7925229785795
 30
0.0
 11
209.6695848896054
 21
281.7945728750343
 31
0.0
  0
LINE
  5
EBE
330
E22
100
AcDbEntity
  8
0
 62
     3
100
AcDbLine
 10
209.6695848896054
 20
281.7945728750343
 30
0.0
 11
209.737630119801
 21
281.8131514528736
 31
0.0
  0
LINE
  5
EBF
330
E22
100
AcDbEntity
  8
0
 62
     3
100
AcDbLine
 10
209.737630119801
 20
281.8131514528736
 30
0.0
 11
209.8048729966456
 21
281.8481170608123
 31
0.0
  0
LINE
  5
EC0
330
E22
100
AcDbEntity
  8
0
 62
     3
100
AcDbLine
 10
209.8048729966456
 20
281.8481170608123
 30
0.0
 11
209.870794469359
 21
281.8991975260238
 31
0.0
  0
LINE
  5
EC1
330
E22
100
AcDbEntity
  8
0
 62
     3
100
AcDbLine
 10
209.870794469359
 20
281.8991975260238
 30
0.0
 11
209.9348835815197
 21
281.965999260295
 31
0.0
  0
LINE
  5
EC2
330
E22
100
AcDbEntity
  8
0
 62
     3
100
AcDbLine
 10
209.9348835815197
 20
281.965999260295
 30
0.0
 11
209.9966465772197
 21
282.0480042246396
 31
0.0
  0
LINE
  5
EC3
330
E22
100
AcDbEntity
  8
0
 62
     3
100
AcDbLine
 10
209.9966465772197
 20
282.0480042246396
 30
0.0
 11
210.0556048774745
 21
282.1445810590443
 31
0.0
  0
LINE
  5
EC4
330
E22
100
AcDbEntity
  8
0
 62
     3
100
AcDbLine
 10
210.0556048774745
 20
282.1445810590443
 30
0.0
 11
210.1113031745811
 21
282.2549810352876
 31
0.0
  0
LINE
  5
EC5
330
E22
100
AcDbEntity
  8
0
 62
     3
100
AcDbLine
 10
210.1113031745811
 20
282.2549810352876
 30
0.0
 11
210.1633114557105
 21
282.3783522220688
 31
0.0
  0
LINE
  5
EC6
330
E22
100
AcDbEntity
  8
0
 62
     3
100
AcDbLine
 10
210.1633114557105
 20
282.3783522220688
 30
0.0
 11
210.2112270264945
 21
282.5137404968034
 31
0.0
  0
LINE
  5
EC7
330
E22
100
AcDbEntity
  8
0
 62
     3
100
AcDbLine
 10
210.2112270264945
 20
282.5137404968034
 30
0.0
 11
210.2546795700021
 21
282.6600996635711
 31
0.0
  0
LINE
  5
EC8
330
E22
100
AcDbEntity
  8
0
 62
     3
100
AcDbLine
 10
210.2546795700021
 20
282.6600996635711
 30
0.0
 11
210.2933331703284
 21
282.8162975238857
 31
0.0
  0
LINE
  5
EC9
330
E22
100
AcDbEntity
  8
0
 62
     3
100
AcDbLine
 10
210.2933331703284
 20
282.8162975238857
 30
0.0
 11
210.326890359775
 21
282.9811280182338
 31
0.0
  0
LINE
  5
ECA
330
E22
100
AcDbEntity
  8
0
 62
     3
100
AcDbLine
 10
210.326890359775
 20
282.9811280182338
 30
0.0
 11
210.3550900952591
 21
283.1533162850495
 31
0.0
  0
LINE
  5
ECB
330
E22
100
AcDbEntity
  8
0
 62
     3
100
AcDbLine
 10
210.3608401256404
 20
284.7074544895639
 30
0.0
 11
211.7846824191204
 21
284.7021860735519
 31
0.0
  0
ARC
  5
ECC
330
E22
100
AcDbEntity
  8
0
 62
     3
100
AcDbCircle
 10
190.5288527955408
 20
284.0037551881305
 30
0.0
 40
21.26730034229026
100
AcDbArc
 50
1.881965999998799
 51
5.709994000000508
  0
LINE
  5
ECD
330
E22
100
AcDbEntity
  8
0
 62
     3
100
AcDbLine
 10
207.1913521462863
 20
286.9349988766058
 30
0.0
 11
207.1913470873119
 21
286.6292324361205
 31
0.0
  0
LINE
  5
ECE
330
E22
100
AcDbEntity
  8
0
 62
     3
100
AcDbLine
 10
204.6493516026169
 20
281.2368957924554
 30
0.0
 11
204.6493465436422
 21
280.93112935197
 31
0.0
  0
LINE
  5
ECF
330
E22
100
AcDbEntity
  8
0
 62
     3
100
AcDbLine
 10
204.6494507585164
 20
286.9350524616931
 30
0.0
 11
204.6494456995417
 21
286.629228348899
 31
0.0
  0
LINE
  5
ED0
330
E22
100
AcDbEntity
  8
0
 62
     3
100
AcDbLine
 10
200.4505105345838
 20
281.2694109195942
 30
0.0
 11
200.4505105345838
 21
280.9636161488519
 31
0.0
  0
LINE
  5
ED1
330
E22
100
AcDbEntity
  8
0
 62
     3
100
AcDbLine
 10
199.9441995486006
 20
284.4845004919676
 30
0.0
 11
202.1447522630479
 21
280.9636161488519
 31
0.0
  0
LINE
  5
ED2
330
E22
100
AcDbEntity
  8
0
 62
     3
100
AcDbLine
 10
202.1447522630479
 20
280.9636161488519
 30
0.0
 11
203.6182615442728
 21
280.9636161488519
 31
0.0
  0
LINE
  5
ED3
330
E22
100
AcDbEntity
  8
0
 62
     3
100
AcDbLine
 10
204.1245725302563
 20
286.9675382463947
 30
0.0
 11
204.1245725302563
 21
286.6617434756524
 31
0.0
  0
LINE
  5
ED4
330
E22
100
AcDbEntity
  8
0
 62
     3
100
AcDbLine
 10
202.1467427486141
 20
286.9675382463947
 30
0.0
 11
204.1245725302563
 21
286.9675382463947
 31
0.0
  0
LINE
  5
ED5
330
E22
100
AcDbEntity
  8
0
 62
     3
100
AcDbLine
 10
202.1467427486141
 20
286.9675382463947
 30
0.0
 11
202.1467427486141
 21
286.6617434756524
 31
0.0
  0
LINE
  5
ED6
330
E22
100
AcDbEntity
  8
0
 62
     3
100
AcDbLine
 10
202.6530537345975
 20
284.2481715114516
 30
0.0
 11
200.8684691250794
 21
286.9675382463947
 31
0.0
  0
LINE
  5
ED7
330
E22
100
AcDbEntity
  8
0
 62
     3
100
AcDbLine
 10
198.4726797411465
 20
286.9675382463947
 30
0.0
 11
200.8684691250794
 21
286.9675382463947
 31
0.0
  0
LINE
  5
ED8
330
E22
100
AcDbEntity
  8
0
 62
     3
100
AcDbLine
 10
211.8406155467012
 20
286.9348824999793
 30
0.0
 11
214.4154002684847
 21
286.9348824999791
 31
0.0
  0
LINE
  5
ED9
330
E22
100
AcDbEntity
  8
0
 62
     3
100
AcDbLine
 10
211.8406155467012
 20
286.629230392317
 30
0.0
 11
211.8406155467012
 21
286.9348824999793
 31
0.0
  0
LINE
  5
EDA
330
E22
100
AcDbEntity
  8
0
 62
     3
100
AcDbLine
 10
211.8406155467012
 20
280.9309604024365
 30
0.0
 11
211.8406155467012
 21
281.2368978362588
 31
0.0
  0
LINE
  5
EDB
330
E22
100
AcDbEntity
  8
0
 62
     3
100
AcDbLine
 10
211.8406155467012
 20
280.9309604024364
 30
0.0
 11
214.4154002684847
 21
280.9309604024365
 31
0.0
  0
LINE
  5
EDC
330
E22
100
AcDbEntity
  8
0
 62
     3
100
AcDbLine
 10
214.9569276307762
 20
281.2368978362588
 30
0.0
 11
214.9569276307762
 21
280.9309604024365
 31
0.0
  0
LINE
  5
EDD
330
E22
100
AcDbEntity
  8
0
 62
     3
100
AcDbLine
 10
214.4154002684847
 20
281.2368978362588
 30
0.0
 11
214.4154002684847
 21
280.9309604024365
 31
0.0
  0
LINE
  5
EDE
330
E22
100
AcDbEntity
  8
0
 62
     3
100
AcDbLine
 10
214.4154002684847
 20
286.629230392317
 30
0.0
 11
214.4154002684847
 21
286.9348824999793
 31
0.0
  0
LINE
  5
EDF
330
E22
100
AcDbEntity
  8
0
 62
     3
100
AcDbLine
 10
214.9569276307762
 20
286.629230392317
 30
0.0
 11
214.9569276307762
 21
286.9348824999793
 31
0.0
  0
LINE
  5
EE0
330
E22
100
AcDbEntity
  8
0
 62
     3
100
AcDbLine
 10
198.4726797411465
 20
281.2694109195941
 30
0.0
 11
198.4726797411465
 21
280.9636161488519
 31
0.0
  0
LINE
  5
EE1
330
E22
100
AcDbEntity
  8
0
 62
     3
100
AcDbLine
 10
198.4726797411465
 20
286.9675382463947
 30
0.0
 11
198.4726797411465
 21
286.6617434756524
 31
0.0
  0
ARC
  5
EE2
330
E22
100
AcDbEntity
  8
0
 62
     3
100
AcDbCircle
 10
224.150748389565
 20
284.5629034002713
 30
0.0
 40
2.37212176278799
100
AcDbArc
 50
17.30874900000206
 51
23.76507100000091
  0
ARC
  5
EE3
330
E22
100
AcDbEntity
  8
0
 62
     3
100
AcDbCircle
 10
222.12965470004
 20
283.9330641142879
 30
0.0
 40
4.489082006702322
100
AcDbArc
 50
342.691250999998
 51
17.3085660000007
  0
ARC
  5
EE4
330
E22
100
AcDbEntity
  8
0
 62
     3
100
AcDbCircle
 10
224.150748389565
 20
283.3032248283045
 30
0.0
 40
2.37212176278799
100
AcDbArc
 50
336.2349289999991
 51
342.691250999998
  0
ARC
  5
EE5
330
E22
100
AcDbEntity
  8
0
 62
     3
100
AcDbCircle
 10
223.8930918614358
 20
284.5629034002713
 30
0.0
 40
2.37212176278799
100
AcDbArc
 50
17.30874900000206
 51
90.0
  0
ARC
  5
EE6
330
E22
100
AcDbEntity
  8
0
 62
     3
100
AcDbCircle
 10
221.8719930928312
 20
283.9330776767834
 30
0.0
 40
4.489082006702322
100
AcDbArc
 50
342.691250999998
 51
17.3085660000007
  0
ARC
  5
EE7
330
E22
100
AcDbEntity
  8
0
 62
     3
100
AcDbCircle
 10
223.8930918614358
 20
283.3032248283045
 30
0.0
 40
2.37212176278799
100
AcDbArc
 50
270.0
 51
342.691250999998
  0
ARC
  5
EE8
330
E22
100
AcDbEntity
  8
0
 62
     3
100
AcDbCircle
 10
209.6338472821628
 20
283.9330641142879
 30
0.0
 40
3.001961048771398
100
AcDbArc
 50
46.75287999999464
 51
89.74999799999961
  0
ARC
  5
EE9
330
E22
100
AcDbEntity
  8
0
 62
     3
100
AcDbCircle
 10
209.6338472821628
 20
283.9330641142879
 30
0.0
 40
3.001961048771398
100
AcDbArc
 50
273.9763330000016
 51
312.8231199999997
  0
ARC
  5
EEA
330
E22
100
AcDbEntity
  8
0
 62
     3
100
AcDbCircle
 10
225.7520837904888
 20
283.8867218845638
 30
0.0
 40
3.983420308030568
100
AcDbArc
 50
0.6665839999989652
 51
23.90392800000231
  0
ARC
  5
EEB
330
E22
100
AcDbEntity
  8
0
 62
     3
100
AcDbCircle
 10
231.4117214277355
 20
283.8867218845638
 30
0.0
 40
3.983420308030568
100
AcDbArc
 50
156.0960719999977
 51
179.333416000001
  0
ARC
  5
EEC
330
E22
100
AcDbEntity
  8
0
 62
     3
100
AcDbCircle
 10
225.7520837904888
 20
283.979406344012
 30
0.0
 40
3.983420308030568
100
AcDbArc
 50
336.096071999998
 51
359.3334159999978
  0
ARC
  5
EED
330
E22
100
AcDbEntity
  8
0
 62
     3
100
AcDbCircle
 10
231.4117214277355
 20
283.979406344012
 30
0.0
 40
3.983420308030568
100
AcDbArc
 50
180.666583999999
 51
203.9039280000023
  0
LINE
  5
EEE
330
E22
100
AcDbEntity
  8
0
  6
Continuous
 62
     3
100
AcDbLine
 10
198.4726797411465
 20
286.6617434756524
 30
0.0
 11
198.9789907271299
 21
286.3329566777442
 31
0.0
  0
LINE
  5
EEF
330
E22
100
AcDbEntity
  8
0
  6
Continuous
 62
     3
100
AcDbLine
 10
202.1467427486141
 20
286.6617434756524
 30
0.0
 11
202.6530537345975
 21
286.3329566777442
 31
0.0
  0
LINE
  5
EF0
330
E22
100
AcDbEntity
  8
0
  6
Continuous
 62
     3
100
AcDbLine
 10
204.1245725302563
 20
286.6617434756524
 30
0.0
 11
203.6182615442728
 21
286.3329566777442
 31
0.0
  0
LINE
  5
EF1
330
E22
100
AcDbEntity
  8
0
  6
Continuous
 62
     3
100
AcDbLine
 10
204.6494456995417
 20
286.629228348899
 30
0.0
 11
205.1557182373362
 21
286.3004355000498
 31
0.0
  0
LINE
  5
EF2
330
E22
100
AcDbEntity
  8
0
  6
Continuous
 62
     3
100
AcDbLine
 10
207.1913470873119
 20
286.6292324361205
 30
0.0
 11
206.6850300305421
 21
286.3004142523569
 31
0.0
  0
LINE
  5
EF3
330
E22
100
AcDbEntity
  8
0
  6
Continuous
 62
     3
100
AcDbLine
 10
211.8406155467012
 20
286.629230392317
 30
0.0
 11
212.3469265326846
 21
286.3003434267143
 31
0.0
  0
LINE
  5
EF4
330
E22
100
AcDbEntity
  8
0
  6
Continuous
 62
     3
100
AcDbLine
 10
214.4154002684847
 20
286.629230392317
 30
0.0
 11
213.9090892825013
 21
286.3003434267143
 31
0.0
  0
LINE
  5
EF5
330
E22
100
AcDbEntity
  8
0
  6
Continuous
 62
     3
100
AcDbLine
 10
214.9569276307762
 20
286.629230392317
 30
0.0
 11
215.4632386167596
 21
286.3003434267143
 31
0.0
  0
LINE
  5
EF6
330
E22
100
AcDbEntity
  8
0
  6
Continuous
 62
     3
100
AcDbLine
 10
217.5317133643546
 20
286.629230392317
 30
0.0
 11
217.0254013665763
 21
286.3003434267143
 31
0.0
  0
LINE
  5
EF7
330
E22
100
AcDbEntity
  8
0
  6
Continuous
 62
     3
100
AcDbLine
 10
218.0602632600805
 20
286.629230392317
 30
0.0
 11
218.566574246064
 21
286.3003434267143
 31
0.0
  0
LINE
  5
EF8
330
E22
100
AcDbEntity
  8
0
  6
Continuous
 62
     3
100
AcDbLine
 10
220.6021646478169
 20
286.629230392317
 30
0.0
 11
220.0958536618334
 21
286.3003434267143
 31
0.0
  0
LINE
  5
EF9
330
E22
100
AcDbEntity
  8
0
  6
Continuous
 62
     3
100
AcDbLine
 10
221.1484699991597
 20
286.629230392317
 30
0.0
 11
221.6547809851429
 21
286.3003434267143
 31
0.0
  0
LINE
  5
EFA
330
E22
100
AcDbEntity
  8
0
  6
Continuous
 62
     3
100
AcDbLine
 10
221.6546990297565
 20
281.5656441623712
 30
0.0
 11
221.1484699991597
 21
281.2368978362588
 31
0.0
  0
LINE
  5
EFB
330
E22
100
AcDbEntity
  8
0
  6
Continuous
 62
     3
100
AcDbLine
 10
220.0959356172195
 20
281.5656441623712
 30
0.0
 11
220.6021646478169
 21
281.2368978362588
 31
0.0
  0
LINE
  5
EFC
330
E22
100
AcDbEntity
  8
0
  6
Continuous
 62
     3
100
AcDbLine
 10
218.5664912788827
 20
281.5656441623712
 30
0.0
 11
218.0602632600805
 21
281.2368978362588
 31
0.0
  0
LINE
  5
EFD
330
E22
100
AcDbEntity
  8
0
  6
Continuous
 62
     3
100
AcDbLine
 10
217.5317133643546
 20
281.2368978362588
 30
0.0
 11
217.0254843337575
 21
281.5656441623712
 31
0.0
  0
LINE
  5
EFE
330
E22
100
AcDbEntity
  8
0
  6
Continuous
 62
     3
100
AcDbLine
 10
214.9569276307762
 20
281.2368978362588
 30
0.0
 11
215.4631556495781
 21
281.5656441623712
 31
0.0
  0
LINE
  5
EFF
330
E22
100
AcDbEntity
  8
0
  6
Continuous
 62
     3
100
AcDbLine
 10
214.4154002684847
 20
281.2368978362588
 30
0.0
 11
213.9091722496825
 21
281.5656441623712
 31
0.0
  0
LINE
  5
F00
330
E22
100
AcDbEntity
  8
0
  6
Continuous
 62
     3
100
AcDbLine
 10
212.3468435655034
 20
281.5656441623712
 30
0.0
 11
211.8406155467012
 21
281.2368978362588
 31
0.0
  0
LINE
  5
F01
330
E22
100
AcDbEntity
  8
0
  6
Continuous
 62
     3
100
AcDbLine
 10
207.1912529903941
 20
281.2369002883685
 30
0.0
 11
206.6850300305421
 21
281.5657139762189
 31
0.0
  0
LINE
  5
F02
330
E22
100
AcDbEntity
  8
0
  6
Continuous
 62
     3
100
AcDbLine
 10
204.6493516026169
 20
281.2368957924554
 30
0.0
 11
205.1556190814365
 21
281.5657352239116
 31
0.0
  0
LINE
  5
F03
330
E22
100
AcDbEntity
  8
0
  6
Continuous
 62
     3
100
AcDbLine
 10
200.4505105345838
 20
281.2694109195942
 30
0.0
 11
199.9441995486006
 21
281.5981987292973
 31
0.0
  0
LINE
  5
F04
330
E22
100
AcDbEntity
  8
0
  6
Continuous
 62
     3
100
AcDbLine
 10
198.4726797411465
 20
281.2694109195942
 30
0.0
 11
198.9789907271299
 21
281.5981987292973
 31
0.0
  0
LINE
  5
F05
330
E22
100
AcDbEntity
  8
0
  6
Continuous
 62
     3
100
AcDbLine
 10
207.1912469196246
 20
280.9310771873693
 30
0.0
 11
204.6493465436422
 21
280.93112935197
 31
0.0
  0
LINE
  5
F06
330
E22
100
AcDbEntity
  8
0
  6
Continuous
 62
     3
100
AcDbLine
 10
204.6494507585164
 20
286.9350524616931
 30
0.0
 11
207.1913521462863
 21
286.9349988766058
 31
0.0
  0
ARC
  5
F07
330
E22
100
AcDbEntity
  8
0
  6
Continuous
 62
     3
100
AcDbCircle
 10
233.4996944478569
 20
283.9148263707226
 30
0.0
 40
1.5
100
AcDbArc
 50
293.7485430905253
 51
66.2514569094748
  0
ARC
  5
F08
330
E22
100
AcDbEntity
  8
0
  6
Continuous
 62
     3
100
AcDbCircle
 10
233.4996944478569
 20
283.9148263707226
 30
0.0
 40
2.25
100
AcDbArc
 50
293.7485430905253
 51
66.2514569094748
  0
ARC
  5
F09
330
E22
100
AcDbEntity
  8
0
  6
Continuous
 62
     3
100
AcDbCircle
 10
222.0220771115314
 20
257.8281573560539
 30
0.0
 40
30.0
100
AcDbArc
 50
66.2514569094748
 51
81.41597019517911
  0
ARC
  5
F0A
330
E22
100
AcDbEntity
  8
0
  6
Continuous
 62
     3
100
AcDbCircle
 10
222.0220771115314
 20
257.8281573560539
 30
0.0
 40
30.75
100
AcDbArc
 50
66.2514569094748
 51
81.41597019517911
  0
ARC
  5
F0B
330
E22
100
AcDbEntity
  8
0
  6
Continuous
 62
     3
100
AcDbCircle
 10
194.4244079510804
 20
283.9148263707226
 30
0.0
 40
1.5
100
AcDbArc
 50
113.7485430905252
 51
246.2514569094748
  0
ARC
  5
F0C
330
E22
100
AcDbEntity
  8
0
  6
Continuous
 62
     3
100
AcDbCircle
 10
194.4244079510804
 20
283.9148263707226
 30
0.0
 40
2.25
100
AcDbArc
 50
113.7485430905252
 51
246.2514569094748
  0
ARC
  5
F0D
330
E22
100
AcDbEntity
  8
0
  6
Continuous
 62
     3
100
AcDbCircle
 10
205.9020252874061
 20
257.8281573560539
 30
0.0
 40
30.0
100
AcDbArc
 50
98.5840298048209
 51
113.7485430905252
  0
ARC
  5
F0E
330
E22
100
AcDbEntity
  8
0
  6
Continuous
 62
     3
100
AcDbCircle
 10
205.9020252874061
 20
257.8281573560539
 30
0.0
 40
30.75
100
AcDbArc
 50
98.5840298048209
 51
113.7485430905252
  0
ARC
  5
F0F
330
E22
100
AcDbEntity
  8
0
  6
Continuous
 62
     3
100
AcDbCircle
 10
222.0220771115314
 20
310.0014953853913
 30
0.0
 40
30.0
100
AcDbArc
 50
278.5840298048209
 51
293.7485430905253
  0
ARC
  5
F10
330
E22
100
AcDbEntity
  8
0
  6
Continuous
 62
     3
100
AcDbCircle
 10
222.0220771115314
 20
310.0014953853913
 30
0.0
 40
30.75
100
AcDbArc
 50
278.5840298048209
 51
293.7485430905253
  0
ARC
  5
F11
330
E22
100
AcDbEntity
  8
0
  6
Continuous
 62
     3
100
AcDbCircle
 10
205.9020252874061
 20
310.0014953853913
 30
0.0
 40
30.0
100
AcDbArc
 50
246.2514569094748
 51
261.4159701951791
  0
ARC
  5
F12
330
E22
100
AcDbEntity
  8
0
  6
Continuous
 62
     3
100
AcDbCircle
 10
205.9020252874061
 20
310.0014953853913
 30
0.0
 40
30.75
100
AcDbArc
 50
246.2514569094748
 51
261.4159701951791
  0
ARC
  5
F13
330
E22
100
AcDbEntity
  8
0
  6
Continuous
 62
     3
100
AcDbCircle
 10
213.9620511994688
 20
204.4330641142894
 30
0.0
 40
84.74999999999857
100
AcDbArc
 50
81.41597019517911
 51
98.5840298048209
  0
ARC
  5
F14
330
E22
100
AcDbEntity
  8
0
  6
Continuous
 62
     3
100
AcDbCircle
 10
213.9620511994688
 20
204.4330641142906
 30
0.0
 40
83.99999999999733
100
AcDbArc
 50
81.41597019517911
 51
98.5840298048209
  0
ARC
  5
F15
330
E22
100
AcDbEntity
  8
0
  6
Continuous
 62
     3
100
AcDbCircle
 10
213.9620511994688
 20
363.3965886271558
 30
0.0
 40
84.74999999999857
100
AcDbArc
 50
261.4159701951791
 51
278.5840298048209
  0
ARC
  5
F16
330
E22
100
AcDbEntity
  8
0
  6
Continuous
 62
     3
100
AcDbCircle
 10
213.9620511994688
 20
363.3965886271545
 30
0.0
 40
83.99999999999733
100
AcDbArc
 50
261.4159701951791
 51
278.5840298048209
  0
TEXT
  5
F17
330
E22
100
AcDbEntity
  8
0
 62
     3
100
AcDbText
 10
397.4999981865963
 20
274.4999999941307
 30
0.0
 40
3.2
  1
担　当
  7
高3.2
100
AcDbText
  0
TEXT
  5
F18
330
E22
100
AcDbEntity
  8
0
 62
     3
100
AcDbText
 10
353.4999981865963
 20
274.4999999941307
 30
0.0
 40
3.2
  1
変更・追記内容
  7
高3.2
100
AcDbText
  0
TEXT
  5
F19
330
E22
100
AcDbEntity
  8
0
 62
     3
100
AcDbText
 10
328.6135131869355
 20
269.8294614842224
 30
0.0
 40
2.0
  1
1
  7
高2
100
AcDbText
  0
TEXT
  5
F1A
330
E22
100
AcDbEntity
  8
0
 62
     3
100
AcDbText
 10
328.3050017101782
 20
264.6596447719495
 30
0.0
 40
2.0
  1
2
  7
高2
100
AcDbText
  0
TEXT
  5
F1B
330
E22
100
AcDbEntity
  8
0
 62
     3
100
AcDbText
 10
335.4999981865963
 20
274.4999999941307
 30
0.0
 40
3.2
  1
日　付
  7
高3.2
100
AcDbText
  0
TEXT
  5
F1C
330
E22
100
AcDbEntity
  8
0
 62
     3
100
AcDbText
 10
335.4999981865963
 20
279.4999999941307
 30
0.0
 40
3.2
  1
図　　　　面　　　　略　　　　歴
  7
高3.2
100
AcDbText
  0
TEXT
  5
F1D
330
E22
100
AcDbEntity
  8
0
 62
     3
100
AcDbText
 10
325.4999981865962
 20
274.4999999941307
 30
0.0
 40
3.2
  1
記号
  7
高3.2
100
AcDbText
  0
LINE
  5
F1E
330
E22
100
AcDbEntity
  8
0
100
AcDbLine
 10
328.9999981865963
 20
267.7908959941309
 30
0.0
 11
327.0999981865964
 21
264.4999999941307
 31
0.0
  0
LINE
  5
F1F
330
E22
100
AcDbEntity
  8
0
100
AcDbLine
 10
328.9999981865963
 20
267.7908959941309
 30
0.0
 11
330.8999981865961
 21
264.4999999941307
 31
0.0
  0
LINE
  5
F20
330
E22
100
AcDbEntity
  8
0
100
AcDbLine
 10
327.0999981865964
 20
264.4999999941307
 30
0.0
 11
330.8999981865961
 21
264.4999999941307
 31
0.0
  0
LINE
  5
F21
330
E22
100
AcDbEntity
  8
0
100
AcDbLine
 10
328.9999981865963
 20
272.7908969941308
 30
0.0
 11
327.0999981865964
 21
269.4999999941307
 31
0.0
  0
LINE
  5
F22
330
E22
100
AcDbEntity
  8
0
100
AcDbLine
 10
328.9999981865963
 20
272.7908969941308
 30
0.0
 11
330.8999981865961
 21
269.4999999941307
 31
0.0
  0
LINE
  5
F23
330
E22
100
AcDbEntity
  8
0
100
AcDbLine
 10
327.0999981865964
 20
269.4999999941307
 30
0.0
 11
330.8999981865961
 21
269.4999999941307
 31
0.0
  0
LINE
  5
F24
330
E22
100
AcDbEntity
  8
0
 62
     3
100
AcDbLine
 10
323.9999981865963
 20
278.9999999941307
 30
0.0
 11
409.9999981865962
 21
278.9999999941307
 31
0.0
  0
LINE
  5
F25
330
E22
100
AcDbEntity
  8
0
 62
     3
100
AcDbLine
 10
323.9999981865963
 20
273.9999999941307
 30
0.0
 11
409.9999981865962
 21
273.9999999941307
 31
0.0
  0
LINE
  5
F26
330
E22
100
AcDbEntity
  8
0
 62
     7
100
AcDbLine
 10
323.9999981865963
 20
268.9999999941307
 30
0.0
 11
409.9999981865962
 21
268.9999999941307
 31
0.0
  0
LINE
  5
F27
330
E22
100
AcDbEntity
  8
0
 62
     3
100
AcDbLine
 10
323.9999981865963
 20
263.9999999941307
 30
0.0
 11
409.9999981865962
 21
263.9999999941307
 31
0.0
  0
LINE
  5
F28
330
E22
100
AcDbEntity
  8
0
 62
     7
100
AcDbLine
 10
395.9999981865962
 20
263.9999999941307
 30
0.0
 11
395.9999981865962
 21
278.9999999941307
 31
0.0
  0
LINE
  5
F29
330
E22
100
AcDbEntity
  8
0
 62
     7
100
AcDbLine
 10
351.9999981865963
 20
263.9999999941307
 30
0.0
 11
351.9999981865963
 21
278.9999999941307
 31
0.0
  0
LINE
  5
F2A
330
E22
100
AcDbEntity
  8
0
 62
     7
100
AcDbLine
 10
333.9999981865962
 20
263.9999999941307
 30
0.0
 11
333.9999981865962
 21
278.9999999941307
 31
0.0
  0
LINE
  5
F2B
330
E22
100
AcDbEntity
  8
0
 62
     3
100
AcDbLine
 10
323.9999981865963
 20
263.9999999941307
 30
0.0
 11
323.9999981865963
 21
283.9999999941307
 31
0.0
  0
ENDBLK
  5
F2F
330
E22
100
AcDbEntity
  8
0
100
AcDbBlockEnd
  0
BLOCK
  5
F39
330
F36
100
AcDbEntity
  8
0
100
AcDbBlockBegin
  2
A$C40587263
 70
     0
 10
0.0
 20
0.0
 30
0.0
  3
A$C40587263
  1

  0
LINE
  5
F3A
330
F36
100
AcDbEntity
  8
0
  6
HIDDEN
 62
     7
100
AcDbLine
 10
0.0
 20
-9.25
 30
0.0
 11
0.0
 21
9.25
 31
0.0
  0
LINE
  5
F3B
330
F36
100
AcDbEntity
  8
0
  6
HIDDEN
 62
     7
100
AcDbLine
 10
-69.0
 20
9.25
 30
0.0
 11
-69.0
 21
-9.25
 31
0.0
  0
LINE
  5
F3C
330
F36
100
AcDbEntity
  8
0
  6
HIDDEN
 62
     7
100
AcDbLine
 10
-70.5
 20
2.800000000000181
 30
0.0
 11
-70.5
 21
-2.800000000000181
 31
0.0
  0
LINE
  5
F3D
330
F36
100
AcDbEntity
  8
0
  6
HIDDEN
 62
     7
100
AcDbLine
 10
-69.0
 20
-2.800000000000181
 30
0.0
 11
-70.5
 21
-2.800000000000181
 31
0.0
  0
LINE
  5
F3E
330
F36
100
AcDbEntity
  8
0
  6
HIDDEN
 62
     7
100
AcDbLine
 10
-69.0
 20
2.800000000000181
 30
0.0
 11
-70.5
 21
2.800000000000181
 31
0.0
  0
LINE
  5
F3F
330
F36
100
AcDbEntity
  8
0
  6
HIDDEN
 62
     7
100
AcDbLine
 10
-69.0
 20
-9.25
 30
0.0
 11
0.0
 21
-9.25
 31
0.0
  0
LINE
  5
F40
330
F36
100
AcDbEntity
  8
0
  6
HIDDEN
 62
     7
100
AcDbLine
 10
-69.0
 20
9.25
 30
0.0
 11
0.0
 21
9.25
 31
0.0
  0
ENDBLK
  5
F41
330
F36
100
AcDbEntity
  8
0
100
AcDbBlockEnd
  0
BLOCK
  5
F43
330
F42
100
AcDbEntity
  8
0
100
AcDbBlockBegin
  2
*D4
 70
     1
 10
0.0
 20
0.0
 30
0.0
  3
*D4
  1

  0
LINE
  5
F44
330
F42
100
AcDbEntity
  8
0
 62
     0
370
    -2
100
AcDbLine
 10
1590.99174820512
 20
-1019.701427560047
 30
0.0
 11
1590.99174820512
 21
-979.3075275838695
 31
0.0
  0
LINE
  5
F45
330
F42
100
AcDbEntity
  8
0
 62
     0
370
    -2
100
AcDbLine
 10
1736.99174820512
 20
-1023.001427560047
 30
0.0
 11
1736.99174820512
 21
-979.3075275838695
 31
0.0
  0
LINE
  5
F46
330
F42
100
AcDbEntity
  8
0
 62
     0
370
    -2
100
AcDbLine
 10
1593.491748205121
 20
-980.5575275838696
 30
0.0
 11
1734.491748205121
 21
-980.5575275838696
 31
0.0
  0
INSERT
  5
F47
330
F42
100
AcDbEntity
  8
0
 62
     0
370
    -2
100
AcDbBlockReference
  2
_Open30
 10
1590.99174820512
 20
-980.5575275838696
 30
0.0
 41
2.5
 42
2.5
 43
2.5
 50
180.0
  0
INSERT
  5
F48
330
F42
100
AcDbEntity
  8
0
 62
     0
370
    -2
100
AcDbBlockReference
  2
_Open30
 10
1736.99174820512
 20
-980.5575275838696
 30
0.0
 41
2.5
 42
2.5
 43
2.5
  0
MTEXT
  5
F49
330
F42
100
AcDbEntity
  8
0
 62
     4
100
AcDbMText
 10
1660.49174820512
 20
-978.4325275838696
 30
0.0
 40
3.0
 41
0.0
 71
     5
 72
     1
  1
146～163.5
 73
     1
 44
1.0
1001
ACAD
1000
MTEXTBEGIN
1070
    73
1070
     1
1070
    44
1040
1.0
1070
    74
1070
     0
1000
MTEXTEND
  0
POINT
  5
F4A
330
F42
100
AcDbEntity
  8
Defpoints
 62
     0
100
AcDbPoint
 10
1590.99174820512
 20
-1019.951427560047
 30
0.0
  0
POINT
  5
F4B
330
F42
100
AcDbEntity
  8
Defpoints
 62
     0
100
AcDbPoint
 10
1736.99174820512
 20
-1023.251427560047
 30
0.0
  0
POINT
  5
F4C
330
F42
100
AcDbEntity
  8
Defpoints
 62
     0
100
AcDbPoint
 10
1736.99174820512
 20
-980.5575275838696
 30
0.0
  0
ENDBLK
  5
F4D
330
F42
100
AcDbEntity
  8
0
100
AcDbBlockEnd
  0
BLOCK
  5
F4F
330
F4E
100
AcDbEntity
  8
0
100
AcDbBlockBegin
  2
*D5
 70
     1
 10
0.0
 20
0.0
 30
0.0
  3
*D5
  1

  0
LINE
  5
F50
330
F4E
100
AcDbEntity
  8
0
 62
     0
370
    -2
100
AcDbLine
 10
1611.945237769248
 20
-1018.451427560047
 30
0.0
 11
1580.530032264116
 21
-1018.451427560047
 31
0.0
  0
LINE
  5
F51
330
F4E
100
AcDbEntity
  8
0
 62
     0
370
    -2
100
AcDbLine
 10
1611.945237769248
 20
-1052.451427560047
 30
0.0
 11
1580.530032264116
 21
-1052.451427560047
 31
0.0
  0
LINE
  5
F52
330
F4E
100
AcDbEntity
  8
0
 62
     0
370
    -2
100
AcDbLine
 10
1581.780032264116
 20
-1020.951427560047
 30
0.0
 11
1581.780032264116
 21
-1049.951427560047
 31
0.0
  0
INSERT
  5
F53
330
F4E
100
AcDbEntity
  8
0
 62
     0
370
    -2
100
AcDbBlockReference
  2
_Open30
 10
1581.780032264116
 20
-1018.451427560047
 30
0.0
 41
2.5
 42
2.5
 43
2.5
 50
90.0
  0
INSERT
  5
F54
330
F4E
100
AcDbEntity
  8
0
 62
     0
370
    -2
100
AcDbBlockReference
  2
_Open30
 10
1581.780032264116
 20
-1052.451427560047
 30
0.0
 41
2.5
 42
2.5
 43
2.5
 50
270.0
  0
MTEXT
  5
F55
330
F4E
100
AcDbEntity
  8
0
 62
     4
100
AcDbMText
 10
1579.655032264116
 20
-1035.451427560047
 30
0.0
 40
3.0
 41
0.0
 71
     5
 72
     1
  1
%%C34
 11
0.0000000000000001
 21
1.0
 31
0.0
 73
     1
 44
1.0
1001
ACAD
1000
MTEXTBEGIN
1070
    73
1070
     1
1070
    44
1040
1.0
1070
    74
1070
     0
1000
MTEXTEND
  0
POINT
  5
F56
330
F4E
100
AcDbEntity
  8
Defpoints
 62
     0
100
AcDbPoint
 10
1612.195237769247
 20
-1018.451427560047
 30
0.0
  0
POINT
  5
F57
330
F4E
100
AcDbEntity
  8
Defpoints
 62
     0
100
AcDbPoint
 10
1612.195237769247
 20
-1052.451427560047
 30
0.0
  0
POINT
  5
F58
330
F4E
100
AcDbEntity
  8
Defpoints
 62
     0
100
AcDbPoint
 10
1581.780032264116
 20
-1052.451427560047
 30
0.0
  0
ENDBLK
  5
F59
330
F4E
100
AcDbEntity
  8
0
100
AcDbBlockEnd
  0
BLOCK
  5
1645
330
1644
100
AcDbEntity
  8
0
100
AcDbBlockBegin
  2
*D6
 70
     1
 10
0.0
 20
0.0
 30
0.0
  3
*D6
  1

  0
LINE
  5
17D8
330
1644
100
AcDbEntity
  8
0
 62
     0
370
    -2
100
AcDbLine
 10
2140.077327998875
 20
255.4223209962763
 30
0.0
 11
2140.077327998875
 21
295.8162209724537
 31
0.0
  0
LINE
  5
17D9
330
1644
100
AcDbEntity
  8
0
 62
     0
370
    -2
100
AcDbLine
 10
2286.077327998875
 20
252.1223209962764
 30
0.0
 11
2286.077327998875
 21
295.8162209724537
 31
0.0
  0
LINE
  5
17DA
330
1644
100
AcDbEntity
  8
0
 62
     0
370
    -2
100
AcDbLine
 10
2142.577327998875
 20
294.5662209724537
 30
0.0
 11
2283.577327998875
 21
294.5662209724537
 31
0.0
  0
INSERT
  5
17DB
330
1644
100
AcDbEntity
  8
0
 62
     0
370
    -2
100
AcDbBlockReference
  2
_Open30
 10
2140.077327998875
 20
294.5662209724537
 30
0.0
 41
2.5
 42
2.5
 43
2.5
 50
180.0
  0
INSERT
  5
17DC
330
1644
100
AcDbEntity
  8
0
 62
     0
370
    -2
100
AcDbBlockReference
  2
_Open30
 10
2286.077327998875
 20
294.5662209724537
 30
0.0
 41
2.5
 42
2.5
 43
2.5
  0
MTEXT
  5
17DD
330
1644
100
AcDbEntity
  8
0
 62
     4
100
AcDbMText
 10
2209.577327998875
 20
296.6912209724537
 30
0.0
 40
3.0
 41
0.0
 71
     5
 72
     1
  1
146～163.5
 73
     1
 44
1.0
1001
ACAD
1000
MTEXTBEGIN
1070
    73
1070
     1
1070
    44
1040
1.0
1070
    74
1070
     0
1000
MTEXTEND
  0
POINT
  5
17DE
330
1644
100
AcDbEntity
  8
Defpoints
 62
     0
100
AcDbPoint
 10
2140.077327998875
 20
255.1723209962763
 30
0.0
  0
POINT
  5
17DF
330
1644
100
AcDbEntity
  8
Defpoints
 62
     0
100
AcDbPoint
 10
2286.077327998875
 20
251.8723209962764
 30
0.0
  0
POINT
  5
17E0
330
1644
100
AcDbEntity
  8
Defpoints
 62
     0
100
AcDbPoint
 10
2286.077327998875
 20
294.5662209724537
 30
0.0
  0
ENDBLK
  5
1646
330
1644
100
AcDbEntity
  8
0
100
AcDbBlockEnd
  0
BLOCK
  5
1651
330
1650
100
AcDbEntity
  8
0
100
AcDbBlockBegin
  2
*D7
 70
     1
 10
0.0
 20
0.0
 30
0.0
  3
*D7
  1

  0
LINE
  5
17E1
330
1650
100
AcDbEntity
  8
0
 62
     0
370
    -2
100
AcDbLine
 10
2161.030817563002
 20
256.6723209962763
 30
0.0
 11
2129.615612057871
 21
256.6723209962763
 31
0.0
  0
LINE
  5
17E2
330
1650
100
AcDbEntity
  8
0
 62
     0
370
    -2
100
AcDbLine
 10
2161.030817563002
 20
222.6723209962763
 30
0.0
 11
2129.615612057871
 21
222.6723209962763
 31
0.0
  0
LINE
  5
17E3
330
1650
100
AcDbEntity
  8
0
 62
     0
370
    -2
100
AcDbLine
 10
2130.865612057871
 20
254.1723209962763
 30
0.0
 11
2130.865612057871
 21
225.1723209962763
 31
0.0
  0
INSERT
  5
17E4
330
1650
100
AcDbEntity
  8
0
 62
     0
370
    -2
100
AcDbBlockReference
  2
_Open30
 10
2130.865612057871
 20
256.6723209962763
 30
0.0
 41
2.5
 42
2.5
 43
2.5
 50
90.0
  0
INSERT
  5
17E5
330
1650
100
AcDbEntity
  8
0
 62
     0
370
    -2
100
AcDbBlockReference
  2
_Open30
 10
2130.865612057871
 20
222.6723209962763
 30
0.0
 41
2.5
 42
2.5
 43
2.5
 50
270.0
  0
MTEXT
  5
17E6
330
1650
100
AcDbEntity
  8
0
 62
     4
100
AcDbMText
 10
2128.740612057871
 20
239.6723209962763
 30
0.0
 40
3.0
 41
0.0
 71
     5
 72
     1
  1
%%C34
 11
0.0000000000000001
 21
1.0
 31
0.0
 73
     1
 44
1.0
1001
ACAD
1000
MTEXTBEGIN
1070
    73
1070
     1
1070
    44
1040
1.0
1070
    74
1070
     0
1000
MTEXTEND
  0
POINT
  5
17E7
330
1650
100
AcDbEntity
  8
Defpoints
 62
     0
100
AcDbPoint
 10
2161.280817563002
 20
256.6723209962763
 30
0.0
  0
POINT
  5
17E8
330
1650
100
AcDbEntity
  8
Defpoints
 62
     0
100
AcDbPoint
 10
2161.280817563002
 20
222.6723209962763
 30
0.0
  0
POINT
  5
17E9
330
1650
100
AcDbEntity
  8
Defpoints
 62
     0
100
AcDbPoint
 10
2130.865612057871
 20
222.6723209962763
 30
0.0
  0
ENDBLK
  5
1652
330
1650
100
AcDbEntity
  8
0
100
AcDbBlockEnd
  0
BLOCK
  5
19A1
330
19A0
100
AcDbEntity
  8
0
100
AcDbBlockBegin
  2
*D8
 70
     1
 10
0.0
 20
0.0
 30
0.0
  3
*D8
  1

  0
LINE
  5
20C6
330
19A0
100
AcDbEntity
  8
0
 62
     0
370
    -2
100
AcDbLine
 10
2292.468092630824
 20
260.0221864763148
 30
0.0
 11
2314.380848367842
 21
260.0221864763148
 31
0.0
  0
LINE
  5
20C7
330
19A0
100
AcDbEntity
  8
0
 62
     0
370
    -2
100
AcDbLine
 10
2292.468092630824
 20
179.0221864763148
 30
0.0
 11
2314.380848367842
 21
179.0221864763148
 31
0.0
  0
LINE
  5
20C8
330
19A0
100
AcDbEntity
  8
0
 62
     0
370
    -2
100
AcDbLine
 10
2313.130848367842
 20
257.5221864763148
 30
0.0
 11
2313.130848367842
 21
181.5221864763148
 31
0.0
  0
INSERT
  5
20C9
330
19A0
100
AcDbEntity
  8
0
 62
     0
370
    -2
100
AcDbBlockReference
  2
_Open30
 10
2313.130848367842
 20
260.0221864763148
 30
0.0
 41
2.5
 42
2.5
 43
2.5
 50
90.0
  0
INSERT
  5
20CA
330
19A0
100
AcDbEntity
  8
0
 62
     0
370
    -2
100
AcDbBlockReference
  2
_Open30
 10
2313.130848367842
 20
179.0221864763148
 30
0.0
 41
2.5
 42
2.5
 43
2.5
 50
270.0
  0
MTEXT
  5
20CB
330
19A0
100
AcDbEntity
  8
0
 62
     4
100
AcDbMText
 10
2311.005848367842
 20
219.5221864763148
 30
0.0
 40
3.0
 41
0.0
 71
     5
 72
     1
  1
81
 11
0.0000000000000001
 21
1.0
 31
0.0
 73
     1
 44
1.0
1001
ACAD
1000
MTEXTBEGIN
1070
    73
1070
     1
1070
    44
1040
1.0
1070
    74
1070
     0
1000
MTEXTEND
  0
POINT
  5
20CC
330
19A0
100
AcDbEntity
  8
Defpoints
 62
     0
100
AcDbPoint
 10
2292.218092630824
 20
260.0221864763148
 30
0.0
  0
POINT
  5
20CD
330
19A0
100
AcDbEntity
  8
Defpoints
 62
     0
100
AcDbPoint
 10
2292.218092630824
 20
179.0221864763148
 30
0.0
  0
POINT
  5
20CE
330
19A0
100
AcDbEntity
  8
Defpoints
 62
     0
100
AcDbPoint
 10
2313.130848367842
 20
179.0221864763148
 30
0.0
  0
ENDBLK
  5
19A2
330
19A0
100
AcDbEntity
  8
0
100
AcDbBlockEnd
  0
BLOCK
  5
1A09
330
1A08
100
AcDbEntity
  8
0
100
AcDbBlockBegin
  2
*D9
 70
     1
 10
0.0
 20
0.0
 30
0.0
  3
*D9
  1

  0
LINE
  5
2213
330
1A08
100
AcDbEntity
  8
0
 62
     0
370
    -2
100
AcDbLine
 10
2188.581275987739
 20
274.7721864763148
 30
0.0
 11
2188.581275987739
 21
281.4146576174542
 31
0.0
  0
LINE
  5
2214
330
1A08
100
AcDbEntity
  8
0
 62
     0
370
    -2
100
AcDbLine
 10
2215.581275987739
 20
274.7721864763148
 30
0.0
 11
2215.581275987739
 21
281.4146576174542
 31
0.0
  0
LINE
  5
2215
330
1A08
100
AcDbEntity
  8
0
 62
     0
370
    -2
100
AcDbLine
 10
2191.081275987739
 20
280.1646576174542
 30
0.0
 11
2213.081275987739
 21
280.1646576174542
 31
0.0
  0
INSERT
  5
2216
330
1A08
100
AcDbEntity
  8
0
 62
     0
370
    -2
100
AcDbBlockReference
  2
_Open30
 10
2188.581275987739
 20
280.1646576174542
 30
0.0
 41
2.5
 42
2.5
 43
2.5
 50
180.0
  0
INSERT
  5
2217
330
1A08
100
AcDbEntity
  8
0
 62
     0
370
    -2
100
AcDbBlockReference
  2
_Open30
 10
2215.581275987739
 20
280.1646576174542
 30
0.0
 41
2.5
 42
2.5
 43
2.5
  0
MTEXT
  5
2218
330
1A08
100
AcDbEntity
  8
0
 62
     4
100
AcDbMText
 10
2201.968606853052
 20
282.2896576174542
 30
0.0
 40
3.0
 41
0.0
 71
     5
 72
     1
  1
27
 73
     1
 44
1.0
1001
ACAD
1000
MTEXTBEGIN
1070
    73
1070
     1
1070
    44
1040
1.0
1070
    74
1070
     0
1000
MTEXTEND
  0
POINT
  5
2219
330
1A08
100
AcDbEntity
  8
Defpoints
 62
     0
100
AcDbPoint
 10
2188.581275987739
 20
274.5221864763148
 30
0.0
  0
POINT
  5
221A
330
1A08
100
AcDbEntity
  8
Defpoints
 62
     0
100
AcDbPoint
 10
2215.581275987739
 20
274.5221864763148
 30
0.0
  0
POINT
  5
221B
330
1A08
100
AcDbEntity
  8
Defpoints
 62
     0
100
AcDbPoint
 10
2215.581275987739
 20
280.1646576174542
 30
0.0
  0
ENDBLK
  5
1A0A
330
1A08
100
AcDbEntity
  8
0
100
AcDbBlockEnd
  0
BLOCK
  5
1A21
330
1A20
100
AcDbEntity
  8
0
100
AcDbBlockBegin
  2
*D10
 70
     1
 10
0.0
 20
0.0
 30
0.0
  3
*D10
  1

  0
LINE
  5
221C
330
1A20
100
AcDbEntity
  8
0
 62
     0
370
    -2
100
AcDbLine
 10
2189.331275987739
 20
275.5221864763148
 30
0.0
 11
2168.481041079462
 21
275.5221864763149
 31
0.0
  0
LINE
  5
221D
330
1A20
100
AcDbEntity
  8
0
 62
     0
370
    -2
100
AcDbLine
 10
2188.331275987739
 20
164.0221864763148
 30
0.0
 11
2168.481041079462
 21
164.0221864763148
 31
0.0
  0
LINE
  5
221E
330
1A20
100
AcDbEntity
  8
0
 62
     0
370
    -2
100
AcDbLine
 10
2169.731041079462
 20
273.0221864763148
 30
0.0
 11
2169.731041079462
 21
166.5221864763148
 31
0.0
  0
INSERT
  5
221F
330
1A20
100
AcDbEntity
  8
0
 62
     0
370
    -2
100
AcDbBlockReference
  2
_Open30
 10
2169.731041079462
 20
275.5221864763149
 30
0.0
 41
2.5
 42
2.5
 43
2.5
 50
90.0
  0
INSERT
  5
2220
330
1A20
100
AcDbEntity
  8
0
 62
     0
370
    -2
100
AcDbBlockReference
  2
_Open30
 10
2169.731041079462
 20
164.0221864763148
 30
0.0
 41
2.5
 42
2.5
 43
2.5
 50
270.0
  0
MTEXT
  5
2221
330
1A20
100
AcDbEntity
  8
0
 62
     4
100
AcDbMText
 10
2167.606041079462
 20
217.8300962536509
 30
0.0
 40
3.0
 41
0.0
 71
     5
 72
     1
  1
111.5
 11
0.0000000000000001
 21
1.0
 31
0.0
 73
     1
 44
1.0
1001
ACAD
1000
MTEXTBEGIN
1070
    73
1070
     1
1070
    44
1040
1.0
1070
    74
1070
     0
1000
MTEXTEND
  0
POINT
  5
2222
330
1A20
100
AcDbEntity
  8
Defpoints
 62
     0
100
AcDbPoint
 10
2189.581275987739
 20
275.5221864763148
 30
0.0
  0
POINT
  5
2223
330
1A20
100
AcDbEntity
  8
Defpoints
 62
     0
100
AcDbPoint
 10
2188.581275987739
 20
164.0221864763148
 30
0.0
  0
POINT
  5
2224
330
1A20
100
AcDbEntity
  8
Defpoints
 62
     0
100
AcDbPoint
 10
2169.731041079462
 20
164.0221864763148
 30
0.0
  0
ENDBLK
  5
1A22
330
1A20
100
AcDbEntity
  8
0
100
AcDbBlockEnd
  0
BLOCK
  5
1A39
330
1A38
100
AcDbEntity
  8
0
100
AcDbBlockBegin
  2
*D11
 70
     1
 10
0.0
 20
0.0
 30
0.0
  3
*D11
  1

  0
LINE
  5
2225
330
1A38
100
AcDbEntity
  8
0
 62
     0
370
    -2
100
AcDbLine
 10
2298.218092630824
 20
269.2721864763148
 30
0.0
 11
2298.218092630824
 21
285.5424722571591
 31
0.0
  0
LINE
  5
2226
330
1A38
100
AcDbEntity
  8
0
 62
     0
370
    -2
100
AcDbLine
 10
2267.218092630824
 20
259.4721864763148
 30
0.0
 11
2267.218092630824
 21
285.5424722571591
 31
0.0
  0
LINE
  5
2227
330
1A38
100
AcDbEntity
  8
0
 62
     0
370
    -2
100
AcDbLine
 10
2295.718092630824
 20
284.2924722571591
 30
0.0
 11
2269.718092630824
 21
284.2924722571591
 31
0.0
  0
INSERT
  5
2228
330
1A38
100
AcDbEntity
  8
0
 62
     0
370
    -2
100
AcDbBlockReference
  2
_Open30
 10
2298.218092630824
 20
284.2924722571591
 30
0.0
 41
2.5
 42
2.5
 43
2.5
  0
INSERT
  5
2229
330
1A38
100
AcDbEntity
  8
0
 62
     0
370
    -2
100
AcDbBlockReference
  2
_Open30
 10
2267.218092630824
 20
284.2924722571591
 30
0.0
 41
2.5
 42
2.5
 43
2.5
 50
180.0
  0
MTEXT
  5
222A
330
1A38
100
AcDbEntity
  8
0
 62
     4
100
AcDbMText
 10
2281.442677085512
 20
286.4174722571591
 30
0.0
 40
3.0
 41
0.0
 71
     5
 72
     1
  1
31
 73
     1
 44
1.0
1001
ACAD
1000
MTEXTBEGIN
1070
    73
1070
     1
1070
    44
1040
1.0
1070
    74
1070
     0
1000
MTEXTEND
  0
POINT
  5
222B
330
1A38
100
AcDbEntity
  8
Defpoints
 62
     0
100
AcDbPoint
 10
2298.218092630824
 20
269.0221864763148
 30
0.0
  0
POINT
  5
222C
330
1A38
100
AcDbEntity
  8
Defpoints
 62
     0
100
AcDbPoint
 10
2267.218092630824
 20
259.2221864763148
 30
0.0
  0
POINT
  5
222D
330
1A38
100
AcDbEntity
  8
Defpoints
 62
     0
100
AcDbPoint
 10
2267.218092630824
 20
284.2924722571591
 30
0.0
  0
ENDBLK
  5
1A3A
330
1A38
100
AcDbEntity
  8
0
100
AcDbBlockEnd
  0
BLOCK
  5
1A51
330
1A50
100
AcDbEntity
  8
0
100
AcDbBlockBegin
  2
*D12
 70
     1
 10
0.0
 20
0.0
 30
0.0
  3
*D12
  1

  0
LINE
  5
222E
330
1A50
100
AcDbEntity
  8
0
 62
     0
370
    -2
100
AcDbLine
 10
2292.218092630824
 20
163.7721864763148
 30
0.0
 11
2292.218092630824
 21
153.2378322468385
 31
0.0
  0
LINE
  5
222F
330
1A50
100
AcDbEntity
  8
0
 62
     0
370
    -2
100
AcDbLine
 10
2268.218092630824
 20
166.7721864763148
 30
0.0
 11
2268.218092630824
 21
153.2378322468385
 31
0.0
  0
LINE
  5
2230
330
1A50
100
AcDbEntity
  8
0
 62
     0
370
    -2
100
AcDbLine
 10
2289.718092630824
 20
154.4878322468385
 30
0.0
 11
2270.718092630824
 21
154.4878322468385
 31
0.0
  0
INSERT
  5
2231
330
1A50
100
AcDbEntity
  8
0
 62
     0
370
    -2
100
AcDbBlockReference
  2
_Open30
 10
2292.218092630824
 20
154.4878322468385
 30
0.0
 41
2.5
 42
2.5
 43
2.5
  0
INSERT
  5
2232
330
1A50
100
AcDbEntity
  8
0
 62
     0
370
    -2
100
AcDbBlockReference
  2
_Open30
 10
2268.218092630824
 20
154.4878322468385
 30
0.0
 41
2.5
 42
2.5
 43
2.5
 50
180.0
  0
MTEXT
  5
2233
330
1A50
100
AcDbEntity
  8
0
 62
     4
100
AcDbMText
 10
2279.744985193817
 20
156.6128322468385
 30
0.0
 40
3.0
 41
0.0
 71
     5
 72
     1
  1
24
 73
     1
 44
1.0
1001
ACAD
1000
MTEXTBEGIN
1070
    73
1070
     1
1070
    44
1040
1.0
1070
    74
1070
     0
1000
MTEXTEND
  0
POINT
  5
2234
330
1A50
100
AcDbEntity
  8
Defpoints
 62
     0
100
AcDbPoint
 10
2292.218092630824
 20
164.0221864763148
 30
0.0
  0
POINT
  5
2235
330
1A50
100
AcDbEntity
  8
Defpoints
 62
     0
100
AcDbPoint
 10
2268.218092630824
 20
167.0221864763148
 30
0.0
  0
POINT
  5
2236
330
1A50
100
AcDbEntity
  8
Defpoints
 62
     0
100
AcDbPoint
 10
2268.218092630824
 20
154.4878322468385
 30
0.0
  0
ENDBLK
  5
1A52
330
1A50
100
AcDbEntity
  8
0
100
AcDbBlockEnd
  0
BLOCK
  5
1A71
330
1A6F
100
AcDbEntity
  8
0
100
AcDbBlockBegin
  2
_DotSmall
 70
     0
 10
0.0
 20
0.0
 30
0.0
  3
_DotSmall
  1

  0
LWPOLYLINE
  5
1A70
330
1A6F
100
AcDbEntity
  8
0
  6
ByBlock
 62
     0
100
AcDbPolyline
 90
        2
 70
     1
 43
0.5
 10
-0.0625
 20
0.0
 42
1.0
 10
0.0625
 20
0.0
 42
1.0
  0
ENDBLK
  5
1A72
330
1A6F
100
AcDbEntity
  8
0
100
AcDbBlockEnd
  0
ENDSEC
  0
SECTION
  2
ENTITIES
  0
LINE
  5
12D5
330
1F
100
AcDbEntity
  8
0
 62
     3
100
AcDbLine
 10
2067.410791573775
 20
340.0037291791458
 30
0.0
 11
2067.410791573775
 21
66.00372917914592
 31
0.0
  0
LINE
  5
12D6
330
1F
100
AcDbEntity
  8
0
 62
     3
100
AcDbLine
 10
2457.410791573775
 20
66.00372917914592
 30
0.0
 11
2457.410791573775
 21
340.0037291791458
 31
0.0
  0
LINE
  5
12D7
330
1F
100
AcDbEntity
  8
0
 62
     3
100
AcDbLine
 10
2067.410791573775
 20
66.00372917914592
 30
0.0
 11
2457.410791573775
 21
66.00372917914592
 31
0.0
  0
LINE
  5
12D8
330
1F
100
AcDbEntity
  8
0
 62
     3
100
AcDbLine
 10
2286.067516753775
 20
340.0037291791458
 30
0.0
 11
2457.410791573775
 21
340.0037291791458
 31
0.0
  0
LINE
  5
12D9
330
1F
100
AcDbEntity
  8
0
 62
     3
100
AcDbLine
 10
2237.513482083775
 20
340.0037291791458
 30
0.0
 11
2067.410791573775
 21
340.0037291791458
 31
0.0
  0
LINE
  5
12DA
330
1F
100
AcDbEntity
  8
0
 62
     3
100
AcDbLine
 10
2055.008867783775
 20
206.4483681291458
 30
0.0
 11
2052.410791573775
 21
204.9483681291458
 31
0.0
  0
LINE
  5
12DB
330
1F
100
AcDbEntity
  8
0
 62
     3
100
AcDbLine
 10
2055.008867783775
 20
206.4483681291458
 30
0.0
 11
2052.410791573775
 21
207.9483681291458
 31
0.0
  0
LINE
  5
12DC
330
1F
100
AcDbEntity
  8
0
 62
     3
100
AcDbLine
 10
2052.410791573775
 20
204.9483681291458
 30
0.0
 11
2052.410791573775
 21
207.9483681291458
 31
0.0
  0
LINE
  5
12DF
330
1F
100
AcDbEntity
  8
0
 62
     3
100
AcDbLine
 10
2405.410791573775
 20
66.00372917914592
 30
0.0
 11
2405.410791573775
 21
106.0037291791459
 31
0.0
  0
LINE
  5
12E0
330
1F
100
AcDbEntity
  8
0
 62
     3
100
AcDbLine
 10
2418.410791573775
 20
76.00372917914592
 30
0.0
 11
2418.410791573775
 21
104.0037291791459
 31
0.0
  0
LINE
  5
12E1
330
1F
100
AcDbEntity
  8
0
 62
     3
100
AcDbLine
 10
2378.410791573775
 20
76.00372917914592
 30
0.0
 11
2378.410791573775
 21
90.00372917914592
 31
0.0
  0
LINE
  5
12E2
330
1F
100
AcDbEntity
  8
0
 62
     3
100
AcDbLine
 10
2388.410791573775
 20
90.00372917914592
 30
0.0
 11
2388.410791573775
 21
66.00372917914592
 31
0.0
  0
LINE
  5
12E3
330
1F
100
AcDbEntity
  8
0
 62
     3
100
AcDbLine
 10
2359.410791573775
 20
106.0037291791459
 30
0.0
 11
2359.410791573775
 21
83.00372917914591
 31
0.0
  0
LINE
  5
12E4
330
1F
100
AcDbEntity
  8
0
 62
     3
100
AcDbLine
 10
2418.410791573775
 20
104.0037291791459
 30
0.0
 11
2418.410791573775
 21
106.0037291791459
 31
0.0
  0
LINE
  5
12E5
330
1F
100
AcDbEntity
  8
0
 62
     3
100
AcDbLine
 10
2431.410791573775
 20
83.00372917914591
 30
0.0
 11
2431.410791573775
 21
106.0037291791459
 31
0.0
  0
LINE
  5
12E6
330
1F
100
AcDbEntity
  8
0
 62
     3
100
AcDbLine
 10
2457.410791573775
 20
106.0037291791459
 30
0.0
 11
2346.165356933775
 21
106.0037291791459
 31
0.0
  0
LINE
  5
12E7
330
1F
100
AcDbEntity
  8
0
 62
     3
100
AcDbLine
 10
2457.410791573775
 20
97.00372917914592
 30
0.0
 11
2346.165356933775
 21
97.00372917914592
 31
0.0
  0
LINE
  5
12E8
330
1F
100
AcDbEntity
  8
0
 62
     3
100
AcDbLine
 10
2457.410791573775
 20
83.00372917914591
 30
0.0
 11
2346.165356933775
 21
83.00372917914591
 31
0.0
  0
LINE
  5
12E9
330
1F
100
AcDbEntity
  8
0
 62
     3
100
AcDbLine
 10
2457.410791573775
 20
76.00372917914592
 30
0.0
 11
2346.107349073776
 21
76.00372917914592
 31
0.0
  0
LINE
  5
12EA
330
1F
100
AcDbEntity
  8
0
 62
     3
100
AcDbLine
 10
2444.410791573775
 20
83.00372917914591
 30
0.0
 11
2444.410791573775
 21
106.0037291791459
 31
0.0
  0
LINE
  5
12EB
330
1F
100
AcDbEntity
  8
0
 62
     3
100
AcDbLine
 10
2346.165356933775
 20
106.0037291791459
 30
0.0
 11
2346.165356933775
 21
66.00372917914592
 31
0.0
  0
LINE
  5
12EC
330
1F
100
AcDbEntity
  8
0
 62
     3
100
AcDbLine
 10
2405.410791573775
 20
90.00372917914592
 30
0.0
 11
2346.165356933775
 21
90.00372917914592
 31
0.0
  0
LINE
  5
12ED
330
1F
100
AcDbEntity
  8
0
 62
     3
100
AcDbLine
 10
2388.689116503775
 20
70.83659043914576
 30
0.0
 11
2405.410791573775
 21
70.83659043914576
 31
0.0
  0
TEXT
  5
12EE
330
1F
100
AcDbEntity
  8
0
 62
     3
100
AcDbText
 10
2447.476380667249
 20
102.5174212778495
 30
0.0
 40
2.0
  1
DEF
  7
高2
100
AcDbText
  0
TEXT
  5
12EF
330
1F
100
AcDbEntity
  8
0
 62
     3
100
AcDbText
 10
2433.537282313541
 20
102.5174212778493
 30
0.0
 40
2.0
  1
DESN
  7
高2
100
AcDbText
  0
TEXT
  5
12F0
330
1F
100
AcDbEntity
  8
0
 62
     3
100
AcDbText
 10
2407.282915373541
 20
102.5174212778495
 30
0.0
 40
2.0
  1
APPD
  7
高2
100
AcDbText
  0
TEXT
  5
12F1
330
1F
100
AcDbEntity
  8
0
 62
     3
100
AcDbText
 10
2420.395651473775
 20
102.5174212778495
 30
0.0
 40
2.0
  1
CHCK
  7
高2
100
AcDbText
  0
TEXT
  5
12F2
330
1F
100
AcDbEntity
  8
0
 62
     3
100
AcDbText
 10
2379.337957212928
 20
80.17212800237667
 30
0.0
 40
2.0
  1
SCALE
 41
0.8
  7
高2
100
AcDbText
  0
TEXT
  5
12F3
330
1F
100
AcDbEntity
  8
0
 62
     3
100
AcDbText
 10
2347.849935636821
 20
80.17212800237667
 30
0.0
 40
2.0
  1
3AD　ANGLE
 41
1.5
  7
高2
100
AcDbText
  0
TEXT
  5
12F4
330
1F
100
AcDbEntity
  8
0
 62
     3
100
AcDbText
 10
2378.607362903776
 20
86.92366607133362
 30
0.0
 40
2.0
  1
REMARKS
 41
0.7
  7
高2
100
AcDbText
  0
TEXT
  5
12F5
330
1F
100
AcDbEntity
  8
0
 62
     3
100
AcDbText
 10
2347.633027283775
 20
87.00372917914592
 30
0.0
 40
2.0
  1
MATERIAL
 41
0.7
  7
高2
100
AcDbText
  0
TEXT
  5
12F6
330
1F
100
AcDbEntity
  8
0
 62
     3
100
AcDbText
 10
2348.20951448653
 20
94.00372917914593
 30
0.0
 40
2.0
  1
MODEL
  7
高2
100
AcDbText
  0
TEXT
  5
12F7
330
1F
100
AcDbEntity
  8
0
 62
     3
100
AcDbText
 10
2347.846435367861
 20
102.7107505297449
 30
0.0
 40
2.0
  1
CONPONENTS
 41
0.5
  7
高2
100
AcDbText
  0
TEXT
  5
12F8
330
1F
100
AcDbEntity
  8
0
 62
     3
100
AcDbText
 10
2392.198389468422
 20
77.10464618171363
 30
0.0
 40
3.2
  1
1/1
  7
高3.2
100
AcDbText
  0
TEXT
  5
12F9
330
1F
100
AcDbEntity
  8
0
 62
     3
100
AcDbText
 10
2389.275718443775
 20
66.82060735228174
 30
0.0
 40
3.2
  1
ZK-A3X
 41
0.8
  7
高3.2
100
AcDbText
  0
TEXT
  5
12FA
330
1F
100
AcDbEntity
  8
0
 62
     3
100
AcDbText
 10
2346.996057973775
 20
72.52834960133373
 30
0.0
 40
2.0
  1
NICHIDO IND.CO.LTD
 41
1.3
  7
高2
100
AcDbText
  0
TEXT
  5
12FB
330
1F
100
AcDbEntity
  8
0
 62
     3
100
AcDbText
 10
2348.177581238732
 20
98.14425738703086
 30
0.0
 40
3.2
  1
品 名
  7
高3.2
100
AcDbText
1001
ACAD
1000
ACAD_MTEXT_DEFINED_HEIGHT_BEGIN
1070
    46
1040
0.0
1000
ACAD_MTEXT_DEFINED_HEIGHT_END
  0
TEXT
  5
12FC
330
1F
100
AcDbEntity
  8
0
 62
     3
100
AcDbText
 10
2348.177581238732
 20
90.50372917914591
 30
0.0
 40
3.2
  1
型 式
  7
高3.2
100
AcDbText
1001
ACAD
1000
ACAD_MTEXT_DEFINED_HEIGHT_BEGIN
1070
    46
1040
3.064735913775952
1000
ACAD_MTEXT_DEFINED_HEIGHT_END
  0
TEXT
  5
12FD
330
1F
100
AcDbEntity
  8
0
 62
     3
100
AcDbText
 10
2348.177581238732
 20
83.50372917914592
 30
0.0
 40
3.2
  1
材 質
  7
高3.2
100
AcDbText
1001
ACAD
1000
ACAD_MTEXT_DEFINED_HEIGHT_BEGIN
1070
    46
1040
0.0
1000
ACAD_MTEXT_DEFINED_HEIGHT_END
  0
TEXT
  5
12FE
330
1F
100
AcDbEntity
  8
0
 62
     3
100
AcDbText
 10
2347.872546288732
 20
76.47116917139214
 30
0.0
 40
3.2
  1
第 三 角 法
  7
高3.2
100
AcDbText
1001
ACAD
1000
ACAD_MTEXT_DEFINED_HEIGHT_BEGIN
1070
    46
1040
0.0
1000
ACAD_MTEXT_DEFINED_HEIGHT_END
  0
TEXT
  5
12FF
330
1F
100
AcDbEntity
  8
0
 62
     3
100
AcDbText
 10
2346.279078896261
 20
67.14425738703083
 30
0.0
 40
3.2
  1
日動工業株式会社
 41
1.199999999999999
  7
高3.2
100
AcDbText
1001
ACAD
1000
ACAD_MTEXT_DEFINED_HEIGHT_BEGIN
1070
    46
1040
0.0
1000
ACAD_MTEXT_DEFINED_HEIGHT_END
  0
TEXT
  5
1300
330
1F
100
AcDbEntity
  8
0
 62
     3
100
AcDbText
 10
2379.91470309574
 20
83.38830771231345
 30
0.0
 40
3.2
  1
備考
  7
高3.2
100
AcDbText
1001
ACAD
1000
ACAD_MTEXT_DEFINED_HEIGHT_BEGIN
1070
    46
1040
0.0
1000
ACAD_MTEXT_DEFINED_HEIGHT_END
  0
TEXT
  5
1301
330
1F
100
AcDbEntity
  8
0
 62
     3
100
AcDbText
 10
2389.563760542775
 20
72.14995920471618
 30
0.0
 40
2.5
  1
出図コード
  7
高2.5
100
AcDbText
1001
ACAD
1000
ACAD_MTEXT_DEFINED_HEIGHT_BEGIN
1070
    46
1040
0.0
1000
ACAD_MTEXT_DEFINED_HEIGHT_END
  0
TEXT
  5
1302
330
1F
100
AcDbEntity
  8
0
 62
     3
100
AcDbText
 10
2379.755936977652
 20
76.45696408955881
 30
0.0
 40
3.2
  1
尺度
  7
高3.2
100
AcDbText
1001
ACAD
1000
ACAD_MTEXT_DEFINED_HEIGHT_BEGIN
1070
    46
1040
0.0
1000
ACAD_MTEXT_DEFINED_HEIGHT_END
  0
TEXT
  5
1303
330
1F
100
AcDbEntity
  8
0
 62
     3
100
AcDbText
 10
2406.902198459431
 20
77.5884425376762
 30
0.0
 40
3.2
  1
作成日
  7
高3.2
100
AcDbText
1001
ACAD
1000
ACAD_MTEXT_DEFINED_HEIGHT_BEGIN
1070
    46
1040
0.0
1000
ACAD_MTEXT_DEFINED_HEIGHT_END
  0
TEXT
  5
1304
330
1F
100
AcDbEntity
  8
0
 62
     3
100
AcDbText
 10
2406.796672466295
 20
98.14425738703086
 30
0.0
 40
3.2
  1
承 認
  7
高3.2
100
AcDbText
1001
ACAD
1000
ACAD_MTEXT_DEFINED_HEIGHT_BEGIN
1070
    46
1040
0.0
1000
ACAD_MTEXT_DEFINED_HEIGHT_END
  0
TEXT
  5
1305
330
1F
100
AcDbEntity
  8
0
 62
     3
100
AcDbText
 10
2419.796672466295
 20
98.14425738703086
 30
0.0
 40
3.2
  1
検 図
  7
高3.2
100
AcDbText
1001
ACAD
1000
ACAD_MTEXT_DEFINED_HEIGHT_BEGIN
1070
    46
1040
0.0
1000
ACAD_MTEXT_DEFINED_HEIGHT_END
  0
TEXT
  5
1306
330
1F
100
AcDbEntity
  8
0
 62
     3
100
AcDbText
 10
2432.796672466295
 20
98.14425738703086
 30
0.0
 40
3.2
  1
設 計
  7
高3.2
100
AcDbText
1001
ACAD
1000
ACAD_MTEXT_DEFINED_HEIGHT_BEGIN
1070
    46
1040
0.0
1000
ACAD_MTEXT_DEFINED_HEIGHT_END
  0
TEXT
  5
1307
330
1F
100
AcDbEntity
  8
0
 62
     3
100
AcDbText
 10
2446.097308986295
 20
98.14425738703086
 30
0.0
 40
3.2
  1
製 図
  7
高3.2
100
AcDbText
1001
ACAD
1000
ACAD_MTEXT_DEFINED_HEIGHT_BEGIN
1070
    46
1040
0.0
1000
ACAD_MTEXT_DEFINED_HEIGHT_END
  0
LINE
  5
1308
330
1F
100
AcDbEntity
  8
0
 62
     3
100
AcDbLine
 10
2246.389784114309
 20
342.3366858627594
 30
0.0
 11
2246.389784114309
 21
337.6019279143124
 31
0.0
  0
LINE
  5
1309
330
1F
100
AcDbEntity
  8
0
 62
     3
100
AcDbLine
 10
2247.35499293578
 20
340.4882296769827
 30
0.0
 11
2247.35499293578
 21
337.6019279143124
 31
0.0
  0
LINE
  5
130A
330
1F
100
AcDbEntity
  8
0
 62
     3
100
AcDbLine
 10
2250.063847121776
 20
342.3366858627594
 30
0.0
 11
2250.063847121776
 21
340.2519006964667
 31
0.0
  0
LINE
  5
130B
330
1F
100
AcDbEntity
  8
0
 62
     3
100
AcDbLine
 10
2251.029054931452
 20
342.3366858627594
 30
0.0
 11
2251.029054931452
 21
336.967345333867
 31
0.0
  0
LINE
  5
130C
330
1F
100
AcDbEntity
  8
0
 62
     3
100
AcDbLine
 10
2252.566511624515
 20
342.3041646850647
 30
0.0
 11
2252.566511624515
 21
337.5694644089267
 31
0.0
  0
LINE
  5
130D
330
1F
100
AcDbEntity
  8
0
 62
     3
100
AcDbLine
 10
2254.095823417721
 20
342.304143437372
 30
0.0
 11
2254.095823417721
 21
337.5694431612339
 31
0.0
  0
LINE
  5
130E
330
1F
100
AcDbEntity
  8
0
 62
     3
100
AcDbLine
 10
2259.757719919863
 20
342.3040726117295
 30
0.0
 11
2259.757636952683
 21
337.5693733473863
 31
0.0
  0
LINE
  5
130F
330
1F
100
AcDbEntity
  8
0
 62
     3
100
AcDbLine
 10
2264.436194753755
 20
342.3040726117295
 30
0.0
 11
2264.436277720936
 21
337.5693733473863
 31
0.0
  0
LINE
  5
1310
330
1F
100
AcDbEntity
  8
0
 62
     3
100
AcDbLine
 10
2262.873995579322
 20
340.2412646423243
 30
0.0
 11
2261.319919094296
 21
340.2412646423243
 31
0.0
  0
LINE
  5
1311
330
1F
100
AcDbEntity
  8
0
 62
     3
100
AcDbLine
 10
2262.873985461373
 20
339.6323219562817
 30
0.0
 11
2261.31993022404
 21
339.6323219562817
 31
0.0
  0
LINE
  5
1312
330
1F
100
AcDbEntity
  8
0
 62
     3
100
AcDbLine
 10
2262.874032003939
 20
342.3040726117295
 30
0.0
 11
2262.873995579322
 21
340.2412646423243
 31
0.0
  0
LINE
  5
1313
330
1F
100
AcDbEntity
  8
0
 62
     3
100
AcDbLine
 10
2262.873985461373
 20
339.6323219562817
 30
0.0
 11
2262.873949036757
 21
337.5693733473863
 31
0.0
  0
LINE
  5
1314
330
1F
100
AcDbEntity
  8
0
 62
     3
100
AcDbLine
 10
2261.31988266968
 20
342.3040726117295
 30
0.0
 11
2261.319919094296
 21
340.2412646423243
 31
0.0
  0
LINE
  5
1315
330
1F
100
AcDbEntity
  8
0
 62
     3
100
AcDbLine
 10
2261.31993022404
 20
339.6323219562817
 30
0.0
 11
2261.319965636861
 21
337.5693733473863
 31
0.0
  0
LINE
  5
1316
330
1F
100
AcDbEntity
  8
0
 62
     3
100
AcDbLine
 10
2265.977367633242
 20
342.3040726117295
 30
0.0
 11
2265.977284666062
 21
337.5693733473863
 31
0.0
  0
LINE
  5
1317
330
1F
100
AcDbEntity
  8
0
 62
     3
100
AcDbLine
 10
2267.506647049012
 20
342.3040726117295
 30
0.0
 11
2267.506729004398
 21
337.5693733473863
 31
0.0
  0
LINE
  5
1318
330
1F
100
AcDbEntity
  8
0
 62
     3
100
AcDbLine
 10
2269.065574372322
 20
342.3040726117295
 30
0.0
 11
2269.065492416936
 21
337.5693733473863
 31
0.0
  0
ARC
  5
1319
330
1F
100
AcDbEntity
  8
0
 62
     3
100
AcDbCircle
 10
2257.461862388144
 20
339.9503655160079
 30
0.0
 40
3.015561595733376
100
AcDbArc
 50
97.70152400000624
 51
266.0248408089489
  0
ARC
  5
131A
330
1F
100
AcDbEntity
  8
0
 62
     3
100
AcDbCircle
 10
2275.659761345216
 20
339.9200744004784
 30
0.0
 40
3.048311372854727
100
AcDbArc
 50
0.3142499999942746
 51
69.00558200000435
  0
ARC
  5
131B
330
1F
100
AcDbEntity
  8
0
 62
     3
100
AcDbCircle
 10
2276.325630647366
 20
339.9200744004784
 30
0.0
 40
3.048311372854727
100
AcDbArc
 50
110.9944179999956
 51
148.1166109999988
  0
ARC
  5
131C
330
1F
100
AcDbEntity
  8
0
 62
     3
100
AcDbCircle
 10
2275.659761345216
 20
339.9535121981275
 30
0.0
 40
3.048311372854727
100
AcDbArc
 50
290.9944179999956
 51
359.6857500000057
  0
ARC
  5
131D
330
1F
100
AcDbEntity
  8
0
 62
     3
100
AcDbCircle
 10
2276.325630647366
 20
339.9535121981275
 30
0.0
 40
3.048311372854727
100
AcDbArc
 50
211.8833889999929
 51
249.0055820000044
  0
ARC
  5
131E
330
1F
100
AcDbEntity
  8
0
 62
     3
100
AcDbCircle
 10
2275.992696502188
 20
341.1839104376638
 30
0.0
 40
1.754843910410663
100
AcDbArc
 50
64.36517200000719
 51
115.6348279999928
  0
ARC
  5
131F
330
1F
100
AcDbEntity
  8
0
 62
     3
100
AcDbCircle
 10
2275.992696502188
 20
338.6896761609423
 30
0.0
 40
1.754843910410663
100
AcDbArc
 50
244.3651720000072
 51
295.6348279999928
  0
ARC
  5
1320
330
1F
100
AcDbEntity
  8
0
 62
     3
100
AcDbCircle
 10
2275.992696502188
 20
341.2172450322337
 30
0.0
 40
0.8612620730595795
100
AcDbArc
 50
19.48660600000063
 51
160.513393999995
  0
ARC
  5
1321
330
1F
100
AcDbEntity
  8
0
 62
     3
100
AcDbCircle
 10
2275.992696502188
 20
338.6563425781673
 30
0.0
 40
0.8612620730595795
100
AcDbArc
 50
199.486606000005
 51
340.5133939999994
  0
LINE
  5
1322
330
1F
100
AcDbEntity
  8
0
 62
     3
100
AcDbLine
 10
2268.012958034996
 20
336.9348322505316
 30
0.0
 11
2265.47105664726
 21
336.9348322505316
 31
0.0
  0
LINE
  5
1323
330
1F
100
AcDbEntity
  8
0
 62
     3
100
AcDbLine
 10
2268.012958034996
 20
337.2406270212739
 30
0.0
 11
2268.012958034996
 21
336.9348322505316
 31
0.0
  0
LINE
  5
1324
330
1F
100
AcDbEntity
  8
0
 62
     3
100
AcDbLine
 10
2264.942506751533
 20
342.9386116849944
 30
0.0
 11
2262.367721017955
 21
342.9386116849944
 31
0.0
  0
LINE
  5
1325
330
1F
100
AcDbEntity
  8
0
 62
     3
100
AcDbLine
 10
2264.942506751533
 20
342.9386116849944
 30
0.0
 11
2264.942506751533
 21
342.6329595773321
 31
0.0
  0
LINE
  5
1326
330
1F
100
AcDbEntity
  8
0
 62
     3
100
AcDbLine
 10
2264.942506751533
 20
337.2406270212739
 30
0.0
 11
2264.942506751533
 21
336.9346895874516
 31
0.0
  0
LINE
  5
1327
330
1F
100
AcDbEntity
  8
0
 62
     3
100
AcDbLine
 10
2264.942506751533
 20
336.9346895874516
 30
0.0
 11
2262.367721017955
 21
336.9346895874516
 31
0.0
  0
LINE
  5
1328
330
1F
100
AcDbEntity
  8
0
 62
     3
100
AcDbLine
 10
2268.012958034996
 20
342.9387543480743
 30
0.0
 11
2268.012958034996
 21
342.6329595773321
 31
0.0
  0
LINE
  5
1329
330
1F
100
AcDbEntity
  8
0
 62
     3
100
AcDbLine
 10
2268.012958034996
 20
342.9387543480743
 30
0.0
 11
2265.47105664726
 21
342.9387543480743
 31
0.0
  0
LINE
  5
132A
330
1F
100
AcDbEntity
  8
0
 62
     3
100
AcDbLine
 10
2265.47105664726
 20
342.9387543480743
 30
0.0
 11
2265.47105664726
 21
342.6329595773321
 31
0.0
  0
LINE
  5
132B
330
1F
100
AcDbEntity
  8
0
 62
     3
100
AcDbLine
 10
2268.559263386339
 20
337.2406270212739
 30
0.0
 11
2268.559263386339
 21
336.9348322505316
 31
0.0
  0
LINE
  5
132C
330
1F
100
AcDbEntity
  8
0
 62
     3
100
AcDbLine
 10
2271.303885248614
 20
336.9348322505316
 30
0.0
 11
2268.559263386339
 21
336.9348322505316
 31
0.0
  0
LINE
  5
132D
330
1F
100
AcDbEntity
  8
0
 62
     3
100
AcDbLine
 10
2270.594853788091
 20
341.9735465383989
 30
0.0
 11
2270.594853788091
 21
337.9000400602072
 31
0.0
  0
LINE
  5
132E
330
1F
100
AcDbEntity
  8
0
 62
     3
100
AcDbLine
 10
2270.594853788091
 20
337.9000400602072
 30
0.0
 11
2270.869554078158
 21
337.9000400602072
 31
0.0
  0
ARC
  5
132F
330
1F
100
AcDbEntity
  8
0
 62
     3
100
AcDbCircle
 10
2269.464914639967
 20
339.936793299303
 30
0.0
 40
2.474141041926213
100
AcDbArc
 50
304.5919550000092
 51
55.40804499999087
  0
LINE
  5
1330
330
1F
100
AcDbEntity
  8
0
 62
     3
100
AcDbLine
 10
2271.303885248614
 20
342.9387543480743
 30
0.0
 11
2268.559263386339
 21
342.9387543480743
 31
0.0
  0
LINE
  5
1331
330
1F
100
AcDbEntity
  8
0
 62
     3
100
AcDbLine
 10
2268.559263386339
 20
342.9387543480743
 30
0.0
 11
2268.559263386339
 21
342.6329595773321
 31
0.0
  0
LINE
  5
1332
330
1F
100
AcDbEntity
  8
0
 62
     3
100
AcDbLine
 10
2265.47105664726
 20
337.2406270212739
 30
0.0
 11
2265.47105664726
 21
336.9348322505316
 31
0.0
  0
LINE
  5
1333
330
1F
100
AcDbEntity
  8
0
 62
     3
100
AcDbLine
 10
2270.594853788091
 20
341.9735465383989
 30
0.0
 11
2270.869554078158
 21
341.9735465383989
 31
0.0
  0
LINE
  5
1334
330
1F
100
AcDbEntity
  8
0
 62
     3
100
AcDbLine
 10
2254.602046377334
 20
337.2406174500786
 30
0.0
 11
2254.602040306565
 21
336.9347943490793
 31
0.0
  0
LINE
  5
1335
330
1F
100
AcDbEntity
  8
0
 62
     3
100
AcDbLine
 10
2245.883473128325
 20
336.967345333867
 30
0.0
 11
2247.861303921763
 21
336.967345333867
 31
0.0
  0
ARC
  5
1336
330
1F
100
AcDbEntity
  8
0
 62
     3
100
AcDbCircle
 10
2237.93964618272
 20
340.0074843731456
 30
0.0
 40
21.26730034229026
100
AcDbArc
 50
353.8660059999942
 51
357.6940340000007
  0
LINE
  5
1337
330
1F
100
AcDbEntity
  8
0
 62
     3
100
AcDbLine
 10
2257.765883482438
 20
339.1570454700645
 30
0.0
 11
2259.189725775918
 21
339.1517770540529
 31
0.0
  0
LINE
  5
1338
330
1F
100
AcDbEntity
  8
0
 62
     3
100
AcDbLine
 10
2257.771633512819
 20
340.7111836745789
 30
0.0
 11
2257.744708638901
 21
340.8835753121682
 31
0.0
  0
LINE
  5
1339
330
1F
100
AcDbEntity
  8
0
 62
     3
100
AcDbLine
 10
2257.744708638901
 20
340.8835753121682
 30
0.0
 11
2257.712372685892
 21
341.0486496490857
 31
0.0
  0
LINE
  5
133A
330
1F
100
AcDbEntity
  8
0
 62
     3
100
AcDbLine
 10
2257.712372685892
 20
341.0486496490857
 30
0.0
 11
2257.674876578923
 21
341.2051298001759
 31
0.0
  0
LINE
  5
133B
330
1F
100
AcDbEntity
  8
0
 62
     3
100
AcDbLine
 10
2257.674876578923
 20
341.2051298001759
 30
0.0
 11
2257.632507667747
 21
341.3518056587452
 31
0.0
  0
LINE
  5
133C
330
1F
100
AcDbEntity
  8
0
 62
     3
100
AcDbLine
 10
2257.632507667747
 20
341.3518056587452
 30
0.0
 11
2257.585595797498
 21
341.4875450263078
 31
0.0
  0
LINE
  5
133D
330
1F
100
AcDbEntity
  8
0
 62
     3
100
AcDbLine
 10
2257.585595797498
 20
341.4875450263078
 30
0.0
 11
2257.534502178953
 21
341.6112976597641
 31
0.0
  0
LINE
  5
133E
330
1F
100
AcDbEntity
  8
0
 62
     3
100
AcDbLine
 10
2257.534502178953
 20
341.6112976597641
 30
0.0
 11
2257.479621412119
 21
341.7221064011443
 31
0.0
  0
LINE
  5
133F
330
1F
100
AcDbEntity
  8
0
 62
     3
100
AcDbLine
 10
2257.479621412119
 20
341.7221064011443
 30
0.0
 11
2257.42137946265
 21
341.8191162837636
 31
0.0
  0
LINE
  5
1340
330
1F
100
AcDbEntity
  8
0
 62
     3
100
AcDbLine
 10
2257.42137946265
 20
341.8191162837636
 30
0.0
 11
2257.360225567476
 21
341.9015775676055
 31
0.0
  0
LINE
  5
1341
330
1F
100
AcDbEntity
  8
0
 62
     3
100
AcDbLine
 10
2257.360225567476
 20
341.9015775676055
 30
0.0
 11
2257.296632234813
 21
341.9688507982969
 31
0.0
  0
LINE
  5
1342
330
1F
100
AcDbEntity
  8
0
 62
     3
100
AcDbLine
 10
2257.296632234813
 20
341.9688507982969
 30
0.0
 11
2257.23109119698
 21
342.0204179368525
 31
0.0
  0
LINE
  5
1343
330
1F
100
AcDbEntity
  8
0
 62
     3
100
AcDbLine
 10
2257.23109119698
 20
342.0204179368525
 30
0.0
 11
2257.164108351423
 21
342.0558793242892
 31
0.0
  0
LINE
  5
1344
330
1F
100
AcDbEntity
  8
0
 62
     3
100
AcDbLine
 10
2257.164108351423
 20
342.0558793242892
 30
0.0
 11
2257.096202748923
 21
342.0749617759855
 31
0.0
  0
LINE
  5
1345
330
1F
100
AcDbEntity
  8
0
 62
     3
100
AcDbLine
 10
2257.096202748923
 20
342.0749617759855
 30
0.0
 11
2257.027898499234
 21
342.0775175698874
 31
0.0
  0
LINE
  5
1346
330
1F
100
AcDbEntity
  8
0
 62
     3
100
AcDbLine
 10
2257.027898499234
 20
342.0775175698874
 30
0.0
 11
2256.959723759293
 21
342.0635254583012
 31
0.0
  0
LINE
  5
1347
330
1F
100
AcDbEntity
  8
0
 62
     3
100
AcDbLine
 10
2256.959723759293
 20
342.0635254583012
 30
0.0
 11
2256.892204662442
 21
342.0330957268713
 31
0.0
  0
LINE
  5
1348
330
1F
100
AcDbEntity
  8
0
 62
     3
100
AcDbLine
 10
2256.892204662442
 20
342.0330957268713
 30
0.0
 11
2256.825864306643
 21
341.9864631120126
 31
0.0
  0
LINE
  5
1349
330
1F
100
AcDbEntity
  8
0
 62
     3
100
AcDbLine
 10
2256.825864306643
 20
341.9864631120126
 30
0.0
 11
2256.761215671905
 21
341.9239868009124
 31
0.0
  0
LINE
  5
134A
330
1F
100
AcDbEntity
  8
0
 62
     3
100
AcDbLine
 10
2256.761215671905
 20
341.9239868009124
 30
0.0
 11
2256.698756561319
 21
341.8461504315301
 31
0.0
  0
LINE
  5
134B
330
1F
100
AcDbEntity
  8
0
 62
     3
100
AcDbLine
 10
2256.698756561319
 20
341.8461504315301
 30
0.0
 11
2256.638971624636
 21
341.7535560218273
 31
0.0
  0
LINE
  5
134C
330
1F
100
AcDbEntity
  8
0
 62
     3
100
AcDbLine
 10
2256.638971624636
 20
341.7535560218273
 30
0.0
 11
2256.582322240329
 21
341.6469189107942
 31
0.0
  0
LINE
  5
134D
330
1F
100
AcDbEntity
  8
0
 62
     3
100
AcDbLine
 10
2256.582322240329
 20
341.6469189107942
 30
0.0
 11
2256.529246515587
 21
341.5270626994736
 31
0.0
  0
LINE
  5
134E
330
1F
100
AcDbEntity
  8
0
 62
     3
100
AcDbLine
 10
2256.529246515587
 20
341.5270626994736
 30
0.0
 11
2256.480154227341
 21
341.3949152037837
 31
0.0
  0
LINE
  5
134F
330
1F
100
AcDbEntity
  8
0
 62
     3
100
AcDbLine
 10
2256.480154227341
 20
341.3949152037837
 30
0.0
 11
2256.435424798678
 21
341.2514973247724
 31
0.0
  0
LINE
  5
1350
330
1F
100
AcDbEntity
  8
0
 62
     3
100
AcDbLine
 10
2256.435424798678
 20
341.2514973247724
 30
0.0
 11
2256.395405275245
 21
341.0979179896429
 31
0.0
  0
LINE
  5
1351
330
1F
100
AcDbEntity
  8
0
 62
     3
100
AcDbLine
 10
2256.395405275245
 20
341.0979179896429
 30
0.0
 11
2256.36040324269
 21
340.9353630220107
 31
0.0
  0
LINE
  5
1352
330
1F
100
AcDbEntity
  8
0
 62
     3
100
AcDbLine
 10
2256.36040324269
 20
340.9353630220107
 30
0.0
 11
2256.330689862045
 21
340.765089071134
 31
0.0
  0
LINE
  5
1353
330
1F
100
AcDbEntity
  8
0
 62
     3
100
AcDbLine
 10
2256.330689862045
 20
340.765089071134
 30
0.0
 11
2256.306495822545
 21
340.5884134939645
 31
0.0
  0
LINE
  5
1354
330
1F
100
AcDbEntity
  8
0
 62
     3
100
AcDbLine
 10
2256.306495822545
 20
340.5884134939645
 30
0.0
 11
2256.288006282656
 21
340.4067012018138
 31
0.0
  0
LINE
  5
1355
330
1F
100
AcDbEntity
  8
0
 62
     3
100
AcDbLine
 10
2256.288006282656
 20
340.4067012018138
 30
0.0
 11
2256.275365929048
 21
340.2213565659945
 31
0.0
  0
LINE
  5
1356
330
1F
100
AcDbEntity
  8
0
 62
     3
100
AcDbLine
 10
2256.275365929048
 20
340.2213565659945
 30
0.0
 11
2256.268671894031
 21
340.0338132998712
 31
0.0
  0
LINE
  5
1357
330
1F
100
AcDbEntity
  8
0
 62
     3
100
AcDbLine
 10
2256.268671894031
 20
340.0338132998712
 30
0.0
 11
2256.26797476735
 21
339.8455192819365
 31
0.0
  0
LINE
  5
1358
330
1F
100
AcDbEntity
  8
0
 62
     3
100
AcDbLine
 10
2256.26797476735
 20
339.8455192819365
 30
0.0
 11
2256.273281631568
 21
339.6579304850429
 31
0.0
  0
LINE
  5
1359
330
1F
100
AcDbEntity
  8
0
 62
     3
100
AcDbLine
 10
2256.273281631568
 20
339.6579304850429
 30
0.0
 11
2256.284549991299
 21
339.4724978230679
 31
0.0
  0
LINE
  5
135A
330
1F
100
AcDbEntity
  8
0
 62
     3
100
AcDbLine
 10
2256.284549991299
 20
339.4724978230679
 30
0.0
 11
2256.30169384398
 21
339.2906529857862
 31
0.0
  0
LINE
  5
135B
330
1F
100
AcDbEntity
  8
0
 62
     3
100
AcDbLine
 10
2256.30169384398
 20
339.2906529857862
 30
0.0
 11
2256.324580644476
 21
339.113803379895
 31
0.0
  0
LINE
  5
135C
330
1F
100
AcDbEntity
  8
0
 62
     3
100
AcDbLine
 10
2256.324580644476
 20
339.113803379895
 30
0.0
 11
2256.353032316889
 21
338.9433149285007
 31
0.0
  0
LINE
  5
135D
330
1F
100
AcDbEntity
  8
0
 62
     3
100
AcDbLine
 10
2256.353032316889
 20
338.9433149285007
 30
0.0
 11
2256.38683031352
 21
338.7805060003505
 31
0.0
  0
LINE
  5
135E
330
1F
100
AcDbEntity
  8
0
 62
     3
100
AcDbLine
 10
2256.38683031352
 20
338.7805060003505
 30
0.0
 11
2256.425712579492
 21
338.6266332447017
 31
0.0
  0
LINE
  5
135F
330
1F
100
AcDbEntity
  8
0
 62
     3
100
AcDbLine
 10
2256.425712579492
 20
338.6266332447017
 30
0.0
 11
2256.469379623518
 21
338.4828885559396
 31
0.0
  0
LINE
  5
1360
330
1F
100
AcDbEntity
  8
0
 62
     3
100
AcDbLine
 10
2256.469379623518
 20
338.4828885559396
 30
0.0
 11
2256.517492494306
 21
338.3503808612675
 31
0.0
  0
LINE
  5
1361
330
1F
100
AcDbEntity
  8
0
 62
     3
100
AcDbLine
 10
2256.517492494306
 20
338.3503808612675
 30
0.0
 11
2256.569679863131
 21
338.2301361207078
 31
0.0
  0
LINE
  5
1362
330
1F
100
AcDbEntity
  8
0
 62
     3
100
AcDbLine
 10
2256.569679863131
 20
338.2301361207078
 30
0.0
 11
2256.625539035626
 21
338.1230831619732
 31
0.0
  0
LINE
  5
1363
330
1F
100
AcDbEntity
  8
0
 62
     3
100
AcDbLine
 10
2256.625539035626
 20
338.1230831619732
 30
0.0
 11
2256.684636963576
 21
338.0300486214916
 31
0.0
  0
LINE
  5
1364
330
1F
100
AcDbEntity
  8
0
 62
     3
100
AcDbLine
 10
2256.684636963576
 20
338.0300486214916
 30
0.0
 11
2256.746517327484
 21
337.9517518854325
 31
0.0
  0
LINE
  5
1365
330
1F
100
AcDbEntity
  8
0
 62
     3
100
AcDbLine
 10
2256.746517327484
 20
337.9517518854325
 30
0.0
 11
2256.81070256016
 21
337.8887990189373
 31
0.0
  0
LINE
  5
1366
330
1F
100
AcDbEntity
  8
0
 62
     3
100
AcDbLine
 10
2256.81070256016
 20
337.8887990189373
 30
0.0
 11
2256.87669587031
 21
337.8416766953501
 31
0.0
  0
LINE
  5
1367
330
1F
100
AcDbEntity
  8
0
 62
     3
100
AcDbLine
 10
2256.87669587031
 20
337.8416766953501
 30
0.0
 11
2256.943987313309
 21
337.8107481490376
 31
0.0
  0
LINE
  5
1368
330
1F
100
AcDbEntity
  8
0
 62
     3
100
AcDbLine
 10
2256.943987313309
 20
337.8107481490376
 30
0.0
 11
2257.012056826583
 21
337.7962521635946
 31
0.0
  0
LINE
  5
1369
330
1F
100
AcDbEntity
  8
0
 62
     3
100
AcDbLine
 10
2257.012056826583
 20
337.7962521635946
 30
0.0
 11
2257.080378276784
 21
337.7983020600493
 31
0.0
  0
LINE
  5
136A
330
1F
100
AcDbEntity
  8
0
 62
     3
100
AcDbLine
 10
2257.080378276784
 20
337.7983020600493
 30
0.0
 11
2257.14842350698
 21
337.8168806378888
 31
0.0
  0
LINE
  5
136B
330
1F
100
AcDbEntity
  8
0
 62
     3
100
AcDbLine
 10
2257.14842350698
 20
337.8168806378888
 30
0.0
 11
2257.215666383824
 21
337.8518462458274
 31
0.0
  0
LINE
  5
136C
330
1F
100
AcDbEntity
  8
0
 62
     3
100
AcDbLine
 10
2257.215666383824
 20
337.8518462458274
 30
0.0
 11
2257.281587856538
 21
337.9029267110391
 31
0.0
  0
LINE
  5
136D
330
1F
100
AcDbEntity
  8
0
 62
     3
100
AcDbLine
 10
2257.281587856538
 20
337.9029267110391
 30
0.0
 11
2257.345676968698
 21
337.96972844531
 31
0.0
  0
LINE
  5
136E
330
1F
100
AcDbEntity
  8
0
 62
     3
100
AcDbLine
 10
2257.345676968698
 20
337.96972844531
 30
0.0
 11
2257.407439964399
 21
338.0517334096546
 31
0.0
  0
LINE
  5
136F
330
1F
100
AcDbEntity
  8
0
 62
     3
100
AcDbLine
 10
2257.407439964399
 20
338.0517334096546
 30
0.0
 11
2257.466398264654
 21
338.1483102440593
 31
0.0
  0
LINE
  5
1370
330
1F
100
AcDbEntity
  8
0
 62
     3
100
AcDbLine
 10
2257.466398264654
 20
338.1483102440593
 30
0.0
 11
2257.522096561761
 21
338.2587102203026
 31
0.0
  0
LINE
  5
1371
330
1F
100
AcDbEntity
  8
0
 62
     3
100
AcDbLine
 10
2257.522096561761
 20
338.2587102203026
 30
0.0
 11
2257.574104842889
 21
338.3820814070839
 31
0.0
  0
LINE
  5
1372
330
1F
100
AcDbEntity
  8
0
 62
     3
100
AcDbLine
 10
2257.574104842889
 20
338.3820814070839
 30
0.0
 11
2257.622020413673
 21
338.5174696818185
 31
0.0
  0
LINE
  5
1373
330
1F
100
AcDbEntity
  8
0
 62
     3
100
AcDbLine
 10
2257.622020413673
 20
338.5174696818185
 30
0.0
 11
2257.665472957181
 21
338.6638288485863
 31
0.0
  0
LINE
  5
1374
330
1F
100
AcDbEntity
  8
0
 62
     3
100
AcDbLine
 10
2257.665472957181
 20
338.6638288485863
 30
0.0
 11
2257.704126557507
 21
338.8200267089008
 31
0.0
  0
LINE
  5
1375
330
1F
100
AcDbEntity
  8
0
 62
     3
100
AcDbLine
 10
2257.704126557507
 20
338.8200267089008
 30
0.0
 11
2257.737683746954
 21
338.984857203249
 31
0.0
  0
LINE
  5
1376
330
1F
100
AcDbEntity
  8
0
 62
     3
100
AcDbLine
 10
2257.737683746954
 20
338.984857203249
 30
0.0
 11
2257.765883482438
 21
339.1570454700645
 31
0.0
  0
LINE
  5
1377
330
1F
100
AcDbEntity
  8
0
 62
     3
100
AcDbLine
 10
2257.771633512819
 20
340.7111836745789
 30
0.0
 11
2259.195475806299
 21
340.7059152585671
 31
0.0
  0
ARC
  5
1378
330
1F
100
AcDbEntity
  8
0
 62
     3
100
AcDbCircle
 10
2237.93964618272
 20
340.0074843731456
 30
0.0
 40
21.26730034229026
100
AcDbArc
 50
1.881965999992075
 51
5.709994000005937
  0
LINE
  5
1379
330
1F
100
AcDbEntity
  8
0
 62
     3
100
AcDbLine
 10
2254.602145533465
 20
342.9387280616209
 30
0.0
 11
2254.60214047449
 21
342.6329616211356
 31
0.0
  0
LINE
  5
137A
330
1F
100
AcDbEntity
  8
0
 62
     3
100
AcDbLine
 10
2252.060144989796
 20
337.2406249774704
 30
0.0
 11
2252.060139930821
 21
336.9348585369851
 31
0.0
  0
LINE
  5
137B
330
1F
100
AcDbEntity
  8
0
 62
     3
100
AcDbLine
 10
2252.060244145695
 20
342.9387816467083
 30
0.0
 11
2252.060239086721
 21
342.6329575339141
 31
0.0
  0
LINE
  5
137C
330
1F
100
AcDbEntity
  8
0
 62
     3
100
AcDbLine
 10
2247.861303921763
 20
337.2731401046093
 30
0.0
 11
2247.861303921763
 21
336.967345333867
 31
0.0
  0
LINE
  5
137D
330
1F
100
AcDbEntity
  8
0
 62
     3
100
AcDbLine
 10
2247.35499293578
 20
340.4882296769827
 30
0.0
 11
2249.555545650227
 21
336.967345333867
 31
0.0
  0
LINE
  5
137E
330
1F
100
AcDbEntity
  8
0
 62
     3
100
AcDbLine
 10
2249.555545650227
 20
336.967345333867
 30
0.0
 11
2251.029054931452
 21
336.967345333867
 31
0.0
  0
LINE
  5
137F
330
1F
100
AcDbEntity
  8
0
 62
     3
100
AcDbLine
 10
2251.535365917435
 20
342.9712674314099
 30
0.0
 11
2251.535365917435
 21
342.6654726606675
 31
0.0
  0
LINE
  5
1380
330
1F
100
AcDbEntity
  8
0
 62
     3
100
AcDbLine
 10
2249.557536135793
 20
342.9712674314099
 30
0.0
 11
2251.535365917435
 21
342.9712674314099
 31
0.0
  0
LINE
  5
1381
330
1F
100
AcDbEntity
  8
0
 62
     3
100
AcDbLine
 10
2249.557536135793
 20
342.9712674314099
 30
0.0
 11
2249.557536135793
 21
342.6654726606675
 31
0.0
  0
LINE
  5
1382
330
1F
100
AcDbEntity
  8
0
 62
     3
100
AcDbLine
 10
2250.063847121776
 20
340.2519006964667
 30
0.0
 11
2248.279262512259
 21
342.9712674314099
 31
0.0
  0
LINE
  5
1383
330
1F
100
AcDbEntity
  8
0
 62
     3
100
AcDbLine
 10
2245.883473128325
 20
342.9712674314099
 30
0.0
 11
2248.279262512259
 21
342.9712674314099
 31
0.0
  0
LINE
  5
1384
330
1F
100
AcDbEntity
  8
0
 62
     3
100
AcDbLine
 10
2259.25140893388
 20
342.9386116849944
 30
0.0
 11
2261.826193655664
 21
342.9386116849944
 31
0.0
  0
LINE
  5
1385
330
1F
100
AcDbEntity
  8
0
 62
     3
100
AcDbLine
 10
2259.25140893388
 20
342.6329595773321
 30
0.0
 11
2259.25140893388
 21
342.9386116849944
 31
0.0
  0
LINE
  5
1386
330
1F
100
AcDbEntity
  8
0
 62
     3
100
AcDbLine
 10
2259.25140893388
 20
336.9346895874516
 30
0.0
 11
2259.25140893388
 21
337.2406270212739
 31
0.0
  0
LINE
  5
1387
330
1F
100
AcDbEntity
  8
0
 62
     3
100
AcDbLine
 10
2259.25140893388
 20
336.9346895874516
 30
0.0
 11
2261.826193655664
 21
336.9346895874516
 31
0.0
  0
LINE
  5
1388
330
1F
100
AcDbEntity
  8
0
 62
     3
100
AcDbLine
 10
2262.367721017955
 20
337.2406270212739
 30
0.0
 11
2262.367721017955
 21
336.9346895874516
 31
0.0
  0
LINE
  5
1389
330
1F
100
AcDbEntity
  8
0
 62
     3
100
AcDbLine
 10
2261.826193655664
 20
337.2406270212739
 30
0.0
 11
2261.826193655664
 21
336.9346895874516
 31
0.0
  0
LINE
  5
138A
330
1F
100
AcDbEntity
  8
0
 62
     3
100
AcDbLine
 10
2261.826193655664
 20
342.6329595773321
 30
0.0
 11
2261.826193655664
 21
342.9386116849944
 31
0.0
  0
LINE
  5
138B
330
1F
100
AcDbEntity
  8
0
 62
     3
100
AcDbLine
 10
2262.367721017955
 20
342.6329595773321
 30
0.0
 11
2262.367721017955
 21
342.9386116849944
 31
0.0
  0
LINE
  5
138C
330
1F
100
AcDbEntity
  8
0
 62
     3
100
AcDbLine
 10
2245.883473128325
 20
337.2731401046092
 30
0.0
 11
2245.883473128325
 21
336.967345333867
 31
0.0
  0
LINE
  5
138D
330
1F
100
AcDbEntity
  8
0
 62
     3
100
AcDbLine
 10
2245.883473128325
 20
342.9712674314099
 30
0.0
 11
2245.883473128325
 21
342.6654726606675
 31
0.0
  0
ARC
  5
138E
330
1F
100
AcDbEntity
  8
0
 62
     3
100
AcDbCircle
 10
2271.561541776744
 20
340.5666325852865
 30
0.0
 40
2.37212176278799
100
AcDbArc
 50
17.30874900000012
 51
23.76507100000351
  0
ARC
  5
138F
330
1F
100
AcDbEntity
  8
0
 62
     3
100
AcDbCircle
 10
2269.540448087218
 20
339.936793299303
 30
0.0
 40
4.489082006702322
100
AcDbArc
 50
342.6912509999999
 51
17.30856599999798
  0
ARC
  5
1390
330
1F
100
AcDbEntity
  8
0
 62
     3
100
AcDbCircle
 10
2271.561541776744
 20
339.3069540133197
 30
0.0
 40
2.37212176278799
100
AcDbArc
 50
336.2349289999965
 51
342.6912509999999
  0
ARC
  5
1391
330
1F
100
AcDbEntity
  8
0
 62
     3
100
AcDbCircle
 10
2271.303885248614
 20
340.5666325852865
 30
0.0
 40
2.37212176278799
100
AcDbArc
 50
17.30874900000012
 51
90.0
  0
ARC
  5
1392
330
1F
100
AcDbEntity
  8
0
 62
     3
100
AcDbCircle
 10
2269.28278648001
 20
339.9368068617985
 30
0.0
 40
4.489082006702322
100
AcDbArc
 50
342.6912509999999
 51
17.30856599999798
  0
ARC
  5
1393
330
1F
100
AcDbEntity
  8
0
 62
     3
100
AcDbCircle
 10
2271.303885248614
 20
339.3069540133197
 30
0.0
 40
2.37212176278799
100
AcDbArc
 50
270.0
 51
342.6912509999999
  0
ARC
  5
1394
330
1F
100
AcDbEntity
  8
0
 62
     3
100
AcDbCircle
 10
2257.044640669342
 20
339.936793299303
 30
0.0
 40
3.001961048771398
100
AcDbArc
 50
46.752880000003
 51
89.74999799999961
  0
ARC
  5
1395
330
1F
100
AcDbEntity
  8
0
 62
     3
100
AcDbCircle
 10
2257.044640669342
 20
339.936793299303
 30
0.0
 40
3.001961048771398
100
AcDbArc
 50
273.9763330000016
 51
312.8231199999901
  0
ARC
  5
1396
330
1F
100
AcDbEntity
  8
0
 62
     3
100
AcDbCircle
 10
2273.162877177668
 20
339.8904510695788
 30
0.0
 40
3.983420308030568
100
AcDbArc
 50
0.6665839999956326
 51
23.90392799999183
  0
ARC
  5
1397
330
1F
100
AcDbEntity
  8
0
 62
     3
100
AcDbCircle
 10
2278.822514814914
 20
339.8904510695788
 30
0.0
 40
3.983420308030568
100
AcDbArc
 50
156.0960720000029
 51
179.3334160000042
  0
ARC
  5
1398
330
1F
100
AcDbEntity
  8
0
 62
     3
100
AcDbCircle
 10
2273.162877177668
 20
339.9831355290272
 30
0.0
 40
3.983420308030568
100
AcDbArc
 50
336.0960720000082
 51
359.3334159999914
  0
ARC
  5
1399
330
1F
100
AcDbEntity
  8
0
 62
     3
100
AcDbCircle
 10
2278.822514814914
 20
339.9831355290272
 30
0.0
 40
3.983420308030568
100
AcDbArc
 50
180.6665839999958
 51
203.9039279999971
  0
LINE
  5
139A
330
1F
100
AcDbEntity
  8
0
  6
Continuous
 62
     3
100
AcDbLine
 10
2245.883473128325
 20
342.6654726606675
 30
0.0
 11
2246.389784114309
 21
342.3366858627594
 31
0.0
  0
LINE
  5
139B
330
1F
100
AcDbEntity
  8
0
  6
Continuous
 62
     3
100
AcDbLine
 10
2249.557536135793
 20
342.6654726606675
 30
0.0
 11
2250.063847121776
 21
342.3366858627594
 31
0.0
  0
LINE
  5
139C
330
1F
100
AcDbEntity
  8
0
  6
Continuous
 62
     3
100
AcDbLine
 10
2251.535365917435
 20
342.6654726606675
 30
0.0
 11
2251.029054931452
 21
342.3366858627594
 31
0.0
  0
LINE
  5
139D
330
1F
100
AcDbEntity
  8
0
  6
Continuous
 62
     3
100
AcDbLine
 10
2252.060239086721
 20
342.6329575339141
 30
0.0
 11
2252.566511624515
 21
342.3041646850647
 31
0.0
  0
LINE
  5
139E
330
1F
100
AcDbEntity
  8
0
  6
Continuous
 62
     3
100
AcDbLine
 10
2254.60214047449
 20
342.6329616211356
 30
0.0
 11
2254.095823417721
 21
342.304143437372
 31
0.0
  0
LINE
  5
139F
330
1F
100
AcDbEntity
  8
0
  6
Continuous
 62
     3
100
AcDbLine
 10
2259.25140893388
 20
342.6329595773321
 30
0.0
 11
2259.757719919863
 21
342.3040726117295
 31
0.0
  0
LINE
  5
13A0
330
1F
100
AcDbEntity
  8
0
  6
Continuous
 62
     3
100
AcDbLine
 10
2261.826193655664
 20
342.6329595773321
 30
0.0
 11
2261.31988266968
 21
342.3040726117295
 31
0.0
  0
LINE
  5
13A1
330
1F
100
AcDbEntity
  8
0
  6
Continuous
 62
     3
100
AcDbLine
 10
2262.367721017955
 20
342.6329595773321
 30
0.0
 11
2262.874032003939
 21
342.3040726117295
 31
0.0
  0
LINE
  5
13A2
330
1F
100
AcDbEntity
  8
0
  6
Continuous
 62
     3
100
AcDbLine
 10
2264.942506751533
 20
342.6329595773321
 30
0.0
 11
2264.436194753755
 21
342.3040726117295
 31
0.0
  0
LINE
  5
13A3
330
1F
100
AcDbEntity
  8
0
  6
Continuous
 62
     3
100
AcDbLine
 10
2265.47105664726
 20
342.6329595773321
 30
0.0
 11
2265.977367633242
 21
342.3040726117295
 31
0.0
  0
LINE
  5
13A4
330
1F
100
AcDbEntity
  8
0
  6
Continuous
 62
     3
100
AcDbLine
 10
2268.012958034996
 20
342.6329595773321
 30
0.0
 11
2267.506647049012
 21
342.3040726117295
 31
0.0
  0
LINE
  5
13A5
330
1F
100
AcDbEntity
  8
0
  6
Continuous
 62
     3
100
AcDbLine
 10
2268.559263386339
 20
342.6329595773321
 30
0.0
 11
2269.065574372322
 21
342.3040726117295
 31
0.0
  0
LINE
  5
13A6
330
1F
100
AcDbEntity
  8
0
  6
Continuous
 62
     3
100
AcDbLine
 10
2269.065492416936
 20
337.5693733473863
 30
0.0
 11
2268.559263386339
 21
337.2406270212739
 31
0.0
  0
LINE
  5
13A7
330
1F
100
AcDbEntity
  8
0
  6
Continuous
 62
     3
100
AcDbLine
 10
2267.506729004398
 20
337.5693733473863
 30
0.0
 11
2268.012958034996
 21
337.2406270212739
 31
0.0
  0
LINE
  5
13A8
330
1F
100
AcDbEntity
  8
0
  6
Continuous
 62
     3
100
AcDbLine
 10
2265.977284666062
 20
337.5693733473863
 30
0.0
 11
2265.47105664726
 21
337.2406270212739
 31
0.0
  0
LINE
  5
13A9
330
1F
100
AcDbEntity
  8
0
  6
Continuous
 62
     3
100
AcDbLine
 10
2264.942506751533
 20
337.2406270212739
 30
0.0
 11
2264.436277720936
 21
337.5693733473863
 31
0.0
  0
LINE
  5
13AA
330
1F
100
AcDbEntity
  8
0
  6
Continuous
 62
     3
100
AcDbLine
 10
2262.367721017955
 20
337.2406270212739
 30
0.0
 11
2262.873949036757
 21
337.5693733473863
 31
0.0
  0
LINE
  5
13AB
330
1F
100
AcDbEntity
  8
0
  6
Continuous
 62
     3
100
AcDbLine
 10
2261.826193655664
 20
337.2406270212739
 30
0.0
 11
2261.319965636861
 21
337.5693733473863
 31
0.0
  0
LINE
  5
13AC
330
1F
100
AcDbEntity
  8
0
  6
Continuous
 62
     3
100
AcDbLine
 10
2259.757636952683
 20
337.5693733473863
 30
0.0
 11
2259.25140893388
 21
337.2406270212739
 31
0.0
  0
LINE
  5
13AD
330
1F
100
AcDbEntity
  8
0
  6
Continuous
 62
     3
100
AcDbLine
 10
2254.602046377573
 20
337.2406294733837
 30
0.0
 11
2254.095823417721
 21
337.5694431612339
 31
0.0
  0
LINE
  5
13AE
330
1F
100
AcDbEntity
  8
0
  6
Continuous
 62
     3
100
AcDbLine
 10
2252.060144989796
 20
337.2406249774704
 30
0.0
 11
2252.566412468615
 21
337.5694644089267
 31
0.0
  0
LINE
  5
13AF
330
1F
100
AcDbEntity
  8
0
  6
Continuous
 62
     3
100
AcDbLine
 10
2247.861303921763
 20
337.2731401046093
 30
0.0
 11
2247.35499293578
 21
337.6019279143124
 31
0.0
  0
LINE
  5
13B0
330
1F
100
AcDbEntity
  8
0
  6
Continuous
 62
     3
100
AcDbLine
 10
2245.883473128325
 20
337.2731401046093
 30
0.0
 11
2246.389784114309
 21
337.6019279143124
 31
0.0
  0
LINE
  5
13B1
330
1F
100
AcDbEntity
  8
0
  6
Continuous
 62
     3
100
AcDbLine
 10
2254.602040306803
 20
336.9348063723844
 30
0.0
 11
2252.060139930821
 21
336.9348585369851
 31
0.0
  0
LINE
  5
13B2
330
1F
100
AcDbEntity
  8
0
  6
Continuous
 62
     3
100
AcDbLine
 10
2252.060244145695
 20
342.9387816467083
 30
0.0
 11
2254.602145533465
 21
342.9387280616209
 31
0.0
  0
ARC
  5
13B3
330
1F
100
AcDbEntity
  8
0
  6
Continuous
 62
     3
100
AcDbCircle
 10
2280.910487835035
 20
339.9185555557376
 30
0.0
 40
1.5
100
AcDbArc
 50
293.7485430905253
 51
66.2514569094748
  0
ARC
  5
13B4
330
1F
100
AcDbEntity
  8
0
  6
Continuous
 62
     3
100
AcDbCircle
 10
2280.910487835035
 20
339.9185555557376
 30
0.0
 40
2.25
100
AcDbArc
 50
293.7485430905253
 51
66.2514569094748
  0
ARC
  5
13B5
330
1F
100
AcDbEntity
  8
0
  6
Continuous
 62
     3
100
AcDbCircle
 10
2269.43287049871
 20
313.831886541069
 30
0.0
 40
30.0
100
AcDbArc
 50
66.2514569094748
 51
81.41597019517911
  0
ARC
  5
13B6
330
1F
100
AcDbEntity
  8
0
  6
Continuous
 62
     3
100
AcDbCircle
 10
2269.43287049871
 20
313.831886541069
 30
0.0
 40
30.75
100
AcDbArc
 50
66.2514569094748
 51
81.41597019517911
  0
ARC
  5
13B7
330
1F
100
AcDbEntity
  8
0
  6
Continuous
 62
     3
100
AcDbCircle
 10
2241.835201338259
 20
339.9185555557376
 30
0.0
 40
1.5
100
AcDbArc
 50
113.7485430905252
 51
246.2514569094748
  0
ARC
  5
13B8
330
1F
100
AcDbEntity
  8
0
  6
Continuous
 62
     3
100
AcDbCircle
 10
2241.835201338259
 20
339.9185555557376
 30
0.0
 40
2.25
100
AcDbArc
 50
113.7485430905252
 51
246.2514569094748
  0
ARC
  5
13B9
330
1F
100
AcDbEntity
  8
0
  6
Continuous
 62
     3
100
AcDbCircle
 10
2253.312818674585
 20
313.831886541069
 30
0.0
 40
30.0
100
AcDbArc
 50
98.5840298048209
 51
113.7485430905252
  0
ARC
  5
13BA
330
1F
100
AcDbEntity
  8
0
  6
Continuous
 62
     3
100
AcDbCircle
 10
2253.312818674585
 20
313.831886541069
 30
0.0
 40
30.75
100
AcDbArc
 50
98.5840298048209
 51
113.7485430905252
  0
ARC
  5
13BB
330
1F
100
AcDbEntity
  8
0
  6
Continuous
 62
     3
100
AcDbCircle
 10
2269.43287049871
 20
366.0052245704064
 30
0.0
 40
30.0
100
AcDbArc
 50
278.5840298048209
 51
293.7485430905253
  0
ARC
  5
13BC
330
1F
100
AcDbEntity
  8
0
  6
Continuous
 62
     3
100
AcDbCircle
 10
2269.43287049871
 20
366.0052245704064
 30
0.0
 40
30.75
100
AcDbArc
 50
278.5840298048209
 51
293.7485430905253
  0
ARC
  5
13BD
330
1F
100
AcDbEntity
  8
0
  6
Continuous
 62
     3
100
AcDbCircle
 10
2253.312818674585
 20
366.0052245704064
 30
0.0
 40
30.0
100
AcDbArc
 50
246.2514569094748
 51
261.4159701951791
  0
ARC
  5
13BE
330
1F
100
AcDbEntity
  8
0
  6
Continuous
 62
     3
100
AcDbCircle
 10
2253.312818674585
 20
366.0052245704064
 30
0.0
 40
30.75
100
AcDbArc
 50
246.2514569094748
 51
261.4159701951791
  0
ARC
  5
13BF
330
1F
100
AcDbEntity
  8
0
  6
Continuous
 62
     3
100
AcDbCircle
 10
2261.372844586647
 20
260.4367932993046
 30
0.0
 40
84.74999999999857
100
AcDbArc
 50
81.41597019517911
 51
98.5840298048209
  0
ARC
  5
13C0
330
1F
100
AcDbEntity
  8
0
  6
Continuous
 62
     3
100
AcDbCircle
 10
2261.372844586647
 20
260.4367932993057
 30
0.0
 40
83.99999999999733
100
AcDbArc
 50
81.41597019517911
 51
98.5840298048209
  0
ARC
  5
13C1
330
1F
100
AcDbEntity
  8
0
  6
Continuous
 62
     3
100
AcDbCircle
 10
2261.372844586647
 20
419.4003178121707
 30
0.0
 40
84.74999999999857
100
AcDbArc
 50
261.4159701951791
 51
278.5840298048209
  0
ARC
  5
13C2
330
1F
100
AcDbEntity
  8
0
  6
Continuous
 62
     3
100
AcDbCircle
 10
2261.372844586647
 20
419.4003178121696
 30
0.0
 40
83.99999999999733
100
AcDbArc
 50
261.4159701951791
 51
278.5840298048209
  0
TEXT
  5
13C3
330
1F
100
AcDbEntity
  8
0
 62
     3
100
AcDbText
 10
2444.910791573775
 20
330.5037291791458
 30
0.0
 40
3.2
  1
担　当
  7
高3.2
100
AcDbText
  0
TEXT
  5
13C4
330
1F
100
AcDbEntity
  8
0
 62
     3
100
AcDbText
 10
2400.910791573775
 20
330.5037291791458
 30
0.0
 40
3.2
  1
変更・追記内容
  7
高3.2
100
AcDbText
  0
TEXT
  5
13C5
330
1F
100
AcDbEntity
  8
0
 62
     3
100
AcDbText
 10
2376.024306574114
 20
325.8331906692375
 30
0.0
 40
2.0
  1
1
  7
高2
100
AcDbText
  0
TEXT
  5
13C6
330
1F
100
AcDbEntity
  8
0
 62
     3
100
AcDbText
 10
2375.715795097357
 20
320.6633739569646
 30
0.0
 40
2.0
  1
2
  7
高2
100
AcDbText
  0
TEXT
  5
13C7
330
1F
100
AcDbEntity
  8
0
 62
     3
100
AcDbText
 10
2382.910791573775
 20
330.5037291791458
 30
0.0
 40
3.2
  1
日　付
  7
高3.2
100
AcDbText
  0
TEXT
  5
13C8
330
1F
100
AcDbEntity
  8
0
 62
     3
100
AcDbText
 10
2382.910791573775
 20
335.5037291791458
 30
0.0
 40
3.2
  1
図　　　　面　　　　略　　　　歴
  7
高3.2
100
AcDbText
  0
TEXT
  5
13C9
330
1F
100
AcDbEntity
  8
0
 62
     3
100
AcDbText
 10
2372.910791573775
 20
330.5037291791458
 30
0.0
 40
3.2
  1
記号
  7
高3.2
100
AcDbText
  0
LINE
  5
13CA
330
1F
100
AcDbEntity
  8
0
100
AcDbLine
 10
2376.410791573775
 20
323.7946251791459
 30
0.0
 11
2374.510791573776
 21
320.5037291791458
 31
0.0
  0
LINE
  5
13CB
330
1F
100
AcDbEntity
  8
0
100
AcDbLine
 10
2376.410791573775
 20
323.7946251791459
 30
0.0
 11
2378.310791573775
 21
320.5037291791458
 31
0.0
  0
LINE
  5
13CC
330
1F
100
AcDbEntity
  8
0
100
AcDbLine
 10
2374.510791573776
 20
320.5037291791458
 30
0.0
 11
2378.310791573775
 21
320.5037291791458
 31
0.0
  0
LINE
  5
13CD
330
1F
100
AcDbEntity
  8
0
100
AcDbLine
 10
2376.410791573775
 20
328.7946261791459
 30
0.0
 11
2374.510791573776
 21
325.5037291791458
 31
0.0
  0
LINE
  5
13CE
330
1F
100
AcDbEntity
  8
0
100
AcDbLine
 10
2376.410791573775
 20
328.7946261791459
 30
0.0
 11
2378.310791573775
 21
325.5037291791458
 31
0.0
  0
LINE
  5
13CF
330
1F
100
AcDbEntity
  8
0
100
AcDbLine
 10
2374.510791573776
 20
325.5037291791458
 30
0.0
 11
2378.310791573775
 21
325.5037291791458
 31
0.0
  0
LINE
  5
13D0
330
1F
100
AcDbEntity
  8
0
 62
     3
100
AcDbLine
 10
2371.410791573775
 20
335.0037291791458
 30
0.0
 11
2457.410791573775
 21
335.0037291791458
 31
0.0
  0
LINE
  5
13D1
330
1F
100
AcDbEntity
  8
0
 62
     3
100
AcDbLine
 10
2371.410791573775
 20
330.0037291791458
 30
0.0
 11
2457.410791573775
 21
330.0037291791458
 31
0.0
  0
LINE
  5
13D2
330
1F
100
AcDbEntity
  8
0
 62
     7
100
AcDbLine
 10
2371.410791573775
 20
325.0037291791458
 30
0.0
 11
2457.410791573775
 21
325.0037291791458
 31
0.0
  0
LINE
  5
13D3
330
1F
100
AcDbEntity
  8
0
 62
     3
100
AcDbLine
 10
2371.410791573775
 20
320.0037291791458
 30
0.0
 11
2457.410791573775
 21
320.0037291791458
 31
0.0
  0
LINE
  5
13D4
330
1F
100
AcDbEntity
  8
0
 62
     7
100
AcDbLine
 10
2443.410791573775
 20
320.0037291791458
 30
0.0
 11
2443.410791573775
 21
335.0037291791458
 31
0.0
  0
LINE
  5
13D5
330
1F
100
AcDbEntity
  8
0
 62
     7
100
AcDbLine
 10
2399.410791573775
 20
320.0037291791458
 30
0.0
 11
2399.410791573775
 21
335.0037291791458
 31
0.0
  0
LINE
  5
13D6
330
1F
100
AcDbEntity
  8
0
 62
     7
100
AcDbLine
 10
2381.410791573775
 20
320.0037291791458
 30
0.0
 11
2381.410791573775
 21
335.0037291791458
 31
0.0
  0
LINE
  5
13D7
330
1F
100
AcDbEntity
  8
0
 62
     3
100
AcDbLine
 10
2371.410791573775
 20
320.0037291791458
 30
0.0
 11
2371.410791573775
 21
340.0037291791458
 31
0.0
  0
LINE
  5
13D8
330
1F
100
AcDbEntity
  8
0
 62
     3
100
AcDbLine
 10
2438.028086393857
 20
295.9253105074223
 30
0.0
 11
2358.6593237277
 21
295.9253105074223
 31
0.0
  0
LINE
  5
13D9
330
1F
100
AcDbEntity
  8
0
 62
     7
100
AcDbLine
 10
2438.028086393857
 20
290.4253105074222
 30
0.0
 11
2358.6593237277
 21
290.4253105074222
 31
0.0
  0
LINE
  5
13DA
330
1F
100
AcDbEntity
  8
0
 62
     7
100
AcDbLine
 10
2438.028086393857
 20
251.9253105074242
 30
0.0
 11
2358.6593237277
 21
251.9253105074242
 31
0.0
  0
LINE
  5
13DB
330
1F
100
AcDbEntity
  8
0
 62
     7
100
AcDbLine
 10
2438.028086393858
 20
185.9253105074242
 30
0.0
 11
2358.6593237277
 21
185.9253105074242
 31
0.0
  0
TEXT
  5
13DC
330
1F
100
AcDbEntity
  8
0
 62
     3
100
AcDbText
 10
2360.159323727699
 20
197.9253105074242
 30
0.0
 40
3.2
  1
充電　時間
  7
高3.2
100
AcDbText
  0
TEXT
  5
13DD
330
1F
100
AcDbEntity
  8
0
 62
     3
100
AcDbText
 10
2360.1593237277
 20
291.4253105074223
 30
0.0
 40
3.2
  1
型　　　式
  7
高3.2
100
AcDbText
  0
TEXT
  5
13DE
330
1F
100
AcDbEntity
  8
0
 62
     3
100
AcDbText
 10
2360.1593237277
 20
258.4253105074237
 30
0.0
 40
3.2
  1
定格　光束
  7
高3.2
100
AcDbText
  0
TEXT
  5
13DF
330
1F
100
AcDbEntity
  8
0
 62
     3
100
AcDbText
 10
2360.1593237277
 20
192.4253105074242
 30
0.0
 40
3.2
  1
蓄　電　池
  7
高3.2
100
AcDbText
  0
TEXT
  5
13E2
330
1F
100
AcDbEntity
  8
0
 62
     3
100
AcDbText
 10
2385.528086393857
 20
192.4253105074242
 30
0.0
 40
3.2
  1
リチウムイオンバッテリー
 41
0.8
  7
高3.2
100
AcDbText
  0
LINE
  5
13E4
330
1F
100
AcDbEntity
  8
0
 62
     3
100
AcDbLine
 10
2358.6593237277
 20
295.9253105074223
 30
0.0
 11
2358.659323727699
 21
163.9253105074242
 31
0.0
  0
LINE
  5
13E5
330
1F
100
AcDbEntity
  8
0
 62
     7
100
AcDbLine
 10
2384.028086393858
 20
163.9253105074242
 30
0.0
 11
2384.028086393857
 21
295.9253105074223
 31
0.0
  0
TEXT
  5
13E6
330
1F
100
AcDbEntity
  8
0
 62
     3
100
AcDbText
 10
2385.528086393857
 20
291.4253105074223
 30
0.0
 40
3.2
  1
SL-2PCH-UV
  7
高3.2
100
AcDbText
  0
TEXT
  5
13E7
330
1F
100
AcDbEntity
  8
0
 62
     3
100
AcDbText
 10
2385.528086393858
 20
164.9253105074242
 30
0.0
 40
3.2
  1
98g
  7
高3.2
100
AcDbText
  0
TEXT
  5
13E8
330
1F
100
AcDbEntity
  8
0
 62
     3
100
AcDbText
 10
2360.1593237277
 20
164.9253105074242
 30
0.0
 40
3.2
  1
本体　質量
  7
高3.2
100
AcDbText
  0
TEXT
  5
13EB
330
1F
100
AcDbEntity
  8
0
 62
     3
100
AcDbText
 10
2385.528086393857
 20
197.9253105074242
 30
0.0
 40
3.2
  1
4時間
  7
高3.2
100
AcDbText
  0
LINE
  5
13EE
330
1F
100
AcDbEntity
  8
0
 62
     3
100
AcDbLine
 10
2438.028086393858
 20
163.9253105074242
 30
0.0
 11
2358.6593237277
 21
163.9253105074242
 31
0.0
  0
TEXT
  5
13EF
330
1F
100
AcDbEntity
  8
0
 62
     3
100
AcDbText
 10
2385.528086393857
 20
230.9253105074251
 30
0.0
 40
3.2
  1
210Lx
  7
高3.2
100
AcDbText
  0
TEXT
  5
13F1
330
1F
100
AcDbEntity
  8
0
 62
     3
100
AcDbText
 10
2385.528086393858
 20
258.4253105074237
 30
0.0
 40
3.2
  1
70Lm
  7
高3.2
100
AcDbText
  0
TEXT
  5
13F3
330
1F
100
AcDbEntity
  8
0
 62
     3
100
AcDbText
 10
2369.838467815814
 20
230.9253105074251
 30
0.0
 40
3.2
  1
1m
  7
高3.2
100
AcDbText
  0
LINE
  5
13F4
330
1F
100
AcDbEntity
  8
0
 62
     7
100
AcDbLine
 10
2438.028086393857
 20
229.9253105074251
 30
0.0
 11
2368.338467815813
 21
229.9253105074251
 31
0.0
  0
TEXT
  5
13F5
330
1F
100
AcDbEntity
  8
0
 62
     3
100
AcDbText
 10
2385.528086393857
 20
225.4253105074251
 30
0.0
 40
3.2
  1
50Lx
  7
高3.2
100
AcDbText
  0
TEXT
  5
13F6
330
1F
100
AcDbEntity
  8
0
 62
     3
100
AcDbText
 10
2369.838467815814
 20
225.4253105074251
 30
0.0
 40
3.2
  1
2m
  7
高3.2
100
AcDbText
  0
LINE
  5
13F7
330
1F
100
AcDbEntity
  8
0
 62
     7
100
AcDbLine
 10
2438.028086393857
 20
224.4253105074251
 30
0.0
 11
2368.338467815813
 21
224.4253105074251
 31
0.0
  0
TEXT
  5
13F8
330
1F
100
AcDbEntity
  8
0
 62
     3
100
AcDbText
 10
2385.528086393857
 20
219.9253105074249
 30
0.0
 40
3.2
  1
25Lx
  7
高3.2
100
AcDbText
  0
TEXT
  5
13F9
330
1F
100
AcDbEntity
  8
0
 62
     3
100
AcDbText
 10
2369.838467815814
 20
219.9253105074249
 30
0.0
 40
3.2
  1
3m
  7
高3.2
100
AcDbText
  0
LINE
  5
13FA
330
1F
100
AcDbEntity
  8
0
 62
     7
100
AcDbLine
 10
2438.028086393857
 20
218.9253105074252
 30
0.0
 11
2368.338467815813
 21
218.9253105074252
 31
0.0
  0
TEXT
  5
13FB
330
1F
100
AcDbEntity
  8
0
 62
     3
100
AcDbText
 10
2385.528086393857
 20
214.4253105074252
 30
0.0
 40
3.2
  1
15Lx
  7
高3.2
100
AcDbText
  0
TEXT
  5
13FC
330
1F
100
AcDbEntity
  8
0
 62
     3
100
AcDbText
 10
2369.838467815814
 20
214.4253105074252
 30
0.0
 40
3.2
  1
4m
  7
高3.2
100
AcDbText
  0
LINE
  5
13FD
330
1F
100
AcDbEntity
  8
0
 62
     7
100
AcDbLine
 10
2438.028086393858
 20
213.4253105074251
 30
0.0
 11
2368.338467815813
 21
213.4253105074251
 31
0.0
  0
TEXT
  5
13FE
330
1F
100
AcDbEntity
  8
0
 62
     3
100
AcDbText
 10
2385.528086393857
 20
208.9253105074249
 30
0.0
 40
3.2
  1
8Lx
  7
高3.2
100
AcDbText
  0
TEXT
  5
13FF
330
1F
100
AcDbEntity
  8
0
 62
     3
100
AcDbText
 10
2369.838467815814
 20
208.9253105074249
 30
0.0
 40
3.2
  1
5m
  7
高3.2
100
AcDbText
  0
LINE
  5
1400
330
1F
100
AcDbEntity
  8
0
 62
     7
100
AcDbLine
 10
2438.028086393857
 20
196.9253105074242
 30
0.0
 11
2358.6593237277
 21
196.9253105074242
 31
0.0
  0
TEXT
  5
1401
330
1F
100
AcDbEntity
  8
0
 62
     3
100
AcDbText
 10
2385.528086393857
 20
175.9253105074245
 30
0.0
 40
3.2
  1
300回(充放電回数)
  7
高3.2
100
AcDbText
  0
TEXT
  5
1402
330
1F
100
AcDbEntity
  8
0
 62
     3
100
AcDbText
 10
2360.159323727699
 20
175.9253105074245
 30
0.0
 40
3.2
  1
電池　寿命
  7
高3.2
100
AcDbText
  0
LINE
  5
1403
330
1F
100
AcDbEntity
  8
0
 62
     7
100
AcDbLine
 10
2438.028086393857
 20
207.9253105074247
 30
0.0
 11
2358.6593237277
 21
207.9253105074247
 31
0.0
  0
TEXT
  5
1404
330
1F
100
AcDbEntity
  8
0
 62
     3
100
AcDbText
 10
2385.528086393858
 20
252.9253105074241
 30
0.0
 40
3.2
  1
6500K
  7
高3.2
100
AcDbText
  0
TEXT
  5
1405
330
1F
100
AcDbEntity
  8
0
 62
     3
100
AcDbText
 10
2360.1593237277
 20
252.9253105074241
 30
0.0
 40
3.2
  1
色　温　度
  7
高3.2
100
AcDbText
  0
TEXT
  5
1407
330
1F
100
AcDbEntity
  8
0
 62
     3
100
AcDbText
 10
2360.1593237277
 20
170.4253105074245
 30
0.0
 40
3.2
  1
使用環境温度
  7
高3.2
100
AcDbText
  0
TEXT
  5
1408
330
1F
100
AcDbEntity
  8
0
 62
     3
100
AcDbText
 10
2385.528086393858
 20
170.4253105074245
 30
0.0
 40
3.2
  1
-10～40℃
  7
高3.2
100
AcDbText
  0
LINE
  5
140A
330
1F
100
AcDbEntity
  8
0
 62
     7
100
AcDbLine
 10
2438.028086393858
 20
180.4253105074245
 30
0.0
 11
2358.6593237277
 21
180.4253105074242
 31
0.0
  0
LINE
  5
140C
330
1F
100
AcDbEntity
  8
0
 62
     7
100
AcDbLine
 10
2438.028086393858
 20
174.9253105074244
 30
0.0
 11
2358.6593237277
 21
174.9253105074244
 31
0.0
  0
TEXT
  5
140D
330
1F
100
AcDbEntity
  8
0
 62
     3
100
AcDbText
 10
2385.528086393857
 20
186.9253105074242
 30
0.0
 40
3.2
  1
DC3.7V　2.2Ah
  7
高3.2
100
AcDbText
  0
LINE
  5
140E
330
1F
100
AcDbEntity
  8
0
 62
     7
100
AcDbLine
 10
2368.338467815814
 20
207.9253105074249
 30
0.0
 11
2368.338467815814
 21
235.4253105074252
 31
0.0
  0
LINE
  5
1410
330
1F
100
AcDbEntity
  8
0
 62
     7
100
AcDbLine
 10
2438.028086393858
 20
169.4253105074245
 30
0.0
 11
2358.6593237277
 21
169.4253105074245
 31
0.0
  0
LINE
  5
1411
330
1F
100
AcDbEntity
  8
0
 62
     7
100
AcDbLine
 10
2438.028086393857
 20
191.4253105074242
 30
0.0
 11
2384.028086393858
 21
191.4253105074242
 31
0.0
  0
TEXT
  5
1413
330
1F
100
AcDbEntity
  8
0
 62
     3
100
AcDbText
 10
2360.1593237277
 20
285.9253105074221
 30
0.0
 40
3.2
  1
使用　場所
  7
高3.2
100
AcDbText
  0
TEXT
  5
1414
330
1F
100
AcDbEntity
  8
0
 62
     3
100
AcDbText
 10
2385.528086393857
 20
285.9253105074221
 30
0.0
 40
3.2
  1
屋内型
  7
高3.2
100
AcDbText
  0
TEXT
  5
1415
330
1F
100
AcDbEntity
  8
0
 62
     3
100
AcDbText
 10
2385.528086393857
 20
181.4253105074242
 30
0.0
 40
3.2
  1
50000時間
  7
高3.2
100
AcDbText
  0
TEXT
  5
1416
330
1F
100
AcDbEntity
  8
0
 62
     3
100
AcDbText
 10
2360.159323727699
 20
181.4253105074242
 30
0.0
 40
3.2
  1
球　寿　命
  7
高3.2
100
AcDbText
  0
LINE
  5
1417
330
1F
100
AcDbEntity
  8
0
 62
     7
100
AcDbLine
 10
2438.028086393857
 20
284.925310507422
 30
0.0
 11
2358.6593237277
 21
284.925310507422
 31
0.0
  0
TEXT
  5
141A
330
1F
100
AcDbEntity
  8
0
 62
     3
100
AcDbText
 10
2385.528086393857
 20
280.4253105074224
 30
0.0
 40
3.2
  1
LED
  7
高3.2
100
AcDbText
  0
TEXT
  5
141B
330
1F
100
AcDbEntity
  8
0
 62
     3
100
AcDbText
 10
2360.1593237277
 20
280.4253105074224
 30
0.0
 40
3.2
  1
光　　　源
  7
高3.2
100
AcDbText
  0
LINE
  5
141C
330
1F
100
AcDbEntity
  8
0
 62
     7
100
AcDbLine
 10
2438.028086393857
 20
257.4253105074236
 30
0.0
 11
2358.6593237277
 21
257.4253105074236
 31
0.0
  0
TEXT
  5
141D
330
1F
100
AcDbEntity
  8
0
 62
     3
100
AcDbText
 10
2385.528086393858
 20
236.4253105074247
 30
0.0
 40
3.2
  1
50\U+00B0
  7
高3.2
100
AcDbText
  0
TEXT
  5
141E
330
1F
100
AcDbEntity
  8
0
 62
     3
100
AcDbText
 10
2360.1593237277
 20
236.4253105074247
 30
0.0
 40
3.2
  1
照射　角度
  7
高3.2
100
AcDbText
  0
TEXT
  5
141F
330
1F
100
AcDbEntity
  8
0
 62
     3
100
AcDbText
 10
2373.871162089602
 20
300.8947037275567
 30
0.0
 40
4.5
  1
主　　仕　　様
  7
高4.5
100
AcDbText
  0
LINE
  5
1420
330
1F
100
AcDbEntity
  8
0
100
AcDbLine
 10
2372.770247721847
 20
300.028950643714
 30
0.0
 11
2411.362468001534
 21
300.028950643714
 31
0.0
  0
TEXT
  5
1421
330
1F
100
AcDbEntity
  8
0
 62
     7
100
AcDbText
 10
2357.708397525597
 20
154.4509886708563
 30
0.0
 40
2.5
  1
注３）照度は当社実測値の為、使用環境下により異なります。
 41
0.8
  7
高2.5
100
AcDbText
  0
TEXT
  5
1422
330
1F
100
AcDbEntity
  8
0
 62
     7
100
AcDbText
 10
2357.708397525597
 20
151.4509886708563
 30
0.0
 40
2.5
  1
注４）連続点灯時間は満充電時から1m照度が10Lx切るまでの時間です。
 41
0.8
  7
高2.5
100
AcDbText
  0
TEXT
  5
1423
330
1F
100
AcDbEntity
  8
0
 62
     7
100
AcDbText
 10
2357.708397525597
 20
148.4509886708563
 30
0.0
 40
2.5
  1
注５）球寿命は光束が70%%%に低下するまでの時間です。
 41
0.8
  7
高2.5
100
AcDbText
  0
TEXT
  5
1424
330
1F
100
AcDbEntity
  8
0
 62
     7
100
AcDbText
 10
2357.708397525597
 20
145.4509886708563
 30
0.0
 40
2.5
  1
　　　表示は設計値であり、製品の寿命を保証するものではありません。
 41
0.8
  7
高2.5
100
AcDbText
  0
TEXT
  5
1425
330
1F
100
AcDbEntity
  8
0
 62
     7
100
AcDbText
 10
2357.708397525597
 20
157.4509886708563
 30
0.0
 40
2.5
  1
注２）LEDの光色、明るさにはバラツキがあります。
 41
0.8
  7
高2.5
100
AcDbText
  0
TEXT
  5
1426
330
1F
100
AcDbEntity
  8
0
 62
     7
100
AcDbText
 10
2357.708397525597
 20
160.4509886708563
 30
0.0
 40
2.5
  1
注１）当器具のLED素子交換はできません。
 41
0.8
  7
高2.5
100
AcDbText
  0
TEXT
  5
1427
330
1F
100
AcDbEntity
  8
0
 62
     7
100
AcDbText
 10
2357.708397525597
 20
139.4509886708563
 30
0.0
 40
2.5
  1
注７）安全にご使用いただくため、取扱説明書をご参照ください。
 41
0.8
  7
高2.5
100
AcDbText
  0
TEXT
  5
1429
330
1F
100
AcDbEntity
  8
0
 62
     7
100
AcDbText
 10
2357.708397525597
 20
136.4509886708563
 30
0.0
 40
2.5
  1
注８）仕様変更は予告なく行う場合があります。予めご了承ください。
 41
0.8
  7
高2.5
100
AcDbText
  0
TEXT
  5
142A
330
1F
100
AcDbEntity
  8
0
 62
     7
100
AcDbText
 10
2357.708397525597
 20
142.4509886708563
 30
0.0
 40
2.5
  1
注６）充電中の点灯は電子部品に負荷がかかりますので、お控えください。
 41
0.8
  7
高2.5
100
AcDbText
  0
TEXT
  5
142B
330
1F
100
AcDbEntity
  8
0
 62
     3
100
AcDbText
 10
2360.1593237277
 20
203.425310507424
 30
0.0
 40
3.2
  1
連続点灯時間
  7
高3.2
100
AcDbText
  0
TEXT
  5
142C
330
1F
100
AcDbEntity
  8
0
 62
     3
100
AcDbText
 10
2385.528086393858
 20
203.425310507424
 30
0.0
 40
3.2
  1
9.5時間
 41
0.8
  7
高3.2
100
AcDbText
  0
LINE
  5
142D
330
1F
100
AcDbEntity
  8
0
 62
     7
100
AcDbLine
 10
2438.028086393857
 20
202.425310507424
 30
0.0
 11
2358.6593237277
 21
202.425310507424
 31
0.0
  0
LINE
  5
142F
330
1F
100
AcDbEntity
  8
0
 62
     7
100
AcDbLine
 10
2438.028086393857
 20
235.4253105074252
 30
0.0
 11
2358.6593237277
 21
235.4253105074252
 31
0.0
  0
TEXT
  5
1430
330
1F
100
AcDbEntity
  8
0
 62
     3
100
AcDbText
 10
2385.528086393856
 20
263.9253105074284
 30
0.0
 40
3.2
  1
天面
  7
高3.2
100
AcDbText
  0
TEXT
  5
1431
330
1F
100
AcDbEntity
  8
0
 62
     3
100
AcDbText
 10
2360.1593237277
 20
230.9253105074255
 30
0.0
 40
3.2
  1
照度
  7
高3.2
100
AcDbText
  0
LINE
  5
1433
330
1F
100
AcDbEntity
  8
0
 62
     7
100
AcDbLine
 10
2438.028086393857
 20
279.4253105074225
 30
0.0
 11
2358.6593237277
 21
279.4253105074225
 31
0.0
  0
TEXT
  5
1435
330
1F
100
AcDbEntity
  8
0
 62
     3
100
AcDbText
 10
2385.528086393858
 20
274.9253105074229
 30
0.0
 40
3.2
  1
天面点灯→側面点灯→OFF
 41
0.8
  7
高3.2
100
AcDbText
  0
TEXT
  5
1436
330
1F
100
AcDbEntity
  8
0
 62
     3
100
AcDbText
 10
2360.1593237277
 20
274.9253105074229
 30
0.0
 40
3.2
  1
点灯パターン
  7
高3.2
100
AcDbText
  0
LINE
  5
1437
330
1F
100
AcDbEntity
  8
0
 62
     7
100
AcDbLine
 10
2438.028086393857
 20
268.4253105074256
 30
0.0
 11
2358.6593237277
 21
268.4253105074256
 31
0.0
  0
LINE
  5
1439
330
1F
100
AcDbEntity
  8
0
100
AcDbLine
 10
2402.028086393857
 20
268.4253105074255
 30
0.0
 11
2402.028086393857
 21
202.4253105074239
 31
0.0
  0
TEXT
  5
143C
330
1F
100
AcDbEntity
  8
0
 62
     3
100
AcDbText
 10
2403.528086393856
 20
263.9253105074284
 30
0.0
 40
3.2
  1
側面
  7
高3.2
100
AcDbText
  0
TEXT
  5
1448
330
1F
100
AcDbEntity
  8
0
 62
     3
100
AcDbText
 10
2403.528086393857
 20
230.925310507425
 30
0.0
 40
3.2
  1
150Lx
  7
高3.2
100
AcDbText
  0
TEXT
  5
1449
330
1F
100
AcDbEntity
  8
0
 62
     3
100
AcDbText
 10
2403.528086393857
 20
225.425310507425
 30
0.0
 40
3.2
  1
40Lx
  7
高3.2
100
AcDbText
  0
TEXT
  5
144A
330
1F
100
AcDbEntity
  8
0
 62
     3
100
AcDbText
 10
2403.528086393857
 20
219.9253105074248
 30
0.0
 40
3.2
  1
20Lx
  7
高3.2
100
AcDbText
  0
TEXT
  5
144B
330
1F
100
AcDbEntity
  8
0
 62
     3
100
AcDbText
 10
2403.528086393857
 20
214.4253105074251
 30
0.0
 40
3.2
  1
10Lx
  7
高3.2
100
AcDbText
  0
TEXT
  5
144C
330
1F
100
AcDbEntity
  8
0
 62
     3
100
AcDbText
 10
2403.528086393857
 20
208.9253105074248
 30
0.0
 40
3.2
  1
7Lx
  7
高3.2
100
AcDbText
  0
TEXT
  5
144D
330
1F
100
AcDbEntity
  8
0
 62
     3
100
AcDbText
 10
2403.528086393857
 20
203.425310507424
 30
0.0
 40
3.2
  1
3.5時間
 41
0.8
  7
高3.2
100
AcDbText
  0
LINE
  5
15EB
330
1F
100
AcDbEntity
  8
0
100
AcDbLine
 10
2067.410791573775
 20
71.00372917914592
 30
0.0
 11
2183.3118500138
 21
71.00372917914592
 31
0.0
  0
LINE
  5
15EC
330
1F
100
AcDbEntity
  8
0
100
AcDbLine
 10
2067.410791573775
 20
76.00372917914592
 30
0.0
 11
2183.3118500138
 21
76.00372917914592
 31
0.0
  0
LINE
  5
15ED
330
1F
100
AcDbEntity
  8
0
100
AcDbLine
 10
2067.410791573775
 20
81.00372917914592
 30
0.0
 11
2183.3118500138
 21
81.00372917914592
 31
0.0
  0
LINE
  5
15EE
330
1F
100
AcDbEntity
  8
0
100
AcDbLine
 10
2067.410791573775
 20
86.00372917914592
 30
0.0
 11
2183.3118500138
 21
86.00372917914592
 31
0.0
  0
LINE
  5
15EF
330
1F
100
AcDbEntity
  8
0
 62
     7
100
AcDbLine
 10
2067.410791573775
 20
91.00372917914592
 30
0.0
 11
2183.3118500138
 21
91.00372917914596
 31
0.0
  0
TEXT
  5
15F0
330
1F
100
AcDbEntity
  8
0
 62
     3
100
AcDbText
 10
2068.910791573775
 20
66.50372917914592
 30
0.0
 40
3.2
  1
No.
 41
0.8
  7
高3.2
100
AcDbText
  0
TEXT
  5
15F1
330
1F
100
AcDbEntity
  8
0
 62
     3
100
AcDbText
 10
2068.910791573775
 20
71.50372917914592
 30
0.0
 40
3.2
  1
1
 41
0.8
  7
高3.2
100
AcDbText
  0
TEXT
  5
15F2
330
1F
100
AcDbEntity
  8
0
 62
     3
100
AcDbText
 10
2068.910791573775
 20
76.50372917914592
 30
0.0
 40
3.2
  1
2
 41
0.8
  7
高3.2
100
AcDbText
  0
TEXT
  5
15F3
330
1F
100
AcDbEntity
  8
0
 62
     3
100
AcDbText
 10
2068.910791573775
 20
81.50372917914593
 30
0.0
 40
3.2
  1
3
 41
0.8
  7
高3.2
100
AcDbText
  0
TEXT
  5
15F4
330
1F
100
AcDbEntity
  8
0
 62
     3
100
AcDbText
 10
2077.467981890953
 20
66.50372917914592
 30
0.0
 40
3.2
  1
部品名
 41
0.8
  7
高3.2
100
AcDbText
  0
TEXT
  5
15F5
330
1F
100
AcDbEntity
  8
0
 62
     3
100
AcDbText
 10
2077.467981890953
 20
71.50372917914592
 30
0.0
 40
3.2
  1
ライト胴体
 41
0.8
  7
高3.2
100
AcDbText
  0
TEXT
  5
15F6
330
1F
100
AcDbEntity
  8
0
 62
     3
100
AcDbText
 10
2077.467981890953
 20
76.50372917914592
 30
0.0
 40
3.2
  1
底面キャップ
 41
0.8
  7
高3.2
100
AcDbText
  0
TEXT
  5
15F7
330
1F
100
AcDbEntity
  8
0
 62
     3
100
AcDbText
 10
2077.467981890953
 20
81.50372917914593
 30
0.0
 40
3.2
  1
天面キャップ
 41
0.8
  7
高3.2
100
AcDbText
  0
LINE
  5
15F8
330
1F
100
AcDbEntity
  8
0
100
AcDbLine
 10
2075.967981890954
 20
96.00372917914592
 30
0.0
 11
2075.967981890953
 21
66.00372917914592
 31
0.0
  0
TEXT
  5
15F9
330
1F
100
AcDbEntity
  8
0
 62
     3
100
AcDbText
 10
2101.393191313023
 20
66.50372917914592
 30
0.0
 40
3.2
  1
材質
 41
0.8
  7
高3.2
100
AcDbText
  0
TEXT
  5
15FA
330
1F
100
AcDbEntity
  8
0
 62
     3
100
AcDbText
 10
2101.393191313023
 20
71.50372917914592
 30
0.0
 40
3.2
  1
アルミ
 41
0.8
  7
高3.2
100
AcDbText
  0
TEXT
  5
15FB
330
1F
100
AcDbEntity
  8
0
 62
     3
100
AcDbText
 10
2101.393191313023
 20
76.50372917914592
 30
0.0
 40
3.2
  1
樹脂
 41
0.8
  7
高3.2
100
AcDbText
  0
TEXT
  5
15FC
330
1F
100
AcDbEntity
  8
0
 62
     3
100
AcDbText
 10
2101.393191313023
 20
81.50372917914593
 30
0.0
 40
3.2
  1
樹脂
 41
0.8
  7
高3.2
100
AcDbText
  0
LINE
  5
15FD
330
1F
100
AcDbEntity
  8
0
100
AcDbLine
 10
2099.893191313023
 20
96.00372917914592
 30
0.0
 11
2099.893191313023
 21
66.00372917914592
 31
0.0
  0
TEXT
  5
15FE
330
1F
100
AcDbEntity
  8
0
 62
     3
100
AcDbText
 10
2125.631987475793
 20
66.50372917914592
 30
0.0
 40
3.2
  1
備考
 41
0.8
  7
高3.2
100
AcDbText
  0
TEXT
  5
15FF
330
1F
100
AcDbEntity
  8
0
 62
     3
100
AcDbText
 10
2125.631987475793
 20
71.50372917914592
 30
0.0
 40
3.2
  1
銀
 41
0.8
  7
高3.2
100
AcDbText
  0
TEXT
  5
1600
330
1F
100
AcDbEntity
  8
0
 62
     3
100
AcDbText
 10
2125.631987475793
 20
76.50372917914592
 30
0.0
 40
3.2
  1
黒
 41
0.8
  7
高3.2
100
AcDbText
  0
TEXT
  5
1601
330
1F
100
AcDbEntity
  8
0
 62
     3
100
AcDbText
 10
2125.631987475793
 20
81.50372917914593
 30
0.0
 40
3.2
  1
黒
 41
0.8
  7
高3.2
100
AcDbText
  0
LINE
  5
1602
330
1F
100
AcDbEntity
  8
0
100
AcDbLine
 10
2124.131987475793
 20
96.00372917914592
 30
0.0
 11
2124.131987475793
 21
66.00372917914592
 31
0.0
  0
TEXT
  5
1603
330
1F
100
AcDbEntity
  8
0
 62
     3
100
AcDbText
 10
2157.117642819379
 20
66.50372917914592
 30
0.0
 40
3.2
  1
個数
 41
0.8
  7
高3.2
100
AcDbText
  0
TEXT
  5
1604
330
1F
100
AcDbEntity
  8
0
 62
     3
100
AcDbText
 10
2157.117642819379
 20
71.50372917914592
 30
0.0
 40
3.2
  1
1
 41
0.8
  7
高3.2
100
AcDbText
  0
TEXT
  5
1605
330
1F
100
AcDbEntity
  8
0
 62
     3
100
AcDbText
 10
2157.117642819379
 20
76.50372917914592
 30
0.0
 40
3.2
  1
1
 41
0.8
  7
高3.2
100
AcDbText
  0
TEXT
  5
1606
330
1F
100
AcDbEntity
  8
0
 62
     3
100
AcDbText
 10
2157.117642819379
 20
81.50372917914593
 30
0.0
 40
3.2
  1
1
 41
0.8
  7
高3.2
100
AcDbText
  0
LINE
  5
1608
330
1F
100
AcDbEntity
  8
0
100
AcDbLine
 10
2155.617642819379
 20
96.00372917914592
 30
0.0
 11
2155.617642819379
 21
66.00372917914592
 31
0.0
  0
LINE
  5
1609
330
1F
100
AcDbEntity
  8
0
 62
     7
100
AcDbLine
 10
2165.3118500138
 20
96.00372917914592
 30
0.0
 11
2165.3118500138
 21
66.00372917914592
 31
0.0
  0
LINE
  5
160E
330
1F
100
AcDbEntity
  8
0
 62
     3
100
AcDbLine
 10
2067.410791573775
 20
96.00372917914592
 30
0.0
 11
2183.3118500138
 21
96.00372917914592
 31
0.0
  0
TEXT
  5
1615
330
1F
100
AcDbEntity
  8
0
 62
     3
100
AcDbText
 10
2157.117642819379
 20
91.50372917914593
 30
0.0
 40
3.2
  1
1
 41
0.8
  7
高3.2
100
AcDbText
  0
TEXT
  5
1616
330
1F
100
AcDbEntity
  8
0
 62
     3
100
AcDbText
 10
2068.910791573775
 20
91.50372917914593
 30
0.0
 40
3.2
  1
付属
 41
0.8
  7
高3.2
100
AcDbText
  0
TEXT
  5
1617
330
1F
100
AcDbEntity
  8
0
 62
     3
100
AcDbText
 10
2077.467981890953
 20
91.50372917914593
 30
0.0
 40
3.2
  1
充電ケーブル
 41
0.8
  7
高3.2
100
AcDbText
  0
TEXT
  5
1618
330
1F
100
AcDbEntity
  8
0
 62
     3
100
AcDbText
 10
2101.393191313023
 20
91.50372917914593
 30
0.0
 40
3.2
  1
-
 41
0.8
  7
高3.2
100
AcDbText
  0
TEXT
  5
1619
330
1F
100
AcDbEntity
  8
0
 62
     3
100
AcDbText
 10
2125.631987475793
 20
91.50372917914593
 30
0.0
 40
3.2
  1
USB
 41
0.8
  7
高3.2
100
AcDbText
  0
LINE
  5
162D
330
1F
100
AcDbEntity
  8
0
 62
     3
100
AcDbLine
 10
2457.410791573775
 20
112.0037291791459
 30
0.0
 11
2405.410791573775
 21
112.0037291791459
 31
0.0
  0
LINE
  5
162E
330
1F
100
AcDbEntity
  8
0
 62
     3
100
AcDbLine
 10
2431.410791573775
 20
106.0037291791459
 30
0.0
 11
2431.410791573775
 21
112.0037291791459
 31
0.0
  0
LINE
  5
162F
330
1F
100
AcDbEntity
  8
0
 62
     3
100
AcDbLine
 10
2405.410791573775
 20
106.0037291791459
 30
0.0
 11
2405.410791573775
 21
112.0037291791459
 31
0.0
  0
TEXT
  5
1630
330
1F
100
AcDbEntity
  8
0
 62
     3
100
AcDbText
 10
2411.0498167194
 20
106.4163537256963
 30
0.0
 40
4.5
  1
コード
  7
高4.5
100
AcDbText
  0
TEXT
  5
1631
330
1F
100
AcDbEntity
  8
0
 62
     3
100
AcDbText
 10
2435.633892036213
 20
106.6351933755995
 30
0.0
 40
4.5
  1
12049
  7
高4.5
100
AcDbText
  0
LINE
  5
1632
330
1F
100
AcDbEntity
  8
0
 62
     7
100
AcDbLine
 10
2438.028086393857
 20
273.9253105074229
 30
0.0
 11
2384.028086393857
 21
273.9253105074228
 31
0.0
  0
TEXT
  5
1633
330
1F
100
AcDbEntity
  8
0
 62
     3
100
AcDbText
 10
2385.528086393857
 20
269.4253105074233
 30
0.0
 40
3.2
  1
スイッチ長押しでUV点灯
 41
0.8
  7
高3.2
100
AcDbText
  0
TEXT
  5
163D
330
1F
100
AcDbEntity
  8
0
 62
     3
100
AcDbText
 10
2389.575116987091
 20
85.07682603251124
 30
0.0
 40
2.5
  1
別記
  7
高2.5
100
AcDbText
  0
TEXT
  5
163E
330
1F
100
AcDbEntity
  8
0
 62
     3
100
AcDbText
 10
2360.607160269027
 20
85.30154358412984
 30
0.0
 40
2.5
  1
別記
  7
高2.5
100
AcDbText
  0
TEXT
  5
163F
330
1F
100
AcDbEntity
  8
0
 62
     3
100
AcDbText
 10
2360.872068023725
 20
98.31597870290398
 30
0.0
 40
4.5
  1
LEDポケットライト ブラックライト付
 41
0.4400000000000003
  7
高4.5
100
AcDbText
1001
ACAD
1000
ACAD_MTEXT_DEFINED_HEIGHT_BEGIN
1070
    46
1040
0.0
1000
ACAD_MTEXT_DEFINED_HEIGHT_END
  0
TEXT
  5
1640
330
1F
100
AcDbEntity
  8
0
 62
     3
100
AcDbText
 10
2360.553550839028
 20
91.09121030695792
 30
0.0
 40
4.5
  1
SL-2PCH-UV
 41
0.9
  7
高4.5
100
AcDbText
  0
TEXT
  5
1641
330
1F
100
AcDbEntity
  8
0
 62
     3
100
AcDbText
 10
2408.506135012828
 20
67.14792013598117
 30
0.0
 40
6.299999999999998
  1
SL-2PCH-UV
 41
0.7
  7
高6.3
100
AcDbText
1001
ACAD
1000
ACAD_MTEXT_DEFINED_HEIGHT_BEGIN
1070
    46
1040
0.0
1000
ACAD_MTEXT_DEFINED_HEIGHT_END
  0
TEXT
  5
1642
330
1F
100
AcDbEntity
  8
0
 62
     3
100
AcDbText
 10
2421.974301324105
 20
77.10461833737895
 30
0.0
 40
3.2
  1
2019.05.31
  7
高3.2
100
AcDbText
1001
ACAD
1000
ACAD_MTEXT_DEFINED_HEIGHT_BEGIN
1070
    46
1040
0.0
1000
ACAD_MTEXT_DEFINED_HEIGHT_END
  0
TEXT
  5
1643
330
1F
100
AcDbEntity
  8
0
100
AcDbText
 10
2450.178133945389
 20
87.20371870710369
 30
0.0
 40
3.2
  1
I
  7
高3.2
100
AcDbText
  0
TEXT
  5
172D
330
1F
100
AcDbEntity
  8
0
 62
     3
100
AcDbText
 10
2166.8118500138
 20
66.50372917914592
 30
0.0
 40
3.2
  1
コード
 41
0.8
  7
高3.2
100
AcDbText
  0
TEXT
  5
172E
330
1F
100
AcDbEntity
  8
0
 62
     3
100
AcDbText
 10
2166.8118500138
 20
71.50372917914592
 30
0.0
 40
3.2
  1
-
 41
0.8
  7
高3.2
100
AcDbText
  0
TEXT
  5
172F
330
1F
100
AcDbEntity
  8
0
 62
     3
100
AcDbText
 10
2166.8118500138
 20
76.50372917914592
 30
0.0
 40
3.2
  1
-
 41
0.8
  7
高3.2
100
AcDbText
  0
TEXT
  5
1730
330
1F
100
AcDbEntity
  8
0
 62
     3
100
AcDbText
 10
2166.8118500138
 20
81.50372917914593
 30
0.0
 40
3.2
  1
-
 41
0.8
  7
高3.2
100
AcDbText
  0
TEXT
  5
1734
330
1F
100
AcDbEntity
  8
0
 62
     3
100
AcDbText
 10
2166.8118500138
 20
91.50372917914593
 30
0.0
 40
3.2
  1
-
 41
0.8
  7
高3.2
100
AcDbText
  0
LINE
  5
1737
330
1F
100
AcDbEntity
  8
0
 62
     3
100
AcDbLine
 10
2183.3118500138
 20
96.00372917914592
 30
0.0
 11
2183.3118500138
 21
66.00372917914592
 31
0.0
  0
LINE
  5
1830
330
1F
100
AcDbEntity
  8
0
 62
     3
100
AcDbLine
 10
2214.581275987739
 20
275.5221864763148
 30
0.0
 11
2189.581275987739
 21
275.5221864763148
 31
0.0
  0
LINE
  5
1832
330
1F
100
AcDbEntity
  8
0
 62
     3
100
AcDbLine
 10
2215.581275987739
 20
164.0221864763148
 30
0.0
 11
2188.581275987739
 21
164.0221864763148
 31
0.0
  0
LINE
  5
1833
330
1F
100
AcDbEntity
  8
0
 62
     3
100
AcDbLine
 10
2215.581275987739
 20
179.0221864763148
 30
0.0
 11
2188.581275987739
 21
179.0221864763148
 31
0.0
  0
LINE
  5
1834
330
1F
100
AcDbEntity
  8
0
 62
     3
100
AcDbLine
 10
2215.581275987739
 20
260.0221864763148
 30
0.0
 11
2188.081275987739
 21
260.0221864763148
 31
0.0
  0
LINE
  5
1835
330
1F
100
AcDbEntity
  8
0
 62
     3
100
AcDbLine
 10
2215.581275987739
 20
274.5221864763148
 30
0.0
 11
2215.581275987739
 21
164.0221864763148
 31
0.0
  0
LINE
  5
1836
330
1F
100
AcDbEntity
  8
0
 62
     3
100
AcDbLine
 10
2188.581275987739
 20
274.5221864763148
 30
0.0
 11
2188.581275987739
 21
164.0221864763148
 31
0.0
  0
LINE
  5
1837
330
1F
100
AcDbEntity
  8
0
 62
     3
100
AcDbLine
 10
2268.218092630824
 20
167.0221864763148
 30
0.0
 11
2268.218092630824
 21
237.3822661579056
 31
0.0
  0
LINE
  5
1838
330
1F
100
AcDbEntity
  8
0
 62
     3
100
AcDbLine
 10
2292.218092630824
 20
164.0221864763148
 30
0.0
 11
2292.218092630824
 21
274.5221864763148
 31
0.0
  0
LINE
  5
1839
330
1F
100
AcDbEntity
  8
0
 62
     3
100
AcDbLine
 10
2286.718092630824
 20
164.0221864763148
 30
0.0
 11
2286.718092630824
 21
274.5221864763148
 31
0.0
  0
LINE
  5
183B
330
1F
100
AcDbEntity
  8
0
 62
     3
100
AcDbLine
 10
2269.718092630824
 20
164.0221864763148
 30
0.0
 11
2269.718092630824
 21
239.7906728649791
 31
0.0
  0
LINE
  5
183C
330
1F
100
AcDbEntity
  8
0
 62
     3
100
AcDbLine
 10
2270.718092630824
 20
275.5221864763148
 30
0.0
 11
2291.218092630824
 21
275.5221864763148
 31
0.0
  0
LINE
  5
183D
330
1F
100
AcDbEntity
  8
0
 62
     3
100
AcDbLine
 10
2269.718092630824
 20
260.0221864763148
 30
0.0
 11
2292.218092630824
 21
260.0221864763148
 31
0.0
  0
LINE
  5
183E
330
1F
100
AcDbEntity
  8
0
 62
     3
100
AcDbLine
 10
2268.218092630824
 20
179.0221864763148
 30
0.0
 11
2292.218092630824
 21
179.0221864763148
 31
0.0
  0
LINE
  5
183F
330
1F
100
AcDbEntity
  8
0
 62
     3
100
AcDbLine
 10
2269.718092630824
 20
164.0221864763148
 30
0.0
 11
2292.218092630824
 21
164.0221864763148
 31
0.0
  0
LINE
  5
1842
330
1F
100
AcDbEntity
  8
0
 62
     3
100
AcDbLine
 10
2208.281275987739
 20
237.3822661579057
 30
0.0
 11
2208.281275987739
 21
167.0221864763148
 31
0.0
  0
LINE
  5
1843
330
1F
100
AcDbEntity
  8
0
 62
     3
100
AcDbLine
 10
2195.881275987739
 20
237.3822661579057
 30
0.0
 11
2195.881275987739
 21
167.0221864763148
 31
0.0
  0
LINE
  5
1844
330
1F
100
AcDbEntity
  8
0
 62
     3
100
AcDbLine
 10
2211.081275987739
 20
239.7906728649792
 30
0.0
 11
2211.081275987739
 21
179.0221864763148
 31
0.0
  0
LINE
  5
1845
330
1F
100
AcDbEntity
  8
0
 62
     3
100
AcDbLine
 10
2193.081275987739
 20
239.7906728649792
 30
0.0
 11
2193.081275987739
 21
179.0221864763148
 31
0.0
  0
LINE
  5
1848
330
1F
100
AcDbEntity
  8
0
 62
     3
100
AcDbLine
 10
2211.081275987739
 20
164.0221864763148
 30
0.0
 11
2208.281275987739
 21
167.0221864763148
 31
0.0
  0
LINE
  5
184B
330
1F
100
AcDbEntity
  8
0
 62
     3
100
AcDbLine
 10
2208.281275987739
 20
167.0221864763148
 30
0.0
 11
2195.881275987739
 21
167.0221864763148
 31
0.0
  0
LINE
  5
184C
330
1F
100
AcDbEntity
  8
0
 62
     3
100
AcDbLine
 10
2195.881275987739
 20
167.0221864763148
 30
0.0
 11
2193.081275987739
 21
164.0221864763148
 31
0.0
  0
LINE
  5
184D
330
1F
100
AcDbEntity
  8
0
 62
     3
100
AcDbLine
 10
2269.718092630824
 20
164.0221864763148
 30
0.0
 11
2268.218092630824
 21
167.0221864763148
 31
0.0
  0
CIRCLE
  5
1850
330
1F
100
AcDbEntity
  8
0
 62
     3
100
AcDbCircle
 10
2202.081275987739
 20
247.4221864763148
 30
0.0
 40
11.80000000000001
  0
LINE
  5
1852
330
1F
100
AcDbEntity
  8
0
 62
     3
100
AcDbLine
 10
2211.081275987739
 20
260.0221864763148
 30
0.0
 11
2208.53899413444
 21
257.2983130620656
 31
0.0
  0
LINE
  5
1853
330
1F
100
AcDbEntity
  8
0
 62
     3
100
AcDbLine
 10
2193.081275987739
 20
260.0221864763148
 30
0.0
 11
2195.623557841038
 21
257.2983130620656
 31
0.0
  0
LINE
  5
1854
330
1F
100
AcDbEntity
  8
0
 62
     3
100
AcDbLine
 10
2193.081275987739
 20
255.0537000876504
 30
0.0
 11
2193.081275987739
 21
260.0221864763148
 31
0.0
  0
LINE
  5
1855
330
1F
100
AcDbEntity
  8
0
 62
     3
100
AcDbLine
 10
2211.081275987739
 20
255.0537000876504
 30
0.0
 11
2211.081275987739
 21
260.0221864763148
 31
0.0
  0
LINE
  5
1857
330
1F
100
AcDbEntity
  8
0
 62
     3
100
AcDbLine
 10
2215.581275987739
 20
295.8031276401793
 30
0.0
 11
2215.581275987739
 21
309.3031276401794
 31
0.0
  0
LINE
  5
185A
330
1F
100
AcDbEntity
  8
0
 62
     3
100
AcDbLine
 10
2188.581275987739
 20
295.8031276401793
 30
0.0
 11
2188.581275987739
 21
309.3031276401794
 31
0.0
  0
LINE
  5
185E
330
1F
100
AcDbEntity
  8
0
 62
     3
100
AcDbLine
 10
2215.581275987739
 20
295.8031276401793
 30
0.0
 11
2211.081275987739
 21
292.3031276401793
 31
0.0
  0
LINE
  5
185F
330
1F
100
AcDbEntity
  8
0
 62
     3
100
AcDbLine
 10
2188.581275987739
 20
295.8031276401793
 30
0.0
 11
2193.081275987739
 21
292.3031276401793
 31
0.0
  0
LINE
  5
1862
330
1F
100
AcDbEntity
  8
0
 62
     3
100
AcDbLine
 10
2215.581275987739
 20
309.3031276401794
 30
0.0
 11
2210.081275987739
 21
314.8031276401793
 31
0.0
  0
LINE
  5
1863
330
1F
100
AcDbEntity
  8
0
 62
     3
100
AcDbLine
 10
2210.081275987739
 20
314.8031276401793
 30
0.0
 11
2194.081275987739
 21
314.8031276401793
 31
0.0
  0
LINE
  5
1864
330
1F
100
AcDbEntity
  8
0
 62
     3
100
AcDbLine
 10
2194.081275987739
 20
314.8031276401793
 30
0.0
 11
2188.581275987739
 21
309.3031276401794
 31
0.0
  0
LINE
  5
1865
330
1F
100
AcDbEntity
  8
0
 62
     3
100
AcDbLine
 10
2193.081275987739
 20
292.3031276401793
 30
0.0
 11
2211.081275987739
 21
292.3031276401793
 31
0.0
  0
LINE
  5
1866
330
1F
100
AcDbEntity
  8
0
 62
     3
100
AcDbLine
 10
2209.581275987739
 20
319.8031276401794
 30
0.0
 11
2209.581275987739
 21
314.8031276401793
 31
0.0
  0
LINE
  5
1867
330
1F
100
AcDbEntity
  8
0
 62
     3
100
AcDbLine
 10
2194.581275987739
 20
319.8031276401794
 30
0.0
 11
2194.581275987739
 21
314.8031276401793
 31
0.0
  0
LINE
  5
1868
330
1F
100
AcDbEntity
  8
0
 62
     3
100
AcDbLine
 10
2208.581275987739
 20
320.8031276401793
 30
0.0
 11
2195.581275987739
 21
320.8031276401793
 31
0.0
  0
LINE
  5
1869
330
1F
100
AcDbEntity
  8
0
 62
     3
100
AcDbLine
 10
2208.581275987739
 20
316.8031276401793
 30
0.0
 11
2195.581275987739
 21
316.8031276401793
 31
0.0
  0
ARC
  5
186A
330
1F
100
AcDbEntity
  8
0
 62
     3
100
AcDbCircle
 10
2208.581275987739
 20
315.8031276401797
 30
0.0
 40
1.0
100
AcDbArc
 50
359.9999999999805
 51
90.0
  0
ARC
  5
186B
330
1F
100
AcDbEntity
  8
0
 62
     3
100
AcDbCircle
 10
2195.581275987739
 20
315.8031276401796
 30
0.0
 40
1.0
100
AcDbArc
 50
90.0
 51
180.000000000013
  0
ARC
  5
186C
330
1F
100
AcDbEntity
  8
0
 62
     3
100
AcDbCircle
 10
2195.581275987739
 20
319.8031276401796
 30
0.0
 40
1.0
100
AcDbArc
 50
90.0
 51
180.000000000013
  0
ARC
  5
186D
330
1F
100
AcDbEntity
  8
0
 62
     3
100
AcDbCircle
 10
2208.581275987739
 20
319.8031276401796
 30
0.0
 40
1.0
100
AcDbArc
 50
359.999999999987
 51
90.0
  0
LINE
  5
1876
330
1F
100
AcDbEntity
  8
0
 62
     3
100
AcDbLine
 10
2215.581275987739
 20
274.5221864763148
 30
0.0
 11
2188.581275987739
 21
274.5221864763148
 31
0.0
  0
LINE
  5
1877
330
1F
100
AcDbEntity
  8
0
 62
     3
100
AcDbLine
 10
2269.718092630824
 20
274.5221864763148
 30
0.0
 11
2292.218092630824
 21
274.5221864763148
 31
0.0
  0
LINE
  5
1878
330
1F
100
AcDbEntity
  8
0
 62
     3
100
AcDbLine
 10
2214.581275987739
 20
308.8889140778061
 30
0.0
 11
2209.667062425366
 21
313.8031276401794
 31
0.0
  0
LINE
  5
1879
330
1F
100
AcDbEntity
  8
0
 62
     3
100
AcDbLine
 10
2209.667062425366
 20
313.8031276401794
 30
0.0
 11
2194.495489550112
 21
313.8031276401794
 31
0.0
  0
LINE
  5
187A
330
1F
100
AcDbEntity
  8
0
 62
     3
100
AcDbLine
 10
2194.495489550112
 20
313.8031276401794
 30
0.0
 11
2189.581275987739
 21
308.8889140778061
 31
0.0
  0
LINE
  5
187B
330
1F
100
AcDbEntity
  8
0
 62
     3
100
AcDbLine
 10
2189.581275987739
 20
296.292211445845
 30
0.0
 11
2189.581275987739
 21
308.8889140778061
 31
0.0
  0
LINE
  5
187C
330
1F
100
AcDbEntity
  8
0
 62
     3
100
AcDbLine
 10
2189.581275987739
 20
296.292211445845
 30
0.0
 11
2193.42438373788
 21
293.3031276401795
 31
0.0
  0
LINE
  5
187D
330
1F
100
AcDbEntity
  8
0
 62
     3
100
AcDbLine
 10
2193.42438373788
 20
293.3031276401793
 30
0.0
 11
2210.738168237598
 21
293.3031276401793
 31
0.0
  0
LINE
  5
187E
330
1F
100
AcDbEntity
  8
0
 62
     3
100
AcDbLine
 10
2214.581275987739
 20
296.292211445845
 30
0.0
 11
2210.738168237598
 21
293.3031276401795
 31
0.0
  0
LINE
  5
187F
330
1F
100
AcDbEntity
  8
0
 62
     3
100
AcDbLine
 10
2214.581275987739
 20
296.292211445845
 30
0.0
 11
2214.581275987739
 21
308.8889140778061
 31
0.0
  0
LINE
  5
1880
330
1F
100
AcDbEntity
  8
0
 62
     3
100
AcDbLine
 10
2210.081275987739
 20
314.8031276401793
 30
0.0
 11
2209.667062425366
 21
313.8031276401794
 31
0.0
  0
LINE
  5
1881
330
1F
100
AcDbEntity
  8
0
 62
     3
100
AcDbLine
 10
2215.581275987739
 20
309.3031276401794
 30
0.0
 11
2214.581275987739
 21
308.8889140778061
 31
0.0
  0
LINE
  5
1882
330
1F
100
AcDbEntity
  8
0
 62
     3
100
AcDbLine
 10
2215.581275987739
 20
295.8031276401793
 30
0.0
 11
2214.581275987739
 21
296.292211445845
 31
0.0
  0
LINE
  5
1883
330
1F
100
AcDbEntity
  8
0
 62
     3
100
AcDbLine
 10
2211.081275987739
 20
292.3031276401793
 30
0.0
 11
2210.738168237598
 21
293.3031276401793
 31
0.0
  0
LINE
  5
1884
330
1F
100
AcDbEntity
  8
0
 62
     3
100
AcDbLine
 10
2193.081275987739
 20
292.3031276401793
 30
0.0
 11
2193.42438373788
 21
293.3031276401795
 31
0.0
  0
LINE
  5
1885
330
1F
100
AcDbEntity
  8
0
 62
     3
100
AcDbLine
 10
2189.581275987739
 20
296.292211445845
 30
0.0
 11
2188.581275987739
 21
295.8031276401793
 31
0.0
  0
LINE
  5
1886
330
1F
100
AcDbEntity
  8
0
 62
     3
100
AcDbLine
 10
2189.581275987739
 20
308.8889140778061
 30
0.0
 11
2188.581275987739
 21
309.3031276401794
 31
0.0
  0
LINE
  5
1887
330
1F
100
AcDbEntity
  8
0
 62
     3
100
AcDbLine
 10
2194.495489550112
 20
313.8031276401794
 30
0.0
 11
2194.081275987739
 21
314.8031276401793
 31
0.0
  0
LINE
  5
188C
330
1F
100
AcDbEntity
  8
0
 62
     3
100
AcDbLine
 10
2215.581275987739
 20
274.5221864763148
 30
0.0
 11
2214.581275987739
 21
275.5221864763148
 31
0.0
  0
LINE
  5
188D
330
1F
100
AcDbEntity
  8
0
 62
     3
100
AcDbLine
 10
2211.081275987739
 20
274.5221864763148
 30
0.0
 11
2210.738168237598
 21
275.5221864763148
 31
0.0
  0
LINE
  5
188E
330
1F
100
AcDbEntity
  8
0
 62
     3
100
AcDbLine
 10
2193.42438373788
 20
275.5221864763148
 30
0.0
 11
2193.081275987739
 21
274.5221864763148
 31
0.0
  0
LINE
  5
188F
330
1F
100
AcDbEntity
  8
0
 62
     3
100
AcDbLine
 10
2189.581275987739
 20
275.5221864763148
 30
0.0
 11
2188.581275987739
 21
274.5221864763148
 31
0.0
  0
LINE
  5
18B4
330
1F
100
AcDbEntity
  8
0
 62
     3
100
AcDbLine
 10
2292.218092630824
 20
274.5221864763148
 30
0.0
 11
2291.218092630824
 21
275.5221864763148
 31
0.0
  0
LINE
  5
18B5
330
1F
100
AcDbEntity
  8
0
 62
     3
100
AcDbLine
 10
2270.718092630824
 20
275.5221864763148
 30
0.0
 11
2269.718092630824
 21
274.5221864763148
 31
0.0
  0
LINE
  5
18B6
330
1F
100
AcDbEntity
  8
0
 62
     3
100
AcDbLine
 10
2273.70717643649
 20
275.5221864763148
 30
0.0
 11
2273.218092630824
 21
274.5221864763148
 31
0.0
  0
LINE
  5
18B7
330
1F
100
AcDbEntity
  8
0
 62
     3
100
AcDbLine
 10
2286.303879068451
 20
275.5221864763148
 30
0.0
 11
2286.718092630824
 21
274.5221864763148
 31
0.0
  0
LINE
  5
18B8
330
1F
100
AcDbEntity
  8
0
 62
     3
100
AcDbLine
 10
2190.281275987739
 20
289.8031276401793
 30
0.0
 11
2213.881275987739
 21
289.8031276401793
 31
0.0
  0
LINE
  5
18B9
330
1F
100
AcDbEntity
  8
0
 62
     3
100
AcDbLine
 10
2267.218092630824
 20
235.6221864763148
 30
0.0
 11
2267.218092630824
 21
259.2221864763148
 31
0.0
  0
LINE
  5
18BE
330
1F
100
AcDbEntity
  8
0
 62
     3
100
AcDbLine
 10
2213.881275987739
 20
289.8031276401793
 30
0.0
 11
2213.881275987739
 21
294.4809054179573
 31
0.0
  0
LINE
  5
18BF
330
1F
100
AcDbEntity
  8
0
 62
     3
100
AcDbLine
 10
2190.281275987739
 20
289.8031276401793
 30
0.0
 11
2190.281275987739
 21
294.4809054179573
 31
0.0
  0
LINE
  5
18C2
330
1F
100
AcDbEntity
  8
0
 62
     3
100
AcDbLine
 10
2267.218092630824
 20
259.2221864763148
 30
0.0
 11
2269.277543523908
 21
259.2221864763148
 31
0.0
  0
LINE
  5
18C3
330
1F
100
AcDbEntity
  8
0
 62
     3
100
AcDbLine
 10
2267.218092630824
 20
235.6221864763148
 30
0.0
 11
2268.218092630824
 21
235.6221864763148
 31
0.0
  0
ARC
  5
18C6
330
1F
100
AcDbEntity
  8
0
 62
     3
100
AcDbCircle
 10
2257.435552948285
 20
247.4221864763148
 30
0.0
 40
14.46031746031668
100
AcDbArc
 50
328.1460647457733
 51
31.85393525422668
  0
LINE
  5
18C9
330
1F
100
AcDbEntity
  8
0
 62
     3
100
AcDbLine
 10
2269.718092630824
 20
255.0537000876505
 30
0.0
 11
2268.218092630824
 21
257.2983130620655
 31
0.0
  0
LINE
  5
18CA
330
1F
100
AcDbEntity
  8
0
 62
     3
100
AcDbLine
 10
2269.718092630824
 20
239.7906728649791
 30
0.0
 11
2268.218092630824
 21
237.3822661579056
 31
0.0
  0
LINE
  5
18D2
330
1F
100
AcDbEntity
  8
0
 62
     3
100
AcDbLine
 10
2269.718092630824
 20
260.0221864763148
 30
0.0
 11
2268.218092630824
 21
257.2983130620655
 31
0.0
  0
LINE
  5
18D3
330
1F
100
AcDbEntity
  8
0
 62
     3
100
AcDbLine
 10
2269.718092630824
 20
255.0537000876505
 30
0.0
 11
2269.718092630824
 21
274.5221864763148
 31
0.0
  0
ARC
  5
18DB
330
1F
100
AcDbEntity
  8
0
 62
     3
100
AcDbCircle
 10
2202.081275987739
 20
271.6518447764481
 30
0.0
 40
20.21073375681532
100
AcDbArc
 50
71.36614737137668
 51
108.633852628622
  0
LINE
  5
18DC
330
1F
100
AcDbEntity
  8
0
 62
     3
100
AcDbLine
 10
2211.081275987739
 20
292.3031276401793
 30
0.0
 11
2208.53899413444
 21
290.8031276401794
 31
0.0
  0
LINE
  5
18DD
330
1F
100
AcDbEntity
  8
0
 62
     3
100
AcDbLine
 10
2193.081275987739
 20
292.3031276401793
 30
0.0
 11
2195.623557841039
 21
290.8031276401795
 31
0.0
  0
CIRCLE
  5
18DE
330
1F
100
AcDbEntity
  8
0
 62
     3
100
AcDbCircle
 10
2202.081275987739
 20
247.4221864763148
 30
0.0
 40
10.0
  0
CIRCLE
  5
18DF
330
1F
100
AcDbEntity
  8
0
 62
     3
100
AcDbCircle
 10
2202.081275987739
 20
247.4221864763148
 30
0.0
 40
8.0
  0
CIRCLE
  5
18E0
330
1F
100
AcDbEntity
  8
0
  6
HIDDEN
 62
     7
100
AcDbCircle
 10
2202.081275987739
 20
247.4221864763148
 30
0.0
 40
5.5
  0
CIRCLE
  5
18E4
330
1F
100
AcDbEntity
  8
0
 62
     3
100
AcDbCircle
 10
2202.081275987739
 20
303.5531276401794
 30
0.0
 40
5.699999999999986
  0
CIRCLE
  5
18E8
330
1F
100
AcDbEntity
  8
0
 62
     3
100
AcDbCircle
 10
2211.091948474919
 20
297.2437868403182
 30
0.0
 40
2.0
  0
CIRCLE
  5
18E9
330
1F
100
AcDbEntity
  8
0
 62
     3
100
AcDbCircle
 10
2192.111890330336
 20
308.2019285193273
 30
0.0
 40
2.0
  0
LINE
  5
18EB
330
1F
100
AcDbEntity
  8
0
 62
     3
100
AcDbLine
 10
2298.218092630824
 20
206.0221864763148
 30
0.0
 11
2298.218092630824
 21
269.0221864763148
 31
0.0
  0
LINE
  5
18EC
330
1F
100
AcDbEntity
  8
0
 62
     3
100
AcDbLine
 10
2294.218092630824
 20
274.0221864763148
 30
0.0
 11
2292.218092630824
 21
274.0221864763148
 31
0.0
  0
LINE
  5
18EE
330
1F
100
AcDbEntity
  8
0
 62
     3
100
AcDbLine
 10
2294.218092630824
 20
274.0221864763148
 30
0.0
 11
2298.218092630824
 21
269.0221864763148
 31
0.0
  0
LINE
  5
18EF
330
1F
100
AcDbEntity
  8
0
 62
     3
100
AcDbLine
 10
2298.218092630824
 20
245.0221864763148
 30
0.0
 11
2292.218092630824
 21
245.0221864763148
 31
0.0
  0
LINE
  5
18F0
330
1F
100
AcDbEntity
  8
0
 62
     3
100
AcDbLine
 10
2297.218092630824
 20
205.0221864763148
 30
0.0
 11
2295.718092630824
 21
205.0221864763148
 31
0.0
  0
LINE
  5
18F2
330
1F
100
AcDbEntity
  8
0
 62
     3
100
AcDbLine
 10
2295.718092630824
 20
205.0221864763148
 30
0.0
 11
2295.718092630824
 21
243.0221864763148
 31
0.0
  0
LINE
  5
18F3
330
1F
100
AcDbEntity
  8
0
 62
     3
100
AcDbLine
 10
2297.218092630824
 20
205.0221864763148
 30
0.0
 11
2297.218092630824
 21
245.0221864763148
 31
0.0
  0
LINE
  5
18F4
330
1F
100
AcDbEntity
  8
0
 62
     3
100
AcDbLine
 10
2297.218092630824
 20
205.0221864763148
 30
0.0
 11
2298.218092630824
 21
206.0221864763148
 31
0.0
  0
LINE
  5
18F7
330
1F
100
AcDbEntity
  8
0
 62
     3
100
AcDbLine
 10
2295.718092630824
 20
216.0221864763148
 30
0.0
 11
2293.218092630824
 21
216.0221864763148
 31
0.0
  0
LINE
  5
18F8
330
1F
100
AcDbEntity
  8
0
 62
     3
100
AcDbLine
 10
2293.218092630824
 20
210.0221864763148
 30
0.0
 11
2293.218092630824
 21
216.0221864763148
 31
0.0
  0
LINE
  5
18F9
330
1F
100
AcDbEntity
  8
0
 62
     3
100
AcDbLine
 10
2295.718092630824
 20
208.0221864763148
 30
0.0
 11
2293.218092630824
 21
210.0221864763148
 31
0.0
  0
ARC
  5
18FA
330
1F
100
AcDbEntity
  8
0
 62
     3
100
AcDbCircle
 10
2293.718092630824
 20
243.0221864763147
 30
0.0
 40
2.0
100
AcDbArc
 50
0.0000000000024427
 51
89.99999999998697
  0
LINE
  5
18FE
330
1F
100
AcDbEntity
  8
0
 62
     3
100
AcDbLine
 10
2293.218092630824
 20
245.0221864763148
 30
0.0
 11
2295.718092630824
 21
239.0221864763148
 31
0.0
  0
LINE
  5
18FF
330
1F
100
AcDbEntity
  8
0
 62
     3
100
AcDbLine
 10
2278.218092630824
 20
261.0221864763148
 30
0.0
 11
2286.218092630824
 21
261.0221864763148
 31
0.0
  0
LINE
  5
1900
330
1F
100
AcDbEntity
  8
0
 62
     3
100
AcDbLine
 10
2286.218092630824
 20
261.0221864763148
 30
0.0
 11
2286.218092630824
 21
272.0221864763148
 31
0.0
  0
LINE
  5
1901
330
1F
100
AcDbEntity
  8
0
 62
     3
100
AcDbLine
 10
2278.218092630824
 20
272.0221864763148
 30
0.0
 11
2286.218092630824
 21
272.0221864763148
 31
0.0
  0
LINE
  5
1902
330
1F
100
AcDbEntity
  8
0
 62
     7
100
AcDbLine
 10
2282.218092630824
 20
266.5221864763148
 30
0.0
 11
2282.218092630824
 21
269.2721864763148
 31
0.0
  0
LINE
  5
1903
330
1F
100
AcDbEntity
  8
0
 62
     3
100
AcDbLine
 10
2278.218092630824
 20
261.0221864763148
 30
0.0
 11
2278.218092630824
 21
272.0221864763148
 31
0.0
  0
ARC
  5
1904
330
1F
100
AcDbEntity
  8
0
 62
     7
100
AcDbCircle
 10
2282.218092630824
 20
266.5221864763148
 30
0.0
 40
2.5
100
AcDbArc
 50
119.9999999999998
 51
60.00000000000021
  0
LINE
  5
1907
330
1F
100
AcDbEntity
  8
0
 62
     3
100
AcDbLine
 10
2188.581275987739
 20
264.0221864763148
 30
0.0
 11
2188.081275987739
 21
264.0221864763148
 31
0.0
  0
LINE
  5
1908
330
1F
100
AcDbEntity
  8
0
 62
     3
100
AcDbLine
 10
2188.081275987739
 20
264.0221864763148
 30
0.0
 11
2188.081275987739
 21
260.0221864763148
 31
0.0
  0
LINE
  5
190A
330
1F
100
AcDbEntity
  8
0
 62
     3
100
AcDbLine
 10
2188.581275987738
 20
305.5905627618257
 30
0.0
 11
2188.081275987739
 21
305.5905627618257
 31
0.0
  0
LINE
  5
190B
330
1F
100
AcDbEntity
  8
0
 62
     3
100
AcDbLine
 10
2188.581275987739
 20
299.5905627618256
 30
0.0
 11
2188.081275987739
 21
299.5905627618256
 31
0.0
  0
LINE
  5
190C
330
1F
100
AcDbEntity
  8
0
 62
     3
100
AcDbLine
 10
2188.081275987739
 20
299.5905627618256
 30
0.0
 11
2188.081275987739
 21
305.5905627618257
 31
0.0
  0
LINE
  5
190D
330
1F
100
AcDbEntity
  8
0
 62
     3
100
AcDbLine
 10
2133.444459344654
 20
275.5221864763148
 30
0.0
 11
2112.944459344654
 21
275.5221864763148
 31
0.0
  0
LINE
  5
190E
330
1F
100
AcDbEntity
  8
0
 62
     3
100
AcDbLine
 10
2109.944459344654
 20
274.0221864763148
 30
0.0
 11
2111.944459344654
 21
274.0221864763148
 31
0.0
  0
LINE
  5
190F
330
1F
100
AcDbEntity
  8
0
 62
     3
100
AcDbLine
 10
2106.944459344655
 20
205.0221864763148
 30
0.0
 11
2108.444459344654
 21
205.0221864763148
 31
0.0
  0
LINE
  5
1910
330
1F
100
AcDbEntity
  8
0
 62
     3
100
AcDbLine
 10
2108.444459344654
 20
216.0221864763148
 30
0.0
 11
2110.944459344654
 21
216.0221864763148
 31
0.0
  0
LINE
  5
1911
330
1F
100
AcDbEntity
  8
0
 62
     3
100
AcDbLine
 10
2105.944459344654
 20
245.0221864763148
 30
0.0
 11
2111.944459344654
 21
245.0221864763148
 31
0.0
  0
LINE
  5
1912
330
1F
100
AcDbEntity
  8
0
 62
     3
100
AcDbLine
 10
2134.444459344654
 20
274.5221864763148
 30
0.0
 11
2111.944459344654
 21
274.5221864763148
 31
0.0
  0
LINE
  5
1913
330
1F
100
AcDbEntity
  8
0
 62
     3
100
AcDbLine
 10
2134.444459344654
 20
260.0221864763148
 30
0.0
 11
2111.944459344655
 21
260.0221864763148
 31
0.0
  0
LINE
  5
1916
330
1F
100
AcDbEntity
  8
0
 62
     3
100
AcDbLine
 10
2134.444459344654
 20
164.0221864763148
 30
0.0
 11
2111.944459344654
 21
164.0221864763148
 31
0.0
  0
LINE
  5
1917
330
1F
100
AcDbEntity
  8
0
 62
     3
100
AcDbLine
 10
2135.944459344655
 20
179.0221864763148
 30
0.0
 11
2111.944459344654
 21
179.0221864763148
 31
0.0
  0
LINE
  5
1918
330
1F
100
AcDbEntity
  8
0
 62
     3
100
AcDbLine
 10
2135.944459344655
 20
167.0221864763148
 30
0.0
 11
2135.944459344655
 21
237.3822661579056
 31
0.0
  0
LINE
  5
1919
330
1F
100
AcDbEntity
  8
0
 62
     3
100
AcDbLine
 10
2111.944459344654
 20
164.0221864763148
 30
0.0
 11
2111.944459344654
 21
274.5221864763148
 31
0.0
  0
LINE
  5
191A
330
1F
100
AcDbEntity
  8
0
 62
     3
100
AcDbLine
 10
2110.944459344654
 20
210.0221864763148
 30
0.0
 11
2110.944459344654
 21
216.0221864763148
 31
0.0
  0
LINE
  5
191B
330
1F
100
AcDbEntity
  8
0
 62
     3
100
AcDbLine
 10
2134.444459344654
 20
164.0221864763148
 30
0.0
 11
2134.444459344654
 21
239.7906728649791
 31
0.0
  0
LINE
  5
191C
330
1F
100
AcDbEntity
  8
0
 62
     3
100
AcDbLine
 10
2134.444459344654
 20
255.0537000876505
 30
0.0
 11
2134.444459344654
 21
274.5221864763148
 31
0.0
  0
LINE
  5
191D
330
1F
100
AcDbEntity
  8
0
 62
     3
100
AcDbLine
 10
2136.944459344654
 20
235.6221864763148
 30
0.0
 11
2136.944459344654
 21
259.2221864763148
 31
0.0
  0
LINE
  5
191E
330
1F
100
AcDbEntity
  8
0
 62
     3
100
AcDbLine
 10
2117.444459344654
 20
164.0221864763148
 30
0.0
 11
2117.444459344654
 21
274.5221864763148
 31
0.0
  0
LINE
  5
1922
330
1F
100
AcDbEntity
  8
0
 62
     3
100
AcDbLine
 10
2130.944459344654
 20
164.0221864763148
 30
0.0
 11
2130.944459344654
 21
274.5221864763148
 31
0.0
  0
LINE
  5
1923
330
1F
100
AcDbEntity
  8
0
 62
     3
100
AcDbLine
 10
2134.444459344654
 20
164.0221864763148
 30
0.0
 11
2135.944459344655
 21
167.0221864763148
 31
0.0
  0
LINE
  5
1924
330
1F
100
AcDbEntity
  8
0
 62
     3
100
AcDbLine
 10
2111.944459344654
 20
274.5221864763148
 30
0.0
 11
2112.944459344654
 21
275.5221864763148
 31
0.0
  0
LINE
  5
1925
330
1F
100
AcDbEntity
  8
0
 62
     3
100
AcDbLine
 10
2133.444459344654
 20
275.5221864763148
 30
0.0
 11
2134.444459344654
 21
274.5221864763148
 31
0.0
  0
LINE
  5
1926
330
1F
100
AcDbEntity
  8
0
 62
     3
100
AcDbLine
 10
2130.455375538989
 20
275.5221864763148
 30
0.0
 11
2130.944459344654
 21
274.5221864763148
 31
0.0
  0
LINE
  5
1927
330
1F
100
AcDbEntity
  8
0
 62
     3
100
AcDbLine
 10
2117.858672907027
 20
275.5221864763148
 30
0.0
 11
2117.444459344654
 21
274.5221864763148
 31
0.0
  0
LINE
  5
1928
330
1F
100
AcDbEntity
  8
0
 62
     3
100
AcDbLine
 10
2136.944459344654
 20
259.2221864763148
 30
0.0
 11
2134.88500845157
 21
259.2221864763148
 31
0.0
  0
LINE
  5
1929
330
1F
100
AcDbEntity
  8
0
 62
     3
100
AcDbLine
 10
2136.944459344654
 20
235.6221864763148
 30
0.0
 11
2135.944459344655
 21
235.6221864763148
 31
0.0
  0
ARC
  5
192A
330
1F
100
AcDbEntity
  8
0
 62
     3
100
AcDbCircle
 10
2146.726999027193
 20
247.4221864763148
 30
0.0
 40
14.46031746031668
100
AcDbArc
 50
148.1460647457762
 51
211.8539352542238
  0
LINE
  5
192B
330
1F
100
AcDbEntity
  8
0
 62
     3
100
AcDbLine
 10
2134.444459344654
 20
255.0537000876505
 30
0.0
 11
2135.944459344655
 21
257.2983130620655
 31
0.0
  0
LINE
  5
192C
330
1F
100
AcDbEntity
  8
0
 62
     3
100
AcDbLine
 10
2134.444459344654
 20
239.7906728649791
 30
0.0
 11
2135.944459344655
 21
237.3822661579056
 31
0.0
  0
LINE
  5
192D
330
1F
100
AcDbEntity
  8
0
 62
     3
100
AcDbLine
 10
2134.444459344654
 20
260.0221864763148
 30
0.0
 11
2135.944459344655
 21
257.2983130620655
 31
0.0
  0
LINE
  5
192E
330
1F
100
AcDbEntity
  8
0
 62
     3
100
AcDbLine
 10
2105.944459344654
 20
206.0221864763148
 30
0.0
 11
2105.944459344654
 21
269.0221864763148
 31
0.0
  0
LINE
  5
192F
330
1F
100
AcDbEntity
  8
0
 62
     3
100
AcDbLine
 10
2106.944459344655
 20
205.0221864763148
 30
0.0
 11
2106.944459344655
 21
245.0221864763148
 31
0.0
  0
LINE
  5
1930
330
1F
100
AcDbEntity
  8
0
 62
     3
100
AcDbLine
 10
2108.444459344654
 20
205.0221864763148
 30
0.0
 11
2108.444459344654
 21
243.0221864763148
 31
0.0
  0
LINE
  5
1931
330
1F
100
AcDbEntity
  8
0
 62
     3
100
AcDbLine
 10
2109.944459344654
 20
274.0221864763148
 30
0.0
 11
2105.944459344654
 21
269.0221864763148
 31
0.0
  0
LINE
  5
1932
330
1F
100
AcDbEntity
  8
0
 62
     3
100
AcDbLine
 10
2106.944459344655
 20
205.0221864763148
 30
0.0
 11
2105.944459344654
 21
206.0221864763148
 31
0.0
  0
LINE
  5
1933
330
1F
100
AcDbEntity
  8
0
 62
     3
100
AcDbLine
 10
2108.444459344654
 20
208.0221864763148
 30
0.0
 11
2110.944459344654
 21
210.0221864763148
 31
0.0
  0
ARC
  5
1934
330
1F
100
AcDbEntity
  8
0
 62
     3
100
AcDbCircle
 10
2110.444459344655
 20
243.0221864763147
 30
0.0
 40
2.0
100
AcDbArc
 50
90.0
 51
179.9999999999974
  0
LINE
  5
1935
330
1F
100
AcDbEntity
  8
0
 62
     3
100
AcDbLine
 10
2110.944459344654
 20
245.0221864763148
 30
0.0
 11
2108.444459344654
 21
239.0221864763148
 31
0.0
  0
LINE
  5
1939
330
1F
100
AcDbEntity
  8
0
 62
     3
100
AcDbLine
 10
2121.694459344654
 20
264.0221864763148
 30
0.0
 11
2126.694459344654
 21
264.0221864763148
 31
0.0
  0
LINE
  5
193A
330
1F
100
AcDbEntity
  8
0
 62
     3
100
AcDbLine
 10
2127.194459344654
 20
263.5221864763148
 30
0.0
 11
2127.194459344654
 21
260.5221864763148
 31
0.0
  0
LINE
  5
193B
330
1F
100
AcDbEntity
  8
0
 62
     3
100
AcDbLine
 10
2121.194459344654
 20
263.5221864763148
 30
0.0
 11
2121.194459344654
 21
260.5221864763148
 31
0.0
  0
LINE
  5
193C
330
1F
100
AcDbEntity
  8
0
 62
     3
100
AcDbLine
 10
2121.194459344654
 20
262.0221864763148
 30
0.0
 11
2119.494459344654
 21
262.0221864763148
 31
0.0
  0
LINE
  5
193D
330
1F
100
AcDbEntity
  8
0
 62
     3
100
AcDbLine
 10
2121.194459344654
 20
267.5221864763148
 30
0.0
 11
2119.494459344654
 21
267.5221864763148
 31
0.0
  0
LINE
  5
193E
330
1F
100
AcDbEntity
  8
0
 62
     3
100
AcDbLine
 10
2126.694459344654
 20
271.5221864763148
 30
0.0
 11
2121.694459344654
 21
271.5221864763148
 31
0.0
  0
LINE
  5
193F
330
1F
100
AcDbEntity
  8
0
 62
     3
100
AcDbLine
 10
2129.394459344654
 20
267.0221864763148
 30
0.0
 11
2129.394459344654
 21
262.5221864763148
 31
0.0
  0
LINE
  5
1940
330
1F
100
AcDbEntity
  8
0
 62
     3
100
AcDbLine
 10
2118.994459344655
 20
262.5221864763148
 30
0.0
 11
2118.994459344655
 21
267.0221864763148
 31
0.0
  0
LINE
  5
1941
330
1F
100
AcDbEntity
  8
0
 62
     3
100
AcDbLine
 10
2127.194459344654
 20
267.5221864763148
 30
0.0
 11
2127.194459344654
 21
271.0221864763148
 31
0.0
  0
LINE
  5
1942
330
1F
100
AcDbEntity
  8
0
 62
     3
100
AcDbLine
 10
2121.194459344654
 20
267.5221864763148
 30
0.0
 11
2121.194459344654
 21
271.0221864763148
 31
0.0
  0
LINE
  5
1943
330
1F
100
AcDbEntity
  8
0
 62
     3
100
AcDbLine
 10
2127.194459344654
 20
267.5221864763148
 30
0.0
 11
2128.894459344654
 21
267.5221864763148
 31
0.0
  0
LINE
  5
1944
330
1F
100
AcDbEntity
  8
0
 62
     3
100
AcDbLine
 10
2127.194459344654
 20
262.0221864763148
 30
0.0
 11
2128.894459344654
 21
262.0221864763148
 31
0.0
  0
CIRCLE
  5
1945
330
1F
100
AcDbEntity
  8
0
 62
     3
100
AcDbCircle
 10
2129.016615484704
 20
269.2614967677394
 30
0.0
 40
1.0
  0
TEXT
  5
1947
330
1F
100
AcDbEntity
  8
0
 62
     7
100
AcDbText
 10
2122.659806751117
 20
268.2228422017174
 30
0.0
 40
2.0
  1
5V
 41
0.8
  7
高2
100
AcDbText
  0
TEXT
  5
1948
330
1F
100
AcDbEntity
  8
0
 62
     7
100
AcDbText
 10
2120.886452915138
 20
264.836850345496
 30
0.0
 40
2.0
  1
INPUT
 41
0.8
  7
高2
100
AcDbText
  0
ARC
  5
1949
330
1F
100
AcDbEntity
  8
0
 62
     3
100
AcDbCircle
 10
2126.694459344654
 20
271.0221864763148
 30
0.0
 40
0.5
100
AcDbArc
 50
0.0
 51
90.0
  0
ARC
  5
194A
330
1F
100
AcDbEntity
  8
0
 62
     3
100
AcDbCircle
 10
2121.694459344654
 20
271.0221864763148
 30
0.0
 40
0.5
100
AcDbArc
 50
90.0
 51
180.0
  0
ARC
  5
194B
330
1F
100
AcDbEntity
  8
0
 62
     3
100
AcDbCircle
 10
2119.494459344654
 20
267.0221864763148
 30
0.0
 40
0.5
100
AcDbArc
 50
90.0
 51
180.0
  0
ARC
  5
194C
330
1F
100
AcDbEntity
  8
0
 62
     3
100
AcDbCircle
 10
2119.494459344654
 20
262.5221864763148
 30
0.0
 40
0.5
100
AcDbArc
 50
180.0
 51
270.0
  0
ARC
  5
194D
330
1F
100
AcDbEntity
  8
0
 62
     3
100
AcDbCircle
 10
2128.894459344654
 20
262.5221864763148
 30
0.0
 40
0.5
100
AcDbArc
 50
270.0
 51
0.0
  0
ARC
  5
194E
330
1F
100
AcDbEntity
  8
0
 62
     3
100
AcDbCircle
 10
2128.894459344654
 20
267.0221864763148
 30
0.0
 40
0.5
100
AcDbArc
 50
0.0
 51
90.0
  0
ARC
  5
194F
330
1F
100
AcDbEntity
  8
0
 62
     3
100
AcDbCircle
 10
2126.694459344654
 20
263.5221864763148
 30
0.0
 40
0.5
100
AcDbArc
 50
0.0
 51
90.0
  0
ARC
  5
1950
330
1F
100
AcDbEntity
  8
0
 62
     3
100
AcDbCircle
 10
2121.694459344654
 20
263.5221864763148
 30
0.0
 40
0.5
100
AcDbArc
 50
90.0
 51
180.0
  0
ARC
  5
1951
330
1F
100
AcDbEntity
  8
0
 62
     3
100
AcDbCircle
 10
2121.694459344654
 20
260.5221864763148
 30
0.0
 40
0.5
100
AcDbArc
 50
180.0
 51
270.0
  0
ARC
  5
1952
330
1F
100
AcDbEntity
  8
0
 62
     3
100
AcDbCircle
 10
2126.694459344654
 20
260.5221864763148
 30
0.0
 40
0.5
100
AcDbArc
 50
270.0
 51
0.0
  0
LINE
  5
1954
330
1F
100
AcDbEntity
  8
0
 62
     3
100
AcDbLine
 10
2190.281275987739
 20
148.7412453124502
 30
0.0
 11
2190.281275987739
 21
144.0634675346723
 31
0.0
  0
LINE
  5
1955
330
1F
100
AcDbEntity
  8
0
 62
     3
100
AcDbLine
 10
2213.881275987739
 20
148.7412453124502
 30
0.0
 11
2213.881275987739
 21
144.0634675346723
 31
0.0
  0
LINE
  5
1956
330
1F
100
AcDbEntity
  8
0
 62
     3
100
AcDbLine
 10
2194.581275987739
 20
118.7412453124502
 30
0.0
 11
2194.581275987739
 21
123.7412453124502
 31
0.0
  0
LINE
  5
1957
330
1F
100
AcDbEntity
  8
0
 62
     3
100
AcDbLine
 10
2209.581275987739
 20
118.7412453124502
 30
0.0
 11
2209.581275987739
 21
123.7412453124502
 31
0.0
  0
LINE
  5
1958
330
1F
100
AcDbEntity
  8
0
 62
     3
100
AcDbLine
 10
2215.581275987739
 20
142.7412453124502
 30
0.0
 11
2215.581275987739
 21
129.2412453124502
 31
0.0
  0
LINE
  5
1959
330
1F
100
AcDbEntity
  8
0
 62
     3
100
AcDbLine
 10
2214.581275987739
 20
142.2521615067846
 30
0.0
 11
2214.581275987739
 21
129.6554588748234
 31
0.0
  0
LINE
  5
195A
330
1F
100
AcDbEntity
  8
0
 62
     3
100
AcDbLine
 10
2188.581275987739
 20
142.7412453124502
 30
0.0
 11
2188.581275987739
 21
129.2412453124502
 31
0.0
  0
LINE
  5
195B
330
1F
100
AcDbEntity
  8
0
 62
     3
100
AcDbLine
 10
2189.581275987739
 20
142.2521615067846
 30
0.0
 11
2189.581275987739
 21
129.6554588748234
 31
0.0
  0
LINE
  5
195C
330
1F
100
AcDbEntity
  8
0
 62
     3
100
AcDbLine
 10
2215.581275987739
 20
142.7412453124502
 30
0.0
 11
2211.081275987739
 21
146.2412453124502
 31
0.0
  0
LINE
  5
195D
330
1F
100
AcDbEntity
  8
0
 62
     3
100
AcDbLine
 10
2214.581275987739
 20
142.2521615067846
 30
0.0
 11
2210.738168237598
 21
145.2412453124501
 31
0.0
  0
LINE
  5
195E
330
1F
100
AcDbEntity
  8
0
 62
     3
100
AcDbLine
 10
2188.581275987739
 20
142.7412453124502
 30
0.0
 11
2193.081275987739
 21
146.2412453124502
 31
0.0
  0
LINE
  5
195F
330
1F
100
AcDbEntity
  8
0
 62
     3
100
AcDbLine
 10
2189.581275987739
 20
142.2521615067846
 30
0.0
 11
2193.42438373788
 21
145.2412453124501
 31
0.0
  0
LINE
  5
1960
330
1F
100
AcDbEntity
  8
0
 62
     3
100
AcDbLine
 10
2215.581275987739
 20
129.2412453124502
 30
0.0
 11
2210.081275987739
 21
123.7412453124502
 31
0.0
  0
LINE
  5
1961
330
1F
100
AcDbEntity
  8
0
 62
     3
100
AcDbLine
 10
2214.581275987739
 20
129.6554588748234
 30
0.0
 11
2209.667062425366
 21
124.7412453124502
 31
0.0
  0
LINE
  5
1962
330
1F
100
AcDbEntity
  8
0
 62
     3
100
AcDbLine
 10
2210.081275987739
 20
123.7412453124502
 30
0.0
 11
2194.081275987739
 21
123.7412453124502
 31
0.0
  0
LINE
  5
1963
330
1F
100
AcDbEntity
  8
0
 62
     3
100
AcDbLine
 10
2209.667062425366
 20
124.7412453124502
 30
0.0
 11
2194.495489550112
 21
124.7412453124502
 31
0.0
  0
LINE
  5
1965
330
1F
100
AcDbEntity
  8
0
 62
     3
100
AcDbLine
 10
2208.581275987739
 20
117.7412453124502
 30
0.0
 11
2195.581275987739
 21
117.7412453124502
 31
0.0
  0
LINE
  5
1966
330
1F
100
AcDbEntity
  8
0
 62
     3
100
AcDbLine
 10
2194.081275987739
 20
123.7412453124502
 30
0.0
 11
2188.581275987739
 21
129.2412453124502
 31
0.0
  0
LINE
  5
1967
330
1F
100
AcDbEntity
  8
0
 62
     3
100
AcDbLine
 10
2194.495489550112
 20
124.7412453124502
 30
0.0
 11
2189.581275987739
 21
129.6554588748234
 31
0.0
  0
LINE
  5
1968
330
1F
100
AcDbEntity
  8
0
 62
     3
100
AcDbLine
 10
2193.081275987739
 20
146.2412453124502
 30
0.0
 11
2211.081275987739
 21
146.2412453124502
 31
0.0
  0
LINE
  5
1969
330
1F
100
AcDbEntity
  8
0
 62
     3
100
AcDbLine
 10
2190.281275987739
 20
148.7412453124502
 30
0.0
 11
2213.881275987739
 21
148.7412453124502
 31
0.0
  0
LINE
  5
196A
330
1F
100
AcDbEntity
  8
0
 62
     3
100
AcDbLine
 10
2193.42438373788
 20
145.2412453124502
 30
0.0
 11
2210.738168237598
 21
145.2412453124502
 31
0.0
  0
ARC
  5
196D
330
1F
100
AcDbEntity
  8
0
 62
     3
100
AcDbCircle
 10
2195.581275987739
 20
118.74124531245
 30
0.0
 40
1.0
100
AcDbArc
 50
179.999999999987
 51
270.0
  0
ARC
  5
196E
330
1F
100
AcDbEntity
  8
0
 62
     3
100
AcDbCircle
 10
2208.581275987739
 20
118.74124531245
 30
0.0
 40
1.0
100
AcDbArc
 50
270.0
 51
0.0000000000130276
  0
LINE
  5
196F
330
1F
100
AcDbEntity
  8
0
 62
     3
100
AcDbLine
 10
2210.081275987739
 20
123.7412453124502
 30
0.0
 11
2209.667062425366
 21
124.7412453124502
 31
0.0
  0
LINE
  5
1970
330
1F
100
AcDbEntity
  8
0
 62
     3
100
AcDbLine
 10
2215.581275987739
 20
129.2412453124502
 30
0.0
 11
2214.581275987739
 21
129.6554588748234
 31
0.0
  0
LINE
  5
1971
330
1F
100
AcDbEntity
  8
0
 62
     3
100
AcDbLine
 10
2215.581275987739
 20
142.7412453124502
 30
0.0
 11
2214.581275987739
 21
142.2521615067846
 31
0.0
  0
LINE
  5
1972
330
1F
100
AcDbEntity
  8
0
 62
     3
100
AcDbLine
 10
2211.081275987739
 20
146.2412453124502
 30
0.0
 11
2210.738168237598
 21
145.2412453124502
 31
0.0
  0
LINE
  5
1973
330
1F
100
AcDbEntity
  8
0
 62
     3
100
AcDbLine
 10
2193.081275987739
 20
146.2412453124502
 30
0.0
 11
2193.42438373788
 21
145.2412453124501
 31
0.0
  0
LINE
  5
1974
330
1F
100
AcDbEntity
  8
0
 62
     3
100
AcDbLine
 10
2189.581275987739
 20
142.2521615067846
 30
0.0
 11
2188.581275987739
 21
142.7412453124502
 31
0.0
  0
LINE
  5
1975
330
1F
100
AcDbEntity
  8
0
 62
     3
100
AcDbLine
 10
2189.581275987739
 20
129.6554588748234
 30
0.0
 11
2188.581275987739
 21
129.2412453124502
 31
0.0
  0
LINE
  5
1976
330
1F
100
AcDbEntity
  8
0
 62
     3
100
AcDbLine
 10
2194.495489550112
 20
124.7412453124502
 30
0.0
 11
2194.081275987739
 21
123.7412453124502
 31
0.0
  0
ARC
  5
1977
330
1F
100
AcDbEntity
  8
0
 62
     3
100
AcDbCircle
 10
2202.081275987739
 20
166.8925281761815
 30
0.0
 40
20.21073375681532
100
AcDbArc
 50
251.3661473713778
 51
288.6338526286234
  0
LINE
  5
1978
330
1F
100
AcDbEntity
  8
0
 62
     3
100
AcDbLine
 10
2211.081275987739
 20
146.2412453124502
 30
0.0
 11
2208.53899413444
 21
147.7412453124502
 31
0.0
  0
LINE
  5
1979
330
1F
100
AcDbEntity
  8
0
 62
     3
100
AcDbLine
 10
2193.081275987739
 20
146.2412453124502
 30
0.0
 11
2195.623557841039
 21
147.74124531245
 31
0.0
  0
CIRCLE
  5
197A
330
1F
100
AcDbEntity
  8
0
 62
     3
100
AcDbCircle
 10
2202.081275987739
 20
134.9912453124502
 30
0.0
 40
6.0
  0
CIRCLE
  5
197B
330
1F
100
AcDbEntity
  8
0
 62
     3
100
AcDbCircle
 10
2211.091948474919
 20
141.3005861123114
 30
0.0
 40
2.0
  0
CIRCLE
  5
197C
330
1F
100
AcDbEntity
  8
0
 62
     3
100
AcDbCircle
 10
2192.111890330336
 20
130.3424444333022
 30
0.0
 40
2.0
  0
LINE
  5
197D
330
1F
100
AcDbEntity
  8
0
 62
     3
100
AcDbLine
 10
2188.581275987739
 20
138.953810190804
 30
0.0
 11
2188.081275987739
 21
138.953810190804
 31
0.0
  0
LINE
  5
197E
330
1F
100
AcDbEntity
  8
0
 62
     3
100
AcDbLine
 10
2188.581275987738
 20
132.953810190804
 30
0.0
 11
2188.081275987739
 21
132.953810190804
 31
0.0
  0
LINE
  5
197F
330
1F
100
AcDbEntity
  8
0
 62
     3
100
AcDbLine
 10
2188.081275987739
 20
138.953810190804
 30
0.0
 11
2188.081275987739
 21
132.953810190804
 31
0.0
  0
CIRCLE
  5
1980
330
1F
100
AcDbEntity
  8
0
 62
     3
100
AcDbCircle
 10
2202.081275987739
 20
134.9912453124502
 30
0.0
 40
5.0
  0
LINE
  5
1982
330
1F
100
AcDbEntity
  8
0
 62
     3
100
AcDbLine
 10
2196.581275987739
 20
120.2412453124502
 30
0.0
 11
2196.581275987739
 21
118.7412453124502
 31
0.0
  0
LINE
  5
1983
330
1F
100
AcDbEntity
  8
0
 62
     3
100
AcDbLine
 10
2207.581275987739
 20
118.7412453124502
 30
0.0
 11
2196.581275987739
 21
118.7412453124502
 31
0.0
  0
LINE
  5
1984
330
1F
100
AcDbEntity
  8
0
 62
     3
100
AcDbLine
 10
2207.581275987739
 20
120.2412453124502
 30
0.0
 11
2196.581275987739
 21
120.2412453124502
 31
0.0
  0
LINE
  5
1985
330
1F
100
AcDbEntity
  8
0
 62
     3
100
AcDbLine
 10
2202.831275987739
 20
122.7412453124502
 30
0.0
 11
2201.331275987739
 21
122.7412453124502
 31
0.0
  0
LINE
  5
1986
330
1F
100
AcDbEntity
  8
0
 62
     3
100
AcDbLine
 10
2202.831275987739
 20
122.7412453124502
 30
0.0
 11
2202.831275987739
 21
120.2412453124502
 31
0.0
  0
LINE
  5
1987
330
1F
100
AcDbEntity
  8
0
 62
     3
100
AcDbLine
 10
2201.331275987739
 20
122.7412453124502
 30
0.0
 11
2201.331275987739
 21
120.2412453124502
 31
0.0
  0
LINE
  5
1988
330
1F
100
AcDbEntity
  8
0
 62
     3
100
AcDbLine
 10
2207.581275987739
 20
118.7412453124502
 30
0.0
 11
2206.581275987739
 21
117.7412453124502
 31
0.0
  0
LINE
  5
1989
330
1F
100
AcDbEntity
  8
0
 62
     3
100
AcDbLine
 10
2196.581275987739
 20
118.7412453124502
 30
0.0
 11
2197.581275987739
 21
117.7412453124502
 31
0.0
  0
LINE
  5
198B
330
1F
100
AcDbEntity
  8
0
 62
     3
100
AcDbLine
 10
2207.581275987739
 20
118.7412453124502
 30
0.0
 11
2207.581275987739
 21
120.2412453124502
 31
0.0
  0
LINE
  5
198C
330
1F
100
AcDbEntity
  8
0
 62
     3
100
AcDbLine
 10
2211.081275987739
 20
260.0221864763148
 30
0.0
 11
2211.081275987739
 21
274.5221864763148
 31
0.0
  0
LINE
  5
198D
330
1F
100
AcDbEntity
  8
0
 62
     3
100
AcDbLine
 10
2193.081275987739
 20
260.0221864763148
 30
0.0
 11
2193.081275987739
 21
274.5221864763148
 31
0.0
  0
LINE
  5
198E
330
1F
100
AcDbEntity
  8
0
 62
     3
100
AcDbLine
 10
2211.081275987739
 20
179.0221864763148
 30
0.0
 11
2211.081275987739
 21
164.0221864763148
 31
0.0
  0
LINE
  5
198F
330
1F
100
AcDbEntity
  8
0
 62
     3
100
AcDbLine
 10
2193.081275987739
 20
179.0221864763148
 30
0.0
 11
2193.081275987739
 21
164.0221864763148
 31
0.0
  0
LINE
  5
1990
330
1F
100
AcDbEntity
  8
0
 62
     3
100
AcDbLine
 10
2206.081275987739
 20
235.0221864763148
 30
0.0
 11
2198.081275987739
 21
235.0221864763148
 31
0.0
  0
LINE
  5
1991
330
1F
100
AcDbEntity
  8
0
 62
     3
100
AcDbLine
 10
2206.081275987739
 20
223.0221864763148
 30
0.0
 11
2198.081275987739
 21
223.0221864763148
 31
0.0
  0
LINE
  5
1993
330
1F
100
AcDbEntity
  8
0
 62
     3
100
AcDbLine
 10
2206.081275987739
 20
235.0221864763148
 30
0.0
 11
2206.081275987739
 21
223.0221864763148
 31
0.0
  0
LINE
  5
1994
330
1F
100
AcDbEntity
  8
0
 62
     3
100
AcDbLine
 10
2198.081275987739
 20
223.0221864763148
 30
0.0
 11
2198.081275987739
 21
235.0221864763148
 31
0.0
  0
LINE
  5
1996
330
1F
100
AcDbEntity
  8
0
  6
HIDDEN
 62
     7
100
AcDbLine
 10
2203.581275987739
 20
228.5221864763148
 30
0.0
 11
2203.581275987739
 21
226.0221864763148
 31
0.0
  0
LINE
  5
1997
330
1F
100
AcDbEntity
  8
0
  6
HIDDEN
 62
     7
100
AcDbLine
 10
2200.581275987739
 20
228.5221864763148
 30
0.0
 11
2200.581275987739
 21
226.0221864763148
 31
0.0
  0
LINE
  5
1999
330
1F
100
AcDbEntity
  8
0
  6
HIDDEN
 62
     7
100
AcDbLine
 10
2203.581275987739
 20
229.5221864763148
 30
0.0
 11
2200.581275987739
 21
229.5221864763148
 31
0.0
  0
LINE
  5
199A
330
1F
100
AcDbEntity
  8
0
  6
HIDDEN
 62
     7
100
AcDbLine
 10
2200.581275987739
 20
228.5221864763148
 30
0.0
 11
2203.581275987739
 21
228.5221864763148
 31
0.0
  0
LINE
  5
199B
330
1F
100
AcDbEntity
  8
0
  6
HIDDEN
 62
     7
100
AcDbLine
 10
2203.581275987739
 20
232.0221864763148
 30
0.0
 11
2200.581275987739
 21
232.0221864763148
 31
0.0
  0
LINE
  5
199C
330
1F
100
AcDbEntity
  8
0
  6
HIDDEN
 62
     7
100
AcDbLine
 10
2203.581275987739
 20
226.0221864763148
 30
0.0
 11
2200.581275987739
 21
226.0221864763148
 31
0.0
  0
LINE
  5
199D
330
1F
100
AcDbEntity
  8
0
  6
HIDDEN
 62
     7
100
AcDbLine
 10
2200.581275987739
 20
229.5221864763148
 30
0.0
 11
2200.581275987739
 21
232.0221864763148
 31
0.0
  0
LINE
  5
199E
330
1F
100
AcDbEntity
  8
0
  6
HIDDEN
 62
     7
100
AcDbLine
 10
2203.581275987739
 20
229.5221864763148
 30
0.0
 11
2203.581275987739
 21
232.0221864763148
 31
0.0
  0
LINE
  5
19B8
330
1F
100
AcDbEntity
  8
0
  6
HIDDEN
 62
     2
100
AcDbLine
 10
2272.718092630824
 20
172.0221864763148
 30
0.0
 11
2290.718092630824
 21
172.0221864763148
 31
0.0
  0
LINE
  5
19B9
330
1F
100
AcDbEntity
  8
0
 62
     3
100
AcDbLine
 10
2273.218092630824
 20
164.0221864763148
 30
0.0
 11
2273.218092630824
 21
274.5221864763148
 31
0.0
  0
LINE
  5
19BA
330
1F
100
AcDbEntity
  8
0
  6
HIDDEN
 62
     2
100
AcDbLine
 10
2290.718092630824
 20
172.0221864763148
 30
0.0
 11
2290.718092630824
 21
238.0221864763148
 31
0.0
  0
LINE
  5
19BB
330
1F
100
AcDbEntity
  8
0
  6
HIDDEN
 62
     2
100
AcDbLine
 10
2272.718092630824
 20
172.0221864763148
 30
0.0
 11
2272.718092630824
 21
238.0221864763148
 31
0.0
  0
LINE
  5
19BC
330
1F
100
AcDbEntity
  8
0
  6
HIDDEN
 62
     2
100
AcDbLine
 10
2272.718092630824
 20
238.0221864763148
 30
0.0
 11
2290.718092630824
 21
238.0221864763148
 31
0.0
  0
TEXT
  5
19BD
330
1F
100
AcDbEntity
  8
0
 62
     3
100
AcDbText
 10
2068.910791573775
 20
86.50372917914594
 30
0.0
 40
3.2
  1
4
 41
0.8
  7
高3.2
100
AcDbText
  0
TEXT
  5
19BE
330
1F
100
AcDbEntity
  8
0
 62
     3
100
AcDbText
 10
2077.467981890953
 20
86.50372917914594
 30
0.0
 40
3.2
  1
蓄電池
 41
0.8
  7
高3.2
100
AcDbText
  0
TEXT
  5
19BF
330
1F
100
AcDbEntity
  8
0
 62
     3
100
AcDbText
 10
2101.393191313023
 20
86.50372917914594
 30
0.0
 40
3.2
  1
リチウムイオン
 41
0.8
  7
高3.2
100
AcDbText
  0
TEXT
  5
19C0
330
1F
100
AcDbEntity
  8
0
 62
     3
100
AcDbText
 10
2125.631987475793
 20
86.50372917914594
 30
0.0
 40
3.2
  1
DC3.7V　2.2Ah
 41
0.8
  7
高3.2
100
AcDbText
  0
TEXT
  5
19C1
330
1F
100
AcDbEntity
  8
0
 62
     3
100
AcDbText
 10
2157.117642819379
 20
86.50372917914594
 30
0.0
 40
3.2
  1
1
 41
0.8
  7
高3.2
100
AcDbText
  0
TEXT
  5
19C2
330
1F
100
AcDbEntity
  8
0
 62
     3
100
AcDbText
 10
2166.8118500138
 20
86.50372917914594
 30
0.0
 40
3.2
  1
-
 41
0.8
  7
高3.2
100
AcDbText
  0
CIRCLE
  5
1AD1
330
1F
100
AcDbEntity
  8
0
100
AcDbCircle
 10
2230.539859750669
 20
198.2357978983414
 30
0.0
 40
5.0
  0
TEXT
  5
1AD2
330
1F
100
AcDbEntity
  8
0
 62
     4
100
AcDbText
 10
2229.524125752142
 20
195.085142661638
 30
0.0
 40
6.299999999999998
  1
1
  7
高6.3
100
AcDbText
  0
CIRCLE
  5
1AD3
330
1F
100
AcDbEntity
  8
0
100
AcDbCircle
 10
2230.539859750669
 20
179.2855773132378
 30
0.0
 40
5.0
  0
TEXT
  5
1AD4
330
1F
100
AcDbEntity
  8
0
 62
     4
100
AcDbText
 10
2228.333774726246
 20
176.1349220765341
 30
0.0
 40
6.299999999999998
  1
2
  7
高6.3
100
AcDbText
  0
CIRCLE
  5
1AD5
330
1F
100
AcDbEntity
  8
0
100
AcDbCircle
 10
2230.539859750669
 20
271.8048806243589
 30
0.0
 40
5.0
  0
TEXT
  5
1AD6
330
1F
100
AcDbEntity
  8
0
 62
     4
100
AcDbText
 10
2228.333774726246
 20
268.6542253876553
 30
0.0
 40
6.299999999999998
  1
3
  7
高6.3
100
AcDbText
  0
CIRCLE
  5
1AD7
330
1F
100
AcDbEntity
  8
0
100
AcDbCircle
 10
2255.310077494126
 20
212.6375195136989
 30
0.0
 40
5.0
  0
TEXT
  5
1AD8
330
1F
100
AcDbEntity
  8
0
 62
     4
100
AcDbText
 10
2253.103992469704
 20
209.4868642769952
 30
0.0
 40
6.299999999999998
  1
4
  7
高6.3
100
AcDbText
  0
LINE
  5
1C10
330
1F
100
AcDbEntity
  8
0
 62
     7
100
AcDbLine
 10
2438.028086393857
 20
262.9253105074283
 30
0.0
 11
2358.6593237277
 21
262.9253105074283
 31
0.0
  0
TEXT
  5
1C13
330
1F
100
AcDbEntity
  8
0
 62
     3
100
AcDbText
 10
2403.528086393857
 20
258.4253105074235
 30
0.0
 40
3.2
  1
220Lm
  7
高3.2
100
AcDbText
  0
TEXT
  5
1C14
330
1F
100
AcDbEntity
  8
0
 62
     3
100
AcDbText
 10
2403.528086393857
 20
252.925310507424
 30
0.0
 40
3.2
  1
6500K
  7
高3.2
100
AcDbText
  0
TEXT
  5
1C15
330
1F
100
AcDbEntity
  8
0
 62
     3
100
AcDbText
 10
2403.528086393857
 20
236.4253105074246
 30
0.0
 40
3.2
  1
100\U+00B0
  7
高3.2
100
AcDbText
  0
LINE
  5
1C86
330
1F
100
AcDbEntity
  8
0
 62
     7
100
AcDbLine
 10
2438.028086393857
 20
246.4253105074241
 30
0.0
 11
2358.6593237277
 21
246.4253105074241
 31
0.0
  0
TEXT
  5
1C87
330
1F
100
AcDbEntity
  8
0
 62
     3
100
AcDbText
 10
2385.528086393858
 20
247.425310507424
 30
0.0
 40
3.2
  1
Ra82
  7
高3.2
100
AcDbText
  0
TEXT
  5
1C88
330
1F
100
AcDbEntity
  8
0
 62
     3
100
AcDbText
 10
2360.1593237277
 20
247.425310507424
 30
0.0
 40
3.2
  1
平均演色評価数
 41
0.8
  7
高3.2
100
AcDbText
  0
TEXT
  5
1C89
330
1F
100
AcDbEntity
  8
0
 62
     3
100
AcDbText
 10
2403.528086393857
 20
247.4253105074239
 30
0.0
 40
3.2
  1
Ra85
  7
高3.2
100
AcDbText
  0
LINE
  5
1D67
330
1F
100
AcDbEntity
  8
0
 62
     3
100
AcDbLine
 10
2438.028086393858
 20
163.9253105074245
 30
0.0
 11
2438.028086393857
 21
295.9253105074227
 31
0.0
  0
LINE
  5
1D68
330
1F
100
AcDbEntity
  8
0
100
AcDbLine
 10
2420.028086393857
 20
268.4253105074256
 30
0.0
 11
2420.028086393857
 21
202.425310507424
 31
0.0
  0
TEXT
  5
1D69
330
1F
100
AcDbEntity
  8
0
 62
     3
100
AcDbText
 10
2421.528086393856
 20
263.9253105074284
 30
0.0
 40
3.2
  1
側面UV
  7
高3.2
100
AcDbText
  0
TEXT
  5
1D6A
330
1F
100
AcDbEntity
  8
0
 62
     3
100
AcDbText
 10
2421.528086393857
 20
230.9253105074251
 30
0.0
 40
3.2
  1
-
  7
高3.2
100
AcDbText
  0
TEXT
  5
1D6B
330
1F
100
AcDbEntity
  8
0
 62
     3
100
AcDbText
 10
2421.528086393857
 20
225.4253105074251
 30
0.0
 40
3.2
  1
-
  7
高3.2
100
AcDbText
  0
TEXT
  5
1D6C
330
1F
100
AcDbEntity
  8
0
 62
     3
100
AcDbText
 10
2421.528086393857
 20
219.9253105074249
 30
0.0
 40
3.2
  1
-
  7
高3.2
100
AcDbText
  0
TEXT
  5
1D6D
330
1F
100
AcDbEntity
  8
0
 62
     3
100
AcDbText
 10
2421.528086393857
 20
214.4253105074252
 30
0.0
 40
3.2
  1
-
  7
高3.2
100
AcDbText
  0
TEXT
  5
1D6E
330
1F
100
AcDbEntity
  8
0
 62
     3
100
AcDbText
 10
2421.528086393857
 20
208.9253105074249
 30
0.0
 40
3.2
  1
-
  7
高3.2
100
AcDbText
  0
TEXT
  5
1D6F
330
1F
100
AcDbEntity
  8
0
 62
     3
100
AcDbText
 10
2421.528086393858
 20
258.4253105074237
 30
0.0
 40
3.2
  1
-
  7
高3.2
100
AcDbText
  0
TEXT
  5
1D70
330
1F
100
AcDbEntity
  8
0
 62
     3
100
AcDbText
 10
2421.528086393858
 20
252.925310507424
 30
0.0
 40
3.2
  1
-
  7
高3.2
100
AcDbText
  0
TEXT
  5
1D71
330
1F
100
AcDbEntity
  8
0
 62
     3
100
AcDbText
 10
2421.528086393858
 20
236.4253105074246
 30
0.0
 40
3.2
  1
-
  7
高3.2
100
AcDbText
  0
TEXT
  5
1D72
330
1F
100
AcDbEntity
  8
0
 62
     3
100
AcDbText
 10
2421.528086393858
 20
247.4253105074239
 30
0.0
 40
3.2
  1
-
  7
高3.2
100
AcDbText
  0
LINE
  5
1D73
330
1F
100
AcDbEntity
  8
0
 62
     7
100
AcDbLine
 10
2438.028086393857
 20
240.925310507424
 30
0.0
 11
2358.6593237277
 21
240.925310507424
 31
0.0
  0
TEXT
  5
1D74
330
1F
100
AcDbEntity
  8
0
 62
     3
100
AcDbText
 10
2385.528086393858
 20
241.9253105074238
 30
0.0
 40
3.2
  1
-
  7
高3.2
100
AcDbText
  0
TEXT
  5
1D75
330
1F
100
AcDbEntity
  8
0
 62
     3
100
AcDbText
 10
2360.1593237277
 20
241.9253105074238
 30
0.0
 40
3.2
  1
ブラックライト波長
 41
0.6
  7
高3.2
100
AcDbText
  0
TEXT
  5
1D76
330
1F
100
AcDbEntity
  8
0
 62
     3
100
AcDbText
 10
2403.528086393857
 20
241.9253105074238
 30
0.0
 40
3.2
  1
-
  7
高3.2
100
AcDbText
  0
TEXT
  5
1D77
330
1F
100
AcDbEntity
  8
0
 62
     3
100
AcDbText
 10
2421.528086393858
 20
241.9253105074238
 30
0.0
 40
3.2
  1
395～400nm
 41
0.5
  7
高3.2
100
AcDbText
  0
TEXT
  5
1D78
330
1F
100
AcDbEntity
  8
0
 62
     3
100
AcDbText
 10
2421.528086393857
 20
203.4253105074242
 30
0.0
 40
3.2
  1
14.5時間
 41
0.8
  7
高3.2
100
AcDbText
  0
TEXT
  5
227E
330
1F
100
AcDbEntity
  8
0
 62
     4
100
AcDbText
 10
2081.150549643612
 20
258.0531809751715
 30
0.0
 40
3.0
  1
マグネット
100
AcDbText
1001
ACAD
1000
MTEXTBEGIN
1070
    73
1070
     1
1070
    44
1040
1.0
1070
    74
1070
     0
1000
MTEXTEND
  0
TEXT
  5
2283
330
1F
100
AcDbEntity
  8
0
 62
     4
100
AcDbText
 10
2226.299322828428
 20
128.4729573619342
 30
0.0
 40
3.0
  1
マグネット
100
AcDbText
1001
ACAD
1000
MTEXTBEGIN
1070
    73
1070
     1
1070
    44
1040
1.0
1070
    74
1070
     0
1000
MTEXTEND
  0
TEXT
  5
228E
330
1F
100
AcDbEntity
  8
0
 62
     4
100
AcDbText
 10
2223.64537757552
 20
233.9637761039582
 30
0.0
 40
3.0
  1
側面UV
100
AcDbText
1001
ACAD
1000
MTEXTBEGIN
1070
    73
1070
     1
1070
    44
1040
1.0
1070
    74
1070
     0
1000
MTEXTEND
  0
TEXT
  5
228F
330
1F
100
AcDbEntity
  8
0
 62
     4
100
AcDbText
 10
2223.44537757552
 20
228.9637761039582
 30
0.0
 40
3.0
  1
ブラックライト
100
AcDbText
1001
ACAD
1000
MTEXTBEGIN
1070
    73
1070
     1
1070
    44
1040
1.0
1070
    74
1070
     0
1000
MTEXTEND
  0
TEXT
  5
2292
330
1F
100
AcDbEntity
  8
0
 62
     4
100
AcDbText
 10
2223.729176062667
 20
258.2378321099932
 30
0.0
 40
3.0
  1
側面LED
100
AcDbText
1001
ACAD
1000
MTEXTBEGIN
1070
    73
1070
     1
1070
    44
1040
1.0
1070
    74
1070
     0
1000
MTEXTEND
  0
TEXT
  5
2295
330
1F
100
AcDbEntity
  8
0
 62
     4
100
AcDbText
 10
2144.441391657967
 20
271.5164164079477
 30
0.0
 40
3.0
  1
充電差込口
100
AcDbText
1001
ACAD
1000
MTEXTBEGIN
1070
    73
1070
     1
1070
    44
1040
1.0
1070
    74
1070
     0
1000
MTEXTEND
  0
TEXT
  5
2298
330
1F
100
AcDbEntity
  8
0
 62
     4
100
AcDbText
 10
2222.201469741792
 20
313.7721574720104
 30
0.0
 40
3.0
  1
天面LED
100
AcDbText
1001
ACAD
1000
MTEXTBEGIN
1070
    73
1070
     1
1070
    44
1040
1.0
1070
    74
1070
     0
1000
MTEXTEND
  0
TEXT
  5
229B
330
1F
100
AcDbEntity
  8
0
 62
     4
100
AcDbText
 10
2244.715650466844
 20
272.3822944191238
 30
0.0
 40
3.0
  1
スイッチ
100
AcDbText
1001
ACAD
1000
MTEXTBEGIN
1070
    73
1070
     1
1070
    44
1040
1.0
1070
    74
1070
     0
1000
MTEXTEND
  0
LINE
  5
229E
330
1F
100
AcDbEntity
  8
0
100
AcDbLine
 10
2292.218092630824
 20
163.7721864763148
 30
0.0
 11
2292.218092630824
 21
153.2378322468385
 31
0.0
  0
LINE
  5
229F
330
1F
100
AcDbEntity
  8
0
100
AcDbLine
 10
2268.218092630824
 20
166.7721864763148
 30
0.0
 11
2268.218092630824
 21
153.2378322468385
 31
0.0
  0
LINE
  5
22A0
330
1F
100
AcDbEntity
  8
0
100
AcDbLine
 10
2289.718092630824
 20
154.4878322468385
 30
0.0
 11
2270.718092630824
 21
154.4878322468385
 31
0.0
  0
LINE
  5
22A4
330
1F
100
AcDbEntity
  8
0
100
AcDbLine
 10
2298.218092630824
 20
269.2721864763148
 30
0.0
 11
2298.218092630824
 21
285.5424722571591
 31
0.0
  0
LINE
  5
22A5
330
1F
100
AcDbEntity
  8
0
100
AcDbLine
 10
2267.218092630824
 20
259.4721864763148
 30
0.0
 11
2267.218092630824
 21
285.5424722571591
 31
0.0
  0
LINE
  5
22A6
330
1F
100
AcDbEntity
  8
0
100
AcDbLine
 10
2295.718092630824
 20
284.2924722571591
 30
0.0
 11
2269.718092630824
 21
284.2924722571591
 31
0.0
  0
LINE
  5
22AA
330
1F
100
AcDbEntity
  8
0
100
AcDbLine
 10
2189.331275987739
 20
275.5221864763148
 30
0.0
 11
2168.481041079462
 21
275.5221864763149
 31
0.0
  0
LINE
  5
22AB
330
1F
100
AcDbEntity
  8
0
100
AcDbLine
 10
2188.331275987739
 20
164.0221864763148
 30
0.0
 11
2168.481041079462
 21
164.0221864763148
 31
0.0
  0
LINE
  5
22AC
330
1F
100
AcDbEntity
  8
0
100
AcDbLine
 10
2169.731041079462
 20
273.0221864763148
 30
0.0
 11
2169.731041079462
 21
166.5221864763148
 31
0.0
  0
LINE
  5
22B0
330
1F
100
AcDbEntity
  8
0
100
AcDbLine
 10
2188.581275987739
 20
274.7721864763148
 30
0.0
 11
2188.581275987739
 21
281.4146576174542
 31
0.0
  0
LINE
  5
22B1
330
1F
100
AcDbEntity
  8
0
100
AcDbLine
 10
2215.581275987739
 20
274.7721864763148
 30
0.0
 11
2215.581275987739
 21
281.4146576174542
 31
0.0
  0
LINE
  5
22B2
330
1F
100
AcDbEntity
  8
0
100
AcDbLine
 10
2191.081275987739
 20
280.1646576174542
 30
0.0
 11
2213.081275987739
 21
280.1646576174542
 31
0.0
  0
LINE
  5
22B6
330
1F
100
AcDbEntity
  8
0
100
AcDbLine
 10
2103.935237122863
 20
257.2877941997102
 30
0.0
 11
2100.875549643612
 21
259.5531809751715
 31
0.0
1001
ACAD
1000
DSTYLE
1002
{
1070
   147
1040
0.625
1070
    77
1070
     0
1002
}
  0
LINE
  5
22B7
330
1F
100
AcDbEntity
  8
0
100
AcDbLine
 10
2100.875549643612
 20
259.5531809751715
 30
0.0
 11
2098.375549643612
 21
259.5531809751715
 31
0.0
1001
ACAD
1000
DSTYLE
1002
{
1070
   147
1040
0.625
1070
    77
1070
     0
1002
}
  0
LINE
  5
22B8
330
1F
100
AcDbEntity
  8
0
  6
ByBlock
 62
     0
370
    -2
100
AcDbLine
 10
2104.33384456692
 20
257.8261632848168
 30
0.0
 11
2105.944459344654
 21
255.8001698978576
 31
0.0
  0
LINE
  5
22B9
330
1F
100
AcDbEntity
  8
0
  6
ByBlock
 62
     0
370
    -2
100
AcDbLine
 10
2105.944459344654
 20
255.8001698978576
 30
0.0
 11
2103.536629678806
 21
256.7494251146035
 31
0.0
  0
LINE
  5
22BA
330
1F
100
AcDbEntity
  8
0
  6
ByBlock
 62
     0
370
    -2
100
AcDbLine
 10
2105.944459344654
 20
255.8001698978576
 30
0.0
 11
2103.935237122863
 21
257.2877941997102
 31
0.0
  0
LINE
  5
22BB
330
1F
100
AcDbEntity
  8
0
100
AcDbLine
 10
2202.081275987739
 20
134.9912453124502
 30
0.0
 11
2225.874322828427
 21
129.9729573619343
 31
0.0
1001
ACAD
1000
DSTYLE
1002
{
1070
   341
1005
1A6F
1070
   147
1040
0.625
1070
    77
1070
     0
1002
}
  0
LINE
  5
22BD
330
1F
100
AcDbEntity
  8
0
100
AcDbLine
 10
2270.464562134457
 20
205.3585907399933
 30
0.0
 11
2259.817138486861
 21
210.4727097743062
 31
0.0
1001
ACAD
1000
DSTYLE
1002
{
1070
   147
1040
0.625
1070
    77
1070
     0
1002
}
  0
LINE
  5
22BE
330
1F
100
AcDbEntity
  8
0
  6
ByBlock
 62
     0
370
    -2
100
AcDbLine
 10
2270.754591436887
 20
205.9624219829645
 30
0.0
 11
2272.718092630824
 21
204.276185870297
 31
0.0
  0
LINE
  5
22BF
330
1F
100
AcDbEntity
  8
0
  6
ByBlock
 62
     0
370
    -2
100
AcDbLine
 10
2272.718092630824
 20
204.276185870297
 30
0.0
 11
2270.174532832026
 21
204.7547594970222
 31
0.0
  0
LINE
  5
22C0
330
1F
100
AcDbEntity
  8
0
  6
ByBlock
 62
     0
370
    -2
100
AcDbLine
 10
2272.718092630824
 20
204.276185870297
 30
0.0
 11
2270.464562134457
 21
205.3585907399933
 31
0.0
  0
LINE
  5
22C1
330
1F
100
AcDbEntity
  8
0
100
AcDbLine
 10
2217.852632595485
 20
173.4513726952394
 30
0.0
 11
2225.997146535177
 21
177.1966166525755
 31
0.0
1001
ACAD
1000
DSTYLE
1002
{
1070
   147
1040
0.625
1070
    77
1070
     0
1002
}
  0
LINE
  5
22C2
330
1F
100
AcDbEntity
  8
0
  6
ByBlock
 62
     0
370
    -2
100
AcDbLine
 10
2218.132500055517
 20
172.8427649635505
 30
0.0
 11
2215.581275987739
 21
172.4068923649083
 31
0.0
  0
LINE
  5
22C3
330
1F
100
AcDbEntity
  8
0
  6
ByBlock
 62
     0
370
    -2
100
AcDbLine
 10
2215.581275987739
 20
172.4068923649083
 30
0.0
 11
2217.572765135453
 21
174.0599804269283
 31
0.0
  0
LINE
  5
22C4
330
1F
100
AcDbEntity
  8
0
  6
ByBlock
 62
     0
370
    -2
100
AcDbLine
 10
2215.581275987739
 20
172.4068923649083
 30
0.0
 11
2217.852632595485
 21
173.4513726952394
 31
0.0
  0
LINE
  5
22C5
330
1F
100
AcDbEntity
  8
0
100
AcDbLine
 10
2217.030045193141
 20
217.2347695358045
 30
0.0
 11
2227.642321339866
 21
202.3106317793625
 31
0.0
1001
ACAD
1000
DSTYLE
1002
{
1070
   147
1040
0.625
1070
    77
1070
     0
1002
}
  0
LINE
  5
22C6
330
1F
100
AcDbEntity
  8
0
  6
ByBlock
 62
     0
370
    -2
100
AcDbLine
 10
2216.484121361348
 20
216.8465732759861
 30
0.0
 11
2215.581275987739
 21
219.2721864763148
 31
0.0
  0
LINE
  5
22C7
330
1F
100
AcDbEntity
  8
0
  6
ByBlock
 62
     0
370
    -2
100
AcDbLine
 10
2215.581275987739
 20
219.2721864763148
 30
0.0
 11
2217.575969024934
 21
217.6229657956227
 31
0.0
  0
LINE
  5
22C8
330
1F
100
AcDbEntity
  8
0
  6
ByBlock
 62
     0
370
    -2
100
AcDbLine
 10
2215.581275987739
 20
219.2721864763148
 30
0.0
 11
2217.030045193141
 21
217.2347695358045
 31
0.0
  0
LINE
  5
22C9
330
1F
100
AcDbEntity
  8
0
100
AcDbLine
 10
2217.785254571499
 20
264.9759314044146
 30
0.0
 11
2226.131902583149
 21
269.4448141826439
 31
0.0
1001
ACAD
1000
DSTYLE
1002
{
1070
   147
1040
0.625
1070
    77
1070
     0
1002
}
  0
LINE
  5
22CA
330
1F
100
AcDbEntity
  8
0
  6
ByBlock
 62
     0
370
    -2
100
AcDbLine
 10
2218.101443292995
 20
264.3853775468746
 30
0.0
 11
2215.581275987739
 21
263.795898183557
 31
0.0
  0
LINE
  5
22CB
330
1F
100
AcDbEntity
  8
0
  6
ByBlock
 62
     0
370
    -2
100
AcDbLine
 10
2215.581275987739
 20
263.795898183557
 30
0.0
 11
2217.469065850004
 21
265.5664852619544
 31
0.0
  0
LINE
  5
22CC
330
1F
100
AcDbEntity
  8
0
  6
ByBlock
 62
     0
370
    -2
100
AcDbLine
 10
2215.581275987739
 20
263.795898183557
 30
0.0
 11
2217.785254571499
 21
264.9759314044146
 31
0.0
  0
LINE
  5
22CD
330
1F
100
AcDbEntity
  8
0
100
AcDbLine
 10
2205.831921495331
 20
228.3605773983451
 30
0.0
 11
2220.52037757552
 21
235.4637761039582
 31
0.0
1001
ACAD
1000
DSTYLE
1002
{
1070
   147
1040
0.625
1070
    77
1070
     0
1002
}
  0
LINE
  5
22CE
330
1F
100
AcDbEntity
  8
0
100
AcDbLine
 10
2220.52037757552
 20
235.4637761039582
 30
0.0
 11
2223.02037757552
 21
235.4637761039582
 31
0.0
1001
ACAD
1000
DSTYLE
1002
{
1070
   147
1040
0.625
1070
    77
1070
     0
1002
}
  0
LINE
  5
22CF
330
1F
100
AcDbEntity
  8
0
  6
ByBlock
 62
     0
370
    -2
100
AcDbLine
 10
2206.123554754498
 20
227.7575191852314
 30
0.0
 11
2203.581275987739
 21
227.2721864763148
 31
0.0
  0
LINE
  5
22D0
330
1F
100
AcDbEntity
  8
0
  6
ByBlock
 62
     0
370
    -2
100
AcDbLine
 10
2203.581275987739
 20
227.2721864763148
 30
0.0
 11
2205.540288236164
 21
228.9636356114587
 31
0.0
  0
LINE
  5
22D1
330
1F
100
AcDbEntity
  8
0
  6
ByBlock
 62
     0
370
    -2
100
AcDbLine
 10
2203.581275987739
 20
227.2721864763148
 30
0.0
 11
2205.831921495331
 21
228.3605773983451
 31
0.0
  0
LINE
  5
22D2
330
1F
100
AcDbEntity
  8
0
100
AcDbLine
 10
2202.081275987739
 20
247.4221864763148
 30
0.0
 11
2220.604176062667
 21
259.7378321099932
 31
0.0
1001
ACAD
1000
DSTYLE
1002
{
1070
   341
1005
1A6F
1070
   147
1040
0.625
1070
    77
1070
     0
1002
}
  0
LINE
  5
22D3
330
1F
100
AcDbEntity
  8
0
100
AcDbLine
 10
2220.604176062667
 20
259.7378321099932
 30
0.0
 11
2223.104176062667
 21
259.7378321099932
 31
0.0
1001
ACAD
1000
DSTYLE
1002
{
1070
   341
1005
1A6F
1070
   147
1040
0.625
1070
    77
1070
     0
1002
}
  0
LINE
  5
22D5
330
1F
100
AcDbEntity
  8
0
100
AcDbLine
 10
2131.450699536877
 20
266.1941134336106
 30
0.0
 11
2141.316391657967
 21
273.0164164079477
 31
0.0
1001
ACAD
1000
DSTYLE
1002
{
1070
   147
1040
0.625
1070
    77
1070
     0
1002
}
  0
LINE
  5
22D6
330
1F
100
AcDbEntity
  8
0
100
AcDbLine
 10
2141.316391657967
 20
273.0164164079477
 30
0.0
 11
2143.816391657967
 21
273.0164164079477
 31
0.0
1001
ACAD
1000
DSTYLE
1002
{
1070
   147
1040
0.625
1070
    77
1070
     0
1002
}
  0
LINE
  5
22D7
330
1F
100
AcDbEntity
  8
0
100
AcDbLine
 10
2202.081275987739
 20
303.5531276401794
 30
0.0
 11
2219.076469741792
 21
315.2721574720104
 31
0.0
1001
ACAD
1000
DSTYLE
1002
{
1070
   341
1005
1A6F
1070
   147
1040
0.625
1070
    77
1070
     0
1002
}
  0
LINE
  5
22D8
330
1F
100
AcDbEntity
  8
0
100
AcDbLine
 10
2219.076469741792
 20
315.2721574720104
 30
0.0
 11
2221.576469741792
 21
315.2721574720104
 31
0.0
1001
ACAD
1000
DSTYLE
1002
{
1070
   341
1005
1A6F
1070
   147
1040
0.625
1070
    77
1070
     0
1002
}
  0
LINE
  5
22D9
330
1F
100
AcDbEntity
  8
0
  6
ByBlock
 62
     0
370
    -2
100
AcDbLine
 10
2131.831703443158
 20
265.6431459303445
 30
0.0
 11
2129.394459344654
 21
264.7721864763148
 31
0.0
  0
LINE
  5
22DA
330
1F
100
AcDbEntity
  8
0
  6
ByBlock
 62
     0
370
    -2
100
AcDbLine
 10
2129.394459344654
 20
264.7721864763148
 30
0.0
 11
2131.069695630597
 21
266.7450809368767
 31
0.0
  0
LINE
  5
22DB
330
1F
100
AcDbEntity
  8
0
  6
ByBlock
 62
     0
370
    -2
100
AcDbLine
 10
2129.394459344654
 20
264.7721864763148
 30
0.0
 11
2131.450699536877
 21
266.1941134336106
 31
0.0
  0
LINE
  5
22DD
330
1F
100
AcDbEntity
  8
0
100
AcDbLine
 10
2275.924362129391
 20
267.5165709023784
 30
0.0
 11
2261.240650466844
 21
273.8822944191238
 31
0.0
1001
ACAD
1000
DSTYLE
1002
{
1070
   147
1040
0.625
1070
    77
1070
     0
1002
}
  0
LINE
  5
22DE
330
1F
100
AcDbEntity
  8
0
100
AcDbLine
 10
2261.240650466844
 20
273.8822944191238
 30
0.0
 11
2258.740650466844
 21
273.8822944191238
 31
0.0
1001
ACAD
1000
DSTYLE
1002
{
1070
   147
1040
0.625
1070
    77
1070
     0
1002
}
  0
LINE
  5
22DF
330
1F
100
AcDbEntity
  8
0
  6
ByBlock
 62
     0
370
    -2
100
AcDbLine
 10
2276.19080644197
 20
268.1311736965068
 30
0.0
 11
2278.218092630824
 21
266.5221864763148
 31
0.0
  0
LINE
  5
22E0
330
1F
100
AcDbEntity
  8
0
  6
ByBlock
 62
     0
370
    -2
100
AcDbLine
 10
2278.218092630824
 20
266.5221864763148
 30
0.0
 11
2275.657917816812
 21
266.9019681082501
 31
0.0
  0
LINE
  5
22E1
330
1F
100
AcDbEntity
  8
0
  6
ByBlock
 62
     0
370
    -2
100
AcDbLine
 10
2278.218092630824
 20
266.5221864763148
 30
0.0
 11
2275.924362129391
 21
267.5165709023784
 31
0.0
  0
TEXT
  5
22E2
330
1F
100
AcDbEntity
  8
0
 62
     4
100
AcDbText
 10
2277.244985193817
 20
155.1128322468384
 30
0.0
 40
3.0
  1
24
100
AcDbText
  0
LINE
  5
22E3
330
1F
100
AcDbEntity
  8
0
  6
ByBlock
 62
     0
370
    -2
100
AcDbLine
 10
2270.718092630824
 20
153.8179597468385
 30
0.0
 11
2268.218092630824
 21
154.4878322468385
 31
0.0
  0
LINE
  5
22E4
330
1F
100
AcDbEntity
  8
0
  6
ByBlock
 62
     0
370
    -2
100
AcDbLine
 10
2268.218092630824
 20
154.4878322468385
 30
0.0
 11
2270.718092630824
 21
155.1577047468384
 31
0.0
  0
LINE
  5
22E5
330
1F
100
AcDbEntity
  8
0
  6
ByBlock
 62
     0
370
    -2
100
AcDbLine
 10
2268.218092630824
 20
154.4878322468385
 30
0.0
 11
2270.718092630824
 21
154.4878322468385
 31
0.0
  0
LINE
  5
22E6
330
1F
100
AcDbEntity
  8
0
  6
ByBlock
 62
     0
370
    -2
100
AcDbLine
 10
2289.718092630824
 20
155.1577047468384
 30
0.0
 11
2292.218092630824
 21
154.4878322468385
 31
0.0
  0
LINE
  5
22E7
330
1F
100
AcDbEntity
  8
0
  6
ByBlock
 62
     0
370
    -2
100
AcDbLine
 10
2292.218092630824
 20
154.4878322468385
 30
0.0
 11
2289.718092630824
 21
153.8179597468385
 31
0.0
  0
LINE
  5
22E8
330
1F
100
AcDbEntity
  8
0
  6
ByBlock
 62
     0
370
    -2
100
AcDbLine
 10
2292.218092630824
 20
154.4878322468385
 30
0.0
 11
2289.718092630824
 21
154.4878322468385
 31
0.0
  0
TEXT
  5
22E9
330
1F
100
AcDbEntity
  8
0
 62
     4
100
AcDbText
 10
2279.442677085512
 20
284.9174722571591
 30
0.0
 40
3.0
  1
31
100
AcDbText
  0
LINE
  5
22EA
330
1F
100
AcDbEntity
  8
0
  6
ByBlock
 62
     0
370
    -2
100
AcDbLine
 10
2295.718092630824
 20
284.9623447571591
 30
0.0
 11
2298.218092630824
 21
284.2924722571591
 31
0.0
  0
LINE
  5
22EB
330
1F
100
AcDbEntity
  8
0
  6
ByBlock
 62
     0
370
    -2
100
AcDbLine
 10
2298.218092630824
 20
284.2924722571591
 30
0.0
 11
2295.718092630824
 21
283.6225997571591
 31
0.0
  0
LINE
  5
22EC
330
1F
100
AcDbEntity
  8
0
  6
ByBlock
 62
     0
370
    -2
100
AcDbLine
 10
2298.218092630824
 20
284.2924722571591
 30
0.0
 11
2295.718092630824
 21
284.2924722571591
 31
0.0
  0
LINE
  5
22ED
330
1F
100
AcDbEntity
  8
0
  6
ByBlock
 62
     0
370
    -2
100
AcDbLine
 10
2269.718092630824
 20
283.6225997571591
 30
0.0
 11
2267.218092630824
 21
284.2924722571591
 31
0.0
  0
LINE
  5
22EE
330
1F
100
AcDbEntity
  8
0
  6
ByBlock
 62
     0
370
    -2
100
AcDbLine
 10
2267.218092630824
 20
284.2924722571591
 30
0.0
 11
2269.718092630824
 21
284.9623447571591
 31
0.0
  0
LINE
  5
22EF
330
1F
100
AcDbEntity
  8
0
  6
ByBlock
 62
     0
370
    -2
100
AcDbLine
 10
2267.218092630824
 20
284.2924722571591
 30
0.0
 11
2269.718092630824
 21
284.2924722571591
 31
0.0
  0
TEXT
  5
22F0
330
1F
100
AcDbEntity
  8
0
 62
     4
100
AcDbText
 10
2169.106041079462
 20
213.3300962536509
 30
0.0
 40
3.0
  1
111.5
 50
90.0
100
AcDbText
  0
LINE
  5
22F1
330
1F
100
AcDbEntity
  8
0
  6
ByBlock
 62
     0
370
    -2
100
AcDbLine
 10
2170.400913579462
 20
166.5221864763148
 30
0.0
 11
2169.731041079462
 21
164.0221864763148
 31
0.0
  0
LINE
  5
22F2
330
1F
100
AcDbEntity
  8
0
  6
ByBlock
 62
     0
370
    -2
100
AcDbLine
 10
2169.731041079462
 20
164.0221864763148
 30
0.0
 11
2169.061168579462
 21
166.5221864763148
 31
0.0
  0
LINE
  5
22F3
330
1F
100
AcDbEntity
  8
0
  6
ByBlock
 62
     0
370
    -2
100
AcDbLine
 10
2169.731041079462
 20
164.0221864763148
 30
0.0
 11
2169.731041079462
 21
166.5221864763148
 31
0.0
  0
LINE
  5
22F4
330
1F
100
AcDbEntity
  8
0
  6
ByBlock
 62
     0
370
    -2
100
AcDbLine
 10
2169.061168579462
 20
273.0221864763148
 30
0.0
 11
2169.731041079462
 21
275.5221864763149
 31
0.0
  0
LINE
  5
22F5
330
1F
100
AcDbEntity
  8
0
  6
ByBlock
 62
     0
370
    -2
100
AcDbLine
 10
2169.731041079462
 20
275.5221864763149
 30
0.0
 11
2170.400913579462
 21
273.0221864763148
 31
0.0
  0
LINE
  5
22F6
330
1F
100
AcDbEntity
  8
0
  6
ByBlock
 62
     0
370
    -2
100
AcDbLine
 10
2169.731041079462
 20
275.5221864763149
 30
0.0
 11
2169.731041079462
 21
273.0221864763148
 31
0.0
  0
TEXT
  5
22F7
330
1F
100
AcDbEntity
  8
0
 62
     4
100
AcDbText
 10
2199.468606853052
 20
280.7896576174542
 30
0.0
 40
3.0
  1
27
100
AcDbText
  0
LINE
  5
22F8
330
1F
100
AcDbEntity
  8
0
  6
ByBlock
 62
     0
370
    -2
100
AcDbLine
 10
2213.081275987739
 20
280.8345301174542
 30
0.0
 11
2215.581275987739
 21
280.1646576174542
 31
0.0
  0
LINE
  5
22F9
330
1F
100
AcDbEntity
  8
0
  6
ByBlock
 62
     0
370
    -2
100
AcDbLine
 10
2215.581275987739
 20
280.1646576174542
 30
0.0
 11
2213.081275987739
 21
279.4947851174542
 31
0.0
  0
LINE
  5
22FA
330
1F
100
AcDbEntity
  8
0
  6
ByBlock
 62
     0
370
    -2
100
AcDbLine
 10
2215.581275987739
 20
280.1646576174542
 30
0.0
 11
2213.081275987739
 21
280.1646576174542
 31
0.0
  0
LINE
  5
22FB
330
1F
100
AcDbEntity
  8
0
  6
ByBlock
 62
     0
370
    -2
100
AcDbLine
 10
2191.081275987739
 20
279.4947851174542
 30
0.0
 11
2188.581275987739
 21
280.1646576174542
 31
0.0
  0
LINE
  5
22FC
330
1F
100
AcDbEntity
  8
0
  6
ByBlock
 62
     0
370
    -2
100
AcDbLine
 10
2188.581275987739
 20
280.1646576174542
 30
0.0
 11
2191.081275987739
 21
280.8345301174542
 31
0.0
  0
LINE
  5
22FD
330
1F
100
AcDbEntity
  8
0
  6
ByBlock
 62
     0
370
    -2
100
AcDbLine
 10
2188.581275987739
 20
280.1646576174542
 30
0.0
 11
2191.081275987739
 21
280.1646576174542
 31
0.0
  0
ARC
  5
22FE
330
1F
100
AcDbEntity
  8
0
  6
ByBlock
 62
     0
100
AcDbCircle
 10
2202.081275987739
 20
134.9912453124502
 30
0.0
 40
0.1562500000000255
100
AcDbArc
 50
348.0900707411602
 51
168.0900707411602
  0
ARC
  5
22FF
330
1F
100
AcDbEntity
  8
0
  6
ByBlock
 62
     0
100
AcDbCircle
 10
2202.081275987739
 20
134.9912453124502
 30
0.0
 40
0.1562500000000255
100
AcDbArc
 50
168.0900707411602
 51
348.0900707411602
  0
ARC
  5
2300
330
1F
100
AcDbEntity
  8
0
  6
ByBlock
 62
     0
100
AcDbCircle
 10
2202.081275987739
 20
247.4221864763148
 30
0.0
 40
0.1562499999998259
100
AcDbArc
 50
33.61943854051074
 51
213.6194385405108
  0
ARC
  5
2301
330
1F
100
AcDbEntity
  8
0
  6
ByBlock
 62
     0
100
AcDbCircle
 10
2202.081275987739
 20
247.4221864763148
 30
0.0
 40
0.1562499999998259
100
AcDbArc
 50
213.6194385405108
 51
33.61943854051074
  0
ARC
  5
2302
330
1F
100
AcDbEntity
  8
0
  6
ByBlock
 62
     0
100
AcDbCircle
 10
2202.081275987739
 20
303.5531276401794
 30
0.0
 40
0.156250000000059
100
AcDbArc
 50
34.58819107723011
 51
214.5881910772301
  0
ARC
  5
2303
330
1F
100
AcDbEntity
  8
0
  6
ByBlock
 62
     0
100
AcDbCircle
 10
2202.081275987739
 20
303.5531276401794
 30
0.0
 40
0.156250000000059
100
AcDbArc
 50
214.5881910772301
 51
34.58819107723011
  0
ENDSEC
  0
SECTION
  2
OBJECTS
  0
DICTIONARY
  5
C
330
0
100
AcDbDictionary
281
     1
  3
ACAD_2007HEADERVARS_RT
350
2308
  3
ACAD_COLOR
350
73
  3
ACAD_GROUP
350
D
  3
ACAD_LAYOUT
350
1A
  3
ACAD_MATERIAL
350
72
  3
ACAD_MLEADERSTYLE
350
168
  3
ACAD_MLINESTYLE
350
17
  3
ACAD_PLOTSETTINGS
350
19
  3
ACAD_PLOTSTYLENAME
350
E
  3
ACAD_SCALELIST
350
156
  3
ACAD_TABLESTYLE
350
86
  3
ACAD_VISUALSTYLE
350
99
  3
AcadDim
350
1ADB
  3
ACDB_RECOMPOSE_DATA
350
2306
  3
AcDbVariableDictionary
350
66
  3
AEC_PROPERTY_SET_DEFS
350
12D1
  3
DWGPROPS
350
2307
  0
DICTIONARY
  5
AE9
330
8
100
AcDbDictionary
280
     1
281
     1
  0
DICTIONARY
  5
DD
330
2
100
AcDbDictionary
280
     1
281
     1
  3
ACAD_LAYERSTATES
360
DE
  0
DICTIONARY
  5
8E9
330
10
100
AcDbDictionary
280
     1
281
     1
  3
ADSK_XREC_LAYER_RECONCILED
360
166E
  0
DICTIONARY
  5
324
330
1F
100
AcDbDictionary
280
     1
281
     1
  3
ACAD_SORTENTS
360
325
  0
DICTIONARY
  5
F2C
330
E22
100
AcDbDictionary
280
     1
281
     1
  3
ACAD_SORTENTS
360
F2D
  0
DICTIONARY
  5
F37
330
F36
100
AcDbDictionary
280
     1
281
     1
  3
ACAD_SORTENTS
360
F38
  0
DICTIONARY
  5
2308
102
{ACAD_REACTORS
330
C
102
}
330
C
100
AcDbDictionary
281
     1
  3
DIMARCSYM
350
230A
  3
DIMFXL
350
2309
  3
DIMJOGANG
350
230B
  0
DICTIONARY
  5
73
102
{ACAD_REACTORS
330
C
102
}
330
C
100
AcDbDictionary
281
     1
  0
DICTIONARY
  5
D
102
{ACAD_REACTORS
330
C
102
}
330
C
100
AcDbDictionary
281
     1
  0
DICTIONARY
  5
1A
102
{ACAD_REACTORS
330
C
102
}
330
C
100
AcDbDictionary
281
     1
  3
Model
350
22
  3
レイアウト1
350
59
  3
レイアウト2
350
5E
  0
DICTIONARY
  5
72
102
{ACAD_REACTORS
330
C
102
}
330
C
100
AcDbDictionary
281
     1
  3
ByBlock
350
97
  3
ByLayer
350
96
  3
Global
350
98
  0
DICTIONARY
  5
168
102
{ACAD_REACTORS
330
C
102
}
330
C
100
AcDbDictionary
281
     1
  3
Standard
350
169
  0
DICTIONARY
  5
17
102
{ACAD_REACTORS
330
C
102
}
330
C
100
AcDbDictionary
281
     1
  3
Standard
350
18
  0
DICTIONARY
  5
19
102
{ACAD_REACTORS
330
C
102
}
330
C
100
AcDbDictionary
281
     1
  0
ACDBDICTIONARYWDFLT
  5
E
102
{ACAD_REACTORS
330
C
102
}
330
C
100
AcDbDictionary
281
     1
  3
Normal
350
F
100
AcDbDictionaryWithDefault
340
F
  0
DICTIONARY
  5
156
102
{ACAD_REACTORS
330
C
102
}
330
C
100
AcDbDictionary
281
     1
  3
A0
350
157
  3
A1
350
158
  3
A2
350
159
  3
A3
350
15A
  3
A4
350
15B
  3
A5
350
15C
  3
A6
350
15D
  3
A7
350
15E
  3
A8
350
15F
  3
A9
350
160
  3
B0
350
161
  3
B1
350
162
  3
B2
350
163
  3
B3
350
164
  3
B4
350
165
  3
B5
350
166
  3
B6
350
167
  0
DICTIONARY
  5
86
102
{ACAD_REACTORS
330
C
102
}
330
C
100
AcDbDictionary
281
     1
  3
Standard
350
87
  3
部品表
350
D97
  0
DICTIONARY
  5
99
102
{ACAD_REACTORS
330
C
102
}
330
C
100
AcDbDictionary
281
     1
  3
2dWireframe
350
9F
  3
3D Hidden
350
A1
  3
3dWireframe
350
A0
  3
Basic
350
9E
  3
Brighten
350
A5
  3
ColorChange
350
A9
  3
Conceptual
350
A2
  3
Dim
350
A4
  3
EdgeColorOff
350
155
  3
Facepattern
350
A8
  3
Flat
350
9A
  3
FlatWithEdges
350
9B
  3
Gouraud
350
9C
  3
GouraudWithEdges
350
9D
  3
Hidden
350
14D
  3
JitterOff
350
153
  3
Linepattern
350
A7
  3
OverhangOff
350
154
  3
Realistic
350
A3
  3
Shaded
350
152
  3
Shaded with edges
350
151
  3
Shades of Gray
350
14E
  3
Sketchy
350
14F
  3
Thicken
350
A6
  3
Wireframe
350
14C
  3
X-Ray
350
150
  0
XRECORD
  5
1ADB
102
{ACAD_REACTORS
330
C
102
}
330
C
100
AcDbXrecord
280
     1
 90
   990106
  3

 60
     0
 61
     0
 62
     1
 63
     3
 64
     0
 65
     0
 66
     0
 67
     3
 68
     1
 69
     0
 70
     0
 71
     0
 72
     0
 40
0.0
170
     0
340
1E68
  0
XRECORD
  5
2306
102
{ACAD_REACTORS
330
C
102
}
330
C
100
AcDbXrecord
280
     1
 90
        1
330
87
330
D97
  0
DICTIONARY
  5
66
102
{ACAD_REACTORS
330
C
102
}
330
C
100
AcDbDictionary
281
     1
  3
CANNOSCALE
350
24A
  3
CMLEADERSTYLE
350
248
  3
CTABLESTYLE
350
89
  3
DIMASSOC
350
67
  3
HIDETEXT
350
6B
  3
INDEXCTL
350
B30
  3
LAYEREVAL
350
24C
  3
LAYERNOTIFY
350
24D
  3
LIGHTINGUNITS
350
24B
  3
MSLTSCALE
350
249
  3
SORTENTS
350
B2F
  3
XCLIPFRAME
350
2239
  0
DICTIONARY
  5
12D1
102
{ACAD_REACTORS
330
C
102
}
330
C
100
AcDbDictionary
281
     1
  0
XRECORD
  5
2307
102
{ACAD_REACTORS
330
C
102
}
330
C
100
AcDbXrecord
280
     1
  1
DWGPROPS COOKIE
  2

  3

  4

  6

  7

  8
imamura
  9

300
=
301
=
302
=
303
=
304
=
305
=
306
=
307
=
308
=
309
=
 40
0.3395243865740741
 41
2458365.546744375
 42
2458746.590017778
  1

 90
        0
  0
DICTIONARY
  5
DE
102
{ACAD_REACTORS
330
DD
102
}
330
DD
100
AcDbDictionary
281
     1
  0
XRECORD
  5
166E
102
{ACAD_REACTORS
330
8E9
102
}
330
8E9
100
AcDbXrecord
280
     1
290
     1
  0
SORTENTSTABLE
  5
325
102
{ACAD_REACTORS
330
324
102
}
330
324
100
AcDbSortentsTable
330
1F
331
22F4
  5
1D6A
331
188F
  5
1904
331
18EE
  5
191E
331
22F0
  5
1D71
331
22B1
  5
1A1F
331
172D
  5
1832
331
1854
  5
187A
331
22EC
  5
2296
331
1887
  5
1900
331
1850
  5
189F
331
22E8
  5
229C
331
1883
  5
18FB
331
163D
  5
172D
331
1337
  5
1337
331
1376
  5
1376
331
1372
  5
1372
331
12FC
  5
12FC
331
1AD7
  5
22DE
331
1427
  5
142F
331
1606
  5
1617
331
1333
  5
1333
331
132F
  5
132F
331
136E
  5
136E
331
12F8
  5
12F8
331
1AD3
  5
22C8
331
1423
  5
142A
331
1994
  5
19BC
331
1602
  5
1609
331
1965
  5
197F
331
1926
  5
1943
331
13AD
  5
13AD
331
132B
  5
132B
331
136A
  5
136A
331
15FE
  5
1604
331
13E8
  5
13F3
331
13A9
  5
13A9
331
1922
  5
193E
331
1961
  5
197C
331
1990
  5
184F
331
141F
  5
1425
331
12F4
  5
12F4
331
12F0
  5
12F0
331
141B
  5
1421
331
15FA
  5
1600
331
13E4
  5
13E4
331
13A5
  5
13A5
331
1C86
  5
22E4
331
191E
  5
193D
331
195D
  5
1978
331
198C
  5
187F
331
1988
  5
199F
331
13A1
  5
13A1
331
191A
  5
1939
331
1959
  5
1974
331
22E4
  5
229F
331
22A5
  5
2287
331
187F
  5
18A3
331
18DE
  5
1913
331
22E0
  5
22A4
331
184C
  5
189D
331
187B
  5
18A5
331
1877
  5
184D
331
1631
  5
1641
331
1848
  5
189B
331
22D8
  5
22B6
331
1844
  5
187C
331
18D2
  5
190F
331
162D
  5
1634
331
1327
  5
1327
331
1366
  5
1366
331
1362
  5
1362
331
12EC
  5
12EC
331
1417
  5
141F
331
15F6
  5
15FC
331
1323
  5
1323
331
135E
  5
135E
331
12E8
  5
12E8
331
13DC
  5
13DC
331
1984
  5
1981
331
1413
  5
141B
331
15F2
  5
15F8
331
1955
  5
196E
331
1916
  5
1933
331
139D
  5
139D
331
131F
  5
131F
331
131B
  5
131B
331
135A
  5
135A
331
15EE
  5
15F4
331
13D8
  5
13D8
331
1399
  5
1399
331
1912
  5
192F
331
1951
  5
1931
331
1980
  5
199E
331
12E4
  5
12E4
331
12E0
  5
12E0
331
1395
  5
1395
331
190E
  5
192B
331
194D
  5
1958
331
13D4
  5
13D4
331
1642
  5
1737
331
1391
  5
1391
331
190A
  5
1928
331
1949
  5
1967
331
13D0
  5
13D0
331
2295
  5
22BD
331
22D0
  5
22C2
331
18CA
  5
190E
331
183C
  5
1846
331
186B
  5
18F0
331
22CC
  5
22CD
331
2303
  5
22AC
331
1867
  5
1874
331
18C6
  5
190C
331
1619
  5
1633
331
1838
  5
188D
331
22C8
  5
22D1
331
1863
  5
18AC
331
18C2
  5
190A
331
1615
  5
162F
331
1317
  5
1317
331
1356
  5
1356
331
1407
  5
140F
331
12DC
  5
12DC
331
1313
  5
1313
331
1352
  5
1352
331
134E
  5
134E
331
12D8
  5
12D8
331
13CC
  5
13CC
331
197C
  5
1999
331
1403
  5
140C
331
144A
  5
15ED
331
1945
  5
196A
331
138D
  5
138D
331
130F
  5
130F
331
130B
  5
130B
331
134A
  5
134A
331
19BF
  5
2284
331
13FF
  5
1405
331
1389
  5
1389
331
1941
  5
1965
331
1978
  5
1994
331
13C8
  5
13C8
331
1902
  5
1898
331
19BB
  5
188F
331
13C4
  5
13C4
331
1385
  5
1385
331
1D75
  5
22F6
331
18FE
  5
1925
331
193D
  5
1962
331
1974
  5
198F
331
13FB
  5
1401
331
1970
  5
198B
331
1381
  5
1381
331
1D71
  5
22F1
331
18FA
  5
1924
331
1939
  5
195E
331
13C0
  5
13C0
331
1D6D
  5
22ED
331
1D69
  5
22E9
331
22C4
  5
22D6
331
18BE
  5
1873
331
22FF
  5
22FB
331
22C0
  5
22DC
331
1834
  5
184E
331
22FB
  5
1A37
331
18B6
  5
1907
331
1830
  5
1842
331
185F
  5
18A8
331
22B8
  5
22FE
331
1734
  5
183D
331
1730
  5
183B
331
1346
  5
1346
331
1436
  5
144A
331
1342
  5
1342
331
133E
  5
133E
331
137D
  5
137D
331
13BC
  5
13BC
331
199B
  5
19C1
331
1307
  5
1307
331
1935
  5
1954
331
1303
  5
1303
331
133A
  5
133A
331
1931
  5
194F
331
13B8
  5
13B8
331
13F7
  5
13FD
331
1379
  5
1379
331
142A
  5
1431
331
1609
  5
1619
331
192D
  5
194B
331
13B4
  5
13B4
331
13F3
  5
13F9
331
13B0
  5
13B0
331
1929
  5
1947
331
1968
  5
1985
331
1C89
  5
22E7
331
22F7
  5
1CF9
331
22F3
  5
227E
331
1857
  5
18A2
331
188E
  5
1903
331
22EF
  5
2291
331
22B0
  5
1A07
331
18E9
  5
191A
331
1853
  5
18A1
331
22EB
  5
2295
331
22AC
  5
1CFE
331
1886
  5
18FF
331
1882
  5
18FA
331
12FF
  5
12FF
331
1336
  5
1336
331
1375
  5
1375
331
1371
  5
1371
331
12FB
  5
12FB
331
1AD6
  5
22D9
331
1426
  5
142D
331
1997
  5
19B8
331
13EF
  5
13F7
331
1605
  5
1616
331
1332
  5
1332
331
132E
  5
132E
331
136D
  5
136D
331
12F7
  5
12F7
331
1AD2
  5
22C9
331
1422
  5
1429
331
13AC
  5
13AC
331
1993
  5
19BD
331
13EB
  5
13F4
331
1601
  5
1608
331
1925
  5
1942
331
12F3
  5
12F3
331
15FD
  5
1603
331
132A
  5
132A
331
1369
  5
1369
331
13E7
  5
13F1
331
13A8
  5
13A8
331
1960
  5
197B
331
198F
  5
1879
331
141E
  5
1424
331
141A
  5
1420
331
15F9
  5
15FF
331
13A4
  5
13A4
331
191D
  5
193C
331
195C
  5
1977
331
198B
  5
1870
331
13A0
  5
13A0
331
1919
  5
1937
331
1958
  5
1973
331
227E
  5
2303
331
1C15
  5
22E3
331
22E7
  5
229B
331
22E3
  5
229E
331
22A4
  5
2286
331
187E
  5
18A7
331
18DD
  5
1912
331
22DF
  5
22A3
331
22A0
  5
229D
331
184B
  5
189C
331
187A
  5
18B5
331
22DB
  5
22B2
331
1876
  5
1845
331
1630
  5
1640
331
2298
  5
22B7
331
1843
  5
1883
331
12EF
  5
12EF
331
1326
  5
1326
331
1365
  5
1365
331
1361
  5
1361
331
12EB
  5
12EB
331
13DF
  5
13DF
331
1987
  5
186C
331
1416
  5
141E
331
15F5
  5
15FB
331
1322
  5
1322
331
131E
  5
131E
331
135D
  5
135D
331
12E7
  5
12E7
331
13DB
  5
13DB
331
1983
  5
1982
331
15F1
  5
15F7
331
1954
  5
196D
331
139C
  5
139C
331
131A
  5
131A
331
1359
  5
1359
331
15ED
  5
15F3
331
1398
  5
1398
331
1911
  5
192E
331
1950
  5
195A
331
13D7
  5
13D7
331
140E
  5
1415
331
12E3
  5
12E3
331
140A
  5
1411
331
1394
  5
1394
331
190D
  5
192A
331
194C
  5
1960
331
13D3
  5
13D3
331
1641
  5
1731
331
1390
  5
1390
331
1948
  5
196C
331
1D78
  5
22F9
331
22D7
  5
22B5
331
22D3
  5
22C0
331
183F
  5
1860
331
22CF
  5
22C1
331
18C9
  5
190D
331
183B
  5
1893
331
186A
  5
18EF
331
22CB
  5
22CC
331
2302
  5
22AB
331
1866
  5
1875
331
1618
  5
1632
331
1862
  5
18AA
331
12DF
  5
12DF
331
1316
  5
1316
331
1355
  5
1355
331
1351
  5
1351
331
12DB
  5
12DB
331
144D
  5
15F0
331
1312
  5
1312
331
197F
  5
199D
331
13CF
  5
13CF
331
134D
  5
134D
331
12D7
  5
12D7
331
19C2
  5
22A9
331
1402
  5
140A
331
197B
  5
1998
331
13CB
  5
13CB
331
1449
  5
15EC
331
1944
  5
1961
331
138C
  5
138C
331
130E
  5
130E
331
130A
  5
130A
331
1349
  5
1349
331
19BE
  5
227F
331
13FE
  5
1404
331
1388
  5
1388
331
1901
  5
185C
331
1940
  5
1955
331
1977
  5
1993
331
13C7
  5
13C7
331
1439
  5
144C
331
19BA
  5
188E
331
13C3
  5
13C3
331
1384
  5
1384
331
1D74
  5
22F4
331
193C
  5
195F
331
1973
  5
198E
331
13FA
  5
1400
331
1D70
  5
22F0
331
18F9
  5
1923
331
1380
  5
1380
331
1D6C
  5
22EC
331
1D68
  5
22E8
331
22C7
  5
22D0
331
22C3
  5
22D5
331
1837
  5
188C
331
22FE
  5
22FA
331
22BF
  5
22DB
331
18B9
  5
1895
331
1833
  5
1862
331
22BB
  5
22FC
331
22FA
  5
1C89
331
185E
  5
18A6
331
18B5
  5
1906
331
18F4
  5
1922
331
1737
  5
161A
331
185A
  5
18A4
331
18F0
  5
1848
331
1345
  5
1345
331
199E
  5
19BB
331
1435
  5
1449
331
13BF
  5
13BF
331
1341
  5
1341
331
133D
  5
133D
331
137C
  5
137C
331
1934
  5
1952
331
13BB
  5
13BB
331
199A
  5
19BE
331
1431
  5
143C
331
1306
  5
1306
331
1302
  5
1302
331
1339
  5
1339
331
1378
  5
1378
331
13B7
  5
13B7
331
1930
  5
194E
331
196F
  5
198A
331
13F6
  5
13FC
331
142D
  5
1436
331
1429
  5
1430
331
1608
  5
1618
331
192C
  5
194A
331
13B3
  5
13B3
331
1928
  5
1945
331
1C88
  5
22E6
331
22B7
  5
2302
331
22F6
  5
1D6F
331
22F2
  5
1D76
331
18EC
  5
1847
331
172F
  5
183A
331
188D
  5
1902
331
22EE
  5
228E
331
18E8
  5
1919
331
1852
  5
18A0
331
22EA
  5
2292
331
22AB
  5
1D68
331
1885
  5
18FE
331
18E4
  5
1918
331
163F
  5
172F
331
1881
  5
18F9
331
18E0
  5
1917
331
12FE
  5
12FE
331
1335
  5
1335
331
1374
  5
1374
331
1370
  5
1370
331
12FA
  5
12FA
331
1AD5
  5
22D8
331
1425
  5
142C
331
1996
  5
19BA
331
13EE
  5
13F6
331
1604
  5
160F
331
1967
  5
1984
331
13AF
  5
13AF
331
1331
  5
1331
331
132D
  5
132D
331
136C
  5
136C
331
12F6
  5
12F6
331
1AD1
  5
22CA
331
1421
  5
1427
331
1963
  5
197E
331
13AB
  5
13AB
331
1924
  5
1941
331
1600
  5
1606
331
12F2
  5
12F2
331
15FC
  5
1602
331
1329
  5
1329
331
1368
  5
1368
331
13E6
  5
13EF
331
13A7
  5
13A7
331
195F
  5
197A
331
198E
  5
187D
331
141D
  5
1423
331
15F8
  5
15FE
331
13A3
  5
13A3
331
191C
  5
193B
331
195B
  5
1976
331
13E2
  5
13E2
331
1918
  5
1935
331
1C14
  5
22E2
331
1C10
  5
22E0
331
22E6
  5
229A
331
22E2
  5
22A1
331
18DC
  5
1911
331
187D
  5
18ED
331
22DE
  5
22A8
331
229F
  5
2299
331
1633
  5
1643
331
1879
  5
18AD
331
22DA
  5
22AF
331
229B
  5
22AD
331
162F
  5
163F
331
1842
  5
1884
331
12EE
  5
12EE
331
1325
  5
1325
331
1364
  5
1364
331
1360
  5
1360
331
12EA
  5
12EA
331
13DE
  5
13DE
331
1986
  5
186D
331
1415
  5
141D
331
15F4
  5
15FA
331
139F
  5
139F
331
1321
  5
1321
331
1957
  5
1972
331
131D
  5
131D
331
135C
  5
135C
331
12E6
  5
12E6
331
13DA
  5
13DA
331
139B
  5
139B
331
1982
  5
186E
331
1411
  5
141A
331
15F0
  5
15F6
331
12E2
  5
12E2
331
15EC
  5
15F2
331
1319
  5
1319
331
1358
  5
1358
331
1397
  5
1397
331
1910
  5
192D
331
194F
  5
195D
331
13D6
  5
13D6
331
140D
  5
1414
331
1393
  5
1393
331
1640
  5
1730
331
190C
  5
1929
331
194B
  5
1956
331
13D2
  5
13D2
331
1908
  5
1886
331
22D6
  5
22BA
331
22D2
  5
22BF
331
183E
  5
1864
331
186D
  5
18F6
331
22CE
  5
22C6
331
228F
  5
22C4
331
1869
  5
18AE
331
22CA
  5
22CB
331
2301
  5
22BC
331
1865
  5
18B6
331
1617
  5
1631
331
1315
  5
1315
331
1354
  5
1354
331
1350
  5
1350
331
12DA
  5
12DA
331
13CE
  5
13CE
331
197E
  5
199C
331
1405
  5
140E
331
144C
  5
15EF
331
138F
  5
138F
331
1311
  5
1311
331
1947
  5
196B
331
130D
  5
130D
331
134C
  5
134C
331
12D6
  5
12D6
331
19C1
  5
22A6
331
1401
  5
1408
331
197A
  5
1997
331
13CA
  5
13CA
331
1448
  5
15EB
331
1943
  5
1963
331
1904
  5
1926
331
138B
  5
138B
331
143C
  5
144D
331
1309
  5
1309
331
1348
  5
1348
331
13FD
  5
1403
331
13C6
  5
13C6
331
1387
  5
1387
331
1D77
  5
22F8
331
1900
  5
1897
331
193F
  5
1957
331
1976
  5
1991
331
19BD
  5
1A07
331
13F9
  5
13FF
331
19B9
  5
1891
331
13C2
  5
13C2
331
1383
  5
1383
331
1D73
  5
22F3
331
193B
  5
1959
331
1972
  5
198D
331
1D6F
  5
22EF
331
18F8
  5
1892
331
1D6B
  5
22EB
331
22C6
  5
22CF
331
22C2
  5
22D4
331
1836
  5
1885
331
22BE
  5
22DA
331
22FD
  5
1AD8
331
18B8
  5
18EC
331
18F7
  5
184B
331
1832
  5
185F
331
22BA
  5
2300
331
22F9
  5
1C88
331
18B4
  5
1905
331
18F3
  5
191C
331
1344
  5
1344
331
1340
  5
1340
331
137F
  5
137F
331
199D
  5
19B9
331
13BE
  5
13BE
331
133C
  5
133C
331
137B
  5
137B
331
1933
  5
1951
331
13BA
  5
13BA
331
1999
  5
19C0
331
1430
  5
1439
331
1305
  5
1305
331
142C
  5
1435
331
1301
  5
1301
331
1338
  5
1338
331
13B6
  5
13B6
331
1D67
  5
13EE
331
192F
  5
194D
331
196E
  5
1989
331
13F5
  5
13FB
331
1AD8
  5
22DF
331
13B2
  5
13B2
331
192B
  5
1949
331
196A
  5
1987
331
13F1
  5
13F8
331
22B6
  5
2301
331
22F5
  5
1D6D
331
18EF
  5
184C
331
22F1
  5
1D73
331
22B2
  5
1A37
331
18EB
  5
191B
331
172E
  5
1836
331
1855
  5
187E
331
188C
  5
1901
331
22ED
  5
2289
331
22E9
  5
2297
331
22AA
  5
1CFA
331
1884
  5
18FC
331
163E
  5
172E
331
1880
  5
18F8
331
1377
  5
1377
331
1373
  5
1373
331
12FD
  5
12FD
331
1334
  5
1334
331
136F
  5
136F
331
12F9
  5
12F9
331
1AD4
  5
22D3
331
1424
  5
142B
331
1603
  5
160A
331
1966
  5
1983
331
1927
  5
1944
331
13AE
  5
13AE
331
1330
  5
1330
331
132C
  5
132C
331
136B
  5
136B
331
15FF
  5
1605
331
13AA
  5
13AA
331
1923
  5
193F
331
1962
  5
197D
331
1991
  5
1850
331
1420
  5
1426
331
12F5
  5
12F5
331
12F1
  5
12F1
331
15FB
  5
1601
331
1328
  5
1328
331
13E5
  5
13E5
331
13A6
  5
13A6
331
1C87
  5
22E5
331
195E
  5
1979
331
198D
  5
187B
331
141C
  5
1422
331
1989
  5
19B7
331
13A2
  5
13A2
331
191B
  5
193A
331
195A
  5
1975
331
1C13
  5
22E1
331
22E5
  5
22A0
331
22A6
  5
2288
331
18DF
  5
1916
331
22E1
  5
22A5
331
18DB
  5
1910
331
184D
  5
189E
331
187C
  5
18A9
331
22DD
  5
22A7
331
229E
  5
2298
331
1878
  5
18AB
331
1632
  5
1642
331
22D9
  5
22AE
331
18D3
  5
1894
331
162E
  5
163E
331
1845
  5
1878
331
1367
  5
1367
331
12ED
  5
12ED
331
15F7
  5
15FD
331
1324
  5
1324
331
1363
  5
1363
331
135F
  5
135F
331
12E9
  5
12E9
331
13DD
  5
13DD
331
1985
  5
1980
331
1414
  5
141C
331
15F3
  5
15F9
331
1956
  5
196F
331
1917
  5
1934
331
139E
  5
139E
331
1320
  5
1320
331
131C
  5
131C
331
135B
  5
135B
331
12E5
  5
12E5
331
139A
  5
139A
331
1952
  5
195C
331
13D9
  5
13D9
331
1410
  5
1417
331
1913
  5
1930
331
15EF
  5
15F5
331
12E1
  5
12E1
331
15EB
  5
15F1
331
1318
  5
1318
331
1396
  5
1396
331
190F
  5
192C
331
194E
  5
1964
331
13D5
  5
13D5
331
1643
  5
1830
331
140C
  5
1413
331
1408
  5
1410
331
1392
  5
1392
331
190B
  5
1927
331
194A
  5
1969
331
13D1
  5
13D1
331
22D5
  5
22B9
331
22D1
  5
22C3
331
2292
  5
22BE
331
183D
  5
1854
331
186C
  5
18F5
331
228E
  5
22C7
331
22CD
  5
22C5
331
1839
  5
1896
331
1868
  5
18AF
331
22C9
  5
22CE
331
2300
  5
22BB
331
1864
  5
18B4
331
18C3
  5
190B
331
1616
  5
1630
331
1357
  5
1357
331
1314
  5
1314
331
1353
  5
1353
331
134F
  5
134F
331
12D9
  5
12D9
331
13CD
  5
13CD
331
197D
  5
199B
331
1404
  5
140D
331
144B
  5
15EE
331
1907
  5
1852
331
138E
  5
138E
331
1310
  5
1310
331
130C
  5
130C
331
134B
  5
134B
331
19C0
  5
22A2
331
1400
  5
1407
331
138A
  5
138A
331
1942
  5
1968
331
1979
  5
1996
331
13C9
  5
13C9
331
12D5
  5
12D5
331
1903
  5
1899
331
1308
  5
1308
331
19BC
  5
186A
331
13C5
  5
13C5
331
1386
  5
1386
331
1D76
  5
22F7
331
18FF
  5
1855
331
193E
  5
1932
331
1975
  5
1990
331
13FC
  5
1402
331
13F8
  5
13FE
331
19B8
  5
1866
331
13C1
  5
13C1
331
1382
  5
1382
331
1D72
  5
22F2
331
193A
  5
195B
331
1971
  5
198C
331
1D6E
  5
22EE
331
1D6A
  5
22EA
331
22C5
  5
22D2
331
18BF
  5
1872
331
22C1
  5
22D7
331
1835
  5
1887
331
22BD
  5
22DD
331
22FC
  5
1A68
331
18B7
  5
1908
331
22B9
  5
22FF
331
22F8
  5
1ADD
331
18F2
  5
191D
331
1347
  5
1347
331
1437
  5
144B
331
1343
  5
1343
331
133F
  5
133F
331
137E
  5
137E
331
13BD
  5
13BD
331
199C
  5
19BF
331
1433
  5
1448
331
1304
  5
1304
331
160E
  5
162E
331
133B
  5
133B
331
137A
  5
137A
331
1932
  5
1950
331
13B9
  5
13B9
331
142F
  5
1437
331
142B
  5
1433
331
1300
  5
1300
331
13B5
  5
13B5
331
192E
  5
194C
331
196D
  5
1988
331
13F4
  5
13FA
331
13B1
  5
13B1
331
192A
  5
1948
331
1969
  5
1986
331
2283
  5
22FD
  0
SORTENTSTABLE
  5
F2D
102
{ACAD_REACTORS
330
F2C
102
}
330
F2C
100
AcDbSortentsTable
330
E22
  0
SORTENTSTABLE
  5
F38
102
{ACAD_REACTORS
330
F37
102
}
330
F37
100
AcDbSortentsTable
330
F36
  0
XRECORD
  5
230A
102
{ACAD_REACTORS
330
2308
102
}
330
2308
100
AcDbXrecord
280
     1
 70
     2
  0
XRECORD
  5
2309
102
{ACAD_REACTORS
330
2308
102
}
330
2308
100
AcDbXrecord
280
     1
 40
1.25
  0
XRECORD
  5
230B
102
{ACAD_REACTORS
330
2308
102
}
330
2308
100
AcDbXrecord
280
     1
 40
1.570796326794896
  0
LAYOUT
  5
22
102
{ACAD_XDICTIONARY
360
230C
102
}
102
{ACAD_REACTORS
330
1A
102
}
330
1A
100
AcDbPlotSettings
  1

  2
none_device
  4
ANSI_A_(8.50_x_11.00_Inches)
  6

 40
6.349999904632567
 41
19.04999923706055
 42
6.350006103515625
 43
19.04998779296875
 44
215.8999938964844
 45
279.3999938964844
 46
0.0
 47
0.0
 48
0.0
 49
0.0
140
0.0
141
0.0
142
1.0
143
2.584895464708373
 70
 11952
 72
     0
 73
     1
 74
     0
  7

 75
     0
147
0.3868628397755418
148
0.0
149
0.0
100
AcDbLayout
  1
Model
 70
     1
 71
     0
 10
0.0
 20
0.0
 11
12.0
 21
9.0
 12
0.0
 22
0.0
 32
0.0
 14
0.0
 24
0.0
 34
0.0
 15
0.0
 25
0.0
 35
0.0
146
0.0
 13
0.0
 23
0.0
 33
0.0
 16
1.0
 26
0.0
 36
0.0
 17
0.0
 27
1.0
 37
0.0
 76
     0
330
1F
331
94
  0
LAYOUT
  5
59
102
{ACAD_XDICTIONARY
360
230E
102
}
102
{ACAD_REACTORS
330
1A
102
}
330
1A
100
AcDbPlotSettings
  1

  2
None
  4

  6

 40
0.0
 41
0.0
 42
0.0
 43
0.0
 44
0.0
 45
0.0
 46
0.0
 47
0.0
 48
0.0
 49
0.0
140
0.0
141
0.0
142
1.0
143
1.0
 70
   688
 72
     0
 73
     0
 74
     5
  7

 75
    16
147
1.0
148
0.0
149
0.0
100
AcDbLayout
  1
レイアウト1
 70
     1
 71
     1
 10
0.0
 20
0.0
 11
12.0
 21
9.0
 12
0.0
 22
0.0
 32
0.0
 14
0.0
 24
0.0
 34
0.0
 15
0.0
 25
0.0
 35
0.0
146
0.0
 13
0.0
 23
0.0
 33
0.0
 16
1.0
 26
0.0
 36
0.0
 17
0.0
 27
1.0
 37
0.0
 76
     0
330
58
  0
LAYOUT
  5
5E
102
{ACAD_XDICTIONARY
360
2310
102
}
102
{ACAD_REACTORS
330
1A
102
}
330
1A
100
AcDbPlotSettings
  1

  2
None
  4

  6

 40
0.0
 41
0.0
 42
0.0
 43
0.0
 44
0.0
 45
0.0
 46
0.0
 47
0.0
 48
0.0
 49
0.0
140
0.0
141
0.0
142
1.0
143
1.0
 70
   688
 72
     0
 73
     0
 74
     5
  7

 75
    16
147
1.0
148
0.0
149
0.0
100
AcDbLayout
  1
レイアウト2
 70
     1
 71
     2
 10
0.0
 20
0.0
 11
12.0
 21
9.0
 12
0.0
 22
0.0
 32
0.0
 14
0.0
 24
0.0
 34
0.0
 15
0.0
 25
0.0
 35
0.0
146
0.0
 13
0.0
 23
0.0
 33
0.0
 16
1.0
 26
0.0
 36
0.0
 17
0.0
 27
1.0
 37
0.0
 76
     0
330
5D
  0
MATERIAL
  5
97
102
{ACAD_XDICTIONARY
360
16CB
102
}
102
{ACAD_REACTORS
330
72
102
}
330
72
100
AcDbMaterial
  1
ByBlock
 73
     1
 78
     1
172
     1
176
     1
270
     1
274
     1
  0
MATERIAL
  5
96
102
{ACAD_XDICTIONARY
360
16C9
102
}
102
{ACAD_REACTORS
330
72
102
}
330
72
100
AcDbMaterial
  1
ByLayer
 73
     1
 78
     1
172
     1
176
     1
270
     1
274
     1
  0
MATERIAL
  5
98
102
{ACAD_XDICTIONARY
360
16CD
102
}
102
{ACAD_REACTORS
330
72
102
}
330
72
100
AcDbMaterial
  1
Global
 73
     1
 78
     1
172
     1
176
     1
270
     1
274
     1
  0
MLEADERSTYLE
  5
169
102
{ACAD_REACTORS
330
168
102
}
330
168
100
AcDbMLeaderStyle
170
     2
171
     1
172
     0
 90
        2
 40
0.0
 41
0.0
173
     1
 91
-1056964608
340
14
 92
       -2
290
     1
 42
2.0
291
     1
 43
0.36
  3
Standard
 44
4.0
300

342
11
174
     1
178
     6
175
     1
176
     0
 93
-1056964608
 45
4.0
292
     0
297
     0
 46
4.0
 94
-1056964608
 47
1.0
 49
1.0
140
1.0
293
     1
141
0.0
294
     1
177
     0
142
1.0
295
     0
296
     0
143
0.125
1001
ACAD_MLEADERVER
1070
     2
  0
MLINESTYLE
  5
18
102
{ACAD_REACTORS
330
17
102
}
330
17
100
AcDbMlineStyle
  2
STANDARD
 70
     0
  3

 62
   256
 51
90.0
 52
90.0
 71
     2
 49
0.5
 62
   256
  6
BYLAYER
 49
-0.5
 62
   256
  6
BYLAYER
  0
ACDBPLACEHOLDER
  5
F
102
{ACAD_REACTORS
330
E
102
}
330
E
  0
SCALE
  5
157
102
{ACAD_REACTORS
330
156
102
}
330
156
100
AcDbScale
 70
     0
300
1:1
140
1.0
141
1.0
290
     1
  0
SCALE
  5
158
102
{ACAD_REACTORS
330
156
102
}
330
156
100
AcDbScale
 70
     0
300
1:2
140
1.0
141
2.0
290
     0
  0
SCALE
  5
159
102
{ACAD_REACTORS
330
156
102
}
330
156
100
AcDbScale
 70
     0
300
1:4
140
1.0
141
4.0
290
     0
  0
SCALE
  5
15A
102
{ACAD_REACTORS
330
156
102
}
330
156
100
AcDbScale
 70
     0
300
1:5
140
1.0
141
5.0
290
     0
  0
SCALE
  5
15B
102
{ACAD_REACTORS
330
156
102
}
330
156
100
AcDbScale
 70
     0
300
1:8
140
1.0
141
8.0
290
     0
  0
SCALE
  5
15C
102
{ACAD_REACTORS
330
156
102
}
330
156
100
AcDbScale
 70
     0
300
1:10
140
1.0
141
10.0
290
     0
  0
SCALE
  5
15D
102
{ACAD_REACTORS
330
156
102
}
330
156
100
AcDbScale
 70
     0
300
1:16
140
1.0
141
16.0
290
     0
  0
SCALE
  5
15E
102
{ACAD_REACTORS
330
156
102
}
330
156
100
AcDbScale
 70
     0
300
1:20
140
1.0
141
20.0
290
     0
  0
SCALE
  5
15F
102
{ACAD_REACTORS
330
156
102
}
330
156
100
AcDbScale
 70
     0
300
1:30
140
1.0
141
30.0
290
     0
  0
SCALE
  5
160
102
{ACAD_REACTORS
330
156
102
}
330
156
100
AcDbScale
 70
     0
300
1:40
140
1.0
141
40.0
290
     0
  0
SCALE
  5
161
102
{ACAD_REACTORS
330
156
102
}
330
156
100
AcDbScale
 70
     0
300
1:50
140
1.0
141
50.0
290
     0
  0
SCALE
  5
162
102
{ACAD_REACTORS
330
156
102
}
330
156
100
AcDbScale
 70
     0
300
1:100
140
1.0
141
100.0
290
     0
  0
SCALE
  5
163
102
{ACAD_REACTORS
330
156
102
}
330
156
100
AcDbScale
 70
     0
300
2:1
140
2.0
141
1.0
290
     0
  0
SCALE
  5
164
102
{ACAD_REACTORS
330
156
102
}
330
156
100
AcDbScale
 70
     0
300
4:1
140
4.0
141
1.0
290
     0
  0
SCALE
  5
165
102
{ACAD_REACTORS
330
156
102
}
330
156
100
AcDbScale
 70
     0
300
8:1
140
8.0
141
1.0
290
     0
  0
SCALE
  5
166
102
{ACAD_REACTORS
330
156
102
}
330
156
100
AcDbScale
 70
     0
300
10:1
140
10.0
141
1.0
290
     0
  0
SCALE
  5
167
102
{ACAD_REACTORS
330
156
102
}
330
156
100
AcDbScale
 70
     0
300
100:1
140
100.0
141
1.0
290
     0
  0
TABLESTYLE
  5
87
102
{ACAD_XDICTIONARY
360
AE1
102
}
102
{ACAD_REACTORS
330
86
102
}
330
86
100
AcDbTableStyle
  3
Standard
 70
     0
 71
     0
 40
0.06
 41
0.06
280
     0
281
     0
  7
Standard
140
0.18
170
     2
 62
     0
 63
     7
283
     0
274
    -2
284
     1
 64
     0
275
    -2
285
     1
 65
     0
276
    -2
286
     1
 66
     0
277
    -2
287
     1
 67
     0
278
    -2
288
     1
 68
     0
279
    -2
289
     1
 69
     0
  7
Standard
140
0.25
170
     5
 62
     0
 63
     7
283
     0
274
    -2
284
     1
 64
     0
275
    -2
285
     1
 65
     0
276
    -2
286
     1
 66
     0
277
    -2
287
     1
 67
     0
278
    -2
288
     1
 68
     0
279
    -2
289
     1
 69
     0
  7
Standard
140
0.18
170
     5
 62
     0
 63
     7
283
     0
274
    -2
284
     1
 64
     0
275
    -2
285
     1
 65
     0
276
    -2
286
     1
 66
     0
277
    -2
287
     1
 67
     0
278
    -2
288
     1
 68
     0
279
    -2
289
     1
 69
     0
  0
TABLESTYLE
  5
D97
102
{ACAD_XDICTIONARY
360
D98
102
}
102
{ACAD_REACTORS
330
86
102
}
330
86
100
AcDbTableStyle
  3
Standard
 70
     1
 71
     0
 40
1.5
 41
0.5
280
     0
281
     0
  7
高3.2
140
0.18
170
     7
 62
     3
 63
     7
283
     0
274
    -2
284
     1
 64
     3
275
    -2
285
     1
 65
     7
276
    -2
286
     1
 66
     3
277
    -2
287
     1
 67
     3
278
    -2
288
     1
 68
     7
279
    -2
289
     1
 69
     3
  7
高3.2
140
0.25
170
     8
 62
     3
 63
     7
283
     0
274
    -2
284
     1
 64
     0
275
    -2
285
     1
 65
     0
276
    -2
286
     1
 66
     0
277
    -2
287
     1
 67
     0
278
    -2
288
     1
 68
     0
279
    -2
289
     1
 69
     0
  7
高3.2
140
0.18
170
     7
 62
     3
 63
     7
283
     0
274
    -2
284
     1
 64
     3
275
    -2
285
     1
 65
     7
276
    -2
286
     1
 66
     3
277
    -2
287
     1
 67
     3
278
    -2
288
     1
 68
     7
279
    -2
289
     1
 69
     3
  0
VISUALSTYLE
  5
9F
102
{ACAD_XDICTIONARY
360
231D
102
}
102
{ACAD_REACTORS
330
99
102
}
330
99
100
AcDbVisualStyle
  2

 70
     4
 71
     0
 72
     2
 73
     1
 90
        0
 40
-0.6
 41
-30.0
 62
     5
 63
     7
 74
     1
 91
        4
 64
     7
 65
   257
 75
     1
175
     1
 42
1.0
 92
        0
 66
   257
 43
1.0
 76
     1
 77
     6
 78
     2
 67
     7
 79
     5
170
     0
171
     0
290
     0
174
     0
 93
        1
 44
0.0
173
     0
291
     0
 45
0.0
1001
ACAD
1000
AcDbSavedByObjectVersion
1070
     0
  0
VISUALSTYLE
  5
A1
102
{ACAD_XDICTIONARY
360
2321
102
}
102
{ACAD_REACTORS
330
99
102
}
330
99
100
AcDbVisualStyle
  2

 70
     6
 71
     1
 72
     2
 73
     2
 90
        0
 40
-0.6
 41
-30.0
 62
     5
 63
     7
 74
     2
 91
        2
 64
     7
 65
   257
 75
     2
175
     1
 42
40.0
 92
        0
 66
   257
 43
1.0
 76
     1
 77
     6
 78
     2
 67
     7
 79
     3
170
     0
171
     0
290
     0
174
     0
 93
        1
 44
0.0
173
     0
291
     0
 45
0.0
1001
ACAD
1000
AcDbSavedByObjectVersion
1070
     0
  0
VISUALSTYLE
  5
A0
102
{ACAD_XDICTIONARY
360
231F
102
}
102
{ACAD_REACTORS
330
99
102
}
330
99
100
AcDbVisualStyle
  2

 70
     5
 71
     0
 72
     2
 73
     1
 90
        0
 40
-0.6
 41
-30.0
 62
     5
 63
     7
 74
     1
 91
        4
 64
     7
 65
   257
 75
     1
175
     1
 42
1.0
 92
        0
 66
   257
 43
1.0
 76
     1
 77
     6
 78
     2
 67
     7
 79
     5
170
     0
171
     0
290
     0
174
     0
 93
        1
 44
0.0
173
     0
291
     0
 45
0.0
1001
ACAD
1000
AcDbSavedByObjectVersion
1070
     0
  0
VISUALSTYLE
  5
9E
102
{ACAD_XDICTIONARY
360
231B
102
}
102
{ACAD_REACTORS
330
99
102
}
330
99
100
AcDbVisualStyle
  2

 70
     7
 71
     1
 72
     0
 73
     1
 90
        0
 40
-0.6
 41
-30.0
 62
     5
 63
     7
 74
     0
 91
        4
 64
     7
 65
   257
 75
     1
175
     1
 42
1.0
 92
        8
 66
     7
 43
1.0
 76
     1
 77
     6
 78
     2
 67
     7
 79
     5
170
     0
171
     0
290
     0
174
     0
 93
        1
 44
0.0
173
     0
291
     1
 45
0.0
1001
ACAD
1000
AcDbSavedByObjectVersion
1070
     0
  0
VISUALSTYLE
  5
A5
102
{ACAD_XDICTIONARY
360
2329
102
}
102
{ACAD_REACTORS
330
99
102
}
330
99
100
AcDbVisualStyle
  2

 70
    12
 71
     2
 72
     2
 73
     1
 90
        0
 40
-0.6
 41
-30.0
 62
     5
 63
     7
 74
     1
 91
        4
 64
     7
 65
   257
 75
     1
175
     1
 42
1.0
 92
        8
 66
     7
 43
1.0
 76
     1
 77
     6
 78
     2
 67
     7
 79
     5
170
     0
171
     0
290
     0
174
     0
 93
        1
 44
50.0
173
     0
291
     1
 45
0.0
1001
ACAD
1000
AcDbSavedByObjectVersion
1070
     0
  0
VISUALSTYLE
  5
A9
102
{ACAD_XDICTIONARY
360
2331
102
}
102
{ACAD_REACTORS
330
99
102
}
330
99
100
AcDbVisualStyle
  2

 70
    16
 71
     2
 72
     2
 73
     3
 90
        0
 40
-0.6
 41
-30.0
 62
     5
 63
     8
 74
     1
 91
        4
 64
     7
 65
   257
 75
     1
175
     1
 42
1.0
 92
        8
 66
     8
 43
1.0
 76
     1
 77
     6
 78
     2
 67
     7
 79
     5
170
     0
171
     0
290
     0
174
     0
 93
        1
 44
0.0
173
     0
291
     1
 45
0.0
1001
ACAD
1000
AcDbSavedByObjectVersion
1070
     0
  0
VISUALSTYLE
  5
A2
102
{ACAD_XDICTIONARY
360
2323
102
}
102
{ACAD_REACTORS
330
99
102
}
330
99
100
AcDbVisualStyle
  2

 70
     9
 71
     3
 72
     2
 73
     1
 90
        0
 40
-0.6
 41
-30.0
 62
     5
 63
     7
 74
     2
 91
        2
 64
     7
 65
   257
 75
     1
175
     1
 42
40.0
 92
        8
 66
     7
 43
1.0
 76
     1
 77
     6
 78
     2
 67
     7
 79
     3
170
     0
171
     0
290
     0
174
     0
 93
        1
 44
0.0
173
     0
291
     0
 45
0.0
1001
ACAD
1000
AcDbSavedByObjectVersion
1070
     0
  0
VISUALSTYLE
  5
A4
102
{ACAD_XDICTIONARY
360
2327
102
}
102
{ACAD_REACTORS
330
99
102
}
330
99
100
AcDbVisualStyle
  2

 70
    11
 71
     2
 72
     2
 73
     1
 90
        0
 40
-0.6
 41
-30.0
 62
     5
 63
     7
 74
     1
 91
        4
 64
     7
 65
   257
 75
     1
175
     1
 42
1.0
 92
        8
 66
     7
 43
1.0
 76
     1
 77
     6
 78
     2
 67
     7
 79
     5
170
     0
171
     0
290
     0
174
     0
 93
        1
 44
-50.0
173
     0
291
     1
 45
0.0
1001
ACAD
1000
AcDbSavedByObjectVersion
1070
     0
  0
VISUALSTYLE
  5
155
102
{ACAD_XDICTIONARY
360
2345
102
}
102
{ACAD_REACTORS
330
99
102
}
330
99
100
AcDbVisualStyle
  2

 70
    22
 71
     2
 72
     2
 73
     0
 90
        0
 40
-0.6
 41
-30.0
 62
     5
 63
     7
 74
     1
 91
        4
 64
     7
 65
   257
 75
     1
175
     1
 42
1.0
 92
        8
 66
     7
 43
1.0
 76
     1
 77
     6
 78
     2
 67
     7
 79
     5
170
     0
171
     0
290
     0
174
     0
 93
        1
 44
0.0
173
     0
291
     1
 45
0.0
1001
ACAD
1000
AcDbSavedByObjectVersion
1070
     0
  0
VISUALSTYLE
  5
A8
102
{ACAD_XDICTIONARY
360
232F
102
}
102
{ACAD_REACTORS
330
99
102
}
330
99
100
AcDbVisualStyle
  2

 70
    15
 71
     2
 72
     2
 73
     1
 90
        0
 40
-0.6
 41
-30.0
 62
     5
 63
     7
 74
     1
 91
        4
 64
     7
 65
   257
 75
     1
175
     1
 42
1.0
 92
        8
 66
     7
 43
1.0
 76
     1
 77
     6
 78
     2
 67
     7
 79
     5
170
     0
171
     0
290
     0
174
     0
 93
        1
 44
0.0
173
     0
291
     1
 45
0.0
1001
ACAD
1000
AcDbSavedByObjectVersion
1070
     0
  0
VISUALSTYLE
  5
9A
102
{ACAD_XDICTIONARY
360
2313
102
}
102
{ACAD_REACTORS
330
99
102
}
330
99
100
AcDbVisualStyle
  2

 70
     0
 71
     2
 72
     1
 73
     1
 90
        2
 40
-0.6
 41
30.0
 62
     5
 63
     7
 74
     0
 91
        4
 64
     7
 65
   257
 75
     1
175
     1
 42
1.0
 92
        8
 66
     7
 43
1.0
 76
     1
 77
     6
 78
     2
 67
     7
 79
     5
170
     0
171
     0
290
     0
174
     0
 93
        1
 44
0.0
173
     0
291
     1
 45
0.0
1001
ACAD
1000
AcDbSavedByObjectVersion
1070
     0
  0
VISUALSTYLE
  5
9B
102
{ACAD_XDICTIONARY
360
2315
102
}
102
{ACAD_REACTORS
330
99
102
}
330
99
100
AcDbVisualStyle
  2

 70
     1
 71
     2
 72
     1
 73
     1
 90
        2
 40
-0.6
 41
30.0
 62
     5
 63
     7
 74
     1
 91
        4
 64
     7
 65
   257
 75
     1
175
     1
 42
1.0
 92
        0
 66
   257
 43
1.0
 76
     1
 77
     6
 78
     2
 67
     7
 79
     5
170
     0
171
     0
290
     0
174
     0
 93
        1
 44
0.0
173
     0
291
     1
 45
0.0
1001
ACAD
1000
AcDbSavedByObjectVersion
1070
     0
  0
VISUALSTYLE
  5
9C
102
{ACAD_XDICTIONARY
360
2317
102
}
102
{ACAD_REACTORS
330
99
102
}
330
99
100
AcDbVisualStyle
  2

 70
     2
 71
     2
 72
     2
 73
     1
 90
        2
 40
-0.6
 41
30.0
 62
     5
 63
     7
 74
     0
 91
        4
 64
     7
 65
   257
 75
     1
175
     1
 42
1.0
 92
        0
 66
     7
 43
1.0
 76
     1
 77
     6
 78
     2
 67
     7
 79
     5
170
     0
171
     0
290
     0
174
     0
 93
        1
 44
0.0
173
     0
291
     1
 45
0.0
1001
ACAD
1000
AcDbSavedByObjectVersion
1070
     0
  0
VISUALSTYLE
  5
9D
102
{ACAD_XDICTIONARY
360
2319
102
}
102
{ACAD_REACTORS
330
99
102
}
330
99
100
AcDbVisualStyle
  2

 70
     3
 71
     2
 72
     2
 73
     1
 90
        2
 40
-0.6
 41
30.0
 62
     5
 63
     7
 74
     1
 91
        4
 64
     7
 65
   257
 75
     1
175
     1
 42
1.0
 92
        0
 66
   257
 43
1.0
 76
     1
 77
     6
 78
     2
 67
     7
 79
     5
170
     0
171
     0
290
     0
174
     0
 93
        1
 44
0.0
173
     0
291
     1
 45
0.0
1001
ACAD
1000
AcDbSavedByObjectVersion
1070
     0
  0
VISUALSTYLE
  5
14D
102
{ACAD_XDICTIONARY
360
2335
102
}
102
{ACAD_REACTORS
330
99
102
}
330
99
100
AcDbVisualStyle
  2

 70
     6
 71
     1
 72
     2
 73
     2
 90
        0
 40
-0.6
 41
-30.0
 62
     5
 63
     7
 74
     2
 91
        2
 64
     7
 65
   257
 75
     2
175
     1
 42
40.0
 92
        0
 66
   257
 43
1.0
 76
     1
 77
     6
 78
     2
 67
     7
 79
     3
170
     0
171
     0
290
     0
174
     0
 93
        1
 44
0.0
173
     0
291
     0
 45
0.0
1001
ACAD
1000
AcDbSavedByObjectVersion
1070
     0
  0
VISUALSTYLE
  5
153
102
{ACAD_XDICTIONARY
360
2341
102
}
102
{ACAD_REACTORS
330
99
102
}
330
99
100
AcDbVisualStyle
  2

 70
    20
 71
     2
 72
     2
 73
     0
 90
        0
 40
-0.6
 41
-30.0
 62
     5
 63
     7
 74
     1
 91
        4
 64
     7
 65
   257
 75
     1
175
     1
 42
1.0
 92
       10
 66
     7
 43
1.0
 76
     1
 77
     6
 78
     2
 67
     7
 79
     5
170
     0
171
     0
290
     0
174
     0
 93
        1
 44
0.0
173
     0
291
     1
 45
0.0
1001
ACAD
1000
AcDbSavedByObjectVersion
1070
     0
  0
VISUALSTYLE
  5
A7
102
{ACAD_XDICTIONARY
360
232D
102
}
102
{ACAD_REACTORS
330
99
102
}
330
99
100
AcDbVisualStyle
  2

 70
    14
 71
     2
 72
     2
 73
     1
 90
        0
 40
-0.6
 41
-30.0
 62
     5
 63
     7
 74
     1
 91
        4
 64
     7
 65
   257
 75
     7
175
     7
 42
1.0
 92
        8
 66
     7
 43
1.0
 76
     1
 77
     6
 78
     2
 67
     7
 79
     5
170
     0
171
     0
290
     0
174
     0
 93
        1
 44
0.0
173
     0
291
     1
 45
0.0
1001
ACAD
1000
AcDbSavedByObjectVersion
1070
     0
  0
VISUALSTYLE
  5
154
102
{ACAD_XDICTIONARY
360
2343
102
}
102
{ACAD_REACTORS
330
99
102
}
330
99
100
AcDbVisualStyle
  2

 70
    21
 71
     2
 72
     2
 73
     0
 90
        0
 40
-0.6
 41
-30.0
 62
     5
 63
     7
 74
     1
 91
        4
 64
     7
 65
   257
 75
     1
175
     1
 42
1.0
 92
        9
 66
     7
 43
1.0
 76
     1
 77
     6
 78
     2
 67
     7
 79
     5
170
     0
171
     0
290
     0
174
     0
 93
        1
 44
0.0
173
     0
291
     1
 45
0.0
1001
ACAD
1000
AcDbSavedByObjectVersion
1070
     0
  0
VISUALSTYLE
  5
A3
102
{ACAD_XDICTIONARY
360
2325
102
}
102
{ACAD_REACTORS
330
99
102
}
330
99
100
AcDbVisualStyle
  2

 70
     8
 71
     2
 72
     2
 73
     1
 90
        0
 40
-0.6
 41
-30.0
 62
     5
 63
     7
 74
     1
 91
        0
 64
     7
 65
   257
 75
     1
175
     1
 42
1.0
 92
        8
 66
     8
 43
1.0
 76
     1
 77
     6
 78
     2
 67
     7
 79
     5
170
     0
171
     0
290
     0
174
     0
 93
       13
 44
0.0
173
     0
291
     0
 45
0.0
1001
ACAD
1000
AcDbSavedByObjectVersion
1070
     0
  0
VISUALSTYLE
  5
152
102
{ACAD_XDICTIONARY
360
233F
102
}
102
{ACAD_REACTORS
330
99
102
}
330
99
100
AcDbVisualStyle
  2

 70
    27
 71
     2
 72
     2
 73
     1
 90
        2
 40
-0.6
 41
30.0
 62
     5
 63
     7
 74
     0
 91
        4
 64
     7
 65
   257
 75
     1
175
     1
 42
1.0
 92
        8
 66
   257
 43
1.0
 76
     1
 77
     6
 78
     2
 67
     8
 79
     3
170
     0
171
     0
290
     0
174
     0
 93
        5
 44
0.0
173
     0
291
     0
 45
0.0
1001
ACAD
1000
AcDbSavedByObjectVersion
1070
     0
  0
VISUALSTYLE
  5
151
102
{ACAD_XDICTIONARY
360
233D
102
}
102
{ACAD_REACTORS
330
99
102
}
330
99
100
AcDbVisualStyle
  2

 70
    26
 71
     2
 72
     2
 73
     1
 90
        2
 40
-0.6
 41
30.0
 62
     5
 63
     7
 74
     1
 91
       10
 64
     7
 65
   257
 75
     2
175
     1
 42
1.0
 92
        8
 66
   257
 43
1.0
 76
     1
 77
     6
 78
     2
 67
     7
 79
     3
170
     0
171
     0
290
     0
174
     0
 93
        5
 44
0.0
173
     0
291
     0
 45
0.0
1001
ACAD
1000
AcDbSavedByObjectVersion
1070
     0
  0
VISUALSTYLE
  5
14E
102
{ACAD_XDICTIONARY
360
2337
102
}
102
{ACAD_REACTORS
330
99
102
}
330
99
100
AcDbVisualStyle
  2

 70
    23
 71
     2
 72
     2
 73
     3
 90
        0
 40
-0.6
 41
-30.0
 62
     5
 63
     7
 74
     2
 91
        2
 64
     7
 65
     7
 75
     1
175
     1
 42
40.0
 92
        8
 66
     7
 43
1.0
 76
     1
 77
     6
 78
     2
 67
     7
 79
     3
170
     0
171
     0
290
     0
174
     0
 93
        1
 44
0.0
173
     0
291
     0
 45
0.0
1001
ACAD
1000
AcDbSavedByObjectVersion
1070
     0
  0
VISUALSTYLE
  5
14F
102
{ACAD_XDICTIONARY
360
2339
102
}
102
{ACAD_REACTORS
330
99
102
}
330
99
100
AcDbVisualStyle
  2

 70
    24
 71
     1
 72
     2
 73
     2
 90
        0
 40
-0.6
 41
-30.0
 62
     5
 63
     7
 74
     2
 91
        2
 64
     7
 65
     7
 75
     1
175
     1
 42
40.0
 92
       11
 66
     7
 43
1.0
 76
     1
 77
     6
 78
     2
 67
     7
 79
     6
170
     0
171
     0
290
     0
174
     0
 93
        1
 44
0.0
173
     0
291
     0
 45
0.0
1001
ACAD
1000
AcDbSavedByObjectVersion
1070
     0
  0
VISUALSTYLE
  5
A6
102
{ACAD_XDICTIONARY
360
232B
102
}
102
{ACAD_REACTORS
330
99
102
}
330
99
100
AcDbVisualStyle
  2

 70
    13
 71
     2
 72
     2
 73
     1
 90
        0
 40
-0.6
 41
-30.0
 62
     5
 63
     7
 74
     1
 91
        4
 64
     7
 65
   257
 75
     1
175
     1
 42
1.0
 92
       12
 66
     7
 43
1.0
 76
     1
 77
     6
 78
     2
 67
     7
 79
     5
170
     0
171
     0
290
     0
174
     0
 93
        1
 44
0.0
173
     0
291
     1
 45
0.0
1001
ACAD
1000
AcDbSavedByObjectVersion
1070
     0
  0
VISUALSTYLE
  5
14C
102
{ACAD_XDICTIONARY
360
2333
102
}
102
{ACAD_REACTORS
330
99
102
}
330
99
100
AcDbVisualStyle
  2

 70
     5
 71
     0
 72
     2
 73
     0
 90
        0
 40
-0.6
 41
-30.0
 62
     5
 63
     7
 74
     1
 91
        4
 64
     7
 65
   257
 75
     1
175
     1
 42
1.0
 92
        0
 66
   257
 43
1.0
 76
     1
 77
     6
 78
     2
 67
     7
 79
     3
170
     0
171
     0
290
     0
174
     0
 93
        1
 44
0.0
173
     0
291
     0
 45
0.0
1001
ACAD
1000
AcDbSavedByObjectVersion
1070
     0
  0
VISUALSTYLE
  5
150
102
{ACAD_XDICTIONARY
360
233B
102
}
102
{ACAD_REACTORS
330
99
102
}
330
99
100
AcDbVisualStyle
  2

 70
    25
 71
     2
 72
     2
 73
     1
 90
        1
 40
0.5
 41
-30.0
 62
     5
 63
     7
 74
     1
 91
        0
 64
     7
 65
   257
 75
     1
175
     1
 42
1.0
 92
        8
 66
     7
 43
1.0
 76
     1
 77
     6
 78
     2
 67
     7
 79
     3
170
     0
171
     0
290
     0
174
     0
 93
       13
 44
0.0
173
     0
291
     0
 45
0.0
1001
ACAD
1000
AcDbSavedByObjectVersion
1070
     0
  0
DICTIONARYVAR
  5
24A
102
{ACAD_REACTORS
330
66
102
}
330
66
100
DictionaryVariables
280
     0
  1
1:1
  0
DICTIONARYVAR
  5
248
102
{ACAD_REACTORS
330
66
102
}
330
66
100
DictionaryVariables
280
     0
  1
STANDARD
  0
DICTIONARYVAR
  5
89
102
{ACAD_REACTORS
330
66
102
}
330
66
100
DictionaryVariables
280
     0
  1
STANDARD
  0
DICTIONARYVAR
  5
67
102
{ACAD_REACTORS
330
66
102
}
330
66
100
DictionaryVariables
280
     0
  1
2
  0
DICTIONARYVAR
  5
6B
102
{ACAD_REACTORS
330
66
102
}
330
66
100
DictionaryVariables
280
     0
  1
1
  0
DICTIONARYVAR
  5
B30
102
{ACAD_REACTORS
330
66
102
}
330
66
100
DictionaryVariables
280
     0
  1
0
  0
DICTIONARYVAR
  5
24C
102
{ACAD_REACTORS
330
66
102
}
330
66
100
DictionaryVariables
280
     0
  1
1
  0
DICTIONARYVAR
  5
24D
102
{ACAD_REACTORS
330
66
102
}
330
66
100
DictionaryVariables
280
     0
  1
15
  0
DICTIONARYVAR
  5
24B
102
{ACAD_REACTORS
330
66
102
}
330
66
100
DictionaryVariables
280
     0
  1
0
  0
DICTIONARYVAR
  5
249
102
{ACAD_REACTORS
330
66
102
}
330
66
100
DictionaryVariables
280
     0
  1
0
  0
DICTIONARYVAR
  5
B2F
102
{ACAD_REACTORS
330
66
102
}
330
66
100
DictionaryVariables
280
     0
  1
127
  0
DICTIONARYVAR
  5
2239
102
{ACAD_REACTORS
330
66
102
}
330
66
100
DictionaryVariables
280
     0
  1
2
  0
DICTIONARY
  5
230C
330
22
100
AcDbDictionary
280
     1
281
     1
  3
ACAD_XREC_ROUNDTRIP
360
230D
  0
DICTIONARY
  5
230E
330
59
100
AcDbDictionary
280
     1
281
     1
  3
ACAD_XREC_ROUNDTRIP
360
230F
  0
DICTIONARY
  5
2310
330
5E
100
AcDbDictionary
280
     1
281
     1
  3
ACAD_XREC_ROUNDTRIP
360
2311
  0
DICTIONARY
  5
16CB
330
97
100
AcDbDictionary
280
     1
281
     1
  3
ACAD_XREC_ROUNDTRIP
360
16CC
  0
DICTIONARY
  5
16C9
330
96
100
AcDbDictionary
280
     1
281
     1
  3
ACAD_XREC_ROUNDTRIP
360
16CA
  0
DICTIONARY
  5
16CD
330
98
100
AcDbDictionary
280
     1
281
     1
  3
ACAD_XREC_ROUNDTRIP
360
16CE
  0
DICTIONARY
  5
AE1
330
87
100
AcDbDictionary
280
     1
281
     1
  3
ACAD_ROUNDTRIP_2008_TABLESTYLE_CELLSTYLEMAP
360
2304
  3
ACAD_XREC_ROUNDTRIP
360
2312
  0
DICTIONARY
  5
D98
330
D97
100
AcDbDictionary
280
     1
281
     1
  3
ACAD_ROUNDTRIP_2008_TABLESTYLE_CELLSTYLEMAP
360
2305
  3
ACAD_XREC_ROUNDTRIP
360
2347
  0
DICTIONARY
  5
231D
330
9F
100
AcDbDictionary
280
     1
281
     1
  3
ACAD_XREC_ROUNDTRIP
360
231E
  0
DICTIONARY
  5
2321
330
A1
100
AcDbDictionary
280
     1
281
     1
  3
ACAD_XREC_ROUNDTRIP
360
2322
  0
DICTIONARY
  5
231F
330
A0
100
AcDbDictionary
280
     1
281
     1
  3
ACAD_XREC_ROUNDTRIP
360
2320
  0
DICTIONARY
  5
231B
330
9E
100
AcDbDictionary
280
     1
281
     1
  3
ACAD_XREC_ROUNDTRIP
360
231C
  0
DICTIONARY
  5
2329
330
A5
100
AcDbDictionary
280
     1
281
     1
  3
ACAD_XREC_ROUNDTRIP
360
232A
  0
DICTIONARY
  5
2331
330
A9
100
AcDbDictionary
280
     1
281
     1
  3
ACAD_XREC_ROUNDTRIP
360
2332
  0
DICTIONARY
  5
2323
330
A2
100
AcDbDictionary
280
     1
281
     1
  3
ACAD_XREC_ROUNDTRIP
360
2324
  0
DICTIONARY
  5
2327
330
A4
100
AcDbDictionary
280
     1
281
     1
  3
ACAD_XREC_ROUNDTRIP
360
2328
  0
DICTIONARY
  5
2345
330
155
100
AcDbDictionary
280
     1
281
     1
  3
ACAD_XREC_ROUNDTRIP
360
2346
  0
DICTIONARY
  5
232F
330
A8
100
AcDbDictionary
280
     1
281
     1
  3
ACAD_XREC_ROUNDTRIP
360
2330
  0
DICTIONARY
  5
2313
330
9A
100
AcDbDictionary
280
     1
281
     1
  3
ACAD_XREC_ROUNDTRIP
360
2314
  0
DICTIONARY
  5
2315
330
9B
100
AcDbDictionary
280
     1
281
     1
  3
ACAD_XREC_ROUNDTRIP
360
2316
  0
DICTIONARY
  5
2317
330
9C
100
AcDbDictionary
280
     1
281
     1
  3
ACAD_XREC_ROUNDTRIP
360
2318
  0
DICTIONARY
  5
2319
330
9D
100
AcDbDictionary
280
     1
281
     1
  3
ACAD_XREC_ROUNDTRIP
360
231A
  0
DICTIONARY
  5
2335
330
14D
100
AcDbDictionary
280
     1
281
     1
  3
ACAD_XREC_ROUNDTRIP
360
2336
  0
DICTIONARY
  5
2341
330
153
100
AcDbDictionary
280
     1
281
     1
  3
ACAD_XREC_ROUNDTRIP
360
2342
  0
DICTIONARY
  5
232D
330
A7
100
AcDbDictionary
280
     1
281
     1
  3
ACAD_XREC_ROUNDTRIP
360
232E
  0
DICTIONARY
  5
2343
330
154
100
AcDbDictionary
280
     1
281
     1
  3
ACAD_XREC_ROUNDTRIP
360
2344
  0
DICTIONARY
  5
2325
330
A3
100
AcDbDictionary
280
     1
281
     1
  3
ACAD_XREC_ROUNDTRIP
360
2326
  0
DICTIONARY
  5
233F
330
152
100
AcDbDictionary
280
     1
281
     1
  3
ACAD_XREC_ROUNDTRIP
360
2340
  0
DICTIONARY
  5
233D
330
151
100
AcDbDictionary
280
     1
281
     1
  3
ACAD_XREC_ROUNDTRIP
360
233E
  0
DICTIONARY
  5
2337
330
14E
100
AcDbDictionary
280
     1
281
     1
  3
ACAD_XREC_ROUNDTRIP
360
2338
  0
DICTIONARY
  5
2339
330
14F
100
AcDbDictionary
280
     1
281
     1
  3
ACAD_XREC_ROUNDTRIP
360
233A
  0
DICTIONARY
  5
232B
330
A6
100
AcDbDictionary
280
     1
281
     1
  3
ACAD_XREC_ROUNDTRIP
360
232C
  0
DICTIONARY
  5
2333
330
14C
100
AcDbDictionary
280
     1
281
     1
  3
ACAD_XREC_ROUNDTRIP
360
2334
  0
DICTIONARY
  5
233B
330
150
100
AcDbDictionary
280
     1
281
     1
  3
ACAD_XREC_ROUNDTRIP
360
233C
  0
XRECORD
  5
230D
102
{ACAD_REACTORS
330
230C
102
}
330
230C
100
AcDbXrecord
280
     1
102
SHADEPLOT
 70
     0
102
SHADEPLOTRESLEVEL
 70
     2
102
SHADEPLOTCUSTOMDPI
 70
   300
  0
XRECORD
  5
230F
102
{ACAD_REACTORS
330
230E
102
}
330
230E
100
AcDbXrecord
280
     1
102
SHADEPLOT
 70
     0
102
SHADEPLOTRESLEVEL
 70
     2
102
SHADEPLOTCUSTOMDPI
 70
   300
  0
XRECORD
  5
2311
102
{ACAD_REACTORS
330
2310
102
}
330
2310
100
AcDbXrecord
280
     1
102
SHADEPLOT
 70
     0
102
SHADEPLOTRESLEVEL
 70
     2
102
SHADEPLOTCUSTOMDPI
 70
   300
  0
XRECORD
  5
16CC
102
{ACAD_REACTORS
330
16CB
102
}
330
16CB
100
AcDbXrecord
280
     1
102
MATERIAL
148
0.0
149
0.0
149
0.0
 93
        0
 94
      127
282
     0
 72
     1
 77
     1
171
     1
175
     1
179
     1
273
     0
  0
XRECORD
  5
16CA
102
{ACAD_REACTORS
330
16C9
102
}
330
16C9
100
AcDbXrecord
280
     1
102
MATERIAL
148
0.0
149
0.0
149
0.0
 93
        0
 94
      127
282
     0
 72
     1
 77
     1
171
     1
175
     1
179
     1
273
     0
  0
XRECORD
  5
16CE
102
{ACAD_REACTORS
330
16CD
102
}
330
16CD
100
AcDbXrecord
280
     1
102
MATERIAL
148
0.0
149
0.0
149
0.0
 93
        0
 94
      127
282
     0
 72
     1
 77
     1
171
     1
175
     1
179
     1
273
     0
  0
CELLSTYLEMAP
  5
2304
102
{ACAD_REACTORS
330
AE1
102
}
330
AE1
100
AcDbCellStyleMap
 90
        3
300
CELLSTYLE
  1
TABLEFORMAT_BEGIN
 90
        5
170
     1
 91
        0
 92
    32768
 62
   257
 93
        1
300
CONTENTFORMAT
  1
CONTENTFORMAT_BEGIN
 90
        0
 91
        0
 92
      512
 93
        0
300

 40
0.0
140
1.0
 94
        5
 62
     0
340
11
144
0.25
309
CONTENTFORMAT_END
171
     1
301
MARGIN
  1
CELLMARGIN_BEGIN
 40
0.06
 40
0.06
 40
0.06
 40
0.06
 40
0.18
 40
0.18
309
CELLMARGIN_END
 94
        6
 95
        1
302
GRIDFORMAT
  1
GRIDFORMAT_BEGIN
 90
        0
 91
        1
 62
     0
 92
       -2
340
0
 93
        0
 40
0.045
309
GRIDFORMAT_END
 95
        2
302
GRIDFORMAT
  1
GRIDFORMAT_BEGIN
 90
        0
 91
        1
 62
     0
 92
       -2
340
0
 93
        0
 40
0.045
309
GRIDFORMAT_END
 95
        4
302
GRIDFORMAT
  1
GRIDFORMAT_BEGIN
 90
        0
 91
        1
 62
     0
 92
       -2
340
0
 93
        0
 40
0.045
309
GRIDFORMAT_END
 95
        8
302
GRIDFORMAT
  1
GRIDFORMAT_BEGIN
 90
        0
 91
        1
 62
     0
 92
       -2
340
0
 93
        0
 40
0.045
309
GRIDFORMAT_END
 95
       16
302
GRIDFORMAT
  1
GRIDFORMAT_BEGIN
 90
        0
 91
        1
 62
     0
 92
       -2
340
0
 93
        0
 40
0.045
309
GRIDFORMAT_END
 95
       32
302
GRIDFORMAT
  1
GRIDFORMAT_BEGIN
 90
        0
 91
        1
 62
     0
 92
       -2
340
0
 93
        0
 40
0.045
309
GRIDFORMAT_END
309
TABLEFORMAT_END
  1
CELLSTYLE_BEGIN
 90
        1
 91
        1
300
_TITLE
309
CELLSTYLE_END
300
CELLSTYLE
  1
TABLEFORMAT_BEGIN
 90
        5
170
     1
 91
        0
 92
        0
 62
   257
 93
        1
300
CONTENTFORMAT
  1
CONTENTFORMAT_BEGIN
 90
        0
 91
        0
 92
      512
 93
        0
300

 40
0.0
140
1.0
 94
        5
 62
     0
340
11
144
0.18
309
CONTENTFORMAT_END
171
     1
301
MARGIN
  1
CELLMARGIN_BEGIN
 40
0.06
 40
0.06
 40
0.06
 40
0.06
 40
0.18
 40
0.18
309
CELLMARGIN_END
 94
        6
 95
        1
302
GRIDFORMAT
  1
GRIDFORMAT_BEGIN
 90
        0
 91
        1
 62
     0
 92
       -2
340
0
 93
        0
 40
0.045
309
GRIDFORMAT_END
 95
        2
302
GRIDFORMAT
  1
GRIDFORMAT_BEGIN
 90
        0
 91
        1
 62
     0
 92
       -2
340
0
 93
        0
 40
0.045
309
GRIDFORMAT_END
 95
        4
302
GRIDFORMAT
  1
GRIDFORMAT_BEGIN
 90
        0
 91
        1
 62
     0
 92
       -2
340
0
 93
        0
 40
0.045
309
GRIDFORMAT_END
 95
        8
302
GRIDFORMAT
  1
GRIDFORMAT_BEGIN
 90
        0
 91
        1
 62
     0
 92
       -2
340
0
 93
        0
 40
0.045
309
GRIDFORMAT_END
 95
       16
302
GRIDFORMAT
  1
GRIDFORMAT_BEGIN
 90
        0
 91
        1
 62
     0
 92
       -2
340
0
 93
        0
 40
0.045
309
GRIDFORMAT_END
 95
       32
302
GRIDFORMAT
  1
GRIDFORMAT_BEGIN
 90
        0
 91
        1
 62
     0
 92
       -2
340
0
 93
        0
 40
0.045
309
GRIDFORMAT_END
309
TABLEFORMAT_END
  1
CELLSTYLE_BEGIN
 90
        2
 91
        1
300
_HEADER
309
CELLSTYLE_END
300
CELLSTYLE
  1
TABLEFORMAT_BEGIN
 90
        5
170
     1
 91
        0
 92
        0
 62
   257
 93
        1
300
CONTENTFORMAT
  1
CONTENTFORMAT_BEGIN
 90
        0
 91
        0
 92
      512
 93
        0
300

 40
0.0
140
1.0
 94
        2
 62
     0
340
11
144
0.18
309
CONTENTFORMAT_END
171
     1
301
MARGIN
  1
CELLMARGIN_BEGIN
 40
0.06
 40
0.06
 40
0.06
 40
0.06
 40
0.18
 40
0.18
309
CELLMARGIN_END
 94
        6
 95
        1
302
GRIDFORMAT
  1
GRIDFORMAT_BEGIN
 90
        0
 91
        1
 62
     0
 92
       -2
340
0
 93
        0
 40
0.045
309
GRIDFORMAT_END
 95
        2
302
GRIDFORMAT
  1
GRIDFORMAT_BEGIN
 90
        0
 91
        1
 62
     0
 92
       -2
340
0
 93
        0
 40
0.045
309
GRIDFORMAT_END
 95
        4
302
GRIDFORMAT
  1
GRIDFORMAT_BEGIN
 90
        0
 91
        1
 62
     0
 92
       -2
340
0
 93
        0
 40
0.045
309
GRIDFORMAT_END
 95
        8
302
GRIDFORMAT
  1
GRIDFORMAT_BEGIN
 90
        0
 91
        1
 62
     0
 92
       -2
340
0
 93
        0
 40
0.045
309
GRIDFORMAT_END
 95
       16
302
GRIDFORMAT
  1
GRIDFORMAT_BEGIN
 90
        0
 91
        1
 62
     0
 92
       -2
340
0
 93
        0
 40
0.045
309
GRIDFORMAT_END
 95
       32
302
GRIDFORMAT
  1
GRIDFORMAT_BEGIN
 90
        0
 91
        1
 62
     0
 92
       -2
340
0
 93
        0
 40
0.045
309
GRIDFORMAT_END
309
TABLEFORMAT_END
  1
CELLSTYLE_BEGIN
 90
        3
 91
        2
300
_DATA
309
CELLSTYLE_END
  0
XRECORD
  5
2312
102
{ACAD_REACTORS
330
AE1
102
}
330
AE1
100
AcDbXrecord
280
     1
102
ACAD_ROUNDTRIP_PRE2007_TABLESTYLE
 90
      512
 91
        0
  1

 92
      512
 93
        0
  2

 94
      512
 95
        0
  3

  0
CELLSTYLEMAP
  5
2305
102
{ACAD_REACTORS
330
D98
102
}
330
D98
100
AcDbCellStyleMap
 90
        3
300
CELLSTYLE
  1
TABLEFORMAT_BEGIN
 90
        5
170
     1
 91
        0
 92
    32768
 62
   257
 93
        1
300
CONTENTFORMAT
  1
CONTENTFORMAT_BEGIN
 90
        0
 91
        0
 92
      512
 93
        0
300

 40
0.0
140
1.0
 94
        8
 62
     3
340
11D
144
0.25
309
CONTENTFORMAT_END
171
     1
301
MARGIN
  1
CELLMARGIN_BEGIN
 40
0.5
 40
10.0
 40
0.06
 40
0.06
 40
0.18
 40
0.18
309
CELLMARGIN_END
 94
        6
 95
        1
302
GRIDFORMAT
  1
GRIDFORMAT_BEGIN
 90
        0
 91
        1
 62
     0
 92
       -2
340
0
 93
        0
 40
0.045
309
GRIDFORMAT_END
 95
        2
302
GRIDFORMAT
  1
GRIDFORMAT_BEGIN
 90
        0
 91
        1
 62
     0
 92
       -2
340
0
 93
        0
 40
0.045
309
GRIDFORMAT_END
 95
        4
302
GRIDFORMAT
  1
GRIDFORMAT_BEGIN
 90
        0
 91
        1
 62
     0
 92
       -2
340
0
 93
        0
 40
0.045
309
GRIDFORMAT_END
 95
        8
302
GRIDFORMAT
  1
GRIDFORMAT_BEGIN
 90
        0
 91
        1
 62
     0
 92
       -2
340
0
 93
        0
 40
0.045
309
GRIDFORMAT_END
 95
       16
302
GRIDFORMAT
  1
GRIDFORMAT_BEGIN
 90
        0
 91
        1
 62
     0
 92
       -2
340
0
 93
        0
 40
0.045
309
GRIDFORMAT_END
 95
       32
302
GRIDFORMAT
  1
GRIDFORMAT_BEGIN
 90
        0
 91
        1
 62
     0
 92
       -2
340
0
 93
        0
 40
0.045
309
GRIDFORMAT_END
309
TABLEFORMAT_END
  1
CELLSTYLE_BEGIN
 90
        1
 91
        1
300
_TITLE
309
CELLSTYLE_END
300
CELLSTYLE
  1
TABLEFORMAT_BEGIN
 90
        5
170
     1
 91
        0
 92
        0
 62
   257
 93
        1
300
CONTENTFORMAT
  1
CONTENTFORMAT_BEGIN
 90
        0
 91
        0
 92
      512
 93
        0
300

 40
0.0
140
1.0
 94
        7
 62
     3
340
11D
144
0.18
309
CONTENTFORMAT_END
171
     1
301
MARGIN
  1
CELLMARGIN_BEGIN
 40
0.5
 40
1.5
 40
0.06
 40
0.06
 40
0.18
 40
0.18
309
CELLMARGIN_END
 94
        6
 95
        1
302
GRIDFORMAT
  1
GRIDFORMAT_BEGIN
 90
        0
 91
        1
 62
     3
 92
       -2
340
14
 93
        0
 40
0.045
309
GRIDFORMAT_END
 95
        2
302
GRIDFORMAT
  1
GRIDFORMAT_BEGIN
 90
        0
 91
        1
 62
     7
 92
       -2
340
14
 93
        0
 40
0.045
309
GRIDFORMAT_END
 95
        4
302
GRIDFORMAT
  1
GRIDFORMAT_BEGIN
 90
        0
 91
        1
 62
     3
 92
       -2
340
14
 93
        0
 40
0.045
309
GRIDFORMAT_END
 95
        8
302
GRIDFORMAT
  1
GRIDFORMAT_BEGIN
 90
        0
 91
        1
 62
     3
 92
       -2
340
14
 93
        0
 40
0.045
309
GRIDFORMAT_END
 95
       16
302
GRIDFORMAT
  1
GRIDFORMAT_BEGIN
 90
        0
 91
        1
 62
     7
 92
       -2
340
14
 93
        0
 40
0.045
309
GRIDFORMAT_END
 95
       32
302
GRIDFORMAT
  1
GRIDFORMAT_BEGIN
 90
        0
 91
        1
 62
     3
 92
       -2
340
14
 93
        0
 40
0.045
309
GRIDFORMAT_END
309
TABLEFORMAT_END
  1
CELLSTYLE_BEGIN
 90
        2
 91
        1
300
_HEADER
309
CELLSTYLE_END
300
CELLSTYLE
  1
TABLEFORMAT_BEGIN
 90
        5
170
     1
 91
        0
 92
        0
 62
   257
 93
        1
300
CONTENTFORMAT
  1
CONTENTFORMAT_BEGIN
 90
        0
 91
        0
 92
      512
 93
        0
300

 40
0.0
140
1.0
 94
        7
 62
     3
340
11D
144
0.18
309
CONTENTFORMAT_END
171
     1
301
MARGIN
  1
CELLMARGIN_BEGIN
 40
0.5
 40
1.5
 40
0.06
 40
0.06
 40
0.18
 40
0.18
309
CELLMARGIN_END
 94
        6
 95
        1
302
GRIDFORMAT
  1
GRIDFORMAT_BEGIN
 90
        0
 91
        1
 62
     3
 92
       -2
340
14
 93
        0
 40
0.045
309
GRIDFORMAT_END
 95
        2
302
GRIDFORMAT
  1
GRIDFORMAT_BEGIN
 90
        0
 91
        1
 62
     7
 92
       -2
340
14
 93
        0
 40
0.045
309
GRIDFORMAT_END
 95
        4
302
GRIDFORMAT
  1
GRIDFORMAT_BEGIN
 90
        0
 91
        1
 62
     3
 92
       -2
340
14
 93
        0
 40
0.045
309
GRIDFORMAT_END
 95
        8
302
GRIDFORMAT
  1
GRIDFORMAT_BEGIN
 90
        0
 91
        1
 62
     3
 92
       -2
340
14
 93
        0
 40
0.045
309
GRIDFORMAT_END
 95
       16
302
GRIDFORMAT
  1
GRIDFORMAT_BEGIN
 90
        0
 91
        1
 62
     7
 92
       -2
340
14
 93
        0
 40
0.045
309
GRIDFORMAT_END
 95
       32
302
GRIDFORMAT
  1
GRIDFORMAT_BEGIN
 90
        0
 91
        1
 62
     3
 92
       -2
340
14
 93
        0
 40
0.045
309
GRIDFORMAT_END
309
TABLEFORMAT_END
  1
CELLSTYLE_BEGIN
 90
        3
 91
        2
300
_DATA
309
CELLSTYLE_END
  0
XRECORD
  5
2347
102
{ACAD_REACTORS
330
D98
102
}
330
D98
100
AcDbXrecord
280
     1
102
ACAD_ROUNDTRIP_PRE2007_TABLESTYLE
 90
      512
 91
        0
  1

 92
      512
 93
        0
  2

 94
      512
 95
        0
  3

  0
XRECORD
  5
231E
102
{ACAD_REACTORS
330
231D
102
}
330
231D
100
AcDbXrecord
280
     1
102
RTVSPropertyOp0
 70
     1
102
RTVSPropertyOp1
 70
     1
102
RTVSPropertyOp2
 70
     1
102
RTVSPropertyOp3
 70
     1
102
RTVSPropertyOp4
 70
     1
102
RTVSPropertyOp5
 70
     1
102
RTVSPropertyOp6
 70
     1
102
RTVSPropertyOp7
 70
     1
102
RTVSPropertyOp8
 70
     1
102
RTVSPropertyOp9
 70
     1
102
RTVSPropertyOp10
 70
     1
102
RTVSPropertyOp11
 70
     1
102
RTVSPropertyOp12
 70
     1
102
RTVSPropertyOp13
 70
     1
102
RTVSPropertyOp14
 70
     1
102
RTVSPropertyOp15
 70
     1
102
RTVSPropertyOp16
 70
     1
102
RTVSPropertyOp17
 70
     1
102
RTVSPropertyOp18
 70
     1
102
RTVSPropertyOp19
 70
     1
102
RTVSPropertyOp20
 70
     1
102
RTVSPropertyOp21
 70
     1
102
RTVSPropertyOp22
 70
     1
102
RTVSPropertyOp23
 70
     1
102
RTVSPropertyOp24
 70
     1
102
RTVSPropertyOp25
 70
     1
102
RTVSPropertyOp26
 70
     1
102
RTVSPropertyOp27
 70
     1
102
RTVSPropertyOp28
 70
     1
102
RTVSPropertyOp29
 70
     1
102
RTVSPropertyOp30
 70
     1
102
RTVSPropertyOp31
 70
     1
102
RTVSPropertyOp32
 70
     1
  0
XRECORD
  5
2322
102
{ACAD_REACTORS
330
2321
102
}
330
2321
100
AcDbXrecord
280
     1
102
RTVSPropertyOp0
 70
     1
102
RTVSPropertyOp1
 70
     1
102
RTVSPropertyOp2
 70
     1
102
RTVSPropertyOp3
 70
     1
102
RTVSPropertyOp4
 70
     1
102
RTVSPropertyOp5
 70
     1
102
RTVSPropertyOp6
 70
     1
102
RTVSPropertyOp7
 70
     1
102
RTVSPropertyOp8
 70
     1
102
RTVSPropertyOp9
 70
     1
102
RTVSPropertyOp10
 70
     1
102
RTVSPropertyOp11
 70
     1
102
RTVSPropertyOp12
 70
     1
102
RTVSPropertyOp13
 70
     1
102
RTVSPropertyOp14
 70
     1
102
RTVSPropertyOp15
 70
     1
102
RTVSPropertyOp16
 70
     1
102
RTVSPropertyOp17
 70
     1
102
RTVSPropertyOp18
 70
     1
102
RTVSPropertyOp19
 70
     1
102
RTVSPropertyOp20
 70
     1
102
RTVSPropertyOp21
 70
     1
102
RTVSPropertyOp22
 70
     1
102
RTVSPropertyOp23
 70
     1
102
RTVSPropertyOp24
 70
     1
102
RTVSPropertyOp25
 70
     1
102
RTVSPropertyOp26
 70
     1
102
RTVSPropertyOp27
 70
     1
102
RTVSPropertyOp28
 70
     1
102
RTVSPropertyOp29
 70
     1
102
RTVSPropertyOp30
 70
     1
102
RTVSPropertyOp31
 70
     1
102
RTVSPropertyOp32
 70
     1
  0
XRECORD
  5
2320
102
{ACAD_REACTORS
330
231F
102
}
330
231F
100
AcDbXrecord
280
     1
102
RTVSPropertyOp0
 70
     1
102
RTVSPropertyOp1
 70
     1
102
RTVSPropertyOp2
 70
     1
102
RTVSPropertyOp3
 70
     1
102
RTVSPropertyOp4
 70
     1
102
RTVSPropertyOp5
 70
     1
102
RTVSPropertyOp6
 70
     1
102
RTVSPropertyOp7
 70
     1
102
RTVSPropertyOp8
 70
     1
102
RTVSPropertyOp9
 70
     1
102
RTVSPropertyOp10
 70
     1
102
RTVSPropertyOp11
 70
     1
102
RTVSPropertyOp12
 70
     1
102
RTVSPropertyOp13
 70
     1
102
RTVSPropertyOp14
 70
     1
102
RTVSPropertyOp15
 70
     1
102
RTVSPropertyOp16
 70
     1
102
RTVSPropertyOp17
 70
     1
102
RTVSPropertyOp18
 70
     1
102
RTVSPropertyOp19
 70
     1
102
RTVSPropertyOp20
 70
     1
102
RTVSPropertyOp21
 70
     1
102
RTVSPropertyOp22
 70
     1
102
RTVSPropertyOp23
 70
     1
102
RTVSPropertyOp24
 70
     1
102
RTVSPropertyOp25
 70
     1
102
RTVSPropertyOp26
 70
     1
102
RTVSPropertyOp27
 70
     1
102
RTVSPropertyOp28
 70
     1
102
RTVSPropertyOp29
 70
     1
102
RTVSPropertyOp30
 70
     1
102
RTVSPropertyOp31
 70
     1
102
RTVSPropertyOp32
 70
     1
  0
XRECORD
  5
231C
102
{ACAD_REACTORS
330
231B
102
}
330
231B
100
AcDbXrecord
280
     1
102
RTVSPropertyOp0
 70
     1
102
RTVSPropertyOp1
 70
     1
102
RTVSPropertyOp2
 70
     1
102
RTVSPropertyOp3
 70
     1
102
RTVSPropertyOp4
 70
     1
102
RTVSPropertyOp5
 70
     1
102
RTVSPropertyOp6
 70
     1
102
RTVSPropertyOp7
 70
     1
102
RTVSPropertyOp8
 70
     1
102
RTVSPropertyOp9
 70
     1
102
RTVSPropertyOp10
 70
     1
102
RTVSPropertyOp11
 70
     1
102
RTVSPropertyOp12
 70
     1
102
RTVSPropertyOp13
 70
     1
102
RTVSPropertyOp14
 70
     1
102
RTVSPropertyOp15
 70
     1
102
RTVSPropertyOp16
 70
     1
102
RTVSPropertyOp17
 70
     1
102
RTVSPropertyOp18
 70
     1
102
RTVSPropertyOp19
 70
     1
102
RTVSPropertyOp20
 70
     1
102
RTVSPropertyOp21
 70
     1
102
RTVSPropertyOp22
 70
     1
102
RTVSPropertyOp23
 70
     1
102
RTVSPropertyOp24
 70
     1
102
RTVSPropertyOp25
 70
     1
102
RTVSPropertyOp26
 70
     1
102
RTVSPropertyOp27
 70
     1
102
RTVSPropertyOp28
 70
     1
102
RTVSPropertyOp29
 70
     1
102
RTVSPropertyOp30
 70
     1
102
RTVSPropertyOp31
 70
     1
102
RTVSPropertyOp32
 70
     1
  0
XRECORD
  5
232A
102
{ACAD_REACTORS
330
2329
102
}
330
2329
100
AcDbXrecord
280
     1
102
RTVSPropertyOp0
 70
     1
102
RTVSPropertyOp1
 70
     1
102
RTVSPropertyOp2
 70
     1
102
RTVSPropertyOp3
 70
     1
102
RTVSPropertyOp4
 70
     1
102
RTVSPropertyOp5
 70
     1
102
RTVSPropertyOp6
 70
     1
102
RTVSPropertyOp7
 70
     1
102
RTVSPropertyOp8
 70
     1
102
RTVSPropertyOp9
 70
     1
102
RTVSPropertyOp10
 70
     1
102
RTVSPropertyOp11
 70
     1
102
RTVSPropertyOp12
 70
     1
102
RTVSPropertyOp13
 70
     1
102
RTVSPropertyOp14
 70
     1
102
RTVSPropertyOp15
 70
     1
102
RTVSPropertyOp16
 70
     1
102
RTVSPropertyOp17
 70
     1
102
RTVSPropertyOp18
 70
     1
102
RTVSPropertyOp19
 70
     1
102
RTVSPropertyOp20
 70
     1
102
RTVSPropertyOp21
 70
     1
102
RTVSPropertyOp22
 70
     1
102
RTVSPropertyOp23
 70
     1
102
RTVSPropertyOp24
 70
     1
102
RTVSPropertyOp25
 70
     1
102
RTVSPropertyOp26
 70
     1
102
RTVSPropertyOp27
 70
     1
102
RTVSPropertyOp28
 70
     1
102
RTVSPropertyOp29
 70
     1
102
RTVSPropertyOp30
 70
     1
102
RTVSPropertyOp31
 70
     1
102
RTVSPropertyOp32
 70
     1
  0
XRECORD
  5
2332
102
{ACAD_REACTORS
330
2331
102
}
330
2331
100
AcDbXrecord
280
     1
102
RTVSPropertyOp0
 70
     1
102
RTVSPropertyOp1
 70
     1
102
RTVSPropertyOp2
 70
     1
102
RTVSPropertyOp3
 70
     1
102
RTVSPropertyOp4
 70
     1
102
RTVSPropertyOp5
 70
     1
102
RTVSPropertyOp6
 70
     1
102
RTVSPropertyOp7
 70
     1
102
RTVSPropertyOp8
 70
     1
102
RTVSPropertyOp9
 70
     1
102
RTVSPropertyOp10
 70
     1
102
RTVSPropertyOp11
 70
     1
102
RTVSPropertyOp12
 70
     1
102
RTVSPropertyOp13
 70
     1
102
RTVSPropertyOp14
 70
     1
102
RTVSPropertyOp15
 70
     1
102
RTVSPropertyOp16
 70
     1
102
RTVSPropertyOp17
 70
     1
102
RTVSPropertyOp18
 70
     1
102
RTVSPropertyOp19
 70
     1
102
RTVSPropertyOp20
 70
     1
102
RTVSPropertyOp21
 70
     1
102
RTVSPropertyOp22
 70
     1
102
RTVSPropertyOp23
 70
     1
102
RTVSPropertyOp24
 70
     1
102
RTVSPropertyOp25
 70
     1
102
RTVSPropertyOp26
 70
     1
102
RTVSPropertyOp27
 70
     1
102
RTVSPropertyOp28
 70
     1
102
RTVSPropertyOp29
 70
     1
102
RTVSPropertyOp30
 70
     1
102
RTVSPropertyOp31
 70
     1
102
RTVSPropertyOp32
 70
     1
  0
XRECORD
  5
2324
102
{ACAD_REACTORS
330
2323
102
}
330
2323
100
AcDbXrecord
280
     1
102
RTVSPropertyOp0
 70
     1
102
RTVSPropertyOp1
 70
     1
102
RTVSPropertyOp2
 70
     1
102
RTVSPropertyOp3
 70
     1
102
RTVSPropertyOp4
 70
     1
102
RTVSPropertyOp5
 70
     1
102
RTVSPropertyOp6
 70
     1
102
RTVSPropertyOp7
 70
     1
102
RTVSPropertyOp8
 70
     1
102
RTVSPropertyOp9
 70
     1
102
RTVSPropertyOp10
 70
     1
102
RTVSPropertyOp11
 70
     1
102
RTVSPropertyOp12
 70
     1
102
RTVSPropertyOp13
 70
     1
102
RTVSPropertyOp14
 70
     1
102
RTVSPropertyOp15
 70
     1
102
RTVSPropertyOp16
 70
     1
102
RTVSPropertyOp17
 70
     1
102
RTVSPropertyOp18
 70
     1
102
RTVSPropertyOp19
 70
     1
102
RTVSPropertyOp20
 70
     1
102
RTVSPropertyOp21
 70
     1
102
RTVSPropertyOp22
 70
     1
102
RTVSPropertyOp23
 70
     1
102
RTVSPropertyOp24
 70
     1
102
RTVSPropertyOp25
 70
     1
102
RTVSPropertyOp26
 70
     1
102
RTVSPropertyOp27
 70
     1
102
RTVSPropertyOp28
 70
     1
102
RTVSPropertyOp29
 70
     1
102
RTVSPropertyOp30
 70
     1
102
RTVSPropertyOp31
 70
     1
102
RTVSPropertyOp32
 70
     1
  0
XRECORD
  5
2328
102
{ACAD_REACTORS
330
2327
102
}
330
2327
100
AcDbXrecord
280
     1
102
RTVSPropertyOp0
 70
     1
102
RTVSPropertyOp1
 70
     1
102
RTVSPropertyOp2
 70
     1
102
RTVSPropertyOp3
 70
     1
102
RTVSPropertyOp4
 70
     1
102
RTVSPropertyOp5
 70
     1
102
RTVSPropertyOp6
 70
     1
102
RTVSPropertyOp7
 70
     1
102
RTVSPropertyOp8
 70
     1
102
RTVSPropertyOp9
 70
     1
102
RTVSPropertyOp10
 70
     1
102
RTVSPropertyOp11
 70
     1
102
RTVSPropertyOp12
 70
     1
102
RTVSPropertyOp13
 70
     1
102
RTVSPropertyOp14
 70
     1
102
RTVSPropertyOp15
 70
     1
102
RTVSPropertyOp16
 70
     1
102
RTVSPropertyOp17
 70
     1
102
RTVSPropertyOp18
 70
     1
102
RTVSPropertyOp19
 70
     1
102
RTVSPropertyOp20
 70
     1
102
RTVSPropertyOp21
 70
     1
102
RTVSPropertyOp22
 70
     1
102
RTVSPropertyOp23
 70
     1
102
RTVSPropertyOp24
 70
     1
102
RTVSPropertyOp25
 70
     1
102
RTVSPropertyOp26
 70
     1
102
RTVSPropertyOp27
 70
     1
102
RTVSPropertyOp28
 70
     1
102
RTVSPropertyOp29
 70
     1
102
RTVSPropertyOp30
 70
     1
102
RTVSPropertyOp31
 70
     1
102
RTVSPropertyOp32
 70
     1
  0
XRECORD
  5
2346
102
{ACAD_REACTORS
330
2345
102
}
330
2345
100
AcDbXrecord
280
     1
102
RTVSPropertyOp0
 70
     0
102
RTVSPropertyOp1
 70
     0
102
RTVSPropertyOp2
 70
     0
102
RTVSPropertyOp3
 70
     0
102
RTVSPropertyOp4
 70
     0
102
RTVSPropertyOp5
 70
     0
102
RTVSPropertyOp6
 70
     0
102
RTVSPropertyOp7
 70
     0
102
RTVSPropertyOp8
 70
     0
102
RTVSPropertyOp9
 70
     0
102
RTVSPropertyOp10
 70
     0
102
RTVSPropertyOp11
 70
     0
102
RTVSPropertyOp12
 70
     0
102
RTVSPropertyOp13
 70
     0
102
RTVSPropertyOp14
 70
     2
102
RTVSPropertyOp15
 70
     0
102
RTVSPropertyOp16
 70
     0
102
RTVSPropertyOp17
 70
     0
102
RTVSPropertyOp18
 70
     0
102
RTVSPropertyOp19
 70
     0
102
RTVSPropertyOp20
 70
     0
102
RTVSPropertyOp21
 70
     0
102
RTVSPropertyOp22
 70
     0
102
RTVSPropertyOp23
 70
     0
102
RTVSPropertyOp24
 70
     0
102
RTVSPropertyOp25
 70
     0
102
RTVSPropertyOp26
 70
     0
102
RTVSPropertyOp27
 70
     0
102
RTVSPropertyOp28
 70
     1
102
RTVSPropertyOp29
 70
     1
102
RTVSPropertyOp30
 70
     1
102
RTVSPropertyOp31
 70
     1
102
RTVSPropertyOp32
 70
     1
  0
XRECORD
  5
2330
102
{ACAD_REACTORS
330
232F
102
}
330
232F
100
AcDbXrecord
280
     1
102
RTVSPropertyOp0
 70
     1
102
RTVSPropertyOp1
 70
     1
102
RTVSPropertyOp2
 70
     1
102
RTVSPropertyOp3
 70
     1
102
RTVSPropertyOp4
 70
     1
102
RTVSPropertyOp5
 70
     1
102
RTVSPropertyOp6
 70
     1
102
RTVSPropertyOp7
 70
     1
102
RTVSPropertyOp8
 70
     1
102
RTVSPropertyOp9
 70
     1
102
RTVSPropertyOp10
 70
     1
102
RTVSPropertyOp11
 70
     1
102
RTVSPropertyOp12
 70
     1
102
RTVSPropertyOp13
 70
     1
102
RTVSPropertyOp14
 70
     1
102
RTVSPropertyOp15
 70
     1
102
RTVSPropertyOp16
 70
     1
102
RTVSPropertyOp17
 70
     1
102
RTVSPropertyOp18
 70
     1
102
RTVSPropertyOp19
 70
     1
102
RTVSPropertyOp20
 70
     1
102
RTVSPropertyOp21
 70
     1
102
RTVSPropertyOp22
 70
     1
102
RTVSPropertyOp23
 70
     1
102
RTVSPropertyOp24
 70
     1
102
RTVSPropertyOp25
 70
     1
102
RTVSPropertyOp26
 70
     1
102
RTVSPropertyOp27
 70
     1
102
RTVSPropertyOp28
 70
     1
102
RTVSPropertyOp29
 70
     1
102
RTVSPropertyOp30
 70
     1
102
RTVSPropertyOp31
 70
     1
102
RTVSPropertyOp32
 70
     1
  0
XRECORD
  5
2314
102
{ACAD_REACTORS
330
2313
102
}
330
2313
100
AcDbXrecord
280
     1
102
RTVSPropertyOp0
 70
     1
102
RTVSPropertyOp1
 70
     1
102
RTVSPropertyOp2
 70
     1
102
RTVSPropertyOp3
 70
     1
102
RTVSPropertyOp4
 70
     1
102
RTVSPropertyOp5
 70
     1
102
RTVSPropertyOp6
 70
     1
102
RTVSPropertyOp7
 70
     1
102
RTVSPropertyOp8
 70
     1
102
RTVSPropertyOp9
 70
     1
102
RTVSPropertyOp10
 70
     1
102
RTVSPropertyOp11
 70
     1
102
RTVSPropertyOp12
 70
     1
102
RTVSPropertyOp13
 70
     1
102
RTVSPropertyOp14
 70
     1
102
RTVSPropertyOp15
 70
     1
102
RTVSPropertyOp16
 70
     1
102
RTVSPropertyOp17
 70
     1
102
RTVSPropertyOp18
 70
     1
102
RTVSPropertyOp19
 70
     1
102
RTVSPropertyOp20
 70
     1
102
RTVSPropertyOp21
 70
     1
102
RTVSPropertyOp22
 70
     1
102
RTVSPropertyOp23
 70
     1
102
RTVSPropertyOp24
 70
     1
102
RTVSPropertyOp25
 70
     1
102
RTVSPropertyOp26
 70
     1
102
RTVSPropertyOp27
 70
     1
102
RTVSPropertyOp28
 70
     1
102
RTVSPropertyOp29
 70
     1
102
RTVSPropertyOp30
 70
     1
102
RTVSPropertyOp31
 70
     1
102
RTVSPropertyOp32
 70
     1
  0
XRECORD
  5
2316
102
{ACAD_REACTORS
330
2315
102
}
330
2315
100
AcDbXrecord
280
     1
102
RTVSPropertyOp0
 70
     1
102
RTVSPropertyOp1
 70
     1
102
RTVSPropertyOp2
 70
     1
102
RTVSPropertyOp3
 70
     1
102
RTVSPropertyOp4
 70
     1
102
RTVSPropertyOp5
 70
     1
102
RTVSPropertyOp6
 70
     1
102
RTVSPropertyOp7
 70
     1
102
RTVSPropertyOp8
 70
     1
102
RTVSPropertyOp9
 70
     1
102
RTVSPropertyOp10
 70
     1
102
RTVSPropertyOp11
 70
     1
102
RTVSPropertyOp12
 70
     1
102
RTVSPropertyOp13
 70
     1
102
RTVSPropertyOp14
 70
     1
102
RTVSPropertyOp15
 70
     1
102
RTVSPropertyOp16
 70
     1
102
RTVSPropertyOp17
 70
     1
102
RTVSPropertyOp18
 70
     1
102
RTVSPropertyOp19
 70
     1
102
RTVSPropertyOp20
 70
     1
102
RTVSPropertyOp21
 70
     1
102
RTVSPropertyOp22
 70
     1
102
RTVSPropertyOp23
 70
     1
102
RTVSPropertyOp24
 70
     1
102
RTVSPropertyOp25
 70
     1
102
RTVSPropertyOp26
 70
     1
102
RTVSPropertyOp27
 70
     1
102
RTVSPropertyOp28
 70
     1
102
RTVSPropertyOp29
 70
     1
102
RTVSPropertyOp30
 70
     1
102
RTVSPropertyOp31
 70
     1
102
RTVSPropertyOp32
 70
     1
  0
XRECORD
  5
2318
102
{ACAD_REACTORS
330
2317
102
}
330
2317
100
AcDbXrecord
280
     1
102
RTVSPropertyOp0
 70
     1
102
RTVSPropertyOp1
 70
     1
102
RTVSPropertyOp2
 70
     1
102
RTVSPropertyOp3
 70
     1
102
RTVSPropertyOp4
 70
     1
102
RTVSPropertyOp5
 70
     1
102
RTVSPropertyOp6
 70
     1
102
RTVSPropertyOp7
 70
     1
102
RTVSPropertyOp8
 70
     1
102
RTVSPropertyOp9
 70
     1
102
RTVSPropertyOp10
 70
     1
102
RTVSPropertyOp11
 70
     1
102
RTVSPropertyOp12
 70
     1
102
RTVSPropertyOp13
 70
     1
102
RTVSPropertyOp14
 70
     1
102
RTVSPropertyOp15
 70
     1
102
RTVSPropertyOp16
 70
     1
102
RTVSPropertyOp17
 70
     1
102
RTVSPropertyOp18
 70
     1
102
RTVSPropertyOp19
 70
     1
102
RTVSPropertyOp20
 70
     1
102
RTVSPropertyOp21
 70
     1
102
RTVSPropertyOp22
 70
     1
102
RTVSPropertyOp23
 70
     1
102
RTVSPropertyOp24
 70
     1
102
RTVSPropertyOp25
 70
     1
102
RTVSPropertyOp26
 70
     1
102
RTVSPropertyOp27
 70
     1
102
RTVSPropertyOp28
 70
     1
102
RTVSPropertyOp29
 70
     1
102
RTVSPropertyOp30
 70
     1
102
RTVSPropertyOp31
 70
     1
102
RTVSPropertyOp32
 70
     1
  0
XRECORD
  5
231A
102
{ACAD_REACTORS
330
2319
102
}
330
2319
100
AcDbXrecord
280
     1
102
RTVSPropertyOp0
 70
     1
102
RTVSPropertyOp1
 70
     1
102
RTVSPropertyOp2
 70
     1
102
RTVSPropertyOp3
 70
     1
102
RTVSPropertyOp4
 70
     1
102
RTVSPropertyOp5
 70
     1
102
RTVSPropertyOp6
 70
     1
102
RTVSPropertyOp7
 70
     1
102
RTVSPropertyOp8
 70
     1
102
RTVSPropertyOp9
 70
     1
102
RTVSPropertyOp10
 70
     1
102
RTVSPropertyOp11
 70
     1
102
RTVSPropertyOp12
 70
     1
102
RTVSPropertyOp13
 70
     1
102
RTVSPropertyOp14
 70
     1
102
RTVSPropertyOp15
 70
     1
102
RTVSPropertyOp16
 70
     1
102
RTVSPropertyOp17
 70
     1
102
RTVSPropertyOp18
 70
     1
102
RTVSPropertyOp19
 70
     1
102
RTVSPropertyOp20
 70
     1
102
RTVSPropertyOp21
 70
     1
102
RTVSPropertyOp22
 70
     1
102
RTVSPropertyOp23
 70
     1
102
RTVSPropertyOp24
 70
     1
102
RTVSPropertyOp25
 70
     1
102
RTVSPropertyOp26
 70
     1
102
RTVSPropertyOp27
 70
     1
102
RTVSPropertyOp28
 70
     1
102
RTVSPropertyOp29
 70
     1
102
RTVSPropertyOp30
 70
     1
102
RTVSPropertyOp31
 70
     1
102
RTVSPropertyOp32
 70
     1
  0
XRECORD
  5
2336
102
{ACAD_REACTORS
330
2335
102
}
330
2335
100
AcDbXrecord
280
     1
102
RTVSPropertyOp0
 70
     1
102
RTVSPropertyOp1
 70
     1
102
RTVSPropertyOp2
 70
     1
102
RTVSPropertyOp3
 70
     1
102
RTVSPropertyOp4
 70
     1
102
RTVSPropertyOp5
 70
     1
102
RTVSPropertyOp6
 70
     1
102
RTVSPropertyOp7
 70
     1
102
RTVSPropertyOp8
 70
     1
102
RTVSPropertyOp9
 70
     1
102
RTVSPropertyOp10
 70
     1
102
RTVSPropertyOp11
 70
     1
102
RTVSPropertyOp12
 70
     1
102
RTVSPropertyOp13
 70
     1
102
RTVSPropertyOp14
 70
     1
102
RTVSPropertyOp15
 70
     1
102
RTVSPropertyOp16
 70
     1
102
RTVSPropertyOp17
 70
     1
102
RTVSPropertyOp18
 70
     1
102
RTVSPropertyOp19
 70
     1
102
RTVSPropertyOp20
 70
     1
102
RTVSPropertyOp21
 70
     1
102
RTVSPropertyOp22
 70
     1
102
RTVSPropertyOp23
 70
     1
102
RTVSPropertyOp24
 70
     1
102
RTVSPropertyOp25
 70
     1
102
RTVSPropertyOp26
 70
     1
102
RTVSPropertyOp27
 70
     1
102
RTVSPropertyOp28
 70
     1
102
RTVSPropertyOp29
 70
     1
102
RTVSPropertyOp30
 70
     1
102
RTVSPropertyOp31
 70
     1
102
RTVSPropertyOp32
 70
     1
  0
XRECORD
  5
2342
102
{ACAD_REACTORS
330
2341
102
}
330
2341
100
AcDbXrecord
280
     1
102
RTVSPropertyOp0
 70
     0
102
RTVSPropertyOp1
 70
     0
102
RTVSPropertyOp2
 70
     0
102
RTVSPropertyOp3
 70
     0
102
RTVSPropertyOp4
 70
     0
102
RTVSPropertyOp5
 70
     0
102
RTVSPropertyOp6
 70
     0
102
RTVSPropertyOp7
 70
     0
102
RTVSPropertyOp8
 70
     0
102
RTVSPropertyOp9
 70
     0
102
RTVSPropertyOp10
 70
     0
102
RTVSPropertyOp11
 70
     0
102
RTVSPropertyOp12
 70
     0
102
RTVSPropertyOp13
 70
     0
102
RTVSPropertyOp14
 70
     2
102
RTVSPropertyOp15
 70
     0
102
RTVSPropertyOp16
 70
     0
102
RTVSPropertyOp17
 70
     0
102
RTVSPropertyOp18
 70
     0
102
RTVSPropertyOp19
 70
     0
102
RTVSPropertyOp20
 70
     0
102
RTVSPropertyOp21
 70
     0
102
RTVSPropertyOp22
 70
     0
102
RTVSPropertyOp23
 70
     0
102
RTVSPropertyOp24
 70
     0
102
RTVSPropertyOp25
 70
     0
102
RTVSPropertyOp26
 70
     0
102
RTVSPropertyOp27
 70
     0
102
RTVSPropertyOp28
 70
     1
102
RTVSPropertyOp29
 70
     1
102
RTVSPropertyOp30
 70
     1
102
RTVSPropertyOp31
 70
     1
102
RTVSPropertyOp32
 70
     1
  0
XRECORD
  5
232E
102
{ACAD_REACTORS
330
232D
102
}
330
232D
100
AcDbXrecord
280
     1
102
RTVSPropertyOp0
 70
     1
102
RTVSPropertyOp1
 70
     1
102
RTVSPropertyOp2
 70
     1
102
RTVSPropertyOp3
 70
     1
102
RTVSPropertyOp4
 70
     1
102
RTVSPropertyOp5
 70
     1
102
RTVSPropertyOp6
 70
     1
102
RTVSPropertyOp7
 70
     1
102
RTVSPropertyOp8
 70
     1
102
RTVSPropertyOp9
 70
     1
102
RTVSPropertyOp10
 70
     1
102
RTVSPropertyOp11
 70
     1
102
RTVSPropertyOp12
 70
     1
102
RTVSPropertyOp13
 70
     1
102
RTVSPropertyOp14
 70
     1
102
RTVSPropertyOp15
 70
     1
102
RTVSPropertyOp16
 70
     1
102
RTVSPropertyOp17
 70
     1
102
RTVSPropertyOp18
 70
     1
102
RTVSPropertyOp19
 70
     1
102
RTVSPropertyOp20
 70
     1
102
RTVSPropertyOp21
 70
     1
102
RTVSPropertyOp22
 70
     1
102
RTVSPropertyOp23
 70
     1
102
RTVSPropertyOp24
 70
     1
102
RTVSPropertyOp25
 70
     1
102
RTVSPropertyOp26
 70
     1
102
RTVSPropertyOp27
 70
     1
102
RTVSPropertyOp28
 70
     1
102
RTVSPropertyOp29
 70
     1
102
RTVSPropertyOp30
 70
     1
102
RTVSPropertyOp31
 70
     1
102
RTVSPropertyOp32
 70
     1
  0
XRECORD
  5
2344
102
{ACAD_REACTORS
330
2343
102
}
330
2343
100
AcDbXrecord
280
     1
102
RTVSPropertyOp0
 70
     0
102
RTVSPropertyOp1
 70
     0
102
RTVSPropertyOp2
 70
     0
102
RTVSPropertyOp3
 70
     0
102
RTVSPropertyOp4
 70
     0
102
RTVSPropertyOp5
 70
     0
102
RTVSPropertyOp6
 70
     0
102
RTVSPropertyOp7
 70
     0
102
RTVSPropertyOp8
 70
     0
102
RTVSPropertyOp9
 70
     0
102
RTVSPropertyOp10
 70
     0
102
RTVSPropertyOp11
 70
     0
102
RTVSPropertyOp12
 70
     0
102
RTVSPropertyOp13
 70
     0
102
RTVSPropertyOp14
 70
     2
102
RTVSPropertyOp15
 70
     0
102
RTVSPropertyOp16
 70
     0
102
RTVSPropertyOp17
 70
     0
102
RTVSPropertyOp18
 70
     0
102
RTVSPropertyOp19
 70
     0
102
RTVSPropertyOp20
 70
     0
102
RTVSPropertyOp21
 70
     0
102
RTVSPropertyOp22
 70
     0
102
RTVSPropertyOp23
 70
     0
102
RTVSPropertyOp24
 70
     0
102
RTVSPropertyOp25
 70
     0
102
RTVSPropertyOp26
 70
     0
102
RTVSPropertyOp27
 70
     0
102
RTVSPropertyOp28
 70
     1
102
RTVSPropertyOp29
 70
     1
102
RTVSPropertyOp30
 70
     1
102
RTVSPropertyOp31
 70
     1
102
RTVSPropertyOp32
 70
     1
  0
XRECORD
  5
2326
102
{ACAD_REACTORS
330
2325
102
}
330
2325
100
AcDbXrecord
280
     1
102
RTVSPropertyOp0
 70
     1
102
RTVSPropertyOp1
 70
     1
102
RTVSPropertyOp2
 70
     1
102
RTVSPropertyOp3
 70
     1
102
RTVSPropertyOp4
 70
     1
102
RTVSPropertyOp5
 70
     1
102
RTVSPropertyOp6
 70
     1
102
RTVSPropertyOp7
 70
     1
102
RTVSPropertyOp8
 70
     1
102
RTVSPropertyOp9
 70
     1
102
RTVSPropertyOp10
 70
     1
102
RTVSPropertyOp11
 70
     1
102
RTVSPropertyOp12
 70
     1
102
RTVSPropertyOp13
 70
     1
102
RTVSPropertyOp14
 70
     1
102
RTVSPropertyOp15
 70
     1
102
RTVSPropertyOp16
 70
     1
102
RTVSPropertyOp17
 70
     1
102
RTVSPropertyOp18
 70
     1
102
RTVSPropertyOp19
 70
     1
102
RTVSPropertyOp20
 70
     1
102
RTVSPropertyOp21
 70
     1
102
RTVSPropertyOp22
 70
     1
102
RTVSPropertyOp23
 70
     1
102
RTVSPropertyOp24
 70
     1
102
RTVSPropertyOp25
 70
     1
102
RTVSPropertyOp26
 70
     1
102
RTVSPropertyOp27
 70
     1
102
RTVSPropertyOp28
 70
     1
102
RTVSPropertyOp29
 70
     1
102
RTVSPropertyOp30
 70
     1
102
RTVSPropertyOp31
 70
     1
102
RTVSPropertyOp32
 70
     1
  0
XRECORD
  5
2340
102
{ACAD_REACTORS
330
233F
102
}
330
233F
100
AcDbXrecord
280
     1
102
RTVSPropertyOp0
 70
     1
102
RTVSPropertyOp1
 70
     1
102
RTVSPropertyOp2
 70
     1
102
RTVSPropertyOp3
 70
     1
102
RTVSPropertyOp4
 70
     1
102
RTVSPropertyOp5
 70
     1
102
RTVSPropertyOp6
 70
     1
102
RTVSPropertyOp7
 70
     1
102
RTVSPropertyOp8
 70
     1
102
RTVSPropertyOp9
 70
     1
102
RTVSPropertyOp10
 70
     1
102
RTVSPropertyOp11
 70
     1
102
RTVSPropertyOp12
 70
     1
102
RTVSPropertyOp13
 70
     1
102
RTVSPropertyOp14
 70
     1
102
RTVSPropertyOp15
 70
     1
102
RTVSPropertyOp16
 70
     1
102
RTVSPropertyOp17
 70
     1
102
RTVSPropertyOp18
 70
     1
102
RTVSPropertyOp19
 70
     1
102
RTVSPropertyOp20
 70
     1
102
RTVSPropertyOp21
 70
     1
102
RTVSPropertyOp22
 70
     1
102
RTVSPropertyOp23
 70
     1
102
RTVSPropertyOp24
 70
     1
102
RTVSPropertyOp25
 70
     1
102
RTVSPropertyOp26
 70
     1
102
RTVSPropertyOp27
 70
     1
102
RTVSPropertyOp28
 70
     1
102
RTVSPropertyOp29
 70
     1
102
RTVSPropertyOp30
 70
     1
102
RTVSPropertyOp31
 70
     1
102
RTVSPropertyOp32
 70
     1
  0
XRECORD
  5
233E
102
{ACAD_REACTORS
330
233D
102
}
330
233D
100
AcDbXrecord
280
     1
102
RTVSPropertyOp0
 70
     1
102
RTVSPropertyOp1
 70
     1
102
RTVSPropertyOp2
 70
     1
102
RTVSPropertyOp3
 70
     1
102
RTVSPropertyOp4
 70
     1
102
RTVSPropertyOp5
 70
     1
102
RTVSPropertyOp6
 70
     1
102
RTVSPropertyOp7
 70
     1
102
RTVSPropertyOp8
 70
     1
102
RTVSPropertyOp9
 70
     1
102
RTVSPropertyOp10
 70
     1
102
RTVSPropertyOp11
 70
     1
102
RTVSPropertyOp12
 70
     1
102
RTVSPropertyOp13
 70
     1
102
RTVSPropertyOp14
 70
     1
102
RTVSPropertyOp15
 70
     1
102
RTVSPropertyOp16
 70
     1
102
RTVSPropertyOp17
 70
     1
102
RTVSPropertyOp18
 70
     1
102
RTVSPropertyOp19
 70
     1
102
RTVSPropertyOp20
 70
     1
102
RTVSPropertyOp21
 70
     1
102
RTVSPropertyOp22
 70
     1
102
RTVSPropertyOp23
 70
     1
102
RTVSPropertyOp24
 70
     1
102
RTVSPropertyOp25
 70
     1
102
RTVSPropertyOp26
 70
     1
102
RTVSPropertyOp27
 70
     1
102
RTVSPropertyOp28
 70
     1
102
RTVSPropertyOp29
 70
     1
102
RTVSPropertyOp30
 70
     1
102
RTVSPropertyOp31
 70
     1
102
RTVSPropertyOp32
 70
     1
  0
XRECORD
  5
2338
102
{ACAD_REACTORS
330
2337
102
}
330
2337
100
AcDbXrecord
280
     1
102
RTVSPropertyOp0
 70
     1
102
RTVSPropertyOp1
 70
     1
102
RTVSPropertyOp2
 70
     1
102
RTVSPropertyOp3
 70
     1
102
RTVSPropertyOp4
 70
     1
102
RTVSPropertyOp5
 70
     1
102
RTVSPropertyOp6
 70
     1
102
RTVSPropertyOp7
 70
     1
102
RTVSPropertyOp8
 70
     1
102
RTVSPropertyOp9
 70
     1
102
RTVSPropertyOp10
 70
     1
102
RTVSPropertyOp11
 70
     1
102
RTVSPropertyOp12
 70
     1
102
RTVSPropertyOp13
 70
     1
102
RTVSPropertyOp14
 70
     1
102
RTVSPropertyOp15
 70
     1
102
RTVSPropertyOp16
 70
     1
102
RTVSPropertyOp17
 70
     1
102
RTVSPropertyOp18
 70
     1
102
RTVSPropertyOp19
 70
     1
102
RTVSPropertyOp20
 70
     1
102
RTVSPropertyOp21
 70
     1
102
RTVSPropertyOp22
 70
     1
102
RTVSPropertyOp23
 70
     1
102
RTVSPropertyOp24
 70
     1
102
RTVSPropertyOp25
 70
     1
102
RTVSPropertyOp26
 70
     1
102
RTVSPropertyOp27
 70
     1
102
RTVSPropertyOp28
 70
     1
102
RTVSPropertyOp29
 70
     1
102
RTVSPropertyOp30
 70
     1
102
RTVSPropertyOp31
 70
     1
102
RTVSPropertyOp32
 70
     1
  0
XRECORD
  5
233A
102
{ACAD_REACTORS
330
2339
102
}
330
2339
100
AcDbXrecord
280
     1
102
RTVSPropertyOp0
 70
     1
102
RTVSPropertyOp1
 70
     1
102
RTVSPropertyOp2
 70
     1
102
RTVSPropertyOp3
 70
     1
102
RTVSPropertyOp4
 70
     1
102
RTVSPropertyOp5
 70
     1
102
RTVSPropertyOp6
 70
     1
102
RTVSPropertyOp7
 70
     1
102
RTVSPropertyOp8
 70
     1
102
RTVSPropertyOp9
 70
     1
102
RTVSPropertyOp10
 70
     1
102
RTVSPropertyOp11
 70
     1
102
RTVSPropertyOp12
 70
     1
102
RTVSPropertyOp13
 70
     1
102
RTVSPropertyOp14
 70
     1
102
RTVSPropertyOp15
 70
     1
102
RTVSPropertyOp16
 70
     1
102
RTVSPropertyOp17
 70
     1
102
RTVSPropertyOp18
 70
     1
102
RTVSPropertyOp19
 70
     1
102
RTVSPropertyOp20
 70
     1
102
RTVSPropertyOp21
 70
     1
102
RTVSPropertyOp22
 70
     1
102
RTVSPropertyOp23
 70
     1
102
RTVSPropertyOp24
 70
     1
102
RTVSPropertyOp25
 70
     1
102
RTVSPropertyOp26
 70
     1
102
RTVSPropertyOp27
 70
     1
102
RTVSPropertyOp28
 70
     1
102
RTVSPropertyOp29
 70
     1
102
RTVSPropertyOp30
 70
     1
102
RTVSPropertyOp31
 70
     1
102
RTVSPropertyOp32
 70
     1
  0
XRECORD
  5
232C
102
{ACAD_REACTORS
330
232B
102
}
330
232B
100
AcDbXrecord
280
     1
102
RTVSPropertyOp0
 70
     1
102
RTVSPropertyOp1
 70
     1
102
RTVSPropertyOp2
 70
     1
102
RTVSPropertyOp3
 70
     1
102
RTVSPropertyOp4
 70
     1
102
RTVSPropertyOp5
 70
     1
102
RTVSPropertyOp6
 70
     1
102
RTVSPropertyOp7
 70
     1
102
RTVSPropertyOp8
 70
     1
102
RTVSPropertyOp9
 70
     1
102
RTVSPropertyOp10
 70
     1
102
RTVSPropertyOp11
 70
     1
102
RTVSPropertyOp12
 70
     1
102
RTVSPropertyOp13
 70
     1
102
RTVSPropertyOp14
 70
     1
102
RTVSPropertyOp15
 70
     1
102
RTVSPropertyOp16
 70
     1
102
RTVSPropertyOp17
 70
     1
102
RTVSPropertyOp18
 70
     1
102
RTVSPropertyOp19
 70
     1
102
RTVSPropertyOp20
 70
     1
102
RTVSPropertyOp21
 70
     1
102
RTVSPropertyOp22
 70
     1
102
RTVSPropertyOp23
 70
     1
102
RTVSPropertyOp24
 70
     1
102
RTVSPropertyOp25
 70
     1
102
RTVSPropertyOp26
 70
     1
102
RTVSPropertyOp27
 70
     1
102
RTVSPropertyOp28
 70
     1
102
RTVSPropertyOp29
 70
     1
102
RTVSPropertyOp30
 70
     1
102
RTVSPropertyOp31
 70
     1
102
RTVSPropertyOp32
 70
     1
  0
XRECORD
  5
2334
102
{ACAD_REACTORS
330
2333
102
}
330
2333
100
AcDbXrecord
280
     1
102
RTVSPropertyOp0
 70
     1
102
RTVSPropertyOp1
 70
     1
102
RTVSPropertyOp2
 70
     1
102
RTVSPropertyOp3
 70
     1
102
RTVSPropertyOp4
 70
     1
102
RTVSPropertyOp5
 70
     1
102
RTVSPropertyOp6
 70
     1
102
RTVSPropertyOp7
 70
     1
102
RTVSPropertyOp8
 70
     1
102
RTVSPropertyOp9
 70
     1
102
RTVSPropertyOp10
 70
     1
102
RTVSPropertyOp11
 70
     1
102
RTVSPropertyOp12
 70
     1
102
RTVSPropertyOp13
 70
     1
102
RTVSPropertyOp14
 70
     1
102
RTVSPropertyOp15
 70
     1
102
RTVSPropertyOp16
 70
     1
102
RTVSPropertyOp17
 70
     1
102
RTVSPropertyOp18
 70
     1
102
RTVSPropertyOp19
 70
     1
102
RTVSPropertyOp20
 70
     1
102
RTVSPropertyOp21
 70
     1
102
RTVSPropertyOp22
 70
     1
102
RTVSPropertyOp23
 70
     1
102
RTVSPropertyOp24
 70
     1
102
RTVSPropertyOp25
 70
     1
102
RTVSPropertyOp26
 70
     1
102
RTVSPropertyOp27
 70
     1
102
RTVSPropertyOp28
 70
     1
102
RTVSPropertyOp29
 70
     1
102
RTVSPropertyOp30
 70
     1
102
RTVSPropertyOp31
 70
     1
102
RTVSPropertyOp32
 70
     1
  0
XRECORD
  5
233C
102
{ACAD_REACTORS
330
233B
102
}
330
233B
100
AcDbXrecord
280
     1
102
RTVSPropertyOp0
 70
     1
102
RTVSPropertyOp1
 70
     1
102
RTVSPropertyOp2
 70
     1
102
RTVSPropertyOp3
 70
     1
102
RTVSPropertyOp4
 70
     1
102
RTVSPropertyOp5
 70
     1
102
RTVSPropertyOp6
 70
     1
102
RTVSPropertyOp7
 70
     1
102
RTVSPropertyOp8
 70
     1
102
RTVSPropertyOp9
 70
     1
102
RTVSPropertyOp10
 70
     1
102
RTVSPropertyOp11
 70
     1
102
RTVSPropertyOp12
 70
     1
102
RTVSPropertyOp13
 70
     1
102
RTVSPropertyOp14
 70
     1
102
RTVSPropertyOp15
 70
     1
102
RTVSPropertyOp16
 70
     1
102
RTVSPropertyOp17
 70
     1
102
RTVSPropertyOp18
 70
     1
102
RTVSPropertyOp19
 70
     1
102
RTVSPropertyOp20
 70
     1
102
RTVSPropertyOp21
 70
     1
102
RTVSPropertyOp22
 70
     1
102
RTVSPropertyOp23
 70
     1
102
RTVSPropertyOp24
 70
     1
102
RTVSPropertyOp25
 70
     1
102
RTVSPropertyOp26
 70
     1
102
RTVSPropertyOp27
 70
     1
102
RTVSPropertyOp28
 70
     1
102
RTVSPropertyOp29
 70
     1
102
RTVSPropertyOp30
 70
     1
102
RTVSPropertyOp31
 70
     1
102
RTVSPropertyOp32
 70
     1
  0
ENDSEC
  0
EOF
