  0
SECTION
  2
HEADER
  9
$ACADVER
  1
AC1015
  9
$ACADMAINTVER
 70
    20
  9
$DWGCODEPAGE
  3
ANSI_932
  9
$INSBASE
 10
0.0
 20
0.0
 30
0.0
  9
$EXTMIN
 10
35.0504222113708
 20
17.55615958979334
 30
0.0
  9
$EXTMAX
 10
440.0504222113708
 20
297.3314254897933
 30
0.0
  9
$LIMMIN
 10
0.0
 20
0.0
  9
$LIMMAX
 10
12.0
 20
9.0
  9
$ORTHOMODE
 70
     1
  9
$REGENMODE
 70
     1
  9
$FILLMODE
 70
     1
  9
$QTEXTMODE
 70
     0
  9
$MIRRTEXT
 70
     0
  9
$LTSCALE
 40
2.0
  9
$ATTMODE
 70
     1
  9
$TEXTSIZE
 40
3.2
  9
$TRACEWID
 40
0.05
  9
$TEXTSTYLE
  7
高3.2
  9
$CLAYER
  8
0
  9
$CELTYPE
  6
ByLayer
  9
$CECOLOR
 62
   256
  9
$CELTSCALE
 40
1.0
  9
$DISPSILH
 70
     0
  9
$DIMSCALE
 40
1.0
  9
$DIMASZ
 40
2.5
  9
$DIMEXO
 40
0.25
  9
$DIMDLI
 40
0.2
  9
$DIMRND
 40
0.0
  9
$DIMDLE
 40
0.0
  9
$DIMEXE
 40
1.25
  9
$DIMTP
 40
0.0
  9
$DIMTM
 40
0.0
  9
$DIMTXT
 40
3.0
  9
$DIMCEN
 40
0.0
  9
$DIMTSZ
 40
0.0
  9
$DIMTOL
 70
     0
  9
$DIMLIM
 70
     0
  9
$DIMTIH
 70
     0
  9
$DIMTOH
 70
     0
  9
$DIMSE1
 70
     0
  9
$DIMSE2
 70
     0
  9
$DIMTAD
 70
     3
  9
$DIMZIN
 70
     8
  9
$DIMBLK
  1
OPEN30
  9
$DIMASO
 70
     1
  9
$DIMSHO
 70
     1
  9
$DIMPOST
  1

  9
$DIMAPOST
  1

  9
$DIMALT
 70
     0
  9
$DIMALTD
 70
     3
  9
$DIMALTF
 40
0.03937007874016
  9
$DIMLFAC
 40
2.0
  9
$DIMTOFL
 70
     1
  9
$DIMTVP
 40
0.0
  9
$DIMTIX
 70
     0
  9
$DIMSOXD
 70
     0
  9
$DIMSAH
 70
     0
  9
$DIMBLK1
  1

  9
$DIMBLK2
  1

  9
$DIMSTYLE
  2
1／2
  9
$DIMCLRD
 70
     0
  9
$DIMCLRE
 70
     0
  9
$DIMCLRT
 70
     4
  9
$DIMTFAC
 40
1.0
  9
$DIMGAP
 40
0.625
  9
$DIMJUST
 70
     0
  9
$DIMSD1
 70
     0
  9
$DIMSD2
 70
     0
  9
$DIMTOLJ
 70
     0
  9
$DIMTZIN
 70
     8
  9
$DIMALTZ
 70
     0
  9
$DIMALTTZ
 70
     0
  9
$DIMUPT
 70
     1
  9
$DIMDEC
 70
     2
  9
$DIMTDEC
 70
     2
  9
$DIMALTU
 70
     2
  9
$DIMALTTD
 70
     3
  9
$DIMTXSTY
  7
STANDARD
  9
$DIMAUNIT
 70
     0
  9
$DIMADEC
 70
     1
  9
$DIMALTRND
 40
0.0
  9
$DIMAZIN
 70
     2
  9
$DIMDSEP
 70
    46
  9
$DIMATFIT
 70
     0
  9
$DIMFRAC
 70
     0
  9
$DIMLDRBLK
  1
OPEN30
  9
$DIMLUNIT
 70
     2
  9
$DIMLWD
 70
    -2
  9
$DIMLWE
 70
    -2
  9
$DIMTMOVE
 70
     0
  9
$LUNITS
 70
     2
  9
$LUPREC
 70
     4
  9
$SKETCHINC
 40
0.1
  9
$FILLETRAD
 40
0.0
  9
$AUNITS
 70
     0
  9
$AUPREC
 70
     0
  9
$MENU
  1
.
  9
$ELEVATION
 40
0.0
  9
$PELEVATION
 40
0.0
  9
$THICKNESS
 40
0.0
  9
$LIMCHECK
 70
     0
  9
$CHAMFERA
 40
2.0
  9
$CHAMFERB
 40
2.0
  9
$CHAMFERC
 40
0.0
  9
$CHAMFERD
 40
0.0
  9
$SKPOLY
 70
     0
  9
$TDCREATE
 40
2455894.599291875
  9
$TDUCREATE
 40
2455894.224291875
  9
$TDUPDATE
 40
2458354.768016852
  9
$TDUUPDATE
 40
2458354.393016852
  9
$TDINDWG
 40
0.9608090856
  9
$TDUSRTIMER
 40
0.9608060648
  9
$USRTIMER
 70
     1
  9
$ANGBASE
 50
0.0
  9
$ANGDIR
 70
     0
  9
$PDMODE
 70
     0
  9
$PDSIZE
 40
0.0
  9
$PLINEWID
 40
0.0
  9
$SPLFRAME
 70
     0
  9
$SPLINETYPE
 70
     6
  9
$SPLINESEGS
 70
     8
  9
$HANDSEED
  5
5972
  9
$SURFTAB1
 70
     6
  9
$SURFTAB2
 70
     6
  9
$SURFTYPE
 70
     6
  9
$SURFU
 70
     6
  9
$SURFV
 70
     6
  9
$UCSBASE
  2

  9
$UCSNAME
  2

  9
$UCSORG
 10
0.0
 20
0.0
 30
0.0
  9
$UCSXDIR
 10
1.0
 20
0.0
 30
0.0
  9
$UCSYDIR
 10
0.0
 20
1.0
 30
0.0
  9
$UCSORTHOREF
  2

  9
$UCSORTHOVIEW
 70
     0
  9
$UCSORGTOP
 10
0.0
 20
0.0
 30
0.0
  9
$UCSORGBOTTOM
 10
0.0
 20
0.0
 30
0.0
  9
$UCSORGLEFT
 10
0.0
 20
0.0
 30
0.0
  9
$UCSORGRIGHT
 10
0.0
 20
0.0
 30
0.0
  9
$UCSORGFRONT
 10
0.0
 20
0.0
 30
0.0
  9
$UCSORGBACK
 10
0.0
 20
0.0
 30
0.0
  9
$PUCSBASE
  2

  9
$PUCSNAME
  2

  9
$PUCSORG
 10
0.0
 20
0.0
 30
0.0
  9
$PUCSXDIR
 10
1.0
 20
0.0
 30
0.0
  9
$PUCSYDIR
 10
0.0
 20
1.0
 30
0.0
  9
$PUCSORTHOREF
  2

  9
$PUCSORTHOVIEW
 70
     0
  9
$PUCSORGTOP
 10
0.0
 20
0.0
 30
0.0
  9
$PUCSORGBOTTOM
 10
0.0
 20
0.0
 30
0.0
  9
$PUCSORGLEFT
 10
0.0
 20
0.0
 30
0.0
  9
$PUCSORGRIGHT
 10
0.0
 20
0.0
 30
0.0
  9
$PUCSORGFRONT
 10
0.0
 20
0.0
 30
0.0
  9
$PUCSORGBACK
 10
0.0
 20
0.0
 30
0.0
  9
$USERI1
 70
     0
  9
$USERI2
 70
     0
  9
$USERI3
 70
     0
  9
$USERI4
 70
     0
  9
$USERI5
 70
     0
  9
$USERR1
 40
0.0
  9
$USERR2
 40
0.0
  9
$USERR3
 40
0.0
  9
$USERR4
 40
0.0
  9
$USERR5
 40
0.0
  9
$WORLDVIEW
 70
     1
  9
$SHADEDGE
 70
     3
  9
$SHADEDIF
 70
    70
  9
$TILEMODE
 70
     1
  9
$MAXACTVP
 70
    64
  9
$PINSBASE
 10
0.0
 20
0.0
 30
0.0
  9
$PLIMCHECK
 70
     0
  9
$PEXTMIN
 10
0.0
 20
0.0
 30
0.0
  9
$PEXTMAX
 10
0.0
 20
0.0
 30
0.0
  9
$PLIMMIN
 10
0.0
 20
0.0
  9
$PLIMMAX
 10
12.0
 20
9.0
  9
$UNITMODE
 70
     0
  9
$VISRETAIN
 70
     1
  9
$PLINEGEN
 70
     0
  9
$PSLTSCALE
 70
     1
  9
$TREEDEPTH
 70
  3020
  9
$CMLSTYLE
  2
Standard
  9
$CMLJUST
 70
     0
  9
$CMLSCALE
 40
1.0
  9
$PROXYGRAPHICS
 70
     1
  9
$MEASUREMENT
 70
     0
  9
$CELWEIGHT
370
    -1
  9
$ENDCAPS
280
     0
  9
$JOINSTYLE
280
     0
  9
$LWDISPLAY
290
     0
  9
$INSUNITS
 70
     0
  9
$HYPERLINKBASE
  1

  9
$STYLESHEET
  1
N-PLOT.CTB
  9
$XEDIT
290
     1
  9
$CEPSNTYPE
380
     0
  9
$PSTYLEMODE
290
     1
  9
$FINGERPRINTGUID
  2
{DA8AC90B-972E-4A8E-9AFF-7814461E835C}
  9
$VERSIONGUID
  2
{49673E69-DE0D-4BF3-B2B7-981F0784A026}
  9
$EXTNAMES
290
     1
  9
$PSVPSCALE
 40
0.0
  9
$OLESTARTUP
290
     0
  0
ENDSEC
  0
SECTION
  2
CLASSES
  0
CLASS
  1
ACDBDICTIONARYWDFLT
  2
AcDbDictionaryWithDefault
  3
ObjectDBX Classes
 90
        0
280
     0
281
     0
  0
CLASS
  1
MATERIAL
  2
AcDbMaterial
  3
ObjectDBX Classes
 90
     1153
280
     0
281
     0
  0
CLASS
  1
VISUALSTYLE
  2
AcDbVisualStyle
  3
ObjectDBX Classes
 90
     4095
280
     0
281
     0
  0
CLASS
  1
SCALE
  2
AcDbScale
  3
ObjectDBX Classes
 90
     1153
280
     0
281
     0
  0
CLASS
  1
TABLESTYLE
  2
AcDbTableStyle
  3
ObjectDBX Classes
 90
     4095
280
     0
281
     0
  0
CLASS
  1
MLEADERSTYLE
  2
AcDbMLeaderStyle
  3
ACDB_MLEADERSTYLE_CLASS
 90
     4095
280
     0
281
     0
  0
CLASS
  1
DICTIONARYVAR
  2
AcDbDictionaryVar
  3
ObjectDBX Classes
 90
        0
280
     0
281
     0
  0
CLASS
  1
CELLSTYLEMAP
  2
AcDbCellStyleMap
  3
ObjectDBX Classes
 90
     1152
280
     0
281
     0
  0
CLASS
  1
SORTENTSTABLE
  2
AcDbSortentsTable
  3
ObjectDBX Classes
 90
        0
280
     0
281
     0
  0
CLASS
  1
ACDBPLACEHOLDER
  2
AcDbPlaceHolder
  3
ObjectDBX Classes
 90
        0
280
     0
281
     0
  0
CLASS
  1
LAYOUT
  2
AcDbLayout
  3
ObjectDBX Classes
 90
        0
280
     0
281
     0
  0
CLASS
  1
EXACXREFPANELOBJECT
  2
ExAcXREFPanelObject
  3
EXAC_ESW
 90
    33793
280
     0
281
     0
  0
CLASS
  1
NPOCOLLECTION
  2
AcDbImpNonPersistentObjectsCollection
  3
ObjectDBX Classes
 90
    33921
280
     0
281
     0
  0
ENDSEC
  0
SECTION
  2
TABLES
  0
TABLE
  2
VPORT
  5
28FB
330
0
100
AcDbSymbolTable
 70
     1
  0
VPORT
  5
2963
330
28FB
100
AcDbSymbolTableRecord
100
AcDbViewportTableRecord
  2
*ACTIVE
 70
     0
 10
0.0
 20
0.0
 11
1.0
 21
1.0
 12
437.1944886195309
 22
93.34715489888925
 13
0.0
 23
0.0
 14
0.5
 24
0.5
 15
0.5
 25
0.5
 16
0.0
 26
0.0
 36
1.0
 17
0.0
 27
0.0
 37
0.0
 40
663.1350617699957
 41
1.779354838709677
 42
50.0
 43
0.0
 44
0.0
 50
0.0
 51
0.0
 71
     0
 72
  1000
 73
     1
 74
     2
 75
     0
 76
     0
 77
     0
 78
     0
281
     0
 65
     1
110
0.0
120
0.0
130
0.0
111
1.0
121
0.0
131
0.0
112
0.0
122
1.0
132
0.0
 79
     0
146
0.0
  0
ENDTAB
  0
TABLE
  2
LTYPE
  5
28F8
330
0
100
AcDbSymbolTable
 70
     5
  0
LTYPE
  5
294D
330
28F8
100
AcDbSymbolTableRecord
100
AcDbLinetypeTableRecord
  2
ByBlock
 70
     0
  3

 72
    65
 73
     0
 40
0.0
  0
LTYPE
  5
294E
330
28F8
100
AcDbSymbolTableRecord
100
AcDbLinetypeTableRecord
  2
ByLayer
 70
     0
  3

 72
    65
 73
     0
 40
0.0
  0
LTYPE
  5
294F
330
28F8
100
AcDbSymbolTableRecord
100
AcDbLinetypeTableRecord
  2
CONTINUOUS
 70
     0
  3
Solid line
 72
    65
 73
     0
 40
0.0
  0
LTYPE
  5
430D
330
28F8
100
AcDbSymbolTableRecord
100
AcDbLinetypeTableRecord
  2
PHANTOM
 70
     0
  3
Phantom ______  __  __  ______  __  __  ______
 72
    65
 73
     6
 40
2.5
 49
1.25
 74
     0
 49
-0.25
 74
     0
 49
0.25
 74
     0
 49
-0.25
 74
     0
 49
0.25
 74
     0
 49
-0.25
 74
     0
  0
LTYPE
  5
430E
330
28F8
100
AcDbSymbolTableRecord
100
AcDbLinetypeTableRecord
  2
CENTER
 70
     0
  3
Center ____ _ ____ _ ____ _ ____ _ ____ _ ____
 72
    65
 73
     4
 40
2.0
 49
1.25
 74
     0
 49
-0.25
 74
     0
 49
0.25
 74
     0
 49
-0.25
 74
     0
  0
LTYPE
  5
52F7
330
28F8
100
AcDbSymbolTableRecord
100
AcDbLinetypeTableRecord
  2
HIDDEN
 70
     0
  3
Hidden __ __ __ __ __ __ __ __ __ __ __ __ __ _
 72
    65
 73
     2
 40
0.375
 49
0.25
 74
     0
 49
-0.125
 74
     0
  0
ENDTAB
  0
TABLE
  2
LAYER
  5
28F5
102
{ACAD_XDICTIONARY
360
2BBD
102
}
330
0
100
AcDbSymbolTable
 70
     2
  0
LAYER
  5
2947
102
{ACAD_XDICTIONARY
360
2A49
102
}
330
28F5
100
AcDbSymbolTableRecord
100
AcDbLayerTableRecord
  2
0
 70
     0
 62
     7
  6
CONTINUOUS
370
    -3
390
2902
  0
LAYER
  5
2967
330
28F5
100
AcDbSymbolTableRecord
100
AcDbLayerTableRecord
  2
DEFPOINTS
 70
     0
 62
     7
  6
CONTINUOUS
290
     0
370
    -3
390
2902
  0
ENDTAB
  0
TABLE
  2
STYLE
  5
28F6
330
0
100
AcDbSymbolTable
 70
     7
  0
STYLE
  5
2948
330
28F6
100
AcDbSymbolTableRecord
100
AcDbTextStyleTableRecord
  2
STANDARD
 70
     0
 40
0.0
 41
1.0
 50
0.0
 71
     0
 42
0.2
  3
txt.shx
  4
bigfont.shx
  0
STYLE
  5
296D
330
28F6
100
AcDbSymbolTableRecord
100
AcDbTextStyleTableRecord
  2
高2
 70
     0
 40
2.0
 41
1.0
 50
0.0
 71
     0
 42
6.299999999999998
  3
txt.shx
  4
bigfont.shx
  0
STYLE
  5
2BB6
330
28F6
100
AcDbSymbolTableRecord
100
AcDbTextStyleTableRecord
  2
高3.2
 70
     0
 40
3.2
 41
1.0
 50
0.0
 71
     0
 42
3.2
  3
txt.shx
  4
bigfont.shx
  0
STYLE
  5
2BB7
330
28F6
100
AcDbSymbolTableRecord
100
AcDbTextStyleTableRecord
  2
高2.5
 70
     0
 40
2.5
 41
1.0
 50
0.0
 71
     0
 42
0.2
  3
txt.shx
  4
bigfont.shx
  0
STYLE
  5
2C97
330
28F6
100
AcDbSymbolTableRecord
100
AcDbTextStyleTableRecord
  2
高6.3
 70
     0
 40
6.299999999999998
 41
1.0
 50
0.0
 71
     0
 42
6.299999999999998
  3
txt.shx
  4
bigfont.shx
  0
STYLE
  5
2C98
330
28F6
100
AcDbSymbolTableRecord
100
AcDbTextStyleTableRecord
  2
高4.5
 70
     0
 40
4.5
 41
1.0
 50
0.0
 71
     0
 42
6.299999999999998
  3
txt.shx
  4
bigfont.shx
  0
STYLE
  5
52F6
330
28F6
100
AcDbSymbolTableRecord
100
AcDbTextStyleTableRecord
  2

 70
     1
 40
0.0
 41
1.0
 50
0.0
 71
     0
 42
3.2
  3
ltypeshp.shx
  4

  0
ENDTAB
  0
TABLE
  2
VIEW
  5
28F9
330
0
100
AcDbSymbolTable
 70
     0
  0
ENDTAB
  0
TABLE
  2
UCS
  5
28FA
330
0
100
AcDbSymbolTable
 70
     0
  0
ENDTAB
  0
TABLE
  2
APPID
  5
28FC
330
0
100
AcDbSymbolTable
 70
    18
  0
APPID
  5
2949
330
28FC
100
AcDbSymbolTableRecord
100
AcDbRegAppTableRecord
  2
ACAD
 70
     0
  0
APPID
  5
2950
330
28FC
100
AcDbSymbolTableRecord
100
AcDbRegAppTableRecord
  2
AcadAnnotative
 70
     0
  0
APPID
  5
296E
330
28FC
100
AcDbSymbolTableRecord
100
AcDbRegAppTableRecord
  2
ACAD_DSTYLE_DIMJOGGED_JOGA
 70
     0
  0
APPID
  5
296F
330
28FC
100
AcDbSymbolTableRecord
100
AcDbRegAppTableRecord
  2
GRADIENTCOLOR1ACI
 70
     0
  0
APPID
  5
2970
330
28FC
100
AcDbSymbolTableRecord
100
AcDbRegAppTableRecord
  2
GRADIENTCOLOR2ACI
 70
     0
  0
APPID
  5
2971
330
28FC
100
AcDbSymbolTableRecord
100
AcDbRegAppTableRecord
  2
ACAD_EXEMPT_FROM_CAD_STANDARDS
 70
     0
  0
APPID
  5
2972
330
28FC
100
AcDbSymbolTableRecord
100
AcDbRegAppTableRecord
  2
ACAUTHENVIRON
 70
     0
  0
APPID
  5
2973
330
28FC
100
AcDbSymbolTableRecord
100
AcDbRegAppTableRecord
  2
ACDBDYNAMICBLOCKTRUENAME
 70
     0
  0
APPID
  5
2974
330
28FC
100
AcDbSymbolTableRecord
100
AcDbRegAppTableRecord
  2
ACDBDYNAMICBLOCKGUID
 70
     0
  0
APPID
  5
2975
330
28FC
100
AcDbSymbolTableRecord
100
AcDbRegAppTableRecord
  2
ACAD_MLEADERVER
 70
     0
  0
APPID
  5
2BBB
330
28FC
100
AcDbSymbolTableRecord
100
AcDbRegAppTableRecord
  2
ACAD_DSTYLE_DIMJOGGED_JOGANGLE_SYMBOL
 70
     0
  0
APPID
  5
2BBC
330
28FC
100
AcDbSymbolTableRecord
100
AcDbRegAppTableRecord
  2
ACAD_PSEXT
 70
     0
  0
APPID
  5
2CA0
330
28FC
100
AcDbSymbolTableRecord
100
AcDbRegAppTableRecord
  2
ACAD_DSTYLE_DIMJAG
 70
     0
  0
APPID
  5
2CA1
330
28FC
100
AcDbSymbolTableRecord
100
AcDbRegAppTableRecord
  2
ACAD_DSTYLE_DIMBREAK
 70
     0
  0
APPID
  5
2CA2
330
28FC
100
AcDbSymbolTableRecord
100
AcDbRegAppTableRecord
  2
ACAD_DSTYLE_DIMTALN
 70
     0
  0
APPID
  5
2F83
330
28FC
100
AcDbSymbolTableRecord
100
AcDbRegAppTableRecord
  2
ACAD_DSTYLE_DIMARC_LENGTH_SYMBOL
 70
     0
  0
APPID
  5
2F84
330
28FC
100
AcDbSymbolTableRecord
100
AcDbRegAppTableRecord
  2
ACAD_DSTYLE_DIMEXT_LENGTH
 70
     0
  0
APPID
  5
31C2
330
28FC
100
AcDbSymbolTableRecord
100
AcDbRegAppTableRecord
  2
AcadAnnoPO
 70
     0
  0
ENDTAB
  0
TABLE
  2
DIMSTYLE
  5
28FD
330
0
100
AcDbSymbolTable
 70
     3
100
AcDbDimStyleTable
 71
     2
340
2BB8
340
2BBA
  0
DIMSTYLE
105
294A
330
28FD
100
AcDbSymbolTableRecord
100
AcDbDimStyleTableRecord
  2
Standard
 70
     0
340
2948
  0
DIMSTYLE
105
2BB8
330
28FD
100
AcDbSymbolTableRecord
100
AcDbDimStyleTableRecord
  2
1／2
 70
     0
 41
2.5
 42
0.25
 43
0.2
 44
1.25
 73
     0
 74
     0
 77
     3
 78
     8
 79
     2
140
3.0
141
0.0
143
0.03937007874016
144
2.0
147
0.625
171
     3
172
     1
178
     4
179
     1
271
     2
272
     2
274
     3
283
     0
284
     8
288
     1
289
     0
340
2948
341
2984
342
2984
1001
ACAD_DSTYLE_DIMARC_LENGTH_SYMBOL
1070
   379
1070
     2
1001
ACAD_DSTYLE_DIMEXT_LENGTH
1070
   378
1040
1.25
1001
ACAD_DSTYLE_DIMJOGGED_JOGANGLE_SYMBOL
1070
   384
1040
1.570796326794896
  0
DIMSTYLE
105
2BBA
330
28FD
100
AcDbSymbolTableRecord
100
AcDbDimStyleTableRecord
  2
1：1
 70
     0
 41
2.5
 42
0.25
 43
0.2
 44
1.25
 73
     0
 74
     0
 77
     3
 78
     8
 79
     2
140
3.0
141
0.0
143
0.03937007874016
147
0.625
171
     3
172
     1
178
     4
179
     1
271
     2
272
     2
274
     3
283
     0
284
     8
288
     1
289
     0
340
2948
341
2984
342
2984
1001
ACAD_DSTYLE_DIMARC_LENGTH_SYMBOL
1070
   379
1070
     2
1001
ACAD_DSTYLE_DIMEXT_LENGTH
1070
   378
1040
1.25
1001
ACAD_DSTYLE_DIMJOGGED_JOGANGLE_SYMBOL
1070
   384
1040
1.570796326794896
  0
ENDTAB
  0
TABLE
  2
BLOCK_RECORD
  5
28F4
330
0
100
AcDbSymbolTable
 70
    27
  0
BLOCK_RECORD
  5
295E
102
{ACAD_XDICTIONARY
360
32D4
102
}
330
28F4
100
AcDbSymbolTableRecord
100
AcDbBlockTableRecord
  2
*Model_Space
340
2961
  0
BLOCK_RECORD
  5
295A
330
28F4
100
AcDbSymbolTableRecord
100
AcDbBlockTableRecord
  2
*Paper_Space
340
295D
  0
BLOCK_RECORD
  5
2984
330
28F4
100
AcDbSymbolTableRecord
100
AcDbBlockTableRecord
  2
_OPEN30
340
0
102
{BLKREFS
331
4D66
331
4D67
331
4D6F
331
4D70
331
4D78
331
4D79
331
4D81
331
4D82
331
4D8A
331
4D8B
331
4D93
331
4D94
331
4D9C
331
4D9D
331
4DA5
331
4DA6
331
4DAE
331
4DAF
331
4DB7
331
4DB8
331
4DC2
331
4DC3
331
4DCD
331
4DCE
331
4DD6
331
4DD7
331
4DDF
331
4DE0
331
4DE8
331
4DE9
331
4DF3
331
4DF4
331
57CA
331
57CB
331
57D3
331
57D4
331
57DC
331
57DD
331
57E5
331
57E6
331
57ED
331
57EE
331
57F8
331
57F9
331
5801
331
5802
331
580C
331
580D
102
}
  0
BLOCK_RECORD
  5
29CF
330
28F4
100
AcDbSymbolTableRecord
100
AcDbBlockTableRecord
  2
_DOTSMALL
340
0
  0
BLOCK_RECORD
  5
4322
330
28F4
100
AcDbSymbolTableRecord
100
AcDbBlockTableRecord
  2
*D2
340
0
  0
BLOCK_RECORD
  5
432F
330
28F4
100
AcDbSymbolTableRecord
100
AcDbBlockTableRecord
  2
*D3
340
0
  0
BLOCK_RECORD
  5
433C
330
28F4
100
AcDbSymbolTableRecord
100
AcDbBlockTableRecord
  2
*D4
340
0
  0
BLOCK_RECORD
  5
4349
330
28F4
100
AcDbSymbolTableRecord
100
AcDbBlockTableRecord
  2
*D5
340
0
  0
BLOCK_RECORD
  5
4356
330
28F4
100
AcDbSymbolTableRecord
100
AcDbBlockTableRecord
  2
*D6
340
0
  0
BLOCK_RECORD
  5
4363
330
28F4
100
AcDbSymbolTableRecord
100
AcDbBlockTableRecord
  2
*D7
340
0
  0
BLOCK_RECORD
  5
4370
330
28F4
100
AcDbSymbolTableRecord
100
AcDbBlockTableRecord
  2
*D8
340
0
  0
BLOCK_RECORD
  5
4390
330
28F4
100
AcDbSymbolTableRecord
100
AcDbBlockTableRecord
  2
*D9
340
0
  0
BLOCK_RECORD
  5
43A6
330
28F4
100
AcDbSymbolTableRecord
100
AcDbBlockTableRecord
  2
*D10
340
0
  0
BLOCK_RECORD
  5
43BC
330
28F4
100
AcDbSymbolTableRecord
100
AcDbBlockTableRecord
  2
*D11
340
0
  0
BLOCK_RECORD
  5
43CB
330
28F4
100
AcDbSymbolTableRecord
100
AcDbBlockTableRecord
  2
*D12
340
0
  0
BLOCK_RECORD
  5
43DA
330
28F4
100
AcDbSymbolTableRecord
100
AcDbBlockTableRecord
  2
*D13
340
0
  0
BLOCK_RECORD
  5
43E7
330
28F4
100
AcDbSymbolTableRecord
100
AcDbBlockTableRecord
  2
*D14
340
0
  0
BLOCK_RECORD
  5
43F6
330
28F4
100
AcDbSymbolTableRecord
100
AcDbBlockTableRecord
  2
*D15
340
0
  0
BLOCK_RECORD
  5
4403
330
28F4
100
AcDbSymbolTableRecord
100
AcDbBlockTableRecord
  2
*D16
340
0
  0
BLOCK_RECORD
  5
45C9
330
28F4
100
AcDbSymbolTableRecord
100
AcDbBlockTableRecord
  2
*D17
340
0
  0
BLOCK_RECORD
  5
520E
102
{ACAD_XDICTIONARY
360
524B
102
}
330
28F4
100
AcDbSymbolTableRecord
100
AcDbBlockTableRecord
  2
A$C535C4466
340
0
  0
BLOCK_RECORD
  5
532D
330
28F4
100
AcDbSymbolTableRecord
100
AcDbBlockTableRecord
  2
*D19
340
0
  0
BLOCK_RECORD
  5
537A
330
28F4
100
AcDbSymbolTableRecord
100
AcDbBlockTableRecord
  2
*D20
340
0
  0
BLOCK_RECORD
  5
5387
330
28F4
100
AcDbSymbolTableRecord
100
AcDbBlockTableRecord
  2
*D21
340
0
  0
BLOCK_RECORD
  5
5394
330
28F4
100
AcDbSymbolTableRecord
100
AcDbBlockTableRecord
  2
*D22
340
0
  0
BLOCK_RECORD
  5
53A7
330
28F4
100
AcDbSymbolTableRecord
100
AcDbBlockTableRecord
  2
*D23
340
0
  0
BLOCK_RECORD
  5
569D
330
28F4
100
AcDbSymbolTableRecord
100
AcDbBlockTableRecord
  2
*D24
340
0
  0
BLOCK_RECORD
  5
56C9
330
28F4
100
AcDbSymbolTableRecord
100
AcDbBlockTableRecord
  2
*D25
340
0
  0
BLOCK_RECORD
  5
56D6
330
28F4
100
AcDbSymbolTableRecord
100
AcDbBlockTableRecord
  2
*D26
340
0
  0
ENDTAB
  0
ENDSEC
  0
SECTION
  2
BLOCKS
  0
BLOCK
  5
295F
330
295E
100
AcDbEntity
  8
0
100
AcDbBlockBegin
  2
*Model_Space
 70
     0
 10
0.0
 20
0.0
 30
0.0
  3
*Model_Space
  1

  0
ENDBLK
  5
2960
330
295E
100
AcDbEntity
  8
0
100
AcDbBlockEnd
  0
BLOCK
  5
295B
330
295A
100
AcDbEntity
 67
     1
  8
0
100
AcDbBlockBegin
  2
*Paper_Space
 70
     0
 10
0.0
 20
0.0
 30
0.0
  3
*Paper_Space
  1

  0
ENDBLK
  5
295C
330
295A
100
AcDbEntity
 67
     1
  8
0
100
AcDbBlockEnd
  0
BLOCK
  5
2985
330
2984
100
AcDbEntity
  8
0
100
AcDbBlockBegin
  2
_OPEN30
 70
     0
 10
0.0
 20
0.0
 30
0.0
  3
_OPEN30
  1

  0
LINE
  5
C8
330
2984
100
AcDbEntity
  8
0
  6
ByBlock
 62
     0
100
AcDbLine
 10
-1.0
 20
0.267949
 30
0.0
 11
0.0
 21
0.0
 31
0.0
  0
LINE
  5
C9
330
2984
100
AcDbEntity
  8
0
  6
ByBlock
 62
     0
100
AcDbLine
 10
0.0
 20
0.0
 30
0.0
 11
-1.0
 21
-0.267949
 31
0.0
  0
LINE
  5
CA
330
2984
100
AcDbEntity
  8
0
  6
ByBlock
 62
     0
100
AcDbLine
 10
0.0
 20
0.0
 30
0.0
 11
-1.0
 21
0.0
 31
0.0
  0
ENDBLK
  5
CB
330
2984
100
AcDbEntity
  8
0
100
AcDbBlockEnd
  0
BLOCK
  5
29D0
330
29CF
100
AcDbEntity
  8
0
100
AcDbBlockBegin
  2
_DOTSMALL
 70
     0
 10
0.0
 20
0.0
 30
0.0
  3
_DOTSMALL
  1

  0
LWPOLYLINE
  5
1219
330
29CF
100
AcDbEntity
  8
0
  6
ByBlock
 62
     0
100
AcDbPolyline
 90
        2
 70
     1
 43
0.5
 10
-0.0625
 20
0.0
 42
1.0
 10
0.0625
 20
0.0
 42
1.0
  0
ENDBLK
  5
121B
330
29CF
100
AcDbEntity
  8
0
100
AcDbBlockEnd
  0
BLOCK
  5
4323
330
4322
100
AcDbEntity
  8
0
100
AcDbBlockBegin
  2
*D2
 70
     1
 10
0.0
 20
0.0
 30
0.0
  3
*D2
  1

  0
LINE
  5
4D63
330
4322
100
AcDbEntity
  8
0
 62
     0
370
    -2
100
AcDbLine
 10
406.3809297035128
 20
199.8887117158313
 30
0.0
 11
406.3809297035128
 21
235.8385423252189
 31
0.0
  0
LINE
  5
4D64
330
4322
100
AcDbEntity
  8
0
 62
     0
370
    -2
100
AcDbLine
 10
373.380929703513
 20
199.8887117158313
 30
0.0
 11
373.380929703513
 21
235.8385423252189
 31
0.0
  0
LINE
  5
4D65
330
4322
100
AcDbEntity
  8
0
 62
     0
370
    -2
100
AcDbLine
 10
403.8809297035126
 20
234.5885423252189
 30
0.0
 11
375.880929703513
 21
234.5885423252189
 31
0.0
  0
INSERT
  5
4D66
330
4322
100
AcDbEntity
  8
0
 62
     0
370
    -2
100
AcDbBlockReference
  2
_OPEN30
 10
406.3809297035128
 20
234.5885423252189
 30
0.0
 41
2.5
 42
2.5
 43
2.5
  0
INSERT
  5
4D67
330
4322
100
AcDbEntity
  8
0
 62
     0
370
    -2
100
AcDbBlockReference
  2
_OPEN30
 10
373.380929703513
 20
234.5885423252189
 30
0.0
 41
2.5
 42
2.5
 43
2.5
 50
180.0
  0
MTEXT
  5
4D68
330
4322
100
AcDbEntity
  8
0
 62
     4
100
AcDbMText
 10
390.1144995991119
 20
236.7135423252189
 30
0.0
 40
3.0
 41
0.0
 71
     5
 72
     1
  1
33
 73
     1
 44
1.0
1001
ACAD
1000
MTEXTBEGIN
1070
    73
1070
     1
1070
    44
1040
1.0
1070
    74
1070
     0
1000
MTEXTEND
  0
POINT
  5
4D69
330
4322
100
AcDbEntity
  8
DEFPOINTS
 62
     0
100
AcDbPoint
 10
406.3809297035128
 20
199.6387117158313
 30
0.0
  0
POINT
  5
4D6A
330
4322
100
AcDbEntity
  8
DEFPOINTS
 62
     0
100
AcDbPoint
 10
373.380929703513
 20
199.6387117158313
 30
0.0
  0
POINT
  5
4D6B
330
4322
100
AcDbEntity
  8
DEFPOINTS
 62
     0
100
AcDbPoint
 10
373.380929703513
 20
234.5885423252189
 30
0.0
  0
ENDBLK
  5
4324
330
4322
100
AcDbEntity
  8
0
100
AcDbBlockEnd
  0
BLOCK
  5
4330
330
432F
100
AcDbEntity
  8
0
100
AcDbBlockBegin
  2
*D3
 70
     1
 10
0.0
 20
0.0
 30
0.0
  3
*D3
  1

  0
LINE
  5
4D6C
330
432F
100
AcDbEntity
  8
0
 62
     0
370
    -2
100
AcDbLine
 10
374.1309297035129
 20
200.6387117158315
 30
0.0
 11
341.7122841573084
 21
200.6387117158315
 31
0.0
  0
LINE
  5
4D6D
330
432F
100
AcDbEntity
  8
0
 62
     0
370
    -2
100
AcDbLine
 10
374.1309297035129
 20
187.1387117158315
 30
0.0
 11
341.7122841573084
 21
187.1387117158315
 31
0.0
  0
LINE
  5
4D6E
330
432F
100
AcDbEntity
  8
0
 62
     0
370
    -2
100
AcDbLine
 10
342.9622841573084
 20
198.1387117158315
 30
0.0
 11
342.9622841573084
 21
189.6387117158315
 31
0.0
  0
INSERT
  5
4D6F
330
432F
100
AcDbEntity
  8
0
 62
     0
370
    -2
100
AcDbBlockReference
  2
_OPEN30
 10
342.9622841573084
 20
200.6387117158315
 30
0.0
 41
2.5
 42
2.5
 43
2.5
 50
90.0
  0
INSERT
  5
4D70
330
432F
100
AcDbEntity
  8
0
 62
     0
370
    -2
100
AcDbBlockReference
  2
_OPEN30
 10
342.9622841573084
 20
187.1387117158315
 30
0.0
 41
2.5
 42
2.5
 43
2.5
 50
270.0
  0
MTEXT
  5
4D71
330
432F
100
AcDbEntity
  8
0
 62
     4
100
AcDbMText
 10
340.8372841573084
 20
194.1488888647086
 30
0.0
 40
3.0
 41
0.0
 71
     5
 72
     1
  1
13.5
 11
0.0000000000000001
 21
1.0
 31
0.0
 73
     1
 44
1.0
1001
ACAD
1000
MTEXTBEGIN
1070
    73
1070
     1
1070
    44
1040
1.0
1070
    74
1070
     0
1000
MTEXTEND
  0
POINT
  5
4D72
330
432F
100
AcDbEntity
  8
DEFPOINTS
 62
     0
100
AcDbPoint
 10
374.3809297035129
 20
200.6387117158315
 30
0.0
  0
POINT
  5
4D73
330
432F
100
AcDbEntity
  8
DEFPOINTS
 62
     0
100
AcDbPoint
 10
374.3809297035129
 20
187.1387117158315
 30
0.0
  0
POINT
  5
4D74
330
432F
100
AcDbEntity
  8
DEFPOINTS
 62
     0
100
AcDbPoint
 10
342.9622841573084
 20
187.1387117158315
 30
0.0
  0
ENDBLK
  5
4331
330
432F
100
AcDbEntity
  8
0
100
AcDbBlockEnd
  0
BLOCK
  5
433D
330
433C
100
AcDbEntity
  8
0
100
AcDbBlockBegin
  2
*D4
 70
     1
 10
0.0
 20
0.0
 30
0.0
  3
*D4
  1

  0
LINE
  5
4D75
330
433C
100
AcDbEntity
  8
0
 62
     0
370
    -2
100
AcDbLine
 10
359.130929703513
 20
221.8887117158315
 30
0.0
 11
335.5698510355367
 21
221.8887117158315
 31
0.0
  0
LINE
  5
4D76
330
433C
100
AcDbEntity
  8
0
 62
     0
370
    -2
100
AcDbLine
 10
359.130929703513
 20
165.8887117158315
 30
0.0
 11
335.5698510355367
 21
165.8887117158315
 31
0.0
  0
LINE
  5
4D77
330
433C
100
AcDbEntity
  8
0
 62
     0
370
    -2
100
AcDbLine
 10
336.8198510355366
 20
219.3887117158315
 30
0.0
 11
336.8198510355366
 21
168.3887117158315
 31
0.0
  0
INSERT
  5
4D78
330
433C
100
AcDbEntity
  8
0
 62
     0
370
    -2
100
AcDbBlockReference
  2
_OPEN30
 10
336.8198510355366
 20
221.8887117158315
 30
0.0
 41
2.5
 42
2.5
 43
2.5
 50
90.0
  0
INSERT
  5
4D79
330
433C
100
AcDbEntity
  8
0
 62
     0
370
    -2
100
AcDbBlockReference
  2
_OPEN30
 10
336.8198510355366
 20
165.8887117158315
 30
0.0
 41
2.5
 42
2.5
 43
2.5
 50
270.0
  0
MTEXT
  5
4D7A
330
433C
100
AcDbEntity
  8
0
 62
     4
100
AcDbMText
 10
334.6948510355366
 20
194.3294232929313
 30
0.0
 40
3.0
 41
0.0
 71
     5
 72
     1
  1
56
 11
0.0000000000000001
 21
1.0
 31
0.0
 73
     1
 44
1.0
1001
ACAD
1000
MTEXTBEGIN
1070
    73
1070
     1
1070
    44
1040
1.0
1070
    74
1070
     0
1000
MTEXTEND
  0
POINT
  5
4D7B
330
433C
100
AcDbEntity
  8
DEFPOINTS
 62
     0
100
AcDbPoint
 10
359.380929703513
 20
221.8887117158315
 30
0.0
  0
POINT
  5
4D7C
330
433C
100
AcDbEntity
  8
DEFPOINTS
 62
     0
100
AcDbPoint
 10
359.380929703513
 20
165.8887117158315
 30
0.0
  0
POINT
  5
4D7D
330
433C
100
AcDbEntity
  8
DEFPOINTS
 62
     0
100
AcDbPoint
 10
336.8198510355366
 20
165.8887117158315
 30
0.0
  0
ENDBLK
  5
433E
330
433C
100
AcDbEntity
  8
0
100
AcDbBlockEnd
  0
BLOCK
  5
434A
330
4349
100
AcDbEntity
  8
0
100
AcDbBlockBegin
  2
*D5
 70
     1
 10
0.0
 20
0.0
 30
0.0
  3
*D5
  1

  0
LINE
  5
4D7E
330
4349
100
AcDbEntity
  8
0
 62
     0
370
    -2
100
AcDbLine
 10
354.3809297035129
 20
217.1387117158315
 30
0.0
 11
354.3809297035129
 21
241.6156348579336
 31
0.0
  0
LINE
  5
4D7F
330
4349
100
AcDbEntity
  8
0
 62
     0
370
    -2
100
AcDbLine
 10
425.3809297035129
 20
217.1387117158314
 30
0.0
 11
425.3809297035129
 21
241.6156348579336
 31
0.0
  0
LINE
  5
4D80
330
4349
100
AcDbEntity
  8
0
 62
     0
370
    -2
100
AcDbLine
 10
356.8809297035129
 20
240.3656348579336
 30
0.0
 11
422.8809297035128
 21
240.3656348579336
 31
0.0
  0
INSERT
  5
4D81
330
4349
100
AcDbEntity
  8
0
 62
     0
370
    -2
100
AcDbBlockReference
  2
_OPEN30
 10
354.3809297035129
 20
240.3656348579336
 30
0.0
 41
2.5
 42
2.5
 43
2.5
 50
180.0
  0
INSERT
  5
4D82
330
4349
100
AcDbEntity
  8
0
 62
     0
370
    -2
100
AcDbBlockReference
  2
_OPEN30
 10
425.3809297035129
 20
240.3656348579336
 30
0.0
 41
2.5
 42
2.5
 43
2.5
  0
MTEXT
  5
4D83
330
4349
100
AcDbEntity
  8
0
 62
     4
100
AcDbMText
 10
389.5725217100874
 20
242.4906348579336
 30
0.0
 40
3.0
 41
0.0
 71
     5
 72
     1
  1
71
 73
     1
 44
1.0
1001
ACAD
1000
MTEXTBEGIN
1070
    73
1070
     1
1070
    44
1040
1.0
1070
    74
1070
     0
1000
MTEXTEND
  0
POINT
  5
4D84
330
4349
100
AcDbEntity
  8
DEFPOINTS
 62
     0
100
AcDbPoint
 10
354.3809297035129
 20
216.8887117158315
 30
0.0
  0
POINT
  5
4D85
330
4349
100
AcDbEntity
  8
DEFPOINTS
 62
     0
100
AcDbPoint
 10
425.3809297035129
 20
216.8887117158314
 30
0.0
  0
POINT
  5
4D86
330
4349
100
AcDbEntity
  8
DEFPOINTS
 62
     0
100
AcDbPoint
 10
425.3809297035129
 20
240.3656348579336
 30
0.0
  0
ENDBLK
  5
434B
330
4349
100
AcDbEntity
  8
0
100
AcDbBlockEnd
  0
BLOCK
  5
4357
330
4356
100
AcDbEntity
  8
0
100
AcDbBlockBegin
  2
*D6
 70
     1
 10
0.0
 20
0.0
 30
0.0
  3
*D6
  1

  0
LINE
  5
4D87
330
4356
100
AcDbEntity
  8
0
 62
     0
370
    -2
100
AcDbLine
 10
348.630929703513
 20
206.1387117158313
 30
0.0
 11
348.630929703513
 21
248.7716900081345
 31
0.0
  0
LINE
  5
4D88
330
4356
100
AcDbEntity
  8
0
 62
     0
370
    -2
100
AcDbLine
 10
431.1309297035129
 20
206.1387117158313
 30
0.0
 11
431.1309297035129
 21
248.7716900081345
 31
0.0
  0
LINE
  5
4D89
330
4356
100
AcDbEntity
  8
0
 62
     0
370
    -2
100
AcDbLine
 10
351.130929703513
 20
247.5216900081345
 30
0.0
 11
428.6309297035129
 21
247.5216900081345
 31
0.0
  0
INSERT
  5
4D8A
330
4356
100
AcDbEntity
  8
0
 62
     0
370
    -2
100
AcDbBlockReference
  2
_OPEN30
 10
348.630929703513
 20
247.5216900081345
 30
0.0
 41
2.5
 42
2.5
 43
2.5
 50
180.0
  0
INSERT
  5
4D8B
330
4356
100
AcDbEntity
  8
0
 62
     0
370
    -2
100
AcDbBlockReference
  2
_OPEN30
 10
431.1309297035129
 20
247.5216900081345
 30
0.0
 41
2.5
 42
2.5
 43
2.5
  0
MTEXT
  5
4D8C
330
4356
100
AcDbEntity
  8
0
 62
     4
100
AcDbMText
 10
388.7390667557436
 20
249.6466900081345
 30
0.0
 40
3.0
 41
0.0
 71
     5
 72
     1
  1
82.5
 73
     1
 44
1.0
1001
ACAD
1000
MTEXTBEGIN
1070
    73
1070
     1
1070
    44
1040
1.0
1070
    74
1070
     0
1000
MTEXTEND
  0
POINT
  5
4D8D
330
4356
100
AcDbEntity
  8
DEFPOINTS
 62
     0
100
AcDbPoint
 10
348.630929703513
 20
205.8887117158313
 30
0.0
  0
POINT
  5
4D8E
330
4356
100
AcDbEntity
  8
DEFPOINTS
 62
     0
100
AcDbPoint
 10
431.1309297035129
 20
205.8887117158313
 30
0.0
  0
POINT
  5
4D8F
330
4356
100
AcDbEntity
  8
DEFPOINTS
 62
     0
100
AcDbPoint
 10
431.1309297035129
 20
247.5216900081345
 30
0.0
  0
ENDBLK
  5
4358
330
4356
100
AcDbEntity
  8
0
100
AcDbBlockEnd
  0
BLOCK
  5
4364
330
4363
100
AcDbEntity
  8
0
100
AcDbBlockBegin
  2
*D7
 70
     1
 10
0.0
 20
0.0
 30
0.0
  3
*D7
  1

  0
LINE
  5
4D90
330
4363
100
AcDbEntity
  8
0
 62
     0
370
    -2
100
AcDbLine
 10
377.630929703513
 20
227.3887117158315
 30
0.0
 11
330.0549116153336
 21
227.3887117158315
 31
0.0
  0
LINE
  5
4D91
330
4363
100
AcDbEntity
  8
0
 62
     0
370
    -2
100
AcDbLine
 10
359.130929703513
 20
165.8887117158315
 30
0.0
 11
330.0549116153336
 21
165.8887117158315
 31
0.0
  0
LINE
  5
4D92
330
4363
100
AcDbEntity
  8
0
 62
     0
370
    -2
100
AcDbLine
 10
331.3049116153337
 20
224.8887117158315
 30
0.0
 11
331.3049116153337
 21
168.3887117158315
 31
0.0
  0
INSERT
  5
4D93
330
4363
100
AcDbEntity
  8
0
 62
     0
370
    -2
100
AcDbBlockReference
  2
_OPEN30
 10
331.3049116153337
 20
227.3887117158315
 30
0.0
 41
2.5
 42
2.5
 43
2.5
 50
90.0
  0
INSERT
  5
4D94
330
4363
100
AcDbEntity
  8
0
 62
     0
370
    -2
100
AcDbBlockReference
  2
_OPEN30
 10
331.3049116153337
 20
165.8887117158315
 30
0.0
 41
2.5
 42
2.5
 43
2.5
 50
270.0
  0
MTEXT
  5
4D95
330
4363
100
AcDbEntity
  8
0
 62
     4
100
AcDbMText
 10
329.1799116153336
 20
197.5645835565346
 30
0.0
 40
3.0
 41
0.0
 71
     5
 72
     1
  1
61.5
 11
0.0000000000000001
 21
1.0
 31
0.0
 73
     1
 44
1.0
1001
ACAD
1000
MTEXTBEGIN
1070
    73
1070
     1
1070
    44
1040
1.0
1070
    74
1070
     0
1000
MTEXTEND
  0
POINT
  5
4D96
330
4363
100
AcDbEntity
  8
DEFPOINTS
 62
     0
100
AcDbPoint
 10
377.880929703513
 20
227.3887117158315
 30
0.0
  0
POINT
  5
4D97
330
4363
100
AcDbEntity
  8
DEFPOINTS
 62
     0
100
AcDbPoint
 10
359.380929703513
 20
165.8887117158315
 30
0.0
  0
POINT
  5
4D98
330
4363
100
AcDbEntity
  8
DEFPOINTS
 62
     0
100
AcDbPoint
 10
331.3049116153337
 20
165.8887117158315
 30
0.0
  0
ENDBLK
  5
4365
330
4363
100
AcDbEntity
  8
0
100
AcDbBlockEnd
  0
BLOCK
  5
4371
330
4370
100
AcDbEntity
  8
0
100
AcDbBlockBegin
  2
*D8
 70
     1
 10
0.0
 20
0.0
 30
0.0
  3
*D8
  1

  0
LINE
  5
4D99
330
4370
100
AcDbEntity
  8
0
 62
     0
370
    -2
100
AcDbLine
 10
294.4806099150467
 20
180.6387117158314
 30
0.0
 11
294.4806099150467
 21
170.3896972931411
 31
0.0
  0
LINE
  5
4D9A
330
4370
100
AcDbEntity
  8
0
 62
     0
370
    -2
100
AcDbLine
 10
310.2306099150467
 20
190.7637117158314
 30
0.0
 11
310.2306099150467
 21
170.3896972931411
 31
0.0
  0
LINE
  5
4D9B
330
4370
100
AcDbEntity
  8
0
 62
     0
370
    -2
100
AcDbLine
 10
296.9806099150467
 20
171.6396972931411
 30
0.0
 11
307.7306099150467
 21
171.6396972931411
 31
0.0
  0
INSERT
  5
4D9C
330
4370
100
AcDbEntity
  8
0
 62
     0
370
    -2
100
AcDbBlockReference
  2
_OPEN30
 10
294.4806099150467
 20
171.6396972931411
 30
0.0
 41
2.5
 42
2.5
 43
2.5
 50
180.0
  0
INSERT
  5
4D9D
330
4370
100
AcDbEntity
  8
0
 62
     0
370
    -2
100
AcDbBlockReference
  2
_OPEN30
 10
310.2306099150467
 20
171.6396972931411
 30
0.0
 41
2.5
 42
2.5
 43
2.5
  0
MTEXT
  5
4D9E
330
4370
100
AcDbEntity
  8
0
 62
     4
100
AcDbMText
 10
302.3556099150467
 20
173.7646972931411
 30
0.0
 40
3.0
 41
0.0
 71
     5
 72
     1
  1
31.5
 73
     1
 44
1.0
1001
ACAD
1000
MTEXTBEGIN
1070
    73
1070
     1
1070
    44
1040
1.0
1070
    74
1070
     0
1000
MTEXTEND
  0
POINT
  5
4D9F
330
4370
100
AcDbEntity
  8
DEFPOINTS
 62
     0
100
AcDbPoint
 10
294.4806099150467
 20
180.8887117158314
 30
0.0
  0
POINT
  5
4DA0
330
4370
100
AcDbEntity
  8
DEFPOINTS
 62
     0
100
AcDbPoint
 10
310.2306099150467
 20
191.0137117158314
 30
0.0
  0
POINT
  5
4DA1
330
4370
100
AcDbEntity
  8
DEFPOINTS
 62
     0
100
AcDbPoint
 10
310.2306099150467
 20
171.6396972931411
 30
0.0
  0
ENDBLK
  5
4372
330
4370
100
AcDbEntity
  8
0
100
AcDbBlockEnd
  0
BLOCK
  5
4391
330
4390
100
AcDbEntity
  8
0
100
AcDbBlockBegin
  2
*D9
 70
     1
 10
0.0
 20
0.0
 30
0.0
  3
*D9
  1

  0
LINE
  5
4DA2
330
4390
100
AcDbEntity
  8
0
 62
     0
370
    -2
100
AcDbLine
 10
192.4539952388375
 20
194.1387117158314
 30
0.0
 11
192.4539952388375
 21
210.5106681116893
 31
0.0
  0
LINE
  5
4DA3
330
4390
100
AcDbEntity
  8
0
 62
     0
370
    -2
100
AcDbLine
 10
220.9539952388376
 20
199.8887117158314
 30
0.0
 11
220.9539952388376
 21
210.5106681116893
 31
0.0
  0
LINE
  5
4DA4
330
4390
100
AcDbEntity
  8
0
 62
     0
370
    -2
100
AcDbLine
 10
194.9539952388375
 20
209.2606681116893
 30
0.0
 11
218.4539952388376
 21
209.2606681116893
 31
0.0
  0
INSERT
  5
4DA5
330
4390
100
AcDbEntity
  8
0
 62
     0
370
    -2
100
AcDbBlockReference
  2
_OPEN30
 10
192.4539952388375
 20
209.2606681116893
 30
0.0
 41
2.5
 42
2.5
 43
2.5
 50
180.0
  0
INSERT
  5
4DA6
330
4390
100
AcDbEntity
  8
0
 62
     0
370
    -2
100
AcDbBlockReference
  2
_OPEN30
 10
220.9539952388376
 20
209.2606681116893
 30
0.0
 41
2.5
 42
2.5
 43
2.5
  0
MTEXT
  5
4DA7
330
4390
100
AcDbEntity
  8
0
 62
     4
100
AcDbMText
 10
206.4039699102488
 20
211.3856681116893
 30
0.0
 40
3.0
 41
0.0
 71
     5
 72
     1
  1
57
 73
     1
 44
1.0
1001
ACAD
1000
MTEXTBEGIN
1070
    73
1070
     1
1070
    44
1040
1.0
1070
    74
1070
     0
1000
MTEXTEND
  0
POINT
  5
4DA8
330
4390
100
AcDbEntity
  8
DEFPOINTS
 62
     0
100
AcDbPoint
 10
192.4539952388375
 20
193.8887117158315
 30
0.0
  0
POINT
  5
4DA9
330
4390
100
AcDbEntity
  8
DEFPOINTS
 62
     0
100
AcDbPoint
 10
220.9539952388376
 20
199.6387117158314
 30
0.0
  0
POINT
  5
4DAA
330
4390
100
AcDbEntity
  8
DEFPOINTS
 62
     0
100
AcDbPoint
 10
220.9539952388376
 20
209.2606681116893
 30
0.0
  0
ENDBLK
  5
4392
330
4390
100
AcDbEntity
  8
0
100
AcDbBlockEnd
  0
BLOCK
  5
43A7
330
43A6
100
AcDbEntity
  8
0
100
AcDbBlockBegin
  2
*D10
 70
     1
 10
0.0
 20
0.0
 30
0.0
  3
*D10
  1

  0
LINE
  5
4DAB
330
43A6
100
AcDbEntity
  8
0
 62
     0
370
    -2
100
AcDbLine
 10
220.9539952388376
 20
199.8887117158314
 30
0.0
 11
220.9539952388376
 21
215.2159574802477
 31
0.0
  0
LINE
  5
4DAC
330
43A6
100
AcDbEntity
  8
0
 62
     0
370
    -2
100
AcDbLine
 10
188.9539952388375
 20
194.1387117158314
 30
0.0
 11
188.9539952388375
 21
215.2159574802477
 31
0.0
  0
LINE
  5
4DAD
330
43A6
100
AcDbEntity
  8
0
 62
     0
370
    -2
100
AcDbLine
 10
218.4539952388376
 20
213.9659574802477
 30
0.0
 11
191.4539952388375
 21
213.9659574802477
 31
0.0
  0
INSERT
  5
4DAE
330
43A6
100
AcDbEntity
  8
0
 62
     0
370
    -2
100
AcDbBlockReference
  2
_OPEN30
 10
220.9539952388376
 20
213.9659574802477
 30
0.0
 41
2.5
 42
2.5
 43
2.5
  0
INSERT
  5
4DAF
330
43A6
100
AcDbEntity
  8
0
 62
     0
370
    -2
100
AcDbBlockReference
  2
_OPEN30
 10
188.9539952388375
 20
213.9659574802477
 30
0.0
 41
2.5
 42
2.5
 43
2.5
 50
180.0
  0
MTEXT
  5
4DB0
330
43A6
100
AcDbEntity
  8
0
 62
     4
100
AcDbMText
 10
205.1193058241372
 20
216.0909574802477
 30
0.0
 40
3.0
 41
0.0
 71
     5
 72
     1
  1
64
 73
     1
 44
1.0
1001
ACAD
1000
MTEXTBEGIN
1070
    73
1070
     1
1070
    44
1040
1.0
1070
    74
1070
     0
1000
MTEXTEND
  0
POINT
  5
4DB1
330
43A6
100
AcDbEntity
  8
DEFPOINTS
 62
     0
100
AcDbPoint
 10
220.9539952388376
 20
199.6387117158314
 30
0.0
  0
POINT
  5
4DB2
330
43A6
100
AcDbEntity
  8
DEFPOINTS
 62
     0
100
AcDbPoint
 10
188.9539952388375
 20
193.8887117158315
 30
0.0
  0
POINT
  5
4DB3
330
43A6
100
AcDbEntity
  8
DEFPOINTS
 62
     0
100
AcDbPoint
 10
188.9539952388375
 20
213.9659574802477
 30
0.0
  0
ENDBLK
  5
43A8
330
43A6
100
AcDbEntity
  8
0
100
AcDbBlockEnd
  0
BLOCK
  5
43BD
330
43BC
100
AcDbEntity
  8
0
100
AcDbBlockBegin
  2
*D11
 70
     1
 10
0.0
 20
0.0
 30
0.0
  3
*D11
  1

  0
LINE
  5
4DB4
330
43BC
100
AcDbEntity
  8
0
 62
     0
370
    -2
100
AcDbLine
 10
185.5070395752493
 20
193.8887117158314
 30
0.0
 11
178.4693225057442
 21
193.8887117158314
 31
0.0
  0
LINE
  5
4DB5
330
43BC
100
AcDbEntity
  8
0
 62
     0
370
    -2
100
AcDbLine
 10
189.6294743534897
 20
177.6353076262632
 30
0.0
 11
185.2452535884363
 21
174.2099789590949
 31
0.0
  0
ARC
  5
4DB6
330
43BC
100
AcDbEntity
  8
0
 62
     0
370
    -2
100
AcDbCircle
 10
210.432882912586
 20
193.8887117158314
 30
0.0
 40
30.71356040684172
100
AcDbArc
 50
184.665008534418
 51
213.3349914655812
  0
INSERT
  5
4DB7
330
43BC
100
AcDbEntity
  8
0
 62
     0
370
    -2
100
AcDbBlockReference
  2
_OPEN30
 10
179.7193225057442
 20
193.8887117158314
 30
0.0
 41
2.5
 42
2.5
 43
2.5
 50
92.33250426720898
  0
INSERT
  5
4DB8
330
43BC
100
AcDbEntity
  8
0
 62
     0
370
    -2
100
AcDbBlockReference
  2
_OPEN30
 10
186.2302670304448
 20
174.9795558032519
 30
0.0
 41
2.5
 42
2.5
 43
2.5
 50
305.6674957327901
  0
MTEXT
  5
4DB9
330
43BC
100
AcDbEntity
  8
0
 62
     4
100
AcDbMText
 10
183.2586417271184
 20
185.0080359459546
 30
0.0
 40
3.0
 41
0.0
 71
     5
 72
     1
  1
38\U+00B0
 11
0.3106373893437295
 21
-0.9505284910731042
 31
0.0
 73
     1
 44
1.0
1001
ACAD
1000
MTEXTBEGIN
1070
    73
1070
     1
1070
    44
1040
1.0
1070
    74
1070
     0
1000
MTEXTEND
  0
POINT
  5
4DBA
330
43BC
100
AcDbEntity
  8
DEFPOINTS
 62
     0
100
AcDbPoint
 10
182.6729298215285
 20
180.7468778541893
 30
0.0
  0
POINT
  5
4DBB
330
43BC
100
AcDbEntity
  8
DEFPOINTS
 62
     0
100
AcDbPoint
 10
200.7520806898676
 20
186.3252400861675
 30
0.0
  0
POINT
  5
4DBC
330
43BC
100
AcDbEntity
  8
DEFPOINTS
 62
     0
100
AcDbPoint
 10
207.6358509023815
 20
193.8887117158314
 30
0.0
  0
POINT
  5
4DBD
330
43BC
100
AcDbEntity
  8
DEFPOINTS
 62
     0
100
AcDbPoint
 10
185.7570395752493
 20
193.8887117158314
 30
0.0
  0
POINT
  5
4DBE
330
43BC
100
AcDbEntity
  8
DEFPOINTS
 62
     0
100
AcDbPoint
 10
189.8264770418914
 20
177.7892229950946
 30
0.0
  0
ENDBLK
  5
43BE
330
43BC
100
AcDbEntity
  8
0
100
AcDbBlockEnd
  0
BLOCK
  5
43CC
330
43CB
100
AcDbEntity
  8
0
100
AcDbBlockBegin
  2
*D12
 70
     1
 10
0.0
 20
0.0
 30
0.0
  3
*D12
  1

  0
LINE
  5
4DBF
330
43CB
100
AcDbEntity
  8
0
 62
     0
370
    -2
100
AcDbLine
 10
185.5070395752493
 20
193.8887117158314
 30
0.0
 11
170.4434827256726
 21
193.8887117158315
 31
0.0
  0
LINE
  5
4DC0
330
43CB
100
AcDbEntity
  8
0
 62
     0
370
    -2
100
AcDbLine
 10
197.1114620214743
 20
166.5772431711254
 30
0.0
 11
194.531165220224
 21
159.4879359742
 31
0.0
  0
ARC
  5
4DC1
330
43CB
100
AcDbEntity
  8
0
 62
     0
370
    -2
100
AcDbCircle
 10
207.0520236258456
 20
193.8887117158315
 30
0.0
 40
35.35854090017301
100
AcDbArc
 50
184.0519008441846
 51
245.9480991558143
  0
INSERT
  5
4DC2
330
43CB
100
AcDbEntity
  8
0
 62
     0
370
    -2
100
AcDbBlockReference
  2
_OPEN30
 10
171.6934827256725
 20
193.8887117158315
 30
0.0
 41
2.5
 42
2.5
 43
2.5
 50
92.02595042209235
  0
INSERT
  5
4DC3
330
43CB
100
AcDbEntity
  8
0
 62
     0
370
    -2
100
AcDbBlockReference
  2
_OPEN30
 10
194.9586903993813
 20
160.6625517501823
 30
0.0
 41
2.5
 42
2.5
 43
2.5
 50
337.9740495779067
  0
MTEXT
  5
4DC4
330
43CB
100
AcDbEntity
  8
0
 62
     4
100
AcDbMText
 10
180.7178647324314
 20
173.6160622555391
 30
0.0
 40
3.0
 41
0.0
 71
     5
 72
     1
  1
70\U+00B0
 11
0.6100057024073136
 21
-0.7923970236128857
 31
0.0
 73
     1
 44
1.0
1001
ACAD
1000
MTEXTBEGIN
1070
    73
1070
     1
1070
    44
1040
1.0
1070
    74
1070
     0
1000
MTEXTEND
  0
POINT
  5
4DC5
330
43CB
100
AcDbEntity
  8
DEFPOINTS
 62
     0
100
AcDbPoint
 10
174.5852418555216
 20
179.8839091086052
 30
0.0
  0
POINT
  5
4DC6
330
43CB
100
AcDbEntity
  8
DEFPOINTS
 62
     0
100
AcDbPoint
 10
207.6358509023815
 20
193.8887117158315
 30
0.0
  0
POINT
  5
4DC7
330
43CB
100
AcDbEntity
  8
DEFPOINTS
 62
     0
100
AcDbPoint
 10
201.2781429836081
 20
178.0251050286587
 30
0.0
  0
POINT
  5
4DC8
330
43CB
100
AcDbEntity
  8
DEFPOINTS
 62
     0
100
AcDbPoint
 10
197.1969670573058
 20
166.8121663263219
 30
0.0
  0
POINT
  5
4DC9
330
43CB
100
AcDbEntity
  8
DEFPOINTS
 62
     0
100
AcDbPoint
 10
185.7570395752493
 20
193.8887117158314
 30
0.0
  0
ENDBLK
  5
43CD
330
43CB
100
AcDbEntity
  8
0
100
AcDbBlockEnd
  0
BLOCK
  5
43DB
330
43DA
100
AcDbEntity
  8
0
100
AcDbBlockBegin
  2
*D13
 70
     1
 10
0.0
 20
0.0
 30
0.0
  3
*D13
  1

  0
LINE
  5
4DCA
330
43DA
100
AcDbEntity
  8
0
 62
     0
370
    -2
100
AcDbLine
 10
149.264039911814
 20
204.6387117158315
 30
0.0
 11
149.264039911814
 21
230.6562059214398
 31
0.0
  0
LINE
  5
4DCB
330
43DA
100
AcDbEntity
  8
0
 62
     0
370
    -2
100
AcDbLine
 10
74.26403991181371
 20
204.6387117158307
 30
0.0
 11
74.26403991181371
 21
230.6562059214398
 31
0.0
  0
LINE
  5
4DCC
330
43DA
100
AcDbEntity
  8
0
 62
     0
370
    -2
100
AcDbLine
 10
146.764039911814
 20
229.4062059214398
 30
0.0
 11
76.76403991181371
 21
229.4062059214398
 31
0.0
  0
INSERT
  5
4DCD
330
43DA
100
AcDbEntity
  8
0
 62
     0
370
    -2
100
AcDbBlockReference
  2
_OPEN30
 10
149.264039911814
 20
229.4062059214398
 30
0.0
 41
2.5
 42
2.5
 43
2.5
  0
INSERT
  5
4DCE
330
43DA
100
AcDbEntity
  8
0
 62
     0
370
    -2
100
AcDbBlockReference
  2
_OPEN30
 10
74.26403991181371
 20
229.4062059214398
 30
0.0
 41
2.5
 42
2.5
 43
2.5
 50
180.0
  0
MTEXT
  5
4DCF
330
43DA
100
AcDbEntity
  8
0
 62
     4
100
AcDbMText
 10
112.9211175802863
 20
231.5312059214398
 30
0.0
 40
3.0
 41
0.0
 71
     5
 72
     1
  1
75
 73
     1
 44
1.0
1001
ACAD
1000
MTEXTBEGIN
1070
    73
1070
     1
1070
    44
1040
1.0
1070
    74
1070
     0
1000
MTEXTEND
  0
POINT
  5
4DD0
330
43DA
100
AcDbEntity
  8
DEFPOINTS
 62
     0
100
AcDbPoint
 10
149.264039911814
 20
204.3887117158315
 30
0.0
  0
POINT
  5
4DD1
330
43DA
100
AcDbEntity
  8
DEFPOINTS
 62
     0
100
AcDbPoint
 10
74.26403991181371
 20
204.3887117158307
 30
0.0
  0
POINT
  5
4DD2
330
43DA
100
AcDbEntity
  8
DEFPOINTS
 62
     0
100
AcDbPoint
 10
74.26403991181371
 20
229.4062059214398
 30
0.0
  0
ENDBLK
  5
43DC
330
43DA
100
AcDbEntity
  8
0
100
AcDbBlockEnd
  0
BLOCK
  5
43E8
330
43E7
100
AcDbEntity
  8
0
100
AcDbBlockBegin
  2
*D14
 70
     1
 10
0.0
 20
0.0
 30
0.0
  3
*D14
  1

  0
LINE
  5
4DD3
330
43E7
100
AcDbEntity
  8
0
 62
     0
370
    -2
100
AcDbLine
 10
154.264039911814
 20
204.6387117158315
 30
0.0
 11
154.264039911814
 21
238.9579318905794
 31
0.0
  0
LINE
  5
4DD4
330
43E7
100
AcDbEntity
  8
0
 62
     0
370
    -2
100
AcDbLine
 10
69.26403991181382
 20
204.6387117158315
 30
0.0
 11
69.26403991181382
 21
238.9579318905794
 31
0.0
  0
LINE
  5
4DD5
330
43E7
100
AcDbEntity
  8
0
 62
     0
370
    -2
100
AcDbLine
 10
151.764039911814
 20
237.7079318905794
 30
0.0
 11
71.76403991181381
 21
237.7079318905794
 31
0.0
  0
INSERT
  5
4DD6
330
43E7
100
AcDbEntity
  8
0
 62
     0
370
    -2
100
AcDbBlockReference
  2
_OPEN30
 10
154.264039911814
 20
237.7079318905794
 30
0.0
 41
2.5
 42
2.5
 43
2.5
  0
INSERT
  5
4DD7
330
43E7
100
AcDbEntity
  8
0
 62
     0
370
    -2
100
AcDbBlockReference
  2
_OPEN30
 10
69.26403991181382
 20
237.7079318905794
 30
0.0
 41
2.5
 42
2.5
 43
2.5
 50
180.0
  0
MTEXT
  5
4DD8
330
43E7
100
AcDbEntity
  8
0
 62
     4
100
AcDbMText
 10
113.1057295402431
 20
239.8329318905794
 30
0.0
 40
3.0
 41
0.0
 71
     5
 72
     1
  1
85
 73
     1
 44
1.0
1001
ACAD
1000
MTEXTBEGIN
1070
    73
1070
     1
1070
    44
1040
1.0
1070
    74
1070
     0
1000
MTEXTEND
  0
POINT
  5
4DD9
330
43E7
100
AcDbEntity
  8
DEFPOINTS
 62
     0
100
AcDbPoint
 10
154.264039911814
 20
204.3887117158315
 30
0.0
  0
POINT
  5
4DDA
330
43E7
100
AcDbEntity
  8
DEFPOINTS
 62
     0
100
AcDbPoint
 10
69.26403991181382
 20
204.3887117158315
 30
0.0
  0
POINT
  5
4DDB
330
43E7
100
AcDbEntity
  8
DEFPOINTS
 62
     0
100
AcDbPoint
 10
69.26403991181382
 20
237.7079318905794
 30
0.0
  0
ENDBLK
  5
43E9
330
43E7
100
AcDbEntity
  8
0
100
AcDbBlockEnd
  0
BLOCK
  5
43F7
330
43F6
100
AcDbEntity
  8
0
100
AcDbBlockBegin
  2
*D15
 70
     1
 10
0.0
 20
0.0
 30
0.0
  3
*D15
  1

  0
LINE
  5
4DDC
330
43F6
100
AcDbEntity
  8
0
 62
     0
370
    -2
100
AcDbLine
 10
112.0140399118137
 20
217.3887117158315
 30
0.0
 11
168.7935317868343
 21
217.3887117158315
 31
0.0
  0
LINE
  5
4DDD
330
43F6
100
AcDbEntity
  8
0
 62
     0
370
    -2
100
AcDbLine
 10
103.0140399118138
 20
172.8887117158315
 30
0.0
 11
168.7935317868343
 21
172.8887117158315
 31
0.0
  0
LINE
  5
4DDE
330
43F6
100
AcDbEntity
  8
0
 62
     0
370
    -2
100
AcDbLine
 10
167.5435317868343
 20
214.8887117158315
 30
0.0
 11
167.5435317868343
 21
175.3887117158314
 31
0.0
  0
INSERT
  5
4DDF
330
43F6
100
AcDbEntity
  8
0
 62
     0
370
    -2
100
AcDbBlockReference
  2
_OPEN30
 10
167.5435317868343
 20
217.3887117158315
 30
0.0
 41
2.5
 42
2.5
 43
2.5
 50
90.0
  0
INSERT
  5
4DE0
330
43F6
100
AcDbEntity
  8
0
 62
     0
370
    -2
100
AcDbBlockReference
  2
_OPEN30
 10
167.5435317868343
 20
172.8887117158315
 30
0.0
 41
2.5
 42
2.5
 43
2.5
 50
270.0
  0
MTEXT
  5
4DE1
330
43F6
100
AcDbEntity
  8
0
 62
     4
100
AcDbMText
 10
165.4185317868343
 20
193.8069116561589
 30
0.0
 40
3.0
 41
0.0
 71
     5
 72
     1
  1
44.5
 11
0.0000000000000001
 21
1.0
 31
0.0
 73
     1
 44
1.0
1001
ACAD
1000
MTEXTBEGIN
1070
    73
1070
     1
1070
    44
1040
1.0
1070
    74
1070
     0
1000
MTEXTEND
  0
POINT
  5
4DE2
330
43F6
100
AcDbEntity
  8
DEFPOINTS
 62
     0
100
AcDbPoint
 10
111.7640399118137
 20
217.3887117158315
 30
0.0
  0
POINT
  5
4DE3
330
43F6
100
AcDbEntity
  8
DEFPOINTS
 62
     0
100
AcDbPoint
 10
102.7640399118138
 20
172.8887117158315
 30
0.0
  0
POINT
  5
4DE4
330
43F6
100
AcDbEntity
  8
DEFPOINTS
 62
     0
100
AcDbPoint
 10
167.5435317868343
 20
172.8887117158315
 30
0.0
  0
ENDBLK
  5
43F8
330
43F6
100
AcDbEntity
  8
0
100
AcDbBlockEnd
  0
BLOCK
  5
4404
330
4403
100
AcDbEntity
  8
0
100
AcDbBlockBegin
  2
*D16
 70
     1
 10
0.0
 20
0.0
 30
0.0
  3
*D16
  1

  0
LINE
  5
4DE5
330
4403
100
AcDbEntity
  8
0
 62
     0
370
    -2
100
AcDbLine
 10
112.0140399118139
 20
211.8887117158317
 30
0.0
 11
162.6032575938336
 21
211.8887117158317
 31
0.0
  0
LINE
  5
4DE6
330
4403
100
AcDbEntity
  8
0
 62
     0
370
    -2
100
AcDbLine
 10
112.0140399118153
 20
175.8887117158312
 30
0.0
 11
162.6032575938336
 21
175.8887117158312
 31
0.0
  0
LINE
  5
4DE7
330
4403
100
AcDbEntity
  8
0
 62
     0
370
    -2
100
AcDbLine
 10
161.3532575938336
 20
209.3887117158317
 30
0.0
 11
161.3532575938336
 21
178.3887117158312
 31
0.0
  0
INSERT
  5
4DE8
330
4403
100
AcDbEntity
  8
0
 62
     0
370
    -2
100
AcDbBlockReference
  2
_OPEN30
 10
161.3532575938336
 20
211.8887117158317
 30
0.0
 41
2.5
 42
2.5
 43
2.5
 50
90.0
  0
INSERT
  5
4DE9
330
4403
100
AcDbEntity
  8
0
 62
     0
370
    -2
100
AcDbBlockReference
  2
_OPEN30
 10
161.3532575938336
 20
175.8887117158312
 30
0.0
 41
2.5
 42
2.5
 43
2.5
 50
270.0
  0
MTEXT
  5
4DEA
330
4403
100
AcDbEntity
  8
0
 62
     4
100
AcDbMText
 10
159.2282575938336
 20
194.3242408648234
 30
0.0
 40
3.0
 41
0.0
 71
     5
 72
     1
  1
36
 11
0.0000000000000001
 21
1.0
 31
0.0
 73
     1
 44
1.0
1001
ACAD
1000
MTEXTBEGIN
1070
    73
1070
     1
1070
    44
1040
1.0
1070
    74
1070
     0
1000
MTEXTEND
  0
POINT
  5
4DEB
330
4403
100
AcDbEntity
  8
DEFPOINTS
 62
     0
100
AcDbPoint
 10
111.7640399118139
 20
211.8887117158317
 30
0.0
  0
POINT
  5
4DEC
330
4403
100
AcDbEntity
  8
DEFPOINTS
 62
     0
100
AcDbPoint
 10
111.7640399118153
 20
175.8887117158312
 30
0.0
  0
POINT
  5
4DED
330
4403
100
AcDbEntity
  8
DEFPOINTS
 62
     0
100
AcDbPoint
 10
161.3532575938336
 20
175.8887117158312
 30
0.0
  0
ENDBLK
  5
4405
330
4403
100
AcDbEntity
  8
0
100
AcDbBlockEnd
  0
BLOCK
  5
45CA
330
45C9
100
AcDbEntity
  8
0
100
AcDbBlockBegin
  2
*D17
 70
     1
 10
0.0
 20
0.0
 30
0.0
  3
*D17
  1

  0
LINE
  5
4DEE
330
45C9
100
AcDbEntity
  8
0
 62
     0
370
    -2
100
AcDbLine
 10
245.433137533076
 20
198.8887117158315
 30
0.0
 11
247.1323061684179
 21
198.8887117158315
 31
0.0
  0
LINE
  5
4DEF
330
45C9
100
AcDbEntity
  8
0
 62
     0
370
    -2
100
AcDbLine
 10
245.433137533076
 20
188.8887117158315
 30
0.0
 11
247.1323061684179
 21
188.8887117158315
 31
0.0
  0
LINE
  5
4DF0
330
45C9
100
AcDbEntity
  8
0
 62
     0
370
    -2
100
AcDbLine
 10
245.8823061684179
 20
186.3887117158315
 30
0.0
 11
245.8823061684179
 21
183.8887117158314
 31
0.0
  0
LINE
  5
4DF1
330
45C9
100
AcDbEntity
  8
0
 62
     0
370
    -2
100
AcDbLine
 10
245.882306168418
 20
201.3887117158315
 30
0.0
 11
245.882306168418
 21
209.6387117158315
 31
0.0
  0
LINE
  5
4DF2
330
45C9
100
AcDbEntity
  8
0
 62
     0
370
    -2
100
AcDbLine
 10
245.8823061684179
 20
188.8887117158315
 30
0.0
 11
245.882306168418
 21
198.8887117158315
 31
0.0
  0
INSERT
  5
4DF3
330
45C9
100
AcDbEntity
  8
0
 62
     0
370
    -2
100
AcDbBlockReference
  2
_OPEN30
 10
245.8823061684179
 20
188.8887117158315
 30
0.0
 41
2.5
 42
2.5
 43
2.5
 50
90.0
  0
INSERT
  5
4DF4
330
45C9
100
AcDbEntity
  8
0
 62
     0
370
    -2
100
AcDbBlockReference
  2
_OPEN30
 10
245.882306168418
 20
198.8887117158315
 30
0.0
 41
2.5
 42
2.5
 43
2.5
 50
270.0
  0
MTEXT
  5
4DF5
330
45C9
100
AcDbEntity
  8
0
 62
     4
100
AcDbMText
 10
243.7573061684179
 20
206.7637117158315
 30
0.0
 40
3.0
 41
0.0
 71
     5
 72
     1
  1
20
 11
0.0000000000000001
 21
1.0
 31
0.0
 73
     1
 44
1.0
1001
ACAD
1000
MTEXTBEGIN
1070
    73
1070
     1
1070
    44
1040
1.0
1070
    74
1070
     0
1000
MTEXTEND
  0
POINT
  5
4DF6
330
45C9
100
AcDbEntity
  8
DEFPOINTS
 62
     0
100
AcDbPoint
 10
245.183137533076
 20
198.8887117158315
 30
0.0
  0
POINT
  5
4DF7
330
45C9
100
AcDbEntity
  8
DEFPOINTS
 62
     0
100
AcDbPoint
 10
245.183137533076
 20
188.8887117158315
 30
0.0
  0
POINT
  5
4DF8
330
45C9
100
AcDbEntity
  8
DEFPOINTS
 62
     0
100
AcDbPoint
 10
245.8823061684179
 20
188.8887117158315
 30
0.0
  0
ENDBLK
  5
45CB
330
45C9
100
AcDbEntity
  8
0
100
AcDbBlockEnd
  0
BLOCK
  5
524D
330
520E
100
AcDbEntity
  8
0
100
AcDbBlockBegin
  2
A$C535C4466
 70
     0
 10
0.0
 20
0.0
 30
0.0
  3
A$C535C4466
  1

  0
LINE
  5
520F
330
520E
100
AcDbEntity
  8
0
100
AcDbLine
 10
32.21092599999997
 20
-13.0
 30
0.0
 11
45.21092599999997
 21
-13.0
 31
0.0
  0
LINE
  5
5210
330
520E
100
AcDbEntity
  8
0
100
AcDbLine
 10
32.21092599999997
 20
13.0
 30
0.0
 11
45.21092599999997
 21
13.0
 31
0.0
  0
ARC
  5
5211
330
520E
100
AcDbEntity
  8
0
100
AcDbCircle
 10
45.21092599999997
 20
12.5
 30
0.0
 40
0.5
100
AcDbArc
 50
0.0
 51
90.0
  0
LINE
  5
5212
330
520E
100
AcDbEntity
  8
0
100
AcDbLine
 10
0.5
 20
-12.5
 30
0.0
 11
184.8108500000001
 21
-12.5
 31
0.0
  0
ARC
  5
5213
330
520E
100
AcDbEntity
  8
0
100
AcDbCircle
 10
0.5
 20
-12.0
 30
0.0
 40
0.5
100
AcDbArc
 50
180.0
 51
270.0
  0
LINE
  5
5214
330
520E
100
AcDbEntity
  8
0
100
AcDbLine
 10
0.5
 20
12.5
 30
0.0
 11
184.8108500000001
 21
12.5
 31
0.0
  0
ARC
  5
5215
330
520E
100
AcDbEntity
  8
0
100
AcDbCircle
 10
184.8108500000001
 20
12.0
 30
0.0
 40
0.5
100
AcDbArc
 50
0.0
 51
90.0
  0
LINE
  5
5216
330
520E
100
AcDbEntity
  8
0
100
AcDbLine
 10
0.0
 20
-12.0
 30
0.0
 11
0.0
 21
12.0
 31
0.0
  0
ARC
  5
5217
330
520E
100
AcDbEntity
  8
0
100
AcDbCircle
 10
0.5
 20
12.0
 30
0.0
 40
0.5
100
AcDbArc
 50
90.0
 51
180.0
  0
LINE
  5
5218
330
520E
100
AcDbEntity
  8
0
100
AcDbLine
 10
35.71092599999996
 20
13.0
 30
0.0
 11
35.71092599999996
 21
12.0
 31
0.0
  0
LINE
  5
5219
330
520E
100
AcDbEntity
  8
0
100
AcDbLine
 10
35.71092599999996
 20
-12.0
 30
0.0
 11
35.71092599999996
 21
-13.0
 31
0.0
  0
LINE
  5
521A
330
520E
100
AcDbEntity
  8
0
100
AcDbLine
 10
41.71092599999997
 20
13.0
 30
0.0
 11
41.71092599999997
 21
12.0
 31
0.0
  0
LINE
  5
521B
330
520E
100
AcDbEntity
  8
0
100
AcDbLine
 10
41.71092599999997
 20
-12.0
 30
0.0
 11
41.71092599999997
 21
-13.0
 31
0.0
  0
LINE
  5
521C
330
520E
100
AcDbEntity
  8
0
100
AcDbLine
 10
31.71092599999997
 20
12.5
 30
0.0
 11
31.71092599999997
 21
-12.5
 31
0.0
  0
ARC
  5
521D
330
520E
100
AcDbEntity
  8
0
100
AcDbCircle
 10
32.21092599999997
 20
-12.5
 30
0.0
 40
0.5
100
AcDbArc
 50
180.0
 51
270.0
  0
ARC
  5
521E
330
520E
100
AcDbEntity
  8
0
100
AcDbCircle
 10
32.21092599999997
 20
12.5
 30
0.0
 40
0.5
100
AcDbArc
 50
90.0
 51
180.0
  0
LINE
  5
521F
330
520E
100
AcDbEntity
  8
0
100
AcDbLine
 10
45.71092599999997
 20
12.5
 30
0.0
 11
45.71092599999997
 21
-12.5
 31
0.0
  0
ARC
  5
5220
330
520E
100
AcDbEntity
  8
0
100
AcDbCircle
 10
45.21092599999997
 20
-12.5
 30
0.0
 40
0.5
100
AcDbArc
 50
270.0
 51
0.0
  0
ARC
  5
5221
330
520E
100
AcDbEntity
  8
0
100
AcDbCircle
 10
38.71092599999975
 20
-44.24999999999999
 30
0.0
 40
61.0
100
AcDbArc
 50
81.0348240000027
 51
98.96517599999727
  0
ARC
  5
5222
330
520E
100
AcDbEntity
  8
0
100
AcDbCircle
 10
29.51671199999942
 20
14.02920999999992
 30
0.0
 40
2.0
100
AcDbArc
 50
98.96517599999727
 51
173.4255040000008
  0
ARC
  5
5223
330
520E
100
AcDbEntity
  8
0
100
AcDbCircle
 10
151.242176
 20
0.0
 30
0.0
 40
124.53125
100
AcDbArc
 50
173.4255040000008
 51
186.574495999999
  0
ARC
  5
5224
330
520E
100
AcDbEntity
  8
0
100
AcDbCircle
 10
38.71092599999975
 20
44.24999999999999
 30
0.0
 40
61.0
100
AcDbArc
 50
261.0348240000027
 51
278.9651759999973
  0
ARC
  5
5225
330
520E
100
AcDbEntity
  8
0
100
AcDbCircle
 10
29.51671199999942
 20
-14.02921200000003
 30
0.0
 40
2.0
100
AcDbArc
 50
186.574495999999
 51
261.0348240000027
  0
ARC
  5
5226
330
520E
100
AcDbEntity
  8
0
100
AcDbCircle
 10
47.90514000000029
 20
-14.02921200000003
 30
0.0
 40
2.0
100
AcDbArc
 50
278.9651759999973
 51
353.4255040000009
  0
ARC
  5
5227
330
520E
100
AcDbEntity
  8
0
100
AcDbCircle
 10
-73.82032400000003
 20
0.0
 30
0.0
 40
124.53125
100
AcDbArc
 50
353.4255040000009
 51
6.574495999999187
  0
ARC
  5
5228
330
520E
100
AcDbEntity
  8
0
100
AcDbCircle
 10
47.90514000000029
 20
14.02920999999992
 30
0.0
 40
2.0
100
AcDbArc
 50
6.574495999999187
 51
81.0348240000027
  0
ARC
  5
5229
330
520E
100
AcDbEntity
  8
0
100
AcDbCircle
 10
90.93107999999935
 20
0.0
 30
0.0
 40
96.95964400000001
100
AcDbArc
 50
151.9721600000005
 51
162.148107000002
  0
ARC
  5
522A
330
520E
100
AcDbEntity
  8
0
100
AcDbCircle
 10
90.93107999999935
 20
0.0
 30
0.0
 40
96.95964400000001
100
AcDbArc
 50
352.787416000002
 51
142.0342589999985
  0
ARC
  5
522B
330
520E
100
AcDbEntity
  8
0
100
AcDbCircle
 10
185.139324
 20
-11.92229200000008
 30
0.0
 40
2.0
100
AcDbArc
 50
196.7893591125858
 51
352.787416000002
  0
ARC
  5
522C
330
520E
100
AcDbEntity
  8
0
100
AcDbCircle
 10
90.93107999999935
 20
0.0
 30
0.0
 40
95.95964399999997
100
AcDbArc
 50
152.7122970000005
 51
162.148107000002
  0
ARC
  5
522D
330
520E
100
AcDbEntity
  8
0
100
AcDbCircle
 10
90.93107999999935
 20
0.0
 30
0.0
 40
95.95964399999997
100
AcDbArc
 50
352.787416000002
 51
141.3225469999979
  0
ARC
  5
522E
330
520E
100
AcDbEntity
  8
0
100
AcDbCircle
 10
90.93107999999935
 20
0.0
 30
0.0
 40
94.959644
100
AcDbArc
 50
9.271550000000667
 51
12.55547999999909
  0
ARC
  5
522F
330
520E
100
AcDbEntity
  8
0
100
AcDbCircle
 10
183.6632199999994
 20
15.13819399999988
 30
0.0
 40
2.0
100
AcDbArc
 50
308.2531459999992
 51
9.271550000000667
  0
ARC
  5
5230
330
520E
100
AcDbEntity
  8
0
100
AcDbCircle
 10
183.6632199999994
 20
15.13819399999988
 30
0.0
 40
1.0
100
AcDbArc
 50
308.2531459999992
 51
9.271550000000667
  0
ARC
  5
5231
330
520E
100
AcDbEntity
  8
0
100
AcDbCircle
 10
185.139324
 20
-11.92229200000008
 30
0.0
 40
1.0
100
AcDbArc
 50
215.2894965144271
 51
352.787416000002
  0
LINE
  5
5232
330
520E
100
AcDbEntity
  8
0
100
AcDbLine
 10
15.86629999999945
 20
63.52874199999996
 30
0.0
 11
14.79185399999937
 21
64.22123599999986
 31
0.0
  0
LINE
  5
5233
330
520E
100
AcDbEntity
  8
0
100
AcDbLine
 10
2.864503999999442
 20
43.35565799999995
 30
0.0
 11
1.790058000000043
 21
44.04815199999996
 31
0.0
  0
ARC
  5
5234
330
520E
100
AcDbEntity
  8
0
100
AcDbCircle
 10
3.406246000000008
 20
44.19620399999984
 30
0.0
 40
1.0
100
AcDbArc
 50
237.1977299999993
 51
327.1977299999993
  0
LINE
  5
5235
330
520E
100
AcDbEntity
  8
0
100
AcDbLine
 10
4.246790000000371
 20
43.65446199999996
 30
0.0
 11
16.16510399999924
 21
62.14645599999993
 31
0.0
  0
ARC
  5
5236
330
520E
100
AcDbEntity
  8
0
100
AcDbCircle
 10
15.32455800000002
 20
62.68819599999996
 30
0.0
 40
1.0
100
AcDbArc
 50
327.1977299999993
 51
57.19772999999932
  0
ARC
  5
5237
330
520E
100
AcDbEntity
  8
0
100
AcDbCircle
 10
37.10339199999999
 20
35.56472999999994
 30
0.0
 40
37.0
100
AcDbArc
 50
129.4061400000011
 51
164.9893210000005
  0
ARC
  5
5238
330
520E
100
AcDbEntity
  8
0
100
AcDbCircle
 10
2.33179999999993
 20
44.88869799999998
 30
0.0
 40
1.0
100
AcDbArc
 50
164.9893210000005
 51
237.1977299999993
  0
ARC
  5
5239
330
520E
100
AcDbEntity
  8
0
100
AcDbCircle
 10
14.25011199999926
 20
63.38068999999996
 30
0.0
 40
1.0
100
AcDbArc
 50
57.19772999999932
 51
129.4061400000011
  0
ARC
  5
523A
330
520E
100
AcDbEntity
  8
0
100
AcDbCircle
 10
10.20905799999923
 20
52.51300599999989
 30
0.0
 40
7.786282
100
AcDbArc
 50
94.76763899999832
 51
200.7957320000019
  0
ARC
  5
523B
330
520E
100
AcDbEntity
  8
0
100
AcDbCircle
 10
10.20905799999923
 20
52.51300599999989
 30
0.0
 40
6.786282
100
AcDbArc
 50
104.1712689999997
 51
191.3921019999983
  0
ARC
  5
523C
330
520E
100
AcDbEntity
  8
0
100
AcDbCircle
 10
10.20905799999923
 20
52.51300599999989
 30
0.0
 40
5.786281999999996
100
AcDbArc
 50
119.8312760000008
 51
175.7320950000002
  0
ARC
  5
523D
330
520E
100
AcDbEntity
  8
0
100
AcDbCircle
 10
-26.56311600000004
 20
38.49333000000001
 30
0.0
 40
32.679548
100
AcDbArc
 50
341.2490069999997
 51
12.21461699999803
  0
ARC
  5
523E
330
520E
100
AcDbEntity
  8
0
100
AcDbCircle
 10
-26.56311600000004
 20
38.49333000000001
 30
0.0
 40
33.679548
100
AcDbArc
 50
341.2490069999997
 51
13.89056199999933
  0
ARC
  5
523F
330
520E
100
AcDbEntity
  8
0
100
AcDbCircle
 10
1.971317999999428
 20
28.65075799999988
 30
0.0
 40
2.5
100
AcDbArc
 50
162.148107000002
 51
218.3691649999985
  0
ARC
  5
5240
330
520E
100
AcDbEntity
  8
0
100
AcDbCircle
 10
1.971317999999428
 20
28.65075799999988
 30
0.0
 40
3.5
100
AcDbArc
 50
162.148107000002
 51
245.613886000001
  0
ARC
  5
5241
330
520E
100
AcDbEntity
  8
0
100
AcDbCircle
 10
8.431370000000013
 20
92.37885399999994
 30
0.0
 40
33.286288
100
AcDbArc
 50
280.6169329999989
 51
297.2284750000005
  0
ARC
  5
5242
330
520E
100
AcDbEntity
  8
0
100
AcDbCircle
 10
8.431370000000013
 20
92.37885399999994
 30
0.0
 40
34.286288
100
AcDbArc
 50
279.055529999999
 51
297.2284750000005
  0
LINE
  5
5243
330
520E
100
AcDbEntity
  8
0
100
AcDbLine
 10
23.66117600000007
 20
62.78104799999994
 30
0.0
 11
24.11871399999973
 21
61.89185999999995
 31
0.0
  0
LINE
  5
5244
330
520E
100
AcDbEntity
  8
0
100
AcDbLine
 10
185.31085
 20
12.0
 30
0.0
 11
185.31085
 21
-12.0
 31
0.0
  0
ARC
  5
5245
330
520E
100
AcDbEntity
  8
0
100
AcDbCircle
 10
184.8108500000001
 20
-12.0
 30
0.0
 40
0.5
100
AcDbArc
 50
270.0
 51
0.0
  0
ARC
  5
5246
330
520E
100
AcDbEntity
  8
0
100
AcDbCircle
 10
186.1374539999999
 20
12.0
 30
0.0
 40
1.996258
100
AcDbArc
 50
128.2531459999991
 51
165.4947551703559
  0
ARC
  5
5247
330
520E
100
AcDbEntity
  8
0
100
AcDbCircle
 10
186.1374539999999
 20
12.0
 30
0.0
 40
2.996258
100
AcDbArc
 50
128.2531459999991
 51
170.393836353551
  0
LINE
  5
5248
330
520E
100
AcDbEntity
  8
0
100
AcDbLine
 10
183.619858
 20
20.64278999999988
 30
0.0
 11
184.5929779999994
 21
20.87348599999996
 31
0.0
  0
ARC
  5
5249
330
520E
100
AcDbEntity
  8
0
100
AcDbCircle
 10
1.971317999999428
 20
28.65075799999988
 30
0.0
 40
3.5
100
AcDbArc
 50
298.1232779999981
 51
344.1133560000007
  0
ARC
  5
524A
330
520E
100
AcDbEntity
  8
0
100
AcDbCircle
 10
1.971317999999428
 20
28.65075799999988
 30
0.0
 40
2.5
100
AcDbArc
 50
307.7903999999977
 51
344.634003999998
  0
ENDBLK
  5
524E
330
520E
100
AcDbEntity
  8
0
100
AcDbBlockEnd
  0
BLOCK
  5
532E
330
532D
100
AcDbEntity
  8
0
100
AcDbBlockBegin
  2
*D19
 70
     1
 10
0.0
 20
0.0
 30
0.0
  3
*D19
  1

  0
LINE
  5
57C7
330
532D
100
AcDbEntity
  8
0
 62
     0
370
    -2
100
AcDbLine
 10
97.36493546602538
 20
189.2800681143598
 30
0.0
 11
97.36493546602538
 21
212.0650448398894
 31
0.0
  0
LINE
  5
57C8
330
532D
100
AcDbEntity
  8
0
 62
     0
370
    -2
100
AcDbLine
 10
147.3649354660254
 20
189.2800681143598
 30
0.0
 11
147.3649354660254
 21
212.0650448398894
 31
0.0
  0
LINE
  5
57C9
330
532D
100
AcDbEntity
  8
0
 62
     0
370
    -2
100
AcDbLine
 10
99.86493546602538
 20
210.8150448398894
 30
0.0
 11
144.8649354660254
 21
210.8150448398894
 31
0.0
  0
INSERT
  5
57CA
330
532D
100
AcDbEntity
  8
0
 62
     0
370
    -2
100
AcDbBlockReference
  2
_OPEN30
 10
97.36493546602538
 20
210.8150448398894
 30
0.0
 41
2.5
 42
2.5
 43
2.5
 50
180.0
  0
INSERT
  5
57CB
330
532D
100
AcDbEntity
  8
0
 62
     0
370
    -2
100
AcDbBlockReference
  2
_OPEN30
 10
147.3649354660254
 20
210.8150448398894
 30
0.0
 41
2.5
 42
2.5
 43
2.5
  0
MTEXT
  5
57CC
330
532D
100
AcDbEntity
  8
0
 62
     4
100
AcDbMText
 10
121.2573454188514
 20
212.9400448398894
 30
0.0
 40
3.0
 41
0.0
 71
     5
 72
     1
  1
100
 73
     1
 44
1.0
1001
ACAD
1000
MTEXTBEGIN
1070
    73
1070
     1
1070
    44
1040
1.0
1070
    74
1070
     0
1000
MTEXTEND
  0
POINT
  5
57CD
330
532D
100
AcDbEntity
  8
DEFPOINTS
 62
     0
100
AcDbPoint
 10
97.36493546602538
 20
189.0300681143598
 30
0.0
  0
POINT
  5
57CE
330
532D
100
AcDbEntity
  8
DEFPOINTS
 62
     0
100
AcDbPoint
 10
147.3649354660254
 20
189.0300681143598
 30
0.0
  0
POINT
  5
57CF
330
532D
100
AcDbEntity
  8
DEFPOINTS
 62
     0
100
AcDbPoint
 10
147.3649354660254
 20
210.8150448398894
 30
0.0
  0
ENDBLK
  5
532F
330
532D
100
AcDbEntity
  8
0
100
AcDbBlockEnd
  0
BLOCK
  5
537B
330
537A
100
AcDbEntity
  8
0
100
AcDbBlockBegin
  2
*D20
 70
     1
 10
0.0
 20
0.0
 30
0.0
  3
*D20
  1

  0
LINE
  5
57D0
330
537A
100
AcDbEntity
  8
0
 62
     0
370
    -2
100
AcDbLine
 10
122.1149354660276
 20
199.5867555918689
 30
0.0
 11
87.29177981265822
 21
199.5867555918689
 31
0.0
  0
LINE
  5
57D1
330
537A
100
AcDbEntity
  8
0
 62
     0
370
    -2
100
AcDbLine
 10
99.18913937969307
 20
176.486755591869
 30
0.0
 11
87.29177981265822
 21
176.486755591869
 31
0.0
  0
LINE
  5
57D2
330
537A
100
AcDbEntity
  8
0
 62
     0
370
    -2
100
AcDbLine
 10
88.54177981265822
 20
197.0867555918689
 30
0.0
 11
88.54177981265822
 21
178.986755591869
 31
0.0
  0
INSERT
  5
57D3
330
537A
100
AcDbEntity
  8
0
 62
     0
370
    -2
100
AcDbBlockReference
  2
_OPEN30
 10
88.54177981265822
 20
199.5867555918689
 30
0.0
 41
2.5
 42
2.5
 43
2.5
 50
90.0
  0
INSERT
  5
57D4
330
537A
100
AcDbEntity
  8
0
 62
     0
370
    -2
100
AcDbBlockReference
  2
_OPEN30
 10
88.54177981265822
 20
176.486755591869
 30
0.0
 41
2.5
 42
2.5
 43
2.5
 50
270.0
  0
MTEXT
  5
57D5
330
537A
100
AcDbEntity
  8
0
 62
     4
100
AcDbMText
 10
86.4167798126582
 20
188.5394638902398
 30
0.0
 40
3.0
 41
0.0
 71
     5
 72
     1
  1
46.2
 11
0.0000000000000001
 21
1.0
 31
0.0
 73
     1
 44
1.0
1001
ACAD
1000
MTEXTBEGIN
1070
    73
1070
     1
1070
    44
1040
1.0
1070
    74
1070
     0
1000
MTEXTEND
  0
POINT
  5
57D6
330
537A
100
AcDbEntity
  8
DEFPOINTS
 62
     0
100
AcDbPoint
 10
122.3649354660276
 20
199.5867555918689
 30
0.0
  0
POINT
  5
57D7
330
537A
100
AcDbEntity
  8
DEFPOINTS
 62
     0
100
AcDbPoint
 10
99.43913937969307
 20
176.486755591869
 30
0.0
  0
POINT
  5
57D8
330
537A
100
AcDbEntity
  8
DEFPOINTS
 62
     0
100
AcDbPoint
 10
88.54177981265822
 20
176.486755591869
 30
0.0
  0
ENDBLK
  5
537C
330
537A
100
AcDbEntity
  8
0
100
AcDbBlockEnd
  0
BLOCK
  5
5388
330
5387
100
AcDbEntity
  8
0
100
AcDbBlockBegin
  2
*D21
 70
     1
 10
0.0
 20
0.0
 30
0.0
  3
*D21
  1

  0
LINE
  5
57D9
330
5387
100
AcDbEntity
  8
0
 62
     0
370
    -2
100
AcDbLine
 10
122.1149354660276
 20
199.5867555918689
 30
0.0
 11
81.13188410942759
 21
199.5867555918689
 31
0.0
  0
LINE
  5
57DA
330
5387
100
AcDbEntity
  8
0
 62
     0
370
    -2
100
AcDbLine
 10
116.8649354660254
 20
174.7367555918689
 30
0.0
 11
81.13188410942759
 21
174.7367555918689
 31
0.0
  0
LINE
  5
57DB
330
5387
100
AcDbEntity
  8
0
 62
     0
370
    -2
100
AcDbLine
 10
82.38188410942759
 20
197.0867555918689
 30
0.0
 11
82.38188410942759
 21
177.2367555918689
 31
0.0
  0
INSERT
  5
57DC
330
5387
100
AcDbEntity
  8
0
 62
     0
370
    -2
100
AcDbBlockReference
  2
_OPEN30
 10
82.38188410942759
 20
199.5867555918689
 30
0.0
 41
2.5
 42
2.5
 43
2.5
 50
90.0
  0
INSERT
  5
57DD
330
5387
100
AcDbEntity
  8
0
 62
     0
370
    -2
100
AcDbBlockReference
  2
_OPEN30
 10
82.38188410942759
 20
174.7367555918689
 30
0.0
 41
2.5
 42
2.5
 43
2.5
 50
270.0
  0
MTEXT
  5
57DE
330
5387
100
AcDbEntity
  8
0
 62
     4
100
AcDbMText
 10
80.25688410942757
 20
187.7582669960611
 30
0.0
 40
3.0
 41
0.0
 71
     5
 72
     1
  1
49.7
 11
0.0000000000000001
 21
1.0
 31
0.0
 73
     1
 44
1.0
1001
ACAD
1000
MTEXTBEGIN
1070
    73
1070
     1
1070
    44
1040
1.0
1070
    74
1070
     0
1000
MTEXTEND
  0
POINT
  5
57DF
330
5387
100
AcDbEntity
  8
DEFPOINTS
 62
     0
100
AcDbPoint
 10
122.3649354660276
 20
199.5867555918689
 30
0.0
  0
POINT
  5
57E0
330
5387
100
AcDbEntity
  8
DEFPOINTS
 62
     0
100
AcDbPoint
 10
117.1149354660254
 20
174.7367555918689
 30
0.0
  0
POINT
  5
57E1
330
5387
100
AcDbEntity
  8
DEFPOINTS
 62
     0
100
AcDbPoint
 10
82.38188410942759
 20
174.7367555918689
 30
0.0
  0
ENDBLK
  5
5389
330
5387
100
AcDbEntity
  8
0
100
AcDbBlockEnd
  0
BLOCK
  5
5395
330
5394
100
AcDbEntity
  8
0
100
AcDbBlockBegin
  2
*D22
 70
     1
 10
0.0
 20
0.0
 30
0.0
  3
*D22
  1

  0
LINE
  5
57E2
330
5394
100
AcDbEntity
  8
0
 62
     0
370
    -2
100
AcDbLine
 10
207.9359067988792
 20
198.8367555918689
 30
0.0
 11
207.9359067988792
 21
204.9124305843716
 31
0.0
  0
LINE
  5
57E3
330
5394
100
AcDbEntity
  8
0
 62
     0
370
    -2
100
AcDbLine
 10
191.4359067988791
 20
195.0971287761323
 30
0.0
 11
191.4359067988791
 21
204.9124305843716
 31
0.0
  0
LINE
  5
57E4
330
5394
100
AcDbEntity
  8
0
 62
     0
370
    -2
100
AcDbLine
 10
205.4359067988792
 20
203.6624305843716
 30
0.0
 11
193.9359067988791
 21
203.6624305843716
 31
0.0
  0
INSERT
  5
57E5
330
5394
100
AcDbEntity
  8
0
 62
     0
370
    -2
100
AcDbBlockReference
  2
_OPEN30
 10
207.9359067988792
 20
203.6624305843716
 30
0.0
 41
2.5
 42
2.5
 43
2.5
  0
INSERT
  5
57E6
330
5394
100
AcDbEntity
  8
0
 62
     0
370
    -2
100
AcDbBlockReference
  2
_OPEN30
 10
191.4359067988791
 20
203.6624305843716
 30
0.0
 41
2.5
 42
2.5
 43
2.5
 50
180.0
  0
MTEXT
  5
57E7
330
5394
100
AcDbEntity
  8
0
 62
     4
100
AcDbMText
 10
200.0853983021484
 20
205.7874305843716
 30
0.0
 40
3.0
 41
0.0
 71
     5
 72
     1
  1
33
 73
     1
 44
1.0
1001
ACAD
1000
MTEXTBEGIN
1070
    73
1070
     1
1070
    44
1040
1.0
1070
    74
1070
     0
1000
MTEXTEND
  0
POINT
  5
57E8
330
5394
100
AcDbEntity
  8
DEFPOINTS
 62
     0
100
AcDbPoint
 10
207.9359067988792
 20
198.5867555918689
 30
0.0
  0
POINT
  5
57E9
330
5394
100
AcDbEntity
  8
DEFPOINTS
 62
     0
100
AcDbPoint
 10
191.4359067988791
 20
194.8471287761323
 30
0.0
  0
POINT
  5
57EA
330
5394
100
AcDbEntity
  8
DEFPOINTS
 62
     0
100
AcDbPoint
 10
191.4359067988791
 20
203.6624305843716
 30
0.0
  0
ENDBLK
  5
5396
330
5394
100
AcDbEntity
  8
0
100
AcDbBlockEnd
  0
BLOCK
  5
53A8
330
53A7
100
AcDbEntity
  8
0
100
AcDbBlockBegin
  2
*D23
 70
     1
 10
0.0
 20
0.0
 30
0.0
  3
*D23
  1

  0
LINE
  5
57EB
330
53A7
100
AcDbEntity
  8
0
 62
     0
370
    -2
100
AcDbLine
 10
174.1850015204776
 20
187.5971287761323
 30
0.0
 11
166.8309136303658
 21
187.5971287761322
 31
0.0
  0
ARC
  5
57EC
330
53A7
100
AcDbEntity
  8
0
 62
     0
370
    -2
100
AcDbCircle
 10
198.9005394626928
 20
187.5971287761323
 30
0.0
 40
30.81962583232694
100
AcDbArc
 50
184.6489451263717
 51
260.3510548736289
  0
INSERT
  5
57ED
330
53A7
100
AcDbEntity
  8
0
 62
     0
370
    -2
100
AcDbBlockReference
  2
_OPEN30
 10
168.0809136303658
 20
187.5971287761323
 30
0.0
 41
2.5
 42
2.5
 43
2.5
 50
92.32447256318588
  0
INSERT
  5
57EE
330
53A7
100
AcDbEntity
  8
0
 62
     0
370
    -2
100
AcDbBlockReference
  2
_OPEN30
 10
196.2144320820717
 20
156.8947809247968
 30
0.0
 41
2.5
 42
2.5
 43
2.5
 50
352.6755274368148
  0
MTEXT
  5
57EF
330
53A7
100
AcDbEntity
  8
0
 62
     4
100
AcDbMText
 10
177.7446421482719
 20
168.2113205526167
 30
0.0
 40
3.0
 41
0.0
 71
     5
 72
     1
  1
85\U+00B0
 11
0.6755902076156655
 21
-0.7372773368101192
 31
0.0
 73
     1
 44
1.0
1001
ACAD
1000
MTEXTBEGIN
1070
    73
1070
     1
1070
    44
1040
1.0
1070
    74
1070
     0
1000
MTEXTEND
  0
POINT
  5
57F0
330
53A7
100
AcDbEntity
  8
DEFPOINTS
 62
     0
100
AcDbPoint
 10
171.7730619294282
 20
172.9701229606259
 30
0.0
  0
POINT
  5
57F1
330
53A7
100
AcDbEntity
  8
DEFPOINTS
 62
     0
100
AcDbPoint
 10
174.4350015204777
 20
187.5971287761323
 30
0.0
  0
POINT
  5
57F2
330
53A7
100
AcDbEntity
  8
DEFPOINTS
 62
     0
100
AcDbPoint
 10
196.072625312676
 20
155.2739221337181
 30
0.0
  0
POINT
  5
57F3
330
53A7
100
AcDbEntity
  8
DEFPOINTS
 62
     0
100
AcDbPoint
 10
196.6967744918604
 20
162.4079798965216
 30
0.0
  0
POINT
  5
57F4
330
53A7
100
AcDbEntity
  8
DEFPOINTS
 62
     0
100
AcDbPoint
 10
191.6859067988791
 20
187.5971287761323
 30
0.0
  0
ENDBLK
  5
53A9
330
53A7
100
AcDbEntity
  8
0
100
AcDbBlockEnd
  0
BLOCK
  5
569E
330
569D
100
AcDbEntity
  8
0
100
AcDbBlockBegin
  2
*D24
 70
     1
 10
0.0
 20
0.0
 30
0.0
  3
*D24
  1

  0
LINE
  5
57F5
330
569D
100
AcDbEntity
  8
0
 62
     0
370
    -2
100
AcDbLine
 10
168.5319959825372
 20
107.7659263070829
 30
0.0
 11
168.5319959825372
 21
118.7702288413401
 31
0.0
  0
LINE
  5
57F6
330
569D
100
AcDbEntity
  8
0
 62
     0
370
    -2
100
AcDbLine
 10
251.0794728242529
 20
107.7659263070829
 30
0.0
 11
251.0794728242529
 21
118.7702288413401
 31
0.0
  0
LINE
  5
57F7
330
569D
100
AcDbEntity
  8
0
 62
     0
370
    -2
100
AcDbLine
 10
171.0319959825372
 20
117.5202288413401
 30
0.0
 11
248.5794728242529
 21
117.5202288413401
 31
0.0
  0
INSERT
  5
57F8
330
569D
100
AcDbEntity
  8
0
 62
     0
370
    -2
100
AcDbBlockReference
  2
_OPEN30
 10
168.5319959825372
 20
117.5202288413401
 30
0.0
 41
2.5
 42
2.5
 43
2.5
 50
180.0
  0
INSERT
  5
57F9
330
569D
100
AcDbEntity
  8
0
 62
     0
370
    -2
100
AcDbBlockReference
  2
_OPEN30
 10
251.0794728242529
 20
117.5202288413401
 30
0.0
 41
2.5
 42
2.5
 43
2.5
  0
MTEXT
  5
57FA
330
569D
100
AcDbEntity
  8
0
 62
     4
100
AcDbMText
 10
210.0083749101209
 20
119.6452288413401
 30
0.0
 40
3.0
 41
0.0
 71
     5
 72
     1
  1
(1140)
 73
     1
 44
1.0
1001
ACAD
1000
MTEXTBEGIN
1070
    73
1070
     1
1070
    44
1040
1.0
1070
    74
1070
     0
1000
MTEXTEND
  0
POINT
  5
57FB
330
569D
100
AcDbEntity
  8
DEFPOINTS
 62
     0
100
AcDbPoint
 10
168.5319959825372
 20
107.5159263070829
 30
0.0
  0
POINT
  5
57FC
330
569D
100
AcDbEntity
  8
DEFPOINTS
 62
     0
100
AcDbPoint
 10
251.0794728242529
 20
107.5159263070829
 30
0.0
  0
POINT
  5
57FD
330
569D
100
AcDbEntity
  8
DEFPOINTS
 62
     0
100
AcDbPoint
 10
251.0794728242529
 20
117.5202288413401
 30
0.0
  0
ENDBLK
  5
569F
330
569D
100
AcDbEntity
  8
0
100
AcDbBlockEnd
  0
BLOCK
  5
56CA
330
56C9
100
AcDbEntity
  8
0
100
AcDbBlockBegin
  2
*D25
 70
     1
 10
0.0
 20
0.0
 30
0.0
  3
*D25
  1

  0
LINE
  5
57FE
330
56C9
100
AcDbEntity
  8
0
 62
     0
370
    -2
100
AcDbLine
 10
131.456162208221
 20
113.4159263070829
 30
0.0
 11
131.456162208221
 21
123.1422436688144
 31
0.0
  0
LINE
  5
57FF
330
56C9
100
AcDbEntity
  8
0
 62
     0
370
    -2
100
AcDbLine
 10
117.206162208221
 20
112.4159263070829
 30
0.0
 11
117.206162208221
 21
123.1422436688144
 31
0.0
  0
LINE
  5
5800
330
56C9
100
AcDbEntity
  8
0
 62
     0
370
    -2
100
AcDbLine
 10
128.956162208221
 20
121.8922436688144
 30
0.0
 11
119.706162208221
 21
121.8922436688144
 31
0.0
  0
INSERT
  5
5801
330
56C9
100
AcDbEntity
  8
0
 62
     0
370
    -2
100
AcDbBlockReference
  2
_OPEN30
 10
131.456162208221
 20
121.8922436688144
 30
0.0
 41
2.5
 42
2.5
 43
2.5
  0
INSERT
  5
5802
330
56C9
100
AcDbEntity
  8
0
 62
     0
370
    -2
100
AcDbBlockReference
  2
_OPEN30
 10
117.206162208221
 20
121.8922436688144
 30
0.0
 41
2.5
 42
2.5
 43
2.5
 50
180.0
  0
MTEXT
  5
5803
330
56C9
100
AcDbEntity
  8
0
 62
     4
100
AcDbMText
 10
124.2505444385651
 20
124.0172436688144
 30
0.0
 40
3.0
 41
0.0
 71
     5
 72
     1
  1
28.5
 73
     1
 44
1.0
1001
ACAD
1000
MTEXTBEGIN
1070
    73
1070
     1
1070
    44
1040
1.0
1070
    74
1070
     0
1000
MTEXTEND
  0
POINT
  5
5804
330
56C9
100
AcDbEntity
  8
DEFPOINTS
 62
     0
100
AcDbPoint
 10
131.456162208221
 20
113.1659263070829
 30
0.0
  0
POINT
  5
5805
330
56C9
100
AcDbEntity
  8
DEFPOINTS
 62
     0
100
AcDbPoint
 10
117.206162208221
 20
112.1659263070829
 30
0.0
  0
POINT
  5
5806
330
56C9
100
AcDbEntity
  8
DEFPOINTS
 62
     0
100
AcDbPoint
 10
117.206162208221
 20
121.8922436688144
 30
0.0
  0
ENDBLK
  5
56CB
330
56C9
100
AcDbEntity
  8
0
100
AcDbBlockEnd
  0
BLOCK
  5
56D7
330
56D6
100
AcDbEntity
  8
0
100
AcDbBlockBegin
  2
*D26
 70
     1
 10
0.0
 20
0.0
 30
0.0
  3
*D26
  1

  0
LINE
  5
5807
330
56D6
100
AcDbEntity
  8
0
 62
     0
370
    -2
100
AcDbLine
 10
131.706162208221
 20
113.1659263070829
 30
0.0
 11
139.9306026443982
 21
113.1659263070829
 31
0.0
  0
LINE
  5
5808
330
56D6
100
AcDbEntity
  8
0
 62
     0
370
    -2
100
AcDbLine
 10
131.706162208221
 20
98.86592630708296
 30
0.0
 11
139.9306026443982
 21
98.86592630708296
 31
0.0
  0
LINE
  5
5809
330
56D6
100
AcDbEntity
  8
0
 62
     0
370
    -2
100
AcDbLine
 10
138.6806026443982
 20
96.36592630708296
 30
0.0
 11
138.6806026443982
 21
93.86592630708296
 31
0.0
  0
LINE
  5
580A
330
56D6
100
AcDbEntity
  8
0
 62
     0
370
    -2
100
AcDbLine
 10
138.6806026443982
 20
115.6659263070829
 30
0.0
 11
138.6806026443982
 21
131.815926307083
 31
0.0
  0
LINE
  5
580B
330
56D6
100
AcDbEntity
  8
0
 62
     0
370
    -2
100
AcDbLine
 10
138.6806026443982
 20
98.86592630708296
 30
0.0
 11
138.6806026443982
 21
113.1659263070829
 31
0.0
  0
INSERT
  5
580C
330
56D6
100
AcDbEntity
  8
0
 62
     0
370
    -2
100
AcDbBlockReference
  2
_OPEN30
 10
138.6806026443982
 20
98.86592630708296
 30
0.0
 41
2.5
 42
2.5
 43
2.5
 50
90.0
  0
INSERT
  5
580D
330
56D6
100
AcDbEntity
  8
0
 62
     0
370
    -2
100
AcDbBlockReference
  2
_OPEN30
 10
138.6806026443982
 20
113.1659263070829
 30
0.0
 41
2.5
 42
2.5
 43
2.5
 50
270.0
  0
MTEXT
  5
580E
330
56D6
100
AcDbEntity
  8
0
 62
     4
100
AcDbMText
 10
136.5556026443982
 20
124.990926307083
 30
0.0
 40
3.0
 41
0.0
 71
     5
 72
     1
  1
□28.6
 11
0.0000000000000001
 21
1.0
 31
0.0
 73
     1
 44
1.0
1001
ACAD
1000
MTEXTBEGIN
1070
    73
1070
     1
1070
    44
1040
1.0
1070
    74
1070
     0
1000
MTEXTEND
  0
POINT
  5
580F
330
56D6
100
AcDbEntity
  8
DEFPOINTS
 62
     0
100
AcDbPoint
 10
131.456162208221
 20
113.1659263070829
 30
0.0
  0
POINT
  5
5810
330
56D6
100
AcDbEntity
  8
DEFPOINTS
 62
     0
100
AcDbPoint
 10
131.456162208221
 20
98.86592630708296
 30
0.0
  0
POINT
  5
5811
330
56D6
100
AcDbEntity
  8
DEFPOINTS
 62
     0
100
AcDbPoint
 10
138.6806026443982
 20
98.86592630708296
 30
0.0
  0
ENDBLK
  5
56D8
330
56D6
100
AcDbEntity
  8
0
100
AcDbBlockEnd
  0
ENDSEC
  0
SECTION
  2
ENTITIES
  0
LINE
  5
159D
330
295E
100
AcDbEntity
  8
0
 62
     3
100
AcDbLine
 10
388.3510587313709
 20
17.55615958979334
 30
0.0
 11
388.3510587313709
 21
63.22188211979332
 31
0.0
  0
LINE
  5
159E
330
295E
100
AcDbEntity
  8
0
 62
     3
100
AcDbLine
 10
401.3510587313708
 20
27.22188211979331
 30
0.0
 11
401.3510587313708
 21
57.22188211979332
 31
0.0
  0
LINE
  5
159F
330
295E
100
AcDbEntity
  8
0
 62
     3
100
AcDbLine
 10
361.2974493013709
 20
27.22188211979331
 30
0.0
 11
361.2974493013709
 21
41.22188211979329
 31
0.0
  0
LINE
  5
15A0
330
295E
100
AcDbEntity
  8
0
 62
     3
100
AcDbLine
 10
371.6293836613709
 20
41.22188211979329
 30
0.0
 11
371.6293836613709
 21
17.55615958979334
 31
0.0
  0
LINE
  5
15A1
330
295E
100
AcDbEntity
  8
0
 62
     3
100
AcDbLine
 10
341.9924143513708
 20
57.2218821197933
 30
0.0
 11
341.9924143513708
 21
34.22188211979332
 31
0.0
  0
LINE
  5
15A3
330
295E
100
AcDbEntity
  8
0
 62
     3
100
AcDbLine
 10
414.3510587313707
 20
34.22188211979332
 30
0.0
 11
414.3510587313707
 21
63.22188211979332
 31
0.0
  0
LINE
  5
15A4
330
295E
100
AcDbEntity
  8
0
 62
     3
100
AcDbLine
 10
440.0504222113708
 20
57.22188211979332
 30
0.0
 11
328.7469797113709
 21
57.22188211979332
 31
0.0
  0
LINE
  5
15A5
330
295E
100
AcDbEntity
  8
0
 62
     3
100
AcDbLine
 10
440.0504222113708
 20
48.2218821197933
 30
0.0
 11
328.7469797113709
 21
48.2218821197933
 31
0.0
  0
LINE
  5
15A6
330
295E
100
AcDbEntity
  8
0
 62
     3
100
AcDbLine
 10
440.0504222113708
 20
34.22188211979332
 30
0.0
 11
328.7469797113709
 21
34.22188211979332
 31
0.0
  0
LINE
  5
15A7
330
295E
100
AcDbEntity
  8
0
 62
     3
100
AcDbLine
 10
440.0504222113708
 20
27.22188211979331
 30
0.0
 11
328.7469797113709
 21
27.22188211979331
 31
0.0
  0
LINE
  5
15A8
330
295E
100
AcDbEntity
  8
0
 62
     3
100
AcDbLine
 10
427.3510587313706
 20
34.22188211979332
 30
0.0
 11
427.3510587313706
 21
57.22188211979332
 31
0.0
  0
LINE
  5
15A9
330
295E
100
AcDbEntity
  8
0
 62
     3
100
AcDbLine
 10
328.7469797113709
 20
57.22188211979332
 30
0.0
 11
328.7469797113709
 21
17.55615958979334
 31
0.0
  0
LINE
  5
15AA
330
295E
100
AcDbEntity
  8
0
 62
     3
100
AcDbLine
 10
388.3510587313709
 20
41.22188211979329
 30
0.0
 11
328.7469797113709
 21
41.22188211979329
 31
0.0
  0
LINE
  5
15AB
330
295E
100
AcDbEntity
  8
0
 62
     3
100
AcDbLine
 10
371.6293836613709
 20
22.38902084979333
 30
0.0
 11
388.3510587313709
 21
22.38902084979333
 31
0.0
  0
LINE
  5
15B5
330
295E
100
AcDbEntity
  8
0
 62
     3
100
AcDbLine
 10
50.05042221137079
 20
291.5561595897933
 30
0.0
 11
50.05042221137079
 21
17.55615958979334
 31
0.0
  0
LINE
  5
15B6
330
295E
100
AcDbEntity
  8
0
 62
     3
100
AcDbLine
 10
440.0504222113708
 20
17.55615958979334
 30
0.0
 11
440.0504222113708
 21
291.5561595897933
 31
0.0
  0
LINE
  5
15B9
330
295E
100
AcDbEntity
  8
0
 62
     3
100
AcDbLine
 10
50.05042221137079
 20
17.55615958979334
 30
0.0
 11
440.0504222113708
 21
17.55615958979334
 31
0.0
  0
TEXT
  5
15BA
330
295E
100
AcDbEntity
  8
0
 62
     3
100
AcDbText
 10
373.7567766407278
 20
36.29497897315868
 30
0.0
 40
3.2
  1
-
  7
高3.2
100
AcDbText
  0
TEXT
  5
15BB
330
295E
100
AcDbEntity
  8
0
 62
     3
100
AcDbText
 10
343.6208817815627
 20
36.52412508485531
 30
0.0
 40
2.5
  1
ABS
  7
高2.5
100
AcDbText
  0
TEXT
  5
15BC
330
295E
100
AcDbEntity
  8
0
 62
     3
100
AcDbText
 10
343.8123351813205
 20
49.5341316435512
 30
0.0
 40
4.5
  1
充電式センサーヘッドライト
 41
0.6
  7
高4.5
100
AcDbText
1001
ACAD
1000
ACAD_MTEXT_DEFINED_HEIGHT_BEGIN
1070
    46
1040
0.0
1000
ACAD_MTEXT_DEFINED_HEIGHT_END
  0
TEXT
  5
15BD
330
295E
100
AcDbEntity
  8
0
 62
     3
100
AcDbText
 10
430.1160113048449
 20
53.73557421849689
 30
0.0
 40
2.0
  1
DEF
  7
高2
100
AcDbText
  0
TEXT
  5
15BE
330
295E
100
AcDbEntity
  8
0
 62
     3
100
AcDbText
 10
416.4775494711366
 20
53.73557421849682
 30
0.0
 40
2.0
  1
DESN
  7
高2
100
AcDbText
  0
TEXT
  5
15BF
330
295E
100
AcDbEntity
  8
0
 62
     3
100
AcDbText
 10
390.2231825311364
 20
53.73557421849689
 30
0.0
 40
2.0
  1
APPD
  7
高2
100
AcDbText
  0
TEXT
  5
15C0
330
295E
100
AcDbEntity
  8
0
 62
     3
100
AcDbText
 10
403.3359186313708
 20
53.73557421849692
 30
0.0
 40
2.0
  1
CHCK
  7
高2
100
AcDbText
  0
TEXT
  5
15C1
330
295E
100
AcDbEntity
  8
0
 62
     3
100
AcDbText
 10
362.5565493005236
 20
31.39028094302403
 30
0.0
 40
2.0
  1
SCALE
 41
0.8
  7
高2
100
AcDbText
  0
TEXT
  5
15C2
330
295E
100
AcDbEntity
  8
0
 62
     3
100
AcDbText
 10
340.9437561542516
 20
31.39028094302395
 30
0.0
 40
2.0
  1
ANGLE
 41
1.5
  7
高2
100
AcDbText
  0
TEXT
  5
15C3
330
295E
100
AcDbEntity
  8
0
 62
     3
100
AcDbText
 10
330.4315584144169
 20
31.39028094302405
 30
0.0
 40
2.0
  1
3AD
 41
1.5
  7
高2
100
AcDbText
  0
TEXT
  5
15C4
330
295E
100
AcDbEntity
  8
0
 62
     3
100
AcDbText
 10
361.8259549913722
 20
38.14181901198113
 30
0.0
 40
2.0
  1
REMARKS
 41
0.7
  7
高2
100
AcDbText
  0
TEXT
  5
15C5
330
295E
100
AcDbEntity
  8
0
 62
     3
100
AcDbText
 10
330.2146500613708
 20
38.14181901198113
 30
0.0
 40
2.0
  1
MATERIAL
 41
0.7
  7
高2
100
AcDbText
  0
TEXT
  5
15C6
330
295E
100
AcDbEntity
  8
0
 62
     3
100
AcDbText
 10
330.1702059511263
 20
45.47762165412247
 30
0.0
 40
2.0
  1
MODEL
  7
高2
100
AcDbText
  0
TEXT
  5
15C7
330
295E
100
AcDbEntity
  8
0
 62
     3
100
AcDbText
 10
330.4280581454562
 20
53.92890347039234
 30
0.0
 40
2.0
  1
CONPONENTS
 41
0.5
  7
高2
100
AcDbText
  0
TEXT
  5
15C8
330
295E
100
AcDbEntity
  8
0
 62
     3
100
AcDbText
 10
343.4938179966231
 20
42.30936324760525
 30
0.0
 40
4.5
  1
SHL-3W-PIR-CH
 41
0.7
  7
高4.5
100
AcDbText
  0
TEXT
  5
15C9
330
295E
100
AcDbEntity
  8
0
 62
     3
100
AcDbText
 10
390.5181309708067
 20
18.8821257910709
 30
0.0
 40
6.299999999999998
  1
SHL-3W-PIR-CH
 41
0.6
  7
高6.3
100
AcDbText
1001
ACAD
1000
ACAD_MTEXT_DEFINED_HEIGHT_BEGIN
1070
    46
1040
0.0
1000
ACAD_MTEXT_DEFINED_HEIGHT_END
  0
TEXT
  5
15CA
330
295E
100
AcDbEntity
  8
0
 62
     3
100
AcDbText
 10
404.9145684817004
 20
28.32277127802632
 30
0.0
 40
3.2
  1
2017.03.02
  7
高3.2
100
AcDbText
1001
ACAD
1000
ACAD_MTEXT_DEFINED_HEIGHT_BEGIN
1070
    46
1040
0.0
1000
ACAD_MTEXT_DEFINED_HEIGHT_END
  0
TEXT
  5
15CB
330
295E
100
AcDbEntity
  8
0
 62
     3
100
AcDbText
 10
375.1386566260172
 20
29.12831328849325
 30
0.0
 40
2.5
  1
1/2
  7
高2.5
100
AcDbText
  0
TEXT
  5
15CC
330
295E
100
AcDbEntity
  8
0
 62
     3
100
AcDbText
 10
372.2159856013708
 20
18.3730377629293
 30
0.0
 40
3.2
  1
ZK-A3X
 41
0.8
  7
高3.2
100
AcDbText
  0
TEXT
  5
15CD
330
295E
100
AcDbEntity
  8
0
 62
     3
100
AcDbText
 10
330.2146500613708
 20
24.08078001198117
 30
0.0
 40
2.0
  1
NICHIDO IND.CO.LTD
 41
1.3
  7
高2
100
AcDbText
  0
TEXT
  5
15CE
330
295E
100
AcDbEntity
  8
0
 62
     3
100
AcDbText
 10
330.759204016328
 20
49.36241032767824
 30
0.0
 40
3.2
  1
品 名
  7
高3.2
100
AcDbText
1001
ACAD
1000
ACAD_MTEXT_DEFINED_HEIGHT_BEGIN
1070
    46
1040
0.0
1000
ACAD_MTEXT_DEFINED_HEIGHT_END
  0
TEXT
  5
15CF
330
295E
100
AcDbEntity
  8
0
 62
     3
100
AcDbText
 10
330.759204016328
 20
41.83193833253594
 30
0.0
 40
3.2
  1
型 式
  7
高3.2
100
AcDbText
1001
ACAD
1000
ACAD_MTEXT_DEFINED_HEIGHT_BEGIN
1070
    46
1040
3.064735913775952
1000
ACAD_MTEXT_DEFINED_HEIGHT_END
  0
TEXT
  5
15D0
330
295E
100
AcDbEntity
  8
0
 62
     3
100
AcDbText
 10
330.759204016328
 20
34.4698987050235
 30
0.0
 40
3.2
  1
材 質
  7
高3.2
100
AcDbText
1001
ACAD
1000
ACAD_MTEXT_DEFINED_HEIGHT_BEGIN
1070
    46
1040
0.0
1000
ACAD_MTEXT_DEFINED_HEIGHT_END
  0
TEXT
  5
15D1
330
295E
100
AcDbEntity
  8
0
 62
     3
100
AcDbText
 10
330.759204016328
 20
27.68932211203956
 30
0.0
 40
3.2
  1
第 三 角 法
  7
高3.2
100
AcDbText
1001
ACAD
1000
ACAD_MTEXT_DEFINED_HEIGHT_BEGIN
1070
    46
1040
0.0
1000
ACAD_MTEXT_DEFINED_HEIGHT_END
  0
TEXT
  5
15D2
330
295E
100
AcDbEntity
  8
0
 62
     3
100
AcDbText
 10
329.4976709838568
 20
18.69668779767826
 30
0.0
 40
3.2
  1
日動工業株式会社
  7
高3.2
100
AcDbText
1001
ACAD
1000
ACAD_MTEXT_DEFINED_HEIGHT_BEGIN
1070
    46
1040
0.0
1000
ACAD_MTEXT_DEFINED_HEIGHT_END
  0
TEXT
  5
15D3
330
295E
100
AcDbEntity
  8
0
 62
     3
100
AcDbText
 10
363.1332951833353
 20
34.60646065296087
 30
0.0
 40
3.2
  1
備考
  7
高3.2
100
AcDbText
1001
ACAD
1000
ACAD_MTEXT_DEFINED_HEIGHT_BEGIN
1070
    46
1040
0.0
1000
ACAD_MTEXT_DEFINED_HEIGHT_END
  0
TEXT
  5
15D4
330
295E
100
AcDbEntity
  8
0
 62
     3
100
AcDbText
 10
372.5040277003708
 20
23.70238961536363
 30
0.0
 40
2.5
  1
出図コード
  7
高2.5
100
AcDbText
1001
ACAD
1000
ACAD_MTEXT_DEFINED_HEIGHT_BEGIN
1070
    46
1040
0.0
1000
ACAD_MTEXT_DEFINED_HEIGHT_END
  0
TEXT
  5
15D5
330
295E
100
AcDbEntity
  8
0
 62
     3
100
AcDbText
 10
362.9745290652476
 20
27.67511703020623
 30
0.0
 40
3.2
  1
尺度
  7
高3.2
100
AcDbText
1001
ACAD
1000
ACAD_MTEXT_DEFINED_HEIGHT_BEGIN
1070
    46
1040
0.0
1000
ACAD_MTEXT_DEFINED_HEIGHT_END
  0
TEXT
  5
15D6
330
295E
100
AcDbEntity
  8
0
 62
     3
100
AcDbText
 10
389.8424656170266
 20
28.80659547832372
 30
0.0
 40
3.2
  1
作成日
  7
高3.2
100
AcDbText
1001
ACAD
1000
ACAD_MTEXT_DEFINED_HEIGHT_BEGIN
1070
    46
1040
0.0
1000
ACAD_MTEXT_DEFINED_HEIGHT_END
  0
TEXT
  5
15DF
330
295E
100
AcDbEntity
  8
0
 62
     3
100
AcDbText
 10
389.7369396238906
 20
49.36241032767824
 30
0.0
 40
3.2
  1
承 認
  7
高3.2
100
AcDbText
1001
ACAD
1000
ACAD_MTEXT_DEFINED_HEIGHT_BEGIN
1070
    46
1040
0.0
1000
ACAD_MTEXT_DEFINED_HEIGHT_END
  0
TEXT
  5
15E0
330
295E
100
AcDbEntity
  8
0
 62
     3
100
AcDbText
 10
402.7369396238904
 20
49.36241032767824
 30
0.0
 40
3.2
  1
検 図
  7
高3.2
100
AcDbText
1001
ACAD
1000
ACAD_MTEXT_DEFINED_HEIGHT_BEGIN
1070
    46
1040
0.0
1000
ACAD_MTEXT_DEFINED_HEIGHT_END
  0
TEXT
  5
15E1
330
295E
100
AcDbEntity
  8
0
 62
     3
100
AcDbText
 10
415.7369396238904
 20
49.36241032767824
 30
0.0
 40
3.2
  1
設 計
  7
高3.2
100
AcDbText
1001
ACAD
1000
ACAD_MTEXT_DEFINED_HEIGHT_BEGIN
1070
    46
1040
0.0
1000
ACAD_MTEXT_DEFINED_HEIGHT_END
  0
TEXT
  5
15E2
330
295E
100
AcDbEntity
  8
0
 62
     3
100
AcDbText
 10
428.7369396238905
 20
49.36241032767824
 30
0.0
 40
3.2
  1
製 図
  7
高3.2
100
AcDbText
1001
ACAD
1000
ACAD_MTEXT_DEFINED_HEIGHT_BEGIN
1070
    46
1040
0.0
1000
ACAD_MTEXT_DEFINED_HEIGHT_END
  0
LINE
  5
15E8
330
295E
100
AcDbEntity
  8
0
 62
     3
100
AcDbLine
 10
227.8253116813707
 20
293.9961617297933
 30
0.0
 11
228.4478086913708
 21
293.6712072497932
 31
0.0
  0
LINE
  5
15E9
330
295E
100
AcDbEntity
  8
0
 62
     3
100
AcDbLine
 10
227.8253116813707
 20
288.6666896297933
 30
0.0
 11
228.4478086913708
 21
288.9916441097934
 31
0.0
  0
LINE
  5
15EA
330
295E
100
AcDbEntity
  8
0
 62
     3
100
AcDbLine
 10
228.4478086913708
 20
293.6712072497932
 30
0.0
 11
228.4478086913708
 21
288.9916441097934
 31
0.0
  0
LINE
  5
15EB
330
295E
100
AcDbEntity
  8
0
 62
     3
100
AcDbLine
 10
230.0242621513707
 20
288.6666896297933
 30
0.0
 11
229.4017651413708
 21
288.9916441097934
 31
0.0
  0
LINE
  5
15EC
330
295E
100
AcDbEntity
  8
0
 62
     3
100
AcDbLine
 10
229.4017651413708
 20
291.8442995597932
 30
0.0
 11
229.4017651413708
 21
288.9916441097934
 31
0.0
  0
LINE
  5
15ED
330
295E
100
AcDbEntity
  8
0
 62
     3
100
AcDbLine
 10
233.6554946913708
 20
293.9961617297933
 30
0.0
 11
233.0329976913708
 21
293.6712072497932
 31
0.0
  0
LINE
  5
15EE
330
295E
100
AcDbEntity
  8
0
 62
     3
100
AcDbLine
 10
231.4565442213708
 20
293.9961617297933
 30
0.0
 11
232.0790412313709
 21
293.6712072497932
 31
0.0
  0
LINE
  5
15EF
330
295E
100
AcDbEntity
  8
0
 62
     3
100
AcDbLine
 10
232.0790412313709
 20
293.6712072497932
 30
0.0
 11
232.0790412313709
 21
291.6107257297932
 31
0.0
  0
LINE
  5
15F0
330
295E
100
AcDbEntity
  8
0
 62
     3
100
AcDbLine
 10
233.0329976913708
 20
293.6712072497932
 30
0.0
 11
233.0329976913708
 21
288.3644594197932
 31
0.0
  0
LINE
  5
15F1
330
295E
100
AcDbEntity
  8
0
 62
     3
100
AcDbLine
 10
233.9630621313709
 20
293.9961579797934
 30
0.0
 11
234.5855568913707
 21
293.6711992097933
 31
0.0
  0
LINE
  5
15F2
330
295E
100
AcDbEntity
  8
0
 62
     3
100
AcDbLine
 10
233.9629507413708
 20
288.6667610197932
 30
0.0
 11
234.5854590913708
 21
288.9916937697933
 31
0.0
  0
LINE
  5
15F3
330
295E
100
AcDbEntity
  8
0
 62
     3
100
AcDbLine
 10
234.5855568913707
 20
293.6711992097933
 30
0.0
 11
234.5855568913707
 21
288.9916937697933
 31
0.0
  0
LINE
  5
15F4
330
295E
100
AcDbEntity
  8
0
 62
     3
100
AcDbLine
 10
236.7195426913708
 20
293.9961241597932
 30
0.0
 11
236.0970411313708
 21
293.6711783997932
 31
0.0
  0
LINE
  5
15F5
330
295E
100
AcDbEntity
  8
0
 62
     3
100
AcDbLine
 10
236.0970411313708
 20
293.6711783997932
 30
0.0
 11
236.0970411313708
 21
288.9916729597932
 31
0.0
  0
LINE
  5
15F6
330
295E
100
AcDbEntity
  8
0
 62
     3
100
AcDbLine
 10
236.7195426913708
 20
288.6667271997932
 30
0.0
 11
236.0970411313708
 21
288.9916729597932
 31
0.0
  0
LINE
  5
15F7
330
295E
100
AcDbEntity
  8
0
 62
     3
100
AcDbLine
 10
241.9913333213708
 20
293.9960655897932
 30
0.0
 11
242.6138292013708
 21
293.6711089697933
 31
0.0
  0
LINE
  5
15F8
330
295E
100
AcDbEntity
  8
0
 62
     3
100
AcDbLine
 10
242.6138292013708
 20
293.6711089697933
 30
0.0
 11
242.6137475313708
 21
288.9916035197932
 31
0.0
  0
LINE
  5
15F9
330
295E
100
AcDbEntity
  8
0
 62
     3
100
AcDbLine
 10
241.9912403013708
 20
288.6666686297933
 30
0.0
 11
242.6137475313708
 21
288.9916035197932
 31
0.0
  0
LINE
  5
15FA
330
295E
100
AcDbEntity
  8
0
 62
     3
100
AcDbLine
 10
244.7802775613708
 20
293.9960655897932
 30
0.0
 11
244.1577816713708
 21
293.6711089697933
 31
0.0
  0
LINE
  5
15FB
330
295E
100
AcDbEntity
  8
0
 62
     3
100
AcDbLine
 10
244.7803705713708
 20
288.6666686297933
 30
0.0
 11
244.1578633413708
 21
288.9916035197932
 31
0.0
  0
LINE
  5
15FC
330
295E
100
AcDbEntity
  8
0
 62
     3
100
AcDbLine
 10
245.0713173613708
 20
293.9960655897932
 30
0.0
 11
245.6938132413708
 21
293.6711089697933
 31
0.0
  0
LINE
  5
15FD
330
295E
100
AcDbEntity
  8
0
 62
     3
100
AcDbLine
 10
245.0712243413708
 20
288.6666686297933
 30
0.0
 11
245.6937315713708
 21
288.9916035197932
 31
0.0
  0
LINE
  5
15FE
330
295E
100
AcDbEntity
  8
0
 62
     3
100
AcDbLine
 10
247.8602615913708
 20
293.9960655897932
 30
0.0
 11
247.2377657113708
 21
293.6711089697933
 31
0.0
  0
LINE
  5
15FF
330
295E
100
AcDbEntity
  8
0
 62
     3
100
AcDbLine
 10
247.2377657113708
 20
293.6711089697933
 30
0.0
 11
247.2378473813708
 21
288.9916035197932
 31
0.0
  0
LINE
  5
1600
330
295E
100
AcDbEntity
  8
0
 62
     3
100
AcDbLine
 10
247.8603546113708
 20
288.6666686297933
 30
0.0
 11
247.2378473813708
 21
288.9916035197932
 31
0.0
  0
LINE
  5
1601
330
295E
100
AcDbEntity
  8
0
 62
     3
100
AcDbLine
 10
245.6937776613709
 20
291.6323473697934
 30
0.0
 11
244.1578172513708
 21
291.6323473697934
 31
0.0
  0
LINE
  5
1602
330
295E
100
AcDbEntity
  8
0
 62
     3
100
AcDbLine
 10
245.6937671613708
 20
291.0305039897933
 30
0.0
 11
244.1578277513709
 21
291.0305039897933
 31
0.0
  0
LINE
  5
1603
330
295E
100
AcDbEntity
  8
0
 62
     3
100
AcDbLine
 10
245.6938132413708
 20
293.6711089697933
 30
0.0
 11
245.6937776613709
 21
291.6323473697934
 31
0.0
  0
LINE
  5
1604
330
295E
100
AcDbEntity
  8
0
 62
     3
100
AcDbLine
 10
245.6937671613708
 20
291.0305039897933
 30
0.0
 11
245.6937315713708
 21
288.9916035197932
 31
0.0
  0
LINE
  5
1605
330
295E
100
AcDbEntity
  8
0
 62
     3
100
AcDbLine
 10
244.1577816713708
 20
293.6711089697933
 30
0.0
 11
244.1578172513708
 21
291.6323473697934
 31
0.0
  0
LINE
  5
1606
330
295E
100
AcDbEntity
  8
0
 62
     3
100
AcDbLine
 10
244.1578277513709
 20
291.0305039897933
 30
0.0
 11
244.1578633413708
 21
288.9916035197932
 31
0.0
  0
LINE
  5
1607
330
295E
100
AcDbEntity
  8
0
 62
     3
100
AcDbLine
 10
248.1559174813708
 20
293.9960655897932
 30
0.0
 11
248.7784133713708
 21
293.6711089697933
 31
0.0
  0
LINE
  5
1608
330
295E
100
AcDbEntity
  8
0
 62
     3
100
AcDbLine
 10
248.7784133713708
 20
293.6711089697933
 30
0.0
 11
248.7783316913708
 21
288.9916035197932
 31
0.0
  0
LINE
  5
1609
330
295E
100
AcDbEntity
  8
0
 62
     3
100
AcDbLine
 10
248.1558244613708
 20
288.6666686297933
 30
0.0
 11
248.7783316913708
 21
288.9916035197932
 31
0.0
  0
LINE
  5
160A
330
295E
100
AcDbEntity
  8
0
 62
     3
100
AcDbLine
 10
250.9123607213707
 20
293.9960655897932
 30
0.0
 11
250.2898648313708
 21
293.6711089697933
 31
0.0
  0
LINE
  5
160B
330
295E
100
AcDbEntity
  8
0
 62
     3
100
AcDbLine
 10
250.2898648313708
 20
293.6711089697933
 30
0.0
 11
250.2899465113708
 21
288.9916035197932
 31
0.0
  0
LINE
  5
160C
330
295E
100
AcDbEntity
  8
0
 62
     3
100
AcDbLine
 10
250.9124537413708
 20
288.6666686297933
 30
0.0
 11
250.2899465113708
 21
288.9916035197932
 31
0.0
  0
LINE
  5
160D
330
295E
100
AcDbEntity
  8
0
 62
     3
100
AcDbLine
 10
251.2185886713707
 20
293.9960655897932
 30
0.0
 11
251.8410845613707
 21
293.6711089697933
 31
0.0
  0
LINE
  5
160E
330
295E
100
AcDbEntity
  8
0
 62
     3
100
AcDbLine
 10
251.8410845613707
 20
293.6711089697933
 30
0.0
 11
251.8410028913709
 21
288.9916035197932
 31
0.0
  0
LINE
  5
160F
330
295E
100
AcDbEntity
  8
0
 62
     3
100
AcDbLine
 10
251.2184956613708
 20
288.6666686297933
 30
0.0
 11
251.8410028913709
 21
288.9916035197932
 31
0.0
  0
ARC
  5
1610
330
295E
100
AcDbEntity
  8
0
 62
     3
100
AcDbCircle
 10
240.0028886513708
 20
291.3448396197932
 30
0.0
 40
2.98040844
100
AcDbArc
 50
97.70152351000051
 51
270.0
  0
ARC
  5
1611
330
295E
100
AcDbEntity
  8
0
 62
     3
100
AcDbCircle
 10
258.4037469913708
 20
291.3149015797932
 30
0.0
 40
3.012776259999998
100
AcDbArc
 50
0.3142502699992814
 51
69.00558244999962
  0
ARC
  5
1612
330
295E
100
AcDbEntity
  8
0
 62
     3
100
AcDbCircle
 10
259.0618546013709
 20
291.3149015797932
 30
0.0
 40
3.012776259999998
100
AcDbArc
 50
110.9944175500004
 51
148.1166110199997
  0
ARC
  5
1613
330
295E
100
AcDbEntity
  8
0
 62
     3
100
AcDbCircle
 10
258.4037469913708
 20
291.3479497797932
 30
0.0
 40
3.012776259999998
100
AcDbArc
 50
290.9944175500003
 51
359.6857497300007
  0
ARC
  5
1614
330
295E
100
AcDbEntity
  8
0
 62
     3
100
AcDbCircle
 10
259.0618546013709
 20
291.3479497797932
 30
0.0
 40
3.012776259999998
100
AcDbArc
 50
211.8833889800002
 51
249.0055824499996
  0
ARC
  5
1615
330
295E
100
AcDbEntity
  8
0
 62
     3
100
AcDbCircle
 10
258.7328008013708
 20
292.5640048097934
 30
0.0
 40
1.73438712
100
AcDbArc
 50
64.36517189999968
 51
115.6348281000003
  0
ARC
  5
1616
330
295E
100
AcDbEntity
  8
0
 62
     3
100
AcDbCircle
 10
258.7328008013708
 20
290.0988465497932
 30
0.0
 40
1.73438712
100
AcDbArc
 50
244.3651718999997
 51
295.6348281000003
  0
ARC
  5
1617
330
295E
100
AcDbEntity
  8
0
 62
     3
100
AcDbCircle
 10
258.7328008013708
 20
292.5969500697933
 30
0.0
 40
0.85122233
100
AcDbArc
 50
19.48660554000021
 51
160.5133944599996
  0
ARC
  5
1618
330
295E
100
AcDbEntity
  8
0
 62
     3
100
AcDbCircle
 10
258.7328008013708
 20
290.0988465497932
 30
0.0
 40
1.73438712
100
AcDbArc
 50
244.3651718999997
 51
295.6348281000003
  0
ARC
  5
1619
330
295E
100
AcDbEntity
  8
0
 62
     3
100
AcDbCircle
 10
258.7328008013708
 20
290.0659012897932
 30
0.0
 40
0.85122233
100
AcDbArc
 50
199.4866055400002
 51
340.5133944599997
  0
ARC
  5
161A
330
295E
100
AcDbEntity
  8
0
 62
     3
100
AcDbCircle
 10
251.9578400813708
 20
259.5770544797933
 30
0.0
 40
37.20000000000001
100
AcDbArc
 50
69.50571480000146
 51
81.68998807000065
  0
ARC
  5
161B
330
295E
100
AcDbEntity
  8
0
 62
     3
100
AcDbCircle
 10
251.9578400813708
 20
323.0857968797932
 30
0.0
 40
37.20000000000001
100
AcDbArc
 50
278.3100119299994
 51
290.4942851999985
  0
ARC
  5
161C
330
295E
100
AcDbEntity
  8
0
 62
     3
100
AcDbCircle
 10
263.8267031213707
 20
291.3314256797932
 30
0.0
 40
3.299999999999998
100
AcDbArc
 50
290.4942851999985
 51
69.50571480000146
  0
ARC
  5
161D
330
295E
100
AcDbEntity
  8
0
 62
     3
100
AcDbCircle
 10
224.8267031213708
 20
291.3314256797932
 30
0.0
 40
3.299999999999998
100
AcDbArc
 50
110.4942851999985
 51
249.5057148000014
  0
ARC
  5
161E
330
295E
100
AcDbEntity
  8
0
 62
     3
100
AcDbCircle
 10
236.6955661513708
 20
259.5770544797933
 30
0.0
 40
37.20000000000001
100
AcDbArc
 50
98.31001192999934
 51
110.4942851999985
  0
ARC
  5
161F
330
295E
100
AcDbEntity
  8
0
 62
     3
100
AcDbCircle
 10
236.6955661513708
 20
323.0857968797932
 30
0.0
 40
37.20000000000001
100
AcDbArc
 50
249.5057148000014
 51
261.6899880700007
  0
ARC
  5
1620
330
295E
100
AcDbEntity
  8
0
 62
     3
100
AcDbCircle
 10
244.3267031213708
 20
207.3314256797933
 30
0.0
 40
89.99999981
100
AcDbArc
 50
81.68998807000065
 51
98.31001192999934
  0
ARC
  5
1621
330
295E
100
AcDbEntity
  8
0
 62
     3
100
AcDbCircle
 10
244.3267031213708
 20
375.3314256797933
 30
0.0
 40
89.99999981
100
AcDbArc
 50
261.6899880700007
 51
278.3100119299994
  0
ARC
  5
1622
330
295E
100
AcDbEntity
  8
0
 62
     3
100
AcDbCircle
 10
244.3267031213708
 20
207.3314256797933
 30
0.0
 40
89.09999981
100
AcDbArc
 50
81.68998807000065
 51
98.31001192999934
  0
ARC
  5
1623
330
295E
100
AcDbEntity
  8
0
 62
     3
100
AcDbCircle
 10
244.3267031213708
 20
375.3314256797933
 30
0.0
 40
89.09999981
100
AcDbArc
 50
261.6899880700007
 51
278.3100119299994
  0
ARC
  5
1624
330
295E
100
AcDbEntity
  8
0
 62
     3
100
AcDbCircle
 10
251.9578400813708
 20
323.0857968797932
 30
0.0
 40
36.3
100
AcDbArc
 50
278.3100119299994
 51
290.4942851999985
  0
ARC
  5
1625
330
295E
100
AcDbEntity
  8
0
 62
     3
100
AcDbCircle
 10
251.9578400813708
 20
259.5770544797933
 30
0.0
 40
36.3
100
AcDbArc
 50
69.50571480000146
 51
81.68998807000065
  0
ARC
  5
1626
330
295E
100
AcDbEntity
  8
0
 62
     3
100
AcDbCircle
 10
263.8267031213707
 20
291.3314256797932
 30
0.0
 40
2.399999999999999
100
AcDbArc
 50
290.4942851999985
 51
69.50571480000146
  0
ARC
  5
1627
330
295E
100
AcDbEntity
  8
0
 62
     3
100
AcDbCircle
 10
224.8267031213708
 20
291.3314256797932
 30
0.0
 40
2.399999999999999
100
AcDbArc
 50
110.4942851999985
 51
249.5057148000014
  0
ARC
  5
1628
330
295E
100
AcDbEntity
  8
0
 62
     3
100
AcDbCircle
 10
236.6955661513708
 20
259.5770544797933
 30
0.0
 40
36.3
100
AcDbArc
 50
98.31001192999934
 51
110.4942851999985
  0
ARC
  5
1629
330
295E
100
AcDbEntity
  8
0
 62
     3
100
AcDbCircle
 10
236.6955661513708
 20
323.0857968797932
 30
0.0
 40
36.3
100
AcDbArc
 50
249.5057148000014
 51
261.6899880700007
  0
LINE
  5
162A
330
295E
100
AcDbEntity
  8
0
 62
     3
100
AcDbLine
 10
250.9123618413708
 20
288.3644594197932
 30
0.0
 11
248.1559163613708
 21
288.3644594197932
 31
0.0
  0
LINE
  5
162B
330
295E
100
AcDbEntity
  8
0
 62
     3
100
AcDbLine
 10
250.9123618413708
 20
288.6666896297933
 30
0.0
 11
250.9123618413708
 21
288.3644594197932
 31
0.0
  0
LINE
  5
162C
330
295E
100
AcDbEntity
  8
0
 62
     3
100
AcDbLine
 10
247.8602627113708
 20
294.2982509097933
 30
0.0
 11
245.0713162413708
 21
294.2982509097933
 31
0.0
  0
LINE
  5
162D
330
295E
100
AcDbEntity
  8
0
 62
     3
100
AcDbLine
 10
247.8602627113708
 20
294.2982509097933
 30
0.0
 11
247.8602627113708
 21
293.9961617297933
 31
0.0
  0
LINE
  5
162E
330
295E
100
AcDbEntity
  8
0
 62
     3
100
AcDbLine
 10
247.8602627113708
 20
288.6666896297933
 30
0.0
 11
247.8602627113708
 21
288.3643183997932
 31
0.0
  0
LINE
  5
162F
330
295E
100
AcDbEntity
  8
0
 62
     3
100
AcDbLine
 10
247.8602627113708
 20
288.3643183997932
 30
0.0
 11
245.0713162413708
 21
288.3643183997932
 31
0.0
  0
LINE
  5
1630
330
295E
100
AcDbEntity
  8
0
 62
     3
100
AcDbLine
 10
250.9123618413708
 20
294.2983919397932
 30
0.0
 11
250.9123618413708
 21
293.9961617297933
 31
0.0
  0
LINE
  5
1631
330
295E
100
AcDbEntity
  8
0
 62
     3
100
AcDbLine
 10
250.9123618413708
 20
294.2983919397932
 30
0.0
 11
248.1559163613708
 21
294.2983919397932
 31
0.0
  0
LINE
  5
1632
330
295E
100
AcDbEntity
  8
0
 62
     3
100
AcDbLine
 10
248.1559163613708
 20
294.2983919397932
 30
0.0
 11
248.1559163613708
 21
293.9961617297933
 31
0.0
  0
LINE
  5
1633
330
295E
100
AcDbEntity
  8
0
 62
     3
100
AcDbLine
 10
251.2185875513708
 20
288.6666896297933
 30
0.0
 11
251.2185875513708
 21
288.3644594197932
 31
0.0
  0
LINE
  5
1634
330
295E
100
AcDbEntity
  8
0
 62
     3
100
AcDbLine
 10
254.0533026413708
 20
288.3644594197932
 30
0.0
 11
251.2185875513708
 21
288.3644594197932
 31
0.0
  0
LINE
  5
1635
330
295E
100
AcDbEntity
  8
0
 62
     3
100
AcDbLine
 10
253.3525360313709
 20
293.3444354797932
 30
0.0
 11
253.3525360313709
 21
289.3184158797932
 31
0.0
  0
LINE
  5
1636
330
295E
100
AcDbEntity
  8
0
 62
     3
100
AcDbLine
 10
253.3525360313709
 20
289.3184158797932
 30
0.0
 11
253.6240345513709
 21
289.3184158797932
 31
0.0
  0
ARC
  5
1637
330
295E
100
AcDbEntity
  8
0
 62
     3
100
AcDbCircle
 10
252.2357692113708
 20
291.3314256797932
 30
0.0
 40
2.44529939
100
AcDbArc
 50
304.5919552699984
 51
55.40804473000154
  0
LINE
  5
1638
330
295E
100
AcDbEntity
  8
0
 62
     3
100
AcDbLine
 10
254.0533026413708
 20
294.2983919397932
 30
0.0
 11
251.2185875513708
 21
294.2983919397932
 31
0.0
  0
LINE
  5
1639
330
295E
100
AcDbEntity
  8
0
 62
     3
100
AcDbLine
 10
251.2185875513708
 20
294.2983919397932
 30
0.0
 11
251.2185875513708
 21
293.9961617297933
 31
0.0
  0
LINE
  5
163A
330
295E
100
AcDbEntity
  8
0
 62
     3
100
AcDbLine
 10
248.1559163613708
 20
288.6666896297933
 30
0.0
 11
248.1559163613708
 21
288.3644594197932
 31
0.0
  0
LINE
  5
163B
330
295E
100
AcDbEntity
  8
0
 62
     3
100
AcDbLine
 10
253.3525360313709
 20
293.3444354797932
 30
0.0
 11
253.6240345513709
 21
293.3444354797932
 31
0.0
  0
LINE
  5
163C
330
295E
100
AcDbEntity
  8
0
 62
     3
100
AcDbLine
 10
236.7194507913708
 20
288.6666896297933
 30
0.0
 11
236.7194455213708
 21
288.3644311797933
 31
0.0
  0
LINE
  5
163D
330
295E
100
AcDbEntity
  8
0
 62
     3
100
AcDbLine
 10
233.9630000413708
 20
288.3644876697932
 30
0.0
 11
236.7194455213708
 21
288.3644395597933
 31
0.0
  0
LINE
  5
163E
330
295E
100
AcDbEntity
  8
0
 62
     3
100
AcDbLine
 10
227.8253116813707
 20
288.3644594197932
 30
0.0
 11
230.0242621513707
 21
288.3644594197932
 31
0.0
  0
ARC
  5
163F
330
295E
100
AcDbEntity
  8
0
 62
     3
100
AcDbCircle
 10
220.7082507113707
 20
291.4012922897932
 30
0.0
 40
21.01937947
100
AcDbArc
 50
353.8660061900002
 51
357.6940342600001
  0
LINE
  5
1640
330
295E
100
AcDbEntity
  8
0
 62
     3
100
AcDbLine
 10
240.3033648013708
 20
290.5607670697932
 30
0.0
 11
241.7106089213707
 21
290.5555600997933
 31
0.0
  0
LINE
  5
1642
330
295E
100
AcDbEntity
  8
0
 62
     3
100
AcDbLine
 10
240.3090482513708
 20
292.0967881297933
 30
0.0
 11
241.7162923713708
 21
292.0915811597934
 31
0.0
  0
ARC
  5
1643
330
295E
100
AcDbEntity
  8
0
 62
     3
100
AcDbCircle
 10
220.7082507113707
 20
291.4012922897932
 30
0.0
 40
21.01937947
100
AcDbArc
 50
1.881965739999665
 51
5.709993809999617
  0
LINE
  5
1644
330
295E
100
AcDbEntity
  8
0
 62
     3
100
AcDbLine
 10
236.7195490813708
 20
294.2983636897933
 30
0.0
 11
236.7195438113709
 21
293.9961617297933
 31
0.0
  0
LINE
  5
1645
330
295E
100
AcDbEntity
  8
0
 62
     3
100
AcDbLine
 10
233.9631036013708
 20
294.2984201797933
 30
0.0
 11
236.7195490813708
 21
294.2983720697934
 31
0.0
  0
LINE
  5
1646
330
295E
100
AcDbEntity
  8
0
 62
     3
100
AcDbLine
 10
233.9630053113708
 20
288.6666896297933
 30
0.0
 11
233.9630000413708
 21
288.3644876697932
 31
0.0
  0
LINE
  5
1647
330
295E
100
AcDbEntity
  8
0
 62
     3
100
AcDbLine
 10
233.9631036013708
 20
294.2984201797933
 30
0.0
 11
233.9630983313708
 21
293.9961617297933
 31
0.0
  0
LINE
  5
1648
330
295E
100
AcDbEntity
  8
0
 62
     3
100
AcDbLine
 10
230.0242621513707
 20
288.6666896297933
 30
0.0
 11
230.0242621513707
 21
288.3644594197932
 31
0.0
  0
LINE
  5
1649
330
295E
100
AcDbEntity
  8
0
 62
     3
100
AcDbLine
 10
229.4017651413708
 20
291.8442995597932
 30
0.0
 11
231.5766652213708
 21
288.3644594197932
 31
0.0
  0
LINE
  5
164A
330
295E
100
AcDbEntity
  8
0
 62
     3
100
AcDbLine
 10
231.5766652213708
 20
288.3644594197932
 30
0.0
 11
233.0329976913708
 21
288.3644594197932
 31
0.0
  0
LINE
  5
164B
330
295E
100
AcDbEntity
  8
0
 62
     3
100
AcDbLine
 10
233.6554946913708
 20
294.2983919397932
 30
0.0
 11
233.6554946913708
 21
293.9961617297933
 31
0.0
  0
LINE
  5
164C
330
295E
100
AcDbEntity
  8
0
 62
     3
100
AcDbLine
 10
231.4565442213708
 20
294.2983919397932
 30
0.0
 11
233.6554946913708
 21
294.2983919397932
 31
0.0
  0
LINE
  5
164D
330
295E
100
AcDbEntity
  8
0
 62
     3
100
AcDbLine
 10
231.4565442213708
 20
294.2983919397932
 30
0.0
 11
231.4565442213708
 21
293.9961617297933
 31
0.0
  0
LINE
  5
164E
330
295E
100
AcDbEntity
  8
0
 62
     3
100
AcDbLine
 10
232.0790412313709
 20
291.6107257297932
 30
0.0
 11
230.3152602913708
 21
294.2983919397932
 31
0.0
  0
LINE
  5
164F
330
295E
100
AcDbEntity
  8
0
 62
     3
100
AcDbLine
 10
227.8253116813707
 20
294.2983919397932
 30
0.0
 11
230.3152602913708
 21
294.2983919397932
 31
0.0
  0
LINE
  5
1650
330
295E
100
AcDbEntity
  8
0
 62
     3
100
AcDbLine
 10
241.9913322013708
 20
294.2982509097933
 30
0.0
 11
244.7802786813708
 21
294.2982509097933
 31
0.0
  0
LINE
  5
1651
330
295E
100
AcDbEntity
  8
0
 62
     3
100
AcDbLine
 10
241.9913322013708
 20
293.9961617297933
 30
0.0
 11
241.9913322013708
 21
294.2982509097933
 31
0.0
  0
LINE
  5
1652
330
295E
100
AcDbEntity
  8
0
 62
     3
100
AcDbLine
 10
241.9913322013708
 20
288.3643183997932
 30
0.0
 11
241.9913322013708
 21
288.6666896297933
 31
0.0
  0
LINE
  5
1653
330
295E
100
AcDbEntity
  8
0
 62
     3
100
AcDbLine
 10
241.9913322013708
 20
288.3643183997932
 30
0.0
 11
244.7802786813708
 21
288.3643183997932
 31
0.0
  0
LINE
  5
1654
330
295E
100
AcDbEntity
  8
0
 62
     3
100
AcDbLine
 10
245.0713162413708
 20
288.6666896297933
 30
0.0
 11
245.0713162413708
 21
288.3643183997932
 31
0.0
  0
LINE
  5
1655
330
295E
100
AcDbEntity
  8
0
 62
     3
100
AcDbLine
 10
244.7802786813708
 20
288.6666896297933
 30
0.0
 11
244.7802786813708
 21
288.3643183997932
 31
0.0
  0
LINE
  5
1656
330
295E
100
AcDbEntity
  8
0
 62
     3
100
AcDbLine
 10
244.7802786813708
 20
293.9961617297933
 30
0.0
 11
244.7802786813708
 21
294.2982509097933
 31
0.0
  0
LINE
  5
1657
330
295E
100
AcDbEntity
  8
0
 62
     3
100
AcDbLine
 10
245.0713162413708
 20
293.9961617297933
 30
0.0
 11
245.0713162413708
 21
294.2982509097933
 31
0.0
  0
LINE
  5
1658
330
295E
100
AcDbEntity
  8
0
 62
     3
100
AcDbLine
 10
227.8253116813707
 20
288.6666896297933
 30
0.0
 11
227.8253116813707
 21
288.3644594197932
 31
0.0
  0
LINE
  5
1659
330
295E
100
AcDbEntity
  8
0
 62
     3
100
AcDbLine
 10
227.8253116813707
 20
294.2983919397932
 30
0.0
 11
227.8253116813707
 21
293.9961617297933
 31
0.0
  0
ARC
  5
165A
330
295E
100
AcDbEntity
  8
0
 62
     3
100
AcDbCircle
 10
254.3533026413708
 20
291.9539226897932
 30
0.0
 40
2.344469249999999
100
AcDbArc
 50
17.30874897999991
 51
23.76507096000029
  0
ARC
  5
165B
330
295E
100
AcDbEntity
  8
0
 62
     3
100
AcDbCircle
 10
252.3557692113708
 20
291.3314256797932
 30
0.0
 40
4.43675086
100
AcDbArc
 50
342.6912510200001
 51
17.30856643999989
  0
ARC
  5
165C
330
295E
100
AcDbEntity
  8
0
 62
     3
100
AcDbCircle
 10
254.3533026413708
 20
290.7089286697932
 30
0.0
 40
2.344469249999999
100
AcDbArc
 50
336.2349290399997
 51
342.6912510200001
  0
ARC
  5
165D
330
295E
100
AcDbEntity
  8
0
 62
     3
100
AcDbCircle
 10
254.0533026413708
 20
291.9539226897932
 30
0.0
 40
2.344469249999999
100
AcDbArc
 50
17.30874897999991
 51
90.0
  0
ARC
  5
165E
330
295E
100
AcDbEntity
  8
0
 62
     3
100
AcDbCircle
 10
252.0557692113708
 20
291.3314256797932
 30
0.0
 40
4.43675086
100
AcDbArc
 50
342.6912510200001
 51
17.30856643999989
  0
ARC
  5
165F
330
295E
100
AcDbEntity
  8
0
 62
     3
100
AcDbCircle
 10
254.0533026413708
 20
290.7089286697932
 30
0.0
 40
2.344469249999999
100
AcDbArc
 50
270.0
 51
342.6912510200001
  0
ARC
  5
1660
330
295E
100
AcDbEntity
  8
0
 62
     3
100
AcDbCircle
 10
239.5905306713707
 20
291.3314256797932
 30
0.0
 40
2.966966259999998
100
AcDbArc
 50
46.75287961000086
 51
89.74999828999893
  0
ARC
  5
1661
330
295E
100
AcDbEntity
  8
0
 62
     3
100
AcDbCircle
 10
239.5905306713707
 20
291.3314256797932
 30
0.0
 40
2.966966259999998
100
AcDbArc
 50
273.9763331500004
 51
312.8231203899988
  0
ARC
  5
1662
330
295E
100
AcDbEntity
  8
0
 62
     3
100
AcDbCircle
 10
255.9359706013708
 20
291.2856234997934
 30
0.0
 40
3.936984289999998
100
AcDbArc
 50
0.6665840599997991
 51
23.90392827000139
  0
ARC
  5
1663
330
295E
100
AcDbEntity
  8
0
 62
     3
100
AcDbCircle
 10
261.5296309913708
 20
291.2856234997934
 30
0.0
 40
3.936984289999998
100
AcDbArc
 50
156.0960717299986
 51
179.3334159400002
  0
ARC
  5
1664
330
295E
100
AcDbEntity
  8
0
 62
     3
100
AcDbCircle
 10
255.9359706013708
 20
291.3772278597932
 30
0.0
 40
3.936984289999998
100
AcDbArc
 50
336.0960717299985
 51
359.3334159400002
  0
ARC
  5
1665
330
295E
100
AcDbEntity
  8
0
 62
     3
100
AcDbCircle
 10
261.5296309913708
 20
291.3772278597932
 30
0.0
 40
3.936984289999998
100
AcDbArc
 50
180.6665840599997
 51
203.9039282700014
  0
LINE
  5
1666
330
295E
100
AcDbEntity
  8
0
 62
     3
100
AcDbLine
 10
268.7071473913708
 20
291.5561595897933
 30
0.0
 11
440.0504222113708
 21
291.5561595897933
 31
0.0
  0
LINE
  5
1667
330
295E
100
AcDbEntity
  8
0
 62
     3
100
AcDbLine
 10
220.1531127213708
 20
291.5561595897933
 30
0.0
 11
50.05042221137079
 21
291.5561595897933
 31
0.0
  0
LINE
  5
1668
330
295E
100
AcDbEntity
  8
0
 62
     3
100
AcDbLine
 10
37.64849842137079
 20
158.0007985397933
 30
0.0
 11
35.0504222113708
 21
156.5007985397933
 31
0.0
  0
LINE
  5
1669
330
295E
100
AcDbEntity
  8
0
 62
     3
100
AcDbLine
 10
37.64849842137079
 20
158.0007985397933
 30
0.0
 11
35.0504222113708
 21
159.5007985397933
 31
0.0
  0
LINE
  5
166A
330
295E
100
AcDbEntity
  8
0
 62
     3
100
AcDbLine
 10
35.0504222113708
 20
156.5007985397933
 30
0.0
 11
35.0504222113708
 21
159.5007985397933
 31
0.0
  0
LINE
  5
16B5
330
295E
100
AcDbEntity
  8
0
 62
     3
100
AcDbLine
 10
440.0504222113708
 20
63.22188211979332
 30
0.0
 11
388.3510587313709
 21
63.22188211979332
 31
0.0
  0
TEXT
  5
16B6
330
295E
100
AcDbEntity
  8
0
 62
     3
100
AcDbText
 10
393.3700468830819
 20
57.80192207558894
 30
0.0
 40
4.5
  1
コード
  7
高4.5
100
AcDbText
  0
TEXT
  5
16B7
330
295E
100
AcDbEntity
  8
0
 62
     3
100
AcDbText
 10
416.9922827422535
 20
57.80192207558894
 30
0.0
 40
4.5
  1
8952
  7
高4.5
100
AcDbText
  0
TEXT
  5
2A48
330
295E
100
AcDbEntity
  8
0
 62
     7
100
AcDbText
 10
432.4599349069603
 20
38.14568858529379
 30
0.0
 40
3.2
  1
I
  7
高3.2
100
AcDbText
  0
TEXT
  5
3823
330
295E
100
AcDbEntity
  8
0
 62
     3
100
AcDbText
 10
427.5504222113708
 20
282.0561595897933
 30
0.0
 40
3.2
  1
担　当
  7
高3.2
100
AcDbText
  0
TEXT
  5
3824
330
295E
100
AcDbEntity
  8
0
 62
     3
100
AcDbText
 10
383.5504222113709
 20
282.0561595897933
 30
0.0
 40
3.2
  1
変更・追記内容
  7
高3.2
100
AcDbText
  0
TEXT
  5
3825
330
295E
100
AcDbEntity
  8
0
 62
     3
100
AcDbText
 10
358.6639372117101
 20
277.385621079885
 30
0.0
 40
2.0
  1
1
  7
高2
100
AcDbText
  0
TEXT
  5
3826
330
295E
100
AcDbEntity
  8
0
 62
     3
100
AcDbText
 10
358.3554257349529
 20
272.2158043676121
 30
0.0
 40
2.0
  1
2
  7
高2
100
AcDbText
  0
TEXT
  5
3827
330
295E
100
AcDbEntity
  8
0
 62
     3
100
AcDbText
 10
365.5504222113709
 20
282.0561595897933
 30
0.0
 40
3.2
  1
日　付
  7
高3.2
100
AcDbText
  0
TEXT
  5
3828
330
295E
100
AcDbEntity
  8
0
 62
     3
100
AcDbText
 10
365.5504222113709
 20
287.0561595897933
 30
0.0
 40
3.2
  1
図　　　　面　　　　略　　　　歴
  7
高3.2
100
AcDbText
  0
TEXT
  5
3829
330
295E
100
AcDbEntity
  8
0
 62
     3
100
AcDbText
 10
355.5504222113709
 20
282.0561595897933
 30
0.0
 40
3.2
  1
記号
  7
高3.2
100
AcDbText
  0
LINE
  5
382A
330
295E
100
AcDbEntity
  8
0
100
AcDbLine
 10
359.0504222113708
 20
275.3470555897934
 30
0.0
 11
357.1504222113708
 21
272.0561595897933
 31
0.0
  0
LINE
  5
382B
330
295E
100
AcDbEntity
  8
0
100
AcDbLine
 10
359.0504222113708
 20
275.3470555897934
 30
0.0
 11
360.9504222113709
 21
272.0561595897933
 31
0.0
  0
LINE
  5
382C
330
295E
100
AcDbEntity
  8
0
100
AcDbLine
 10
357.1504222113708
 20
272.0561595897933
 30
0.0
 11
360.9504222113709
 21
272.0561595897933
 31
0.0
  0
LINE
  5
382D
330
295E
100
AcDbEntity
  8
0
100
AcDbLine
 10
359.0504222113708
 20
280.3470565897934
 30
0.0
 11
357.1504222113708
 21
277.0561595897933
 31
0.0
  0
LINE
  5
382E
330
295E
100
AcDbEntity
  8
0
100
AcDbLine
 10
359.0504222113708
 20
280.3470565897934
 30
0.0
 11
360.9504222113709
 21
277.0561595897933
 31
0.0
  0
LINE
  5
382F
330
295E
100
AcDbEntity
  8
0
100
AcDbLine
 10
357.1504222113708
 20
277.0561595897933
 30
0.0
 11
360.9504222113709
 21
277.0561595897933
 31
0.0
  0
LINE
  5
3830
330
295E
100
AcDbEntity
  8
0
 62
     3
100
AcDbLine
 10
354.0504222113709
 20
286.5561595897933
 30
0.0
 11
440.0504222113708
 21
286.5561595897933
 31
0.0
  0
LINE
  5
3831
330
295E
100
AcDbEntity
  8
0
 62
     3
100
AcDbLine
 10
354.0504222113709
 20
281.5561595897933
 30
0.0
 11
440.0504222113708
 21
281.5561595897933
 31
0.0
  0
LINE
  5
3832
330
295E
100
AcDbEntity
  8
0
 62
     7
100
AcDbLine
 10
354.0504222113709
 20
276.5561595897933
 30
0.0
 11
440.0504222113708
 21
276.5561595897933
 31
0.0
  0
LINE
  5
3833
330
295E
100
AcDbEntity
  8
0
 62
     3
100
AcDbLine
 10
354.0504222113709
 20
271.5561595897933
 30
0.0
 11
440.0504222113708
 21
271.5561595897933
 31
0.0
  0
LINE
  5
3834
330
295E
100
AcDbEntity
  8
0
 62
     7
100
AcDbLine
 10
426.0504222113707
 20
271.5561595897933
 30
0.0
 11
426.0504222113708
 21
286.5561595897933
 31
0.0
  0
LINE
  5
3835
330
295E
100
AcDbEntity
  8
0
 62
     7
100
AcDbLine
 10
382.0504222113708
 20
271.5561595897933
 30
0.0
 11
382.0504222113708
 21
286.5561595897933
 31
0.0
  0
LINE
  5
3836
330
295E
100
AcDbEntity
  8
0
 62
     7
100
AcDbLine
 10
364.0504222113709
 20
271.5561595897933
 30
0.0
 11
364.0504222113709
 21
286.5561595897933
 31
0.0
  0
LINE
  5
3837
330
295E
100
AcDbEntity
  8
0
 62
     3
100
AcDbLine
 10
354.0504222113709
 20
271.5561595897933
 30
0.0
 11
354.0504222113709
 21
291.5561595897933
 31
0.0
  0
LINE
  5
4EA7
330
295E
100
AcDbEntity
  8
0
 62
     3
100
AcDbLine
 10
413.4704271608057
 20
236.8676110882824
 30
0.0
 11
332.0277514891099
 21
236.8676110882824
 31
0.0
  0
LINE
  5
4EA8
330
295E
100
AcDbEntity
  8
0
 62
     7
100
AcDbLine
 10
413.4704271608057
 20
214.8676110882818
 30
0.0
 11
332.0277514891099
 21
214.8676110882818
 31
0.0
  0
LINE
  5
4EA9
330
295E
100
AcDbEntity
  8
0
 62
     7
100
AcDbLine
 10
413.4704271608057
 20
143.3676110882806
 30
0.0
 11
332.0277514891099
 21
143.3676110882806
 31
0.0
  0
TEXT
  5
4EAA
330
295E
100
AcDbEntity
  8
0
 62
     3
100
AcDbText
 10
333.5277514891095
 20
155.3676110882805
 30
0.0
 40
3.2
  1
充電　時間
  7
高3.2
100
AcDbText
  0
TEXT
  5
4EAB
330
295E
100
AcDbEntity
  8
0
 62
     3
100
AcDbText
 10
333.5277514891099
 20
232.3676110882824
 30
0.0
 40
3.2
  1
型　　　式
  7
高3.2
100
AcDbText
  0
TEXT
  5
4EAC
330
295E
100
AcDbEntity
  8
0
 62
     3
100
AcDbText
 10
333.5277514891099
 20
221.3676110882814
 30
0.0
 40
3.2
  1
定格　光束
  7
高3.2
100
AcDbText
  0
TEXT
  5
4EAD
330
295E
100
AcDbEntity
  8
0
 62
     3
100
AcDbText
 10
333.5277514891099
 20
149.8676110882805
 30
0.0
 40
3.2
  1
蓄　電　池
  7
高3.2
100
AcDbText
  0
LINE
  5
4EAE
330
295E
100
AcDbEntity
  8
0
 62
     7
100
AcDbLine
 10
413.4704271608057
 20
137.8676110882806
 30
0.0
 11
357.3965141552684
 21
137.8676110882806
 31
0.0
  0
TEXT
  5
4EAF
330
295E
100
AcDbEntity
  8
0
 62
     3
100
AcDbText
 10
358.8965141552677
 20
149.8676110882805
 30
0.0
 40
3.2
  1
リチウムイオンバッテリー
 41
0.8
  7
高3.2
100
AcDbText
  0
LINE
  5
4EB0
330
295E
100
AcDbEntity
  8
0
 62
     7
100
AcDbLine
 10
413.4704271608057
 20
198.3676110882814
 30
0.0
 11
332.0277514891099
 21
198.3676110882814
 31
0.0
  0
LINE
  5
4EB1
330
295E
100
AcDbEntity
  8
0
 62
     3
100
AcDbLine
 10
332.0277514891099
 20
236.8676110882824
 30
0.0
 11
332.0277514891095
 21
104.8676110882808
 31
0.0
  0
LINE
  5
4EB2
330
295E
100
AcDbEntity
  8
0
 62
     7
100
AcDbLine
 10
357.396514155268
 20
104.8676110882808
 30
0.0
 11
357.396514155268
 21
236.8676110882824
 31
0.0
  0
TEXT
  5
4EB3
330
295E
100
AcDbEntity
  8
0
 62
     3
100
AcDbText
 10
358.896514155268
 20
232.3676110882824
 30
0.0
 40
3.2
  1
SHL-3W-PIR-CH
  7
高3.2
100
AcDbText
  0
TEXT
  5
4EB4
330
295E
100
AcDbEntity
  8
0
 62
     3
100
AcDbText
 10
358.896514155268
 20
105.8676110882808
 30
0.0
 40
3.2
  1
143g
  7
高3.2
100
AcDbText
  0
TEXT
  5
4EB5
330
295E
100
AcDbEntity
  8
0
 62
     3
100
AcDbText
 10
333.5277514891099
 20
105.8676110882808
 30
0.0
 40
3.2
  1
本体　質量
  7
高3.2
100
AcDbText
  0
LINE
  5
4EB6
330
295E
100
AcDbEntity
  8
0
 62
     7
100
AcDbLine
 10
413.4704271608057
 20
132.3676110882806
 30
0.0
 11
332.0277514891099
 21
132.3676110882806
 31
0.0
  0
TEXT
  5
4EB7
330
295E
100
AcDbEntity
  8
0
 62
     3
100
AcDbText
 10
358.896514155268
 20
138.8676110882806
 30
0.0
 40
3.2
  1
入力AC100-240V 50/60Hz
 41
0.8
  7
高3.2
100
AcDbText
  0
TEXT
  5
4EB8
330
295E
100
AcDbEntity
  8
0
 62
     3
100
AcDbText
 10
358.8965141552677
 20
155.3676110882805
 30
0.0
 40
3.2
  1
2.5H
  7
高3.2
100
AcDbText
  0
LINE
  5
4EB9
330
295E
100
AcDbEntity
  8
0
 62
     7
100
AcDbLine
 10
413.4704271608057
 20
126.8676110882807
 30
0.0
 11
332.0277514891099
 21
126.8676110882807
 31
0.0
  0
LINE
  5
4EBA
330
295E
100
AcDbEntity
  8
0
 62
     3
100
AcDbLine
 10
413.4704271608057
 20
104.8676110882808
 30
0.0
 11
332.0277514891099
 21
104.8676110882808
 31
0.0
  0
TEXT
  5
4EBB
330
295E
100
AcDbEntity
  8
0
 62
     3
100
AcDbText
 10
358.8965141552677
 20
188.3676110882807
 30
0.0
 40
3.2
  1
110Lx
  7
高3.2
100
AcDbText
  0
TEXT
  5
4EBC
330
295E
100
AcDbEntity
  8
0
 62
     3
100
AcDbText
 10
358.896514155268
 20
133.3676110882806
 30
0.0
 40
3.2
  1
出力DC5V 1000mA
 41
0.8
  7
高3.2
100
AcDbText
  0
TEXT
  5
4EBD
330
295E
100
AcDbEntity
  8
0
 62
     3
100
AcDbText
 10
358.896514155268
 20
221.3676110882814
 30
0.0
 40
3.2
  1
220Lm
  7
高3.2
100
AcDbText
  0
TEXT
  5
4EBE
330
295E
100
AcDbEntity
  8
0
 62
     3
100
AcDbText
 10
333.5277514891099
 20
193.8676110882805
 30
0.0
 40
3.2
  1
照度
  7
高3.2
100
AcDbText
  0
TEXT
  5
4EBF
330
295E
100
AcDbEntity
  8
0
 62
     3
100
AcDbText
 10
333.5277514891099
 20
138.8676110882806
 30
0.0
 40
3.2
  1
ACアダプター
 41
0.8
  7
高3.2
100
AcDbText
  0
TEXT
  5
4EC0
330
295E
100
AcDbEntity
  8
0
 62
     3
100
AcDbText
 10
343.2068955772243
 20
188.3676110882807
 30
0.0
 40
3.2
  1
1m
  7
高3.2
100
AcDbText
  0
LINE
  5
4EC1
330
295E
100
AcDbEntity
  8
0
 62
     7
100
AcDbLine
 10
413.4704271608057
 20
187.3676110882808
 30
0.0
 11
341.7068955772238
 21
187.3676110882808
 31
0.0
  0
TEXT
  5
4EC2
330
295E
100
AcDbEntity
  8
0
 62
     3
100
AcDbText
 10
358.8965141552677
 20
182.8676110882807
 30
0.0
 40
3.2
  1
30Lx
  7
高3.2
100
AcDbText
  0
TEXT
  5
4EC3
330
295E
100
AcDbEntity
  8
0
 62
     3
100
AcDbText
 10
343.2068955772243
 20
182.8676110882807
 30
0.0
 40
3.2
  1
2m
  7
高3.2
100
AcDbText
  0
LINE
  5
4EC4
330
295E
100
AcDbEntity
  8
0
 62
     7
100
AcDbLine
 10
413.4704271608057
 20
181.8676110882807
 30
0.0
 11
341.7068955772238
 21
181.8676110882807
 31
0.0
  0
TEXT
  5
4EC5
330
295E
100
AcDbEntity
  8
0
 62
     3
100
AcDbText
 10
358.8965141552677
 20
177.3676110882805
 30
0.0
 40
3.2
  1
15Lx
  7
高3.2
100
AcDbText
  0
TEXT
  5
4EC6
330
295E
100
AcDbEntity
  8
0
 62
     3
100
AcDbText
 10
343.2068955772243
 20
177.3676110882805
 30
0.0
 40
3.2
  1
3m
  7
高3.2
100
AcDbText
  0
LINE
  5
4EC7
330
295E
100
AcDbEntity
  8
0
 62
     7
100
AcDbLine
 10
413.4704271608057
 20
176.3676110882808
 30
0.0
 11
341.7068955772238
 21
176.3676110882808
 31
0.0
  0
TEXT
  5
4EC8
330
295E
100
AcDbEntity
  8
0
 62
     3
100
AcDbText
 10
358.8965141552677
 20
171.8676110882807
 30
0.0
 40
3.2
  1
8Lx
  7
高3.2
100
AcDbText
  0
TEXT
  5
4EC9
330
295E
100
AcDbEntity
  8
0
 62
     3
100
AcDbText
 10
343.2068955772243
 20
171.8676110882807
 30
0.0
 40
3.2
  1
4m
  7
高3.2
100
AcDbText
  0
LINE
  5
4ECA
330
295E
100
AcDbEntity
  8
0
 62
     7
100
AcDbLine
 10
413.4704271608057
 20
170.8676110882807
 30
0.0
 11
341.7068955772238
 21
170.8676110882807
 31
0.0
  0
TEXT
  5
4ECB
330
295E
100
AcDbEntity
  8
0
 62
     3
100
AcDbText
 10
358.8965141552677
 20
166.3676110882805
 30
0.0
 40
3.2
  1
5Lx
  7
高3.2
100
AcDbText
  0
TEXT
  5
4ECC
330
295E
100
AcDbEntity
  8
0
 62
     3
100
AcDbText
 10
343.2068955772243
 20
166.3676110882805
 30
0.0
 40
3.2
  1
5m
  7
高3.2
100
AcDbText
  0
LINE
  5
4ECD
330
295E
100
AcDbEntity
  8
0
 62
     7
100
AcDbLine
 10
413.4704271608057
 20
154.3676110882805
 30
0.0
 11
332.0277514891099
 21
154.3676110882805
 31
0.0
  0
TEXT
  5
4ECE
330
295E
100
AcDbEntity
  8
0
 62
     3
100
AcDbText
 10
358.8965141552677
 20
116.867611088281
 30
0.0
 40
3.2
  1
500回(充放電回数)
  7
高3.2
100
AcDbText
  0
TEXT
  5
4ECF
330
295E
100
AcDbEntity
  8
0
 62
     3
100
AcDbText
 10
333.5277514891095
 20
116.867611088281
 30
0.0
 40
3.2
  1
電池　寿命
  7
高3.2
100
AcDbText
  0
LINE
  5
4ED0
330
295E
100
AcDbEntity
  8
0
 62
     7
100
AcDbLine
 10
413.4704271608057
 20
165.3676110882803
 30
0.0
 11
332.0277514891099
 21
165.3676110882803
 31
0.0
  0
TEXT
  5
4ED1
330
295E
100
AcDbEntity
  8
0
 62
     3
100
AcDbText
 10
358.896514155268
 20
215.8676110882819
 30
0.0
 40
3.2
  1
6500K
  7
高3.2
100
AcDbText
  0
TEXT
  5
4ED2
330
295E
100
AcDbEntity
  8
0
 62
     3
100
AcDbText
 10
333.5277514891099
 20
215.8676110882819
 30
0.0
 40
3.2
  1
色　温　度
  7
高3.2
100
AcDbText
  0
TEXT
  5
4ED3
330
295E
100
AcDbEntity
  8
0
 62
     3
100
AcDbText
 10
333.5277514891099
 20
111.3676110882811
 30
0.0
 40
3.2
  1
使用環境温度
  7
高3.2
100
AcDbText
  0
TEXT
  5
4ED4
330
295E
100
AcDbEntity
  8
0
 62
     3
100
AcDbText
 10
358.896514155268
 20
111.3676110882811
 30
0.0
 40
3.2
  1
-10～40℃
  7
高3.2
100
AcDbText
  0
TEXT
  5
4ED5
330
295E
100
AcDbEntity
  8
0
 62
     3
100
AcDbText
 10
333.5277514891095
 20
127.8676110882808
 30
0.0
 40
3.2
  1
本体防水規格
  7
高3.2
100
AcDbText
  0
LINE
  5
4ED6
330
295E
100
AcDbEntity
  8
0
 62
     7
100
AcDbLine
 10
413.4704271608057
 20
121.367611088281
 30
0.0
 11
332.0277514891099
 21
121.3676110882808
 31
0.0
  0
TEXT
  5
4ED7
330
295E
100
AcDbEntity
  8
0
 62
     3
100
AcDbText
 10
358.8965141552677
 20
127.8676110882808
 30
0.0
 40
3.2
  1
IP 54
  7
高3.2
100
AcDbText
  0
LINE
  5
4ED8
330
295E
100
AcDbEntity
  8
0
 62
     7
100
AcDbLine
 10
413.4704271608057
 20
115.867611088281
 30
0.0
 11
332.0277514891099
 21
115.867611088281
 31
0.0
  0
TEXT
  5
4ED9
330
295E
100
AcDbEntity
  8
0
 62
     3
100
AcDbText
 10
358.8965141552677
 20
144.3676110882806
 30
0.0
 40
3.2
  1
DC3.7V　1600mAh
  7
高3.2
100
AcDbText
  0
LINE
  5
4EDA
330
295E
100
AcDbEntity
  8
0
 62
     7
100
AcDbLine
 10
341.7068955772243
 20
165.3676110882805
 30
0.0
 11
341.7068955772243
 21
192.8676110882807
 31
0.0
  0
LINE
  5
4EDB
330
295E
100
AcDbEntity
  8
0
 62
     3
100
AcDbLine
 10
413.4704271608057
 20
236.8676110882824
 30
0.0
 11
413.4704271608057
 21
104.8676110882808
 31
0.0
  0
LINE
  5
4EDC
330
295E
100
AcDbEntity
  8
0
 62
     7
100
AcDbLine
 10
413.4704271608057
 20
110.3676110882811
 30
0.0
 11
332.0277514891099
 21
110.3676110882811
 31
0.0
  0
LINE
  5
4EDD
330
295E
100
AcDbEntity
  8
0
 62
     7
100
AcDbLine
 10
413.4704271608057
 20
148.8676110882805
 30
0.0
 11
357.3965141552684
 21
148.8676110882805
 31
0.0
  0
LINE
  5
4EDE
330
295E
100
AcDbEntity
  8
0
 62
     7
100
AcDbLine
 10
413.4704271608057
 20
231.3676110882805
 30
0.0
 11
332.0277514891099
 21
231.3676110882805
 31
0.0
  0
TEXT
  5
4EDF
330
295E
100
AcDbEntity
  8
0
 62
     3
100
AcDbText
 10
358.8965141552677
 20
122.3676110882808
 30
0.0
 40
3.2
  1
40000H
  7
高3.2
100
AcDbText
  0
TEXT
  5
4EE0
330
295E
100
AcDbEntity
  8
0
 62
     3
100
AcDbText
 10
333.5277514891095
 20
122.3676110882808
 30
0.0
 40
3.2
  1
球　寿　命
  7
高3.2
100
AcDbText
  0
LINE
  5
4EE1
330
295E
100
AcDbEntity
  8
0
 62
     7
100
AcDbLine
 10
413.4704271608057
 20
225.8676110882821
 30
0.0
 11
332.0277514891099
 21
225.8676110882821
 31
0.0
  0
TEXT
  5
4EE2
330
295E
100
AcDbEntity
  8
0
 62
     3
100
AcDbText
 10
358.896514155268
 20
226.8676110882822
 30
0.0
 40
3.2
  1
LED
  7
高3.2
100
AcDbText
  0
TEXT
  5
4EE3
330
295E
100
AcDbEntity
  8
0
 62
     3
100
AcDbText
 10
333.5277514891099
 20
226.8676110882822
 30
0.0
 40
3.2
  1
光　　　源
  7
高3.2
100
AcDbText
  0
LINE
  5
4EE4
330
295E
100
AcDbEntity
  8
0
 62
     7
100
AcDbLine
 10
413.4704271608057
 20
220.3676110882814
 30
0.0
 11
332.0277514891099
 21
220.3676110882814
 31
0.0
  0
TEXT
  5
4EE5
330
295E
100
AcDbEntity
  8
0
 62
     3
100
AcDbText
 10
358.896514155268
 20
210.3676110882811
 30
0.0
 40
3.2
  1
120\U+00B0
  7
高3.2
100
AcDbText
  0
TEXT
  5
4EE6
330
295E
100
AcDbEntity
  8
0
 62
     3
100
AcDbText
 10
333.5277514891099
 20
210.3676110882811
 30
0.0
 40
3.2
  1
照射　角度
  7
高3.2
100
AcDbText
  0
TEXT
  5
4EE7
330
295E
100
AcDbEntity
  8
0
 62
     3
100
AcDbText
 10
347.2395898510126
 20
241.8370043084168
 30
0.0
 40
4.5
  1
主　　仕　　様
  7
高4.5
100
AcDbText
  0
LINE
  5
4EE8
330
295E
100
AcDbEntity
  8
0
100
AcDbLine
 10
346.138675483257
 20
240.9712512245741
 30
0.0
 11
384.7308957629443
 21
240.9712512245741
 31
0.0
  0
TEXT
  5
4EE9
330
295E
100
AcDbEntity
  8
0
 62
     7
100
AcDbText
 10
331.0768252870071
 20
91.14254723753878
 30
0.0
 40
2.5
  1
注３）照度は当社実測値の為、使用環境下により異なります。
 41
0.8
  7
高2.5
100
AcDbText
  0
TEXT
  5
4EEA
330
295E
100
AcDbEntity
  8
0
 62
     7
100
AcDbText
 10
331.0768252870071
 20
88.14254723753881
 30
0.0
 40
2.5
  1
注４）連続点灯時間は満充電時から1m照度が10Lx切るまでの時間です。
 41
0.8
  7
高2.5
100
AcDbText
  0
TEXT
  5
4EEB
330
295E
100
AcDbEntity
  8
0
 62
     7
100
AcDbText
 10
331.0768252870071
 20
85.14254723753879
 30
0.0
 40
2.5
  1
注５）球寿命は光束が70%%%に低下するまでの時間です。
 41
0.8
  7
高2.5
100
AcDbText
  0
TEXT
  5
4EEC
330
295E
100
AcDbEntity
  8
0
 62
     7
100
AcDbText
 10
331.0768252870071
 20
82.1425472375388
 30
0.0
 40
2.5
  1
　　　表示は設計値であり、製品の寿命を保証するものではありません。
 41
0.8
  7
高2.5
100
AcDbText
  0
TEXT
  5
4EED
330
295E
100
AcDbEntity
  8
0
 62
     7
100
AcDbText
 10
331.0768252870071
 20
94.14254723753879
 30
0.0
 40
2.5
  1
注２）LEDの光色、明るさにはバラツキがあります。
 41
0.8
  7
高2.5
100
AcDbText
  0
TEXT
  5
4EEE
330
295E
100
AcDbEntity
  8
0
 62
     7
100
AcDbText
 10
331.0768252870071
 20
97.14254723753882
 30
0.0
 40
2.5
  1
注１）当器具のLED素子交換はできません。
 41
0.8
  7
高2.5
100
AcDbText
  0
TEXT
  5
4EEF
330
295E
100
AcDbEntity
  8
0
 62
     7
100
AcDbText
 10
331.0768252870071
 20
79.14254723753879
 30
0.0
 40
2.5
  1
注６）安全にご使用いただくため、取扱説明書をご参照ください。
 41
0.8
  7
高2.5
100
AcDbText
  0
TEXT
  5
4EF0
330
295E
100
AcDbEntity
  8
0
 62
     7
100
AcDbText
 10
331.0768252870071
 20
76.14254723753879
 30
0.0
 40
2.5
  1
注７）仕様変更は予告なく行う場合があります。予めご了承ください。
 41
0.8
  7
高2.5
100
AcDbText
  0
TEXT
  5
4EF1
330
295E
100
AcDbEntity
  8
0
 62
     3
100
AcDbText
 10
333.5277514891099
 20
160.8676110882795
 30
0.0
 40
3.2
  1
連続点灯時間
  7
高3.2
100
AcDbText
  0
TEXT
  5
4EF2
330
295E
100
AcDbEntity
  8
0
 62
     3
100
AcDbText
 10
358.896514155268
 20
160.8676110882795
 30
0.0
 40
3.2
  1
2.5H
  7
高3.2
100
AcDbText
  0
LINE
  5
4EF3
330
295E
100
AcDbEntity
  8
0
 62
     7
100
AcDbLine
 10
413.4704271608057
 20
159.8676110882795
 30
0.0
 11
332.0277514891099
 21
159.8676110882795
 31
0.0
  0
LINE
  5
4EF4
330
295E
100
AcDbEntity
  8
0
 62
     7
100
AcDbLine
 10
413.4704271608057
 20
209.3676110882819
 30
0.0
 11
332.0277514891099
 21
209.3676110882819
 31
0.0
  0
TEXT
  5
4EF5
330
295E
100
AcDbEntity
  8
0
 62
     3
100
AcDbText
 10
358.896514155268
 20
204.8676110882812
 30
0.0
 40
3.2
  1
LOW→HIGH→OFF
  7
高3.2
100
AcDbText
  0
TEXT
  5
4EF6
330
295E
100
AcDbEntity
  8
0
 62
     3
100
AcDbText
 10
333.5277514891099
 20
204.8676110882812
 30
0.0
 40
3.2
  1
点灯パターン
  7
高3.2
100
AcDbText
  0
LINE
  5
4EF7
330
295E
100
AcDbEntity
  8
0
 62
     7
100
AcDbLine
 10
413.4704271608057
 20
203.8676110882818
 30
0.0
 11
357.396514155268
 21
203.8676110882818
 31
0.0
  0
TEXT
  5
4EF8
330
295E
100
AcDbEntity
  8
0
 62
     3
100
AcDbText
 10
358.896514155268
 20
199.3676110882811
 30
0.0
 40
3.2
  1
(赤外線モード時、HIGHのみ)
 41
0.7
  7
高3.2
100
AcDbText
  0
TEXT
  5
4EFC
330
295E
100
AcDbEntity
  8
0
 62
     3
100
AcDbText
 10
358.8965141552677
 20
193.8676110882805
 30
0.0
 40
3.2
  1
HIGH
  7
高3.2
100
AcDbText
  0
LINE
  5
4EFD
330
295E
100
AcDbEntity
  8
0
 62
     7
100
AcDbLine
 10
413.4704271608057
 20
192.8676110882807
 30
0.0
 11
341.7068955772238
 21
192.8676110882807
 31
0.0
  0
LINE
  5
4F00
330
295E
100
AcDbEntity
  8
0
 62
     7
100
AcDbLine
 10
385.4334706580369
 20
159.8676110882795
 30
0.0
 11
385.4334706580369
 21
198.3676110882814
 31
0.0
  0
TEXT
  5
4F01
330
295E
100
AcDbEntity
  8
0
 62
     3
100
AcDbText
 10
386.9334706580364
 20
188.3676110882807
 30
0.0
 40
3.2
  1
55Lx
  7
高3.2
100
AcDbText
  0
TEXT
  5
4F08
330
295E
100
AcDbEntity
  8
0
 62
     3
100
AcDbText
 10
386.9334706580364
 20
182.8676110882807
 30
0.0
 40
3.2
  1
15Lx
  7
高3.2
100
AcDbText
  0
TEXT
  5
4F09
330
295E
100
AcDbEntity
  8
0
 62
     3
100
AcDbText
 10
386.9334706580364
 20
177.3676110882805
 30
0.0
 40
3.2
  1
7Lx
  7
高3.2
100
AcDbText
  0
TEXT
  5
4F0A
330
295E
100
AcDbEntity
  8
0
 62
     3
100
AcDbText
 10
386.9334706580364
 20
171.8676110882805
 30
0.0
 40
3.2
  1
4Lx
  7
高3.2
100
AcDbText
  0
TEXT
  5
4F0B
330
295E
100
AcDbEntity
  8
0
 62
     3
100
AcDbText
 10
386.9334706580364
 20
166.3676110882805
 30
0.0
 40
3.2
  1
3Lx
  7
高3.2
100
AcDbText
  0
TEXT
  5
4F0C
330
295E
100
AcDbEntity
  8
0
 62
     3
100
AcDbText
 10
386.9334706580369
 20
160.8676110882795
 30
0.0
 40
3.2
  1
5.5H
  7
高3.2
100
AcDbText
  0
TEXT
  5
4F0D
330
295E
100
AcDbEntity
  8
0
 62
     3
100
AcDbText
 10
386.9334706580364
 20
193.8676110882805
 30
0.0
 40
3.2
  1
LOW
  7
高3.2
100
AcDbText
  0
LINE
  5
4F18
330
295E
100
AcDbEntity
  8
0
 62
     3
100
AcDbLine
 10
99.43913937969307
 20
176.486755591869
 30
0.0
 11
138.0149354660254
 21
176.486755591869
 31
0.0
  0
ARC
  5
4F29
330
295E
100
AcDbEntity
  8
0
 62
     3
100
AcDbCircle
 10
83.80605985127477
 20
189.0300681143598
 30
0.0
 40
63.55887561475061
100
AcDbArc
 50
349.3668990716038
 51
6.517371886789661
  0
ARC
  5
4F2B
330
295E
100
AcDbEntity
  8
0
 62
     3
100
AcDbCircle
 10
160.9238110807759
 20
189.0300681143598
 30
0.0
 40
63.55887561475061
100
AcDbArc
 50
173.4826281132103
 51
190.6331009283961
  0
ARC
  5
4F2F
330
295E
100
AcDbEntity
  8
0
 62
     3
100
AcDbCircle
 10
122.3649354660254
 20
-120.463244408149
 30
0.0
 40
320.0500000000179
100
AcDbArc
 50
88.56768010905886
 51
91.43231989094028
  0
LINE
  5
4F33
330
295E
100
AcDbEntity
  8
0
 62
     3
100
AcDbLine
 10
130.3649354660254
 20
199.4867555918689
 30
0.0
 11
130.8649354660254
 21
198.986755591869
 31
0.0
  0
LINE
  5
4F34
330
295E
100
AcDbEntity
  8
0
 62
     3
100
AcDbLine
 10
114.3649354660255
 20
199.4867555918689
 30
0.0
 11
113.8649354660254
 21
198.986755591869
 31
0.0
  0
ARC
  5
4F38
330
295E
100
AcDbEntity
  8
0
 62
     3
100
AcDbCircle
 10
122.3649354660254
 20
-19.8882444081309
 30
0.0
 40
219.0399863609381
100
AcDbArc
 50
84.76116724206418
 51
87.77603875961473
  0
ARC
  5
4F39
330
295E
100
AcDbEntity
  8
0
 62
     3
100
AcDbCircle
 10
122.3649354660254
 20
-19.8882444081309
 30
0.0
 40
219.0399863609381
100
AcDbArc
 50
92.22396124038528
 51
95.23883275793579
  0
ARC
  5
4F40
330
295E
100
AcDbEntity
  8
0
 62
     3
100
AcDbCircle
 10
144.1295804466506
 20
200.0076390133153
 30
0.0
 40
2.5
100
AcDbArc
 50
225.1010983135153
 51
260.0000000000013
  0
LINE
  5
4F43
330
295E
100
AcDbEntity
  8
0
 62
     3
100
AcDbLine
 10
143.6954600024833
 20
197.5456196307846
 30
0.0
 11
146.1342961078079
 21
197.11558702389
 31
0.0
  0
ARC
  5
4F45
330
295E
100
AcDbEntity
  8
0
 62
     3
100
AcDbCircle
 10
100.6002904854001
 20
200.0076390133153
 30
0.0
 40
2.5
100
AcDbArc
 50
279.9999999999987
 51
314.8989016864844
  0
LINE
  5
4F46
330
295E
100
AcDbEntity
  8
0
 62
     3
100
AcDbLine
 10
101.0344109295674
 20
197.5456196307846
 30
0.0
 11
98.59557482424285
 21
197.11558702389
 31
0.0
  0
LINE
  5
4F47
330
295E
100
AcDbEntity
  8
0
 62
     3
100
AcDbLine
 10
204.9359067988791
 20
176.4867555918689
 30
0.0
 11
204.9359067988791
 21
199.5867555918689
 31
0.0
  0
LINE
  5
4F48
330
295E
100
AcDbEntity
  8
0
 62
     3
100
AcDbLine
 10
207.9359067988792
 20
198.5867555918689
 30
0.0
 11
207.9359067988792
 21
180.8168826107911
 31
0.0
  0
LINE
  5
4F49
330
295E
100
AcDbEntity
  8
0
 62
     3
100
AcDbLine
 10
191.4359067988791
 20
179.3471287761323
 30
0.0
 11
191.4359067988791
 21
181.8471287761323
 31
0.0
  0
LINE
  5
4F4B
330
295E
100
AcDbEntity
  8
0
 62
     7
100
AcDbLine
 10
204.9359067988791
 20
198.986755591869
 30
0.0
 11
196.4936037050579
 21
197.4981497771097
 31
0.0
  0
LINE
  5
4F51
330
295E
100
AcDbEntity
  8
0
 62
     3
100
AcDbLine
 10
192.0186124763243
 20
178.7644230986876
 30
0.0
 11
204.9359067988791
 21
176.4867555918689
 31
0.0
  0
LINE
  5
4F53
330
295E
100
AcDbEntity
  8
0
 62
     7
100
AcDbLine
 10
204.9359067988792
 20
196.9867555918689
 30
0.0
 11
192.6928752966643
 21
196.3451254991456
 31
0.0
  0
LINE
  5
4F56
330
295E
100
AcDbEntity
  8
0
 62
     3
100
AcDbLine
 10
204.9359067988791
 20
198.2367555918689
 30
0.0
 11
193.4359067988792
 21
197.2306359613208
 31
0.0
  0
LINE
  5
4F58
330
295E
100
AcDbEntity
  8
0
 62
     3
100
AcDbLine
 10
204.9359067988791
 20
199.5867555918689
 30
0.0
 11
197.9359067988791
 21
197.7524667269097
 31
0.0
  0
LINE
  5
4F5A
330
295E
100
AcDbEntity
  8
0
 62
     3
100
AcDbLine
 10
193.4359067988792
 20
197.2306359613208
 30
0.0
 11
191.4359067988791
 21
194.8471287761323
 31
0.0
  0
LINE
  5
4F60
330
295E
100
AcDbEntity
  8
0
 62
     7
100
AcDbLine
 10
100.6695939879099
 20
194.8471287761323
 30
0.0
 11
144.0602769441408
 21
194.8471287761323
 31
0.0
  0
LINE
  5
4F61
330
295E
100
AcDbEntity
  8
0
 62
     7
100
AcDbLine
 10
145.2464798926179
 20
193.3471287761323
 30
0.0
 11
99.48339103943279
 21
193.3471287761323
 31
0.0
  0
LINE
  5
4F62
330
295E
100
AcDbEntity
  8
0
 62
     7
100
AcDbLine
 10
191.6859067988791
 20
192.5971287761323
 30
0.0
 11
196.9359067988791
 21
192.5971287761323
 31
0.0
  0
LINE
  5
4F63
330
295E
100
AcDbEntity
  8
0
 62
     3
100
AcDbLine
 10
191.6859067988791
 20
182.5971287761323
 30
0.0
 11
191.6859067988791
 21
192.5971287761323
 31
0.0
  0
LINE
  5
4F64
330
295E
100
AcDbEntity
  8
0
 62
     3
100
AcDbLine
 10
191.4359067988791
 20
193.3471287761323
 30
0.0
 11
191.6859067988791
 21
192.5971287761323
 31
0.0
  0
LINE
  5
4F66
330
295E
100
AcDbEntity
  8
0
 62
     7
100
AcDbLine
 10
191.6859067988791
 20
182.5971287761323
 30
0.0
 11
196.9359067988791
 21
182.5971287761323
 31
0.0
  0
LINE
  5
4F67
330
295E
100
AcDbEntity
  8
0
 62
     7
100
AcDbLine
 10
191.4359067988791
 20
181.8471287761323
 30
0.0
 11
198.4359067988791
 21
181.8471287761323
 31
0.0
  0
LINE
  5
4F68
330
295E
100
AcDbEntity
  8
0
 62
     3
100
AcDbLine
 10
191.6859067988791
 20
182.5971287761323
 30
0.0
 11
191.4359067988791
 21
181.8471287761323
 31
0.0
  0
LINE
  5
4F6F
330
295E
100
AcDbEntity
  8
0
 62
     3
100
AcDbLine
 10
141.6149354660253
 20
191.5971287761323
 30
0.0
 11
141.6149354660253
 21
183.5971287761323
 31
0.0
  0
LINE
  5
4F70
330
295E
100
AcDbEntity
  8
0
 62
     3
100
AcDbLine
 10
103.1149354660253
 20
183.5971287761323
 30
0.0
 11
103.1149354660253
 21
191.5971287761323
 31
0.0
  0
LINE
  5
4F71
330
295E
100
AcDbEntity
  8
0
 62
     7
100
AcDbLine
 10
144.0602769441408
 20
192.5971287761323
 30
0.0
 11
140.6149354660253
 21
192.5971287761323
 31
0.0
  0
LINE
  5
4F72
330
295E
100
AcDbEntity
  8
0
 62
     7
100
AcDbLine
 10
143.86972314334
 20
182.5971287761323
 30
0.0
 11
140.6149354660254
 21
182.5971287761323
 31
0.0
  0
ARC
  5
4F73
330
295E
100
AcDbEntity
  8
0
 62
     3
100
AcDbCircle
 10
140.6149354660253
 20
191.5971287761324
 30
0.0
 40
1.0
100
AcDbArc
 50
359.9999999999968
 51
90.00000000000083
  0
ARC
  5
4F74
330
295E
100
AcDbEntity
  8
0
 62
     3
100
AcDbCircle
 10
140.6149354660254
 20
183.5971287761323
 30
0.0
 40
1.0
100
AcDbArc
 50
269.9999999999984
 51
0.0
  0
ARC
  5
4F75
330
295E
100
AcDbEntity
  8
0
 62
     3
100
AcDbCircle
 10
104.1149354660253
 20
183.5971287761323
 30
0.0
 40
1.0
100
AcDbArc
 50
180.0
 51
270.0
  0
ARC
  5
4F76
330
295E
100
AcDbEntity
  8
0
 62
     3
100
AcDbCircle
 10
104.1149354660253
 20
191.5971287761323
 30
0.0
 40
1.0
100
AcDbArc
 50
90.0
 51
179.9999999999966
  0
ARC
  5
4F7F
330
295E
100
AcDbEntity
  8
0
 62
     7
100
AcDbCircle
 10
83.80605985127477
 20
189.0300681143598
 30
0.0
 40
61.3088756147506
100
AcDbArc
 50
354.8314892838376
 51
2.439544597053759
  0
ARC
  5
4F80
330
295E
100
AcDbEntity
  8
0
 62
     7
100
AcDbCircle
 10
160.9238110807759
 20
189.0300681143598
 30
0.0
 40
61.3088756147506
100
AcDbArc
 50
177.5604554029462
 51
185.1685107161623
  0
ARC
  5
4F81
330
295E
100
AcDbEntity
  8
0
 62
     7
100
AcDbCircle
 10
144.0602769441408
 20
191.5971287761323
 30
0.0
 40
1.0
100
AcDbArc
 50
2.439544597053759
 51
90.0
  0
ARC
  5
4F82
330
295E
100
AcDbEntity
  8
0
 62
     7
100
AcDbCircle
 10
143.86972314334
 20
183.5971287761323
 30
0.0
 40
1.0
100
AcDbArc
 50
270.0
 51
354.8314892838376
  0
ARC
  5
4F83
330
295E
100
AcDbEntity
  8
0
 62
     7
100
AcDbCircle
 10
100.6695939879099
 20
191.5971287761323
 30
0.0
 40
1.0
100
AcDbArc
 50
90.0
 51
177.5604554029462
  0
ARC
  5
4F84
330
295E
100
AcDbEntity
  8
0
 62
     7
100
AcDbCircle
 10
100.8601477887106
 20
183.5971287761323
 30
0.0
 40
1.0
100
AcDbArc
 50
185.1685107161623
 51
270.0
  0
ARC
  5
4F85
330
295E
100
AcDbEntity
  8
0
 62
     7
100
AcDbCircle
 10
83.80605985127477
 20
189.0300681143598
 30
0.0
 40
62.0588756147506
100
AcDbArc
 50
353.7675865327133
 51
3.55500083103037
  0
ARC
  5
4F86
330
295E
100
AcDbEntity
  8
0
 62
     7
100
AcDbCircle
 10
160.9238110807759
 20
189.0300681143598
 30
0.0
 40
62.0588756147506
100
AcDbArc
 50
176.4449991689696
 51
186.2324134672866
  0
ARC
  5
4F87
330
295E
100
AcDbEntity
  8
0
 62
     7
100
AcDbCircle
 10
145.2464798926179
 20
192.8471287761323
 30
0.0
 40
0.5
100
AcDbArc
 50
3.55500083103037
 51
90.0
  0
ARC
  5
4F88
330
295E
100
AcDbEntity
  8
0
 62
     7
100
AcDbCircle
 10
99.48339103943279
 20
192.8471287761323
 30
0.0
 40
0.5
100
AcDbArc
 50
89.99999999999836
 51
176.4449991689696
  0
LINE
  5
4F89
330
295E
100
AcDbEntity
  8
0
 62
     7
100
AcDbLine
 10
145.001104493418
 20
181.8471287761323
 30
0.0
 11
99.72876643863273
 21
181.8471287761323
 31
0.0
  0
ARC
  5
4F8A
330
295E
100
AcDbEntity
  8
0
 62
     7
100
AcDbCircle
 10
145.001104493418
 20
182.3471287761324
 30
0.0
 40
0.5
100
AcDbArc
 50
270.0
 51
353.76758653271
  0
ARC
  5
4F8B
330
295E
100
AcDbEntity
  8
0
 62
     7
100
AcDbCircle
 10
99.72876643863273
 20
182.3471287761324
 30
0.0
 40
0.5
100
AcDbArc
 50
186.23241346729
 51
269.9999999999968
  0
LINE
  5
4F8C
330
295E
100
AcDbEntity
  8
0
 62
     7
100
AcDbLine
 10
197.4359067988791
 20
192.0971287761323
 30
0.0
 11
197.4359067988791
 21
183.0971287761324
 31
0.0
  0
LINE
  5
4F8D
330
295E
100
AcDbEntity
  8
0
 62
     7
100
AcDbLine
 10
199.4359067988791
 20
192.3471287761323
 30
0.0
 11
199.4359067988791
 21
190.5113423385055
 31
0.0
  0
LINE
  5
4F90
330
295E
100
AcDbEntity
  8
0
 62
     7
100
AcDbLine
 10
191.4359067988791
 20
193.3471287761323
 30
0.0
 11
198.4359067988791
 21
193.3471287761323
 31
0.0
  0
ARC
  5
4F91
330
295E
100
AcDbEntity
  8
0
 62
     7
100
AcDbCircle
 10
196.9359067988791
 20
192.0971287761323
 30
0.0
 40
0.5
100
AcDbArc
 50
0.0
 51
90.0
  0
ARC
  5
4F92
330
295E
100
AcDbEntity
  8
0
 62
     7
100
AcDbCircle
 10
196.9359067988791
 20
183.0971287761324
 30
0.0
 40
0.5
100
AcDbArc
 50
270.0
 51
0.0
  0
ARC
  5
4F93
330
295E
100
AcDbEntity
  8
0
 62
     7
100
AcDbCircle
 10
198.4359067988792
 20
192.3471287761324
 30
0.0
 40
1.0
100
AcDbArc
 50
359.9999999999968
 51
90.00000000000161
  0
ARC
  5
4F94
330
295E
100
AcDbEntity
  8
0
 62
     7
100
AcDbCircle
 10
198.4359067988791
 20
182.8471287761323
 30
0.0
 40
1.0
100
AcDbArc
 50
269.9999999999992
 51
0.0000000000032569
  0
LINE
  5
4F95
330
295E
100
AcDbEntity
  8
0
 62
     7
100
AcDbLine
 10
110.1149354660253
 20
180.5971287761323
 30
0.0
 11
134.6149354660253
 21
180.5971287761323
 31
0.0
  0
LINE
  5
4F96
330
295E
100
AcDbEntity
  8
0
 62
     7
100
AcDbLine
 10
108.8649354660254
 20
179.3471287761323
 30
0.0
 11
102.6955778488874
 21
179.3471287761323
 31
0.0
  0
ARC
  5
4F99
330
295E
100
AcDbEntity
  8
0
 62
     7
100
AcDbCircle
 10
134.6149354660253
 20
179.3471287761323
 30
0.0
 40
1.25
100
AcDbArc
 50
0.0
 51
90.0
  0
ARC
  5
4F9E
330
295E
100
AcDbEntity
  8
0
 62
     7
100
AcDbCircle
 10
110.1149354660253
 20
179.3471287761323
 30
0.0
 40
1.25
100
AcDbArc
 50
90.0
 51
180.0
  0
LINE
  5
4F9F
330
295E
100
AcDbEntity
  8
0
 62
     3
100
AcDbLine
 10
191.4359067988791
 20
179.3471287761323
 30
0.0
 11
192.0186124763242
 21
178.7644230986873
 31
0.0
  0
LINE
  5
4FA0
330
295E
100
AcDbEntity
  8
0
 62
     7
100
AcDbLine
 10
102.5250008585634
 20
178.7644230986876
 30
0.0
 11
142.2048700734873
 21
178.7644230986876
 31
0.0
  0
LINE
  5
4FA3
330
295E
100
AcDbEntity
  8
0
 62
     7
100
AcDbLine
 10
145.2907315523576
 20
176.486755591869
 30
0.0
 11
144.1139395047797
 21
177.8785649470097
 31
0.0
  0
LINE
  5
4FA4
330
295E
100
AcDbEntity
  8
0
 62
     7
100
AcDbLine
 10
99.43913937969307
 20
176.486755591869
 30
0.0
 11
100.615931427271
 21
177.8785649470098
 31
0.0
  0
LINE
  5
4FA5
330
295E
100
AcDbEntity
  8
0
 62
     7
100
AcDbLine
 10
135.8649354660254
 20
179.3471287761323
 30
0.0
 11
142.0342930831633
 21
179.3471287761323
 31
0.0
  0
LINE
  5
4FA6
330
295E
100
AcDbEntity
  8
0
 62
     7
100
AcDbLine
 10
145.2907315523576
 20
176.486755591869
 30
0.0
 11
144.1080794343607
 21
178.2433415713707
 31
0.0
  0
LINE
  5
4FA7
330
295E
100
AcDbEntity
  8
0
 62
     7
100
AcDbLine
 10
99.43913937969307
 20
176.486755591869
 30
0.0
 11
100.62179149769
 21
178.2433415713707
 31
0.0
  0
LINE
  5
4FB5
330
295E
100
AcDbEntity
  8
0
 62
     7
100
AcDbLine
 10
130.8649354660246
 20
198.986755591869
 30
0.0
 11
128.8649354660253
 21
197.7524667269097
 31
0.0
  0
LINE
  5
4FB6
330
295E
100
AcDbEntity
  8
0
 62
     7
100
AcDbLine
 10
128.8649354660253
 20
197.7524667269097
 30
0.0
 11
130.3649354660254
 21
199.4867555918689
 31
0.0
  0
LINE
  5
4FB7
330
295E
100
AcDbEntity
  8
0
 62
     7
100
AcDbLine
 10
113.8649354660261
 20
198.986755591869
 30
0.0
 11
115.8649354660253
 21
197.7524667269097
 31
0.0
  0
LINE
  5
4FB8
330
295E
100
AcDbEntity
  8
0
 62
     7
100
AcDbLine
 10
115.8649354660253
 20
197.7524667269097
 30
0.0
 11
114.3649354660255
 21
199.4867555918689
 31
0.0
  0
ELLIPSE
  5
4FBA
330
295E
100
AcDbEntity
  8
0
 62
     7
100
AcDbEllipse
 10
122.3649354660254
 20
198.236755591869
 30
0.0
 11
19.99999999999973
 21
0.0
 31
0.0
210
0.0
220
0.0
230
1.0
 40
0.0503059815274078
 41
3.141592653589792
 42
6.283185307179584
  0
ARC
  5
4FC1
330
295E
100
AcDbEntity
  8
0
 62
     3
100
AcDbCircle
 10
145.9606479301409
 20
196.130779270878
 30
0.0
 40
1.0
100
AcDbArc
 50
6.517371886789661
 51
79.9999999999998
  0
ARC
  5
4FC2
330
295E
100
AcDbEntity
  8
0
 62
     3
100
AcDbCircle
 10
98.76922300190976
 20
196.1307792708779
 30
0.0
 40
1.0
100
AcDbArc
 50
99.99999999999941
 51
173.4826281132103
  0
ARC
  5
4FC3
330
295E
100
AcDbEntity
  8
0
 62
     3
100
AcDbCircle
 10
145.2907315523576
 20
177.486755591869
 30
0.0
 40
1.0
100
AcDbArc
 50
270.0
 51
349.3668990716038
  0
ARC
  5
4FC4
330
295E
100
AcDbEntity
  8
0
 62
     3
100
AcDbCircle
 10
99.43913937969307
 20
177.486755591869
 30
0.0
 40
1.0
100
AcDbArc
 50
190.6331009283928
 51
270.0
  0
ARC
  5
4FC7
330
295E
100
AcDbEntity
  8
0
 62
     7
100
AcDbCircle
 10
102.5250008585634
 20
176.2644230986876
 30
0.0
 40
2.5
100
AcDbArc
 50
90.0
 51
139.7850665980292
  0
ARC
  5
4FC8
330
295E
100
AcDbEntity
  8
0
 62
     7
100
AcDbCircle
 10
102.6955778488874
 20
176.8471287761324
 30
0.0
 40
2.5
100
AcDbArc
 50
90.0
 51
146.0489018247072
  0
ARC
  5
4FC9
330
295E
100
AcDbEntity
  8
0
 62
     7
100
AcDbCircle
 10
142.2048700734873
 20
176.2644230986876
 30
0.0
 40
2.5
100
AcDbArc
 50
40.21493340197083
 51
90.0
  0
ARC
  5
4FCA
330
295E
100
AcDbEntity
  8
0
 62
     7
100
AcDbCircle
 10
142.0342930831633
 20
176.8471287761324
 30
0.0
 40
2.5
100
AcDbArc
 50
33.95109817529276
 51
90.0
  0
ELLIPSE
  5
4FCD
330
295E
100
AcDbEntity
  8
0
 62
     7
100
AcDbEllipse
 10
122.3649354660254
 20
197.1630825725774
 30
0.0
 11
23.5
 21
0.0
 31
0.0
210
0.0
220
0.0
230
1.0
 40
0.0348066839758219
 41
3.141592653589792
 42
6.283185307179584
  0
LINE
  5
4FCE
330
295E
100
AcDbEntity
  8
0
 62
     3
100
AcDbLine
 10
191.4359067988791
 20
193.3471287761323
 30
0.0
 11
191.4359067988791
 21
194.8471287761323
 31
0.0
  0
LINE
  5
4FD1
330
295E
100
AcDbEntity
  8
0
 62
     3
100
AcDbLine
 10
203.4359067988792
 20
189.0971287761323
 30
0.0
 11
203.4359067988792
 21
186.0971287761324
 31
0.0
  0
LINE
  5
4FD3
330
295E
100
AcDbEntity
  8
0
 62
     3
100
AcDbLine
 10
198.9359067988791
 20
186.0971287761324
 30
0.0
 11
198.9359067988791
 21
189.0971287761323
 31
0.0
  0
ARC
  5
4FD4
330
295E
100
AcDbEntity
  8
0
 62
     3
100
AcDbCircle
 10
201.1859067988792
 20
189.0971287761323
 30
0.0
 40
2.250000000000014
100
AcDbArc
 50
0.0
 51
180.0
  0
ARC
  5
4FD5
330
295E
100
AcDbEntity
  8
0
 62
     3
100
AcDbCircle
 10
201.1859067988792
 20
186.0971287761324
 30
0.0
 40
2.250000000000014
100
AcDbArc
 50
180.0
 51
0.0
  0
LINE
  5
4FD6
330
295E
100
AcDbEntity
  8
0
 62
     7
100
AcDbLine
 10
199.4359067988791
 20
184.6829152137593
 30
0.0
 11
199.4359067988791
 21
182.8471287761323
 31
0.0
  0
LINE
  5
4FDD
330
295E
100
AcDbEntity
  8
0
 62
     3
100
AcDbLine
 10
146.2616318084538
 20
186.0971287761324
 30
0.0
 11
146.2616318084538
 21
189.0971287761323
 31
0.0
  0
LINE
  5
4FDF
330
295E
100
AcDbEntity
  8
0
 62
     3
100
AcDbLine
 10
147.0079655725228
 20
186.0971287761324
 30
0.0
 11
147.0079655725228
 21
189.0971287761323
 31
0.0
  0
ARC
  5
4FE0
330
295E
100
AcDbEntity
  8
0
 62
     3
100
AcDbCircle
 10
137.8077835920628
 20
188.7272037721729
 30
0.0
 40
9.207616031424022
100
AcDbArc
 50
2.30253383894533
 51
16.5312888346331
  0
ELLIPSE
  5
4FE2
330
295E
100
AcDbEntity
  8
0
 62
     3
100
AcDbEllipse
 10
146.6347981471524
 20
189.0971287761323
 30
0.0
 11
0.0
 21
2.25
 31
0.0
210
0.0
220
0.0
230
1.0
 40
0.1658517060882837
 41
0.0
 42
1.570796326794896
  0
ARC
  5
4FE3
330
295E
100
AcDbEntity
  8
0
 62
     3
100
AcDbCircle
 10
137.8077835920628
 20
186.467053780092
 30
0.0
 40
9.207616031424022
100
AcDbArc
 50
343.4687111653669
 51
357.6974661610547
  0
ELLIPSE
  5
4FE4
330
295E
100
AcDbEntity
  8
0
 62
     3
100
AcDbEllipse
 10
146.6347981471524
 20
186.0971287761325
 30
0.0
 11
0.0
 21
-2.25
 31
0.0
210
0.0
220
0.0
230
-1.0
 40
0.1658517060882837
 41
0.0
 42
1.570796326794896
  0
LINE
  5
4FE5
330
295E
100
AcDbEntity
  8
0
 62
     3
100
AcDbLine
 10
98.46823912359695
 20
186.0971287761324
 30
0.0
 11
98.46823912359695
 21
189.0971287761323
 31
0.0
  0
LINE
  5
4FE6
330
295E
100
AcDbEntity
  8
0
 62
     3
100
AcDbLine
 10
97.72190535952795
 20
186.0971287761324
 30
0.0
 11
97.72190535952795
 21
189.0971287761323
 31
0.0
  0
ARC
  5
4FE7
330
295E
100
AcDbEntity
  8
0
 62
     3
100
AcDbCircle
 10
106.922087339988
 20
188.7272037721729
 30
0.0
 40
9.207616031424022
100
AcDbArc
 50
163.4687111653669
 51
177.6974661610546
  0
ELLIPSE
  5
4FE8
330
295E
100
AcDbEntity
  8
0
 62
     3
100
AcDbEllipse
 10
98.09507278489832
 20
189.0971287761323
 30
0.0
 11
0.0
 21
2.25
 31
0.0
210
0.0
220
0.0
230
-1.0
 40
0.1658517060882837
 41
0.0
 42
1.570796326794896
  0
ARC
  5
4FE9
330
295E
100
AcDbEntity
  8
0
 62
     3
100
AcDbCircle
 10
106.922087339988
 20
186.467053780092
 30
0.0
 40
9.207616031424022
100
AcDbArc
 50
182.3025338389453
 51
196.5312888346331
  0
ELLIPSE
  5
4FEA
330
295E
100
AcDbEntity
  8
0
 62
     3
100
AcDbEllipse
 10
98.09507278489832
 20
186.0971287761325
 30
0.0
 11
0.0
 21
-2.25
 31
0.0
210
0.0
220
0.0
230
1.0
 40
0.1658517060882837
 41
0.0
 42
1.570796326794896
  0
LINE
  5
4FEB
330
295E
100
AcDbEntity
  8
0
 62
     3
100
AcDbLine
 10
204.9359067988791
 20
199.5867555918689
 30
0.0
 11
206.9359067988791
 21
199.5867555918689
 31
0.0
  0
LINE
  5
4FEC
330
295E
100
AcDbEntity
  8
0
 62
     7
100
AcDbLine
 10
204.9359067988791
 20
198.986755591869
 30
0.0
 11
206.9359067988791
 21
198.986755591869
 31
0.0
  0
LINE
  5
4FED
330
295E
100
AcDbEntity
  8
0
 62
     7
100
AcDbLine
 10
204.9359067988791
 20
198.2367555918689
 30
0.0
 11
206.9359067988791
 21
198.2367555918689
 31
0.0
  0
LINE
  5
4FEE
330
295E
100
AcDbEntity
  8
0
 62
     7
100
AcDbLine
 10
204.9359067988792
 20
196.9867555918689
 30
0.0
 11
206.9359067988791
 21
196.9867555918689
 31
0.0
  0
LINE
  5
4FEF
330
295E
100
AcDbEntity
  8
0
 62
     7
100
AcDbLine
 10
206.9359067988791
 20
196.9867555918689
 30
0.0
 11
207.9359067988792
 21
195.986755591869
 31
0.0
  0
LINE
  5
4FF0
330
295E
100
AcDbEntity
  8
0
 62
     7
100
AcDbLine
 10
206.9359067988791
 20
198.2367555918689
 30
0.0
 11
207.9359067988792
 21
197.2367555918689
 31
0.0
  0
LINE
  5
4FF1
330
295E
100
AcDbEntity
  8
0
 62
     7
100
AcDbLine
 10
206.9359067988791
 20
198.986755591869
 30
0.0
 11
207.9359067988792
 21
197.986755591869
 31
0.0
  0
LINE
  5
4FF2
330
295E
100
AcDbEntity
  8
0
 62
     3
100
AcDbLine
 10
206.9359067988791
 20
199.5867555918689
 30
0.0
 11
207.9359067988792
 21
198.5867555918689
 31
0.0
  0
LINE
  5
4FF3
330
295E
100
AcDbEntity
  8
0
 62
     7
100
AcDbLine
 10
206.9359067988791
 20
199.5867555918689
 30
0.0
 11
206.9359067988791
 21
179.0848318032222
 31
0.0
  0
LINE
  5
4FF5
330
295E
100
AcDbEntity
  8
0
 62
     3
100
AcDbLine
 10
204.9359067988791
 20
176.4867555918689
 30
0.0
 11
205.4359067988792
 21
176.4867555918689
 31
0.0
  0
LINE
  5
4FF6
330
295E
100
AcDbEntity
  8
0
 62
     3
100
AcDbLine
 10
205.4359067988792
 20
176.4867555918689
 30
0.0
 11
207.9359067988792
 21
180.8168826107911
 31
0.0
  0
CIRCLE
  5
4FFA
330
295E
100
AcDbEntity
  8
0
 62
     3
100
AcDbCircle
 10
207.9359067988792
 20
177.7367555918689
 30
0.0
 40
1.0
  0
ARC
  5
4FFB
330
295E
100
AcDbEntity
  8
0
 62
     3
100
AcDbCircle
 10
207.9359067988792
 20
177.7367555918689
 30
0.0
 40
3.0
100
AcDbArc
 50
204.6243183521653
 51
294.1124690187205
  0
LINE
  5
5002
330
295E
100
AcDbEntity
  8
0
 62
     3
100
AcDbLine
 10
210.6859067988791
 20
180.7290311908159
 30
0.0
 11
210.6859067988791
 21
176.7367555918689
 31
0.0
  0
LINE
  5
5004
330
295E
100
AcDbEntity
  8
0
 62
     3
100
AcDbLine
 10
210.1859067988792
 20
194.7367555918689
 30
0.0
 11
210.1859067988792
 21
194.236755591869
 31
0.0
  0
ARC
  5
5005
330
295E
100
AcDbEntity
  8
0
 62
     3
100
AcDbCircle
 10
207.9359067988792
 20
177.7367555918689
 30
0.0
 40
1.540063509461095
100
AcDbArc
 50
144.9999999999992
 51
235.0000000000012
  0
LINE
  5
5006
330
295E
100
AcDbEntity
  8
0
 62
     3
100
AcDbLine
 10
207.0525626593682
 20
176.475209419759
 30
0.0
 11
209.1614941188045
 21
174.998519714294
 31
0.0
  0
LINE
  5
5007
330
295E
100
AcDbEntity
  8
0
 62
     3
100
AcDbLine
 10
206.6743606267692
 20
178.6200997313798
 30
0.0
 11
208.1510503322341
 21
180.7290311908159
 31
0.0
  0
LINE
  5
5008
330
295E
100
AcDbEntity
  8
0
 62
     3
100
AcDbLine
 10
211.6859067988792
 20
175.7367555918689
 30
0.0
 11
212.9649695276493
 21
175.7367555918689
 31
0.0
  0
LINE
  5
500A
330
295E
100
AcDbEntity
  8
0
 62
     3
100
AcDbLine
 10
211.6859067988792
 20
175.7367555918689
 30
0.0
 11
209.1614941188045
 21
174.998519714294
 31
0.0
  0
LINE
  5
500B
330
295E
100
AcDbEntity
  8
0
 62
     3
100
AcDbLine
 10
208.1510503322341
 20
180.7290311908159
 30
0.0
 11
210.6859067988791
 21
180.7290311908159
 31
0.0
  0
ARC
  5
5010
330
295E
100
AcDbEntity
  8
0
 62
     3
100
AcDbCircle
 10
207.9359067988792
 20
177.7367555918689
 30
0.0
 40
3.0
100
AcDbArc
 50
85.88753098127957
 51
90.88753098127936
  0
ARC
  5
5011
330
295E
100
AcDbEntity
  8
0
 62
     3
100
AcDbCircle
 10
211.6859067988792
 20
176.7367555918689
 30
0.0
 40
1.0
100
AcDbArc
 50
180.0
 51
270.0
  0
LINE
  5
5012
330
295E
100
AcDbEntity
  8
0
 62
     3
100
AcDbLine
 10
211.1859067988791
 20
195.7367555918689
 30
0.0
 11
212.9649695276493
 21
195.7367555918689
 31
0.0
  0
LINE
  5
5018
330
295E
100
AcDbEntity
  8
0
 62
     3
100
AcDbLine
 10
214.1362727418139
 20
195.1737981632005
 30
0.0
 11
215.1380788224867
 21
193.9215405623594
 31
0.0
  0
LINE
  5
5019
330
295E
100
AcDbEntity
  8
0
 62
     3
100
AcDbLine
 10
215.6859067988792
 20
192.3598029434734
 30
0.0
 11
215.6859067988792
 21
191.9867555918689
 31
0.0
  0
LINE
  5
501A
330
295E
100
AcDbEntity
  8
0
 62
     3
100
AcDbLine
 10
215.1380788224867
 20
177.5519706213784
 30
0.0
 11
214.1362727418139
 21
176.2997130205373
 31
0.0
  0
LINE
  5
5023
330
295E
100
AcDbEntity
  8
0
 62
     3
100
AcDbLine
 10
212.9359067988791
 20
190.2367555918689
 30
0.0
 11
212.9359067988791
 21
181.2367555918689
 31
0.0
  0
ELLIPSE
  5
5026
330
295E
100
AcDbEntity
  8
0
 62
     3
100
AcDbEllipse
 10
213.3109067988792
 20
190.2367555918689
 30
0.0
 11
0.0
 21
1.75
 31
0.0
210
0.0
220
0.0
230
1.0
 40
0.2142857142857143
 41
6.283185307179584
 42
7.853981633974482
  0
ELLIPSE
  5
5027
330
295E
100
AcDbEntity
  8
0
 62
     3
100
AcDbEllipse
 10
213.3109067988792
 20
181.2367555918689
 30
0.0
 11
0.0
 21
1.75
 31
0.0
210
0.0
220
0.0
230
1.0
 40
0.2142857142857143
 41
1.570796326794896
 42
3.141592653589792
  0
ARC
  5
5029
330
295E
100
AcDbEntity
  8
0
 62
     3
100
AcDbCircle
 10
213.1859067988791
 20
192.3598029434734
 30
0.0
 40
2.5
100
AcDbArc
 50
0.0
 51
38.65980825409097
  0
ARC
  5
502A
330
295E
100
AcDbEntity
  8
0
 62
     3
100
AcDbCircle
 10
213.1859067988791
 20
179.1137082402644
 30
0.0
 40
2.5
100
AcDbArc
 50
321.340191745909
 51
0.0
  0
ARC
  5
502B
330
295E
100
AcDbEntity
  8
0
 62
     3
100
AcDbCircle
 10
212.9649695276493
 20
194.2367555918689
 30
0.0
 40
1.5
100
AcDbArc
 50
38.65980825409097
 51
90.0
  0
ARC
  5
502C
330
295E
100
AcDbEntity
  8
0
 62
     3
100
AcDbCircle
 10
212.9649695276493
 20
177.2367555918689
 30
0.0
 40
1.5
100
AcDbArc
 50
270.0
 51
321.340191745909
  0
LINE
  5
502E
330
295E
100
AcDbEntity
  8
0
 62
     3
100
AcDbLine
 10
211.1859067988791
 20
195.7367555918689
 30
0.0
 11
210.1859067988792
 21
194.7367555918689
 31
0.0
  0
LINE
  5
5030
330
295E
100
AcDbEntity
  8
0
 62
     3
100
AcDbLine
 10
210.6859067988791
 20
194.2367555918689
 30
0.0
 11
210.6859067988791
 21
192.4867555918689
 31
0.0
  0
LINE
  5
5032
330
295E
100
AcDbEntity
  8
0
 62
     3
100
AcDbLine
 10
210.1859067988792
 20
194.2367555918689
 30
0.0
 11
210.6859067988791
 21
194.2367555918688
 31
0.0
  0
LINE
  5
5033
330
295E
100
AcDbEntity
  8
0
 62
     3
100
AcDbLine
 10
210.1859067988792
 20
192.4867555918689
 30
0.0
 11
210.6859067988791
 21
192.4867555918689
 31
0.0
  0
LINE
  5
5034
330
295E
100
AcDbEntity
  8
0
 62
     3
100
AcDbLine
 10
210.1859067988792
 20
192.4867555918689
 30
0.0
 11
210.1859067988792
 21
180.7290311908159
 31
0.0
  0
LINE
  5
5035
330
295E
100
AcDbEntity
  8
0
 62
     3
100
AcDbLine
 10
215.6859067988792
 20
179.4867555918689
 30
0.0
 11
215.6859067988792
 21
179.1137082402644
 31
0.0
  0
LINE
  5
5253
330
295E
100
AcDbEntity
  8
0
 62
     3
100
AcDbLine
 10
213.3109067988792
 20
179.4867555918689
 30
0.0
 11
219.7934895466779
 21
179.4867555918689
 31
0.0
  0
ARC
  5
5254
330
295E
100
AcDbEntity
  8
0
 62
     3
100
AcDbCircle
 10
213.5609067988792
 20
179.7367555918689
 30
0.0
 40
0.25
100
AcDbArc
 50
180.0
 51
270.0
  0
LINE
  5
5255
330
295E
100
AcDbEntity
  8
0
 62
     3
100
AcDbLine
 10
213.3109067988792
 20
191.9867555918689
 30
0.0
 11
219.7934895466779
 21
191.9867555918689
 31
0.0
  0
ARC
  5
5256
330
295E
100
AcDbEntity
  8
0
 62
     3
100
AcDbCircle
 10
305.7163317988792
 20
191.7367555918689
 30
0.0
 40
0.25
100
AcDbArc
 50
0.0
 51
90.0
  0
LINE
  5
5257
330
295E
100
AcDbEntity
  8
0
 62
     3
100
AcDbLine
 10
213.3109067988792
 20
179.7367555918689
 30
0.0
 11
213.3109067988792
 21
191.7367555918689
 31
0.0
  0
ARC
  5
5258
330
295E
100
AcDbEntity
  8
0
 62
     3
100
AcDbCircle
 10
213.5609067988792
 20
191.7367555918689
 30
0.0
 40
0.25
100
AcDbArc
 50
90.0
 51
180.0
  0
ARC
  5
526A
330
295E
100
AcDbEntity
  8
0
 62
     3
100
AcDbCircle
 10
273.4518870232382
 20
173.457806412709
 30
0.0
 40
67.26512578413035
100
AcDbArc
 50
148.6629393446737
 51
161.7511540460404
  0
ARC
  5
526B
330
295E
100
AcDbEntity
  8
0
 62
     3
100
AcDbCircle
 10
258.7764467988789
 20
185.7367555918689
 30
0.0
 40
48.479822
100
AcDbArc
 50
352.787416000002
 51
142.0342589999987
  0
ARC
  5
526C
330
295E
100
AcDbEntity
  8
0
 62
     3
100
AcDbCircle
 10
305.8805687988792
 20
179.7756095918689
 30
0.0
 40
1.0
100
AcDbArc
 50
196.7893591125859
 51
352.787416000002
  0
ARC
  5
526D
330
295E
100
AcDbEntity
  8
0
 62
     3
100
AcDbCircle
 10
267.7184252060464
 20
175.2924346416772
 30
0.0
 40
60.93577154835156
100
AcDbArc
 50
148.0177010358748
 51
161.5498848518482
  0
ARC
  5
526E
330
295E
100
AcDbEntity
  8
0
 62
     3
100
AcDbCircle
 10
258.7764467988789
 20
185.7367555918689
 30
0.0
 40
47.97982199999998
100
AcDbArc
 50
352.787416000002
 51
141.3225469999972
  0
ARC
  5
526F
330
295E
100
AcDbEntity
  8
0
 62
     3
100
AcDbCircle
 10
258.7764467988789
 20
185.7367555918689
 30
0.0
 40
47.479822
100
AcDbArc
 50
9.271550000000672
 51
12.55547999999932
  0
ARC
  5
5270
330
295E
100
AcDbEntity
  8
0
 62
     3
100
AcDbCircle
 10
305.1425167988789
 20
193.3058525918688
 30
0.0
 40
1.0
100
AcDbArc
 50
308.2531459999994
 51
9.271550000000672
  0
ARC
  5
5271
330
295E
100
AcDbEntity
  8
0
 62
     3
100
AcDbCircle
 10
305.1425167988789
 20
193.3058525918688
 30
0.0
 40
0.5
100
AcDbArc
 50
308.2531459999994
 51
9.271550000000672
  0
ARC
  5
5272
330
295E
100
AcDbEntity
  8
0
 62
     3
100
AcDbCircle
 10
305.8805687988792
 20
179.7756095918689
 30
0.0
 40
0.5
100
AcDbArc
 50
215.2894965144266
 51
352.787416000002
  0
LINE
  5
5273
330
295E
100
AcDbEntity
  8
0
 62
     3
100
AcDbLine
 10
221.2440567988789
 20
217.5011265918689
 30
0.0
 11
220.7068337988788
 21
217.8473735918688
 31
0.0
  0
LINE
  5
5274
330
295E
100
AcDbEntity
  8
0
 62
     3
100
AcDbLine
 10
214.7431587988789
 20
207.4145845918689
 30
0.0
 11
214.2059357988792
 21
207.7608315918689
 31
0.0
  0
ARC
  5
5275
330
295E
100
AcDbEntity
  8
0
 62
     3
100
AcDbCircle
 10
215.0140297988792
 20
207.8348575918688
 30
0.0
 40
0.5
100
AcDbArc
 50
237.1977299999992
 51
327.1977299999993
  0
LINE
  5
5276
330
295E
100
AcDbEntity
  8
0
 62
     3
100
AcDbLine
 10
215.4343017988793
 20
207.5639865918689
 30
0.0
 11
221.3934587988788
 21
216.8099835918689
 31
0.0
  0
ARC
  5
5277
330
295E
100
AcDbEntity
  8
0
 62
     3
100
AcDbCircle
 10
220.9731857988792
 20
217.0808535918689
 30
0.0
 40
0.5
100
AcDbArc
 50
327.1977299999993
 51
57.1977299999992
  0
ARC
  5
5278
330
295E
100
AcDbEntity
  8
0
 62
     3
100
AcDbCircle
 10
231.8626027988791
 20
203.5191205918689
 30
0.0
 40
18.5
100
AcDbArc
 50
129.4061400000019
 51
164.9893210000005
  0
ARC
  5
5279
330
295E
100
AcDbEntity
  8
0
 62
     3
100
AcDbCircle
 10
214.4768067988791
 20
208.1811045918689
 30
0.0
 40
0.5
100
AcDbArc
 50
164.9893210000005
 51
237.1977299999992
  0
ARC
  5
527A
330
295E
100
AcDbEntity
  8
0
 62
     3
100
AcDbCircle
 10
220.4359627988788
 20
217.4271005918689
 30
0.0
 40
0.5
100
AcDbArc
 50
57.1977299999992
 51
129.4061400000019
  0
ARC
  5
527B
330
295E
100
AcDbEntity
  8
0
 62
     3
100
AcDbCircle
 10
218.4154357988788
 20
211.9932585918689
 30
0.0
 40
3.893141
100
AcDbArc
 50
94.76763899999832
 51
200.7957320000017
  0
ARC
  5
527C
330
295E
100
AcDbEntity
  8
0
 62
     3
100
AcDbCircle
 10
218.4154357988788
 20
211.9932585918689
 30
0.0
 40
3.393141
100
AcDbArc
 50
104.1712689999999
 51
191.3921019999986
  0
ARC
  5
527D
330
295E
100
AcDbEntity
  8
0
 62
     3
100
AcDbCircle
 10
218.4154357988788
 20
211.9932585918689
 30
0.0
 40
2.893140999999998
100
AcDbArc
 50
119.8312760000009
 51
175.7320950000002
  0
ARC
  5
527E
330
295E
100
AcDbEntity
  8
0
 62
     3
100
AcDbCircle
 10
192.9785061032706
 20
207.1393868102914
 30
0.0
 40
23.05745539993312
100
AcDbArc
 50
330.3584182606798
 51
3.234857642386181
  0
ARC
  5
527F
330
295E
100
AcDbEntity
  8
0
 62
     3
100
AcDbCircle
 10
193.5957018029068
 20
206.9285815822198
 30
0.0
 40
22.87731952573587
100
AcDbArc
 50
330.4340042746442
 51
5.260614633661411
  0
ARC
  5
5280
330
295E
100
AcDbEntity
  8
0
 62
     3
100
AcDbCircle
 10
210.8563595833902
 20
194.2471541513083
 30
0.0
 40
0.9977887605742573
100
AcDbArc
 50
160.6768001775222
 51
260.1638885749427
  0
ARC
  5
5281
330
295E
100
AcDbEntity
  8
0
 62
     3
100
AcDbCircle
 10
210.8373488822842
 20
194.1734973354781
 30
0.0
 40
1.31442827639023
100
AcDbArc
 50
164.6465310038695
 51
263.3839638568249
  0
ARC
  5
5282
330
295E
100
AcDbEntity
  8
0
 62
     3
100
AcDbCircle
 10
217.5265917988792
 20
231.9261825918689
 30
0.0
 40
16.643144
100
AcDbArc
 50
280.6169329999988
 51
297.2284750000016
  0
ARC
  5
5283
330
295E
100
AcDbEntity
  8
0
 62
     3
100
AcDbCircle
 10
217.5265917988792
 20
231.9261825918689
 30
0.0
 40
17.143144
100
AcDbArc
 50
279.0555299999989
 51
297.2284750000016
  0
LINE
  5
5284
330
295E
100
AcDbEntity
  8
0
 62
     3
100
AcDbLine
 10
225.1414947988792
 20
217.1272795918689
 30
0.0
 11
225.370263798879
 21
216.6826855918689
 31
0.0
  0
LINE
  5
5285
330
295E
100
AcDbEntity
  8
0
 62
     3
100
AcDbLine
 10
305.9663317988792
 20
191.7367555918689
 30
0.0
 11
305.9663317988792
 21
179.7367555918689
 31
0.0
  0
ARC
  5
5286
330
295E
100
AcDbEntity
  8
0
 62
     3
100
AcDbCircle
 10
305.7163317988792
 20
179.7367555918689
 30
0.0
 40
0.25
100
AcDbArc
 50
270.0
 51
0.0
  0
ARC
  5
5287
330
295E
100
AcDbEntity
  8
0
 62
     3
100
AcDbCircle
 10
306.3796337988791
 20
191.7367555918689
 30
0.0
 40
0.9981290000000001
100
AcDbArc
 50
128.2531459999993
 51
165.4947551703563
  0
ARC
  5
5288
330
295E
100
AcDbEntity
  8
0
 62
     3
100
AcDbCircle
 10
306.3796337988791
 20
191.7367555918689
 30
0.0
 40
1.498129
100
AcDbArc
 50
128.2531459999993
 51
170.3938363535508
  0
LINE
  5
5289
330
295E
100
AcDbEntity
  8
0
 62
     3
100
AcDbLine
 10
305.1208357988792
 20
196.0581505918688
 30
0.0
 11
305.6073957988789
 21
196.1734985918689
 31
0.0
  0
LINE
  5
528D
330
295E
100
AcDbEntity
  8
0
 62
     3
100
AcDbLine
 10
127.6149354660254
 20
174.7367555918689
 30
0.0
 11
117.1149354660254
 21
174.7367555918689
 31
0.0
  0
LINE
  5
528E
330
295E
100
AcDbEntity
  8
0
 62
     3
100
AcDbLine
 10
127.6149354660254
 20
176.486755591869
 30
0.0
 11
127.6149354660254
 21
174.7367555918689
 31
0.0
  0
LINE
  5
528F
330
295E
100
AcDbEntity
  8
0
 62
     3
100
AcDbLine
 10
117.1149354660254
 20
176.486755591869
 30
0.0
 11
117.1149354660254
 21
174.7367555918689
 31
0.0
  0
LINE
  5
5290
330
295E
100
AcDbEntity
  8
0
 62
     3
100
AcDbLine
 10
128.8649354660253
 20
176.486755591869
 30
0.0
 11
128.8649354660253
 21
174.998519714294
 31
0.0
  0
LINE
  5
5291
330
295E
100
AcDbEntity
  8
0
 62
     3
100
AcDbLine
 10
115.8649354660253
 20
176.486755591869
 30
0.0
 11
115.8649354660253
 21
174.998519714294
 31
0.0
  0
LINE
  5
5292
330
295E
100
AcDbEntity
  8
0
 62
     3
100
AcDbLine
 10
115.8649354660253
 20
174.998519714294
 30
0.0
 11
117.1149354660254
 21
174.998519714294
 31
0.0
  0
LINE
  5
5294
330
295E
100
AcDbEntity
  8
0
 62
     3
100
AcDbLine
 10
127.6149354660254
 20
174.998519714294
 30
0.0
 11
128.8649354660253
 21
174.998519714294
 31
0.0
  0
ARC
  5
5299
330
295E
100
AcDbEntity
  8
0
 62
     3
100
AcDbCircle
 10
122.3649354660254
 20
397.7992555918691
 30
0.0
 40
222.1576105071579
100
AcDbArc
 50
265.8052813464035
 51
268.3233717607539
  0
LINE
  5
52A3
330
295E
100
AcDbEntity
  8
0
 62
     3
100
AcDbLine
 10
105.5899354660254
 20
176.486755591869
 30
0.0
 11
106.1149354660255
 21
176.2367555918689
 31
0.0
  0
ARC
  5
52A4
330
295E
100
AcDbEntity
  8
0
 62
     3
100
AcDbCircle
 10
122.3649354660254
 20
397.7992555918691
 30
0.0
 40
222.1576105071579
100
AcDbArc
 50
271.6766282392462
 51
274.0395746357952
  0
LINE
  5
52A7
330
295E
100
AcDbEntity
  8
0
 62
     3
100
AcDbLine
 10
203.8759316435013
 20
175.6582311987569
 30
0.0
 11
204.0495798211682
 21
176.6430389517691
 31
0.0
  0
LINE
  5
52A8
330
295E
100
AcDbEntity
  8
0
 62
     3
100
AcDbLine
 10
198.2625274513316
 20
176.6480258114584
 30
0.0
 11
198.4361756289986
 21
177.6328335644706
 31
0.0
  0
LINE
  5
52A9
330
295E
100
AcDbEntity
  8
0
 62
     3
100
AcDbLine
 10
198.2625274513316
 20
176.6480258114584
 30
0.0
 11
203.8759316435012
 21
175.6582311987569
 31
0.0
  0
LINE
  5
52AE
330
295E
100
AcDbEntity
  8
0
 62
     3
100
AcDbLine
 10
143.7149354660253
 20
176.1531285051076
 30
0.0
 11
143.7149354660253
 21
177.1379362581198
 31
0.0
  0
LINE
  5
52AF
330
295E
100
AcDbEntity
  8
0
 62
     3
100
AcDbLine
 10
138.0149354660254
 20
176.1531285051076
 30
0.0
 11
138.0149354660254
 21
177.1379362581198
 31
0.0
  0
ELLIPSE
  5
52B0
330
295E
100
AcDbEntity
  8
0
 62
     3
100
AcDbEllipse
 10
140.8649354660253
 20
177.1379362581198
 30
0.0
 11
-2.849999999999993
 21
0.0
 31
0.0
210
0.0
220
0.0
230
1.0
 40
0.1736481776669255
 41
3.141592653589792
 42
6.283185307179584
  0
ELLIPSE
  5
52B1
330
295E
100
AcDbEntity
  8
0
 62
     3
100
AcDbEllipse
 10
140.8649354660253
 20
176.1531285051076
 30
0.0
 11
-2.849999999999993
 21
0.0
 31
0.0
210
0.0
220
0.0
230
1.0
 40
0.1736481776669255
 41
0.0
 42
6.283185307179584
  0
LINE
  5
52B2
330
295E
100
AcDbEntity
  8
0
 62
     3
100
AcDbLine
 10
143.7149354660253
 20
176.486755591869
 30
0.0
 11
145.2907315523576
 21
176.486755591869
 31
0.0
  0
LINE
  5
52B4
330
295E
100
AcDbEntity
  8
0
  6
HIDDEN
 62
     7
100
AcDbLine
 10
132.6149354660254
 20
192.0971287761323
 30
0.0
 11
112.1149354660254
 21
192.0971287761323
 31
0.0
  0
LINE
  5
52B5
330
295E
100
AcDbEntity
  8
0
  6
HIDDEN
 62
     7
100
AcDbLine
 10
132.6149354660254
 20
183.0971287761324
 30
0.0
 11
112.1149354660254
 21
183.0971287761324
 31
0.0
  0
ARC
  5
52B8
330
295E
100
AcDbEntity
  8
0
  6
HIDDEN
 62
     7
100
AcDbCircle
 10
132.6149354660254
 20
187.5971287761323
 30
0.0
 40
4.5
100
AcDbArc
 50
270.0
 51
90.0
  0
ARC
  5
52B9
330
295E
100
AcDbEntity
  8
0
  6
HIDDEN
 62
     7
100
AcDbCircle
 10
112.1149354660254
 20
187.5971287761323
 30
0.0
 40
4.5
100
AcDbArc
 50
90.0
 51
270.0
  0
CIRCLE
  5
52BD
330
295E
100
AcDbEntity
  8
0
  6
HIDDEN
 62
     7
100
AcDbCircle
 10
105.3649354660253
 20
189.5971287761323
 30
0.0
 40
0.75
  0
CIRCLE
  5
52BE
330
295E
100
AcDbEntity
  8
0
  6
HIDDEN
 62
     7
100
AcDbCircle
 10
105.3649354660253
 20
185.5971287761324
 30
0.0
 40
0.75
  0
LINE
  5
52BF
330
295E
100
AcDbEntity
  8
0
  6
HIDDEN
 62
     7
100
AcDbLine
 10
133.3649354660253
 20
185.8471287761323
 30
0.0
 11
133.3649354660253
 21
189.3471287761324
 31
0.0
  0
LINE
  5
52C0
330
295E
100
AcDbEntity
  8
0
  6
HIDDEN
 62
     7
100
AcDbLine
 10
111.3649354660253
 20
189.3471287761324
 30
0.0
 11
111.3649354660253
 21
185.8471287761323
 31
0.0
  0
LINE
  5
52C1
330
295E
100
AcDbEntity
  8
0
  6
HIDDEN
 62
     7
100
AcDbLine
 10
133.3649354660253
 20
189.3471287761324
 30
0.0
 11
111.3649354660253
 21
189.3471287761324
 31
0.0
  0
LINE
  5
52C2
330
295E
100
AcDbEntity
  8
0
  6
HIDDEN
 62
     7
100
AcDbLine
 10
133.3649354660253
 20
185.8471287761323
 30
0.0
 11
111.3649354660253
 21
185.8471287761323
 31
0.0
  0
LINE
  5
52C7
330
295E
100
AcDbEntity
  8
0
  6
PHANTOM
 62
     7
100
AcDbLine
 10
208.9196829432509
 20
174.6392268191591
 30
0.0
 11
185.9075854173316
 21
176.65252447663
 31
0.0
  0
LINE
  5
52CF
330
295E
100
AcDbEntity
  8
0
  6
PHANTOM
 62
     7
100
AcDbLine
 10
204.8935918154304
 20
161.4398963443305
 30
0.0
 11
202.403105070201
 21
161.6577857011997
 31
0.0
  0
LINE
  5
52D0
330
295E
100
AcDbEntity
  8
0
  6
PHANTOM
 62
     7
100
AcDbLine
 10
190.946866042146
 20
162.6600767427977
 30
0.0
 11
189.4525739950084
 21
162.7908103569192
 31
0.0
  0
LINE
  5
52D1
330
295E
100
AcDbEntity
  8
0
  6
PHANTOM
 62
     7
100
AcDbLine
 10
201.6777479823192
 20
161.9722011827833
 30
0.0
 11
191.7158010014017
 21
162.8437586102599
 31
0.0
  0
LINE
  5
52D3
330
295E
100
AcDbEntity
  8
0
  6
PHANTOM
 62
     7
100
AcDbLine
 10
205.5248662679699
 20
161.9695985046283
 30
0.0
 11
208.9196829432509
 21
174.6392268191591
 31
0.0
  0
LINE
  5
52D6
330
295E
100
AcDbEntity
  8
0
  6
PHANTOM
 62
     7
100
AcDbLine
 10
187.2524482597554
 20
176.5348642239206
 30
0.0
 11
187.2524482597554
 21
164.9909360921722
 31
0.0
  0
LINE
  5
52D7
330
295E
100
AcDbEntity
  8
0
  6
PHANTOM
 62
     7
100
AcDbLine
 10
185.9075854173316
 20
176.65252447663
 30
0.0
 11
187.124804060139
 21
169.5192927815485
 31
0.0
  0
LINE
  5
52D8
330
295E
100
AcDbEntity
  8
0
  6
PHANTOM
 62
     7
100
AcDbLine
 10
187.2524482597554
 20
164.9909360921722
 30
0.0
 11
189.4525739950084
 21
162.7908103569192
 31
0.0
  0
LINE
  5
52DD
330
295E
100
AcDbEntity
  8
0
  6
PHANTOM
 62
     7
100
AcDbLine
 10
190.946866042146
 20
162.6600767427977
 30
0.0
 11
191.7158010014017
 21
162.8437586102599
 31
0.0
  0
LINE
  5
52DE
330
295E
100
AcDbEntity
  8
0
  6
PHANTOM
 62
     7
100
AcDbLine
 10
201.6777479823192
 20
161.9722011827833
 30
0.0
 11
202.403105070201
 21
161.6577857011997
 31
0.0
  0
LINE
  5
52E2
330
295E
100
AcDbEntity
  8
0
  6
PHANTOM
 62
     7
100
AcDbLine
 10
204.8935918154304
 20
161.4398963443305
 30
0.0
 11
205.5248662679701
 21
161.9695985046281
 31
0.0
  0
LINE
  5
52EE
330
295E
100
AcDbEntity
  8
0
 62
     7
100
AcDbLine
 10
208.9196829432509
 20
174.6392268191591
 30
0.0
 11
208.9632608146247
 21
175.137324168205
 31
0.0
  0
LINE
  5
52F8
330
295E
100
AcDbEntity
  8
0
 62
     3
100
AcDbLine
 10
140.6149354660253
 20
192.5971287761323
 30
0.0
 11
104.1149354660253
 21
192.5971287761323
 31
0.0
  0
LINE
  5
52F9
330
295E
100
AcDbEntity
  8
0
 62
     3
100
AcDbLine
 10
140.6149354660254
 20
182.5971287761323
 30
0.0
 11
104.1149354660253
 21
182.5971287761323
 31
0.0
  0
LINE
  5
52FA
330
295E
100
AcDbEntity
  8
0
 62
     7
100
AcDbLine
 10
104.1149354660253
 20
192.5971287761323
 30
0.0
 11
100.6695939879099
 21
192.5971287761323
 31
0.0
  0
LINE
  5
52FB
330
295E
100
AcDbEntity
  8
0
 62
     7
100
AcDbLine
 10
104.1149354660253
 20
182.5971287761323
 30
0.0
 11
100.8601477887106
 21
182.5971287761323
 31
0.0
  0
LINE
  5
52FC
330
295E
100
AcDbEntity
  8
0
 62
     3
100
AcDbLine
 10
219.7934895466779
 20
194.1117555918689
 30
0.0
 11
219.7934895466779
 21
177.3617555918689
 31
0.0
  0
LINE
  5
52FE
330
295E
100
AcDbEntity
  8
0
 62
     3
100
AcDbLine
 10
225.2934895466779
 20
194.1117555918689
 30
0.0
 11
219.7934895466779
 21
194.1117555918689
 31
0.0
  0
LINE
  5
52FF
330
295E
100
AcDbEntity
  8
0
 62
     3
100
AcDbLine
 10
225.2934895466779
 20
177.3617555918689
 30
0.0
 11
219.7934895466779
 21
177.3617555918689
 31
0.0
  0
LINE
  5
5300
330
295E
100
AcDbEntity
  8
0
 62
     3
100
AcDbLine
 10
225.2934895466779
 20
192.1117555918689
 30
0.0
 11
225.2934895466779
 21
191.9867555918689
 31
0.0
  0
ARC
  5
5302
330
295E
100
AcDbEntity
  8
0
 62
     3
100
AcDbCircle
 10
219.1666513113837
 20
185.7367555918689
 30
0.0
 40
10.37683823529413
100
AcDbArc
 50
306.1878130881261
 51
322.9649889872943
  0
LINE
  5
5303
330
295E
100
AcDbEntity
  8
0
 62
     3
100
AcDbLine
 10
223.2934895466779
 20
192.1117555918689
 30
0.0
 11
225.2934895466779
 21
192.1117555918689
 31
0.0
  0
LINE
  5
5304
330
295E
100
AcDbEntity
  8
0
 62
     3
100
AcDbLine
 10
223.2934895466779
 20
179.3617555918689
 30
0.0
 11
225.2934895466779
 21
179.3617555918689
 31
0.0
  0
LINE
  5
5305
330
295E
100
AcDbEntity
  8
0
 62
     3
100
AcDbLine
 10
223.2934895466779
 20
192.1117555918689
 30
0.0
 11
223.2934895466779
 21
179.3617555918689
 31
0.0
  0
LINE
  5
5309
330
295E
100
AcDbEntity
  8
0
 62
     3
100
AcDbLine
 10
224.2934895466778
 20
191.9867555918689
 30
0.0
 11
224.2934895466778
 21
179.4867555918689
 31
0.0
  0
LINE
  5
530A
330
295E
100
AcDbEntity
  8
0
 62
     3
100
AcDbLine
 10
236.240500600094
 20
194.1117555918689
 30
0.0
 11
236.240500600094
 21
177.3617555918689
 31
0.0
  0
LINE
  5
530C
330
295E
100
AcDbEntity
  8
0
 62
     3
100
AcDbLine
 10
239.7405006000941
 20
179.3617555918689
 30
0.0
 11
239.7405006000941
 21
192.1117555918689
 31
0.0
  0
LINE
  5
530D
330
295E
100
AcDbEntity
  8
0
 62
     3
100
AcDbLine
 10
241.740500600094
 20
179.3617555918689
 30
0.0
 11
241.740500600094
 21
179.4867555918689
 31
0.0
  0
LINE
  5
530E
330
295E
100
AcDbEntity
  8
0
 62
     3
100
AcDbLine
 10
243.740500600094
 20
179.3617555918689
 30
0.0
 11
243.740500600094
 21
179.4867555918689
 31
0.0
  0
LINE
  5
5310
330
295E
100
AcDbEntity
  8
0
 62
     3
100
AcDbLine
 10
245.740500600094
 20
179.3617555918689
 30
0.0
 11
245.740500600094
 21
192.1117555918689
 31
0.0
  0
LINE
  5
5315
330
295E
100
AcDbEntity
  8
0
 62
     3
100
AcDbLine
 10
236.240500600094
 20
194.1117555918689
 30
0.0
 11
245.740500600094
 21
194.1117555918689
 31
0.0
  0
LINE
  5
5316
330
295E
100
AcDbEntity
  8
0
 62
     3
100
AcDbLine
 10
236.240500600094
 20
177.3617555918689
 30
0.0
 11
245.740500600094
 21
177.3617555918689
 31
0.0
  0
ARC
  5
5317
330
295E
100
AcDbEntity
  8
0
 62
     3
100
AcDbCircle
 10
240.1970978223162
 20
185.7367555918689
 30
0.0
 40
10.04340277777779
100
AcDbArc
 50
303.5005290100519
 51
56.49947098994815
  0
LINE
  5
5318
330
295E
100
AcDbEntity
  8
0
 62
     3
100
AcDbLine
 10
239.7405006000941
 20
192.1117555918689
 30
0.0
 11
245.740500600094
 21
192.1117555918689
 31
0.0
  0
LINE
  5
5319
330
295E
100
AcDbEntity
  8
0
 62
     3
100
AcDbLine
 10
239.7405006000941
 20
179.3617555918689
 30
0.0
 11
245.740500600094
 21
179.3617555918689
 31
0.0
  0
LINE
  5
531A
330
295E
100
AcDbEntity
  8
0
 62
     3
100
AcDbLine
 10
243.740500600094
 20
191.9867555918689
 30
0.0
 11
243.740500600094
 21
192.1117555918689
 31
0.0
  0
LINE
  5
531B
330
295E
100
AcDbEntity
  8
0
 62
     3
100
AcDbLine
 10
241.740500600094
 20
191.9867555918689
 30
0.0
 11
241.740500600094
 21
192.1117555918689
 31
0.0
  0
LINE
  5
531C
330
295E
100
AcDbEntity
  8
0
 62
     3
100
AcDbLine
 10
224.2934895466778
 20
179.4867555918689
 30
0.0
 11
236.240500600094
 21
179.4867555918689
 31
0.0
  0
LINE
  5
531D
330
295E
100
AcDbEntity
  8
0
 62
     3
100
AcDbLine
 10
224.2934895466778
 20
191.9867555918689
 30
0.0
 11
236.240500600094
 21
191.9867555918689
 31
0.0
  0
ARC
  5
531E
330
295E
100
AcDbEntity
  8
0
 62
     3
100
AcDbCircle
 10
219.1666513113837
 20
185.7367555918689
 30
0.0
 40
10.37683823529413
100
AcDbArc
 50
37.0350110127056
 51
53.81218691187389
  0
LINE
  5
531F
330
295E
100
AcDbEntity
  8
0
 62
     3
100
AcDbLine
 10
225.2934895466779
 20
179.4867555918689
 30
0.0
 11
225.2934895466779
 21
179.3617555918689
 31
0.0
  0
LINE
  5
5320
330
295E
100
AcDbEntity
  8
0
 62
     3
100
AcDbLine
 10
239.7405006000941
 20
191.9867555918689
 30
0.0
 11
245.740500600094
 21
191.9867555918689
 31
0.0
  0
LINE
  5
5321
330
295E
100
AcDbEntity
  8
0
 62
     3
100
AcDbLine
 10
239.7405006000941
 20
179.4867555918689
 30
0.0
 11
245.740500600094
 21
179.4867555918689
 31
0.0
  0
LINE
  5
5322
330
295E
100
AcDbEntity
  8
0
 62
     3
100
AcDbLine
 10
248.0588685742953
 20
179.4867555918689
 30
0.0
 11
305.7163317988792
 21
179.4867555918689
 31
0.0
  0
LINE
  5
5323
330
295E
100
AcDbEntity
  8
0
 62
     3
100
AcDbLine
 10
248.0588685742953
 20
191.9867555918689
 30
0.0
 11
305.7163317988792
 21
191.9867555918689
 31
0.0
  0
LINE
  5
53A1
330
295E
100
AcDbEntity
  8
0
  6
CENTER
 62
     7
100
AcDbLine
 10
207.9359067988792
 20
173.2719916658472
 30
0.0
 11
207.9359067988792
 21
182.2015195178906
 31
0.0
  0
LINE
  5
53A2
330
295E
100
AcDbEntity
  8
0
  6
CENTER
 62
     7
100
AcDbLine
 10
203.2692133226941
 20
177.7367555918689
 30
0.0
 11
212.6026002750642
 21
177.7367555918689
 31
0.0
  0
LINE
  5
53A4
330
295E
100
AcDbEntity
  8
0
  6
CENTER
100
AcDbLine
 10
174.4350015204777
 20
187.5971287761323
 30
0.0
 11
191.6859067988791
 21
187.5971287761323
 31
0.0
  0
LINE
  5
53A5
330
295E
100
AcDbEntity
  8
0
  6
CENTER
100
AcDbLine
 10
196.0726253126761
 20
155.2739221337182
 30
0.0
 11
196.6967744918604
 21
162.4079798965216
 31
0.0
  0
LINE
  5
5611
330
295E
100
AcDbEntity
  8
0
 62
     3
100
AcDbLine
 10
117.206162208221
 20
112.1659263070829
 30
0.0
 11
117.206162208221
 21
99.86592630708296
 31
0.0
  0
LINE
  5
5612
330
295E
100
AcDbEntity
  8
0
 62
     3
100
AcDbLine
 10
131.456162208221
 20
98.86592630708296
 30
0.0
 11
131.456162208221
 21
113.1659263070829
 31
0.0
  0
LINE
  5
5613
330
295E
100
AcDbEntity
  8
0
 62
     3
100
AcDbLine
 10
131.456162208221
 20
113.1659263070829
 30
0.0
 11
117.706162208221
 21
113.1659263070829
 31
0.0
  0
LINE
  5
5614
330
295E
100
AcDbEntity
  8
0
 62
     3
100
AcDbLine
 10
131.456162208221
 20
98.86592630708296
 30
0.0
 11
117.706162208221
 21
98.86592630708296
 31
0.0
  0
LINE
  5
5615
330
295E
100
AcDbEntity
  8
0
100
AcDbLine
 10
117.706162208221
 20
113.1659263070829
 30
0.0
 11
117.706162208221
 21
98.86592630708296
 31
0.0
  0
ARC
  5
561A
330
295E
100
AcDbEntity
  8
0
 62
     3
100
AcDbCircle
 10
118.456162208221
 20
99.86592630708296
 30
0.0
 40
1.25
100
AcDbArc
 50
180.0
 51
233.1301023541544
  0
ARC
  5
561B
330
295E
100
AcDbEntity
  8
0
 62
     3
100
AcDbCircle
 10
118.456162208221
 20
112.1659263070829
 30
0.0
 40
1.25
100
AcDbArc
 50
126.8698976458456
 51
180.0
  0
LINE
  5
561E
330
295E
100
AcDbEntity
  8
0
100
AcDbLine
 10
108.706162208221
 20
109.4159263070829
 30
0.0
 11
108.706162208221
 21
108.9659263070829
 31
0.0
  0
LINE
  5
561F
330
295E
100
AcDbEntity
  8
0
100
AcDbLine
 10
109.1528555286386
 20
109.5659263070829
 30
0.0
 11
117.206162208221
 21
109.5659263070829
 31
0.0
  0
LINE
  5
5620
330
295E
100
AcDbEntity
  8
0
100
AcDbLine
 10
109.1528555286386
 20
108.8159263070829
 30
0.0
 11
117.206162208221
 21
108.8159263070829
 31
0.0
  0
LINE
  5
5621
330
295E
100
AcDbEntity
  8
0
100
AcDbLine
 10
109.1528555286386
 20
102.4659263070829
 30
0.0
 11
117.206162208221
 21
102.4659263070829
 31
0.0
  0
LINE
  5
5622
330
295E
100
AcDbEntity
  8
0
100
AcDbLine
 10
109.1528555286386
 20
103.2159263070829
 30
0.0
 11
117.206162208221
 21
103.2159263070829
 31
0.0
  0
LINE
  5
562E
330
295E
100
AcDbEntity
  8
0
100
AcDbLine
 10
109.1528555286386
 20
103.2159263070829
 30
0.0
 11
108.706162208221
 21
103.065926307083
 31
0.0
  0
LINE
  5
562F
330
295E
100
AcDbEntity
  8
0
100
AcDbLine
 10
108.706162208221
 20
103.065926307083
 30
0.0
 11
108.706162208221
 21
102.6159263070829
 31
0.0
  0
LINE
  5
5630
330
295E
100
AcDbEntity
  8
0
100
AcDbLine
 10
108.706162208221
 20
102.6159263070829
 30
0.0
 11
109.1528555286386
 21
102.4659263070829
 31
0.0
  0
LINE
  5
5635
330
295E
100
AcDbEntity
  8
0
100
AcDbLine
 10
108.706162208221
 20
109.4159263070829
 30
0.0
 11
109.1528555286386
 21
109.5659263070829
 31
0.0
  0
LINE
  5
5636
330
295E
100
AcDbEntity
  8
0
100
AcDbLine
 10
109.1528555286386
 20
109.5659263070829
 30
0.0
 11
109.1528555286386
 21
108.8159263070829
 31
0.0
  0
LINE
  5
5637
330
295E
100
AcDbEntity
  8
0
100
AcDbLine
 10
109.1528555286386
 20
108.8159263070829
 30
0.0
 11
108.706162208221
 21
108.9659263070829
 31
0.0
  0
LINE
  5
5638
330
295E
100
AcDbEntity
  8
0
100
AcDbLine
 10
109.1528555286386
 20
103.2159263070829
 30
0.0
 11
109.1528555286386
 21
102.4659263070829
 31
0.0
  0
LINE
  5
5639
330
295E
100
AcDbEntity
  8
0
 62
     3
100
AcDbLine
 10
147.2819959825372
 20
109.0159263070829
 30
0.0
 11
153.2819959825372
 21
109.0159263070829
 31
0.0
  0
LINE
  5
563A
330
295E
100
AcDbEntity
  8
0
 62
     3
100
AcDbLine
 10
147.2819959825372
 20
103.0159263070829
 30
0.0
 11
153.2819959825372
 21
103.0159263070829
 31
0.0
  0
LINE
  5
563B
330
295E
100
AcDbEntity
  8
0
 62
     3
100
AcDbLine
 10
147.2819959825372
 20
103.0159263070829
 30
0.0
 11
147.2819959825372
 21
109.0159263070829
 31
0.0
  0
LINE
  5
563C
330
295E
100
AcDbEntity
  8
0
 62
     3
100
AcDbLine
 10
153.2819959825372
 20
110.0159263070829
 30
0.0
 11
153.2819959825372
 21
102.0159263070829
 31
0.0
  0
LINE
  5
563D
330
295E
100
AcDbEntity
  8
0
 62
     3
100
AcDbLine
 10
153.2819959825372
 20
110.0159263070829
 30
0.0
 11
162.0319959825372
 21
110.0159263070829
 31
0.0
  0
LINE
  5
563E
330
295E
100
AcDbEntity
  8
0
 62
     3
100
AcDbLine
 10
153.2819959825372
 20
102.0159263070829
 30
0.0
 11
162.0319959825372
 21
102.0159263070829
 31
0.0
  0
LINE
  5
563F
330
295E
100
AcDbEntity
  8
0
 62
     3
100
AcDbLine
 10
165.2819959825372
 20
103.5159263070829
 30
0.0
 11
165.2819959825372
 21
108.5159263070829
 31
0.0
  0
LINE
  5
5641
330
295E
100
AcDbEntity
  8
0
 62
     3
100
AcDbLine
 10
165.2819959825372
 20
108.5159263070829
 30
0.0
 11
163.5319959825372
 21
108.5159263070829
 31
0.0
  0
LINE
  5
5642
330
295E
100
AcDbEntity
  8
0
 62
     3
100
AcDbLine
 10
165.2819959825372
 20
103.5159263070829
 30
0.0
 11
163.5319959825372
 21
103.5159263070829
 31
0.0
  0
LINE
  5
5643
330
295E
100
AcDbEntity
  8
0
 62
     3
100
AcDbLine
 10
163.5319959825372
 20
103.5159263070829
 30
0.0
 11
162.0319959825372
 21
102.0159263070829
 31
0.0
  0
LINE
  5
5644
330
295E
100
AcDbEntity
  8
0
 62
     3
100
AcDbLine
 10
162.0319959825372
 20
110.0159263070829
 30
0.0
 11
163.5319959825372
 21
108.5159263070829
 31
0.0
  0
LINE
  5
5645
330
295E
100
AcDbEntity
  8
0
100
AcDbLine
 10
150.7819959825372
 20
106.8659263070829
 30
0.0
 11
149.7819959825372
 21
106.8659263070829
 31
0.0
  0
LINE
  5
5646
330
295E
100
AcDbEntity
  8
0
100
AcDbLine
 10
150.7819959825372
 20
105.1659263070829
 30
0.0
 11
149.7819959825372
 21
105.1659263070829
 31
0.0
  0
LINE
  5
5647
330
295E
100
AcDbEntity
  8
0
100
AcDbLine
 10
150.7819959825372
 20
108.1159263070829
 30
0.0
 11
149.7819959825372
 21
108.1159263070829
 31
0.0
  0
LINE
  5
5648
330
295E
100
AcDbEntity
  8
0
100
AcDbLine
 10
150.7819959825372
 20
103.9159263070829
 30
0.0
 11
149.7819959825372
 21
103.9159263070829
 31
0.0
  0
LINE
  5
5649
330
295E
100
AcDbEntity
  8
0
100
AcDbLine
 10
149.7819959825372
 20
103.9159263070829
 30
0.0
 11
149.7819959825372
 21
105.1659263070829
 31
0.0
  0
LINE
  5
564A
330
295E
100
AcDbEntity
  8
0
100
AcDbLine
 10
150.7819959825372
 20
103.9159263070829
 30
0.0
 11
150.7819959825372
 21
105.1659263070829
 31
0.0
  0
LINE
  5
564B
330
295E
100
AcDbEntity
  8
0
100
AcDbLine
 10
150.7819959825372
 20
106.8659263070829
 30
0.0
 11
150.7819959825372
 21
108.1159263070829
 31
0.0
  0
LINE
  5
564C
330
295E
100
AcDbEntity
  8
0
100
AcDbLine
 10
149.7819959825372
 20
106.8659263070829
 30
0.0
 11
149.7819959825372
 21
108.1159263070829
 31
0.0
  0
LINE
  5
5652
330
295E
100
AcDbEntity
  8
0
 62
     3
100
AcDbLine
 10
165.2819959825372
 20
107.7659263070829
 30
0.0
 11
167.2819959825372
 21
107.6120801532368
 31
0.0
  0
LINE
  5
5653
330
295E
100
AcDbEntity
  8
0
 62
     3
100
AcDbLine
 10
168.5319959825372
 20
107.5159263070829
 30
0.0
 11
168.5319959825372
 21
104.5159263070829
 31
0.0
  0
LINE
  5
5654
330
295E
100
AcDbEntity
  8
0
 62
     3
100
AcDbLine
 10
168.5319959825372
 20
104.5159263070829
 30
0.0
 11
167.7819959825372
 21
104.4582339993906
 31
0.0
  0
LINE
  5
5655
330
295E
100
AcDbEntity
  8
0
100
AcDbLine
 10
167.7819959825372
 20
104.4582339993906
 30
0.0
 11
167.7819959825372
 21
105.6159263070829
 31
0.0
  0
LINE
  5
5656
330
295E
100
AcDbEntity
  8
0
100
AcDbLine
 10
167.2819959825372
 20
104.4197724609291
 30
0.0
 11
167.2819959825372
 21
105.6159263070829
 31
0.0
  0
LINE
  5
5657
330
295E
100
AcDbEntity
  8
0
100
AcDbLine
 10
167.7819959825372
 20
106.4159263070829
 30
0.0
 11
167.2819959825372
 21
106.4159263070829
 31
0.0
  0
LINE
  5
5658
330
295E
100
AcDbEntity
  8
0
100
AcDbLine
 10
167.7819959825372
 20
105.6159263070829
 30
0.0
 11
167.2819959825372
 21
105.6159263070829
 31
0.0
  0
LINE
  5
5659
330
295E
100
AcDbEntity
  8
0
100
AcDbLine
 10
166.7819959825371
 20
104.3813109224676
 30
0.0
 11
166.7819959825371
 21
107.6505416916983
 31
0.0
  0
LINE
  5
565A
330
295E
100
AcDbEntity
  8
0
100
AcDbLine
 10
166.2819959825372
 20
104.342849384006
 30
0.0
 11
166.2819959825372
 21
107.6890032301599
 31
0.0
  0
LINE
  5
5661
330
295E
100
AcDbEntity
  8
0
100
AcDbLine
 10
167.7819959825372
 20
106.4159263070829
 30
0.0
 11
167.7819959825372
 21
107.5736186147753
 31
0.0
  0
LINE
  5
5662
330
295E
100
AcDbEntity
  8
0
100
AcDbLine
 10
167.2819959825372
 20
106.4159263070829
 30
0.0
 11
167.2819959825372
 21
107.6120801532368
 31
0.0
  0
LINE
  5
5663
330
295E
100
AcDbEntity
  8
0
 62
     3
100
AcDbLine
 10
167.7819959825372
 20
107.5736186147753
 30
0.0
 11
168.5319959825372
 21
107.5159263070829
 31
0.0
  0
LINE
  5
5664
330
295E
100
AcDbEntity
  8
0
 62
     3
100
AcDbLine
 10
167.2819959825372
 20
104.4197724609291
 30
0.0
 11
165.2819959825372
 21
104.2659263070829
 31
0.0
  0
LINE
  5
5665
330
295E
100
AcDbEntity
  8
0
100
AcDbLine
 10
166.2819959825372
 20
106.8909263070829
 30
0.0
 11
166.7819959825371
 21
106.8909263070829
 31
0.0
  0
LINE
  5
5666
330
295E
100
AcDbEntity
  8
0
100
AcDbLine
 10
166.2819959825372
 20
105.1409263070829
 30
0.0
 11
166.7819959825371
 21
105.1409263070829
 31
0.0
  0
LINE
  5
5667
330
295E
100
AcDbEntity
  8
0
100
AcDbLine
 10
167.2819959825372
 20
106.8909263070829
 30
0.0
 11
167.7819959825372
 21
106.8909263070829
 31
0.0
  0
LINE
  5
5668
330
295E
100
AcDbEntity
  8
0
100
AcDbLine
 10
167.2819959825372
 20
105.1409263070829
 30
0.0
 11
167.7819959825372
 21
105.1409263070829
 31
0.0
  0
LINE
  5
5669
330
295E
100
AcDbEntity
  8
0
 62
     3
100
AcDbLine
 10
168.5319959825372
 20
105.1409263070829
 30
0.0
 11
207.6694073741581
 21
105.1409263070829
 31
0.0
  0
LINE
  5
566A
330
295E
100
AcDbEntity
  8
0
 62
     3
100
AcDbLine
 10
168.5319959825372
 20
106.8909263070829
 30
0.0
 11
207.6694073741581
 21
106.8909263070829
 31
0.0
  0
LINE
  5
5670
330
295E
100
AcDbEntity
  8
0
 62
     3
100
AcDbLine
 10
270.5794728242529
 20
105.1409263070829
 30
0.0
 11
270.5794728242529
 21
106.8909263070829
 31
0.0
  0
LINE
  5
5671
330
295E
100
AcDbEntity
  8
0
 62
     3
100
AcDbLine
 10
264.5794728242529
 20
103.9659263070829
 30
0.0
 11
264.5794728242529
 21
108.0659263070829
 31
0.0
  0
LINE
  5
5672
330
295E
100
AcDbEntity
  8
0
 62
     3
100
AcDbLine
 10
264.5794728242529
 20
106.8909263070829
 30
0.0
 11
270.5794728242529
 21
106.8909263070829
 31
0.0
  0
LINE
  5
5673
330
295E
100
AcDbEntity
  8
0
 62
     3
100
AcDbLine
 10
264.5794728242529
 20
105.1409263070829
 30
0.0
 11
270.5794728242529
 21
105.1409263070829
 31
0.0
  0
LINE
  5
5674
330
295E
100
AcDbEntity
  8
0
 62
     3
100
AcDbLine
 10
257.5794728242529
 20
108.0659263070829
 30
0.0
 11
264.5794728242529
 21
108.0659263070829
 31
0.0
  0
LINE
  5
5675
330
295E
100
AcDbEntity
  8
0
 62
     3
100
AcDbLine
 10
257.5794728242529
 20
103.9659263070829
 30
0.0
 11
264.5794728242529
 21
103.9659263070829
 31
0.0
  0
LINE
  5
567C
330
295E
100
AcDbEntity
  8
0
 62
     3
100
AcDbLine
 10
257.5794728242529
 20
108.0659263070829
 30
0.0
 11
256.0794728242529
 21
107.7659263070829
 31
0.0
  0
LINE
  5
567D
330
295E
100
AcDbEntity
  8
0
100
AcDbLine
 10
256.0794728242529
 20
107.7659263070829
 30
0.0
 11
256.0794728242529
 21
104.2659263070829
 31
0.0
  0
LINE
  5
567E
330
295E
100
AcDbEntity
  8
0
 62
     3
100
AcDbLine
 10
256.0794728242529
 20
104.2659263070829
 30
0.0
 11
257.5794728242529
 21
103.9659263070829
 31
0.0
  0
LINE
  5
567F
330
295E
100
AcDbEntity
  8
0
100
AcDbLine
 10
257.5794728242529
 20
103.9659263070829
 30
0.0
 11
257.5794728242529
 21
108.0659263070829
 31
0.0
  0
LINE
  5
5680
330
295E
100
AcDbEntity
  8
0
 62
     3
100
AcDbLine
 10
256.0794728242529
 20
107.7659263070829
 30
0.0
 11
251.0794728242529
 21
107.5159263070829
 31
0.0
  0
LINE
  5
5681
330
295E
100
AcDbEntity
  8
0
 62
     3
100
AcDbLine
 10
251.0794728242529
 20
107.5159263070829
 30
0.0
 11
251.0794728242529
 21
104.5159263070829
 31
0.0
  0
LINE
  5
5682
330
295E
100
AcDbEntity
  8
0
 62
     3
100
AcDbLine
 10
251.0794728242529
 20
104.5159263070829
 30
0.0
 11
256.0794728242529
 21
104.2659263070829
 31
0.0
  0
LINE
  5
5683
330
295E
100
AcDbEntity
  8
0
100
AcDbLine
 10
270.0794728242529
 20
105.1409263070829
 30
0.0
 11
270.0794728242529
 21
106.8909263070829
 31
0.0
  0
LINE
  5
5684
330
295E
100
AcDbEntity
  8
0
100
AcDbLine
 10
252.1794728242529
 20
107.570926307083
 30
0.0
 11
252.1794728242529
 21
106.2159263070829
 31
0.0
  0
LINE
  5
5686
330
295E
100
AcDbEntity
  8
0
100
AcDbLine
 10
252.7794728242529
 20
107.600926307083
 30
0.0
 11
252.7794728242529
 21
106.2159263070829
 31
0.0
  0
LINE
  5
5687
330
295E
100
AcDbEntity
  8
0
100
AcDbLine
 10
253.8294728242529
 20
107.6534263070829
 30
0.0
 11
253.8294728242529
 21
106.2159263070829
 31
0.0
  0
LINE
  5
5688
330
295E
100
AcDbEntity
  8
0
100
AcDbLine
 10
254.4294728242529
 20
107.6834263070829
 30
0.0
 11
254.4294728242529
 21
106.2159263070829
 31
0.0
  0
LINE
  5
5689
330
295E
100
AcDbEntity
  8
0
100
AcDbLine
 10
255.4794728242529
 20
107.7359263070829
 30
0.0
 11
255.4794728242529
 21
106.2159263070829
 31
0.0
  0
LINE
  5
568B
330
295E
100
AcDbEntity
  8
0
100
AcDbLine
 10
256.0794728242529
 20
106.2159263070829
 30
0.0
 11
255.4794728242529
 21
106.2159263070829
 31
0.0
  0
LINE
  5
568C
330
295E
100
AcDbEntity
  8
0
100
AcDbLine
 10
256.0794728242529
 20
105.8159263070829
 30
0.0
 11
255.4794728242529
 21
105.8159263070829
 31
0.0
  0
LINE
  5
568D
330
295E
100
AcDbEntity
  8
0
100
AcDbLine
 10
255.4794728242529
 20
105.8159263070829
 30
0.0
 11
255.4794728242529
 21
104.2959263070829
 31
0.0
  0
LINE
  5
568E
330
295E
100
AcDbEntity
  8
0
100
AcDbLine
 10
254.4294728242529
 20
106.2159263070829
 30
0.0
 11
253.8294728242529
 21
106.2159263070829
 31
0.0
  0
LINE
  5
568F
330
295E
100
AcDbEntity
  8
0
100
AcDbLine
 10
254.4294728242529
 20
105.8159263070829
 30
0.0
 11
253.8294728242529
 21
105.8159263070829
 31
0.0
  0
LINE
  5
5690
330
295E
100
AcDbEntity
  8
0
100
AcDbLine
 10
254.4294728242529
 20
105.8159263070829
 30
0.0
 11
254.4294728242529
 21
104.348426307083
 31
0.0
  0
LINE
  5
5691
330
295E
100
AcDbEntity
  8
0
100
AcDbLine
 10
253.8294728242529
 20
105.8159263070829
 30
0.0
 11
253.8294728242529
 21
104.378426307083
 31
0.0
  0
LINE
  5
5692
330
295E
100
AcDbEntity
  8
0
100
AcDbLine
 10
252.7794728242529
 20
106.2159263070829
 30
0.0
 11
252.1794728242529
 21
106.2159263070829
 31
0.0
  0
LINE
  5
5693
330
295E
100
AcDbEntity
  8
0
100
AcDbLine
 10
252.7794728242529
 20
105.8159263070829
 30
0.0
 11
252.1794728242529
 21
105.8159263070829
 31
0.0
  0
LINE
  5
5694
330
295E
100
AcDbEntity
  8
0
100
AcDbLine
 10
252.7794728242529
 20
105.8159263070829
 30
0.0
 11
252.7794728242529
 21
104.4309263070829
 31
0.0
  0
LINE
  5
5695
330
295E
100
AcDbEntity
  8
0
100
AcDbLine
 10
252.1794728242529
 20
105.8159263070829
 30
0.0
 11
252.1794728242529
 21
104.4609263070829
 31
0.0
  0
LINE
  5
5696
330
295E
100
AcDbEntity
  8
0
100
AcDbLine
 10
252.1794728242529
 20
106.8909263070829
 30
0.0
 11
252.7794728242529
 21
106.8909263070829
 31
0.0
  0
LINE
  5
5697
330
295E
100
AcDbEntity
  8
0
100
AcDbLine
 10
252.1794728242529
 20
105.1409263070829
 30
0.0
 11
252.7794728242528
 21
105.1409263070829
 31
0.0
  0
LINE
  5
5698
330
295E
100
AcDbEntity
  8
0
100
AcDbLine
 10
253.8294728242529
 20
105.1409263070829
 30
0.0
 11
254.4294728242529
 21
105.1409263070829
 31
0.0
  0
LINE
  5
5699
330
295E
100
AcDbEntity
  8
0
100
AcDbLine
 10
253.8294728242529
 20
106.8909263070829
 30
0.0
 11
254.4294728242529
 21
106.8909263070829
 31
0.0
  0
LINE
  5
569A
330
295E
100
AcDbEntity
  8
0
100
AcDbLine
 10
255.4794728242529
 20
106.8909263070829
 30
0.0
 11
256.0794728242529
 21
106.8909263070829
 31
0.0
  0
LINE
  5
569B
330
295E
100
AcDbEntity
  8
0
100
AcDbLine
 10
255.4794728242529
 20
105.1409263070829
 30
0.0
 11
256.0794728242529
 21
105.1409263070829
 31
0.0
  0
LINE
  5
56F1
330
295E
100
AcDbEntity
  8
0
 62
     3
100
AcDbLine
 10
209.3494629038496
 20
106.8909263070829
 30
0.0
 11
251.0794728242529
 21
106.8909263070829
 31
0.0
  0
LINE
  5
56F2
330
295E
100
AcDbEntity
  8
0
 62
     3
100
AcDbLine
 10
209.3494629038496
 20
105.1409263070829
 30
0.0
 11
251.0794728242529
 21
105.1409263070829
 31
0.0
  0
ARC
  5
56F4
330
295E
100
AcDbEntity
  8
0
100
AcDbCircle
 10
209.8088379038496
 20
105.578426307083
 30
0.0
 40
0.6343749999999852
100
AcDbArc
 50
136.3971810272952
 51
223.6028189727067
  0
ARC
  5
56F5
330
295E
100
AcDbEntity
  8
0
100
AcDbCircle
 10
208.8900879038496
 20
105.578426307083
 30
0.0
 40
0.6343749999999852
100
AcDbArc
 50
316.3971810272923
 51
43.60281897270449
  0
ARC
  5
56F6
330
295E
100
AcDbEntity
  8
0
100
AcDbCircle
 10
209.8088379038496
 20
106.453426307083
 30
0.0
 40
0.6343749999999852
100
AcDbArc
 50
136.3971810272921
 51
223.6028189727044
  0
ARC
  5
56F8
330
295E
100
AcDbEntity
  8
0
100
AcDbCircle
 10
207.2100323741583
 20
106.453426307083
 30
0.0
 40
0.634374999999945
100
AcDbArc
 50
316.3971810272916
 51
43.60281897270664
  0
ARC
  5
56F9
330
295E
100
AcDbEntity
  8
0
100
AcDbCircle
 10
208.1287823741582
 20
106.453426307083
 30
0.0
 40
0.634374999999945
100
AcDbArc
 50
136.3971810272923
 51
223.6028189727086
  0
ARC
  5
56FA
330
295E
100
AcDbEntity
  8
0
100
AcDbCircle
 10
207.2100323741583
 20
105.578426307083
 30
0.0
 40
0.634374999999945
100
AcDbArc
 50
316.3971810272922
 51
43.60281897270907
  0
CIRCLE
  5
5814
330
295E
100
AcDbEntity
  8
0
100
AcDbCircle
 10
127.8530838803558
 20
84.54444888503303
 30
0.0
 40
5.0
  0
CIRCLE
  5
5816
330
295E
100
AcDbEntity
  8
0
100
AcDbCircle
 10
200.1158106835906
 20
84.54444888503303
 30
0.0
 40
5.0
  0
TEXT
  5
5819
330
295E
100
AcDbEntity
  8
0
 62
     4
100
AcDbText
 10
126.8340779090688
 20
81.49092460264638
 30
0.0
 40
6.299999999999998
  1
1
  7
高6.3
100
AcDbText
  0
TEXT
  5
581A
330
295E
100
AcDbEntity
  8
0
 62
     4
100
AcDbText
 10
197.9800527669372
 20
81.48944421769897
 30
0.0
 40
6.299999999999998
  1
2
  7
高6.3
100
AcDbText
  0
LINE
  5
581C
330
295E
100
AcDbEntity
  8
0
100
AcDbLine
 10
116.2148043311503
 20
22.55615958979334
 30
0.0
 11
50.0504222113708
 21
22.55615958979334
 31
0.0
  0
LINE
  5
581D
330
295E
100
AcDbEntity
  8
0
100
AcDbLine
 10
116.2148043311503
 20
27.55615958979334
 30
0.0
 11
50.0504222113708
 21
27.55615958979334
 31
0.0
  0
LINE
  5
581E
330
295E
100
AcDbEntity
  8
0
 62
     3
100
AcDbLine
 10
116.2148043311503
 20
32.55615958979334
 30
0.0
 11
50.0504222113708
 21
32.55615958979334
 31
0.0
  0
TEXT
  5
581F
330
295E
100
AcDbEntity
  8
0
 62
     3
100
AcDbText
 10
51.5504222113708
 20
18.05615958979334
 30
0.0
 40
3.2
  1
No.
 41
0.8
  7
高3.2
100
AcDbText
  0
TEXT
  5
5820
330
295E
100
AcDbEntity
  8
0
 62
     3
100
AcDbText
 10
51.5504222113708
 20
23.05615958979334
 30
0.0
 40
3.2
  1
1
 41
0.8
  7
高3.2
100
AcDbText
  0
TEXT
  5
5821
330
295E
100
AcDbEntity
  8
0
 62
     3
100
AcDbText
 10
51.5504222113708
 20
28.05615958979334
 30
0.0
 40
3.2
  1
2
 41
0.8
  7
高3.2
100
AcDbText
  0
TEXT
  5
5823
330
295E
100
AcDbEntity
  8
0
 62
     3
100
AcDbText
 10
59.80849092462096
 20
18.05615958979334
 30
0.0
 40
3.2
  1
部品名
 41
0.8
  7
高3.2
100
AcDbText
  0
TEXT
  5
5824
330
295E
100
AcDbEntity
  8
0
 62
     3
100
AcDbText
 10
59.80849092462096
 20
23.05615958979334
 30
0.0
 40
3.2
  1
ACアダプター充電器
 41
0.8
  7
高3.2
100
AcDbText
  0
TEXT
  5
5825
330
295E
100
AcDbEntity
  8
0
 62
     3
100
AcDbText
 10
59.80849092462096
 20
28.05615958979334
 30
0.0
 40
3.2
  1
USBケーブル
 41
0.8
  7
高3.2
100
AcDbText
  0
LINE
  5
5826
330
295E
100
AcDbEntity
  8
0
100
AcDbLine
 10
58.30849092462096
 20
32.55615958979334
 30
0.0
 11
58.30849092462096
 21
17.55615958979334
 31
0.0
  0
TEXT
  5
5827
330
295E
100
AcDbEntity
  8
0
 62
     3
100
AcDbText
 10
92.07797832706944
 20
18.05615958979334
 30
0.0
 40
3.2
  1
個数
 41
0.8
  7
高3.2
100
AcDbText
  0
TEXT
  5
5828
330
295E
100
AcDbEntity
  8
0
 62
     3
100
AcDbText
 10
92.07797832706944
 20
23.05615958979334
 30
0.0
 40
3.2
  1
1
 41
0.8
  7
高3.2
100
AcDbText
  0
TEXT
  5
5829
330
295E
100
AcDbEntity
  8
0
 62
     3
100
AcDbText
 10
92.07797832706944
 20
28.05615958979334
 30
0.0
 40
3.2
  1
1
 41
0.8
  7
高3.2
100
AcDbText
  0
LINE
  5
582A
330
295E
100
AcDbEntity
  8
0
100
AcDbLine
 10
90.57797832706944
 20
32.55615958979334
 30
0.0
 11
90.57797832706944
 21
17.55615958979334
 31
0.0
  0
TEXT
  5
582B
330
295E
100
AcDbEntity
  8
0
 62
     3
100
AcDbText
 10
101.7571881829548
 20
18.05615958979334
 30
0.0
 40
3.2
  1
コード
 41
0.8
  7
高3.2
100
AcDbText
  0
TEXT
  5
582C
330
295E
100
AcDbEntity
  8
0
 62
     3
100
AcDbText
 10
101.7571881829548
 20
23.05615958979334
 30
0.0
 40
3.2
  1
56821
 41
0.8
  7
高3.2
100
AcDbText
  0
TEXT
  5
582D
330
295E
100
AcDbEntity
  8
0
 62
     3
100
AcDbText
 10
101.7571881829548
 20
28.05615958979334
 30
0.0
 40
3.2
  1
56822
 41
0.8
  7
高3.2
100
AcDbText
  0
LINE
  5
582E
330
295E
100
AcDbEntity
  8
0
100
AcDbLine
 10
100.2571881829548
 20
32.55615958979334
 30
0.0
 11
100.2571881829548
 21
17.55615958979334
 31
0.0
  0
LINE
  5
582F
330
295E
100
AcDbEntity
  8
0
 62
     3
100
AcDbLine
 10
116.2148043311503
 20
32.55615958979334
 30
0.0
 11
116.2148043311503
 21
17.55615958979334
 31
0.0
  0
LINE
  5
5873
330
295E
100
AcDbEntity
  8
0
100
AcDbLine
 10
131.706162208221
 20
113.1659263070829
 30
0.0
 11
139.9306026443982
 21
113.1659263070829
 31
0.0
  0
LINE
  5
5874
330
295E
100
AcDbEntity
  8
0
100
AcDbLine
 10
131.706162208221
 20
98.86592630708296
 30
0.0
 11
139.9306026443982
 21
98.86592630708296
 31
0.0
  0
LINE
  5
5875
330
295E
100
AcDbEntity
  8
0
100
AcDbLine
 10
138.6806026443982
 20
96.36592630708296
 30
0.0
 11
138.6806026443982
 21
93.86592630708296
 31
0.0
  0
LINE
  5
5876
330
295E
100
AcDbEntity
  8
0
100
AcDbLine
 10
138.6806026443982
 20
115.6659263070829
 30
0.0
 11
138.6806026443982
 21
131.815926307083
 31
0.0
  0
LINE
  5
5877
330
295E
100
AcDbEntity
  8
0
100
AcDbLine
 10
138.6806026443982
 20
98.86592630708296
 30
0.0
 11
138.6806026443982
 21
113.1659263070829
 31
0.0
  0
LINE
  5
587B
330
295E
100
AcDbEntity
  8
0
100
AcDbLine
 10
131.456162208221
 20
113.4159263070829
 30
0.0
 11
131.456162208221
 21
123.1422436688144
 31
0.0
  0
LINE
  5
587C
330
295E
100
AcDbEntity
  8
0
100
AcDbLine
 10
117.206162208221
 20
112.4159263070829
 30
0.0
 11
117.206162208221
 21
123.1422436688144
 31
0.0
  0
LINE
  5
587D
330
295E
100
AcDbEntity
  8
0
100
AcDbLine
 10
128.956162208221
 20
121.8922436688144
 30
0.0
 11
119.706162208221
 21
121.8922436688144
 31
0.0
  0
LINE
  5
5881
330
295E
100
AcDbEntity
  8
0
100
AcDbLine
 10
168.5319959825372
 20
107.7659263070829
 30
0.0
 11
168.5319959825372
 21
118.7702288413401
 31
0.0
  0
LINE
  5
5882
330
295E
100
AcDbEntity
  8
0
100
AcDbLine
 10
251.0794728242529
 20
107.7659263070829
 30
0.0
 11
251.0794728242529
 21
118.7702288413401
 31
0.0
  0
LINE
  5
5883
330
295E
100
AcDbEntity
  8
0
100
AcDbLine
 10
171.0319959825372
 20
117.5202288413401
 30
0.0
 11
248.5794728242529
 21
117.5202288413401
 31
0.0
  0
TEXT
  5
5887
330
295E
100
AcDbEntity
  8
0
 62
     4
100
AcDbText
 10
68.52032580662208
 20
207.438440869839
 30
0.0
 40
3.0
  1
電源スイッチ
100
AcDbText
1001
ACAD
1000
MTEXTBEGIN
1070
    73
1070
     1
1070
    44
1040
1.0
1070
    74
1070
     0
1000
MTEXTEND
  0
TEXT
  5
588A
330
295E
100
AcDbEntity
  8
0
 62
     4
100
AcDbText
 10
155.3368669464134
 20
206.8896576355605
 30
0.0
 40
3.0
  1
赤外線センサー
100
AcDbText
1001
ACAD
1000
MTEXTBEGIN
1070
    73
1070
     1
1070
    44
1040
1.0
1070
    74
1070
     0
1000
MTEXTEND
  0
TEXT
  5
588B
330
295E
100
AcDbEntity
  8
0
 62
     4
100
AcDbText
 10
155.1368669464134
 20
201.8896576355605
 30
0.0
 40
3.0
  1
スイッチ
100
AcDbText
1001
ACAD
1000
MTEXTBEGIN
1070
    73
1070
     1
1070
    44
1040
1.0
1070
    74
1070
     0
1000
MTEXTEND
  0
LINE
  5
588E
330
295E
100
AcDbEntity
  8
0
100
AcDbLine
 10
174.1850015204776
 20
187.5971287761323
 30
0.0
 11
166.8309136303658
 21
187.5971287761322
 31
0.0
  0
ARC
  5
588F
330
295E
100
AcDbEntity
  8
0
100
AcDbCircle
 10
198.9005394626928
 20
187.5971287761323
 30
0.0
 40
30.81962583232694
100
AcDbArc
 50
184.6489451263717
 51
260.3510548736289
  0
LINE
  5
5893
330
295E
100
AcDbEntity
  8
0
100
AcDbLine
 10
207.9359067988792
 20
198.8367555918689
 30
0.0
 11
207.9359067988792
 21
204.9124305843716
 31
0.0
  0
LINE
  5
5894
330
295E
100
AcDbEntity
  8
0
100
AcDbLine
 10
191.4359067988791
 20
195.0971287761323
 30
0.0
 11
191.4359067988791
 21
204.9124305843716
 31
0.0
  0
LINE
  5
5895
330
295E
100
AcDbEntity
  8
0
100
AcDbLine
 10
205.4359067988792
 20
203.6624305843716
 30
0.0
 11
193.9359067988791
 21
203.6624305843716
 31
0.0
  0
LINE
  5
5899
330
295E
100
AcDbEntity
  8
0
100
AcDbLine
 10
122.1149354660276
 20
199.5867555918689
 30
0.0
 11
81.13188410942759
 21
199.5867555918689
 31
0.0
  0
LINE
  5
589A
330
295E
100
AcDbEntity
  8
0
100
AcDbLine
 10
116.8649354660254
 20
174.7367555918689
 30
0.0
 11
81.13188410942759
 21
174.7367555918689
 31
0.0
  0
LINE
  5
589B
330
295E
100
AcDbEntity
  8
0
100
AcDbLine
 10
82.38188410942759
 20
197.0867555918689
 30
0.0
 11
82.38188410942759
 21
177.2367555918689
 31
0.0
  0
LINE
  5
589F
330
295E
100
AcDbEntity
  8
0
100
AcDbLine
 10
122.1149354660276
 20
199.5867555918689
 30
0.0
 11
87.29177981265822
 21
199.5867555918689
 31
0.0
  0
LINE
  5
58A0
330
295E
100
AcDbEntity
  8
0
100
AcDbLine
 10
99.18913937969307
 20
176.486755591869
 30
0.0
 11
87.29177981265822
 21
176.486755591869
 31
0.0
  0
LINE
  5
58A1
330
295E
100
AcDbEntity
  8
0
100
AcDbLine
 10
88.54177981265822
 20
197.0867555918689
 30
0.0
 11
88.54177981265822
 21
178.986755591869
 31
0.0
  0
LINE
  5
58A5
330
295E
100
AcDbEntity
  8
0
100
AcDbLine
 10
97.36493546602538
 20
189.2800681143598
 30
0.0
 11
97.36493546602538
 21
212.0650448398894
 31
0.0
  0
LINE
  5
58A6
330
295E
100
AcDbEntity
  8
0
100
AcDbLine
 10
147.3649354660254
 20
189.2800681143598
 30
0.0
 11
147.3649354660254
 21
212.0650448398894
 31
0.0
  0
LINE
  5
58A7
330
295E
100
AcDbEntity
  8
0
100
AcDbLine
 10
99.86493546602538
 20
210.8150448398894
 30
0.0
 11
144.8649354660254
 21
210.8150448398894
 31
0.0
  0
LINE
  5
58AB
330
295E
100
AcDbEntity
  8
0
 62
     3
100
AcDbLine
 10
240.3090482513708
 20
292.0967881297933
 30
0.0
 11
240.2824375013708
 21
292.2671706497932
 31
0.0
  0
LINE
  5
58AC
330
295E
100
AcDbEntity
  8
0
 62
     3
100
AcDbLine
 10
240.2824375013708
 20
292.2671706497932
 30
0.0
 11
240.2504786713708
 21
292.4303203397933
 31
0.0
  0
LINE
  5
58AD
330
295E
100
AcDbEntity
  8
0
 62
     3
100
AcDbLine
 10
240.2504786713708
 20
292.4303203397933
 30
0.0
 11
240.2134187713708
 21
292.5849761397933
 31
0.0
  0
LINE
  5
58AE
330
295E
100
AcDbEntity
  8
0
 62
     3
100
AcDbLine
 10
240.2134187713708
 20
292.5849761397933
 30
0.0
 11
240.1715442713708
 21
292.7299426397933
 31
0.0
  0
LINE
  5
58AF
330
295E
100
AcDbEntity
  8
0
 62
     3
100
AcDbLine
 10
240.1715442713708
 20
292.7299426397933
 30
0.0
 11
240.1251788413708
 21
292.8640993297934
 31
0.0
  0
LINE
  5
58B0
330
295E
100
AcDbEntity
  8
0
 62
     3
100
AcDbLine
 10
240.1251788413708
 20
292.8640993297934
 30
0.0
 11
240.0746808513708
 21
292.9864092297933
 31
0.0
  0
LINE
  5
58B1
330
295E
100
AcDbEntity
  8
0
 62
     3
100
AcDbLine
 10
240.0746808513708
 20
292.9864092297933
 30
0.0
 11
240.0204406313708
 21
293.0959269697932
 31
0.0
  0
LINE
  5
58B2
330
295E
100
AcDbEntity
  8
0
 62
     3
100
AcDbLine
 10
240.0204406313708
 20
293.0959269697932
 30
0.0
 11
239.9628774313708
 21
293.1918060197933
 31
0.0
  0
LINE
  5
58B3
330
295E
100
AcDbEntity
  8
0
 62
     3
100
AcDbLine
 10
239.9628774313708
 20
293.1918060197933
 30
0.0
 11
239.9024361813708
 21
293.2733052897932
 31
0.0
  0
LINE
  5
58B4
330
295E
100
AcDbEntity
  8
0
 62
     3
100
AcDbLine
 10
239.9024361813708
 20
293.2733052897932
 30
0.0
 11
239.8395840613708
 21
293.3397948297932
 31
0.0
  0
LINE
  5
58B5
330
295E
100
AcDbEntity
  8
0
 62
     3
100
AcDbLine
 10
239.8395840613708
 20
293.3397948297932
 30
0.0
 11
239.7748068813708
 21
293.3907607097932
 31
0.0
  0
LINE
  5
58B6
330
295E
100
AcDbEntity
  8
0
 62
     3
100
AcDbLine
 10
239.7748068813708
 20
293.3907607097932
 30
0.0
 11
239.7086053513708
 21
293.4258089897933
 31
0.0
  0
LINE
  5
58B7
330
295E
100
AcDbEntity
  8
0
 62
     3
100
AcDbLine
 10
239.7086053513708
 20
293.4258089897933
 30
0.0
 11
239.6414911613708
 21
293.4446687597932
 31
0.0
  0
LINE
  5
58B8
330
295E
100
AcDbEntity
  8
0
 62
     3
100
AcDbLine
 10
239.6414911613708
 20
293.4446687597932
 30
0.0
 11
239.5739830713708
 21
293.4471942597933
 31
0.0
  0
LINE
  5
58B9
330
295E
100
AcDbEntity
  8
0
 62
     3
100
AcDbLine
 10
239.5739830713708
 20
293.4471942597933
 30
0.0
 11
239.5066028813708
 21
293.4333659497933
 31
0.0
  0
LINE
  5
58BA
330
295E
100
AcDbEntity
  8
0
 62
     3
100
AcDbLine
 10
239.5066028813708
 20
293.4333659497933
 30
0.0
 11
239.4398714113709
 21
293.4032907197932
 31
0.0
  0
LINE
  5
58BB
330
295E
100
AcDbEntity
  8
0
 62
     3
100
AcDbLine
 10
239.4398714113709
 20
293.4032907197932
 30
0.0
 11
239.3743044713708
 21
293.3572010497932
 31
0.0
  0
LINE
  5
58BC
330
295E
100
AcDbEntity
  8
0
 62
     3
100
AcDbLine
 10
239.3743044713708
 20
293.3572010497932
 30
0.0
 11
239.3104088313708
 21
293.2954531697932
 31
0.0
  0
LINE
  5
58BD
330
295E
100
AcDbEntity
  8
0
 62
     3
100
AcDbLine
 10
239.3104088313708
 20
293.2954531697932
 30
0.0
 11
239.2486784013708
 21
293.2185243797932
 31
0.0
  0
LINE
  5
58BE
330
295E
100
AcDbEntity
  8
0
 62
     3
100
AcDbLine
 10
239.2486784013708
 20
293.2185243797932
 30
0.0
 11
239.1895903113708
 21
293.1270092797934
 31
0.0
  0
LINE
  5
58BF
330
295E
100
AcDbEntity
  8
0
 62
     3
100
AcDbLine
 10
239.1895903113708
 20
293.1270092797934
 30
0.0
 11
239.1336012813708
 21
293.0216152497932
 31
0.0
  0
LINE
  5
58C0
330
295E
100
AcDbEntity
  8
0
 62
     3
100
AcDbLine
 10
239.1336012813708
 20
293.0216152497932
 30
0.0
 11
239.0811440813708
 21
292.9031569197932
 31
0.0
  0
LINE
  5
58C1
330
295E
100
AcDbEntity
  8
0
 62
     3
100
AcDbLine
 10
239.0811440813708
 20
292.9031569197932
 30
0.0
 11
239.0326241813708
 21
292.7725499097933
 31
0.0
  0
LINE
  5
58C2
330
295E
100
AcDbEntity
  8
0
 62
     3
100
AcDbLine
 10
239.0326241813708
 20
292.7725499097933
 30
0.0
 11
238.9884166013708
 21
292.6308037597932
 31
0.0
  0
LINE
  5
58C3
330
295E
100
AcDbEntity
  8
0
 62
     3
100
AcDbLine
 10
238.9884166013708
 20
292.6308037597932
 30
0.0
 11
238.9488630613707
 21
292.4790140897932
 31
0.0
  0
LINE
  5
58C4
330
295E
100
AcDbEntity
  8
0
 62
     3
100
AcDbLine
 10
238.9488630613707
 20
292.4790140897932
 30
0.0
 11
238.9142692813708
 21
292.3183541497934
 31
0.0
  0
LINE
  5
58C5
330
295E
100
AcDbEntity
  8
0
 62
     3
100
AcDbLine
 10
238.9142692813708
 20
292.3183541497934
 30
0.0
 11
238.8849026513708
 21
292.1500657597932
 31
0.0
  0
LINE
  5
58C6
330
295E
100
AcDbEntity
  8
0
 62
     3
100
AcDbLine
 10
238.8849026513708
 20
292.1500657597932
 30
0.0
 11
238.8609901613709
 21
291.9754496997932
 31
0.0
  0
LINE
  5
58C7
330
295E
100
AcDbEntity
  8
0
 62
     3
100
AcDbLine
 10
238.8609901613709
 20
291.9754496997932
 30
0.0
 11
238.8427166513708
 21
291.7958556697934
 31
0.0
  0
LINE
  5
58C8
330
295E
100
AcDbEntity
  8
0
 62
     3
100
AcDbLine
 10
238.8427166513708
 20
291.7958556697934
 30
0.0
 11
238.8302233513708
 21
291.6126718297933
 31
0.0
  0
LINE
  5
58C9
330
295E
100
AcDbEntity
  8
0
 62
     3
100
AcDbLine
 10
238.8302233513708
 20
291.6126718297933
 30
0.0
 11
238.8236068413708
 21
291.4273141097933
 31
0.0
  0
LINE
  5
58CA
330
295E
100
AcDbEntity
  8
0
 62
     3
100
AcDbLine
 10
238.8236068413708
 20
291.4273141097933
 30
0.0
 11
238.8229182513708
 21
291.2412152097933
 31
0.0
  0
LINE
  5
58CB
330
295E
100
AcDbEntity
  8
0
 62
     3
100
AcDbLine
 10
238.8229182513708
 20
291.2412152097933
 30
0.0
 11
238.8281629113708
 21
291.0558135997932
 31
0.0
  0
LINE
  5
58CC
330
295E
100
AcDbEntity
  8
0
 62
     3
100
AcDbLine
 10
238.8281629113708
 20
291.0558135997932
 30
0.0
 11
238.8393002813708
 21
290.8725423297933
 31
0.0
  0
LINE
  5
58CD
330
295E
100
AcDbEntity
  8
0
 62
     3
100
AcDbLine
 10
238.8393002813708
 20
290.8725423297933
 30
0.0
 11
238.8562442813708
 21
290.6928179897933
 31
0.0
  0
LINE
  5
58CE
330
295E
100
AcDbEntity
  8
0
 62
     3
100
AcDbLine
 10
238.8562442813708
 20
290.6928179897933
 30
0.0
 11
238.8788639313708
 21
290.5180297597933
 31
0.0
  0
LINE
  5
58CF
330
295E
100
AcDbEntity
  8
0
 62
     3
100
AcDbLine
 10
238.8788639313708
 20
290.5180297597933
 30
0.0
 11
238.9069844013708
 21
290.3495286597934
 31
0.0
  0
LINE
  5
58D0
330
295E
100
AcDbEntity
  8
0
 62
     3
100
AcDbLine
 10
238.9069844013708
 20
290.3495286597934
 30
0.0
 11
238.9403883313708
 21
290.1886171197933
 31
0.0
  0
LINE
  5
58D1
330
295E
100
AcDbEntity
  8
0
 62
     3
100
AcDbLine
 10
238.9403883313708
 20
290.1886171197933
 30
0.0
 11
238.9788175313709
 21
290.0365388997933
 31
0.0
  0
LINE
  5
58D2
330
295E
100
AcDbEntity
  8
0
 62
     3
100
AcDbLine
 10
238.9788175313709
 20
290.0365388997933
 30
0.0
 11
239.0219749513708
 21
289.8944694897933
 31
0.0
  0
LINE
  5
58D3
330
295E
100
AcDbEntity
  8
0
 62
     3
100
AcDbLine
 10
239.0219749513708
 20
289.8944694897933
 30
0.0
 11
239.0695270213707
 21
289.7635070097932
 31
0.0
  0
LINE
  5
58D4
330
295E
100
AcDbEntity
  8
0
 62
     3
100
AcDbLine
 10
239.0695270213707
 20
289.7635070097932
 30
0.0
 11
239.1211061713708
 21
289.6446637297934
 31
0.0
  0
LINE
  5
58D5
330
295E
100
AcDbEntity
  8
0
 62
     3
100
AcDbLine
 10
239.1211061713708
 20
289.6446637297934
 30
0.0
 11
239.1763137413708
 21
289.5388582597933
 31
0.0
  0
LINE
  5
58D6
330
295E
100
AcDbEntity
  8
0
 62
     3
100
AcDbLine
 10
239.1763137413708
 20
289.5388582597933
 30
0.0
 11
239.2347229913708
 21
289.4469083997933
 31
0.0
  0
LINE
  5
58D7
330
295E
100
AcDbEntity
  8
0
 62
     3
100
AcDbLine
 10
239.2347229913708
 20
289.4469083997933
 30
0.0
 11
239.2958824513708
 21
289.3695248997933
 31
0.0
  0
LINE
  5
58D8
330
295E
100
AcDbEntity
  8
0
 62
     3
100
AcDbLine
 10
239.2958824513708
 20
289.3695248997933
 30
0.0
 11
239.3593193913708
 21
289.3073058797932
 31
0.0
  0
LINE
  5
58D9
330
295E
100
AcDbEntity
  8
0
 62
     3
100
AcDbLine
 10
239.3593193913708
 20
289.3073058797932
 30
0.0
 11
239.4245434713708
 21
289.2607322697933
 31
0.0
  0
LINE
  5
58DA
330
295E
100
AcDbEntity
  8
0
 62
     3
100
AcDbLine
 10
239.4245434713708
 20
289.2607322697933
 30
0.0
 11
239.4910505513708
 21
289.2301640397932
 31
0.0
  0
LINE
  5
58DB
330
295E
100
AcDbEntity
  8
0
 62
     3
100
AcDbLine
 10
239.4910505513708
 20
289.2301640397932
 30
0.0
 11
239.5583265613708
 21
289.2158374897932
 31
0.0
  0
LINE
  5
58DC
330
295E
100
AcDbEntity
  8
0
 62
     3
100
AcDbLine
 10
239.5583265613708
 20
289.2158374897932
 30
0.0
 11
239.6258514913708
 21
289.2178633497934
 31
0.0
  0
LINE
  5
58DD
330
295E
100
AcDbEntity
  8
0
 62
     3
100
AcDbLine
 10
239.6258514913708
 20
289.2178633497934
 30
0.0
 11
239.6931034113708
 21
289.2362259497933
 31
0.0
  0
LINE
  5
58DE
330
295E
100
AcDbEntity
  8
0
 62
     3
100
AcDbLine
 10
239.6931034113708
 20
289.2362259497933
 30
0.0
 11
239.7595624913709
 21
289.2707833697933
 31
0.0
  0
LINE
  5
58DF
330
295E
100
AcDbEntity
  8
0
 62
     3
100
AcDbLine
 10
239.7595624913709
 20
289.2707833697933
 30
0.0
 11
239.8247150513707
 21
289.3212684997932
 31
0.0
  0
LINE
  5
58E0
330
295E
100
AcDbEntity
  8
0
 62
     3
100
AcDbLine
 10
239.8247150513707
 20
289.3212684997932
 30
0.0
 11
239.8880574813708
 21
289.3872910997932
 31
0.0
  0
LINE
  5
58E1
330
295E
100
AcDbEntity
  8
0
 62
     3
100
AcDbLine
 10
239.8880574813708
 20
289.3872910997932
 30
0.0
 11
239.9491001813708
 21
289.4683408597932
 31
0.0
  0
LINE
  5
58E2
330
295E
100
AcDbEntity
  8
0
 62
     3
100
AcDbLine
 10
239.9491001813708
 20
289.4683408597932
 30
0.0
 11
240.0073713213708
 21
289.5637913097933
 31
0.0
  0
LINE
  5
58E3
330
295E
100
AcDbEntity
  8
0
 62
     3
100
AcDbLine
 10
240.0073713213708
 20
289.5637913097933
 30
0.0
 11
240.0624205013707
 21
289.6729046697933
 31
0.0
  0
LINE
  5
58E4
330
295E
100
AcDbEntity
  8
0
 62
     3
100
AcDbLine
 10
240.0624205013707
 20
289.6729046697933
 30
0.0
 11
240.1138222213708
 21
289.7948375297933
 31
0.0
  0
LINE
  5
58E5
330
295E
100
AcDbEntity
  8
0
 62
     3
100
AcDbLine
 10
240.1138222213708
 20
289.7948375297933
 30
0.0
 11
240.1611791613708
 21
289.9286474397932
 31
0.0
  0
LINE
  5
58E6
330
295E
100
AcDbEntity
  8
0
 62
     3
100
AcDbLine
 10
240.1611791613708
 20
289.9286474397932
 30
0.0
 11
240.2041252813708
 21
290.0733000897933
 31
0.0
  0
LINE
  5
58E7
330
295E
100
AcDbEntity
  8
0
 62
     3
100
AcDbLine
 10
240.2041252813708
 20
290.0733000897933
 30
0.0
 11
240.2423286313708
 21
290.2276774097932
 31
0.0
  0
LINE
  5
58E8
330
295E
100
AcDbEntity
  8
0
 62
     3
100
AcDbLine
 10
240.2423286313708
 20
290.2276774097932
 30
0.0
 11
240.2754939213707
 21
290.3905861397933
 31
0.0
  0
LINE
  5
58E9
330
295E
100
AcDbEntity
  8
0
 62
     3
100
AcDbLine
 10
240.2754939213707
 20
290.3905861397933
 30
0.0
 11
240.3033648013708
 21
290.5607670697932
 31
0.0
  0
LINE
  5
58EA
330
295E
100
AcDbEntity
  8
0
100
AcDbLine
 10
189.3604181339446
 20
102.9815017421818
 30
0.0
 11
197.5963777723967
 21
88.86329801483528
 31
0.0
1001
ACAD
1000
DSTYLE
1002
{
1070
   147
1040
0.625
1070
    77
1070
     0
1002
}
  0
LINE
  5
58EB
330
295E
100
AcDbEntity
  8
0
  6
ByBlock
 62
     0
100
AcDbLine
 10
188.7818024812038
 20
102.643961977621
 30
0.0
 11
188.1007016783476
 21
105.1409263070829
 31
0.0
  0
LINE
  5
58EC
330
295E
100
AcDbEntity
  8
0
  6
ByBlock
 62
     0
100
AcDbLine
 10
188.1007016783476
 20
105.1409263070829
 30
0.0
 11
189.9390337866852
 21
103.3190415067425
 31
0.0
  0
LINE
  5
58ED
330
295E
100
AcDbEntity
  8
0
  6
ByBlock
 62
     0
100
AcDbLine
 10
188.1007016783476
 20
105.1409263070829
 30
0.0
 11
189.3604181339446
 21
102.9815017421818
 31
0.0
  0
LINE
  5
58EE
330
295E
100
AcDbEntity
  8
0
100
AcDbLine
 10
125.1379720930549
 20
96.42872242719288
 30
0.0
 11
126.7394641106879
 21
89.41885664481317
 31
0.0
1001
ACAD
1000
DSTYLE
1002
{
1070
   147
1040
0.625
1070
    77
1070
     0
1002
}
  0
LINE
  5
58EF
330
295E
100
AcDbEntity
  8
0
  6
ByBlock
 62
     0
100
AcDbLine
 10
124.4849257506422
 20
96.27952577536152
 30
0.0
 11
124.581162208221
 21
98.86592630708296
 31
0.0
  0
LINE
  5
58F0
330
295E
100
AcDbEntity
  8
0
  6
ByBlock
 62
     0
100
AcDbLine
 10
124.581162208221
 20
98.86592630708296
 30
0.0
 11
125.7910184354676
 21
96.57791907902426
 31
0.0
  0
LINE
  5
58F1
330
295E
100
AcDbEntity
  8
0
  6
ByBlock
 62
     0
100
AcDbLine
 10
124.581162208221
 20
98.86592630708296
 30
0.0
 11
125.1379720930549
 21
96.42872242719288
 31
0.0
  0
TEXT
  5
58F2
330
295E
100
AcDbEntity
  8
0
 62
     4
100
AcDbText
 10
138.0556026443982
 20
118.590926307083
 30
0.0
 40
3.0
  1
□28.6
 50
90.0
100
AcDbText
  0
LINE
  5
58F3
330
295E
100
AcDbEntity
  8
0
  6
ByBlock
 62
     0
100
AcDbLine
 10
139.3504751443982
 20
115.6659263070829
 30
0.0
 11
138.6806026443982
 21
113.1659263070829
 31
0.0
  0
LINE
  5
58F4
330
295E
100
AcDbEntity
  8
0
  6
ByBlock
 62
     0
100
AcDbLine
 10
138.6806026443982
 20
113.1659263070829
 30
0.0
 11
138.0107301443982
 21
115.6659263070829
 31
0.0
  0
LINE
  5
58F5
330
295E
100
AcDbEntity
  8
0
  6
ByBlock
 62
     0
100
AcDbLine
 10
138.6806026443982
 20
113.1659263070829
 30
0.0
 11
138.6806026443982
 21
115.6659263070829
 31
0.0
  0
LINE
  5
58F6
330
295E
100
AcDbEntity
  8
0
  6
ByBlock
 62
     0
100
AcDbLine
 10
138.0107301443982
 20
96.36592630708296
 30
0.0
 11
138.6806026443982
 21
98.86592630708296
 31
0.0
  0
LINE
  5
58F7
330
295E
100
AcDbEntity
  8
0
  6
ByBlock
 62
     0
100
AcDbLine
 10
138.6806026443982
 20
98.86592630708296
 30
0.0
 11
139.3504751443982
 21
96.36592630708296
 31
0.0
  0
LINE
  5
58F8
330
295E
100
AcDbEntity
  8
0
  6
ByBlock
 62
     0
100
AcDbLine
 10
138.6806026443982
 20
98.86592630708296
 30
0.0
 11
138.6806026443982
 21
96.36592630708296
 31
0.0
  0
TEXT
  5
58F9
330
295E
100
AcDbEntity
  8
0
 62
     4
100
AcDbText
 10
119.7505444385651
 20
122.5172436688144
 30
0.0
 40
3.0
  1
28.5
100
AcDbText
  0
LINE
  5
58FA
330
295E
100
AcDbEntity
  8
0
  6
ByBlock
 62
     0
100
AcDbLine
 10
119.706162208221
 20
121.2223711688144
 30
0.0
 11
117.206162208221
 21
121.8922436688144
 31
0.0
  0
LINE
  5
58FB
330
295E
100
AcDbEntity
  8
0
  6
ByBlock
 62
     0
100
AcDbLine
 10
117.206162208221
 20
121.8922436688144
 30
0.0
 11
119.706162208221
 21
122.5621161688144
 31
0.0
  0
LINE
  5
58FC
330
295E
100
AcDbEntity
  8
0
  6
ByBlock
 62
     0
100
AcDbLine
 10
117.206162208221
 20
121.8922436688144
 30
0.0
 11
119.706162208221
 21
121.8922436688144
 31
0.0
  0
LINE
  5
58FD
330
295E
100
AcDbEntity
  8
0
  6
ByBlock
 62
     0
100
AcDbLine
 10
128.956162208221
 20
122.5621161688144
 30
0.0
 11
131.456162208221
 21
121.8922436688144
 31
0.0
  0
LINE
  5
58FE
330
295E
100
AcDbEntity
  8
0
  6
ByBlock
 62
     0
100
AcDbLine
 10
131.456162208221
 20
121.8922436688144
 30
0.0
 11
128.956162208221
 21
121.2223711688144
 31
0.0
  0
LINE
  5
58FF
330
295E
100
AcDbEntity
  8
0
  6
ByBlock
 62
     0
100
AcDbLine
 10
131.456162208221
 20
121.8922436688144
 30
0.0
 11
128.956162208221
 21
121.8922436688144
 31
0.0
  0
TEXT
  5
5900
330
295E
100
AcDbEntity
  8
0
 62
     4
100
AcDbText
 10
203.7583749101209
 20
118.1452288413401
 30
0.0
 40
3.0
  1
(1140)
100
AcDbText
  0
LINE
  5
5901
330
295E
100
AcDbEntity
  8
0
  6
ByBlock
 62
     0
100
AcDbLine
 10
248.5794728242529
 20
118.1901013413401
 30
0.0
 11
251.0794728242529
 21
117.5202288413401
 31
0.0
  0
LINE
  5
5902
330
295E
100
AcDbEntity
  8
0
  6
ByBlock
 62
     0
100
AcDbLine
 10
251.0794728242529
 20
117.5202288413401
 30
0.0
 11
248.5794728242529
 21
116.8503563413401
 31
0.0
  0
LINE
  5
5903
330
295E
100
AcDbEntity
  8
0
  6
ByBlock
 62
     0
100
AcDbLine
 10
251.0794728242529
 20
117.5202288413401
 30
0.0
 11
248.5794728242529
 21
117.5202288413401
 31
0.0
  0
LINE
  5
5904
330
295E
100
AcDbEntity
  8
0
  6
ByBlock
 62
     0
100
AcDbLine
 10
171.0319959825372
 20
116.8503563413401
 30
0.0
 11
168.5319959825372
 21
117.5202288413401
 31
0.0
  0
LINE
  5
5905
330
295E
100
AcDbEntity
  8
0
  6
ByBlock
 62
     0
100
AcDbLine
 10
168.5319959825372
 20
117.5202288413401
 30
0.0
 11
171.0319959825372
 21
118.1901013413401
 31
0.0
  0
LINE
  5
5906
330
295E
100
AcDbEntity
  8
0
  6
ByBlock
 62
     0
100
AcDbLine
 10
168.5319959825372
 20
117.5202288413401
 30
0.0
 11
171.0319959825372
 21
117.5202288413401
 31
0.0
  0
LINE
  5
5907
330
295E
100
AcDbEntity
  8
0
100
AcDbLine
 10
97.10049340272519
 20
190.0186669608287
 30
0.0
 11
92.24532580662209
 21
208.938440869839
 31
0.0
1001
ACAD
1000
DSTYLE
1002
{
1070
   147
1040
0.625
1070
    77
1070
     0
1002
}
  0
LINE
  5
5908
330
295E
100
AcDbEntity
  8
0
100
AcDbLine
 10
92.24532580662209
 20
208.938440869839
 30
0.0
 11
89.74532580662209
 21
208.938440869839
 31
0.0
1001
ACAD
1000
DSTYLE
1002
{
1070
   147
1040
0.625
1070
    77
1070
     0
1002
}
  0
LINE
  5
5909
330
295E
100
AcDbEntity
  8
0
  6
ByBlock
 62
     0
100
AcDbLine
 10
97.74934213777639
 20
190.1851736732421
 30
0.0
 11
97.72190535952795
 21
187.5971287761324
 31
0.0
  0
LINE
  5
590A
330
295E
100
AcDbEntity
  8
0
  6
ByBlock
 62
     0
100
AcDbLine
 10
97.72190535952795
 20
187.5971287761324
 30
0.0
 11
96.45164466767397
 21
189.8521602484154
 31
0.0
  0
LINE
  5
590B
330
295E
100
AcDbEntity
  8
0
  6
ByBlock
 62
     0
100
AcDbLine
 10
97.72190535952795
 20
187.5971287761324
 30
0.0
 11
97.10049340272519
 21
190.0186669608287
 31
0.0
  0
LINE
  5
590C
330
295E
100
AcDbEntity
  8
0
100
AcDbLine
 10
147.6149379347749
 20
190.0223266137246
 30
0.0
 11
152.2118669464134
 21
208.3896576355605
 31
0.0
1001
ACAD
1000
DSTYLE
1002
{
1070
   147
1040
0.625
1070
    77
1070
     0
1002
}
  0
LINE
  5
590D
330
295E
100
AcDbEntity
  8
0
100
AcDbLine
 10
152.2118669464134
 20
208.3896576355605
 30
0.0
 11
154.7118669464134
 21
208.3896576355605
 31
0.0
1001
ACAD
1000
DSTYLE
1002
{
1070
   147
1040
0.625
1070
    77
1070
     0
1002
}
  0
LINE
  5
590E
330
295E
100
AcDbEntity
  8
0
  6
ByBlock
 62
     0
100
AcDbLine
 10
148.2647672701599
 20
189.8596889762315
 30
0.0
 11
147.0079655725228
 21
187.5971287761324
 31
0.0
  0
LINE
  5
590F
330
295E
100
AcDbEntity
  8
0
  6
ByBlock
 62
     0
100
AcDbLine
 10
147.0079655725228
 20
187.5971287761324
 30
0.0
 11
146.9651085993899
 21
190.1849642512177
 31
0.0
  0
LINE
  5
5910
330
295E
100
AcDbEntity
  8
0
  6
ByBlock
 62
     0
100
AcDbLine
 10
147.0079655725228
 20
187.5971287761324
 30
0.0
 11
147.6149379347749
 21
190.0223266137246
 31
0.0
  0
TEXT
  5
5911
330
295E
100
AcDbEntity
  8
0
 62
     4
100
AcDbText
 10
174.2741604164019
 20
169.7784059200286
 30
0.0
 40
3.0
  1
85\U+00B0
 50
312.5000000000004
100
AcDbText
  0
LINE
  5
5912
330
295E
100
AcDbEntity
  8
0
  6
ByBlock
 62
     0
100
AcDbLine
 10
193.8202327641274
 20
157.8779079726452
 30
0.0
 11
196.2144320820717
 21
156.8947809247968
 31
0.0
  0
LINE
  5
5913
330
295E
100
AcDbEntity
  8
0
  6
ByBlock
 62
     0
100
AcDbLine
 10
196.2144320820717
 20
156.8947809247968
 30
0.0
 11
193.6494310029549
 21
156.5490951854531
 31
0.0
  0
LINE
  5
5914
330
295E
100
AcDbEntity
  8
0
  6
ByBlock
 62
     0
100
AcDbLine
 10
196.2144320820717
 20
156.8947809247968
 30
0.0
 11
193.7348318835411
 21
157.2135015790491
 31
0.0
  0
LINE
  5
5915
330
295E
100
AcDbEntity
  8
0
  6
ByBlock
 62
     0
100
AcDbLine
 10
167.5129887554268
 20
185.0720167978862
 30
0.0
 11
168.0809136303658
 21
187.5971287761323
 31
0.0
  0
LINE
  5
5916
330
295E
100
AcDbEntity
  8
0
  6
ByBlock
 62
     0
100
AcDbLine
 10
168.0809136303658
 20
187.5971287761323
 30
0.0
 11
168.8516313631417
 21
185.1263549413507
 31
0.0
  0
LINE
  5
5917
330
295E
100
AcDbEntity
  8
0
  6
ByBlock
 62
     0
100
AcDbLine
 10
168.0809136303658
 20
187.5971287761323
 30
0.0
 11
168.1823100592843
 21
185.0991858696185
 31
0.0
  0
TEXT
  5
5918
330
295E
100
AcDbEntity
  8
0
 62
     4
100
AcDbText
 10
197.5853983021484
 20
204.2874305843716
 30
0.0
 40
3.0
  1
33
100
AcDbText
  0
LINE
  5
5919
330
295E
100
AcDbEntity
  8
0
  6
ByBlock
 62
     0
100
AcDbLine
 10
193.9359067988791
 20
202.9925580843716
 30
0.0
 11
191.4359067988791
 21
203.6624305843716
 31
0.0
  0
LINE
  5
591A
330
295E
100
AcDbEntity
  8
0
  6
ByBlock
 62
     0
100
AcDbLine
 10
191.4359067988791
 20
203.6624305843716
 30
0.0
 11
193.9359067988791
 21
204.3323030843716
 31
0.0
  0
LINE
  5
591B
330
295E
100
AcDbEntity
  8
0
  6
ByBlock
 62
     0
100
AcDbLine
 10
191.4359067988791
 20
203.6624305843716
 30
0.0
 11
193.9359067988791
 21
203.6624305843716
 31
0.0
  0
LINE
  5
591C
330
295E
100
AcDbEntity
  8
0
  6
ByBlock
 62
     0
100
AcDbLine
 10
205.4359067988792
 20
204.3323030843716
 30
0.0
 11
207.9359067988792
 21
203.6624305843716
 31
0.0
  0
LINE
  5
591D
330
295E
100
AcDbEntity
  8
0
  6
ByBlock
 62
     0
100
AcDbLine
 10
207.9359067988792
 20
203.6624305843716
 30
0.0
 11
205.4359067988792
 21
202.9925580843716
 31
0.0
  0
LINE
  5
591E
330
295E
100
AcDbEntity
  8
0
  6
ByBlock
 62
     0
100
AcDbLine
 10
207.9359067988792
 20
203.6624305843716
 30
0.0
 11
205.4359067988792
 21
203.6624305843716
 31
0.0
  0
TEXT
  5
591F
330
295E
100
AcDbEntity
  8
0
 62
     4
100
AcDbText
 10
81.75688410942758
 20
183.2582669960611
 30
0.0
 40
3.0
  1
49.7
 50
90.0
100
AcDbText
  0
LINE
  5
5920
330
295E
100
AcDbEntity
  8
0
  6
ByBlock
 62
     0
100
AcDbLine
 10
83.0517566094276
 20
177.2367555918689
 30
0.0
 11
82.38188410942759
 21
174.7367555918689
 31
0.0
  0
LINE
  5
5921
330
295E
100
AcDbEntity
  8
0
  6
ByBlock
 62
     0
100
AcDbLine
 10
82.38188410942759
 20
174.7367555918689
 30
0.0
 11
81.71201160942761
 21
177.2367555918689
 31
0.0
  0
LINE
  5
5922
330
295E
100
AcDbEntity
  8
0
  6
ByBlock
 62
     0
100
AcDbLine
 10
82.38188410942759
 20
174.7367555918689
 30
0.0
 11
82.38188410942759
 21
177.2367555918689
 31
0.0
  0
LINE
  5
5923
330
295E
100
AcDbEntity
  8
0
  6
ByBlock
 62
     0
100
AcDbLine
 10
81.71201160942761
 20
197.0867555918689
 30
0.0
 11
82.38188410942759
 21
199.5867555918689
 31
0.0
  0
LINE
  5
5924
330
295E
100
AcDbEntity
  8
0
  6
ByBlock
 62
     0
100
AcDbLine
 10
82.38188410942759
 20
199.5867555918689
 30
0.0
 11
83.0517566094276
 21
197.0867555918689
 31
0.0
  0
LINE
  5
5925
330
295E
100
AcDbEntity
  8
0
  6
ByBlock
 62
     0
100
AcDbLine
 10
82.38188410942759
 20
199.5867555918689
 30
0.0
 11
82.38188410942759
 21
197.0867555918689
 31
0.0
  0
TEXT
  5
5926
330
295E
100
AcDbEntity
  8
0
 62
     4
100
AcDbText
 10
87.91677981265818
 20
184.0394638902398
 30
0.0
 40
3.0
  1
46.2
 50
90.0
100
AcDbText
  0
LINE
  5
5927
330
295E
100
AcDbEntity
  8
0
  6
ByBlock
 62
     0
100
AcDbLine
 10
89.21165231265822
 20
178.986755591869
 30
0.0
 11
88.54177981265822
 21
176.486755591869
 31
0.0
  0
LINE
  5
5928
330
295E
100
AcDbEntity
  8
0
  6
ByBlock
 62
     0
100
AcDbLine
 10
88.54177981265822
 20
176.486755591869
 30
0.0
 11
87.87190731265821
 21
178.986755591869
 31
0.0
  0
LINE
  5
5929
330
295E
100
AcDbEntity
  8
0
  6
ByBlock
 62
     0
100
AcDbLine
 10
88.54177981265822
 20
176.486755591869
 30
0.0
 11
88.54177981265822
 21
178.986755591869
 31
0.0
  0
LINE
  5
592A
330
295E
100
AcDbEntity
  8
0
  6
ByBlock
 62
     0
100
AcDbLine
 10
87.87190731265821
 20
197.0867555918689
 30
0.0
 11
88.54177981265822
 21
199.5867555918689
 31
0.0
  0
LINE
  5
592B
330
295E
100
AcDbEntity
  8
0
  6
ByBlock
 62
     0
100
AcDbLine
 10
88.54177981265822
 20
199.5867555918689
 30
0.0
 11
89.21165231265822
 21
197.0867555918689
 31
0.0
  0
LINE
  5
592C
330
295E
100
AcDbEntity
  8
0
  6
ByBlock
 62
     0
100
AcDbLine
 10
88.54177981265822
 20
199.5867555918689
 30
0.0
 11
88.54177981265822
 21
197.0867555918689
 31
0.0
  0
TEXT
  5
592D
330
295E
100
AcDbEntity
  8
0
 62
     4
100
AcDbText
 10
118.2573454188514
 20
211.4400448398894
 30
0.0
 40
3.0
  1
100
100
AcDbText
  0
LINE
  5
592E
330
295E
100
AcDbEntity
  8
0
  6
ByBlock
 62
     0
100
AcDbLine
 10
144.8649354660254
 20
211.4849173398894
 30
0.0
 11
147.3649354660254
 21
210.8150448398894
 31
0.0
  0
LINE
  5
592F
330
295E
100
AcDbEntity
  8
0
  6
ByBlock
 62
     0
100
AcDbLine
 10
147.3649354660254
 20
210.8150448398894
 30
0.0
 11
144.8649354660254
 21
210.1451723398894
 31
0.0
  0
LINE
  5
5930
330
295E
100
AcDbEntity
  8
0
  6
ByBlock
 62
     0
100
AcDbLine
 10
147.3649354660254
 20
210.8150448398894
 30
0.0
 11
144.8649354660254
 21
210.8150448398894
 31
0.0
  0
LINE
  5
5931
330
295E
100
AcDbEntity
  8
0
  6
ByBlock
 62
     0
100
AcDbLine
 10
99.86493546602538
 20
210.1451723398894
 30
0.0
 11
97.36493546602538
 21
210.8150448398894
 31
0.0
  0
LINE
  5
5932
330
295E
100
AcDbEntity
  8
0
  6
ByBlock
 62
     0
100
AcDbLine
 10
97.36493546602538
 20
210.8150448398894
 30
0.0
 11
99.86493546602538
 21
211.4849173398894
 31
0.0
  0
LINE
  5
5933
330
295E
100
AcDbEntity
  8
0
  6
ByBlock
 62
     0
100
AcDbLine
 10
97.36493546602538
 20
210.8150448398894
 30
0.0
 11
99.86493546602538
 21
210.8150448398894
 31
0.0
  0
ENDSEC
  0
SECTION
  2
OBJECTS
  0
DICTIONARY
  5
28FF
330
0
100
AcDbDictionary
281
     1
  3
ACAD_2007HEADERVARS_RT
350
5937
  3
ACAD_COLOR
350
2955
  3
ACAD_GROUP
350
2900
  3
ACAD_LAYOUT
350
2954
  3
ACAD_MATERIAL
350
2903
  3
ACAD_MLEADERSTYLE
350
2958
  3
ACAD_MLINESTYLE
350
2951
  3
ACAD_PLOTSETTINGS
350
2953
  3
ACAD_PLOTSTYLENAME
350
2901
  3
ACAD_SCALELIST
350
2935
  3
ACAD_TABLESTYLE
350
2956
  3
ACAD_VISUALSTYLE
350
291C
  3
ACDB_RECOMPOSE_DATA
350
5935
  3
AcDbVariableDictionary
350
2A4D
  3
DWGPROPS
350
5936
  0
DICTIONARY
  5
2BBD
330
28F5
100
AcDbDictionary
280
     1
281
     1
  3
ACAD_LAYERSTATES
360
2BBE
  0
DICTIONARY
  5
2A49
330
2947
100
AcDbDictionary
280
     1
281
     1
  3
ADSK_XREC_LAYER_RECONCILED
360
2A4A
  0
DICTIONARY
  5
32D4
330
295E
100
AcDbDictionary
280
     1
281
     1
  3
ACAD_SORTENTS
360
32D5
  0
DICTIONARY
  5
524B
330
520E
100
AcDbDictionary
280
     1
281
     1
  3
ACAD_SORTENTS
360
524C
  0
DICTIONARY
  5
5937
102
{ACAD_REACTORS
330
28FF
102
}
330
28FF
100
AcDbDictionary
281
     1
  3
DIMARCSYM
350
5939
  3
DIMFXL
350
5938
  3
DIMJOGANG
350
593A
  0
DICTIONARY
  5
2955
102
{ACAD_REACTORS
330
28FF
102
}
330
28FF
100
AcDbDictionary
281
     1
  0
DICTIONARY
  5
2900
102
{ACAD_REACTORS
330
28FF
102
}
330
28FF
100
AcDbDictionary
281
     1
  0
DICTIONARY
  5
2954
102
{ACAD_REACTORS
330
28FF
102
}
330
28FF
100
AcDbDictionary
281
     1
  3
Model
350
2961
  3
レイアウト1
350
295D
  0
DICTIONARY
  5
2903
102
{ACAD_REACTORS
330
28FF
102
}
330
28FF
100
AcDbDictionary
281
     1
  3
ByBlock
350
290C
  3
ByLayer
350
2904
  3
Global
350
2914
  0
DICTIONARY
  5
2958
102
{ACAD_REACTORS
330
28FF
102
}
330
28FF
100
AcDbDictionary
281
     1
  3
Standard
350
2959
  0
DICTIONARY
  5
2951
102
{ACAD_REACTORS
330
28FF
102
}
330
28FF
100
AcDbDictionary
281
     1
  3
Standard
350
2952
  0
DICTIONARY
  5
2953
102
{ACAD_REACTORS
330
28FF
102
}
330
28FF
100
AcDbDictionary
281
     1
  0
ACDBDICTIONARYWDFLT
  5
2901
102
{ACAD_REACTORS
330
28FF
102
}
330
28FF
100
AcDbDictionary
281
     1
  3
Normal
350
2902
100
AcDbDictionaryWithDefault
340
2902
  0
DICTIONARY
  5
2935
102
{ACAD_REACTORS
330
28FF
102
}
330
28FF
100
AcDbDictionary
281
     1
  3
A0
350
2936
  3
A1
350
2937
  3
A2
350
2938
  3
A3
350
2939
  3
A4
350
293A
  3
A5
350
293B
  3
A6
350
293C
  3
A7
350
293D
  3
A8
350
293E
  3
A9
350
293F
  3
B0
350
2940
  3
B1
350
2941
  3
B2
350
2942
  3
B3
350
2943
  3
B4
350
2944
  3
B5
350
2945
  3
B6
350
2946
  0
DICTIONARY
  5
2956
102
{ACAD_REACTORS
330
28FF
102
}
330
28FF
100
AcDbDictionary
281
     1
  3
Standard
350
2957
  0
DICTIONARY
  5
291C
102
{ACAD_REACTORS
330
28FF
102
}
330
28FF
100
AcDbDictionary
281
     1
  3
2dWireframe
350
2922
  3
3dWireframe
350
2CA3
  3
Basic
350
2921
  3
Brighten
350
2928
  3
ColorChange
350
292C
  3
Conceptual
350
2925
  3
Dim
350
2927
  3
EdgeColorOff
350
2934
  3
Facepattern
350
292B
  3
Flat
350
291D
  3
FlatWithEdges
350
291E
  3
Gouraud
350
291F
  3
GouraudWithEdges
350
2920
  3
Hidden
350
2924
  3
JitterOff
350
2932
  3
Linepattern
350
292A
  3
OverhangOff
350
2933
  3
Realistic
350
2926
  3
Shaded
350
2931
  3
Shaded with edges
350
2930
  3
Shades of Gray
350
292D
  3
Sketchy
350
292E
  3
Thicken
350
2929
  3
Wireframe
350
2923
  3
X-Ray
350
292F
  0
XRECORD
  5
5935
102
{ACAD_REACTORS
330
28FF
102
}
330
28FF
100
AcDbXrecord
280
     1
 90
        1
330
2957
  0
DICTIONARY
  5
2A4D
102
{ACAD_REACTORS
330
28FF
102
}
330
28FF
100
AcDbDictionary
281
     1
  3
CANNOSCALE
350
2A50
  3
CMLEADERSTYLE
350
2A4F
  3
CTABLESTYLE
350
2A4E
  3
DIMASSOC
350
2A53
  3
INDEXCTL
350
2A52
  3
SORTENTS
350
2A51
  3
XCLIPFRAME
350
5830
  0
XRECORD
  5
5936
102
{ACAD_REACTORS
330
28FF
102
}
330
28FF
100
AcDbXrecord
280
     1
  1
DWGPROPS COOKIE
  2

  3

  4

  6

  7

  8
kaiha
  9

300
=
301
=
302
=
303
=
304
=
305
=
306
=
307
=
308
=
309
=
 40
0.960808923611111
 41
2455894.599291875
 42
2458354.768016852
  1

 90
        0
  0
DICTIONARY
  5
2BBE
102
{ACAD_REACTORS
330
2BBD
102
}
330
2BBD
100
AcDbDictionary
281
     1
  0
XRECORD
  5
2A4A
102
{ACAD_REACTORS
330
2A49
102
}
330
2A49
100
AcDbXrecord
280
     1
290
     1
  0
SORTENTSTABLE
  5
32D5
102
{ACAD_REACTORS
330
32D4
102
}
330
32D4
100
AcDbSortentsTable
330
295E
331
5876
  5
5906
331
58B5
  5
164E
331
58B1
  5
164A
331
58AD
  5
1646
331
58EE
  5
5919
331
592D
  5
568B
331
58EA
  5
591E
331
5929
  5
56C8
331
5925
  5
5819
331
58E6
  5
3831
331
5921
  5
581C
331
58E2
  5
382D
331
5694
  5
58E7
331
5655
  5
58C9
331
561E
  5
58AE
331
52FF
  5
5659
331
582E
  5
5932
331
5690
  5
58EB
331
561A
  5
58B1
331
527D
  5
5322
331
52FB
  5
5030
331
5026
  5
52D8
331
4FE7
  5
5290
331
582A
  5
592E
331
568C
  5
5883
331
52B8
  5
5643
331
4FE3
  5
528C
331
15A6
  5
15A6
331
4FA4
  5
526A
331
5279
  5
531D
331
5688
  5
58EA
331
5649
  5
58C1
331
5612
  5
58B0
331
52B4
  5
5641
331
4FDF
  5
5287
331
4FA0
  5
5263
331
4F61
  5
5021
331
4EE6
  5
4F8D
331
15E1
  5
15E3
331
5275
  5
5319
331
4EA7
  5
4EE6
331
52B0
  5
563C
331
5271
  5
5315
331
4EE2
  5
4F89
331
165C
  5
4EBE
331
159E
  5
159E
331
161D
  5
161F
331
501A
  5
52D6
331
4EDE
  5
4F84
331
3837
  5
4EE5
331
1658
  5
4EBA
331
1619
  5
161B
331
4EDA
  5
4F7C
331
3833
  5
4EE1
331
1654
  5
4EB6
331
1615
  5
1617
331
1650
  5
4EB2
331
1611
  5
1613
331
58A5
  5
5675
331
58A1
  5
5692
331
58DC
  5
3827
331
591D
  5
5824
331
5899
  5
56F8
331
58D8
  5
3823
331
5919
  5
5826
331
5915
  5
586F
331
5911
  5
5875
331
5826
  5
592A
331
5684
  5
58E4
331
581E
  5
5923
331
5680
  5
58E2
331
581A
  5
5920
331
567C
  5
58DE
331
5645
  5
589F
331
52A8
  5
563A
331
4F94
  5
525A
331
5012
  5
52B0
331
15D5
  5
15D5
331
5641
  5
58A2
331
52A4
  5
5638
331
5322
  5
52EE
331
4F90
  5
5258
331
4ED6
  5
4F6F
331
15D1
  5
15D1
331
526D
  5
530C
331
500A
  5
52C1
331
4FD3
  5
4FF4
331
4F8C
  5
4FFB
331
160C
  5
160E
331
4ED2
  5
4F67
331
164C
  5
4EAE
331
15CD
  5
15CD
331
4F88
  5
5254
331
4F34
  5
4FEB
331
15C9
  5
15C9
331
4ECE
  5
4F62
331
382F
  5
4EDD
331
1648
  5
4EAA
331
4F0D
  5
4FC2
331
1608
  5
160A
331
4F09
  5
4FB8
331
4ECA
  5
4F5A
331
382B
  5
4ED9
331
1644
  5
3837
331
1640
  5
1642
331
4F48
  5
4FF5
331
4F40
  5
4FEE
331
5895
  5
5821
331
58D4
  5
16B7
331
569A
  5
5899
331
58D0
  5
1669
331
58CC
  5
1665
331
590D
  5
587A
331
58C8
  5
1661
331
5909
  5
587D
331
5905
  5
58F3
331
5901
  5
58F5
331
5816
  5
591A
331
563D
  5
58A4
331
5674
  5
588A
331
531E
  5
5664
331
5670
  5
58DC
331
5639
  5
58A6
331
531A
  5
566B
331
5006
  5
52BF
331
5635
  5
58B6
331
5316
  5
5671
331
52D7
  5
564D
331
5002
  5
52B5
331
4F84
  5
4FE7
331
15C5
  5
15C5
331
1604
  5
1606
331
5668
  5
588C
331
52D3
  5
564B
331
5294
  5
5636
331
4FC7
  5
5265
331
5255
  5
52F0
331
4F80
  5
4FE6
331
4EC6
  5
4F56
331
15C1
  5
15C1
331
3827
  5
4ED5
331
1600
  5
1602
331
4FFA
  5
52B1
331
5290
  5
4FCE
331
4FC3
  5
4FD4
331
4F01
  5
4FB6
331
4EC2
  5
4F0C
331
3823
  5
4ED1
331
15BD
  5
15BD
331
15FC
  5
15FE
331
163C
  5
163E
331
4EFD
  5
4FB1
331
4EBE
  5
4F08
331
16B7
  5
4ECF
331
15B9
  5
15B9
331
1638
  5
163A
331
15F8
  5
15FA
331
4F18
  5
4FC3
331
4EBA
  5
4EFC
331
1634
  5
1636
331
1630
  5
1632
331
4F38
  5
4FEC
331
58C4
  5
165D
331
5881
  5
58EF
331
58C0
  5
1659
331
587D
  5
58FB
331
58BC
  5
1655
331
58FD
  5
58FC
331
58B8
  5
1651
331
58F9
  5
5902
331
58F5
  5
590D
331
58F1
  5
5918
331
5930
  5
5687
331
5664
  5
58DA
331
530E
  5
566A
331
52CF
  5
5648
331
530A
  5
5665
331
5035
  5
52D0
331
4FF6
  5
52A7
331
52C7
  5
5647
331
5288
  5
562E
331
4FF2
  5
52A3
331
4F74
  5
5035
331
15B5
  5
15B5
331
15F4
  5
15F6
331
5621
  5
58A8
331
5658
  5
589B
331
5302
  5
5663
331
5284
  5
5629
331
4FB7
  5
5280
331
4FEE
  5
5298
331
4F70
  5
4FD1
331
4EB6
  5
4EF5
331
4EF5
  5
4FA7
331
15F0
  5
15F2
331
5280
  5
53A1
331
5029
  5
52D1
331
4FEA
  5
5293
331
4EF1
  5
4FA3
331
4EB2
  5
4EF1
331
162C
  5
162E
331
15EC
  5
15EE
331
4F68
  5
5028
331
4EED
  5
4F9F
331
4EAE
  5
4EED
331
1667
  5
4EC9
331
15A9
  5
15A9
331
15E8
  5
15EA
331
1628
  5
162A
331
4EE9
  5
4F92
331
4EAA
  5
4EE9
331
1663
  5
4EC5
331
1624
  5
1626
331
1620
  5
1622
331
5875
  5
5905
331
58B4
  5
164D
331
53A2
  5
582B
331
58B0
  5
1649
331
58AC
  5
1645
331
58ED
  5
591D
331
592C
  5
5695
331
5928
  5
5697
331
58E9
  5
3834
331
5924
  5
5816
331
58E5
  5
3830
331
5920
  5
581A
331
58E1
  5
382C
331
5697
  5
588F
331
5654
  5
58D9
331
5693
  5
5885
331
52FE
  5
5661
331
52BF
  5
4FC8
331
582D
  5
5931
331
568F
  5
5884
331
527C
  5
5321
331
52FA
  5
502D
331
4FA7
  5
526C
331
4FE6
  5
528F
331
5829
  5
592D
331
564C
  5
58C2
331
568B
  5
5886
331
5615
  5
58AF
331
52EE
  5
5653
331
4FE2
  5
5289
331
4F64
  5
5027
331
15A5
  5
15A5
331
4FA3
  5
5269
331
5278
  5
531C
331
5611
  5
58AD
331
5648
  5
589E
331
5274
  5
5318
331
4F9F
  5
5262
331
4F60
  5
5020
331
4EE5
  5
4F8C
331
165F
  5
4EC1
331
15A1
  5
15A1
331
15E0
  5
15E2
331
5270
  5
5310
331
5019
  5
52CF
331
4EE1
  5
4F87
331
165B
  5
4EBD
331
159D
  5
159D
331
161C
  5
161E
331
4F58
  5
5014
331
4EDD
  5
4F83
331
3836
  5
4EE4
331
1657
  5
4EB9
331
1618
  5
161A
331
4ED9
  5
4F7B
331
3832
  5
4EE0
331
1653
  5
4EB5
331
1614
  5
1616
331
1610
  5
1612
331
4F53
  5
5010
331
58A0
  5
568E
331
58DF
  5
382A
331
58DB
  5
3826
331
591C
  5
5823
331
5918
  5
5829
331
5914
  5
5874
331
5910
  5
5878
331
5825
  5
5929
331
5687
  5
58E8
331
5821
  5
5926
331
5683
  5
58DD
331
52AF
  5
4FC9
331
581D
  5
5922
331
567F
  5
58E1
331
5819
  5
591F
331
5644
  5
58D5
331
52A7
  5
563B
331
4F93
  5
5259
331
15D4
  5
15D4
331
5011
  5
52B6
331
52E2
  5
5652
331
5321
  5
52EC
331
52A3
  5
5639
331
4FD6
  5
4FFA
331
4ED5
  5
4F6E
331
15D0
  5
15D0
331
160F
  5
1611
331
526C
  5
5308
331
164F
  5
4EB1
331
4F8B
  5
5257
331
160B
  5
160D
331
4ED1
  5
4F66
331
164B
  5
4EAD
331
15CC
  5
15CC
331
4F33
  5
4FEA
331
15C8
  5
15C8
331
4ECD
  5
4F61
331
382E
  5
4EDC
331
1647
  5
4EA9
331
4F0C
  5
4FC1
331
4F08
  5
4FB7
331
4EC9
  5
4F59
331
382A
  5
4ED8
331
1643
  5
3836
331
4F4B
  5
5007
331
4F47
  5
4FF2
331
4F43
  5
4FEF
331
58D7
  5
2BCA
331
5894
  5
5820
331
58D3
  5
1679
331
5699
  5
5898
331
58CF
  5
1668
331
58CB
  5
1664
331
590C
  5
5879
331
5908
  5
5881
331
5904
  5
58F2
331
5900
  5
58F8
331
563C
  5
58CF
331
5673
  5
5892
331
52DE
  5
5651
331
531D
  5
52F1
331
5638
  5
58BC
331
5319
  5
5674
331
4FCE
  5
5003
331
4F87
  5
5252
331
1607
  5
1609
331
5005
  5
52BE
331
5315
  5
5670
331
52D6
  5
564C
331
4FCA
  5
525F
331
4F83
  5
4FE8
331
1603
  5
1605
331
5258
  5
5304
331
4F2F
  5
4FE9
331
15C4
  5
15C4
331
5630
  5
58B5
331
5254
  5
52EF
331
4F7F
  5
4FDD
331
15FF
  5
1601
331
4F2B
  5
4FE2
331
4EC5
  5
4F1F
331
15C0
  5
15C0
331
163F
  5
1641
331
3826
  5
4ED4
331
4FC2
  5
4FE4
331
4F00
  5
4FB2
331
15BC
  5
15BC
331
4EC1
  5
4F0B
331
163B
  5
163D
331
15FB
  5
15FD
331
4EFC
  5
4FB0
331
4EBD
  5
4F01
331
16B6
  5
4ECE
331
1637
  5
1639
331
4EF8
  5
4FAF
331
4EB9
  5
4EF8
331
1633
  5
1635
331
58C7
  5
1660
331
58C3
  5
165C
331
58BF
  5
1658
331
587C
  5
58FA
331
58BB
  5
1654
331
58FC
  5
5901
331
58F8
  5
590A
331
58F4
  5
590C
331
5933
  5
5680
331
58F0
  5
5917
331
5667
  5
5894
331
56FA
  5
5914
331
5663
  5
58D7
331
530D
  5
5668
331
528F
  5
4FCF
331
56F6
  5
5911
331
5309
  5
5656
331
4FF5
  5
52A5
331
5034
  5
52BB
331
15F7
  5
15F9
331
56F2
  5
588E
331
5305
  5
5655
331
5287
  5
562C
331
4FF1
  5
52A2
331
5030
  5
52BC
331
4F73
  5
5034
331
15F3
  5
15F5
331
4FBA
  5
5282
331
5620
  5
58A9
331
52C2
  5
563E
331
5283
  5
53A5
331
4FED
  5
5297
331
4FB6
  5
526E
331
502C
  5
52AC
331
4F6F
  5
4FD2
331
4EB5
  5
4EF4
331
4EF4
  5
4FA6
331
162F
  5
1631
331
15EF
  5
15F1
331
4FE9
  5
5292
331
4EF0
  5
4FA2
331
4EB1
  5
4EF0
331
166A
  5
4ECC
331
15EB
  5
15ED
331
162B
  5
162D
331
4EEC
  5
4F9E
331
4EAD
  5
4EEC
331
1666
  5
4EC8
331
15A8
  5
15A8
331
1627
  5
1629
331
4EE8
  5
4F91
331
4EA9
  5
4EE8
331
1662
  5
4EC4
331
1623
  5
1625
331
58B7
  5
1650
331
53A5
  5
582D
331
5874
  5
5904
331
58B3
  5
164C
331
53A1
  5
582A
331
58AF
  5
1648
331
592F
  5
5686
331
58AB
  5
1644
331
58EC
  5
591C
331
592B
  5
5694
331
5927
  5
5696
331
58E8
  5
3833
331
5923
  5
5814
331
58E4
  5
382F
331
58E0
  5
382B
331
5657
  5
589C
331
5696
  5
5897
331
5653
  5
58D8
331
5692
  5
5888
331
52BE
  5
5646
331
527F
  5
532C
331
582C
  5
5930
331
568E
  5
5887
331
527B
  5
5320
331
52F9
  5
502F
331
4FA6
  5
526B
331
4F67
  5
5026
331
4FE5
  5
528E
331
5828
  5
592C
331
564B
  5
58C4
331
5614
  5
58AB
331
5277
  5
531B
331
4F63
  5
5005
331
15A4
  5
15A4
331
5273
  5
5317
331
52B2
  5
4FC4
331
4F9E
  5
5261
331
4FDD
  5
5286
331
4EE4
  5
4F8B
331
165E
  5
4EC0
331
15A0
  5
15A0
331
161F
  5
1621
331
15DF
  5
15E1
331
5018
  5
52C7
331
4EE0
  5
4F86
331
165A
  5
4EBC
331
161B
  5
161D
331
4EDC
  5
4F82
331
3835
  5
4EE3
331
1656
  5
4EB8
331
1617
  5
1619
331
4ED8
  5
4F7A
331
3831
  5
4EDF
331
1652
  5
4EB4
331
1613
  5
1615
331
4F56
  5
5012
331
58A7
  5
5678
331
589F
  5
568D
331
58DE
  5
3829
331
591F
  5
581E
331
589B
  5
56FA
331
58DA
  5
3825
331
591B
  5
5828
331
5917
  5
5871
331
5913
  5
5873
331
5824
  5
5928
331
5686
  5
58E6
331
5820
  5
5925
331
5682
  5
58EC
331
52AE
  5
4FCA
331
581C
  5
5921
331
567E
  5
58E0
331
5647
  5
58A0
331
4F96
  5
525C
331
5643
  5
58D2
331
526F
  5
530E
331
4F92
  5
5025
331
5010
  5
52B4
331
15D3
  5
15D3
331
526B
  5
5307
331
5320
  5
52F2
331
4ED4
  5
4F6D
331
164E
  5
4EB0
331
15CF
  5
15CF
331
160E
  5
1610
331
4FD5
  5
5285
331
5008
  5
52A9
331
4FD1
  5
4FF3
331
4F8A
  5
5256
331
4ED0
  5
4F65
331
164A
  5
4EAC
331
15CB
  5
15CB
331
160A
  5
160C
331
4F0B
  5
4FBC
331
4ECC
  5
4F60
331
382D
  5
4EDB
331
1646
  5
4EA8
331
4EC8
  5
4F58
331
3829
  5
4ED7
331
1642
  5
3835
331
4F46
  5
4FF1
331
58D6
  5
2BC9
331
5893
  5
581F
331
58D2
  5
166D
331
5698
  5
5890
331
588F
  5
582F
331
58CE
  5
1667
331
588B
  5
587C
331
590F
  5
5877
331
58CA
  5
1663
331
590B
  5
587F
331
5907
  5
5880
331
5903
  5
58F7
331
5814
  5
5915
331
563F
  5
58C5
331
563B
  5
58BD
331
5672
  5
589A
331
52DD
  5
564F
331
531C
  5
52EA
331
5637
  5
58BB
331
5318
  5
5673
331
5004
  5
52B9
331
4F86
  5
4FE5
331
1606
  5
1608
331
15C7
  5
15C7
331
4FCD
  5
5283
331
566A
  5
5895
331
5257
  5
5303
331
4FC9
  5
5264
331
4F82
  5
4FDF
331
15C3
  5
15C3
331
1602
  5
1604
331
5310
  5
5666
331
52D1
  5
564A
331
5292
  5
5635
331
4EC4
  5
4F18
331
15BF
  5
15BF
331
15FE
  5
1600
331
5253
  5
52E7
331
163E
  5
1640
331
3825
  5
4ED3
331
4FC1
  5
4FD5
331
4EC0
  5
4F0A
331
15BB
  5
15BB
331
163A
  5
163C
331
15FA
  5
15FC
331
4EBC
  5
4F00
331
16B5
  5
4ECD
331
1636
  5
1638
331
4EB8
  5
4EF7
331
1632
  5
1634
331
5887
  5
5882
331
58C6
  5
165F
331
5883
  5
58F1
331
58C2
  5
165B
331
58BE
  5
1657
331
58FF
  5
58FE
331
587B
  5
58F9
331
58BA
  5
1653
331
58FB
  5
5900
331
58F7
  5
5909
331
58F3
  5
590B
331
5932
  5
567F
331
562F
  5
58B4
331
5666
  5
588B
331
56F9
  5
5913
331
5662
  5
58CC
331
530C
  5
5667
331
528E
  5
4FD0
331
56F5
  5
5910
331
5033
  5
52E5
331
4F76
  5
5251
331
15F6
  5
15F8
331
565A
  5
58CE
331
56F1
  5
5896
331
5304
  5
565A
331
4FF0
  5
52A0
331
4F72
  5
502E
331
15F2
  5
15F4
331
4EF7
  5
4FA9
331
5286
  5
562B
331
5300
  5
5657
331
52C1
  5
563F
331
5282
  5
53A4
331
4FEC
  5
5296
331
4FB5
  5
526D
331
502B
  5
52CA
331
4EF3
  5
4FA5
331
4EB4
  5
4EF3
331
162E
  5
1630
331
15EE
  5
15F0
331
4FE8
  5
5291
331
4EEF
  5
4FA1
331
4EB0
  5
4EEF
331
1669
  5
4ECB
331
15AB
  5
15AB
331
15EA
  5
15EC
331
162A
  5
162C
331
4EEB
  5
4F99
331
4EAC
  5
4EEB
331
1665
  5
4EC7
331
1626
  5
1628
331
4EA8
  5
4EE7
331
1661
  5
4EC3
331
1622
  5
1624
331
5877
  5
5907
331
58B6
  5
164F
331
53A4
  5
582C
331
5873
  5
5903
331
58B2
  5
164B
331
58AE
  5
1647
331
58EF
  5
5916
331
592E
  5
5685
331
58EB
  5
591B
331
592A
  5
5693
331
5926
  5
56F4
331
58E7
  5
3832
331
5922
  5
581D
331
58E3
  5
382E
331
5695
  5
58E5
331
5656
  5
58CB
331
561F
  5
58AA
331
582F
  5
5933
331
5691
  5
58E9
331
5652
  5
58D6
331
561B
  5
58B2
331
52FC
  5
5654
331
527E
  5
5323
331
5027
  5
52DD
331
52BD
  5
5645
331
582B
  5
592F
331
568D
  5
58EE
331
52B9
  5
5644
331
52F8
  5
502C
331
5023
  5
52D3
331
4FE4
  5
528D
331
4F66
  5
5023
331
15A7
  5
15A7
331
4FA5
  5
525E
331
527A
  5
531F
331
5689
  5
58ED
331
564A
  5
58C3
331
5613
  5
58AC
331
52B5
  5
5640
331
4FE0
  5
5288
331
5276
  5
531A
331
4F62
  5
5022
331
4EE7
  5
4F90
331
15A3
  5
15A3
331
15E2
  5
15E4
331
52B1
  5
563D
331
5272
  5
5316
331
4EE3
  5
4F8A
331
165D
  5
4EBF
331
161E
  5
1620
331
159F
  5
159F
331
4F99
  5
5260
331
4F5A
  5
5016
331
1659
  5
4EBB
331
161A
  5
161C
331
4EDF
  5
4F85
331
4EDB
  5
4F81
331
3834
  5
4EE2
331
1655
  5
4EB7
331
1616
  5
1618
331
3830
  5
4EDE
331
1651
  5
4EB3
331
1612
  5
1614
331
4F51
  5
500A
331
58A6
  5
5676
331
58DD
  5
3828
331
591E
  5
5825
331
589A
  5
56F9
331
58D9
  5
3824
331
591A
  5
5827
331
5916
  5
5870
331
5912
  5
5872
331
5827
  5
592B
331
5823
  5
5927
331
581F
  5
5924
331
5681
  5
58E3
331
567D
  5
58DF
331
5646
  5
589D
331
4F95
  5
525B
331
52A9
  5
500B
331
15D6
  5
15D6
331
5642
  5
58A1
331
526E
  5
530D
331
5323
  5
52F8
331
4F91
  5
5000
331
4ED7
  5
4F75
331
15D2
  5
15D2
331
526A
  5
5305
331
500B
  5
52C2
331
4FD4
  5
5284
331
4F8D
  5
4FF6
331
160D
  5
160F
331
4ED3
  5
4F68
331
164D
  5
4EAF
331
15CE
  5
15CE
331
4F89
  5
5255
331
4ECF
  5
4F64
331
1649
  5
4EAB
331
15CA
  5
15CA
331
1609
  5
160B
331
4F0A
  5
4FBA
331
4ECB
  5
4F5F
331
382C
  5
4EDA
331
1645
  5
4EA7
331
3828
  5
4ED6
331
4F49
  5
5002
331
4F45
  5
4FF0
331
58D5
  5
2A48
331
569B
  5
5891
331
58D1
  5
166A
331
588E
  5
582E
331
58CD
  5
1666
331
588A
  5
587B
331
590E
  5
5876
331
58C9
  5
1662
331
590A
  5
587E
331
5906
  5
58F4
331
5902
  5
58F6
331
563E
  5
58A3
331
5675
  5
5889
331
531F
  5
5658
331
5671
  5
58DB
331
563A
  5
58A5
331
531B
  5
5669
331
5007
  5
52C0
331
5636
  5
58B7
331
5317
  5
5672
331
52D8
  5
564E
331
4F85
  5
4FD6
331
1605
  5
1607
331
5299
  5
5637
331
15C6
  5
15C6
331
5669
  5
588D
331
5256
  5
52FD
331
4FC8
  5
525D
331
4F81
  5
4FE0
331
4EC7
  5
4F57
331
15C2
  5
15C2
331
1601
  5
1603
331
52D0
  5
5649
331
4FFB
  5
52B3
331
5291
  5
4FCD
331
4F29
  5
4FD3
331
15BE
  5
15BE
331
3824
  5
4ED2
331
4EC3
  5
4F0D
331
15FD
  5
15FF
331
163D
  5
163F
331
4FC4
  5
4FE3
331
4EBF
  5
4F09
331
15BA
  5
15BA
331
1639
  5
163B
331
15F9
  5
15FB
331
4EBB
  5
4EFD
331
1635
  5
1637
331
1631
  5
1633
331
4F39
  5
4FED
331
58C5
  5
165E
331
5882
  5
58F0
331
58C1
  5
165A
331
2A48
  5
4ED0
331
58BD
  5
1656
331
58FE
  5
58FD
331
58B9
  5
1652
331
58FA
  5
58FF
331
58F6
  5
5908
331
58F2
  5
590E
331
5931
  5
567E
331
562E
  5
58B3
331
5665
  5
5893
331
56F8
  5
5912
331
5661
  5
58CA
331
528D
  5
5630
331
56F4
  5
590F
331
5289
  5
562F
331
4FF3
  5
52A4
331
5032
  5
52DE
331
4F75
  5
5250
331
15B6
  5
15B6
331
15F5
  5
15F7
331
5659
  5
58CD
331
5622
  5
58A7
331
5303
  5
5662
331
5285
  5
562A
331
4FEF
  5
529F
331
4FB8
  5
5281
331
502E
  5
52BD
331
4F71
  5
5029
331
4EB7
  5
4EF6
331
4EF6
  5
4FA8
331
15F1
  5
15F3
331
5281
  5
53A2
331
52C0
  5
4FC7
331
4FEB
  5
5294
331
4EF2
  5
4FA4
331
4EB3
  5
4EF2
331
15ED
  5
15EF
331
502A
  5
52D7
331
162D
  5
162F
331
4EEE
  5
4FA0
331
4EAF
  5
4EEE
331
1668
  5
4ECA
331
15AA
  5
15AA
331
15E9
  5
15EB
331
1629
  5
162B
331
4EEA
  5
4F98
331
4EAB
  5
4EEA
331
1664
  5
4EC6
331
1625
  5
1627
331
1660
  5
4EC2
331
1621
  5
1623
  0
SORTENTSTABLE
  5
524C
102
{ACAD_REACTORS
330
524B
102
}
330
524B
100
AcDbSortentsTable
330
520E
  0
XRECORD
  5
5939
102
{ACAD_REACTORS
330
5937
102
}
330
5937
100
AcDbXrecord
280
     1
 70
     2
  0
XRECORD
  5
5938
102
{ACAD_REACTORS
330
5937
102
}
330
5937
100
AcDbXrecord
280
     1
 40
1.25
  0
XRECORD
  5
593A
102
{ACAD_REACTORS
330
5937
102
}
330
5937
100
AcDbXrecord
280
     1
 40
1.570796326794896
  0
LAYOUT
  5
2961
102
{ACAD_XDICTIONARY
360
596E
102
}
102
{ACAD_REACTORS
330
2954
102
}
330
2954
100
AcDbPlotSettings
  1

  2
none_device
  4
Letter_(8.50_x_11.00_Inches)
  6

 40
6.349999904632567
 41
6.349999904632567
 42
6.350006103515625
 43
6.350006103515625
 44
215.8999938964844
 45
279.3999938964844
 46
0.0
 47
0.0
 48
0.0
 49
0.0
140
0.0
141
0.0
142
1.0
143
70.13597653689472
 70
 11952
 72
     0
 73
     1
 74
     0
  7

 75
     0
147
0.0142580177731461
148
2367.00058642127
149
1552.657267491909
100
AcDbLayout
  1
Model
 70
     1
 71
     0
 10
0.0
 20
0.0
 11
12.0
 21
9.0
 12
0.0
 22
0.0
 32
0.0
 14
0.0
 24
0.0
 34
0.0
 15
0.0
 25
0.0
 35
0.0
146
0.0
 13
0.0
 23
0.0
 33
0.0
 16
1.0
 26
0.0
 36
0.0
 17
0.0
 27
1.0
 37
0.0
 76
     0
330
295E
331
2963
1001
ACAD_PSEXT
1000
なし
1000
なし
1000
適切ではありません
1000
新しいプロッタ環境設定名を選択しない限り、レイアウトは印刷されません。
1070
     0
  0
LAYOUT
  5
295D
102
{ACAD_XDICTIONARY
360
596C
102
}
102
{ACAD_REACTORS
330
2954
102
}
330
2954
100
AcDbPlotSettings
  1

  2
FX DP 205
  4

  6

 40
0.0
 41
0.0
 42
0.0
 43
0.0
 44
0.0
 45
0.0
 46
0.0
 47
0.0
 48
0.0
 49
0.0
140
0.0
141
0.0
142
1.0
143
1.0
 70
   688
 72
     0
 73
     0
 74
     5
  7

 75
    16
147
1.0
148
0.0
149
0.0
100
AcDbLayout
  1
レイアウト1
 70
     1
 71
     1
 10
0.0
 20
0.0
 11
12.0
 21
9.0
 12
0.0
 22
0.0
 32
0.0
 14
0.0
 24
0.0
 34
0.0
 15
0.0
 25
0.0
 35
0.0
146
0.0
 13
0.0
 23
0.0
 33
0.0
 16
1.0
 26
0.0
 36
0.0
 17
0.0
 27
1.0
 37
0.0
 76
     0
330
295A
  0
MATERIAL
  5
290C
102
{ACAD_XDICTIONARY
360
290D
102
}
102
{ACAD_REACTORS
330
2903
102
}
330
2903
100
AcDbMaterial
  1
ByBlock
 72
     0
 43
0.0208333333333333
 43
0.0
 43
0.0
 43
0.0
 43
0.0
 43
0.0208333333333333
 43
0.0
 43
0.0
 43
0.0
 43
0.0
 43
1.0
 43
0.0
 43
0.0
 43
0.0
 43
0.0
 43
1.0
 77
     0
 47
0.0208333333333333
 47
0.0
 47
0.0
 47
0.0
 47
0.0
 47
0.0208333333333333
 47
0.0
 47
0.0
 47
0.0
 47
0.0
 47
1.0
 47
0.0
 47
0.0
 47
0.0
 47
0.0
 47
1.0
171
     0
 49
0.0208333333333333
 49
0.0
 49
0.0
 49
0.0
 49
0.0
 49
0.0208333333333333
 49
0.0
 49
0.0
 49
0.0
 49
0.0
 49
1.0
 49
0.0
 49
0.0
 49
0.0
 49
0.0
 49
1.0
175
     0
142
0.0208333333333333
142
0.0
142
0.0
142
0.0
142
0.0
142
0.0208333333333333
142
0.0
142
0.0
142
0.0
142
0.0
142
1.0
142
0.0
142
0.0
142
0.0
142
0.0
142
1.0
179
     0
144
0.0208333333333333
144
0.0
144
0.0
144
0.0
144
0.0
144
0.0208333333333333
144
0.0
144
0.0
144
0.0
144
0.0
144
1.0
144
0.0
144
0.0
144
0.0
144
0.0
144
1.0
147
0.0208333333333333
147
0.0
147
0.0
147
0.0
147
0.0
147
0.0208333333333333
147
0.0
147
0.0
147
0.0
147
0.0
147
1.0
147
0.0
147
0.0
147
0.0
147
0.0
147
1.0
  0
MATERIAL
  5
2904
102
{ACAD_XDICTIONARY
360
2905
102
}
102
{ACAD_REACTORS
330
2903
102
}
330
2903
100
AcDbMaterial
  1
ByLayer
 72
     0
 43
0.0208333333333333
 43
0.0
 43
0.0
 43
0.0
 43
0.0
 43
0.0208333333333333
 43
0.0
 43
0.0
 43
0.0
 43
0.0
 43
1.0
 43
0.0
 43
0.0
 43
0.0
 43
0.0
 43
1.0
 77
     0
 47
0.0208333333333333
 47
0.0
 47
0.0
 47
0.0
 47
0.0
 47
0.0208333333333333
 47
0.0
 47
0.0
 47
0.0
 47
0.0
 47
1.0
 47
0.0
 47
0.0
 47
0.0
 47
0.0
 47
1.0
171
     0
 49
0.0208333333333333
 49
0.0
 49
0.0
 49
0.0
 49
0.0
 49
0.0208333333333333
 49
0.0
 49
0.0
 49
0.0
 49
0.0
 49
1.0
 49
0.0
 49
0.0
 49
0.0
 49
0.0
 49
1.0
175
     0
142
0.0208333333333333
142
0.0
142
0.0
142
0.0
142
0.0
142
0.0208333333333333
142
0.0
142
0.0
142
0.0
142
0.0
142
1.0
142
0.0
142
0.0
142
0.0
142
0.0
142
1.0
179
     0
144
0.0208333333333333
144
0.0
144
0.0
144
0.0
144
0.0
144
0.0208333333333333
144
0.0
144
0.0
144
0.0
144
0.0
144
1.0
144
0.0
144
0.0
144
0.0
144
0.0
144
1.0
147
0.0208333333333333
147
0.0
147
0.0
147
0.0
147
0.0
147
0.0208333333333333
147
0.0
147
0.0
147
0.0
147
0.0
147
1.0
147
0.0
147
0.0
147
0.0
147
0.0
147
1.0
  0
MATERIAL
  5
2914
102
{ACAD_XDICTIONARY
360
2915
102
}
102
{ACAD_REACTORS
330
2903
102
}
330
2903
100
AcDbMaterial
  1
Global
 72
     0
 43
0.0208333333333333
 43
0.0
 43
0.0
 43
0.0
 43
0.0
 43
0.0208333333333333
 43
0.0
 43
0.0
 43
0.0
 43
0.0
 43
1.0
 43
0.0
 43
0.0
 43
0.0
 43
0.0
 43
1.0
 77
     0
 47
0.0208333333333333
 47
0.0
 47
0.0
 47
0.0
 47
0.0
 47
0.0208333333333333
 47
0.0
 47
0.0
 47
0.0
 47
0.0
 47
1.0
 47
0.0
 47
0.0
 47
0.0
 47
0.0
 47
1.0
171
     0
 49
0.0208333333333333
 49
0.0
 49
0.0
 49
0.0
 49
0.0
 49
0.0208333333333333
 49
0.0
 49
0.0
 49
0.0
 49
0.0
 49
1.0
 49
0.0
 49
0.0
 49
0.0
 49
0.0
 49
1.0
175
     0
142
0.0208333333333333
142
0.0
142
0.0
142
0.0
142
0.0
142
0.0208333333333333
142
0.0
142
0.0
142
0.0
142
0.0
142
1.0
142
0.0
142
0.0
142
0.0
142
0.0
142
1.0
179
     0
144
0.0208333333333333
144
0.0
144
0.0
144
0.0
144
0.0
144
0.0208333333333333
144
0.0
144
0.0
144
0.0
144
0.0
144
1.0
144
0.0
144
0.0
144
0.0
144
0.0
144
1.0
147
0.0208333333333333
147
0.0
147
0.0
147
0.0
147
0.0
147
0.0208333333333333
147
0.0
147
0.0
147
0.0
147
0.0
147
1.0
147
0.0
147
0.0
147
0.0
147
0.0
147
1.0
  0
MLEADERSTYLE
  5
2959
102
{ACAD_REACTORS
330
2958
102
}
330
2958
100
AcDbMLeaderStyle
170
     2
171
     1
172
     0
 90
        2
 40
0.0
 41
0.0
173
     1
 91
-1056964608
340
294D
 92
       -2
290
     1
 42
0.09
291
     1
 43
0.36
  3
Standard
 44
0.18
300

342
2948
174
     1
178
     6
175
     1
176
     0
 93
-1056964608
 45
0.18
292
     0
297
     0
 46
0.18
 94
-1056964608
 47
1.0
 49
1.0
140
1.0
293
     1
141
0.0
294
     1
177
     0
142
1.0
295
     0
296
     0
143
0.125
1001
ACAD_MLEADERVER
1070
     2
  0
MLINESTYLE
  5
2952
102
{ACAD_REACTORS
330
2951
102
}
330
2951
100
AcDbMlineStyle
  2
STANDARD
 70
     0
  3

 62
   256
 51
90.0
 52
90.0
 71
     2
 49
0.5
 62
   256
  6
BYLAYER
 49
-0.5
 62
   256
  6
BYLAYER
  0
ACDBPLACEHOLDER
  5
2902
102
{ACAD_REACTORS
330
2901
102
}
330
2901
  0
SCALE
  5
2936
102
{ACAD_REACTORS
330
2935
102
}
330
2935
100
AcDbScale
 70
     0
300
1:1
140
1.0
141
1.0
290
     1
  0
SCALE
  5
2937
102
{ACAD_REACTORS
330
2935
102
}
330
2935
100
AcDbScale
 70
     0
300
1/128" = 1'-0"
140
0.0078125
141
12.0
290
     0
  0
SCALE
  5
2938
102
{ACAD_REACTORS
330
2935
102
}
330
2935
100
AcDbScale
 70
     0
300
1/64" = 1'-0"
140
0.015625
141
12.0
290
     0
  0
SCALE
  5
2939
102
{ACAD_REACTORS
330
2935
102
}
330
2935
100
AcDbScale
 70
     0
300
1/32" = 1'-0"
140
0.03125
141
12.0
290
     0
  0
SCALE
  5
293A
102
{ACAD_REACTORS
330
2935
102
}
330
2935
100
AcDbScale
 70
     0
300
1/16" = 1'-0"
140
0.0625
141
12.0
290
     0
  0
SCALE
  5
293B
102
{ACAD_REACTORS
330
2935
102
}
330
2935
100
AcDbScale
 70
     0
300
3/32" = 1'-0"
140
0.09375
141
12.0
290
     0
  0
SCALE
  5
293C
102
{ACAD_REACTORS
330
2935
102
}
330
2935
100
AcDbScale
 70
     0
300
1/8" = 1'-0"
140
0.125
141
12.0
290
     0
  0
SCALE
  5
293D
102
{ACAD_REACTORS
330
2935
102
}
330
2935
100
AcDbScale
 70
     0
300
3/16" = 1'-0"
140
0.1875
141
12.0
290
     0
  0
SCALE
  5
293E
102
{ACAD_REACTORS
330
2935
102
}
330
2935
100
AcDbScale
 70
     0
300
1/4" = 1'-0"
140
0.25
141
12.0
290
     0
  0
SCALE
  5
293F
102
{ACAD_REACTORS
330
2935
102
}
330
2935
100
AcDbScale
 70
     0
300
3/8" = 1'-0"
140
0.375
141
12.0
290
     0
  0
SCALE
  5
2940
102
{ACAD_REACTORS
330
2935
102
}
330
2935
100
AcDbScale
 70
     0
300
1/2" = 1'-0"
140
0.5
141
12.0
290
     0
  0
SCALE
  5
2941
102
{ACAD_REACTORS
330
2935
102
}
330
2935
100
AcDbScale
 70
     0
300
3/4" = 1'-0"
140
0.75
141
12.0
290
     0
  0
SCALE
  5
2942
102
{ACAD_REACTORS
330
2935
102
}
330
2935
100
AcDbScale
 70
     0
300
1" = 1'-0"
140
1.0
141
12.0
290
     0
  0
SCALE
  5
2943
102
{ACAD_REACTORS
330
2935
102
}
330
2935
100
AcDbScale
 70
     0
300
1-1/2" = 1'-0"
140
1.5
141
12.0
290
     0
  0
SCALE
  5
2944
102
{ACAD_REACTORS
330
2935
102
}
330
2935
100
AcDbScale
 70
     0
300
3" = 1'-0"
140
3.0
141
12.0
290
     0
  0
SCALE
  5
2945
102
{ACAD_REACTORS
330
2935
102
}
330
2935
100
AcDbScale
 70
     0
300
6" = 1'-0"
140
6.0
141
12.0
290
     0
  0
SCALE
  5
2946
102
{ACAD_REACTORS
330
2935
102
}
330
2935
100
AcDbScale
 70
     0
300
1'-0" = 1'-0"
140
12.0
141
12.0
290
     0
  0
TABLESTYLE
  5
2957
102
{ACAD_XDICTIONARY
360
2F43
102
}
102
{ACAD_REACTORS
330
2956
102
}
330
2956
100
AcDbTableStyle
  3
Standard
 70
     0
 71
     0
 40
0.06
 41
0.06
280
     0
281
     0
  7
STANDARD
140
0.18
170
     2
 62
     0
 63
     7
283
     0
274
    -2
284
     1
 64
     0
275
    -2
285
     1
 65
     0
276
    -2
286
     1
 66
     0
277
    -2
287
     1
 67
     0
278
    -2
288
     1
 68
     0
279
    -2
289
     1
 69
     0
  7
STANDARD
140
0.25
170
     5
 62
     0
 63
     7
283
     0
274
    -2
284
     1
 64
     0
275
    -2
285
     1
 65
     0
276
    -2
286
     1
 66
     0
277
    -2
287
     1
 67
     0
278
    -2
288
     1
 68
     0
279
    -2
289
     1
 69
     0
  7
STANDARD
140
0.18
170
     5
 62
     0
 63
     7
283
     0
274
    -2
284
     1
 64
     0
275
    -2
285
     1
 65
     0
276
    -2
286
     1
 66
     0
277
    -2
287
     1
 67
     0
278
    -2
288
     1
 68
     0
279
    -2
289
     1
 69
     0
  0
VISUALSTYLE
  5
2922
102
{ACAD_XDICTIONARY
360
5945
102
}
102
{ACAD_REACTORS
330
291C
102
}
330
291C
100
AcDbVisualStyle
  2

 70
     4
 71
     0
 72
     2
 73
     0
 90
        0
 40
-0.6
 41
-30.0
 62
     5
 63
     7
 74
     1
 91
        4
 64
     7
 65
   257
 75
     1
175
     1
 42
1.0
 92
        0
 66
   257
 43
1.0
 76
     1
 77
     6
 78
     2
 67
     7
 79
     5
170
     0
171
     0
290
     0
174
     0
 93
        1
 44
0.0
173
     0
291
     0
 45
0.0
1001
ACAD
1000
AcDbSavedByObjectVersion
1070
     0
  0
VISUALSTYLE
  5
2CA3
102
{ACAD_XDICTIONARY
360
5970
102
}
102
{ACAD_REACTORS
330
291C
102
}
330
291C
100
AcDbVisualStyle
  2

 70
     5
 71
     0
 72
     2
 73
     1
 90
        0
 40
-0.6
 41
-30.0
 62
     5
 63
     7
 74
     1
 91
        4
 64
     7
 65
   257
 75
     1
175
     1
 42
1.0
 92
        0
 66
   257
 43
1.0
 76
     1
 77
     6
 78
     2
 67
     7
 79
     5
170
     0
171
     0
290
     0
174
     0
 93
        1
 44
0.0
173
     0
291
     0
 45
0.0
1001
ACAD
1000
AcDbSavedByObjectVersion
1070
     0
  0
VISUALSTYLE
  5
2921
102
{ACAD_XDICTIONARY
360
5943
102
}
102
{ACAD_REACTORS
330
291C
102
}
330
291C
100
AcDbVisualStyle
  2

 70
     7
 71
     1
 72
     0
 73
     1
 90
        0
 40
-0.6
 41
-30.0
 62
     5
 63
     7
 74
     0
 91
        4
 64
     7
 65
   257
 75
     1
175
     1
 42
1.0
 92
        8
 66
     7
 43
1.0
 76
     1
 77
     6
 78
     2
 67
     7
 79
     5
170
     0
171
     0
290
     0
174
     0
 93
        1
 44
0.0
173
     0
291
     1
 45
0.0
1001
ACAD
1000
AcDbSavedByObjectVersion
1070
     0
  0
VISUALSTYLE
  5
2928
102
{ACAD_XDICTIONARY
360
5951
102
}
102
{ACAD_REACTORS
330
291C
102
}
330
291C
100
AcDbVisualStyle
  2

 70
    12
 71
     2
 72
     2
 73
     0
 90
        0
 40
-0.6
 41
-30.0
 62
     5
 63
     7
 74
     1
 91
        4
 64
     7
 65
   257
 75
     1
175
     1
 42
1.0
 92
        8
 66
     7
 43
1.0
 76
     1
 77
     6
 78
     2
 67
     7
 79
     5
170
     0
171
     0
290
     0
174
     0
 93
        1
 44
50.0
173
     0
291
     1
 45
0.0
1001
ACAD
1000
AcDbSavedByObjectVersion
1070
     0
  0
VISUALSTYLE
  5
292C
102
{ACAD_XDICTIONARY
360
5959
102
}
102
{ACAD_REACTORS
330
291C
102
}
330
291C
100
AcDbVisualStyle
  2

 70
    16
 71
     2
 72
     2
 73
     3
 90
        0
 40
-0.6
 41
-30.0
 62
     5
 63
     8
 74
     1
 91
        4
 64
     7
 65
   257
 75
     1
175
     1
 42
1.0
 92
        8
 66
     8
 43
1.0
 76
     1
 77
     6
 78
     2
 67
     7
 79
     5
170
     0
171
     0
290
     0
174
     0
 93
        1
 44
0.0
173
     0
291
     1
 45
0.0
1001
ACAD
1000
AcDbSavedByObjectVersion
1070
     0
  0
VISUALSTYLE
  5
2925
102
{ACAD_XDICTIONARY
360
594B
102
}
102
{ACAD_REACTORS
330
291C
102
}
330
291C
100
AcDbVisualStyle
  2

 70
     9
 71
     3
 72
     2
 73
     0
 90
        0
 40
-0.6
 41
-30.0
 62
     5
 63
     7
 74
     2
 91
        2
 64
     7
 65
   257
 75
     1
175
     1
 42
179.0
 92
        8
 66
     7
 43
1.0
 76
     1
 77
     6
 78
     2
 67
     7
 79
     3
170
     0
171
     0
290
     0
174
     0
 93
        1
 44
0.0
173
     0
291
     0
 45
0.0
1001
ACAD
1000
AcDbSavedByObjectVersion
1070
     0
  0
VISUALSTYLE
  5
2927
102
{ACAD_XDICTIONARY
360
594F
102
}
102
{ACAD_REACTORS
330
291C
102
}
330
291C
100
AcDbVisualStyle
  2

 70
    11
 71
     2
 72
     2
 73
     0
 90
        0
 40
-0.6
 41
-30.0
 62
     5
 63
     7
 74
     1
 91
        4
 64
     7
 65
   257
 75
     1
175
     1
 42
1.0
 92
        8
 66
     7
 43
1.0
 76
     1
 77
     6
 78
     2
 67
     7
 79
     5
170
     0
171
     0
290
     0
174
     0
 93
        1
 44
-50.0
173
     0
291
     1
 45
0.0
1001
ACAD
1000
AcDbSavedByObjectVersion
1070
     0
  0
VISUALSTYLE
  5
2934
102
{ACAD_XDICTIONARY
360
5969
102
}
102
{ACAD_REACTORS
330
291C
102
}
330
291C
100
AcDbVisualStyle
  2

 70
    22
 71
     2
 72
     2
 73
     0
 90
        0
 40
-0.6
 41
-30.0
 62
     5
 63
     7
 74
     1
 91
        4
 64
     7
 65
   257
 75
     1
175
     1
 42
1.0
 92
        8
 66
     7
 43
1.0
 76
     1
 77
     6
 78
     2
 67
     7
 79
     5
170
     0
171
     0
290
     0
174
     0
 93
        1
 44
0.0
173
     0
291
     1
 45
0.0
1001
ACAD
1000
AcDbSavedByObjectVersion
1070
     0
  0
VISUALSTYLE
  5
292B
102
{ACAD_XDICTIONARY
360
5957
102
}
102
{ACAD_REACTORS
330
291C
102
}
330
291C
100
AcDbVisualStyle
  2

 70
    15
 71
     2
 72
     2
 73
     0
 90
        0
 40
-0.6
 41
-30.0
 62
     5
 63
     7
 74
     1
 91
        4
 64
     7
 65
   257
 75
     1
175
     1
 42
1.0
 92
        8
 66
     7
 43
1.0
 76
     1
 77
     6
 78
     2
 67
     7
 79
     5
170
     0
171
     0
290
     0
174
     0
 93
        1
 44
0.0
173
     0
291
     1
 45
0.0
1001
ACAD
1000
AcDbSavedByObjectVersion
1070
     0
  0
VISUALSTYLE
  5
291D
102
{ACAD_XDICTIONARY
360
593B
102
}
102
{ACAD_REACTORS
330
291C
102
}
330
291C
100
AcDbVisualStyle
  2

 70
     0
 71
     2
 72
     1
 73
     1
 90
        2
 40
-0.6
 41
30.0
 62
     5
 63
     7
 74
     0
 91
        0
 64
     7
 65
   257
 75
     1
175
     1
 42
1.0
 92
        8
 66
     7
 43
1.0
 76
     1
 77
     6
 78
     2
 67
     7
 79
     5
170
     0
171
     0
290
     0
174
     0
 93
       13
 44
0.0
173
     0
291
     1
 45
0.0
1001
ACAD
1000
AcDbSavedByObjectVersion
1070
     0
  0
VISUALSTYLE
  5
291E
102
{ACAD_XDICTIONARY
360
593D
102
}
102
{ACAD_REACTORS
330
291C
102
}
330
291C
100
AcDbVisualStyle
  2

 70
     1
 71
     2
 72
     1
 73
     1
 90
        2
 40
-0.6
 41
30.0
 62
     5
 63
     7
 74
     1
 91
        0
 64
     7
 65
   257
 75
     1
175
     1
 42
1.0
 92
        0
 66
   257
 43
1.0
 76
     1
 77
     6
 78
     2
 67
     7
 79
     5
170
     0
171
     0
290
     0
174
     0
 93
       13
 44
0.0
173
     0
291
     1
 45
0.0
1001
ACAD
1000
AcDbSavedByObjectVersion
1070
     0
  0
VISUALSTYLE
  5
291F
102
{ACAD_XDICTIONARY
360
593F
102
}
102
{ACAD_REACTORS
330
291C
102
}
330
291C
100
AcDbVisualStyle
  2

 70
     2
 71
     2
 72
     2
 73
     1
 90
        2
 40
-0.6
 41
30.0
 62
     5
 63
     7
 74
     0
 91
        0
 64
     7
 65
   257
 75
     1
175
     1
 42
1.0
 92
        0
 66
     7
 43
1.0
 76
     1
 77
     6
 78
     2
 67
     7
 79
     5
170
     0
171
     0
290
     0
174
     0
 93
       13
 44
0.0
173
     0
291
     1
 45
0.0
1001
ACAD
1000
AcDbSavedByObjectVersion
1070
     0
  0
VISUALSTYLE
  5
2920
102
{ACAD_XDICTIONARY
360
5941
102
}
102
{ACAD_REACTORS
330
291C
102
}
330
291C
100
AcDbVisualStyle
  2

 70
     3
 71
     2
 72
     2
 73
     1
 90
        2
 40
-0.6
 41
30.0
 62
     5
 63
     7
 74
     1
 91
        0
 64
     7
 65
   257
 75
     1
175
     1
 42
1.0
 92
        0
 66
   257
 43
1.0
 76
     1
 77
     6
 78
     2
 67
     7
 79
     5
170
     0
171
     0
290
     0
174
     0
 93
       13
 44
0.0
173
     0
291
     1
 45
0.0
1001
ACAD
1000
AcDbSavedByObjectVersion
1070
     0
  0
VISUALSTYLE
  5
2924
102
{ACAD_XDICTIONARY
360
5949
102
}
102
{ACAD_REACTORS
330
291C
102
}
330
291C
100
AcDbVisualStyle
  2

 70
     6
 71
     1
 72
     2
 73
     2
 90
        0
 40
-0.6
 41
-30.0
 62
     5
 63
     7
 74
     2
 91
        2
 64
     7
 65
   257
 75
     2
175
     1
 42
40.0
 92
        0
 66
   257
 43
1.0
 76
     1
 77
     6
 78
     2
 67
     7
 79
     3
170
     0
171
     0
290
     0
174
     0
 93
        1
 44
0.0
173
     0
291
     0
 45
0.0
1001
ACAD
1000
AcDbSavedByObjectVersion
1070
     0
  0
VISUALSTYLE
  5
2932
102
{ACAD_XDICTIONARY
360
5965
102
}
102
{ACAD_REACTORS
330
291C
102
}
330
291C
100
AcDbVisualStyle
  2

 70
    20
 71
     2
 72
     2
 73
     0
 90
        0
 40
-0.6
 41
-30.0
 62
     5
 63
     7
 74
     1
 91
        4
 64
     7
 65
   257
 75
     1
175
     1
 42
1.0
 92
       10
 66
     7
 43
1.0
 76
     1
 77
     6
 78
     2
 67
     7
 79
     5
170
     0
171
     0
290
     0
174
     0
 93
        1
 44
0.0
173
     0
291
     1
 45
0.0
1001
ACAD
1000
AcDbSavedByObjectVersion
1070
     0
  0
VISUALSTYLE
  5
292A
102
{ACAD_XDICTIONARY
360
5955
102
}
102
{ACAD_REACTORS
330
291C
102
}
330
291C
100
AcDbVisualStyle
  2

 70
    14
 71
     2
 72
     2
 73
     0
 90
        0
 40
-0.6
 41
-30.0
 62
     5
 63
     7
 74
     1
 91
        4
 64
     7
 65
   257
 75
     7
175
     7
 42
1.0
 92
        8
 66
     7
 43
1.0
 76
     1
 77
     6
 78
     2
 67
     7
 79
     5
170
     0
171
     0
290
     0
174
     0
 93
        1
 44
0.0
173
     0
291
     1
 45
0.0
1001
ACAD
1000
AcDbSavedByObjectVersion
1070
     0
  0
VISUALSTYLE
  5
2933
102
{ACAD_XDICTIONARY
360
5967
102
}
102
{ACAD_REACTORS
330
291C
102
}
330
291C
100
AcDbVisualStyle
  2

 70
    21
 71
     2
 72
     2
 73
     0
 90
        0
 40
-0.6
 41
-30.0
 62
     5
 63
     7
 74
     1
 91
        4
 64
     7
 65
   257
 75
     1
175
     1
 42
1.0
 92
        9
 66
     7
 43
1.0
 76
     1
 77
     6
 78
     2
 67
     7
 79
     5
170
     0
171
     0
290
     0
174
     0
 93
        1
 44
0.0
173
     0
291
     1
 45
0.0
1001
ACAD
1000
AcDbSavedByObjectVersion
1070
     0
  0
VISUALSTYLE
  5
2926
102
{ACAD_XDICTIONARY
360
594D
102
}
102
{ACAD_REACTORS
330
291C
102
}
330
291C
100
AcDbVisualStyle
  2

 70
     8
 71
     2
 72
     3
 73
     0
 90
        2
 40
-0.6
 41
30.0
 62
     5
 63
     7
 74
     0
 91
        0
 64
     7
 65
   257
 75
     1
175
     1
 42
1.0
 92
        8
 66
   257
 43
1.0
 76
     1
 77
     6
 78
     2
 67
     7
 79
     3
170
     0
171
     0
290
     0
174
     0
 93
       13
 44
0.0
173
     0
291
     0
 45
0.0
1001
ACAD
1000
AcDbSavedByObjectVersion
1070
     0
  0
VISUALSTYLE
  5
2931
102
{ACAD_XDICTIONARY
360
5963
102
}
102
{ACAD_REACTORS
330
291C
102
}
330
291C
100
AcDbVisualStyle
  2

 70
    27
 71
     2
 72
     2
 73
     1
 90
        2
 40
-0.6
 41
30.0
 62
     5
 63
     7
 74
     0
 91
        4
 64
     7
 65
   257
 75
     1
175
     1
 42
1.0
 92
        8
 66
   257
 43
1.0
 76
     1
 77
     6
 78
     2
 67
     8
 79
     3
170
     0
171
     0
290
     0
174
     0
 93
        5
 44
0.0
173
     0
291
     0
 45
0.0
1001
ACAD
1000
AcDbSavedByObjectVersion
1070
     0
  0
VISUALSTYLE
  5
2930
102
{ACAD_XDICTIONARY
360
5961
102
}
102
{ACAD_REACTORS
330
291C
102
}
330
291C
100
AcDbVisualStyle
  2

 70
    26
 71
     2
 72
     2
 73
     1
 90
        2
 40
-0.6
 41
30.0
 62
     5
 63
     7
 74
     1
 91
       10
 64
     7
 65
   257
 75
     2
175
     1
 42
1.0
 92
        8
 66
   257
 43
1.0
 76
     1
 77
     6
 78
     2
 67
     7
 79
     3
170
     0
171
     0
290
     0
174
     0
 93
        5
 44
0.0
173
     0
291
     0
 45
0.0
1001
ACAD
1000
AcDbSavedByObjectVersion
1070
     0
  0
VISUALSTYLE
  5
292D
102
{ACAD_XDICTIONARY
360
595B
102
}
102
{ACAD_REACTORS
330
291C
102
}
330
291C
100
AcDbVisualStyle
  2

 70
    23
 71
     2
 72
     2
 73
     3
 90
        0
 40
-0.6
 41
-30.0
 62
     5
 63
     7
 74
     2
 91
        2
 64
     7
 65
     7
 75
     1
175
     1
 42
40.0
 92
        8
 66
     7
 43
1.0
 76
     1
 77
     6
 78
     2
 67
     7
 79
     3
170
     0
171
     0
290
     0
174
     0
 93
        1
 44
0.0
173
     0
291
     0
 45
0.0
1001
ACAD
1000
AcDbSavedByObjectVersion
1070
     0
  0
VISUALSTYLE
  5
292E
102
{ACAD_XDICTIONARY
360
595D
102
}
102
{ACAD_REACTORS
330
291C
102
}
330
291C
100
AcDbVisualStyle
  2

 70
    24
 71
     1
 72
     2
 73
     2
 90
        0
 40
-0.6
 41
-30.0
 62
     5
 63
     7
 74
     2
 91
        2
 64
     7
 65
     7
 75
     1
175
     1
 42
40.0
 92
       11
 66
     7
 43
1.0
 76
     1
 77
     6
 78
     2
 67
     7
 79
     6
170
     0
171
     0
290
     0
174
     0
 93
        1
 44
0.0
173
     0
291
     0
 45
0.0
1001
ACAD
1000
AcDbSavedByObjectVersion
1070
     0
  0
VISUALSTYLE
  5
2929
102
{ACAD_XDICTIONARY
360
5953
102
}
102
{ACAD_REACTORS
330
291C
102
}
330
291C
100
AcDbVisualStyle
  2

 70
    13
 71
     2
 72
     2
 73
     0
 90
        0
 40
-0.6
 41
-30.0
 62
     5
 63
     7
 74
     1
 91
        4
 64
     7
 65
   257
 75
     1
175
     1
 42
1.0
 92
       12
 66
     7
 43
1.0
 76
     1
 77
     6
 78
     2
 67
     7
 79
     5
170
     0
171
     0
290
     0
174
     0
 93
        1
 44
0.0
173
     0
291
     1
 45
0.0
1001
ACAD
1000
AcDbSavedByObjectVersion
1070
     0
  0
VISUALSTYLE
  5
2923
102
{ACAD_XDICTIONARY
360
5947
102
}
102
{ACAD_REACTORS
330
291C
102
}
330
291C
100
AcDbVisualStyle
  2

 70
     5
 71
     0
 72
     2
 73
     0
 90
        0
 40
-0.6
 41
-30.0
 62
     5
 63
     7
 74
     1
 91
        4
 64
     7
 65
   257
 75
     1
175
     1
 42
1.0
 92
        0
 66
   257
 43
1.0
 76
     1
 77
     6
 78
     2
 67
     7
 79
     3
170
     0
171
     0
290
     0
174
     0
 93
        1
 44
0.0
173
     0
291
     0
 45
0.0
1001
ACAD
1000
AcDbSavedByObjectVersion
1070
     0
  0
VISUALSTYLE
  5
292F
102
{ACAD_XDICTIONARY
360
595F
102
}
102
{ACAD_REACTORS
330
291C
102
}
330
291C
100
AcDbVisualStyle
  2

 70
    25
 71
     2
 72
     2
 73
     1
 90
        1
 40
0.5
 41
-30.0
 62
     5
 63
     7
 74
     1
 91
        0
 64
     7
 65
   257
 75
     1
175
     1
 42
1.0
 92
        8
 66
     7
 43
1.0
 76
     1
 77
     6
 78
     2
 67
     7
 79
     3
170
     0
171
     0
290
     0
174
     0
 93
       13
 44
0.0
173
     0
291
     0
 45
0.0
1001
ACAD
1000
AcDbSavedByObjectVersion
1070
     0
  0
DICTIONARYVAR
  5
2A50
102
{ACAD_REACTORS
330
2A4D
102
}
330
2A4D
100
DictionaryVariables
280
     0
  1
1:1
  0
DICTIONARYVAR
  5
2A4F
102
{ACAD_REACTORS
330
2A4D
102
}
330
2A4D
100
DictionaryVariables
280
     0
  1
STANDARD
  0
DICTIONARYVAR
  5
2A4E
102
{ACAD_REACTORS
330
2A4D
102
}
330
2A4D
100
DictionaryVariables
280
     0
  1
STANDARD
  0
DICTIONARYVAR
  5
2A53
102
{ACAD_REACTORS
330
2A4D
102
}
330
2A4D
100
DictionaryVariables
280
     0
  1
1
  0
DICTIONARYVAR
  5
2A52
102
{ACAD_REACTORS
330
2A4D
102
}
330
2A4D
100
DictionaryVariables
280
     0
  1
0
  0
DICTIONARYVAR
  5
2A51
102
{ACAD_REACTORS
330
2A4D
102
}
330
2A4D
100
DictionaryVariables
280
     0
  1
127
  0
DICTIONARYVAR
  5
5830
102
{ACAD_REACTORS
330
2A4D
102
}
330
2A4D
100
DictionaryVariables
280
     0
  1
2
  0
DICTIONARY
  5
596E
330
2961
100
AcDbDictionary
280
     1
281
     1
  3
ACAD_XREC_ROUNDTRIP
360
596F
  0
DICTIONARY
  5
596C
330
295D
100
AcDbDictionary
280
     1
281
     1
  3
ACAD_XREC_ROUNDTRIP
360
596D
  0
DICTIONARY
  5
290D
330
290C
100
AcDbDictionary
280
     1
281
     1
  3
ACAD_XREC_ROUNDTRIP
360
2F4C
  3
BUMPTILE
360
290F
  3
DIFFUSETILE
360
290E
  3
OPACITYTILE
360
2912
  3
REFLECTIONTILE
360
2911
  3
REFRACTIONTILE
360
2913
  3
SPECULARTILE
360
2910
  0
DICTIONARY
  5
2905
330
2904
100
AcDbDictionary
280
     1
281
     1
  3
ACAD_XREC_ROUNDTRIP
360
2F4B
  3
BUMPTILE
360
2907
  3
DIFFUSETILE
360
2906
  3
OPACITYTILE
360
290A
  3
REFLECTIONTILE
360
2909
  3
REFRACTIONTILE
360
290B
  3
SPECULARTILE
360
2908
  0
DICTIONARY
  5
2915
330
2914
100
AcDbDictionary
280
     1
281
     1
  3
ACAD_XREC_ROUNDTRIP
360
2F4D
  3
BUMPTILE
360
2917
  3
DIFFUSETILE
360
2916
  3
OPACITYTILE
360
291A
  3
REFLECTIONTILE
360
2919
  3
REFRACTIONTILE
360
291B
  3
SPECULARTILE
360
2918
  0
DICTIONARY
  5
2F43
330
2957
100
AcDbDictionary
280
     1
281
     1
  3
ACAD_ROUNDTRIP_2008_TABLESTYLE_CELLSTYLEMAP
360
5934
  3
ACAD_XREC_ROUNDTRIP
360
596B
  0
DICTIONARY
  5
5945
330
2922
100
AcDbDictionary
280
     1
281
     1
  3
ACAD_XREC_ROUNDTRIP
360
5946
  0
DICTIONARY
  5
5970
330
2CA3
100
AcDbDictionary
280
     1
281
     1
  3
ACAD_XREC_ROUNDTRIP
360
5971
  0
DICTIONARY
  5
5943
330
2921
100
AcDbDictionary
280
     1
281
     1
  3
ACAD_XREC_ROUNDTRIP
360
5944
  0
DICTIONARY
  5
5951
330
2928
100
AcDbDictionary
280
     1
281
     1
  3
ACAD_XREC_ROUNDTRIP
360
5952
  0
DICTIONARY
  5
5959
330
292C
100
AcDbDictionary
280
     1
281
     1
  3
ACAD_XREC_ROUNDTRIP
360
595A
  0
DICTIONARY
  5
594B
330
2925
100
AcDbDictionary
280
     1
281
     1
  3
ACAD_XREC_ROUNDTRIP
360
594C
  0
DICTIONARY
  5
594F
330
2927
100
AcDbDictionary
280
     1
281
     1
  3
ACAD_XREC_ROUNDTRIP
360
5950
  0
DICTIONARY
  5
5969
330
2934
100
AcDbDictionary
280
     1
281
     1
  3
ACAD_XREC_ROUNDTRIP
360
596A
  0
DICTIONARY
  5
5957
330
292B
100
AcDbDictionary
280
     1
281
     1
  3
ACAD_XREC_ROUNDTRIP
360
5958
  0
DICTIONARY
  5
593B
330
291D
100
AcDbDictionary
280
     1
281
     1
  3
ACAD_XREC_ROUNDTRIP
360
593C
  0
DICTIONARY
  5
593D
330
291E
100
AcDbDictionary
280
     1
281
     1
  3
ACAD_XREC_ROUNDTRIP
360
593E
  0
DICTIONARY
  5
593F
330
291F
100
AcDbDictionary
280
     1
281
     1
  3
ACAD_XREC_ROUNDTRIP
360
5940
  0
DICTIONARY
  5
5941
330
2920
100
AcDbDictionary
280
     1
281
     1
  3
ACAD_XREC_ROUNDTRIP
360
5942
  0
DICTIONARY
  5
5949
330
2924
100
AcDbDictionary
280
     1
281
     1
  3
ACAD_XREC_ROUNDTRIP
360
594A
  0
DICTIONARY
  5
5965
330
2932
100
AcDbDictionary
280
     1
281
     1
  3
ACAD_XREC_ROUNDTRIP
360
5966
  0
DICTIONARY
  5
5955
330
292A
100
AcDbDictionary
280
     1
281
     1
  3
ACAD_XREC_ROUNDTRIP
360
5956
  0
DICTIONARY
  5
5967
330
2933
100
AcDbDictionary
280
     1
281
     1
  3
ACAD_XREC_ROUNDTRIP
360
5968
  0
DICTIONARY
  5
594D
330
2926
100
AcDbDictionary
280
     1
281
     1
  3
ACAD_XREC_ROUNDTRIP
360
594E
  0
DICTIONARY
  5
5963
330
2931
100
AcDbDictionary
280
     1
281
     1
  3
ACAD_XREC_ROUNDTRIP
360
5964
  0
DICTIONARY
  5
5961
330
2930
100
AcDbDictionary
280
     1
281
     1
  3
ACAD_XREC_ROUNDTRIP
360
5962
  0
DICTIONARY
  5
595B
330
292D
100
AcDbDictionary
280
     1
281
     1
  3
ACAD_XREC_ROUNDTRIP
360
595C
  0
DICTIONARY
  5
595D
330
292E
100
AcDbDictionary
280
     1
281
     1
  3
ACAD_XREC_ROUNDTRIP
360
595E
  0
DICTIONARY
  5
5953
330
2929
100
AcDbDictionary
280
     1
281
     1
  3
ACAD_XREC_ROUNDTRIP
360
5954
  0
DICTIONARY
  5
5947
330
2923
100
AcDbDictionary
280
     1
281
     1
  3
ACAD_XREC_ROUNDTRIP
360
5948
  0
DICTIONARY
  5
595F
330
292F
100
AcDbDictionary
280
     1
281
     1
  3
ACAD_XREC_ROUNDTRIP
360
5960
  0
XRECORD
  5
596F
102
{ACAD_REACTORS
330
596E
102
}
330
596E
100
AcDbXrecord
280
     1
102
SHADEPLOT
 70
     0
102
SHADEPLOTRESLEVEL
 70
     2
102
SHADEPLOTCUSTOMDPI
 70
   300
  0
XRECORD
  5
596D
102
{ACAD_REACTORS
330
596C
102
}
330
596C
100
AcDbXrecord
280
     1
102
SHADEPLOT
 70
     0
102
SHADEPLOTRESLEVEL
 70
     2
102
SHADEPLOTCUSTOMDPI
 70
   300
  0
XRECORD
  5
2F4C
102
{ACAD_REACTORS
330
290D
102
}
330
290D
100
AcDbXrecord
280
     1
102
MATERIAL
148
0.0
149
0.0
149
0.0
 93
        0
 94
      127
282
     0
 72
     0
 77
     0
171
     0
175
     0
179
     0
273
     0
  0
XRECORD
  5
290F
102
{ACAD_REACTORS
330
290D
102
}
330
290D
100
AcDbXrecord
280
     1
270
     1
271
     1
  0
XRECORD
  5
290E
102
{ACAD_REACTORS
330
290D
102
}
330
290D
100
AcDbXrecord
280
     1
270
     1
271
     1
  0
XRECORD
  5
2912
102
{ACAD_REACTORS
330
290D
102
}
330
290D
100
AcDbXrecord
280
     1
270
     1
271
     1
  0
XRECORD
  5
2911
102
{ACAD_REACTORS
330
290D
102
}
330
290D
100
AcDbXrecord
280
     1
270
     1
271
     1
  0
XRECORD
  5
2913
102
{ACAD_REACTORS
330
290D
102
}
330
290D
100
AcDbXrecord
280
     1
270
     1
271
     1
  0
XRECORD
  5
2910
102
{ACAD_REACTORS
330
290D
102
}
330
290D
100
AcDbXrecord
280
     1
270
     1
271
     1
  0
XRECORD
  5
2F4B
102
{ACAD_REACTORS
330
2905
102
}
330
2905
100
AcDbXrecord
280
     1
102
MATERIAL
148
0.0
149
0.0
149
0.0
 93
        0
 94
      127
282
     0
 72
     0
 77
     0
171
     0
175
     0
179
     0
273
     0
  0
XRECORD
  5
2907
102
{ACAD_REACTORS
330
2905
102
}
330
2905
100
AcDbXrecord
280
     1
270
     1
271
     1
  0
XRECORD
  5
2906
102
{ACAD_REACTORS
330
2905
102
}
330
2905
100
AcDbXrecord
280
     1
270
     1
271
     1
  0
XRECORD
  5
290A
102
{ACAD_REACTORS
330
2905
102
}
330
2905
100
AcDbXrecord
280
     1
270
     1
271
     1
  0
XRECORD
  5
2909
102
{ACAD_REACTORS
330
2905
102
}
330
2905
100
AcDbXrecord
280
     1
270
     1
271
     1
  0
XRECORD
  5
290B
102
{ACAD_REACTORS
330
2905
102
}
330
2905
100
AcDbXrecord
280
     1
270
     1
271
     1
  0
XRECORD
  5
2908
102
{ACAD_REACTORS
330
2905
102
}
330
2905
100
AcDbXrecord
280
     1
270
     1
271
     1
  0
XRECORD
  5
2F4D
102
{ACAD_REACTORS
330
2915
102
}
330
2915
100
AcDbXrecord
280
     1
102
MATERIAL
148
0.0
149
0.0
149
0.0
 93
        0
 94
      127
282
     0
 72
     0
 77
     0
171
     0
175
     0
179
     0
273
     0
  0
XRECORD
  5
2917
102
{ACAD_REACTORS
330
2915
102
}
330
2915
100
AcDbXrecord
280
     1
270
     1
271
     1
  0
XRECORD
  5
2916
102
{ACAD_REACTORS
330
2915
102
}
330
2915
100
AcDbXrecord
280
     1
270
     1
271
     1
  0
XRECORD
  5
291A
102
{ACAD_REACTORS
330
2915
102
}
330
2915
100
AcDbXrecord
280
     1
270
     1
271
     1
  0
XRECORD
  5
2919
102
{ACAD_REACTORS
330
2915
102
}
330
2915
100
AcDbXrecord
280
     1
270
     1
271
     1
  0
XRECORD
  5
291B
102
{ACAD_REACTORS
330
2915
102
}
330
2915
100
AcDbXrecord
280
     1
270
     1
271
     1
  0
XRECORD
  5
2918
102
{ACAD_REACTORS
330
2915
102
}
330
2915
100
AcDbXrecord
280
     1
270
     1
271
     1
  0
CELLSTYLEMAP
  5
5934
102
{ACAD_REACTORS
330
2F43
102
}
330
2F43
100
AcDbCellStyleMap
 90
        3
300
CELLSTYLE
  1
TABLEFORMAT_BEGIN
 90
        5
170
     1
 91
        0
 92
    32768
 62
   257
 93
        1
300
CONTENTFORMAT
  1
CONTENTFORMAT_BEGIN
 90
        0
 91
        0
 92
      512
 93
        0
300

 40
0.0
140
1.0
 94
        5
 62
     0
340
2948
144
0.25
309
CONTENTFORMAT_END
171
     1
301
MARGIN
  1
CELLMARGIN_BEGIN
 40
0.06
 40
0.06
 40
0.06
 40
0.06
 40
0.18
 40
0.18
309
CELLMARGIN_END
 94
        6
 95
        1
302
GRIDFORMAT
  1
GRIDFORMAT_BEGIN
 90
        0
 91
        1
 62
     0
 92
       -2
340
0
 93
        0
 40
0.045
309
GRIDFORMAT_END
 95
        2
302
GRIDFORMAT
  1
GRIDFORMAT_BEGIN
 90
        0
 91
        1
 62
     0
 92
       -2
340
0
 93
        0
 40
0.045
309
GRIDFORMAT_END
 95
        4
302
GRIDFORMAT
  1
GRIDFORMAT_BEGIN
 90
        0
 91
        1
 62
     0
 92
       -2
340
0
 93
        0
 40
0.045
309
GRIDFORMAT_END
 95
        8
302
GRIDFORMAT
  1
GRIDFORMAT_BEGIN
 90
        0
 91
        1
 62
     0
 92
       -2
340
0
 93
        0
 40
0.045
309
GRIDFORMAT_END
 95
       16
302
GRIDFORMAT
  1
GRIDFORMAT_BEGIN
 90
        0
 91
        1
 62
     0
 92
       -2
340
0
 93
        0
 40
0.045
309
GRIDFORMAT_END
 95
       32
302
GRIDFORMAT
  1
GRIDFORMAT_BEGIN
 90
        0
 91
        1
 62
     0
 92
       -2
340
0
 93
        0
 40
0.045
309
GRIDFORMAT_END
309
TABLEFORMAT_END
  1
CELLSTYLE_BEGIN
 90
        1
 91
        1
300
_TITLE
309
CELLSTYLE_END
300
CELLSTYLE
  1
TABLEFORMAT_BEGIN
 90
        5
170
     1
 91
        0
 92
        0
 62
   257
 93
        1
300
CONTENTFORMAT
  1
CONTENTFORMAT_BEGIN
 90
        0
 91
        0
 92
      512
 93
        0
300

 40
0.0
140
1.0
 94
        5
 62
     0
340
2948
144
0.18
309
CONTENTFORMAT_END
171
     1
301
MARGIN
  1
CELLMARGIN_BEGIN
 40
0.06
 40
0.06
 40
0.06
 40
0.06
 40
0.18
 40
0.18
309
CELLMARGIN_END
 94
        6
 95
        1
302
GRIDFORMAT
  1
GRIDFORMAT_BEGIN
 90
        0
 91
        1
 62
     0
 92
       -2
340
0
 93
        0
 40
0.045
309
GRIDFORMAT_END
 95
        2
302
GRIDFORMAT
  1
GRIDFORMAT_BEGIN
 90
        0
 91
        1
 62
     0
 92
       -2
340
0
 93
        0
 40
0.045
309
GRIDFORMAT_END
 95
        4
302
GRIDFORMAT
  1
GRIDFORMAT_BEGIN
 90
        0
 91
        1
 62
     0
 92
       -2
340
0
 93
        0
 40
0.045
309
GRIDFORMAT_END
 95
        8
302
GRIDFORMAT
  1
GRIDFORMAT_BEGIN
 90
        0
 91
        1
 62
     0
 92
       -2
340
0
 93
        0
 40
0.045
309
GRIDFORMAT_END
 95
       16
302
GRIDFORMAT
  1
GRIDFORMAT_BEGIN
 90
        0
 91
        1
 62
     0
 92
       -2
340
0
 93
        0
 40
0.045
309
GRIDFORMAT_END
 95
       32
302
GRIDFORMAT
  1
GRIDFORMAT_BEGIN
 90
        0
 91
        1
 62
     0
 92
       -2
340
0
 93
        0
 40
0.045
309
GRIDFORMAT_END
309
TABLEFORMAT_END
  1
CELLSTYLE_BEGIN
 90
        2
 91
        1
300
_HEADER
309
CELLSTYLE_END
300
CELLSTYLE
  1
TABLEFORMAT_BEGIN
 90
        5
170
     1
 91
        0
 92
        0
 62
   257
 93
        1
300
CONTENTFORMAT
  1
CONTENTFORMAT_BEGIN
 90
        0
 91
        0
 92
      512
 93
        0
300

 40
0.0
140
1.0
 94
        2
 62
     0
340
2948
144
0.18
309
CONTENTFORMAT_END
171
     1
301
MARGIN
  1
CELLMARGIN_BEGIN
 40
0.06
 40
0.06
 40
0.06
 40
0.06
 40
0.18
 40
0.18
309
CELLMARGIN_END
 94
        6
 95
        1
302
GRIDFORMAT
  1
GRIDFORMAT_BEGIN
 90
        0
 91
        1
 62
     0
 92
       -2
340
0
 93
        0
 40
0.045
309
GRIDFORMAT_END
 95
        2
302
GRIDFORMAT
  1
GRIDFORMAT_BEGIN
 90
        0
 91
        1
 62
     0
 92
       -2
340
0
 93
        0
 40
0.045
309
GRIDFORMAT_END
 95
        4
302
GRIDFORMAT
  1
GRIDFORMAT_BEGIN
 90
        0
 91
        1
 62
     0
 92
       -2
340
0
 93
        0
 40
0.045
309
GRIDFORMAT_END
 95
        8
302
GRIDFORMAT
  1
GRIDFORMAT_BEGIN
 90
        0
 91
        1
 62
     0
 92
       -2
340
0
 93
        0
 40
0.045
309
GRIDFORMAT_END
 95
       16
302
GRIDFORMAT
  1
GRIDFORMAT_BEGIN
 90
        0
 91
        1
 62
     0
 92
       -2
340
0
 93
        0
 40
0.045
309
GRIDFORMAT_END
 95
       32
302
GRIDFORMAT
  1
GRIDFORMAT_BEGIN
 90
        0
 91
        1
 62
     0
 92
       -2
340
0
 93
        0
 40
0.045
309
GRIDFORMAT_END
309
TABLEFORMAT_END
  1
CELLSTYLE_BEGIN
 90
        3
 91
        2
300
_DATA
309
CELLSTYLE_END
  0
XRECORD
  5
596B
102
{ACAD_REACTORS
330
2F43
102
}
330
2F43
100
AcDbXrecord
280
     1
102
ACAD_ROUNDTRIP_PRE2007_TABLESTYLE
 90
      512
 91
        0
  1

 92
      512
 93
        0
  2

 94
      512
 95
        0
  3

  0
XRECORD
  5
5946
102
{ACAD_REACTORS
330
5945
102
}
330
5945
100
AcDbXrecord
280
     1
102
RTVSPropertyOp0
 70
     1
102
RTVSPropertyOp1
 70
     1
102
RTVSPropertyOp2
 70
     1
102
RTVSPropertyOp3
 70
     1
102
RTVSPropertyOp4
 70
     1
102
RTVSPropertyOp5
 70
     1
102
RTVSPropertyOp6
 70
     1
102
RTVSPropertyOp7
 70
     1
102
RTVSPropertyOp8
 70
     1
102
RTVSPropertyOp9
 70
     1
102
RTVSPropertyOp10
 70
     1
102
RTVSPropertyOp11
 70
     1
102
RTVSPropertyOp12
 70
     1
102
RTVSPropertyOp13
 70
     1
102
RTVSPropertyOp14
 70
     1
102
RTVSPropertyOp15
 70
     1
102
RTVSPropertyOp16
 70
     1
102
RTVSPropertyOp17
 70
     1
102
RTVSPropertyOp18
 70
     1
102
RTVSPropertyOp19
 70
     1
102
RTVSPropertyOp20
 70
     1
102
RTVSPropertyOp21
 70
     1
102
RTVSPropertyOp22
 70
     1
102
RTVSPropertyOp23
 70
     1
102
RTVSPropertyOp24
 70
     1
102
RTVSPropertyOp25
 70
     1
102
RTVSPropertyOp26
 70
     1
102
RTVSPropertyOp27
 70
     1
102
RTVSPropertyOp28
 70
     1
102
RTVSPropertyOp29
 70
     1
102
RTVSPropertyOp30
 70
     1
102
RTVSPropertyOp31
 70
     1
102
RTVSPropertyOp32
 70
     1
  0
XRECORD
  5
5971
102
{ACAD_REACTORS
330
5970
102
}
330
5970
100
AcDbXrecord
280
     1
102
RTVSPropertyOp0
 70
     1
102
RTVSPropertyOp1
 70
     1
102
RTVSPropertyOp2
 70
     1
102
RTVSPropertyOp3
 70
     1
102
RTVSPropertyOp4
 70
     1
102
RTVSPropertyOp5
 70
     1
102
RTVSPropertyOp6
 70
     1
102
RTVSPropertyOp7
 70
     1
102
RTVSPropertyOp8
 70
     1
102
RTVSPropertyOp9
 70
     1
102
RTVSPropertyOp10
 70
     1
102
RTVSPropertyOp11
 70
     1
102
RTVSPropertyOp12
 70
     1
102
RTVSPropertyOp13
 70
     1
102
RTVSPropertyOp14
 70
     1
102
RTVSPropertyOp15
 70
     1
102
RTVSPropertyOp16
 70
     1
102
RTVSPropertyOp17
 70
     1
102
RTVSPropertyOp18
 70
     1
102
RTVSPropertyOp19
 70
     1
102
RTVSPropertyOp20
 70
     1
102
RTVSPropertyOp21
 70
     1
102
RTVSPropertyOp22
 70
     1
102
RTVSPropertyOp23
 70
     1
102
RTVSPropertyOp24
 70
     1
102
RTVSPropertyOp25
 70
     1
102
RTVSPropertyOp26
 70
     1
102
RTVSPropertyOp27
 70
     1
102
RTVSPropertyOp28
 70
     1
102
RTVSPropertyOp29
 70
     1
102
RTVSPropertyOp30
 70
     1
102
RTVSPropertyOp31
 70
     1
102
RTVSPropertyOp32
 70
     1
  0
XRECORD
  5
5944
102
{ACAD_REACTORS
330
5943
102
}
330
5943
100
AcDbXrecord
280
     1
102
RTVSPropertyOp0
 70
     1
102
RTVSPropertyOp1
 70
     1
102
RTVSPropertyOp2
 70
     1
102
RTVSPropertyOp3
 70
     1
102
RTVSPropertyOp4
 70
     1
102
RTVSPropertyOp5
 70
     1
102
RTVSPropertyOp6
 70
     1
102
RTVSPropertyOp7
 70
     1
102
RTVSPropertyOp8
 70
     1
102
RTVSPropertyOp9
 70
     1
102
RTVSPropertyOp10
 70
     1
102
RTVSPropertyOp11
 70
     1
102
RTVSPropertyOp12
 70
     1
102
RTVSPropertyOp13
 70
     1
102
RTVSPropertyOp14
 70
     1
102
RTVSPropertyOp15
 70
     1
102
RTVSPropertyOp16
 70
     1
102
RTVSPropertyOp17
 70
     1
102
RTVSPropertyOp18
 70
     1
102
RTVSPropertyOp19
 70
     1
102
RTVSPropertyOp20
 70
     1
102
RTVSPropertyOp21
 70
     1
102
RTVSPropertyOp22
 70
     1
102
RTVSPropertyOp23
 70
     1
102
RTVSPropertyOp24
 70
     1
102
RTVSPropertyOp25
 70
     1
102
RTVSPropertyOp26
 70
     1
102
RTVSPropertyOp27
 70
     1
102
RTVSPropertyOp28
 70
     1
102
RTVSPropertyOp29
 70
     1
102
RTVSPropertyOp30
 70
     1
102
RTVSPropertyOp31
 70
     1
102
RTVSPropertyOp32
 70
     1
  0
XRECORD
  5
5952
102
{ACAD_REACTORS
330
5951
102
}
330
5951
100
AcDbXrecord
280
     1
102
RTVSPropertyOp0
 70
     1
102
RTVSPropertyOp1
 70
     1
102
RTVSPropertyOp2
 70
     1
102
RTVSPropertyOp3
 70
     1
102
RTVSPropertyOp4
 70
     1
102
RTVSPropertyOp5
 70
     1
102
RTVSPropertyOp6
 70
     1
102
RTVSPropertyOp7
 70
     1
102
RTVSPropertyOp8
 70
     1
102
RTVSPropertyOp9
 70
     1
102
RTVSPropertyOp10
 70
     1
102
RTVSPropertyOp11
 70
     1
102
RTVSPropertyOp12
 70
     1
102
RTVSPropertyOp13
 70
     1
102
RTVSPropertyOp14
 70
     1
102
RTVSPropertyOp15
 70
     1
102
RTVSPropertyOp16
 70
     1
102
RTVSPropertyOp17
 70
     1
102
RTVSPropertyOp18
 70
     1
102
RTVSPropertyOp19
 70
     1
102
RTVSPropertyOp20
 70
     1
102
RTVSPropertyOp21
 70
     1
102
RTVSPropertyOp22
 70
     1
102
RTVSPropertyOp23
 70
     1
102
RTVSPropertyOp24
 70
     1
102
RTVSPropertyOp25
 70
     1
102
RTVSPropertyOp26
 70
     1
102
RTVSPropertyOp27
 70
     1
102
RTVSPropertyOp28
 70
     1
102
RTVSPropertyOp29
 70
     1
102
RTVSPropertyOp30
 70
     1
102
RTVSPropertyOp31
 70
     1
102
RTVSPropertyOp32
 70
     1
  0
XRECORD
  5
595A
102
{ACAD_REACTORS
330
5959
102
}
330
5959
100
AcDbXrecord
280
     1
102
RTVSPropertyOp0
 70
     1
102
RTVSPropertyOp1
 70
     1
102
RTVSPropertyOp2
 70
     1
102
RTVSPropertyOp3
 70
     1
102
RTVSPropertyOp4
 70
     1
102
RTVSPropertyOp5
 70
     1
102
RTVSPropertyOp6
 70
     1
102
RTVSPropertyOp7
 70
     1
102
RTVSPropertyOp8
 70
     1
102
RTVSPropertyOp9
 70
     1
102
RTVSPropertyOp10
 70
     1
102
RTVSPropertyOp11
 70
     1
102
RTVSPropertyOp12
 70
     1
102
RTVSPropertyOp13
 70
     1
102
RTVSPropertyOp14
 70
     1
102
RTVSPropertyOp15
 70
     1
102
RTVSPropertyOp16
 70
     1
102
RTVSPropertyOp17
 70
     1
102
RTVSPropertyOp18
 70
     1
102
RTVSPropertyOp19
 70
     1
102
RTVSPropertyOp20
 70
     1
102
RTVSPropertyOp21
 70
     1
102
RTVSPropertyOp22
 70
     1
102
RTVSPropertyOp23
 70
     1
102
RTVSPropertyOp24
 70
     1
102
RTVSPropertyOp25
 70
     1
102
RTVSPropertyOp26
 70
     1
102
RTVSPropertyOp27
 70
     1
102
RTVSPropertyOp28
 70
     1
102
RTVSPropertyOp29
 70
     1
102
RTVSPropertyOp30
 70
     1
102
RTVSPropertyOp31
 70
     1
102
RTVSPropertyOp32
 70
     1
  0
XRECORD
  5
594C
102
{ACAD_REACTORS
330
594B
102
}
330
594B
100
AcDbXrecord
280
     1
102
RTVSPropertyOp0
 70
     1
102
RTVSPropertyOp1
 70
     1
102
RTVSPropertyOp2
 70
     1
102
RTVSPropertyOp3
 70
     1
102
RTVSPropertyOp4
 70
     1
102
RTVSPropertyOp5
 70
     1
102
RTVSPropertyOp6
 70
     1
102
RTVSPropertyOp7
 70
     1
102
RTVSPropertyOp8
 70
     1
102
RTVSPropertyOp9
 70
     1
102
RTVSPropertyOp10
 70
     1
102
RTVSPropertyOp11
 70
     1
102
RTVSPropertyOp12
 70
     1
102
RTVSPropertyOp13
 70
     1
102
RTVSPropertyOp14
 70
     1
102
RTVSPropertyOp15
 70
     1
102
RTVSPropertyOp16
 70
     1
102
RTVSPropertyOp17
 70
     1
102
RTVSPropertyOp18
 70
     1
102
RTVSPropertyOp19
 70
     1
102
RTVSPropertyOp20
 70
     1
102
RTVSPropertyOp21
 70
     1
102
RTVSPropertyOp22
 70
     1
102
RTVSPropertyOp23
 70
     1
102
RTVSPropertyOp24
 70
     1
102
RTVSPropertyOp25
 70
     1
102
RTVSPropertyOp26
 70
     1
102
RTVSPropertyOp27
 70
     1
102
RTVSPropertyOp28
 70
     1
102
RTVSPropertyOp29
 70
     1
102
RTVSPropertyOp30
 70
     1
102
RTVSPropertyOp31
 70
     1
102
RTVSPropertyOp32
 70
     1
  0
XRECORD
  5
5950
102
{ACAD_REACTORS
330
594F
102
}
330
594F
100
AcDbXrecord
280
     1
102
RTVSPropertyOp0
 70
     1
102
RTVSPropertyOp1
 70
     1
102
RTVSPropertyOp2
 70
     1
102
RTVSPropertyOp3
 70
     1
102
RTVSPropertyOp4
 70
     1
102
RTVSPropertyOp5
 70
     1
102
RTVSPropertyOp6
 70
     1
102
RTVSPropertyOp7
 70
     1
102
RTVSPropertyOp8
 70
     1
102
RTVSPropertyOp9
 70
     1
102
RTVSPropertyOp10
 70
     1
102
RTVSPropertyOp11
 70
     1
102
RTVSPropertyOp12
 70
     1
102
RTVSPropertyOp13
 70
     1
102
RTVSPropertyOp14
 70
     1
102
RTVSPropertyOp15
 70
     1
102
RTVSPropertyOp16
 70
     1
102
RTVSPropertyOp17
 70
     1
102
RTVSPropertyOp18
 70
     1
102
RTVSPropertyOp19
 70
     1
102
RTVSPropertyOp20
 70
     1
102
RTVSPropertyOp21
 70
     1
102
RTVSPropertyOp22
 70
     1
102
RTVSPropertyOp23
 70
     1
102
RTVSPropertyOp24
 70
     1
102
RTVSPropertyOp25
 70
     1
102
RTVSPropertyOp26
 70
     1
102
RTVSPropertyOp27
 70
     1
102
RTVSPropertyOp28
 70
     1
102
RTVSPropertyOp29
 70
     1
102
RTVSPropertyOp30
 70
     1
102
RTVSPropertyOp31
 70
     1
102
RTVSPropertyOp32
 70
     1
  0
XRECORD
  5
596A
102
{ACAD_REACTORS
330
5969
102
}
330
5969
100
AcDbXrecord
280
     1
102
RTVSPropertyOp0
 70
     0
102
RTVSPropertyOp1
 70
     0
102
RTVSPropertyOp2
 70
     0
102
RTVSPropertyOp3
 70
     0
102
RTVSPropertyOp4
 70
     0
102
RTVSPropertyOp5
 70
     0
102
RTVSPropertyOp6
 70
     0
102
RTVSPropertyOp7
 70
     0
102
RTVSPropertyOp8
 70
     0
102
RTVSPropertyOp9
 70
     0
102
RTVSPropertyOp10
 70
     0
102
RTVSPropertyOp11
 70
     0
102
RTVSPropertyOp12
 70
     0
102
RTVSPropertyOp13
 70
     0
102
RTVSPropertyOp14
 70
     2
102
RTVSPropertyOp15
 70
     0
102
RTVSPropertyOp16
 70
     0
102
RTVSPropertyOp17
 70
     0
102
RTVSPropertyOp18
 70
     0
102
RTVSPropertyOp19
 70
     0
102
RTVSPropertyOp20
 70
     0
102
RTVSPropertyOp21
 70
     0
102
RTVSPropertyOp22
 70
     0
102
RTVSPropertyOp23
 70
     0
102
RTVSPropertyOp24
 70
     0
102
RTVSPropertyOp25
 70
     0
102
RTVSPropertyOp26
 70
     0
102
RTVSPropertyOp27
 70
     0
102
RTVSPropertyOp28
 70
     0
102
RTVSPropertyOp29
 70
     0
102
RTVSPropertyOp30
 70
     0
102
RTVSPropertyOp31
 70
     0
102
RTVSPropertyOp32
 70
     0
  0
XRECORD
  5
5958
102
{ACAD_REACTORS
330
5957
102
}
330
5957
100
AcDbXrecord
280
     1
102
RTVSPropertyOp0
 70
     1
102
RTVSPropertyOp1
 70
     1
102
RTVSPropertyOp2
 70
     1
102
RTVSPropertyOp3
 70
     1
102
RTVSPropertyOp4
 70
     1
102
RTVSPropertyOp5
 70
     1
102
RTVSPropertyOp6
 70
     1
102
RTVSPropertyOp7
 70
     1
102
RTVSPropertyOp8
 70
     1
102
RTVSPropertyOp9
 70
     1
102
RTVSPropertyOp10
 70
     1
102
RTVSPropertyOp11
 70
     1
102
RTVSPropertyOp12
 70
     1
102
RTVSPropertyOp13
 70
     1
102
RTVSPropertyOp14
 70
     1
102
RTVSPropertyOp15
 70
     1
102
RTVSPropertyOp16
 70
     1
102
RTVSPropertyOp17
 70
     1
102
RTVSPropertyOp18
 70
     1
102
RTVSPropertyOp19
 70
     1
102
RTVSPropertyOp20
 70
     1
102
RTVSPropertyOp21
 70
     1
102
RTVSPropertyOp22
 70
     1
102
RTVSPropertyOp23
 70
     1
102
RTVSPropertyOp24
 70
     1
102
RTVSPropertyOp25
 70
     1
102
RTVSPropertyOp26
 70
     1
102
RTVSPropertyOp27
 70
     1
102
RTVSPropertyOp28
 70
     1
102
RTVSPropertyOp29
 70
     1
102
RTVSPropertyOp30
 70
     1
102
RTVSPropertyOp31
 70
     1
102
RTVSPropertyOp32
 70
     1
  0
XRECORD
  5
593C
102
{ACAD_REACTORS
330
593B
102
}
330
593B
100
AcDbXrecord
280
     1
102
RTVSPropertyOp0
 70
     1
102
RTVSPropertyOp1
 70
     1
102
RTVSPropertyOp2
 70
     1
102
RTVSPropertyOp3
 70
     1
102
RTVSPropertyOp4
 70
     1
102
RTVSPropertyOp5
 70
     1
102
RTVSPropertyOp6
 70
     1
102
RTVSPropertyOp7
 70
     1
102
RTVSPropertyOp8
 70
     1
102
RTVSPropertyOp9
 70
     1
102
RTVSPropertyOp10
 70
     1
102
RTVSPropertyOp11
 70
     1
102
RTVSPropertyOp12
 70
     1
102
RTVSPropertyOp13
 70
     1
102
RTVSPropertyOp14
 70
     1
102
RTVSPropertyOp15
 70
     1
102
RTVSPropertyOp16
 70
     1
102
RTVSPropertyOp17
 70
     1
102
RTVSPropertyOp18
 70
     1
102
RTVSPropertyOp19
 70
     1
102
RTVSPropertyOp20
 70
     1
102
RTVSPropertyOp21
 70
     1
102
RTVSPropertyOp22
 70
     1
102
RTVSPropertyOp23
 70
     1
102
RTVSPropertyOp24
 70
     1
102
RTVSPropertyOp25
 70
     1
102
RTVSPropertyOp26
 70
     1
102
RTVSPropertyOp27
 70
     1
102
RTVSPropertyOp28
 70
     1
102
RTVSPropertyOp29
 70
     1
102
RTVSPropertyOp30
 70
     1
102
RTVSPropertyOp31
 70
     1
102
RTVSPropertyOp32
 70
     1
  0
XRECORD
  5
593E
102
{ACAD_REACTORS
330
593D
102
}
330
593D
100
AcDbXrecord
280
     1
102
RTVSPropertyOp0
 70
     1
102
RTVSPropertyOp1
 70
     1
102
RTVSPropertyOp2
 70
     1
102
RTVSPropertyOp3
 70
     1
102
RTVSPropertyOp4
 70
     1
102
RTVSPropertyOp5
 70
     1
102
RTVSPropertyOp6
 70
     1
102
RTVSPropertyOp7
 70
     1
102
RTVSPropertyOp8
 70
     1
102
RTVSPropertyOp9
 70
     1
102
RTVSPropertyOp10
 70
     1
102
RTVSPropertyOp11
 70
     1
102
RTVSPropertyOp12
 70
     1
102
RTVSPropertyOp13
 70
     1
102
RTVSPropertyOp14
 70
     1
102
RTVSPropertyOp15
 70
     1
102
RTVSPropertyOp16
 70
     1
102
RTVSPropertyOp17
 70
     1
102
RTVSPropertyOp18
 70
     1
102
RTVSPropertyOp19
 70
     1
102
RTVSPropertyOp20
 70
     1
102
RTVSPropertyOp21
 70
     1
102
RTVSPropertyOp22
 70
     1
102
RTVSPropertyOp23
 70
     1
102
RTVSPropertyOp24
 70
     1
102
RTVSPropertyOp25
 70
     1
102
RTVSPropertyOp26
 70
     1
102
RTVSPropertyOp27
 70
     1
102
RTVSPropertyOp28
 70
     1
102
RTVSPropertyOp29
 70
     1
102
RTVSPropertyOp30
 70
     1
102
RTVSPropertyOp31
 70
     1
102
RTVSPropertyOp32
 70
     1
  0
XRECORD
  5
5940
102
{ACAD_REACTORS
330
593F
102
}
330
593F
100
AcDbXrecord
280
     1
102
RTVSPropertyOp0
 70
     1
102
RTVSPropertyOp1
 70
     1
102
RTVSPropertyOp2
 70
     1
102
RTVSPropertyOp3
 70
     1
102
RTVSPropertyOp4
 70
     1
102
RTVSPropertyOp5
 70
     1
102
RTVSPropertyOp6
 70
     1
102
RTVSPropertyOp7
 70
     1
102
RTVSPropertyOp8
 70
     1
102
RTVSPropertyOp9
 70
     1
102
RTVSPropertyOp10
 70
     1
102
RTVSPropertyOp11
 70
     1
102
RTVSPropertyOp12
 70
     1
102
RTVSPropertyOp13
 70
     1
102
RTVSPropertyOp14
 70
     1
102
RTVSPropertyOp15
 70
     1
102
RTVSPropertyOp16
 70
     1
102
RTVSPropertyOp17
 70
     1
102
RTVSPropertyOp18
 70
     1
102
RTVSPropertyOp19
 70
     1
102
RTVSPropertyOp20
 70
     1
102
RTVSPropertyOp21
 70
     1
102
RTVSPropertyOp22
 70
     1
102
RTVSPropertyOp23
 70
     1
102
RTVSPropertyOp24
 70
     1
102
RTVSPropertyOp25
 70
     1
102
RTVSPropertyOp26
 70
     1
102
RTVSPropertyOp27
 70
     1
102
RTVSPropertyOp28
 70
     1
102
RTVSPropertyOp29
 70
     1
102
RTVSPropertyOp30
 70
     1
102
RTVSPropertyOp31
 70
     1
102
RTVSPropertyOp32
 70
     1
  0
XRECORD
  5
5942
102
{ACAD_REACTORS
330
5941
102
}
330
5941
100
AcDbXrecord
280
     1
102
RTVSPropertyOp0
 70
     1
102
RTVSPropertyOp1
 70
     1
102
RTVSPropertyOp2
 70
     1
102
RTVSPropertyOp3
 70
     1
102
RTVSPropertyOp4
 70
     1
102
RTVSPropertyOp5
 70
     1
102
RTVSPropertyOp6
 70
     1
102
RTVSPropertyOp7
 70
     1
102
RTVSPropertyOp8
 70
     1
102
RTVSPropertyOp9
 70
     1
102
RTVSPropertyOp10
 70
     1
102
RTVSPropertyOp11
 70
     1
102
RTVSPropertyOp12
 70
     1
102
RTVSPropertyOp13
 70
     1
102
RTVSPropertyOp14
 70
     1
102
RTVSPropertyOp15
 70
     1
102
RTVSPropertyOp16
 70
     1
102
RTVSPropertyOp17
 70
     1
102
RTVSPropertyOp18
 70
     1
102
RTVSPropertyOp19
 70
     1
102
RTVSPropertyOp20
 70
     1
102
RTVSPropertyOp21
 70
     1
102
RTVSPropertyOp22
 70
     1
102
RTVSPropertyOp23
 70
     1
102
RTVSPropertyOp24
 70
     1
102
RTVSPropertyOp25
 70
     1
102
RTVSPropertyOp26
 70
     1
102
RTVSPropertyOp27
 70
     1
102
RTVSPropertyOp28
 70
     1
102
RTVSPropertyOp29
 70
     1
102
RTVSPropertyOp30
 70
     1
102
RTVSPropertyOp31
 70
     1
102
RTVSPropertyOp32
 70
     1
  0
XRECORD
  5
594A
102
{ACAD_REACTORS
330
5949
102
}
330
5949
100
AcDbXrecord
280
     1
102
RTVSPropertyOp0
 70
     1
102
RTVSPropertyOp1
 70
     1
102
RTVSPropertyOp2
 70
     1
102
RTVSPropertyOp3
 70
     1
102
RTVSPropertyOp4
 70
     1
102
RTVSPropertyOp5
 70
     1
102
RTVSPropertyOp6
 70
     1
102
RTVSPropertyOp7
 70
     1
102
RTVSPropertyOp8
 70
     1
102
RTVSPropertyOp9
 70
     1
102
RTVSPropertyOp10
 70
     1
102
RTVSPropertyOp11
 70
     1
102
RTVSPropertyOp12
 70
     1
102
RTVSPropertyOp13
 70
     1
102
RTVSPropertyOp14
 70
     1
102
RTVSPropertyOp15
 70
     1
102
RTVSPropertyOp16
 70
     1
102
RTVSPropertyOp17
 70
     1
102
RTVSPropertyOp18
 70
     1
102
RTVSPropertyOp19
 70
     1
102
RTVSPropertyOp20
 70
     1
102
RTVSPropertyOp21
 70
     1
102
RTVSPropertyOp22
 70
     1
102
RTVSPropertyOp23
 70
     1
102
RTVSPropertyOp24
 70
     1
102
RTVSPropertyOp25
 70
     1
102
RTVSPropertyOp26
 70
     1
102
RTVSPropertyOp27
 70
     1
102
RTVSPropertyOp28
 70
     1
102
RTVSPropertyOp29
 70
     1
102
RTVSPropertyOp30
 70
     1
102
RTVSPropertyOp31
 70
     1
102
RTVSPropertyOp32
 70
     1
  0
XRECORD
  5
5966
102
{ACAD_REACTORS
330
5965
102
}
330
5965
100
AcDbXrecord
280
     1
102
RTVSPropertyOp0
 70
     0
102
RTVSPropertyOp1
 70
     0
102
RTVSPropertyOp2
 70
     0
102
RTVSPropertyOp3
 70
     0
102
RTVSPropertyOp4
 70
     0
102
RTVSPropertyOp5
 70
     0
102
RTVSPropertyOp6
 70
     0
102
RTVSPropertyOp7
 70
     0
102
RTVSPropertyOp8
 70
     0
102
RTVSPropertyOp9
 70
     0
102
RTVSPropertyOp10
 70
     0
102
RTVSPropertyOp11
 70
     0
102
RTVSPropertyOp12
 70
     0
102
RTVSPropertyOp13
 70
     0
102
RTVSPropertyOp14
 70
     2
102
RTVSPropertyOp15
 70
     0
102
RTVSPropertyOp16
 70
     0
102
RTVSPropertyOp17
 70
     0
102
RTVSPropertyOp18
 70
     0
102
RTVSPropertyOp19
 70
     0
102
RTVSPropertyOp20
 70
     0
102
RTVSPropertyOp21
 70
     0
102
RTVSPropertyOp22
 70
     0
102
RTVSPropertyOp23
 70
     0
102
RTVSPropertyOp24
 70
     0
102
RTVSPropertyOp25
 70
     0
102
RTVSPropertyOp26
 70
     0
102
RTVSPropertyOp27
 70
     0
102
RTVSPropertyOp28
 70
     0
102
RTVSPropertyOp29
 70
     0
102
RTVSPropertyOp30
 70
     0
102
RTVSPropertyOp31
 70
     0
102
RTVSPropertyOp32
 70
     0
  0
XRECORD
  5
5956
102
{ACAD_REACTORS
330
5955
102
}
330
5955
100
AcDbXrecord
280
     1
102
RTVSPropertyOp0
 70
     1
102
RTVSPropertyOp1
 70
     1
102
RTVSPropertyOp2
 70
     1
102
RTVSPropertyOp3
 70
     1
102
RTVSPropertyOp4
 70
     1
102
RTVSPropertyOp5
 70
     1
102
RTVSPropertyOp6
 70
     1
102
RTVSPropertyOp7
 70
     1
102
RTVSPropertyOp8
 70
     1
102
RTVSPropertyOp9
 70
     1
102
RTVSPropertyOp10
 70
     1
102
RTVSPropertyOp11
 70
     1
102
RTVSPropertyOp12
 70
     1
102
RTVSPropertyOp13
 70
     1
102
RTVSPropertyOp14
 70
     1
102
RTVSPropertyOp15
 70
     1
102
RTVSPropertyOp16
 70
     1
102
RTVSPropertyOp17
 70
     1
102
RTVSPropertyOp18
 70
     1
102
RTVSPropertyOp19
 70
     1
102
RTVSPropertyOp20
 70
     1
102
RTVSPropertyOp21
 70
     1
102
RTVSPropertyOp22
 70
     1
102
RTVSPropertyOp23
 70
     1
102
RTVSPropertyOp24
 70
     1
102
RTVSPropertyOp25
 70
     1
102
RTVSPropertyOp26
 70
     1
102
RTVSPropertyOp27
 70
     1
102
RTVSPropertyOp28
 70
     1
102
RTVSPropertyOp29
 70
     1
102
RTVSPropertyOp30
 70
     1
102
RTVSPropertyOp31
 70
     1
102
RTVSPropertyOp32
 70
     1
  0
XRECORD
  5
5968
102
{ACAD_REACTORS
330
5967
102
}
330
5967
100
AcDbXrecord
280
     1
102
RTVSPropertyOp0
 70
     0
102
RTVSPropertyOp1
 70
     0
102
RTVSPropertyOp2
 70
     0
102
RTVSPropertyOp3
 70
     0
102
RTVSPropertyOp4
 70
     0
102
RTVSPropertyOp5
 70
     0
102
RTVSPropertyOp6
 70
     0
102
RTVSPropertyOp7
 70
     0
102
RTVSPropertyOp8
 70
     0
102
RTVSPropertyOp9
 70
     0
102
RTVSPropertyOp10
 70
     0
102
RTVSPropertyOp11
 70
     0
102
RTVSPropertyOp12
 70
     0
102
RTVSPropertyOp13
 70
     0
102
RTVSPropertyOp14
 70
     2
102
RTVSPropertyOp15
 70
     0
102
RTVSPropertyOp16
 70
     0
102
RTVSPropertyOp17
 70
     0
102
RTVSPropertyOp18
 70
     0
102
RTVSPropertyOp19
 70
     0
102
RTVSPropertyOp20
 70
     0
102
RTVSPropertyOp21
 70
     0
102
RTVSPropertyOp22
 70
     0
102
RTVSPropertyOp23
 70
     0
102
RTVSPropertyOp24
 70
     0
102
RTVSPropertyOp25
 70
     0
102
RTVSPropertyOp26
 70
     0
102
RTVSPropertyOp27
 70
     0
102
RTVSPropertyOp28
 70
     0
102
RTVSPropertyOp29
 70
     0
102
RTVSPropertyOp30
 70
     0
102
RTVSPropertyOp31
 70
     0
102
RTVSPropertyOp32
 70
     0
  0
XRECORD
  5
594E
102
{ACAD_REACTORS
330
594D
102
}
330
594D
100
AcDbXrecord
280
     1
102
RTVSPropertyOp0
 70
     1
102
RTVSPropertyOp1
 70
     1
102
RTVSPropertyOp2
 70
     1
102
RTVSPropertyOp3
 70
     1
102
RTVSPropertyOp4
 70
     1
102
RTVSPropertyOp5
 70
     1
102
RTVSPropertyOp6
 70
     1
102
RTVSPropertyOp7
 70
     1
102
RTVSPropertyOp8
 70
     1
102
RTVSPropertyOp9
 70
     1
102
RTVSPropertyOp10
 70
     1
102
RTVSPropertyOp11
 70
     1
102
RTVSPropertyOp12
 70
     1
102
RTVSPropertyOp13
 70
     1
102
RTVSPropertyOp14
 70
     1
102
RTVSPropertyOp15
 70
     1
102
RTVSPropertyOp16
 70
     1
102
RTVSPropertyOp17
 70
     1
102
RTVSPropertyOp18
 70
     1
102
RTVSPropertyOp19
 70
     1
102
RTVSPropertyOp20
 70
     1
102
RTVSPropertyOp21
 70
     1
102
RTVSPropertyOp22
 70
     1
102
RTVSPropertyOp23
 70
     1
102
RTVSPropertyOp24
 70
     1
102
RTVSPropertyOp25
 70
     1
102
RTVSPropertyOp26
 70
     1
102
RTVSPropertyOp27
 70
     1
102
RTVSPropertyOp28
 70
     1
102
RTVSPropertyOp29
 70
     1
102
RTVSPropertyOp30
 70
     1
102
RTVSPropertyOp31
 70
     1
102
RTVSPropertyOp32
 70
     1
  0
XRECORD
  5
5964
102
{ACAD_REACTORS
330
5963
102
}
330
5963
100
AcDbXrecord
280
     1
102
RTVSPropertyOp0
 70
     1
102
RTVSPropertyOp1
 70
     1
102
RTVSPropertyOp2
 70
     1
102
RTVSPropertyOp3
 70
     1
102
RTVSPropertyOp4
 70
     1
102
RTVSPropertyOp5
 70
     1
102
RTVSPropertyOp6
 70
     1
102
RTVSPropertyOp7
 70
     1
102
RTVSPropertyOp8
 70
     1
102
RTVSPropertyOp9
 70
     1
102
RTVSPropertyOp10
 70
     1
102
RTVSPropertyOp11
 70
     1
102
RTVSPropertyOp12
 70
     1
102
RTVSPropertyOp13
 70
     1
102
RTVSPropertyOp14
 70
     1
102
RTVSPropertyOp15
 70
     1
102
RTVSPropertyOp16
 70
     1
102
RTVSPropertyOp17
 70
     1
102
RTVSPropertyOp18
 70
     1
102
RTVSPropertyOp19
 70
     1
102
RTVSPropertyOp20
 70
     1
102
RTVSPropertyOp21
 70
     1
102
RTVSPropertyOp22
 70
     1
102
RTVSPropertyOp23
 70
     1
102
RTVSPropertyOp24
 70
     1
102
RTVSPropertyOp25
 70
     1
102
RTVSPropertyOp26
 70
     1
102
RTVSPropertyOp27
 70
     1
102
RTVSPropertyOp28
 70
     1
102
RTVSPropertyOp29
 70
     1
102
RTVSPropertyOp30
 70
     1
102
RTVSPropertyOp31
 70
     1
102
RTVSPropertyOp32
 70
     1
  0
XRECORD
  5
5962
102
{ACAD_REACTORS
330
5961
102
}
330
5961
100
AcDbXrecord
280
     1
102
RTVSPropertyOp0
 70
     1
102
RTVSPropertyOp1
 70
     1
102
RTVSPropertyOp2
 70
     1
102
RTVSPropertyOp3
 70
     1
102
RTVSPropertyOp4
 70
     1
102
RTVSPropertyOp5
 70
     1
102
RTVSPropertyOp6
 70
     1
102
RTVSPropertyOp7
 70
     1
102
RTVSPropertyOp8
 70
     1
102
RTVSPropertyOp9
 70
     1
102
RTVSPropertyOp10
 70
     1
102
RTVSPropertyOp11
 70
     1
102
RTVSPropertyOp12
 70
     1
102
RTVSPropertyOp13
 70
     1
102
RTVSPropertyOp14
 70
     1
102
RTVSPropertyOp15
 70
     1
102
RTVSPropertyOp16
 70
     1
102
RTVSPropertyOp17
 70
     1
102
RTVSPropertyOp18
 70
     1
102
RTVSPropertyOp19
 70
     1
102
RTVSPropertyOp20
 70
     1
102
RTVSPropertyOp21
 70
     1
102
RTVSPropertyOp22
 70
     1
102
RTVSPropertyOp23
 70
     1
102
RTVSPropertyOp24
 70
     1
102
RTVSPropertyOp25
 70
     1
102
RTVSPropertyOp26
 70
     1
102
RTVSPropertyOp27
 70
     1
102
RTVSPropertyOp28
 70
     1
102
RTVSPropertyOp29
 70
     1
102
RTVSPropertyOp30
 70
     1
102
RTVSPropertyOp31
 70
     1
102
RTVSPropertyOp32
 70
     1
  0
XRECORD
  5
595C
102
{ACAD_REACTORS
330
595B
102
}
330
595B
100
AcDbXrecord
280
     1
102
RTVSPropertyOp0
 70
     1
102
RTVSPropertyOp1
 70
     1
102
RTVSPropertyOp2
 70
     1
102
RTVSPropertyOp3
 70
     1
102
RTVSPropertyOp4
 70
     1
102
RTVSPropertyOp5
 70
     1
102
RTVSPropertyOp6
 70
     1
102
RTVSPropertyOp7
 70
     1
102
RTVSPropertyOp8
 70
     1
102
RTVSPropertyOp9
 70
     1
102
RTVSPropertyOp10
 70
     1
102
RTVSPropertyOp11
 70
     1
102
RTVSPropertyOp12
 70
     1
102
RTVSPropertyOp13
 70
     1
102
RTVSPropertyOp14
 70
     1
102
RTVSPropertyOp15
 70
     1
102
RTVSPropertyOp16
 70
     1
102
RTVSPropertyOp17
 70
     1
102
RTVSPropertyOp18
 70
     1
102
RTVSPropertyOp19
 70
     1
102
RTVSPropertyOp20
 70
     1
102
RTVSPropertyOp21
 70
     1
102
RTVSPropertyOp22
 70
     1
102
RTVSPropertyOp23
 70
     1
102
RTVSPropertyOp24
 70
     1
102
RTVSPropertyOp25
 70
     1
102
RTVSPropertyOp26
 70
     1
102
RTVSPropertyOp27
 70
     1
102
RTVSPropertyOp28
 70
     1
102
RTVSPropertyOp29
 70
     1
102
RTVSPropertyOp30
 70
     1
102
RTVSPropertyOp31
 70
     1
102
RTVSPropertyOp32
 70
     1
  0
XRECORD
  5
595E
102
{ACAD_REACTORS
330
595D
102
}
330
595D
100
AcDbXrecord
280
     1
102
RTVSPropertyOp0
 70
     1
102
RTVSPropertyOp1
 70
     1
102
RTVSPropertyOp2
 70
     1
102
RTVSPropertyOp3
 70
     1
102
RTVSPropertyOp4
 70
     1
102
RTVSPropertyOp5
 70
     1
102
RTVSPropertyOp6
 70
     1
102
RTVSPropertyOp7
 70
     1
102
RTVSPropertyOp8
 70
     1
102
RTVSPropertyOp9
 70
     1
102
RTVSPropertyOp10
 70
     1
102
RTVSPropertyOp11
 70
     1
102
RTVSPropertyOp12
 70
     1
102
RTVSPropertyOp13
 70
     1
102
RTVSPropertyOp14
 70
     1
102
RTVSPropertyOp15
 70
     1
102
RTVSPropertyOp16
 70
     1
102
RTVSPropertyOp17
 70
     1
102
RTVSPropertyOp18
 70
     1
102
RTVSPropertyOp19
 70
     1
102
RTVSPropertyOp20
 70
     1
102
RTVSPropertyOp21
 70
     1
102
RTVSPropertyOp22
 70
     1
102
RTVSPropertyOp23
 70
     1
102
RTVSPropertyOp24
 70
     1
102
RTVSPropertyOp25
 70
     1
102
RTVSPropertyOp26
 70
     1
102
RTVSPropertyOp27
 70
     1
102
RTVSPropertyOp28
 70
     1
102
RTVSPropertyOp29
 70
     1
102
RTVSPropertyOp30
 70
     1
102
RTVSPropertyOp31
 70
     1
102
RTVSPropertyOp32
 70
     1
  0
XRECORD
  5
5954
102
{ACAD_REACTORS
330
5953
102
}
330
5953
100
AcDbXrecord
280
     1
102
RTVSPropertyOp0
 70
     1
102
RTVSPropertyOp1
 70
     1
102
RTVSPropertyOp2
 70
     1
102
RTVSPropertyOp3
 70
     1
102
RTVSPropertyOp4
 70
     1
102
RTVSPropertyOp5
 70
     1
102
RTVSPropertyOp6
 70
     1
102
RTVSPropertyOp7
 70
     1
102
RTVSPropertyOp8
 70
     1
102
RTVSPropertyOp9
 70
     1
102
RTVSPropertyOp10
 70
     1
102
RTVSPropertyOp11
 70
     1
102
RTVSPropertyOp12
 70
     1
102
RTVSPropertyOp13
 70
     1
102
RTVSPropertyOp14
 70
     1
102
RTVSPropertyOp15
 70
     1
102
RTVSPropertyOp16
 70
     1
102
RTVSPropertyOp17
 70
     1
102
RTVSPropertyOp18
 70
     1
102
RTVSPropertyOp19
 70
     1
102
RTVSPropertyOp20
 70
     1
102
RTVSPropertyOp21
 70
     1
102
RTVSPropertyOp22
 70
     1
102
RTVSPropertyOp23
 70
     1
102
RTVSPropertyOp24
 70
     1
102
RTVSPropertyOp25
 70
     1
102
RTVSPropertyOp26
 70
     1
102
RTVSPropertyOp27
 70
     1
102
RTVSPropertyOp28
 70
     1
102
RTVSPropertyOp29
 70
     1
102
RTVSPropertyOp30
 70
     1
102
RTVSPropertyOp31
 70
     1
102
RTVSPropertyOp32
 70
     1
  0
XRECORD
  5
5948
102
{ACAD_REACTORS
330
5947
102
}
330
5947
100
AcDbXrecord
280
     1
102
RTVSPropertyOp0
 70
     1
102
RTVSPropertyOp1
 70
     1
102
RTVSPropertyOp2
 70
     1
102
RTVSPropertyOp3
 70
     1
102
RTVSPropertyOp4
 70
     1
102
RTVSPropertyOp5
 70
     1
102
RTVSPropertyOp6
 70
     1
102
RTVSPropertyOp7
 70
     1
102
RTVSPropertyOp8
 70
     1
102
RTVSPropertyOp9
 70
     1
102
RTVSPropertyOp10
 70
     1
102
RTVSPropertyOp11
 70
     1
102
RTVSPropertyOp12
 70
     1
102
RTVSPropertyOp13
 70
     1
102
RTVSPropertyOp14
 70
     1
102
RTVSPropertyOp15
 70
     1
102
RTVSPropertyOp16
 70
     1
102
RTVSPropertyOp17
 70
     1
102
RTVSPropertyOp18
 70
     1
102
RTVSPropertyOp19
 70
     1
102
RTVSPropertyOp20
 70
     1
102
RTVSPropertyOp21
 70
     1
102
RTVSPropertyOp22
 70
     1
102
RTVSPropertyOp23
 70
     1
102
RTVSPropertyOp24
 70
     1
102
RTVSPropertyOp25
 70
     1
102
RTVSPropertyOp26
 70
     1
102
RTVSPropertyOp27
 70
     1
102
RTVSPropertyOp28
 70
     1
102
RTVSPropertyOp29
 70
     1
102
RTVSPropertyOp30
 70
     1
102
RTVSPropertyOp31
 70
     1
102
RTVSPropertyOp32
 70
     1
  0
XRECORD
  5
5960
102
{ACAD_REACTORS
330
595F
102
}
330
595F
100
AcDbXrecord
280
     1
102
RTVSPropertyOp0
 70
     1
102
RTVSPropertyOp1
 70
     1
102
RTVSPropertyOp2
 70
     1
102
RTVSPropertyOp3
 70
     1
102
RTVSPropertyOp4
 70
     1
102
RTVSPropertyOp5
 70
     1
102
RTVSPropertyOp6
 70
     1
102
RTVSPropertyOp7
 70
     1
102
RTVSPropertyOp8
 70
     1
102
RTVSPropertyOp9
 70
     1
102
RTVSPropertyOp10
 70
     1
102
RTVSPropertyOp11
 70
     1
102
RTVSPropertyOp12
 70
     1
102
RTVSPropertyOp13
 70
     1
102
RTVSPropertyOp14
 70
     1
102
RTVSPropertyOp15
 70
     1
102
RTVSPropertyOp16
 70
     1
102
RTVSPropertyOp17
 70
     1
102
RTVSPropertyOp18
 70
     1
102
RTVSPropertyOp19
 70
     1
102
RTVSPropertyOp20
 70
     1
102
RTVSPropertyOp21
 70
     1
102
RTVSPropertyOp22
 70
     1
102
RTVSPropertyOp23
 70
     1
102
RTVSPropertyOp24
 70
     1
102
RTVSPropertyOp25
 70
     1
102
RTVSPropertyOp26
 70
     1
102
RTVSPropertyOp27
 70
     1
102
RTVSPropertyOp28
 70
     1
102
RTVSPropertyOp29
 70
     1
102
RTVSPropertyOp30
 70
     1
102
RTVSPropertyOp31
 70
     1
102
RTVSPropertyOp32
 70
     1
  0
ENDSEC
  0
EOF
