  0
SECTION
  2
HEADER
  9
$ACADVER
  1
AC1015
  9
$ACADMAINTVER
 70
    20
  9
$DWGCODEPAGE
  3
ANSI_932
  9
$INSBASE
 10
0.0
 20
0.0
 30
0.0
  9
$EXTMIN
 10
41.80141181607567
 20
17.03212929594394
 30
0.0
  9
$EXTMAX
 10
446.8014118160755
 20
296.8073951959439
 30
0.0
  9
$LIMMIN
 10
0.0
 20
0.0
  9
$LIMMAX
 10
12.0
 20
9.0
  9
$ORTHOMODE
 70
     1
  9
$REGENMODE
 70
     1
  9
$FILLMODE
 70
     1
  9
$QTEXTMODE
 70
     0
  9
$MIRRTEXT
 70
     0
  9
$LTSCALE
 40
1.0
  9
$ATTMODE
 70
     1
  9
$TEXTSIZE
 40
3.2
  9
$TRACEWID
 40
0.05
  9
$TEXTSTYLE
  7
高3.2
  9
$CLAYER
  8
0
  9
$CELTYPE
  6
ByLayer
  9
$CECOLOR
 62
   256
  9
$CELTSCALE
 40
1.0
  9
$DISPSILH
 70
     0
  9
$DIMSCALE
 40
1.0
  9
$DIMASZ
 40
2.5
  9
$DIMEXO
 40
0.25
  9
$DIMDLI
 40
0.2
  9
$DIMRND
 40
0.0
  9
$DIMDLE
 40
0.0
  9
$DIMEXE
 40
1.25
  9
$DIMTP
 40
0.0
  9
$DIMTM
 40
0.0
  9
$DIMTXT
 40
3.0
  9
$DIMCEN
 40
0.0
  9
$DIMTSZ
 40
0.0
  9
$DIMTOL
 70
     0
  9
$DIMLIM
 70
     0
  9
$DIMTIH
 70
     0
  9
$DIMTOH
 70
     0
  9
$DIMSE1
 70
     0
  9
$DIMSE2
 70
     0
  9
$DIMTAD
 70
     3
  9
$DIMZIN
 70
     8
  9
$DIMBLK
  1
Open30
  9
$DIMASO
 70
     1
  9
$DIMSHO
 70
     1
  9
$DIMPOST
  1

  9
$DIMAPOST
  1

  9
$DIMALT
 70
     0
  9
$DIMALTD
 70
     3
  9
$DIMALTF
 40
0.03937007874016
  9
$DIMLFAC
 40
4.0
  9
$DIMTOFL
 70
     1
  9
$DIMTVP
 40
0.0
  9
$DIMTIX
 70
     0
  9
$DIMSOXD
 70
     0
  9
$DIMSAH
 70
     0
  9
$DIMBLK1
  1

  9
$DIMBLK2
  1

  9
$DIMSTYLE
  2
1／4
  9
$DIMCLRD
 70
     0
  9
$DIMCLRE
 70
     0
  9
$DIMCLRT
 70
     4
  9
$DIMTFAC
 40
1.0
  9
$DIMGAP
 40
0.625
  9
$DIMJUST
 70
     0
  9
$DIMSD1
 70
     0
  9
$DIMSD2
 70
     0
  9
$DIMTOLJ
 70
     0
  9
$DIMTZIN
 70
     8
  9
$DIMALTZ
 70
     0
  9
$DIMALTTZ
 70
     0
  9
$DIMUPT
 70
     1
  9
$DIMDEC
 70
     2
  9
$DIMTDEC
 70
     2
  9
$DIMALTU
 70
     2
  9
$DIMALTTD
 70
     3
  9
$DIMTXSTY
  7
Standard
  9
$DIMAUNIT
 70
     0
  9
$DIMADEC
 70
     1
  9
$DIMALTRND
 40
0.0
  9
$DIMAZIN
 70
     2
  9
$DIMDSEP
 70
    46
  9
$DIMATFIT
 70
     0
  9
$DIMFRAC
 70
     0
  9
$DIMLDRBLK
  1
Open30
  9
$DIMLUNIT
 70
     2
  9
$DIMLWD
 70
    -2
  9
$DIMLWE
 70
    -2
  9
$DIMTMOVE
 70
     0
  9
$LUNITS
 70
     2
  9
$LUPREC
 70
     4
  9
$SKETCHINC
 40
0.1
  9
$FILLETRAD
 40
0.0
  9
$AUNITS
 70
     0
  9
$AUPREC
 70
     0
  9
$MENU
  1
.
  9
$ELEVATION
 40
0.0
  9
$PELEVATION
 40
0.0
  9
$THICKNESS
 40
0.0
  9
$LIMCHECK
 70
     0
  9
$CHAMFERA
 40
0.0
  9
$CHAMFERB
 40
0.0
  9
$CHAMFERC
 40
0.0
  9
$CHAMFERD
 40
0.0
  9
$SKPOLY
 70
     0
  9
$TDCREATE
 40
2456367.851636112
  9
$TDUCREATE
 40
2456367.476636112
  9
$TDUPDATE
 40
2459556.377668576
  9
$TDUUPDATE
 40
2459556.002668576
  9
$TDINDWG
 40
0.0473675000
  9
$TDUSRTIMER
 40
0.0473668750
  9
$USRTIMER
 70
     1
  9
$ANGBASE
 50
0.0
  9
$ANGDIR
 70
     0
  9
$PDMODE
 70
     0
  9
$PDSIZE
 40
0.0
  9
$PLINEWID
 40
0.0
  9
$SPLFRAME
 70
     0
  9
$SPLINETYPE
 70
     6
  9
$SPLINESEGS
 70
     8
  9
$HANDSEED
  5
1E1D
  9
$SURFTAB1
 70
     6
  9
$SURFTAB2
 70
     6
  9
$SURFTYPE
 70
     6
  9
$SURFU
 70
     6
  9
$SURFV
 70
     6
  9
$UCSBASE
  2

  9
$UCSNAME
  2

  9
$UCSORG
 10
0.0
 20
0.0
 30
0.0
  9
$UCSXDIR
 10
1.0
 20
0.0
 30
0.0
  9
$UCSYDIR
 10
0.0
 20
1.0
 30
0.0
  9
$UCSORTHOREF
  2

  9
$UCSORTHOVIEW
 70
     0
  9
$UCSORGTOP
 10
0.0
 20
0.0
 30
0.0
  9
$UCSORGBOTTOM
 10
0.0
 20
0.0
 30
0.0
  9
$UCSORGLEFT
 10
0.0
 20
0.0
 30
0.0
  9
$UCSORGRIGHT
 10
0.0
 20
0.0
 30
0.0
  9
$UCSORGFRONT
 10
0.0
 20
0.0
 30
0.0
  9
$UCSORGBACK
 10
0.0
 20
0.0
 30
0.0
  9
$PUCSBASE
  2

  9
$PUCSNAME
  2

  9
$PUCSORG
 10
0.0
 20
0.0
 30
0.0
  9
$PUCSXDIR
 10
1.0
 20
0.0
 30
0.0
  9
$PUCSYDIR
 10
0.0
 20
1.0
 30
0.0
  9
$PUCSORTHOREF
  2

  9
$PUCSORTHOVIEW
 70
     0
  9
$PUCSORGTOP
 10
0.0
 20
0.0
 30
0.0
  9
$PUCSORGBOTTOM
 10
0.0
 20
0.0
 30
0.0
  9
$PUCSORGLEFT
 10
0.0
 20
0.0
 30
0.0
  9
$PUCSORGRIGHT
 10
0.0
 20
0.0
 30
0.0
  9
$PUCSORGFRONT
 10
0.0
 20
0.0
 30
0.0
  9
$PUCSORGBACK
 10
0.0
 20
0.0
 30
0.0
  9
$USERI1
 70
     0
  9
$USERI2
 70
     0
  9
$USERI3
 70
     0
  9
$USERI4
 70
     0
  9
$USERI5
 70
     0
  9
$USERR1
 40
0.0
  9
$USERR2
 40
0.0
  9
$USERR3
 40
0.0
  9
$USERR4
 40
0.0
  9
$USERR5
 40
0.0
  9
$WORLDVIEW
 70
     1
  9
$SHADEDGE
 70
     3
  9
$SHADEDIF
 70
    70
  9
$TILEMODE
 70
     1
  9
$MAXACTVP
 70
    64
  9
$PINSBASE
 10
0.0
 20
0.0
 30
0.0
  9
$PLIMCHECK
 70
     0
  9
$PEXTMIN
 10
0.0
 20
0.0
 30
0.0
  9
$PEXTMAX
 10
0.0
 20
0.0
 30
0.0
  9
$PLIMMIN
 10
0.0
 20
0.0
  9
$PLIMMAX
 10
12.0
 20
9.0
  9
$UNITMODE
 70
     0
  9
$VISRETAIN
 70
     1
  9
$PLINEGEN
 70
     0
  9
$PSLTSCALE
 70
     1
  9
$TREEDEPTH
 70
  3020
  9
$CMLSTYLE
  2
Standard
  9
$CMLJUST
 70
     0
  9
$CMLSCALE
 40
1.0
  9
$PROXYGRAPHICS
 70
     1
  9
$MEASUREMENT
 70
     1
  9
$CELWEIGHT
370
    -1
  9
$ENDCAPS
280
     0
  9
$JOINSTYLE
280
     0
  9
$LWDISPLAY
290
     0
  9
$INSUNITS
 70
     1
  9
$HYPERLINKBASE
  1

  9
$STYLESHEET
  1
N-PLOT.CTB
  9
$XEDIT
290
     1
  9
$CEPSNTYPE
380
     0
  9
$PSTYLEMODE
290
     1
  9
$FINGERPRINTGUID
  2
{E92722CB-2C5E-425D-AB24-C4CF7F111EBE}
  9
$VERSIONGUID
  2
{DD42647A-FF16-48BB-8306-69127CE220A2}
  9
$EXTNAMES
290
     1
  9
$PSVPSCALE
 40
0.0
  9
$OLESTARTUP
290
     0
  0
ENDSEC
  0
SECTION
  2
CLASSES
  0
CLASS
  1
ACDBDICTIONARYWDFLT
  2
AcDbDictionaryWithDefault
  3
ObjectDBX Classes
 90
        0
280
     0
281
     0
  0
CLASS
  1
ACDBPLACEHOLDER
  2
AcDbPlaceHolder
  3
ObjectDBX Classes
 90
        0
280
     0
281
     0
  0
CLASS
  1
LAYOUT
  2
AcDbLayout
  3
ObjectDBX Classes
 90
        0
280
     0
281
     0
  0
CLASS
  1
DICTIONARYVAR
  2
AcDbDictionaryVar
  3
ObjectDBX Classes
 90
        0
280
     0
281
     0
  0
CLASS
  1
TABLESTYLE
  2
AcDbTableStyle
  3
ObjectDBX Classes
 90
     4095
280
     0
281
     0
  0
CLASS
  1
MATERIAL
  2
AcDbMaterial
  3
ObjectDBX Classes
 90
     1153
280
     0
281
     0
  0
CLASS
  1
VISUALSTYLE
  2
AcDbVisualStyle
  3
ObjectDBX Classes
 90
     4095
280
     0
281
     0
  0
CLASS
  1
SORTENTSTABLE
  2
AcDbSortentsTable
  3
ObjectDBX Classes
 90
        0
280
     0
281
     0
  0
CLASS
  1
DIMASSOC
  2
AcDbDimAssoc
  3
"AcDbDimAssoc|Product Desc:     AcDim ARX App For Dimension|Company:          Autodesk, Inc.|WEB Address:      www.autodesk.com"
 90
        0
280
     0
281
     0
  0
CLASS
  1
SCALE
  2
AcDbScale
  3
ObjectDBX Classes
 90
     1153
280
     0
281
     0
  0
CLASS
  1
MLEADERSTYLE
  2
AcDbMLeaderStyle
  3
ACDB_MLEADERSTYLE_CLASS
 90
     4095
280
     0
281
     0
  0
CLASS
  1
CELLSTYLEMAP
  2
AcDbCellStyleMap
  3
ObjectDBX Classes
 90
     1152
280
     0
281
     0
  0
ENDSEC
  0
SECTION
  2
TABLES
  0
TABLE
  2
VPORT
  5
8
330
0
100
AcDbSymbolTable
 70
     1
  0
VPORT
  5
94
330
8
100
AcDbSymbolTableRecord
100
AcDbViewportTableRecord
  2
*Active
 70
     0
 10
0.0
 20
0.0
 11
1.0
 21
1.0
 12
449.8618847297604
 22
138.2954665735597
 13
0.0
 23
0.0
 14
0.5
 24
0.5
 15
0.5
 25
0.5
 16
0.0
 26
0.0
 36
1.0
 17
0.0
 27
0.0
 37
0.0
 40
628.3646004818238
 41
2.024643320363164
 42
50.0
 43
0.0
 44
0.0
 50
0.0
 51
0.0
 71
     0
 72
  1000
 73
     1
 74
     2
 75
     0
 76
     0
 77
     0
 78
     0
281
     0
 65
     1
110
0.0
120
0.0
130
0.0
111
1.0
121
0.0
131
0.0
112
0.0
122
1.0
132
0.0
 79
     0
146
0.0
  0
ENDTAB
  0
TABLE
  2
LTYPE
  5
5
330
0
100
AcDbSymbolTable
 70
     3
  0
LTYPE
  5
14
330
5
100
AcDbSymbolTableRecord
100
AcDbLinetypeTableRecord
  2
ByBlock
 70
     0
  3

 72
    65
 73
     0
 40
0.0
  0
LTYPE
  5
15
330
5
100
AcDbSymbolTableRecord
100
AcDbLinetypeTableRecord
  2
ByLayer
 70
     0
  3

 72
    65
 73
     0
 40
0.0
  0
LTYPE
  5
16
330
5
100
AcDbSymbolTableRecord
100
AcDbLinetypeTableRecord
  2
Continuous
 70
     0
  3
Solid line
 72
    65
 73
     0
 40
0.0
  0
LTYPE
  5
148
330
5
100
AcDbSymbolTableRecord
100
AcDbLinetypeTableRecord
  2
CENTER
 70
     0
  3
Center ____ _ ____ _ ____ _ ____ _ ____ _ ____
 72
    65
 73
     4
 40
50.8
 49
31.75
 74
     0
 49
-6.349999999999997
 74
     0
 49
6.349999999999997
 74
     0
 49
-6.349999999999997
 74
     0
  0
LTYPE
  5
149
330
5
100
AcDbSymbolTableRecord
100
AcDbLinetypeTableRecord
  2
HIDDEN
 70
     0
  3
Hidden __ __ __ __ __ __ __ __ __ __ __ __ __ __
 72
    65
 73
     2
 40
9.524999999999996
 49
6.349999999999997
 74
     0
 49
-3.174999999999998
 74
     0
  0
ENDTAB
  0
TABLE
  2
LAYER
  5
2
102
{ACAD_XDICTIONARY
360
DD
102
}
330
0
100
AcDbSymbolTable
 70
     2
  0
LAYER
  5
10
102
{ACAD_XDICTIONARY
360
8D1
102
}
330
2
100
AcDbSymbolTableRecord
100
AcDbLayerTableRecord
  2
0
 70
     0
 62
     7
  6
Continuous
370
    -3
390
F
  0
LAYER
  5
D8
330
2
100
AcDbSymbolTableRecord
100
AcDbLayerTableRecord
  2
Defpoints
 70
     0
 62
     7
  6
Continuous
290
     0
370
    -3
390
F
  0
ENDTAB
  0
TABLE
  2
STYLE
  5
3
330
0
100
AcDbSymbolTable
 70
     6
  0
STYLE
  5
11
330
3
100
AcDbSymbolTableRecord
100
AcDbTextStyleTableRecord
  2
Standard
 70
     0
 40
0.0
 41
1.0
 50
0.0
 71
     0
 42
0.2
  3
txt.shx
  4
bigfont.shx
  0
STYLE
  5
11D
330
3
100
AcDbSymbolTableRecord
100
AcDbTextStyleTableRecord
  2
高3.2
 70
     0
 40
3.2
 41
1.0
 50
0.0
 71
     0
 42
3.2
  3
txt.shx
  4
bigfont.shx
  0
STYLE
  5
11E
330
3
100
AcDbSymbolTableRecord
100
AcDbTextStyleTableRecord
  2
高6.3
 70
     0
 40
6.299999999999998
 41
1.0
 50
0.0
 71
     0
 42
6.299999999999998
  3
txt.shx
  4
bigfont.shx
  0
STYLE
  5
11F
330
3
100
AcDbSymbolTableRecord
100
AcDbTextStyleTableRecord
  2
高2.5
 70
     0
 40
2.5
 41
1.0
 50
0.0
 71
     0
 42
0.2
  3
txt.shx
  4
bigfont.shx
  0
STYLE
  5
146
330
3
100
AcDbSymbolTableRecord
100
AcDbTextStyleTableRecord
  2
高4.5
 70
     0
 40
4.5
 41
1.0
 50
0.0
 71
     0
 42
6.299999999999998
  3
txt.shx
  4
bigfont.shx
  0
STYLE
  5
2E5
330
3
100
AcDbSymbolTableRecord
100
AcDbTextStyleTableRecord
  2
高2
 70
     0
 40
2.0
 41
1.0
 50
0.0
 71
     0
 42
6.299999999999998
  3
txt.shx
  4
bigfont.shx
  0
ENDTAB
  0
TABLE
  2
VIEW
  5
6
330
0
100
AcDbSymbolTable
 70
     0
  0
ENDTAB
  0
TABLE
  2
UCS
  5
7
330
0
100
AcDbSymbolTable
 70
     0
  0
ENDTAB
  0
TABLE
  2
APPID
  5
9
330
0
100
AcDbSymbolTable
 70
     7
  0
APPID
  5
12
330
9
100
AcDbSymbolTableRecord
100
AcDbRegAppTableRecord
  2
ACAD
 70
     0
  0
APPID
  5
DC
330
9
100
AcDbSymbolTableRecord
100
AcDbRegAppTableRecord
  2
ACAD_DSTYLE_DIMJOGGED_JOGANGLE_SYMBOL
 70
     0
  0
APPID
  5
2E7
330
9
100
AcDbSymbolTableRecord
100
AcDbRegAppTableRecord
  2
ACAD_DSTYLE_DIMRADIAL_EXTENSION
 70
     0
  0
APPID
  5
8CC
330
9
100
AcDbSymbolTableRecord
100
AcDbRegAppTableRecord
  2
ACAD_EXEMPT_FROM_CAD_STANDARDS
 70
     0
  0
APPID
  5
90E
330
9
100
AcDbSymbolTableRecord
100
AcDbRegAppTableRecord
  2
ACAD_DSTYLE_DIMARC_LENGTH_SYMBOL
 70
     0
  0
APPID
  5
90F
330
9
100
AcDbSymbolTableRecord
100
AcDbRegAppTableRecord
  2
ACAD_DSTYLE_DIMEXT_LENGTH
 70
     0
  0
APPID
  5
924
330
9
100
AcDbSymbolTableRecord
100
AcDbRegAppTableRecord
  2
ACAD_MLEADERVER
 70
     0
  0
ENDTAB
  0
TABLE
  2
DIMSTYLE
  5
A
330
0
100
AcDbSymbolTable
 70
     2
100
AcDbDimStyleTable
 71
     1
340
D9
  0
DIMSTYLE
105
D9
330
A
100
AcDbSymbolTableRecord
100
AcDbDimStyleTableRecord
  2
1：1
 70
     0
 41
2.5
 42
0.25
 43
0.2
 44
1.25
 73
     0
 74
     0
 77
     3
 78
     8
 79
     2
140
3.0
141
0.0
143
0.03937007874016
147
0.625
171
     3
172
     1
178
     4
179
     1
271
     2
272
     2
274
     3
283
     0
284
     8
288
     1
289
     0
340
11
341
C6
342
C6
1001
ACAD_DSTYLE_DIMARC_LENGTH_SYMBOL
1070
   379
1070
     2
1001
ACAD_DSTYLE_DIMEXT_LENGTH
1070
   378
1040
1.25
1001
ACAD_DSTYLE_DIMJOGGED_JOGANGLE_SYMBOL
1070
   384
1040
1.570796326794896
  0
DIMSTYLE
105
2E6
330
A
100
AcDbSymbolTableRecord
100
AcDbDimStyleTableRecord
  2
1／4
 70
     0
 41
2.5
 42
0.25
 43
0.2
 44
1.25
 73
     0
 74
     0
 77
     3
 78
     8
 79
     2
140
3.0
141
0.0
143
0.03937007874016
144
4.0
147
0.625
171
     3
172
     1
178
     4
179
     1
271
     2
272
     2
274
     3
283
     0
284
     8
288
     1
289
     0
340
11
341
C6
342
C6
1001
ACAD_DSTYLE_DIMARC_LENGTH_SYMBOL
1070
   379
1070
     2
1001
ACAD_DSTYLE_DIMEXT_LENGTH
1070
   378
1040
1.25
1001
ACAD_DSTYLE_DIMJOGGED_JOGANGLE_SYMBOL
1070
   384
1040
1.570796326794896
  0
ENDTAB
  0
TABLE
  2
BLOCK_RECORD
  5
1
330
0
100
AcDbSymbolTable
 70
    31
  0
BLOCK_RECORD
  5
1F
102
{ACAD_XDICTIONARY
360
11B2
102
}
330
1
100
AcDbSymbolTableRecord
100
AcDbBlockTableRecord
  2
*Model_Space
340
22
  0
BLOCK_RECORD
  5
58
330
1
100
AcDbSymbolTableRecord
100
AcDbBlockTableRecord
  2
*Paper_Space
340
59
  0
BLOCK_RECORD
  5
5D
330
1
100
AcDbSymbolTableRecord
100
AcDbBlockTableRecord
  2
*Paper_Space0
340
5E
  0
BLOCK_RECORD
  5
C6
330
1
100
AcDbSymbolTableRecord
100
AcDbBlockTableRecord
  2
_Open30
340
0
102
{BLKREFS
331
1A87
331
1A88
331
1A90
331
1A91
331
1A99
331
1A9A
331
1AA2
331
1AA3
331
1AAB
331
1AAC
331
1AB4
331
1AB5
331
1ABF
331
1AC0
331
1ACA
331
1ACB
331
1AD5
331
1AD6
331
1AE0
331
1AE1
331
1AE9
331
1AEA
331
1AF2
331
1AF3
331
1AFB
331
1AFC
331
1B04
331
1B05
331
1B0D
331
1B0E
331
1B15
331
1B16
331
1B1E
331
1B1F
331
1B27
331
1B28
331
1B3B
331
1B3C
331
1B4D
331
1B4E
331
1B56
331
1B57
331
1B60
331
1B61
331
1B74
331
1B75
331
1B7F
331
1B80
331
1B92
331
1B93
331
1B9B
331
1B9C
331
1BA4
331
1BA5
331
1BAD
331
1BAE
102
}
  0
BLOCK_RECORD
  5
2D3
330
1
100
AcDbSymbolTableRecord
100
AcDbBlockTableRecord
  2
_DotSmall
340
0
  0
BLOCK_RECORD
  5
6E0
330
1
100
AcDbSymbolTableRecord
100
AcDbBlockTableRecord
  2
*D3
340
0
  0
BLOCK_RECORD
  5
6EC
330
1
100
AcDbSymbolTableRecord
100
AcDbBlockTableRecord
  2
*D4
340
0
  0
BLOCK_RECORD
  5
6F8
330
1
100
AcDbSymbolTableRecord
100
AcDbBlockTableRecord
  2
*D5
340
0
  0
BLOCK_RECORD
  5
704
330
1
100
AcDbSymbolTableRecord
100
AcDbBlockTableRecord
  2
*D6
340
0
  0
BLOCK_RECORD
  5
710
330
1
100
AcDbSymbolTableRecord
100
AcDbBlockTableRecord
  2
*D7
340
0
  0
BLOCK_RECORD
  5
71E
330
1
100
AcDbSymbolTableRecord
100
AcDbBlockTableRecord
  2
*D8
340
0
  0
BLOCK_RECORD
  5
72C
330
1
100
AcDbSymbolTableRecord
100
AcDbBlockTableRecord
  2
*D9
340
0
  0
BLOCK_RECORD
  5
738
330
1
100
AcDbSymbolTableRecord
100
AcDbBlockTableRecord
  2
*D10
340
0
  0
BLOCK_RECORD
  5
744
330
1
100
AcDbSymbolTableRecord
100
AcDbBlockTableRecord
  2
*D11
340
0
  0
BLOCK_RECORD
  5
750
330
1
100
AcDbSymbolTableRecord
100
AcDbBlockTableRecord
  2
*D12
340
0
  0
BLOCK_RECORD
  5
767
330
1
100
AcDbSymbolTableRecord
100
AcDbBlockTableRecord
  2
*D13
340
0
  0
BLOCK_RECORD
  5
773
330
1
100
AcDbSymbolTableRecord
100
AcDbBlockTableRecord
  2
*D14
340
0
  0
BLOCK_RECORD
  5
79A
330
1
100
AcDbSymbolTableRecord
100
AcDbBlockTableRecord
  2
*D15
340
0
  0
BLOCK_RECORD
  5
7BE
330
1
100
AcDbSymbolTableRecord
100
AcDbBlockTableRecord
  2
*D16
340
0
  0
BLOCK_RECORD
  5
7CC
330
1
100
AcDbSymbolTableRecord
100
AcDbBlockTableRecord
  2
*D17
340
0
  0
BLOCK_RECORD
  5
7D8
330
1
100
AcDbSymbolTableRecord
100
AcDbBlockTableRecord
  2
*D18
340
0
  0
BLOCK_RECORD
  5
7E4
330
1
100
AcDbSymbolTableRecord
100
AcDbBlockTableRecord
  2
*D19
340
0
  0
BLOCK_RECORD
  5
7F9
330
1
100
AcDbSymbolTableRecord
100
AcDbBlockTableRecord
  2
*D20
340
0
  0
BLOCK_RECORD
  5
80D
330
1
100
AcDbSymbolTableRecord
100
AcDbBlockTableRecord
  2
*D21
340
0
  0
BLOCK_RECORD
  5
822
330
1
100
AcDbSymbolTableRecord
100
AcDbBlockTableRecord
  2
*D22
340
0
  0
BLOCK_RECORD
  5
842
330
1
100
AcDbSymbolTableRecord
100
AcDbBlockTableRecord
  2
*D23
340
0
  0
BLOCK_RECORD
  5
84E
330
1
100
AcDbSymbolTableRecord
100
AcDbBlockTableRecord
  2
*D24
340
0
  0
BLOCK_RECORD
  5
85A
330
1
100
AcDbSymbolTableRecord
100
AcDbBlockTableRecord
  2
*D25
340
0
  0
BLOCK_RECORD
  5
865
330
1
100
AcDbSymbolTableRecord
100
AcDbBlockTableRecord
  2
*D26
340
0
  0
BLOCK_RECORD
  5
873
330
1
100
AcDbSymbolTableRecord
100
AcDbBlockTableRecord
  2
*D27
340
0
  0
BLOCK_RECORD
  5
888
330
1
100
AcDbSymbolTableRecord
100
AcDbBlockTableRecord
  2
*D28
340
0
  0
BLOCK_RECORD
  5
896
330
1
100
AcDbSymbolTableRecord
100
AcDbBlockTableRecord
  2
*D29
340
0
  0
BLOCK_RECORD
  5
8A4
330
1
100
AcDbSymbolTableRecord
100
AcDbBlockTableRecord
  2
*D30
340
0
  0
ENDTAB
  0
ENDSEC
  0
SECTION
  2
BLOCKS
  0
BLOCK
  5
20
330
1F
100
AcDbEntity
  8
0
100
AcDbBlockBegin
  2
*Model_Space
 70
     0
 10
0.0
 20
0.0
 30
0.0
  3
*Model_Space
  1

  0
ENDBLK
  5
21
330
1F
100
AcDbEntity
  8
0
100
AcDbBlockEnd
  0
BLOCK
  5
5A
330
58
100
AcDbEntity
 67
     1
  8
0
100
AcDbBlockBegin
  2
*Paper_Space
 70
     0
 10
0.0
 20
0.0
 30
0.0
  3
*Paper_Space
  1

  0
ENDBLK
  5
5B
330
58
100
AcDbEntity
 67
     1
  8
0
100
AcDbBlockEnd
  0
BLOCK
  5
5F
330
5D
100
AcDbEntity
 67
     1
  8
0
100
AcDbBlockBegin
  2
*Paper_Space0
 70
     0
 10
0.0
 20
0.0
 30
0.0
  3
*Paper_Space0
  1

  0
ENDBLK
  5
60
330
5D
100
AcDbEntity
 67
     1
  8
0
100
AcDbBlockEnd
  0
BLOCK
  5
C7
330
C6
100
AcDbEntity
  8
0
100
AcDbBlockBegin
  2
_Open30
 70
     0
 10
0.0
 20
0.0
 30
0.0
  3
_Open30
  1

  0
LINE
  5
C8
330
C6
100
AcDbEntity
  8
0
  6
ByBlock
 62
     0
370
    -2
100
AcDbLine
 10
-1.0
 20
0.267949
 30
0.0
 11
0.0
 21
0.0
 31
0.0
  0
LINE
  5
C9
330
C6
100
AcDbEntity
  8
0
  6
ByBlock
 62
     0
370
    -2
100
AcDbLine
 10
0.0
 20
0.0
 30
0.0
 11
-1.0
 21
-0.267949
 31
0.0
  0
LINE
  5
CA
330
C6
100
AcDbEntity
  8
0
  6
ByBlock
 62
     0
370
    -2
100
AcDbLine
 10
0.0
 20
0.0
 30
0.0
 11
-1.0
 21
0.0
 31
0.0
  0
ENDBLK
  5
CB
330
C6
100
AcDbEntity
  8
0
100
AcDbBlockEnd
  0
BLOCK
  5
2D4
330
2D3
100
AcDbEntity
  8
0
100
AcDbBlockBegin
  2
_DotSmall
 70
     0
 10
0.0
 20
0.0
 30
0.0
  3
_DotSmall
  1

  0
LWPOLYLINE
  5
2D5
330
2D3
100
AcDbEntity
  8
0
  6
ByBlock
 62
     0
100
AcDbPolyline
 90
        2
 70
     1
 43
0.5
 10
-0.0625
 20
0.0
 42
1.0
 10
0.0625
 20
0.0
 42
1.0
  0
ENDBLK
  5
2D6
330
2D3
100
AcDbEntity
  8
0
100
AcDbBlockEnd
  0
BLOCK
  5
6E1
330
6E0
100
AcDbEntity
  8
0
100
AcDbBlockBegin
  2
*D3
 70
     1
 10
0.0
 20
0.0
 30
0.0
  3
*D3
  1

  0
LINE
  5
1A84
330
6E0
100
AcDbEntity
  8
0
 62
     0
370
    -2
100
AcDbLine
 10
326.1328796454198
 20
169.9384108094153
 30
0.0
 11
326.1328796454198
 21
221.0593328728266
 31
0.0
  0
LINE
  5
1A85
330
6E0
100
AcDbEntity
  8
0
 62
     0
370
    -2
100
AcDbLine
 10
126.1328796454198
 20
187.6384108094151
 30
0.0
 11
126.1328796454198
 21
221.0593328728266
 31
0.0
  0
LINE
  5
1A86
330
6E0
100
AcDbEntity
  8
0
 62
     0
370
    -2
100
AcDbLine
 10
323.6328796454198
 20
219.8093328728266
 30
0.0
 11
128.6328796454198
 21
219.8093328728266
 31
0.0
  0
INSERT
  5
1A87
330
6E0
100
AcDbEntity
  8
0
 62
     0
370
    -2
100
AcDbBlockReference
  2
_Open30
 10
326.1328796454198
 20
219.8093328728266
 30
0.0
 41
2.5
 42
2.5
 43
2.5
  0
INSERT
  5
1A88
330
6E0
100
AcDbEntity
  8
0
 62
     0
370
    -2
100
AcDbBlockReference
  2
_Open30
 10
126.1328796454198
 20
219.8093328728266
 30
0.0
 41
2.5
 42
2.5
 43
2.5
 50
180.0
  0
MTEXT
  5
1A89
330
6E0
100
AcDbEntity
  8
0
 62
     4
100
AcDbMText
 10
226.1328796454198
 20
221.9343328728266
 30
0.0
 40
3.0
 41
0.0
 71
     5
 72
     1
  1
800
 73
     1
 44
1.0
1001
ACAD
1000
MTEXTBEGIN
1070
    73
1070
     1
1070
    44
1040
1.0
1070
    74
1070
     0
1000
MTEXTEND
  0
POINT
  5
1A8A
330
6E0
100
AcDbEntity
  8
Defpoints
 62
     0
100
AcDbPoint
 10
326.1328796454198
 20
169.6884108094153
 30
0.0
  0
POINT
  5
1A8B
330
6E0
100
AcDbEntity
  8
Defpoints
 62
     0
100
AcDbPoint
 10
126.1328796454198
 20
187.3884108094151
 30
0.0
  0
POINT
  5
1A8C
330
6E0
100
AcDbEntity
  8
Defpoints
 62
     0
100
AcDbPoint
 10
126.1328796454198
 20
219.8093328728266
 30
0.0
  0
ENDBLK
  5
6E2
330
6E0
100
AcDbEntity
  8
0
100
AcDbBlockEnd
  0
BLOCK
  5
6ED
330
6EC
100
AcDbEntity
  8
0
100
AcDbBlockBegin
  2
*D4
 70
     1
 10
0.0
 20
0.0
 30
0.0
  3
*D4
  1

  0
LINE
  5
1A9F
330
6EC
100
AcDbEntity
  8
0
 62
     0
370
    -2
100
AcDbLine
 10
413.3855814163801
 20
169.9384108094152
 30
0.0
 11
426.7456391240956
 21
169.9384108094152
 31
0.0
  0
LINE
  5
1AA0
330
6EC
100
AcDbEntity
  8
0
 62
     0
370
    -2
100
AcDbLine
 10
413.3855814163801
 20
151.1884108094152
 30
0.0
 11
426.7456391240956
 21
151.1884108094152
 31
0.0
  0
LINE
  5
1AA1
330
6EC
100
AcDbEntity
  8
0
 62
     0
370
    -2
100
AcDbLine
 10
425.4956391240956
 20
167.4384108094152
 30
0.0
 11
425.4956391240956
 21
153.6884108094152
 31
0.0
  0
INSERT
  5
1AA2
330
6EC
100
AcDbEntity
  8
0
 62
     0
370
    -2
100
AcDbBlockReference
  2
_Open30
 10
425.4956391240956
 20
169.9384108094152
 30
0.0
 41
2.5
 42
2.5
 43
2.5
 50
90.0
  0
INSERT
  5
1AA3
330
6EC
100
AcDbEntity
  8
0
 62
     0
370
    -2
100
AcDbBlockReference
  2
_Open30
 10
425.4956391240956
 20
151.1884108094152
 30
0.0
 41
2.5
 42
2.5
 43
2.5
 50
270.0
  0
MTEXT
  5
1AA4
330
6EC
100
AcDbEntity
  8
0
 62
     4
100
AcDbMText
 10
423.3706391240955
 20
159.9808536247481
 30
0.0
 40
3.0
 41
0.0
 71
     5
 72
     1
  1
75
 11
0.0000000000000001
 21
1.0
 31
0.0
 73
     1
 44
1.0
1001
ACAD
1000
MTEXTBEGIN
1070
    73
1070
     1
1070
    44
1040
1.0
1070
    74
1070
     0
1000
MTEXTEND
  0
POINT
  5
1AA5
330
6EC
100
AcDbEntity
  8
Defpoints
 62
     0
100
AcDbPoint
 10
413.1355814163801
 20
169.9384108094152
 30
0.0
  0
POINT
  5
1AA6
330
6EC
100
AcDbEntity
  8
Defpoints
 62
     0
100
AcDbPoint
 10
413.1355814163801
 20
151.1884108094152
 30
0.0
  0
POINT
  5
1AA7
330
6EC
100
AcDbEntity
  8
Defpoints
 62
     0
100
AcDbPoint
 10
425.4956391240956
 20
151.1884108094152
 30
0.0
  0
ENDBLK
  5
6EE
330
6EC
100
AcDbEntity
  8
0
100
AcDbBlockEnd
  0
BLOCK
  5
6F9
330
6F8
100
AcDbEntity
  8
0
100
AcDbBlockBegin
  2
*D5
 70
     1
 10
0.0
 20
0.0
 30
0.0
  3
*D5
  1

  0
LINE
  5
1AA8
330
6F8
100
AcDbEntity
  8
0
 62
     0
370
    -2
100
AcDbLine
 10
326.3828796454198
 20
150.9384108094153
 30
0.0
 11
349.1294868724016
 21
150.9384108094153
 31
0.0
  0
LINE
  5
1AA9
330
6F8
100
AcDbEntity
  8
0
 62
     0
370
    -2
100
AcDbLine
 10
325.43287964542
 20
144.1884108094152
 30
0.0
 11
349.1294868724016
 21
144.1884108094152
 31
0.0
  0
LINE
  5
1AAA
330
6F8
100
AcDbEntity
  8
0
 62
     0
370
    -2
100
AcDbLine
 10
347.8794868724016
 20
148.4384108094153
 30
0.0
 11
347.8794868724016
 21
146.6884108094152
 31
0.0
  0
INSERT
  5
1AAB
330
6F8
100
AcDbEntity
  8
0
 62
     0
370
    -2
100
AcDbBlockReference
  2
_Open30
 10
347.8794868724016
 20
150.9384108094153
 30
0.0
 41
2.5
 42
2.5
 43
2.5
 50
90.0
  0
INSERT
  5
1AAC
330
6F8
100
AcDbEntity
  8
0
 62
     0
370
    -2
100
AcDbBlockReference
  2
_Open30
 10
347.8794868724016
 20
144.1884108094152
 30
0.0
 41
2.5
 42
2.5
 43
2.5
 50
270.0
  0
MTEXT
  5
1AAD
330
6F8
100
AcDbEntity
  8
0
 62
     4
100
AcDbMText
 10
345.7544868724015
 20
147.5634108094156
 30
0.0
 40
3.0
 41
0.0
 71
     5
 72
     1
  1
27
 11
0.0000000000000001
 21
1.0
 31
0.0
 73
     1
 44
1.0
1001
ACAD
1000
MTEXTBEGIN
1070
    73
1070
     1
1070
    44
1040
1.0
1070
    74
1070
     0
1000
MTEXTEND
  0
POINT
  5
1AAE
330
6F8
100
AcDbEntity
  8
Defpoints
 62
     0
100
AcDbPoint
 10
326.1328796454198
 20
150.9384108094153
 30
0.0
  0
POINT
  5
1AAF
330
6F8
100
AcDbEntity
  8
Defpoints
 62
     0
100
AcDbPoint
 10
325.18287964542
 20
144.1884108094152
 30
0.0
  0
POINT
  5
1AB0
330
6F8
100
AcDbEntity
  8
Defpoints
 62
     0
100
AcDbPoint
 10
347.8794868724016
 20
144.1884108094152
 30
0.0
  0
ENDBLK
  5
6FA
330
6F8
100
AcDbEntity
  8
0
100
AcDbBlockEnd
  0
BLOCK
  5
705
330
704
100
AcDbEntity
  8
0
100
AcDbBlockBegin
  2
*D6
 70
     1
 10
0.0
 20
0.0
 30
0.0
  3
*D6
  1

  0
LINE
  5
1AB1
330
704
100
AcDbEntity
  8
0
 62
     0
370
    -2
100
AcDbLine
 10
326.1328796454198
 20
169.9384108094153
 30
0.0
 11
326.1328796454198
 21
212.6671103543633
 31
0.0
  0
LINE
  5
1AB2
330
704
100
AcDbEntity
  8
0
 62
     0
370
    -2
100
AcDbLine
 10
130.1328796454198
 20
192.0979638179253
 30
0.0
 11
130.1328796454198
 21
212.6671103543633
 31
0.0
  0
LINE
  5
1AB3
330
704
100
AcDbEntity
  8
0
 62
     0
370
    -2
100
AcDbLine
 10
323.6328796454198
 20
211.4171103543633
 30
0.0
 11
132.6328796454198
 21
211.4171103543633
 31
0.0
  0
INSERT
  5
1AB4
330
704
100
AcDbEntity
  8
0
 62
     0
370
    -2
100
AcDbBlockReference
  2
_Open30
 10
326.1328796454198
 20
211.4171103543633
 30
0.0
 41
2.5
 42
2.5
 43
2.5
  0
INSERT
  5
1AB5
330
704
100
AcDbEntity
  8
0
 62
     0
370
    -2
100
AcDbBlockReference
  2
_Open30
 10
130.1328796454198
 20
211.4171103543633
 30
0.0
 41
2.5
 42
2.5
 43
2.5
 50
180.0
  0
MTEXT
  5
1AB6
330
704
100
AcDbEntity
  8
0
 62
     4
100
AcDbMText
 10
228.2908070275606
 20
213.5421103543633
 30
0.0
 40
3.0
 41
0.0
 71
     5
 72
     1
  1
784
 73
     1
 44
1.0
1001
ACAD
1000
MTEXTBEGIN
1070
    73
1070
     1
1070
    44
1040
1.0
1070
    74
1070
     0
1000
MTEXTEND
  0
POINT
  5
1AB7
330
704
100
AcDbEntity
  8
Defpoints
 62
     0
100
AcDbPoint
 10
326.1328796454198
 20
169.6884108094153
 30
0.0
  0
POINT
  5
1AB8
330
704
100
AcDbEntity
  8
Defpoints
 62
     0
100
AcDbPoint
 10
130.1328796454198
 20
191.8479638179253
 30
0.0
  0
POINT
  5
1AB9
330
704
100
AcDbEntity
  8
Defpoints
 62
     0
100
AcDbPoint
 10
130.1328796454198
 20
211.4171103543633
 30
0.0
  0
ENDBLK
  5
706
330
704
100
AcDbEntity
  8
0
100
AcDbBlockEnd
  0
BLOCK
  5
711
330
710
100
AcDbEntity
  8
0
100
AcDbBlockBegin
  2
*D7
 70
     1
 10
0.0
 20
0.0
 30
0.0
  3
*D7
  1

  0
LINE
  5
1AC5
330
710
100
AcDbEntity
  8
0
 62
     0
370
    -2
100
AcDbLine
 10
213.1703796454197
 20
187.3884108094151
 30
0.0
 11
203.8927811738011
 21
187.3884108094151
 31
0.0
  0
LINE
  5
1AC6
330
710
100
AcDbEntity
  8
0
 62
     0
370
    -2
100
AcDbLine
 10
217.1703796454197
 20
194.1884108094151
 30
0.0
 11
203.8927811738011
 21
194.1884108094151
 31
0.0
  0
LINE
  5
1AC7
330
710
100
AcDbEntity
  8
0
 62
     0
370
    -2
100
AcDbLine
 10
205.1427811738011
 20
196.6884108094151
 30
0.0
 11
205.1427811738011
 21
199.1884108094151
 31
0.0
  0
LINE
  5
1AC8
330
710
100
AcDbEntity
  8
0
 62
     0
370
    -2
100
AcDbLine
 10
205.1427811738011
 20
184.8884108094151
 30
0.0
 11
205.1427811738011
 21
146.338410809415
 31
0.0
  0
LINE
  5
1AC9
330
710
100
AcDbEntity
  8
0
 62
     0
370
    -2
100
AcDbLine
 10
205.1427811738011
 20
194.1884108094151
 30
0.0
 11
205.1427811738011
 21
187.3884108094151
 31
0.0
  0
INSERT
  5
1ACA
330
710
100
AcDbEntity
  8
0
 62
     0
370
    -2
100
AcDbBlockReference
  2
_Open30
 10
205.1427811738011
 20
194.1884108094151
 30
0.0
 41
2.5
 42
2.5
 43
2.5
 50
270.0
  0
INSERT
  5
1ACB
330
710
100
AcDbEntity
  8
0
 62
     0
370
    -2
100
AcDbBlockReference
  2
_Open30
 10
205.1427811738011
 20
187.3884108094151
 30
0.0
 41
2.5
 42
2.5
 43
2.5
 50
90.0
  0
MTEXT
  5
1ACC
330
710
100
AcDbEntity
  8
0
 62
     4
100
AcDbMText
 10
203.0177811738011
 20
164.3634108094151
 30
0.0
 40
3.0
 41
0.0
 71
     5
 72
     1
  1
%%C27.2 t2.6パイプ
 11
0.0000000000000001
 21
1.0
 31
0.0
 73
     1
 44
1.0
1001
ACAD
1000
MTEXTBEGIN
1070
    73
1070
     1
1070
    44
1040
1.0
1070
    74
1070
     0
1000
MTEXTEND
  0
POINT
  5
1ACD
330
710
100
AcDbEntity
  8
Defpoints
 62
     0
100
AcDbPoint
 10
213.4203796454197
 20
187.3884108094151
 30
0.0
  0
POINT
  5
1ACE
330
710
100
AcDbEntity
  8
Defpoints
 62
     0
100
AcDbPoint
 10
217.4203796454197
 20
194.1884108094151
 30
0.0
  0
POINT
  5
1ACF
330
710
100
AcDbEntity
  8
Defpoints
 62
     0
100
AcDbPoint
 10
205.1427811738011
 20
194.1884108094151
 30
0.0
  0
ENDBLK
  5
712
330
710
100
AcDbEntity
  8
0
100
AcDbBlockEnd
  0
BLOCK
  5
71F
330
71E
100
AcDbEntity
  8
0
100
AcDbBlockBegin
  2
*D8
 70
     1
 10
0.0
 20
0.0
 30
0.0
  3
*D8
  1

  0
LINE
  5
1AD0
330
71E
100
AcDbEntity
  8
0
 62
     0
370
    -2
100
AcDbLine
 10
325.0078796454198
 20
151.1884108094153
 30
0.0
 11
325.0078796454198
 21
153.6297475030121
 31
0.0
  0
LINE
  5
1AD1
330
71E
100
AcDbEntity
  8
0
 62
     0
370
    -2
100
AcDbLine
 10
326.1328796454198
 20
151.1884108094153
 30
0.0
 11
326.1328796454198
 21
153.6297475030121
 31
0.0
  0
LINE
  5
1AD2
330
71E
100
AcDbEntity
  8
0
 62
     0
370
    -2
100
AcDbLine
 10
322.5078796454198
 20
152.3797475030121
 30
0.0
 11
320.0078796454198
 21
152.3797475030121
 31
0.0
  0
LINE
  5
1AD3
330
71E
100
AcDbEntity
  8
0
 62
     0
370
    -2
100
AcDbLine
 10
328.6328796454198
 20
152.3797475030121
 30
0.0
 11
344.8828796454198
 21
152.3797475030121
 31
0.0
  0
LINE
  5
1AD4
330
71E
100
AcDbEntity
  8
0
 62
     0
370
    -2
100
AcDbLine
 10
325.0078796454198
 20
152.3797475030121
 30
0.0
 11
326.1328796454198
 21
152.3797475030121
 31
0.0
  0
INSERT
  5
1AD5
330
71E
100
AcDbEntity
  8
0
 62
     0
370
    -2
100
AcDbBlockReference
  2
_Open30
 10
325.0078796454198
 20
152.3797475030121
 30
0.0
 41
2.5
 42
2.5
 43
2.5
  0
INSERT
  5
1AD6
330
71E
100
AcDbEntity
  8
0
 62
     0
370
    -2
100
AcDbBlockReference
  2
_Open30
 10
326.1328796454198
 20
152.3797475030121
 30
0.0
 41
2.5
 42
2.5
 43
2.5
 50
180.0
  0
MTEXT
  5
1AD7
330
71E
100
AcDbEntity
  8
0
 62
     4
100
AcDbMText
 10
338.2578796454198
 20
154.5047475030121
 30
0.0
 40
3.0
 41
0.0
 71
     5
 72
     1
  1
t=4.5
 73
     1
 44
1.0
1001
ACAD
1000
MTEXTBEGIN
1070
    73
1070
     1
1070
    44
1040
1.0
1070
    74
1070
     0
1000
MTEXTEND
  0
POINT
  5
1AD8
330
71E
100
AcDbEntity
  8
Defpoints
 62
     0
100
AcDbPoint
 10
325.0078796454198
 20
150.9384108094153
 30
0.0
  0
POINT
  5
1AD9
330
71E
100
AcDbEntity
  8
Defpoints
 62
     0
100
AcDbPoint
 10
326.1328796454198
 20
150.9384108094153
 30
0.0
  0
POINT
  5
1ADA
330
71E
100
AcDbEntity
  8
Defpoints
 62
     0
100
AcDbPoint
 10
326.1328796454198
 20
152.3797475030121
 30
0.0
  0
ENDBLK
  5
720
330
71E
100
AcDbEntity
  8
0
100
AcDbBlockEnd
  0
BLOCK
  5
72D
330
72C
100
AcDbEntity
  8
0
100
AcDbBlockBegin
  2
*D9
 70
     1
 10
0.0
 20
0.0
 30
0.0
  3
*D9
  1

  0
LINE
  5
1B01
330
72C
100
AcDbEntity
  8
0
 62
     0
370
    -2
100
AcDbLine
 10
413.1355814163801
 20
150.9384108094152
 30
0.0
 11
413.1355814163801
 21
124.0474741642546
 31
0.0
  0
LINE
  5
1B02
330
72C
100
AcDbEntity
  8
0
 62
     0
370
    -2
100
AcDbLine
 10
369.3855814163806
 20
150.9384108094152
 30
0.0
 11
369.3855814163806
 21
124.0474741642546
 31
0.0
  0
LINE
  5
1B03
330
72C
100
AcDbEntity
  8
0
 62
     0
370
    -2
100
AcDbLine
 10
410.6355814163801
 20
125.2974741642546
 30
0.0
 11
371.8855814163806
 21
125.2974741642546
 31
0.0
  0
INSERT
  5
1B04
330
72C
100
AcDbEntity
  8
0
 62
     0
370
    -2
100
AcDbBlockReference
  2
_Open30
 10
413.1355814163801
 20
125.2974741642546
 30
0.0
 41
2.5
 42
2.5
 43
2.5
  0
INSERT
  5
1B05
330
72C
100
AcDbEntity
  8
0
 62
     0
370
    -2
100
AcDbBlockReference
  2
_Open30
 10
369.3855814163806
 20
125.2974741642546
 30
0.0
 41
2.5
 42
2.5
 43
2.5
 50
180.0
  0
MTEXT
  5
1B06
330
72C
100
AcDbEntity
  8
0
 62
     4
100
AcDbMText
 10
390.1959800750282
 20
127.4224741642546
 30
0.0
 40
3.0
 41
0.0
 71
     5
 72
     1
  1
175
 73
     1
 44
1.0
1001
ACAD
1000
MTEXTBEGIN
1070
    73
1070
     1
1070
    44
1040
1.0
1070
    74
1070
     0
1000
MTEXTEND
  0
POINT
  5
1B07
330
72C
100
AcDbEntity
  8
Defpoints
 62
     0
100
AcDbPoint
 10
413.1355814163801
 20
151.1884108094152
 30
0.0
  0
POINT
  5
1B08
330
72C
100
AcDbEntity
  8
Defpoints
 62
     0
100
AcDbPoint
 10
369.3855814163806
 20
151.1884108094152
 30
0.0
  0
POINT
  5
1B09
330
72C
100
AcDbEntity
  8
Defpoints
 62
     0
100
AcDbPoint
 10
369.3855814163806
 20
125.2974741642546
 30
0.0
  0
ENDBLK
  5
72E
330
72C
100
AcDbEntity
  8
0
100
AcDbBlockEnd
  0
BLOCK
  5
739
330
738
100
AcDbEntity
  8
0
100
AcDbBlockBegin
  2
*D10
 70
     1
 10
0.0
 20
0.0
 30
0.0
  3
*D10
  1

  0
LINE
  5
1B1B
330
738
100
AcDbEntity
  8
0
 62
     0
370
    -2
100
AcDbLine
 10
123.7809626249102
 20
109.5305402522465
 30
0.0
 11
114.2687203800254
 21
109.5305402522465
 31
0.0
  0
LINE
  5
1B1C
330
738
100
AcDbEntity
  8
0
 62
     0
370
    -2
100
AcDbLine
 10
123.7809626249102
 20
127.7805402522465
 30
0.0
 11
114.2687203800254
 21
127.7805402522465
 31
0.0
  0
LINE
  5
1B1D
330
738
100
AcDbEntity
  8
0
 62
     0
370
    -2
100
AcDbLine
 10
115.5187203800254
 20
112.0305402522465
 30
0.0
 11
115.5187203800254
 21
125.2805402522465
 31
0.0
  0
INSERT
  5
1B1E
330
738
100
AcDbEntity
  8
0
 62
     0
370
    -2
100
AcDbBlockReference
  2
_Open30
 10
115.5187203800254
 20
109.5305402522465
 30
0.0
 41
2.5
 42
2.5
 43
2.5
 50
270.0
  0
INSERT
  5
1B1F
330
738
100
AcDbEntity
  8
0
 62
     0
370
    -2
100
AcDbBlockReference
  2
_Open30
 10
115.5187203800254
 20
127.7805402522465
 30
0.0
 41
2.5
 42
2.5
 43
2.5
 50
90.0
  0
MTEXT
  5
1B20
330
738
100
AcDbEntity
  8
0
 62
     4
100
AcDbMText
 10
113.3937203800254
 20
118.6555402522465
 30
0.0
 40
3.0
 41
0.0
 71
     5
 72
     1
  1
73
 11
0.0000000000000001
 21
1.0
 31
0.0
 73
     1
 44
1.0
1001
ACAD
1000
MTEXTBEGIN
1070
    73
1070
     1
1070
    44
1040
1.0
1070
    74
1070
     0
1000
MTEXTEND
  0
POINT
  5
1B21
330
738
100
AcDbEntity
  8
Defpoints
 62
     0
100
AcDbPoint
 10
124.0309626249102
 20
109.5305402522465
 30
0.0
  0
POINT
  5
1B22
330
738
100
AcDbEntity
  8
Defpoints
 62
     0
100
AcDbPoint
 10
124.0309626249102
 20
127.7805402522465
 30
0.0
  0
POINT
  5
1B23
330
738
100
AcDbEntity
  8
Defpoints
 62
     0
100
AcDbPoint
 10
115.5187203800254
 20
127.7805402522465
 30
0.0
  0
ENDBLK
  5
73A
330
738
100
AcDbEntity
  8
0
100
AcDbBlockEnd
  0
BLOCK
  5
745
330
744
100
AcDbEntity
  8
0
100
AcDbBlockBegin
  2
*D11
 70
     1
 10
0.0
 20
0.0
 30
0.0
  3
*D11
  1

  0
LINE
  5
1BA1
330
744
100
AcDbEntity
  8
0
 62
     0
370
    -2
100
AcDbLine
 10
126.1328796454198
 20
137.6555402522466
 30
0.0
 11
126.1328796454198
 21
153.4231779362684
 31
0.0
  0
LINE
  5
1BA2
330
744
100
AcDbEntity
  8
0
 62
     0
370
    -2
100
AcDbLine
 10
148.1328796454195
 20
125.1555402522465
 30
0.0
 11
148.1328796454195
 21
153.4231779362684
 31
0.0
  0
LINE
  5
1BA3
330
744
100
AcDbEntity
  8
0
 62
     0
370
    -2
100
AcDbLine
 10
128.6328796454198
 20
152.1731779362684
 30
0.0
 11
145.6328796454195
 21
152.1731779362684
 31
0.0
  0
INSERT
  5
1BA4
330
744
100
AcDbEntity
  8
0
 62
     0
370
    -2
100
AcDbBlockReference
  2
_Open30
 10
126.1328796454198
 20
152.1731779362684
 30
0.0
 41
2.5
 42
2.5
 43
2.5
 50
180.0
  0
INSERT
  5
1BA5
330
744
100
AcDbEntity
  8
0
 62
     0
370
    -2
100
AcDbBlockReference
  2
_Open30
 10
148.1328796454195
 20
152.1731779362684
 30
0.0
 41
2.5
 42
2.5
 43
2.5
  0
MTEXT
  5
1BA6
330
744
100
AcDbEntity
  8
0
 62
     4
100
AcDbMText
 10
137.1328796454196
 20
154.2981779362684
 30
0.0
 40
3.0
 41
0.0
 71
     5
 72
     1
  1
88
 73
     1
 44
1.0
1001
ACAD
1000
MTEXTBEGIN
1070
    73
1070
     1
1070
    44
1040
1.0
1070
    74
1070
     0
1000
MTEXTEND
  0
POINT
  5
1BA7
330
744
100
AcDbEntity
  8
Defpoints
 62
     0
100
AcDbPoint
 10
126.1328796454198
 20
137.4055402522466
 30
0.0
  0
POINT
  5
1BA8
330
744
100
AcDbEntity
  8
Defpoints
 62
     0
100
AcDbPoint
 10
148.1328796454195
 20
124.9055402522465
 30
0.0
  0
POINT
  5
1BA9
330
744
100
AcDbEntity
  8
Defpoints
 62
     0
100
AcDbPoint
 10
148.1328796454195
 20
152.1731779362684
 30
0.0
  0
ENDBLK
  5
746
330
744
100
AcDbEntity
  8
0
100
AcDbBlockEnd
  0
BLOCK
  5
751
330
750
100
AcDbEntity
  8
0
100
AcDbBlockBegin
  2
*D12
 70
     1
 10
0.0
 20
0.0
 30
0.0
  3
*D12
  1

  0
LINE
  5
1B36
330
750
100
AcDbEntity
  8
0
 62
     0
370
    -2
100
AcDbLine
 10
130.1328796454195
 20
139.3144071007117
 30
0.0
 11
130.1328796454195
 21
142.9147571896765
 31
0.0
  0
LINE
  5
1B37
330
750
100
AcDbEntity
  8
0
 62
     0
370
    -2
100
AcDbLine
 10
126.1328796454198
 20
137.6555402522466
 30
0.0
 11
126.1328796454198
 21
142.9147571896765
 31
0.0
  0
LINE
  5
1B38
330
750
100
AcDbEntity
  8
0
 62
     0
370
    -2
100
AcDbLine
 10
132.6328796454195
 20
141.6647571896765
 30
0.0
 11
135.1328796454195
 21
141.6647571896765
 31
0.0
  0
LINE
  5
1B39
330
750
100
AcDbEntity
  8
0
 62
     0
370
    -2
100
AcDbLine
 10
123.6328796454198
 20
141.6647571896765
 30
0.0
 11
115.8828796454198
 21
141.6647571896765
 31
0.0
  0
LINE
  5
1B3A
330
750
100
AcDbEntity
  8
0
 62
     0
370
    -2
100
AcDbLine
 10
130.1328796454195
 20
141.6647571896765
 30
0.0
 11
126.1328796454198
 21
141.6647571896765
 31
0.0
  0
INSERT
  5
1B3B
330
750
100
AcDbEntity
  8
0
 62
     0
370
    -2
100
AcDbBlockReference
  2
_Open30
 10
130.1328796454195
 20
141.6647571896765
 30
0.0
 41
2.5
 42
2.5
 43
2.5
 50
180.0
  0
INSERT
  5
1B3C
330
750
100
AcDbEntity
  8
0
 62
     0
370
    -2
100
AcDbBlockReference
  2
_Open30
 10
126.1328796454198
 20
141.6647571896765
 30
0.0
 41
2.5
 42
2.5
 43
2.5
  0
MTEXT
  5
1B3D
330
750
100
AcDbEntity
  8
0
 62
     4
100
AcDbMText
 10
118.5078796454198
 20
143.7897571896765
 30
0.0
 40
3.0
 41
0.0
 71
     5
 72
     1
  1
16
 73
     1
 44
1.0
1001
ACAD
1000
MTEXTBEGIN
1070
    73
1070
     1
1070
    44
1040
1.0
1070
    74
1070
     0
1000
MTEXTEND
  0
POINT
  5
1B3E
330
750
100
AcDbEntity
  8
Defpoints
 62
     0
100
AcDbPoint
 10
130.1328796454195
 20
139.0644071007117
 30
0.0
  0
POINT
  5
1B3F
330
750
100
AcDbEntity
  8
Defpoints
 62
     0
100
AcDbPoint
 10
126.1328796454198
 20
137.4055402522466
 30
0.0
  0
POINT
  5
1B40
330
750
100
AcDbEntity
  8
Defpoints
 62
     0
100
AcDbPoint
 10
126.1328796454198
 20
141.6647571896765
 30
0.0
  0
ENDBLK
  5
752
330
750
100
AcDbEntity
  8
0
100
AcDbBlockEnd
  0
BLOCK
  5
768
330
767
100
AcDbEntity
  8
0
100
AcDbBlockBegin
  2
*D13
 70
     1
 10
0.0
 20
0.0
 30
0.0
  3
*D13
  1

  0
LINE
  5
1A8D
330
767
100
AcDbEntity
  8
0
 62
     0
370
    -2
100
AcDbLine
 10
325.43287964542
 20
144.1884108094152
 30
0.0
 11
357.1816713187444
 21
144.1884108094152
 31
0.0
  0
LINE
  5
1A8E
330
767
100
AcDbEntity
  8
0
 62
     0
370
    -2
100
AcDbLine
 10
300.9578796454198
 20
194.1884108094151
 30
0.0
 11
357.1816713187444
 21
194.188410809415
 31
0.0
  0
LINE
  5
1A8F
330
767
100
AcDbEntity
  8
0
 62
     0
370
    -2
100
AcDbLine
 10
355.9316713187444
 20
146.6884108094152
 30
0.0
 11
355.9316713187444
 21
191.688410809415
 31
0.0
  0
INSERT
  5
1A90
330
767
100
AcDbEntity
  8
0
 62
     0
370
    -2
100
AcDbBlockReference
  2
_Open30
 10
355.9316713187444
 20
144.1884108094152
 30
0.0
 41
2.5
 42
2.5
 43
2.5
 50
270.0
  0
INSERT
  5
1A91
330
767
100
AcDbEntity
  8
0
 62
     0
370
    -2
100
AcDbBlockReference
  2
_Open30
 10
355.9316713187444
 20
194.188410809415
 30
0.0
 41
2.5
 42
2.5
 43
2.5
 50
90.0
  0
MTEXT
  5
1A92
330
767
100
AcDbEntity
  8
0
 62
     4
100
AcDbMText
 10
353.8066713187443
 20
170.0638175209022
 30
0.0
 40
3.0
 41
0.0
 71
     5
 72
     1
  1
200
 11
0.0000000000000001
 21
1.0
 31
0.0
 73
     1
 44
1.0
1001
ACAD
1000
MTEXTBEGIN
1070
    73
1070
     1
1070
    44
1040
1.0
1070
    74
1070
     0
1000
MTEXTEND
  0
POINT
  5
1A93
330
767
100
AcDbEntity
  8
Defpoints
 62
     0
100
AcDbPoint
 10
325.18287964542
 20
144.1884108094152
 30
0.0
  0
POINT
  5
1A94
330
767
100
AcDbEntity
  8
Defpoints
 62
     0
100
AcDbPoint
 10
300.7078796454198
 20
194.1884108094151
 30
0.0
  0
POINT
  5
1A95
330
767
100
AcDbEntity
  8
Defpoints
 62
     0
100
AcDbPoint
 10
355.9316713187444
 20
194.188410809415
 30
0.0
  0
ENDBLK
  5
769
330
767
100
AcDbEntity
  8
0
100
AcDbBlockEnd
  0
BLOCK
  5
774
330
773
100
AcDbEntity
  8
0
100
AcDbBlockBegin
  2
*D14
 70
     1
 10
0.0
 20
0.0
 30
0.0
  3
*D14
  1

  0
LINE
  5
1A96
330
773
100
AcDbEntity
  8
0
 62
     0
370
    -2
100
AcDbLine
 10
412.3855814163806
 20
166.1884108094151
 30
0.0
 11
420.4984145714119
 21
166.1884108094151
 31
0.0
  0
LINE
  5
1A97
330
773
100
AcDbEntity
  8
0
 62
     0
370
    -2
100
AcDbLine
 10
412.3855814163806
 20
154.9384108094153
 30
0.0
 11
420.4984145714119
 21
154.9384108094153
 31
0.0
  0
LINE
  5
1A98
330
773
100
AcDbEntity
  8
0
 62
     0
370
    -2
100
AcDbLine
 10
419.2484145714119
 20
163.6884108094151
 30
0.0
 11
419.2484145714119
 21
157.4384108094153
 31
0.0
  0
INSERT
  5
1A99
330
773
100
AcDbEntity
  8
0
 62
     0
370
    -2
100
AcDbBlockReference
  2
_Open30
 10
419.2484145714119
 20
166.1884108094151
 30
0.0
 41
2.5
 42
2.5
 43
2.5
 50
90.0
  0
INSERT
  5
1A9A
330
773
100
AcDbEntity
  8
0
 62
     0
370
    -2
100
AcDbBlockReference
  2
_Open30
 10
419.2484145714119
 20
154.9384108094153
 30
0.0
 41
2.5
 42
2.5
 43
2.5
 50
270.0
  0
MTEXT
  5
1A9B
330
773
100
AcDbEntity
  8
0
 62
     4
100
AcDbMText
 10
417.1234145714118
 20
160.0047451467167
 30
0.0
 40
3.0
 41
0.0
 71
     5
 72
     1
  1
45
 11
0.0000000000000001
 21
1.0
 31
0.0
 73
     1
 44
1.0
1001
ACAD
1000
MTEXTBEGIN
1070
    73
1070
     1
1070
    44
1040
1.0
1070
    74
1070
     0
1000
MTEXTEND
  0
POINT
  5
1A9C
330
773
100
AcDbEntity
  8
Defpoints
 62
     0
100
AcDbPoint
 10
412.1355814163806
 20
166.1884108094151
 30
0.0
  0
POINT
  5
1A9D
330
773
100
AcDbEntity
  8
Defpoints
 62
     0
100
AcDbPoint
 10
412.1355814163806
 20
154.9384108094153
 30
0.0
  0
POINT
  5
1A9E
330
773
100
AcDbEntity
  8
Defpoints
 62
     0
100
AcDbPoint
 10
419.2484145714119
 20
154.9384108094153
 30
0.0
  0
ENDBLK
  5
775
330
773
100
AcDbEntity
  8
0
100
AcDbBlockEnd
  0
BLOCK
  5
79B
330
79A
100
AcDbEntity
  8
0
100
AcDbBlockBegin
  2
*D15
 70
     1
 10
0.0
 20
0.0
 30
0.0
  3
*D15
  1

  0
LINE
  5
1ABA
330
79A
100
AcDbEntity
  8
0
 62
     0
370
    -2
100
AcDbLine
 10
125.8828796454198
 20
187.3884108094151
 30
0.0
 11
117.7475019766382
 21
187.3884108094151
 31
0.0
  0
LINE
  5
1ABB
330
79A
100
AcDbEntity
  8
0
 62
     0
370
    -2
100
AcDbLine
 10
125.8828796454198
 20
186.2634108094151
 30
0.0
 11
117.7475019766382
 21
186.2634108094151
 31
0.0
  0
LINE
  5
1ABC
330
79A
100
AcDbEntity
  8
0
 62
     0
370
    -2
100
AcDbLine
 10
118.9975019766382
 20
189.8884108094151
 30
0.0
 11
118.9975019766382
 21
192.3884108094151
 31
0.0
  0
LINE
  5
1ABD
330
79A
100
AcDbEntity
  8
0
 62
     0
370
    -2
100
AcDbLine
 10
118.9975019766382
 20
183.7634108094151
 30
0.0
 11
118.9975019766382
 21
167.5134108094151
 31
0.0
  0
LINE
  5
1ABE
330
79A
100
AcDbEntity
  8
0
 62
     0
370
    -2
100
AcDbLine
 10
118.9975019766382
 20
187.3884108094151
 30
0.0
 11
118.9975019766382
 21
186.2634108094151
 31
0.0
  0
INSERT
  5
1ABF
330
79A
100
AcDbEntity
  8
0
 62
     0
370
    -2
100
AcDbBlockReference
  2
_Open30
 10
118.9975019766382
 20
187.3884108094151
 30
0.0
 41
2.5
 42
2.5
 43
2.5
 50
270.0
  0
INSERT
  5
1AC0
330
79A
100
AcDbEntity
  8
0
 62
     0
370
    -2
100
AcDbBlockReference
  2
_Open30
 10
118.9975019766382
 20
186.2634108094151
 30
0.0
 41
2.5
 42
2.5
 43
2.5
 50
90.0
  0
MTEXT
  5
1AC1
330
79A
100
AcDbEntity
  8
0
 62
     4
100
AcDbMText
 10
116.8725019766382
 20
174.1384108094152
 30
0.0
 40
3.0
 41
0.0
 71
     5
 72
     1
  1
t=4.5
 11
0.0000000000000001
 21
1.0
 31
0.0
 73
     1
 44
1.0
1001
ACAD
1000
MTEXTBEGIN
1070
    73
1070
     1
1070
    44
1040
1.0
1070
    74
1070
     0
1000
MTEXTEND
  0
POINT
  5
1AC2
330
79A
100
AcDbEntity
  8
Defpoints
 62
     0
100
AcDbPoint
 10
126.1328796454198
 20
187.3884108094151
 30
0.0
  0
POINT
  5
1AC3
330
79A
100
AcDbEntity
  8
Defpoints
 62
     0
100
AcDbPoint
 10
126.1328796454198
 20
186.2634108094151
 30
0.0
  0
POINT
  5
1AC4
330
79A
100
AcDbEntity
  8
Defpoints
 62
     0
100
AcDbPoint
 10
118.9975019766382
 20
186.2634108094151
 30
0.0
  0
ENDBLK
  5
79C
330
79A
100
AcDbEntity
  8
0
100
AcDbBlockEnd
  0
BLOCK
  5
7BF
330
7BE
100
AcDbEntity
  8
0
100
AcDbBlockBegin
  2
*D16
 70
     1
 10
0.0
 20
0.0
 30
0.0
  3
*D16
  1

  0
LINE
  5
1ADB
330
7BE
100
AcDbEntity
  8
0
 62
     0
370
    -2
100
AcDbLine
 10
323.7953796454197
 20
144.5634108094151
 30
0.0
 11
323.7953796454197
 21
128.7143621252116
 31
0.0
  0
LINE
  5
1ADC
330
7BE
100
AcDbEntity
  8
0
 62
     0
370
    -2
100
AcDbLine
 10
319.4203796454199
 20
144.5634108094151
 30
0.0
 11
319.4203796454199
 21
128.7143621252116
 31
0.0
  0
LINE
  5
1ADD
330
7BE
100
AcDbEntity
  8
0
 62
     0
370
    -2
100
AcDbLine
 10
316.9203796454199
 20
129.9643621252116
 30
0.0
 11
314.4203796454199
 21
129.9643621252116
 31
0.0
  0
LINE
  5
1ADE
330
7BE
100
AcDbEntity
  8
0
 62
     0
370
    -2
100
AcDbLine
 10
326.2953796454197
 20
129.9643621252116
 30
0.0
 11
345.0453796454197
 21
129.9643621252116
 31
0.0
  0
LINE
  5
1ADF
330
7BE
100
AcDbEntity
  8
0
 62
     0
370
    -2
100
AcDbLine
 10
319.4203796454199
 20
129.9643621252116
 30
0.0
 11
323.7953796454197
 21
129.9643621252116
 31
0.0
  0
INSERT
  5
1AE0
330
7BE
100
AcDbEntity
  8
0
 62
     0
370
    -2
100
AcDbBlockReference
  2
_Open30
 10
319.4203796454199
 20
129.9643621252116
 30
0.0
 41
2.5
 42
2.5
 43
2.5
  0
INSERT
  5
1AE1
330
7BE
100
AcDbEntity
  8
0
 62
     0
370
    -2
100
AcDbBlockReference
  2
_Open30
 10
323.7953796454197
 20
129.9643621252116
 30
0.0
 41
2.5
 42
2.5
 43
2.5
 50
180.0
  0
MTEXT
  5
1AE2
330
7BE
100
AcDbEntity
  8
0
 62
     4
100
AcDbMText
 10
336.9203796454197
 20
132.0893621252116
 30
0.0
 40
3.0
 41
0.0
 71
     5
 72
     1
  1
(%%C17.5)
 73
     1
 44
1.0
1001
ACAD
1000
MTEXTBEGIN
1070
    73
1070
     1
1070
    44
1040
1.0
1070
    74
1070
     0
1000
MTEXTEND
  0
POINT
  5
1AE3
330
7BE
100
AcDbEntity
  8
Defpoints
 62
     0
100
AcDbPoint
 10
323.7953796454197
 20
144.8134108094151
 30
0.0
  0
POINT
  5
1AE4
330
7BE
100
AcDbEntity
  8
Defpoints
 62
     0
100
AcDbPoint
 10
319.4203796454199
 20
144.8134108094151
 30
0.0
  0
POINT
  5
1AE5
330
7BE
100
AcDbEntity
  8
Defpoints
 62
     0
100
AcDbPoint
 10
319.4203796454199
 20
129.9643621252116
 30
0.0
  0
ENDBLK
  5
7C0
330
7BE
100
AcDbEntity
  8
0
100
AcDbBlockEnd
  0
BLOCK
  5
7CD
330
7CC
100
AcDbEntity
  8
0
100
AcDbBlockBegin
  2
*D17
 70
     1
 10
0.0
 20
0.0
 30
0.0
  3
*D17
  1

  0
LINE
  5
1AE6
330
7CC
100
AcDbEntity
  8
0
 62
     0
370
    -2
100
AcDbLine
 10
398.1355814163806
 20
151.9384108094151
 30
0.0
 11
398.1355814163806
 21
131.6970628735355
 31
0.0
  0
LINE
  5
1AE7
330
7CC
100
AcDbEntity
  8
0
 62
     0
370
    -2
100
AcDbLine
 10
384.3855814163806
 20
151.9384108094151
 30
0.0
 11
384.3855814163806
 21
131.6970628735355
 31
0.0
  0
LINE
  5
1AE8
330
7CC
100
AcDbEntity
  8
0
 62
     0
370
    -2
100
AcDbLine
 10
395.6355814163806
 20
132.9470628735355
 30
0.0
 11
386.8855814163806
 21
132.9470628735355
 31
0.0
  0
INSERT
  5
1AE9
330
7CC
100
AcDbEntity
  8
0
 62
     0
370
    -2
100
AcDbBlockReference
  2
_Open30
 10
398.1355814163806
 20
132.9470628735355
 30
0.0
 41
2.5
 42
2.5
 43
2.5
  0
INSERT
  5
1AEA
330
7CC
100
AcDbEntity
  8
0
 62
     0
370
    -2
100
AcDbBlockReference
  2
_Open30
 10
384.3855814163806
 20
132.9470628735355
 30
0.0
 41
2.5
 42
2.5
 43
2.5
 50
180.0
  0
MTEXT
  5
1AEB
330
7CC
100
AcDbEntity
  8
0
 62
     4
100
AcDbMText
 10
391.5909833279155
 20
135.0720628735355
 30
0.0
 40
3.0
 41
0.0
 71
     5
 72
     1
  1
55
 73
     1
 44
1.0
1001
ACAD
1000
MTEXTBEGIN
1070
    73
1070
     1
1070
    44
1040
1.0
1070
    74
1070
     0
1000
MTEXTEND
  0
POINT
  5
1AEC
330
7CC
100
AcDbEntity
  8
Defpoints
 62
     0
100
AcDbPoint
 10
398.1355814163806
 20
152.1884108094151
 30
0.0
  0
POINT
  5
1AED
330
7CC
100
AcDbEntity
  8
Defpoints
 62
     0
100
AcDbPoint
 10
384.3855814163806
 20
152.1884108094151
 30
0.0
  0
POINT
  5
1AEE
330
7CC
100
AcDbEntity
  8
Defpoints
 62
     0
100
AcDbPoint
 10
384.3855814163806
 20
132.9470628735355
 30
0.0
  0
ENDBLK
  5
7CE
330
7CC
100
AcDbEntity
  8
0
100
AcDbBlockEnd
  0
BLOCK
  5
7D9
330
7D8
100
AcDbEntity
  8
0
100
AcDbBlockBegin
  2
*D18
 70
     1
 10
0.0
 20
0.0
 30
0.0
  3
*D18
  1

  0
LINE
  5
1AEF
330
7D8
100
AcDbEntity
  8
0
 62
     0
370
    -2
100
AcDbLine
 10
409.3855814163806
 20
151.9384108094151
 30
0.0
 11
409.3855814163806
 21
131.6970628735357
 31
0.0
  0
LINE
  5
1AF0
330
7D8
100
AcDbEntity
  8
0
 62
     0
370
    -2
100
AcDbLine
 10
398.1355814163806
 20
151.9384108094151
 30
0.0
 11
398.1355814163806
 21
131.6970628735357
 31
0.0
  0
LINE
  5
1AF1
330
7D8
100
AcDbEntity
  8
0
 62
     0
370
    -2
100
AcDbLine
 10
406.8855814163805
 20
132.9470628735357
 30
0.0
 11
400.6355814163805
 21
132.9470628735357
 31
0.0
  0
INSERT
  5
1AF2
330
7D8
100
AcDbEntity
  8
0
 62
     0
370
    -2
100
AcDbBlockReference
  2
_Open30
 10
409.3855814163806
 20
132.9470628735357
 30
0.0
 41
2.5
 42
2.5
 43
2.5
  0
INSERT
  5
1AF3
330
7D8
100
AcDbEntity
  8
0
 62
     0
370
    -2
100
AcDbBlockReference
  2
_Open30
 10
398.1355814163806
 20
132.9470628735357
 30
0.0
 41
2.5
 42
2.5
 43
2.5
 50
180.0
  0
MTEXT
  5
1AF4
330
7D8
100
AcDbEntity
  8
0
 62
     4
100
AcDbMText
 10
403.8399571937746
 20
135.0720628735357
 30
0.0
 40
3.0
 41
0.0
 71
     5
 72
     1
  1
45
 73
     1
 44
1.0
1001
ACAD
1000
MTEXTBEGIN
1070
    73
1070
     1
1070
    44
1040
1.0
1070
    74
1070
     0
1000
MTEXTEND
  0
POINT
  5
1AF5
330
7D8
100
AcDbEntity
  8
Defpoints
 62
     0
100
AcDbPoint
 10
409.3855814163806
 20
152.1884108094151
 30
0.0
  0
POINT
  5
1AF6
330
7D8
100
AcDbEntity
  8
Defpoints
 62
     0
100
AcDbPoint
 10
398.1355814163806
 20
152.1884108094151
 30
0.0
  0
POINT
  5
1AF7
330
7D8
100
AcDbEntity
  8
Defpoints
 62
     0
100
AcDbPoint
 10
398.1355814163806
 20
132.9470628735357
 30
0.0
  0
ENDBLK
  5
7DA
330
7D8
100
AcDbEntity
  8
0
100
AcDbBlockEnd
  0
BLOCK
  5
7E5
330
7E4
100
AcDbEntity
  8
0
100
AcDbBlockBegin
  2
*D19
 70
     1
 10
0.0
 20
0.0
 30
0.0
  3
*D19
  1

  0
LINE
  5
1AF8
330
7E4
100
AcDbEntity
  8
0
 62
     0
370
    -2
100
AcDbLine
 10
384.3855814163806
 20
151.9384108094151
 30
0.0
 11
384.3855814163806
 21
131.6970628735357
 31
0.0
  0
LINE
  5
1AF9
330
7E4
100
AcDbEntity
  8
0
 62
     0
370
    -2
100
AcDbLine
 10
373.1355814163806
 20
151.9384108094151
 30
0.0
 11
373.1355814163806
 21
131.6970628735357
 31
0.0
  0
LINE
  5
1AFA
330
7E4
100
AcDbEntity
  8
0
 62
     0
370
    -2
100
AcDbLine
 10
381.8855814163806
 20
132.9470628735357
 30
0.0
 11
375.6355814163806
 21
132.9470628735357
 31
0.0
  0
INSERT
  5
1AFB
330
7E4
100
AcDbEntity
  8
0
 62
     0
370
    -2
100
AcDbBlockReference
  2
_Open30
 10
384.3855814163806
 20
132.9470628735357
 30
0.0
 41
2.5
 42
2.5
 43
2.5
  0
INSERT
  5
1AFC
330
7E4
100
AcDbEntity
  8
0
 62
     0
370
    -2
100
AcDbBlockReference
  2
_Open30
 10
373.1355814163806
 20
132.9470628735357
 30
0.0
 41
2.5
 42
2.5
 43
2.5
 50
180.0
  0
MTEXT
  5
1AFD
330
7E4
100
AcDbEntity
  8
0
 62
     4
100
AcDbMText
 10
378.4995647235772
 20
135.0720628735357
 30
0.0
 40
3.0
 41
0.0
 71
     5
 72
     1
  1
45
 73
     1
 44
1.0
1001
ACAD
1000
MTEXTBEGIN
1070
    73
1070
     1
1070
    44
1040
1.0
1070
    74
1070
     0
1000
MTEXTEND
  0
POINT
  5
1AFE
330
7E4
100
AcDbEntity
  8
Defpoints
 62
     0
100
AcDbPoint
 10
384.3855814163806
 20
152.1884108094151
 30
0.0
  0
POINT
  5
1AFF
330
7E4
100
AcDbEntity
  8
Defpoints
 62
     0
100
AcDbPoint
 10
373.1355814163806
 20
152.1884108094151
 30
0.0
  0
POINT
  5
1B00
330
7E4
100
AcDbEntity
  8
Defpoints
 62
     0
100
AcDbPoint
 10
373.1355814163806
 20
132.9470628735357
 30
0.0
  0
ENDBLK
  5
7E6
330
7E4
100
AcDbEntity
  8
0
100
AcDbBlockEnd
  0
BLOCK
  5
7FA
330
7F9
100
AcDbEntity
  8
0
100
AcDbBlockBegin
  2
*D20
 70
     1
 10
0.0
 20
0.0
 30
0.0
  3
*D20
  1

  0
LINE
  5
1B0A
330
7F9
100
AcDbEntity
  8
0
 62
     0
370
    -2
100
AcDbLine
 10
407.5959901786561
 20
163.4009353473061
 30
0.0
 11
406.2453552822602
 21
161.2971802815635
 31
0.0
  0
LINE
  5
1B0B
330
7F9
100
AcDbEntity
  8
0
 62
     0
370
    -2
100
AcDbLine
 10
411.1751726541057
 20
168.975886271524
 30
0.0
 11
423.8981533781555
 21
188.7932589908183
 31
0.0
  0
LINE
  5
1B0C
330
7F9
100
AcDbEntity
  8
0
 62
     0
370
    -2
100
AcDbLine
 10
408.9466250750522
 20
165.5046904130486
 30
0.0
 11
409.8245377577097
 21
166.8721312057815
 31
0.0
  0
INSERT
  5
1B0D
330
7F9
100
AcDbEntity
  8
0
 62
     0
370
    -2
100
AcDbBlockReference
  2
_Open30
 10
408.9466250750522
 20
165.5046904130486
 30
0.0
 41
2.5
 42
2.5
 43
2.5
 50
57.29907142184171
  0
INSERT
  5
1B0E
330
7F9
100
AcDbEntity
  8
0
 62
     0
370
    -2
100
AcDbBlockReference
  2
_Open30
 10
409.8245377577097
 20
166.8721312057815
 30
0.0
 41
2.5
 42
2.5
 43
2.5
 50
237.2990714218417
  0
MTEXT
  5
1B0F
102
{ACAD_XDICTIONARY
360
1E19
102
}
330
7F9
100
AcDbEntity
  8
0
 62
     4
100
AcDbMText
 10
416.6939156377265
 20
181.5052408391272
 30
0.0
 40
3.0
 41
0.0
 71
     5
 72
     1
  1
8-\U+22056.5穴
 11
0.540253958558393
 21
0.8415020262970173
 31
0.0
 73
     1
 44
1.0
1001
ACAD
1000
MTEXTBEGIN
1070
    73
1070
     1
1070
    44
1040
1.0
1070
    74
1070
     0
1000
MTEXTEND
  0
POINT
  5
1B10
330
7F9
100
AcDbEntity
  8
Defpoints
 62
     0
100
AcDbPoint
 10
409.8245377577097
 20
166.8721312057815
 30
0.0
  0
POINT
  5
1B11
330
7F9
100
AcDbEntity
  8
Defpoints
 62
     0
100
AcDbPoint
 10
408.9466250750522
 20
165.5046904130486
 30
0.0
  0
ENDBLK
  5
7FB
330
7F9
100
AcDbEntity
  8
0
100
AcDbBlockEnd
  0
BLOCK
  5
80E
330
80D
100
AcDbEntity
  8
0
100
AcDbBlockBegin
  2
*D21
 70
     1
 10
0.0
 20
0.0
 30
0.0
  3
*D21
  1

  0
LINE
  5
1B12
330
80D
100
AcDbEntity
  8
0
 62
     0
370
    -2
100
AcDbLine
 10
319.6819063537976
 20
165.9384108094151
 30
0.0
 11
300.663927369931
 21
165.9384108094151
 31
0.0
  0
LINE
  5
1B13
330
80D
100
AcDbEntity
  8
0
 62
     0
370
    -2
100
AcDbLine
 10
142.3828796454198
 20
186.2634108094151
 30
0.0
 11
303.163927369931
 21
186.263410809415
 31
0.0
  0
LINE
  5
1B14
330
80D
100
AcDbEntity
  8
0
 62
     0
370
    -2
100
AcDbLine
 10
301.9139273699309
 20
168.4384108094151
 30
0.0
 11
301.9139273699309
 21
183.763410809415
 31
0.0
  0
INSERT
  5
1B15
330
80D
100
AcDbEntity
  8
0
 62
     0
370
    -2
100
AcDbBlockReference
  2
_Open30
 10
301.9139273699309
 20
165.9384108094151
 30
0.0
 41
2.5
 42
2.5
 43
2.5
 50
270.0
  0
INSERT
  5
1B16
330
80D
100
AcDbEntity
  8
0
 62
     0
370
    -2
100
AcDbBlockReference
  2
_Open30
 10
301.9139273699309
 20
186.263410809415
 30
0.0
 41
2.5
 42
2.5
 43
2.5
 50
90.0
  0
MTEXT
  5
1B17
330
80D
100
AcDbEntity
  8
0
 62
     4
100
AcDbMText
 10
299.7889273699309
 20
175.3045802364379
 30
0.0
 40
3.0
 41
0.0
 71
     5
 72
     1
  1
(81.3)
 11
0.0000000000000001
 21
1.0
 31
0.0
 73
     1
 44
1.0
1001
ACAD
1000
MTEXTBEGIN
1070
    73
1070
     1
1070
    44
1040
1.0
1070
    74
1070
     0
1000
MTEXTEND
  0
POINT
  5
1B18
330
80D
100
AcDbEntity
  8
Defpoints
 62
     0
100
AcDbPoint
 10
319.9319063537976
 20
165.9384108094151
 30
0.0
  0
POINT
  5
1B19
330
80D
100
AcDbEntity
  8
Defpoints
 62
     0
100
AcDbPoint
 10
142.1328796454198
 20
186.2634108094151
 30
0.0
  0
POINT
  5
1B1A
330
80D
100
AcDbEntity
  8
Defpoints
 62
     0
100
AcDbPoint
 10
301.9139273699309
 20
186.263410809415
 30
0.0
  0
ENDBLK
  5
80F
330
80D
100
AcDbEntity
  8
0
100
AcDbBlockEnd
  0
BLOCK
  5
823
330
822
100
AcDbEntity
  8
0
100
AcDbBlockBegin
  2
*D22
 70
     1
 10
0.0
 20
0.0
 30
0.0
  3
*D22
  1

  0
LINE
  5
1B24
330
822
100
AcDbEntity
  8
0
 62
     0
370
    -2
100
AcDbLine
 10
125.8828796454198
 20
137.4055402522466
 30
0.0
 11
101.3983712917559
 21
137.4055402522466
 31
0.0
  0
LINE
  5
1B25
330
822
100
AcDbEntity
  8
0
 62
     0
370
    -2
100
AcDbLine
 10
125.8828796454198
 20
99.90554025224662
 30
0.0
 11
101.3983712917559
 21
99.90554025224662
 31
0.0
  0
LINE
  5
1B26
330
822
100
AcDbEntity
  8
0
 62
     0
370
    -2
100
AcDbLine
 10
102.6483712917559
 20
134.9055402522466
 30
0.0
 11
102.6483712917559
 21
102.4055402522466
 31
0.0
  0
INSERT
  5
1B27
330
822
100
AcDbEntity
  8
0
 62
     0
370
    -2
100
AcDbBlockReference
  2
_Open30
 10
102.6483712917559
 20
137.4055402522466
 30
0.0
 41
2.5
 42
2.5
 43
2.5
 50
90.0
  0
INSERT
  5
1B28
330
822
100
AcDbEntity
  8
0
 62
     0
370
    -2
100
AcDbBlockReference
  2
_Open30
 10
102.6483712917559
 20
99.90554025224662
 30
0.0
 41
2.5
 42
2.5
 43
2.5
 50
270.0
  0
MTEXT
  5
1B29
330
822
100
AcDbEntity
  8
0
 62
     4
100
AcDbMText
 10
100.5233712917559
 20
118.8577927696262
 30
0.0
 40
3.0
 41
0.0
 71
     5
 72
     1
  1
150
 11
0.0000000000000001
 21
1.0
 31
0.0
 73
     1
 44
1.0
1001
ACAD
1000
MTEXTBEGIN
1070
    73
1070
     1
1070
    44
1040
1.0
1070
    74
1070
     0
1000
MTEXTEND
  0
POINT
  5
1B2A
330
822
100
AcDbEntity
  8
Defpoints
 62
     0
100
AcDbPoint
 10
126.1328796454198
 20
137.4055402522466
 30
0.0
  0
POINT
  5
1B2B
330
822
100
AcDbEntity
  8
Defpoints
 62
     0
100
AcDbPoint
 10
126.1328796454198
 20
99.90554025224662
 30
0.0
  0
POINT
  5
1B2C
330
822
100
AcDbEntity
  8
Defpoints
 62
     0
100
AcDbPoint
 10
102.6483712917559
 20
99.90554025224662
 30
0.0
  0
ENDBLK
  5
824
330
822
100
AcDbEntity
  8
0
100
AcDbBlockEnd
  0
BLOCK
  5
843
330
842
100
AcDbEntity
  8
0
100
AcDbBlockBegin
  2
*D23
 70
     1
 10
0.0
 20
0.0
 30
0.0
  3
*D23
  1

  0
LINE
  5
1B98
330
842
100
AcDbEntity
  8
0
 62
     0
370
    -2
100
AcDbLine
 10
130.1328796454195
 20
139.3144071007117
 30
0.0
 11
130.1328796454195
 21
142.9147571896765
 31
0.0
  0
LINE
  5
1B99
330
842
100
AcDbEntity
  8
0
 62
     0
370
    -2
100
AcDbLine
 10
138.1328796454195
 20
129.1099736764791
 30
0.0
 11
138.1328796454195
 21
142.9147571896765
 31
0.0
  0
LINE
  5
1B9A
330
842
100
AcDbEntity
  8
0
 62
     0
370
    -2
100
AcDbLine
 10
132.6328796454195
 20
141.6647571896765
 30
0.0
 11
135.6328796454195
 21
141.6647571896765
 31
0.0
  0
INSERT
  5
1B9B
330
842
100
AcDbEntity
  8
0
 62
     0
370
    -2
100
AcDbBlockReference
  2
_Open30
 10
130.1328796454195
 20
141.6647571896765
 30
0.0
 41
2.5
 42
2.5
 43
2.5
 50
180.0
  0
INSERT
  5
1B9C
330
842
100
AcDbEntity
  8
0
 62
     0
370
    -2
100
AcDbBlockReference
  2
_Open30
 10
138.1328796454195
 20
141.6647571896765
 30
0.0
 41
2.5
 42
2.5
 43
2.5
  0
MTEXT
  5
1B9D
330
842
100
AcDbEntity
  8
0
 62
     4
100
AcDbMText
 10
134.1328796454195
 20
143.7897571896765
 30
0.0
 40
3.0
 41
0.0
 71
     5
 72
     1
  1
32
 73
     1
 44
1.0
1001
ACAD
1000
MTEXTBEGIN
1070
    73
1070
     1
1070
    44
1040
1.0
1070
    74
1070
     0
1000
MTEXTEND
  0
POINT
  5
1B9E
330
842
100
AcDbEntity
  8
Defpoints
 62
     0
100
AcDbPoint
 10
130.1328796454195
 20
139.0644071007117
 30
0.0
  0
POINT
  5
1B9F
330
842
100
AcDbEntity
  8
Defpoints
 62
     0
100
AcDbPoint
 10
138.1328796454195
 20
128.8599736764791
 30
0.0
  0
POINT
  5
1BA0
330
842
100
AcDbEntity
  8
Defpoints
 62
     0
100
AcDbPoint
 10
138.1328796454195
 20
141.6647571896765
 30
0.0
  0
ENDBLK
  5
844
330
842
100
AcDbEntity
  8
0
100
AcDbBlockEnd
  0
BLOCK
  5
84F
330
84E
100
AcDbEntity
  8
0
100
AcDbBlockBegin
  2
*D24
 70
     1
 10
0.0
 20
0.0
 30
0.0
  3
*D24
  1

  0
LINE
  5
1B4A
330
84E
100
AcDbEntity
  8
0
 62
     0
370
    -2
100
AcDbLine
 10
123.7809626249102
 20
131.6555402522465
 30
0.0
 11
108.8802625050028
 21
131.6555402522465
 31
0.0
  0
LINE
  5
1B4B
330
84E
100
AcDbEntity
  8
0
 62
     0
370
    -2
100
AcDbLine
 10
123.7809626249102
 20
105.6555402522465
 30
0.0
 11
108.8802625050028
 21
105.6555402522465
 31
0.0
  0
LINE
  5
1B4C
330
84E
100
AcDbEntity
  8
0
 62
     0
370
    -2
100
AcDbLine
 10
110.1302625050028
 20
129.1555402522465
 30
0.0
 11
110.1302625050028
 21
108.1555402522465
 31
0.0
  0
INSERT
  5
1B4D
330
84E
100
AcDbEntity
  8
0
 62
     0
370
    -2
100
AcDbBlockReference
  2
_Open30
 10
110.1302625050028
 20
131.6555402522465
 30
0.0
 41
2.5
 42
2.5
 43
2.5
 50
90.0
  0
INSERT
  5
1B4E
330
84E
100
AcDbEntity
  8
0
 62
     0
370
    -2
100
AcDbBlockReference
  2
_Open30
 10
110.1302625050028
 20
105.6555402522465
 30
0.0
 41
2.5
 42
2.5
 43
2.5
 50
270.0
  0
MTEXT
  5
1B4F
330
84E
100
AcDbEntity
  8
0
 62
     4
100
AcDbMText
 10
108.0052625050028
 20
118.7662165714866
 30
0.0
 40
3.0
 41
0.0
 71
     5
 72
     1
  1
104
 11
0.0000000000000001
 21
1.0
 31
0.0
 73
     1
 44
1.0
1001
ACAD
1000
MTEXTBEGIN
1070
    73
1070
     1
1070
    44
1040
1.0
1070
    74
1070
     0
1000
MTEXTEND
  0
POINT
  5
1B50
330
84E
100
AcDbEntity
  8
Defpoints
 62
     0
100
AcDbPoint
 10
124.0309626249102
 20
131.6555402522465
 30
0.0
  0
POINT
  5
1B51
330
84E
100
AcDbEntity
  8
Defpoints
 62
     0
100
AcDbPoint
 10
124.0309626249102
 20
105.6555402522465
 30
0.0
  0
POINT
  5
1B52
330
84E
100
AcDbEntity
  8
Defpoints
 62
     0
100
AcDbPoint
 10
110.1302625050028
 20
105.6555402522465
 30
0.0
  0
ENDBLK
  5
850
330
84E
100
AcDbEntity
  8
0
100
AcDbBlockEnd
  0
BLOCK
  5
85B
330
85A
100
AcDbEntity
  8
0
100
AcDbBlockBegin
  2
*D25
 70
     1
 10
0.0
 20
0.0
 30
0.0
  3
*D25
  1

  0
LINE
  5
1B53
330
85A
100
AcDbEntity
  8
0
 62
     0
370
    -2
100
AcDbLine
 10
132.1565903568683
 20
108.9601158613629
 30
0.0
 11
133.4622101707062
 21
111.092100125309
 31
0.0
  0
LINE
  5
1B54
330
85A
100
AcDbEntity
  8
0
 62
     0
370
    -2
100
AcDbLine
 10
128.1091689339707
 20
102.35096464313
 30
0.0
 11
116.3324782131526
 21
83.12046658233605
 31
0.0
  0
LINE
  5
1B55
330
85A
100
AcDbEntity
  8
0
 62
     0
370
    -2
100
AcDbLine
 10
130.8509705430304
 20
106.8281315974168
 30
0.0
 11
129.4147887478087
 21
104.4829489070761
 31
0.0
  0
INSERT
  5
1B56
330
85A
100
AcDbEntity
  8
0
 62
     0
370
    -2
100
AcDbBlockReference
  2
_Open30
 10
130.8509705430304
 20
106.8281315974168
 30
0.0
 41
2.5
 42
2.5
 43
2.5
 50
238.5168409545383
  0
INSERT
  5
1B57
330
85A
100
AcDbEntity
  8
0
 62
     0
370
    -2
100
AcDbBlockReference
  2
_Open30
 10
129.4147887478087
 20
104.4829489070761
 30
0.0
 41
2.5
 42
2.5
 43
2.5
 50
58.51684095453822
  0
MTEXT
  5
1B58
102
{ACAD_XDICTIONARY
360
1E1B
102
}
330
85A
100
AcDbEntity
  8
0
 62
     4
100
AcDbMText
 10
118.9724551539858
 20
91.50030976415449
 30
0.0
 40
3.0
 41
0.0
 71
     5
 72
     1
  1
4-\U+220511穴
 11
0.5222479255351721
 21
0.8527937055784413
 31
0.0
 73
     1
 44
1.0
1001
ACAD
1000
MTEXTBEGIN
1070
    73
1070
     1
1070
    44
1040
1.0
1070
    74
1070
     0
1000
MTEXTEND
  0
POINT
  5
1B59
330
85A
100
AcDbEntity
  8
Defpoints
 62
     0
100
AcDbPoint
 10
129.4147887478087
 20
104.4829489070761
 30
0.0
  0
POINT
  5
1B5A
330
85A
100
AcDbEntity
  8
Defpoints
 62
     0
100
AcDbPoint
 10
130.8509705430304
 20
106.8281315974168
 30
0.0
  0
ENDBLK
  5
85C
330
85A
100
AcDbEntity
  8
0
100
AcDbBlockEnd
  0
BLOCK
  5
866
330
865
100
AcDbEntity
  8
0
100
AcDbBlockBegin
  2
*D26
 70
     1
 10
0.0
 20
0.0
 30
0.0
  3
*D26
  1

  0
LINE
  5
1B5B
330
865
100
AcDbEntity
  8
0
 62
     0
370
    -2
100
AcDbLine
 10
144.1328796454195
 20
129.1099736764791
 30
0.0
 11
144.1328796454195
 21
142.9147571896765
 31
0.0
  0
LINE
  5
1B5C
330
865
100
AcDbEntity
  8
0
 62
     0
370
    -2
100
AcDbLine
 10
138.1328796454195
 20
129.1099736764791
 30
0.0
 11
138.1328796454195
 21
142.9147571896765
 31
0.0
  0
LINE
  5
1B5D
330
865
100
AcDbEntity
  8
0
 62
     0
370
    -2
100
AcDbLine
 10
135.6328796454195
 20
141.6647571896765
 30
0.0
 11
133.1328796454195
 21
141.6647571896765
 31
0.0
  0
LINE
  5
1B5E
330
865
100
AcDbEntity
  8
0
 62
     0
370
    -2
100
AcDbLine
 10
146.6328796454195
 20
141.6647571896765
 30
0.0
 11
155.3828796454195
 21
141.6647571896765
 31
0.0
  0
LINE
  5
1B5F
330
865
100
AcDbEntity
  8
0
 62
     0
370
    -2
100
AcDbLine
 10
138.1328796454195
 20
141.6647571896765
 30
0.0
 11
144.1328796454195
 21
141.6647571896765
 31
0.0
  0
INSERT
  5
1B60
330
865
100
AcDbEntity
  8
0
 62
     0
370
    -2
100
AcDbBlockReference
  2
_Open30
 10
138.1328796454195
 20
141.6647571896765
 30
0.0
 41
2.5
 42
2.5
 43
2.5
  0
INSERT
  5
1B61
330
865
100
AcDbEntity
  8
0
 62
     0
370
    -2
100
AcDbBlockReference
  2
_Open30
 10
144.1328796454195
 20
141.6647571896765
 30
0.0
 41
2.5
 42
2.5
 43
2.5
 50
180.0
  0
MTEXT
  5
1B62
330
865
100
AcDbEntity
  8
0
 62
     4
100
AcDbMText
 10
152.2578796454195
 20
143.7897571896765
 30
0.0
 40
3.0
 41
0.0
 71
     5
 72
     1
  1
24
 73
     1
 44
1.0
1001
ACAD
1000
MTEXTBEGIN
1070
    73
1070
     1
1070
    44
1040
1.0
1070
    74
1070
     0
1000
MTEXTEND
  0
POINT
  5
1B63
330
865
100
AcDbEntity
  8
Defpoints
 62
     0
100
AcDbPoint
 10
144.1328796454195
 20
128.8599736764791
 30
0.0
  0
POINT
  5
1B64
330
865
100
AcDbEntity
  8
Defpoints
 62
     0
100
AcDbPoint
 10
138.1328796454195
 20
128.8599736764791
 30
0.0
  0
POINT
  5
1B65
330
865
100
AcDbEntity
  8
Defpoints
 62
     0
100
AcDbPoint
 10
138.1328796454195
 20
141.6647571896765
 30
0.0
  0
ENDBLK
  5
867
330
865
100
AcDbEntity
  8
0
100
AcDbBlockEnd
  0
BLOCK
  5
874
330
873
100
AcDbEntity
  8
0
100
AcDbBlockBegin
  2
*D27
 70
     1
 10
0.0
 20
0.0
 30
0.0
  3
*D27
  1

  0
LINE
  5
1B8F
330
873
100
AcDbEntity
  8
0
 62
     0
370
    -2
100
AcDbLine
 10
134.1328796454198
 20
99.65554025224662
 30
0.0
 11
134.1328796454198
 21
90.95801991377578
 31
0.0
  0
LINE
  5
1B90
330
873
100
AcDbEntity
  8
0
 62
     0
370
    -2
100
AcDbLine
 10
126.1328796454198
 20
99.65554025224662
 30
0.0
 11
126.1328796454198
 21
90.95801991377578
 31
0.0
  0
LINE
  5
1B91
330
873
100
AcDbEntity
  8
0
 62
     0
370
    -2
100
AcDbLine
 10
131.6328796454198
 20
92.20801991377578
 30
0.0
 11
128.6328796454198
 21
92.20801991377578
 31
0.0
  0
INSERT
  5
1B92
330
873
100
AcDbEntity
  8
0
 62
     0
370
    -2
100
AcDbBlockReference
  2
_Open30
 10
134.1328796454198
 20
92.20801991377578
 30
0.0
 41
2.5
 42
2.5
 43
2.5
  0
INSERT
  5
1B93
330
873
100
AcDbEntity
  8
0
 62
     0
370
    -2
100
AcDbBlockReference
  2
_Open30
 10
126.1328796454198
 20
92.20801991377578
 30
0.0
 41
2.5
 42
2.5
 43
2.5
 50
180.0
  0
MTEXT
  5
1B94
330
873
100
AcDbEntity
  8
0
 62
     4
100
AcDbMText
 10
130.1328796454198
 20
94.33301991377579
 30
0.0
 40
3.0
 41
0.0
 71
     5
 72
     1
  1
32
 73
     1
 44
1.0
1001
ACAD
1000
MTEXTBEGIN
1070
    73
1070
     1
1070
    44
1040
1.0
1070
    74
1070
     0
1000
MTEXTEND
  0
POINT
  5
1B95
330
873
100
AcDbEntity
  8
Defpoints
 62
     0
100
AcDbPoint
 10
134.1328796454198
 20
99.90554025224662
 30
0.0
  0
POINT
  5
1B96
330
873
100
AcDbEntity
  8
Defpoints
 62
     0
100
AcDbPoint
 10
126.1328796454198
 20
99.90554025224662
 30
0.0
  0
POINT
  5
1B97
330
873
100
AcDbEntity
  8
Defpoints
 62
     0
100
AcDbPoint
 10
126.1328796454198
 20
92.20801991377578
 30
0.0
  0
ENDBLK
  5
875
330
873
100
AcDbEntity
  8
0
100
AcDbBlockEnd
  0
BLOCK
  5
889
330
888
100
AcDbEntity
  8
0
100
AcDbBlockBegin
  2
*D28
 70
     1
 10
0.0
 20
0.0
 30
0.0
  3
*D28
  1

  0
LINE
  5
1B6F
330
888
100
AcDbEntity
  8
0
 62
     0
370
    -2
100
AcDbLine
 10
148.3828796454195
 20
124.9055402522465
 30
0.0
 11
154.8481447274878
 21
124.9055402522465
 31
0.0
  0
LINE
  5
1B70
330
888
100
AcDbEntity
  8
0
 62
     0
370
    -2
100
AcDbLine
 10
148.3828796454195
 20
112.4055402522465
 30
0.0
 11
154.8481447274878
 21
112.4055402522465
 31
0.0
  0
LINE
  5
1B71
330
888
100
AcDbEntity
  8
0
 62
     0
370
    -2
100
AcDbLine
 10
153.5981447274878
 20
109.9055402522465
 30
0.0
 11
153.5981447274878
 21
107.4055402522465
 31
0.0
  0
LINE
  5
1B72
330
888
100
AcDbEntity
  8
0
 62
     0
370
    -2
100
AcDbLine
 10
153.5981447274878
 20
127.4055402522465
 30
0.0
 11
153.5981447274878
 21
135.6555402522469
 31
0.0
  0
LINE
  5
1B73
330
888
100
AcDbEntity
  8
0
 62
     0
370
    -2
100
AcDbLine
 10
153.5981447274878
 20
112.4055402522465
 30
0.0
 11
153.5981447274878
 21
124.9055402522465
 31
0.0
  0
INSERT
  5
1B74
330
888
100
AcDbEntity
  8
0
 62
     0
370
    -2
100
AcDbBlockReference
  2
_Open30
 10
153.5981447274878
 20
112.4055402522465
 30
0.0
 41
2.5
 42
2.5
 43
2.5
 50
90.0
  0
INSERT
  5
1B75
330
888
100
AcDbEntity
  8
0
 62
     0
370
    -2
100
AcDbBlockReference
  2
_Open30
 10
153.5981447274878
 20
124.9055402522465
 30
0.0
 41
2.5
 42
2.5
 43
2.5
 50
270.0
  0
MTEXT
  5
1B76
330
888
100
AcDbEntity
  8
0
 62
     4
100
AcDbMText
 10
151.4731447274878
 20
132.7805402522469
 30
0.0
 40
3.0
 41
0.0
 71
     5
 72
     1
  1
50
 11
0.0000000000000001
 21
1.0
 31
0.0
 73
     1
 44
1.0
1001
ACAD
1000
MTEXTBEGIN
1070
    73
1070
     1
1070
    44
1040
1.0
1070
    74
1070
     0
1000
MTEXTEND
  0
POINT
  5
1B77
330
888
100
AcDbEntity
  8
Defpoints
 62
     0
100
AcDbPoint
 10
148.1328796454195
 20
124.9055402522465
 30
0.0
  0
POINT
  5
1B78
330
888
100
AcDbEntity
  8
Defpoints
 62
     0
100
AcDbPoint
 10
148.1328796454195
 20
112.4055402522465
 30
0.0
  0
POINT
  5
1B79
330
888
100
AcDbEntity
  8
Defpoints
 62
     0
100
AcDbPoint
 10
153.5981447274878
 20
112.4055402522465
 30
0.0
  0
ENDBLK
  5
88A
330
888
100
AcDbEntity
  8
0
100
AcDbBlockEnd
  0
BLOCK
  5
897
330
896
100
AcDbEntity
  8
0
100
AcDbBlockBegin
  2
*D29
 70
     1
 10
0.0
 20
0.0
 30
0.0
  3
*D29
  1

  0
LINE
  5
1B7A
330
896
100
AcDbEntity
  8
0
 62
     0
370
    -2
100
AcDbLine
 10
288.6231136211489
 20
144.9384108094152
 30
0.0
 11
300.8801181560248
 21
144.9384108094152
 31
0.0
  0
LINE
  5
1B7B
330
896
100
AcDbEntity
  8
0
 62
     0
370
    -2
100
AcDbLine
 10
290.1231136211489
 20
150.9384108094153
 30
0.0
 11
300.8801181560248
 21
150.9384108094153
 31
0.0
  0
LINE
  5
1B7C
330
896
100
AcDbEntity
  8
0
 62
     0
370
    -2
100
AcDbLine
 10
299.6301181560248
 20
142.4384108094152
 30
0.0
 11
299.6301181560248
 21
139.9384108094152
 31
0.0
  0
LINE
  5
1B7D
330
896
100
AcDbEntity
  8
0
 62
     0
370
    -2
100
AcDbLine
 10
299.6301181560248
 20
153.4384108094153
 30
0.0
 11
299.6301181560248
 21
162.1884108094155
 31
0.0
  0
LINE
  5
1B7E
330
896
100
AcDbEntity
  8
0
 62
     0
370
    -2
100
AcDbLine
 10
299.6301181560248
 20
144.9384108094152
 30
0.0
 11
299.6301181560248
 21
150.9384108094153
 31
0.0
  0
INSERT
  5
1B7F
330
896
100
AcDbEntity
  8
0
 62
     0
370
    -2
100
AcDbBlockReference
  2
_Open30
 10
299.6301181560248
 20
144.9384108094152
 30
0.0
 41
2.5
 42
2.5
 43
2.5
 50
90.0
  0
INSERT
  5
1B80
330
896
100
AcDbEntity
  8
0
 62
     0
370
    -2
100
AcDbBlockReference
  2
_Open30
 10
299.6301181560248
 20
150.9384108094153
 30
0.0
 41
2.5
 42
2.5
 43
2.5
 50
270.0
  0
MTEXT
  5
1B81
330
896
100
AcDbEntity
  8
0
 62
     4
100
AcDbMText
 10
297.5051181560247
 20
159.0634108094156
 30
0.0
 40
3.0
 41
0.0
 71
     5
 72
     1
  1
24
 11
0.0000000000000001
 21
1.0
 31
0.0
 73
     1
 44
1.0
1001
ACAD
1000
MTEXTBEGIN
1070
    73
1070
     1
1070
    44
1040
1.0
1070
    74
1070
     0
1000
MTEXTEND
  0
POINT
  5
1B82
330
896
100
AcDbEntity
  8
Defpoints
 62
     0
100
AcDbPoint
 10
288.3731136211489
 20
144.9384108094152
 30
0.0
  0
POINT
  5
1B83
330
896
100
AcDbEntity
  8
Defpoints
 62
     0
100
AcDbPoint
 10
289.8731136211489
 20
150.9384108094153
 30
0.0
  0
POINT
  5
1B84
330
896
100
AcDbEntity
  8
Defpoints
 62
     0
100
AcDbPoint
 10
299.6301181560248
 20
150.9384108094153
 30
0.0
  0
ENDBLK
  5
898
330
896
100
AcDbEntity
  8
0
100
AcDbBlockEnd
  0
BLOCK
  5
8A5
330
8A4
100
AcDbEntity
  8
0
100
AcDbBlockBegin
  2
*D30
 70
     1
 10
0.0
 20
0.0
 30
0.0
  3
*D30
  1

  0
LINE
  5
1BAA
330
8A4
100
AcDbEntity
  8
0
 62
     0
370
    -2
100
AcDbLine
 10
134.1328796454198
 20
187.1384108094151
 30
0.0
 11
134.1328796454198
 21
172.0638951161238
 31
0.0
  0
LINE
  5
1BAB
330
8A4
100
AcDbEntity
  8
0
 62
     0
370
    -2
100
AcDbLine
 10
126.1328796454198
 20
186.0134108094151
 30
0.0
 11
126.1328796454198
 21
172.0638951161238
 31
0.0
  0
LINE
  5
1BAC
330
8A4
100
AcDbEntity
  8
0
 62
     0
370
    -2
100
AcDbLine
 10
131.6328796454198
 20
173.3138951161238
 30
0.0
 11
128.6328796454198
 21
173.3138951161238
 31
0.0
  0
INSERT
  5
1BAD
330
8A4
100
AcDbEntity
  8
0
 62
     0
370
    -2
100
AcDbBlockReference
  2
_Open30
 10
134.1328796454198
 20
173.3138951161238
 30
0.0
 41
2.5
 42
2.5
 43
2.5
  0
INSERT
  5
1BAE
330
8A4
100
AcDbEntity
  8
0
 62
     0
370
    -2
100
AcDbBlockReference
  2
_Open30
 10
126.1328796454198
 20
173.3138951161238
 30
0.0
 41
2.5
 42
2.5
 43
2.5
 50
180.0
  0
MTEXT
  5
1BAF
330
8A4
100
AcDbEntity
  8
0
 62
     4
100
AcDbMText
 10
130.1328796454198
 20
175.4388951161238
 30
0.0
 40
3.0
 41
0.0
 71
     5
 72
     1
  1
32
 73
     1
 44
1.0
1001
ACAD
1000
MTEXTBEGIN
1070
    73
1070
     1
1070
    44
1040
1.0
1070
    74
1070
     0
1000
MTEXTEND
  0
POINT
  5
1BB0
330
8A4
100
AcDbEntity
  8
Defpoints
 62
     0
100
AcDbPoint
 10
134.1328796454198
 20
187.3884108094151
 30
0.0
  0
POINT
  5
1BB1
330
8A4
100
AcDbEntity
  8
Defpoints
 62
     0
100
AcDbPoint
 10
126.1328796454198
 20
186.2634108094151
 30
0.0
  0
POINT
  5
1BB2
330
8A4
100
AcDbEntity
  8
Defpoints
 62
     0
100
AcDbPoint
 10
126.1328796454198
 20
173.3138951161238
 30
0.0
  0
ENDBLK
  5
8A6
330
8A4
100
AcDbEntity
  8
0
100
AcDbBlockEnd
  0
ENDSEC
  0
SECTION
  2
ENTITIES
  0
LINE
  5
4E7
330
1F
100
AcDbEntity
  8
0
 62
     3
100
AcDbLine
 10
395.102048336076
 20
17.03212929594394
 30
0.0
 11
395.102048336076
 21
56.69785182594399
 31
0.0
  0
LINE
  5
4E8
330
1F
100
AcDbEntity
  8
0
 62
     3
100
AcDbLine
 10
408.1020483360756
 20
26.69785182594399
 30
0.0
 11
408.1020483360756
 21
54.69785182594399
 31
0.0
  0
LINE
  5
4E9
330
1F
100
AcDbEntity
  8
0
 62
     3
100
AcDbLine
 10
368.0484389060755
 20
26.69785182594399
 30
0.0
 11
368.0484389060755
 21
40.69785182594396
 31
0.0
  0
LINE
  5
4EA
330
1F
100
AcDbEntity
  8
0
 62
     3
100
AcDbLine
 10
378.3803732660757
 20
40.69785182594396
 30
0.0
 11
378.3803732660757
 21
17.03212929594394
 31
0.0
  0
LINE
  5
4EB
330
1F
100
AcDbEntity
  8
0
 62
     3
100
AcDbLine
 10
348.7434039560756
 20
56.69785182594399
 30
0.0
 11
348.7434039560756
 21
33.69785182594398
 31
0.0
  0
LINE
  5
4EC
330
1F
100
AcDbEntity
  8
0
 62
     3
100
AcDbLine
 10
408.1020483360756
 20
54.69785182594399
 30
0.0
 11
408.1020483360756
 21
56.69785182594399
 31
0.0
  0
LINE
  5
4ED
330
1F
100
AcDbEntity
  8
0
 62
     3
100
AcDbLine
 10
421.1020483360756
 20
33.69785182594398
 30
0.0
 11
421.1020483360756
 21
56.69785182594399
 31
0.0
  0
LINE
  5
4EE
330
1F
100
AcDbEntity
  8
0
 62
     3
100
AcDbLine
 10
446.8014118160755
 20
56.69785182594399
 30
0.0
 11
335.4979693160756
 21
56.69785182594399
 31
0.0
  0
LINE
  5
4EF
330
1F
100
AcDbEntity
  8
0
 62
     3
100
AcDbLine
 10
446.8014118160755
 20
62.69785182594397
 30
0.0
 11
395.102048336076
 21
62.69785182594397
 31
0.0
  0
LINE
  5
4F0
330
1F
100
AcDbEntity
  8
0
 62
     3
100
AcDbLine
 10
446.8014118160755
 20
47.69785182594396
 30
0.0
 11
335.4979693160756
 21
47.69785182594396
 31
0.0
  0
LINE
  5
4F1
330
1F
100
AcDbEntity
  8
0
 62
     3
100
AcDbLine
 10
446.8014118160755
 20
33.69785182594398
 30
0.0
 11
335.4979693160756
 21
33.69785182594398
 31
0.0
  0
LINE
  5
4F2
330
1F
100
AcDbEntity
  8
0
 62
     3
100
AcDbLine
 10
446.8014118160755
 20
26.69785182594399
 30
0.0
 11
335.4979693160756
 21
26.69785182594399
 31
0.0
  0
LINE
  5
4F3
330
1F
100
AcDbEntity
  8
0
 62
     3
100
AcDbLine
 10
434.1020483360756
 20
33.69785182594398
 30
0.0
 11
434.1020483360756
 21
56.69785182594399
 31
0.0
  0
LINE
  5
4F4
330
1F
100
AcDbEntity
  8
0
 62
     3
100
AcDbLine
 10
335.4979693160756
 20
56.69785182594399
 30
0.0
 11
335.4979693160756
 21
17.03212929594394
 31
0.0
  0
LINE
  5
4F5
330
1F
100
AcDbEntity
  8
0
 62
     3
100
AcDbLine
 10
395.102048336076
 20
40.69785182594396
 30
0.0
 11
335.4979693160756
 21
40.69785182594396
 31
0.0
  0
LINE
  5
4F6
330
1F
100
AcDbEntity
  8
0
 62
     3
100
AcDbLine
 10
378.3803732660757
 20
21.8649905559439
 30
0.0
 11
395.102048336076
 21
21.8649905559439
 31
0.0
  0
LINE
  5
4F7
330
1F
100
AcDbEntity
  8
0
 62
     3
100
AcDbLine
 10
56.8014118160757
 20
291.0321292959439
 30
0.0
 11
56.8014118160757
 21
17.03212929594394
 31
0.0
  0
LINE
  5
4F8
330
1F
100
AcDbEntity
  8
0
 62
     3
100
AcDbLine
 10
446.8014118160755
 20
17.03212929594394
 30
0.0
 11
446.8014118160755
 21
291.0321292959439
 31
0.0
  0
LINE
  5
4FB
330
1F
100
AcDbEntity
  8
0
 62
     3
100
AcDbLine
 10
56.8014118160757
 20
17.03212929594394
 30
0.0
 11
446.8014118160755
 21
17.03212929594394
 31
0.0
  0
TEXT
  5
4FD
330
1F
100
AcDbEntity
  8
0
 62
     3
100
AcDbText
 10
436.8670009095496
 20
53.21154392464757
 30
0.0
 40
2.0
  1
DEF
  7
高2
100
AcDbText
  0
TEXT
  5
4FE
330
1F
100
AcDbEntity
  8
0
 62
     3
100
AcDbText
 10
423.2285390758413
 20
53.21154392464745
 30
0.0
 40
2.0
  1
DESN
  7
高2
100
AcDbText
  0
TEXT
  5
4FF
330
1F
100
AcDbEntity
  8
0
 62
     3
100
AcDbText
 10
396.9741721358412
 20
53.21154392464757
 30
0.0
 40
2.0
  1
APPD
  7
高2
100
AcDbText
  0
TEXT
  5
500
330
1F
100
AcDbEntity
  8
0
 62
     3
100
AcDbText
 10
410.0869082360754
 20
53.21154392464757
 30
0.0
 40
2.0
  1
CHCK
  7
高2
100
AcDbText
  0
TEXT
  5
501
330
1F
100
AcDbEntity
  8
0
 62
     3
100
AcDbText
 10
369.3075389052286
 20
30.86625064917462
 30
0.0
 40
2.0
  1
SCALE
 41
0.8
  7
高2
100
AcDbText
  0
TEXT
  5
502
330
1F
100
AcDbEntity
  8
0
 62
     3
100
AcDbText
 10
347.6947457589566
 20
30.86625064917462
 30
0.0
 40
2.0
  1
ANGLE
 41
1.5
  7
高2
100
AcDbText
  0
TEXT
  5
503
330
1F
100
AcDbEntity
  8
0
 62
     3
100
AcDbText
 10
337.1825480191217
 20
30.86625064917473
 30
0.0
 40
2.0
  1
3AD
 41
1.5
  7
高2
100
AcDbText
  0
TEXT
  5
504
330
1F
100
AcDbEntity
  8
0
 62
     3
100
AcDbText
 10
368.5769445960771
 20
37.61778871813181
 30
0.0
 40
2.0
  1
REMARKS
 41
0.7
  7
高2
100
AcDbText
  0
TEXT
  5
505
330
1F
100
AcDbEntity
  8
0
 62
     3
100
AcDbText
 10
336.9656396660756
 20
37.61778871813181
 30
0.0
 40
2.0
  1
MATERIAL
 41
0.7
  7
高2
100
AcDbText
  0
TEXT
  5
506
330
1F
100
AcDbEntity
  8
0
 62
     3
100
AcDbText
 10
336.9211955558311
 20
44.95359136027309
 30
0.0
 40
2.0
  1
MODEL
  7
高2
100
AcDbText
  0
TEXT
  5
507
330
1F
100
AcDbEntity
  8
0
 62
     3
100
AcDbText
 10
337.1790477501611
 20
53.40487317654297
 30
0.0
 40
2.0
  1
CONPONENTS
 41
0.5
  7
高2
100
AcDbText
  0
TEXT
  5
508
330
1F
100
AcDbEntity
  8
0
 62
     3
100
AcDbText
 10
350.2448076013282
 20
41.78533295375586
 30
0.0
 40
4.5
  1
SE-T2-BK
  7
高4.5
100
AcDbText
  0
TEXT
  5
509
330
1F
100
AcDbEntity
  8
0
 62
     3
100
AcDbText
 10
396.4530160165741
 20
18.39718614004323
 30
0.0
 40
6.299999999999998
  1
SE-T2-BK
  7
高6.3
100
AcDbText
1001
ACAD
1000
ACAD_MTEXT_DEFINED_HEIGHT_BEGIN
1070
    46
1040
0.0
1000
ACAD_MTEXT_DEFINED_HEIGHT_END
  0
TEXT
  5
50A
330
1F
100
AcDbEntity
  8
0
 62
     3
100
AcDbText
 10
411.665558086405
 20
27.7987409841769
 30
0.0
 40
3.2
  1
2021.11.12
  7
高3.2
100
AcDbText
1001
ACAD
1000
ACAD_MTEXT_DEFINED_HEIGHT_BEGIN
1070
    46
1040
0.0
1000
ACAD_MTEXT_DEFINED_HEIGHT_END
  0
TEXT
  5
50B
330
1F
100
AcDbEntity
  8
0
 62
     3
100
AcDbText
 10
381.8896462307219
 20
27.79876882851181
 30
0.0
 40
3.2
  1
1/4
  7
高3.2
100
AcDbText
  0
TEXT
  5
50C
330
1F
100
AcDbEntity
  8
0
 62
     3
100
AcDbText
 10
378.9669752060757
 20
17.84900746907988
 30
0.0
 40
3.2
  1
ZK-A3X
 41
0.8
  7
高3.2
100
AcDbText
  0
TEXT
  5
50D
330
1F
100
AcDbEntity
  8
0
 62
     3
100
AcDbText
 10
336.9656396660756
 20
23.55674971813176
 30
0.0
 40
2.0
  1
NICHIDO IND.CO.LTD
 41
1.3
  7
高2
100
AcDbText
  0
TEXT
  5
50E
330
1F
100
AcDbEntity
  8
0
 62
     3
100
AcDbText
 10
337.5101936210328
 20
48.83838003382891
 30
0.0
 40
3.2
  1
品 名
  7
高3.2
100
AcDbText
1001
ACAD
1000
ACAD_MTEXT_DEFINED_HEIGHT_BEGIN
1070
    46
1040
0.0
1000
ACAD_MTEXT_DEFINED_HEIGHT_END
  0
TEXT
  5
50F
330
1F
100
AcDbEntity
  8
0
 62
     3
100
AcDbText
 10
337.5101936210328
 20
41.30790803868659
 30
0.0
 40
3.2
  1
型 式
  7
高3.2
100
AcDbText
1001
ACAD
1000
ACAD_MTEXT_DEFINED_HEIGHT_BEGIN
1070
    46
1040
3.064735913775952
1000
ACAD_MTEXT_DEFINED_HEIGHT_END
  0
TEXT
  5
510
330
1F
100
AcDbEntity
  8
0
 62
     3
100
AcDbText
 10
337.5101936210328
 20
33.94586841117416
 30
0.0
 40
3.2
  1
材 質
  7
高3.2
100
AcDbText
1001
ACAD
1000
ACAD_MTEXT_DEFINED_HEIGHT_BEGIN
1070
    46
1040
0.0
1000
ACAD_MTEXT_DEFINED_HEIGHT_END
  0
TEXT
  5
511
330
1F
100
AcDbEntity
  8
0
 62
     3
100
AcDbText
 10
337.5101936210328
 20
27.16529181819022
 30
0.0
 40
3.2
  1
第 三 角 法
  7
高3.2
100
AcDbText
1001
ACAD
1000
ACAD_MTEXT_DEFINED_HEIGHT_BEGIN
1070
    46
1040
0.0
1000
ACAD_MTEXT_DEFINED_HEIGHT_END
  0
TEXT
  5
512
330
1F
100
AcDbEntity
  8
0
 62
     3
100
AcDbText
 10
336.2486605885619
 20
18.17265750382887
 30
0.0
 40
3.2
  1
日動工業株式会社
 41
1.199999999999999
  7
高3.2
100
AcDbText
1001
ACAD
1000
ACAD_MTEXT_DEFINED_HEIGHT_BEGIN
1070
    46
1040
0.0
1000
ACAD_MTEXT_DEFINED_HEIGHT_END
  0
TEXT
  5
513
330
1F
100
AcDbEntity
  8
0
 62
     3
100
AcDbText
 10
369.8842847880404
 20
34.08243035911154
 30
0.0
 40
3.2
  1
備考
  7
高3.2
100
AcDbText
1001
ACAD
1000
ACAD_MTEXT_DEFINED_HEIGHT_BEGIN
1070
    46
1040
0.0
1000
ACAD_MTEXT_DEFINED_HEIGHT_END
  0
TEXT
  5
514
330
1F
100
AcDbEntity
  8
0
 62
     3
100
AcDbText
 10
379.2550173050757
 20
23.17835932151422
 30
0.0
 40
2.5
  1
出図コード
  7
高2.5
100
AcDbText
1001
ACAD
1000
ACAD_MTEXT_DEFINED_HEIGHT_BEGIN
1070
    46
1040
0.0
1000
ACAD_MTEXT_DEFINED_HEIGHT_END
  0
TEXT
  5
515
330
1F
100
AcDbEntity
  8
0
 62
     3
100
AcDbText
 10
369.7255186699529
 20
27.15108673635689
 30
0.0
 40
3.2
  1
尺度
  7
高3.2
100
AcDbText
1001
ACAD
1000
ACAD_MTEXT_DEFINED_HEIGHT_BEGIN
1070
    46
1040
0.0
1000
ACAD_MTEXT_DEFINED_HEIGHT_END
  0
TEXT
  5
516
330
1F
100
AcDbEntity
  8
0
 62
     3
100
AcDbText
 10
396.5934552217317
 20
28.28256518447438
 30
0.0
 40
3.2
  1
作成日
  7
高3.2
100
AcDbText
1001
ACAD
1000
ACAD_MTEXT_DEFINED_HEIGHT_BEGIN
1070
    46
1040
0.0
1000
ACAD_MTEXT_DEFINED_HEIGHT_END
  0
TEXT
  5
517
330
1F
100
AcDbEntity
  8
0
 62
     3
100
AcDbText
 10
396.4879292285957
 20
48.83838003382891
 30
0.0
 40
3.2
  1
承 認
  7
高3.2
100
AcDbText
1001
ACAD
1000
ACAD_MTEXT_DEFINED_HEIGHT_BEGIN
1070
    46
1040
0.0
1000
ACAD_MTEXT_DEFINED_HEIGHT_END
  0
TEXT
  5
518
330
1F
100
AcDbEntity
  8
0
 62
     3
100
AcDbText
 10
409.4879292285951
 20
48.83838003382891
 30
0.0
 40
3.2
  1
検 図
  7
高3.2
100
AcDbText
1001
ACAD
1000
ACAD_MTEXT_DEFINED_HEIGHT_BEGIN
1070
    46
1040
0.0
1000
ACAD_MTEXT_DEFINED_HEIGHT_END
  0
TEXT
  5
519
330
1F
100
AcDbEntity
  8
0
 62
     3
100
AcDbText
 10
422.4879292285952
 20
48.83838003382891
 30
0.0
 40
3.2
  1
設 計
  7
高3.2
100
AcDbText
1001
ACAD
1000
ACAD_MTEXT_DEFINED_HEIGHT_BEGIN
1070
    46
1040
0.0
1000
ACAD_MTEXT_DEFINED_HEIGHT_END
  0
TEXT
  5
51A
330
1F
100
AcDbEntity
  8
0
 62
     3
100
AcDbText
 10
435.4879292285956
 20
48.83838003382891
 30
0.0
 40
3.2
  1
製 図
  7
高3.2
100
AcDbText
1001
ACAD
1000
ACAD_MTEXT_DEFINED_HEIGHT_BEGIN
1070
    46
1040
0.0
1000
ACAD_MTEXT_DEFINED_HEIGHT_END
  0
LINE
  5
51B
330
1F
100
AcDbEntity
  8
0
 62
     3
100
AcDbLine
 10
234.5763012860755
 20
293.472131435944
 30
0.0
 11
235.1987982960757
 21
293.1471769559438
 31
0.0
  0
LINE
  5
51C
330
1F
100
AcDbEntity
  8
0
 62
     3
100
AcDbLine
 10
234.5763012860755
 20
288.1426593359439
 30
0.0
 11
235.1987982960757
 21
288.467613815944
 31
0.0
  0
LINE
  5
51D
330
1F
100
AcDbEntity
  8
0
 62
     3
100
AcDbLine
 10
235.1987982960757
 20
293.1471769559438
 30
0.0
 11
235.1987982960757
 21
288.467613815944
 31
0.0
  0
LINE
  5
51E
330
1F
100
AcDbEntity
  8
0
 62
     3
100
AcDbLine
 10
236.7752517560755
 20
288.1426593359439
 30
0.0
 11
236.1527547460758
 21
288.467613815944
 31
0.0
  0
LINE
  5
51F
330
1F
100
AcDbEntity
  8
0
 62
     3
100
AcDbLine
 10
236.1527547460758
 20
291.320269265944
 30
0.0
 11
236.1527547460758
 21
288.467613815944
 31
0.0
  0
LINE
  5
520
330
1F
100
AcDbEntity
  8
0
 62
     3
100
AcDbLine
 10
240.4064842960757
 20
293.472131435944
 30
0.0
 11
239.7839872960756
 21
293.1471769559438
 31
0.0
  0
LINE
  5
521
330
1F
100
AcDbEntity
  8
0
 62
     3
100
AcDbLine
 10
238.2075338260757
 20
293.472131435944
 30
0.0
 11
238.8300308360757
 21
293.1471769559438
 31
0.0
  0
LINE
  5
522
330
1F
100
AcDbEntity
  8
0
 62
     3
100
AcDbLine
 10
238.8300308360757
 20
293.1471769559438
 30
0.0
 11
238.8300308360757
 21
291.086695435944
 31
0.0
  0
LINE
  5
523
330
1F
100
AcDbEntity
  8
0
 62
     3
100
AcDbLine
 10
239.7839872960756
 20
293.1471769559438
 30
0.0
 11
239.7839872960756
 21
287.8404291259439
 31
0.0
  0
LINE
  5
524
330
1F
100
AcDbEntity
  8
0
 62
     3
100
AcDbLine
 10
240.7140517360756
 20
293.472127685944
 30
0.0
 11
241.3365464960755
 21
293.1471689159439
 31
0.0
  0
LINE
  5
525
330
1F
100
AcDbEntity
  8
0
 62
     3
100
AcDbLine
 10
240.7139403460756
 20
288.1427307259439
 30
0.0
 11
241.3364486960757
 21
288.4676634759439
 31
0.0
  0
LINE
  5
526
330
1F
100
AcDbEntity
  8
0
 62
     3
100
AcDbLine
 10
241.3365464960755
 20
293.1471689159439
 30
0.0
 11
241.3365464960755
 21
288.4676634759439
 31
0.0
  0
LINE
  5
527
330
1F
100
AcDbEntity
  8
0
 62
     3
100
AcDbLine
 10
243.4705322960759
 20
293.472093865944
 30
0.0
 11
242.8480307360758
 21
293.147148105944
 31
0.0
  0
LINE
  5
528
330
1F
100
AcDbEntity
  8
0
 62
     3
100
AcDbLine
 10
242.8480307360758
 20
293.147148105944
 30
0.0
 11
242.8480307360758
 21
288.467642665944
 31
0.0
  0
LINE
  5
529
330
1F
100
AcDbEntity
  8
0
 62
     3
100
AcDbLine
 10
243.4705322960759
 20
288.142696905944
 30
0.0
 11
242.8480307360758
 21
288.467642665944
 31
0.0
  0
LINE
  5
52A
330
1F
100
AcDbEntity
  8
0
 62
     3
100
AcDbLine
 10
248.7423229260756
 20
293.4720352959439
 30
0.0
 11
249.3648188060757
 21
293.147078675944
 31
0.0
  0
LINE
  5
52B
330
1F
100
AcDbEntity
  8
0
 62
     3
100
AcDbLine
 10
249.3648188060757
 20
293.147078675944
 30
0.0
 11
249.3647371360756
 21
288.467573225944
 31
0.0
  0
LINE
  5
52C
330
1F
100
AcDbEntity
  8
0
 62
     3
100
AcDbLine
 10
248.7422299060757
 20
288.1426383359439
 30
0.0
 11
249.3647371360756
 21
288.467573225944
 31
0.0
  0
LINE
  5
52D
330
1F
100
AcDbEntity
  8
0
 62
     3
100
AcDbLine
 10
251.5312671660757
 20
293.4720352959439
 30
0.0
 11
250.9087712760757
 21
293.147078675944
 31
0.0
  0
LINE
  5
52E
330
1F
100
AcDbEntity
  8
0
 62
     3
100
AcDbLine
 10
251.5313601760757
 20
288.1426383359439
 30
0.0
 11
250.9088529460758
 21
288.467573225944
 31
0.0
  0
LINE
  5
52F
330
1F
100
AcDbEntity
  8
0
 62
     3
100
AcDbLine
 10
251.8223069660756
 20
293.4720352959439
 30
0.0
 11
252.4448028460757
 21
293.147078675944
 31
0.0
  0
LINE
  5
530
330
1F
100
AcDbEntity
  8
0
 62
     3
100
AcDbLine
 10
251.8222139460757
 20
288.1426383359439
 30
0.0
 11
252.4447211760756
 21
288.467573225944
 31
0.0
  0
LINE
  5
531
330
1F
100
AcDbEntity
  8
0
 62
     3
100
AcDbLine
 10
254.6112511960758
 20
293.4720352959439
 30
0.0
 11
253.9887553160757
 21
293.147078675944
 31
0.0
  0
LINE
  5
532
330
1F
100
AcDbEntity
  8
0
 62
     3
100
AcDbLine
 10
253.9887553160757
 20
293.147078675944
 30
0.0
 11
253.9888369860758
 21
288.467573225944
 31
0.0
  0
LINE
  5
533
330
1F
100
AcDbEntity
  8
0
 62
     3
100
AcDbLine
 10
254.6113442160757
 20
288.1426383359439
 30
0.0
 11
253.9888369860758
 21
288.467573225944
 31
0.0
  0
LINE
  5
534
330
1F
100
AcDbEntity
  8
0
 62
     3
100
AcDbLine
 10
252.4447672660756
 20
291.108317075944
 30
0.0
 11
250.9088068560757
 21
291.108317075944
 31
0.0
  0
LINE
  5
535
330
1F
100
AcDbEntity
  8
0
 62
     3
100
AcDbLine
 10
252.4447567660757
 20
290.5064736959438
 30
0.0
 11
250.9088173560757
 21
290.5064736959438
 31
0.0
  0
LINE
  5
536
330
1F
100
AcDbEntity
  8
0
 62
     3
100
AcDbLine
 10
252.4448028460757
 20
293.147078675944
 30
0.0
 11
252.4447672660756
 21
291.108317075944
 31
0.0
  0
LINE
  5
537
330
1F
100
AcDbEntity
  8
0
 62
     3
100
AcDbLine
 10
252.4447567660757
 20
290.5064736959438
 30
0.0
 11
252.4447211760756
 21
288.467573225944
 31
0.0
  0
LINE
  5
538
330
1F
100
AcDbEntity
  8
0
 62
     3
100
AcDbLine
 10
250.9087712760757
 20
293.147078675944
 30
0.0
 11
250.9088068560757
 21
291.108317075944
 31
0.0
  0
LINE
  5
539
330
1F
100
AcDbEntity
  8
0
 62
     3
100
AcDbLine
 10
250.9088173560757
 20
290.5064736959438
 30
0.0
 11
250.9088529460758
 21
288.467573225944
 31
0.0
  0
LINE
  5
53A
330
1F
100
AcDbEntity
  8
0
 62
     3
100
AcDbLine
 10
254.9069070860758
 20
293.4720352959439
 30
0.0
 11
255.5294029760758
 21
293.147078675944
 31
0.0
  0
LINE
  5
53B
330
1F
100
AcDbEntity
  8
0
 62
     3
100
AcDbLine
 10
255.5294029760758
 20
293.147078675944
 30
0.0
 11
255.5293212960758
 21
288.467573225944
 31
0.0
  0
LINE
  5
53C
330
1F
100
AcDbEntity
  8
0
 62
     3
100
AcDbLine
 10
254.9068140660757
 20
288.1426383359439
 30
0.0
 11
255.5293212960758
 21
288.467573225944
 31
0.0
  0
LINE
  5
53D
330
1F
100
AcDbEntity
  8
0
 62
     3
100
AcDbLine
 10
257.6633503260758
 20
293.4720352959439
 30
0.0
 11
257.0408544360759
 21
293.147078675944
 31
0.0
  0
LINE
  5
53E
330
1F
100
AcDbEntity
  8
0
 62
     3
100
AcDbLine
 10
257.0408544360759
 20
293.147078675944
 30
0.0
 11
257.0409361160756
 21
288.467573225944
 31
0.0
  0
LINE
  5
53F
330
1F
100
AcDbEntity
  8
0
 62
     3
100
AcDbLine
 10
257.6634433460757
 20
288.1426383359439
 30
0.0
 11
257.0409361160756
 21
288.467573225944
 31
0.0
  0
LINE
  5
540
330
1F
100
AcDbEntity
  8
0
 62
     3
100
AcDbLine
 10
257.9695782760758
 20
293.4720352959439
 30
0.0
 11
258.5920741660755
 21
293.147078675944
 31
0.0
  0
LINE
  5
541
330
1F
100
AcDbEntity
  8
0
 62
     3
100
AcDbLine
 10
258.5920741660755
 20
293.147078675944
 30
0.0
 11
258.5919924960759
 21
288.467573225944
 31
0.0
  0
LINE
  5
542
330
1F
100
AcDbEntity
  8
0
 62
     3
100
AcDbLine
 10
257.9694852660755
 20
288.1426383359439
 30
0.0
 11
258.5919924960759
 21
288.467573225944
 31
0.0
  0
ARC
  5
543
330
1F
100
AcDbEntity
  8
0
 62
     3
100
AcDbCircle
 10
246.7538782560758
 20
290.820809325944
 30
0.0
 40
2.98040844
100
AcDbArc
 50
97.70152350999721
 51
270.0
  0
ARC
  5
544
330
1F
100
AcDbEntity
  8
0
 62
     3
100
AcDbCircle
 10
265.1547365960756
 20
290.7908712859438
 30
0.0
 40
3.012776259999998
100
AcDbArc
 50
0.3142502699943961
 51
69.00558244997565
  0
ARC
  5
545
330
1F
100
AcDbEntity
  8
0
 62
     3
100
AcDbCircle
 10
265.8128442060757
 20
290.7908712859438
 30
0.0
 40
3.012776259999998
100
AcDbArc
 50
110.9944175499694
 51
148.1166110199987
  0
ARC
  5
546
330
1F
100
AcDbEntity
  8
0
 62
     3
100
AcDbCircle
 10
265.1547365960756
 20
290.823919485944
 30
0.0
 40
3.012776259999998
100
AcDbArc
 50
290.9944175499693
 51
359.6857497300056
  0
ARC
  5
547
330
1F
100
AcDbEntity
  8
0
 62
     3
100
AcDbCircle
 10
265.8128442060757
 20
290.823919485944
 30
0.0
 40
3.012776259999998
100
AcDbArc
 50
211.8833889800013
 51
249.0055824500306
  0
ARC
  5
548
330
1F
100
AcDbEntity
  8
0
 62
     3
100
AcDbCircle
 10
265.4837904060758
 20
292.039974515944
 30
0.0
 40
1.73438712
100
AcDbArc
 50
64.36517190000009
 51
115.6348280999999
  0
ARC
  5
549
330
1F
100
AcDbEntity
  8
0
 62
     3
100
AcDbCircle
 10
265.4837904060758
 20
289.574816255944
 30
0.0
 40
1.73438712
100
AcDbArc
 50
244.3651719000001
 51
295.6348281
  0
ARC
  5
54A
330
1F
100
AcDbEntity
  8
0
 62
     3
100
AcDbCircle
 10
265.4837904060758
 20
292.0729197759438
 30
0.0
 40
0.85122233
100
AcDbArc
 50
19.48660553999828
 51
160.5133944600017
  0
ARC
  5
54B
330
1F
100
AcDbEntity
  8
0
 62
     3
100
AcDbCircle
 10
265.4837904060758
 20
289.574816255944
 30
0.0
 40
1.73438712
100
AcDbArc
 50
244.3651719000001
 51
295.6348281
  0
ARC
  5
54C
330
1F
100
AcDbEntity
  8
0
 62
     3
100
AcDbCircle
 10
265.4837904060758
 20
289.5418709959439
 30
0.0
 40
0.85122233
100
AcDbArc
 50
199.4866055399983
 51
340.513394460001
  0
ARC
  5
54D
330
1F
100
AcDbEntity
  8
0
 62
     3
100
AcDbCircle
 10
258.7088296860757
 20
259.053024185944
 30
0.0
 40
37.20000000000001
100
AcDbArc
 50
69.50571479996717
 51
81.68998807001051
  0
ARC
  5
54E
330
1F
100
AcDbEntity
  8
0
 62
     3
100
AcDbCircle
 10
258.7088296860757
 20
322.561766585944
 30
0.0
 40
37.20000000000001
100
AcDbArc
 50
278.3100119299894
 51
290.4942852000328
  0
ARC
  5
54F
330
1F
100
AcDbEntity
  8
0
 62
     3
100
AcDbCircle
 10
270.5776927260757
 20
290.8073953859438
 30
0.0
 40
3.299999999999998
100
AcDbArc
 50
290.4942852000328
 51
69.50571479996717
  0
ARC
  5
550
330
1F
100
AcDbEntity
  8
0
 62
     3
100
AcDbCircle
 10
231.5776927260757
 20
290.8073953859438
 30
0.0
 40
3.299999999999998
100
AcDbArc
 50
110.4942852000328
 51
249.5057147999672
  0
ARC
  5
551
330
1F
100
AcDbEntity
  8
0
 62
     3
100
AcDbCircle
 10
243.4465557560757
 20
259.053024185944
 30
0.0
 40
37.20000000000001
100
AcDbArc
 50
98.31001192998948
 51
110.4942852000328
  0
ARC
  5
552
330
1F
100
AcDbEntity
  8
0
 62
     3
100
AcDbCircle
 10
243.4465557560757
 20
322.561766585944
 30
0.0
 40
37.20000000000001
100
AcDbArc
 50
249.5057147999672
 51
261.6899880700105
  0
ARC
  5
553
330
1F
100
AcDbEntity
  8
0
 62
     3
100
AcDbCircle
 10
251.0776927260756
 20
206.8073953859439
 30
0.0
 40
89.99999981
100
AcDbArc
 50
81.68998807001051
 51
98.31001192998948
  0
ARC
  5
554
330
1F
100
AcDbEntity
  8
0
 62
     3
100
AcDbCircle
 10
251.0776927260756
 20
374.8073953859438
 30
0.0
 40
89.99999981
100
AcDbArc
 50
261.6899880700105
 51
278.3100119299894
  0
ARC
  5
555
330
1F
100
AcDbEntity
  8
0
 62
     3
100
AcDbCircle
 10
251.0776927260756
 20
206.8073953859439
 30
0.0
 40
89.09999981
100
AcDbArc
 50
81.68998807001051
 51
98.31001192998948
  0
ARC
  5
556
330
1F
100
AcDbEntity
  8
0
 62
     3
100
AcDbCircle
 10
251.0776927260756
 20
374.8073953859438
 30
0.0
 40
89.09999981
100
AcDbArc
 50
261.6899880700105
 51
278.3100119299894
  0
ARC
  5
557
330
1F
100
AcDbEntity
  8
0
 62
     3
100
AcDbCircle
 10
258.7088296860757
 20
322.561766585944
 30
0.0
 40
36.3
100
AcDbArc
 50
278.3100119299894
 51
290.4942852000328
  0
ARC
  5
558
330
1F
100
AcDbEntity
  8
0
 62
     3
100
AcDbCircle
 10
258.7088296860757
 20
259.053024185944
 30
0.0
 40
36.3
100
AcDbArc
 50
69.50571479996717
 51
81.68998807001051
  0
ARC
  5
559
330
1F
100
AcDbEntity
  8
0
 62
     3
100
AcDbCircle
 10
270.5776927260757
 20
290.8073953859438
 30
0.0
 40
2.399999999999999
100
AcDbArc
 50
290.4942852000328
 51
69.50571479996717
  0
ARC
  5
55A
330
1F
100
AcDbEntity
  8
0
 62
     3
100
AcDbCircle
 10
231.5776927260757
 20
290.8073953859438
 30
0.0
 40
2.399999999999999
100
AcDbArc
 50
110.4942852000328
 51
249.5057147999672
  0
ARC
  5
55B
330
1F
100
AcDbEntity
  8
0
 62
     3
100
AcDbCircle
 10
243.4465557560757
 20
259.053024185944
 30
0.0
 40
36.3
100
AcDbArc
 50
98.31001192998948
 51
110.4942852000328
  0
ARC
  5
55C
330
1F
100
AcDbEntity
  8
0
 62
     3
100
AcDbCircle
 10
243.4465557560757
 20
322.561766585944
 30
0.0
 40
36.3
100
AcDbArc
 50
249.5057147999672
 51
261.6899880700105
  0
LINE
  5
55D
330
1F
100
AcDbEntity
  8
0
 62
     3
100
AcDbLine
 10
257.6633514460758
 20
287.8404291259439
 30
0.0
 11
254.9069059660756
 21
287.8404291259439
 31
0.0
  0
LINE
  5
55E
330
1F
100
AcDbEntity
  8
0
 62
     3
100
AcDbLine
 10
257.6633514460758
 20
288.1426593359439
 30
0.0
 11
257.6633514460758
 21
287.8404291259439
 31
0.0
  0
LINE
  5
55F
330
1F
100
AcDbEntity
  8
0
 62
     3
100
AcDbLine
 10
254.6112523160755
 20
293.774220615944
 30
0.0
 11
251.8223058460756
 21
293.774220615944
 31
0.0
  0
LINE
  5
560
330
1F
100
AcDbEntity
  8
0
 62
     3
100
AcDbLine
 10
254.6112523160755
 20
293.774220615944
 30
0.0
 11
254.6112523160755
 21
293.472131435944
 31
0.0
  0
LINE
  5
561
330
1F
100
AcDbEntity
  8
0
 62
     3
100
AcDbLine
 10
254.6112523160755
 20
288.1426593359439
 30
0.0
 11
254.6112523160755
 21
287.8402881059439
 31
0.0
  0
LINE
  5
562
330
1F
100
AcDbEntity
  8
0
 62
     3
100
AcDbLine
 10
254.6112523160755
 20
287.8402881059439
 30
0.0
 11
251.8223058460756
 21
287.8402881059439
 31
0.0
  0
LINE
  5
563
330
1F
100
AcDbEntity
  8
0
 62
     3
100
AcDbLine
 10
257.6633514460758
 20
293.7743616459439
 30
0.0
 11
257.6633514460758
 21
293.472131435944
 31
0.0
  0
LINE
  5
564
330
1F
100
AcDbEntity
  8
0
 62
     3
100
AcDbLine
 10
257.6633514460758
 20
293.7743616459439
 30
0.0
 11
254.9069059660756
 21
293.7743616459439
 31
0.0
  0
LINE
  5
565
330
1F
100
AcDbEntity
  8
0
 62
     3
100
AcDbLine
 10
254.9069059660756
 20
293.7743616459439
 30
0.0
 11
254.9069059660756
 21
293.472131435944
 31
0.0
  0
LINE
  5
566
330
1F
100
AcDbEntity
  8
0
 62
     3
100
AcDbLine
 10
257.9695771560756
 20
288.1426593359439
 30
0.0
 11
257.9695771560756
 21
287.8404291259439
 31
0.0
  0
LINE
  5
567
330
1F
100
AcDbEntity
  8
0
 62
     3
100
AcDbLine
 10
260.8042922460757
 20
287.8404291259439
 30
0.0
 11
257.9695771560756
 21
287.8404291259439
 31
0.0
  0
LINE
  5
568
330
1F
100
AcDbEntity
  8
0
 62
     3
100
AcDbLine
 10
260.1035256360756
 20
292.820405185944
 30
0.0
 11
260.1035256360756
 21
288.794385585944
 31
0.0
  0
LINE
  5
569
330
1F
100
AcDbEntity
  8
0
 62
     3
100
AcDbLine
 10
260.1035256360756
 20
288.794385585944
 30
0.0
 11
260.3750241560759
 21
288.794385585944
 31
0.0
  0
ARC
  5
56A
330
1F
100
AcDbEntity
  8
0
 62
     3
100
AcDbCircle
 10
258.9867588160759
 20
290.8073953859438
 30
0.0
 40
2.44529939
100
AcDbArc
 50
304.5919552700038
 51
55.40804472999615
  0
LINE
  5
56B
330
1F
100
AcDbEntity
  8
0
 62
     3
100
AcDbLine
 10
260.8042922460757
 20
293.7743616459439
 30
0.0
 11
257.9695771560756
 21
293.7743616459439
 31
0.0
  0
LINE
  5
56C
330
1F
100
AcDbEntity
  8
0
 62
     3
100
AcDbLine
 10
257.9695771560756
 20
293.7743616459439
 30
0.0
 11
257.9695771560756
 21
293.472131435944
 31
0.0
  0
LINE
  5
56D
330
1F
100
AcDbEntity
  8
0
 62
     3
100
AcDbLine
 10
254.9069059660756
 20
288.1426593359439
 30
0.0
 11
254.9069059660756
 21
287.8404291259439
 31
0.0
  0
LINE
  5
56E
330
1F
100
AcDbEntity
  8
0
 62
     3
100
AcDbLine
 10
260.1035256360756
 20
292.820405185944
 30
0.0
 11
260.3750241560759
 21
292.820405185944
 31
0.0
  0
LINE
  5
56F
330
1F
100
AcDbEntity
  8
0
 62
     3
100
AcDbLine
 10
243.4704403960757
 20
288.1426593359439
 30
0.0
 11
243.4704351260755
 21
287.840400885944
 31
0.0
  0
LINE
  5
570
330
1F
100
AcDbEntity
  8
0
 62
     3
100
AcDbLine
 10
240.7139896460756
 20
287.840457375944
 30
0.0
 11
243.4704351260755
 21
287.8404092659438
 31
0.0
  0
LINE
  5
571
330
1F
100
AcDbEntity
  8
0
 62
     3
100
AcDbLine
 10
234.5763012860755
 20
287.8404291259439
 30
0.0
 11
236.7752517560755
 21
287.8404291259439
 31
0.0
  0
ARC
  5
572
330
1F
100
AcDbEntity
  8
0
 62
     3
100
AcDbCircle
 10
227.4592403160757
 20
290.877261995944
 30
0.0
 40
21.01937947
100
AcDbArc
 50
353.8660061899934
 51
357.6940342600058
  0
LINE
  5
573
330
1F
100
AcDbEntity
  8
0
 62
     3
100
AcDbLine
 10
247.0543544060757
 20
290.0367367759439
 30
0.0
 11
248.4615985260755
 21
290.031529805944
 31
0.0
  0
LINE
  5
575
330
1F
100
AcDbEntity
  8
0
 62
     3
100
AcDbLine
 10
247.0600378560756
 20
291.5727578359438
 30
0.0
 11
248.4672819760756
 21
291.567550865944
 31
0.0
  0
ARC
  5
576
330
1F
100
AcDbEntity
  8
0
 62
     3
100
AcDbCircle
 10
227.4592403160757
 20
290.877261995944
 30
0.0
 40
21.01937947
100
AcDbArc
 50
1.881965739990599
 51
5.709993809994887
  0
LINE
  5
577
330
1F
100
AcDbEntity
  8
0
 62
     3
100
AcDbLine
 10
243.4705386860758
 20
293.774333395944
 30
0.0
 11
243.4705334160756
 21
293.472131435944
 31
0.0
  0
LINE
  5
578
330
1F
100
AcDbEntity
  8
0
 62
     3
100
AcDbLine
 10
240.7140932060757
 20
293.7743898859439
 30
0.0
 11
243.4705386860758
 21
293.774341775944
 31
0.0
  0
LINE
  5
579
330
1F
100
AcDbEntity
  8
0
 62
     3
100
AcDbLine
 10
240.7139949160758
 20
288.1426593359439
 30
0.0
 11
240.7139896460756
 21
287.840457375944
 31
0.0
  0
LINE
  5
57A
330
1F
100
AcDbEntity
  8
0
 62
     3
100
AcDbLine
 10
240.7140932060757
 20
293.7743898859439
 30
0.0
 11
240.7140879360757
 21
293.472131435944
 31
0.0
  0
LINE
  5
57B
330
1F
100
AcDbEntity
  8
0
 62
     3
100
AcDbLine
 10
236.7752517560755
 20
288.1426593359439
 30
0.0
 11
236.7752517560755
 21
287.8404291259439
 31
0.0
  0
LINE
  5
57C
330
1F
100
AcDbEntity
  8
0
 62
     3
100
AcDbLine
 10
236.1527547460758
 20
291.320269265944
 30
0.0
 11
238.3276548260756
 21
287.8404291259439
 31
0.0
  0
LINE
  5
57D
330
1F
100
AcDbEntity
  8
0
 62
     3
100
AcDbLine
 10
238.3276548260756
 20
287.8404291259439
 30
0.0
 11
239.7839872960756
 21
287.8404291259439
 31
0.0
  0
LINE
  5
57E
330
1F
100
AcDbEntity
  8
0
 62
     3
100
AcDbLine
 10
240.4064842960757
 20
293.7743616459439
 30
0.0
 11
240.4064842960757
 21
293.472131435944
 31
0.0
  0
LINE
  5
57F
330
1F
100
AcDbEntity
  8
0
 62
     3
100
AcDbLine
 10
238.2075338260757
 20
293.7743616459439
 30
0.0
 11
240.4064842960757
 21
293.7743616459439
 31
0.0
  0
LINE
  5
580
330
1F
100
AcDbEntity
  8
0
 62
     3
100
AcDbLine
 10
238.2075338260757
 20
293.7743616459439
 30
0.0
 11
238.2075338260757
 21
293.472131435944
 31
0.0
  0
LINE
  5
581
330
1F
100
AcDbEntity
  8
0
 62
     3
100
AcDbLine
 10
238.8300308360757
 20
291.086695435944
 30
0.0
 11
237.0662498960758
 21
293.7743616459439
 31
0.0
  0
LINE
  5
582
330
1F
100
AcDbEntity
  8
0
 62
     3
100
AcDbLine
 10
234.5763012860755
 20
293.7743616459439
 30
0.0
 11
237.0662498960758
 21
293.7743616459439
 31
0.0
  0
LINE
  5
583
330
1F
100
AcDbEntity
  8
0
 62
     3
100
AcDbLine
 10
248.7423218060756
 20
293.774220615944
 30
0.0
 11
251.5312682860757
 21
293.774220615944
 31
0.0
  0
LINE
  5
584
330
1F
100
AcDbEntity
  8
0
 62
     3
100
AcDbLine
 10
248.7423218060756
 20
293.472131435944
 30
0.0
 11
248.7423218060756
 21
293.774220615944
 31
0.0
  0
LINE
  5
585
330
1F
100
AcDbEntity
  8
0
 62
     3
100
AcDbLine
 10
248.7423218060756
 20
287.8402881059439
 30
0.0
 11
248.7423218060756
 21
288.1426593359439
 31
0.0
  0
LINE
  5
586
330
1F
100
AcDbEntity
  8
0
 62
     3
100
AcDbLine
 10
248.7423218060756
 20
287.8402881059439
 30
0.0
 11
251.5312682860757
 21
287.8402881059439
 31
0.0
  0
LINE
  5
587
330
1F
100
AcDbEntity
  8
0
 62
     3
100
AcDbLine
 10
251.8223058460756
 20
288.1426593359439
 30
0.0
 11
251.8223058460756
 21
287.8402881059439
 31
0.0
  0
LINE
  5
588
330
1F
100
AcDbEntity
  8
0
 62
     3
100
AcDbLine
 10
251.5312682860757
 20
288.1426593359439
 30
0.0
 11
251.5312682860757
 21
287.8402881059439
 31
0.0
  0
LINE
  5
589
330
1F
100
AcDbEntity
  8
0
 62
     3
100
AcDbLine
 10
251.5312682860757
 20
293.472131435944
 30
0.0
 11
251.5312682860757
 21
293.774220615944
 31
0.0
  0
LINE
  5
58A
330
1F
100
AcDbEntity
  8
0
 62
     3
100
AcDbLine
 10
251.8223058460756
 20
293.472131435944
 30
0.0
 11
251.8223058460756
 21
293.774220615944
 31
0.0
  0
LINE
  5
58B
330
1F
100
AcDbEntity
  8
0
 62
     3
100
AcDbLine
 10
234.5763012860755
 20
288.1426593359439
 30
0.0
 11
234.5763012860755
 21
287.8404291259439
 31
0.0
  0
LINE
  5
58C
330
1F
100
AcDbEntity
  8
0
 62
     3
100
AcDbLine
 10
234.5763012860755
 20
293.7743616459439
 30
0.0
 11
234.5763012860755
 21
293.472131435944
 31
0.0
  0
ARC
  5
58D
330
1F
100
AcDbEntity
  8
0
 62
     3
100
AcDbCircle
 10
261.1042922460756
 20
291.429892395944
 30
0.0
 40
2.344469249999999
100
AcDbArc
 50
17.30874897999141
 51
23.76507095999742
  0
ARC
  5
58E
330
1F
100
AcDbEntity
  8
0
 62
     3
100
AcDbCircle
 10
259.1067588160757
 20
290.8073953859438
 30
0.0
 40
4.43675086
100
AcDbArc
 50
342.6912510200085
 51
17.30856643999931
  0
ARC
  5
58F
330
1F
100
AcDbEntity
  8
0
 62
     3
100
AcDbCircle
 10
261.1042922460756
 20
290.1848983759439
 30
0.0
 40
2.344469249999999
100
AcDbArc
 50
336.2349290400026
 51
342.6912510200085
  0
ARC
  5
590
330
1F
100
AcDbEntity
  8
0
 62
     3
100
AcDbCircle
 10
260.8042922460757
 20
291.429892395944
 30
0.0
 40
2.344469249999999
100
AcDbArc
 50
17.30874897999141
 51
90.0
  0
ARC
  5
591
330
1F
100
AcDbEntity
  8
0
 62
     3
100
AcDbCircle
 10
258.8067588160757
 20
290.8073953859438
 30
0.0
 40
4.43675086
100
AcDbArc
 50
342.6912510200085
 51
17.30856643999931
  0
ARC
  5
592
330
1F
100
AcDbEntity
  8
0
 62
     3
100
AcDbCircle
 10
260.8042922460757
 20
290.1848983759439
 30
0.0
 40
2.344469249999999
100
AcDbArc
 50
270.0
 51
342.6912510200085
  0
ARC
  5
593
330
1F
100
AcDbEntity
  8
0
 62
     3
100
AcDbCircle
 10
246.3415202760755
 20
290.8073953859438
 30
0.0
 40
2.966966259999998
100
AcDbArc
 50
46.75287961001042
 51
89.74999828999569
  0
ARC
  5
594
330
1F
100
AcDbEntity
  8
0
 62
     3
100
AcDbCircle
 10
246.3415202760755
 20
290.8073953859438
 30
0.0
 40
2.966966259999998
100
AcDbArc
 50
273.9763331500101
 51
312.8231203899797
  0
ARC
  5
595
330
1F
100
AcDbEntity
  8
0
 62
     3
100
AcDbCircle
 10
262.6869602060756
 20
290.761593205944
 30
0.0
 40
3.936984289999998
100
AcDbArc
 50
0.6665840599916574
 51
23.90392827000553
  0
ARC
  5
596
330
1F
100
AcDbEntity
  8
0
 62
     3
100
AcDbCircle
 10
268.2806205960758
 20
290.761593205944
 30
0.0
 40
3.936984289999998
100
AcDbArc
 50
156.0960717299944
 51
179.3334159400083
  0
ARC
  5
597
330
1F
100
AcDbEntity
  8
0
 62
     3
100
AcDbCircle
 10
262.6869602060756
 20
290.8531975659439
 30
0.0
 40
3.936984289999998
100
AcDbArc
 50
336.0960717299945
 51
359.3334159400084
  0
ARC
  5
598
330
1F
100
AcDbEntity
  8
0
 62
     3
100
AcDbCircle
 10
268.2806205960758
 20
290.8531975659439
 30
0.0
 40
3.936984289999998
100
AcDbArc
 50
180.6665840599916
 51
203.9039282700055
  0
LINE
  5
599
330
1F
100
AcDbEntity
  8
0
 62
     3
100
AcDbLine
 10
275.4581369960757
 20
291.0321292959439
 30
0.0
 11
446.8014118160755
 21
291.0321292959439
 31
0.0
  0
LINE
  5
59A
330
1F
100
AcDbEntity
  8
0
 62
     3
100
AcDbLine
 10
226.9041023260757
 20
291.0321292959439
 30
0.0
 11
56.8014118160757
 21
291.0321292959439
 31
0.0
  0
LINE
  5
59B
330
1F
100
AcDbEntity
  8
0
 62
     3
100
AcDbLine
 10
44.39948802607574
 20
157.4767682459438
 30
0.0
 11
41.80141181607567
 21
155.9767682459437
 31
0.0
  0
LINE
  5
59C
330
1F
100
AcDbEntity
  8
0
 62
     3
100
AcDbLine
 10
44.39948802607574
 20
157.4767682459438
 30
0.0
 11
41.80141181607567
 21
158.9767682459436
 31
0.0
  0
LINE
  5
59D
330
1F
100
AcDbEntity
  8
0
 62
     3
100
AcDbLine
 10
41.80141181607567
 20
155.9767682459437
 30
0.0
 11
41.80141181607567
 21
158.9767682459436
 31
0.0
  0
TEXT
  5
59E
330
1F
100
AcDbEntity
  8
0
 62
     3
100
AcDbText
 10
350.666901809467
 20
49.17640130691871
 30
0.0
 40
4.5
  1
エルボーアーム2黒
 41
0.8
  7
高4.5
100
AcDbText
1001
ACAD
1000
ACAD_MTEXT_DEFINED_HEIGHT_BEGIN
1070
    46
1040
0.0
1000
ACAD_MTEXT_DEFINED_HEIGHT_END
  0
TEXT
  5
59F
330
1F
100
AcDbEntity
  8
0
 62
     3
100
AcDbText
 10
401.6782401577307
 20
57.31270319655886
 30
0.0
 40
4.5
  1
コード
  7
高4.5
100
AcDbText
  0
TEXT
  5
5A0
330
1F
100
AcDbEntity
  8
0
 62
     3
100
AcDbText
 10
425.3357671453711
 20
57.31270319655886
 30
0.0
 40
4.5
  1
12711
  7
高4.5
100
AcDbText
  0
LINE
  5
5A1
330
1F
100
AcDbEntity
  8
0
 62
     3
100
AcDbLine
 10
318.2078796454198
 20
148.588410809415
 30
0.0
 11
318.2078796454198
 21
169.8884108094152
 31
0.0
  0
LINE
  5
5A2
330
1F
100
AcDbEntity
  8
0
 62
     3
100
AcDbLine
 10
325.0078796454198
 20
148.588410809415
 30
0.0
 11
325.0078796454198
 21
169.8884108094152
 31
0.0
  0
LINE
  5
5A3
330
1F
100
AcDbEntity
  8
0
 62
     3
100
AcDbLine
 10
134.1328796454198
 20
187.3884108094151
 30
0.0
 11
134.1328796454198
 21
194.1884108094151
 31
0.0
  0
LINE
  5
5A4
330
1F
100
AcDbEntity
  8
0
 62
     3
100
AcDbLine
 10
126.1328796454198
 20
186.2634108094151
 30
0.0
 11
126.1328796454198
 21
187.3884108094151
 31
0.0
  0
LINE
  5
5A5
330
1F
100
AcDbEntity
  8
0
 62
     3
100
AcDbLine
 10
142.1328796454198
 20
186.2634108094151
 30
0.0
 11
142.1328796454198
 21
187.3884108094151
 31
0.0
  0
LINE
  5
5A6
330
1F
100
AcDbEntity
  8
0
 62
     3
100
AcDbLine
 10
325.18287964542
 20
144.1884108094152
 30
0.0
 11
318.0328796454201
 21
144.1884108094152
 31
0.0
  0
LINE
  5
5A7
330
1F
100
AcDbEntity
  8
0
100
AcDbLine
 10
325.4828796454201
 20
144.8134108094151
 30
0.0
 11
317.7328796454199
 21
144.8134108094151
 31
0.0
  0
LINE
  5
5A8
330
1F
100
AcDbEntity
  8
0
 62
     3
100
AcDbLine
 10
325.18287964542
 20
148.588410809415
 30
0.0
 11
318.0328796454201
 21
148.588410809415
 31
0.0
  0
LINE
  5
5A9
330
1F
100
AcDbEntity
  8
0
 62
     3
100
AcDbLine
 10
325.6241885509651
 20
147.8384108094151
 30
0.0
 11
325.4828796454201
 21
147.8384108094151
 31
0.0
  0
LINE
  5
5AA
330
1F
100
AcDbEntity
  8
0
100
AcDbLine
 10
325.4828796454201
 20
147.8384108094151
 30
0.0
 11
317.7328796454199
 21
147.8384108094151
 31
0.0
  0
LINE
  5
5AB
330
1F
100
AcDbEntity
  8
0
 62
     3
100
AcDbLine
 10
317.7328796454199
 20
147.8384108094151
 30
0.0
 11
317.5915707398745
 21
147.8384108094151
 31
0.0
  0
LINE
  5
5AC
330
1F
100
AcDbEntity
  8
0
  6
CENTER
100
AcDbLine
 10
321.6078796454197
 20
169.9384108094152
 30
0.0
 11
321.6078796454197
 21
139.6581750384287
 31
0.0
  0
LINE
  5
5AD
330
1F
100
AcDbEntity
  8
0
  6
HIDDEN
 62
     2
100
AcDbLine
 10
319.4203796454199
 20
144.8134108094151
 30
0.0
 11
319.4203796454199
 21
148.588410809415
 31
0.0
  0
LINE
  5
5AE
330
1F
100
AcDbEntity
  8
0
  6
HIDDEN
 62
     2
100
AcDbLine
 10
323.7953796454197
 20
144.8134108094151
 30
0.0
 11
323.7953796454197
 21
148.588410809415
 31
0.0
  0
LINE
  5
5AF
330
1F
100
AcDbEntity
  8
0
 62
     3
100
AcDbLine
 10
317.7328796454199
 20
144.8134108094151
 30
0.0
 11
317.7328796454199
 21
144.8546327751176
 31
0.0
  0
LINE
  5
5B0
330
1F
100
AcDbEntity
  8
0
 62
     3
100
AcDbLine
 10
325.4828796454201
 20
144.8134108094151
 30
0.0
 11
325.4828796454201
 21
144.8546327751176
 31
0.0
  0
LINE
  5
5B1
330
1F
100
AcDbEntity
  8
0
 62
     3
100
AcDbLine
 10
325.4828796454201
 20
144.8134108094151
 30
0.0
 11
325.18287964542
 21
144.1884108094152
 31
0.0
  0
LINE
  5
5B2
330
1F
100
AcDbEntity
  8
0
 62
     3
100
AcDbLine
 10
325.4828796454201
 20
147.8384108094151
 30
0.0
 11
325.18287964542
 21
148.588410809415
 31
0.0
  0
LINE
  5
5B3
330
1F
100
AcDbEntity
  8
0
 62
     3
100
AcDbLine
 10
318.0328796454201
 20
144.1884108094152
 30
0.0
 11
317.7328796454199
 21
144.8134108094151
 31
0.0
  0
LINE
  5
5B4
330
1F
100
AcDbEntity
  8
0
 62
     3
100
AcDbLine
 10
318.0328796454201
 20
148.588410809415
 30
0.0
 11
317.7328796454199
 21
147.8384108094151
 31
0.0
  0
LINE
  5
5B5
330
1F
100
AcDbEntity
  8
0
  6
HIDDEN
 62
     2
100
AcDbLine
 10
318.8578796454199
 20
144.1884108094152
 30
0.0
 11
319.4203796454199
 21
144.8134108094151
 31
0.0
  0
LINE
  5
5B6
330
1F
100
AcDbEntity
  8
0
  6
HIDDEN
 62
     2
100
AcDbLine
 10
324.3578796454201
 20
144.1884108094152
 30
0.0
 11
323.7953796454197
 21
144.8134108094151
 31
0.0
  0
LINE
  5
5B7
330
1F
100
AcDbEntity
  8
0
100
AcDbLine
 10
322.6557663338793
 20
147.8384108094151
 30
0.0
 11
322.6557663338793
 21
145.1869214102737
 31
0.0
  0
LINE
  5
5B8
330
1F
100
AcDbEntity
  8
0
100
AcDbLine
 10
321.9087451321621
 20
147.8384108094151
 30
0.0
 11
321.9087451321621
 21
145.1869214102737
 31
0.0
  0
LINE
  5
5B9
330
1F
100
AcDbEntity
  8
0
100
AcDbLine
 10
321.3070141586775
 20
147.8384108094151
 30
0.0
 11
321.3070141586775
 21
145.1869214102737
 31
0.0
  0
LINE
  5
5BA
330
1F
100
AcDbEntity
  8
0
100
AcDbLine
 10
320.5599929569603
 20
147.8384108094151
 30
0.0
 11
320.5599929569603
 21
145.1869214102737
 31
0.0
  0
ARC
  5
5BB
330
1F
100
AcDbEntity
  8
0
100
AcDbCircle
 10
322.2822557330206
 20
145.1869214102737
 30
0.0
 40
0.373510600858566
100
AcDbArc
 50
180.0
 51
0.0
  0
ARC
  5
5BC
330
1F
100
AcDbEntity
  8
0
100
AcDbCircle
 10
320.9335035578193
 20
145.1869214102737
 30
0.0
 40
0.373510600858566
100
AcDbArc
 50
180.0
 51
0.0
  0
LINE
  5
5BD
330
1F
100
AcDbEntity
  8
0
 62
     3
100
AcDbLine
 10
325.6241885509651
 20
145.1869214102737
 30
0.0
 11
325.6241885509651
 21
147.8384108094151
 31
0.0
  0
LINE
  5
5BE
330
1F
100
AcDbEntity
  8
0
100
AcDbLine
 10
325.1040303564577
 20
147.8384108094151
 30
0.0
 11
325.1040303564577
 21
145.1869214102737
 31
0.0
  0
ELLIPSE
  5
5BF
330
1F
100
AcDbEntity
  8
0
100
AcDbEllipse
 10
325.3641094537114
 20
145.1869214102737
 30
0.0
 11
0.0000000000000556
 21
0.3735106008586021
 31
0.0
210
0.0
220
0.0
230
1.0
 40
0.6963098146508815
 41
1.570796326795
 42
3.615840576879738
  0
ELLIPSE
  5
5C0
330
1F
100
AcDbEntity
  8
0
 62
     3
100
AcDbEllipse
 10
325.3641094537114
 20
145.1869214102737
 30
0.0
 11
0.000000000000035
 21
0.3735106008585942
 31
0.0
210
0.0
220
0.0
230
1.0
 40
0.696309814650896
 41
3.615840576879658
 42
4.712388980384755
  0
LINE
  5
5C1
330
1F
100
AcDbEntity
  8
0
100
AcDbLine
 10
324.9513018625056
 20
147.8384108094151
 30
0.0
 11
324.9513018625056
 21
145.1869214102737
 31
0.0
  0
LINE
  5
5C2
330
1F
100
AcDbEntity
  8
0
100
AcDbLine
 10
324.3216388553445
 20
147.8384108094151
 30
0.0
 11
324.3216388553445
 21
145.1869214102737
 31
0.0
  0
ELLIPSE
  5
5C3
330
1F
100
AcDbEntity
  8
0
100
AcDbEllipse
 10
324.6364703589255
 20
145.1869214102737
 30
0.0
 11
0.0
 21
-0.3735106008585944
 31
0.0
210
0.0
220
0.0
230
1.0
 40
0.842898442124072
 41
4.712388980384688
 42
7.853981633974482
  0
LINE
  5
5C4
330
1F
100
AcDbEntity
  8
0
 62
     3
100
AcDbLine
 10
317.5915707398745
 20
145.1869214102737
 30
0.0
 11
317.5915707398745
 21
147.8384108094151
 31
0.0
  0
LINE
  5
5C5
330
1F
100
AcDbEntity
  8
0
100
AcDbLine
 10
318.1117289343825
 20
147.8384108094151
 30
0.0
 11
318.1117289343825
 21
145.1869214102737
 31
0.0
  0
ELLIPSE
  5
5C6
330
1F
100
AcDbEntity
  8
0
100
AcDbEllipse
 10
317.8516498371285
 20
145.1869214102737
 30
0.0
 11
-0.0000000000000556
 21
0.3735106008586021
 31
0.0
210
0.0
220
0.0
230
-1.0
 40
0.6963098146508815
 41
1.570796326795
 42
3.615840576879738
  0
ELLIPSE
  5
5C7
330
1F
100
AcDbEntity
  8
0
 62
     3
100
AcDbEllipse
 10
317.8516498371285
 20
145.1869214102737
 30
0.0
 11
-0.000000000000035
 21
0.3735106008585942
 31
0.0
210
0.0
220
0.0
230
-1.0
 40
0.696309814650896
 41
3.615840576879658
 42
4.712388980384755
  0
LINE
  5
5C8
330
1F
100
AcDbEntity
  8
0
100
AcDbLine
 10
318.2644574283342
 20
147.8384108094151
 30
0.0
 11
318.2644574283342
 21
145.1869214102737
 31
0.0
  0
LINE
  5
5C9
330
1F
100
AcDbEntity
  8
0
100
AcDbLine
 10
318.8941204354951
 20
147.8384108094151
 30
0.0
 11
318.8941204354951
 21
145.1869214102737
 31
0.0
  0
ELLIPSE
  5
5CA
330
1F
100
AcDbEntity
  8
0
100
AcDbEllipse
 10
318.5792889319144
 20
145.1869214102737
 30
0.0
 11
0.0
 21
-0.3735106008585944
 31
0.0
210
0.0
220
0.0
230
-1.0
 40
0.842898442124072
 41
4.712388980384688
 42
7.853981633974482
  0
LINE
  5
5CB
330
1F
100
AcDbEntity
  8
0
  6
CENTER
100
AcDbLine
 10
332.3338529370424
 20
154.6884108094151
 30
0.0
 11
319.9319063537976
 21
154.6884108094151
 31
0.0
  0
LINE
  5
5CC
330
1F
100
AcDbEntity
  8
0
  6
CENTER
100
AcDbLine
 10
332.3338529370424
 20
165.9384108094151
 30
0.0
 11
319.9319063537976
 21
165.9384108094151
 31
0.0
  0
LINE
  5
5CD
330
1F
100
AcDbEntity
  8
0
 62
     3
100
AcDbLine
 10
134.1328796454198
 20
194.1884108094151
 30
0.0
 11
300.7078796454198
 21
194.1884108094151
 31
0.0
  0
LINE
  5
5CE
330
1F
100
AcDbEntity
  8
0
 62
     3
100
AcDbLine
 10
126.1328796454198
 20
187.3884108094151
 30
0.0
 11
300.7078796454198
 21
187.3884108094151
 31
0.0
  0
LINE
  5
5CF
330
1F
100
AcDbEntity
  8
0
  6
CENTER
100
AcDbLine
 10
101.0185440696798
 20
190.7884108094151
 30
0.0
 11
300.7078796454198
 21
190.7884108094151
 31
0.0
  0
LINE
  5
5D0
330
1F
100
AcDbEntity
  8
0
 62
     3
100
AcDbLine
 10
126.1328796454198
 20
186.2634108094151
 30
0.0
 11
142.1328796454198
 21
186.2634108094151
 31
0.0
  0
ARC
  5
5D1
330
1F
100
AcDbEntity
  8
0
 62
     3
100
AcDbCircle
 10
300.7078796454198
 20
169.8884108094152
 30
0.0
 40
17.5
100
AcDbArc
 50
0.0
 51
90.0
  0
ARC
  5
5D2
330
1F
100
AcDbEntity
  8
0
  6
CENTER
100
AcDbCircle
 10
300.7078796454198
 20
169.8884108094152
 30
0.0
 40
20.9
100
AcDbArc
 50
0.0
 51
90.0
  0
ARC
  5
5D3
330
1F
100
AcDbEntity
  8
0
 62
     3
100
AcDbCircle
 10
300.7078796454198
 20
169.8884108094152
 30
0.0
 40
24.3
100
AcDbArc
 50
0.0
 51
90.0
  0
LINE
  5
5D4
330
1F
100
AcDbEntity
  8
0
 62
     3
100
AcDbLine
 10
387.860581416381
 20
148.588410809415
 30
0.0
 11
387.860581416381
 21
151.1884108094152
 31
0.0
  0
LINE
  5
5D5
330
1F
100
AcDbEntity
  8
0
  6
HIDDEN
 62
     2
100
AcDbLine
 10
387.860581416381
 20
151.1884108094152
 30
0.0
 11
387.860581416381
 21
169.9384108094152
 31
0.0
  0
LINE
  5
5D6
330
1F
100
AcDbEntity
  8
0
 62
     3
100
AcDbLine
 10
387.860581416381
 20
169.9384108094152
 30
0.0
 11
387.8605814163805
 21
190.7884108094151
 31
0.0
  0
LINE
  5
5D7
330
1F
100
AcDbEntity
  8
0
 62
     3
100
AcDbLine
 10
394.6605814163807
 20
148.588410809415
 30
0.0
 11
394.6605814163807
 21
151.1884108094152
 31
0.0
  0
LINE
  5
5D8
330
1F
100
AcDbEntity
  8
0
  6
HIDDEN
 62
     2
100
AcDbLine
 10
394.6605814163807
 20
151.1884108094152
 30
0.0
 11
394.6605814163807
 21
169.9384108094152
 31
0.0
  0
LINE
  5
5D9
330
1F
100
AcDbEntity
  8
0
 62
     3
100
AcDbLine
 10
394.6605814163807
 20
169.9384108094152
 30
0.0
 11
394.6605814163807
 21
190.7884108094151
 31
0.0
  0
LINE
  5
5DA
330
1F
100
AcDbEntity
  8
0
 62
     3
100
AcDbLine
 10
394.8355814163808
 20
144.1884108094152
 30
0.0
 11
387.6855814163808
 21
144.1884108094152
 31
0.0
  0
LINE
  5
5DB
330
1F
100
AcDbEntity
  8
0
 62
     3
100
AcDbLine
 10
413.1355814163801
 20
151.1884108094152
 30
0.0
 11
369.3855814163806
 21
151.1884108094152
 31
0.0
  0
LINE
  5
5DD
330
1F
100
AcDbEntity
  8
0
 62
     3
100
AcDbLine
 10
413.1355814163801
 20
169.9384108094152
 30
0.0
 11
369.3855814163806
 21
169.9384108094152
 31
0.0
  0
LINE
  5
5E0
330
1F
100
AcDbEntity
  8
0
 62
     3
100
AcDbLine
 10
395.222755815981
 20
144.8134108094151
 30
0.0
 11
395.1355814163806
 21
144.8134108094151
 31
0.0
  0
LINE
  5
5E1
330
1F
100
AcDbEntity
  8
0
100
AcDbLine
 10
395.1355814163806
 20
144.8134108094151
 30
0.0
 11
387.3855814163806
 21
144.8134108094151
 31
0.0
  0
LINE
  5
5E2
330
1F
100
AcDbEntity
  8
0
 62
     3
100
AcDbLine
 10
387.3855814163806
 20
144.8134108094151
 30
0.0
 11
387.2984070167807
 21
144.8134108094151
 31
0.0
  0
LINE
  5
5E3
330
1F
100
AcDbEntity
  8
0
 62
     3
100
AcDbLine
 10
394.8355814163808
 20
148.588410809415
 30
0.0
 11
387.6855814163808
 21
148.588410809415
 31
0.0
  0
LINE
  5
5E4
330
1F
100
AcDbEntity
  8
0
 62
     3
100
AcDbLine
 10
395.451711459303
 20
147.8384108094151
 30
0.0
 11
395.1355814163806
 21
147.8384108094151
 31
0.0
  0
LINE
  5
5E5
330
1F
100
AcDbEntity
  8
0
100
AcDbLine
 10
395.1355814163806
 20
147.8384108094151
 30
0.0
 11
387.3855814163806
 21
147.8384108094151
 31
0.0
  0
LINE
  5
5E6
330
1F
100
AcDbEntity
  8
0
 62
     3
100
AcDbLine
 10
387.3855814163806
 20
147.8384108094151
 30
0.0
 11
387.0694513734581
 21
147.8384108094151
 31
0.0
  0
LINE
  5
5E7
330
1F
100
AcDbEntity
  8
0
 62
     3
100
AcDbLine
 10
395.1355814163806
 20
144.8134108094151
 30
0.0
 11
394.8355814163808
 21
144.1884108094152
 31
0.0
  0
LINE
  5
5E8
330
1F
100
AcDbEntity
  8
0
 62
     3
100
AcDbLine
 10
395.1355814163806
 20
147.8384108094151
 30
0.0
 11
394.8355814163808
 21
148.588410809415
 31
0.0
  0
LINE
  5
5E9
330
1F
100
AcDbEntity
  8
0
 62
     3
100
AcDbLine
 10
387.6855814163808
 20
144.1884108094152
 30
0.0
 11
387.3855814163806
 21
144.8134108094151
 31
0.0
  0
LINE
  5
5EA
330
1F
100
AcDbEntity
  8
0
 62
     3
100
AcDbLine
 10
387.6855814163808
 20
148.588410809415
 30
0.0
 11
387.3855814163806
 21
147.8384108094151
 31
0.0
  0
LINE
  5
5EB
330
1F
100
AcDbEntity
  8
0
 62
     3
100
AcDbLine
 10
395.451711459303
 20
145.1869214102737
 30
0.0
 11
395.451711459303
 21
147.8384108094151
 31
0.0
  0
LINE
  5
5EC
330
1F
100
AcDbEntity
  8
0
100
AcDbLine
 10
394.9938001726589
 20
147.8384108094151
 30
0.0
 11
394.9938001726589
 21
145.1869214102737
 31
0.0
  0
ELLIPSE
  5
5ED
330
1F
100
AcDbEntity
  8
0
100
AcDbEllipse
 10
395.222755815981
 20
145.1869214102737
 30
0.0
 11
-0.0000000000000293
 21
0.3735106008585944
 31
0.0
210
0.0
220
0.0
230
1.0
 40
0.6129829857458404
 41
1.570796326794848
 42
3.141592653706353
  0
ELLIPSE
  5
5EE
330
1F
100
AcDbEntity
  8
0
 62
     3
100
AcDbEllipse
 10
395.222755815981
 20
145.1869214102737
 30
0.0
 11
0.0000000000000992
 21
0.3735106008585944
 31
0.0
210
0.0
220
0.0
230
1.0
 40
0.6129829857458407
 41
3.141592653706913
 42
4.712388980384851
  0
LINE
  5
5EF
330
1F
100
AcDbEntity
  8
0
100
AcDbLine
 10
394.1263834039162
 20
147.8384108094151
 30
0.0
 11
394.1263834039162
 21
145.1869214102737
 31
0.0
  0
LINE
  5
5F0
330
1F
100
AcDbEntity
  8
0
100
AcDbLine
 10
393.4527897402862
 20
147.8384108094151
 30
0.0
 11
393.4527897402862
 21
145.1869214102737
 31
0.0
  0
LINE
  5
5F1
330
1F
100
AcDbEntity
  8
0
100
AcDbLine
 10
392.9609094717678
 20
147.8384108094151
 30
0.0
 11
392.9609094717678
 21
145.1869214102737
 31
0.0
  0
LINE
  5
5F2
330
1F
100
AcDbEntity
  8
0
100
AcDbLine
 10
392.2277314912001
 20
147.8384108094151
 30
0.0
 11
392.2277314912001
 21
145.1869214102737
 31
0.0
  0
ELLIPSE
  5
5F3
330
1F
100
AcDbEntity
  8
0
100
AcDbEllipse
 10
393.789586572101
 20
145.1869214102737
 30
0.0
 11
0.0
 21
-0.3735106008585944
 31
0.0
210
0.0
220
0.0
230
1.0
 40
0.9017062194238192
 41
4.712388980384688
 42
7.853981633974482
  0
ELLIPSE
  5
5F4
330
1F
100
AcDbEntity
  8
0
100
AcDbEllipse
 10
392.5943204814842
 20
145.1869214102737
 30
0.0
 11
0.0
 21
-0.3735106008585944
 31
0.0
210
0.0
220
0.0
230
1.0
 40
0.9814687707418398
 41
4.712388980384688
 42
7.853981633974482
  0
LINE
  5
5F5
330
1F
100
AcDbEntity
  8
0
 62
     3
100
AcDbLine
 10
387.0694513734581
 20
145.1869214102737
 30
0.0
 11
387.0694513734581
 21
147.8384108094151
 31
0.0
  0
LINE
  5
5F6
330
1F
100
AcDbEntity
  8
0
100
AcDbLine
 10
387.5273626601023
 20
147.8384108094151
 30
0.0
 11
387.5273626601023
 21
145.1869214102737
 31
0.0
  0
ELLIPSE
  5
5F7
330
1F
100
AcDbEntity
  8
0
100
AcDbEllipse
 10
387.2984070167807
 20
145.1869214102737
 30
0.0
 11
0.0000000000000445
 21
0.3735106008585944
 31
0.0
210
0.0
220
0.0
230
-1.0
 40
0.6129829857458407
 41
1.570796326794823
 42
3.141592653589598
  0
ELLIPSE
  5
5F8
330
1F
100
AcDbEntity
  8
0
 62
     3
100
AcDbEllipse
 10
387.2984070167807
 20
145.1869214102737
 30
0.0
 11
-0.0000000000000445
 21
0.3735106008585944
 31
0.0
210
0.0
220
0.0
230
-1.0
 40
0.6129829857458407
 41
3.141592653589986
 42
4.712388980384761
  0
LINE
  5
5F9
330
1F
100
AcDbEntity
  8
0
100
AcDbLine
 10
388.3947794288454
 20
147.8384108094151
 30
0.0
 11
388.3947794288454
 21
145.1869214102737
 31
0.0
  0
LINE
  5
5FA
330
1F
100
AcDbEntity
  8
0
100
AcDbLine
 10
389.0683730924755
 20
147.8384108094151
 30
0.0
 11
389.0683730924755
 21
145.1869214102737
 31
0.0
  0
LINE
  5
5FB
330
1F
100
AcDbEntity
  8
0
100
AcDbLine
 10
389.5602533609939
 20
147.8384108094151
 30
0.0
 11
389.5602533609939
 21
145.1869214102737
 31
0.0
  0
LINE
  5
5FC
330
1F
100
AcDbEntity
  8
0
100
AcDbLine
 10
390.2934313415611
 20
147.8384108094151
 30
0.0
 11
390.2934313415611
 21
145.1869214102737
 31
0.0
  0
ELLIPSE
  5
5FD
330
1F
100
AcDbEntity
  8
0
100
AcDbEllipse
 10
388.7315762606602
 20
145.1869214102737
 30
0.0
 11
0.0
 21
-0.3735106008585944
 31
0.0
210
0.0
220
0.0
230
-1.0
 40
0.9017062194238192
 41
4.712388980384688
 42
7.853981633974482
  0
ELLIPSE
  5
5FE
330
1F
100
AcDbEntity
  8
0
100
AcDbEllipse
 10
389.9268423512775
 20
145.1869214102737
 30
0.0
 11
0.0
 21
-0.3735106008585944
 31
0.0
210
0.0
220
0.0
230
-1.0
 40
0.9814687707418398
 41
4.712388980384688
 42
7.853981633974482
  0
LINE
  5
5FF
330
1F
100
AcDbEntity
  8
0
  6
CENTER
100
AcDbLine
 10
391.2605814163806
 20
199.2215572512117
 30
0.0
 11
391.2605814163806
 21
139.6581750384287
 31
0.0
  0
LINE
  5
600
330
1F
100
AcDbEntity
  8
0
  6
CENTER
100
AcDbLine
 10
380.0105814163806
 20
192.8837732235986
 30
0.0
 11
380.0105814163806
 21
180.0577303133048
 31
0.0
  0
LINE
  5
601
330
1F
100
AcDbEntity
  8
0
  6
CENTER
100
AcDbLine
 10
402.5105814163806
 20
192.8837732235986
 30
0.0
 11
402.5105814163806
 21
180.0577303133048
 31
0.0
  0
LINE
  5
602
330
1F
100
AcDbEntity
  8
0
 62
     3
100
AcDbLine
 10
372.5105814163806
 20
187.3884108094151
 30
0.0
 11
372.5105814163806
 21
186.2634108094151
 31
0.0
  0
LINE
  5
603
330
1F
100
AcDbEntity
  8
0
 62
     3
100
AcDbLine
 10
410.0105814163804
 20
187.3884108094151
 30
0.0
 11
410.0105814163804
 21
186.2634108094151
 31
0.0
  0
LINE
  5
604
330
1F
100
AcDbEntity
  8
0
  6
CENTER
100
AcDbLine
 10
384.3855814163806
 20
152.1884108094151
 30
0.0
 11
384.3855814163806
 21
168.9384108094152
 31
0.0
  0
LINE
  5
605
330
1F
100
AcDbEntity
  8
0
  6
CENTER
100
AcDbLine
 10
373.1355814163806
 20
152.1884108094151
 30
0.0
 11
373.1355814163806
 21
168.9384108094152
 31
0.0
  0
LINE
  5
606
330
1F
100
AcDbEntity
  8
0
  6
CENTER
100
AcDbLine
 10
398.1355814163806
 20
152.1884108094151
 30
0.0
 11
398.1355814163806
 21
168.9384108094152
 31
0.0
  0
LINE
  5
607
330
1F
100
AcDbEntity
  8
0
  6
CENTER
100
AcDbLine
 10
409.3855814163806
 20
152.1884108094151
 30
0.0
 11
409.3855814163806
 21
168.9384108094152
 31
0.0
  0
LINE
  5
608
330
1F
100
AcDbEntity
  8
0
 62
     3
100
AcDbLine
 10
369.3855814163806
 20
151.1884108094152
 30
0.0
 11
369.3855814163806
 21
169.9384108094152
 31
0.0
  0
LINE
  5
60A
330
1F
100
AcDbEntity
  8
0
 62
     3
100
AcDbLine
 10
413.1355814163801
 20
169.9384108094152
 30
0.0
 11
413.1355814163801
 21
151.1884108094152
 31
0.0
  0
LINE
  5
60B
330
1F
100
AcDbEntity
  8
0
  6
CENTER
100
AcDbLine
 10
412.1355814163806
 20
166.1884108094151
 30
0.0
 11
370.3855814163806
 21
166.1884108094151
 31
0.0
  0
LINE
  5
60C
330
1F
100
AcDbEntity
  8
0
  6
CENTER
100
AcDbLine
 10
412.1355814163806
 20
154.9384108094153
 30
0.0
 11
370.3855814163806
 21
154.9384108094153
 31
0.0
  0
CIRCLE
  5
60D
330
1F
100
AcDbEntity
  8
0
 62
     3
100
AcDbCircle
 10
409.3855814163806
 20
154.9384108094153
 30
0.0
 40
0.8125
  0
CIRCLE
  5
60E
330
1F
100
AcDbEntity
  8
0
 62
     3
100
AcDbCircle
 10
409.3855814163806
 20
166.1884108094151
 30
0.0
 40
0.8125
  0
CIRCLE
  5
60F
330
1F
100
AcDbEntity
  8
0
 62
     3
100
AcDbCircle
 10
398.1355814163806
 20
166.1884108094151
 30
0.0
 40
0.8125
  0
CIRCLE
  5
610
330
1F
100
AcDbEntity
  8
0
 62
     3
100
AcDbCircle
 10
398.1355814163806
 20
154.9384108094153
 30
0.0
 40
0.8125
  0
CIRCLE
  5
611
330
1F
100
AcDbEntity
  8
0
 62
     3
100
AcDbCircle
 10
384.3855814163806
 20
154.9384108094153
 30
0.0
 40
0.8125
  0
CIRCLE
  5
612
330
1F
100
AcDbEntity
  8
0
 62
     3
100
AcDbCircle
 10
384.3855814163806
 20
166.1884108094151
 30
0.0
 40
0.8125
  0
CIRCLE
  5
613
330
1F
100
AcDbEntity
  8
0
 62
     3
100
AcDbCircle
 10
373.1355814163806
 20
154.9384108094153
 30
0.0
 40
0.8125
  0
CIRCLE
  5
614
330
1F
100
AcDbEntity
  8
0
 62
     3
100
AcDbCircle
 10
373.1355814163806
 20
166.1884108094151
 30
0.0
 40
0.8125
  0
LINE
  5
624
330
1F
100
AcDbEntity
  8
0
 62
     3
100
AcDbLine
 10
372.5105814163806
 20
187.3884108094151
 30
0.0
 11
387.8605814163805
 21
187.3884108094151
 31
0.0
  0
LINE
  5
625
330
1F
100
AcDbEntity
  8
0
 62
     3
100
AcDbLine
 10
394.6605814163807
 20
187.3884108094151
 30
0.0
 11
410.0105814163804
 21
187.3884108094151
 31
0.0
  0
LINE
  5
626
330
1F
100
AcDbEntity
  8
0
 62
     3
100
AcDbLine
 10
372.5105814163806
 20
186.2634108094151
 30
0.0
 11
387.8605814163805
 21
186.2634108094151
 31
0.0
  0
LINE
  5
627
330
1F
100
AcDbEntity
  8
0
 62
     3
100
AcDbLine
 10
394.6605814163807
 20
186.2634108094151
 30
0.0
 11
410.0105814163804
 21
186.2634108094151
 31
0.0
  0
ARC
  5
62B
330
1F
100
AcDbEntity
  8
0
 62
     3
100
AcDbCircle
 10
391.2605814163806
 20
190.7884108094151
 30
0.0
 40
3.400000000000013
100
AcDbArc
 50
0.0
 51
180.0
  0
LINE
  5
62F
330
1F
100
AcDbEntity
  8
0
  6
CENTER
100
AcDbLine
 10
382.8274349745841
 20
190.7884108094151
 30
0.0
 11
399.693727858177
 21
190.7884108094151
 31
0.0
  0
ARC
  5
633
330
1F
100
AcDbEntity
  8
0
  6
HIDDEN
 62
     2
370
    13
100
AcDbCircle
 10
391.2605814163806
 20
190.7884108094151
 30
0.0
 40
3.399999999138
100
AcDbArc
 50
179.9999999808234
 51
0.0000000191765565
  0
LINE
  5
63B
330
1F
100
AcDbEntity
  8
0
 62
     3
100
AcDbLine
 10
326.1328796454198
 20
150.9384108094153
 30
0.0
 11
326.1328796454198
 21
169.6884108094153
 31
0.0
  0
LINE
  5
63C
330
1F
100
AcDbEntity
  8
0
 62
     3
100
AcDbLine
 10
325.0078796454198
 20
150.9384108094153
 30
0.0
 11
326.1328796454198
 21
150.9384108094153
 31
0.0
  0
LINE
  5
63D
330
1F
100
AcDbEntity
  8
0
 62
     3
100
AcDbLine
 10
325.0078796454198
 20
169.6884108094153
 30
0.0
 11
326.1328796454198
 21
169.6884108094153
 31
0.0
  0
LINE
  5
63E
330
1F
100
AcDbEntity
  8
0
  6
CENTER
100
AcDbLine
 10
138.1328796454198
 20
180.678857800905
 30
0.0
 11
138.1328796454198
 21
191.8479638179253
 31
0.0
  0
LINE
  5
63F
330
1F
100
AcDbEntity
  8
0
  6
CENTER
100
AcDbLine
 10
130.1328796454198
 20
180.678857800905
 30
0.0
 11
130.1328796454198
 21
191.8479638179253
 31
0.0
  0
LINE
  5
649
330
1F
100
AcDbEntity
  8
0
  6
CENTER
100
AcDbLine
 10
160.2394569992698
 20
118.6555402522466
 30
0.0
 11
119.0035413132735
 21
118.6555402522465
 31
0.0
  0
LINE
  5
64B
330
1F
100
AcDbEntity
  8
0
 62
     3
100
AcDbLine
 10
134.1328796454196
 20
99.90554025224662
 30
0.0
 11
126.1328796454198
 21
99.90554025224662
 31
0.0
  0
LINE
  5
64E
330
1F
100
AcDbEntity
  8
0
 62
     3
100
AcDbLine
 10
134.1328796454199
 20
137.4055402522466
 30
0.0
 11
126.1328796454198
 21
137.4055402522466
 31
0.0
  0
LINE
  5
64F
330
1F
100
AcDbEntity
  8
0
 62
     3
100
AcDbLine
 10
154.9130088891091
 20
115.2555402522466
 30
0.0
 11
148.1328796454195
 21
115.2555402522465
 31
0.0
  0
LINE
  5
650
330
1F
100
AcDbEntity
  8
0
 62
     3
100
AcDbLine
 10
154.9130088891091
 20
122.0555402522467
 30
0.0
 11
148.1328796454195
 21
122.0555402522466
 31
0.0
  0
LINE
  5
651
330
1F
100
AcDbEntity
  8
0
  6
CENTER
100
AcDbLine
 10
130.1328796454195
 20
139.0644071007117
 30
0.0
 11
130.1328796454195
 21
98.24667340378152
 31
0.0
  0
ARC
  5
652
330
1F
100
AcDbEntity
  8
0
 62
     3
100
AcDbCircle
 10
138.1328796454195
 20
118.6555402522465
 30
0.0
 40
1.4375
100
AcDbArc
 50
90.0
 51
270.0
  0
ARC
  5
653
330
1F
100
AcDbEntity
  8
0
 62
     3
100
AcDbCircle
 10
153.1280088891092
 20
120.3555402522465
 30
0.0
 40
2.465000000000036
100
AcDbArc
 50
316.3971810272893
 51
43.60281897271071
  0
ARC
  5
654
330
1F
100
AcDbEntity
  8
0
 62
     3
100
AcDbCircle
 10
156.6980088891089
 20
120.3555402522466
 30
0.0
 40
2.465000000000036
100
AcDbArc
 50
136.3971810272892
 51
223.6028189727107
  0
ARC
  5
655
330
1F
100
AcDbEntity
  8
0
 62
     3
100
AcDbCircle
 10
153.1280088891092
 20
116.9555402522465
 30
0.0
 40
2.465000000000036
100
AcDbArc
 50
316.3971810272893
 51
43.60281897271071
  0
ARC
  5
656
330
1F
100
AcDbEntity
  8
0
100
AcDbCircle
 10
153.2022165728036
 20
120.0305402522466
 30
0.0
 40
2.194865679154481
100
AcDbArc
 50
321.2104230943939
 51
38.78957690560613
  0
ARC
  5
657
330
1F
100
AcDbEntity
  8
0
100
AcDbCircle
 10
157.058210545943
 20
120.0305402522468
 30
0.0
 40
2.548041433823634
100
AcDbArc
 50
147.341534392555
 51
212.6584656074789
  0
LINE
  5
65D
330
1F
100
AcDbEntity
  8
0
 62
     3
100
AcDbLine
 10
126.1328796454198
 20
137.4055402522466
 30
0.0
 11
126.1328796454198
 21
99.90554025224662
 31
0.0
  0
LINE
  5
65F
330
1F
100
AcDbEntity
  8
0
  6
CENTER
100
AcDbLine
 10
138.1328796454195
 20
128.8599736764791
 30
0.0
 11
138.1328796454195
 21
108.4511068280141
 31
0.0
  0
LINE
  5
660
102
{ACAD_REACTORS
330
668
102
}
330
1F
100
AcDbEntity
  8
0
  6
CENTER
100
AcDbLine
 10
144.1328796454195
 20
128.8599736764791
 30
0.0
 11
144.1328796454195
 21
108.4511068280141
 31
0.0
  0
LINE
  5
662
330
1F
100
AcDbEntity
  8
0
 62
     3
100
AcDbLine
 10
148.1328796454195
 20
124.9055402522465
 30
0.0
 11
148.1328796454195
 21
112.4055402522464
 31
0.0
  0
LINE
  5
669
330
1F
100
AcDbEntity
  8
0
  6
CENTER
100
AcDbLine
 10
136.2347966659288
 20
131.6555402522465
 30
0.0
 11
124.0309626249102
 21
131.6555402522465
 31
0.0
  0
CIRCLE
  5
66A
330
1F
100
AcDbEntity
  8
0
 62
     3
100
AcDbCircle
 10
130.1328796454195
 20
131.6555402522465
 30
0.0
 40
1.375
  0
LINE
  5
66B
330
1F
100
AcDbEntity
  8
0
  6
CENTER
100
AcDbLine
 10
136.2347966659288
 20
127.7805402522465
 30
0.0
 11
124.0309626249102
 21
127.7805402522465
 31
0.0
  0
CIRCLE
  5
66C
330
1F
100
AcDbEntity
  8
0
 62
     3
100
AcDbCircle
 10
130.1328796454195
 20
127.7805402522465
 30
0.0
 40
1.375
  0
LINE
  5
66D
330
1F
100
AcDbEntity
  8
0
  6
CENTER
100
AcDbLine
 10
136.2347966659288
 20
109.5305402522465
 30
0.0
 11
124.0309626249102
 21
109.5305402522465
 31
0.0
  0
CIRCLE
  5
66E
330
1F
100
AcDbEntity
  8
0
 62
     3
100
AcDbCircle
 10
130.1328796454195
 20
109.5305402522465
 30
0.0
 40
1.375
  0
LINE
  5
66F
330
1F
100
AcDbEntity
  8
0
  6
CENTER
100
AcDbLine
 10
136.2347966659288
 20
105.6555402522465
 30
0.0
 11
124.0309626249102
 21
105.6555402522465
 31
0.0
  0
CIRCLE
  5
670
330
1F
100
AcDbEntity
  8
0
 62
     3
100
AcDbCircle
 10
130.1328796454195
 20
105.6555402522465
 30
0.0
 40
1.375
  0
ARC
  5
677
330
1F
100
AcDbEntity
  8
0
 62
     3
100
AcDbCircle
 10
144.1328796454195
 20
118.6555402522465
 30
0.0
 40
1.4375
100
AcDbArc
 50
270.0
 51
90.0
  0
LINE
  5
678
330
1F
100
AcDbEntity
  8
0
 62
     3
100
AcDbLine
 10
138.1328796454195
 20
120.0930402522465
 30
0.0
 11
144.1328796454195
 21
120.0930402522465
 31
0.0
  0
LINE
  5
679
330
1F
100
AcDbEntity
  8
0
 62
     3
100
AcDbLine
 10
138.1328796454195
 20
117.2180402522465
 30
0.0
 11
144.1328796454195
 21
117.2180402522465
 31
0.0
  0
LINE
  5
67A
330
1F
100
AcDbEntity
  8
0
 62
     3
100
AcDbLine
 10
134.1328796454199
 20
137.4055402522466
 30
0.0
 11
148.1328796454195
 21
124.9055402522465
 31
0.0
  0
LINE
  5
67F
330
1F
100
AcDbEntity
  8
0
 62
     3
100
AcDbLine
 10
148.1328796454195
 20
112.4055402522464
 30
0.0
 11
134.1328796454196
 21
99.90554025224662
 31
0.0
  0
LINE
  5
68D
330
1F
100
AcDbEntity
  8
0
  6
HIDDEN
 62
     2
100
AcDbLine
 10
134.1328796454198
 20
122.0555402522466
 30
0.0
 11
134.1328796454198
 21
115.2555402522465
 31
0.0
  0
LINE
  5
68E
330
1F
100
AcDbEntity
  8
0
  6
HIDDEN
 62
     2
100
AcDbLine
 10
148.1328796454195
 20
122.0555402522466
 30
0.0
 11
134.1328796454198
 21
122.0555402522466
 31
0.0
  0
LINE
  5
68F
330
1F
100
AcDbEntity
  8
0
  6
HIDDEN
 62
     2
100
AcDbLine
 10
148.1328796454195
 20
115.2555402522465
 30
0.0
 11
134.1328796454198
 21
115.2555402522465
 31
0.0
  0
TEXT
  5
691
330
1F
100
AcDbEntity
  8
0
 62
     3
100
AcDbText
 10
350.2448087604705
 20
36.06393682370914
 30
0.0
 40
2.5
  1
鋼管
  7
高2.5
100
AcDbText
  0
TEXT
  5
692
330
1F
100
AcDbEntity
  8
0
 62
     3
100
AcDbText
 10
378.9669763652181
 20
35.8195785579743
 30
0.0
 40
2.5
  1
粉体塗装
  7
高2.5
100
AcDbText
  0
LINE
  5
693
330
1F
100
AcDbEntity
  8
0
 62
     3
100
AcDbLine
 10
281.9481136211489
 20
148.588410809415
 30
0.0
 11
281.9481136211489
 21
169.8884108094152
 31
0.0
  0
LINE
  5
694
330
1F
100
AcDbEntity
  8
0
 62
     3
100
AcDbLine
 10
288.7481136211489
 20
145.3134108094152
 30
0.0
 11
288.7481136211489
 21
169.8884108094152
 31
0.0
  0
LINE
  5
695
330
1F
100
AcDbEntity
  8
0
 62
     3
100
AcDbLine
 10
285.3481136211488
 20
144.1884108094152
 30
0.0
 11
281.7731136211492
 21
144.1884108094152
 31
0.0
  0
LINE
  5
696
330
1F
100
AcDbEntity
  8
0
 62
     3
100
AcDbLine
 10
285.3481136211488
 20
144.9384108094152
 30
0.0
 11
288.3731136211489
 21
144.9384108094152
 31
0.0
  0
LINE
  5
697
330
1F
100
AcDbEntity
  8
0
 62
     3
100
AcDbLine
 10
288.7481136211489
 20
145.3134108094152
 30
0.0
 11
288.3731136211489
 21
144.9384108094152
 31
0.0
  0
LINE
  5
698
330
1F
100
AcDbEntity
  8
0
100
AcDbLine
 10
285.3481136211488
 20
144.8134108094151
 30
0.0
 11
281.473113621149
 21
144.8134108094151
 31
0.0
  0
LINE
  5
699
330
1F
100
AcDbEntity
  8
0
 62
     3
100
AcDbLine
 10
285.3481136211488
 20
148.5884108094152
 30
0.0
 11
281.7731136211492
 21
148.588410809415
 31
0.0
  0
LINE
  5
69A
330
1F
100
AcDbEntity
  8
0
100
AcDbLine
 10
285.3481136211488
 20
147.8384108094151
 30
0.0
 11
281.473113621149
 21
147.8384108094151
 31
0.0
  0
LINE
  5
69B
330
1F
100
AcDbEntity
  8
0
 62
     3
100
AcDbLine
 10
281.473113621149
 20
147.8384108094151
 30
0.0
 11
281.3318047156036
 21
147.8384108094151
 31
0.0
  0
LINE
  5
69C
330
1F
100
AcDbEntity
  8
0
  6
CENTER
100
AcDbLine
 10
285.3481136211488
 20
169.9384108094152
 30
0.0
 11
285.3481136211488
 21
139.6581750384287
 31
0.0
  0
LINE
  5
69D
330
1F
100
AcDbEntity
  8
0
  6
HIDDEN
 62
     2
100
AcDbLine
 10
283.160613621149
 20
144.8134108094151
 30
0.0
 11
283.160613621149
 21
148.588410809415
 31
0.0
  0
LINE
  5
69E
330
1F
100
AcDbEntity
  8
0
 62
     3
100
AcDbLine
 10
281.473113621149
 20
144.8134108094151
 30
0.0
 11
281.473113621149
 21
144.8546327751176
 31
0.0
  0
LINE
  5
69F
330
1F
100
AcDbEntity
  8
0
 62
     3
100
AcDbLine
 10
281.7731136211492
 20
144.1884108094152
 30
0.0
 11
281.473113621149
 21
144.8134108094151
 31
0.0
  0
LINE
  5
6A0
330
1F
100
AcDbEntity
  8
0
 62
     3
100
AcDbLine
 10
281.7731136211492
 20
148.588410809415
 30
0.0
 11
281.473113621149
 21
147.8384108094151
 31
0.0
  0
LINE
  5
6A1
330
1F
100
AcDbEntity
  8
0
  6
HIDDEN
 62
     2
100
AcDbLine
 10
282.598113621149
 20
144.1884108094152
 30
0.0
 11
283.160613621149
 21
144.8134108094151
 31
0.0
  0
LINE
  5
6A2
330
1F
100
AcDbEntity
  8
0
100
AcDbLine
 10
285.0472481344066
 20
147.8384108094151
 30
0.0
 11
285.0472481344066
 21
145.1869214102737
 31
0.0
  0
LINE
  5
6A3
330
1F
100
AcDbEntity
  8
0
100
AcDbLine
 10
284.3002269326894
 20
147.8384108094151
 30
0.0
 11
284.3002269326894
 21
145.1869214102737
 31
0.0
  0
ARC
  5
6A4
330
1F
100
AcDbEntity
  8
0
100
AcDbCircle
 10
284.6737375335484
 20
145.1869214102737
 30
0.0
 40
0.373510600858566
100
AcDbArc
 50
180.0
 51
0.0
  0
LINE
  5
6A5
330
1F
100
AcDbEntity
  8
0
 62
     3
100
AcDbLine
 10
281.3318047156036
 20
145.1869214102737
 30
0.0
 11
281.3318047156036
 21
147.8384108094151
 31
0.0
  0
LINE
  5
6A6
330
1F
100
AcDbEntity
  8
0
100
AcDbLine
 10
281.8519629101116
 20
147.8384108094151
 30
0.0
 11
281.8519629101116
 21
145.1869214102737
 31
0.0
  0
ELLIPSE
  5
6A7
330
1F
100
AcDbEntity
  8
0
100
AcDbEllipse
 10
281.5918838128577
 20
145.1869214102737
 30
0.0
 11
-0.0000000000000556
 21
0.3735106008586021
 31
0.0
210
0.0
220
0.0
230
-1.0
 40
0.6963098146508815
 41
1.570796326795
 42
3.615840576879738
  0
ELLIPSE
  5
6A8
330
1F
100
AcDbEntity
  8
0
 62
     3
100
AcDbEllipse
 10
281.5918838128577
 20
145.1869214102737
 30
0.0
 11
-0.000000000000035
 21
0.3735106008585942
 31
0.0
210
0.0
220
0.0
230
-1.0
 40
0.696309814650896
 41
3.615840576879658
 42
4.712388980384755
  0
LINE
  5
6A9
330
1F
100
AcDbEntity
  8
0
100
AcDbLine
 10
282.0046914040632
 20
147.8384108094151
 30
0.0
 11
282.0046914040632
 21
145.1869214102737
 31
0.0
  0
LINE
  5
6AA
330
1F
100
AcDbEntity
  8
0
100
AcDbLine
 10
282.6343544112242
 20
147.8384108094151
 30
0.0
 11
282.6343544112242
 21
145.1869214102737
 31
0.0
  0
ELLIPSE
  5
6AB
330
1F
100
AcDbEntity
  8
0
100
AcDbEllipse
 10
282.3195229076435
 20
145.1869214102737
 30
0.0
 11
0.0
 21
-0.3735106008585944
 31
0.0
210
0.0
220
0.0
230
-1.0
 40
0.842898442124072
 41
4.712388980384688
 42
7.853981633974482
  0
LINE
  5
6AC
330
1F
100
AcDbEntity
  8
0
  6
CENTER
100
AcDbLine
 10
296.0740869127715
 20
154.6884108094151
 30
0.0
 11
283.6721403295267
 21
154.6884108094151
 31
0.0
  0
LINE
  5
6AD
330
1F
100
AcDbEntity
  8
0
  6
CENTER
100
AcDbLine
 10
296.0740869127715
 20
165.9384108094151
 30
0.0
 11
283.6721403295267
 21
165.9384108094151
 31
0.0
  0
LINE
  5
6AE
330
1F
100
AcDbEntity
  8
0
 62
     3
100
AcDbLine
 10
289.8731136211489
 20
150.9384108094153
 30
0.0
 11
289.8731136211489
 21
169.6884108094153
 31
0.0
  0
LINE
  5
6AF
330
1F
100
AcDbEntity
  8
0
 62
     3
100
AcDbLine
 10
288.7481136211489
 20
150.9384108094153
 30
0.0
 11
289.8731136211489
 21
150.9384108094153
 31
0.0
  0
LINE
  5
6B0
330
1F
100
AcDbEntity
  8
0
 62
     3
100
AcDbLine
 10
288.7481136211489
 20
169.6884108094153
 30
0.0
 11
289.8731136211489
 21
169.6884108094153
 31
0.0
  0
LINE
  5
6B1
330
1F
100
AcDbEntity
  8
0
 62
     3
100
AcDbLine
 10
288.7481136211489
 20
145.3134108094152
 30
0.0
 11
285.3481136211488
 21
145.3134108094152
 31
0.0
  0
TEXT
  5
6B6
330
1F
100
AcDbEntity
  8
0
 62
     3
100
AcDbText
 10
83.8891786627426
 20
36.06393682370919
 30
0.0
 40
2.5
  1
注）溶接部は1周する事。(別途打合せ)
  7
高2.5
100
AcDbText
  0
TEXT
  5
6C4
330
1F
100
AcDbEntity
  8
0
 62
     3
100
AcDbText
 10
434.3014118160755
 20
281.5321292959439
 30
0.0
 40
3.2
  1
担　当
  7
高3.2
100
AcDbText
  0
TEXT
  5
6C5
330
1F
100
AcDbEntity
  8
0
 62
     3
100
AcDbText
 10
390.3014118160756
 20
281.5321292959439
 30
0.0
 40
3.2
  1
変更・追記内容
  7
高3.2
100
AcDbText
  0
TEXT
  5
6C6
330
1F
100
AcDbEntity
  8
0
 62
     3
100
AcDbText
 10
365.4149268164149
 20
276.8615907860357
 30
0.0
 40
2.0
  1
1
  7
高2
100
AcDbText
  0
TEXT
  5
6C7
330
1F
100
AcDbEntity
  8
0
 62
     3
100
AcDbText
 10
365.1064153396577
 20
271.6917740737628
 30
0.0
 40
2.0
  1
2
  7
高2
100
AcDbText
  0
TEXT
  5
6C8
330
1F
100
AcDbEntity
  8
0
 62
     3
100
AcDbText
 10
372.3014118160756
 20
281.5321292959439
 30
0.0
 40
3.2
  1
日　付
  7
高3.2
100
AcDbText
  0
TEXT
  5
6C9
330
1F
100
AcDbEntity
  8
0
 62
     3
100
AcDbText
 10
372.3014118160756
 20
286.5321292959439
 30
0.0
 40
3.2
  1
図　　　　面　　　　略　　　　歴
  7
高3.2
100
AcDbText
  0
TEXT
  5
6CA
330
1F
100
AcDbEntity
  8
0
 62
     3
100
AcDbText
 10
362.3014118160757
 20
281.5321292959439
 30
0.0
 40
3.2
  1
記号
  7
高3.2
100
AcDbText
  0
LINE
  5
6CB
330
1F
100
AcDbEntity
  8
0
 62
     7
100
AcDbLine
 10
365.8014118160756
 20
274.823025295944
 30
0.0
 11
363.9014118160756
 21
271.532129295944
 31
0.0
  0
LINE
  5
6CC
330
1F
100
AcDbEntity
  8
0
 62
     7
100
AcDbLine
 10
365.8014118160756
 20
274.823025295944
 30
0.0
 11
367.7014118160753
 21
271.532129295944
 31
0.0
  0
LINE
  5
6CD
330
1F
100
AcDbEntity
  8
0
 62
     7
100
AcDbLine
 10
363.9014118160756
 20
271.532129295944
 30
0.0
 11
367.7014118160753
 21
271.532129295944
 31
0.0
  0
LINE
  5
6CE
330
1F
100
AcDbEntity
  8
0
 62
     7
100
AcDbLine
 10
365.8014118160756
 20
279.823026295944
 30
0.0
 11
363.9014118160756
 21
276.5321292959439
 31
0.0
  0
LINE
  5
6CF
330
1F
100
AcDbEntity
  8
0
 62
     7
100
AcDbLine
 10
365.8014118160756
 20
279.823026295944
 30
0.0
 11
367.7014118160753
 21
276.5321292959439
 31
0.0
  0
LINE
  5
6D0
330
1F
100
AcDbEntity
  8
0
 62
     7
100
AcDbLine
 10
363.9014118160756
 20
276.5321292959439
 30
0.0
 11
367.7014118160753
 21
276.5321292959439
 31
0.0
  0
LINE
  5
6D1
330
1F
100
AcDbEntity
  8
0
 62
     3
100
AcDbLine
 10
360.8014118160757
 20
286.032129295944
 30
0.0
 11
446.8014118160755
 21
286.032129295944
 31
0.0
  0
LINE
  5
6D2
330
1F
100
AcDbEntity
  8
0
 62
     3
100
AcDbLine
 10
360.8014118160757
 20
281.0321292959439
 30
0.0
 11
446.8014118160755
 21
281.0321292959439
 31
0.0
  0
LINE
  5
6D3
330
1F
100
AcDbEntity
  8
0
 62
     7
100
AcDbLine
 10
360.8014118160757
 20
276.032129295944
 30
0.0
 11
446.8014118160755
 21
276.032129295944
 31
0.0
  0
LINE
  5
6D4
330
1F
100
AcDbEntity
  8
0
 62
     3
100
AcDbLine
 10
360.8014118160757
 20
271.0321292959439
 30
0.0
 11
446.8014118160755
 21
271.0321292959439
 31
0.0
  0
LINE
  5
6D5
330
1F
100
AcDbEntity
  8
0
 62
     7
100
AcDbLine
 10
432.8014118160756
 20
271.0321292959439
 30
0.0
 11
432.8014118160756
 21
286.032129295944
 31
0.0
  0
LINE
  5
6D6
330
1F
100
AcDbEntity
  8
0
 62
     7
100
AcDbLine
 10
388.8014118160756
 20
271.0321292959439
 30
0.0
 11
388.8014118160756
 21
286.032129295944
 31
0.0
  0
LINE
  5
6D7
330
1F
100
AcDbEntity
  8
0
 62
     7
100
AcDbLine
 10
370.8014118160757
 20
271.0321292959439
 30
0.0
 11
370.8014118160757
 21
286.032129295944
 31
0.0
  0
LINE
  5
6D8
330
1F
100
AcDbEntity
  8
0
 62
     3
100
AcDbLine
 10
360.8014118160757
 20
271.0321292959439
 30
0.0
 11
360.8014118160757
 21
291.0321292959439
 31
0.0
  0
TEXT
  5
6D9
330
1F
100
AcDbEntity
  8
0
100
AcDbText
 10
438.8306139648373
 20
37.92896457762072
 30
0.0
 40
3.2
  1
I
  7
高3.2
100
AcDbText
  0
TEXT
  5
E2F
330
1F
100
AcDbEntity
  8
0
 62
     4
100
AcDbText
 10
375.0820133707698
 20
80.26350547216544
 30
0.0
 40
4.5
  1
質量：2.2kg
  7
高4.5
100
AcDbText
  0
LINE
  5
11B1
330
1F
100
AcDbEntity
  8
0
 62
     3
100
AcDbLine
 10
395.102048336076
 20
56.69785182594399
 30
0.0
 11
395.102048336076
 21
62.69785182594397
 31
0.0
  0
LINE
  5
11B4
330
1F
100
AcDbEntity
  8
0
 62
     3
100
AcDbLine
 10
421.1020483360756
 20
56.69785182594399
 30
0.0
 11
421.1020483360756
 21
62.69785182594397
 31
0.0
  0
TEXT
  5
1BFA
330
1F
100
AcDbEntity
  8
0
 62
     4
100
AcDbText
 10
245.921398736389
 20
137.9382112809546
 30
0.0
 40
3.0
  1
サンピーキャップ
100
AcDbText
1001
ACAD
1000
MTEXTBEGIN
1070
    73
1070
     1
1070
    44
1040
1.0
1070
    74
1070
     0
1000
MTEXTEND
  0
TEXT
  5
1BFB
330
1F
100
AcDbEntity
  8
0
 62
     4
100
AcDbText
 10
258.521398736389
 20
132.9382112809546
 30
0.0
 40
3.0
  1
ウ25ミリ
100
AcDbText
1001
ACAD
1000
MTEXTBEGIN
1070
    73
1070
     1
1070
    44
1040
1.0
1070
    74
1070
     0
1000
MTEXTEND
  0
LINE
  5
1BFE
330
1F
100
AcDbEntity
  8
0
100
AcDbLine
 10
134.1328796454198
 20
187.1384108094151
 30
0.0
 11
134.1328796454198
 21
172.0638951161238
 31
0.0
  0
LINE
  5
1BFF
330
1F
100
AcDbEntity
  8
0
100
AcDbLine
 10
126.1328796454198
 20
186.0134108094151
 30
0.0
 11
126.1328796454198
 21
172.0638951161238
 31
0.0
  0
LINE
  5
1C00
330
1F
100
AcDbEntity
  8
0
100
AcDbLine
 10
131.6328796454198
 20
173.3138951161238
 30
0.0
 11
128.6328796454198
 21
173.3138951161238
 31
0.0
  0
TEXT
  5
1C04
330
1F
100
AcDbEntity
  8
0
 62
     4
100
AcDbText
 10
298.9915539775914
 20
135.5788539294551
 30
0.0
 40
3.0
  1
C1.5
 50
314.9999999999999
100
AcDbText
1001
ACAD
1000
MTEXTBEGIN
1070
    73
1070
     1
1070
    44
1040
1.0
1070
    74
1070
     0
1000
MTEXTEND
  0
TEXT
  5
1C07
330
1F
100
AcDbEntity
  8
0
 62
     4
100
AcDbText
 10
87.79504920668278
 20
203.3156996807795
 30
0.0
 40
3.0
  1
この面、穴なし
100
AcDbText
1001
ACAD
1000
MTEXTBEGIN
1070
    73
1070
     1
1070
    44
1040
1.0
1070
    74
1070
     0
1000
MTEXTEND
  0
TEXT
  5
1C0A
330
1F
100
AcDbEntity
  8
0
 62
     4
100
AcDbText
 10
152.462940077972
 20
92.36575632771771
 30
0.0
 40
3.0
  1
12x36長穴
100
AcDbText
1001
ACAD
1000
MTEXTBEGIN
1070
    73
1070
     1
1070
    44
1040
1.0
1070
    74
1070
     0
1000
MTEXTEND
  0
TEXT
  5
1C0B
330
1F
100
AcDbEntity
  8
0
 62
     4
100
AcDbText
 10
152.462940077972
 20
87.36575632771771
 30
0.0
 40
3.0
  1
(板金およびパイプ)
100
AcDbText
1001
ACAD
1000
MTEXTBEGIN
1070
    73
1070
     1
1070
    44
1040
1.0
1070
    74
1070
     0
1000
MTEXTEND
  0
LINE
  5
1C0E
330
1F
100
AcDbEntity
  8
0
100
AcDbLine
 10
288.6231136211489
 20
144.9384108094152
 30
0.0
 11
300.8801181560248
 21
144.9384108094152
 31
0.0
  0
LINE
  5
1C0F
330
1F
100
AcDbEntity
  8
0
100
AcDbLine
 10
290.1231136211489
 20
150.9384108094153
 30
0.0
 11
300.8801181560248
 21
150.9384108094153
 31
0.0
  0
LINE
  5
1C10
330
1F
100
AcDbEntity
  8
0
100
AcDbLine
 10
299.6301181560248
 20
142.4384108094152
 30
0.0
 11
299.6301181560248
 21
139.9384108094152
 31
0.0
  0
LINE
  5
1C11
330
1F
100
AcDbEntity
  8
0
100
AcDbLine
 10
299.6301181560248
 20
153.4384108094153
 30
0.0
 11
299.6301181560248
 21
162.1884108094155
 31
0.0
  0
LINE
  5
1C12
330
1F
100
AcDbEntity
  8
0
100
AcDbLine
 10
299.6301181560248
 20
144.9384108094152
 30
0.0
 11
299.6301181560248
 21
150.9384108094153
 31
0.0
  0
LINE
  5
1C16
330
1F
100
AcDbEntity
  8
0
100
AcDbLine
 10
148.3828796454195
 20
124.9055402522465
 30
0.0
 11
154.8481447274878
 21
124.9055402522465
 31
0.0
  0
LINE
  5
1C17
330
1F
100
AcDbEntity
  8
0
100
AcDbLine
 10
148.3828796454195
 20
112.4055402522465
 30
0.0
 11
154.8481447274878
 21
112.4055402522465
 31
0.0
  0
LINE
  5
1C18
330
1F
100
AcDbEntity
  8
0
100
AcDbLine
 10
153.5981447274878
 20
109.9055402522465
 30
0.0
 11
153.5981447274878
 21
107.4055402522465
 31
0.0
  0
LINE
  5
1C19
330
1F
100
AcDbEntity
  8
0
100
AcDbLine
 10
153.5981447274878
 20
127.4055402522465
 30
0.0
 11
153.5981447274878
 21
135.6555402522469
 31
0.0
  0
LINE
  5
1C1A
330
1F
100
AcDbEntity
  8
0
100
AcDbLine
 10
153.5981447274878
 20
112.4055402522465
 30
0.0
 11
153.5981447274878
 21
124.9055402522465
 31
0.0
  0
LINE
  5
1C1E
330
1F
100
AcDbEntity
  8
0
100
AcDbLine
 10
134.1328796454198
 20
99.65554025224662
 30
0.0
 11
134.1328796454198
 21
90.95801991377578
 31
0.0
  0
LINE
  5
1C1F
330
1F
100
AcDbEntity
  8
0
100
AcDbLine
 10
126.1328796454198
 20
99.65554025224662
 30
0.0
 11
126.1328796454198
 21
90.95801991377578
 31
0.0
  0
LINE
  5
1C20
330
1F
100
AcDbEntity
  8
0
100
AcDbLine
 10
131.6328796454198
 20
92.20801991377578
 30
0.0
 11
128.6328796454198
 21
92.20801991377578
 31
0.0
  0
LINE
  5
1C24
330
1F
100
AcDbEntity
  8
0
100
AcDbLine
 10
144.1328796454195
 20
129.1099736764791
 30
0.0
 11
144.1328796454195
 21
142.9147571896765
 31
0.0
  0
LINE
  5
1C25
330
1F
100
AcDbEntity
  8
0
100
AcDbLine
 10
138.1328796454195
 20
129.1099736764791
 30
0.0
 11
138.1328796454195
 21
142.9147571896765
 31
0.0
  0
LINE
  5
1C26
330
1F
100
AcDbEntity
  8
0
100
AcDbLine
 10
135.6328796454195
 20
141.6647571896765
 30
0.0
 11
133.1328796454195
 21
141.6647571896765
 31
0.0
  0
LINE
  5
1C27
330
1F
100
AcDbEntity
  8
0
100
AcDbLine
 10
146.6328796454195
 20
141.6647571896765
 30
0.0
 11
155.3828796454195
 21
141.6647571896765
 31
0.0
  0
LINE
  5
1C28
330
1F
100
AcDbEntity
  8
0
100
AcDbLine
 10
138.1328796454195
 20
141.6647571896765
 30
0.0
 11
144.1328796454195
 21
141.6647571896765
 31
0.0
  0
LINE
  5
1C2C
330
1F
100
AcDbEntity
  8
0
100
AcDbLine
 10
132.1565903568683
 20
108.9601158613629
 30
0.0
 11
133.4622101707062
 21
111.092100125309
 31
0.0
  0
LINE
  5
1C2D
330
1F
100
AcDbEntity
  8
0
100
AcDbLine
 10
128.1091689339707
 20
102.35096464313
 30
0.0
 11
116.3324782131526
 21
83.12046658233605
 31
0.0
  0
LINE
  5
1C2E
330
1F
100
AcDbEntity
  8
0
100
AcDbLine
 10
130.8509705430304
 20
106.8281315974168
 30
0.0
 11
129.4147887478087
 21
104.4829489070761
 31
0.0
  0
LINE
  5
1C32
330
1F
100
AcDbEntity
  8
0
100
AcDbLine
 10
123.7809626249102
 20
131.6555402522465
 30
0.0
 11
108.8802625050028
 21
131.6555402522465
 31
0.0
  0
LINE
  5
1C33
330
1F
100
AcDbEntity
  8
0
100
AcDbLine
 10
123.7809626249102
 20
105.6555402522465
 30
0.0
 11
108.8802625050028
 21
105.6555402522465
 31
0.0
  0
LINE
  5
1C34
330
1F
100
AcDbEntity
  8
0
100
AcDbLine
 10
110.1302625050028
 20
129.1555402522465
 30
0.0
 11
110.1302625050028
 21
108.1555402522465
 31
0.0
  0
LINE
  5
1C38
330
1F
100
AcDbEntity
  8
0
100
AcDbLine
 10
130.1328796454195
 20
139.3144071007117
 30
0.0
 11
130.1328796454195
 21
142.9147571896765
 31
0.0
  0
LINE
  5
1C39
330
1F
100
AcDbEntity
  8
0
100
AcDbLine
 10
138.1328796454195
 20
129.1099736764791
 30
0.0
 11
138.1328796454195
 21
142.9147571896765
 31
0.0
  0
LINE
  5
1C3A
330
1F
100
AcDbEntity
  8
0
100
AcDbLine
 10
132.6328796454195
 20
141.6647571896765
 30
0.0
 11
135.6328796454195
 21
141.6647571896765
 31
0.0
  0
LINE
  5
1C3E
330
1F
100
AcDbEntity
  8
0
100
AcDbLine
 10
130.1328796454195
 20
139.3144071007117
 30
0.0
 11
130.1328796454195
 21
142.9147571896765
 31
0.0
  0
LINE
  5
1C3F
330
1F
100
AcDbEntity
  8
0
100
AcDbLine
 10
126.1328796454198
 20
137.6555402522466
 30
0.0
 11
126.1328796454198
 21
142.9147571896765
 31
0.0
  0
LINE
  5
1C40
330
1F
100
AcDbEntity
  8
0
100
AcDbLine
 10
132.6328796454195
 20
141.6647571896765
 30
0.0
 11
135.1328796454195
 21
141.6647571896765
 31
0.0
  0
LINE
  5
1C41
330
1F
100
AcDbEntity
  8
0
100
AcDbLine
 10
123.6328796454198
 20
141.6647571896765
 30
0.0
 11
115.8828796454198
 21
141.6647571896765
 31
0.0
  0
LINE
  5
1C42
330
1F
100
AcDbEntity
  8
0
100
AcDbLine
 10
130.1328796454195
 20
141.6647571896765
 30
0.0
 11
126.1328796454198
 21
141.6647571896765
 31
0.0
  0
LINE
  5
1C46
330
1F
100
AcDbEntity
  8
0
100
AcDbLine
 10
126.1328796454198
 20
137.6555402522466
 30
0.0
 11
126.1328796454198
 21
153.4231779362684
 31
0.0
  0
LINE
  5
1C47
330
1F
100
AcDbEntity
  8
0
100
AcDbLine
 10
148.1328796454195
 20
125.1555402522465
 30
0.0
 11
148.1328796454195
 21
153.4231779362684
 31
0.0
  0
LINE
  5
1C48
330
1F
100
AcDbEntity
  8
0
100
AcDbLine
 10
128.6328796454198
 20
152.1731779362684
 30
0.0
 11
145.6328796454195
 21
152.1731779362684
 31
0.0
  0
LINE
  5
1C4C
330
1F
100
AcDbEntity
  8
0
100
AcDbLine
 10
125.8828796454198
 20
137.4055402522466
 30
0.0
 11
101.3983712917559
 21
137.4055402522466
 31
0.0
  0
LINE
  5
1C4D
330
1F
100
AcDbEntity
  8
0
100
AcDbLine
 10
125.8828796454198
 20
99.90554025224662
 30
0.0
 11
101.3983712917559
 21
99.90554025224662
 31
0.0
  0
LINE
  5
1C4E
330
1F
100
AcDbEntity
  8
0
100
AcDbLine
 10
102.6483712917559
 20
134.9055402522466
 30
0.0
 11
102.6483712917559
 21
102.4055402522466
 31
0.0
  0
LINE
  5
1C52
330
1F
100
AcDbEntity
  8
0
100
AcDbLine
 10
123.7809626249102
 20
109.5305402522465
 30
0.0
 11
114.2687203800254
 21
109.5305402522465
 31
0.0
  0
LINE
  5
1C53
330
1F
100
AcDbEntity
  8
0
100
AcDbLine
 10
123.7809626249102
 20
127.7805402522465
 30
0.0
 11
114.2687203800254
 21
127.7805402522465
 31
0.0
  0
LINE
  5
1C54
330
1F
100
AcDbEntity
  8
0
100
AcDbLine
 10
115.5187203800254
 20
112.0305402522465
 30
0.0
 11
115.5187203800254
 21
125.2805402522465
 31
0.0
  0
LINE
  5
1C58
330
1F
100
AcDbEntity
  8
0
100
AcDbLine
 10
319.6819063537976
 20
165.9384108094151
 30
0.0
 11
300.663927369931
 21
165.9384108094151
 31
0.0
  0
LINE
  5
1C59
330
1F
100
AcDbEntity
  8
0
100
AcDbLine
 10
142.3828796454198
 20
186.2634108094151
 30
0.0
 11
303.163927369931
 21
186.263410809415
 31
0.0
  0
LINE
  5
1C5A
330
1F
100
AcDbEntity
  8
0
100
AcDbLine
 10
301.9139273699309
 20
168.4384108094151
 30
0.0
 11
301.9139273699309
 21
183.763410809415
 31
0.0
  0
LINE
  5
1C5E
330
1F
100
AcDbEntity
  8
0
100
AcDbLine
 10
407.5959901786561
 20
163.4009353473061
 30
0.0
 11
406.2453552822602
 21
161.2971802815635
 31
0.0
  0
LINE
  5
1C5F
330
1F
100
AcDbEntity
  8
0
100
AcDbLine
 10
411.1751726541057
 20
168.975886271524
 30
0.0
 11
423.8981533781555
 21
188.7932589908183
 31
0.0
  0
LINE
  5
1C60
330
1F
100
AcDbEntity
  8
0
100
AcDbLine
 10
408.9466250750522
 20
165.5046904130486
 30
0.0
 11
409.8245377577097
 21
166.8721312057815
 31
0.0
  0
LINE
  5
1C64
330
1F
100
AcDbEntity
  8
0
100
AcDbLine
 10
413.1355814163801
 20
150.9384108094152
 30
0.0
 11
413.1355814163801
 21
124.0474741642546
 31
0.0
  0
LINE
  5
1C65
330
1F
100
AcDbEntity
  8
0
100
AcDbLine
 10
369.3855814163806
 20
150.9384108094152
 30
0.0
 11
369.3855814163806
 21
124.0474741642546
 31
0.0
  0
LINE
  5
1C66
330
1F
100
AcDbEntity
  8
0
100
AcDbLine
 10
410.6355814163801
 20
125.2974741642546
 30
0.0
 11
371.8855814163806
 21
125.2974741642546
 31
0.0
  0
LINE
  5
1C6A
330
1F
100
AcDbEntity
  8
0
100
AcDbLine
 10
384.3855814163806
 20
151.9384108094151
 30
0.0
 11
384.3855814163806
 21
131.6970628735357
 31
0.0
  0
LINE
  5
1C6B
330
1F
100
AcDbEntity
  8
0
100
AcDbLine
 10
373.1355814163806
 20
151.9384108094151
 30
0.0
 11
373.1355814163806
 21
131.6970628735357
 31
0.0
  0
LINE
  5
1C6C
330
1F
100
AcDbEntity
  8
0
100
AcDbLine
 10
381.8855814163806
 20
132.9470628735357
 30
0.0
 11
375.6355814163806
 21
132.9470628735357
 31
0.0
  0
LINE
  5
1C70
330
1F
100
AcDbEntity
  8
0
100
AcDbLine
 10
409.3855814163806
 20
151.9384108094151
 30
0.0
 11
409.3855814163806
 21
131.6970628735357
 31
0.0
  0
LINE
  5
1C71
330
1F
100
AcDbEntity
  8
0
100
AcDbLine
 10
398.1355814163806
 20
151.9384108094151
 30
0.0
 11
398.1355814163806
 21
131.6970628735357
 31
0.0
  0
LINE
  5
1C72
330
1F
100
AcDbEntity
  8
0
100
AcDbLine
 10
406.8855814163805
 20
132.9470628735357
 30
0.0
 11
400.6355814163805
 21
132.9470628735357
 31
0.0
  0
LINE
  5
1C76
330
1F
100
AcDbEntity
  8
0
100
AcDbLine
 10
398.1355814163806
 20
151.9384108094151
 30
0.0
 11
398.1355814163806
 21
131.6970628735355
 31
0.0
  0
LINE
  5
1C77
330
1F
100
AcDbEntity
  8
0
100
AcDbLine
 10
384.3855814163806
 20
151.9384108094151
 30
0.0
 11
384.3855814163806
 21
131.6970628735355
 31
0.0
  0
LINE
  5
1C78
330
1F
100
AcDbEntity
  8
0
100
AcDbLine
 10
395.6355814163806
 20
132.9470628735355
 30
0.0
 11
386.8855814163806
 21
132.9470628735355
 31
0.0
  0
LINE
  5
1C7C
330
1F
100
AcDbEntity
  8
0
100
AcDbLine
 10
323.7953796454197
 20
144.5634108094151
 30
0.0
 11
323.7953796454197
 21
128.7143621252116
 31
0.0
  0
LINE
  5
1C7D
330
1F
100
AcDbEntity
  8
0
100
AcDbLine
 10
319.4203796454199
 20
144.5634108094151
 30
0.0
 11
319.4203796454199
 21
128.7143621252116
 31
0.0
  0
LINE
  5
1C7E
330
1F
100
AcDbEntity
  8
0
100
AcDbLine
 10
316.9203796454199
 20
129.9643621252116
 30
0.0
 11
314.4203796454199
 21
129.9643621252116
 31
0.0
  0
LINE
  5
1C7F
330
1F
100
AcDbEntity
  8
0
100
AcDbLine
 10
326.2953796454197
 20
129.9643621252116
 30
0.0
 11
345.0453796454197
 21
129.9643621252116
 31
0.0
  0
LINE
  5
1C80
330
1F
100
AcDbEntity
  8
0
100
AcDbLine
 10
319.4203796454199
 20
129.9643621252116
 30
0.0
 11
323.7953796454197
 21
129.9643621252116
 31
0.0
  0
LINE
  5
1C84
330
1F
100
AcDbEntity
  8
0
100
AcDbLine
 10
325.0078796454198
 20
151.1884108094153
 30
0.0
 11
325.0078796454198
 21
153.6297475030121
 31
0.0
  0
LINE
  5
1C85
330
1F
100
AcDbEntity
  8
0
100
AcDbLine
 10
326.1328796454198
 20
151.1884108094153
 30
0.0
 11
326.1328796454198
 21
153.6297475030121
 31
0.0
  0
LINE
  5
1C86
330
1F
100
AcDbEntity
  8
0
100
AcDbLine
 10
322.5078796454198
 20
152.3797475030121
 30
0.0
 11
320.0078796454198
 21
152.3797475030121
 31
0.0
  0
LINE
  5
1C87
330
1F
100
AcDbEntity
  8
0
100
AcDbLine
 10
328.6328796454198
 20
152.3797475030121
 30
0.0
 11
344.8828796454198
 21
152.3797475030121
 31
0.0
  0
LINE
  5
1C88
330
1F
100
AcDbEntity
  8
0
100
AcDbLine
 10
325.0078796454198
 20
152.3797475030121
 30
0.0
 11
326.1328796454198
 21
152.3797475030121
 31
0.0
  0
LINE
  5
1C8C
330
1F
100
AcDbEntity
  8
0
100
AcDbLine
 10
213.1703796454197
 20
187.3884108094151
 30
0.0
 11
203.8927811738011
 21
187.3884108094151
 31
0.0
  0
LINE
  5
1C8D
330
1F
100
AcDbEntity
  8
0
100
AcDbLine
 10
217.1703796454197
 20
194.1884108094151
 30
0.0
 11
203.8927811738011
 21
194.1884108094151
 31
0.0
  0
LINE
  5
1C8E
330
1F
100
AcDbEntity
  8
0
100
AcDbLine
 10
205.1427811738011
 20
196.6884108094151
 30
0.0
 11
205.1427811738011
 21
199.1884108094151
 31
0.0
  0
LINE
  5
1C8F
330
1F
100
AcDbEntity
  8
0
100
AcDbLine
 10
205.1427811738011
 20
184.8884108094151
 30
0.0
 11
205.1427811738011
 21
146.338410809415
 31
0.0
  0
LINE
  5
1C90
330
1F
100
AcDbEntity
  8
0
100
AcDbLine
 10
205.1427811738011
 20
194.1884108094151
 30
0.0
 11
205.1427811738011
 21
187.3884108094151
 31
0.0
  0
LINE
  5
1C94
330
1F
100
AcDbEntity
  8
0
100
AcDbLine
 10
125.8828796454198
 20
187.3884108094151
 30
0.0
 11
117.7475019766382
 21
187.3884108094151
 31
0.0
  0
LINE
  5
1C95
330
1F
100
AcDbEntity
  8
0
100
AcDbLine
 10
125.8828796454198
 20
186.2634108094151
 30
0.0
 11
117.7475019766382
 21
186.2634108094151
 31
0.0
  0
LINE
  5
1C96
330
1F
100
AcDbEntity
  8
0
100
AcDbLine
 10
118.9975019766382
 20
189.8884108094151
 30
0.0
 11
118.9975019766382
 21
192.3884108094151
 31
0.0
  0
LINE
  5
1C97
330
1F
100
AcDbEntity
  8
0
100
AcDbLine
 10
118.9975019766382
 20
183.7634108094151
 30
0.0
 11
118.9975019766382
 21
167.5134108094151
 31
0.0
  0
LINE
  5
1C98
330
1F
100
AcDbEntity
  8
0
100
AcDbLine
 10
118.9975019766382
 20
187.3884108094151
 30
0.0
 11
118.9975019766382
 21
186.2634108094151
 31
0.0
  0
LINE
  5
1C9C
330
1F
100
AcDbEntity
  8
0
100
AcDbLine
 10
326.1328796454198
 20
169.9384108094153
 30
0.0
 11
326.1328796454198
 21
212.6671103543633
 31
0.0
  0
LINE
  5
1C9D
330
1F
100
AcDbEntity
  8
0
100
AcDbLine
 10
130.1328796454198
 20
192.0979638179253
 30
0.0
 11
130.1328796454198
 21
212.6671103543633
 31
0.0
  0
LINE
  5
1C9E
330
1F
100
AcDbEntity
  8
0
100
AcDbLine
 10
323.6328796454198
 20
211.4171103543633
 30
0.0
 11
132.6328796454198
 21
211.4171103543633
 31
0.0
  0
LINE
  5
1CA2
330
1F
100
AcDbEntity
  8
0
100
AcDbLine
 10
326.3828796454198
 20
150.9384108094153
 30
0.0
 11
349.1294868724016
 21
150.9384108094153
 31
0.0
  0
LINE
  5
1CA3
330
1F
100
AcDbEntity
  8
0
100
AcDbLine
 10
325.43287964542
 20
144.1884108094152
 30
0.0
 11
349.1294868724016
 21
144.1884108094152
 31
0.0
  0
LINE
  5
1CA4
330
1F
100
AcDbEntity
  8
0
100
AcDbLine
 10
347.8794868724016
 20
148.4384108094153
 30
0.0
 11
347.8794868724016
 21
146.6884108094152
 31
0.0
  0
LINE
  5
1CA8
330
1F
100
AcDbEntity
  8
0
100
AcDbLine
 10
413.3855814163801
 20
169.9384108094152
 30
0.0
 11
426.7456391240956
 21
169.9384108094152
 31
0.0
  0
LINE
  5
1CA9
330
1F
100
AcDbEntity
  8
0
100
AcDbLine
 10
413.3855814163801
 20
151.1884108094152
 30
0.0
 11
426.7456391240956
 21
151.1884108094152
 31
0.0
  0
LINE
  5
1CAA
330
1F
100
AcDbEntity
  8
0
100
AcDbLine
 10
425.4956391240956
 20
167.4384108094152
 30
0.0
 11
425.4956391240956
 21
153.6884108094152
 31
0.0
  0
LINE
  5
1CAE
330
1F
100
AcDbEntity
  8
0
100
AcDbLine
 10
412.3855814163806
 20
166.1884108094151
 30
0.0
 11
420.4984145714119
 21
166.1884108094151
 31
0.0
  0
LINE
  5
1CAF
330
1F
100
AcDbEntity
  8
0
100
AcDbLine
 10
412.3855814163806
 20
154.9384108094153
 30
0.0
 11
420.4984145714119
 21
154.9384108094153
 31
0.0
  0
LINE
  5
1CB0
330
1F
100
AcDbEntity
  8
0
100
AcDbLine
 10
419.2484145714119
 20
163.6884108094151
 30
0.0
 11
419.2484145714119
 21
157.4384108094153
 31
0.0
  0
LINE
  5
1CB4
330
1F
100
AcDbEntity
  8
0
100
AcDbLine
 10
325.43287964542
 20
144.1884108094152
 30
0.0
 11
357.1816713187444
 21
144.1884108094152
 31
0.0
  0
LINE
  5
1CB5
330
1F
100
AcDbEntity
  8
0
100
AcDbLine
 10
300.9578796454198
 20
194.1884108094151
 30
0.0
 11
357.1816713187444
 21
194.188410809415
 31
0.0
  0
LINE
  5
1CB6
330
1F
100
AcDbEntity
  8
0
100
AcDbLine
 10
355.9316713187444
 20
146.6884108094152
 30
0.0
 11
355.9316713187444
 21
191.688410809415
 31
0.0
  0
LINE
  5
1CBA
330
1F
100
AcDbEntity
  8
0
100
AcDbLine
 10
326.1328796454198
 20
169.9384108094153
 30
0.0
 11
326.1328796454198
 21
221.0593328728266
 31
0.0
  0
LINE
  5
1CBB
330
1F
100
AcDbEntity
  8
0
100
AcDbLine
 10
126.1328796454198
 20
187.6384108094151
 30
0.0
 11
126.1328796454198
 21
221.0593328728266
 31
0.0
  0
LINE
  5
1CBC
330
1F
100
AcDbEntity
  8
0
100
AcDbLine
 10
323.6328796454198
 20
219.8093328728266
 30
0.0
 11
128.6328796454198
 21
219.8093328728266
 31
0.0
  0
LINE
  5
1CC0
330
1F
100
AcDbEntity
  8
0
 62
     3
100
AcDbLine
 10
247.0600378560756
 20
291.5727578359438
 30
0.0
 11
247.0334271060756
 21
291.743140355944
 31
0.0
  0
LINE
  5
1CC1
330
1F
100
AcDbEntity
  8
0
 62
     3
100
AcDbLine
 10
247.0334271060756
 20
291.743140355944
 30
0.0
 11
247.0014682760758
 21
291.906290045944
 31
0.0
  0
LINE
  5
1CC2
330
1F
100
AcDbEntity
  8
0
 62
     3
100
AcDbLine
 10
247.0014682760758
 20
291.906290045944
 30
0.0
 11
246.9644083760757
 21
292.0609458459439
 31
0.0
  0
LINE
  5
1CC3
330
1F
100
AcDbEntity
  8
0
 62
     3
100
AcDbLine
 10
246.9644083760757
 20
292.0609458459439
 30
0.0
 11
246.9225338760755
 21
292.2059123459439
 31
0.0
  0
LINE
  5
1CC4
330
1F
100
AcDbEntity
  8
0
 62
     3
100
AcDbLine
 10
246.9225338760755
 20
292.2059123459439
 30
0.0
 11
246.8761684460756
 21
292.3400690359439
 31
0.0
  0
LINE
  5
1CC5
330
1F
100
AcDbEntity
  8
0
 62
     3
100
AcDbLine
 10
246.8761684460756
 20
292.3400690359439
 30
0.0
 11
246.8256704560757
 21
292.4623789359438
 31
0.0
  0
LINE
  5
1CC6
330
1F
100
AcDbEntity
  8
0
 62
     3
100
AcDbLine
 10
246.8256704560757
 20
292.4623789359438
 30
0.0
 11
246.7714302360758
 21
292.5718966759438
 31
0.0
  0
LINE
  5
1CC7
330
1F
100
AcDbEntity
  8
0
 62
     3
100
AcDbLine
 10
246.7714302360758
 20
292.5718966759438
 30
0.0
 11
246.7138670360756
 21
292.6677757259438
 31
0.0
  0
LINE
  5
1CC8
330
1F
100
AcDbEntity
  8
0
 62
     3
100
AcDbLine
 10
246.7138670360756
 20
292.6677757259438
 30
0.0
 11
246.6534257860756
 21
292.7492749959439
 31
0.0
  0
LINE
  5
1CC9
330
1F
100
AcDbEntity
  8
0
 62
     3
100
AcDbLine
 10
246.6534257860756
 20
292.7492749959439
 30
0.0
 11
246.5905736660757
 21
292.8157645359438
 31
0.0
  0
LINE
  5
1CCA
330
1F
100
AcDbEntity
  8
0
 62
     3
100
AcDbLine
 10
246.5905736660757
 20
292.8157645359438
 30
0.0
 11
246.5257964860755
 21
292.8667304159439
 31
0.0
  0
LINE
  5
1CCB
330
1F
100
AcDbEntity
  8
0
 62
     3
100
AcDbLine
 10
246.5257964860755
 20
292.8667304159439
 30
0.0
 11
246.4595949560756
 21
292.9017786959438
 31
0.0
  0
LINE
  5
1CCC
330
1F
100
AcDbEntity
  8
0
 62
     3
100
AcDbLine
 10
246.4595949560756
 20
292.9017786959438
 30
0.0
 11
246.3924807660756
 21
292.920638465944
 31
0.0
  0
LINE
  5
1CCD
330
1F
100
AcDbEntity
  8
0
 62
     3
100
AcDbLine
 10
246.3924807660756
 20
292.920638465944
 30
0.0
 11
246.3249726760756
 21
292.9231639659438
 31
0.0
  0
LINE
  5
1CCE
330
1F
100
AcDbEntity
  8
0
 62
     3
100
AcDbLine
 10
246.3249726760756
 20
292.9231639659438
 30
0.0
 11
246.2575924860756
 21
292.9093356559438
 31
0.0
  0
LINE
  5
1CCF
330
1F
100
AcDbEntity
  8
0
 62
     3
100
AcDbLine
 10
246.2575924860756
 20
292.9093356559438
 30
0.0
 11
246.1908610160756
 21
292.8792604259438
 31
0.0
  0
LINE
  5
1CD0
330
1F
100
AcDbEntity
  8
0
 62
     3
100
AcDbLine
 10
246.1908610160756
 20
292.8792604259438
 30
0.0
 11
246.1252940760758
 21
292.8331707559438
 31
0.0
  0
LINE
  5
1CD1
330
1F
100
AcDbEntity
  8
0
 62
     3
100
AcDbLine
 10
246.1252940760758
 20
292.8331707559438
 30
0.0
 11
246.0613984360755
 21
292.771422875944
 31
0.0
  0
LINE
  5
1CD2
330
1F
100
AcDbEntity
  8
0
 62
     3
100
AcDbLine
 10
246.0613984360755
 20
292.771422875944
 30
0.0
 11
245.9996680060756
 21
292.694494085944
 31
0.0
  0
LINE
  5
1CD3
330
1F
100
AcDbEntity
  8
0
 62
     3
100
AcDbLine
 10
245.9996680060756
 20
292.694494085944
 30
0.0
 11
245.9405799160757
 21
292.602978985944
 31
0.0
  0
LINE
  5
1CD4
330
1F
100
AcDbEntity
  8
0
 62
     3
100
AcDbLine
 10
245.9405799160757
 20
292.602978985944
 30
0.0
 11
245.8845908860756
 21
292.497584955944
 31
0.0
  0
LINE
  5
1CD5
330
1F
100
AcDbEntity
  8
0
 62
     3
100
AcDbLine
 10
245.8845908860756
 20
292.497584955944
 30
0.0
 11
245.8321336860757
 21
292.379126625944
 31
0.0
  0
LINE
  5
1CD6
330
1F
100
AcDbEntity
  8
0
 62
     3
100
AcDbLine
 10
245.8321336860757
 20
292.379126625944
 30
0.0
 11
245.7836137860757
 21
292.2485196159438
 31
0.0
  0
LINE
  5
1CD7
330
1F
100
AcDbEntity
  8
0
 62
     3
100
AcDbLine
 10
245.7836137860757
 20
292.2485196159438
 30
0.0
 11
245.7394062060758
 21
292.1067734659438
 31
0.0
  0
LINE
  5
1CD8
330
1F
100
AcDbEntity
  8
0
 62
     3
100
AcDbLine
 10
245.7394062060758
 20
292.1067734659438
 30
0.0
 11
245.6998526660758
 21
291.954983795944
 31
0.0
  0
LINE
  5
1CD9
330
1F
100
AcDbEntity
  8
0
 62
     3
100
AcDbLine
 10
245.6998526660758
 20
291.954983795944
 30
0.0
 11
245.6652588860757
 21
291.7943238559439
 31
0.0
  0
LINE
  5
1CDA
330
1F
100
AcDbEntity
  8
0
 62
     3
100
AcDbLine
 10
245.6652588860757
 20
291.7943238559439
 30
0.0
 11
245.6358922560756
 21
291.626035465944
 31
0.0
  0
LINE
  5
1CDB
330
1F
100
AcDbEntity
  8
0
 62
     3
100
AcDbLine
 10
245.6358922560756
 20
291.626035465944
 30
0.0
 11
245.6119797660757
 21
291.451419405944
 31
0.0
  0
LINE
  5
1CDC
330
1F
100
AcDbEntity
  8
0
 62
     3
100
AcDbLine
 10
245.6119797660757
 20
291.451419405944
 30
0.0
 11
245.5937062560757
 21
291.271825375944
 31
0.0
  0
LINE
  5
1CDD
330
1F
100
AcDbEntity
  8
0
 62
     3
100
AcDbLine
 10
245.5937062560757
 20
291.271825375944
 30
0.0
 11
245.5812129560757
 21
291.0886415359438
 31
0.0
  0
LINE
  5
1CDE
330
1F
100
AcDbEntity
  8
0
 62
     3
100
AcDbLine
 10
245.5812129560757
 20
291.0886415359438
 30
0.0
 11
245.5745964460755
 21
290.903283815944
 31
0.0
  0
LINE
  5
1CDF
330
1F
100
AcDbEntity
  8
0
 62
     3
100
AcDbLine
 10
245.5745964460755
 20
290.903283815944
 30
0.0
 11
245.5739078560756
 21
290.7171849159439
 31
0.0
  0
LINE
  5
1CE0
330
1F
100
AcDbEntity
  8
0
 62
     3
100
AcDbLine
 10
245.5739078560756
 20
290.7171849159439
 30
0.0
 11
245.5791525160758
 21
290.5317833059438
 31
0.0
  0
LINE
  5
1CE1
330
1F
100
AcDbEntity
  8
0
 62
     3
100
AcDbLine
 10
245.5791525160758
 20
290.5317833059438
 30
0.0
 11
245.5902898860757
 21
290.3485120359439
 31
0.0
  0
LINE
  5
1CE2
330
1F
100
AcDbEntity
  8
0
 62
     3
100
AcDbLine
 10
245.5902898860757
 20
290.3485120359439
 30
0.0
 11
245.6072338860757
 21
290.168787695944
 31
0.0
  0
LINE
  5
1CE3
330
1F
100
AcDbEntity
  8
0
 62
     3
100
AcDbLine
 10
245.6072338860757
 20
290.168787695944
 30
0.0
 11
245.6298535360757
 21
289.9939994659439
 31
0.0
  0
LINE
  5
1CE4
330
1F
100
AcDbEntity
  8
0
 62
     3
100
AcDbLine
 10
245.6298535360757
 20
289.9939994659439
 30
0.0
 11
245.6579740060757
 21
289.825498365944
 31
0.0
  0
LINE
  5
1CE5
330
1F
100
AcDbEntity
  8
0
 62
     3
100
AcDbLine
 10
245.6579740060757
 20
289.825498365944
 30
0.0
 11
245.6913779360755
 21
289.664586825944
 31
0.0
  0
LINE
  5
1CE6
330
1F
100
AcDbEntity
  8
0
 62
     3
100
AcDbLine
 10
245.6913779360755
 20
289.664586825944
 30
0.0
 11
245.7298071360757
 21
289.512508605944
 31
0.0
  0
LINE
  5
1CE7
330
1F
100
AcDbEntity
  8
0
 62
     3
100
AcDbLine
 10
245.7298071360757
 20
289.512508605944
 30
0.0
 11
245.7729645560756
 21
289.370439195944
 31
0.0
  0
LINE
  5
1CE8
330
1F
100
AcDbEntity
  8
0
 62
     3
100
AcDbLine
 10
245.7729645560756
 20
289.370439195944
 30
0.0
 11
245.8205166260758
 21
289.239476715944
 31
0.0
  0
LINE
  5
1CE9
330
1F
100
AcDbEntity
  8
0
 62
     3
100
AcDbLine
 10
245.8205166260758
 20
289.239476715944
 30
0.0
 11
245.8720957760757
 21
289.120633435944
 31
0.0
  0
LINE
  5
1CEA
330
1F
100
AcDbEntity
  8
0
 62
     3
100
AcDbLine
 10
245.8720957760757
 20
289.120633435944
 30
0.0
 11
245.9273033460757
 21
289.014827965944
 31
0.0
  0
LINE
  5
1CEB
330
1F
100
AcDbEntity
  8
0
 62
     3
100
AcDbLine
 10
245.9273033460757
 20
289.014827965944
 30
0.0
 11
245.9857125960756
 21
288.9228781059439
 31
0.0
  0
LINE
  5
1CEC
330
1F
100
AcDbEntity
  8
0
 62
     3
100
AcDbLine
 10
245.9857125960756
 20
288.9228781059439
 30
0.0
 11
246.0468720560755
 21
288.8454946059438
 31
0.0
  0
LINE
  5
1CED
330
1F
100
AcDbEntity
  8
0
 62
     3
100
AcDbLine
 10
246.0468720560755
 20
288.8454946059438
 30
0.0
 11
246.1103089960757
 21
288.7832755859438
 31
0.0
  0
LINE
  5
1CEE
330
1F
100
AcDbEntity
  8
0
 62
     3
100
AcDbLine
 10
246.1103089960757
 20
288.7832755859438
 30
0.0
 11
246.1755330760758
 21
288.7367019759438
 31
0.0
  0
LINE
  5
1CEF
330
1F
100
AcDbEntity
  8
0
 62
     3
100
AcDbLine
 10
246.1755330760758
 20
288.7367019759438
 30
0.0
 11
246.2420401560756
 21
288.706133745944
 31
0.0
  0
LINE
  5
1CF0
330
1F
100
AcDbEntity
  8
0
 62
     3
100
AcDbLine
 10
246.2420401560756
 20
288.706133745944
 30
0.0
 11
246.3093161660757
 21
288.691807195944
 31
0.0
  0
LINE
  5
1CF1
330
1F
100
AcDbEntity
  8
0
 62
     3
100
AcDbLine
 10
246.3093161660757
 20
288.691807195944
 30
0.0
 11
246.3768410960757
 21
288.693833055944
 31
0.0
  0
LINE
  5
1CF2
330
1F
100
AcDbEntity
  8
0
 62
     3
100
AcDbLine
 10
246.3768410960757
 20
288.693833055944
 30
0.0
 11
246.4440930160757
 21
288.7121956559438
 31
0.0
  0
LINE
  5
1CF3
330
1F
100
AcDbEntity
  8
0
 62
     3
100
AcDbLine
 10
246.4440930160757
 20
288.7121956559438
 30
0.0
 11
246.5105520960756
 21
288.7467530759439
 31
0.0
  0
LINE
  5
1CF4
330
1F
100
AcDbEntity
  8
0
 62
     3
100
AcDbLine
 10
246.5105520960756
 20
288.7467530759439
 30
0.0
 11
246.5757046560755
 21
288.797238205944
 31
0.0
  0
LINE
  5
1CF5
330
1F
100
AcDbEntity
  8
0
 62
     3
100
AcDbLine
 10
246.5757046560755
 20
288.797238205944
 30
0.0
 11
246.6390470860757
 21
288.863260805944
 31
0.0
  0
LINE
  5
1CF6
330
1F
100
AcDbEntity
  8
0
 62
     3
100
AcDbLine
 10
246.6390470860757
 20
288.863260805944
 30
0.0
 11
246.7000897860756
 21
288.944310565944
 31
0.0
  0
LINE
  5
1CF7
330
1F
100
AcDbEntity
  8
0
 62
     3
100
AcDbLine
 10
246.7000897860756
 20
288.944310565944
 30
0.0
 11
246.7583609260758
 21
289.0397610159439
 31
0.0
  0
LINE
  5
1CF8
330
1F
100
AcDbEntity
  8
0
 62
     3
100
AcDbLine
 10
246.7583609260758
 20
289.0397610159439
 30
0.0
 11
246.8134101060755
 21
289.148874375944
 31
0.0
  0
LINE
  5
1CF9
330
1F
100
AcDbEntity
  8
0
 62
     3
100
AcDbLine
 10
246.8134101060755
 20
289.148874375944
 30
0.0
 11
246.8648118260756
 21
289.270807235944
 31
0.0
  0
LINE
  5
1CFA
330
1F
100
AcDbEntity
  8
0
 62
     3
100
AcDbLine
 10
246.8648118260756
 20
289.270807235944
 30
0.0
 11
246.9121687660757
 21
289.4046171459438
 31
0.0
  0
LINE
  5
1CFB
330
1F
100
AcDbEntity
  8
0
 62
     3
100
AcDbLine
 10
246.9121687660757
 20
289.4046171459438
 30
0.0
 11
246.9551148860758
 21
289.549269795944
 31
0.0
  0
LINE
  5
1CFC
330
1F
100
AcDbEntity
  8
0
 62
     3
100
AcDbLine
 10
246.9551148860758
 20
289.549269795944
 30
0.0
 11
246.9933182360758
 21
289.7036471159438
 31
0.0
  0
LINE
  5
1CFD
330
1F
100
AcDbEntity
  8
0
 62
     3
100
AcDbLine
 10
246.9933182360758
 20
289.7036471159438
 30
0.0
 11
247.0264835260755
 21
289.866555845944
 31
0.0
  0
LINE
  5
1CFE
330
1F
100
AcDbEntity
  8
0
 62
     3
100
AcDbLine
 10
247.0264835260755
 20
289.866555845944
 30
0.0
 11
247.0543544060757
 21
290.0367367759439
 31
0.0
  0
LINE
  5
1CFF
330
1F
100
AcDbEntity
  8
0
100
AcDbLine
 10
280.5880888881409
 20
142.2252298559287
 30
0.0
 11
277.046398736389
 21
134.4382112809546
 31
0.0
1001
ACAD
1000
DSTYLE
1002
{
1070
   147
1040
0.625
1070
    77
1070
     0
1070
   343
1005
2D3
1070
   344
1005
C6
1002
}
  0
LINE
  5
1D00
330
1F
100
AcDbEntity
  8
0
100
AcDbLine
 10
277.046398736389
 20
134.4382112809546
 30
0.0
 11
274.546398736389
 21
134.4382112809546
 31
0.0
1001
ACAD
1000
DSTYLE
1002
{
1070
   147
1040
0.625
1070
    77
1070
     0
1070
   343
1005
2D3
1070
   344
1005
C6
1002
}
  0
LINE
  5
1D01
330
1F
100
AcDbEntity
  8
0
  6
ByBlock
 62
     0
370
    -2
100
AcDbLine
 10
279.9783224523352
 20
142.5025636981135
 30
0.0
 11
281.6231136211491
 21
144.5009108094152
 31
0.0
  0
LINE
  5
1D02
330
1F
100
AcDbEntity
  8
0
  6
ByBlock
 62
     0
370
    -2
100
AcDbLine
 10
281.6231136211491
 20
144.5009108094152
 30
0.0
 11
281.1978553239466
 21
141.9478960137438
 31
0.0
  0
LINE
  5
1D03
330
1F
100
AcDbEntity
  8
0
  6
ByBlock
 62
     0
370
    -2
100
AcDbLine
 10
281.6231136211491
 20
144.5009108094152
 30
0.0
 11
280.5880888881409
 21
142.2252298559287
 31
0.0
  0
TEXT
  5
1D04
330
1F
100
AcDbEntity
  8
0
 62
     4
100
AcDbText
 10
127.6328796454198
 20
173.9388951161238
 30
0.0
 40
3.0
  1
32
100
AcDbText
  0
LINE
  5
1D05
330
1F
100
AcDbEntity
  8
0
  6
ByBlock
 62
     0
370
    -2
100
AcDbLine
 10
128.6328796454198
 20
172.6440226161238
 30
0.0
 11
126.1328796454198
 21
173.3138951161238
 31
0.0
  0
LINE
  5
1D06
330
1F
100
AcDbEntity
  8
0
  6
ByBlock
 62
     0
370
    -2
100
AcDbLine
 10
126.1328796454198
 20
173.3138951161238
 30
0.0
 11
128.6328796454198
 21
173.9837676161238
 31
0.0
  0
LINE
  5
1D07
330
1F
100
AcDbEntity
  8
0
  6
ByBlock
 62
     0
370
    -2
100
AcDbLine
 10
126.1328796454198
 20
173.3138951161238
 30
0.0
 11
128.6328796454198
 21
173.3138951161238
 31
0.0
  0
LINE
  5
1D08
330
1F
100
AcDbEntity
  8
0
  6
ByBlock
 62
     0
370
    -2
100
AcDbLine
 10
131.6328796454198
 20
173.9837676161238
 30
0.0
 11
134.1328796454198
 21
173.3138951161238
 31
0.0
  0
LINE
  5
1D09
330
1F
100
AcDbEntity
  8
0
  6
ByBlock
 62
     0
370
    -2
100
AcDbLine
 10
134.1328796454198
 20
173.3138951161238
 30
0.0
 11
131.6328796454198
 21
172.6440226161238
 31
0.0
  0
LINE
  5
1D0A
330
1F
100
AcDbEntity
  8
0
  6
ByBlock
 62
     0
370
    -2
100
AcDbLine
 10
134.1328796454198
 20
173.3138951161238
 30
0.0
 11
131.6328796454198
 21
173.3138951161238
 31
0.0
  0
LINE
  5
1D0B
330
1F
100
AcDbEntity
  8
0
100
AcDbLine
 10
290.328380574115
 20
143.3581438564486
 30
0.0
 11
298.1076705011081
 21
135.5788539294551
 31
0.0
1001
ACAD
1000
DSTYLE
1002
{
1070
   343
1005
2D3
1070
   344
1005
C6
1002
}
  0
LINE
  5
1D0C
330
1F
100
AcDbEntity
  8
0
100
AcDbLine
 10
298.1076705011081
 20
135.5788539294551
 30
0.0
 11
298.5496122393497
 21
135.1369121912135
 31
0.0
1001
ACAD
1000
DSTYLE
1002
{
1070
   343
1005
2D3
1070
   344
1005
C6
1002
}
  0
LINE
  5
1D0D
330
1F
100
AcDbEntity
  8
0
  6
ByBlock
 62
     0
370
    -2
100
AcDbLine
 10
289.8547091868346
 20
142.8844724691682
 30
0.0
 11
288.5606136211487
 21
145.125910809415
 31
0.0
  0
LINE
  5
1D0E
330
1F
100
AcDbEntity
  8
0
  6
ByBlock
 62
     0
370
    -2
100
AcDbLine
 10
288.5606136211487
 20
145.125910809415
 30
0.0
 11
290.8020519613954
 21
143.8318152437289
 31
0.0
  0
LINE
  5
1D0F
330
1F
100
AcDbEntity
  8
0
  6
ByBlock
 62
     0
370
    -2
100
AcDbLine
 10
288.5606136211487
 20
145.125910809415
 30
0.0
 11
290.328380574115
 21
143.3581438564486
 31
0.0
  0
LINE
  5
1D10
330
1F
100
AcDbEntity
  8
0
100
AcDbLine
 10
132.1137583960036
 20
192.2625713773846
 30
0.0
 11
114.9200492066828
 21
204.8156996807795
 31
0.0
1001
ACAD
1000
DSTYLE
1002
{
1070
   147
1040
0.625
1070
    77
1070
     0
1070
   343
1005
2D3
1070
   344
1005
C6
1002
}
  0
LINE
  5
1D11
330
1F
100
AcDbEntity
  8
0
100
AcDbLine
 10
114.9200492066828
 20
204.8156996807795
 30
0.0
 11
112.4200492066828
 21
204.8156996807795
 31
0.0
1001
ACAD
1000
DSTYLE
1002
{
1070
   147
1040
0.625
1070
    77
1070
     0
1070
   343
1005
2D3
1070
   344
1005
C6
1002
}
  0
LINE
  5
1D12
330
1F
100
AcDbEntity
  8
0
  6
ByBlock
 62
     0
370
    -2
100
AcDbLine
 10
132.5087582460305
 20
192.8035928970444
 30
0.0
 11
134.1328796454198
 21
190.7884108094151
 31
0.0
  0
LINE
  5
1D13
330
1F
100
AcDbEntity
  8
0
  6
ByBlock
 62
     0
370
    -2
100
AcDbLine
 10
134.1328796454198
 20
190.7884108094151
 30
0.0
 11
131.7187585459768
 21
191.7215498577248
 31
0.0
  0
LINE
  5
1D14
330
1F
100
AcDbEntity
  8
0
  6
ByBlock
 62
     0
370
    -2
100
AcDbLine
 10
134.1328796454198
 20
190.7884108094151
 30
0.0
 11
132.1137583960036
 21
192.2625713773846
 31
0.0
  0
LINE
  5
1D15
330
1F
100
AcDbEntity
  8
0
100
AcDbLine
 10
144.6767654142209
 20
114.7779197079915
 30
0.0
 11
149.337940077972
 21
93.86575632771771
 31
0.0
1001
ACAD
1000
DSTYLE
1002
{
1070
   147
1040
0.625
1070
    77
1070
     0
1070
   343
1005
2D3
1070
   344
1005
C6
1002
}
  0
LINE
  5
1D16
330
1F
100
AcDbEntity
  8
0
100
AcDbLine
 10
149.337940077972
 20
93.86575632771771
 30
0.0
 11
151.837940077972
 21
93.86575632771771
 31
0.0
1001
ACAD
1000
DSTYLE
1002
{
1070
   147
1040
0.625
1070
    77
1070
     0
1070
   343
1005
2D3
1070
   344
1005
C6
1002
}
  0
LINE
  5
1D17
330
1F
100
AcDbEntity
  8
0
  6
ByBlock
 62
     0
370
    -2
100
AcDbLine
 10
144.0229375545083
 20
114.6321860601269
 30
0.0
 11
144.1328796454195
 21
117.2180402522465
 31
0.0
  0
LINE
  5
1D18
330
1F
100
AcDbEntity
  8
0
  6
ByBlock
 62
     0
370
    -2
100
AcDbLine
 10
144.1328796454195
 20
117.2180402522465
 30
0.0
 11
145.3305932739334
 21
114.923653355856
 31
0.0
  0
LINE
  5
1D19
330
1F
100
AcDbEntity
  8
0
  6
ByBlock
 62
     0
370
    -2
100
AcDbLine
 10
144.1328796454195
 20
117.2180402522465
 30
0.0
 11
144.6767654142209
 21
114.7779197079915
 31
0.0
  0
TEXT
  5
1D1A
330
1F
100
AcDbEntity
  8
0
 62
     4
100
AcDbText
 10
299.0051181560247
 20
156.5634108094156
 30
0.0
 40
3.0
  1
24
 50
90.0
100
AcDbText
  0
LINE
  5
1D1B
330
1F
100
AcDbEntity
  8
0
  6
ByBlock
 62
     0
370
    -2
100
AcDbLine
 10
300.2999906560248
 20
153.4384108094153
 30
0.0
 11
299.6301181560248
 21
150.9384108094153
 31
0.0
  0
LINE
  5
1D1C
330
1F
100
AcDbEntity
  8
0
  6
ByBlock
 62
     0
370
    -2
100
AcDbLine
 10
299.6301181560248
 20
150.9384108094153
 30
0.0
 11
298.9602456560248
 21
153.4384108094153
 31
0.0
  0
LINE
  5
1D1D
330
1F
100
AcDbEntity
  8
0
  6
ByBlock
 62
     0
370
    -2
100
AcDbLine
 10
299.6301181560248
 20
150.9384108094153
 30
0.0
 11
299.6301181560248
 21
153.4384108094153
 31
0.0
  0
LINE
  5
1D1E
330
1F
100
AcDbEntity
  8
0
  6
ByBlock
 62
     0
370
    -2
100
AcDbLine
 10
298.9602456560248
 20
142.4384108094152
 30
0.0
 11
299.6301181560248
 21
144.9384108094152
 31
0.0
  0
LINE
  5
1D1F
330
1F
100
AcDbEntity
  8
0
  6
ByBlock
 62
     0
370
    -2
100
AcDbLine
 10
299.6301181560248
 20
144.9384108094152
 30
0.0
 11
300.2999906560248
 21
142.4384108094152
 31
0.0
  0
LINE
  5
1D20
330
1F
100
AcDbEntity
  8
0
  6
ByBlock
 62
     0
370
    -2
100
AcDbLine
 10
299.6301181560248
 20
144.9384108094152
 30
0.0
 11
299.6301181560248
 21
142.4384108094152
 31
0.0
  0
TEXT
  5
1D21
330
1F
100
AcDbEntity
  8
0
 62
     4
100
AcDbText
 10
152.9731447274878
 20
130.5305402522469
 30
0.0
 40
3.0
  1
50
 50
90.0
100
AcDbText
  0
LINE
  5
1D22
330
1F
100
AcDbEntity
  8
0
  6
ByBlock
 62
     0
370
    -2
100
AcDbLine
 10
154.2680172274878
 20
127.4055402522465
 30
0.0
 11
153.5981447274878
 21
124.9055402522465
 31
0.0
  0
LINE
  5
1D23
330
1F
100
AcDbEntity
  8
0
  6
ByBlock
 62
     0
370
    -2
100
AcDbLine
 10
153.5981447274878
 20
124.9055402522465
 30
0.0
 11
152.9282722274878
 21
127.4055402522465
 31
0.0
  0
LINE
  5
1D24
330
1F
100
AcDbEntity
  8
0
  6
ByBlock
 62
     0
370
    -2
100
AcDbLine
 10
153.5981447274878
 20
124.9055402522465
 30
0.0
 11
153.5981447274878
 21
127.4055402522465
 31
0.0
  0
LINE
  5
1D25
330
1F
100
AcDbEntity
  8
0
  6
ByBlock
 62
     0
370
    -2
100
AcDbLine
 10
152.9282722274878
 20
109.9055402522465
 30
0.0
 11
153.5981447274878
 21
112.4055402522465
 31
0.0
  0
LINE
  5
1D26
330
1F
100
AcDbEntity
  8
0
  6
ByBlock
 62
     0
370
    -2
100
AcDbLine
 10
153.5981447274878
 20
112.4055402522465
 30
0.0
 11
154.2680172274878
 21
109.9055402522465
 31
0.0
  0
LINE
  5
1D27
330
1F
100
AcDbEntity
  8
0
  6
ByBlock
 62
     0
370
    -2
100
AcDbLine
 10
153.5981447274878
 20
112.4055402522465
 30
0.0
 11
153.5981447274878
 21
109.9055402522465
 31
0.0
  0
TEXT
  5
1D28
330
1F
100
AcDbEntity
  8
0
 62
     4
100
AcDbText
 10
127.6328796454198
 20
92.83301991377578
 30
0.0
 40
3.0
  1
32
100
AcDbText
  0
LINE
  5
1D29
330
1F
100
AcDbEntity
  8
0
  6
ByBlock
 62
     0
370
    -2
100
AcDbLine
 10
128.6328796454198
 20
91.53814741377578
 30
0.0
 11
126.1328796454198
 21
92.20801991377578
 31
0.0
  0
LINE
  5
1D2A
330
1F
100
AcDbEntity
  8
0
  6
ByBlock
 62
     0
370
    -2
100
AcDbLine
 10
126.1328796454198
 20
92.20801991377578
 30
0.0
 11
128.6328796454198
 21
92.87789241377579
 31
0.0
  0
LINE
  5
1D2B
330
1F
100
AcDbEntity
  8
0
  6
ByBlock
 62
     0
370
    -2
100
AcDbLine
 10
126.1328796454198
 20
92.20801991377578
 30
0.0
 11
128.6328796454198
 21
92.20801991377578
 31
0.0
  0
LINE
  5
1D2C
330
1F
100
AcDbEntity
  8
0
  6
ByBlock
 62
     0
370
    -2
100
AcDbLine
 10
131.6328796454198
 20
92.87789241377579
 30
0.0
 11
134.1328796454198
 21
92.20801991377578
 31
0.0
  0
LINE
  5
1D2D
330
1F
100
AcDbEntity
  8
0
  6
ByBlock
 62
     0
370
    -2
100
AcDbLine
 10
134.1328796454198
 20
92.20801991377578
 30
0.0
 11
131.6328796454198
 21
91.53814741377578
 31
0.0
  0
LINE
  5
1D2E
330
1F
100
AcDbEntity
  8
0
  6
ByBlock
 62
     0
370
    -2
100
AcDbLine
 10
134.1328796454198
 20
92.20801991377578
 30
0.0
 11
131.6328796454198
 21
92.20801991377578
 31
0.0
  0
TEXT
  5
1D2F
330
1F
100
AcDbEntity
  8
0
 62
     4
100
AcDbText
 10
149.7578796454195
 20
142.2897571896765
 30
0.0
 40
3.0
  1
24
100
AcDbText
  0
LINE
  5
1D30
330
1F
100
AcDbEntity
  8
0
  6
ByBlock
 62
     0
370
    -2
100
AcDbLine
 10
146.6328796454195
 20
140.9948846896765
 30
0.0
 11
144.1328796454195
 21
141.6647571896765
 31
0.0
  0
LINE
  5
1D31
330
1F
100
AcDbEntity
  8
0
  6
ByBlock
 62
     0
370
    -2
100
AcDbLine
 10
144.1328796454195
 20
141.6647571896765
 30
0.0
 11
146.6328796454195
 21
142.3346296896765
 31
0.0
  0
LINE
  5
1D32
330
1F
100
AcDbEntity
  8
0
  6
ByBlock
 62
     0
370
    -2
100
AcDbLine
 10
144.1328796454195
 20
141.6647571896765
 30
0.0
 11
146.6328796454195
 21
141.6647571896765
 31
0.0
  0
LINE
  5
1D33
330
1F
100
AcDbEntity
  8
0
  6
ByBlock
 62
     0
370
    -2
100
AcDbLine
 10
135.6328796454195
 20
142.3346296896765
 30
0.0
 11
138.1328796454195
 21
141.6647571896765
 31
0.0
  0
LINE
  5
1D34
330
1F
100
AcDbEntity
  8
0
  6
ByBlock
 62
     0
370
    -2
100
AcDbLine
 10
138.1328796454195
 20
141.6647571896765
 30
0.0
 11
135.6328796454195
 21
140.9948846896765
 31
0.0
  0
LINE
  5
1D35
330
1F
100
AcDbEntity
  8
0
  6
ByBlock
 62
     0
370
    -2
100
AcDbLine
 10
138.1328796454195
 20
141.6647571896765
 30
0.0
 11
135.6328796454195
 21
141.6647571896765
 31
0.0
  0
TEXT
  5
1D36
330
1F
100
AcDbEntity
  8
0
 62
     4
100
AcDbText
 10
116.1258871006256
 20
83.97986760178204
 30
0.0
 40
3.0
  1
4-\U+220511穴
 50
58.51684095453822
100
AcDbText
  0
LINE
  5
1D37
330
1F
100
AcDbEntity
  8
0
  6
ByBlock
 62
     0
370
    -2
100
AcDbLine
 10
127.5379058824307
 20
102.700804166628
 30
0.0
 11
129.4147887478087
 21
104.4829489070761
 31
0.0
  0
LINE
  5
1D38
330
1F
100
AcDbEntity
  8
0
  6
ByBlock
 62
     0
370
    -2
100
AcDbLine
 10
129.4147887478087
 20
104.4829489070761
 30
0.0
 11
128.6804319855108
 21
102.0011251196319
 31
0.0
  0
LINE
  5
1D39
330
1F
100
AcDbEntity
  8
0
  6
ByBlock
 62
     0
370
    -2
100
AcDbLine
 10
129.4147887478087
 20
104.4829489070761
 30
0.0
 11
128.1091689339707
 21
102.35096464313
 31
0.0
  0
LINE
  5
1D3A
330
1F
100
AcDbEntity
  8
0
  6
ByBlock
 62
     0
370
    -2
100
AcDbLine
 10
132.7278534084084
 20
108.6102763378648
 30
0.0
 11
130.8509705430304
 21
106.8281315974168
 31
0.0
  0
LINE
  5
1D3B
330
1F
100
AcDbEntity
  8
0
  6
ByBlock
 62
     0
370
    -2
100
AcDbLine
 10
130.8509705430304
 20
106.8281315974168
 30
0.0
 11
131.5853273053282
 21
109.309955384861
 31
0.0
  0
LINE
  5
1D3C
330
1F
100
AcDbEntity
  8
0
  6
ByBlock
 62
     0
370
    -2
100
AcDbLine
 10
130.8509705430304
 20
106.8281315974168
 30
0.0
 11
132.1565903568683
 21
108.9601158613629
 31
0.0
  0
TEXT
  5
1D3D
330
1F
100
AcDbEntity
  8
0
 62
     4
100
AcDbText
 10
109.5052625050028
 20
115.5162165714866
 30
0.0
 40
3.0
  1
104
 50
90.0
100
AcDbText
  0
LINE
  5
1D3E
330
1F
100
AcDbEntity
  8
0
  6
ByBlock
 62
     0
370
    -2
100
AcDbLine
 10
110.8001350050028
 20
108.1555402522465
 30
0.0
 11
110.1302625050028
 21
105.6555402522465
 31
0.0
  0
LINE
  5
1D3F
330
1F
100
AcDbEntity
  8
0
  6
ByBlock
 62
     0
370
    -2
100
AcDbLine
 10
110.1302625050028
 20
105.6555402522465
 30
0.0
 11
109.4603900050028
 21
108.1555402522465
 31
0.0
  0
LINE
  5
1D40
330
1F
100
AcDbEntity
  8
0
  6
ByBlock
 62
     0
370
    -2
100
AcDbLine
 10
110.1302625050028
 20
105.6555402522465
 30
0.0
 11
110.1302625050028
 21
108.1555402522465
 31
0.0
  0
LINE
  5
1D41
330
1F
100
AcDbEntity
  8
0
  6
ByBlock
 62
     0
370
    -2
100
AcDbLine
 10
109.4603900050028
 20
129.1555402522465
 30
0.0
 11
110.1302625050028
 21
131.6555402522465
 31
0.0
  0
LINE
  5
1D42
330
1F
100
AcDbEntity
  8
0
  6
ByBlock
 62
     0
370
    -2
100
AcDbLine
 10
110.1302625050028
 20
131.6555402522465
 30
0.0
 11
110.8001350050028
 21
129.1555402522465
 31
0.0
  0
LINE
  5
1D43
330
1F
100
AcDbEntity
  8
0
  6
ByBlock
 62
     0
370
    -2
100
AcDbLine
 10
110.1302625050028
 20
131.6555402522465
 30
0.0
 11
110.1302625050028
 21
129.1555402522465
 31
0.0
  0
TEXT
  5
1D44
330
1F
100
AcDbEntity
  8
0
 62
     4
100
AcDbText
 10
131.6328796454195
 20
142.2897571896765
 30
0.0
 40
3.0
  1
32
100
AcDbText
  0
LINE
  5
1D45
330
1F
100
AcDbEntity
  8
0
  6
ByBlock
 62
     0
370
    -2
100
AcDbLine
 10
135.6328796454195
 20
142.3346296896765
 30
0.0
 11
138.1328796454195
 21
141.6647571896765
 31
0.0
  0
LINE
  5
1D46
330
1F
100
AcDbEntity
  8
0
  6
ByBlock
 62
     0
370
    -2
100
AcDbLine
 10
138.1328796454195
 20
141.6647571896765
 30
0.0
 11
135.6328796454195
 21
140.9948846896765
 31
0.0
  0
LINE
  5
1D47
330
1F
100
AcDbEntity
  8
0
  6
ByBlock
 62
     0
370
    -2
100
AcDbLine
 10
138.1328796454195
 20
141.6647571896765
 30
0.0
 11
135.6328796454195
 21
141.6647571896765
 31
0.0
  0
LINE
  5
1D48
330
1F
100
AcDbEntity
  8
0
  6
ByBlock
 62
     0
370
    -2
100
AcDbLine
 10
132.6328796454195
 20
140.9948846896765
 30
0.0
 11
130.1328796454195
 21
141.6647571896765
 31
0.0
  0
LINE
  5
1D49
330
1F
100
AcDbEntity
  8
0
  6
ByBlock
 62
     0
370
    -2
100
AcDbLine
 10
130.1328796454195
 20
141.6647571896765
 30
0.0
 11
132.6328796454195
 21
142.3346296896765
 31
0.0
  0
LINE
  5
1D4A
330
1F
100
AcDbEntity
  8
0
  6
ByBlock
 62
     0
370
    -2
100
AcDbLine
 10
130.1328796454195
 20
141.6647571896765
 30
0.0
 11
132.6328796454195
 21
141.6647571896765
 31
0.0
  0
TEXT
  5
1D4B
330
1F
100
AcDbEntity
  8
0
 62
     4
100
AcDbText
 10
116.5078796454198
 20
142.2897571896765
 30
0.0
 40
3.0
  1
16
100
AcDbText
  0
LINE
  5
1D4C
330
1F
100
AcDbEntity
  8
0
  6
ByBlock
 62
     0
370
    -2
100
AcDbLine
 10
123.6328796454198
 20
142.3346296896765
 30
0.0
 11
126.1328796454198
 21
141.6647571896765
 31
0.0
  0
LINE
  5
1D4D
330
1F
100
AcDbEntity
  8
0
  6
ByBlock
 62
     0
370
    -2
100
AcDbLine
 10
126.1328796454198
 20
141.6647571896765
 30
0.0
 11
123.6328796454198
 21
140.9948846896765
 31
0.0
  0
LINE
  5
1D4E
330
1F
100
AcDbEntity
  8
0
  6
ByBlock
 62
     0
370
    -2
100
AcDbLine
 10
126.1328796454198
 20
141.6647571896765
 30
0.0
 11
123.6328796454198
 21
141.6647571896765
 31
0.0
  0
LINE
  5
1D4F
330
1F
100
AcDbEntity
  8
0
  6
ByBlock
 62
     0
370
    -2
100
AcDbLine
 10
132.6328796454195
 20
140.9948846896765
 30
0.0
 11
130.1328796454195
 21
141.6647571896765
 31
0.0
  0
LINE
  5
1D50
330
1F
100
AcDbEntity
  8
0
  6
ByBlock
 62
     0
370
    -2
100
AcDbLine
 10
130.1328796454195
 20
141.6647571896765
 30
0.0
 11
132.6328796454195
 21
142.3346296896765
 31
0.0
  0
LINE
  5
1D51
330
1F
100
AcDbEntity
  8
0
  6
ByBlock
 62
     0
370
    -2
100
AcDbLine
 10
130.1328796454195
 20
141.6647571896765
 30
0.0
 11
132.6328796454195
 21
141.6647571896765
 31
0.0
  0
TEXT
  5
1D52
330
1F
100
AcDbEntity
  8
0
 62
     4
100
AcDbText
 10
134.6328796454196
 20
152.7981779362684
 30
0.0
 40
3.0
  1
88
100
AcDbText
  0
LINE
  5
1D53
330
1F
100
AcDbEntity
  8
0
  6
ByBlock
 62
     0
370
    -2
100
AcDbLine
 10
145.6328796454195
 20
152.8430504362684
 30
0.0
 11
148.1328796454195
 21
152.1731779362684
 31
0.0
  0
LINE
  5
1D54
330
1F
100
AcDbEntity
  8
0
  6
ByBlock
 62
     0
370
    -2
100
AcDbLine
 10
148.1328796454195
 20
152.1731779362684
 30
0.0
 11
145.6328796454195
 21
151.5033054362684
 31
0.0
  0
LINE
  5
1D55
330
1F
100
AcDbEntity
  8
0
  6
ByBlock
 62
     0
370
    -2
100
AcDbLine
 10
148.1328796454195
 20
152.1731779362684
 30
0.0
 11
145.6328796454195
 21
152.1731779362684
 31
0.0
  0
LINE
  5
1D56
330
1F
100
AcDbEntity
  8
0
  6
ByBlock
 62
     0
370
    -2
100
AcDbLine
 10
128.6328796454198
 20
151.5033054362684
 30
0.0
 11
126.1328796454198
 21
152.1731779362684
 31
0.0
  0
LINE
  5
1D57
330
1F
100
AcDbEntity
  8
0
  6
ByBlock
 62
     0
370
    -2
100
AcDbLine
 10
126.1328796454198
 20
152.1731779362684
 30
0.0
 11
128.6328796454198
 21
152.8430504362684
 31
0.0
  0
LINE
  5
1D58
330
1F
100
AcDbEntity
  8
0
  6
ByBlock
 62
     0
370
    -2
100
AcDbLine
 10
126.1328796454198
 20
152.1731779362684
 30
0.0
 11
128.6328796454198
 21
152.1731779362684
 31
0.0
  0
TEXT
  5
1D59
330
1F
100
AcDbEntity
  8
0
 62
     4
100
AcDbText
 10
102.0233712917559
 20
115.6077927696262
 30
0.0
 40
3.0
  1
150
 50
90.0
100
AcDbText
  0
LINE
  5
1D5A
330
1F
100
AcDbEntity
  8
0
  6
ByBlock
 62
     0
370
    -2
100
AcDbLine
 10
103.3182437917559
 20
102.4055402522466
 30
0.0
 11
102.6483712917559
 21
99.90554025224662
 31
0.0
  0
LINE
  5
1D5B
330
1F
100
AcDbEntity
  8
0
  6
ByBlock
 62
     0
370
    -2
100
AcDbLine
 10
102.6483712917559
 20
99.90554025224662
 30
0.0
 11
101.9784987917559
 21
102.4055402522466
 31
0.0
  0
LINE
  5
1D5C
330
1F
100
AcDbEntity
  8
0
  6
ByBlock
 62
     0
370
    -2
100
AcDbLine
 10
102.6483712917559
 20
99.90554025224662
 30
0.0
 11
102.6483712917559
 21
102.4055402522466
 31
0.0
  0
LINE
  5
1D5D
330
1F
100
AcDbEntity
  8
0
  6
ByBlock
 62
     0
370
    -2
100
AcDbLine
 10
101.9784987917559
 20
134.9055402522466
 30
0.0
 11
102.6483712917559
 21
137.4055402522466
 31
0.0
  0
LINE
  5
1D5E
330
1F
100
AcDbEntity
  8
0
  6
ByBlock
 62
     0
370
    -2
100
AcDbLine
 10
102.6483712917559
 20
137.4055402522466
 30
0.0
 11
103.3182437917559
 21
134.9055402522466
 31
0.0
  0
LINE
  5
1D5F
330
1F
100
AcDbEntity
  8
0
  6
ByBlock
 62
     0
370
    -2
100
AcDbLine
 10
102.6483712917559
 20
137.4055402522466
 30
0.0
 11
102.6483712917559
 21
134.9055402522466
 31
0.0
  0
TEXT
  5
1D60
330
1F
100
AcDbEntity
  8
0
 62
     4
100
AcDbText
 10
114.8937203800254
 20
116.1555402522465
 30
0.0
 40
3.0
  1
73
 50
90.0
100
AcDbText
  0
LINE
  5
1D61
330
1F
100
AcDbEntity
  8
0
  6
ByBlock
 62
     0
370
    -2
100
AcDbLine
 10
114.8488478800254
 20
125.2805402522465
 30
0.0
 11
115.5187203800254
 21
127.7805402522465
 31
0.0
  0
LINE
  5
1D62
330
1F
100
AcDbEntity
  8
0
  6
ByBlock
 62
     0
370
    -2
100
AcDbLine
 10
115.5187203800254
 20
127.7805402522465
 30
0.0
 11
116.1885928800254
 21
125.2805402522465
 31
0.0
  0
LINE
  5
1D63
330
1F
100
AcDbEntity
  8
0
  6
ByBlock
 62
     0
370
    -2
100
AcDbLine
 10
115.5187203800254
 20
127.7805402522465
 30
0.0
 11
115.5187203800254
 21
125.2805402522465
 31
0.0
  0
LINE
  5
1D64
330
1F
100
AcDbEntity
  8
0
  6
ByBlock
 62
     0
370
    -2
100
AcDbLine
 10
116.1885928800254
 20
112.0305402522465
 30
0.0
 11
115.5187203800254
 21
109.5305402522465
 31
0.0
  0
LINE
  5
1D65
330
1F
100
AcDbEntity
  8
0
  6
ByBlock
 62
     0
370
    -2
100
AcDbLine
 10
115.5187203800254
 20
109.5305402522465
 30
0.0
 11
114.8488478800254
 21
112.0305402522465
 31
0.0
  0
LINE
  5
1D66
330
1F
100
AcDbEntity
  8
0
  6
ByBlock
 62
     0
370
    -2
100
AcDbLine
 10
115.5187203800254
 20
109.5305402522465
 30
0.0
 11
115.5187203800254
 21
112.0305402522465
 31
0.0
  0
TEXT
  5
1D67
330
1F
100
AcDbEntity
  8
0
 62
     4
100
AcDbText
 10
301.2889273699309
 20
169.3045802364379
 30
0.0
 40
3.0
  1
(81.3)
 50
90.0
100
AcDbText
  0
LINE
  5
1D68
330
1F
100
AcDbEntity
  8
0
  6
ByBlock
 62
     0
370
    -2
100
AcDbLine
 10
301.244054869931
 20
183.763410809415
 30
0.0
 11
301.9139273699309
 21
186.263410809415
 31
0.0
  0
LINE
  5
1D69
330
1F
100
AcDbEntity
  8
0
  6
ByBlock
 62
     0
370
    -2
100
AcDbLine
 10
301.9139273699309
 20
186.263410809415
 30
0.0
 11
302.583799869931
 21
183.763410809415
 31
0.0
  0
LINE
  5
1D6A
330
1F
100
AcDbEntity
  8
0
  6
ByBlock
 62
     0
370
    -2
100
AcDbLine
 10
301.9139273699309
 20
186.263410809415
 30
0.0
 11
301.9139273699309
 21
183.763410809415
 31
0.0
  0
LINE
  5
1D6B
330
1F
100
AcDbEntity
  8
0
  6
ByBlock
 62
     0
370
    -2
100
AcDbLine
 10
302.583799869931
 20
168.4384108094151
 30
0.0
 11
301.9139273699309
 21
165.9384108094151
 31
0.0
  0
LINE
  5
1D6C
330
1F
100
AcDbEntity
  8
0
  6
ByBlock
 62
     0
370
    -2
100
AcDbLine
 10
301.9139273699309
 20
165.9384108094151
 30
0.0
 11
301.244054869931
 21
168.4384108094151
 31
0.0
  0
LINE
  5
1D6D
330
1F
100
AcDbEntity
  8
0
  6
ByBlock
 62
     0
370
    -2
100
AcDbLine
 10
301.9139273699309
 20
165.9384108094151
 30
0.0
 11
301.9139273699309
 21
168.4384108094151
 31
0.0
  0
TEXT
  5
1D6E
330
1F
100
AcDbEntity
  8
0
 62
     4
100
AcDbText
 10
412.8777814667232
 20
172.7847408540977
 30
0.0
 40
3.0
  1
8-\U+22056.5穴
 50
57.29907142184171
100
AcDbText
  0
LINE
  5
1D6F
330
1F
100
AcDbEntity
  8
0
  6
ByBlock
 62
     0
370
    -2
100
AcDbLine
 10
411.7388717202164
 20
168.6139850016697
 30
0.0
 11
409.8245377577097
 21
166.8721312057815
 31
0.0
  0
LINE
  5
1D70
330
1F
100
AcDbEntity
  8
0
  6
ByBlock
 62
     0
370
    -2
100
AcDbLine
 10
409.8245377577097
 20
166.8721312057815
 30
0.0
 11
410.6114735879951
 21
169.3377875413784
 31
0.0
  0
LINE
  5
1D71
330
1F
100
AcDbEntity
  8
0
  6
ByBlock
 62
     0
370
    -2
100
AcDbLine
 10
409.8245377577097
 20
166.8721312057815
 30
0.0
 11
411.1751726541057
 21
168.9758862715241
 31
0.0
  0
LINE
  5
1D72
330
1F
100
AcDbEntity
  8
0
  6
ByBlock
 62
     0
370
    -2
100
AcDbLine
 10
407.0322911125455
 20
163.7628366171604
 30
0.0
 11
408.9466250750522
 21
165.5046904130486
 31
0.0
  0
LINE
  5
1D73
330
1F
100
AcDbEntity
  8
0
  6
ByBlock
 62
     0
370
    -2
100
AcDbLine
 10
408.9466250750522
 20
165.5046904130486
 30
0.0
 11
408.1596892447668
 21
163.0390340774517
 31
0.0
  0
LINE
  5
1D74
330
1F
100
AcDbEntity
  8
0
  6
ByBlock
 62
     0
370
    -2
100
AcDbLine
 10
408.9466250750522
 20
165.5046904130486
 30
0.0
 11
407.5959901786561
 21
163.4009353473061
 31
0.0
  0
TEXT
  5
1D75
330
1F
100
AcDbEntity
  8
0
 62
     4
100
AcDbText
 10
386.6959800750282
 20
125.9224741642546
 30
0.0
 40
3.0
  1
175
100
AcDbText
  0
LINE
  5
1D76
330
1F
100
AcDbEntity
  8
0
  6
ByBlock
 62
     0
370
    -2
100
AcDbLine
 10
371.8855814163806
 20
124.6276016642546
 30
0.0
 11
369.3855814163806
 21
125.2974741642546
 31
0.0
  0
LINE
  5
1D77
330
1F
100
AcDbEntity
  8
0
  6
ByBlock
 62
     0
370
    -2
100
AcDbLine
 10
369.3855814163806
 20
125.2974741642546
 30
0.0
 11
371.8855814163806
 21
125.9673466642546
 31
0.0
  0
LINE
  5
1D78
330
1F
100
AcDbEntity
  8
0
  6
ByBlock
 62
     0
370
    -2
100
AcDbLine
 10
369.3855814163806
 20
125.2974741642546
 30
0.0
 11
371.8855814163806
 21
125.2974741642546
 31
0.0
  0
LINE
  5
1D79
330
1F
100
AcDbEntity
  8
0
  6
ByBlock
 62
     0
370
    -2
100
AcDbLine
 10
410.6355814163801
 20
125.9673466642546
 30
0.0
 11
413.1355814163801
 21
125.2974741642546
 31
0.0
  0
LINE
  5
1D7A
330
1F
100
AcDbEntity
  8
0
  6
ByBlock
 62
     0
370
    -2
100
AcDbLine
 10
413.1355814163801
 20
125.2974741642546
 30
0.0
 11
410.6355814163801
 21
124.6276016642546
 31
0.0
  0
LINE
  5
1D7B
330
1F
100
AcDbEntity
  8
0
  6
ByBlock
 62
     0
370
    -2
100
AcDbLine
 10
413.1355814163801
 20
125.2974741642546
 30
0.0
 11
410.6355814163801
 21
125.2974741642546
 31
0.0
  0
TEXT
  5
1D7C
330
1F
100
AcDbEntity
  8
0
 62
     4
100
AcDbText
 10
375.9995647235772
 20
133.5720628735357
 30
0.0
 40
3.0
  1
45
100
AcDbText
  0
LINE
  5
1D7D
330
1F
100
AcDbEntity
  8
0
  6
ByBlock
 62
     0
370
    -2
100
AcDbLine
 10
375.6355814163806
 20
132.2771903735357
 30
0.0
 11
373.1355814163806
 21
132.9470628735357
 31
0.0
  0
LINE
  5
1D7E
330
1F
100
AcDbEntity
  8
0
  6
ByBlock
 62
     0
370
    -2
100
AcDbLine
 10
373.1355814163806
 20
132.9470628735357
 30
0.0
 11
375.6355814163806
 21
133.6169353735357
 31
0.0
  0
LINE
  5
1D7F
330
1F
100
AcDbEntity
  8
0
  6
ByBlock
 62
     0
370
    -2
100
AcDbLine
 10
373.1355814163806
 20
132.9470628735357
 30
0.0
 11
375.6355814163806
 21
132.9470628735357
 31
0.0
  0
LINE
  5
1D80
330
1F
100
AcDbEntity
  8
0
  6
ByBlock
 62
     0
370
    -2
100
AcDbLine
 10
381.8855814163806
 20
133.6169353735357
 30
0.0
 11
384.3855814163806
 21
132.9470628735357
 31
0.0
  0
LINE
  5
1D81
330
1F
100
AcDbEntity
  8
0
  6
ByBlock
 62
     0
370
    -2
100
AcDbLine
 10
384.3855814163806
 20
132.9470628735357
 30
0.0
 11
381.8855814163806
 21
132.2771903735357
 31
0.0
  0
LINE
  5
1D82
330
1F
100
AcDbEntity
  8
0
  6
ByBlock
 62
     0
370
    -2
100
AcDbLine
 10
384.3855814163806
 20
132.9470628735357
 30
0.0
 11
381.8855814163806
 21
132.9470628735357
 31
0.0
  0
TEXT
  5
1D83
330
1F
100
AcDbEntity
  8
0
 62
     4
100
AcDbText
 10
401.3399571937746
 20
133.5720628735357
 30
0.0
 40
3.0
  1
45
100
AcDbText
  0
LINE
  5
1D84
330
1F
100
AcDbEntity
  8
0
  6
ByBlock
 62
     0
370
    -2
100
AcDbLine
 10
400.6355814163805
 20
132.2771903735357
 30
0.0
 11
398.1355814163806
 21
132.9470628735357
 31
0.0
  0
LINE
  5
1D85
330
1F
100
AcDbEntity
  8
0
  6
ByBlock
 62
     0
370
    -2
100
AcDbLine
 10
398.1355814163806
 20
132.9470628735357
 30
0.0
 11
400.6355814163805
 21
133.6169353735357
 31
0.0
  0
LINE
  5
1D86
330
1F
100
AcDbEntity
  8
0
  6
ByBlock
 62
     0
370
    -2
100
AcDbLine
 10
398.1355814163806
 20
132.9470628735357
 30
0.0
 11
400.6355814163805
 21
132.9470628735357
 31
0.0
  0
LINE
  5
1D87
330
1F
100
AcDbEntity
  8
0
  6
ByBlock
 62
     0
370
    -2
100
AcDbLine
 10
406.8855814163805
 20
133.6169353735357
 30
0.0
 11
409.3855814163806
 21
132.9470628735357
 31
0.0
  0
LINE
  5
1D88
330
1F
100
AcDbEntity
  8
0
  6
ByBlock
 62
     0
370
    -2
100
AcDbLine
 10
409.3855814163806
 20
132.9470628735357
 30
0.0
 11
406.8855814163805
 21
132.2771903735357
 31
0.0
  0
LINE
  5
1D89
330
1F
100
AcDbEntity
  8
0
  6
ByBlock
 62
     0
370
    -2
100
AcDbLine
 10
409.3855814163806
 20
132.9470628735357
 30
0.0
 11
406.8855814163805
 21
132.9470628735357
 31
0.0
  0
TEXT
  5
1D8A
330
1F
100
AcDbEntity
  8
0
 62
     4
100
AcDbText
 10
389.0909833279155
 20
133.5720628735355
 30
0.0
 40
3.0
  1
55
100
AcDbText
  0
LINE
  5
1D8B
330
1F
100
AcDbEntity
  8
0
  6
ByBlock
 62
     0
370
    -2
100
AcDbLine
 10
386.8855814163806
 20
132.2771903735355
 30
0.0
 11
384.3855814163806
 21
132.9470628735355
 31
0.0
  0
LINE
  5
1D8C
330
1F
100
AcDbEntity
  8
0
  6
ByBlock
 62
     0
370
    -2
100
AcDbLine
 10
384.3855814163806
 20
132.9470628735355
 30
0.0
 11
386.8855814163806
 21
133.6169353735355
 31
0.0
  0
LINE
  5
1D8D
330
1F
100
AcDbEntity
  8
0
  6
ByBlock
 62
     0
370
    -2
100
AcDbLine
 10
384.3855814163806
 20
132.9470628735355
 30
0.0
 11
386.8855814163806
 21
132.9470628735355
 31
0.0
  0
LINE
  5
1D8E
330
1F
100
AcDbEntity
  8
0
  6
ByBlock
 62
     0
370
    -2
100
AcDbLine
 10
395.6355814163806
 20
133.6169353735355
 30
0.0
 11
398.1355814163806
 21
132.9470628735355
 31
0.0
  0
LINE
  5
1D8F
330
1F
100
AcDbEntity
  8
0
  6
ByBlock
 62
     0
370
    -2
100
AcDbLine
 10
398.1355814163806
 20
132.9470628735355
 30
0.0
 11
395.6355814163806
 21
132.2771903735355
 31
0.0
  0
LINE
  5
1D90
330
1F
100
AcDbEntity
  8
0
  6
ByBlock
 62
     0
370
    -2
100
AcDbLine
 10
398.1355814163806
 20
132.9470628735355
 30
0.0
 11
395.6355814163806
 21
132.9470628735355
 31
0.0
  0
TEXT
  5
1D91
330
1F
100
AcDbEntity
  8
0
 62
     4
100
AcDbText
 10
329.4203796454197
 20
130.5893621252116
 30
0.0
 40
3.0
  1
(\U+220517.5)
100
AcDbText
  0
LINE
  5
1D92
330
1F
100
AcDbEntity
  8
0
  6
ByBlock
 62
     0
370
    -2
100
AcDbLine
 10
326.2953796454197
 20
129.2944896252116
 30
0.0
 11
323.7953796454197
 21
129.9643621252116
 31
0.0
  0
LINE
  5
1D93
330
1F
100
AcDbEntity
  8
0
  6
ByBlock
 62
     0
370
    -2
100
AcDbLine
 10
323.7953796454197
 20
129.9643621252116
 30
0.0
 11
326.2953796454197
 21
130.6342346252116
 31
0.0
  0
LINE
  5
1D94
330
1F
100
AcDbEntity
  8
0
  6
ByBlock
 62
     0
370
    -2
100
AcDbLine
 10
323.7953796454197
 20
129.9643621252116
 30
0.0
 11
326.2953796454197
 21
129.9643621252116
 31
0.0
  0
LINE
  5
1D95
330
1F
100
AcDbEntity
  8
0
  6
ByBlock
 62
     0
370
    -2
100
AcDbLine
 10
316.9203796454199
 20
130.6342346252116
 30
0.0
 11
319.4203796454199
 21
129.9643621252116
 31
0.0
  0
LINE
  5
1D96
330
1F
100
AcDbEntity
  8
0
  6
ByBlock
 62
     0
370
    -2
100
AcDbLine
 10
319.4203796454199
 20
129.9643621252116
 30
0.0
 11
316.9203796454199
 21
129.2944896252116
 31
0.0
  0
LINE
  5
1D97
330
1F
100
AcDbEntity
  8
0
  6
ByBlock
 62
     0
370
    -2
100
AcDbLine
 10
319.4203796454199
 20
129.9643621252116
 30
0.0
 11
316.9203796454199
 21
129.9643621252116
 31
0.0
  0
TEXT
  5
1D98
330
1F
100
AcDbEntity
  8
0
 62
     4
100
AcDbText
 10
332.2578796454198
 20
153.0047475030121
 30
0.0
 40
3.0
  1
t=4.5
100
AcDbText
  0
LINE
  5
1D99
330
1F
100
AcDbEntity
  8
0
  6
ByBlock
 62
     0
370
    -2
100
AcDbLine
 10
328.6328796454198
 20
151.7098750030121
 30
0.0
 11
326.1328796454198
 21
152.3797475030121
 31
0.0
  0
LINE
  5
1D9A
330
1F
100
AcDbEntity
  8
0
  6
ByBlock
 62
     0
370
    -2
100
AcDbLine
 10
326.1328796454198
 20
152.3797475030121
 30
0.0
 11
328.6328796454198
 21
153.049620003012
 31
0.0
  0
LINE
  5
1D9B
330
1F
100
AcDbEntity
  8
0
  6
ByBlock
 62
     0
370
    -2
100
AcDbLine
 10
326.1328796454198
 20
152.3797475030121
 30
0.0
 11
328.6328796454198
 21
152.3797475030121
 31
0.0
  0
LINE
  5
1D9C
330
1F
100
AcDbEntity
  8
0
  6
ByBlock
 62
     0
370
    -2
100
AcDbLine
 10
322.5078796454198
 20
153.049620003012
 30
0.0
 11
325.0078796454198
 21
152.3797475030121
 31
0.0
  0
LINE
  5
1D9D
330
1F
100
AcDbEntity
  8
0
  6
ByBlock
 62
     0
370
    -2
100
AcDbLine
 10
325.0078796454198
 20
152.3797475030121
 30
0.0
 11
322.5078796454198
 21
151.7098750030121
 31
0.0
  0
LINE
  5
1D9E
330
1F
100
AcDbEntity
  8
0
  6
ByBlock
 62
     0
370
    -2
100
AcDbLine
 10
325.0078796454198
 20
152.3797475030121
 30
0.0
 11
322.5078796454198
 21
152.3797475030121
 31
0.0
  0
TEXT
  5
1D9F
330
1F
100
AcDbEntity
  8
0
 62
     4
100
AcDbText
 10
204.5177811738011
 20
146.9634108094151
 30
0.0
 40
3.0
  1
\U+220527.2 t2.6パイプ
 50
90.0
100
AcDbText
  0
LINE
  5
1DA0
330
1F
100
AcDbEntity
  8
0
  6
ByBlock
 62
     0
370
    -2
100
AcDbLine
 10
204.4729086738011
 20
184.8884108094151
 30
0.0
 11
205.1427811738011
 21
187.3884108094151
 31
0.0
  0
LINE
  5
1DA1
330
1F
100
AcDbEntity
  8
0
  6
ByBlock
 62
     0
370
    -2
100
AcDbLine
 10
205.1427811738011
 20
187.3884108094151
 30
0.0
 11
205.8126536738011
 21
184.8884108094151
 31
0.0
  0
LINE
  5
1DA2
330
1F
100
AcDbEntity
  8
0
  6
ByBlock
 62
     0
370
    -2
100
AcDbLine
 10
205.1427811738011
 20
187.3884108094151
 30
0.0
 11
205.1427811738011
 21
184.8884108094151
 31
0.0
  0
LINE
  5
1DA3
330
1F
100
AcDbEntity
  8
0
  6
ByBlock
 62
     0
370
    -2
100
AcDbLine
 10
205.8126536738011
 20
196.6884108094151
 30
0.0
 11
205.1427811738011
 21
194.1884108094151
 31
0.0
  0
LINE
  5
1DA4
330
1F
100
AcDbEntity
  8
0
  6
ByBlock
 62
     0
370
    -2
100
AcDbLine
 10
205.1427811738011
 20
194.1884108094151
 30
0.0
 11
204.4729086738011
 21
196.6884108094151
 31
0.0
  0
LINE
  5
1DA5
330
1F
100
AcDbEntity
  8
0
  6
ByBlock
 62
     0
370
    -2
100
AcDbLine
 10
205.1427811738011
 20
194.1884108094151
 30
0.0
 11
205.1427811738011
 21
196.6884108094151
 31
0.0
  0
TEXT
  5
1DA6
330
1F
100
AcDbEntity
  8
0
 62
     4
100
AcDbText
 10
118.3725019766382
 20
168.1384108094152
 30
0.0
 40
3.0
  1
t=4.5
 50
90.0
100
AcDbText
  0
LINE
  5
1DA7
330
1F
100
AcDbEntity
  8
0
  6
ByBlock
 62
     0
370
    -2
100
AcDbLine
 10
118.3276294766382
 20
183.7634108094151
 30
0.0
 11
118.9975019766382
 21
186.2634108094151
 31
0.0
  0
LINE
  5
1DA8
330
1F
100
AcDbEntity
  8
0
  6
ByBlock
 62
     0
370
    -2
100
AcDbLine
 10
118.9975019766382
 20
186.2634108094151
 30
0.0
 11
119.6673744766382
 21
183.7634108094151
 31
0.0
  0
LINE
  5
1DA9
330
1F
100
AcDbEntity
  8
0
  6
ByBlock
 62
     0
370
    -2
100
AcDbLine
 10
118.9975019766382
 20
186.2634108094151
 30
0.0
 11
118.9975019766382
 21
183.7634108094151
 31
0.0
  0
LINE
  5
1DAA
330
1F
100
AcDbEntity
  8
0
  6
ByBlock
 62
     0
370
    -2
100
AcDbLine
 10
119.6673744766382
 20
189.8884108094151
 30
0.0
 11
118.9975019766382
 21
187.3884108094151
 31
0.0
  0
LINE
  5
1DAB
330
1F
100
AcDbEntity
  8
0
  6
ByBlock
 62
     0
370
    -2
100
AcDbLine
 10
118.9975019766382
 20
187.3884108094151
 30
0.0
 11
118.3276294766382
 21
189.8884108094151
 31
0.0
  0
LINE
  5
1DAC
330
1F
100
AcDbEntity
  8
0
  6
ByBlock
 62
     0
370
    -2
100
AcDbLine
 10
118.9975019766382
 20
187.3884108094151
 30
0.0
 11
118.9975019766382
 21
189.8884108094151
 31
0.0
  0
TEXT
  5
1DAD
330
1F
100
AcDbEntity
  8
0
 62
     4
100
AcDbText
 10
224.2908070275606
 20
212.0421103543634
 30
0.0
 40
3.0
  1
784
100
AcDbText
  0
LINE
  5
1DAE
330
1F
100
AcDbEntity
  8
0
  6
ByBlock
 62
     0
370
    -2
100
AcDbLine
 10
132.6328796454198
 20
210.7472378543633
 30
0.0
 11
130.1328796454198
 21
211.4171103543633
 31
0.0
  0
LINE
  5
1DAF
330
1F
100
AcDbEntity
  8
0
  6
ByBlock
 62
     0
370
    -2
100
AcDbLine
 10
130.1328796454198
 20
211.4171103543633
 30
0.0
 11
132.6328796454198
 21
212.0869828543633
 31
0.0
  0
LINE
  5
1DB0
330
1F
100
AcDbEntity
  8
0
  6
ByBlock
 62
     0
370
    -2
100
AcDbLine
 10
130.1328796454198
 20
211.4171103543633
 30
0.0
 11
132.6328796454198
 21
211.4171103543633
 31
0.0
  0
LINE
  5
1DB1
330
1F
100
AcDbEntity
  8
0
  6
ByBlock
 62
     0
370
    -2
100
AcDbLine
 10
323.6328796454198
 20
212.0869828543633
 30
0.0
 11
326.1328796454198
 21
211.4171103543633
 31
0.0
  0
LINE
  5
1DB2
330
1F
100
AcDbEntity
  8
0
  6
ByBlock
 62
     0
370
    -2
100
AcDbLine
 10
326.1328796454198
 20
211.4171103543633
 30
0.0
 11
323.6328796454198
 21
210.7472378543633
 31
0.0
  0
LINE
  5
1DB3
330
1F
100
AcDbEntity
  8
0
  6
ByBlock
 62
     0
370
    -2
100
AcDbLine
 10
326.1328796454198
 20
211.4171103543633
 30
0.0
 11
323.6328796454198
 21
211.4171103543633
 31
0.0
  0
TEXT
  5
1DB4
330
1F
100
AcDbEntity
  8
0
 62
     4
100
AcDbText
 10
347.2544868724015
 20
145.0634108094156
 30
0.0
 40
3.0
  1
27
 50
90.0
100
AcDbText
  0
LINE
  5
1DB5
330
1F
100
AcDbEntity
  8
0
  6
ByBlock
 62
     0
370
    -2
100
AcDbLine
 10
348.5493593724016
 20
146.6884108094152
 30
0.0
 11
347.8794868724016
 21
144.1884108094152
 31
0.0
  0
LINE
  5
1DB6
330
1F
100
AcDbEntity
  8
0
  6
ByBlock
 62
     0
370
    -2
100
AcDbLine
 10
347.8794868724016
 20
144.1884108094152
 30
0.0
 11
347.2096143724016
 21
146.6884108094152
 31
0.0
  0
LINE
  5
1DB7
330
1F
100
AcDbEntity
  8
0
  6
ByBlock
 62
     0
370
    -2
100
AcDbLine
 10
347.8794868724016
 20
144.1884108094152
 30
0.0
 11
347.8794868724016
 21
146.6884108094152
 31
0.0
  0
LINE
  5
1DB8
330
1F
100
AcDbEntity
  8
0
  6
ByBlock
 62
     0
370
    -2
100
AcDbLine
 10
347.2096143724016
 20
148.4384108094153
 30
0.0
 11
347.8794868724016
 21
150.9384108094153
 31
0.0
  0
LINE
  5
1DB9
330
1F
100
AcDbEntity
  8
0
  6
ByBlock
 62
     0
370
    -2
100
AcDbLine
 10
347.8794868724016
 20
150.9384108094153
 30
0.0
 11
348.5493593724016
 21
148.4384108094153
 31
0.0
  0
LINE
  5
1DBA
330
1F
100
AcDbEntity
  8
0
  6
ByBlock
 62
     0
370
    -2
100
AcDbLine
 10
347.8794868724016
 20
150.9384108094153
 30
0.0
 11
347.8794868724016
 21
148.4384108094153
 31
0.0
  0
TEXT
  5
1DBB
330
1F
100
AcDbEntity
  8
0
 62
     4
100
AcDbText
 10
424.8706391240956
 20
157.4808536247481
 30
0.0
 40
3.0
  1
75
 50
90.0
100
AcDbText
  0
LINE
  5
1DBC
330
1F
100
AcDbEntity
  8
0
  6
ByBlock
 62
     0
370
    -2
100
AcDbLine
 10
426.1655116240956
 20
153.6884108094152
 30
0.0
 11
425.4956391240956
 21
151.1884108094152
 31
0.0
  0
LINE
  5
1DBD
330
1F
100
AcDbEntity
  8
0
  6
ByBlock
 62
     0
370
    -2
100
AcDbLine
 10
425.4956391240956
 20
151.1884108094152
 30
0.0
 11
424.8257666240956
 21
153.6884108094152
 31
0.0
  0
LINE
  5
1DBE
330
1F
100
AcDbEntity
  8
0
  6
ByBlock
 62
     0
370
    -2
100
AcDbLine
 10
425.4956391240956
 20
151.1884108094152
 30
0.0
 11
425.4956391240956
 21
153.6884108094152
 31
0.0
  0
LINE
  5
1DBF
330
1F
100
AcDbEntity
  8
0
  6
ByBlock
 62
     0
370
    -2
100
AcDbLine
 10
424.8257666240956
 20
167.4384108094152
 30
0.0
 11
425.4956391240956
 21
169.9384108094152
 31
0.0
  0
LINE
  5
1DC0
330
1F
100
AcDbEntity
  8
0
  6
ByBlock
 62
     0
370
    -2
100
AcDbLine
 10
425.4956391240956
 20
169.9384108094152
 30
0.0
 11
426.1655116240956
 21
167.4384108094152
 31
0.0
  0
LINE
  5
1DC1
330
1F
100
AcDbEntity
  8
0
  6
ByBlock
 62
     0
370
    -2
100
AcDbLine
 10
425.4956391240956
 20
169.9384108094152
 30
0.0
 11
425.4956391240956
 21
167.4384108094152
 31
0.0
  0
TEXT
  5
1DC2
330
1F
100
AcDbEntity
  8
0
 62
     4
100
AcDbText
 10
418.6234145714118
 20
157.5047451467167
 30
0.0
 40
3.0
  1
45
 50
90.0
100
AcDbText
  0
LINE
  5
1DC3
330
1F
100
AcDbEntity
  8
0
  6
ByBlock
 62
     0
370
    -2
100
AcDbLine
 10
419.9182870714118
 20
157.4384108094153
 30
0.0
 11
419.2484145714119
 21
154.9384108094153
 31
0.0
  0
LINE
  5
1DC4
330
1F
100
AcDbEntity
  8
0
  6
ByBlock
 62
     0
370
    -2
100
AcDbLine
 10
419.2484145714119
 20
154.9384108094153
 30
0.0
 11
418.5785420714118
 21
157.4384108094153
 31
0.0
  0
LINE
  5
1DC5
330
1F
100
AcDbEntity
  8
0
  6
ByBlock
 62
     0
370
    -2
100
AcDbLine
 10
419.2484145714119
 20
154.9384108094153
 30
0.0
 11
419.2484145714119
 21
157.4384108094153
 31
0.0
  0
LINE
  5
1DC6
330
1F
100
AcDbEntity
  8
0
  6
ByBlock
 62
     0
370
    -2
100
AcDbLine
 10
418.5785420714118
 20
163.6884108094151
 30
0.0
 11
419.2484145714119
 21
166.1884108094151
 31
0.0
  0
LINE
  5
1DC7
330
1F
100
AcDbEntity
  8
0
  6
ByBlock
 62
     0
370
    -2
100
AcDbLine
 10
419.2484145714119
 20
166.1884108094151
 30
0.0
 11
419.9182870714118
 21
163.6884108094151
 31
0.0
  0
LINE
  5
1DC8
330
1F
100
AcDbEntity
  8
0
  6
ByBlock
 62
     0
370
    -2
100
AcDbLine
 10
419.2484145714119
 20
166.1884108094151
 30
0.0
 11
419.2484145714119
 21
163.6884108094151
 31
0.0
  0
TEXT
  5
1DC9
330
1F
100
AcDbEntity
  8
0
 62
     4
100
AcDbText
 10
355.3066713187444
 20
166.5638175209022
 30
0.0
 40
3.0
  1
200
 50
90.0
100
AcDbText
  0
LINE
  5
1DCA
330
1F
100
AcDbEntity
  8
0
  6
ByBlock
 62
     0
370
    -2
100
AcDbLine
 10
355.2617988187444
 20
191.688410809415
 30
0.0
 11
355.9316713187444
 21
194.188410809415
 31
0.0
  0
LINE
  5
1DCB
330
1F
100
AcDbEntity
  8
0
  6
ByBlock
 62
     0
370
    -2
100
AcDbLine
 10
355.9316713187444
 20
194.188410809415
 30
0.0
 11
356.6015438187444
 21
191.688410809415
 31
0.0
  0
LINE
  5
1DCC
330
1F
100
AcDbEntity
  8
0
  6
ByBlock
 62
     0
370
    -2
100
AcDbLine
 10
355.9316713187444
 20
194.188410809415
 30
0.0
 11
355.9316713187444
 21
191.688410809415
 31
0.0
  0
LINE
  5
1DCD
330
1F
100
AcDbEntity
  8
0
  6
ByBlock
 62
     0
370
    -2
100
AcDbLine
 10
356.6015438187444
 20
146.6884108094152
 30
0.0
 11
355.9316713187444
 21
144.1884108094152
 31
0.0
  0
LINE
  5
1DCE
330
1F
100
AcDbEntity
  8
0
  6
ByBlock
 62
     0
370
    -2
100
AcDbLine
 10
355.9316713187444
 20
144.1884108094152
 30
0.0
 11
355.2617988187444
 21
146.6884108094152
 31
0.0
  0
LINE
  5
1DCF
330
1F
100
AcDbEntity
  8
0
  6
ByBlock
 62
     0
370
    -2
100
AcDbLine
 10
355.9316713187444
 20
144.1884108094152
 30
0.0
 11
355.9316713187444
 21
146.6884108094152
 31
0.0
  0
TEXT
  5
1DD0
330
1F
100
AcDbEntity
  8
0
 62
     4
100
AcDbText
 10
222.6328796454198
 20
220.4343328728266
 30
0.0
 40
3.0
  1
800
100
AcDbText
  0
LINE
  5
1DD1
330
1F
100
AcDbEntity
  8
0
  6
ByBlock
 62
     0
370
    -2
100
AcDbLine
 10
128.6328796454198
 20
219.1394603728266
 30
0.0
 11
126.1328796454198
 21
219.8093328728266
 31
0.0
  0
LINE
  5
1DD2
330
1F
100
AcDbEntity
  8
0
  6
ByBlock
 62
     0
370
    -2
100
AcDbLine
 10
126.1328796454198
 20
219.8093328728266
 30
0.0
 11
128.6328796454198
 21
220.4792053728266
 31
0.0
  0
LINE
  5
1DD3
330
1F
100
AcDbEntity
  8
0
  6
ByBlock
 62
     0
370
    -2
100
AcDbLine
 10
126.1328796454198
 20
219.8093328728266
 30
0.0
 11
128.6328796454198
 21
219.8093328728266
 31
0.0
  0
LINE
  5
1DD4
330
1F
100
AcDbEntity
  8
0
  6
ByBlock
 62
     0
370
    -2
100
AcDbLine
 10
323.6328796454198
 20
220.4792053728266
 30
0.0
 11
326.1328796454198
 21
219.8093328728266
 31
0.0
  0
LINE
  5
1DD5
330
1F
100
AcDbEntity
  8
0
  6
ByBlock
 62
     0
370
    -2
100
AcDbLine
 10
326.1328796454198
 20
219.8093328728266
 30
0.0
 11
323.6328796454198
 21
219.1394603728266
 31
0.0
  0
LINE
  5
1DD6
330
1F
100
AcDbEntity
  8
0
  6
ByBlock
 62
     0
370
    -2
100
AcDbLine
 10
326.1328796454198
 20
219.8093328728266
 30
0.0
 11
323.6328796454198
 21
219.8093328728266
 31
0.0
  0
ENDSEC
  0
SECTION
  2
OBJECTS
  0
DICTIONARY
  5
C
330
0
100
AcDbDictionary
281
     1
  3
ACAD_2007HEADERVARS_RT
350
1DDA
  3
ACAD_COLOR
350
73
  3
ACAD_GROUP
350
D
  3
ACAD_LAYOUT
350
1A
  3
ACAD_MATERIAL
350
72
  3
ACAD_MLEADERSTYLE
350
168
  3
ACAD_MLINESTYLE
350
17
  3
ACAD_PLOTSETTINGS
350
19
  3
ACAD_PLOTSTYLENAME
350
E
  3
ACAD_SCALELIST
350
156
  3
ACAD_TABLESTYLE
350
86
  3
ACAD_VISUALSTYLE
350
99
  3
ACDB_RECOMPOSE_DATA
350
1DD8
  3
AcDbVariableDictionary
350
66
  3
DWGPROPS
350
1DD9
  0
DICTIONARY
  5
DD
330
2
100
AcDbDictionary
280
     1
281
     1
  3
ACAD_LAYERSTATES
360
DE
  0
DICTIONARY
  5
8D1
330
10
100
AcDbDictionary
280
     1
281
     1
  3
ADSK_XREC_LAYER_RECONCILED
360
8D2
  0
DICTIONARY
  5
11B2
330
1F
100
AcDbDictionary
280
     1
281
     1
  3
ACAD_SORTENTS
360
11B3
  0
DICTIONARY
  5
1E19
330
1B0F
100
AcDbDictionary
280
     1
281
     1
  3
ACAD_MTEXT_RT
360
1E1A
  0
DICTIONARY
  5
1E1B
330
1B58
100
AcDbDictionary
280
     1
281
     1
  3
ACAD_MTEXT_RT
360
1E1C
  0
DICTIONARY
  5
1DDA
102
{ACAD_REACTORS
330
C
102
}
330
C
100
AcDbDictionary
281
     1
  3
DIMARCSYM
350
1DDC
  3
DIMFXL
350
1DDB
  3
DIMJOGANG
350
1DDD
  0
DICTIONARY
  5
73
102
{ACAD_REACTORS
330
C
102
}
330
C
100
AcDbDictionary
281
     1
  0
DICTIONARY
  5
D
102
{ACAD_REACTORS
330
C
102
}
330
C
100
AcDbDictionary
281
     1
  0
DICTIONARY
  5
1A
102
{ACAD_REACTORS
330
C
102
}
330
C
100
AcDbDictionary
281
     1
  3
Model
350
22
  3
レイアウト1
350
59
  3
レイアウト2
350
5E
  0
DICTIONARY
  5
72
102
{ACAD_REACTORS
330
C
102
}
330
C
100
AcDbDictionary
281
     1
  3
ByBlock
350
97
  3
ByLayer
350
96
  3
Global
350
98
  0
DICTIONARY
  5
168
102
{ACAD_REACTORS
330
C
102
}
330
C
100
AcDbDictionary
281
     1
  3
Standard
350
169
  0
DICTIONARY
  5
17
102
{ACAD_REACTORS
330
C
102
}
330
C
100
AcDbDictionary
281
     1
  3
Standard
350
18
  0
DICTIONARY
  5
19
102
{ACAD_REACTORS
330
C
102
}
330
C
100
AcDbDictionary
281
     1
  0
ACDBDICTIONARYWDFLT
  5
E
102
{ACAD_REACTORS
330
C
102
}
330
C
100
AcDbDictionary
281
     1
  3
Normal
350
F
100
AcDbDictionaryWithDefault
340
F
  0
DICTIONARY
  5
156
102
{ACAD_REACTORS
330
C
102
}
330
C
100
AcDbDictionary
281
     1
  3
A0
350
157
  3
A1
350
158
  3
A2
350
159
  3
A3
350
15A
  3
A4
350
15B
  3
A5
350
15C
  3
A6
350
15D
  3
A7
350
15E
  3
A8
350
15F
  3
A9
350
160
  3
B0
350
161
  3
B1
350
162
  3
B2
350
163
  3
B3
350
164
  3
B4
350
165
  3
B5
350
166
  3
B6
350
167
  0
DICTIONARY
  5
86
102
{ACAD_REACTORS
330
C
102
}
330
C
100
AcDbDictionary
281
     1
  3
Standard
350
87
  0
DICTIONARY
  5
99
102
{ACAD_REACTORS
330
C
102
}
330
C
100
AcDbDictionary
281
     1
  3
2dWireframe
350
9F
  3
3D Hidden
350
A1
  3
3dWireframe
350
A0
  3
Basic
350
9E
  3
Brighten
350
A5
  3
ColorChange
350
A9
  3
Conceptual
350
A2
  3
Dim
350
A4
  3
EdgeColorOff
350
155
  3
Facepattern
350
A8
  3
Flat
350
9A
  3
FlatWithEdges
350
9B
  3
Gouraud
350
9C
  3
GouraudWithEdges
350
9D
  3
Hidden
350
14D
  3
JitterOff
350
153
  3
Linepattern
350
A7
  3
OverhangOff
350
154
  3
Realistic
350
A3
  3
Shaded
350
152
  3
Shaded with edges
350
151
  3
Shades of Gray
350
14E
  3
Sketchy
350
14F
  3
Thicken
350
A6
  3
Wireframe
350
14C
  3
X-Ray
350
150
  0
XRECORD
  5
1DD8
102
{ACAD_REACTORS
330
C
102
}
330
C
100
AcDbXrecord
280
     1
 90
        1
330
87
  0
DICTIONARY
  5
66
102
{ACAD_REACTORS
330
C
102
}
330
C
100
AcDbDictionary
281
     1
  3
CANNOSCALE
350
8D5
  3
CMLEADERSTYLE
350
8D4
  3
CTABLESTYLE
350
89
  3
DIMASSOC
350
67
  3
HIDETEXT
350
6B
  3
INDEXCTL
350
8D7
  3
SORTENTS
350
8D6
  3
XCLIPFRAME
350
1BB3
  0
XRECORD
  5
1DD9
102
{ACAD_REACTORS
330
C
102
}
330
C
100
AcDbXrecord
280
     1
  1
DWGPROPS COOKIE
  2

  3

  4

  6

  7

  8
imamura
  9

300
=
301
=
302
=
303
=
304
=
305
=
306
=
307
=
308
=
309
=
 40
0.0473673263888889
 41
2456367.851636112
 42
2459556.377668576
  1

 90
        0
  0
DICTIONARY
  5
DE
102
{ACAD_REACTORS
330
DD
102
}
330
DD
100
AcDbDictionary
281
     1
  0
XRECORD
  5
8D2
102
{ACAD_REACTORS
330
8D1
102
}
330
8D1
100
AcDbXrecord
280
     1
290
     1
  0
SORTENTSTABLE
  5
11B3
102
{ACAD_REACTORS
330
11B2
102
}
330
11B2
100
AcDbSortentsTable
330
1F
331
6D4
  5
1DC9
331
1D11
  5
1DA7
331
1D50
  5
1D18
331
1D87
  5
1C9B
331
1DC6
  5
1C00
331
66D
  5
1D2C
331
5E5
  5
652
331
57F
  5
5C0
331
5AE
  5
5F2
331
6D0
  5
1DC5
331
1D0D
  5
1DA9
331
1D4C
  5
1D1A
331
1D83
  5
1CA7
331
1DC2
  5
1C09
331
669
  5
1D28
331
5E1
  5
64E
331
614
  5
6A5
331
57B
  5
5BC
331
5AA
  5
5EE
331
53C
  5
53E
331
6CC
  5
1DC1
331
1D09
  5
1DB3
331
1D48
  5
1D21
331
655
  5
1CEB
331
5DD
  5
643
331
610
  5
6A1
331
577
  5
5B8
331
538
  5
53A
331
6C8
  5
1DBD
331
651
  5
1CE7
331
5D9
  5
63D
331
6C6
  5
1DBB
331
63F
  5
1CCB
331
534
  5
536
331
573
  5
575
331
63B
  5
1CC7
331
530
  5
532
331
1CDE
  5
595
331
1C25
  5
1D4A
331
1C64
  5
1CB3
331
1CDA
  5
591
331
1C60
  5
1CBF
331
1C97
  5
1C40
331
1CD6
  5
58D
331
1CD2
  5
589
331
1C19
  5
1D62
331
1C58
  5
1CCC
331
4FE
  5
500
331
4F6
  5
4F8
331
1D7F
  5
1CB1
331
1DBE
  5
1C15
331
4F2
  5
4F4
331
1D05
  5
1DB5
331
1D44
  5
1D27
331
1D7B
  5
1CB8
331
1DBA
  5
1C1F
331
1D01
  5
1DCF
331
1D40
  5
1D38
331
1D77
  5
1CBA
331
1DB6
  5
1C24
331
6AC
  5
1D89
331
60D
  5
69E
331
5A6
  5
5EA
331
5D5
  5
62B
331
56F
  5
571
331
1D3C
  5
1D3F
331
1D73
  5
1CC1
331
1DB2
  5
1C31
331
6A8
  5
1D85
331
1CFD
  5
5B4
331
5D1
  5
616
331
56B
  5
56D
331
5A2
  5
5E6
331
6B6
  5
1D9B
331
52C
  5
52E
331
1D38
  5
1D41
331
6A4
  5
1D81
331
1CF9
  5
5B0
331
605
  5
697
331
59E
  5
5E2
331
633
  5
1CA8
331
528
  5
52A
331
567
  5
569
331
6A0
  5
1D7D
331
649
  5
1CDF
331
601
  5
693
331
59A
  5
5DB
331
68E
  5
1D6C
331
62F
  5
1C94
331
524
  5
526
331
563
  5
565
331
62B
  5
1C86
331
520
  5
522
331
1C8F
  5
1C4F
331
1CCE
  5
585
331
1C54
  5
1CF0
331
1CCA
  5
581
331
1C11
  5
1D92
331
1C87
  5
1C61
331
1CC6
  5
57D
331
1C4C
  5
1CF8
331
1CC2
  5
579
331
1C48
  5
1D06
331
4EE
  5
4F0
331
4EA
  5
4EB
331
1D6F
  5
1CC3
331
1DAE
  5
1C33
331
1D34
  5
1D4F
331
1D6B
  5
1CCF
331
1DAA
  5
1C42
331
1CF5
  5
5AC
331
1D30
  5
1D51
331
1D67
  5
1CDE
331
1DA6
  5
1C4B
331
5FD
  5
684
331
1CF1
  5
5A8
331
596
  5
5D7
331
5CD
  5
612
331
55F
  5
561
331
1D2C
  5
1D58
331
1D63
  5
1CF6
331
1DA2
  5
1C56
331
6D8
  5
1DCD
331
1CED
  5
5A4
331
5F9
  5
679
331
592
  5
5D3
331
55B
  5
55D
331
627
  5
1C73
331
51C
  5
51E
331
5C9
  5
60E
331
1D28
  5
1D5E
331
69C
  5
1D79
331
1CE9
  5
5A0
331
5F5
  5
66F
331
5C5
  5
60A
331
518
  5
51A
331
557
  5
559
331
58E
  5
5CF
331
698
  5
1D75
331
5F1
  5
66B
331
58A
  5
5CB
331
5C1
  5
605
331
514
  5
516
331
553
  5
555
331
510
  5
512
331
1C7F
  5
1C7A
331
1CBA
  5
6A6
331
1C40
  5
1D14
331
1C77
  5
1C88
331
1CB6
  5
6CF
331
1C38
  5
1D1E
331
50D
  5
50F
331
1D9E
  5
1C68
331
509
  5
50B
331
1D24
  5
1D69
331
1D9A
  5
1C6A
331
1D20
  5
1D96
331
1D5F
  5
1CFF
331
1D96
  5
1C7D
331
1DD5
  5
6AD
331
694
  5
1D71
331
5BD
  5
601
331
54F
  5
551
331
E2F
  5
1DD6
331
1D1C
  5
1D98
331
1D5B
  5
1D01
331
1D92
  5
1C7F
331
1DD1
  5
6B2
331
5B9
  5
5FD
331
54B
  5
54D
331
1D18
  5
1D9D
331
5EC
  5
659
331
5B5
  5
5F9
331
662
  5
1D11
331
547
  5
549
331
586
  5
5C7
331
678
  5
1D45
331
5E8
  5
655
331
582
  5
5C3
331
5B1
  5
5F5
331
543
  5
545
331
1CAE
  5
1BFA
331
1C34
  5
1D32
331
1CAA
  5
1C0C
331
1CE5
  5
59C
331
1C2C
  5
1D3A
331
1C6B
  5
1CAA
331
1CA2
  5
1C17
331
1CE1
  5
598
331
1C28
  5
1D4D
331
505
  5
507
331
501
  5
503
331
1D57
  5
1D08
331
1D8E
  5
1C8D
331
1DCD
  5
6D0
331
6D7
  5
1DCC
331
1D14
  5
1DA5
331
1D53
  5
1D0A
331
1D8A
  5
1C93
331
1DC9
  5
11B4
331
6D3
  5
1DC8
331
1D10
  5
1DA6
331
1D4F
  5
1D17
331
1D86
  5
1CA3
331
1DC5
  5
1C08
331
66C
  5
1D2B
331
5E4
  5
651
331
57E
  5
5BF
331
53F
  5
541
331
5AD
  5
5F1
331
6CF
  5
1DC4
331
1D0C
  5
1DAD
331
1D4B
  5
1D1D
331
1D82
  5
1CAE
331
1DC1
  5
1C12
331
5E0
  5
644
331
613
  5
6A4
331
57A
  5
5BB
331
53B
  5
53D
331
5A9
  5
5ED
331
6CB
  5
1DC0
331
1D08
  5
1DB2
331
654
  5
1CEA
331
576
  5
5B7
331
11B1
  5
4E8
331
537
  5
539
331
650
  5
1CE6
331
5D8
  5
637
331
6C5
  5
1DBA
331
63E
  5
1CCA
331
533
  5
535
331
572
  5
574
331
1C9E
  5
1C2C
331
1CDD
  5
594
331
1C24
  5
1D49
331
1CD9
  5
590
331
1C20
  5
1D57
331
1C5F
  5
1CBE
331
1C96
  5
1C3F
331
1CD5
  5
58C
331
1CD1
  5
588
331
1C18
  5
1D61
331
4FD
  5
4FF
331
4F5
  5
4F7
331
1D47
  5
1D26
331
1D7E
  5
1CB0
331
1DBD
  5
1C14
331
4F1
  5
4F3
331
1D04
  5
1DB8
331
1D43
  5
1D35
331
1D7A
  5
1CB7
331
1DB9
  5
1C1E
331
6AF
  5
1D8C
331
1D00
  5
1DD3
331
1D3F
  5
1D37
331
1D76
  5
1CB9
331
1DB5
  5
1C23
331
6AB
  5
1D88
331
60C
  5
69D
331
5A5
  5
5E9
331
56E
  5
570
331
52F
  5
531
331
5D4
  5
628
331
1D3B
  5
1D3E
331
1D72
  5
1CC0
331
1DB1
  5
1C2D
331
6A7
  5
1D84
331
1CFC
  5
5B3
331
608
  5
69A
331
5D0
  5
615
331
56A
  5
56C
331
5A1
  5
5E5
331
52B
  5
52D
331
6A3
  5
1D80
331
1CF8
  5
5AF
331
604
  5
696
331
59D
  5
5E1
331
6B1
  5
1D8E
331
527
  5
529
331
566
  5
568
331
600
  5
692
331
599
  5
5DA
331
68D
  5
1D6B
331
523
  5
525
331
562
  5
564
331
1C8E
  5
1C4E
331
1CCD
  5
584
331
1C53
  5
1CEF
331
1CC9
  5
580
331
1C10
  5
1D91
331
1C86
  5
1C60
331
1CC5
  5
57C
331
1CC1
  5
578
331
4ED
  5
4EE
331
4E9
  5
4EA
331
1D37
  5
1D40
331
1D6E
  5
1CC6
331
1DAD
  5
1C39
331
1D33
  5
1D4E
331
1D6A
  5
1CDD
331
1DA9
  5
1C4A
331
1CF4
  5
5AB
331
1D2F
  5
1D54
331
1D66
  5
1CF3
331
1DA5
  5
1C53
331
5FC
  5
681
331
1CF0
  5
5A7
331
595
  5
5D6
331
5CC
  5
611
331
51F
  5
521
331
55E
  5
560
331
1D2B
  5
1D5D
331
1D62
  5
1CF5
331
1DA1
  5
1C55
331
69F
  5
1D7C
331
1CEC
  5
5A3
331
5F8
  5
674
331
591
  5
5D2
331
55A
  5
55C
331
626
  5
1C72
331
51B
  5
51D
331
5C8
  5
60D
331
69B
  5
1D78
331
1CE8
  5
59F
331
5F4
  5
66E
331
58D
  5
5CE
331
5C4
  5
608
331
517
  5
519
331
556
  5
558
331
5F0
  5
666
331
5C0
  5
604
331
589
  5
5CA
331
513
  5
515
331
552
  5
554
331
1C47
  5
1D05
331
1C7E
  5
1C79
331
1C04
  5
1DAE
331
1C00
  5
1DB1
331
1C3F
  5
1D13
331
1C76
  5
1C87
331
1CB5
  5
6CB
331
1C72
  5
1C9A
331
50C
  5
50E
331
1D27
  5
1D66
331
1D9D
  5
1C67
331
508
  5
50A
331
697
  5
1D74
331
1D23
  5
1D68
331
1D99
  5
1C69
331
1D1F
  5
1D95
331
1D5E
  5
1CFE
331
1D95
  5
1C7C
331
1DD4
  5
6AC
331
693
  5
1D70
331
5BC
  5
600
331
54E
  5
550
331
1D1B
  5
1D97
331
1D5A
  5
1D00
331
1D91
  5
1C82
331
1DD0
  5
6C9
331
67F
  5
1D48
331
5EF
  5
665
331
5B8
  5
5FC
331
54A
  5
54C
331
5EB
  5
658
331
5B4
  5
5F8
331
546
  5
548
331
585
  5
5C6
331
5B0
  5
5F4
331
581
  5
5C2
331
65D
  5
1D0E
331
542
  5
544
331
1C33
  5
1D31
331
1CA9
  5
1C0B
331
1CE4
  5
59B
331
1C6A
  5
1CA9
331
1CE0
  5
597
331
504
  5
506
331
500
  5
502
331
1D17
  5
1D9C
331
1D56
  5
1D07
331
1D8D
  5
1C92
331
1DCC
  5
6DF
331
6D6
  5
1DCB
331
1D13
  5
1DA4
331
1D52
  5
1D0D
331
1D89
  5
1CA0
331
1DC8
  5
1C02
331
66F
  5
1D2E
331
5E7
  5
654
331
6D2
  5
1DC7
331
1D0F
  5
1DAB
331
1D4E
  5
1D1C
331
1D85
  5
1CA2
331
1DC4
  5
1C04
331
66B
  5
1D2A
331
5E3
  5
650
331
57D
  5
5BE
331
53E
  5
540
331
5AC
  5
5F0
331
6CE
  5
1DC3
331
1D0B
  5
1DAC
331
1D4A
  5
1D23
331
1D81
  5
1CAD
331
1DC0
  5
1C11
331
657
  5
1CED
331
5A8
  5
5EC
331
612
  5
6A3
331
579
  5
5BA
331
11B4
  5
4EF
331
53A
  5
53C
331
6CA
  5
1DBF
331
653
  5
1CE9
331
5DB
  5
63F
331
575
  5
5B6
331
536
  5
538
331
6C4
  5
1DB9
331
63D
  5
1CC9
331
532
  5
534
331
571
  5
573
331
1C27
  5
1D4C
331
1C66
  5
1CB5
331
1C9D
  5
1C2B
331
1CDC
  5
593
331
1CD8
  5
58F
331
1C1F
  5
1D56
331
1C5E
  5
1CBD
331
1C95
  5
1C3E
331
1CD4
  5
58B
331
1C5A
  5
1CCE
331
1CD0
  5
587
331
4F8
  5
4FC
331
4F4
  5
4F6
331
1D07
  5
1DB7
331
1D46
  5
1D25
331
1D7D
  5
1CAF
331
1DBC
  5
1C13
331
4F0
  5
4F2
331
1D03
  5
1DD1
331
1D42
  5
1D34
331
1D79
  5
1CB6
331
1DB8
  5
1C1D
331
6AE
  5
1D8B
331
60F
  5
6A0
331
5D7
  5
633
331
1CFF
  5
1DD2
331
1D3E
  5
1D36
331
1D75
  5
1CBC
331
1DB4
  5
1C26
331
6AA
  5
1D87
331
60B
  5
69C
331
5A4
  5
5E8
331
56D
  5
56F
331
52E
  5
530
331
5D3
  5
627
331
1D3A
  5
1D3D
331
1D71
  5
1CC5
331
1DB0
  5
1C38
331
6A6
  5
1D83
331
1CFB
  5
5B2
331
64F
  5
1CE5
331
607
  5
699
331
5A0
  5
5E4
331
52A
  5
52C
331
569
  5
56B
331
6A2
  5
1D7F
331
64B
  5
1CE0
331
603
  5
695
331
59C
  5
5E0
331
6B0
  5
1D8D
331
526
  5
528
331
565
  5
567
331
598
  5
5D9
331
522
  5
524
331
561
  5
563
331
1C17
  5
1D60
331
1C8D
  5
1C4D
331
1CCC
  5
583
331
1C52
  5
1CEE
331
1CC8
  5
57F
331
1C0F
  5
1D90
331
1C4E
  5
1CFC
331
1C85
  5
1C5C
331
1CC4
  5
57B
331
1C0B
  5
1DA2
331
1CC0
  5
577
331
4EC
  5
4ED
331
4E8
  5
4E9
331
1D36
  5
1D43
331
1D6D
  5
1CD6
331
1DAC
  5
1C44
331
1CF7
  5
5AE
331
1D32
  5
1D53
331
1D69
  5
1CDA
331
1DA8
  5
1C49
331
5FF
  5
691
331
1CF3
  5
5AA
331
5CF
  5
614
331
1D2E
  5
1D5A
331
1D65
  5
1CF2
331
1DA4
  5
1C52
331
5FB
  5
67F
331
1CEF
  5
5A6
331
594
  5
5D5
331
55D
  5
55F
331
51E
  5
520
331
5CB
  5
610
331
1D2A
  5
1D5C
331
1D61
  5
1CF4
331
1DA0
  5
1C54
331
69E
  5
1D7B
331
1CEB
  5
5A2
331
5F7
  5
671
331
5C7
  5
60C
331
559
  5
55B
331
590
  5
5D1
331
625
  5
1C6E
331
51A
  5
51C
331
69A
  5
1D77
331
5F3
  5
66D
331
58C
  5
5CD
331
5C3
  5
607
331
516
  5
518
331
555
  5
557
331
588
  5
5C9
331
512
  5
514
331
551
  5
553
331
670
  5
1D2F
331
1C07
  5
1DA8
331
1C46
  5
1D04
331
1C7D
  5
1C78
331
1CBC
  5
6A8
331
1C42
  5
1D16
331
1BFF
  5
1DB0
331
1C3E
  5
1D12
331
1CB4
  5
6CA
331
1BFB
  5
1DD5
331
1C3A
  5
1D20
331
1C71
  5
1C99
331
1CB0
  5
1BFC
331
50F
  5
511
331
50B
  5
50D
331
1D26
  5
1D65
331
1D9C
  5
1C66
331
696
  5
1D73
331
1D22
  5
1D67
331
1D98
  5
1C6C
331
5BF
  5
603
331
1D1E
  5
1D94
331
1D5D
  5
1CFD
331
1D94
  5
1C81
331
1DD3
  5
6BA
331
692
  5
1D6F
331
5BB
  5
5FF
331
54D
  5
54F
331
1D1A
  5
1D9A
331
1D59
  5
1D03
331
1D90
  5
1C8F
331
5EE
  5
662
331
5B7
  5
5FB
331
549
  5
54B
331
67A
  5
1D47
331
5EA
  5
657
331
584
  5
5C5
331
5B3
  5
5F7
331
660
  5
1D10
331
545
  5
547
331
580
  5
5C1
331
541
  5
543
331
1C32
  5
1D30
331
1CA8
  5
1C0A
331
1CE7
  5
59E
331
1C2E
  5
1D3C
331
1CA4
  5
1C1C
331
1CE3
  5
59A
331
507
  5
509
331
503
  5
505
331
1DCF
  5
6D5
331
1D16
  5
1DA0
331
1D55
  5
1D0C
331
1D8C
  5
1C91
331
1DCB
  5
6D7
331
6D5
  5
1DCA
331
1D12
  5
1DA3
331
1D51
  5
1D19
331
1D88
  5
1C9F
331
1DC7
  5
1C01
331
66E
  5
1D2D
331
5E6
  5
653
331
5AF
  5
5F3
331
6D1
  5
1DC6
331
1D0E
  5
1DAA
331
1D4D
  5
1D1B
331
1D84
  5
1CA1
331
1DC3
  5
1C03
331
66A
  5
1D29
331
5E2
  5
64F
331
57C
  5
5BD
331
53D
  5
53F
331
5AB
  5
5EF
331
6CD
  5
1DC2
331
1D0A
  5
1DB4
331
1D49
  5
1D22
331
1D80
  5
1CAC
331
656
  5
1CEC
331
611
  5
6A2
331
578
  5
5B9
331
539
  5
53B
331
6C9
  5
1DBE
331
652
  5
1CE8
331
5DA
  5
63E
331
6C7
  5
1DBC
331
535
  5
537
331
63C
  5
1CC8
331
531
  5
533
331
570
  5
572
331
1CDF
  5
596
331
1C26
  5
1D4B
331
1C65
  5
1CB4
331
1C9C
  5
1C2A
331
1CDB
  5
592
331
1C98
  5
1C41
331
1CD7
  5
58E
331
1C1E
  5
1D55
331
1C94
  5
1C3D
331
1CD3
  5
58A
331
1C1A
  5
1D63
331
1C59
  5
1CCD
331
1C90
  5
1C50
331
4FF
  5
501
331
4FB
  5
4FD
331
4F7
  5
4FB
331
1DBF
  5
1C10
331
4F3
  5
4F5
331
1D06
  5
1DB6
331
1D45
  5
1D24
331
1D7C
  5
1CB2
331
1DBB
  5
1C16
331
1D02
  5
1DD0
331
1D41
  5
1D33
331
1D78
  5
1CBB
331
1DB7
  5
1C25
331
6AD
  5
1D8A
331
60E
  5
69F
331
5A7
  5
5EB
331
5D6
  5
62F
331
1D3D
  5
1D39
331
1D74
  5
1CC2
331
1DB3
  5
1C32
331
6A9
  5
1D86
331
1CFE
  5
5B5
331
60A
  5
69B
331
5A3
  5
5E7
331
56C
  5
56E
331
52D
  5
52F
331
5D2
  5
626
331
1D39
  5
1D42
331
1D70
  5
1CC4
331
6A5
  5
1D82
331
1CFA
  5
5B1
331
64E
  5
1CE4
331
606
  5
698
331
59F
  5
5E3
331
529
  5
52B
331
568
  5
56A
331
6A1
  5
1D7E
331
602
  5
694
331
59B
  5
5DD
331
68F
  5
1D6D
331
525
  5
527
331
564
  5
566
331
521
  5
523
331
560
  5
562
331
1CCF
  5
586
331
1C16
  5
1D5F
331
1C8C
  5
1C4C
331
1CCB
  5
582
331
1C12
  5
1D93
331
1C88
  5
1C62
331
1CC7
  5
57E
331
1C0E
  5
1D8F
331
1C4D
  5
1CF9
331
1C84
  5
1C5B
331
1CC3
  5
57A
331
1C0A
  5
1DA1
331
1C80
  5
1C7B
331
4EF
  5
4F1
331
4EB
  5
4EC
331
4E7
  5
4E7
331
1DAF
  5
1C37
331
1D35
  5
1D50
331
1D6C
  5
1CD3
331
1DAB
  5
1C43
331
1CF6
  5
5AD
331
1D31
  5
1D52
331
1D68
  5
1CD7
331
1DA7
  5
1C48
331
5FE
  5
68F
331
1CF2
  5
5A9
331
597
  5
5D8
331
5CE
  5
613
331
1D2D
  5
1D59
331
1D64
  5
1CF1
331
1DA3
  5
1C51
331
6D9
  5
1DCE
331
1CEE
  5
5A5
331
5FA
  5
67A
331
593
  5
5D4
331
55C
  5
55E
331
51D
  5
51F
331
5CA
  5
60F
331
1D29
  5
1D5B
331
1D60
  5
1CF7
331
69D
  5
1D7A
331
1CEA
  5
5A1
331
5F6
  5
670
331
5C6
  5
60B
331
624
  5
1C6D
331
519
  5
51B
331
558
  5
55A
331
58F
  5
5D0
331
699
  5
1D76
331
5F2
  5
66C
331
58B
  5
5CC
331
5C2
  5
606
331
677
  5
1D44
331
515
  5
517
331
554
  5
556
331
511
  5
513
331
550
  5
552
331
1C7C
  5
1C74
331
1CBB
  5
6A7
331
1C41
  5
1D15
331
1C78
  5
1C8C
331
1BFE
  5
1DAF
331
1BFA
  5
1DD4
331
1C39
  5
1D1F
331
1C70
  5
1C95
331
50E
  5
510
331
1D9F
  5
1C5A
331
50A
  5
50C
331
1D25
  5
1D64
331
1D9B
  5
1C6B
331
695
  5
1D72
331
1D21
  5
1D6A
331
1D97
  5
1C7E
331
1DD6
  5
6AE
331
5BE
  5
602
331
1D1D
  5
1D99
331
1D5C
  5
1D02
331
1D93
  5
1C80
331
1DD2
  5
6B6
331
691
  5
1D6E
331
5BA
  5
5FE
331
54C
  5
54E
331
1D19
  5
1D9E
331
1D58
  5
1D09
331
5ED
  5
660
331
5B6
  5
5FA
331
548
  5
54A
331
587
  5
5C8
331
679
  5
1D46
331
5E9
  5
656
331
583
  5
5C4
331
5B2
  5
5F6
331
65F
  5
1D0F
331
544
  5
546
331
540
  5
542
331
1CAF
  5
1BFB
331
1CE6
  5
59D
331
1C2D
  5
1D3B
331
1C6C
  5
1CAB
331
1CA3
  5
1C18
331
1CE2
  5
599
331
506
  5
508
331
502
  5
504
331
1D8F
  5
1C8E
331
1DCE
  5
6D1
331
1D15
  5
1D9F
331
1D54
  5
1D0B
331
1D8B
  5
1C90
331
1DCA
  5
6D6
  0
XRECORD
  5
1E1A
102
{ACAD_REACTORS
330
1E19
102
}
330
1E19
100
AcDbXrecord
280
     1
 40
1010.0
  1
8-\U+22056.5穴
  0
XRECORD
  5
1E1C
102
{ACAD_REACTORS
330
1E1B
102
}
330
1E1B
100
AcDbXrecord
280
     1
 40
587.0
  1
4-\U+220511穴
  0
XRECORD
  5
1DDC
102
{ACAD_REACTORS
330
1DDA
102
}
330
1DDA
100
AcDbXrecord
280
     1
 70
     2
  0
XRECORD
  5
1DDB
102
{ACAD_REACTORS
330
1DDA
102
}
330
1DDA
100
AcDbXrecord
280
     1
 40
1.25
  0
XRECORD
  5
1DDD
102
{ACAD_REACTORS
330
1DDA
102
}
330
1DDA
100
AcDbXrecord
280
     1
 40
1.570796326794896
  0
LAYOUT
  5
22
102
{ACAD_XDICTIONARY
360
1DDE
102
}
102
{ACAD_REACTORS
330
1A
102
}
330
1A
100
AcDbPlotSettings
  1

  2
none_device
  4
ANSI_A_(8.50_x_11.00_Inches)
  6

 40
6.349999904632567
 41
19.04999923706055
 42
6.350006103515625
 43
19.04998779296875
 44
215.8999938964844
 45
279.3999938964844
 46
0.0
 47
0.0
 48
0.0
 49
0.0
140
0.0
141
0.0
142
1.0
143
2.584895464708373
 70
 11952
 72
     0
 73
     1
 74
     0
  7

 75
     0
147
0.3868628397755418
148
0.0
149
0.0
100
AcDbLayout
  1
Model
 70
     1
 71
     0
 10
0.0
 20
0.0
 11
12.0
 21
9.0
 12
0.0
 22
0.0
 32
0.0
 14
0.0
 24
0.0
 34
0.0
 15
0.0
 25
0.0
 35
0.0
146
0.0
 13
0.0
 23
0.0
 33
0.0
 16
1.0
 26
0.0
 36
0.0
 17
0.0
 27
1.0
 37
0.0
 76
     0
330
1F
331
94
  0
LAYOUT
  5
59
102
{ACAD_XDICTIONARY
360
1DE0
102
}
102
{ACAD_REACTORS
330
1A
102
}
330
1A
100
AcDbPlotSettings
  1

  2
None
  4

  6

 40
0.0
 41
0.0
 42
0.0
 43
0.0
 44
0.0
 45
0.0
 46
0.0
 47
0.0
 48
0.0
 49
0.0
140
0.0
141
0.0
142
1.0
143
1.0
 70
   688
 72
     0
 73
     0
 74
     5
  7

 75
    16
147
1.0
148
0.0
149
0.0
100
AcDbLayout
  1
レイアウト1
 70
     1
 71
     1
 10
0.0
 20
0.0
 11
12.0
 21
9.0
 12
0.0
 22
0.0
 32
0.0
 14
0.0
 24
0.0
 34
0.0
 15
0.0
 25
0.0
 35
0.0
146
0.0
 13
0.0
 23
0.0
 33
0.0
 16
1.0
 26
0.0
 36
0.0
 17
0.0
 27
1.0
 37
0.0
 76
     0
330
58
  0
LAYOUT
  5
5E
102
{ACAD_XDICTIONARY
360
1DE2
102
}
102
{ACAD_REACTORS
330
1A
102
}
330
1A
100
AcDbPlotSettings
  1

  2
None
  4

  6

 40
0.0
 41
0.0
 42
0.0
 43
0.0
 44
0.0
 45
0.0
 46
0.0
 47
0.0
 48
0.0
 49
0.0
140
0.0
141
0.0
142
1.0
143
1.0
 70
   688
 72
     0
 73
     0
 74
     5
  7

 75
    16
147
1.0
148
0.0
149
0.0
100
AcDbLayout
  1
レイアウト2
 70
     1
 71
     2
 10
0.0
 20
0.0
 11
12.0
 21
9.0
 12
0.0
 22
0.0
 32
0.0
 14
0.0
 24
0.0
 34
0.0
 15
0.0
 25
0.0
 35
0.0
146
0.0
 13
0.0
 23
0.0
 33
0.0
 16
1.0
 26
0.0
 36
0.0
 17
0.0
 27
1.0
 37
0.0
 76
     0
330
5D
  0
MATERIAL
  5
97
102
{ACAD_XDICTIONARY
360
8EA
102
}
102
{ACAD_REACTORS
330
72
102
}
330
72
100
AcDbMaterial
  1
ByBlock
 73
     1
 78
     1
172
     1
176
     1
270
     1
274
     1
  0
MATERIAL
  5
96
102
{ACAD_XDICTIONARY
360
8E8
102
}
102
{ACAD_REACTORS
330
72
102
}
330
72
100
AcDbMaterial
  1
ByLayer
 73
     1
 78
     1
172
     1
176
     1
270
     1
274
     1
  0
MATERIAL
  5
98
102
{ACAD_XDICTIONARY
360
8EC
102
}
102
{ACAD_REACTORS
330
72
102
}
330
72
100
AcDbMaterial
  1
Global
 73
     1
 78
     1
172
     1
176
     1
270
     1
274
     1
  0
MLEADERSTYLE
  5
169
102
{ACAD_REACTORS
330
168
102
}
330
168
100
AcDbMLeaderStyle
170
     2
171
     1
172
     0
 90
        2
 40
0.0
 41
0.0
173
     1
 91
-1056964608
340
14
 92
       -2
290
     1
 42
2.0
291
     1
 43
0.36
  3
Standard
 44
4.0
300

342
11
174
     1
178
     6
175
     1
176
     0
 93
-1056964608
 45
4.0
292
     0
297
     0
 46
4.0
 94
-1056964608
 47
1.0
 49
1.0
140
1.0
293
     1
141
0.0
294
     1
177
     0
142
1.0
295
     0
296
     0
143
0.125
1001
ACAD_MLEADERVER
1070
     2
  0
MLINESTYLE
  5
18
102
{ACAD_REACTORS
330
17
102
}
330
17
100
AcDbMlineStyle
  2
STANDARD
 70
     0
  3

 62
   256
 51
90.0
 52
90.0
 71
     2
 49
0.5
 62
   256
  6
BYLAYER
 49
-0.5
 62
   256
  6
BYLAYER
  0
ACDBPLACEHOLDER
  5
F
102
{ACAD_REACTORS
330
E
102
}
330
E
  0
SCALE
  5
157
102
{ACAD_REACTORS
330
156
102
}
330
156
100
AcDbScale
 70
     0
300
1:1
140
1.0
141
1.0
290
     1
  0
SCALE
  5
158
102
{ACAD_REACTORS
330
156
102
}
330
156
100
AcDbScale
 70
     0
300
1:2
140
1.0
141
2.0
290
     0
  0
SCALE
  5
159
102
{ACAD_REACTORS
330
156
102
}
330
156
100
AcDbScale
 70
     0
300
1:4
140
1.0
141
4.0
290
     0
  0
SCALE
  5
15A
102
{ACAD_REACTORS
330
156
102
}
330
156
100
AcDbScale
 70
     0
300
1:5
140
1.0
141
5.0
290
     0
  0
SCALE
  5
15B
102
{ACAD_REACTORS
330
156
102
}
330
156
100
AcDbScale
 70
     0
300
1:8
140
1.0
141
8.0
290
     0
  0
SCALE
  5
15C
102
{ACAD_REACTORS
330
156
102
}
330
156
100
AcDbScale
 70
     0
300
1:10
140
1.0
141
10.0
290
     0
  0
SCALE
  5
15D
102
{ACAD_REACTORS
330
156
102
}
330
156
100
AcDbScale
 70
     0
300
1:16
140
1.0
141
16.0
290
     0
  0
SCALE
  5
15E
102
{ACAD_REACTORS
330
156
102
}
330
156
100
AcDbScale
 70
     0
300
1:20
140
1.0
141
20.0
290
     0
  0
SCALE
  5
15F
102
{ACAD_REACTORS
330
156
102
}
330
156
100
AcDbScale
 70
     0
300
1:30
140
1.0
141
30.0
290
     0
  0
SCALE
  5
160
102
{ACAD_REACTORS
330
156
102
}
330
156
100
AcDbScale
 70
     0
300
1:40
140
1.0
141
40.0
290
     0
  0
SCALE
  5
161
102
{ACAD_REACTORS
330
156
102
}
330
156
100
AcDbScale
 70
     0
300
1:50
140
1.0
141
50.0
290
     0
  0
SCALE
  5
162
102
{ACAD_REACTORS
330
156
102
}
330
156
100
AcDbScale
 70
     0
300
1:100
140
1.0
141
100.0
290
     0
  0
SCALE
  5
163
102
{ACAD_REACTORS
330
156
102
}
330
156
100
AcDbScale
 70
     0
300
2:1
140
2.0
141
1.0
290
     0
  0
SCALE
  5
164
102
{ACAD_REACTORS
330
156
102
}
330
156
100
AcDbScale
 70
     0
300
4:1
140
4.0
141
1.0
290
     0
  0
SCALE
  5
165
102
{ACAD_REACTORS
330
156
102
}
330
156
100
AcDbScale
 70
     0
300
8:1
140
8.0
141
1.0
290
     0
  0
SCALE
  5
166
102
{ACAD_REACTORS
330
156
102
}
330
156
100
AcDbScale
 70
     0
300
10:1
140
10.0
141
1.0
290
     0
  0
SCALE
  5
167
102
{ACAD_REACTORS
330
156
102
}
330
156
100
AcDbScale
 70
     0
300
100:1
140
100.0
141
1.0
290
     0
  0
TABLESTYLE
  5
87
102
{ACAD_XDICTIONARY
360
8D9
102
}
102
{ACAD_REACTORS
330
86
102
}
330
86
100
AcDbTableStyle
  3
Standard
 70
     0
 71
     0
 40
0.06
 41
0.06
280
     0
281
     0
  7
Standard
140
0.18
170
     2
 62
     0
 63
     7
283
     0
274
    -2
284
     1
 64
     0
275
    -2
285
     1
 65
     0
276
    -2
286
     1
 66
     0
277
    -2
287
     1
 67
     0
278
    -2
288
     1
 68
     0
279
    -2
289
     1
 69
     0
  7
Standard
140
0.25
170
     5
 62
     0
 63
     7
283
     0
274
    -2
284
     1
 64
     0
275
    -2
285
     1
 65
     0
276
    -2
286
     1
 66
     0
277
    -2
287
     1
 67
     0
278
    -2
288
     1
 68
     0
279
    -2
289
     1
 69
     0
  7
Standard
140
0.18
170
     5
 62
     0
 63
     7
283
     0
274
    -2
284
     1
 64
     0
275
    -2
285
     1
 65
     0
276
    -2
286
     1
 66
     0
277
    -2
287
     1
 67
     0
278
    -2
288
     1
 68
     0
279
    -2
289
     1
 69
     0
  0
VISUALSTYLE
  5
9F
102
{ACAD_XDICTIONARY
360
1DEF
102
}
102
{ACAD_REACTORS
330
99
102
}
330
99
100
AcDbVisualStyle
  2

 70
     4
 71
     0
 72
     2
 73
     1
 90
        0
 40
-0.6
 41
-30.0
 62
     5
 63
     7
 74
     1
 91
        4
 64
     7
 65
   257
 75
     1
175
     1
 42
1.0
 92
        0
 66
   257
 43
1.0
 76
     1
 77
     6
 78
     2
 67
     7
 79
     5
170
     0
171
     0
290
     0
174
     0
 93
        1
 44
0.0
173
     0
291
     0
 45
0.0
1001
ACAD
1000
AcDbSavedByObjectVersion
1070
     0
  0
VISUALSTYLE
  5
A1
102
{ACAD_XDICTIONARY
360
1DF3
102
}
102
{ACAD_REACTORS
330
99
102
}
330
99
100
AcDbVisualStyle
  2

 70
     6
 71
     1
 72
     2
 73
     2
 90
        0
 40
-0.6
 41
-30.0
 62
     5
 63
     7
 74
     2
 91
        2
 64
     7
 65
   257
 75
     2
175
     1
 42
40.0
 92
        0
 66
   257
 43
1.0
 76
     1
 77
     6
 78
     2
 67
     7
 79
     3
170
     0
171
     0
290
     0
174
     0
 93
        1
 44
0.0
173
     0
291
     0
 45
0.0
1001
ACAD
1000
AcDbSavedByObjectVersion
1070
     0
  0
VISUALSTYLE
  5
A0
102
{ACAD_XDICTIONARY
360
1DF1
102
}
102
{ACAD_REACTORS
330
99
102
}
330
99
100
AcDbVisualStyle
  2

 70
     5
 71
     0
 72
     2
 73
     1
 90
        0
 40
-0.6
 41
-30.0
 62
     5
 63
     7
 74
     1
 91
        4
 64
     7
 65
   257
 75
     1
175
     1
 42
1.0
 92
        0
 66
   257
 43
1.0
 76
     1
 77
     6
 78
     2
 67
     7
 79
     5
170
     0
171
     0
290
     0
174
     0
 93
        1
 44
0.0
173
     0
291
     0
 45
0.0
1001
ACAD
1000
AcDbSavedByObjectVersion
1070
     0
  0
VISUALSTYLE
  5
9E
102
{ACAD_XDICTIONARY
360
1DED
102
}
102
{ACAD_REACTORS
330
99
102
}
330
99
100
AcDbVisualStyle
  2

 70
     7
 71
     1
 72
     0
 73
     1
 90
        0
 40
-0.6
 41
-30.0
 62
     5
 63
     7
 74
     0
 91
        4
 64
     7
 65
   257
 75
     1
175
     1
 42
1.0
 92
        8
 66
     7
 43
1.0
 76
     1
 77
     6
 78
     2
 67
     7
 79
     5
170
     0
171
     0
290
     0
174
     0
 93
        1
 44
0.0
173
     0
291
     1
 45
0.0
1001
ACAD
1000
AcDbSavedByObjectVersion
1070
     0
  0
VISUALSTYLE
  5
A5
102
{ACAD_XDICTIONARY
360
1DFB
102
}
102
{ACAD_REACTORS
330
99
102
}
330
99
100
AcDbVisualStyle
  2

 70
    12
 71
     2
 72
     2
 73
     1
 90
        0
 40
-0.6
 41
-30.0
 62
     5
 63
     7
 74
     1
 91
        4
 64
     7
 65
   257
 75
     1
175
     1
 42
1.0
 92
        8
 66
     7
 43
1.0
 76
     1
 77
     6
 78
     2
 67
     7
 79
     5
170
     0
171
     0
290
     0
174
     0
 93
        1
 44
50.0
173
     0
291
     1
 45
0.0
1001
ACAD
1000
AcDbSavedByObjectVersion
1070
     0
  0
VISUALSTYLE
  5
A9
102
{ACAD_XDICTIONARY
360
1E03
102
}
102
{ACAD_REACTORS
330
99
102
}
330
99
100
AcDbVisualStyle
  2

 70
    16
 71
     2
 72
     2
 73
     3
 90
        0
 40
-0.6
 41
-30.0
 62
     5
 63
     8
 74
     1
 91
        4
 64
     7
 65
   257
 75
     1
175
     1
 42
1.0
 92
        8
 66
     8
 43
1.0
 76
     1
 77
     6
 78
     2
 67
     7
 79
     5
170
     0
171
     0
290
     0
174
     0
 93
        1
 44
0.0
173
     0
291
     1
 45
0.0
1001
ACAD
1000
AcDbSavedByObjectVersion
1070
     0
  0
VISUALSTYLE
  5
A2
102
{ACAD_XDICTIONARY
360
1DF5
102
}
102
{ACAD_REACTORS
330
99
102
}
330
99
100
AcDbVisualStyle
  2

 70
     9
 71
     3
 72
     2
 73
     1
 90
        0
 40
-0.6
 41
-30.0
 62
     5
 63
     7
 74
     2
 91
        2
 64
     7
 65
   257
 75
     1
175
     1
 42
40.0
 92
        8
 66
     7
 43
1.0
 76
     1
 77
     6
 78
     2
 67
     7
 79
     3
170
     0
171
     0
290
     0
174
     0
 93
        1
 44
0.0
173
     0
291
     0
 45
0.0
1001
ACAD
1000
AcDbSavedByObjectVersion
1070
     0
  0
VISUALSTYLE
  5
A4
102
{ACAD_XDICTIONARY
360
1DF9
102
}
102
{ACAD_REACTORS
330
99
102
}
330
99
100
AcDbVisualStyle
  2

 70
    11
 71
     2
 72
     2
 73
     1
 90
        0
 40
-0.6
 41
-30.0
 62
     5
 63
     7
 74
     1
 91
        4
 64
     7
 65
   257
 75
     1
175
     1
 42
1.0
 92
        8
 66
     7
 43
1.0
 76
     1
 77
     6
 78
     2
 67
     7
 79
     5
170
     0
171
     0
290
     0
174
     0
 93
        1
 44
-50.0
173
     0
291
     1
 45
0.0
1001
ACAD
1000
AcDbSavedByObjectVersion
1070
     0
  0
VISUALSTYLE
  5
155
102
{ACAD_XDICTIONARY
360
1E17
102
}
102
{ACAD_REACTORS
330
99
102
}
330
99
100
AcDbVisualStyle
  2

 70
    22
 71
     2
 72
     2
 73
     0
 90
        0
 40
-0.6
 41
-30.0
 62
     5
 63
     7
 74
     1
 91
        4
 64
     7
 65
   257
 75
     1
175
     1
 42
1.0
 92
        8
 66
     7
 43
1.0
 76
     1
 77
     6
 78
     2
 67
     7
 79
     5
170
     0
171
     0
290
     0
174
     0
 93
        1
 44
0.0
173
     0
291
     1
 45
0.0
1001
ACAD
1000
AcDbSavedByObjectVersion
1070
     0
  0
VISUALSTYLE
  5
A8
102
{ACAD_XDICTIONARY
360
1E01
102
}
102
{ACAD_REACTORS
330
99
102
}
330
99
100
AcDbVisualStyle
  2

 70
    15
 71
     2
 72
     2
 73
     1
 90
        0
 40
-0.6
 41
-30.0
 62
     5
 63
     7
 74
     1
 91
        4
 64
     7
 65
   257
 75
     1
175
     1
 42
1.0
 92
        8
 66
     7
 43
1.0
 76
     1
 77
     6
 78
     2
 67
     7
 79
     5
170
     0
171
     0
290
     0
174
     0
 93
        1
 44
0.0
173
     0
291
     1
 45
0.0
1001
ACAD
1000
AcDbSavedByObjectVersion
1070
     0
  0
VISUALSTYLE
  5
9A
102
{ACAD_XDICTIONARY
360
1DE5
102
}
102
{ACAD_REACTORS
330
99
102
}
330
99
100
AcDbVisualStyle
  2

 70
     0
 71
     2
 72
     1
 73
     1
 90
        2
 40
-0.6
 41
30.0
 62
     5
 63
     7
 74
     0
 91
        4
 64
     7
 65
   257
 75
     1
175
     1
 42
1.0
 92
        8
 66
     7
 43
1.0
 76
     1
 77
     6
 78
     2
 67
     7
 79
     5
170
     0
171
     0
290
     0
174
     0
 93
        1
 44
0.0
173
     0
291
     1
 45
0.0
1001
ACAD
1000
AcDbSavedByObjectVersion
1070
     0
  0
VISUALSTYLE
  5
9B
102
{ACAD_XDICTIONARY
360
1DE7
102
}
102
{ACAD_REACTORS
330
99
102
}
330
99
100
AcDbVisualStyle
  2

 70
     1
 71
     2
 72
     1
 73
     1
 90
        2
 40
-0.6
 41
30.0
 62
     5
 63
     7
 74
     1
 91
        4
 64
     7
 65
   257
 75
     1
175
     1
 42
1.0
 92
        0
 66
   257
 43
1.0
 76
     1
 77
     6
 78
     2
 67
     7
 79
     5
170
     0
171
     0
290
     0
174
     0
 93
        1
 44
0.0
173
     0
291
     1
 45
0.0
1001
ACAD
1000
AcDbSavedByObjectVersion
1070
     0
  0
VISUALSTYLE
  5
9C
102
{ACAD_XDICTIONARY
360
1DE9
102
}
102
{ACAD_REACTORS
330
99
102
}
330
99
100
AcDbVisualStyle
  2

 70
     2
 71
     2
 72
     2
 73
     1
 90
        2
 40
-0.6
 41
30.0
 62
     5
 63
     7
 74
     0
 91
        4
 64
     7
 65
   257
 75
     1
175
     1
 42
1.0
 92
        0
 66
     7
 43
1.0
 76
     1
 77
     6
 78
     2
 67
     7
 79
     5
170
     0
171
     0
290
     0
174
     0
 93
        1
 44
0.0
173
     0
291
     1
 45
0.0
1001
ACAD
1000
AcDbSavedByObjectVersion
1070
     0
  0
VISUALSTYLE
  5
9D
102
{ACAD_XDICTIONARY
360
1DEB
102
}
102
{ACAD_REACTORS
330
99
102
}
330
99
100
AcDbVisualStyle
  2

 70
     3
 71
     2
 72
     2
 73
     1
 90
        2
 40
-0.6
 41
30.0
 62
     5
 63
     7
 74
     1
 91
        4
 64
     7
 65
   257
 75
     1
175
     1
 42
1.0
 92
        0
 66
   257
 43
1.0
 76
     1
 77
     6
 78
     2
 67
     7
 79
     5
170
     0
171
     0
290
     0
174
     0
 93
        1
 44
0.0
173
     0
291
     1
 45
0.0
1001
ACAD
1000
AcDbSavedByObjectVersion
1070
     0
  0
VISUALSTYLE
  5
14D
102
{ACAD_XDICTIONARY
360
1E07
102
}
102
{ACAD_REACTORS
330
99
102
}
330
99
100
AcDbVisualStyle
  2

 70
     6
 71
     1
 72
     2
 73
     2
 90
        0
 40
-0.6
 41
-30.0
 62
     5
 63
     7
 74
     2
 91
        2
 64
     7
 65
   257
 75
     2
175
     1
 42
40.0
 92
        0
 66
   257
 43
1.0
 76
     1
 77
     6
 78
     2
 67
     7
 79
     3
170
     0
171
     0
290
     0
174
     0
 93
        1
 44
0.0
173
     0
291
     0
 45
0.0
1001
ACAD
1000
AcDbSavedByObjectVersion
1070
     0
  0
VISUALSTYLE
  5
153
102
{ACAD_XDICTIONARY
360
1E13
102
}
102
{ACAD_REACTORS
330
99
102
}
330
99
100
AcDbVisualStyle
  2

 70
    20
 71
     2
 72
     2
 73
     0
 90
        0
 40
-0.6
 41
-30.0
 62
     5
 63
     7
 74
     1
 91
        4
 64
     7
 65
   257
 75
     1
175
     1
 42
1.0
 92
       10
 66
     7
 43
1.0
 76
     1
 77
     6
 78
     2
 67
     7
 79
     5
170
     0
171
     0
290
     0
174
     0
 93
        1
 44
0.0
173
     0
291
     1
 45
0.0
1001
ACAD
1000
AcDbSavedByObjectVersion
1070
     0
  0
VISUALSTYLE
  5
A7
102
{ACAD_XDICTIONARY
360
1DFF
102
}
102
{ACAD_REACTORS
330
99
102
}
330
99
100
AcDbVisualStyle
  2

 70
    14
 71
     2
 72
     2
 73
     1
 90
        0
 40
-0.6
 41
-30.0
 62
     5
 63
     7
 74
     1
 91
        4
 64
     7
 65
   257
 75
     7
175
     7
 42
1.0
 92
        8
 66
     7
 43
1.0
 76
     1
 77
     6
 78
     2
 67
     7
 79
     5
170
     0
171
     0
290
     0
174
     0
 93
        1
 44
0.0
173
     0
291
     1
 45
0.0
1001
ACAD
1000
AcDbSavedByObjectVersion
1070
     0
  0
VISUALSTYLE
  5
154
102
{ACAD_XDICTIONARY
360
1E15
102
}
102
{ACAD_REACTORS
330
99
102
}
330
99
100
AcDbVisualStyle
  2

 70
    21
 71
     2
 72
     2
 73
     0
 90
        0
 40
-0.6
 41
-30.0
 62
     5
 63
     7
 74
     1
 91
        4
 64
     7
 65
   257
 75
     1
175
     1
 42
1.0
 92
        9
 66
     7
 43
1.0
 76
     1
 77
     6
 78
     2
 67
     7
 79
     5
170
     0
171
     0
290
     0
174
     0
 93
        1
 44
0.0
173
     0
291
     1
 45
0.0
1001
ACAD
1000
AcDbSavedByObjectVersion
1070
     0
  0
VISUALSTYLE
  5
A3
102
{ACAD_XDICTIONARY
360
1DF7
102
}
102
{ACAD_REACTORS
330
99
102
}
330
99
100
AcDbVisualStyle
  2

 70
     8
 71
     2
 72
     2
 73
     1
 90
        0
 40
-0.6
 41
-30.0
 62
     5
 63
     7
 74
     1
 91
        0
 64
     7
 65
   257
 75
     1
175
     1
 42
1.0
 92
        8
 66
     8
 43
1.0
 76
     1
 77
     6
 78
     2
 67
     7
 79
     5
170
     0
171
     0
290
     0
174
     0
 93
       13
 44
0.0
173
     0
291
     0
 45
0.0
1001
ACAD
1000
AcDbSavedByObjectVersion
1070
     0
  0
VISUALSTYLE
  5
152
102
{ACAD_XDICTIONARY
360
1E11
102
}
102
{ACAD_REACTORS
330
99
102
}
330
99
100
AcDbVisualStyle
  2

 70
    27
 71
     2
 72
     2
 73
     1
 90
        2
 40
-0.6
 41
30.0
 62
     5
 63
     7
 74
     0
 91
        4
 64
     7
 65
   257
 75
     1
175
     1
 42
1.0
 92
        8
 66
   257
 43
1.0
 76
     1
 77
     6
 78
     2
 67
     8
 79
     3
170
     0
171
     0
290
     0
174
     0
 93
        5
 44
0.0
173
     0
291
     0
 45
0.0
1001
ACAD
1000
AcDbSavedByObjectVersion
1070
     0
  0
VISUALSTYLE
  5
151
102
{ACAD_XDICTIONARY
360
1E0F
102
}
102
{ACAD_REACTORS
330
99
102
}
330
99
100
AcDbVisualStyle
  2

 70
    26
 71
     2
 72
     2
 73
     1
 90
        2
 40
-0.6
 41
30.0
 62
     5
 63
     7
 74
     1
 91
       10
 64
     7
 65
   257
 75
     2
175
     1
 42
1.0
 92
        8
 66
   257
 43
1.0
 76
     1
 77
     6
 78
     2
 67
     7
 79
     3
170
     0
171
     0
290
     0
174
     0
 93
        5
 44
0.0
173
     0
291
     0
 45
0.0
1001
ACAD
1000
AcDbSavedByObjectVersion
1070
     0
  0
VISUALSTYLE
  5
14E
102
{ACAD_XDICTIONARY
360
1E09
102
}
102
{ACAD_REACTORS
330
99
102
}
330
99
100
AcDbVisualStyle
  2

 70
    23
 71
     2
 72
     2
 73
     3
 90
        0
 40
-0.6
 41
-30.0
 62
     5
 63
     7
 74
     2
 91
        2
 64
     7
 65
     7
 75
     1
175
     1
 42
40.0
 92
        8
 66
     7
 43
1.0
 76
     1
 77
     6
 78
     2
 67
     7
 79
     3
170
     0
171
     0
290
     0
174
     0
 93
        1
 44
0.0
173
     0
291
     0
 45
0.0
1001
ACAD
1000
AcDbSavedByObjectVersion
1070
     0
  0
VISUALSTYLE
  5
14F
102
{ACAD_XDICTIONARY
360
1E0B
102
}
102
{ACAD_REACTORS
330
99
102
}
330
99
100
AcDbVisualStyle
  2

 70
    24
 71
     1
 72
     2
 73
     2
 90
        0
 40
-0.6
 41
-30.0
 62
     5
 63
     7
 74
     2
 91
        2
 64
     7
 65
     7
 75
     1
175
     1
 42
40.0
 92
       11
 66
     7
 43
1.0
 76
     1
 77
     6
 78
     2
 67
     7
 79
     6
170
     0
171
     0
290
     0
174
     0
 93
        1
 44
0.0
173
     0
291
     0
 45
0.0
1001
ACAD
1000
AcDbSavedByObjectVersion
1070
     0
  0
VISUALSTYLE
  5
A6
102
{ACAD_XDICTIONARY
360
1DFD
102
}
102
{ACAD_REACTORS
330
99
102
}
330
99
100
AcDbVisualStyle
  2

 70
    13
 71
     2
 72
     2
 73
     1
 90
        0
 40
-0.6
 41
-30.0
 62
     5
 63
     7
 74
     1
 91
        4
 64
     7
 65
   257
 75
     1
175
     1
 42
1.0
 92
       12
 66
     7
 43
1.0
 76
     1
 77
     6
 78
     2
 67
     7
 79
     5
170
     0
171
     0
290
     0
174
     0
 93
        1
 44
0.0
173
     0
291
     1
 45
0.0
1001
ACAD
1000
AcDbSavedByObjectVersion
1070
     0
  0
VISUALSTYLE
  5
14C
102
{ACAD_XDICTIONARY
360
1E05
102
}
102
{ACAD_REACTORS
330
99
102
}
330
99
100
AcDbVisualStyle
  2

 70
     5
 71
     0
 72
     2
 73
     0
 90
        0
 40
-0.6
 41
-30.0
 62
     5
 63
     7
 74
     1
 91
        4
 64
     7
 65
   257
 75
     1
175
     1
 42
1.0
 92
        0
 66
   257
 43
1.0
 76
     1
 77
     6
 78
     2
 67
     7
 79
     3
170
     0
171
     0
290
     0
174
     0
 93
        1
 44
0.0
173
     0
291
     0
 45
0.0
1001
ACAD
1000
AcDbSavedByObjectVersion
1070
     0
  0
VISUALSTYLE
  5
150
102
{ACAD_XDICTIONARY
360
1E0D
102
}
102
{ACAD_REACTORS
330
99
102
}
330
99
100
AcDbVisualStyle
  2

 70
    25
 71
     2
 72
     2
 73
     1
 90
        1
 40
0.5
 41
-30.0
 62
     5
 63
     7
 74
     1
 91
        0
 64
     7
 65
   257
 75
     1
175
     1
 42
1.0
 92
        8
 66
     7
 43
1.0
 76
     1
 77
     6
 78
     2
 67
     7
 79
     3
170
     0
171
     0
290
     0
174
     0
 93
       13
 44
0.0
173
     0
291
     0
 45
0.0
1001
ACAD
1000
AcDbSavedByObjectVersion
1070
     0
  0
DICTIONARYVAR
  5
8D5
102
{ACAD_REACTORS
330
66
102
}
330
66
100
DictionaryVariables
280
     0
  1
1:1
  0
DICTIONARYVAR
  5
8D4
102
{ACAD_REACTORS
330
66
102
}
330
66
100
DictionaryVariables
280
     0
  1
STANDARD
  0
DICTIONARYVAR
  5
89
102
{ACAD_REACTORS
330
66
102
}
330
66
100
DictionaryVariables
280
     0
  1
STANDARD
  0
DICTIONARYVAR
  5
67
102
{ACAD_REACTORS
330
66
102
}
330
66
100
DictionaryVariables
280
     0
  1
2
  0
DICTIONARYVAR
  5
6B
102
{ACAD_REACTORS
330
66
102
}
330
66
100
DictionaryVariables
280
     0
  1
1
  0
DICTIONARYVAR
  5
8D7
102
{ACAD_REACTORS
330
66
102
}
330
66
100
DictionaryVariables
280
     0
  1
0
  0
DICTIONARYVAR
  5
8D6
102
{ACAD_REACTORS
330
66
102
}
330
66
100
DictionaryVariables
280
     0
  1
127
  0
DICTIONARYVAR
  5
1BB3
102
{ACAD_REACTORS
330
66
102
}
330
66
100
DictionaryVariables
280
     0
  1
2
  0
DICTIONARY
  5
1DDE
330
22
100
AcDbDictionary
280
     1
281
     1
  3
ACAD_XREC_ROUNDTRIP
360
1DDF
  0
DICTIONARY
  5
1DE0
330
59
100
AcDbDictionary
280
     1
281
     1
  3
ACAD_XREC_ROUNDTRIP
360
1DE1
  0
DICTIONARY
  5
1DE2
330
5E
100
AcDbDictionary
280
     1
281
     1
  3
ACAD_XREC_ROUNDTRIP
360
1DE3
  0
DICTIONARY
  5
8EA
330
97
100
AcDbDictionary
280
     1
281
     1
  3
ACAD_XREC_ROUNDTRIP
360
8EB
  0
DICTIONARY
  5
8E8
330
96
100
AcDbDictionary
280
     1
281
     1
  3
ACAD_XREC_ROUNDTRIP
360
8E9
  0
DICTIONARY
  5
8EC
330
98
100
AcDbDictionary
280
     1
281
     1
  3
ACAD_XREC_ROUNDTRIP
360
8ED
  0
DICTIONARY
  5
8D9
330
87
100
AcDbDictionary
280
     1
281
     1
  3
ACAD_ROUNDTRIP_2008_TABLESTYLE_CELLSTYLEMAP
360
1DD7
  3
ACAD_XREC_ROUNDTRIP
360
1DE4
  0
DICTIONARY
  5
1DEF
330
9F
100
AcDbDictionary
280
     1
281
     1
  3
ACAD_XREC_ROUNDTRIP
360
1DF0
  0
DICTIONARY
  5
1DF3
330
A1
100
AcDbDictionary
280
     1
281
     1
  3
ACAD_XREC_ROUNDTRIP
360
1DF4
  0
DICTIONARY
  5
1DF1
330
A0
100
AcDbDictionary
280
     1
281
     1
  3
ACAD_XREC_ROUNDTRIP
360
1DF2
  0
DICTIONARY
  5
1DED
330
9E
100
AcDbDictionary
280
     1
281
     1
  3
ACAD_XREC_ROUNDTRIP
360
1DEE
  0
DICTIONARY
  5
1DFB
330
A5
100
AcDbDictionary
280
     1
281
     1
  3
ACAD_XREC_ROUNDTRIP
360
1DFC
  0
DICTIONARY
  5
1E03
330
A9
100
AcDbDictionary
280
     1
281
     1
  3
ACAD_XREC_ROUNDTRIP
360
1E04
  0
DICTIONARY
  5
1DF5
330
A2
100
AcDbDictionary
280
     1
281
     1
  3
ACAD_XREC_ROUNDTRIP
360
1DF6
  0
DICTIONARY
  5
1DF9
330
A4
100
AcDbDictionary
280
     1
281
     1
  3
ACAD_XREC_ROUNDTRIP
360
1DFA
  0
DICTIONARY
  5
1E17
330
155
100
AcDbDictionary
280
     1
281
     1
  3
ACAD_XREC_ROUNDTRIP
360
1E18
  0
DICTIONARY
  5
1E01
330
A8
100
AcDbDictionary
280
     1
281
     1
  3
ACAD_XREC_ROUNDTRIP
360
1E02
  0
DICTIONARY
  5
1DE5
330
9A
100
AcDbDictionary
280
     1
281
     1
  3
ACAD_XREC_ROUNDTRIP
360
1DE6
  0
DICTIONARY
  5
1DE7
330
9B
100
AcDbDictionary
280
     1
281
     1
  3
ACAD_XREC_ROUNDTRIP
360
1DE8
  0
DICTIONARY
  5
1DE9
330
9C
100
AcDbDictionary
280
     1
281
     1
  3
ACAD_XREC_ROUNDTRIP
360
1DEA
  0
DICTIONARY
  5
1DEB
330
9D
100
AcDbDictionary
280
     1
281
     1
  3
ACAD_XREC_ROUNDTRIP
360
1DEC
  0
DICTIONARY
  5
1E07
330
14D
100
AcDbDictionary
280
     1
281
     1
  3
ACAD_XREC_ROUNDTRIP
360
1E08
  0
DICTIONARY
  5
1E13
330
153
100
AcDbDictionary
280
     1
281
     1
  3
ACAD_XREC_ROUNDTRIP
360
1E14
  0
DICTIONARY
  5
1DFF
330
A7
100
AcDbDictionary
280
     1
281
     1
  3
ACAD_XREC_ROUNDTRIP
360
1E00
  0
DICTIONARY
  5
1E15
330
154
100
AcDbDictionary
280
     1
281
     1
  3
ACAD_XREC_ROUNDTRIP
360
1E16
  0
DICTIONARY
  5
1DF7
330
A3
100
AcDbDictionary
280
     1
281
     1
  3
ACAD_XREC_ROUNDTRIP
360
1DF8
  0
DICTIONARY
  5
1E11
330
152
100
AcDbDictionary
280
     1
281
     1
  3
ACAD_XREC_ROUNDTRIP
360
1E12
  0
DICTIONARY
  5
1E0F
330
151
100
AcDbDictionary
280
     1
281
     1
  3
ACAD_XREC_ROUNDTRIP
360
1E10
  0
DICTIONARY
  5
1E09
330
14E
100
AcDbDictionary
280
     1
281
     1
  3
ACAD_XREC_ROUNDTRIP
360
1E0A
  0
DICTIONARY
  5
1E0B
330
14F
100
AcDbDictionary
280
     1
281
     1
  3
ACAD_XREC_ROUNDTRIP
360
1E0C
  0
DICTIONARY
  5
1DFD
330
A6
100
AcDbDictionary
280
     1
281
     1
  3
ACAD_XREC_ROUNDTRIP
360
1DFE
  0
DICTIONARY
  5
1E05
330
14C
100
AcDbDictionary
280
     1
281
     1
  3
ACAD_XREC_ROUNDTRIP
360
1E06
  0
DICTIONARY
  5
1E0D
330
150
100
AcDbDictionary
280
     1
281
     1
  3
ACAD_XREC_ROUNDTRIP
360
1E0E
  0
XRECORD
  5
1DDF
102
{ACAD_REACTORS
330
1DDE
102
}
330
1DDE
100
AcDbXrecord
280
     1
102
SHADEPLOT
 70
     0
102
SHADEPLOTRESLEVEL
 70
     2
102
SHADEPLOTCUSTOMDPI
 70
   300
  0
XRECORD
  5
1DE1
102
{ACAD_REACTORS
330
1DE0
102
}
330
1DE0
100
AcDbXrecord
280
     1
102
SHADEPLOT
 70
     0
102
SHADEPLOTRESLEVEL
 70
     2
102
SHADEPLOTCUSTOMDPI
 70
   300
  0
XRECORD
  5
1DE3
102
{ACAD_REACTORS
330
1DE2
102
}
330
1DE2
100
AcDbXrecord
280
     1
102
SHADEPLOT
 70
     0
102
SHADEPLOTRESLEVEL
 70
     2
102
SHADEPLOTCUSTOMDPI
 70
   300
  0
XRECORD
  5
8EB
102
{ACAD_REACTORS
330
8EA
102
}
330
8EA
100
AcDbXrecord
280
     1
102
MATERIAL
148
0.0
149
0.0
149
0.0
 93
        0
 94
      127
282
     0
 72
     1
 77
     1
171
     1
175
     1
179
     1
273
     0
  0
XRECORD
  5
8E9
102
{ACAD_REACTORS
330
8E8
102
}
330
8E8
100
AcDbXrecord
280
     1
102
MATERIAL
148
0.0
149
0.0
149
0.0
 93
        0
 94
      127
282
     0
 72
     1
 77
     1
171
     1
175
     1
179
     1
273
     0
  0
XRECORD
  5
8ED
102
{ACAD_REACTORS
330
8EC
102
}
330
8EC
100
AcDbXrecord
280
     1
102
MATERIAL
148
0.0
149
0.0
149
0.0
 93
        0
 94
      127
282
     0
 72
     1
 77
     1
171
     1
175
     1
179
     1
273
     0
  0
CELLSTYLEMAP
  5
1DD7
102
{ACAD_REACTORS
330
8D9
102
}
330
8D9
100
AcDbCellStyleMap
 90
        3
300
CELLSTYLE
  1
TABLEFORMAT_BEGIN
 90
        5
170
     1
 91
        0
 92
    32768
 62
   257
 93
        1
300
CONTENTFORMAT
  1
CONTENTFORMAT_BEGIN
 90
        0
 91
        0
 92
      512
 93
        0
300

 40
0.0
140
1.0
 94
        5
 62
     0
340
11
144
0.25
309
CONTENTFORMAT_END
171
     1
301
MARGIN
  1
CELLMARGIN_BEGIN
 40
0.06
 40
0.06
 40
0.06
 40
0.06
 40
0.18
 40
0.18
309
CELLMARGIN_END
 94
        6
 95
        1
302
GRIDFORMAT
  1
GRIDFORMAT_BEGIN
 90
        0
 91
        1
 62
     0
 92
       -2
340
0
 93
        0
 40
0.045
309
GRIDFORMAT_END
 95
        2
302
GRIDFORMAT
  1
GRIDFORMAT_BEGIN
 90
        0
 91
        1
 62
     0
 92
       -2
340
0
 93
        0
 40
0.045
309
GRIDFORMAT_END
 95
        4
302
GRIDFORMAT
  1
GRIDFORMAT_BEGIN
 90
        0
 91
        1
 62
     0
 92
       -2
340
0
 93
        0
 40
0.045
309
GRIDFORMAT_END
 95
        8
302
GRIDFORMAT
  1
GRIDFORMAT_BEGIN
 90
        0
 91
        1
 62
     0
 92
       -2
340
0
 93
        0
 40
0.045
309
GRIDFORMAT_END
 95
       16
302
GRIDFORMAT
  1
GRIDFORMAT_BEGIN
 90
        0
 91
        1
 62
     0
 92
       -2
340
0
 93
        0
 40
0.045
309
GRIDFORMAT_END
 95
       32
302
GRIDFORMAT
  1
GRIDFORMAT_BEGIN
 90
        0
 91
        1
 62
     0
 92
       -2
340
0
 93
        0
 40
0.045
309
GRIDFORMAT_END
309
TABLEFORMAT_END
  1
CELLSTYLE_BEGIN
 90
        1
 91
        1
300
_TITLE
309
CELLSTYLE_END
300
CELLSTYLE
  1
TABLEFORMAT_BEGIN
 90
        5
170
     1
 91
        0
 92
        0
 62
   257
 93
        1
300
CONTENTFORMAT
  1
CONTENTFORMAT_BEGIN
 90
        0
 91
        0
 92
      512
 93
        0
300

 40
0.0
140
1.0
 94
        5
 62
     0
340
11
144
0.18
309
CONTENTFORMAT_END
171
     1
301
MARGIN
  1
CELLMARGIN_BEGIN
 40
0.06
 40
0.06
 40
0.06
 40
0.06
 40
0.18
 40
0.18
309
CELLMARGIN_END
 94
        6
 95
        1
302
GRIDFORMAT
  1
GRIDFORMAT_BEGIN
 90
        0
 91
        1
 62
     0
 92
       -2
340
0
 93
        0
 40
0.045
309
GRIDFORMAT_END
 95
        2
302
GRIDFORMAT
  1
GRIDFORMAT_BEGIN
 90
        0
 91
        1
 62
     0
 92
       -2
340
0
 93
        0
 40
0.045
309
GRIDFORMAT_END
 95
        4
302
GRIDFORMAT
  1
GRIDFORMAT_BEGIN
 90
        0
 91
        1
 62
     0
 92
       -2
340
0
 93
        0
 40
0.045
309
GRIDFORMAT_END
 95
        8
302
GRIDFORMAT
  1
GRIDFORMAT_BEGIN
 90
        0
 91
        1
 62
     0
 92
       -2
340
0
 93
        0
 40
0.045
309
GRIDFORMAT_END
 95
       16
302
GRIDFORMAT
  1
GRIDFORMAT_BEGIN
 90
        0
 91
        1
 62
     0
 92
       -2
340
0
 93
        0
 40
0.045
309
GRIDFORMAT_END
 95
       32
302
GRIDFORMAT
  1
GRIDFORMAT_BEGIN
 90
        0
 91
        1
 62
     0
 92
       -2
340
0
 93
        0
 40
0.045
309
GRIDFORMAT_END
309
TABLEFORMAT_END
  1
CELLSTYLE_BEGIN
 90
        2
 91
        1
300
_HEADER
309
CELLSTYLE_END
300
CELLSTYLE
  1
TABLEFORMAT_BEGIN
 90
        5
170
     1
 91
        0
 92
        0
 62
   257
 93
        1
300
CONTENTFORMAT
  1
CONTENTFORMAT_BEGIN
 90
        0
 91
        0
 92
      512
 93
        0
300

 40
0.0
140
1.0
 94
        2
 62
     0
340
11
144
0.18
309
CONTENTFORMAT_END
171
     1
301
MARGIN
  1
CELLMARGIN_BEGIN
 40
0.06
 40
0.06
 40
0.06
 40
0.06
 40
0.18
 40
0.18
309
CELLMARGIN_END
 94
        6
 95
        1
302
GRIDFORMAT
  1
GRIDFORMAT_BEGIN
 90
        0
 91
        1
 62
     0
 92
       -2
340
0
 93
        0
 40
0.045
309
GRIDFORMAT_END
 95
        2
302
GRIDFORMAT
  1
GRIDFORMAT_BEGIN
 90
        0
 91
        1
 62
     0
 92
       -2
340
0
 93
        0
 40
0.045
309
GRIDFORMAT_END
 95
        4
302
GRIDFORMAT
  1
GRIDFORMAT_BEGIN
 90
        0
 91
        1
 62
     0
 92
       -2
340
0
 93
        0
 40
0.045
309
GRIDFORMAT_END
 95
        8
302
GRIDFORMAT
  1
GRIDFORMAT_BEGIN
 90
        0
 91
        1
 62
     0
 92
       -2
340
0
 93
        0
 40
0.045
309
GRIDFORMAT_END
 95
       16
302
GRIDFORMAT
  1
GRIDFORMAT_BEGIN
 90
        0
 91
        1
 62
     0
 92
       -2
340
0
 93
        0
 40
0.045
309
GRIDFORMAT_END
 95
       32
302
GRIDFORMAT
  1
GRIDFORMAT_BEGIN
 90
        0
 91
        1
 62
     0
 92
       -2
340
0
 93
        0
 40
0.045
309
GRIDFORMAT_END
309
TABLEFORMAT_END
  1
CELLSTYLE_BEGIN
 90
        3
 91
        2
300
_DATA
309
CELLSTYLE_END
  0
XRECORD
  5
1DE4
102
{ACAD_REACTORS
330
8D9
102
}
330
8D9
100
AcDbXrecord
280
     1
102
ACAD_ROUNDTRIP_PRE2007_TABLESTYLE
 90
      512
 91
        0
  1

 92
      512
 93
        0
  2

 94
      512
 95
        0
  3

  0
XRECORD
  5
1DF0
102
{ACAD_REACTORS
330
1DEF
102
}
330
1DEF
100
AcDbXrecord
280
     1
102
RTVSPropertyOp0
 70
     1
102
RTVSPropertyOp1
 70
     1
102
RTVSPropertyOp2
 70
     1
102
RTVSPropertyOp3
 70
     1
102
RTVSPropertyOp4
 70
     1
102
RTVSPropertyOp5
 70
     1
102
RTVSPropertyOp6
 70
     1
102
RTVSPropertyOp7
 70
     1
102
RTVSPropertyOp8
 70
     1
102
RTVSPropertyOp9
 70
     1
102
RTVSPropertyOp10
 70
     1
102
RTVSPropertyOp11
 70
     1
102
RTVSPropertyOp12
 70
     1
102
RTVSPropertyOp13
 70
     1
102
RTVSPropertyOp14
 70
     1
102
RTVSPropertyOp15
 70
     1
102
RTVSPropertyOp16
 70
     1
102
RTVSPropertyOp17
 70
     1
102
RTVSPropertyOp18
 70
     1
102
RTVSPropertyOp19
 70
     1
102
RTVSPropertyOp20
 70
     1
102
RTVSPropertyOp21
 70
     1
102
RTVSPropertyOp22
 70
     1
102
RTVSPropertyOp23
 70
     1
102
RTVSPropertyOp24
 70
     1
102
RTVSPropertyOp25
 70
     1
102
RTVSPropertyOp26
 70
     1
102
RTVSPropertyOp27
 70
     1
102
RTVSPropertyOp28
 70
     1
102
RTVSPropertyOp29
 70
     1
102
RTVSPropertyOp30
 70
     1
102
RTVSPropertyOp31
 70
     1
102
RTVSPropertyOp32
 70
     1
  0
XRECORD
  5
1DF4
102
{ACAD_REACTORS
330
1DF3
102
}
330
1DF3
100
AcDbXrecord
280
     1
102
RTVSPropertyOp0
 70
     1
102
RTVSPropertyOp1
 70
     1
102
RTVSPropertyOp2
 70
     1
102
RTVSPropertyOp3
 70
     1
102
RTVSPropertyOp4
 70
     1
102
RTVSPropertyOp5
 70
     1
102
RTVSPropertyOp6
 70
     1
102
RTVSPropertyOp7
 70
     1
102
RTVSPropertyOp8
 70
     1
102
RTVSPropertyOp9
 70
     1
102
RTVSPropertyOp10
 70
     1
102
RTVSPropertyOp11
 70
     1
102
RTVSPropertyOp12
 70
     1
102
RTVSPropertyOp13
 70
     1
102
RTVSPropertyOp14
 70
     1
102
RTVSPropertyOp15
 70
     1
102
RTVSPropertyOp16
 70
     1
102
RTVSPropertyOp17
 70
     1
102
RTVSPropertyOp18
 70
     1
102
RTVSPropertyOp19
 70
     1
102
RTVSPropertyOp20
 70
     1
102
RTVSPropertyOp21
 70
     1
102
RTVSPropertyOp22
 70
     1
102
RTVSPropertyOp23
 70
     1
102
RTVSPropertyOp24
 70
     1
102
RTVSPropertyOp25
 70
     1
102
RTVSPropertyOp26
 70
     1
102
RTVSPropertyOp27
 70
     1
102
RTVSPropertyOp28
 70
     1
102
RTVSPropertyOp29
 70
     1
102
RTVSPropertyOp30
 70
     1
102
RTVSPropertyOp31
 70
     1
102
RTVSPropertyOp32
 70
     1
  0
XRECORD
  5
1DF2
102
{ACAD_REACTORS
330
1DF1
102
}
330
1DF1
100
AcDbXrecord
280
     1
102
RTVSPropertyOp0
 70
     1
102
RTVSPropertyOp1
 70
     1
102
RTVSPropertyOp2
 70
     1
102
RTVSPropertyOp3
 70
     1
102
RTVSPropertyOp4
 70
     1
102
RTVSPropertyOp5
 70
     1
102
RTVSPropertyOp6
 70
     1
102
RTVSPropertyOp7
 70
     1
102
RTVSPropertyOp8
 70
     1
102
RTVSPropertyOp9
 70
     1
102
RTVSPropertyOp10
 70
     1
102
RTVSPropertyOp11
 70
     1
102
RTVSPropertyOp12
 70
     1
102
RTVSPropertyOp13
 70
     1
102
RTVSPropertyOp14
 70
     1
102
RTVSPropertyOp15
 70
     1
102
RTVSPropertyOp16
 70
     1
102
RTVSPropertyOp17
 70
     1
102
RTVSPropertyOp18
 70
     1
102
RTVSPropertyOp19
 70
     1
102
RTVSPropertyOp20
 70
     1
102
RTVSPropertyOp21
 70
     1
102
RTVSPropertyOp22
 70
     1
102
RTVSPropertyOp23
 70
     1
102
RTVSPropertyOp24
 70
     1
102
RTVSPropertyOp25
 70
     1
102
RTVSPropertyOp26
 70
     1
102
RTVSPropertyOp27
 70
     1
102
RTVSPropertyOp28
 70
     1
102
RTVSPropertyOp29
 70
     1
102
RTVSPropertyOp30
 70
     1
102
RTVSPropertyOp31
 70
     1
102
RTVSPropertyOp32
 70
     1
  0
XRECORD
  5
1DEE
102
{ACAD_REACTORS
330
1DED
102
}
330
1DED
100
AcDbXrecord
280
     1
102
RTVSPropertyOp0
 70
     1
102
RTVSPropertyOp1
 70
     1
102
RTVSPropertyOp2
 70
     1
102
RTVSPropertyOp3
 70
     1
102
RTVSPropertyOp4
 70
     1
102
RTVSPropertyOp5
 70
     1
102
RTVSPropertyOp6
 70
     1
102
RTVSPropertyOp7
 70
     1
102
RTVSPropertyOp8
 70
     1
102
RTVSPropertyOp9
 70
     1
102
RTVSPropertyOp10
 70
     1
102
RTVSPropertyOp11
 70
     1
102
RTVSPropertyOp12
 70
     1
102
RTVSPropertyOp13
 70
     1
102
RTVSPropertyOp14
 70
     1
102
RTVSPropertyOp15
 70
     1
102
RTVSPropertyOp16
 70
     1
102
RTVSPropertyOp17
 70
     1
102
RTVSPropertyOp18
 70
     1
102
RTVSPropertyOp19
 70
     1
102
RTVSPropertyOp20
 70
     1
102
RTVSPropertyOp21
 70
     1
102
RTVSPropertyOp22
 70
     1
102
RTVSPropertyOp23
 70
     1
102
RTVSPropertyOp24
 70
     1
102
RTVSPropertyOp25
 70
     1
102
RTVSPropertyOp26
 70
     1
102
RTVSPropertyOp27
 70
     1
102
RTVSPropertyOp28
 70
     1
102
RTVSPropertyOp29
 70
     1
102
RTVSPropertyOp30
 70
     1
102
RTVSPropertyOp31
 70
     1
102
RTVSPropertyOp32
 70
     1
  0
XRECORD
  5
1DFC
102
{ACAD_REACTORS
330
1DFB
102
}
330
1DFB
100
AcDbXrecord
280
     1
102
RTVSPropertyOp0
 70
     1
102
RTVSPropertyOp1
 70
     1
102
RTVSPropertyOp2
 70
     1
102
RTVSPropertyOp3
 70
     1
102
RTVSPropertyOp4
 70
     1
102
RTVSPropertyOp5
 70
     1
102
RTVSPropertyOp6
 70
     1
102
RTVSPropertyOp7
 70
     1
102
RTVSPropertyOp8
 70
     1
102
RTVSPropertyOp9
 70
     1
102
RTVSPropertyOp10
 70
     1
102
RTVSPropertyOp11
 70
     1
102
RTVSPropertyOp12
 70
     1
102
RTVSPropertyOp13
 70
     1
102
RTVSPropertyOp14
 70
     1
102
RTVSPropertyOp15
 70
     1
102
RTVSPropertyOp16
 70
     1
102
RTVSPropertyOp17
 70
     1
102
RTVSPropertyOp18
 70
     1
102
RTVSPropertyOp19
 70
     1
102
RTVSPropertyOp20
 70
     1
102
RTVSPropertyOp21
 70
     1
102
RTVSPropertyOp22
 70
     1
102
RTVSPropertyOp23
 70
     1
102
RTVSPropertyOp24
 70
     1
102
RTVSPropertyOp25
 70
     1
102
RTVSPropertyOp26
 70
     1
102
RTVSPropertyOp27
 70
     1
102
RTVSPropertyOp28
 70
     1
102
RTVSPropertyOp29
 70
     1
102
RTVSPropertyOp30
 70
     1
102
RTVSPropertyOp31
 70
     1
102
RTVSPropertyOp32
 70
     1
  0
XRECORD
  5
1E04
102
{ACAD_REACTORS
330
1E03
102
}
330
1E03
100
AcDbXrecord
280
     1
102
RTVSPropertyOp0
 70
     1
102
RTVSPropertyOp1
 70
     1
102
RTVSPropertyOp2
 70
     1
102
RTVSPropertyOp3
 70
     1
102
RTVSPropertyOp4
 70
     1
102
RTVSPropertyOp5
 70
     1
102
RTVSPropertyOp6
 70
     1
102
RTVSPropertyOp7
 70
     1
102
RTVSPropertyOp8
 70
     1
102
RTVSPropertyOp9
 70
     1
102
RTVSPropertyOp10
 70
     1
102
RTVSPropertyOp11
 70
     1
102
RTVSPropertyOp12
 70
     1
102
RTVSPropertyOp13
 70
     1
102
RTVSPropertyOp14
 70
     1
102
RTVSPropertyOp15
 70
     1
102
RTVSPropertyOp16
 70
     1
102
RTVSPropertyOp17
 70
     1
102
RTVSPropertyOp18
 70
     1
102
RTVSPropertyOp19
 70
     1
102
RTVSPropertyOp20
 70
     1
102
RTVSPropertyOp21
 70
     1
102
RTVSPropertyOp22
 70
     1
102
RTVSPropertyOp23
 70
     1
102
RTVSPropertyOp24
 70
     1
102
RTVSPropertyOp25
 70
     1
102
RTVSPropertyOp26
 70
     1
102
RTVSPropertyOp27
 70
     1
102
RTVSPropertyOp28
 70
     1
102
RTVSPropertyOp29
 70
     1
102
RTVSPropertyOp30
 70
     1
102
RTVSPropertyOp31
 70
     1
102
RTVSPropertyOp32
 70
     1
  0
XRECORD
  5
1DF6
102
{ACAD_REACTORS
330
1DF5
102
}
330
1DF5
100
AcDbXrecord
280
     1
102
RTVSPropertyOp0
 70
     1
102
RTVSPropertyOp1
 70
     1
102
RTVSPropertyOp2
 70
     1
102
RTVSPropertyOp3
 70
     1
102
RTVSPropertyOp4
 70
     1
102
RTVSPropertyOp5
 70
     1
102
RTVSPropertyOp6
 70
     1
102
RTVSPropertyOp7
 70
     1
102
RTVSPropertyOp8
 70
     1
102
RTVSPropertyOp9
 70
     1
102
RTVSPropertyOp10
 70
     1
102
RTVSPropertyOp11
 70
     1
102
RTVSPropertyOp12
 70
     1
102
RTVSPropertyOp13
 70
     1
102
RTVSPropertyOp14
 70
     1
102
RTVSPropertyOp15
 70
     1
102
RTVSPropertyOp16
 70
     1
102
RTVSPropertyOp17
 70
     1
102
RTVSPropertyOp18
 70
     1
102
RTVSPropertyOp19
 70
     1
102
RTVSPropertyOp20
 70
     1
102
RTVSPropertyOp21
 70
     1
102
RTVSPropertyOp22
 70
     1
102
RTVSPropertyOp23
 70
     1
102
RTVSPropertyOp24
 70
     1
102
RTVSPropertyOp25
 70
     1
102
RTVSPropertyOp26
 70
     1
102
RTVSPropertyOp27
 70
     1
102
RTVSPropertyOp28
 70
     1
102
RTVSPropertyOp29
 70
     1
102
RTVSPropertyOp30
 70
     1
102
RTVSPropertyOp31
 70
     1
102
RTVSPropertyOp32
 70
     1
  0
XRECORD
  5
1DFA
102
{ACAD_REACTORS
330
1DF9
102
}
330
1DF9
100
AcDbXrecord
280
     1
102
RTVSPropertyOp0
 70
     1
102
RTVSPropertyOp1
 70
     1
102
RTVSPropertyOp2
 70
     1
102
RTVSPropertyOp3
 70
     1
102
RTVSPropertyOp4
 70
     1
102
RTVSPropertyOp5
 70
     1
102
RTVSPropertyOp6
 70
     1
102
RTVSPropertyOp7
 70
     1
102
RTVSPropertyOp8
 70
     1
102
RTVSPropertyOp9
 70
     1
102
RTVSPropertyOp10
 70
     1
102
RTVSPropertyOp11
 70
     1
102
RTVSPropertyOp12
 70
     1
102
RTVSPropertyOp13
 70
     1
102
RTVSPropertyOp14
 70
     1
102
RTVSPropertyOp15
 70
     1
102
RTVSPropertyOp16
 70
     1
102
RTVSPropertyOp17
 70
     1
102
RTVSPropertyOp18
 70
     1
102
RTVSPropertyOp19
 70
     1
102
RTVSPropertyOp20
 70
     1
102
RTVSPropertyOp21
 70
     1
102
RTVSPropertyOp22
 70
     1
102
RTVSPropertyOp23
 70
     1
102
RTVSPropertyOp24
 70
     1
102
RTVSPropertyOp25
 70
     1
102
RTVSPropertyOp26
 70
     1
102
RTVSPropertyOp27
 70
     1
102
RTVSPropertyOp28
 70
     1
102
RTVSPropertyOp29
 70
     1
102
RTVSPropertyOp30
 70
     1
102
RTVSPropertyOp31
 70
     1
102
RTVSPropertyOp32
 70
     1
  0
XRECORD
  5
1E18
102
{ACAD_REACTORS
330
1E17
102
}
330
1E17
100
AcDbXrecord
280
     1
102
RTVSPropertyOp0
 70
     0
102
RTVSPropertyOp1
 70
     0
102
RTVSPropertyOp2
 70
     0
102
RTVSPropertyOp3
 70
     0
102
RTVSPropertyOp4
 70
     0
102
RTVSPropertyOp5
 70
     0
102
RTVSPropertyOp6
 70
     0
102
RTVSPropertyOp7
 70
     0
102
RTVSPropertyOp8
 70
     0
102
RTVSPropertyOp9
 70
     0
102
RTVSPropertyOp10
 70
     0
102
RTVSPropertyOp11
 70
     0
102
RTVSPropertyOp12
 70
     0
102
RTVSPropertyOp13
 70
     0
102
RTVSPropertyOp14
 70
     2
102
RTVSPropertyOp15
 70
     0
102
RTVSPropertyOp16
 70
     0
102
RTVSPropertyOp17
 70
     0
102
RTVSPropertyOp18
 70
     0
102
RTVSPropertyOp19
 70
     0
102
RTVSPropertyOp20
 70
     0
102
RTVSPropertyOp21
 70
     0
102
RTVSPropertyOp22
 70
     0
102
RTVSPropertyOp23
 70
     0
102
RTVSPropertyOp24
 70
     0
102
RTVSPropertyOp25
 70
     0
102
RTVSPropertyOp26
 70
     0
102
RTVSPropertyOp27
 70
     0
102
RTVSPropertyOp28
 70
     0
102
RTVSPropertyOp29
 70
     0
102
RTVSPropertyOp30
 70
     0
102
RTVSPropertyOp31
 70
     0
102
RTVSPropertyOp32
 70
     0
  0
XRECORD
  5
1E02
102
{ACAD_REACTORS
330
1E01
102
}
330
1E01
100
AcDbXrecord
280
     1
102
RTVSPropertyOp0
 70
     1
102
RTVSPropertyOp1
 70
     1
102
RTVSPropertyOp2
 70
     1
102
RTVSPropertyOp3
 70
     1
102
RTVSPropertyOp4
 70
     1
102
RTVSPropertyOp5
 70
     1
102
RTVSPropertyOp6
 70
     1
102
RTVSPropertyOp7
 70
     1
102
RTVSPropertyOp8
 70
     1
102
RTVSPropertyOp9
 70
     1
102
RTVSPropertyOp10
 70
     1
102
RTVSPropertyOp11
 70
     1
102
RTVSPropertyOp12
 70
     1
102
RTVSPropertyOp13
 70
     1
102
RTVSPropertyOp14
 70
     1
102
RTVSPropertyOp15
 70
     1
102
RTVSPropertyOp16
 70
     1
102
RTVSPropertyOp17
 70
     1
102
RTVSPropertyOp18
 70
     1
102
RTVSPropertyOp19
 70
     1
102
RTVSPropertyOp20
 70
     1
102
RTVSPropertyOp21
 70
     1
102
RTVSPropertyOp22
 70
     1
102
RTVSPropertyOp23
 70
     1
102
RTVSPropertyOp24
 70
     1
102
RTVSPropertyOp25
 70
     1
102
RTVSPropertyOp26
 70
     1
102
RTVSPropertyOp27
 70
     1
102
RTVSPropertyOp28
 70
     1
102
RTVSPropertyOp29
 70
     1
102
RTVSPropertyOp30
 70
     1
102
RTVSPropertyOp31
 70
     1
102
RTVSPropertyOp32
 70
     1
  0
XRECORD
  5
1DE6
102
{ACAD_REACTORS
330
1DE5
102
}
330
1DE5
100
AcDbXrecord
280
     1
102
RTVSPropertyOp0
 70
     1
102
RTVSPropertyOp1
 70
     1
102
RTVSPropertyOp2
 70
     1
102
RTVSPropertyOp3
 70
     1
102
RTVSPropertyOp4
 70
     1
102
RTVSPropertyOp5
 70
     1
102
RTVSPropertyOp6
 70
     1
102
RTVSPropertyOp7
 70
     1
102
RTVSPropertyOp8
 70
     1
102
RTVSPropertyOp9
 70
     1
102
RTVSPropertyOp10
 70
     1
102
RTVSPropertyOp11
 70
     1
102
RTVSPropertyOp12
 70
     1
102
RTVSPropertyOp13
 70
     1
102
RTVSPropertyOp14
 70
     1
102
RTVSPropertyOp15
 70
     1
102
RTVSPropertyOp16
 70
     1
102
RTVSPropertyOp17
 70
     1
102
RTVSPropertyOp18
 70
     1
102
RTVSPropertyOp19
 70
     1
102
RTVSPropertyOp20
 70
     1
102
RTVSPropertyOp21
 70
     1
102
RTVSPropertyOp22
 70
     1
102
RTVSPropertyOp23
 70
     1
102
RTVSPropertyOp24
 70
     1
102
RTVSPropertyOp25
 70
     1
102
RTVSPropertyOp26
 70
     1
102
RTVSPropertyOp27
 70
     1
102
RTVSPropertyOp28
 70
     1
102
RTVSPropertyOp29
 70
     1
102
RTVSPropertyOp30
 70
     1
102
RTVSPropertyOp31
 70
     1
102
RTVSPropertyOp32
 70
     1
  0
XRECORD
  5
1DE8
102
{ACAD_REACTORS
330
1DE7
102
}
330
1DE7
100
AcDbXrecord
280
     1
102
RTVSPropertyOp0
 70
     1
102
RTVSPropertyOp1
 70
     1
102
RTVSPropertyOp2
 70
     1
102
RTVSPropertyOp3
 70
     1
102
RTVSPropertyOp4
 70
     1
102
RTVSPropertyOp5
 70
     1
102
RTVSPropertyOp6
 70
     1
102
RTVSPropertyOp7
 70
     1
102
RTVSPropertyOp8
 70
     1
102
RTVSPropertyOp9
 70
     1
102
RTVSPropertyOp10
 70
     1
102
RTVSPropertyOp11
 70
     1
102
RTVSPropertyOp12
 70
     1
102
RTVSPropertyOp13
 70
     1
102
RTVSPropertyOp14
 70
     1
102
RTVSPropertyOp15
 70
     1
102
RTVSPropertyOp16
 70
     1
102
RTVSPropertyOp17
 70
     1
102
RTVSPropertyOp18
 70
     1
102
RTVSPropertyOp19
 70
     1
102
RTVSPropertyOp20
 70
     1
102
RTVSPropertyOp21
 70
     1
102
RTVSPropertyOp22
 70
     1
102
RTVSPropertyOp23
 70
     1
102
RTVSPropertyOp24
 70
     1
102
RTVSPropertyOp25
 70
     1
102
RTVSPropertyOp26
 70
     1
102
RTVSPropertyOp27
 70
     1
102
RTVSPropertyOp28
 70
     1
102
RTVSPropertyOp29
 70
     1
102
RTVSPropertyOp30
 70
     1
102
RTVSPropertyOp31
 70
     1
102
RTVSPropertyOp32
 70
     1
  0
XRECORD
  5
1DEA
102
{ACAD_REACTORS
330
1DE9
102
}
330
1DE9
100
AcDbXrecord
280
     1
102
RTVSPropertyOp0
 70
     1
102
RTVSPropertyOp1
 70
     1
102
RTVSPropertyOp2
 70
     1
102
RTVSPropertyOp3
 70
     1
102
RTVSPropertyOp4
 70
     1
102
RTVSPropertyOp5
 70
     1
102
RTVSPropertyOp6
 70
     1
102
RTVSPropertyOp7
 70
     1
102
RTVSPropertyOp8
 70
     1
102
RTVSPropertyOp9
 70
     1
102
RTVSPropertyOp10
 70
     1
102
RTVSPropertyOp11
 70
     1
102
RTVSPropertyOp12
 70
     1
102
RTVSPropertyOp13
 70
     1
102
RTVSPropertyOp14
 70
     1
102
RTVSPropertyOp15
 70
     1
102
RTVSPropertyOp16
 70
     1
102
RTVSPropertyOp17
 70
     1
102
RTVSPropertyOp18
 70
     1
102
RTVSPropertyOp19
 70
     1
102
RTVSPropertyOp20
 70
     1
102
RTVSPropertyOp21
 70
     1
102
RTVSPropertyOp22
 70
     1
102
RTVSPropertyOp23
 70
     1
102
RTVSPropertyOp24
 70
     1
102
RTVSPropertyOp25
 70
     1
102
RTVSPropertyOp26
 70
     1
102
RTVSPropertyOp27
 70
     1
102
RTVSPropertyOp28
 70
     1
102
RTVSPropertyOp29
 70
     1
102
RTVSPropertyOp30
 70
     1
102
RTVSPropertyOp31
 70
     1
102
RTVSPropertyOp32
 70
     1
  0
XRECORD
  5
1DEC
102
{ACAD_REACTORS
330
1DEB
102
}
330
1DEB
100
AcDbXrecord
280
     1
102
RTVSPropertyOp0
 70
     1
102
RTVSPropertyOp1
 70
     1
102
RTVSPropertyOp2
 70
     1
102
RTVSPropertyOp3
 70
     1
102
RTVSPropertyOp4
 70
     1
102
RTVSPropertyOp5
 70
     1
102
RTVSPropertyOp6
 70
     1
102
RTVSPropertyOp7
 70
     1
102
RTVSPropertyOp8
 70
     1
102
RTVSPropertyOp9
 70
     1
102
RTVSPropertyOp10
 70
     1
102
RTVSPropertyOp11
 70
     1
102
RTVSPropertyOp12
 70
     1
102
RTVSPropertyOp13
 70
     1
102
RTVSPropertyOp14
 70
     1
102
RTVSPropertyOp15
 70
     1
102
RTVSPropertyOp16
 70
     1
102
RTVSPropertyOp17
 70
     1
102
RTVSPropertyOp18
 70
     1
102
RTVSPropertyOp19
 70
     1
102
RTVSPropertyOp20
 70
     1
102
RTVSPropertyOp21
 70
     1
102
RTVSPropertyOp22
 70
     1
102
RTVSPropertyOp23
 70
     1
102
RTVSPropertyOp24
 70
     1
102
RTVSPropertyOp25
 70
     1
102
RTVSPropertyOp26
 70
     1
102
RTVSPropertyOp27
 70
     1
102
RTVSPropertyOp28
 70
     1
102
RTVSPropertyOp29
 70
     1
102
RTVSPropertyOp30
 70
     1
102
RTVSPropertyOp31
 70
     1
102
RTVSPropertyOp32
 70
     1
  0
XRECORD
  5
1E08
102
{ACAD_REACTORS
330
1E07
102
}
330
1E07
100
AcDbXrecord
280
     1
102
RTVSPropertyOp0
 70
     1
102
RTVSPropertyOp1
 70
     1
102
RTVSPropertyOp2
 70
     1
102
RTVSPropertyOp3
 70
     1
102
RTVSPropertyOp4
 70
     1
102
RTVSPropertyOp5
 70
     1
102
RTVSPropertyOp6
 70
     1
102
RTVSPropertyOp7
 70
     1
102
RTVSPropertyOp8
 70
     1
102
RTVSPropertyOp9
 70
     1
102
RTVSPropertyOp10
 70
     1
102
RTVSPropertyOp11
 70
     1
102
RTVSPropertyOp12
 70
     1
102
RTVSPropertyOp13
 70
     1
102
RTVSPropertyOp14
 70
     1
102
RTVSPropertyOp15
 70
     1
102
RTVSPropertyOp16
 70
     1
102
RTVSPropertyOp17
 70
     1
102
RTVSPropertyOp18
 70
     1
102
RTVSPropertyOp19
 70
     1
102
RTVSPropertyOp20
 70
     1
102
RTVSPropertyOp21
 70
     1
102
RTVSPropertyOp22
 70
     1
102
RTVSPropertyOp23
 70
     1
102
RTVSPropertyOp24
 70
     1
102
RTVSPropertyOp25
 70
     1
102
RTVSPropertyOp26
 70
     1
102
RTVSPropertyOp27
 70
     1
102
RTVSPropertyOp28
 70
     1
102
RTVSPropertyOp29
 70
     1
102
RTVSPropertyOp30
 70
     1
102
RTVSPropertyOp31
 70
     1
102
RTVSPropertyOp32
 70
     1
  0
XRECORD
  5
1E14
102
{ACAD_REACTORS
330
1E13
102
}
330
1E13
100
AcDbXrecord
280
     1
102
RTVSPropertyOp0
 70
     0
102
RTVSPropertyOp1
 70
     0
102
RTVSPropertyOp2
 70
     0
102
RTVSPropertyOp3
 70
     0
102
RTVSPropertyOp4
 70
     0
102
RTVSPropertyOp5
 70
     0
102
RTVSPropertyOp6
 70
     0
102
RTVSPropertyOp7
 70
     0
102
RTVSPropertyOp8
 70
     0
102
RTVSPropertyOp9
 70
     0
102
RTVSPropertyOp10
 70
     0
102
RTVSPropertyOp11
 70
     0
102
RTVSPropertyOp12
 70
     0
102
RTVSPropertyOp13
 70
     0
102
RTVSPropertyOp14
 70
     2
102
RTVSPropertyOp15
 70
     0
102
RTVSPropertyOp16
 70
     0
102
RTVSPropertyOp17
 70
     0
102
RTVSPropertyOp18
 70
     0
102
RTVSPropertyOp19
 70
     0
102
RTVSPropertyOp20
 70
     0
102
RTVSPropertyOp21
 70
     0
102
RTVSPropertyOp22
 70
     0
102
RTVSPropertyOp23
 70
     0
102
RTVSPropertyOp24
 70
     0
102
RTVSPropertyOp25
 70
     0
102
RTVSPropertyOp26
 70
     0
102
RTVSPropertyOp27
 70
     0
102
RTVSPropertyOp28
 70
     0
102
RTVSPropertyOp29
 70
     0
102
RTVSPropertyOp30
 70
     0
102
RTVSPropertyOp31
 70
     0
102
RTVSPropertyOp32
 70
     0
  0
XRECORD
  5
1E00
102
{ACAD_REACTORS
330
1DFF
102
}
330
1DFF
100
AcDbXrecord
280
     1
102
RTVSPropertyOp0
 70
     1
102
RTVSPropertyOp1
 70
     1
102
RTVSPropertyOp2
 70
     1
102
RTVSPropertyOp3
 70
     1
102
RTVSPropertyOp4
 70
     1
102
RTVSPropertyOp5
 70
     1
102
RTVSPropertyOp6
 70
     1
102
RTVSPropertyOp7
 70
     1
102
RTVSPropertyOp8
 70
     1
102
RTVSPropertyOp9
 70
     1
102
RTVSPropertyOp10
 70
     1
102
RTVSPropertyOp11
 70
     1
102
RTVSPropertyOp12
 70
     1
102
RTVSPropertyOp13
 70
     1
102
RTVSPropertyOp14
 70
     1
102
RTVSPropertyOp15
 70
     1
102
RTVSPropertyOp16
 70
     1
102
RTVSPropertyOp17
 70
     1
102
RTVSPropertyOp18
 70
     1
102
RTVSPropertyOp19
 70
     1
102
RTVSPropertyOp20
 70
     1
102
RTVSPropertyOp21
 70
     1
102
RTVSPropertyOp22
 70
     1
102
RTVSPropertyOp23
 70
     1
102
RTVSPropertyOp24
 70
     1
102
RTVSPropertyOp25
 70
     1
102
RTVSPropertyOp26
 70
     1
102
RTVSPropertyOp27
 70
     1
102
RTVSPropertyOp28
 70
     1
102
RTVSPropertyOp29
 70
     1
102
RTVSPropertyOp30
 70
     1
102
RTVSPropertyOp31
 70
     1
102
RTVSPropertyOp32
 70
     1
  0
XRECORD
  5
1E16
102
{ACAD_REACTORS
330
1E15
102
}
330
1E15
100
AcDbXrecord
280
     1
102
RTVSPropertyOp0
 70
     0
102
RTVSPropertyOp1
 70
     0
102
RTVSPropertyOp2
 70
     0
102
RTVSPropertyOp3
 70
     0
102
RTVSPropertyOp4
 70
     0
102
RTVSPropertyOp5
 70
     0
102
RTVSPropertyOp6
 70
     0
102
RTVSPropertyOp7
 70
     0
102
RTVSPropertyOp8
 70
     0
102
RTVSPropertyOp9
 70
     0
102
RTVSPropertyOp10
 70
     0
102
RTVSPropertyOp11
 70
     0
102
RTVSPropertyOp12
 70
     0
102
RTVSPropertyOp13
 70
     0
102
RTVSPropertyOp14
 70
     2
102
RTVSPropertyOp15
 70
     0
102
RTVSPropertyOp16
 70
     0
102
RTVSPropertyOp17
 70
     0
102
RTVSPropertyOp18
 70
     0
102
RTVSPropertyOp19
 70
     0
102
RTVSPropertyOp20
 70
     0
102
RTVSPropertyOp21
 70
     0
102
RTVSPropertyOp22
 70
     0
102
RTVSPropertyOp23
 70
     0
102
RTVSPropertyOp24
 70
     0
102
RTVSPropertyOp25
 70
     0
102
RTVSPropertyOp26
 70
     0
102
RTVSPropertyOp27
 70
     0
102
RTVSPropertyOp28
 70
     0
102
RTVSPropertyOp29
 70
     0
102
RTVSPropertyOp30
 70
     0
102
RTVSPropertyOp31
 70
     0
102
RTVSPropertyOp32
 70
     0
  0
XRECORD
  5
1DF8
102
{ACAD_REACTORS
330
1DF7
102
}
330
1DF7
100
AcDbXrecord
280
     1
102
RTVSPropertyOp0
 70
     1
102
RTVSPropertyOp1
 70
     1
102
RTVSPropertyOp2
 70
     1
102
RTVSPropertyOp3
 70
     1
102
RTVSPropertyOp4
 70
     1
102
RTVSPropertyOp5
 70
     1
102
RTVSPropertyOp6
 70
     1
102
RTVSPropertyOp7
 70
     1
102
RTVSPropertyOp8
 70
     1
102
RTVSPropertyOp9
 70
     1
102
RTVSPropertyOp10
 70
     1
102
RTVSPropertyOp11
 70
     1
102
RTVSPropertyOp12
 70
     1
102
RTVSPropertyOp13
 70
     1
102
RTVSPropertyOp14
 70
     1
102
RTVSPropertyOp15
 70
     1
102
RTVSPropertyOp16
 70
     1
102
RTVSPropertyOp17
 70
     1
102
RTVSPropertyOp18
 70
     1
102
RTVSPropertyOp19
 70
     1
102
RTVSPropertyOp20
 70
     1
102
RTVSPropertyOp21
 70
     1
102
RTVSPropertyOp22
 70
     1
102
RTVSPropertyOp23
 70
     1
102
RTVSPropertyOp24
 70
     1
102
RTVSPropertyOp25
 70
     1
102
RTVSPropertyOp26
 70
     1
102
RTVSPropertyOp27
 70
     1
102
RTVSPropertyOp28
 70
     1
102
RTVSPropertyOp29
 70
     1
102
RTVSPropertyOp30
 70
     1
102
RTVSPropertyOp31
 70
     1
102
RTVSPropertyOp32
 70
     1
  0
XRECORD
  5
1E12
102
{ACAD_REACTORS
330
1E11
102
}
330
1E11
100
AcDbXrecord
280
     1
102
RTVSPropertyOp0
 70
     1
102
RTVSPropertyOp1
 70
     1
102
RTVSPropertyOp2
 70
     1
102
RTVSPropertyOp3
 70
     1
102
RTVSPropertyOp4
 70
     1
102
RTVSPropertyOp5
 70
     1
102
RTVSPropertyOp6
 70
     1
102
RTVSPropertyOp7
 70
     1
102
RTVSPropertyOp8
 70
     1
102
RTVSPropertyOp9
 70
     1
102
RTVSPropertyOp10
 70
     1
102
RTVSPropertyOp11
 70
     1
102
RTVSPropertyOp12
 70
     1
102
RTVSPropertyOp13
 70
     1
102
RTVSPropertyOp14
 70
     1
102
RTVSPropertyOp15
 70
     1
102
RTVSPropertyOp16
 70
     1
102
RTVSPropertyOp17
 70
     1
102
RTVSPropertyOp18
 70
     1
102
RTVSPropertyOp19
 70
     1
102
RTVSPropertyOp20
 70
     1
102
RTVSPropertyOp21
 70
     1
102
RTVSPropertyOp22
 70
     1
102
RTVSPropertyOp23
 70
     1
102
RTVSPropertyOp24
 70
     1
102
RTVSPropertyOp25
 70
     1
102
RTVSPropertyOp26
 70
     1
102
RTVSPropertyOp27
 70
     1
102
RTVSPropertyOp28
 70
     1
102
RTVSPropertyOp29
 70
     1
102
RTVSPropertyOp30
 70
     1
102
RTVSPropertyOp31
 70
     1
102
RTVSPropertyOp32
 70
     1
  0
XRECORD
  5
1E10
102
{ACAD_REACTORS
330
1E0F
102
}
330
1E0F
100
AcDbXrecord
280
     1
102
RTVSPropertyOp0
 70
     1
102
RTVSPropertyOp1
 70
     1
102
RTVSPropertyOp2
 70
     1
102
RTVSPropertyOp3
 70
     1
102
RTVSPropertyOp4
 70
     1
102
RTVSPropertyOp5
 70
     1
102
RTVSPropertyOp6
 70
     1
102
RTVSPropertyOp7
 70
     1
102
RTVSPropertyOp8
 70
     1
102
RTVSPropertyOp9
 70
     1
102
RTVSPropertyOp10
 70
     1
102
RTVSPropertyOp11
 70
     1
102
RTVSPropertyOp12
 70
     1
102
RTVSPropertyOp13
 70
     1
102
RTVSPropertyOp14
 70
     1
102
RTVSPropertyOp15
 70
     1
102
RTVSPropertyOp16
 70
     1
102
RTVSPropertyOp17
 70
     1
102
RTVSPropertyOp18
 70
     1
102
RTVSPropertyOp19
 70
     1
102
RTVSPropertyOp20
 70
     1
102
RTVSPropertyOp21
 70
     1
102
RTVSPropertyOp22
 70
     1
102
RTVSPropertyOp23
 70
     1
102
RTVSPropertyOp24
 70
     1
102
RTVSPropertyOp25
 70
     1
102
RTVSPropertyOp26
 70
     1
102
RTVSPropertyOp27
 70
     1
102
RTVSPropertyOp28
 70
     1
102
RTVSPropertyOp29
 70
     1
102
RTVSPropertyOp30
 70
     1
102
RTVSPropertyOp31
 70
     1
102
RTVSPropertyOp32
 70
     1
  0
XRECORD
  5
1E0A
102
{ACAD_REACTORS
330
1E09
102
}
330
1E09
100
AcDbXrecord
280
     1
102
RTVSPropertyOp0
 70
     1
102
RTVSPropertyOp1
 70
     1
102
RTVSPropertyOp2
 70
     1
102
RTVSPropertyOp3
 70
     1
102
RTVSPropertyOp4
 70
     1
102
RTVSPropertyOp5
 70
     1
102
RTVSPropertyOp6
 70
     1
102
RTVSPropertyOp7
 70
     1
102
RTVSPropertyOp8
 70
     1
102
RTVSPropertyOp9
 70
     1
102
RTVSPropertyOp10
 70
     1
102
RTVSPropertyOp11
 70
     1
102
RTVSPropertyOp12
 70
     1
102
RTVSPropertyOp13
 70
     1
102
RTVSPropertyOp14
 70
     1
102
RTVSPropertyOp15
 70
     1
102
RTVSPropertyOp16
 70
     1
102
RTVSPropertyOp17
 70
     1
102
RTVSPropertyOp18
 70
     1
102
RTVSPropertyOp19
 70
     1
102
RTVSPropertyOp20
 70
     1
102
RTVSPropertyOp21
 70
     1
102
RTVSPropertyOp22
 70
     1
102
RTVSPropertyOp23
 70
     1
102
RTVSPropertyOp24
 70
     1
102
RTVSPropertyOp25
 70
     1
102
RTVSPropertyOp26
 70
     1
102
RTVSPropertyOp27
 70
     1
102
RTVSPropertyOp28
 70
     1
102
RTVSPropertyOp29
 70
     1
102
RTVSPropertyOp30
 70
     1
102
RTVSPropertyOp31
 70
     1
102
RTVSPropertyOp32
 70
     1
  0
XRECORD
  5
1E0C
102
{ACAD_REACTORS
330
1E0B
102
}
330
1E0B
100
AcDbXrecord
280
     1
102
RTVSPropertyOp0
 70
     1
102
RTVSPropertyOp1
 70
     1
102
RTVSPropertyOp2
 70
     1
102
RTVSPropertyOp3
 70
     1
102
RTVSPropertyOp4
 70
     1
102
RTVSPropertyOp5
 70
     1
102
RTVSPropertyOp6
 70
     1
102
RTVSPropertyOp7
 70
     1
102
RTVSPropertyOp8
 70
     1
102
RTVSPropertyOp9
 70
     1
102
RTVSPropertyOp10
 70
     1
102
RTVSPropertyOp11
 70
     1
102
RTVSPropertyOp12
 70
     1
102
RTVSPropertyOp13
 70
     1
102
RTVSPropertyOp14
 70
     1
102
RTVSPropertyOp15
 70
     1
102
RTVSPropertyOp16
 70
     1
102
RTVSPropertyOp17
 70
     1
102
RTVSPropertyOp18
 70
     1
102
RTVSPropertyOp19
 70
     1
102
RTVSPropertyOp20
 70
     1
102
RTVSPropertyOp21
 70
     1
102
RTVSPropertyOp22
 70
     1
102
RTVSPropertyOp23
 70
     1
102
RTVSPropertyOp24
 70
     1
102
RTVSPropertyOp25
 70
     1
102
RTVSPropertyOp26
 70
     1
102
RTVSPropertyOp27
 70
     1
102
RTVSPropertyOp28
 70
     1
102
RTVSPropertyOp29
 70
     1
102
RTVSPropertyOp30
 70
     1
102
RTVSPropertyOp31
 70
     1
102
RTVSPropertyOp32
 70
     1
  0
XRECORD
  5
1DFE
102
{ACAD_REACTORS
330
1DFD
102
}
330
1DFD
100
AcDbXrecord
280
     1
102
RTVSPropertyOp0
 70
     1
102
RTVSPropertyOp1
 70
     1
102
RTVSPropertyOp2
 70
     1
102
RTVSPropertyOp3
 70
     1
102
RTVSPropertyOp4
 70
     1
102
RTVSPropertyOp5
 70
     1
102
RTVSPropertyOp6
 70
     1
102
RTVSPropertyOp7
 70
     1
102
RTVSPropertyOp8
 70
     1
102
RTVSPropertyOp9
 70
     1
102
RTVSPropertyOp10
 70
     1
102
RTVSPropertyOp11
 70
     1
102
RTVSPropertyOp12
 70
     1
102
RTVSPropertyOp13
 70
     1
102
RTVSPropertyOp14
 70
     1
102
RTVSPropertyOp15
 70
     1
102
RTVSPropertyOp16
 70
     1
102
RTVSPropertyOp17
 70
     1
102
RTVSPropertyOp18
 70
     1
102
RTVSPropertyOp19
 70
     1
102
RTVSPropertyOp20
 70
     1
102
RTVSPropertyOp21
 70
     1
102
RTVSPropertyOp22
 70
     1
102
RTVSPropertyOp23
 70
     1
102
RTVSPropertyOp24
 70
     1
102
RTVSPropertyOp25
 70
     1
102
RTVSPropertyOp26
 70
     1
102
RTVSPropertyOp27
 70
     1
102
RTVSPropertyOp28
 70
     1
102
RTVSPropertyOp29
 70
     1
102
RTVSPropertyOp30
 70
     1
102
RTVSPropertyOp31
 70
     1
102
RTVSPropertyOp32
 70
     1
  0
XRECORD
  5
1E06
102
{ACAD_REACTORS
330
1E05
102
}
330
1E05
100
AcDbXrecord
280
     1
102
RTVSPropertyOp0
 70
     1
102
RTVSPropertyOp1
 70
     1
102
RTVSPropertyOp2
 70
     1
102
RTVSPropertyOp3
 70
     1
102
RTVSPropertyOp4
 70
     1
102
RTVSPropertyOp5
 70
     1
102
RTVSPropertyOp6
 70
     1
102
RTVSPropertyOp7
 70
     1
102
RTVSPropertyOp8
 70
     1
102
RTVSPropertyOp9
 70
     1
102
RTVSPropertyOp10
 70
     1
102
RTVSPropertyOp11
 70
     1
102
RTVSPropertyOp12
 70
     1
102
RTVSPropertyOp13
 70
     1
102
RTVSPropertyOp14
 70
     1
102
RTVSPropertyOp15
 70
     1
102
RTVSPropertyOp16
 70
     1
102
RTVSPropertyOp17
 70
     1
102
RTVSPropertyOp18
 70
     1
102
RTVSPropertyOp19
 70
     1
102
RTVSPropertyOp20
 70
     1
102
RTVSPropertyOp21
 70
     1
102
RTVSPropertyOp22
 70
     1
102
RTVSPropertyOp23
 70
     1
102
RTVSPropertyOp24
 70
     1
102
RTVSPropertyOp25
 70
     1
102
RTVSPropertyOp26
 70
     1
102
RTVSPropertyOp27
 70
     1
102
RTVSPropertyOp28
 70
     1
102
RTVSPropertyOp29
 70
     1
102
RTVSPropertyOp30
 70
     1
102
RTVSPropertyOp31
 70
     1
102
RTVSPropertyOp32
 70
     1
  0
XRECORD
  5
1E0E
102
{ACAD_REACTORS
330
1E0D
102
}
330
1E0D
100
AcDbXrecord
280
     1
102
RTVSPropertyOp0
 70
     1
102
RTVSPropertyOp1
 70
     1
102
RTVSPropertyOp2
 70
     1
102
RTVSPropertyOp3
 70
     1
102
RTVSPropertyOp4
 70
     1
102
RTVSPropertyOp5
 70
     1
102
RTVSPropertyOp6
 70
     1
102
RTVSPropertyOp7
 70
     1
102
RTVSPropertyOp8
 70
     1
102
RTVSPropertyOp9
 70
     1
102
RTVSPropertyOp10
 70
     1
102
RTVSPropertyOp11
 70
     1
102
RTVSPropertyOp12
 70
     1
102
RTVSPropertyOp13
 70
     1
102
RTVSPropertyOp14
 70
     1
102
RTVSPropertyOp15
 70
     1
102
RTVSPropertyOp16
 70
     1
102
RTVSPropertyOp17
 70
     1
102
RTVSPropertyOp18
 70
     1
102
RTVSPropertyOp19
 70
     1
102
RTVSPropertyOp20
 70
     1
102
RTVSPropertyOp21
 70
     1
102
RTVSPropertyOp22
 70
     1
102
RTVSPropertyOp23
 70
     1
102
RTVSPropertyOp24
 70
     1
102
RTVSPropertyOp25
 70
     1
102
RTVSPropertyOp26
 70
     1
102
RTVSPropertyOp27
 70
     1
102
RTVSPropertyOp28
 70
     1
102
RTVSPropertyOp29
 70
     1
102
RTVSPropertyOp30
 70
     1
102
RTVSPropertyOp31
 70
     1
102
RTVSPropertyOp32
 70
     1
  0
ENDSEC
  0
EOF
