  0
SECTION
  2
HEADER
  9
$ACADVER
  1
AC1015
  9
$ACADMAINTVER
 70
    20
  9
$DWGCODEPAGE
  3
ANSI_932
  9
$INSBASE
 10
0.0
 20
0.0
 30
0.0
  9
$EXTMIN
 10
-668.9604879999998
 20
-1106.274423
 30
0.0
  9
$EXTMAX
 10
-263.960488
 20
-832.2744230000001
 30
0.0
  9
$LIMMIN
 10
-668.96151
 20
-1106.275414
  9
$LIMMAX
 10
-263.933631
 20
-832.2180549999997
  9
$ORTHOMODE
 70
     1
  9
$REGENMODE
 70
     1
  9
$FILLMODE
 70
     1
  9
$QTEXTMODE
 70
     0
  9
$MIRRTEXT
 70
     0
  9
$LTSCALE
 40
6.750430999999997
  9
$ATTMODE
 70
     1
  9
$TEXTSIZE
 40
3.2
  9
$TRACEWID
 40
0.05
  9
$TEXTSTYLE
  7
高3.2
  9
$CLAYER
  8
0
  9
$CELTYPE
  6
ByLayer
  9
$CECOLOR
 62
   256
  9
$CELTSCALE
 40
1.0
  9
$DISPSILH
 70
     0
  9
$DIMSCALE
 40
1.0
  9
$DIMASZ
 40
2.5
  9
$DIMEXO
 40
0.25
  9
$DIMDLI
 40
0.2
  9
$DIMRND
 40
0.0
  9
$DIMDLE
 40
0.0
  9
$DIMEXE
 40
1.25
  9
$DIMTP
 40
0.0
  9
$DIMTM
 40
0.0
  9
$DIMTXT
 40
3.0
  9
$DIMCEN
 40
0.0
  9
$DIMTSZ
 40
0.0
  9
$DIMTOL
 70
     0
  9
$DIMLIM
 70
     0
  9
$DIMTIH
 70
     0
  9
$DIMTOH
 70
     0
  9
$DIMSE1
 70
     0
  9
$DIMSE2
 70
     0
  9
$DIMTAD
 70
     3
  9
$DIMZIN
 70
     8
  9
$DIMBLK
  1
Open30
  9
$DIMASO
 70
     1
  9
$DIMSHO
 70
     1
  9
$DIMPOST
  1

  9
$DIMAPOST
  1

  9
$DIMALT
 70
     0
  9
$DIMALTD
 70
     3
  9
$DIMALTF
 40
0.03937007874016
  9
$DIMLFAC
 40
2.0
  9
$DIMTOFL
 70
     1
  9
$DIMTVP
 40
0.0
  9
$DIMTIX
 70
     0
  9
$DIMSOXD
 70
     0
  9
$DIMSAH
 70
     0
  9
$DIMBLK1
  1

  9
$DIMBLK2
  1

  9
$DIMSTYLE
  2
1／2
  9
$DIMCLRD
 70
     0
  9
$DIMCLRE
 70
     0
  9
$DIMCLRT
 70
     4
  9
$DIMTFAC
 40
1.0
  9
$DIMGAP
 40
0.625
  9
$DIMJUST
 70
     0
  9
$DIMSD1
 70
     0
  9
$DIMSD2
 70
     0
  9
$DIMTOLJ
 70
     0
  9
$DIMTZIN
 70
     8
  9
$DIMALTZ
 70
     0
  9
$DIMALTTZ
 70
     0
  9
$DIMUPT
 70
     1
  9
$DIMDEC
 70
     2
  9
$DIMTDEC
 70
     2
  9
$DIMALTU
 70
     2
  9
$DIMALTTD
 70
     3
  9
$DIMTXSTY
  7
STANDARD
  9
$DIMAUNIT
 70
     0
  9
$DIMADEC
 70
     1
  9
$DIMALTRND
 40
0.0
  9
$DIMAZIN
 70
     2
  9
$DIMDSEP
 70
    46
  9
$DIMATFIT
 70
     0
  9
$DIMFRAC
 70
     0
  9
$DIMLDRBLK
  1
Open30
  9
$DIMLUNIT
 70
     2
  9
$DIMLWD
 70
    -2
  9
$DIMLWE
 70
    -2
  9
$DIMTMOVE
 70
     0
  9
$LUNITS
 70
     2
  9
$LUPREC
 70
     4
  9
$SKETCHINC
 40
0.1
  9
$FILLETRAD
 40
0.0
  9
$AUNITS
 70
     0
  9
$AUPREC
 70
     0
  9
$MENU
  1
.
  9
$ELEVATION
 40
0.0
  9
$PELEVATION
 40
0.0
  9
$THICKNESS
 40
0.0
  9
$LIMCHECK
 70
     0
  9
$CHAMFERA
 40
0.0
  9
$CHAMFERB
 40
0.0
  9
$CHAMFERC
 40
0.0
  9
$CHAMFERD
 40
0.0
  9
$SKPOLY
 70
     0
  9
$TDCREATE
 40
2455485.728352338
  9
$TDUCREATE
 40
2455485.353352338
  9
$TDUPDATE
 40
2460214.490918704
  9
$TDUUPDATE
 40
2460214.115918704
  9
$TDINDWG
 40
0.0697381366
  9
$TDUSRTIMER
 40
0.0697226505
  9
$USRTIMER
 70
     1
  9
$ANGBASE
 50
0.0
  9
$ANGDIR
 70
     0
  9
$PDMODE
 70
     0
  9
$PDSIZE
 40
0.0
  9
$PLINEWID
 40
0.0
  9
$SPLFRAME
 70
     0
  9
$SPLINETYPE
 70
     6
  9
$SPLINESEGS
 70
     8
  9
$HANDSEED
  5
11CD
  9
$SURFTAB1
 70
     6
  9
$SURFTAB2
 70
     6
  9
$SURFTYPE
 70
     6
  9
$SURFU
 70
     6
  9
$SURFV
 70
     6
  9
$UCSBASE
  2

  9
$UCSNAME
  2

  9
$UCSORG
 10
0.0
 20
0.0
 30
0.0
  9
$UCSXDIR
 10
1.0
 20
0.0
 30
0.0
  9
$UCSYDIR
 10
0.0
 20
1.0
 30
0.0
  9
$UCSORTHOREF
  2

  9
$UCSORTHOVIEW
 70
     0
  9
$UCSORGTOP
 10
0.0
 20
0.0
 30
0.0
  9
$UCSORGBOTTOM
 10
0.0
 20
0.0
 30
0.0
  9
$UCSORGLEFT
 10
0.0
 20
0.0
 30
0.0
  9
$UCSORGRIGHT
 10
0.0
 20
0.0
 30
0.0
  9
$UCSORGFRONT
 10
0.0
 20
0.0
 30
0.0
  9
$UCSORGBACK
 10
0.0
 20
0.0
 30
0.0
  9
$PUCSBASE
  2

  9
$PUCSNAME
  2

  9
$PUCSORG
 10
0.0
 20
0.0
 30
0.0
  9
$PUCSXDIR
 10
1.0
 20
0.0
 30
0.0
  9
$PUCSYDIR
 10
0.0
 20
1.0
 30
0.0
  9
$PUCSORTHOREF
  2

  9
$PUCSORTHOVIEW
 70
     0
  9
$PUCSORGTOP
 10
0.0
 20
0.0
 30
0.0
  9
$PUCSORGBOTTOM
 10
0.0
 20
0.0
 30
0.0
  9
$PUCSORGLEFT
 10
0.0
 20
0.0
 30
0.0
  9
$PUCSORGRIGHT
 10
0.0
 20
0.0
 30
0.0
  9
$PUCSORGFRONT
 10
0.0
 20
0.0
 30
0.0
  9
$PUCSORGBACK
 10
0.0
 20
0.0
 30
0.0
  9
$USERI1
 70
     0
  9
$USERI2
 70
     0
  9
$USERI3
 70
     0
  9
$USERI4
 70
     0
  9
$USERI5
 70
     0
  9
$USERR1
 40
0.0
  9
$USERR2
 40
0.0
  9
$USERR3
 40
0.0
  9
$USERR4
 40
0.0
  9
$USERR5
 40
0.0
  9
$WORLDVIEW
 70
     1
  9
$SHADEDGE
 70
     3
  9
$SHADEDIF
 70
    70
  9
$TILEMODE
 70
     1
  9
$MAXACTVP
 70
    64
  9
$PINSBASE
 10
0.0
 20
0.0
 30
0.0
  9
$PLIMCHECK
 70
     0
  9
$PEXTMIN
 10
1.000000000000000E+20
 20
1.000000000000000E+20
 30
1.000000000000000E+20
  9
$PEXTMAX
 10
-1.000000000000000E+20
 20
-1.000000000000000E+20
 30
-1.000000000000000E+20
  9
$PLIMMIN
 10
0.0
 20
0.0
  9
$PLIMMAX
 10
12.0
 20
9.0
  9
$UNITMODE
 70
     0
  9
$VISRETAIN
 70
     1
  9
$PLINEGEN
 70
     0
  9
$PSLTSCALE
 70
     1
  9
$TREEDEPTH
 70
  3020
  9
$CMLSTYLE
  2
Standard
  9
$CMLJUST
 70
     0
  9
$CMLSCALE
 40
1.0
  9
$PROXYGRAPHICS
 70
     1
  9
$MEASUREMENT
 70
     0
  9
$CELWEIGHT
370
    -1
  9
$ENDCAPS
280
     0
  9
$JOINSTYLE
280
     0
  9
$LWDISPLAY
290
     0
  9
$INSUNITS
 70
     0
  9
$HYPERLINKBASE
  1

  9
$STYLESHEET
  1
N-PLOT.CTB
  9
$XEDIT
290
     1
  9
$CEPSNTYPE
380
     0
  9
$PSTYLEMODE
290
     1
  9
$FINGERPRINTGUID
  2
{9F91CA15-8292-452F-B007-D06B62D3D039}
  9
$VERSIONGUID
  2
{0BD7B271-3BDC-46A2-A410-EC86059CB32C}
  9
$EXTNAMES
290
     1
  9
$PSVPSCALE
 40
0.0
  9
$OLESTARTUP
290
     0
  0
ENDSEC
  0
SECTION
  2
CLASSES
  0
CLASS
  1
ACDBDICTIONARYWDFLT
  2
AcDbDictionaryWithDefault
  3
ObjectDBX Classes
 90
        0
280
     0
281
     0
  0
CLASS
  1
MATERIAL
  2
AcDbMaterial
  3
ObjectDBX Classes
 90
     1153
280
     0
281
     0
  0
CLASS
  1
VISUALSTYLE
  2
AcDbVisualStyle
  3
ObjectDBX Classes
 90
     4095
280
     0
281
     0
  0
CLASS
  1
TABLESTYLE
  2
AcDbTableStyle
  3
ObjectDBX Classes
 90
     4095
280
     0
281
     0
  0
CLASS
  1
DICTIONARYVAR
  2
AcDbDictionaryVar
  3
ObjectDBX Classes
 90
        0
280
     0
281
     0
  0
CLASS
  1
ACDBPLACEHOLDER
  2
AcDbPlaceHolder
  3
ObjectDBX Classes
 90
        0
280
     0
281
     0
  0
CLASS
  1
LAYOUT
  2
AcDbLayout
  3
ObjectDBX Classes
 90
        0
280
     0
281
     0
  0
CLASS
  1
SORTENTSTABLE
  2
AcDbSortentsTable
  3
ObjectDBX Classes
 90
        0
280
     0
281
     0
  0
CLASS
  1
SCALE
  2
AcDbScale
  3
ObjectDBX Classes
 90
     1153
280
     0
281
     0
  0
CLASS
  1
MLEADERSTYLE
  2
AcDbMLeaderStyle
  3
ACDB_MLEADERSTYLE_CLASS
 90
     4095
280
     0
281
     0
  0
CLASS
  1
CELLSTYLEMAP
  2
AcDbCellStyleMap
  3
ObjectDBX Classes
 90
     1152
280
     0
281
     0
  0
CLASS
  1
AEC_REFEDIT_STATUS_TRACKER
  2
AecDbRefEditStatusTracker
  3
AecArchBase60|Product Desc: Autodesk Architectural Desktop 2007 |Company: Autodesk,Inc. |WEB Address: www.autodesk.com
 90
      129
280
     0
281
     0
  0
CLASS
  1
NPOCOLLECTION
  2
AcDbImpNonPersistentObjectsCollection
  3
ObjectDBX Classes
 90
     1153
280
     0
281
     0
  0
ENDSEC
  0
SECTION
  2
TABLES
  0
TABLE
  2
VPORT
  5
8
330
0
100
AcDbSymbolTable
 70
     1
  0
VPORT
  5
56
330
8
100
AcDbSymbolTableRecord
100
AcDbViewportTableRecord
  2
*Active
 70
     0
 10
0.0
 20
0.0
 11
1.0
 21
1.0
 12
-458.9283116697173
 22
-965.2080448075036
 13
0.0
 23
0.0
 14
1.0
 24
1.0
 15
0.0
 25
0.0
 16
0.0
 26
0.0
 36
1.0
 17
0.0
 27
0.0
 37
0.0
 40
553.5209394980336
 41
1.22945205479452
 42
50.0
 43
0.0
 44
0.0
 50
0.0
 51
0.0
 71
     0
 72
  1000
 73
     1
 74
     1
 75
     0
 76
     0
 77
     0
 78
     0
281
     0
 65
     1
110
0.0
120
0.0
130
0.0
111
1.0
121
0.0
131
0.0
112
0.0
122
1.0
132
0.0
 79
     0
146
0.0
  0
ENDTAB
  0
TABLE
  2
LTYPE
  5
5
330
0
100
AcDbSymbolTable
 70
     3
  0
LTYPE
  5
28
330
5
100
AcDbSymbolTableRecord
100
AcDbLinetypeTableRecord
  2
ByBlock
 70
     0
  3

 72
    65
 73
     0
 40
0.0
  0
LTYPE
  5
29
330
5
100
AcDbSymbolTableRecord
100
AcDbLinetypeTableRecord
  2
ByLayer
 70
     0
  3

 72
    65
 73
     0
 40
0.0
  0
LTYPE
  5
2A
330
5
100
AcDbSymbolTableRecord
100
AcDbLinetypeTableRecord
  2
CONTINUOUS
 70
     0
  3
Solid-line
 72
    65
 73
     0
 40
0.0
  0
LTYPE
  5
4C
330
5
100
AcDbSymbolTableRecord
100
AcDbLinetypeTableRecord
  2
HIDDEN
 70
     0
  3
HIDDEN
 72
    65
 73
     2
 40
0.375
 49
0.25
 74
     0
 49
-0.125
 74
     0
  0
ENDTAB
  0
TABLE
  2
LAYER
  5
2
102
{ACAD_XDICTIONARY
360
667
102
}
330
0
100
AcDbSymbolTable
 70
     2
  0
LAYER
  5
25
102
{ACAD_XDICTIONARY
360
DFC
102
}
330
2
100
AcDbSymbolTableRecord
100
AcDbLayerTableRecord
  2
0
 70
     0
 62
     7
  6
CONTINUOUS
370
    -3
390
F
  0
LAYER
  5
658
330
2
100
AcDbSymbolTableRecord
100
AcDbLayerTableRecord
  2
Defpoints
 70
     0
 62
     7
  6
CONTINUOUS
290
     0
370
    -3
390
F
  0
ENDTAB
  0
TABLE
  2
STYLE
  5
3
330
0
100
AcDbSymbolTable
 70
     6
  0
STYLE
  5
26
330
3
100
AcDbSymbolTableRecord
100
AcDbTextStyleTableRecord
  2
STANDARD
 70
     0
 40
0.0
 41
1.0
 50
0.0
 71
     0
 42
0.2
  3
TXT
  4
BIGFONT
  0
STYLE
  5
659
330
3
100
AcDbSymbolTableRecord
100
AcDbTextStyleTableRecord
  2
高3.2
 70
     0
 40
3.2
 41
1.0
 50
0.0
 71
     0
 42
3.2
  3
txt.shx
  4
bigfont.shx
  0
STYLE
  5
65A
330
3
100
AcDbSymbolTableRecord
100
AcDbTextStyleTableRecord
  2
高6.3
 70
     0
 40
6.299999999999998
 41
1.0
 50
0.0
 71
     0
 42
6.299999999999998
  3
txt.shx
  4
bigfont.shx
  0
STYLE
  5
65B
330
3
100
AcDbSymbolTableRecord
100
AcDbTextStyleTableRecord
  2
高2.5
 70
     0
 40
2.5
 41
1.0
 50
0.0
 71
     0
 42
0.2
  3
txt.shx
  4
bigfont.shx
  0
STYLE
  5
65C
330
3
100
AcDbSymbolTableRecord
100
AcDbTextStyleTableRecord
  2
高4.5
 70
     0
 40
4.5
 41
1.0
 50
0.0
 71
     0
 42
6.299999999999998
  3
txt.shx
  4
bigfont.shx
  0
STYLE
  5
C33
330
3
100
AcDbSymbolTableRecord
100
AcDbTextStyleTableRecord
  2
高2
 70
     0
 40
2.0
 41
1.0
 50
0.0
 71
     0
 42
2.0
  3
txt.shx
  4
bigfont.shx
  0
ENDTAB
  0
TABLE
  2
VIEW
  5
6
330
0
100
AcDbSymbolTable
 70
     0
  0
ENDTAB
  0
TABLE
  2
UCS
  5
7
330
0
100
AcDbSymbolTable
 70
     0
  0
ENDTAB
  0
TABLE
  2
APPID
  5
9
330
0
100
AcDbSymbolTable
 70
    10
  0
APPID
  5
27
330
9
100
AcDbSymbolTableRecord
100
AcDbRegAppTableRecord
  2
ACAD
 70
     0
  0
APPID
  5
666
330
9
100
AcDbSymbolTableRecord
100
AcDbRegAppTableRecord
  2
ACAD_DSTYLE_DIMJOGGED_JOGANGLE_SYMBOL
 70
     0
  0
APPID
  5
896
330
9
100
AcDbSymbolTableRecord
100
AcDbRegAppTableRecord
  2
ACAD_DSTYLE_DIMARC_LENGTH_SYMBOL
 70
     0
  0
APPID
  5
897
330
9
100
AcDbSymbolTableRecord
100
AcDbRegAppTableRecord
  2
ACAD_DSTYLE_DIMEXT_LENGTH
 70
     0
  0
APPID
  5
902
330
9
100
AcDbSymbolTableRecord
100
AcDbRegAppTableRecord
  2
ACAD_PSEXT
 70
     0
  0
APPID
  5
C35
330
9
100
AcDbSymbolTableRecord
100
AcDbRegAppTableRecord
  2
ACAD_DSTYLE_DIMJAG
 70
     0
  0
APPID
  5
C36
330
9
100
AcDbSymbolTableRecord
100
AcDbRegAppTableRecord
  2
ACAD_DSTYLE_DIMBREAK
 70
     0
  0
APPID
  5
C37
330
9
100
AcDbSymbolTableRecord
100
AcDbRegAppTableRecord
  2
ACAD_DSTYLE_DIMTALN
 70
     0
  0
APPID
  5
D78
330
9
100
AcDbSymbolTableRecord
100
AcDbRegAppTableRecord
  2
ACAD_EXEMPT_FROM_CAD_STANDARDS
 70
     0
  0
APPID
  5
E42
330
9
100
AcDbSymbolTableRecord
100
AcDbRegAppTableRecord
  2
ACAD_MLEADERVER
 70
     0
  0
ENDTAB
  0
TABLE
  2
DIMSTYLE
  5
A
330
0
100
AcDbSymbolTable
 70
     2
100
AcDbDimStyleTable
 71
     2
340
661
340
5D2
  0
DIMSTYLE
105
5D2
330
A
100
AcDbSymbolTableRecord
100
AcDbDimStyleTableRecord
  2
Standard
 70
     0
340
26
  0
DIMSTYLE
105
661
330
A
100
AcDbSymbolTableRecord
100
AcDbDimStyleTableRecord
  2
1／2
 70
     0
 41
2.5
 42
0.25
 43
0.2
 44
1.25
 73
     0
 74
     0
 77
     3
 78
     8
 79
     2
140
3.0
141
0.0
143
0.03937007874016
144
2.0
147
0.625
171
     3
172
     1
178
     4
179
     1
271
     2
272
     2
274
     3
283
     0
284
     8
288
     1
289
     0
340
26
341
5D4
342
5D4
1001
ACAD_DSTYLE_DIMARC_LENGTH_SYMBOL
1070
   379
1070
     2
1001
ACAD_DSTYLE_DIMEXT_LENGTH
1070
   378
1040
1.25
1001
ACAD_DSTYLE_DIMJOGGED_JOGANGLE_SYMBOL
1070
   384
1040
1.570796326794896
  0
ENDTAB
  0
TABLE
  2
BLOCK_RECORD
  5
1
330
0
100
AcDbSymbolTable
 70
    12
  0
BLOCK_RECORD
  5
36
102
{ACAD_XDICTIONARY
360
95E
102
}
330
1
100
AcDbSymbolTableRecord
100
AcDbBlockTableRecord
  2
*Model_Space
340
39
  0
BLOCK_RECORD
  5
32
330
1
100
AcDbSymbolTableRecord
100
AcDbBlockTableRecord
  2
*Paper_Space
340
35
  0
BLOCK_RECORD
  5
5D4
330
1
100
AcDbSymbolTableRecord
100
AcDbBlockTableRecord
  2
_Open30
340
0
102
{BLKREFS
331
FC5
331
FC6
331
FCE
331
FCF
331
FD7
331
FD8
331
FE0
331
FE1
331
FE9
331
FEA
331
FF2
331
FF3
331
FFB
331
FFC
331
1004
331
1005
331
100D
331
100E
331
1016
331
1017
331
101F
331
1020
102
}
  0
BLOCK_RECORD
  5
760
330
1
100
AcDbSymbolTableRecord
100
AcDbBlockTableRecord
  2
*D1
340
0
  0
BLOCK_RECORD
  5
784
330
1
100
AcDbSymbolTableRecord
100
AcDbBlockTableRecord
  2
*D2
340
0
  0
BLOCK_RECORD
  5
799
330
1
100
AcDbSymbolTableRecord
100
AcDbBlockTableRecord
  2
*D3
340
0
  0
BLOCK_RECORD
  5
7AE
330
1
100
AcDbSymbolTableRecord
100
AcDbBlockTableRecord
  2
*D4
340
0
  0
BLOCK_RECORD
  5
7C3
330
1
100
AcDbSymbolTableRecord
100
AcDbBlockTableRecord
  2
*D5
340
0
  0
BLOCK_RECORD
  5
7D8
330
1
100
AcDbSymbolTableRecord
100
AcDbBlockTableRecord
  2
*D6
340
0
  0
BLOCK_RECORD
  5
7FF
330
1
100
AcDbSymbolTableRecord
100
AcDbBlockTableRecord
  2
*D7
340
0
  0
BLOCK_RECORD
  5
814
330
1
100
AcDbSymbolTableRecord
100
AcDbBlockTableRecord
  2
*D8
340
0
  0
BLOCK_RECORD
  5
829
330
1
100
AcDbSymbolTableRecord
100
AcDbBlockTableRecord
  2
*D9
340
0
  0
BLOCK_RECORD
  5
847
330
1
100
AcDbSymbolTableRecord
100
AcDbBlockTableRecord
  2
*D10
340
0
  0
BLOCK_RECORD
  5
85C
330
1
100
AcDbSymbolTableRecord
100
AcDbBlockTableRecord
  2
*D11
340
0
  0
ENDTAB
  0
ENDSEC
  0
SECTION
  2
BLOCKS
  0
BLOCK
  5
37
330
36
100
AcDbEntity
  8
0
100
AcDbBlockBegin
  2
*Model_Space
 70
     0
 10
0.0
 20
0.0
 30
0.0
  3
*Model_Space
  1

  0
ENDBLK
  5
38
330
36
100
AcDbEntity
  8
0
100
AcDbBlockEnd
  0
BLOCK
  5
33
330
32
100
AcDbEntity
 67
     1
  8
0
100
AcDbBlockBegin
  2
*Paper_Space
 70
     0
 10
0.0
 20
0.0
 30
0.0
  3
*Paper_Space
  1

  0
ENDBLK
  5
34
330
32
100
AcDbEntity
 67
     1
  8
0
100
AcDbBlockEnd
  0
BLOCK
  5
5D5
330
5D4
100
AcDbEntity
  8
0
100
AcDbBlockBegin
  2
_Open30
 70
     0
 10
0.0
 20
0.0
 30
0.0
  3
_Open30
  1

  0
LINE
  5
5D6
330
5D4
100
AcDbEntity
  8
0
  6
ByBlock
 62
     0
370
    -2
100
AcDbLine
 10
-1.0
 20
0.267949
 30
0.0
 11
0.0
 21
0.0
 31
0.0
  0
LINE
  5
5D7
330
5D4
100
AcDbEntity
  8
0
  6
ByBlock
 62
     0
370
    -2
100
AcDbLine
 10
0.0
 20
0.0
 30
0.0
 11
-1.0
 21
-0.267949
 31
0.0
  0
LINE
  5
5D8
330
5D4
100
AcDbEntity
  8
0
  6
ByBlock
 62
     0
370
    -2
100
AcDbLine
 10
0.0
 20
0.0
 30
0.0
 11
-1.0
 21
0.0
 31
0.0
  0
ENDBLK
  5
5D9
330
5D4
100
AcDbEntity
  8
0
100
AcDbBlockEnd
  0
BLOCK
  5
76C
330
760
100
AcDbEntity
  8
0
100
AcDbBlockBegin
  2
*D1
 70
     1
 10
0.0
 20
0.0
 30
0.0
  3
*D1
  1

  0
LINE
  5
FC0
330
760
100
AcDbEntity
  8
0
 62
     0
370
    -2
100
AcDbLine
 10
-517.6172740000001
 20
-882.8855970000001
 30
0.0
 11
-517.6172740000001
 21
-862.7803949999998
 31
0.0
  0
LINE
  5
FC1
330
760
100
AcDbEntity
  8
0
 62
     0
370
    -2
100
AcDbLine
 10
-514.617274
 20
-868.717544
 30
0.0
 11
-514.617274
 21
-862.7803949999998
 31
0.0
  0
LINE
  5
FC2
330
760
100
AcDbEntity
  8
0
 62
     0
370
    -2
100
AcDbLine
 10
-512.117274
 20
-864.0303949999999
 30
0.0
 11
-509.617274
 21
-864.0303949999999
 31
0.0
  0
LINE
  5
FC3
330
760
100
AcDbEntity
  8
0
 62
     0
370
    -2
100
AcDbLine
 10
-520.1172740000002
 20
-864.0303949999999
 30
0.0
 11
-525.8672740000001
 21
-864.0303949999999
 31
0.0
  0
LINE
  5
FC4
330
760
100
AcDbEntity
  8
0
 62
     0
370
    -2
100
AcDbLine
 10
-514.617274
 20
-864.0303949999999
 30
0.0
 11
-517.6172740000001
 21
-864.0303949999999
 31
0.0
  0
INSERT
  5
FC5
330
760
100
AcDbEntity
  8
0
 62
     0
370
    -2
100
AcDbBlockReference
  2
_Open30
 10
-514.617274
 20
-864.0303949999999
 30
0.0
 41
2.5
 42
2.5
 43
2.5
 50
180.0
  0
INSERT
  5
FC6
330
760
100
AcDbEntity
  8
0
 62
     0
370
    -2
100
AcDbBlockReference
  2
_Open30
 10
-517.6172740000001
 20
-864.0303949999999
 30
0.0
 41
2.5
 42
2.5
 43
2.5
  0
MTEXT
  5
FC7
330
760
100
AcDbEntity
  8
0
 62
     4
100
AcDbMText
 10
-524.2422740000002
 20
-861.9053949999999
 30
0.0
 40
3.0
 41
0.0
 71
     5
 72
     1
  1
6
 73
     1
 44
1.0
1001
ACAD
1000
MTEXTBEGIN
1070
    73
1070
     1
1070
    44
1040
1.0
1070
    74
1070
     0
1000
MTEXTEND
  0
POINT
  5
FC8
330
760
100
AcDbEntity
  8
Defpoints
 62
     0
100
AcDbPoint
 10
-517.6172740000001
 20
-883.135597
 30
0.0
  0
POINT
  5
FC9
330
760
100
AcDbEntity
  8
Defpoints
 62
     0
100
AcDbPoint
 10
-514.617274
 20
-868.967544
 30
0.0
  0
POINT
  5
FCA
330
760
100
AcDbEntity
  8
Defpoints
 62
     0
100
AcDbPoint
 10
-514.617274
 20
-864.0303949999999
 30
0.0
  0
ENDBLK
  5
76D
330
760
100
AcDbEntity
  8
0
100
AcDbBlockEnd
  0
BLOCK
  5
78E
330
784
100
AcDbEntity
  8
0
100
AcDbBlockBegin
  2
*D2
 70
     1
 10
0.0
 20
0.0
 30
0.0
  3
*D2
  1

  0
LINE
  5
FCB
330
784
100
AcDbEntity
  8
0
 62
     0
370
    -2
100
AcDbLine
 10
-479.3672739999999
 20
-886.9675439999998
 30
0.0
 11
-497.3197099999999
 21
-886.9675439999998
 31
0.0
  0
LINE
  5
FCC
330
784
100
AcDbEntity
  8
0
 62
     0
370
    -2
100
AcDbLine
 10
-477.3672739999998
 20
-871.9675439999999
 30
0.0
 11
-497.3197099999999
 21
-871.9675439999999
 31
0.0
  0
LINE
  5
FCD
330
784
100
AcDbEntity
  8
0
 62
     0
370
    -2
100
AcDbLine
 10
-496.0697099999999
 20
-884.4675439999997
 30
0.0
 11
-496.0697099999999
 21
-874.4675439999998
 31
0.0
  0
INSERT
  5
FCE
330
784
100
AcDbEntity
  8
0
 62
     0
370
    -2
100
AcDbBlockReference
  2
_Open30
 10
-496.0697099999999
 20
-886.9675439999998
 30
0.0
 41
2.5
 42
2.5
 43
2.5
 50
270.0
  0
INSERT
  5
FCF
330
784
100
AcDbEntity
  8
0
 62
     0
370
    -2
100
AcDbBlockReference
  2
_Open30
 10
-496.0697099999999
 20
-871.9675439999999
 30
0.0
 41
2.5
 42
2.5
 43
2.5
 50
90.0
  0
MTEXT
  5
FD0
330
784
100
AcDbEntity
  8
0
 62
     4
100
AcDbMText
 10
-498.1947099999997
 20
-879.4675439999998
 30
0.0
 40
3.0
 41
0.0
 71
     5
 72
     1
  1
30
 11
0.0000000000000001
 21
1.0
 31
0.0
 73
     1
 44
1.0
1001
ACAD
1000
MTEXTBEGIN
1070
    73
1070
     1
1070
    44
1040
1.0
1070
    74
1070
     0
1000
MTEXTEND
  0
POINT
  5
FD1
330
784
100
AcDbEntity
  8
Defpoints
 62
     0
100
AcDbPoint
 10
-479.117274
 20
-886.9675439999998
 30
0.0
  0
POINT
  5
FD2
330
784
100
AcDbEntity
  8
Defpoints
 62
     0
100
AcDbPoint
 10
-477.1172739999998
 20
-871.9675439999999
 30
0.0
  0
POINT
  5
FD3
330
784
100
AcDbEntity
  8
Defpoints
 62
     0
100
AcDbPoint
 10
-496.0697099999999
 20
-871.9675439999999
 30
0.0
  0
ENDBLK
  5
78F
330
784
100
AcDbEntity
  8
0
100
AcDbBlockEnd
  0
BLOCK
  5
7A3
330
799
100
AcDbEntity
  8
0
100
AcDbBlockBegin
  2
*D3
 70
     1
 10
0.0
 20
0.0
 30
0.0
  3
*D3
  1

  0
LINE
  5
FD4
330
799
100
AcDbEntity
  8
0
 62
     0
370
    -2
100
AcDbLine
 10
-514.617274
 20
-886.7175439999996
 30
0.0
 11
-514.617274
 21
-862.7803949999998
 31
0.0
  0
LINE
  5
FD5
330
799
100
AcDbEntity
  8
0
 62
     0
370
    -2
100
AcDbLine
 10
-436.1172739999998
 20
-886.6867670000001
 30
0.0
 11
-436.1172739999998
 21
-862.7803949999998
 31
0.0
  0
LINE
  5
FD6
330
799
100
AcDbEntity
  8
0
 62
     0
370
    -2
100
AcDbLine
 10
-512.117274
 20
-864.0303949999999
 30
0.0
 11
-438.6172739999998
 21
-864.0303949999999
 31
0.0
  0
INSERT
  5
FD7
330
799
100
AcDbEntity
  8
0
 62
     0
370
    -2
100
AcDbBlockReference
  2
_Open30
 10
-514.617274
 20
-864.0303949999999
 30
0.0
 41
2.5
 42
2.5
 43
2.5
 50
180.0
  0
INSERT
  5
FD8
330
799
100
AcDbEntity
  8
0
 62
     0
370
    -2
100
AcDbBlockReference
  2
_Open30
 10
-436.1172739999998
 20
-864.0303949999999
 30
0.0
 41
2.5
 42
2.5
 43
2.5
  0
MTEXT
  5
FD9
330
799
100
AcDbEntity
  8
0
 62
     4
100
AcDbMText
 10
-475.3672739999999
 20
-861.9053949999999
 30
0.0
 40
3.0
 41
0.0
 71
     5
 72
     1
  1
157
 73
     1
 44
1.0
1001
ACAD
1000
MTEXTBEGIN
1070
    73
1070
     1
1070
    44
1040
1.0
1070
    74
1070
     0
1000
MTEXTEND
  0
POINT
  5
FDA
330
799
100
AcDbEntity
  8
Defpoints
 62
     0
100
AcDbPoint
 10
-514.617274
 20
-886.9675439999998
 30
0.0
  0
POINT
  5
FDB
330
799
100
AcDbEntity
  8
Defpoints
 62
     0
100
AcDbPoint
 10
-436.1172739999998
 20
-886.936767
 30
0.0
  0
POINT
  5
FDC
330
799
100
AcDbEntity
  8
Defpoints
 62
     0
100
AcDbPoint
 10
-436.1172739999998
 20
-864.0303949999999
 30
0.0
  0
ENDBLK
  5
7A4
330
799
100
AcDbEntity
  8
0
100
AcDbBlockEnd
  0
BLOCK
  5
7B8
330
7AE
100
AcDbEntity
  8
0
100
AcDbBlockBegin
  2
*D4
 70
     1
 10
0.0
 20
0.0
 30
0.0
  3
*D4
  1

  0
LINE
  5
FDD
330
7AE
100
AcDbEntity
  8
0
 62
     0
370
    -2
100
AcDbLine
 10
-443.6172739999998
 20
-885.606985
 30
0.0
 11
-443.6172739999998
 21
-872.1041679999999
 31
0.0
  0
LINE
  5
FDE
330
7AE
100
AcDbEntity
  8
0
 62
     0
370
    -2
100
AcDbLine
 10
-436.1172739999998
 20
-887.5142419999999
 30
0.0
 11
-436.1172739999998
 21
-872.1041679999999
 31
0.0
  0
LINE
  5
FDF
330
7AE
100
AcDbEntity
  8
0
 62
     0
370
    -2
100
AcDbLine
 10
-441.1172739999998
 20
-873.354168
 30
0.0
 11
-438.6172739999998
 21
-873.354168
 31
0.0
  0
INSERT
  5
FE0
330
7AE
100
AcDbEntity
  8
0
 62
     0
370
    -2
100
AcDbBlockReference
  2
_Open30
 10
-443.6172739999998
 20
-873.354168
 30
0.0
 41
2.5
 42
2.5
 43
2.5
 50
180.0
  0
INSERT
  5
FE1
330
7AE
100
AcDbEntity
  8
0
 62
     0
370
    -2
100
AcDbBlockReference
  2
_Open30
 10
-436.1172739999998
 20
-873.354168
 30
0.0
 41
2.5
 42
2.5
 43
2.5
  0
MTEXT
  5
FE2
330
7AE
100
AcDbEntity
  8
0
 62
     4
100
AcDbMText
 10
-439.8672739999998
 20
-871.2291679999999
 30
0.0
 40
3.0
 41
0.0
 71
     5
 72
     1
  1
15
 73
     1
 44
1.0
1001
ACAD
1000
MTEXTBEGIN
1070
    73
1070
     1
1070
    44
1040
1.0
1070
    74
1070
     0
1000
MTEXTEND
  0
POINT
  5
FE3
330
7AE
100
AcDbEntity
  8
Defpoints
 62
     0
100
AcDbPoint
 10
-443.6172739999998
 20
-885.856985
 30
0.0
  0
POINT
  5
FE4
330
7AE
100
AcDbEntity
  8
Defpoints
 62
     0
100
AcDbPoint
 10
-436.1172739999998
 20
-887.7642419999999
 30
0.0
  0
POINT
  5
FE5
330
7AE
100
AcDbEntity
  8
Defpoints
 62
     0
100
AcDbPoint
 10
-436.1172739999998
 20
-873.354168
 30
0.0
  0
ENDBLK
  5
7B9
330
7AE
100
AcDbEntity
  8
0
100
AcDbBlockEnd
  0
BLOCK
  5
7CD
330
7C3
100
AcDbEntity
  8
0
100
AcDbBlockBegin
  2
*D5
 70
     1
 10
0.0
 20
0.0
 30
0.0
  3
*D5
  1

  0
LINE
  5
FE6
330
7C3
100
AcDbEntity
  8
0
 62
     0
370
    -2
100
AcDbLine
 10
-606.425832
 20
-995.635597
 30
0.0
 11
-636.8749719999999
 21
-995.635597
 31
0.0
  0
LINE
  5
FE7
330
7C3
100
AcDbEntity
  8
0
 62
     0
370
    -2
100
AcDbLine
 10
-606.425832
 20
-879.635597
 30
0.0
 11
-636.8749719999999
 21
-879.635597
 31
0.0
  0
LINE
  5
FE8
330
7C3
100
AcDbEntity
  8
0
 62
     0
370
    -2
100
AcDbLine
 10
-635.624972
 20
-993.135597
 30
0.0
 11
-635.624972
 21
-882.135597
 31
0.0
  0
INSERT
  5
FE9
330
7C3
100
AcDbEntity
  8
0
 62
     0
370
    -2
100
AcDbBlockReference
  2
_Open30
 10
-635.624972
 20
-995.635597
 30
0.0
 41
2.5
 42
2.5
 43
2.5
 50
270.0
  0
INSERT
  5
FEA
330
7C3
100
AcDbEntity
  8
0
 62
     0
370
    -2
100
AcDbBlockReference
  2
_Open30
 10
-635.624972
 20
-879.635597
 30
0.0
 41
2.5
 42
2.5
 43
2.5
 50
90.0
  0
MTEXT
  5
FEB
330
7C3
100
AcDbEntity
  8
0
 62
     4
100
AcDbMText
 10
-637.7499719999998
 20
-937.6355970000002
 30
0.0
 40
3.0
 41
0.0
 71
     5
 72
     1
  1
(232)
 11
0.0000000000000001
 21
1.0
 31
0.0
 73
     1
 44
1.0
1001
ACAD
1000
MTEXTBEGIN
1070
    73
1070
     1
1070
    44
1040
1.0
1070
    74
1070
     0
1000
MTEXTEND
  0
POINT
  5
FEC
330
7C3
100
AcDbEntity
  8
Defpoints
 62
     0
100
AcDbPoint
 10
-606.175832
 20
-995.635597
 30
0.0
  0
POINT
  5
FED
330
7C3
100
AcDbEntity
  8
Defpoints
 62
     0
100
AcDbPoint
 10
-606.175832
 20
-879.635597
 30
0.0
  0
POINT
  5
FEE
330
7C3
100
AcDbEntity
  8
Defpoints
 62
     0
100
AcDbPoint
 10
-635.624972
 20
-879.635597
 30
0.0
  0
ENDBLK
  5
7CE
330
7C3
100
AcDbEntity
  8
0
100
AcDbBlockEnd
  0
BLOCK
  5
7E2
330
7D8
100
AcDbEntity
  8
0
100
AcDbBlockBegin
  2
*D6
 70
     1
 10
0.0
 20
0.0
 30
0.0
  3
*D6
  1

  0
LINE
  5
FEF
330
7D8
100
AcDbEntity
  8
0
 62
     0
370
    -2
100
AcDbLine
 10
-603.29029
 20
-992.6355969999999
 30
0.0
 11
-627.7646679999998
 21
-992.6355969999999
 31
0.0
  0
LINE
  5
FF0
330
7D8
100
AcDbEntity
  8
0
 62
     0
370
    -2
100
AcDbLine
 10
-602.8565489999997
 20
-882.6355970000001
 30
0.0
 11
-627.7646679999998
 21
-882.6355970000001
 31
0.0
  0
LINE
  5
FF1
330
7D8
100
AcDbEntity
  8
0
 62
     0
370
    -2
100
AcDbLine
 10
-626.5146679999998
 20
-990.1355969999999
 30
0.0
 11
-626.5146679999998
 21
-885.1355970000001
 31
0.0
  0
INSERT
  5
FF2
330
7D8
100
AcDbEntity
  8
0
 62
     0
370
    -2
100
AcDbBlockReference
  2
_Open30
 10
-626.5146679999998
 20
-992.6355969999999
 30
0.0
 41
2.5
 42
2.5
 43
2.5
 50
270.0
  0
INSERT
  5
FF3
330
7D8
100
AcDbEntity
  8
0
 62
     0
370
    -2
100
AcDbBlockReference
  2
_Open30
 10
-626.5146679999998
 20
-882.6355970000001
 30
0.0
 41
2.5
 42
2.5
 43
2.5
 50
90.0
  0
MTEXT
  5
FF4
330
7D8
100
AcDbEntity
  8
0
 62
     4
100
AcDbMText
 10
-628.6396679999996
 20
-937.6355970000002
 30
0.0
 40
3.0
 41
0.0
 71
     5
 72
     1
  1
(220)
 11
0.0000000000000001
 21
1.0
 31
0.0
 73
     1
 44
1.0
1001
ACAD
1000
MTEXTBEGIN
1070
    73
1070
     1
1070
    44
1040
1.0
1070
    74
1070
     0
1000
MTEXTEND
  0
POINT
  5
FF5
330
7D8
100
AcDbEntity
  8
Defpoints
 62
     0
100
AcDbPoint
 10
-603.04029
 20
-992.6355969999999
 30
0.0
  0
POINT
  5
FF6
330
7D8
100
AcDbEntity
  8
Defpoints
 62
     0
100
AcDbPoint
 10
-602.6065489999997
 20
-882.6355970000001
 30
0.0
  0
POINT
  5
FF7
330
7D8
100
AcDbEntity
  8
Defpoints
 62
     0
100
AcDbPoint
 10
-626.5146679999998
 20
-882.6355970000001
 30
0.0
  0
ENDBLK
  5
7E3
330
7D8
100
AcDbEntity
  8
0
100
AcDbBlockEnd
  0
BLOCK
  5
809
330
7FF
100
AcDbEntity
  8
0
100
AcDbBlockBegin
  2
*D7
 70
     1
 10
0.0
 20
0.0
 30
0.0
  3
*D7
  1

  0
LINE
  5
FF8
330
7FF
100
AcDbEntity
  8
0
 62
     0
370
    -2
100
AcDbLine
 10
-601.175832
 20
-994.685497
 30
0.0
 11
-601.175832
 21
-1004.711385
 31
0.0
  0
LINE
  5
FF9
330
7FF
100
AcDbEntity
  8
0
 62
     0
370
    -2
100
AcDbLine
 10
-581.175832
 20
-994.6015890000001
 30
0.0
 11
-581.175832
 21
-1004.711385
 31
0.0
  0
LINE
  5
FFA
330
7FF
100
AcDbEntity
  8
0
 62
     0
370
    -2
100
AcDbLine
 10
-598.6758319999999
 20
-1003.461385
 30
0.0
 11
-583.675832
 21
-1003.461385
 31
0.0
  0
INSERT
  5
FFB
330
7FF
100
AcDbEntity
  8
0
 62
     0
370
    -2
100
AcDbBlockReference
  2
_Open30
 10
-601.175832
 20
-1003.461385
 30
0.0
 41
2.5
 42
2.5
 43
2.5
 50
180.0
  0
INSERT
  5
FFC
330
7FF
100
AcDbEntity
  8
0
 62
     0
370
    -2
100
AcDbBlockReference
  2
_Open30
 10
-581.175832
 20
-1003.461385
 30
0.0
 41
2.5
 42
2.5
 43
2.5
  0
MTEXT
  5
FFD
330
7FF
100
AcDbEntity
  8
0
 62
     4
100
AcDbMText
 10
-591.175832
 20
-1001.336385
 30
0.0
 40
3.0
 41
0.0
 71
     5
 72
     1
  1
40
 73
     1
 44
1.0
1001
ACAD
1000
MTEXTBEGIN
1070
    73
1070
     1
1070
    44
1040
1.0
1070
    74
1070
     0
1000
MTEXTEND
  0
POINT
  5
FFE
330
7FF
100
AcDbEntity
  8
Defpoints
 62
     0
100
AcDbPoint
 10
-601.175832
 20
-994.435497
 30
0.0
  0
POINT
  5
FFF
330
7FF
100
AcDbEntity
  8
Defpoints
 62
     0
100
AcDbPoint
 10
-581.175832
 20
-994.351589
 30
0.0
  0
POINT
  5
1000
330
7FF
100
AcDbEntity
  8
Defpoints
 62
     0
100
AcDbPoint
 10
-581.175832
 20
-1003.461385
 30
0.0
  0
ENDBLK
  5
80A
330
7FF
100
AcDbEntity
  8
0
100
AcDbBlockEnd
  0
BLOCK
  5
81E
330
814
100
AcDbEntity
  8
0
100
AcDbBlockBegin
  2
*D8
 70
     1
 10
0.0
 20
0.0
 30
0.0
  3
*D8
  1

  0
LINE
  5
1001
330
814
100
AcDbEntity
  8
0
 62
     0
370
    -2
100
AcDbLine
 10
-581.175832
 20
-994.0105969999999
 30
0.0
 11
-581.175832
 21
-1004.711385
 31
0.0
  0
LINE
  5
1002
330
814
100
AcDbEntity
  8
0
 62
     0
370
    -2
100
AcDbLine
 10
-561.1758319999998
 20
-994.643545
 30
0.0
 11
-561.1758319999998
 21
-1004.711385
 31
0.0
  0
LINE
  5
1003
330
814
100
AcDbEntity
  8
0
 62
     0
370
    -2
100
AcDbLine
 10
-578.675832
 20
-1003.461385
 30
0.0
 11
-563.6758319999999
 21
-1003.461385
 31
0.0
  0
INSERT
  5
1004
330
814
100
AcDbEntity
  8
0
 62
     0
370
    -2
100
AcDbBlockReference
  2
_Open30
 10
-581.175832
 20
-1003.461385
 30
0.0
 41
2.5
 42
2.5
 43
2.5
 50
180.0
  0
INSERT
  5
1005
330
814
100
AcDbEntity
  8
0
 62
     0
370
    -2
100
AcDbBlockReference
  2
_Open30
 10
-561.1758319999998
 20
-1003.461385
 30
0.0
 41
2.5
 42
2.5
 43
2.5
  0
MTEXT
  5
1006
330
814
100
AcDbEntity
  8
0
 62
     4
100
AcDbMText
 10
-571.1758319999999
 20
-1001.336385
 30
0.0
 40
3.0
 41
0.0
 71
     5
 72
     1
  1
40
 73
     1
 44
1.0
1001
ACAD
1000
MTEXTBEGIN
1070
    73
1070
     1
1070
    44
1040
1.0
1070
    74
1070
     0
1000
MTEXTEND
  0
POINT
  5
1007
330
814
100
AcDbEntity
  8
Defpoints
 62
     0
100
AcDbPoint
 10
-581.175832
 20
-993.7605969999999
 30
0.0
  0
POINT
  5
1008
330
814
100
AcDbEntity
  8
Defpoints
 62
     0
100
AcDbPoint
 10
-561.1758319999998
 20
-994.3935449999999
 30
0.0
  0
POINT
  5
1009
330
814
100
AcDbEntity
  8
Defpoints
 62
     0
100
AcDbPoint
 10
-561.1758319999998
 20
-1003.461385
 30
0.0
  0
ENDBLK
  5
81F
330
814
100
AcDbEntity
  8
0
100
AcDbBlockEnd
  0
BLOCK
  5
833
330
829
100
AcDbEntity
  8
0
100
AcDbBlockBegin
  2
*D9
 70
     1
 10
0.0
 20
0.0
 30
0.0
  3
*D9
  1

  0
LINE
  5
100A
330
829
100
AcDbEntity
  8
0
 62
     0
370
    -2
100
AcDbLine
 10
-381.767274
 20
-982.9355969999999
 30
0.0
 11
-381.767274
 21
-1002.545473
 31
0.0
  0
LINE
  5
100B
330
829
100
AcDbEntity
  8
0
 62
     0
370
    -2
100
AcDbLine
 10
-303.467274
 20
-982.9355969999999
 30
0.0
 11
-303.467274
 21
-1002.545473
 31
0.0
  0
LINE
  5
100C
330
829
100
AcDbEntity
  8
0
 62
     0
370
    -2
100
AcDbLine
 10
-379.267274
 20
-1001.295473
 30
0.0
 11
-305.967274
 21
-1001.295473
 31
0.0
  0
INSERT
  5
100D
330
829
100
AcDbEntity
  8
0
 62
     0
370
    -2
100
AcDbBlockReference
  2
_Open30
 10
-381.767274
 20
-1001.295473
 30
0.0
 41
2.5
 42
2.5
 43
2.5
 50
180.0
  0
INSERT
  5
100E
330
829
100
AcDbEntity
  8
0
 62
     0
370
    -2
100
AcDbBlockReference
  2
_Open30
 10
-303.467274
 20
-1001.295473
 30
0.0
 41
2.5
 42
2.5
 43
2.5
  0
MTEXT
  5
100F
330
829
100
AcDbEntity
  8
0
 62
     4
100
AcDbMText
 10
-342.6172740000001
 20
-999.170473
 30
0.0
 40
3.0
 41
0.0
 71
     5
 72
     1
  1
157
 73
     1
 44
1.0
1001
ACAD
1000
MTEXTBEGIN
1070
    73
1070
     1
1070
    44
1040
1.0
1070
    74
1070
     0
1000
MTEXTEND
  0
POINT
  5
1010
330
829
100
AcDbEntity
  8
Defpoints
 62
     0
100
AcDbPoint
 10
-381.767274
 20
-982.685597
 30
0.0
  0
POINT
  5
1011
330
829
100
AcDbEntity
  8
Defpoints
 62
     0
100
AcDbPoint
 10
-303.467274
 20
-982.685597
 30
0.0
  0
POINT
  5
1012
330
829
100
AcDbEntity
  8
Defpoints
 62
     0
100
AcDbPoint
 10
-303.467274
 20
-1001.295473
 30
0.0
  0
ENDBLK
  5
834
330
829
100
AcDbEntity
  8
0
100
AcDbBlockEnd
  0
BLOCK
  5
851
330
847
100
AcDbEntity
  8
0
100
AcDbBlockBegin
  2
*D10
 70
     1
 10
0.0
 20
0.0
 30
0.0
  3
*D10
  1

  0
LINE
  5
1013
330
847
100
AcDbEntity
  8
0
 62
     0
370
    -2
100
AcDbLine
 10
-309.817274
 20
-989.2855970000001
 30
0.0
 11
-290.663368
 21
-989.2855970000001
 31
0.0
  0
LINE
  5
1014
330
847
100
AcDbEntity
  8
0
 62
     0
370
    -2
100
AcDbLine
 10
-310.518941
 20
-885.9855970000001
 30
0.0
 11
-290.663368
 21
-885.9855970000001
 31
0.0
  0
LINE
  5
1015
330
847
100
AcDbEntity
  8
0
 62
     0
370
    -2
100
AcDbLine
 10
-291.9133680000001
 20
-986.785597
 30
0.0
 11
-291.913368
 21
-888.4855970000002
 31
0.0
  0
INSERT
  5
1016
330
847
100
AcDbEntity
  8
0
 62
     0
370
    -2
100
AcDbBlockReference
  2
_Open30
 10
-291.9133680000001
 20
-989.2855970000001
 30
0.0
 41
2.5
 42
2.5
 43
2.5
 50
270.0
  0
INSERT
  5
1017
330
847
100
AcDbEntity
  8
0
 62
     0
370
    -2
100
AcDbBlockReference
  2
_Open30
 10
-291.913368
 20
-885.9855970000001
 30
0.0
 41
2.5
 42
2.5
 43
2.5
 50
90.0
  0
MTEXT
  5
1018
330
847
100
AcDbEntity
  8
0
 62
     4
100
AcDbMText
 10
-294.0383679999999
 20
-937.6355970000002
 30
0.0
 40
3.0
 41
0.0
 71
     5
 72
     1
  1
207
 11
0.0000000000000001
 21
1.0
 31
0.0
 73
     1
 44
1.0
1001
ACAD
1000
MTEXTBEGIN
1070
    73
1070
     1
1070
    44
1040
1.0
1070
    74
1070
     0
1000
MTEXTEND
  0
POINT
  5
1019
330
847
100
AcDbEntity
  8
Defpoints
 62
     0
100
AcDbPoint
 10
-310.067274
 20
-989.2855970000001
 30
0.0
  0
POINT
  5
101A
330
847
100
AcDbEntity
  8
Defpoints
 62
     0
100
AcDbPoint
 10
-310.768941
 20
-885.9855970000001
 30
0.0
  0
POINT
  5
101B
330
847
100
AcDbEntity
  8
Defpoints
 62
     0
100
AcDbPoint
 10
-291.913368
 20
-885.9855970000001
 30
0.0
  0
ENDBLK
  5
852
330
847
100
AcDbEntity
  8
0
100
AcDbBlockEnd
  0
BLOCK
  5
866
330
85C
100
AcDbEntity
  8
0
100
AcDbBlockBegin
  2
*D11
 70
     1
 10
0.0
 20
0.0
 30
0.0
  3
*D11
  1

  0
LINE
  5
101C
330
85C
100
AcDbEntity
  8
0
 62
     0
370
    -2
100
AcDbLine
 10
-342.367274
 20
-989.2855970000001
 30
0.0
 11
-282.786617
 21
-989.2855970000001
 31
0.0
  0
LINE
  5
101D
330
85C
100
AcDbEntity
  8
0
 62
     0
370
    -2
100
AcDbLine
 10
-342.98194
 20
-872.1355970000002
 30
0.0
 11
-282.786617
 21
-872.1355970000002
 31
0.0
  0
LINE
  5
101E
330
85C
100
AcDbEntity
  8
0
 62
     0
370
    -2
100
AcDbLine
 10
-284.036617
 20
-986.785597
 30
0.0
 11
-284.036617
 21
-874.6355970000003
 31
0.0
  0
INSERT
  5
101F
330
85C
100
AcDbEntity
  8
0
 62
     0
370
    -2
100
AcDbBlockReference
  2
_Open30
 10
-284.036617
 20
-989.2855970000001
 30
0.0
 41
2.5
 42
2.5
 43
2.5
 50
270.0
  0
INSERT
  5
1020
330
85C
100
AcDbEntity
  8
0
 62
     0
370
    -2
100
AcDbBlockReference
  2
_Open30
 10
-284.036617
 20
-872.1355970000002
 30
0.0
 41
2.5
 42
2.5
 43
2.5
 50
90.0
  0
MTEXT
  5
1021
330
85C
100
AcDbEntity
  8
0
 62
     4
100
AcDbMText
 10
-286.1616169999999
 20
-930.7105970000002
 30
0.0
 40
3.0
 41
0.0
 71
     5
 72
     1
  1
234
 11
0.0000000000000001
 21
1.0
 31
0.0
 73
     1
 44
1.0
1001
ACAD
1000
MTEXTBEGIN
1070
    73
1070
     1
1070
    44
1040
1.0
1070
    74
1070
     0
1000
MTEXTEND
  0
POINT
  5
1022
330
85C
100
AcDbEntity
  8
Defpoints
 62
     0
100
AcDbPoint
 10
-342.617274
 20
-989.2855970000001
 30
0.0
  0
POINT
  5
1023
330
85C
100
AcDbEntity
  8
Defpoints
 62
     0
100
AcDbPoint
 10
-343.23194
 20
-872.1355970000002
 30
0.0
  0
POINT
  5
1024
330
85C
100
AcDbEntity
  8
Defpoints
 62
     0
100
AcDbPoint
 10
-284.036617
 20
-872.1355970000002
 30
0.0
  0
ENDBLK
  5
867
330
85C
100
AcDbEntity
  8
0
100
AcDbBlockEnd
  0
ENDSEC
  0
SECTION
  2
ENTITIES
  0
LINE
  5
FB
330
36
100
AcDbEntity
  8
0
 62
     3
100
AcDbLine
 10
-514.617274
 20
-988.235597
 30
0.0
 11
-514.617274
 21
-937.6015699999999
 31
0.0
  0
LINE
  5
FC
330
36
100
AcDbEntity
  8
0
 62
     3
100
AcDbLine
 10
-443.6172739999998
 20
-937.6015699999999
 30
0.0
 11
-514.617274
 21
-937.6015699999999
 31
0.0
  0
LINE
  5
FD
330
36
100
AcDbEntity
  8
0
 62
     3
100
AcDbLine
 10
-514.617274
 20
-886.9675439999998
 30
0.0
 11
-514.617274
 21
-937.6015699999999
 31
0.0
  0
LINE
  5
FE
330
36
100
AcDbEntity
  8
0
 62
     3
100
AcDbLine
 10
-442.117274
 20
-885.9355970000001
 30
0.0
 11
-442.117274
 21
-885.9105969999998
 31
0.0
  0
ARC
  5
FF
330
36
100
AcDbEntity
  8
0
 62
     3
100
AcDbCircle
 10
-436.867274
 20
-886.961767
 30
0.0
 40
0.75
100
AcDbArc
 50
0.0
 51
87.0
  0
LINE
  5
100
330
36
100
AcDbEntity
  8
0
 62
     3
100
AcDbLine
 10
-436.8280219999999
 20
-886.2127949999997
 30
0.0
 11
-443.6172739999998
 21
-885.856985
 31
0.0
  0
LINE
  5
101
330
36
100
AcDbEntity
  8
0
 62
     3
100
AcDbLine
 10
-436.1172739999998
 20
-937.5855969999999
 30
0.0
 11
-436.1172739999998
 21
-886.936767
 31
0.0
  0
ARC
  5
102
330
36
100
AcDbEntity
  8
0
 62
     3
100
AcDbCircle
 10
-436.867274
 20
-988.2094269999999
 30
0.0
 40
0.75
100
AcDbArc
 50
273.0
 51
0.0
  0
LINE
  5
103
330
36
100
AcDbEntity
  8
0
 62
     3
100
AcDbLine
 10
-436.1172739999998
 20
-937.5855969999999
 30
0.0
 11
-436.1172739999998
 21
-988.234427
 31
0.0
  0
LINE
  5
104
330
36
100
AcDbEntity
  8
0
 62
     3
100
AcDbLine
 10
-436.8280219999999
 20
-988.958399
 30
0.0
 11
-443.6172739999998
 21
-989.314208
 31
0.0
  0
ARC
  5
105
330
36
100
AcDbEntity
  8
0
 62
     3
100
AcDbCircle
 10
-310.067274
 20
-892.585597
 30
0.0
 40
3.85
100
AcDbArc
 50
0.0
 51
90.0
  0
ARC
  5
106
330
36
100
AcDbEntity
  8
0
 62
     3
100
AcDbCircle
 10
-310.067274
 20
-892.585597
 30
0.0
 40
6.599999999999997
100
AcDbArc
 50
0.0
 51
90.0
  0
ARC
  5
107
330
36
100
AcDbEntity
  8
0
 62
     3
100
AcDbCircle
 10
-375.167274
 20
-892.585597
 30
0.0
 40
3.85
100
AcDbArc
 50
90.0
 51
180.0
  0
ARC
  5
108
330
36
100
AcDbEntity
  8
0
 62
     3
100
AcDbCircle
 10
-375.167274
 20
-892.585597
 30
0.0
 40
6.599999999999997
100
AcDbArc
 50
90.0
 51
180.0
  0
LINE
  5
109
330
36
100
AcDbEntity
  8
0
 62
     3
100
AcDbLine
 10
-310.067274
 20
-885.9855970000001
 30
0.0
 11
-375.167274
 21
-885.9855970000001
 31
0.0
  0
LINE
  5
10A
330
36
100
AcDbEntity
  8
0
 62
     3
100
AcDbLine
 10
-375.167274
 20
-888.7355970000001
 30
0.0
 11
-310.067274
 21
-888.7355970000001
 31
0.0
  0
ARC
  5
10B
330
36
100
AcDbEntity
  8
0
 62
     3
100
AcDbCircle
 10
-375.167274
 20
-982.685597
 30
0.0
 40
3.85
100
AcDbArc
 50
180.0
 51
270.0
  0
ARC
  5
10C
330
36
100
AcDbEntity
  8
0
 62
     3
100
AcDbCircle
 10
-375.167274
 20
-982.685597
 30
0.0
 40
6.599999999999997
100
AcDbArc
 50
180.0
 51
270.0
  0
LINE
  5
10D
330
36
100
AcDbEntity
  8
0
 62
     3
100
AcDbLine
 10
-381.767274
 20
-982.685597
 30
0.0
 11
-381.767274
 21
-892.585597
 31
0.0
  0
LINE
  5
10E
330
36
100
AcDbEntity
  8
0
 62
     3
100
AcDbLine
 10
-379.017274
 20
-982.685597
 30
0.0
 11
-379.017274
 21
-892.585597
 31
0.0
  0
ARC
  5
10F
330
36
100
AcDbEntity
  8
0
 62
     3
100
AcDbCircle
 10
-310.067274
 20
-982.685597
 30
0.0
 40
3.85
100
AcDbArc
 50
270.0
 51
0.0
  0
ARC
  5
110
330
36
100
AcDbEntity
  8
0
 62
     3
100
AcDbCircle
 10
-310.067274
 20
-982.685597
 30
0.0
 40
6.599999999999997
100
AcDbArc
 50
270.0
 51
0.0
  0
LINE
  5
111
330
36
100
AcDbEntity
  8
0
 62
     3
100
AcDbLine
 10
-303.467274
 20
-982.685597
 30
0.0
 11
-303.467274
 21
-892.585597
 31
0.0
  0
LINE
  5
112
330
36
100
AcDbEntity
  8
0
 62
     3
100
AcDbLine
 10
-306.217274
 20
-982.685597
 30
0.0
 11
-306.217274
 21
-892.585597
 31
0.0
  0
LINE
  5
113
330
36
100
AcDbEntity
  8
0
 62
     3
100
AcDbLine
 10
-310.067274
 20
-989.2855970000001
 30
0.0
 11
-375.167274
 21
-989.2855970000001
 31
0.0
  0
LINE
  5
114
330
36
100
AcDbEntity
  8
0
 62
     3
100
AcDbLine
 10
-310.067274
 20
-986.5355970000001
 30
0.0
 11
-375.167274
 21
-986.5355970000001
 31
0.0
  0
LINE
  5
117
330
36
100
AcDbEntity
  8
0
100
AcDbLine
 10
-369.617274
 20
-890.736083
 30
0.0
 11
-315.617274
 21
-890.736083
 31
0.0
  0
TEXT
  5
127
330
36
100
AcDbEntity
  8
0
 62
     3
100
AcDbText
 10
-337.465917
 20
-985.972557
 30
0.0
 40
3.583999999999998
  1
日
 41
0.716146
100
AcDbText
  0
TEXT
  5
128
330
36
100
AcDbEntity
  8
0
 62
     3
100
AcDbText
 10
-334.105917
 20
-985.972557
 30
0.0
 40
3.583999999999998
  1
動
 41
0.716146
100
AcDbText
  0
TEXT
  5
129
330
36
100
AcDbEntity
  8
0
 62
     3
100
AcDbText
 10
-330.745917
 20
-985.972557
 30
0.0
 40
3.583999999999998
  1
工
 41
0.716146
100
AcDbText
  0
TEXT
  5
12A
330
36
100
AcDbEntity
  8
0
 62
     3
100
AcDbText
 10
-327.385917
 20
-985.972557
 30
0.0
 40
3.583999999999998
  1
業
 41
0.716146
100
AcDbText
  0
TEXT
  5
12B
330
36
100
AcDbEntity
  8
0
 62
     3
100
AcDbText
 10
-324.025917
 20
-985.972557
 30
0.0
 40
3.583999999999998
  1
株
 41
0.716146
100
AcDbText
  0
TEXT
  5
12C
330
36
100
AcDbEntity
  8
0
 62
     3
100
AcDbText
 10
-320.665917
 20
-985.972557
 30
0.0
 40
3.583999999999998
  1
式
 41
0.716146
100
AcDbText
  0
TEXT
  5
12D
330
36
100
AcDbEntity
  8
0
 62
     3
100
AcDbText
 10
-317.305917
 20
-985.972557
 30
0.0
 40
3.583999999999998
  1
会
 41
0.716146
100
AcDbText
  0
TEXT
  5
12E
330
36
100
AcDbEntity
  8
0
 62
     3
100
AcDbText
 10
-313.945917
 20
-985.972557
 30
0.0
 40
3.583999999999998
  1
社
 41
0.716146
100
AcDbText
  0
TEXT
  5
130
330
36
100
AcDbEntity
  8
0
 62
     3
100
AcDbText
 10
-372.606974
 20
-913.2481569999999
 30
0.0
 40
3.601919999999998
  1
転
 41
0.716146
100
AcDbText
  0
TEXT
  5
131
330
36
100
AcDbEntity
  8
0
 62
     3
100
AcDbText
 10
-365.853374
 20
-913.2481569999999
 30
0.0
 40
3.601919999999998
  1
停
 41
0.716146
100
AcDbText
  0
TEXT
  5
132
330
36
100
AcDbEntity
  8
0
 62
     3
100
AcDbText
 10
-362.476574
 20
-913.2481569999999
 30
0.0
 40
3.601919999999998
  1
止
 41
0.716146
100
AcDbText
  0
TEXT
  5
133
330
36
100
AcDbEntity
  8
0
 62
     3
100
AcDbText
 10
-375.983774
 20
-913.2481569999999
 30
0.0
 40
3.601919999999998
  1
逆
 41
0.716146
100
AcDbText
  0
TEXT
  5
134
330
36
100
AcDbEntity
  8
0
 62
     3
100
AcDbText
 10
-355.722974
 20
-913.2481569999999
 30
0.0
 40
3.601919999999998
  1
正
 41
0.716146
100
AcDbText
  0
TEXT
  5
135
330
36
100
AcDbEntity
  8
0
 62
     3
100
AcDbText
 10
-352.346174
 20
-913.2481569999999
 30
0.0
 40
3.601919999999998
  1
転
 41
0.716146
100
AcDbText
  0
LINE
  5
138
330
36
100
AcDbEntity
  8
0
100
AcDbLine
 10
-308.117274
 20
-940.6355969999999
 30
0.0
 11
-340.617274
 21
-940.6355969999999
 31
0.0
  0
ARC
  5
139
330
36
100
AcDbEntity
  8
0
100
AcDbCircle
 10
-308.117274
 20
-941.6355969999999
 30
0.0
 40
1.0
100
AcDbArc
 50
0.0
 51
90.0
  0
LINE
  5
13A
330
36
100
AcDbEntity
  8
0
100
AcDbLine
 10
-307.117274
 20
-979.635597
 30
0.0
 11
-307.117274
 21
-941.6355969999999
 31
0.0
  0
ARC
  5
13B
330
36
100
AcDbEntity
  8
0
100
AcDbCircle
 10
-308.117274
 20
-979.635597
 30
0.0
 40
1.0
100
AcDbArc
 50
270.0
 51
0.0
  0
LINE
  5
13C
330
36
100
AcDbEntity
  8
0
100
AcDbLine
 10
-340.617274
 20
-980.635597
 30
0.0
 11
-308.117274
 21
-980.635597
 31
0.0
  0
LINE
  5
140
330
36
100
AcDbEntity
  8
0
100
AcDbLine
 10
-344.617274
 20
-980.635597
 30
0.0
 11
-377.117274
 21
-980.635597
 31
0.0
  0
ARC
  5
141
330
36
100
AcDbEntity
  8
0
100
AcDbCircle
 10
-377.117274
 20
-979.635597
 30
0.0
 40
1.0
100
AcDbArc
 50
180.0
 51
270.0
  0
LINE
  5
142
330
36
100
AcDbEntity
  8
0
100
AcDbLine
 10
-378.117274
 20
-979.635597
 30
0.0
 11
-378.117274
 21
-941.6355969999999
 31
0.0
  0
ARC
  5
143
330
36
100
AcDbEntity
  8
0
100
AcDbCircle
 10
-377.117274
 20
-941.6355969999999
 30
0.0
 40
1.0
100
AcDbArc
 50
90.0
 51
180.0
  0
LINE
  5
144
330
36
100
AcDbEntity
  8
0
100
AcDbLine
 10
-377.117274
 20
-940.6355969999999
 30
0.0
 11
-344.617274
 21
-940.6355969999999
 31
0.0
  0
LINE
  5
146
330
36
100
AcDbEntity
  8
0
100
AcDbLine
 10
-369.617274
 20
-896.736083
 30
0.0
 11
-315.617274
 21
-896.736083
 31
0.0
  0
LINE
  5
147
330
36
100
AcDbEntity
  8
0
100
AcDbLine
 10
-373.617274
 20
-890.736083
 30
0.0
 11
-311.617274
 21
-890.736083
 31
0.0
  0
LINE
  5
148
330
36
100
AcDbEntity
  8
0
100
AcDbLine
 10
-373.617274
 20
-896.736083
 30
0.0
 11
-311.617274
 21
-896.736083
 31
0.0
  0
LINE
  5
149
330
36
100
AcDbEntity
  8
0
100
AcDbLine
 10
-373.617274
 20
-896.736083
 30
0.0
 11
-373.617274
 21
-890.736083
 31
0.0
  0
LINE
  5
14A
330
36
100
AcDbEntity
  8
0
100
AcDbLine
 10
-311.617274
 20
-896.736083
 30
0.0
 11
-311.617274
 21
-890.736083
 31
0.0
  0
TEXT
  5
14B
330
36
100
AcDbEntity
  8
0
 62
     3
100
AcDbText
 10
-373.617273
 20
-896.8860839999999
 30
0.0
 40
6.299999999999998
  1
三相２００Ｖスピードコントローラー
 41
0.467923
100
AcDbText
  0
TEXT
  5
14D
330
36
100
AcDbEntity
  8
0
 62
     3
100
AcDbText
 10
-373.456474
 20
-903.813594
 30
0.0
 40
4.11648
  1
0
 41
1.03125
100
AcDbText
  0
TEXT
  5
14E
330
36
100
AcDbEntity
  8
0
 62
     3
100
AcDbText
 10
-369.597274
 20
-903.813594
 30
0.0
 40
4.11648
  1
,
 41
2.578127999999999
100
AcDbText
  0
TEXT
  5
14F
330
36
100
AcDbEntity
  8
0
 62
     3
100
AcDbText
 10
-365.7380740000002
 20
-903.813594
 30
0.0
 40
4.11648
  1
7
 41
0.859375
100
AcDbText
  0
TEXT
  5
150
330
36
100
AcDbEntity
  8
0
 62
     3
100
AcDbText
 10
-361.878874
 20
-903.813594
 30
0.0
 40
4.11648
  1
5
 41
0.859375
100
AcDbText
  0
TEXT
  5
151
330
36
100
AcDbEntity
  8
0
 62
     3
100
AcDbText
 10
-358.019674
 20
-903.813594
 30
0.0
 40
4.11648
  1
K
 41
0.859375
100
AcDbText
  0
TEXT
  5
152
330
36
100
AcDbEntity
  8
0
 62
     3
100
AcDbText
 10
-354.160474
 20
-903.813594
 30
0.0
 40
4.11648
  1
w
 41
0.859375
100
AcDbText
  0
TEXT
  5
153
330
36
100
AcDbEntity
  8
0
 62
     3
100
AcDbText
 10
-350.301274
 20
-903.813594
 30
0.0
 40
4.11648
  1
(
 41
1.289062
100
AcDbText
  0
TEXT
  5
154
330
36
100
AcDbEntity
  8
0
 62
     3
100
AcDbText
 10
-346.442074
 20
-903.813594
 30
0.0
 40
4.11648
  1
1
 41
1.289062
100
AcDbText
  0
TEXT
  5
155
330
36
100
AcDbEntity
  8
0
 62
     3
100
AcDbText
 10
-342.582874
 20
-903.813594
 30
0.0
 40
4.11648
  1
馬
 41
0.716146
100
AcDbText
  0
TEXT
  5
156
330
36
100
AcDbEntity
  8
0
 62
     3
100
AcDbText
 10
-338.723674
 20
-903.813594
 30
0.0
 40
4.11648
  1
力
 41
0.716146
100
AcDbText
  0
TEXT
  5
157
330
36
100
AcDbEntity
  8
0
 62
     3
100
AcDbText
 10
-334.8644740000001
 20
-903.813594
 30
0.0
 40
4.11648
  1
)
 41
1.289062
100
AcDbText
  0
TEXT
  5
158
330
36
100
AcDbEntity
  8
0
 62
     3
100
AcDbText
 10
-331.0052740000001
 20
-903.813594
 30
0.0
 40
4.11648
  1
]
 41
1.289062
100
AcDbText
  0
TEXT
  5
159
330
36
100
AcDbEntity
  8
0
 62
     3
100
AcDbText
 10
-377.315674
 20
-903.813594
 30
0.0
 40
4.11648
  1
[
 41
1.289062
100
AcDbText
  0
ARC
  5
15A
330
36
100
AcDbEntity
  8
0
 62
     3
100
AcDbCircle
 10
-511.617274
 20
-987.260597
 30
0.0
 40
2.225
100
AcDbArc
 50
205.989234
 51
334.010766
  0
ARC
  5
15B
330
36
100
AcDbEntity
  8
0
 62
     3
100
AcDbCircle
 10
-452.1172739999998
 20
-987.260597
 30
0.0
 40
2.225
100
AcDbArc
 50
205.989234
 51
334.010766
  0
ARC
  5
15C
330
36
100
AcDbEntity
  8
0
 62
     3
100
AcDbCircle
 10
-452.1172739999998
 20
-887.942544
 30
0.0
 40
2.225
100
AcDbArc
 50
25.989234
 51
154.010766
  0
ARC
  5
15D
330
36
100
AcDbEntity
  8
0
 62
     3
100
AcDbCircle
 10
-511.617274
 20
-887.942544
 30
0.0
 40
2.225
100
AcDbArc
 50
25.989234
 51
154.010766
  0
LINE
  5
15E
330
36
100
AcDbEntity
  8
0
 62
     3
100
AcDbLine
 10
-447.9403016667288
 20
-1106.274423
 30
0.0
 11
-447.9403016667288
 21
-1026.274423
 31
0.0
  0
CIRCLE
  5
15F
330
36
100
AcDbEntity
  8
0
 62
     3
100
AcDbCircle
 10
-464.6172739999998
 20
-960.1015700000001
 30
0.0
 40
8.75
  0
LINE
  5
160
330
36
100
AcDbEntity
  8
0
  6
HIDDEN
 62
    15
100
AcDbLine
 10
-474.117274
 20
-947.2515699999997
 30
0.0
 11
-474.117274
 21
-947.1015699999997
 31
0.0
  0
LINE
  5
161
330
36
100
AcDbEntity
  8
0
 62
     3
100
AcDbLine
 10
-424.9172360000001
 20
-961.421518
 30
0.0
 11
-404.917236
 21
-961.421518
 31
0.0
  0
CIRCLE
  5
162
330
36
100
AcDbEntity
  8
0
 62
     3
100
AcDbCircle
 10
-414.917196
 20
-990.921518
 30
0.0
 40
10.5
  0
CIRCLE
  5
163
330
36
100
AcDbEntity
  8
0
 62
     3
100
AcDbCircle
 10
-414.917196
 20
-990.921518
 30
0.0
 40
13.75
  0
LINE
  5
164
330
36
100
AcDbEntity
  8
0
 62
     3
100
AcDbLine
 10
-391.425785
 20
-968.110597
 30
0.0
 11
-391.425785
 21
-896.0570289999997
 31
0.0
  0
LINE
  5
165
330
36
100
AcDbEntity
  8
0
 62
     3
100
AcDbLine
 10
-396.925785
 20
-968.110597
 30
0.0
 11
-396.925785
 21
-896.0570289999997
 31
0.0
  0
LINE
  5
166
330
36
100
AcDbEntity
  8
0
 62
     3
100
AcDbLine
 10
-412.192236
 20
-908.6434859999997
 30
0.0
 11
-412.192236
 21
-896.0570289999997
 31
0.0
  0
LINE
  5
167
330
36
100
AcDbEntity
  8
0
 62
     3
100
AcDbLine
 10
-417.642236
 20
-909.2673779999996
 30
0.0
 11
-417.642236
 21
-896.866604
 31
0.0
  0
ARC
  5
168
330
36
100
AcDbEntity
  8
0
 62
     3
100
AcDbCircle
 10
-404.546511
 20
-896.0570289999997
 30
0.0
 40
13.120726
100
AcDbArc
 50
0.0
 51
183.53751
  0
ARC
  5
169
330
36
100
AcDbEntity
  8
0
 62
     3
100
AcDbCircle
 10
-404.559011
 20
-896.0570289999997
 30
0.0
 40
7.633225999999997
100
AcDbArc
 50
0.0
 51
180.0
  0
ARC
  5
16A
330
36
100
AcDbEntity
  8
0
 62
     3
100
AcDbCircle
 10
-386.575785
 20
-968.110597
 30
0.0
 40
10.35
100
AcDbArc
 50
180.0
 51
270.0
  0
ARC
  5
16B
330
36
100
AcDbEntity
  8
0
 62
     3
100
AcDbCircle
 10
-386.575785
 20
-968.110597
 30
0.0
 40
4.849999999999996
100
AcDbArc
 50
180.0
 51
270.0
  0
LINE
  5
16C
330
36
100
AcDbEntity
  8
0
 62
     3
100
AcDbLine
 10
-382.795106
 20
-978.4605969999999
 30
0.0
 11
-386.575785
 21
-978.4605969999999
 31
0.0
  0
LINE
  5
16D
330
36
100
AcDbEntity
  8
0
 62
     3
100
AcDbLine
 10
-382.795106
 20
-972.9605969999999
 30
0.0
 11
-386.575785
 21
-972.9605969999999
 31
0.0
  0
LINE
  5
16E
330
36
100
AcDbEntity
  8
0
 62
     3
100
AcDbLine
 10
-506.367274
 20
-975.735597
 30
0.0
 11
-506.367274
 21
-998.8621029999999
 31
0.0
  0
LINE
  5
16F
330
36
100
AcDbEntity
  8
0
 62
     3
100
AcDbLine
 10
-500.867274
 20
-975.735597
 30
0.0
 11
-500.867274
 21
-998.2449459999999
 31
0.0
  0
LINE
  5
170
330
36
100
AcDbEntity
  8
0
 62
     3
100
AcDbLine
 10
-506.3172739999997
 20
-998.910732
 30
0.0
 11
-506.367274
 21
-998.8621029999999
 31
0.0
  0
LINE
  5
171
330
36
100
AcDbEntity
  8
0
 62
     3
100
AcDbLine
 10
-514.617274
 20
-988.235597
 30
0.0
 11
-506.367274
 21
-988.235597
 31
0.0
  0
ARC
  5
172
330
36
100
AcDbEntity
  8
0
 62
     3
100
AcDbCircle
 10
-503.617274
 20
-975.735597
 30
0.0
 40
5.5
100
AcDbArc
 50
300.0
 51
240.0
  0
ARC
  5
173
330
36
100
AcDbEntity
  8
0
 62
     3
100
AcDbCircle
 10
-513.642274
 20
-968.885597
 30
0.0
 40
2.225
100
AcDbArc
 50
115.989234
 51
244.010766
  0
LINE
  5
174
330
36
100
AcDbEntity
  8
0
 62
     3
100
AcDbLine
 10
-443.6172739999998
 20
-885.856985
 30
0.0
 11
-443.6172739999998
 21
-989.314208
 31
0.0
  0
LINE
  5
175
330
36
100
AcDbEntity
  8
0
 62
     3
100
AcDbLine
 10
-443.6172739999998
 20
-886.9675439999998
 30
0.0
 11
-514.617274
 21
-886.9675439999998
 31
0.0
  0
LINE
  5
176
330
36
100
AcDbEntity
  8
0
 62
     3
100
AcDbLine
 10
-443.6172739999998
 20
-988.235597
 30
0.0
 11
-500.867274
 21
-988.235597
 31
0.0
  0
ARC
  5
177
330
36
100
AcDbEntity
  8
0
 62
     3
100
AcDbCircle
 10
-511.617274
 20
-930.1355969999999
 30
0.0
 40
1.0
100
AcDbArc
 50
165.522488
 51
194.477512
  0
LINE
  5
178
330
36
100
AcDbEntity
  8
0
 62
     3
100
AcDbLine
 10
-511.867274
 20
-931.1038429999999
 30
0.0
 11
-511.867274
 21
-930.385597
 31
0.0
  0
LINE
  5
179
330
36
100
AcDbEntity
  8
0
 62
     3
100
AcDbLine
 10
-512.58552
 20
-930.385597
 30
0.0
 11
-511.867274
 21
-930.385597
 31
0.0
  0
LINE
  5
17A
330
36
100
AcDbEntity
  8
0
 62
     3
100
AcDbLine
 10
-512.58552
 20
-929.8855969999999
 30
0.0
 11
-511.867274
 21
-929.8855969999999
 31
0.0
  0
LINE
  5
17B
330
36
100
AcDbEntity
  8
0
 62
     3
100
AcDbLine
 10
-511.867274
 20
-929.8855969999999
 30
0.0
 11
-511.867274
 21
-929.1673509999997
 31
0.0
  0
LINE
  5
17C
330
36
100
AcDbEntity
  8
0
 62
     3
100
AcDbLine
 10
-556.175832
 20
-879.635597
 30
0.0
 11
-606.175832
 21
-879.635597
 31
0.0
  0
LINE
  5
17D
330
36
100
AcDbEntity
  8
0
 62
     3
100
AcDbLine
 10
-556.175832
 20
-894.635597
 30
0.0
 11
-606.175832
 21
-894.635597
 31
0.0
  0
LINE
  5
17E
330
36
100
AcDbEntity
  8
0
 62
     3
100
AcDbLine
 10
-556.175832
 20
-894.635597
 30
0.0
 11
-556.175832
 21
-879.635597
 31
0.0
  0
LINE
  5
17F
330
36
100
AcDbEntity
  8
0
 62
     3
100
AcDbLine
 10
-606.175832
 20
-884.6355970000002
 30
0.0
 11
-556.175832
 21
-884.6355970000002
 31
0.0
  0
LINE
  5
180
330
36
100
AcDbEntity
  8
0
 62
     3
100
AcDbLine
 10
-556.175832
 20
-995.635597
 30
0.0
 11
-606.175832
 21
-995.635597
 31
0.0
  0
LINE
  5
181
330
36
100
AcDbEntity
  8
0
 62
     3
100
AcDbLine
 10
-556.175832
 20
-980.635597
 30
0.0
 11
-556.175832
 21
-995.635597
 31
0.0
  0
LINE
  5
182
330
36
100
AcDbEntity
  8
0
 62
     3
100
AcDbLine
 10
-606.175832
 20
-990.6355969999999
 30
0.0
 11
-556.175832
 21
-990.6355969999999
 31
0.0
  0
LINE
  5
183
330
36
100
AcDbEntity
  8
0
 62
     3
100
AcDbLine
 10
-556.175832
 20
-980.635597
 30
0.0
 11
-606.175832
 21
-980.635597
 31
0.0
  0
LINE
  5
188
330
36
100
AcDbEntity
  8
0
100
AcDbLine
 10
-409.451754
 20
-886.919714
 30
0.0
 11
-417.211345
 21
-864.4159849999999
 31
0.0
  0
CIRCLE
  5
189
330
36
100
AcDbEntity
  8
0
100
AcDbCircle
 10
-418.8412399999998
 20
-859.6891000000001
 30
0.0
 40
5.0
  0
TEXT
  5
18A
330
36
100
AcDbEntity
  8
0
 62
     4
100
AcDbText
 10
-421.5702222306813
 20
-862.0553856854622
 30
0.0
 40
4.5
  1
10
  7
高4.5
100
AcDbText
  0
LINE
  5
18F
330
36
100
AcDbEntity
  8
0
100
AcDbLine
 10
-375.605304
 20
-928.841964
 30
0.0
 11
-403.228249
 21
-864.285957
 31
0.0
  0
CIRCLE
  5
190
330
36
100
AcDbEntity
  8
0
100
AcDbCircle
 10
-405.1952029999998
 20
-859.6891000000001
 30
0.0
 40
5.0
  0
TEXT
  5
191
330
36
100
AcDbEntity
  8
0
 62
     4
100
AcDbText
 10
-406.4870097407395
 20
-862.654614369395
 30
0.0
 40
6.299999999999998
  1
1
  7
高6.3
100
AcDbText
  0
LINE
  5
196
330
36
100
AcDbEntity
  8
0
100
AcDbLine
 10
-367.909734
 20
-921.021608
 30
0.0
 11
-390.371667
 21
-864.6706489999997
 31
0.0
  0
CIRCLE
  5
197
330
36
100
AcDbEntity
  8
0
100
AcDbCircle
 10
-392.223045
 20
-860.026039
 30
0.0
 40
5.0
  0
TEXT
  5
198
330
36
100
AcDbEntity
  8
0
 62
     4
100
AcDbText
 10
-394.3797562659988
 20
-863.200924986776
 30
0.0
 40
6.299999999999998
  1
9
  7
高6.3
100
AcDbText
  0
LINE
  5
19D
330
36
100
AcDbEntity
  8
0
100
AcDbLine
 10
-365.804898
 20
-880.432603
 30
0.0
 11
-377.241276
 21
-863.964406
 31
0.0
  0
CIRCLE
  5
19E
330
36
100
AcDbEntity
  8
0
100
AcDbCircle
 10
-380.093277
 20
-859.8575720000001
 30
0.0
 40
5.0
  0
TEXT
  5
19F
330
36
100
AcDbEntity
  8
0
 62
     4
100
AcDbText
 10
-382.2499882659989
 20
-863.0324569867758
 30
0.0
 40
6.299999999999998
  1
7
  7
高6.3
100
AcDbText
  0
LINE
  5
1A4
330
36
100
AcDbEntity
  8
0
100
AcDbLine
 10
-355.407965
 20
-887.9421070000002
 30
0.0
 11
-365.310954
 21
-864.3434949999997
 31
0.0
  0
CIRCLE
  5
1A5
330
36
100
AcDbEntity
  8
0
100
AcDbCircle
 10
-367.245716
 20
-859.732997
 30
0.0
 40
5.0
  0
TEXT
  5
1A6
330
36
100
AcDbEntity
  8
0
 62
     4
100
AcDbText
 10
-369.4024272659988
 20
-862.907882986776
 30
0.0
 40
6.299999999999998
  1
5
  7
高6.3
100
AcDbText
  0
LINE
  5
1A7
330
36
100
AcDbEntity
  8
0
 62
     3
100
AcDbLine
 10
-543.675832
 20
-892.6355970000001
 30
0.0
 11
-543.675832
 21
-982.6355969999999
 31
0.0
  0
LINE
  5
1A8
330
36
100
AcDbEntity
  8
0
 62
     3
100
AcDbLine
 10
-618.675832
 20
-982.6355969999999
 30
0.0
 11
-618.675832
 21
-892.6355970000001
 31
0.0
  0
ARC
  5
1A9
330
36
100
AcDbEntity
  8
0
 62
     3
100
AcDbCircle
 10
-613.675832
 20
-892.6355970000001
 30
0.0
 40
5.0
100
AcDbArc
 50
90.0
 51
180.0
  0
ARC
  5
1AA
330
36
100
AcDbEntity
  8
0
 62
     3
100
AcDbCircle
 10
-613.675832
 20
-982.6355969999999
 30
0.0
 40
5.0
100
AcDbArc
 50
180.0
 51
270.0
  0
ARC
  5
1AB
330
36
100
AcDbEntity
  8
0
 62
     3
100
AcDbCircle
 10
-548.6758319999998
 20
-982.6355969999999
 30
0.0
 40
5.0
100
AcDbArc
 50
270.0
 51
0.0
  0
LINE
  5
1AC
330
36
100
AcDbEntity
  8
0
 62
     3
100
AcDbLine
 10
-606.175832
 20
-894.635597
 30
0.0
 11
-606.175832
 21
-879.635597
 31
0.0
  0
LINE
  5
1AD
330
36
100
AcDbEntity
  8
0
 62
     3
100
AcDbLine
 10
-606.175832
 20
-980.635597
 30
0.0
 11
-606.175832
 21
-995.635597
 31
0.0
  0
LINE
  5
1B2
330
36
100
AcDbEntity
  8
0
100
AcDbLine
 10
-568.07604
 20
-892.276342
 30
0.0
 11
-575.8356309999998
 21
-869.7726130000003
 31
0.0
  0
CIRCLE
  5
1B3
330
36
100
AcDbEntity
  8
0
100
AcDbCircle
 10
-577.4655259999997
 20
-865.0457279999997
 30
0.0
 40
5.0
  0
TEXT
  5
1B4
330
36
100
AcDbEntity
  8
0
 62
     4
100
AcDbText
 10
-579.8983207673646
 20
-867.4280353346437
 30
0.0
 40
4.5
  1
11
  7
高4.5
100
AcDbText
  0
LINE
  5
1B5
330
36
100
AcDbEntity
  8
0
 62
     3
100
AcDbLine
 10
-532.90359
 20
-972.985597
 30
0.0
 11
-541.675832
 21
-972.985597
 31
0.0
  0
LINE
  5
1B6
330
36
100
AcDbEntity
  8
0
 62
     3
100
AcDbLine
 10
-532.90359
 20
-978.485597
 30
0.0
 11
-541.675832
 21
-978.485597
 31
0.0
  0
LINE
  5
1B7
330
36
100
AcDbEntity
  8
0
 62
     3
100
AcDbLine
 10
-530.90359
 20
-980.4855970000001
 30
0.0
 11
-530.90359
 21
-998.8481249999999
 31
0.0
  0
LINE
  5
1B8
330
36
100
AcDbEntity
  8
0
 62
     3
100
AcDbLine
 10
-525.4035899999998
 20
-980.4855970000001
 30
0.0
 11
-525.4035899999998
 21
-998.2449459999999
 31
0.0
  0
ARC
  5
1B9
330
36
100
AcDbEntity
  8
0
 62
     3
100
AcDbCircle
 10
-532.90359
 20
-980.4855970000001
 30
0.0
 40
2.0
100
AcDbArc
 50
0.0
 51
90.0
  0
ARC
  5
1BA
330
36
100
AcDbEntity
  8
0
 62
     3
100
AcDbCircle
 10
-532.90359
 20
-980.4855970000001
 30
0.0
 40
7.5
100
AcDbArc
 50
0.0
 51
90.0
  0
LINE
  5
1BB
330
36
100
AcDbEntity
  8
0
 62
     3
100
AcDbLine
 10
-530.85359
 20
-998.9107330000001
 30
0.0
 11
-530.9028409999998
 21
-998.8490629999999
 31
0.0
  0
ARC
  5
1BC
330
36
100
AcDbEntity
  8
0
 62
     3
100
AcDbCircle
 10
-544.650832
 20
-945.1355969999999
 30
0.0
 40
2.225
100
AcDbArc
 50
295.989234
 51
64.010766
  0
ARC
  5
1BD
330
36
100
AcDbEntity
  8
0
 62
     3
100
AcDbCircle
 10
-544.650832
 20
-930.1355969999999
 30
0.0
 40
2.225
100
AcDbArc
 50
295.989234
 51
64.010766
  0
ARC
  5
1BE
330
36
100
AcDbEntity
  8
0
 62
     3
100
AcDbCircle
 10
-617.7008319999997
 20
-930.1355969999999
 30
0.0
 40
2.225
100
AcDbArc
 50
115.989234
 51
244.010766
  0
ARC
  5
1BF
330
36
100
AcDbEntity
  8
0
 62
     3
100
AcDbCircle
 10
-617.7008319999997
 20
-945.1355969999999
 30
0.0
 40
2.225
100
AcDbArc
 50
115.989234
 51
244.010766
  0
TEXT
  5
1C0
330
36
100
AcDbEntity
  8
0
 62
     3
100
AcDbText
 10
-350.66136
 20
-1070.810931651939
 30
0.0
 40
3.2
  1
三相200V
  7
高3.2
100
AcDbText
  0
TEXT
  5
1C1
330
36
100
AcDbEntity
  8
0
 62
     3
100
AcDbText
 10
-359.4542293649368
 20
-1074.684462174989
 30
0.0
 40
3.2
  1
スピードコントローラー
  7
高3.2
100
AcDbText
  0
LINE
  5
1C6
330
36
100
AcDbEntity
  8
0
100
AcDbLine
 10
-511.848115
 20
-930.260256
 30
0.0
 11
-542.2774279999998
 21
-869.3344369999996
 31
0.0
  0
CIRCLE
  5
1C7
330
36
100
AcDbEntity
  8
0
100
AcDbCircle
 10
-544.5115219999999
 20
-864.8613140000001
 30
0.0
 40
5.0
  0
TEXT
  5
1C8
330
36
100
AcDbEntity
  8
0
 62
     4
100
AcDbText
 10
-547.5837818596411
 20
-867.1968787235938
 30
0.0
 40
4.5
  1
12
  7
高4.5
100
AcDbText
  0
LINE
  5
1C9
330
36
100
AcDbEntity
  8
0
 62
     3
100
AcDbLine
 10
-606.175832
 20
-887.635597
 30
0.0
 11
-613.675832
 21
-887.635597
 31
0.0
  0
LINE
  5
1CA
330
36
100
AcDbEntity
  8
0
 62
     3
100
AcDbLine
 10
-556.175832
 20
-987.635597
 30
0.0
 11
-548.6758319999998
 21
-987.635597
 31
0.0
  0
LINE
  5
1CB
330
36
100
AcDbEntity
  8
0
 62
     3
100
AcDbLine
 10
-606.175832
 20
-987.635597
 30
0.0
 11
-613.675832
 21
-987.635597
 31
0.0
  0
LINE
  5
1D0
330
36
100
AcDbEntity
  8
0
100
AcDbLine
 10
-336.190381
 20
-986.3649449999996
 30
0.0
 11
-323.30004
 21
-1014.741584
 31
0.0
  0
LINE
  5
1D1
330
36
100
AcDbEntity
  8
0
100
AcDbLine
 10
-323.30004
 20
-1014.741584
 30
0.0
 11
-273.80004
 21
-1014.741584
 31
0.0
  0
TEXT
  5
1D2
330
36
100
AcDbEntity
  8
0
 62
     4
100
AcDbText
 10
-321.05004
 20
-1013.741584
 30
0.0
 40
3.2
  1
前面パネル：白文字（シルク印刷）
 41
0.8
  7
高3.2
100
AcDbText
  0
TEXT
  5
1D3
330
36
100
AcDbEntity
  8
0
 62
     3
100
AcDbText
 10
-367.745543
 20
-943.9607569999999
 30
0.0
 40
3.2
  1
操作手順
 41
0.833333
100
AcDbText
  0
TEXT
  5
1D4
330
36
100
AcDbEntity
  8
0
 62
     3
100
AcDbText
 10
-334.054648
 20
-943.8274879999999
 30
0.0
 40
3.2
  1
安全上の注意
 41
0.833333
100
AcDbText
  0
LINE
  5
1D9
330
36
100
AcDbEntity
  8
0
100
AcDbLine
 10
-506.350048
 20
-915.340325
 30
0.0
 11
-529.6657169999998
 21
-869.564609
 31
0.0
  0
CIRCLE
  5
1DA
330
36
100
AcDbEntity
  8
0
100
AcDbCircle
 10
-531.9350339999998
 20
-865.109252
 30
0.0
 40
5.0
  0
TEXT
  5
1DB
330
36
100
AcDbEntity
  8
0
 62
     4
100
AcDbText
 10
-534.0917452659986
 20
-868.2841389867755
 30
0.0
 40
6.299999999999998
  1
3
  7
高6.3
100
AcDbText
  0
LINE
  5
1E0
330
36
100
AcDbEntity
  8
0
100
AcDbLine
 10
-610.8028189999997
 20
-894.123364
 30
0.0
 11
-620.705808
 21
-870.5247529999997
 31
0.0
  0
CIRCLE
  5
1E1
330
36
100
AcDbEntity
  8
0
100
AcDbCircle
 10
-622.64057
 20
-865.9142539999997
 30
0.0
 40
5.0
  0
TEXT
  5
1E2
330
36
100
AcDbEntity
  8
0
 62
     4
100
AcDbText
 10
-624.7972812659988
 20
-869.0891399867764
 30
0.0
 40
6.299999999999998
  1
2
  7
高6.3
100
AcDbText
  0
LINE
  5
1E7
330
36
100
AcDbEntity
  8
0
100
AcDbLine
 10
-515.210151
 20
-969.408377
 30
0.0
 11
-497.394725
 21
-1004.30734
 31
0.0
  0
CIRCLE
  5
1E8
330
36
100
AcDbEntity
  8
0
100
AcDbCircle
 10
-495.121378
 20
-1008.760641
 30
0.0
 40
5.0
  0
TEXT
  5
1E9
330
36
100
AcDbEntity
  8
0
 62
     4
100
AcDbText
 10
-498.1936378596413
 20
-1011.096204723593
 30
0.0
 40
4.5
  1
13
  7
高4.5
100
AcDbText
  0
LINE
  5
1EE
330
36
100
AcDbEntity
  8
0
100
AcDbLine
 10
-499.21715
 20
-976.5019200000001
 30
0.0
 11
-485.014603
 21
-1004.307859
 31
0.0
  0
CIRCLE
  5
1EF
330
36
100
AcDbEntity
  8
0
100
AcDbCircle
 10
-482.7402389999998
 20
-1008.760641
 30
0.0
 40
5.0
  0
TEXT
  5
1F0
330
36
100
AcDbEntity
  8
0
 62
     4
100
AcDbText
 10
-485.8124988596411
 20
-1011.096204723593
 30
0.0
 40
4.5
  1
14
  7
高4.5
100
AcDbText
  0
LINE
  5
1F5
330
36
100
AcDbEntity
  8
0
100
AcDbLine
 10
-484.9902059999998
 20
-981.063134
 30
0.0
 11
-473.785714
 21
-1004.258398
 31
0.0
  0
CIRCLE
  5
1F6
330
36
100
AcDbEntity
  8
0
100
AcDbCircle
 10
-471.6109019999998
 20
-1008.760641
 30
0.0
 40
5.0
  0
TEXT
  5
1F7
330
36
100
AcDbEntity
  8
0
 62
     4
100
AcDbText
 10
-473.7676132659987
 20
-1011.935526986776
 30
0.0
 40
6.299999999999998
  1
4
  7
高6.3
100
AcDbText
  0
LINE
  5
1FC
330
36
100
AcDbEntity
  8
0
100
AcDbLine
 10
-459.170496
 20
-965.101858
 30
0.0
 11
-444.5009019999998
 21
-1004.081066
 31
0.0
  0
CIRCLE
  5
1FD
330
36
100
AcDbEntity
  8
0
100
AcDbCircle
 10
-442.739771
 20
-1008.760641
 30
0.0
 40
5.0
  0
TEXT
  5
1FE
330
36
100
AcDbEntity
  8
0
 62
     4
100
AcDbText
 10
-444.8964822659988
 20
-1011.935526986776
 30
0.0
 40
6.299999999999998
  1
8
  7
高6.3
100
AcDbText
  0
LINE
  5
203
330
36
100
AcDbEntity
  8
0
100
AcDbLine
 10
-464.6172739999998
 20
-975.2265699999997
 30
0.0
 11
-456.065813
 21
-1003.968261
 31
0.0
  0
CIRCLE
  5
204
330
36
100
AcDbEntity
  8
0
100
AcDbCircle
 10
-454.639945
 20
-1008.760641
 30
0.0
 40
5.0
  0
TEXT
  5
205
330
36
100
AcDbEntity
  8
0
 62
     4
100
AcDbText
 10
-457.7122048596412
 20
-1011.096204723593
 30
0.0
 40
4.5
  1
15
  7
高4.5
100
AcDbText
  0
LINE
  5
20A
330
36
100
AcDbEntity
  8
0
100
AcDbLine
 10
-517.6172740000001
 20
-993.3297029999996
 30
0.0
 11
-527.121944
 21
-1008.879674
 31
0.0
  0
LINE
  5
20B
330
36
100
AcDbEntity
  8
0
100
AcDbLine
 10
-527.121944
 20
-1008.879674
 30
0.0
 11
-557.3719439999998
 21
-1008.879674
 31
0.0
  0
TEXT
  5
20C
330
36
100
AcDbEntity
  8
0
 62
     4
100
AcDbText
 10
-554.6219439999998
 20
-1007.879674
 30
0.0
 40
3.2
  1
＊梱包時内側に取付
 41
0.8
  7
高3.2
100
AcDbText
  0
LINE
  5
212
330
36
100
AcDbEntity
  8
0
100
AcDbLine
 10
-601.86776
 20
-993.522648
 30
0.0
 11
-609.392844
 21
-1014.35779
 31
0.0
  0
LINE
  5
213
330
36
100
AcDbEntity
  8
0
100
AcDbLine
 10
-609.392844
 20
-1014.35779
 30
0.0
 11
-579.142844
 21
-1014.35779
 31
0.0
  0
TEXT
  5
214
330
36
100
AcDbEntity
  8
0
 62
     4
100
AcDbText
 10
-606.892844
 20
-1013.35779
 30
0.0
 40
3.2
  1
取り付け穴%%C4.5
 41
0.8
  7
高3.2
100
AcDbText
  0
TEXT
  5
215
330
36
100
AcDbEntity
  8
0
 62
     3
100
AcDbText
 10
-309.74714
 20
-1105.266190789175
 30
0.0
 40
6.299999999999998
  1
SC-075
  7
高6.3
100
AcDbText
  0
LINE
  5
216
330
36
100
AcDbEntity
  8
0
 62
     3
100
AcDbLine
 10
-326.854877
 20
-899.9236919999999
 30
0.0
 11
-311.654877
 21
-899.9236919999999
 31
0.0
  0
LINE
  5
217
330
36
100
AcDbEntity
  8
0
 62
     3
100
AcDbLine
 10
-326.854877
 20
-903.491056
 30
0.0
 11
-311.654877
 21
-903.491056
 31
0.0
  0
LINE
  5
218
330
36
100
AcDbEntity
  8
0
 62
     3
100
AcDbLine
 10
-311.154877
 20
-902.9910559999999
 30
0.0
 11
-311.154877
 21
-900.423692
 31
0.0
  0
LINE
  5
219
330
36
100
AcDbEntity
  8
0
 62
     3
100
AcDbLine
 10
-327.354877
 20
-902.9910559999999
 30
0.0
 11
-327.354877
 21
-900.423692
 31
0.0
  0
ARC
  5
21A
330
36
100
AcDbEntity
  8
0
 62
     3
100
AcDbCircle
 10
-311.654877
 20
-900.423692
 30
0.0
 40
0.5
100
AcDbArc
 50
0.0
 51
90.0
  0
ARC
  5
21B
330
36
100
AcDbEntity
  8
0
 62
     3
100
AcDbCircle
 10
-311.654877
 20
-902.9910559999999
 30
0.0
 40
0.5
100
AcDbArc
 50
270.0
 51
0.0
  0
ARC
  5
21C
330
36
100
AcDbEntity
  8
0
 62
     3
100
AcDbCircle
 10
-326.854877
 20
-900.423692
 30
0.0
 40
0.5
100
AcDbArc
 50
90.0
 51
180.0
  0
ARC
  5
21D
330
36
100
AcDbEntity
  8
0
 62
     3
100
AcDbCircle
 10
-326.854877
 20
-902.9910559999999
 30
0.0
 40
0.5
100
AcDbArc
 50
180.0
 51
270.0
  0
TEXT
  5
237
330
36
100
AcDbEntity
  8
0
 62
     3
100
AcDbText
 10
-353.053953
 20
-1081.962167
 30
0.0
 40
4.5
  1
SC-075
  7
高4.5
100
AcDbText
  0
TEXT
  5
238
330
36
100
AcDbEntity
  8
0
 62
     3
100
AcDbText
 10
-298.398724
 20
-1095.271487
 30
0.0
 40
3.2
  1
1999.11.4
  7
高3.2
100
AcDbText
  0
TEXT
  5
239
330
36
100
AcDbEntity
  8
0
 62
     3
100
AcDbText
 10
-328.385296
 20
-1095.271487
 30
0.0
 40
3.2
  1
1/2
  7
高3.2
100
AcDbText
  0
LINE
  5
23A
330
36
100
AcDbEntity
  8
0
100
AcDbLine
 10
-416.9171959999998
 20
-985.1715179999999
 30
0.0
 11
-412.9171959999998
 21
-985.1715179999999
 31
0.0
  0
LINE
  5
23B
330
36
100
AcDbEntity
  8
0
100
AcDbLine
 10
-416.9171959999998
 20
-986.171518
 30
0.0
 11
-412.9171959999998
 21
-986.171518
 31
0.0
  0
LINE
  5
23C
330
36
100
AcDbEntity
  8
0
100
AcDbLine
 10
-412.9171959999998
 20
-985.1715179999999
 30
0.0
 11
-412.9171959999998
 21
-986.171518
 31
0.0
  0
LINE
  5
23D
330
36
100
AcDbEntity
  8
0
100
AcDbLine
 10
-416.9171959999998
 20
-985.1715179999999
 30
0.0
 11
-416.9171959999998
 21
-986.171518
 31
0.0
  0
LINE
  5
23E
330
36
100
AcDbEntity
  8
0
100
AcDbLine
 10
-416.667196
 20
-985.421518
 30
0.0
 11
-413.167196
 21
-985.421518
 31
0.0
  0
LINE
  5
23F
330
36
100
AcDbEntity
  8
0
100
AcDbLine
 10
-416.667196
 20
-985.421518
 30
0.0
 11
-416.667196
 21
-985.9215179999999
 31
0.0
  0
LINE
  5
240
330
36
100
AcDbEntity
  8
0
100
AcDbLine
 10
-416.667196
 20
-985.9215179999999
 30
0.0
 11
-413.167196
 21
-985.9215179999999
 31
0.0
  0
LINE
  5
241
330
36
100
AcDbEntity
  8
0
100
AcDbLine
 10
-413.167196
 20
-985.421518
 30
0.0
 11
-413.167196
 21
-985.9215179999999
 31
0.0
  0
LINE
  5
242
330
36
100
AcDbEntity
  8
0
100
AcDbLine
 10
-413.167196
 20
-985.421518
 30
0.0
 11
-412.9171959999998
 21
-985.1715179999999
 31
0.0
  0
LINE
  5
243
330
36
100
AcDbEntity
  8
0
100
AcDbLine
 10
-413.167196
 20
-985.9215179999999
 30
0.0
 11
-412.9171959999998
 21
-986.171518
 31
0.0
  0
LINE
  5
244
330
36
100
AcDbEntity
  8
0
100
AcDbLine
 10
-416.667196
 20
-985.421518
 30
0.0
 11
-416.9171959999998
 21
-985.1715179999999
 31
0.0
  0
LINE
  5
245
330
36
100
AcDbEntity
  8
0
100
AcDbLine
 10
-416.667196
 20
-985.9215179999999
 30
0.0
 11
-416.9171959999998
 21
-986.171518
 31
0.0
  0
LINE
  5
246
330
36
100
AcDbEntity
  8
0
100
AcDbLine
 10
-420.6671959999998
 20
-992.9215179999999
 30
0.0
 11
-420.6671959999998
 21
-988.921518
 31
0.0
  0
LINE
  5
247
330
36
100
AcDbEntity
  8
0
100
AcDbLine
 10
-419.6671959999997
 20
-992.9215179999999
 30
0.0
 11
-419.6671959999997
 21
-988.921518
 31
0.0
  0
LINE
  5
248
330
36
100
AcDbEntity
  8
0
100
AcDbLine
 10
-420.6671959999998
 20
-988.921518
 30
0.0
 11
-419.6671959999997
 21
-988.921518
 31
0.0
  0
LINE
  5
249
330
36
100
AcDbEntity
  8
0
100
AcDbLine
 10
-420.417196
 20
-992.671518
 30
0.0
 11
-420.417196
 21
-989.171518
 31
0.0
  0
LINE
  5
24A
330
36
100
AcDbEntity
  8
0
100
AcDbLine
 10
-419.917196
 20
-992.671518
 30
0.0
 11
-419.917196
 21
-989.171518
 31
0.0
  0
LINE
  5
24B
330
36
100
AcDbEntity
  8
0
100
AcDbLine
 10
-420.417196
 20
-989.171518
 30
0.0
 11
-419.917196
 21
-989.171518
 31
0.0
  0
LINE
  5
24C
330
36
100
AcDbEntity
  8
0
100
AcDbLine
 10
-420.417196
 20
-989.171518
 30
0.0
 11
-420.6671959999998
 21
-988.921518
 31
0.0
  0
LINE
  5
24D
330
36
100
AcDbEntity
  8
0
100
AcDbLine
 10
-419.917196
 20
-989.171518
 30
0.0
 11
-419.6671959999997
 21
-988.921518
 31
0.0
  0
LINE
  5
24E
330
36
100
AcDbEntity
  8
0
100
AcDbLine
 10
-420.6671959999998
 20
-992.9215179999999
 30
0.0
 11
-419.6671959999997
 21
-992.9215179999999
 31
0.0
  0
LINE
  5
24F
330
36
100
AcDbEntity
  8
0
100
AcDbLine
 10
-420.417196
 20
-992.671518
 30
0.0
 11
-419.917196
 21
-992.671518
 31
0.0
  0
LINE
  5
250
330
36
100
AcDbEntity
  8
0
100
AcDbLine
 10
-420.417196
 20
-992.671518
 30
0.0
 11
-420.6671959999998
 21
-992.9215179999999
 31
0.0
  0
LINE
  5
251
330
36
100
AcDbEntity
  8
0
100
AcDbLine
 10
-419.917196
 20
-992.671518
 30
0.0
 11
-419.6671959999997
 21
-992.9215179999999
 31
0.0
  0
LINE
  5
252
330
36
100
AcDbEntity
  8
0
100
AcDbLine
 10
-414.4171959999998
 20
-993.671518
 30
0.0
 11
-414.4171959999998
 21
-997.6715179999999
 31
0.0
  0
LINE
  5
253
330
36
100
AcDbEntity
  8
0
100
AcDbLine
 10
-415.417196
 20
-993.671518
 30
0.0
 11
-415.417196
 21
-997.6715179999999
 31
0.0
  0
LINE
  5
254
330
36
100
AcDbEntity
  8
0
100
AcDbLine
 10
-414.4171959999998
 20
-997.6715179999999
 30
0.0
 11
-415.417196
 21
-997.6715179999999
 31
0.0
  0
LINE
  5
255
330
36
100
AcDbEntity
  8
0
100
AcDbLine
 10
-414.6671959999998
 20
-993.9215179999999
 30
0.0
 11
-414.6671959999998
 21
-997.4215179999999
 31
0.0
  0
LINE
  5
256
330
36
100
AcDbEntity
  8
0
100
AcDbLine
 10
-415.1671959999998
 20
-993.9215179999999
 30
0.0
 11
-415.1671959999998
 21
-997.4215179999999
 31
0.0
  0
LINE
  5
257
330
36
100
AcDbEntity
  8
0
100
AcDbLine
 10
-414.6671959999998
 20
-997.4215179999999
 30
0.0
 11
-415.1671959999998
 21
-997.4215179999999
 31
0.0
  0
LINE
  5
258
330
36
100
AcDbEntity
  8
0
100
AcDbLine
 10
-414.6671959999998
 20
-997.4215179999999
 30
0.0
 11
-414.4171959999998
 21
-997.6715179999999
 31
0.0
  0
LINE
  5
259
330
36
100
AcDbEntity
  8
0
100
AcDbLine
 10
-415.1671959999998
 20
-997.4215179999999
 30
0.0
 11
-415.417196
 21
-997.6715179999999
 31
0.0
  0
LINE
  5
25A
330
36
100
AcDbEntity
  8
0
100
AcDbLine
 10
-414.4171959999998
 20
-993.671518
 30
0.0
 11
-415.417196
 21
-993.671518
 31
0.0
  0
LINE
  5
25B
330
36
100
AcDbEntity
  8
0
100
AcDbLine
 10
-414.6671959999998
 20
-993.9215179999999
 30
0.0
 11
-415.1671959999998
 21
-993.9215179999999
 31
0.0
  0
LINE
  5
25C
330
36
100
AcDbEntity
  8
0
100
AcDbLine
 10
-414.6671959999998
 20
-993.9215179999999
 30
0.0
 11
-414.4171959999998
 21
-993.671518
 31
0.0
  0
LINE
  5
25D
330
36
100
AcDbEntity
  8
0
100
AcDbLine
 10
-415.1671959999998
 20
-993.9215179999999
 30
0.0
 11
-415.417196
 21
-993.671518
 31
0.0
  0
LINE
  5
25E
330
36
100
AcDbEntity
  8
0
100
AcDbLine
 10
-409.167196
 20
-988.921518
 30
0.0
 11
-409.167196
 21
-992.9215179999999
 31
0.0
  0
LINE
  5
25F
330
36
100
AcDbEntity
  8
0
100
AcDbLine
 10
-410.167196
 20
-988.921518
 30
0.0
 11
-410.167196
 21
-992.9215179999999
 31
0.0
  0
LINE
  5
260
330
36
100
AcDbEntity
  8
0
100
AcDbLine
 10
-409.167196
 20
-992.9215179999999
 30
0.0
 11
-410.167196
 21
-992.9215179999999
 31
0.0
  0
LINE
  5
261
330
36
100
AcDbEntity
  8
0
100
AcDbLine
 10
-409.4171959999997
 20
-989.171518
 30
0.0
 11
-409.4171959999997
 21
-992.671518
 31
0.0
  0
LINE
  5
262
330
36
100
AcDbEntity
  8
0
100
AcDbLine
 10
-409.9171959999996
 20
-989.171518
 30
0.0
 11
-409.9171959999996
 21
-992.671518
 31
0.0
  0
LINE
  5
263
330
36
100
AcDbEntity
  8
0
100
AcDbLine
 10
-409.4171959999997
 20
-992.671518
 30
0.0
 11
-409.9171959999996
 21
-992.671518
 31
0.0
  0
LINE
  5
264
330
36
100
AcDbEntity
  8
0
100
AcDbLine
 10
-409.4171959999997
 20
-992.671518
 30
0.0
 11
-409.167196
 21
-992.9215179999999
 31
0.0
  0
LINE
  5
265
330
36
100
AcDbEntity
  8
0
100
AcDbLine
 10
-409.9171959999996
 20
-992.671518
 30
0.0
 11
-410.167196
 21
-992.9215179999999
 31
0.0
  0
LINE
  5
266
330
36
100
AcDbEntity
  8
0
100
AcDbLine
 10
-409.167196
 20
-988.921518
 30
0.0
 11
-410.167196
 21
-988.921518
 31
0.0
  0
LINE
  5
267
330
36
100
AcDbEntity
  8
0
100
AcDbLine
 10
-409.4171959999997
 20
-989.171518
 30
0.0
 11
-409.9171959999996
 21
-989.171518
 31
0.0
  0
LINE
  5
268
330
36
100
AcDbEntity
  8
0
100
AcDbLine
 10
-409.4171959999997
 20
-989.171518
 30
0.0
 11
-409.167196
 21
-988.921518
 31
0.0
  0
LINE
  5
269
330
36
100
AcDbEntity
  8
0
100
AcDbLine
 10
-409.9171959999996
 20
-989.171518
 30
0.0
 11
-410.167196
 21
-988.921518
 31
0.0
  0
LINE
  5
26A
330
36
100
AcDbEntity
  8
0
100
AcDbLine
 10
-417.642236
 20
-929.421518
 30
0.0
 11
-417.642236
 21
-930.4215179999999
 31
0.0
  0
LINE
  5
26B
330
36
100
AcDbEntity
  8
0
100
AcDbLine
 10
-417.642236
 20
-927.421518
 30
0.0
 11
-417.642236
 21
-928.421518
 31
0.0
  0
LINE
  5
26C
330
36
100
AcDbEntity
  8
0
100
AcDbLine
 10
-417.642236
 20
-925.421518
 30
0.0
 11
-417.642236
 21
-926.421518
 31
0.0
  0
LINE
  5
26D
330
36
100
AcDbEntity
  8
0
100
AcDbLine
 10
-417.642236
 20
-923.4215179999999
 30
0.0
 11
-417.642236
 21
-924.4215179999999
 31
0.0
  0
LINE
  5
26E
330
36
100
AcDbEntity
  8
0
100
AcDbLine
 10
-412.192236
 20
-929.421518
 30
0.0
 11
-412.192236
 21
-930.4215179999999
 31
0.0
  0
LINE
  5
26F
330
36
100
AcDbEntity
  8
0
100
AcDbLine
 10
-412.192236
 20
-927.421518
 30
0.0
 11
-412.192236
 21
-928.421518
 31
0.0
  0
LINE
  5
270
330
36
100
AcDbEntity
  8
0
100
AcDbLine
 10
-412.192236
 20
-925.421518
 30
0.0
 11
-412.192236
 21
-926.421518
 31
0.0
  0
LINE
  5
271
330
36
100
AcDbEntity
  8
0
100
AcDbLine
 10
-412.192236
 20
-923.4215179999999
 30
0.0
 11
-412.192236
 21
-924.4215179999999
 31
0.0
  0
LINE
  5
272
330
36
100
AcDbEntity
  8
0
100
AcDbLine
 10
-419.667236
 20
-971.421518
 30
0.0
 11
-419.667236
 21
-961.421518
 31
0.0
  0
LINE
  5
273
330
36
100
AcDbEntity
  8
0
100
AcDbLine
 10
-420.667236
 20
-971.421518
 30
0.0
 11
-420.667236
 21
-961.421518
 31
0.0
  0
LINE
  5
274
330
36
100
AcDbEntity
  8
0
100
AcDbLine
 10
-414.4172359999998
 20
-972.921518
 30
0.0
 11
-414.4172359999998
 21
-961.421518
 31
0.0
  0
LINE
  5
275
330
36
100
AcDbEntity
  8
0
100
AcDbLine
 10
-415.417236
 20
-972.921518
 30
0.0
 11
-415.417236
 21
-961.421518
 31
0.0
  0
LINE
  5
276
330
36
100
AcDbEntity
  8
0
100
AcDbLine
 10
-412.917236
 20
-971.421518
 30
0.0
 11
-412.917236
 21
-961.421518
 31
0.0
  0
LINE
  5
277
330
36
100
AcDbEntity
  8
0
100
AcDbLine
 10
-416.917236
 20
-971.421518
 30
0.0
 11
-416.917236
 21
-961.421518
 31
0.0
  0
LINE
  5
278
330
36
100
AcDbEntity
  8
0
100
AcDbLine
 10
-409.167236
 20
-971.421518
 30
0.0
 11
-409.167236
 21
-961.421518
 31
0.0
  0
LINE
  5
279
330
36
100
AcDbEntity
  8
0
100
AcDbLine
 10
-410.167236
 20
-971.421518
 30
0.0
 11
-410.167236
 21
-961.421518
 31
0.0
  0
LINE
  5
27A
330
36
100
AcDbEntity
  8
0
100
AcDbLine
 10
-410.167236
 20
-971.421518
 30
0.0
 11
-409.167236
 21
-971.421518
 31
0.0
  0
LINE
  5
27B
330
36
100
AcDbEntity
  8
0
100
AcDbLine
 10
-420.667236
 20
-971.421518
 30
0.0
 11
-419.667236
 21
-971.421518
 31
0.0
  0
LINE
  5
27C
330
36
100
AcDbEntity
  8
0
100
AcDbLine
 10
-416.917236
 20
-971.421518
 30
0.0
 11
-415.417236
 21
-971.421518
 31
0.0
  0
LINE
  5
27D
330
36
100
AcDbEntity
  8
0
100
AcDbLine
 10
-414.4172359999998
 20
-971.421518
 30
0.0
 11
-412.917236
 21
-971.421518
 31
0.0
  0
LINE
  5
27E
330
36
100
AcDbEntity
  8
0
100
AcDbLine
 10
-415.417236
 20
-972.921518
 30
0.0
 11
-414.4172359999998
 21
-972.921518
 31
0.0
  0
CIRCLE
  5
27F
330
36
100
AcDbEntity
  8
0
100
AcDbCircle
 10
-452.1172739999998
 20
-930.1355969999999
 30
0.0
 40
2.0
  0
ARC
  5
280
330
36
100
AcDbEntity
  8
0
100
AcDbCircle
 10
-452.1172739999998
 20
-930.1355969999999
 30
0.0
 40
1.0
100
AcDbArc
 50
75.522488
 51
104.477512
  0
ARC
  5
281
330
36
100
AcDbEntity
  8
0
100
AcDbCircle
 10
-452.1172739999998
 20
-930.1355969999999
 30
0.0
 40
1.0
100
AcDbArc
 50
345.522488
 51
14.477512
  0
ARC
  5
282
330
36
100
AcDbEntity
  8
0
100
AcDbCircle
 10
-452.1172739999998
 20
-930.1355969999999
 30
0.0
 40
1.0
100
AcDbArc
 50
255.522488
 51
284.477512
  0
ARC
  5
283
330
36
100
AcDbEntity
  8
0
100
AcDbCircle
 10
-452.1172739999998
 20
-930.1355969999999
 30
0.0
 40
1.0
100
AcDbArc
 50
165.522488
 51
194.477512
  0
LINE
  5
284
330
36
100
AcDbEntity
  8
0
100
AcDbLine
 10
-452.367274
 20
-929.8855969999999
 30
0.0
 11
-453.08552
 21
-929.8855969999999
 31
0.0
  0
LINE
  5
285
330
36
100
AcDbEntity
  8
0
100
AcDbLine
 10
-452.367274
 20
-929.8855969999999
 30
0.0
 11
-452.367274
 21
-929.1673509999997
 31
0.0
  0
LINE
  5
286
330
36
100
AcDbEntity
  8
0
100
AcDbLine
 10
-451.867274
 20
-929.8855969999999
 30
0.0
 11
-451.867274
 21
-929.1673509999997
 31
0.0
  0
LINE
  5
287
330
36
100
AcDbEntity
  8
0
100
AcDbLine
 10
-451.149028
 20
-929.8855969999999
 30
0.0
 11
-451.867274
 21
-929.8855969999999
 31
0.0
  0
LINE
  5
288
330
36
100
AcDbEntity
  8
0
100
AcDbLine
 10
-451.149028
 20
-930.385597
 30
0.0
 11
-451.867274
 21
-930.385597
 31
0.0
  0
LINE
  5
289
330
36
100
AcDbEntity
  8
0
100
AcDbLine
 10
-451.867274
 20
-931.1038429999999
 30
0.0
 11
-451.867274
 21
-930.385597
 31
0.0
  0
LINE
  5
28A
330
36
100
AcDbEntity
  8
0
100
AcDbLine
 10
-452.367274
 20
-931.1038429999999
 30
0.0
 11
-452.367274
 21
-930.385597
 31
0.0
  0
LINE
  5
28B
330
36
100
AcDbEntity
  8
0
100
AcDbLine
 10
-452.367274
 20
-930.385597
 30
0.0
 11
-453.08552
 21
-930.385597
 31
0.0
  0
CIRCLE
  5
28C
330
36
100
AcDbEntity
  8
0
100
AcDbCircle
 10
-452.1172739999998
 20
-945.1355969999999
 30
0.0
 40
2.0
  0
ARC
  5
28D
330
36
100
AcDbEntity
  8
0
100
AcDbCircle
 10
-455.267274
 20
-947.2515699999997
 30
0.0
 40
0.15
100
AcDbArc
 50
0.0
 51
90.0
  0
LINE
  5
28E
330
36
100
AcDbEntity
  8
0
  6
HIDDEN
 62
    15
100
AcDbLine
 10
-455.117274
 20
-947.2515699999997
 30
0.0
 11
-455.117274
 21
-947.1015699999997
 31
0.0
  0
LINE
  5
28F
330
36
100
AcDbEntity
  8
0
  6
HIDDEN
 62
    15
100
AcDbLine
 10
-455.267274
 20
-947.1015699999997
 30
0.0
 11
-455.117274
 21
-947.1015699999997
 31
0.0
  0
CIRCLE
  5
290
330
36
100
AcDbEntity
  8
0
100
AcDbCircle
 10
-464.6172739999998
 20
-944.9765699999996
 30
0.0
 40
2.0
  0
ARC
  5
291
330
36
100
AcDbEntity
  8
0
100
AcDbCircle
 10
-452.1172739999998
 20
-945.0675439999999
 30
0.0
 40
1.0
100
AcDbArc
 50
255.522488
 51
284.477512
  0
ARC
  5
292
330
36
100
AcDbEntity
  8
0
100
AcDbCircle
 10
-452.1172739999998
 20
-945.0675439999999
 30
0.0
 40
1.0
100
AcDbArc
 50
345.522488
 51
14.477512
  0
ARC
  5
293
330
36
100
AcDbEntity
  8
0
100
AcDbCircle
 10
-452.1172739999998
 20
-945.0675439999999
 30
0.0
 40
1.0
100
AcDbArc
 50
75.522488
 51
104.477512
  0
ARC
  5
294
330
36
100
AcDbEntity
  8
0
100
AcDbCircle
 10
-452.1172739999998
 20
-945.0675439999999
 30
0.0
 40
1.0
100
AcDbArc
 50
165.522488
 51
194.477512
  0
LINE
  5
295
330
36
100
AcDbEntity
  8
0
100
AcDbLine
 10
-452.367274
 20
-945.317544
 30
0.0
 11
-453.08552
 21
-945.317544
 31
0.0
  0
LINE
  5
296
330
36
100
AcDbEntity
  8
0
100
AcDbLine
 10
-452.367274
 20
-945.317544
 30
0.0
 11
-452.367274
 21
-946.0357899999999
 31
0.0
  0
LINE
  5
297
330
36
100
AcDbEntity
  8
0
100
AcDbLine
 10
-451.867274
 20
-945.317544
 30
0.0
 11
-451.867274
 21
-946.0357899999999
 31
0.0
  0
LINE
  5
298
330
36
100
AcDbEntity
  8
0
100
AcDbLine
 10
-451.149028
 20
-945.317544
 30
0.0
 11
-451.867274
 21
-945.317544
 31
0.0
  0
LINE
  5
299
330
36
100
AcDbEntity
  8
0
100
AcDbLine
 10
-451.149028
 20
-944.8175439999999
 30
0.0
 11
-451.867274
 21
-944.8175439999999
 31
0.0
  0
LINE
  5
29A
330
36
100
AcDbEntity
  8
0
100
AcDbLine
 10
-451.867274
 20
-944.099298
 30
0.0
 11
-451.867274
 21
-944.8175439999999
 31
0.0
  0
LINE
  5
29B
330
36
100
AcDbEntity
  8
0
100
AcDbLine
 10
-452.367274
 20
-944.099298
 30
0.0
 11
-452.367274
 21
-944.8175439999999
 31
0.0
  0
LINE
  5
29C
330
36
100
AcDbEntity
  8
0
100
AcDbLine
 10
-452.367274
 20
-944.8175439999999
 30
0.0
 11
-453.08552
 21
-944.8175439999999
 31
0.0
  0
ARC
  5
29D
330
36
100
AcDbEntity
  8
0
100
AcDbCircle
 10
-464.6172739999998
 20
-944.9085179999999
 30
0.0
 40
1.0
100
AcDbArc
 50
255.522488
 51
284.477512
  0
ARC
  5
29E
330
36
100
AcDbEntity
  8
0
100
AcDbCircle
 10
-464.6172739999998
 20
-944.9085179999999
 30
0.0
 40
1.0
100
AcDbArc
 50
345.522488
 51
14.477512
  0
ARC
  5
29F
330
36
100
AcDbEntity
  8
0
100
AcDbCircle
 10
-464.6172739999998
 20
-944.9085179999999
 30
0.0
 40
1.0
100
AcDbArc
 50
75.522488
 51
104.477512
  0
ARC
  5
2A0
330
36
100
AcDbEntity
  8
0
100
AcDbCircle
 10
-464.6172739999998
 20
-944.9085179999999
 30
0.0
 40
1.0
100
AcDbArc
 50
165.522488
 51
194.477512
  0
LINE
  5
2A1
330
36
100
AcDbEntity
  8
0
100
AcDbLine
 10
-464.867274
 20
-945.158518
 30
0.0
 11
-465.58552
 21
-945.158518
 31
0.0
  0
LINE
  5
2A2
330
36
100
AcDbEntity
  8
0
100
AcDbLine
 10
-464.867274
 20
-945.158518
 30
0.0
 11
-464.867274
 21
-945.8767639999999
 31
0.0
  0
LINE
  5
2A3
330
36
100
AcDbEntity
  8
0
100
AcDbLine
 10
-464.367274
 20
-945.158518
 30
0.0
 11
-464.367274
 21
-945.8767639999999
 31
0.0
  0
LINE
  5
2A4
330
36
100
AcDbEntity
  8
0
100
AcDbLine
 10
-463.649028
 20
-945.158518
 30
0.0
 11
-464.367274
 21
-945.158518
 31
0.0
  0
LINE
  5
2A5
330
36
100
AcDbEntity
  8
0
100
AcDbLine
 10
-463.649028
 20
-944.6585179999999
 30
0.0
 11
-464.367274
 21
-944.6585179999999
 31
0.0
  0
LINE
  5
2A6
330
36
100
AcDbEntity
  8
0
100
AcDbLine
 10
-464.367274
 20
-943.940272
 30
0.0
 11
-464.367274
 21
-944.6585179999999
 31
0.0
  0
LINE
  5
2A7
330
36
100
AcDbEntity
  8
0
100
AcDbLine
 10
-464.867274
 20
-943.940272
 30
0.0
 11
-464.867274
 21
-944.6585179999999
 31
0.0
  0
LINE
  5
2A8
330
36
100
AcDbEntity
  8
0
100
AcDbLine
 10
-464.867274
 20
-944.6585179999999
 30
0.0
 11
-465.58552
 21
-944.6585179999999
 31
0.0
  0
LINE
  5
2A9
330
36
100
AcDbEntity
  8
0
100
AcDbLine
 10
-466.992274
 20
-955.72657
 30
0.0
 11
-462.242274
 21
-955.72657
 31
0.0
  0
LINE
  5
2AA
330
36
100
AcDbEntity
  8
0
100
AcDbLine
 10
-466.992274
 20
-953.97657
 30
0.0
 11
-462.242274
 21
-953.97657
 31
0.0
  0
LINE
  5
2AB
330
36
100
AcDbEntity
  8
0
100
AcDbLine
 10
-462.242274
 20
-953.97657
 30
0.0
 11
-462.242274
 21
-955.72657
 31
0.0
  0
LINE
  5
2AC
330
36
100
AcDbEntity
  8
0
100
AcDbLine
 10
-466.992274
 20
-953.97657
 30
0.0
 11
-466.992274
 21
-955.72657
 31
0.0
  0
ARC
  5
2AD
330
36
100
AcDbEntity
  8
0
100
AcDbCircle
 10
-461.9922739999998
 20
-955.9765699999999
 30
0.0
 40
0.25
100
AcDbArc
 50
270.0
 51
0.0
  0
LINE
  5
2AE
330
36
100
AcDbEntity
  8
0
100
AcDbLine
 10
-461.742274
 20
-955.9765699999999
 30
0.0
 11
-461.742274
 21
-953.7265699999997
 31
0.0
  0
LINE
  5
2AF
330
36
100
AcDbEntity
  8
0
100
AcDbLine
 10
-467.492274
 20
-955.9765699999999
 30
0.0
 11
-467.492274
 21
-953.7265699999997
 31
0.0
  0
LINE
  5
2B0
330
36
100
AcDbEntity
  8
0
100
AcDbLine
 10
-461.9922739999998
 20
-956.2265700000001
 30
0.0
 11
-467.242274
 21
-956.2265700000001
 31
0.0
  0
ARC
  5
2B1
330
36
100
AcDbEntity
  8
0
100
AcDbCircle
 10
-467.242274
 20
-955.9765699999999
 30
0.0
 40
0.25
100
AcDbArc
 50
180.0
 51
270.0
  0
ARC
  5
2B2
330
36
100
AcDbEntity
  8
0
100
AcDbCircle
 10
-461.9922739999998
 20
-953.7265699999997
 30
0.0
 40
0.25
100
AcDbArc
 50
0.0
 51
90.0
  0
LINE
  5
2B3
330
36
100
AcDbEntity
  8
0
100
AcDbLine
 10
-467.242274
 20
-953.4765700000001
 30
0.0
 11
-461.9922739999998
 21
-953.4765700000001
 31
0.0
  0
ARC
  5
2B4
330
36
100
AcDbEntity
  8
0
100
AcDbCircle
 10
-467.242274
 20
-953.7265699999997
 30
0.0
 40
0.25
100
AcDbArc
 50
90.0
 51
180.0
  0
LINE
  5
2B5
330
36
100
AcDbEntity
  8
0
100
AcDbLine
 10
-468.992274
 20
-957.7265699999999
 30
0.0
 11
-468.992274
 21
-962.4765700000001
 31
0.0
  0
LINE
  5
2B6
330
36
100
AcDbEntity
  8
0
100
AcDbLine
 10
-470.617274
 20
-957.7265699999999
 30
0.0
 11
-468.992274
 21
-957.7265699999999
 31
0.0
  0
LINE
  5
2B7
330
36
100
AcDbEntity
  8
0
100
AcDbLine
 10
-470.617274
 20
-957.7265699999999
 30
0.0
 11
-470.617274
 21
-962.4765700000001
 31
0.0
  0
LINE
  5
2B8
330
36
100
AcDbEntity
  8
0
100
AcDbLine
 10
-470.617274
 20
-962.4765700000001
 30
0.0
 11
-468.992274
 21
-962.4765700000001
 31
0.0
  0
ARC
  5
2B9
330
36
100
AcDbEntity
  8
0
100
AcDbCircle
 10
-470.8672739999998
 20
-957.4765699999996
 30
0.0
 40
0.25
100
AcDbArc
 50
90.0
 51
180.0
  0
LINE
  5
2BA
330
36
100
AcDbEntity
  8
0
100
AcDbLine
 10
-471.117274
 20
-962.7265699999997
 30
0.0
 11
-471.117274
 21
-957.4765699999996
 31
0.0
  0
ARC
  5
2BB
330
36
100
AcDbEntity
  8
0
100
AcDbCircle
 10
-470.8672739999998
 20
-962.7265699999997
 30
0.0
 40
0.25
100
AcDbArc
 50
180.0
 51
270.0
  0
LINE
  5
2BC
330
36
100
AcDbEntity
  8
0
100
AcDbLine
 10
-468.742274
 20
-962.97657
 30
0.0
 11
-470.8672739999998
 21
-962.97657
 31
0.0
  0
LINE
  5
2BD
330
36
100
AcDbEntity
  8
0
100
AcDbLine
 10
-468.492274
 20
-962.7265699999997
 30
0.0
 11
-468.492274
 21
-957.4765699999996
 31
0.0
  0
ARC
  5
2BE
330
36
100
AcDbEntity
  8
0
100
AcDbCircle
 10
-468.742274
 20
-962.7265699999997
 30
0.0
 40
0.25
100
AcDbArc
 50
270.0
 51
0.0
  0
ARC
  5
2BF
330
36
100
AcDbEntity
  8
0
100
AcDbCircle
 10
-468.742274
 20
-957.4765699999996
 30
0.0
 40
0.25
100
AcDbArc
 50
0.0
 51
90.0
  0
LINE
  5
2C0
330
36
100
AcDbEntity
  8
0
100
AcDbLine
 10
-470.8672739999998
 20
-957.2265699999999
 30
0.0
 11
-468.742274
 21
-957.2265699999999
 31
0.0
  0
LINE
  5
2C1
330
36
100
AcDbEntity
  8
0
100
AcDbLine
 10
-460.242274
 20
-962.4765700000001
 30
0.0
 11
-458.617274
 21
-962.4765700000001
 31
0.0
  0
LINE
  5
2C2
330
36
100
AcDbEntity
  8
0
100
AcDbLine
 10
-460.242274
 20
-957.7265699999999
 30
0.0
 11
-460.242274
 21
-962.4765700000001
 31
0.0
  0
LINE
  5
2C3
330
36
100
AcDbEntity
  8
0
100
AcDbLine
 10
-458.617274
 20
-957.7265699999999
 30
0.0
 11
-458.617274
 21
-962.4765700000001
 31
0.0
  0
LINE
  5
2C4
330
36
100
AcDbEntity
  8
0
100
AcDbLine
 10
-460.242274
 20
-957.7265699999999
 30
0.0
 11
-458.617274
 21
-957.7265699999999
 31
0.0
  0
LINE
  5
2C5
330
36
100
AcDbEntity
  8
0
100
AcDbLine
 10
-460.492274
 20
-962.97657
 30
0.0
 11
-458.3672739999998
 21
-962.97657
 31
0.0
  0
ARC
  5
2C6
330
36
100
AcDbEntity
  8
0
100
AcDbCircle
 10
-458.3672739999998
 20
-962.7265699999997
 30
0.0
 40
0.25
100
AcDbArc
 50
270.0
 51
0.0
  0
LINE
  5
2C7
330
36
100
AcDbEntity
  8
0
100
AcDbLine
 10
-458.117274
 20
-957.4765699999996
 30
0.0
 11
-458.117274
 21
-962.7265699999997
 31
0.0
  0
LINE
  5
2C8
330
36
100
AcDbEntity
  8
0
100
AcDbLine
 10
-460.492274
 20
-957.2265699999999
 30
0.0
 11
-458.3672739999998
 21
-957.2265699999999
 31
0.0
  0
LINE
  5
2C9
330
36
100
AcDbEntity
  8
0
100
AcDbLine
 10
-460.742274
 20
-962.7265699999997
 30
0.0
 11
-460.742274
 21
-957.4765699999996
 31
0.0
  0
ARC
  5
2CA
330
36
100
AcDbEntity
  8
0
100
AcDbCircle
 10
-460.492274
 20
-962.7265699999997
 30
0.0
 40
0.25
100
AcDbArc
 50
180.0
 51
270.0
  0
ARC
  5
2CB
330
36
100
AcDbEntity
  8
0
100
AcDbCircle
 10
-458.3672739999998
 20
-957.4765699999996
 30
0.0
 40
0.25
100
AcDbArc
 50
0.0
 51
90.0
  0
ARC
  5
2CC
330
36
100
AcDbEntity
  8
0
100
AcDbCircle
 10
-460.492274
 20
-957.4765699999996
 30
0.0
 40
0.25
100
AcDbArc
 50
90.0
 51
180.0
  0
LINE
  5
2CD
330
36
100
AcDbEntity
  8
0
100
AcDbLine
 10
-465.367274
 20
-967.2265699999996
 30
0.0
 11
-463.804774
 21
-967.2265699999996
 31
0.0
  0
ARC
  5
2CE
330
36
100
AcDbEntity
  8
0
100
AcDbCircle
 10
-465.679774
 20
-967.47657
 30
0.0
 40
0.25
100
AcDbArc
 50
180.0
 51
270.0
  0
LINE
  5
2CF
330
36
100
AcDbEntity
  8
0
100
AcDbLine
 10
-463.5547739999998
 20
-967.7265700000001
 30
0.0
 11
-465.679774
 21
-967.7265700000001
 31
0.0
  0
ARC
  5
2D0
330
36
100
AcDbEntity
  8
0
100
AcDbCircle
 10
-463.5547739999998
 20
-967.47657
 30
0.0
 40
0.25
100
AcDbArc
 50
270.0
 51
0.0
  0
LINE
  5
2D1
330
36
100
AcDbEntity
  8
0
100
AcDbLine
 10
-463.804774
 20
-962.4765700000001
 30
0.0
 11
-463.804774
 21
-967.2265699999996
 31
0.0
  0
LINE
  5
2D2
330
36
100
AcDbEntity
  8
0
100
AcDbLine
 10
-465.429774
 20
-962.4765700000001
 30
0.0
 11
-463.804774
 21
-962.4765700000001
 31
0.0
  0
LINE
  5
2D3
330
36
100
AcDbEntity
  8
0
100
AcDbLine
 10
-465.429774
 20
-962.4765700000001
 30
0.0
 11
-465.429774
 21
-967.2265699999996
 31
0.0
  0
ARC
  5
2D4
330
36
100
AcDbEntity
  8
0
100
AcDbCircle
 10
-463.5547739999998
 20
-962.2265699999999
 30
0.0
 40
0.25
100
AcDbArc
 50
0.0
 51
90.0
  0
ARC
  5
2D5
330
36
100
AcDbEntity
  8
0
100
AcDbCircle
 10
-465.679774
 20
-962.2265699999999
 30
0.0
 40
0.25
100
AcDbArc
 50
90.0
 51
180.0
  0
LINE
  5
2D6
330
36
100
AcDbEntity
  8
0
100
AcDbLine
 10
-465.679774
 20
-961.97657
 30
0.0
 11
-463.5547739999998
 21
-961.97657
 31
0.0
  0
LINE
  5
2D7
330
36
100
AcDbEntity
  8
0
100
AcDbLine
 10
-465.929774
 20
-967.47657
 30
0.0
 11
-465.929774
 21
-962.2265699999999
 31
0.0
  0
LINE
  5
2D8
330
36
100
AcDbEntity
  8
0
100
AcDbLine
 10
-463.304774
 20
-967.47657
 30
0.0
 11
-463.304774
 21
-962.2265699999999
 31
0.0
  0
CIRCLE
  5
2D9
330
36
100
AcDbEntity
  8
0
100
AcDbCircle
 10
-464.6172739999998
 20
-975.2265699999997
 30
0.0
 40
2.0
  0
ARC
  5
2DA
330
36
100
AcDbEntity
  8
0
100
AcDbCircle
 10
-464.6172739999998
 20
-975.1585179999999
 30
0.0
 40
1.0
100
AcDbArc
 50
75.522488
 51
104.477512
  0
LINE
  5
2DB
330
36
100
AcDbEntity
  8
0
100
AcDbLine
 10
-464.867274
 20
-974.190272
 30
0.0
 11
-464.867274
 21
-974.9085179999999
 31
0.0
  0
LINE
  5
2DC
330
36
100
AcDbEntity
  8
0
100
AcDbLine
 10
-464.367274
 20
-974.190272
 30
0.0
 11
-464.367274
 21
-974.9085179999999
 31
0.0
  0
ARC
  5
2DD
330
36
100
AcDbEntity
  8
0
100
AcDbCircle
 10
-464.6172739999998
 20
-975.1585179999999
 30
0.0
 40
1.0
100
AcDbArc
 50
165.522488
 51
194.477512
  0
LINE
  5
2DE
330
36
100
AcDbEntity
  8
0
100
AcDbLine
 10
-464.867274
 20
-975.408518
 30
0.0
 11
-465.58552
 21
-975.408518
 31
0.0
  0
LINE
  5
2DF
330
36
100
AcDbEntity
  8
0
100
AcDbLine
 10
-464.867274
 20
-974.9085179999999
 30
0.0
 11
-465.58552
 21
-974.9085179999999
 31
0.0
  0
ARC
  5
2E0
330
36
100
AcDbEntity
  8
0
100
AcDbCircle
 10
-464.6172739999998
 20
-975.1585179999999
 30
0.0
 40
1.0
100
AcDbArc
 50
345.522488
 51
14.477512
  0
LINE
  5
2E1
330
36
100
AcDbEntity
  8
0
100
AcDbLine
 10
-463.649028
 20
-975.408518
 30
0.0
 11
-464.367274
 21
-975.408518
 31
0.0
  0
LINE
  5
2E2
330
36
100
AcDbEntity
  8
0
100
AcDbLine
 10
-463.649028
 20
-974.9085179999999
 30
0.0
 11
-464.367274
 21
-974.9085179999999
 31
0.0
  0
ARC
  5
2E3
330
36
100
AcDbEntity
  8
0
100
AcDbCircle
 10
-464.6172739999998
 20
-975.1585179999999
 30
0.0
 40
1.0
100
AcDbArc
 50
255.522488
 51
284.477512
  0
CIRCLE
  5
2E4
330
36
100
AcDbEntity
  8
0
100
AcDbCircle
 10
-511.617274
 20
-945.1355969999999
 30
0.0
 40
2.0
  0
ARC
  5
2E5
330
36
100
AcDbEntity
  8
0
100
AcDbCircle
 10
-511.617274
 20
-945.1355969999999
 30
0.0
 40
1.0
100
AcDbArc
 50
345.522488
 51
14.477512
  0
LINE
  5
2E6
330
36
100
AcDbEntity
  8
0
100
AcDbLine
 10
-511.367274
 20
-945.3855969999999
 30
0.0
 11
-510.649028
 21
-945.3855969999999
 31
0.0
  0
LINE
  5
2E7
330
36
100
AcDbEntity
  8
0
100
AcDbLine
 10
-511.367274
 20
-945.3855969999999
 30
0.0
 11
-511.367274
 21
-946.103843
 31
0.0
  0
ARC
  5
2E8
330
36
100
AcDbEntity
  8
0
100
AcDbCircle
 10
-511.617274
 20
-945.1355969999999
 30
0.0
 40
1.0
100
AcDbArc
 50
255.522488
 51
284.477512
  0
LINE
  5
2E9
330
36
100
AcDbEntity
  8
0
100
AcDbLine
 10
-511.867274
 20
-945.3855969999999
 30
0.0
 11
-511.867274
 21
-946.103843
 31
0.0
  0
LINE
  5
2EA
330
36
100
AcDbEntity
  8
0
100
AcDbLine
 10
-512.58552
 20
-945.3855969999999
 30
0.0
 11
-511.867274
 21
-945.3855969999999
 31
0.0
  0
ARC
  5
2EB
330
36
100
AcDbEntity
  8
0
100
AcDbCircle
 10
-511.617274
 20
-945.1355969999999
 30
0.0
 40
1.0
100
AcDbArc
 50
165.522488
 51
194.477512
  0
LINE
  5
2EC
330
36
100
AcDbEntity
  8
0
100
AcDbLine
 10
-512.58552
 20
-944.885597
 30
0.0
 11
-511.867274
 21
-944.885597
 31
0.0
  0
LINE
  5
2ED
330
36
100
AcDbEntity
  8
0
100
AcDbLine
 10
-511.867274
 20
-944.1673510000001
 30
0.0
 11
-511.867274
 21
-944.885597
 31
0.0
  0
ARC
  5
2EE
330
36
100
AcDbEntity
  8
0
100
AcDbCircle
 10
-511.617274
 20
-945.1355969999999
 30
0.0
 40
1.0
100
AcDbArc
 50
75.522488
 51
104.477512
  0
LINE
  5
2EF
330
36
100
AcDbEntity
  8
0
100
AcDbLine
 10
-511.367274
 20
-944.1673510000001
 30
0.0
 11
-511.367274
 21
-944.885597
 31
0.0
  0
LINE
  5
2F0
330
36
100
AcDbEntity
  8
0
100
AcDbLine
 10
-511.367274
 20
-944.885597
 30
0.0
 11
-510.649028
 21
-944.885597
 31
0.0
  0
CIRCLE
  5
2F1
330
36
100
AcDbEntity
  8
0
100
AcDbCircle
 10
-511.617274
 20
-930.1355969999999
 30
0.0
 40
2.0
  0
ARC
  5
2F2
330
36
100
AcDbEntity
  8
0
100
AcDbCircle
 10
-511.617274
 20
-930.1355969999999
 30
0.0
 40
1.0
100
AcDbArc
 50
75.522488
 51
104.477512
  0
ARC
  5
2F3
330
36
100
AcDbEntity
  8
0
100
AcDbCircle
 10
-511.617274
 20
-930.1355969999999
 30
0.0
 40
1.0
100
AcDbArc
 50
255.522488
 51
284.477512
  0
ARC
  5
2F4
330
36
100
AcDbEntity
  8
0
100
AcDbCircle
 10
-511.617274
 20
-930.1355969999999
 30
0.0
 40
1.0
100
AcDbArc
 50
345.522488
 51
14.477512
  0
LINE
  5
2F5
330
36
100
AcDbEntity
  8
0
100
AcDbLine
 10
-511.367274
 20
-929.8855969999999
 30
0.0
 11
-510.649028
 21
-929.8855969999999
 31
0.0
  0
LINE
  5
2F6
330
36
100
AcDbEntity
  8
0
100
AcDbLine
 10
-511.367274
 20
-929.8855969999999
 30
0.0
 11
-511.367274
 21
-929.1673509999997
 31
0.0
  0
LINE
  5
2F7
330
36
100
AcDbEntity
  8
0
100
AcDbLine
 10
-511.367274
 20
-931.1038429999999
 30
0.0
 11
-511.367274
 21
-930.385597
 31
0.0
  0
LINE
  5
2F8
330
36
100
AcDbEntity
  8
0
100
AcDbLine
 10
-511.367274
 20
-930.385597
 30
0.0
 11
-510.649028
 21
-930.385597
 31
0.0
  0
CIRCLE
  5
2F9
330
36
100
AcDbEntity
  8
0
100
AcDbCircle
 10
-561.1758319999998
 20
-891.6355970000001
 30
0.0
 40
2.0
  0
ARC
  5
2FA
330
36
100
AcDbEntity
  8
0
100
AcDbCircle
 10
-561.1758319999998
 20
-891.6355970000001
 30
0.0
 40
1.0
100
AcDbArc
 50
345.522488
 51
14.477512
  0
LINE
  5
2FB
330
36
100
AcDbEntity
  8
0
100
AcDbLine
 10
-560.925832
 20
-891.885597
 30
0.0
 11
-560.207586
 21
-891.885597
 31
0.0
  0
LINE
  5
2FC
330
36
100
AcDbEntity
  8
0
100
AcDbLine
 10
-560.925832
 20
-891.885597
 30
0.0
 11
-560.925832
 21
-892.603843
 31
0.0
  0
ARC
  5
2FD
330
36
100
AcDbEntity
  8
0
100
AcDbCircle
 10
-561.1758319999998
 20
-891.6355970000001
 30
0.0
 40
1.0
100
AcDbArc
 50
255.522488
 51
284.477512
  0
LINE
  5
2FE
330
36
100
AcDbEntity
  8
0
100
AcDbLine
 10
-561.425832
 20
-891.885597
 30
0.0
 11
-561.425832
 21
-892.603843
 31
0.0
  0
LINE
  5
2FF
330
36
100
AcDbEntity
  8
0
100
AcDbLine
 10
-562.144078
 20
-891.885597
 30
0.0
 11
-561.425832
 21
-891.885597
 31
0.0
  0
ARC
  5
300
330
36
100
AcDbEntity
  8
0
100
AcDbCircle
 10
-561.1758319999998
 20
-891.6355970000001
 30
0.0
 40
1.0
100
AcDbArc
 50
165.522488
 51
194.477512
  0
LINE
  5
301
330
36
100
AcDbEntity
  8
0
100
AcDbLine
 10
-562.144078
 20
-891.385597
 30
0.0
 11
-561.425832
 21
-891.385597
 31
0.0
  0
LINE
  5
302
330
36
100
AcDbEntity
  8
0
100
AcDbLine
 10
-561.425832
 20
-890.6673509999999
 30
0.0
 11
-561.425832
 21
-891.385597
 31
0.0
  0
ARC
  5
303
330
36
100
AcDbEntity
  8
0
100
AcDbCircle
 10
-561.1758319999998
 20
-891.6355970000001
 30
0.0
 40
1.0
100
AcDbArc
 50
75.522488
 51
104.477512
  0
LINE
  5
304
330
36
100
AcDbEntity
  8
0
100
AcDbLine
 10
-560.925832
 20
-890.6673509999999
 30
0.0
 11
-560.925832
 21
-891.385597
 31
0.0
  0
LINE
  5
305
330
36
100
AcDbEntity
  8
0
100
AcDbLine
 10
-560.925832
 20
-891.385597
 30
0.0
 11
-560.207586
 21
-891.385597
 31
0.0
  0
CIRCLE
  5
306
330
36
100
AcDbEntity
  8
0
100
AcDbCircle
 10
-601.175832
 20
-891.6355970000001
 30
0.0
 40
2.0
  0
ARC
  5
307
330
36
100
AcDbEntity
  8
0
100
AcDbCircle
 10
-601.175832
 20
-891.6355970000001
 30
0.0
 40
1.0
100
AcDbArc
 50
165.522488
 51
194.477512
  0
LINE
  5
308
330
36
100
AcDbEntity
  8
0
100
AcDbLine
 10
-601.425832
 20
-891.885597
 30
0.0
 11
-602.144078
 21
-891.885597
 31
0.0
  0
LINE
  5
309
330
36
100
AcDbEntity
  8
0
100
AcDbLine
 10
-601.425832
 20
-891.885597
 30
0.0
 11
-601.425832
 21
-892.603843
 31
0.0
  0
ARC
  5
30A
330
36
100
AcDbEntity
  8
0
100
AcDbCircle
 10
-601.175832
 20
-891.6355970000001
 30
0.0
 40
1.0
100
AcDbArc
 50
255.522488
 51
284.477512
  0
LINE
  5
30B
330
36
100
AcDbEntity
  8
0
100
AcDbLine
 10
-600.925832
 20
-891.885597
 30
0.0
 11
-600.925832
 21
-892.603843
 31
0.0
  0
LINE
  5
30C
330
36
100
AcDbEntity
  8
0
100
AcDbLine
 10
-600.2075859999997
 20
-891.885597
 30
0.0
 11
-600.925832
 21
-891.885597
 31
0.0
  0
ARC
  5
30D
330
36
100
AcDbEntity
  8
0
100
AcDbCircle
 10
-601.175832
 20
-891.6355970000001
 30
0.0
 40
1.0
100
AcDbArc
 50
345.522488
 51
14.477512
  0
LINE
  5
30E
330
36
100
AcDbEntity
  8
0
100
AcDbLine
 10
-600.2075859999997
 20
-891.385597
 30
0.0
 11
-600.925832
 21
-891.385597
 31
0.0
  0
LINE
  5
30F
330
36
100
AcDbEntity
  8
0
100
AcDbLine
 10
-600.925832
 20
-890.6673509999999
 30
0.0
 11
-600.925832
 21
-891.385597
 31
0.0
  0
ARC
  5
310
330
36
100
AcDbEntity
  8
0
100
AcDbCircle
 10
-601.175832
 20
-891.6355970000001
 30
0.0
 40
1.0
100
AcDbArc
 50
75.522488
 51
104.477512
  0
LINE
  5
311
330
36
100
AcDbEntity
  8
0
100
AcDbLine
 10
-601.425832
 20
-890.6673509999999
 30
0.0
 11
-601.425832
 21
-891.385597
 31
0.0
  0
LINE
  5
312
330
36
100
AcDbEntity
  8
0
100
AcDbLine
 10
-601.425832
 20
-891.385597
 30
0.0
 11
-602.144078
 21
-891.385597
 31
0.0
  0
CIRCLE
  5
313
330
36
100
AcDbEntity
  8
0
100
AcDbCircle
 10
-596.175832
 20
-910.135597
 30
0.0
 40
2.0
  0
LINE
  5
314
330
36
100
AcDbEntity
  8
0
100
AcDbLine
 10
-596.4258319999999
 20
-910.3855969999999
 30
0.0
 11
-597.144078
 21
-910.3855969999999
 31
0.0
  0
LINE
  5
315
330
36
100
AcDbEntity
  8
0
100
AcDbLine
 10
-596.4258319999999
 20
-910.3855969999999
 30
0.0
 11
-596.4258319999999
 21
-911.103843
 31
0.0
  0
ARC
  5
316
330
36
100
AcDbEntity
  8
0
100
AcDbCircle
 10
-596.175832
 20
-910.135597
 30
0.0
 40
1.0
100
AcDbArc
 50
255.522488
 51
284.477512
  0
LINE
  5
317
330
36
100
AcDbEntity
  8
0
100
AcDbLine
 10
-595.9258319999999
 20
-910.3855969999999
 30
0.0
 11
-595.9258319999999
 21
-911.103843
 31
0.0
  0
LINE
  5
318
330
36
100
AcDbEntity
  8
0
100
AcDbLine
 10
-595.2075859999998
 20
-910.3855969999999
 30
0.0
 11
-595.9258319999999
 21
-910.3855969999999
 31
0.0
  0
ARC
  5
319
330
36
100
AcDbEntity
  8
0
100
AcDbCircle
 10
-596.175832
 20
-910.135597
 30
0.0
 40
1.0
100
AcDbArc
 50
345.522488
 51
14.477512
  0
LINE
  5
31A
330
36
100
AcDbEntity
  8
0
100
AcDbLine
 10
-595.2075859999998
 20
-909.885597
 30
0.0
 11
-595.9258319999999
 21
-909.885597
 31
0.0
  0
LINE
  5
31B
330
36
100
AcDbEntity
  8
0
100
AcDbLine
 10
-595.9258319999999
 20
-909.1673510000001
 30
0.0
 11
-595.9258319999999
 21
-909.885597
 31
0.0
  0
ARC
  5
31C
330
36
100
AcDbEntity
  8
0
100
AcDbCircle
 10
-596.175832
 20
-910.135597
 30
0.0
 40
1.0
100
AcDbArc
 50
75.522488
 51
104.477512
  0
LINE
  5
31D
330
36
100
AcDbEntity
  8
0
100
AcDbLine
 10
-596.4258319999999
 20
-909.1673510000001
 30
0.0
 11
-596.4258319999999
 21
-909.885597
 31
0.0
  0
LINE
  5
31E
330
36
100
AcDbEntity
  8
0
100
AcDbLine
 10
-596.4258319999999
 20
-909.885597
 30
0.0
 11
-597.144078
 21
-909.885597
 31
0.0
  0
ARC
  5
31F
330
36
100
AcDbEntity
  8
0
100
AcDbCircle
 10
-596.175832
 20
-910.135597
 30
0.0
 40
1.0
100
AcDbArc
 50
165.522488
 51
194.477512
  0
CIRCLE
  5
320
330
36
100
AcDbEntity
  8
0
100
AcDbCircle
 10
-582.1758319999998
 20
-968.6355969999999
 30
0.0
 40
2.0
  0
ARC
  5
321
330
36
100
AcDbEntity
  8
0
100
AcDbCircle
 10
-582.1758319999998
 20
-968.6355969999999
 30
0.0
 40
1.0
100
AcDbArc
 50
345.522488
 51
14.477512
  0
LINE
  5
322
330
36
100
AcDbEntity
  8
0
100
AcDbLine
 10
-581.925832
 20
-968.885597
 30
0.0
 11
-581.207586
 21
-968.885597
 31
0.0
  0
LINE
  5
323
330
36
100
AcDbEntity
  8
0
100
AcDbLine
 10
-581.925832
 20
-968.885597
 30
0.0
 11
-581.925832
 21
-969.6038429999999
 31
0.0
  0
ARC
  5
324
330
36
100
AcDbEntity
  8
0
100
AcDbCircle
 10
-582.1758319999998
 20
-968.6355969999999
 30
0.0
 40
1.0
100
AcDbArc
 50
255.522488
 51
284.477512
  0
LINE
  5
325
330
36
100
AcDbEntity
  8
0
100
AcDbLine
 10
-582.425832
 20
-968.885597
 30
0.0
 11
-582.425832
 21
-969.6038429999999
 31
0.0
  0
LINE
  5
326
330
36
100
AcDbEntity
  8
0
100
AcDbLine
 10
-583.144078
 20
-968.885597
 30
0.0
 11
-582.425832
 21
-968.885597
 31
0.0
  0
ARC
  5
327
330
36
100
AcDbEntity
  8
0
100
AcDbCircle
 10
-582.1758319999998
 20
-968.6355969999999
 30
0.0
 40
1.0
100
AcDbArc
 50
165.522488
 51
194.477512
  0
LINE
  5
328
330
36
100
AcDbEntity
  8
0
100
AcDbLine
 10
-583.144078
 20
-968.3855969999999
 30
0.0
 11
-582.425832
 21
-968.3855969999999
 31
0.0
  0
LINE
  5
329
330
36
100
AcDbEntity
  8
0
100
AcDbLine
 10
-582.425832
 20
-967.6673509999996
 30
0.0
 11
-582.425832
 21
-968.3855969999999
 31
0.0
  0
ARC
  5
32A
330
36
100
AcDbEntity
  8
0
100
AcDbCircle
 10
-582.1758319999998
 20
-968.6355969999999
 30
0.0
 40
1.0
100
AcDbArc
 50
75.522488
 51
104.477512
  0
LINE
  5
32B
330
36
100
AcDbEntity
  8
0
100
AcDbLine
 10
-581.925832
 20
-967.6673509999996
 30
0.0
 11
-581.925832
 21
-968.3855969999999
 31
0.0
  0
LINE
  5
32C
330
36
100
AcDbEntity
  8
0
100
AcDbLine
 10
-581.925832
 20
-968.3855969999999
 30
0.0
 11
-581.207586
 21
-968.3855969999999
 31
0.0
  0
CIRCLE
  5
32D
330
36
100
AcDbEntity
  8
0
100
AcDbCircle
 10
-610.175832
 20
-968.6355969999999
 30
0.0
 40
2.0
  0
LINE
  5
32E
330
36
100
AcDbEntity
  8
0
100
AcDbLine
 10
-610.425832
 20
-968.885597
 30
0.0
 11
-611.144078
 21
-968.885597
 31
0.0
  0
LINE
  5
32F
330
36
100
AcDbEntity
  8
0
100
AcDbLine
 10
-610.425832
 20
-968.885597
 30
0.0
 11
-610.425832
 21
-969.6038429999999
 31
0.0
  0
ARC
  5
330
330
36
100
AcDbEntity
  8
0
100
AcDbCircle
 10
-610.175832
 20
-968.6355969999999
 30
0.0
 40
1.0
100
AcDbArc
 50
255.522488
 51
284.477512
  0
LINE
  5
331
330
36
100
AcDbEntity
  8
0
100
AcDbLine
 10
-609.925832
 20
-968.885597
 30
0.0
 11
-609.925832
 21
-969.6038429999999
 31
0.0
  0
LINE
  5
332
330
36
100
AcDbEntity
  8
0
100
AcDbLine
 10
-609.207586
 20
-968.885597
 30
0.0
 11
-609.925832
 21
-968.885597
 31
0.0
  0
ARC
  5
333
330
36
100
AcDbEntity
  8
0
100
AcDbCircle
 10
-610.175832
 20
-968.6355969999999
 30
0.0
 40
1.0
100
AcDbArc
 50
345.522488
 51
14.477512
  0
LINE
  5
334
330
36
100
AcDbEntity
  8
0
100
AcDbLine
 10
-609.207586
 20
-968.3855969999999
 30
0.0
 11
-609.925832
 21
-968.3855969999999
 31
0.0
  0
LINE
  5
335
330
36
100
AcDbEntity
  8
0
100
AcDbLine
 10
-609.925832
 20
-967.6673509999996
 30
0.0
 11
-609.925832
 21
-968.3855969999999
 31
0.0
  0
ARC
  5
336
330
36
100
AcDbEntity
  8
0
100
AcDbCircle
 10
-610.175832
 20
-968.6355969999999
 30
0.0
 40
1.0
100
AcDbArc
 50
75.522488
 51
104.477512
  0
LINE
  5
337
330
36
100
AcDbEntity
  8
0
100
AcDbLine
 10
-610.425832
 20
-967.6673509999996
 30
0.0
 11
-610.425832
 21
-968.3855969999999
 31
0.0
  0
LINE
  5
338
330
36
100
AcDbEntity
  8
0
100
AcDbLine
 10
-610.425832
 20
-968.3855969999999
 30
0.0
 11
-611.144078
 21
-968.3855969999999
 31
0.0
  0
ARC
  5
339
330
36
100
AcDbEntity
  8
0
100
AcDbCircle
 10
-610.175832
 20
-968.6355969999999
 30
0.0
 40
1.0
100
AcDbArc
 50
165.522488
 51
194.477512
  0
CIRCLE
  5
33A
330
36
100
AcDbEntity
  8
0
100
AcDbCircle
 10
-601.175832
 20
-983.6355969999999
 30
0.0
 40
2.0
  0
ARC
  5
33B
330
36
100
AcDbEntity
  8
0
100
AcDbCircle
 10
-601.175832
 20
-983.6355969999999
 30
0.0
 40
1.0
100
AcDbArc
 50
165.522488
 51
194.477512
  0
LINE
  5
33C
330
36
100
AcDbEntity
  8
0
100
AcDbLine
 10
-601.425832
 20
-983.885597
 30
0.0
 11
-602.144078
 21
-983.885597
 31
0.0
  0
LINE
  5
33D
330
36
100
AcDbEntity
  8
0
100
AcDbLine
 10
-601.425832
 20
-983.885597
 30
0.0
 11
-601.425832
 21
-984.603843
 31
0.0
  0
ARC
  5
33E
330
36
100
AcDbEntity
  8
0
100
AcDbCircle
 10
-601.175832
 20
-983.6355969999999
 30
0.0
 40
1.0
100
AcDbArc
 50
255.522488
 51
284.477512
  0
LINE
  5
33F
330
36
100
AcDbEntity
  8
0
100
AcDbLine
 10
-600.925832
 20
-983.885597
 30
0.0
 11
-600.925832
 21
-984.603843
 31
0.0
  0
LINE
  5
340
330
36
100
AcDbEntity
  8
0
100
AcDbLine
 10
-600.2075859999997
 20
-983.885597
 30
0.0
 11
-600.925832
 21
-983.885597
 31
0.0
  0
ARC
  5
341
330
36
100
AcDbEntity
  8
0
100
AcDbCircle
 10
-601.175832
 20
-983.6355969999999
 30
0.0
 40
1.0
100
AcDbArc
 50
345.522488
 51
14.477512
  0
LINE
  5
342
330
36
100
AcDbEntity
  8
0
100
AcDbLine
 10
-600.2075859999997
 20
-983.385597
 30
0.0
 11
-600.925832
 21
-983.385597
 31
0.0
  0
LINE
  5
343
330
36
100
AcDbEntity
  8
0
100
AcDbLine
 10
-600.925832
 20
-982.6673509999999
 30
0.0
 11
-600.925832
 21
-983.385597
 31
0.0
  0
ARC
  5
344
330
36
100
AcDbEntity
  8
0
100
AcDbCircle
 10
-601.175832
 20
-983.6355969999999
 30
0.0
 40
1.0
100
AcDbArc
 50
75.522488
 51
104.477512
  0
LINE
  5
345
330
36
100
AcDbEntity
  8
0
100
AcDbLine
 10
-601.425832
 20
-982.6673509999999
 30
0.0
 11
-601.425832
 21
-983.385597
 31
0.0
  0
LINE
  5
346
330
36
100
AcDbEntity
  8
0
100
AcDbLine
 10
-601.425832
 20
-983.385597
 30
0.0
 11
-602.144078
 21
-983.385597
 31
0.0
  0
CIRCLE
  5
347
330
36
100
AcDbEntity
  8
0
100
AcDbCircle
 10
-561.1758319999998
 20
-983.6355969999999
 30
0.0
 40
2.0
  0
ARC
  5
348
330
36
100
AcDbEntity
  8
0
100
AcDbCircle
 10
-561.1758319999998
 20
-983.6355969999999
 30
0.0
 40
1.0
100
AcDbArc
 50
345.522488
 51
14.477512
  0
LINE
  5
349
330
36
100
AcDbEntity
  8
0
100
AcDbLine
 10
-560.925832
 20
-983.885597
 30
0.0
 11
-560.207586
 21
-983.885597
 31
0.0
  0
LINE
  5
34A
330
36
100
AcDbEntity
  8
0
100
AcDbLine
 10
-560.925832
 20
-983.885597
 30
0.0
 11
-560.925832
 21
-984.603843
 31
0.0
  0
ARC
  5
34B
330
36
100
AcDbEntity
  8
0
100
AcDbCircle
 10
-561.1758319999998
 20
-983.6355969999999
 30
0.0
 40
1.0
100
AcDbArc
 50
255.522488
 51
284.477512
  0
LINE
  5
34C
330
36
100
AcDbEntity
  8
0
100
AcDbLine
 10
-561.425832
 20
-983.885597
 30
0.0
 11
-561.425832
 21
-984.603843
 31
0.0
  0
LINE
  5
34D
330
36
100
AcDbEntity
  8
0
100
AcDbLine
 10
-562.144078
 20
-983.885597
 30
0.0
 11
-561.425832
 21
-983.885597
 31
0.0
  0
ARC
  5
34E
330
36
100
AcDbEntity
  8
0
100
AcDbCircle
 10
-561.1758319999998
 20
-983.6355969999999
 30
0.0
 40
1.0
100
AcDbArc
 50
165.522488
 51
194.477512
  0
LINE
  5
34F
330
36
100
AcDbEntity
  8
0
100
AcDbLine
 10
-562.144078
 20
-983.385597
 30
0.0
 11
-561.425832
 21
-983.385597
 31
0.0
  0
LINE
  5
350
330
36
100
AcDbEntity
  8
0
100
AcDbLine
 10
-561.425832
 20
-982.6673509999999
 30
0.0
 11
-561.425832
 21
-983.385597
 31
0.0
  0
ARC
  5
351
330
36
100
AcDbEntity
  8
0
100
AcDbCircle
 10
-561.1758319999998
 20
-983.6355969999999
 30
0.0
 40
1.0
100
AcDbArc
 50
75.522488
 51
104.477512
  0
LINE
  5
352
330
36
100
AcDbEntity
  8
0
100
AcDbLine
 10
-560.925832
 20
-982.6673509999999
 30
0.0
 11
-560.925832
 21
-983.385597
 31
0.0
  0
LINE
  5
353
330
36
100
AcDbEntity
  8
0
100
AcDbLine
 10
-560.925832
 20
-983.385597
 30
0.0
 11
-560.207586
 21
-983.385597
 31
0.0
  0
LINE
  5
354
330
36
100
AcDbEntity
  8
0
100
AcDbLine
 10
-511.617274
 20
-971.385597
 30
0.0
 11
-511.617274
 21
-966.885597
 31
0.0
  0
ARC
  5
355
330
36
100
AcDbEntity
  8
0
100
AcDbCircle
 10
-510.1172739999998
 20
-967.3855969999999
 30
0.0
 40
0.5
100
AcDbArc
 50
270.0
 51
90.0
  0
ARC
  5
356
330
36
100
AcDbEntity
  8
0
100
AcDbCircle
 10
-510.1172739999998
 20
-970.3855969999999
 30
0.0
 40
0.5
100
AcDbArc
 50
270.0
 51
90.0
  0
ARC
  5
357
330
36
100
AcDbEntity
  8
0
100
AcDbCircle
 10
-510.867274
 20
-968.885597
 30
0.0
 40
1.25
100
AcDbArc
 50
306.869898
 51
53.130102
  0
LINE
  5
358
330
36
100
AcDbEntity
  8
0
100
AcDbLine
 10
-511.617274
 20
-967.885597
 30
0.0
 11
-510.1172739999998
 21
-967.885597
 31
0.0
  0
LINE
  5
359
330
36
100
AcDbEntity
  8
0
100
AcDbLine
 10
-511.617274
 20
-969.885597
 30
0.0
 11
-510.1172739999998
 21
-969.885597
 31
0.0
  0
LINE
  5
35A
330
36
100
AcDbEntity
  8
0
100
AcDbLine
 10
-510.1172739999998
 20
-970.885597
 30
0.0
 11
-511.617274
 21
-970.885597
 31
0.0
  0
LINE
  5
35B
330
36
100
AcDbEntity
  8
0
100
AcDbLine
 10
-512.117274
 20
-971.8855969999999
 30
0.0
 11
-512.117274
 21
-966.885597
 31
0.0
  0
LINE
  5
35C
330
36
100
AcDbEntity
  8
0
100
AcDbLine
 10
-511.617274
 20
-971.385597
 30
0.0
 11
-512.117274
 21
-971.385597
 31
0.0
  0
LINE
  5
35D
330
36
100
AcDbEntity
  8
0
100
AcDbLine
 10
-509.617274
 20
-970.3855969999999
 30
0.0
 11
-509.617274
 21
-967.3855969999999
 31
0.0
  0
LINE
  5
35E
330
36
100
AcDbEntity
  8
0
100
AcDbLine
 10
-510.1172739999998
 20
-966.885597
 30
0.0
 11
-512.117274
 21
-966.885597
 31
0.0
  0
ARC
  5
376
330
36
100
AcDbEntity
  8
0
100
AcDbCircle
 10
-503.617274
 20
-975.735597
 30
0.0
 40
3.75
100
AcDbArc
 50
317.166572
 51
222.833428
  0
LINE
  5
377
330
36
100
AcDbEntity
  8
0
100
AcDbLine
 10
-515.217274
 20
-985.635597
 30
0.0
 11
-517.6172740000001
 21
-990.6355969999999
 31
0.0
  0
LINE
  5
378
330
36
100
AcDbEntity
  8
0
100
AcDbLine
 10
-514.617274
 20
-985.772139
 30
0.0
 11
-517.017274
 21
-990.772139
 31
0.0
  0
LINE
  5
379
330
36
100
AcDbEntity
  8
0
100
AcDbLine
 10
-517.017274
 20
-990.772139
 30
0.0
 11
-517.017274
 21
-995.635597
 31
0.0
  0
LINE
  5
37A
330
36
100
AcDbEntity
  8
0
100
AcDbLine
 10
-517.6172740000001
 20
-990.6355969999999
 30
0.0
 11
-517.6172740000001
 21
-995.635597
 31
0.0
  0
LINE
  5
37B
330
36
100
AcDbEntity
  8
0
100
AcDbLine
 10
-517.017274
 20
-995.635597
 30
0.0
 11
-517.6172740000001
 21
-995.635597
 31
0.0
  0
LINE
  5
37C
330
36
100
AcDbEntity
  8
0
100
AcDbLine
 10
-515.217274
 20
-980.635597
 30
0.0
 11
-515.217274
 21
-985.635597
 31
0.0
  0
LINE
  5
37D
330
36
100
AcDbEntity
  8
0
100
AcDbLine
 10
-515.217274
 20
-980.635597
 30
0.0
 11
-514.617274
 21
-980.635597
 31
0.0
  0
LINE
  5
3E6
330
36
100
AcDbEntity
  8
0
100
AcDbLine
 10
-517.017274
 20
-884.4990539999999
 30
0.0
 11
-517.017274
 21
-879.635597
 31
0.0
  0
LINE
  5
3E7
330
36
100
AcDbEntity
  8
0
100
AcDbLine
 10
-517.6172740000001
 20
-884.6355970000002
 30
0.0
 11
-517.6172740000001
 21
-879.635597
 31
0.0
  0
LINE
  5
3E8
330
36
100
AcDbEntity
  8
0
100
AcDbLine
 10
-517.017274
 20
-879.635597
 30
0.0
 11
-517.6172740000001
 21
-879.635597
 31
0.0
  0
LINE
  5
3E9
330
36
100
AcDbEntity
  8
0
100
AcDbLine
 10
-515.217274
 20
-889.635597
 30
0.0
 11
-517.6172740000001
 21
-884.6355970000002
 31
0.0
  0
LINE
  5
3EA
330
36
100
AcDbEntity
  8
0
100
AcDbLine
 10
-514.617274
 20
-889.4990539999996
 30
0.0
 11
-517.017274
 21
-884.4990539999999
 31
0.0
  0
LINE
  5
3EB
330
36
100
AcDbEntity
  8
0
100
AcDbLine
 10
-515.217274
 20
-894.635597
 30
0.0
 11
-515.217274
 21
-889.635597
 31
0.0
  0
LINE
  5
3EC
330
36
100
AcDbEntity
  8
0
100
AcDbLine
 10
-514.617274
 20
-894.635597
 30
0.0
 11
-515.217274
 21
-894.635597
 31
0.0
  0
LINE
  5
3F1
330
36
100
AcDbEntity
  8
0
100
AcDbLine
 10
-362.417274
 20
-915.6355969999999
 30
0.0
 11
-362.417274
 21
-922.635597
 31
0.0
  0
LINE
  5
3F2
330
36
100
AcDbEntity
  8
0
100
AcDbLine
 10
-362.817274
 20
-915.6355969999999
 30
0.0
 11
-362.817274
 21
-922.635597
 31
0.0
  0
LINE
  5
3F3
330
36
100
AcDbEntity
  8
0
100
AcDbLine
 10
-362.417274
 20
-922.635597
 30
0.0
 11
-362.817274
 21
-922.635597
 31
0.0
  0
LINE
  5
3F6
330
36
100
AcDbEntity
  8
0
 62
     3
100
AcDbLine
 10
-339.985917
 20
-982.1645569999999
 30
0.0
 11
-339.985917
 21
-986.196557
 31
0.0
  0
LINE
  5
3F7
330
36
100
AcDbEntity
  8
0
 62
     3
100
AcDbLine
 10
-337.772577
 20
-982.6552799999999
 30
0.0
 11
-339.985917
 21
-986.196557
 31
0.0
  0
LINE
  5
3F8
330
36
100
AcDbEntity
  8
0
 62
     3
100
AcDbLine
 10
-339.985917
 20
-982.1645569999999
 30
0.0
 11
-342.199257
 21
-985.705834
 31
0.0
  0
CIRCLE
  5
3FB
330
36
100
AcDbEntity
  8
0
 62
     3
100
AcDbCircle
 10
-396.843881
 20
-1018.80242
 30
0.0
 40
1.389630999999999
  0
LINE
  5
3FC
330
36
100
AcDbEntity
  8
0
 62
     3
100
AcDbLine
 10
-396.843881
 20
-1017.412789
 30
0.0
 11
-396.843881
 21
-1020.192051
 31
0.0
  0
LINE
  5
3FD
330
36
100
AcDbEntity
  8
0
 62
     3
100
AcDbLine
 10
-396.843881
 20
-1020.192051
 30
0.0
 11
-395.305396
 21
-1017.697649
 31
0.0
  0
LINE
  5
3FE
330
36
100
AcDbEntity
  8
0
 62
     3
100
AcDbLine
 10
-396.843881
 20
-1017.412789
 30
0.0
 11
-398.379273
 21
-1019.819057
 31
0.0
  0
LINE
  5
403
330
36
100
AcDbEntity
  8
0
100
AcDbLine
 10
-313.1858205920092
 20
-912.9761929999999
 30
0.0
 11
-303.1359785920092
 21
-868.903489
 31
0.0
  0
CIRCLE
  5
404
330
36
100
AcDbEntity
  8
0
100
AcDbCircle
 10
-304.402371
 20
-864.028622
 30
0.0
 40
5.0
  0
TEXT
  5
405
330
36
100
AcDbEntity
  8
0
 62
     4
100
AcDbText
 10
-306.5590822659989
 20
-867.2035079867757
 30
0.0
 40
6.299999999999998
  1
6
  7
高6.3
100
AcDbText
  0
LINE
  5
406
330
36
100
AcDbEntity
  8
0
 62
     3
100
AcDbLine
 10
-365.617274
 20
-916.3110409999999
 30
0.0
 11
-365.617274
 21
-928.9601519999999
 31
0.0
  0
LINE
  5
407
330
36
100
AcDbEntity
  8
0
 62
     3
100
AcDbLine
 10
-359.617274
 20
-916.3110409999999
 30
0.0
 11
-359.617274
 21
-928.9601519999999
 31
0.0
  0
CIRCLE
  5
408
330
36
100
AcDbEntity
  8
0
 62
     3
100
AcDbCircle
 10
-362.617274
 20
-922.635597
 30
0.0
 40
7.0
  0
LINE
  5
409
330
36
100
AcDbEntity
  8
0
 62
     3
100
AcDbLine
 10
-556.175832
 20
-887.635597
 30
0.0
 11
-548.6758319999998
 21
-887.635597
 31
0.0
  0
ARC
  5
40A
330
36
100
AcDbEntity
  8
0
 62
     3
100
AcDbCircle
 10
-548.6758319999998
 20
-892.6355970000001
 30
0.0
 40
5.0
100
AcDbArc
 50
0.0
 51
90.0
  0
TEXT
  5
412
330
36
100
AcDbEntity
  8
0
100
AcDbText
 10
-313.414877
 20
-902.7627929999999
 30
0.0
 40
2.048
  1
5
 41
0.859375
100
AcDbText
  0
TEXT
  5
413
330
36
100
AcDbEntity
  8
0
100
AcDbText
 10
-315.334877
 20
-902.7627929999999
 30
0.0
 40
2.048
  1
7
 41
0.859375
100
AcDbText
  0
TEXT
  5
414
330
36
100
AcDbEntity
  8
0
100
AcDbText
 10
-317.254877
 20
-902.7627929999999
 30
0.0
 40
2.048
  1
0
 41
1.03125
100
AcDbText
  0
TEXT
  5
415
330
36
100
AcDbEntity
  8
0
100
AcDbText
 10
-319.174877
 20
-902.7627929999999
 30
0.0
 40
2.048
  1
ー
 41
0.716146
100
AcDbText
  0
TEXT
  5
416
330
36
100
AcDbEntity
  8
0
100
AcDbText
 10
-321.094877
 20
-902.7627929999999
 30
0.0
 40
2.048
  1
C
 41
0.859375
100
AcDbText
  0
TEXT
  5
417
330
36
100
AcDbEntity
  8
0
100
AcDbText
 10
-323.014877
 20
-902.7627929999999
 30
0.0
 40
2.048
  1
S
 41
0.859375
100
AcDbText
  0
TEXT
  5
418
330
36
100
AcDbEntity
  8
0
100
AcDbText
 10
-324.934877
 20
-902.7627929999999
 30
0.0
 40
2.048
  1
式
 41
0.716146
100
AcDbText
  0
TEXT
  5
419
330
36
100
AcDbEntity
  8
0
100
AcDbText
 10
-326.854877
 20
-902.7627929999999
 30
0.0
 40
2.048
  1
型
 41
0.716146
100
AcDbText
  0
ARC
  5
434
330
36
100
AcDbEntity
  8
0
100
AcDbCircle
 10
-381.795106
 20
-980.2105969999999
 30
0.0
 40
1.0
100
AcDbArc
 50
180.0
 51
270.0
  0
LINE
  5
435
330
36
100
AcDbEntity
  8
0
100
AcDbLine
 10
-382.795106
 20
-980.2105969999999
 30
0.0
 11
-382.795106
 21
-975.7105969999999
 31
0.0
  0
LINE
  5
436
330
36
100
AcDbEntity
  8
0
100
AcDbLine
 10
-382.795106
 20
-971.2105969999999
 30
0.0
 11
-382.795106
 21
-975.7105969999999
 31
0.0
  0
ARC
  5
437
330
36
100
AcDbEntity
  8
0
100
AcDbCircle
 10
-381.795106
 20
-971.2105969999999
 30
0.0
 40
1.0
100
AcDbArc
 50
90.0
 51
180.0
  0
LINE
  5
438
330
36
100
AcDbEntity
  8
0
100
AcDbLine
 10
-424.667236
 20
-946.421518
 30
0.0
 11
-405.167236
 21
-946.421518
 31
0.0
  0
LINE
  5
439
330
36
100
AcDbEntity
  8
0
100
AcDbLine
 10
-464.867274
 20
-975.408518
 30
0.0
 11
-464.867274
 21
-976.1267639999999
 31
0.0
  0
LINE
  5
43A
330
36
100
AcDbEntity
  8
0
100
AcDbLine
 10
-464.367274
 20
-975.408518
 30
0.0
 11
-464.367274
 21
-976.1267639999999
 31
0.0
  0
ARC
  5
43B
330
36
100
AcDbEntity
  8
0
 62
     3
100
AcDbCircle
 10
-503.617274
 20
-975.735597
 30
0.0
 40
2.75
100
AcDbArc
 50
0.0
 51
180.0
  0
CIRCLE
  5
43C
330
36
100
AcDbEntity
  8
0
100
AcDbCircle
 10
-561.1758319999998
 20
-882.6355970000001
 30
0.0
 40
1.125
  0
CIRCLE
  5
43D
330
36
100
AcDbEntity
  8
0
100
AcDbCircle
 10
-581.175832
 20
-882.6355970000001
 30
0.0
 40
1.125
  0
CIRCLE
  5
43E
330
36
100
AcDbEntity
  8
0
100
AcDbCircle
 10
-601.175832
 20
-882.6355970000001
 30
0.0
 40
1.125
  0
ARC
  5
43F
330
36
100
AcDbEntity
  8
0
100
AcDbCircle
 10
-611.675832
 20
-923.8855969999999
 30
0.0
 40
1.0
100
AcDbArc
 50
0.0
 51
180.0
  0
ARC
  5
440
330
36
100
AcDbEntity
  8
0
100
AcDbCircle
 10
-608.175832
 20
-923.8855969999999
 30
0.0
 40
1.0
100
AcDbArc
 50
0.0
 51
180.0
  0
ARC
  5
441
330
36
100
AcDbEntity
  8
0
100
AcDbCircle
 10
-601.175832
 20
-923.8855969999999
 30
0.0
 40
1.0
100
AcDbArc
 50
0.0
 51
180.0
  0
ARC
  5
442
330
36
100
AcDbEntity
  8
0
100
AcDbCircle
 10
-604.675832
 20
-923.8855969999999
 30
0.0
 40
1.0
100
AcDbArc
 50
0.0
 51
180.0
  0
ARC
  5
443
330
36
100
AcDbEntity
  8
0
100
AcDbCircle
 10
-597.675832
 20
-923.8855969999999
 30
0.0
 40
1.0
100
AcDbArc
 50
0.0
 51
180.0
  0
ARC
  5
444
330
36
100
AcDbEntity
  8
0
100
AcDbCircle
 10
-587.175832
 20
-923.8855969999999
 30
0.0
 40
1.0
100
AcDbArc
 50
0.0
 51
180.0
  0
ARC
  5
445
330
36
100
AcDbEntity
  8
0
100
AcDbCircle
 10
-590.675832
 20
-923.8855969999999
 30
0.0
 40
1.0
100
AcDbArc
 50
0.0
 51
180.0
  0
ARC
  5
446
330
36
100
AcDbEntity
  8
0
100
AcDbCircle
 10
-594.1758319999999
 20
-923.8855969999999
 30
0.0
 40
1.0
100
AcDbArc
 50
0.0
 51
180.0
  0
ARC
  5
447
330
36
100
AcDbEntity
  8
0
100
AcDbCircle
 10
-583.675832
 20
-923.8855969999999
 30
0.0
 40
1.0
100
AcDbArc
 50
0.0
 51
180.0
  0
ARC
  5
448
330
36
100
AcDbEntity
  8
0
100
AcDbCircle
 10
-580.175832
 20
-923.8855969999999
 30
0.0
 40
1.0
100
AcDbArc
 50
0.0
 51
180.0
  0
ARC
  5
449
330
36
100
AcDbEntity
  8
0
100
AcDbCircle
 10
-611.675832
 20
-954.385597
 30
0.0
 40
1.0
100
AcDbArc
 50
180.0
 51
0.0
  0
ARC
  5
44A
330
36
100
AcDbEntity
  8
0
100
AcDbCircle
 10
-608.175832
 20
-954.385597
 30
0.0
 40
1.0
100
AcDbArc
 50
180.0
 51
0.0
  0
ARC
  5
44B
330
36
100
AcDbEntity
  8
0
100
AcDbCircle
 10
-604.675832
 20
-954.385597
 30
0.0
 40
1.0
100
AcDbArc
 50
180.0
 51
0.0
  0
ARC
  5
44C
330
36
100
AcDbEntity
  8
0
100
AcDbCircle
 10
-601.175832
 20
-954.385597
 30
0.0
 40
1.0
100
AcDbArc
 50
180.0
 51
0.0
  0
ARC
  5
44D
330
36
100
AcDbEntity
  8
0
100
AcDbCircle
 10
-597.675832
 20
-954.385597
 30
0.0
 40
1.0
100
AcDbArc
 50
180.0
 51
0.0
  0
ARC
  5
44E
330
36
100
AcDbEntity
  8
0
100
AcDbCircle
 10
-594.1758319999999
 20
-954.385597
 30
0.0
 40
1.0
100
AcDbArc
 50
180.0
 51
0.0
  0
ARC
  5
44F
330
36
100
AcDbEntity
  8
0
100
AcDbCircle
 10
-590.675832
 20
-954.385597
 30
0.0
 40
1.0
100
AcDbArc
 50
180.0
 51
0.0
  0
ARC
  5
450
330
36
100
AcDbEntity
  8
0
100
AcDbCircle
 10
-587.175832
 20
-954.385597
 30
0.0
 40
1.0
100
AcDbArc
 50
180.0
 51
0.0
  0
ARC
  5
451
330
36
100
AcDbEntity
  8
0
100
AcDbCircle
 10
-583.675832
 20
-954.385597
 30
0.0
 40
1.0
100
AcDbArc
 50
180.0
 51
0.0
  0
ARC
  5
452
330
36
100
AcDbEntity
  8
0
100
AcDbCircle
 10
-580.175832
 20
-954.385597
 30
0.0
 40
1.0
100
AcDbArc
 50
180.0
 51
0.0
  0
ARC
  5
453
330
36
100
AcDbEntity
  8
0
100
AcDbCircle
 10
-611.675832
 20
-936.885597
 30
0.0
 40
1.0
100
AcDbArc
 50
180.0
 51
0.0
  0
ARC
  5
454
330
36
100
AcDbEntity
  8
0
100
AcDbCircle
 10
-608.175832
 20
-936.885597
 30
0.0
 40
1.0
100
AcDbArc
 50
180.0
 51
0.0
  0
ARC
  5
455
330
36
100
AcDbEntity
  8
0
100
AcDbCircle
 10
-604.675832
 20
-936.885597
 30
0.0
 40
1.0
100
AcDbArc
 50
180.0
 51
0.0
  0
ARC
  5
456
330
36
100
AcDbEntity
  8
0
100
AcDbCircle
 10
-601.175832
 20
-936.885597
 30
0.0
 40
1.0
100
AcDbArc
 50
180.0
 51
0.0
  0
ARC
  5
457
330
36
100
AcDbEntity
  8
0
100
AcDbCircle
 10
-597.675832
 20
-936.885597
 30
0.0
 40
1.0
100
AcDbArc
 50
180.0
 51
0.0
  0
ARC
  5
458
330
36
100
AcDbEntity
  8
0
100
AcDbCircle
 10
-594.1758319999999
 20
-936.885597
 30
0.0
 40
1.0
100
AcDbArc
 50
180.0
 51
0.0
  0
ARC
  5
459
330
36
100
AcDbEntity
  8
0
100
AcDbCircle
 10
-590.675832
 20
-936.885597
 30
0.0
 40
1.0
100
AcDbArc
 50
180.0
 51
0.0
  0
ARC
  5
45A
330
36
100
AcDbEntity
  8
0
100
AcDbCircle
 10
-587.175832
 20
-936.885597
 30
0.0
 40
1.0
100
AcDbArc
 50
180.0
 51
0.0
  0
ARC
  5
45B
330
36
100
AcDbEntity
  8
0
100
AcDbCircle
 10
-583.675832
 20
-936.885597
 30
0.0
 40
1.0
100
AcDbArc
 50
180.0
 51
0.0
  0
ARC
  5
45C
330
36
100
AcDbEntity
  8
0
100
AcDbCircle
 10
-580.175832
 20
-936.885597
 30
0.0
 40
1.0
100
AcDbArc
 50
180.0
 51
0.0
  0
ARC
  5
45D
330
36
100
AcDbEntity
  8
0
100
AcDbCircle
 10
-611.675832
 20
-941.385597
 30
0.0
 40
1.0
100
AcDbArc
 50
0.0
 51
180.0
  0
ARC
  5
45E
330
36
100
AcDbEntity
  8
0
100
AcDbCircle
 10
-608.175832
 20
-941.385597
 30
0.0
 40
1.0
100
AcDbArc
 50
0.0
 51
180.0
  0
ARC
  5
45F
330
36
100
AcDbEntity
  8
0
100
AcDbCircle
 10
-604.675832
 20
-941.385597
 30
0.0
 40
1.0
100
AcDbArc
 50
0.0
 51
180.0
  0
ARC
  5
460
330
36
100
AcDbEntity
  8
0
100
AcDbCircle
 10
-601.175832
 20
-941.385597
 30
0.0
 40
1.0
100
AcDbArc
 50
0.0
 51
180.0
  0
ARC
  5
461
330
36
100
AcDbEntity
  8
0
100
AcDbCircle
 10
-597.675832
 20
-941.385597
 30
0.0
 40
1.0
100
AcDbArc
 50
0.0
 51
180.0
  0
ARC
  5
462
330
36
100
AcDbEntity
  8
0
100
AcDbCircle
 10
-594.1758319999999
 20
-941.385597
 30
0.0
 40
1.0
100
AcDbArc
 50
0.0
 51
180.0
  0
ARC
  5
463
330
36
100
AcDbEntity
  8
0
100
AcDbCircle
 10
-590.675832
 20
-941.385597
 30
0.0
 40
1.0
100
AcDbArc
 50
0.0
 51
180.0
  0
ARC
  5
464
330
36
100
AcDbEntity
  8
0
100
AcDbCircle
 10
-587.175832
 20
-941.385597
 30
0.0
 40
1.0
100
AcDbArc
 50
0.0
 51
180.0
  0
ARC
  5
465
330
36
100
AcDbEntity
  8
0
100
AcDbCircle
 10
-583.675832
 20
-941.385597
 30
0.0
 40
1.0
100
AcDbArc
 50
0.0
 51
180.0
  0
ARC
  5
466
330
36
100
AcDbEntity
  8
0
100
AcDbCircle
 10
-580.175832
 20
-941.385597
 30
0.0
 40
1.0
100
AcDbArc
 50
0.0
 51
180.0
  0
LINE
  5
467
330
36
100
AcDbEntity
  8
0
100
AcDbLine
 10
-612.675832
 20
-923.8855969999999
 30
0.0
 11
-612.675832
 21
-936.885597
 31
0.0
  0
LINE
  5
468
330
36
100
AcDbEntity
  8
0
100
AcDbLine
 10
-612.675832
 20
-941.385597
 30
0.0
 11
-612.675832
 21
-954.385597
 31
0.0
  0
LINE
  5
469
330
36
100
AcDbEntity
  8
0
100
AcDbLine
 10
-610.6758319999999
 20
-923.8855969999999
 30
0.0
 11
-610.6758319999999
 21
-936.885597
 31
0.0
  0
LINE
  5
46A
330
36
100
AcDbEntity
  8
0
100
AcDbLine
 10
-610.6758319999999
 20
-941.385597
 30
0.0
 11
-610.6758319999999
 21
-954.385597
 31
0.0
  0
LINE
  5
46B
330
36
100
AcDbEntity
  8
0
100
AcDbLine
 10
-609.175832
 20
-923.8855969999999
 30
0.0
 11
-609.175832
 21
-936.885597
 31
0.0
  0
LINE
  5
46C
330
36
100
AcDbEntity
  8
0
100
AcDbLine
 10
-609.175832
 20
-941.385597
 30
0.0
 11
-609.175832
 21
-954.385597
 31
0.0
  0
LINE
  5
46D
330
36
100
AcDbEntity
  8
0
100
AcDbLine
 10
-607.175832
 20
-923.8855969999999
 30
0.0
 11
-607.175832
 21
-936.885597
 31
0.0
  0
LINE
  5
46E
330
36
100
AcDbEntity
  8
0
100
AcDbLine
 10
-607.175832
 20
-941.385597
 30
0.0
 11
-607.175832
 21
-954.385597
 31
0.0
  0
LINE
  5
46F
330
36
100
AcDbEntity
  8
0
100
AcDbLine
 10
-605.675832
 20
-941.385597
 30
0.0
 11
-605.675832
 21
-954.385597
 31
0.0
  0
LINE
  5
470
330
36
100
AcDbEntity
  8
0
100
AcDbLine
 10
-603.675832
 20
-923.8855969999999
 30
0.0
 11
-603.675832
 21
-936.885597
 31
0.0
  0
LINE
  5
471
330
36
100
AcDbEntity
  8
0
100
AcDbLine
 10
-603.675832
 20
-941.385597
 30
0.0
 11
-603.675832
 21
-954.385597
 31
0.0
  0
LINE
  5
472
330
36
100
AcDbEntity
  8
0
100
AcDbLine
 10
-602.1758319999999
 20
-923.8855969999999
 30
0.0
 11
-602.1758319999999
 21
-936.885597
 31
0.0
  0
LINE
  5
473
330
36
100
AcDbEntity
  8
0
100
AcDbLine
 10
-602.1758319999999
 20
-941.385597
 30
0.0
 11
-602.1758319999999
 21
-954.385597
 31
0.0
  0
LINE
  5
474
330
36
100
AcDbEntity
  8
0
100
AcDbLine
 10
-600.175832
 20
-923.8855969999999
 30
0.0
 11
-600.175832
 21
-936.885597
 31
0.0
  0
LINE
  5
475
330
36
100
AcDbEntity
  8
0
100
AcDbLine
 10
-600.175832
 20
-941.385597
 30
0.0
 11
-600.175832
 21
-954.385597
 31
0.0
  0
LINE
  5
476
330
36
100
AcDbEntity
  8
0
100
AcDbLine
 10
-598.6758319999998
 20
-923.8855969999999
 30
0.0
 11
-598.6758319999998
 21
-936.885597
 31
0.0
  0
LINE
  5
477
330
36
100
AcDbEntity
  8
0
100
AcDbLine
 10
-598.6758319999998
 20
-941.385597
 30
0.0
 11
-598.6758319999998
 21
-954.385597
 31
0.0
  0
LINE
  5
478
330
36
100
AcDbEntity
  8
0
100
AcDbLine
 10
-596.675832
 20
-923.8855969999999
 30
0.0
 11
-596.675832
 21
-936.885597
 31
0.0
  0
LINE
  5
479
330
36
100
AcDbEntity
  8
0
100
AcDbLine
 10
-596.675832
 20
-941.385597
 30
0.0
 11
-596.675832
 21
-954.385597
 31
0.0
  0
LINE
  5
47A
330
36
100
AcDbEntity
  8
0
100
AcDbLine
 10
-595.175832
 20
-923.8855969999999
 30
0.0
 11
-595.175832
 21
-936.885597
 31
0.0
  0
LINE
  5
47B
330
36
100
AcDbEntity
  8
0
100
AcDbLine
 10
-595.175832
 20
-941.385597
 30
0.0
 11
-595.175832
 21
-954.385597
 31
0.0
  0
LINE
  5
47C
330
36
100
AcDbEntity
  8
0
100
AcDbLine
 10
-593.175832
 20
-941.385597
 30
0.0
 11
-593.175832
 21
-954.385597
 31
0.0
  0
LINE
  5
47D
330
36
100
AcDbEntity
  8
0
100
AcDbLine
 10
-591.675832
 20
-923.8855969999999
 30
0.0
 11
-591.675832
 21
-936.885597
 31
0.0
  0
LINE
  5
47E
330
36
100
AcDbEntity
  8
0
100
AcDbLine
 10
-591.675832
 20
-941.385597
 30
0.0
 11
-591.675832
 21
-954.385597
 31
0.0
  0
LINE
  5
47F
330
36
100
AcDbEntity
  8
0
100
AcDbLine
 10
-589.6758319999999
 20
-923.8855969999999
 30
0.0
 11
-589.6758319999999
 21
-936.885597
 31
0.0
  0
LINE
  5
480
330
36
100
AcDbEntity
  8
0
100
AcDbLine
 10
-589.6758319999999
 20
-941.385597
 30
0.0
 11
-589.6758319999999
 21
-954.385597
 31
0.0
  0
LINE
  5
481
330
36
100
AcDbEntity
  8
0
100
AcDbLine
 10
-588.175832
 20
-923.8855969999999
 30
0.0
 11
-588.175832
 21
-936.885597
 31
0.0
  0
LINE
  5
482
330
36
100
AcDbEntity
  8
0
100
AcDbLine
 10
-588.175832
 20
-941.385597
 30
0.0
 11
-588.175832
 21
-954.385597
 31
0.0
  0
LINE
  5
483
330
36
100
AcDbEntity
  8
0
100
AcDbLine
 10
-586.1758319999998
 20
-923.8855969999999
 30
0.0
 11
-586.1758319999998
 21
-936.885597
 31
0.0
  0
LINE
  5
484
330
36
100
AcDbEntity
  8
0
100
AcDbLine
 10
-586.1758319999998
 20
-941.385597
 30
0.0
 11
-586.1758319999998
 21
-954.385597
 31
0.0
  0
LINE
  5
485
330
36
100
AcDbEntity
  8
0
100
AcDbLine
 10
-584.675832
 20
-923.8855969999999
 30
0.0
 11
-584.675832
 21
-936.885597
 31
0.0
  0
LINE
  5
486
330
36
100
AcDbEntity
  8
0
100
AcDbLine
 10
-584.675832
 20
-941.385597
 30
0.0
 11
-584.675832
 21
-954.385597
 31
0.0
  0
LINE
  5
487
330
36
100
AcDbEntity
  8
0
100
AcDbLine
 10
-582.675832
 20
-923.8855969999999
 30
0.0
 11
-582.675832
 21
-936.885597
 31
0.0
  0
LINE
  5
488
330
36
100
AcDbEntity
  8
0
100
AcDbLine
 10
-582.675832
 20
-941.385597
 30
0.0
 11
-582.675832
 21
-954.385597
 31
0.0
  0
LINE
  5
489
330
36
100
AcDbEntity
  8
0
100
AcDbLine
 10
-605.675832
 20
-923.8855969999999
 30
0.0
 11
-605.675832
 21
-936.885597
 31
0.0
  0
LINE
  5
48A
330
36
100
AcDbEntity
  8
0
100
AcDbLine
 10
-593.175832
 20
-923.8855969999999
 30
0.0
 11
-593.175832
 21
-936.885597
 31
0.0
  0
LINE
  5
48B
330
36
100
AcDbEntity
  8
0
100
AcDbLine
 10
-579.175832
 20
-941.385597
 30
0.0
 11
-579.175832
 21
-954.385597
 31
0.0
  0
LINE
  5
48C
330
36
100
AcDbEntity
  8
0
100
AcDbLine
 10
-579.175832
 20
-923.8855969999999
 30
0.0
 11
-579.175832
 21
-936.885597
 31
0.0
  0
LINE
  5
48D
330
36
100
AcDbEntity
  8
0
100
AcDbLine
 10
-581.175832
 20
-941.385597
 30
0.0
 11
-581.175832
 21
-954.385597
 31
0.0
  0
LINE
  5
48E
330
36
100
AcDbEntity
  8
0
100
AcDbLine
 10
-581.175832
 20
-935.6665920000001
 30
0.0
 11
-581.175832
 21
-923.8855969999999
 31
0.0
  0
LINE
  5
48F
330
36
100
AcDbEntity
  8
0
100
AcDbLine
 10
-581.175832
 20
-935.6665920000001
 30
0.0
 11
-581.175832
 21
-936.885597
 31
0.0
  0
CIRCLE
  5
490
330
36
100
AcDbEntity
  8
0
100
AcDbCircle
 10
-561.1758319999998
 20
-992.6355969999999
 30
0.0
 40
1.125
  0
CIRCLE
  5
491
330
36
100
AcDbEntity
  8
0
100
AcDbCircle
 10
-581.175832
 20
-992.6355969999999
 30
0.0
 40
1.125
  0
CIRCLE
  5
492
330
36
100
AcDbEntity
  8
0
100
AcDbCircle
 10
-601.175832
 20
-992.6355969999999
 30
0.0
 40
1.125
  0
LINE
  5
493
330
36
100
AcDbEntity
  8
0
100
AcDbLine
 10
-541.675832
 20
-981.235597
 30
0.0
 11
-543.675832
 21
-981.235597
 31
0.0
  0
LINE
  5
494
330
36
100
AcDbEntity
  8
0
100
AcDbLine
 10
-541.675832
 20
-981.235597
 30
0.0
 11
-541.675832
 21
-975.735597
 31
0.0
  0
LINE
  5
495
330
36
100
AcDbEntity
  8
0
100
AcDbLine
 10
-541.675832
 20
-970.2355969999999
 30
0.0
 11
-541.675832
 21
-975.735597
 31
0.0
  0
LINE
  5
496
330
36
100
AcDbEntity
  8
0
100
AcDbLine
 10
-541.675832
 20
-970.2355969999999
 30
0.0
 11
-543.675832
 21
-970.2355969999999
 31
0.0
  0
LINE
  5
497
330
36
100
AcDbEntity
  8
0
100
AcDbLine
 10
-541.675832
 20
-951.3515700000001
 30
0.0
 11
-541.675832
 21
-968.8515699999999
 31
0.0
  0
LINE
  5
498
330
36
100
AcDbEntity
  8
0
100
AcDbLine
 10
-543.675832
 20
-968.8515699999999
 30
0.0
 11
-541.675832
 21
-968.8515699999999
 31
0.0
  0
LINE
  5
499
330
36
100
AcDbEntity
  8
0
100
AcDbLine
 10
-541.675832
 20
-951.3515700000001
 30
0.0
 11
-543.675832
 21
-951.3515700000001
 31
0.0
  0
LINE
  5
49C
330
36
100
AcDbEntity
  8
0
 62
     3
100
AcDbLine
 10
-289.659852
 20
-1089.6087
 30
0.0
 11
-289.659852
 21
-1066.6087
 31
0.0
  0
LINE
  5
49E
330
36
100
AcDbEntity
  8
0
 62
     3
100
AcDbLine
 10
-342.713461
 20
-1096.6087
 30
0.0
 11
-342.713461
 21
-1082.6087
 31
0.0
  0
TEXT
  5
4A0
330
36
100
AcDbEntity
  8
0
 62
     3
100
AcDbText
 10
-313.649534
 20
-1070.403584
 30
0.0
 40
2.0
  1
A
 41
0.7
100
AcDbText
  0
TEXT
  5
4A1
330
36
100
AcDbEntity
  8
0
 62
     3
100
AcDbText
 10
-311.114247
 20
-1070.403584
 30
0.0
 40
2.0
  1
P
 41
0.7
100
AcDbText
  0
TEXT
  5
4A2
330
36
100
AcDbEntity
  8
0
 62
     3
100
AcDbText
 10
-308.578961
 20
-1070.403584
 30
0.0
 40
2.0
  1
P
 41
0.7
100
AcDbText
  0
TEXT
  5
4A3
330
36
100
AcDbEntity
  8
0
 62
     3
100
AcDbText
 10
-306.043675
 20
-1070.403584
 30
0.0
 40
2.0
  1
D
 41
0.7
100
AcDbText
  0
TEXT
  5
4A4
330
36
100
AcDbEntity
  8
0
 62
     3
100
AcDbText
 10
-300.674992
 20
-1070.403584
 30
0.0
 40
2.0
  1
C
 41
0.7
100
AcDbText
  0
TEXT
  5
4A5
330
36
100
AcDbEntity
  8
0
 62
     3
100
AcDbText
 10
-298.139706
 20
-1070.403584
 30
0.0
 40
2.0
  1
H
 41
0.7
100
AcDbText
  0
TEXT
  5
4A6
330
36
100
AcDbEntity
  8
0
 62
     3
100
AcDbText
 10
-295.604419
 20
-1070.403584
 30
0.0
 40
2.0
  1
C
 41
0.7
100
AcDbText
  0
TEXT
  5
4A7
330
36
100
AcDbEntity
  8
0
 62
     3
100
AcDbText
 10
-293.069133
 20
-1070.403584
 30
0.0
 40
2.0
  1
K
 41
0.7
100
AcDbText
  0
TEXT
  5
4A8
330
36
100
AcDbEntity
  8
0
 62
     3
100
AcDbText
 10
-287.395167
 20
-1070.403584
 30
0.0
 40
2.0
  1
DESN
 41
1.216762999999998
100
AcDbText
  0
TEXT
  5
4A9
330
36
100
AcDbEntity
  8
0
 62
     3
100
AcDbText
 10
-372.401525
 20
-1099.750082
 30
0.0
 40
2.0
  1
NICHIDO IND.CO.LTD
 41
1.274876
100
AcDbText
  0
LINE
  5
4AA
330
36
100
AcDbEntity
  8
0
 62
     3
100
AcDbLine
 10
-362.018496
 20
-1066.6087
 30
0.0
 11
-362.018496
 21
-1089.6087
 31
0.0
  0
LINE
  5
4AB
330
36
100
AcDbEntity
  8
0
 62
     3
100
AcDbLine
 10
-315.6598519999999
 20
-1066.6087
 30
0.0
 11
-315.659852
 21
-1106.274423
 31
0.0
  0
LINE
  5
4B0
330
36
100
AcDbEntity
  8
0
 62
     3
100
AcDbLine
 10
-302.6598520000001
 20
-1066.6087
 30
0.0
 11
-302.659852
 21
-1096.6087
 31
0.0
  0
TEXT
  5
4B1
330
36
100
AcDbEntity
  8
0
 62
     3
100
AcDbText
 10
-314.547407
 20
-1095.744013
 30
0.0
 40
3.2
  1
作成日
 41
1.017225999999997
100
AcDbText
  0
LINE
  5
4B2
330
36
100
AcDbEntity
  8
0
 62
     3
100
AcDbLine
 10
-263.960488
 20
-1066.6087
 30
0.0
 11
-375.263931
 21
-1066.6087
 31
0.0
  0
LINE
  5
4B3
330
36
100
AcDbEntity
  8
0
 62
     3
100
AcDbLine
 10
-276.659852
 20
-1089.6087
 30
0.0
 11
-276.659852
 21
-1066.6087
 31
0.0
  0
TEXT
  5
4B4
330
36
100
AcDbEntity
  8
0
 62
     3
100
AcDbText
 10
-273.336048
 20
-1070.317766
 30
0.0
 40
1.8
  1
D
 41
0.666667
100
AcDbText
  0
TEXT
  5
4B5
330
36
100
AcDbEntity
  8
0
 62
     3
100
AcDbText
 10
-270.51942
 20
-1070.317766
 30
0.0
 40
1.8
  1
E
 41
0.666667
100
AcDbText
  0
TEXT
  5
4B6
330
36
100
AcDbEntity
  8
0
 62
     3
100
AcDbText
 10
-267.702792
 20
-1070.317766
 30
0.0
 40
1.8
  1
F
 41
0.666667
100
AcDbText
  0
TEXT
  5
4B7
330
36
100
AcDbEntity
  8
0
 62
     3
100
AcDbText
 10
-273.336048
 20
-1074.310319
 30
0.0
 40
3.2
  1
製図
 41
1.076369
100
AcDbText
  0
LINE
  5
4B8
330
36
100
AcDbEntity
  8
0
 62
     3
100
AcDbLine
 10
-375.263931
 20
-1066.6087
 30
0.0
 11
-375.263931
 21
-1106.274423
 31
0.0
  0
TEXT
  5
4B9
330
36
100
AcDbEntity
  8
0
 62
     3
100
AcDbText
 10
-373.887278
 20
-1105.941957
 30
0.0
 40
5.0
  1
日動工業株式会社
 41
0.833333
100
AcDbText
  0
LINE
  5
4BA
330
36
100
AcDbEntity
  8
0
 62
     3
100
AcDbLine
 10
-332.3815270000001
 20
-1082.6087
 30
0.0
 11
-332.381527
 21
-1106.274423
 31
0.0
  0
LINE
  5
4BB
330
36
100
AcDbEntity
  8
0
 62
     3
100
AcDbLine
 10
-332.381527
 20
-1101.441562
 30
0.0
 11
-315.659852
 21
-1101.441562
 31
0.0
  0
TEXT
  5
4BC
330
36
100
AcDbEntity
  8
0
 62
     3
100
AcDbText
 10
-331.794925
 20
-1100.625131
 30
0.0
 40
3.2
  1
出図コード
 41
0.8356860000000001
100
AcDbText
  0
LINE
  5
4BE
330
36
100
AcDbEntity
  8
0
 62
     3
100
AcDbLine
 10
-375.263931
 20
-1096.6087
 30
0.0
 11
-263.960488
 21
-1096.6087
 31
0.0
  0
LINE
  5
4C0
330
36
100
AcDbEntity
  8
0
 62
     3
100
AcDbLine
 10
-375.263931
 20
-1075.6087
 30
0.0
 11
-263.960488
 21
-1075.6087
 31
0.0
  0
LINE
  5
4C6
330
36
100
AcDbEntity
  8
0
 62
     3
100
AcDbLine
 10
-375.263931
 20
-1082.6087
 30
0.0
 11
-315.659852
 21
-1082.6087
 31
0.0
  0
LINE
  5
4CC
330
36
100
AcDbEntity
  8
0
 62
     3
100
AcDbLine
 10
-375.263931
 20
-1089.6087
 30
0.0
 11
-263.960488
 21
-1089.6087
 31
0.0
  0
TEXT
  5
4CD
330
36
100
AcDbEntity
  8
0
 62
     3
100
AcDbText
 10
-331.927473
 20
-1105.733289326567
 30
0.0
 40
3.2
  1
ZK-A3X
 41
0.8112849999999999
100
AcDbText
  0
TEXT
  5
4CE
330
36
100
AcDbEntity
  8
0
 62
     3
100
AcDbText
 10
-373.446534
 20
-1070.439174
 30
0.0
 40
2.0
  1
CONPONENTS
 41
0.5331600000000001
100
AcDbText
  0
TEXT
  5
4CF
330
36
100
AcDbEntity
  8
0
 62
     3
100
AcDbText
 10
-373.79626
 20
-1089.371351
 30
0.0
 40
3.0
  1
材
 41
0.833333
100
AcDbText
  0
TEXT
  5
4D0
330
36
100
AcDbEntity
  8
0
 62
     3
100
AcDbText
 10
-366.260618
 20
-1089.371351
 30
0.0
 40
3.0
  1
質
 41
0.833333
100
AcDbText
  0
TEXT
  5
4D1
330
36
100
AcDbEntity
  8
0
 62
     3
100
AcDbText
 10
-373.70819
 20
-1078.746827
 30
0.0
 40
2.0
  1
MODEL
 41
1.031072999999999
100
AcDbText
  0
TEXT
  5
4D2
330
36
100
AcDbEntity
  8
0
 62
     3
100
AcDbText
 10
-373.79626
 20
-1085.689043
 30
0.0
 40
2.0
  1
MATERIAL
 41
0.659278
100
AcDbText
  0
TEXT
  5
4D3
330
36
100
AcDbEntity
  8
0
 62
     3
100
AcDbText
 10
-342.48898
 20
-1089.371351
 30
0.0
 40
3.0
  1
備
 41
0.833333
100
AcDbText
  0
TEXT
  5
4D4
330
36
100
AcDbEntity
  8
0
 62
     3
100
AcDbText
 10
-335.755978
 20
-1089.371351
 30
0.0
 40
3.0
  1
考
 41
0.833333
100
AcDbText
  0
TEXT
  5
4D5
330
36
100
AcDbEntity
  8
0
 62
     3
100
AcDbText
 10
-342.2071968476725
 20
-1085.689043
 30
0.0
 40
2.0
  1
REMARKS
 41
0.675794
100
AcDbText
  0
TEXT
  5
4D6
330
36
100
AcDbEntity
  8
0
 62
     3
100
AcDbText
 10
-372.206531
 20
-1092.609164
 30
0.0
 40
2.0
  1
3AD
 41
1.42614
100
AcDbText
  0
TEXT
  5
4D7
330
36
100
AcDbEntity
  8
0
 62
     3
100
AcDbText
 10
-362.895552
 20
-1092.44343
 30
0.0
 40
2.0
  1
ANGLE
 41
1.669883999999995
100
AcDbText
  0
TEXT
  5
4D8
330
36
100
AcDbEntity
  8
0
 62
     3
100
AcDbText
 10
-341.961665
 20
-1092.820271
 30
0.0
 40
2.0
  1
SCALE
 41
0.7719630000000001
100
AcDbText
  0
TEXT
  5
4D9
330
36
100
AcDbEntity
  8
0
 62
     3
100
AcDbText
 10
-372.520402
 20
-1096.6087
 30
0.0
 40
3.0
  1
第
 41
0.833333
100
AcDbText
  0
TEXT
  5
4DA
330
36
100
AcDbEntity
  8
0
 62
     3
100
AcDbText
 10
-364.733552
 20
-1096.6087
 30
0.0
 40
3.0
  1
三
 41
0.833333
100
AcDbText
  0
TEXT
  5
4DB
330
36
100
AcDbEntity
  8
0
 62
     3
100
AcDbText
 10
-356.946702
 20
-1096.6087
 30
0.0
 40
3.0
  1
角
 41
0.833333
100
AcDbText
  0
TEXT
  5
4DC
330
36
100
AcDbEntity
  8
0
 62
     3
100
AcDbText
 10
-349.159852
 20
-1096.6087
 30
0.0
 40
3.0
  1
法
 41
0.833333
100
AcDbText
  0
TEXT
  5
4DD
330
36
100
AcDbEntity
  8
0
 62
     3
100
AcDbText
 10
-342.09846
 20
-1096.320271
 30
0.0
 40
3.0
  1
尺
 41
0.833333
100
AcDbText
  0
TEXT
  5
4DE
330
36
100
AcDbEntity
  8
0
 62
     3
100
AcDbText
 10
-335.365458
 20
-1096.320271
 30
0.0
 40
3.0
  1
度
 41
0.833333
100
AcDbText
  0
TEXT
  5
4DF
330
36
100
AcDbEntity
  8
0
 62
     3
100
AcDbText
 10
-312.782187
 20
-1074.150971
 30
0.0
 40
3.0
  1
承認
 41
1.089472999999999
100
AcDbText
  0
TEXT
  5
4E0
330
36
100
AcDbEntity
  8
0
 62
     3
100
AcDbText
 10
-299.539307
 20
-1074.2087
 30
0.0
 40
3.0
  1
検図
 41
0.931761
100
AcDbText
  0
TEXT
  5
4E1
330
36
100
AcDbEntity
  8
0
 62
     3
100
AcDbText
 10
-286.538911
 20
-1074.2087
 30
0.0
 40
3.0
  1
設
 41
0.833333
100
AcDbText
  0
TEXT
  5
4E2
330
36
100
AcDbEntity
  8
0
 62
     3
100
AcDbText
 10
-282.049042
 20
-1074.2087
 30
0.0
 40
3.0
  1
計
 41
0.833333
100
AcDbText
  0
TEXT
  5
4E3
330
36
100
AcDbEntity
  8
0
 62
     3
100
AcDbText
 10
-373.376427
 20
-1074.036148
 30
0.0
 40
3.0
  1
品
 41
0.833333
100
AcDbText
  0
TEXT
  5
4E4
330
36
100
AcDbEntity
  8
0
 62
     3
100
AcDbText
 10
-365.840785
 20
-1074.036148
 30
0.0
 40
3.0
  1
名
 41
0.833333
100
AcDbText
  0
TEXT
  5
4E5
330
36
100
AcDbEntity
  8
0
 62
     3
100
AcDbText
 10
-373.70819
 20
-1082.238606951775
 30
0.0
 40
3.0
  1
型
 41
0.833333
100
AcDbText
  0
TEXT
  5
4E6
330
36
100
AcDbEntity
  8
0
 62
     3
100
AcDbText
 10
-366.160099
 20
-1082.238606951775
 30
0.0
 40
3.0
  1
式
 41
0.833333
100
AcDbText
  0
LINE
  5
4E7
330
36
100
AcDbEntity
  8
0
 62
     3
100
AcDbLine
 10
-666.362412
 20
-965.774423
 30
0.0
 11
-668.9604879999998
 21
-967.2744229999999
 31
0.0
  0
LINE
  5
4E8
330
36
100
AcDbEntity
  8
0
 62
     3
100
AcDbLine
 10
-666.362412
 20
-965.774423
 30
0.0
 11
-668.9604879999998
 21
-964.2744229999999
 31
0.0
  0
LINE
  5
4E9
330
36
100
AcDbEntity
  8
0
 62
     3
100
AcDbLine
 10
-668.9604879999998
 20
-967.2744229999999
 30
0.0
 11
-668.9604879999998
 21
-964.2744229999999
 31
0.0
  0
ARC
  5
4F2
330
36
100
AcDbEntity
  8
0
 62
     3
100
AcDbCircle
 10
-321.530921
 20
-877.135597
 30
0.0
 40
5.0
100
AcDbArc
 50
29.538782
 51
90.0
  0
ARC
  5
4F3
330
36
100
AcDbEntity
  8
0
 62
     3
100
AcDbCircle
 10
-364.932959
 20
-877.135597
 30
0.0
 40
5.0
100
AcDbArc
 50
90.0
 51
154.983107
  0
ARC
  5
4F4
330
36
100
AcDbEntity
  8
0
 62
     3
100
AcDbCircle
 10
-325.617274
 20
-878.635597
 30
0.0
 40
2.5
100
AcDbArc
 50
0.0
 51
93.36936899999995
  0
ARC
  5
4F5
330
36
100
AcDbEntity
  8
0
 62
     3
100
AcDbCircle
 10
-359.617274
 20
-878.635597
 30
0.0
 40
2.5
100
AcDbArc
 50
90.0
 51
180.0
  0
ARC
  5
4F6
330
36
100
AcDbEntity
  8
0
 62
     3
100
AcDbCircle
 10
-342.617274
 20
-589.8855969999997
 30
0.0
 40
286.75
100
AcDbArc
 50
266.630631
 51
273.369369
  0
LINE
  5
4F7
330
36
100
AcDbEntity
  8
0
 62
     3
100
AcDbLine
 10
-321.530921
 20
-872.1355970000002
 30
0.0
 11
-364.932959
 21
-872.1355970000002
 31
0.0
  0
ARC
  5
4F8
330
36
100
AcDbEntity
  8
0
 62
     3
100
AcDbCircle
 10
-475.075815
 20
-872.467544
 30
0.0
 40
0.5
100
AcDbArc
 50
4.953256999999998
 51
90.0
  0
ARC
  5
4F9
330
36
100
AcDbEntity
  8
0
 62
     3
100
AcDbCircle
 10
-479.1587329999998
 20
-872.467544
 30
0.0
 40
0.5
100
AcDbArc
 50
90.0
 51
175.046743
  0
LINE
  5
4FA
330
36
100
AcDbEntity
  8
0
 62
     3
100
AcDbLine
 10
-479.656866
 20
-872.4243730000001
 30
0.0
 11
-480.917274
 21
-886.9675439999998
 31
0.0
  0
LINE
  5
4FB
330
36
100
AcDbEntity
  8
0
 62
     3
100
AcDbLine
 10
-475.075815
 20
-871.9675439999999
 30
0.0
 11
-479.1587329999998
 21
-871.9675439999999
 31
0.0
  0
LINE
  5
4FC
330
36
100
AcDbEntity
  8
0
 62
     3
100
AcDbLine
 10
-474.577682
 20
-872.4243730000001
 30
0.0
 11
-473.3172739999998
 21
-886.9675439999998
 31
0.0
  0
LINE
  5
4FD
330
36
100
AcDbEntity
  8
0
 62
     3
100
AcDbLine
 10
-310.768941
 20
-885.9855970000001
 30
0.0
 11
-317.18081
 21
-874.670534
 31
0.0
  0
LINE
  5
4FE
330
36
100
AcDbEntity
  8
0
 62
     3
100
AcDbLine
 10
-323.117274
 20
-885.9855970000001
 30
0.0
 11
-323.117274
 21
-878.635597
 31
0.0
  0
LINE
  5
4FF
330
36
100
AcDbEntity
  8
0
 62
     3
100
AcDbLine
 10
-362.117274
 20
-885.9855970000001
 30
0.0
 11
-362.117274
 21
-878.635597
 31
0.0
  0
LINE
  5
500
330
36
100
AcDbEntity
  8
0
 62
     3
100
AcDbLine
 10
-374.580608
 20
-885.9855970000001
 30
0.0
 11
-369.463875
 21
-875.021169
 31
0.0
  0
LINE
  5
501
330
36
100
AcDbEntity
  8
0
 62
     3
100
AcDbLine
 10
-474.617274
 20
-901.967544
 30
0.0
 11
-504.617274
 21
-901.967544
 31
0.0
  0
LINE
  5
502
330
36
100
AcDbEntity
  8
0
 62
     3
100
AcDbLine
 10
-474.617274
 20
-911.9675439999999
 30
0.0
 11
-504.617274
 21
-911.9675439999999
 31
0.0
  0
LINE
  5
503
330
36
100
AcDbEntity
  8
0
 62
     3
100
AcDbLine
 10
-474.617274
 20
-921.9675439999999
 30
0.0
 11
-504.617274
 21
-921.9675439999999
 31
0.0
  0
LINE
  5
504
330
36
100
AcDbEntity
  8
0
 62
     3
100
AcDbLine
 10
-474.617274
 20
-931.9675439999999
 30
0.0
 11
-504.617274
 21
-931.9675439999999
 31
0.0
  0
LINE
  5
505
330
36
100
AcDbEntity
  8
0
 62
     3
100
AcDbLine
 10
-412.192236
 20
-913.2494689999999
 30
0.0
 11
-412.192236
 21
-921.421518
 31
0.0
  0
LINE
  5
506
330
36
100
AcDbEntity
  8
0
 62
     3
100
AcDbLine
 10
-417.642236
 20
-913.9152559999999
 30
0.0
 11
-417.642236
 21
-921.421518
 31
0.0
  0
LINE
  5
507
330
36
100
AcDbEntity
  8
0
 62
     3
100
AcDbLine
 10
-479.24359
 20
-951.1726519999999
 30
0.0
 11
-503.74359
 21
-951.1726519999999
 31
0.0
  0
LINE
  5
508
330
36
100
AcDbEntity
  8
0
 62
     3
100
AcDbLine
 10
-479.24359
 20
-967.1726519999999
 30
0.0
 11
-503.74359
 21
-967.1726519999999
 31
0.0
  0
LINE
  5
509
330
36
100
AcDbEntity
  8
0
 62
     3
100
AcDbLine
 10
-478.74359
 20
-951.672652
 30
0.0
 11
-478.74359
 21
-966.6726519999999
 31
0.0
  0
LINE
  5
50A
330
36
100
AcDbEntity
  8
0
 62
     3
100
AcDbLine
 10
-504.24359
 20
-966.6726519999999
 30
0.0
 11
-504.24359
 21
-951.672652
 31
0.0
  0
ARC
  5
50B
330
36
100
AcDbEntity
  8
0
 62
     3
100
AcDbCircle
 10
-503.74359
 20
-951.672652
 30
0.0
 40
0.5
100
AcDbArc
 50
90.0
 51
180.0
  0
ARC
  5
50C
330
36
100
AcDbEntity
  8
0
 62
     3
100
AcDbCircle
 10
-503.74359
 20
-966.6726519999999
 30
0.0
 40
0.5
100
AcDbArc
 50
180.0
 51
270.0
  0
ARC
  5
50D
330
36
100
AcDbEntity
  8
0
 62
     3
100
AcDbCircle
 10
-479.24359
 20
-966.6726519999999
 30
0.0
 40
0.5
100
AcDbArc
 50
270.0
 51
0.0
  0
ARC
  5
50E
330
36
100
AcDbEntity
  8
0
 62
     3
100
AcDbCircle
 10
-479.24359
 20
-951.672652
 30
0.0
 40
0.5
100
AcDbArc
 50
0.0
 51
90.0
  0
LINE
  5
513
330
36
100
AcDbEntity
  8
0
100
AcDbLine
 10
-498.304886
 20
-960.0361729999999
 30
0.0
 11
-522.5640599999998
 21
-966.4396100000001
 31
0.0
  0
LINE
  5
514
330
36
100
AcDbEntity
  8
0
100
AcDbLine
 10
-522.5640599999998
 20
-966.4396100000001
 30
0.0
 11
-539.0640599999998
 21
-966.4396100000001
 31
0.0
  0
TEXT
  5
515
330
36
100
AcDbEntity
  8
0
 62
     4
100
AcDbText
 10
-536.3140599999998
 20
-965.4396099999999
 30
0.0
 40
3.2
  1
型式銘板
 41
0.8
  7
高3.2
100
AcDbText
  0
LINE
  5
516
330
36
100
AcDbEntity
  8
0
 62
     3
100
AcDbLine
 10
-653.9604879999998
 20
-832.2744230000001
 30
0.0
 11
-653.9604879999998
 21
-1106.274423
 31
0.0
  0
LINE
  5
517
330
36
100
AcDbEntity
  8
0
 62
     3
100
AcDbLine
 10
-263.960488
 20
-1106.274423
 30
0.0
 11
-263.960488
 21
-832.2744230000001
 31
0.0
  0
LINE
  5
518
330
36
100
AcDbEntity
  8
0
 62
     3
100
AcDbLine
 10
-653.9604879999998
 20
-832.2744230000001
 30
0.0
 11
-263.960488
 21
-832.2744230000001
 31
0.0
  0
LINE
  5
519
330
36
100
AcDbEntity
  8
0
 62
     3
100
AcDbLine
 10
-653.9604879999998
 20
-1106.274423
 30
0.0
 11
-263.960488
 21
-1106.274423
 31
0.0
  0
ARC
  5
51A
330
36
100
AcDbEntity
  8
0
100
AcDbCircle
 10
-499.617274
 20
-901.967544
 30
0.0
 40
5.0
100
AcDbArc
 50
90.0
 51
180.0
  0
LINE
  5
51B
330
36
100
AcDbEntity
  8
0
100
AcDbLine
 10
-479.617274
 20
-896.9675439999999
 30
0.0
 11
-499.617274
 21
-896.9675439999999
 31
0.0
  0
ARC
  5
51C
330
36
100
AcDbEntity
  8
0
100
AcDbCircle
 10
-479.617274
 20
-901.967544
 30
0.0
 40
5.0
100
AcDbArc
 50
0.0
 51
90.0
  0
ARC
  5
51D
330
36
100
AcDbEntity
  8
0
100
AcDbCircle
 10
-479.617274
 20
-911.9675439999999
 30
0.0
 40
5.0
100
AcDbArc
 50
0.0
 51
90.0
  0
ARC
  5
51E
330
36
100
AcDbEntity
  8
0
100
AcDbCircle
 10
-499.617274
 20
-911.9675439999999
 30
0.0
 40
5.0
100
AcDbArc
 50
90.0
 51
180.0
  0
LINE
  5
51F
330
36
100
AcDbEntity
  8
0
100
AcDbLine
 10
-479.617274
 20
-906.9675439999999
 30
0.0
 11
-499.617274
 21
-906.9675439999999
 31
0.0
  0
ARC
  5
520
330
36
100
AcDbEntity
  8
0
100
AcDbCircle
 10
-499.617274
 20
-921.9675439999999
 30
0.0
 40
5.0
100
AcDbArc
 50
90.0
 51
180.0
  0
ARC
  5
521
330
36
100
AcDbEntity
  8
0
100
AcDbCircle
 10
-479.617274
 20
-921.9675439999999
 30
0.0
 40
5.0
100
AcDbArc
 50
0.0
 51
90.0
  0
LINE
  5
522
330
36
100
AcDbEntity
  8
0
100
AcDbLine
 10
-479.617274
 20
-916.967544
 30
0.0
 11
-499.617274
 21
-916.967544
 31
0.0
  0
ARC
  5
523
330
36
100
AcDbEntity
  8
0
100
AcDbCircle
 10
-479.617274
 20
-931.9675439999999
 30
0.0
 40
5.0
100
AcDbArc
 50
0.0
 51
90.0
  0
LINE
  5
524
330
36
100
AcDbEntity
  8
0
100
AcDbLine
 10
-479.617274
 20
-926.967544
 30
0.0
 11
-499.617274
 21
-926.967544
 31
0.0
  0
ARC
  5
525
330
36
100
AcDbEntity
  8
0
100
AcDbCircle
 10
-499.617274
 20
-931.9675439999999
 30
0.0
 40
5.0
100
AcDbArc
 50
90.0
 51
180.0
  0
CIRCLE
  5
526
330
36
100
AcDbEntity
  8
0
 62
     3
100
AcDbCircle
 10
-339.985917
 20
-984.180557
 30
0.0
 40
2.016
  0
LINE
  5
527
330
36
100
AcDbEntity
  8
0
 62
     3
100
AcDbLine
 10
-418.0422359999998
 20
-921.421518
 30
0.0
 11
-411.7922359999998
 21
-921.421518
 31
0.0
  0
ARC
  5
528
330
36
100
AcDbEntity
  8
0
 62
     3
100
AcDbCircle
 10
-405.4172359999998
 20
-958.4215179999999
 30
0.0
 40
1.5
100
AcDbArc
 50
270.0
 51
90.0
  0
LINE
  5
529
330
36
100
AcDbEntity
  8
0
 62
     3
100
AcDbLine
 10
-409.984298
 20
-936.8828929999999
 30
0.0
 11
-408.917236
 21
-936.171518
 31
0.0
  0
LINE
  5
52A
330
36
100
AcDbEntity
  8
0
 62
     3
100
AcDbLine
 10
-408.917236
 20
-936.171518
 30
0.0
 11
-410.7922359999998
 21
-934.9215179999999
 31
0.0
  0
LINE
  5
52B
330
36
100
AcDbEntity
  8
0
 62
     3
100
AcDbLine
 10
-419.850175
 20
-936.8828929999999
 30
0.0
 11
-420.9172360000001
 21
-936.171518
 31
0.0
  0
LINE
  5
52C
330
36
100
AcDbEntity
  8
0
 62
     3
100
AcDbLine
 10
-419.042236
 20
-934.9215179999999
 30
0.0
 11
-420.9172360000001
 21
-936.171518
 31
0.0
  0
LINE
  5
52D
330
36
100
AcDbEntity
  8
0
 62
     3
100
AcDbLine
 10
-419.5568759999998
 20
-938.244942
 30
0.0
 11
-424.667236
 21
-946.421518
 31
0.0
  0
LINE
  5
52E
330
36
100
AcDbEntity
  8
0
 62
     3
100
AcDbLine
 10
-410.277597
 20
-938.244942
 30
0.0
 11
-405.167236
 21
-946.421518
 31
0.0
  0
LINE
  5
52F
330
36
100
AcDbEntity
  8
0
 62
     3
100
AcDbLine
 10
-404.917236
 20
-959.9215179999999
 30
0.0
 11
-404.917236
 21
-961.421518
 31
0.0
  0
LINE
  5
530
330
36
100
AcDbEntity
  8
0
 62
     3
100
AcDbLine
 10
-405.167236
 20
-946.421518
 30
0.0
 11
-405.167236
 21
-956.942498
 31
0.0
  0
ARC
  5
531
330
36
100
AcDbEntity
  8
0
 62
     3
100
AcDbCircle
 10
-420.404875
 20
-937.7149429999999
 30
0.0
 40
1.0
100
AcDbArc
 50
327.994617
 51
56.30993199999998
  0
ARC
  5
532
330
36
100
AcDbEntity
  8
0
 62
     3
100
AcDbCircle
 10
-409.429598
 20
-937.7149429999999
 30
0.0
 40
1.0
100
AcDbArc
 50
123.690068
 51
212.005383
  0
ARC
  5
533
330
36
100
AcDbEntity
  8
0
 62
     3
100
AcDbCircle
 10
-410.7922359999998
 20
-931.921518
 30
0.0
 40
0.5
100
AcDbArc
 50
270.0
 51
90.0
  0
ARC
  5
534
330
36
100
AcDbEntity
  8
0
 62
     3
100
AcDbCircle
 10
-419.042236
 20
-931.921518
 30
0.0
 40
0.5
100
AcDbArc
 50
90.0
 51
270.0
  0
LINE
  5
535
330
36
100
AcDbEntity
  8
0
 62
     3
100
AcDbLine
 10
-410.7922359999998
 20
-922.4215179999999
 30
0.0
 11
-410.7922359999998
 21
-931.4215179999999
 31
0.0
  0
LINE
  5
536
330
36
100
AcDbEntity
  8
0
 62
     3
100
AcDbLine
 10
-410.7922359999998
 20
-932.4215179999999
 30
0.0
 11
-410.7922359999998
 21
-934.9215179999999
 31
0.0
  0
LINE
  5
537
330
36
100
AcDbEntity
  8
0
 62
     3
100
AcDbLine
 10
-419.042236
 20
-922.4215179999999
 30
0.0
 11
-419.042236
 21
-931.4215179999999
 31
0.0
  0
LINE
  5
538
330
36
100
AcDbEntity
  8
0
 62
     3
100
AcDbLine
 10
-419.042236
 20
-932.4215179999999
 30
0.0
 11
-419.042236
 21
-934.9215179999999
 31
0.0
  0
ARC
  5
539
330
36
100
AcDbEntity
  8
0
 62
     3
100
AcDbCircle
 10
-411.7922359999998
 20
-922.4215179999999
 30
0.0
 40
1.0
100
AcDbArc
 50
0.0
 51
90.0
  0
ARC
  5
53A
330
36
100
AcDbEntity
  8
0
 62
     3
100
AcDbCircle
 10
-418.0422359999998
 20
-922.4215179999999
 30
0.0
 40
1.0
100
AcDbArc
 50
90.0
 51
180.0
  0
TEXT
  5
53B
330
36
100
AcDbEntity
  8
0
100
AcDbText
 10
-409.689768
 20
-949.713642
 30
0.0
 40
1.6
  1
20A 250V
 50
180.000005
 41
0.8775529999999999
100
AcDbText
  0
LINE
  5
53C
330
36
100
AcDbEntity
  8
0
100
AcDbLine
 10
-420.9172360000001
 20
-936.171518
 30
0.0
 11
-408.917236
 21
-936.171518
 31
0.0
  0
LINE
  5
53D
330
36
100
AcDbEntity
  8
0
100
AcDbLine
 10
-419.042236
 20
-937.421518
 30
0.0
 11
-410.7922359999998
 21
-937.421518
 31
0.0
  0
ARC
  5
53E
330
36
100
AcDbEntity
  8
0
100
AcDbCircle
 10
-421.417236
 20
-954.421518
 30
0.0
 40
0.5
100
AcDbArc
 50
180.0
 51
270.0
  0
LINE
  5
53F
330
36
100
AcDbEntity
  8
0
100
AcDbLine
 10
-408.417236
 20
-954.921518
 30
0.0
 11
-421.417236
 21
-954.921518
 31
0.0
  0
ARC
  5
540
330
36
100
AcDbEntity
  8
0
100
AcDbCircle
 10
-408.417236
 20
-954.421518
 30
0.0
 40
0.5
100
AcDbArc
 50
270.0
 51
0.0
  0
LINE
  5
541
330
36
100
AcDbEntity
  8
0
100
AcDbLine
 10
-407.917236
 20
-948.921518
 30
0.0
 11
-407.917236
 21
-954.421518
 31
0.0
  0
ARC
  5
542
330
36
100
AcDbEntity
  8
0
100
AcDbCircle
 10
-408.417236
 20
-948.921518
 30
0.0
 40
0.5
100
AcDbArc
 50
0.0
 51
90.0
  0
LINE
  5
543
330
36
100
AcDbEntity
  8
0
100
AcDbLine
 10
-421.417236
 20
-948.4215179999999
 30
0.0
 11
-408.417236
 21
-948.4215179999999
 31
0.0
  0
ARC
  5
544
330
36
100
AcDbEntity
  8
0
100
AcDbCircle
 10
-421.417236
 20
-948.921518
 30
0.0
 40
0.5
100
AcDbArc
 50
90.0
 51
180.0
  0
LINE
  5
545
330
36
100
AcDbEntity
  8
0
100
AcDbLine
 10
-421.917236
 20
-948.921518
 30
0.0
 11
-421.917236
 21
-954.421518
 31
0.0
  0
ARC
  5
546
330
36
100
AcDbEntity
  8
0
 62
     3
100
AcDbCircle
 10
-424.417236
 20
-958.4215179999999
 30
0.0
 40
1.5
100
AcDbArc
 50
90.0
 51
270.0
  0
LINE
  5
547
330
36
100
AcDbEntity
  8
0
 62
     3
100
AcDbLine
 10
-424.667236
 20
-946.421518
 30
0.0
 11
-424.667236
 21
-956.921518
 31
0.0
  0
LINE
  5
548
330
36
100
AcDbEntity
  8
0
 62
     3
100
AcDbLine
 10
-424.9172360000001
 20
-959.8357319999999
 30
0.0
 11
-424.9172360000001
 21
-961.421518
 31
0.0
  0
LINE
  5
549
330
36
100
AcDbEntity
  8
0
100
AcDbLine
 10
-419.042236
 20
-932.4215179999999
 30
0.0
 11
-410.7922359999998
 21
-932.4215179999999
 31
0.0
  0
LINE
  5
54A
330
36
100
AcDbEntity
  8
0
100
AcDbLine
 10
-419.042236
 20
-931.4215179999999
 30
0.0
 11
-410.7922359999998
 21
-931.4215179999999
 31
0.0
  0
LINE
  5
54B
330
36
100
AcDbEntity
  8
0
100
AcDbLine
 10
-419.042236
 20
-930.4215179999999
 30
0.0
 11
-415.917236
 21
-930.4215179999999
 31
0.0
  0
LINE
  5
54C
330
36
100
AcDbEntity
  8
0
100
AcDbLine
 10
-413.9172359999998
 20
-930.4215179999999
 30
0.0
 11
-410.7922359999998
 21
-930.4215179999999
 31
0.0
  0
LINE
  5
54D
330
36
100
AcDbEntity
  8
0
100
AcDbLine
 10
-419.042236
 20
-929.421518
 30
0.0
 11
-415.917236
 21
-929.421518
 31
0.0
  0
LINE
  5
54E
330
36
100
AcDbEntity
  8
0
100
AcDbLine
 10
-413.9172359999998
 20
-929.421518
 30
0.0
 11
-410.7922359999998
 21
-929.421518
 31
0.0
  0
LINE
  5
54F
330
36
100
AcDbEntity
  8
0
100
AcDbLine
 10
-419.042236
 20
-928.421518
 30
0.0
 11
-415.917236
 21
-928.421518
 31
0.0
  0
LINE
  5
550
330
36
100
AcDbEntity
  8
0
100
AcDbLine
 10
-413.9172359999998
 20
-928.421518
 30
0.0
 11
-410.7922359999998
 21
-928.421518
 31
0.0
  0
LINE
  5
551
330
36
100
AcDbEntity
  8
0
100
AcDbLine
 10
-419.042236
 20
-927.421518
 30
0.0
 11
-415.917236
 21
-927.421518
 31
0.0
  0
LINE
  5
552
330
36
100
AcDbEntity
  8
0
100
AcDbLine
 10
-413.9172359999998
 20
-927.421518
 30
0.0
 11
-410.7922359999998
 21
-927.421518
 31
0.0
  0
LINE
  5
553
330
36
100
AcDbEntity
  8
0
100
AcDbLine
 10
-419.042236
 20
-926.421518
 30
0.0
 11
-415.917236
 21
-926.421518
 31
0.0
  0
LINE
  5
554
330
36
100
AcDbEntity
  8
0
100
AcDbLine
 10
-413.9172359999998
 20
-926.421518
 30
0.0
 11
-410.7922359999998
 21
-926.421518
 31
0.0
  0
LINE
  5
555
330
36
100
AcDbEntity
  8
0
100
AcDbLine
 10
-419.042236
 20
-925.421518
 30
0.0
 11
-415.917236
 21
-925.421518
 31
0.0
  0
LINE
  5
556
330
36
100
AcDbEntity
  8
0
100
AcDbLine
 10
-413.9172359999998
 20
-925.421518
 30
0.0
 11
-410.7922359999998
 21
-925.421518
 31
0.0
  0
LINE
  5
557
330
36
100
AcDbEntity
  8
0
100
AcDbLine
 10
-419.042236
 20
-924.4215179999999
 30
0.0
 11
-415.917236
 21
-924.4215179999999
 31
0.0
  0
LINE
  5
558
330
36
100
AcDbEntity
  8
0
100
AcDbLine
 10
-413.9172359999998
 20
-924.4215179999999
 30
0.0
 11
-410.7922359999998
 21
-924.4215179999999
 31
0.0
  0
LINE
  5
559
330
36
100
AcDbEntity
  8
0
100
AcDbLine
 10
-419.042236
 20
-923.4215179999999
 30
0.0
 11
-415.917236
 21
-923.4215179999999
 31
0.0
  0
LINE
  5
55A
330
36
100
AcDbEntity
  8
0
100
AcDbLine
 10
-413.9172359999998
 20
-923.4215179999999
 30
0.0
 11
-410.7922359999998
 21
-923.4215179999999
 31
0.0
  0
LINE
  5
55B
330
36
100
AcDbEntity
  8
0
100
AcDbLine
 10
-413.9172359999998
 20
-929.421518
 30
0.0
 11
-413.9172359999998
 21
-930.4215179999999
 31
0.0
  0
LINE
  5
55C
330
36
100
AcDbEntity
  8
0
100
AcDbLine
 10
-415.917236
 20
-929.421518
 30
0.0
 11
-415.917236
 21
-930.4215179999999
 31
0.0
  0
LINE
  5
55D
330
36
100
AcDbEntity
  8
0
100
AcDbLine
 10
-413.9172359999998
 20
-927.421518
 30
0.0
 11
-413.9172359999998
 21
-928.421518
 31
0.0
  0
LINE
  5
55E
330
36
100
AcDbEntity
  8
0
100
AcDbLine
 10
-415.917236
 20
-927.421518
 30
0.0
 11
-415.917236
 21
-928.421518
 31
0.0
  0
LINE
  5
55F
330
36
100
AcDbEntity
  8
0
100
AcDbLine
 10
-413.9172359999998
 20
-925.421518
 30
0.0
 11
-413.9172359999998
 21
-926.421518
 31
0.0
  0
LINE
  5
560
330
36
100
AcDbEntity
  8
0
100
AcDbLine
 10
-415.917236
 20
-925.421518
 30
0.0
 11
-415.917236
 21
-926.421518
 31
0.0
  0
LINE
  5
561
330
36
100
AcDbEntity
  8
0
100
AcDbLine
 10
-413.9172359999998
 20
-923.4215179999999
 30
0.0
 11
-413.9172359999998
 21
-924.4215179999999
 31
0.0
  0
LINE
  5
562
330
36
100
AcDbEntity
  8
0
100
AcDbLine
 10
-415.917236
 20
-923.4215179999999
 30
0.0
 11
-415.917236
 21
-924.4215179999999
 31
0.0
  0
LINE
  5
563
330
36
100
AcDbEntity
  8
0
100
AcDbLine
 10
-424.417236
 20
-959.9215179999999
 30
0.0
 11
-405.4172359999998
 21
-959.9215179999999
 31
0.0
  0
TEXT
  5
564
330
36
100
AcDbEntity
  8
0
 62
     4
100
AcDbText
 10
-432.664557
 20
-1014.8557
 30
0.0
 40
3.2
  1
接地3P 20A 250V
  7
高3.2
100
AcDbText
  0
TEXT
  5
565
330
36
100
AcDbEntity
  8
0
 62
     4
100
AcDbText
 10
-429.643101
 20
-1020.447216
 30
0.0
 40
3.2
  1
<PS>E JET
 41
1.139240999999999
100
AcDbText
  0
LINE
  5
566
330
36
100
AcDbEntity
  8
0
100
AcDbLine
 10
-424.417236
 20
-956.921518
 30
0.0
 11
-405.4172359999998
 21
-956.921518
 31
0.0
  0
LINE
  5
567
330
36
100
AcDbEntity
  8
0
100
AcDbLine
 10
-419.042236
 20
-934.9215179999999
 30
0.0
 11
-410.7922359999998
 21
-934.9215179999999
 31
0.0
  0
LINE
  5
568
330
36
100
AcDbEntity
  8
0
 62
     3
100
AcDbLine
 10
-289.659852
 20
-1066.6087
 30
0.0
 11
-289.659852
 21
-1060.6087
 31
0.0
  0
LINE
  5
569
330
36
100
AcDbEntity
  8
0
 62
     3
100
AcDbLine
 10
-315.659852
 20
-1066.6087
 30
0.0
 11
-315.659852
 21
-1060.6087
 31
0.0
  0
LINE
  5
56A
330
36
100
AcDbEntity
  8
0
 62
     3
100
AcDbLine
 10
-263.960488
 20
-1060.6087
 30
0.0
 11
-315.659852
 21
-1060.6087
 31
0.0
  0
TEXT
  5
56B
330
36
100
AcDbEntity
  8
0
 62
     3
100
AcDbText
 10
-309.664253
 20
-1065.812351
 30
0.0
 40
4.5
  1
コード
  7
高4.5
100
AcDbText
  0
TEXT
  5
56C
330
36
100
AcDbEntity
  8
0
 62
     3
100
AcDbText
 10
-528.6610028048438
 20
-1100.774423
 30
0.0
 40
3.2
  1
1
 41
0.8
  7
高3.2
100
AcDbText
  0
TEXT
  5
56D
330
36
100
AcDbEntity
  8
0
 62
     3
100
AcDbText
 10
-528.6610028048438
 20
-1090.774423
 30
0.0
 40
3.2
  1
1
 41
0.8
  7
高3.2
100
AcDbText
  0
TEXT
  5
56E
330
36
100
AcDbEntity
  8
0
 62
     3
100
AcDbText
 10
-528.6610028048438
 20
-1075.774423
 30
0.0
 40
3.2
  1
1
 41
0.8
  7
高3.2
100
AcDbText
  0
TEXT
  5
56F
330
36
100
AcDbEntity
  8
0
 62
     3
100
AcDbText
 10
-528.6610028048438
 20
-1065.774423
 30
0.0
 40
3.2
  1
1式
 41
0.8
  7
高3.2
100
AcDbText
  0
TEXT
  5
570
330
36
100
AcDbEntity
  8
0
 62
     3
100
AcDbText
 10
-528.6610028048438
 20
-1095.774423
 30
0.0
 40
3.2
  1
1
 41
0.8
  7
高3.2
100
AcDbText
  0
TEXT
  5
571
330
36
100
AcDbEntity
  8
0
 62
     3
100
AcDbText
 10
-528.6610028048438
 20
-1085.774423
 30
0.0
 40
3.2
  1
1
 41
0.8
  7
高3.2
100
AcDbText
  0
TEXT
  5
572
330
36
100
AcDbEntity
  8
0
 62
     3
100
AcDbText
 10
-528.6610028048438
 20
-1060.774423
 30
0.0
 40
3.2
  1
1式
 41
0.8
  7
高3.2
100
AcDbText
  0
TEXT
  5
573
330
36
100
AcDbEntity
  8
0
 62
     3
100
AcDbText
 10
-528.6610028048438
 20
-1035.774423
 30
0.0
 40
3.2
  1
1
 41
0.8
  7
高3.2
100
AcDbText
  0
TEXT
  5
574
330
36
100
AcDbEntity
  8
0
 62
     3
100
AcDbText
 10
-528.6610028048438
 20
-1080.774423
 30
0.0
 40
3.2
  1
1
 41
0.8
  7
高3.2
100
AcDbText
  0
TEXT
  5
575
330
36
100
AcDbEntity
  8
0
 62
     3
100
AcDbText
 10
-528.6610028048438
 20
-1055.774423
 30
0.0
 40
3.2
  1
1式
 41
0.8
  7
高3.2
100
AcDbText
  0
TEXT
  5
576
330
36
100
AcDbEntity
  8
0
 62
     3
100
AcDbText
 10
-528.6610028048438
 20
-1040.774423
 30
0.0
 40
3.2
  1
3式
 41
0.8
  7
高3.2
100
AcDbText
  0
TEXT
  5
577
330
36
100
AcDbEntity
  8
0
 62
     3
100
AcDbText
 10
-528.6610028048438
 20
-1050.774423
 30
0.0
 40
3.2
  1
2
 41
0.8
  7
高3.2
100
AcDbText
  0
TEXT
  5
578
330
36
100
AcDbEntity
  8
0
 62
     3
100
AcDbText
 10
-528.6610028048438
 20
-1045.774423
 30
0.0
 40
3.2
  1
16
 41
0.8
  7
高3.2
100
AcDbText
  0
TEXT
  5
579
330
36
100
AcDbEntity
  8
0
 62
     3
100
AcDbText
 10
-528.6610028048438
 20
-1030.774423
 30
0.0
 40
3.2
  1
2
 41
0.8
  7
高3.2
100
AcDbText
  0
TEXT
  5
57A
330
36
100
AcDbEntity
  8
0
 62
     3
100
AcDbText
 10
-594.8112980985293
 20
-1055.774423
 30
0.0
 40
3.2
  1
2sqx4芯x2m(成型3PEプラグ付)
 41
0.8
  7
高3.2
100
AcDbText
  0
TEXT
  5
57B
330
36
100
AcDbEntity
  8
0
 62
     3
100
AcDbText
 10
-528.6610028048438
 20
-1070.774423
 30
0.0
 40
3.2
  1
1式
 41
0.8
  7
高3.2
100
AcDbText
  0
TEXT
  5
57C
330
36
100
AcDbEntity
  8
0
 62
     3
100
AcDbText
 10
-594.8112980985293
 20
-1065.774423
 30
0.0
 40
3.2
  1
20A、250V　明工社　MU2821 (T09)
 41
0.8
  7
高3.2
100
AcDbText
  0
LINE
  5
57D
330
36
100
AcDbEntity
  8
0
100
AcDbLine
 10
-530.1610028048438
 20
-1106.274423
 30
0.0
 11
-530.161002804844
 21
-1026.274423
 31
0.0
  0
TEXT
  5
57E
330
36
100
AcDbEntity
  8
0
 62
     3
100
AcDbText
 10
-610.772990393427
 20
-1085.774423
 30
0.0
 40
3.2
  1
SPCC
 41
0.8
  7
高3.2
100
AcDbText
  0
TEXT
  5
57F
330
36
100
AcDbEntity
  8
0
 62
     3
100
AcDbText
 10
-610.772990393427
 20
-1090.774423
 30
0.0
 40
3.2
  1
SPCC
 41
0.8
  7
高3.2
100
AcDbText
  0
TEXT
  5
580
330
36
100
AcDbEntity
  8
0
 62
     3
100
AcDbText
 10
-652.4604879999998
 20
-1100.774423
 30
0.0
 40
3.2
  1
1
 41
0.8
  7
高3.2
100
AcDbText
  0
TEXT
  5
581
330
36
100
AcDbEntity
  8
0
 62
     3
100
AcDbText
 10
-652.4604879999998
 20
-1095.774423
 30
0.0
 40
3.2
  1
2
 41
0.8
  7
高3.2
100
AcDbText
  0
TEXT
  5
582
330
36
100
AcDbEntity
  8
0
 62
     3
100
AcDbText
 10
-652.4604879999998
 20
-1090.774423
 30
0.0
 40
3.2
  1
3
 41
0.8
  7
高3.2
100
AcDbText
  0
TEXT
  5
583
330
36
100
AcDbEntity
  8
0
 62
     3
100
AcDbText
 10
-652.4604879999998
 20
-1085.774423
 30
0.0
 40
3.2
  1
4
 41
0.8
  7
高3.2
100
AcDbText
  0
TEXT
  5
584
330
36
100
AcDbEntity
  8
0
 62
     3
100
AcDbText
 10
-652.4604879999998
 20
-1080.774423
 30
0.0
 40
3.2
  1
5
 41
0.8
  7
高3.2
100
AcDbText
  0
TEXT
  5
585
330
36
100
AcDbEntity
  8
0
 62
     3
100
AcDbText
 10
-652.4604879999998
 20
-1075.774423
 30
0.0
 40
3.2
  1
6
 41
0.8
  7
高3.2
100
AcDbText
  0
TEXT
  5
586
330
36
100
AcDbEntity
  8
0
 62
     3
100
AcDbText
 10
-652.4604879999998
 20
-1070.774423
 30
0.0
 40
3.2
  1
7
 41
0.8
  7
高3.2
100
AcDbText
  0
TEXT
  5
587
330
36
100
AcDbEntity
  8
0
 62
     3
100
AcDbText
 10
-652.4604879999998
 20
-1065.774423
 30
0.0
 40
3.2
  1
8
 41
0.8
  7
高3.2
100
AcDbText
  0
TEXT
  5
588
330
36
100
AcDbEntity
  8
0
 62
     3
100
AcDbText
 10
-652.4604879999998
 20
-1060.774423
 30
0.0
 40
3.2
  1
9
 41
0.8
  7
高3.2
100
AcDbText
  0
TEXT
  5
589
330
36
100
AcDbEntity
  8
0
 62
     3
100
AcDbText
 10
-652.4604879999998
 20
-1055.774423
 30
0.0
 40
3.2
  1
10
 41
0.8
  7
高3.2
100
AcDbText
  0
TEXT
  5
58A
330
36
100
AcDbEntity
  8
0
 62
     3
100
AcDbText
 10
-652.4604879999998
 20
-1050.774423
 30
0.0
 40
3.2
  1
11
 41
0.8
  7
高3.2
100
AcDbText
  0
TEXT
  5
58B
330
36
100
AcDbEntity
  8
0
 62
     3
100
AcDbText
 10
-652.4604879999998
 20
-1045.774423
 30
0.0
 40
3.2
  1
12
 41
0.8
  7
高3.2
100
AcDbText
  0
TEXT
  5
58C
330
36
100
AcDbEntity
  8
0
 62
     3
100
AcDbText
 10
-652.4604879999998
 20
-1040.774423
 30
0.0
 40
3.2
  1
13
 41
0.8
  7
高3.2
100
AcDbText
  0
TEXT
  5
58D
330
36
100
AcDbEntity
  8
0
 62
     3
100
AcDbText
 10
-652.4604879999998
 20
-1035.774423
 30
0.0
 40
3.2
  1
14
 41
0.8
  7
高3.2
100
AcDbText
  0
TEXT
  5
58E
330
36
100
AcDbEntity
  8
0
 62
     3
100
AcDbText
 10
-594.8112980985293
 20
-1035.774423
 30
0.0
 40
3.2
  1
-
 41
0.8
  7
高3.2
100
AcDbText
  0
TEXT
  5
58F
330
36
100
AcDbEntity
  8
0
 62
     3
100
AcDbText
 10
-644.8104319999997
 20
-1100.774423
 30
0.0
 40
3.2
  1
前面パネル
 41
0.8
  7
高3.2
100
AcDbText
  0
TEXT
  5
590
330
36
100
AcDbEntity
  8
0
 62
     3
100
AcDbText
 10
-644.8104319999997
 20
-1095.774423
 30
0.0
 40
3.2
  1
後部パネル
 41
0.8
  7
高3.2
100
AcDbText
  0
TEXT
  5
591
330
36
100
AcDbEntity
  8
0
 62
     3
100
AcDbText
 10
-644.8104319999997
 20
-1090.774423
 30
0.0
 40
3.2
  1
上部カバー
 41
0.8
  7
高3.2
100
AcDbText
  0
TEXT
  5
592
330
36
100
AcDbEntity
  8
0
 62
     3
100
AcDbText
 10
-644.8104319999997
 20
-1085.774423
 30
0.0
 40
3.2
  1
下部カバー
 41
0.8
  7
高3.2
100
AcDbText
  0
TEXT
  5
593
330
36
100
AcDbEntity
  8
0
 62
     3
100
AcDbText
 10
-644.8104319999997
 20
-1080.774423
 30
0.0
 40
3.2
  1
プロテクター
 41
0.8
  7
高3.2
100
AcDbText
  0
TEXT
  5
594
330
36
100
AcDbEntity
  8
0
 62
     3
100
AcDbText
 10
-644.8104319999997
 20
-1075.774423
 30
0.0
 40
3.2
  1
インバーター
 41
0.8
  7
高3.2
100
AcDbText
  0
TEXT
  5
595
330
36
100
AcDbEntity
  8
0
 62
     3
100
AcDbText
 10
-644.8104319999997
 20
-1070.774423
 30
0.0
 40
3.2
  1
取手ハンドル
 41
0.8
  7
高3.2
100
AcDbText
  0
TEXT
  5
596
330
36
100
AcDbEntity
  8
0
 62
     3
100
AcDbText
 10
-610.772990393427
 20
-1100.774423
 30
0.0
 40
3.2
  1
SPCC
 41
0.8
  7
高3.2
100
AcDbText
  0
TEXT
  5
597
330
36
100
AcDbEntity
  8
0
 62
     3
100
AcDbText
 10
-610.772990393427
 20
-1095.774423
 30
0.0
 40
3.2
  1
SPCC
 41
0.8
  7
高3.2
100
AcDbText
  0
TEXT
  5
598
330
36
100
AcDbEntity
  8
0
 62
     3
100
AcDbText
 10
-644.8104319999997
 20
-1060.774423
 30
0.0
 40
3.2
  1
セレクトスイッチ
 41
0.8
  7
高3.2
100
AcDbText
  0
TEXT
  5
599
330
36
100
AcDbEntity
  8
0
 62
     3
100
AcDbText
 10
-610.772990393427
 20
-1055.774423
 30
0.0
 40
3.2
  1
VCT
 41
0.8
  7
高3.2
100
AcDbText
  0
TEXT
  5
59A
330
36
100
AcDbEntity
  8
0
 62
     3
100
AcDbText
 10
-594.8112980985293
 20
-1050.774423
 30
0.0
 40
3.2
  1
-
 41
0.8
  7
高3.2
100
AcDbText
  0
TEXT
  5
59B
330
36
100
AcDbEntity
  8
0
 62
     3
100
AcDbText
 10
-644.8104319999997
 20
-1045.774423
 30
0.0
 40
3.2
  1
取付ビス
 41
0.8
  7
高3.2
100
AcDbText
  0
TEXT
  5
59C
330
36
100
AcDbEntity
  8
0
 62
     3
100
AcDbText
 10
-644.8104319999997
 20
-1050.774423
 30
0.0
 40
3.2
  1
ブラケット
 41
0.8
  7
高3.2
100
AcDbText
  0
TEXT
  5
59D
330
36
100
AcDbEntity
  8
0
 62
     3
100
AcDbText
 10
-610.772990393427
 20
-1050.774423
 30
0.0
 40
3.2
  1
SPCC
 41
0.8
  7
高3.2
100
AcDbText
  0
TEXT
  5
59E
330
36
100
AcDbEntity
  8
0
 62
     3
100
AcDbText
 10
-594.8112980985293
 20
-1100.774423
 30
0.0
 40
3.2
  1
SC-P01(黒)
 41
0.8
  7
高3.2
100
AcDbText
  0
TEXT
  5
59F
330
36
100
AcDbEntity
  8
0
 62
     3
100
AcDbText
 10
-594.8112980985293
 20
-1095.774423
 30
0.0
 40
3.2
  1
SC-P02(赤)
 41
0.8
  7
高3.2
100
AcDbText
  0
TEXT
  5
5A0
330
36
100
AcDbEntity
  8
0
 62
     3
100
AcDbText
 10
-610.772990393427
 20
-1080.774423
 30
0.0
 40
3.2
  1
ABS樹脂
 41
0.8
  7
高3.2
100
AcDbText
  0
TEXT
  5
5A1
330
36
100
AcDbEntity
  8
0
 62
     3
100
AcDbText
 10
-594.8112980985293
 20
-1090.774423
 30
0.0
 40
3.2
  1
SC-P03(赤)
 41
0.8
  7
高3.2
100
AcDbText
  0
TEXT
  5
5A2
330
36
100
AcDbEntity
  8
0
 62
     3
100
AcDbText
 10
-594.8112980985293
 20
-1085.774423
 30
0.0
 40
3.2
  1
SC-P04(赤)
 41
0.8
  7
高3.2
100
AcDbText
  0
TEXT
  5
5A3
330
36
100
AcDbEntity
  8
0
 62
     3
100
AcDbText
 10
-594.8112980985293
 20
-1060.774423
 30
0.0
 40
3.2
  1
サトウ　K-2800
 41
0.8
  7
高3.2
100
AcDbText
  0
TEXT
  5
5A4
330
36
100
AcDbEntity
  8
0
 62
     3
100
AcDbText
 10
-610.772990393427
 20
-1045.774423
 30
0.0
 40
3.2
  1
SS41
 41
0.8
  7
高3.2
100
AcDbText
  0
TEXT
  5
5A5
330
36
100
AcDbEntity
  8
0
 62
     3
100
AcDbText
 10
-644.8104319999997
 20
-1040.774423
 30
0.0
 40
3.2
  1
インバーター取付ビス
 41
0.8
  7
高3.2
100
AcDbText
  0
TEXT
  5
5A6
330
36
100
AcDbEntity
  8
0
 62
     3
100
AcDbText
 10
-610.772990393427
 20
-1075.774423
 30
0.0
 40
3.2
  1
購入品
 41
0.8
  7
高3.2
100
AcDbText
  0
TEXT
  5
5A7
330
36
100
AcDbEntity
  8
0
 62
     3
100
AcDbText
 10
-610.772990393427
 20
-1065.649273
 30
0.0
 40
3.2
  1
購入品
 41
0.8
  7
高3.2
100
AcDbText
  0
TEXT
  5
5A8
330
36
100
AcDbEntity
  8
0
 62
     3
100
AcDbText
 10
-610.772990393427
 20
-1060.774423
 30
0.0
 40
3.2
  1
購入品
 41
0.8
  7
高3.2
100
AcDbText
  0
TEXT
  5
5A9
330
36
100
AcDbEntity
  8
0
 62
     3
100
AcDbText
 10
-610.772990393427
 20
-1040.774423
 30
0.0
 40
3.2
  1
SS41
 41
0.8
  7
高3.2
100
AcDbText
  0
TEXT
  5
5AA
330
36
100
AcDbEntity
  8
0
 62
     3
100
AcDbText
 10
-644.8104319999997
 20
-1035.774423
 30
0.0
 40
3.2
  1
ブッシング
 41
0.8
  7
高3.2
100
AcDbText
  0
TEXT
  5
5AB
330
36
100
AcDbEntity
  8
0
 62
     3
100
AcDbText
 10
-594.8112980985293
 20
-1040.774423
 30
0.0
 40
3.2
  1
M4x8、座付ナット
 41
0.8
  7
高3.2
100
AcDbText
  0
TEXT
  5
5AC
330
36
100
AcDbEntity
  8
0
 62
     3
100
AcDbText
 10
-610.772990393427
 20
-1035.774423
 30
0.0
 40
3.2
  1
合成ゴム
 41
0.8
  7
高3.2
100
AcDbText
  0
TEXT
  5
5AD
330
36
100
AcDbEntity
  8
0
 62
     3
100
AcDbText
 10
-594.8112980985293
 20
-1075.774423
 30
0.0
 40
3.2
  1
0.75KW(FR-E720-0.75K)
 41
0.8
  7
高3.2
100
AcDbText
  0
TEXT
  5
5AE
330
36
100
AcDbEntity
  8
0
 62
     3
100
AcDbText
 10
-594.8112980985293
 20
-1080.774423
 30
0.0
 40
3.2
  1
SC-P05(黒)
 41
0.8
  7
高3.2
100
AcDbText
  0
TEXT
  5
5AF
330
36
100
AcDbEntity
  8
0
 62
     3
100
AcDbText
 10
-652.4604879999998
 20
-1030.774423
 30
0.0
 40
3.2
  1
15
 41
0.8
  7
高3.2
100
AcDbText
  0
TEXT
  5
5B0
330
36
100
AcDbEntity
  8
0
 62
     3
100
AcDbText
 10
-644.8104319999997
 20
-1030.774423
 30
0.0
 40
3.2
  1
コンセント取付ビス
 41
0.8
  7
高3.2
100
AcDbText
  0
TEXT
  5
5B1
330
36
100
AcDbEntity
  8
0
 62
     3
100
AcDbText
 10
-610.772990393427
 20
-1030.774423
 30
0.0
 40
3.2
  1
SS41
 41
0.8
  7
高3.2
100
AcDbText
  0
TEXT
  5
5B2
330
36
100
AcDbEntity
  8
0
 62
     3
100
AcDbText
 10
-594.8112980985293
 20
-1030.774423
 30
0.0
 40
3.2
  1
M4x12タッピングバインド
 41
0.8
  7
高3.2
100
AcDbText
  0
TEXT
  5
5B3
330
36
100
AcDbEntity
  8
0
 62
     3
100
AcDbText
 10
-594.8112980985293
 20
-1045.774423
 30
0.0
 40
3.2
  1
M4X6タッピングバインド
 41
0.8
  7
高3.2
100
AcDbText
  0
TEXT
  5
5B4
330
36
100
AcDbEntity
  8
0
 62
     3
100
AcDbText
 10
-644.8104319999997
 20
-1065.649273
 30
0.0
 40
3.2
  1
3PE付コンセント
 41
0.8
  7
高3.2
100
AcDbText
  0
TEXT
  5
5B5
330
36
100
AcDbEntity
  8
0
 62
     3
100
AcDbText
 10
-644.8104319999997
 20
-1055.774423
 30
0.0
 40
3.2
  1
入力電線
 41
0.8
  7
高3.2
100
AcDbText
  0
TEXT
  5
5B6
330
36
100
AcDbEntity
  8
0
 62
     3
100
AcDbText
 10
-594.8112980985293
 20
-1070.774423
 30
0.0
 40
3.2
  1
H-100(黒)、取付ビスM6
 41
0.8
  7
高3.2
100
AcDbText
  0
LINE
  5
5B7
330
36
100
AcDbEntity
  8
0
100
AcDbLine
 10
-596.3112980985292
 20
-1106.274423
 30
0.0
 11
-596.3112980985292
 21
-1026.274423
 31
0.0
  0
LINE
  5
5B8
330
36
100
AcDbEntity
  8
0
100
AcDbLine
 10
-612.272990393427
 20
-1106.274423
 30
0.0
 11
-612.272990393427
 21
-1026.274423
 31
0.0
  0
LINE
  5
5B9
330
36
100
AcDbEntity
  8
0
100
AcDbLine
 10
-646.310432
 20
-1106.274423
 30
0.0
 11
-646.3104319999999
 21
-1026.274423
 31
0.0
  0
TEXT
  5
5BA
330
36
100
AcDbEntity
  8
0
 62
     3
100
AcDbText
 10
-610.772990393427
 20
-1070.774423
 30
0.0
 40
3.2
  1
PA樹脂
 41
0.8
  7
高3.2
100
AcDbText
  0
TEXT
  5
5BB
330
36
100
AcDbEntity
  8
0
 62
     3
100
AcDbText
 10
-528.6610028048438
 20
-1105.774423
 30
0.0
 40
3.2
  1
個数
 41
0.8
  7
高3.2
100
AcDbText
  0
TEXT
  5
5BD
330
36
100
AcDbEntity
  8
0
 62
     3
100
AcDbText
 10
-594.8112980985293
 20
-1105.774423
 30
0.0
 40
3.2
  1
型式その他仕様
 41
0.8
  7
高3.2
100
AcDbText
  0
TEXT
  5
5BE
330
36
100
AcDbEntity
  8
0
 62
     3
100
AcDbText
 10
-610.772990393427
 20
-1105.774423
 30
0.0
 40
3.2
  1
材　質
 41
0.8
  7
高3.2
100
AcDbText
  0
TEXT
  5
5BF
330
36
100
AcDbEntity
  8
0
 62
     3
100
AcDbText
 10
-644.8104319999997
 20
-1105.774423
 30
0.0
 40
3.2
  1
部　　品　　名
 41
0.8
  7
高3.2
100
AcDbText
  0
TEXT
  5
5C0
330
36
100
AcDbEntity
  8
0
 62
     3
100
AcDbText
 10
-652.4604879999998
 20
-1105.774423
 30
0.0
 40
3.2
  1
No
 41
0.8
  7
高3.2
100
AcDbText
  0
LINE
  5
5C1
330
36
100
AcDbEntity
  8
0
 62
     3
100
AcDbLine
 10
-653.9604879999998
 20
-1026.274423
 30
0.0
 11
-447.9403016667288
 21
-1026.274423
 31
0.0
  0
LINE
  5
5C2
330
36
100
AcDbEntity
  8
0
100
AcDbLine
 10
-653.9604879999998
 20
-1031.274423
 30
0.0
 11
-447.9403016667288
 21
-1031.274423
 31
0.0
  0
LINE
  5
5C3
330
36
100
AcDbEntity
  8
0
100
AcDbLine
 10
-653.9604879999998
 20
-1036.274423
 30
0.0
 11
-447.9403016667288
 21
-1036.274423
 31
0.0
  0
LINE
  5
5C4
330
36
100
AcDbEntity
  8
0
100
AcDbLine
 10
-653.9604879999998
 20
-1041.274423
 30
0.0
 11
-447.9403016667288
 21
-1041.274423
 31
0.0
  0
LINE
  5
5C5
330
36
100
AcDbEntity
  8
0
100
AcDbLine
 10
-653.9604879999998
 20
-1046.274423
 30
0.0
 11
-447.9403016667288
 21
-1046.274423
 31
0.0
  0
LINE
  5
5C6
330
36
100
AcDbEntity
  8
0
100
AcDbLine
 10
-653.9604879999998
 20
-1051.274423
 30
0.0
 11
-447.9403016667288
 21
-1051.274423
 31
0.0
  0
LINE
  5
5C7
330
36
100
AcDbEntity
  8
0
100
AcDbLine
 10
-653.9604879999998
 20
-1056.274423
 30
0.0
 11
-447.9403016667288
 21
-1056.274423
 31
0.0
  0
LINE
  5
5C8
330
36
100
AcDbEntity
  8
0
100
AcDbLine
 10
-653.9604879999998
 20
-1066.274423
 30
0.0
 11
-447.9403016667288
 21
-1066.274423
 31
0.0
  0
LINE
  5
5C9
330
36
100
AcDbEntity
  8
0
100
AcDbLine
 10
-653.9604879999998
 20
-1061.274423
 30
0.0
 11
-447.9403016667288
 21
-1061.274423
 31
0.0
  0
LINE
  5
5CA
330
36
100
AcDbEntity
  8
0
100
AcDbLine
 10
-653.9604879999998
 20
-1076.274423
 30
0.0
 11
-447.9403016667288
 21
-1076.274423
 31
0.0
  0
LINE
  5
5CB
330
36
100
AcDbEntity
  8
0
100
AcDbLine
 10
-653.9604879999998
 20
-1071.274423
 30
0.0
 11
-447.9403016667288
 21
-1071.274423
 31
0.0
  0
LINE
  5
5CC
330
36
100
AcDbEntity
  8
0
100
AcDbLine
 10
-653.9604879999998
 20
-1081.274423
 30
0.0
 11
-447.9403016667288
 21
-1081.274423
 31
0.0
  0
LINE
  5
5CD
330
36
100
AcDbEntity
  8
0
100
AcDbLine
 10
-653.9604879999998
 20
-1086.274423
 30
0.0
 11
-447.9403016667288
 21
-1086.274423
 31
0.0
  0
LINE
  5
5CE
330
36
100
AcDbEntity
  8
0
100
AcDbLine
 10
-653.9604879999998
 20
-1091.274423
 30
0.0
 11
-447.9403016667288
 21
-1091.274423
 31
0.0
  0
LINE
  5
5CF
330
36
100
AcDbEntity
  8
0
100
AcDbLine
 10
-653.9604879999998
 20
-1096.274423
 30
0.0
 11
-447.9403016667288
 21
-1096.274423
 31
0.0
  0
LINE
  5
5D0
330
36
100
AcDbEntity
  8
0
 62
     3
100
AcDbLine
 10
-447.9403016667288
 20
-1101.274423
 30
0.0
 11
-653.9604879999998
 21
-1101.274423
 31
0.0
  0
TEXT
  5
5D1
330
36
100
AcDbEntity
  8
0
 62
     3
100
AcDbText
 10
-287.672705
 20
-1065.964563
 30
0.0
 40
4.5
  1
5450
  7
高4.5
100
AcDbText
  0
CIRCLE
  5
934
330
36
100
AcDbEntity
  8
0
  6
Continuous
 62
     3
100
AcDbCircle
 10
-337.8774376302876
 20
-925.93321754788
 30
0.0
 40
6.157784477055749
  0
TEXT
  5
935
330
36
100
AcDbEntity
  8
0
 62
     7
100
AcDbText
 10
-342.7533098245204
 20
-917.6380590054026
 30
0.0
 40
4.26656
  1
60.00
 41
0.833333
100
AcDbText
  0
CIRCLE
  5
937
330
36
100
AcDbEntity
  8
0
  6
Continuous
 62
     3
100
AcDbCircle
 10
-320.6727933793163
 20
-927.3274058493477
 30
0.0
 40
2.533066404291381
  0
CIRCLE
  5
938
330
36
100
AcDbEntity
  8
0
  6
Continuous
 62
     3
100
AcDbCircle
 10
-314.0139458764875
 20
-927.3274058493477
 30
0.0
 40
2.533066404291381
  0
CIRCLE
  5
939
330
36
100
AcDbEntity
  8
0
  6
Continuous
 62
     3
100
AcDbCircle
 10
-327.2322544895368
 20
-927.3274058493477
 30
0.0
 40
2.533066404291381
  0
CIRCLE
  5
93A
330
36
100
AcDbEntity
  8
0
  6
Continuous
 62
     3
100
AcDbCircle
 10
-317.2936755445994
 20
-921.8639293346919
 30
0.0
 40
2.533066404291381
  0
CIRCLE
  5
93B
330
36
100
AcDbEntity
  8
0
  6
Continuous
 62
     3
100
AcDbCircle
 10
-324.0022144697353
 20
-921.7149251668384
 30
0.0
 40
2.533066404291381
  0
CIRCLE
  5
93D
330
36
100
AcDbEntity
  8
0
  6
Continuous
 62
     3
100
AcDbCircle
 10
-337.8774376302876
 20
-925.93321754788
 30
0.0
 40
2.587110208045259
  0
LINE
  5
93E
330
36
100
AcDbEntity
  8
0
  6
Continuous
100
AcDbLine
 10
-337.8774376302876
 20
-928.5203277559254
 30
0.0
 11
-337.8774376302876
 21
-932.091002024936
 31
0.0
  0
LINE
  5
93F
330
36
100
AcDbEntity
  8
0
  6
Continuous
100
AcDbLine
 10
-336.1836064973875
 20
-927.888741856548
 30
0.0
 11
-333.8458169345437
 21
-930.5877147528979
 31
0.0
  0
LINE
  5
940
330
36
100
AcDbEntity
  8
0
  6
Continuous
100
AcDbLine
 10
-335.3654070269477
 20
-926.5519593974879
 30
0.0
 11
-331.8983560252474
 21
-927.4059336869028
 31
0.0
  0
LINE
  5
941
330
36
100
AcDbEntity
  8
0
  6
Continuous
100
AcDbLine
 10
-336.808251074532
 20
-923.5773781353643
 30
0.0
 11
-335.3325826196141
 21
-920.3258988802353
 31
0.0
  0
LINE
  5
942
330
36
100
AcDbEntity
  8
0
  6
Continuous
100
AcDbLine
 10
-335.5467368266096
 20
-924.8102870102657
 30
0.0
 11
-332.3299533426379
 21
-923.2604422591313
 31
0.0
  0
LINE
  5
943
330
36
100
AcDbEntity
  8
0
  6
Continuous
100
AcDbLine
 10
-339.5712687631877
 20
-927.888741856548
 30
0.0
 11
-341.9090583260315
 21
-930.5877147528979
 31
0.0
  0
LINE
  5
944
330
36
100
AcDbEntity
  8
0
  6
Continuous
100
AcDbLine
 10
-340.3894682336276
 20
-926.5519593974879
 30
0.0
 11
-343.856519235328
 21
-927.4059336869033
 31
0.0
  0
LINE
  5
945
330
36
100
AcDbEntity
  8
0
  6
Continuous
100
AcDbLine
 10
-338.9466241860432
 20
-923.5773781353643
 30
0.0
 11
-340.4222926409612
 21
-920.3258988802353
 31
0.0
  0
LINE
  5
946
330
36
100
AcDbEntity
  8
0
  6
Continuous
100
AcDbLine
 10
-340.2081384339656
 20
-924.8102870102657
 30
0.0
 11
-343.4249219179374
 21
-923.2604422591313
 31
0.0
  0
LINE
  5
947
330
36
100
AcDbEntity
  8
0
  6
Continuous
100
AcDbLine
 10
-347.6928721938335
 20
-922.8942699705971
 30
0.0
 11
-348.566839675183
 21
-921.5423797688748
 31
0.0
  0
LINE
  5
948
330
36
100
AcDbEntity
  8
0
  6
Continuous
100
AcDbLine
 10
-347.6928721938335
 20
-928.972165125163
 30
0.0
 11
-348.566839675183
 21
-930.3240553268857
 31
0.0
  0
TEXT
  5
949
330
36
100
AcDbEntity
  8
0
100
AcDbText
 10
-351.6359666126859
 20
-920.8586767695726
 30
0.0
 40
2.738297982618404
  1
早い
 41
0.859375
100
AcDbText
  0
TEXT
  5
94A
330
36
100
AcDbEntity
  8
0
100
AcDbText
 10
-352.0941285700682
 20
-933.9148323784531
 30
0.0
 40
2.738297982618404
  1
遅い
 41
0.859375
100
AcDbText
  0
TEXT
  5
94B
330
36
100
AcDbEntity
  8
0
100
AcDbText
 10
-319.3238474808689
 20
-923.2082014251783
 30
0.0
 40
1.068762282923839
  1
RESET
 41
0.859375
100
AcDbText
  0
TEXT
  5
94C
330
36
100
AcDbEntity
  8
0
100
AcDbText
 10
-329.4323122396239
 20
-927.9033164996942
 30
0.0
 40
1.160588153555333
  1
ＭＯＤＥ
 41
0.859375
100
AcDbText
  0
TEXT
  5
94D
330
36
100
AcDbEntity
  8
0
100
AcDbText
 10
-321.8873100296397
 20
-928.0618935183195
 30
0.0
 40
1.29444899609911
  1
SET
 41
0.859375
100
AcDbText
  0
TEXT
  5
94E
330
36
100
AcDbEntity
  8
0
100
AcDbText
 10
-315.3834414183506
 20
-929.0872434875607
 30
0.0
 40
1.29444899609911
  1
EXT
 41
0.859375
100
AcDbText
  0
LINE
  5
94F
330
36
100
AcDbEntity
  8
0
  6
Continuous
100
AcDbLine
 10
-314.0139458764875
 20
-927.3274058493477
 30
0.0
 11
-311.9928849034652
 21
-927.3274058493477
 31
0.0
  0
LINE
  5
950
330
36
100
AcDbEntity
  8
0
  6
Continuous
100
AcDbLine
 10
-314.0139458764875
 20
-927.3274058493477
 30
0.0
 11
-316.0341027706969
 21
-927.3274058493477
 31
0.0
  0
LINE
  5
951
330
36
100
AcDbEntity
  8
0
  6
Continuous
100
AcDbLine
 10
-317.472296557191
 20
-921.851192959297
 30
0.0
 11
-315.4512355841686
 21
-921.851192959297
 31
0.0
  0
LINE
  5
952
330
36
100
AcDbEntity
  8
0
  6
Continuous
100
AcDbLine
 10
-317.472296557191
 20
-921.851192959297
 30
0.0
 11
-319.4924534514002
 21
-921.851192959297
 31
0.0
  0
TEXT
  5
953
330
36
100
AcDbEntity
  8
0
100
AcDbText
 10
-314.8699571970636
 20
-926.9727616183358
 30
0.0
 40
1.29444899609911
  1
PU
 41
0.859375
100
AcDbText
  0
TEXT
  5
954
330
36
100
AcDbEntity
  8
0
100
AcDbText
 10
-325.6385322213544
 20
-922.3027307036026
 30
0.0
 40
1.29444899609911
  1
RUN
 41
0.859375
100
AcDbText
  0
TEXT
  5
955
330
36
100
AcDbEntity
  8
0
100
AcDbText
 10
-319.2733861495678
 20
-921.7203295191977
 30
0.0
 40
1.068762282923839
  1
ＳＴＯＰ
 41
0.859375
100
AcDbText
  0
LINE
  5
956
330
36
100
AcDbEntity
  8
0
  6
Continuous
 62
     3
100
AcDbLine
 10
-310.1480887350835
 20
-910.8989830340217
 30
0.0
 11
-310.1480887350835
 21
-932.572611085578
 31
0.0
  0
LINE
  5
957
330
36
100
AcDbEntity
  8
0
  6
Continuous
100
AcDbLine
 10
-310.1480887350835
 20
-930.3302189224826
 30
0.0
 11
-333.5664413907145
 21
-930.3302189224826
 31
0.0
  0
TEXT
  5
958
330
36
100
AcDbEntity
  8
0
 62
     7
100
AcDbText
 10
-338.460488
 20
-846.7744230000002
 30
0.0
 40
2.5
  1
`11,2,10
  7
高2.5
100
AcDbText
  0
TEXT
  5
959
330
36
100
AcDbEntity
  8
0
 62
     7
100
AcDbText
 10
-320.460488
 20
-846.7744230000002
 30
0.0
 40
2.5
  1
インバータ機種変更
  7
高2.5
100
AcDbText
  0
TEXT
  5
95A
330
36
100
AcDbEntity
  8
0
 62
     7
100
AcDbText
 10
-276.4604880000001
 20
-846.7744230000002
 30
0.0
 40
2.5
  1
牧田
  7
高2.5
100
AcDbText
  0
ARC
  5
95B
330
36
100
AcDbEntity
  8
0
100
AcDbCircle
 10
-337.8774376302877
 20
-925.93321754788
 30
0.0
 40
11.55607080624531
100
AcDbArc
 50
157.6688319132065
 51
175.0170241412316
  0
ARC
  5
960
330
36
100
AcDbEntity
  8
0
100
AcDbCircle
 10
-337.8774376302877
 20
-925.93321754788
 30
0.0
 40
11.55607080624531
100
AcDbArc
 50
185.1349063148744
 51
202.3311680867932
  0
LINE
  5
961
330
36
100
AcDbEntity
  8
0
100
AcDbLine
 10
-348.566839675183
 20
-921.5423797688746
 30
0.0
 11
-349.9949531912213
 21
-922.1991862044824
 31
0.0
  0
LINE
  5
962
330
36
100
AcDbEntity
  8
0
100
AcDbLine
 10
-348.566839675183
 20
-930.3240553268857
 30
0.0
 11
-350.1343588127241
 21
-929.6397523885268
 31
0.0
  0
LINE
  5
A0C
330
36
100
AcDbEntity
  8
0
 62
     3
100
AcDbLine
 10
-373.8793608008332
 20
-1019.302456459872
 30
0.0
 11
-373.8793608008332
 21
-1052.302456459872
 31
0.0
  0
TEXT
  5
A0D
330
36
100
AcDbEntity
  8
0
 62
     3
100
AcDbText
 10
-349.2650688008332
 20
-1029.802456459872
 30
0.0
 40
3.2
  1
SC-075
  7
高3.2
100
AcDbText
  0
TEXT
  5
A0E
330
36
100
AcDbEntity
  8
0
 62
     3
100
AcDbText
 10
-349.2650688008332
 20
-1035.302456459872
 30
0.0
 40
3.2
  1
0.75kW
  7
高3.2
100
AcDbText
  0
TEXT
  5
A0F
330
36
100
AcDbEntity
  8
0
 62
     3
100
AcDbText
 10
-349.2650688008332
 20
-1051.802456459872
 30
0.0
 40
3.2
  1
3.5kg
  7
高3.2
100
AcDbText
  0
TEXT
  5
A10
330
36
100
AcDbEntity
  8
0
 62
     3
100
AcDbText
 10
-370.8133988571347
 20
-1024.421517459872
 30
0.0
 40
4.5
  1
3相200Vスピードコントローラ
  7
高4.5
100
AcDbText
  0
TEXT
  5
A11
330
36
100
AcDbEntity
  8
0
 62
     3
100
AcDbText
 10
-372.3793608008332
 20
-1029.802456459872
 30
0.0
 40
3.2
  1
型　　　式
  7
高3.2
100
AcDbText
  0
TEXT
  5
A13
330
36
100
AcDbEntity
  8
0
 62
     3
100
AcDbText
 10
-372.3793608008332
 20
-1040.802456459872
 30
0.0
 40
3.2
  1
入　　　力
  7
高3.2
100
AcDbText
  0
TEXT
  5
A15
330
36
100
AcDbEntity
  8
0
 62
     3
100
AcDbText
 10
-372.3793608008332
 20
-1046.302456459872
 30
0.0
 40
3.2
  1
出　　　力
  7
高3.2
100
AcDbText
  0
TEXT
  5
A17
330
36
100
AcDbEntity
  8
0
 62
     3
100
AcDbText
 10
-372.3793608008332
 20
-1051.802456459872
 30
0.0
 40
3.2
  1
質　　　量
  7
高3.2
100
AcDbText
  0
TEXT
  5
A19
330
36
100
AcDbEntity
  8
0
 62
     3
100
AcDbText
 10
-372.3793608008332
 20
-1035.302456459872
 30
0.0
 40
3.2
  1
モータ容量
  7
高3.2
100
AcDbText
  0
TEXT
  5
A1A
330
36
100
AcDbEntity
  8
0
 62
     3
100
AcDbText
 10
-349.2650688008332
 20
-1040.802456459872
 30
0.0
 40
3.2
  1
AC200-240V　50／60Hz
  7
高3.2
100
AcDbText
  0
TEXT
  5
A1B
330
36
100
AcDbEntity
  8
0
 62
     3
100
AcDbText
 10
-349.2650688008332
 20
-1046.302456459872
 30
0.0
 40
3.2
  1
AC200-240V　0.2～100Hz
  7
高3.2
100
AcDbText
  0
LINE
  5
A1C
330
36
100
AcDbEntity
  8
0
 62
     3
100
AcDbLine
 10
-373.8793608008332
 20
-1052.302456459872
 30
0.0
 11
-286.7528298008332
 21
-1052.302456459872
 31
0.0
  0
LINE
  5
A1D
330
36
100
AcDbEntity
  8
0
100
AcDbLine
 10
-350.7650688008332
 20
-1024.802456459872
 30
0.0
 11
-350.7650688008332
 21
-1052.302456459872
 31
0.0
  0
LINE
  5
A1E
330
36
100
AcDbEntity
  8
0
 62
     3
100
AcDbLine
 10
-373.8793608008332
 20
-1019.302456459872
 30
0.0
 11
-286.7528298008332
 21
-1019.302456459872
 31
0.0
  0
LINE
  5
A1F
330
36
100
AcDbEntity
  8
0
100
AcDbLine
 10
-373.8793608008332
 20
-1024.802456459872
 30
0.0
 11
-286.7528298008332
 21
-1024.802456459872
 31
0.0
  0
LINE
  5
A20
330
36
100
AcDbEntity
  8
0
100
AcDbLine
 10
-373.8793608008332
 20
-1030.302456459872
 30
0.0
 11
-286.7528298008332
 21
-1030.302456459872
 31
0.0
  0
LINE
  5
A21
330
36
100
AcDbEntity
  8
0
100
AcDbLine
 10
-373.8793608008332
 20
-1035.802456459872
 30
0.0
 11
-286.7528298008332
 21
-1035.802456459872
 31
0.0
  0
LINE
  5
A22
330
36
100
AcDbEntity
  8
0
100
AcDbLine
 10
-373.8793608008332
 20
-1041.302456459872
 30
0.0
 11
-286.7528298008332
 21
-1041.302456459872
 31
0.0
  0
LINE
  5
A23
330
36
100
AcDbEntity
  8
0
100
AcDbLine
 10
-373.8793608008332
 20
-1046.802456459872
 30
0.0
 11
-286.7528298008332
 21
-1046.802456459872
 31
0.0
  0
LINE
  5
A24
330
36
100
AcDbEntity
  8
0
 62
     3
100
AcDbLine
 10
-286.7528298008332
 20
-1019.302456459872
 30
0.0
 11
-286.7528298008332
 21
-1052.302456459872
 31
0.0
  0
ARC
  5
A9B
330
36
100
AcDbEntity
  8
0
 62
     3
100
AcDbCircle
 10
-337.8774376302876
 20
-925.93321754788
 30
0.0
 40
8.677352956648617
100
AcDbArc
 50
229.9194865496266
 51
310.0805134503733
  0
LINE
  5
A9F
330
36
100
AcDbEntity
  8
0
100
AcDbLine
 10
-340.617274
 20
-940.6355969999999
 30
0.0
 11
-344.617274
 21
-940.6355969999999
 31
0.0
  0
LINE
  5
AA0
330
36
100
AcDbEntity
  8
0
100
AcDbLine
 10
-340.617274
 20
-980.635597
 30
0.0
 11
-344.617274
 21
-980.635597
 31
0.0
  0
TEXT
  5
C6D
330
36
100
AcDbEntity
  8
0
 62
     3
100
AcDbText
 10
-276.460488
 20
-841.7744230000003
 30
0.0
 40
3.2
  1
担　当
  7
高3.2
100
AcDbText
  0
TEXT
  5
C6E
330
36
100
AcDbEntity
  8
0
 62
     3
100
AcDbText
 10
-320.460488
 20
-841.7744230000003
 30
0.0
 40
3.2
  1
変更・追記内容
  7
高3.2
100
AcDbText
  0
TEXT
  5
C6F
330
36
100
AcDbEntity
  8
0
 62
     3
100
AcDbText
 10
-345.3469729996608
 20
-846.4449615099084
 30
0.0
 40
2.0
  1
1
  7
高2
100
AcDbText
  0
TEXT
  5
C70
330
36
100
AcDbEntity
  8
0
 62
     3
100
AcDbText
 10
-345.655484476418
 20
-851.6147782221814
 30
0.0
 40
2.0
  1
2
  7
高2
100
AcDbText
  0
TEXT
  5
C71
330
36
100
AcDbEntity
  8
0
 62
     3
100
AcDbText
 10
-338.460488
 20
-841.7744230000003
 30
0.0
 40
3.2
  1
日　付
  7
高3.2
100
AcDbText
  0
TEXT
  5
C72
330
36
100
AcDbEntity
  8
0
 62
     3
100
AcDbText
 10
-338.460488
 20
-836.7744230000001
 30
0.0
 40
3.2
  1
図　　　　面　　　　略　　　　歴
  7
高3.2
100
AcDbText
  0
TEXT
  5
C73
330
36
100
AcDbEntity
  8
0
 62
     3
100
AcDbText
 10
-348.460488
 20
-841.7744230000003
 30
0.0
 40
3.2
  1
記号
  7
高3.2
100
AcDbText
  0
LINE
  5
C74
330
36
100
AcDbEntity
  8
0
100
AcDbLine
 10
-344.960488
 20
-848.4835270000001
 30
0.0
 11
-346.860488
 21
-851.7744230000001
 31
0.0
  0
LINE
  5
C75
330
36
100
AcDbEntity
  8
0
100
AcDbLine
 10
-344.960488
 20
-848.4835270000001
 30
0.0
 11
-343.060488
 21
-851.7744230000001
 31
0.0
  0
LINE
  5
C76
330
36
100
AcDbEntity
  8
0
100
AcDbLine
 10
-346.860488
 20
-851.7744230000001
 30
0.0
 11
-343.060488
 21
-851.7744230000001
 31
0.0
  0
LINE
  5
C77
330
36
100
AcDbEntity
  8
0
100
AcDbLine
 10
-344.960488
 20
-843.4835260000001
 30
0.0
 11
-346.860488
 21
-846.7744230000002
 31
0.0
  0
LINE
  5
C78
330
36
100
AcDbEntity
  8
0
100
AcDbLine
 10
-344.960488
 20
-843.4835260000001
 30
0.0
 11
-343.060488
 21
-846.7744230000002
 31
0.0
  0
LINE
  5
C79
330
36
100
AcDbEntity
  8
0
100
AcDbLine
 10
-346.860488
 20
-846.7744230000002
 30
0.0
 11
-343.060488
 21
-846.7744230000002
 31
0.0
  0
LINE
  5
C7A
330
36
100
AcDbEntity
  8
0
 62
     3
100
AcDbLine
 10
-349.960488
 20
-837.2744230000003
 30
0.0
 11
-263.960488
 21
-837.2744230000003
 31
0.0
  0
LINE
  5
C7B
330
36
100
AcDbEntity
  8
0
 62
     3
100
AcDbLine
 10
-349.960488
 20
-842.2744230000002
 30
0.0
 11
-263.960488
 21
-842.2744230000002
 31
0.0
  0
LINE
  5
C7C
330
36
100
AcDbEntity
  8
0
 62
     7
100
AcDbLine
 10
-349.960488
 20
-847.2744230000001
 30
0.0
 11
-263.960488
 21
-847.2744230000001
 31
0.0
  0
LINE
  5
C7D
330
36
100
AcDbEntity
  8
0
 62
     3
100
AcDbLine
 10
-349.960488
 20
-852.2744230000002
 30
0.0
 11
-263.960488
 21
-852.2744230000002
 31
0.0
  0
LINE
  5
C7E
330
36
100
AcDbEntity
  8
0
 62
     7
100
AcDbLine
 10
-277.960488
 20
-852.2744230000002
 30
0.0
 11
-277.960488
 21
-837.2744230000003
 31
0.0
  0
LINE
  5
C7F
330
36
100
AcDbEntity
  8
0
 62
     7
100
AcDbLine
 10
-321.960488
 20
-852.2744230000002
 30
0.0
 11
-321.960488
 21
-837.2744230000003
 31
0.0
  0
LINE
  5
C80
330
36
100
AcDbEntity
  8
0
 62
     7
100
AcDbLine
 10
-339.960488
 20
-852.2744230000002
 30
0.0
 11
-339.960488
 21
-837.2744230000003
 31
0.0
  0
LINE
  5
C81
330
36
100
AcDbEntity
  8
0
 62
     3
100
AcDbLine
 10
-349.960488
 20
-852.2744230000002
 30
0.0
 11
-349.960488
 21
-832.2744230000001
 31
0.0
  0
TEXT
  5
F58
330
36
100
AcDbEntity
  8
0
 62
     3
100
AcDbText
 10
-519.1721166838505
 20
-1100.774423
 30
0.0
 40
3.2
  1
-
 41
0.8
  7
高3.2
100
AcDbText
  0
TEXT
  5
F59
330
36
100
AcDbEntity
  8
0
 62
     3
100
AcDbText
 10
-519.1721166838505
 20
-1090.774423
 30
0.0
 40
3.2
  1
-
 41
0.8
  7
高3.2
100
AcDbText
  0
TEXT
  5
F5A
330
36
100
AcDbEntity
  8
0
 62
     3
100
AcDbText
 10
-519.1721166838505
 20
-1075.774423
 30
0.0
 40
3.2
  1
50652
 41
0.8
  7
高3.2
100
AcDbText
  0
TEXT
  5
F5B
330
36
100
AcDbEntity
  8
0
 62
     3
100
AcDbText
 10
-519.1721166838505
 20
-1065.774423
 30
0.0
 40
3.2
  1
51350
 41
0.8
  7
高3.2
100
AcDbText
  0
TEXT
  5
F5C
330
36
100
AcDbEntity
  8
0
 62
     3
100
AcDbText
 10
-519.1721166838505
 20
-1095.774423
 30
0.0
 40
3.2
  1
-
 41
0.8
  7
高3.2
100
AcDbText
  0
TEXT
  5
F5D
330
36
100
AcDbEntity
  8
0
 62
     3
100
AcDbText
 10
-519.1721166838505
 20
-1085.774423
 30
0.0
 40
3.2
  1
-
 41
0.8
  7
高3.2
100
AcDbText
  0
TEXT
  5
F5E
330
36
100
AcDbEntity
  8
0
 62
     3
100
AcDbText
 10
-519.1721166838505
 20
-1060.774423
 30
0.0
 40
3.2
  1
-
 41
0.8
  7
高3.2
100
AcDbText
  0
TEXT
  5
F5F
330
36
100
AcDbEntity
  8
0
 62
     3
100
AcDbText
 10
-519.1721166838505
 20
-1035.774423
 30
0.0
 40
3.2
  1
-
 41
0.8
  7
高3.2
100
AcDbText
  0
TEXT
  5
F60
330
36
100
AcDbEntity
  8
0
 62
     3
100
AcDbText
 10
-519.1721166838505
 20
-1080.774423
 30
0.0
 40
3.2
  1
50647
 41
0.8
  7
高3.2
100
AcDbText
  0
TEXT
  5
F61
330
36
100
AcDbEntity
  8
0
 62
     3
100
AcDbText
 10
-519.1721166838505
 20
-1055.774423
 30
0.0
 40
3.2
  1
51319
 41
0.8
  7
高3.2
100
AcDbText
  0
TEXT
  5
F62
330
36
100
AcDbEntity
  8
0
 62
     3
100
AcDbText
 10
-519.1721166838505
 20
-1040.774423
 30
0.0
 40
3.2
  1
-
 41
0.8
  7
高3.2
100
AcDbText
  0
TEXT
  5
F63
330
36
100
AcDbEntity
  8
0
 62
     3
100
AcDbText
 10
-519.1721166838505
 20
-1050.774423
 30
0.0
 40
3.2
  1
-
 41
0.8
  7
高3.2
100
AcDbText
  0
TEXT
  5
F64
330
36
100
AcDbEntity
  8
0
 62
     3
100
AcDbText
 10
-519.1721166838505
 20
-1045.774423
 30
0.0
 40
3.2
  1
-
 41
0.8
  7
高3.2
100
AcDbText
  0
TEXT
  5
F65
330
36
100
AcDbEntity
  8
0
 62
     3
100
AcDbText
 10
-519.1721166838505
 20
-1030.774423
 30
0.0
 40
3.2
  1
-
 41
0.8
  7
高3.2
100
AcDbText
  0
TEXT
  5
F66
330
36
100
AcDbEntity
  8
0
 62
     3
100
AcDbText
 10
-519.1721166838505
 20
-1070.774423
 30
0.0
 40
3.2
  1
-
 41
0.8
  7
高3.2
100
AcDbText
  0
LINE
  5
F67
330
36
100
AcDbEntity
  8
0
100
AcDbLine
 10
-520.6721166838503
 20
-1106.274423
 30
0.0
 11
-520.6721166838506
 21
-1026.274423
 31
0.0
  0
TEXT
  5
F68
330
36
100
AcDbEntity
  8
0
 62
     3
100
AcDbText
 10
-519.1721166838505
 20
-1105.774423
 30
0.0
 40
3.2
  1
コード
 41
0.8
  7
高3.2
100
AcDbText
  0
TEXT
  5
F69
330
36
100
AcDbEntity
  8
0
 62
     3
100
AcDbText
 10
-503.6534329744506
 20
-1100.774423
 30
0.0
 40
3.2
  1
-
 41
0.6
  7
高3.2
100
AcDbText
  0
TEXT
  5
F6A
330
36
100
AcDbEntity
  8
0
 62
     3
100
AcDbText
 10
-503.6534329744506
 20
-1090.774423
 30
0.0
 40
3.2
  1
-
 41
0.6
  7
高3.2
100
AcDbText
  0
TEXT
  5
F6B
330
36
100
AcDbEntity
  8
0
 62
     3
100
AcDbText
 10
-503.6534329744506
 20
-1075.774423
 30
0.0
 40
3.2
  1
三菱FR-D720-0.75K
 41
0.6
  7
高3.2
100
AcDbText
  0
TEXT
  5
F6C
330
36
100
AcDbEntity
  8
0
 62
     3
100
AcDbText
 10
-503.6534329744506
 20
-1065.774423
 30
0.0
 40
3.2
  1
MU2821T09接地3P20A250V埋込コンセント
 41
0.6
  7
高3.2
100
AcDbText
  0
TEXT
  5
F6D
330
36
100
AcDbEntity
  8
0
 62
     3
100
AcDbText
 10
-503.6534329744506
 20
-1095.774423
 30
0.0
 40
3.2
  1
-
 41
0.6
  7
高3.2
100
AcDbText
  0
TEXT
  5
F6E
330
36
100
AcDbEntity
  8
0
 62
     3
100
AcDbText
 10
-503.6534329744506
 20
-1085.774423
 30
0.0
 40
3.2
  1
-
 41
0.6
  7
高3.2
100
AcDbText
  0
TEXT
  5
F6F
330
36
100
AcDbEntity
  8
0
 62
     3
100
AcDbText
 10
-503.6534329744506
 20
-1060.774423
 30
0.0
 40
3.2
  1
-
 41
0.6
  7
高3.2
100
AcDbText
  0
TEXT
  5
F70
330
36
100
AcDbEntity
  8
0
 62
     3
100
AcDbText
 10
-503.6534329744506
 20
-1035.774423
 30
0.0
 40
3.2
  1
-
 41
0.6
  7
高3.2
100
AcDbText
  0
TEXT
  5
F71
330
36
100
AcDbEntity
  8
0
 62
     3
100
AcDbText
 10
-503.6534329744506
 20
-1080.774423
 30
0.0
 40
3.2
  1
プロテクター小
 41
0.6
  7
高3.2
100
AcDbText
  0
TEXT
  5
F72
330
36
100
AcDbEntity
  8
0
 62
     3
100
AcDbText
 10
-503.6534329744506
 20
-1055.774423
 30
0.0
 40
3.2
  1
SVCT2X4X2M　4Pプラグ付
 41
0.6
  7
高3.2
100
AcDbText
  0
TEXT
  5
F73
330
36
100
AcDbEntity
  8
0
 62
     3
100
AcDbText
 10
-503.6534329744506
 20
-1040.774423
 30
0.0
 40
3.2
  1
-
 41
0.6
  7
高3.2
100
AcDbText
  0
TEXT
  5
F74
330
36
100
AcDbEntity
  8
0
 62
     3
100
AcDbText
 10
-503.6534329744506
 20
-1050.774423
 30
0.0
 40
3.2
  1
-
 41
0.6
  7
高3.2
100
AcDbText
  0
TEXT
  5
F75
330
36
100
AcDbEntity
  8
0
 62
     3
100
AcDbText
 10
-503.6534329744506
 20
-1045.774423
 30
0.0
 40
3.2
  1
-
 41
0.6
  7
高3.2
100
AcDbText
  0
TEXT
  5
F76
330
36
100
AcDbEntity
  8
0
 62
     3
100
AcDbText
 10
-503.6534329744506
 20
-1030.774423
 30
0.0
 40
3.2
  1
-
 41
0.6
  7
高3.2
100
AcDbText
  0
TEXT
  5
F77
330
36
100
AcDbEntity
  8
0
 62
     3
100
AcDbText
 10
-503.6534329744506
 20
-1070.774423
 30
0.0
 40
3.2
  1
-
 41
0.6
  7
高3.2
100
AcDbText
  0
LINE
  5
F78
330
36
100
AcDbEntity
  8
0
100
AcDbLine
 10
-505.1534329744507
 20
-1106.274423
 30
0.0
 11
-505.1534329744509
 21
-1026.274423
 31
0.0
  0
TEXT
  5
F79
330
36
100
AcDbEntity
  8
0
 62
     3
100
AcDbText
 10
-503.6534329744506
 20
-1105.774423
 30
0.0
 40
3.2
  1
コード番号名称
 41
0.6
  7
高3.2
100
AcDbText
  0
LINE
  5
1068
330
36
100
AcDbEntity
  8
0
  6
Continuous
 62
     3
100
AcDbLine
 10
-343.4644679493241
 20
-932.572611085578
 30
0.0
 11
-346.266543529867
 21
-932.572611085578
 31
0.0
  0
LINE
  5
106B
330
36
100
AcDbEntity
  8
0
  6
Continuous
 62
     3
100
AcDbLine
 10
-346.266543529867
 20
-932.572611085578
 30
0.0
 11
-346.266543529867
 21
-910.8989830340217
 31
0.0
  0
LINE
  5
106C
330
36
100
AcDbEntity
  8
0
  6
Continuous
 62
     3
100
AcDbLine
 10
-346.266543529867
 20
-910.8989830340217
 30
0.0
 11
-310.1480887350835
 21
-910.8989830340217
 31
0.0
  0
LINE
  5
106D
330
36
100
AcDbEntity
  8
0
  6
Continuous
 62
     3
100
AcDbLine
 10
-310.1480887350835
 20
-932.572611085578
 30
0.0
 11
-332.2904073112511
 21
-932.572611085578
 31
0.0
  0
LINE
  5
106E
330
36
100
AcDbEntity
  8
0
  6
Continuous
100
AcDbLine
 10
-344.4644172268393
 20
-912.4550376213079
 30
0.0
 11
-328.2344446628461
 21
-912.4550376213079
 31
0.0
  0
LINE
  5
106F
330
36
100
AcDbEntity
  8
0
  6
Continuous
100
AcDbLine
 10
-328.2344446628461
 20
-912.4550376213079
 30
0.0
 11
-328.2344446628461
 21
-918.5707565780974
 31
0.0
  0
LINE
  5
1070
330
36
100
AcDbEntity
  8
0
  6
Continuous
100
AcDbLine
 10
-328.2344446628461
 20
-918.5707565780974
 30
0.0
 11
-344.4644172268393
 21
-918.5707565780974
 31
0.0
  0
LINE
  5
1071
330
36
100
AcDbEntity
  8
0
  6
Continuous
100
AcDbLine
 10
-344.4644172268393
 20
-918.5707565780974
 30
0.0
 11
-344.4644172268393
 21
-912.4550376213079
 31
0.0
  0
ARC
  5
1072
330
36
100
AcDbEntity
  8
0
100
AcDbCircle
 10
-498.3048859999999
 20
-960.0361729999999
 30
0.0
 40
0.2500000000000568
100
AcDbArc
 50
0.0
 51
180.0
  0
ARC
  5
1073
330
36
100
AcDbEntity
  8
0
100
AcDbCircle
 10
-498.3048859999999
 20
-960.0361729999999
 30
0.0
 40
0.2500000000001137
100
AcDbArc
 50
180.0
 51
0.0
  0
ARC
  5
1074
330
36
100
AcDbEntity
  8
0
100
AcDbCircle
 10
-313.1858205920092
 20
-912.9761929999999
 30
0.0
 40
0.25
100
AcDbArc
 50
0.0
 51
180.0
  0
ARC
  5
1075
330
36
100
AcDbEntity
  8
0
100
AcDbCircle
 10
-313.1858205920092
 20
-912.9761929999999
 30
0.0
 40
0.25
100
AcDbArc
 50
180.0
 51
0.0
  0
LINE
  5
1076
330
36
100
AcDbEntity
  8
0
100
AcDbLine
 10
-414.1784109999998
 20
-909.974083
 30
0.0
 11
-413.630712
 21
-909.8975749999999
 31
0.0
  0
LINE
  5
1077
330
36
100
AcDbEntity
  8
0
100
AcDbLine
 10
-413.630712
 20
-909.8975749999999
 30
0.0
 11
-413.0846889999999
 21
-909.7741629999999
 31
0.0
  0
LINE
  5
1078
330
36
100
AcDbEntity
  8
0
100
AcDbLine
 10
-413.0846889999999
 20
-909.7741629999999
 30
0.0
 11
-412.8682669999998
 21
-909.6966509999999
 31
0.0
  0
LINE
  5
1079
330
36
100
AcDbEntity
  8
0
100
AcDbLine
 10
-412.8682669999998
 20
-909.6966509999999
 30
0.0
 11
-412.677526
 21
-909.5803609999999
 31
0.0
  0
LINE
  5
107A
330
36
100
AcDbEntity
  8
0
100
AcDbLine
 10
-412.677526
 20
-909.5803609999999
 30
0.0
 11
-412.5422099999998
 21
-909.4278069999999
 31
0.0
  0
LINE
  5
107B
330
36
100
AcDbEntity
  8
0
100
AcDbLine
 10
-412.5422099999998
 20
-909.4278069999999
 30
0.0
 11
-412.4372629999998
 21
-909.2471699999999
 31
0.0
  0
LINE
  5
107C
330
36
100
AcDbEntity
  8
0
100
AcDbLine
 10
-412.4372629999998
 20
-909.2471699999999
 30
0.0
 11
-412.3016289999998
 21
-908.9276369999996
 31
0.0
  0
LINE
  5
107D
330
36
100
AcDbEntity
  8
0
100
AcDbLine
 10
-412.3016289999998
 20
-908.9276369999996
 30
0.0
 11
-412.192236
 21
-908.6015859999999
 31
0.0
  0
LINE
  5
107E
330
36
100
AcDbEntity
  8
0
100
AcDbLine
 10
-417.642236
 20
-909.267372
 30
0.0
 11
-417.3436129999998
 21
-909.541326
 31
0.0
  0
LINE
  5
107F
330
36
100
AcDbEntity
  8
0
100
AcDbLine
 10
-417.3436129999998
 20
-909.541326
 30
0.0
 11
-417.020616
 21
-909.7741629999999
 31
0.0
  0
LINE
  5
1080
330
36
100
AcDbEntity
  8
0
100
AcDbLine
 10
-417.020616
 20
-909.7741629999999
 30
0.0
 11
-416.6573439999998
 21
-909.939299
 31
0.0
  0
LINE
  5
1081
330
36
100
AcDbEntity
  8
0
100
AcDbLine
 10
-416.6573439999998
 20
-909.939299
 30
0.0
 11
-416.273536
 21
-910.0676199999996
 31
0.0
  0
LINE
  5
1082
330
36
100
AcDbEntity
  8
0
100
AcDbLine
 10
-416.273536
 20
-910.0676199999996
 30
0.0
 11
-415.9071329999998
 21
-910.1842410000001
 31
0.0
  0
LINE
  5
1083
330
36
100
AcDbEntity
  8
0
100
AcDbLine
 10
-415.9071329999998
 20
-910.1842410000001
 30
0.0
 11
-415.5331789999998
 21
-910.267525
 31
0.0
  0
LINE
  5
1084
330
36
100
AcDbEntity
  8
0
100
AcDbLine
 10
-415.5331789999998
 20
-910.267525
 30
0.0
 11
-414.827025
 21
-910.2415160000001
 31
0.0
  0
LINE
  5
1085
330
36
100
AcDbEntity
  8
0
100
AcDbLine
 10
-414.827025
 20
-910.2415160000001
 30
0.0
 11
-414.1784109999998
 21
-909.974083
 31
0.0
  0
LINE
  5
1086
330
36
100
AcDbEntity
  8
0
100
AcDbLine
 10
-414.1784109999998
 20
-909.974083
 30
0.0
 11
-413.829204
 21
-909.681246
 31
0.0
  0
LINE
  5
1087
330
36
100
AcDbEntity
  8
0
100
AcDbLine
 10
-413.829204
 20
-909.681246
 30
0.0
 11
-413.4979679999998
 21
-909.366997
 31
0.0
  0
LINE
  5
1088
330
36
100
AcDbEntity
  8
0
100
AcDbLine
 10
-413.4979679999998
 20
-909.366997
 30
0.0
 11
-412.876244
 21
-908.942563
 31
0.0
  0
LINE
  5
1089
330
36
100
AcDbEntity
  8
0
100
AcDbLine
 10
-412.876244
 20
-908.942563
 30
0.0
 11
-412.192236
 21
-908.6015859999999
 31
0.0
  0
LINE
  5
108A
330
36
100
AcDbEntity
  8
0
100
AcDbLine
 10
-415.656062
 20
-912.542758
 30
0.0
 11
-416.2037609999998
 21
-912.619267
 31
0.0
  0
LINE
  5
108B
330
36
100
AcDbEntity
  8
0
100
AcDbLine
 10
-416.2037609999998
 20
-912.619267
 30
0.0
 11
-416.749784
 21
-912.7426789999999
 31
0.0
  0
LINE
  5
108C
330
36
100
AcDbEntity
  8
0
100
AcDbLine
 10
-416.749784
 20
-912.7426789999999
 30
0.0
 11
-416.966205
 21
-912.8201909999999
 31
0.0
  0
LINE
  5
108D
330
36
100
AcDbEntity
  8
0
100
AcDbLine
 10
-416.966205
 20
-912.8201909999999
 30
0.0
 11
-417.1569469999998
 21
-912.936481
 31
0.0
  0
LINE
  5
108E
330
36
100
AcDbEntity
  8
0
100
AcDbLine
 10
-417.1569469999998
 20
-912.936481
 30
0.0
 11
-417.292263
 21
-913.089034
 31
0.0
  0
LINE
  5
108F
330
36
100
AcDbEntity
  8
0
100
AcDbLine
 10
-417.292263
 20
-913.089034
 30
0.0
 11
-417.39721
 21
-913.269672
 31
0.0
  0
LINE
  5
1090
330
36
100
AcDbEntity
  8
0
100
AcDbLine
 10
-417.39721
 20
-913.269672
 30
0.0
 11
-417.532844
 21
-913.589205
 31
0.0
  0
LINE
  5
1091
330
36
100
AcDbEntity
  8
0
100
AcDbLine
 10
-417.532844
 20
-913.589205
 30
0.0
 11
-417.642236
 21
-913.9152559999999
 31
0.0
  0
LINE
  5
1092
330
36
100
AcDbEntity
  8
0
100
AcDbLine
 10
-412.192236
 20
-913.2494689999999
 30
0.0
 11
-412.49086
 21
-912.975516
 31
0.0
  0
LINE
  5
1093
330
36
100
AcDbEntity
  8
0
100
AcDbLine
 10
-412.49086
 20
-912.975516
 30
0.0
 11
-412.8138569999999
 21
-912.7426789999999
 31
0.0
  0
LINE
  5
1094
330
36
100
AcDbEntity
  8
0
100
AcDbLine
 10
-412.8138569999999
 20
-912.7426789999999
 30
0.0
 11
-413.1771289999998
 21
-912.577543
 31
0.0
  0
LINE
  5
1095
330
36
100
AcDbEntity
  8
0
100
AcDbLine
 10
-413.1771289999998
 20
-912.577543
 30
0.0
 11
-413.560937
 21
-912.449222
 31
0.0
  0
LINE
  5
1096
330
36
100
AcDbEntity
  8
0
100
AcDbLine
 10
-413.560937
 20
-912.449222
 30
0.0
 11
-413.92734
 21
-912.3326009999999
 31
0.0
  0
LINE
  5
1097
330
36
100
AcDbEntity
  8
0
100
AcDbLine
 10
-413.92734
 20
-912.3326009999999
 30
0.0
 11
-414.301294
 21
-912.249317
 31
0.0
  0
LINE
  5
1098
330
36
100
AcDbEntity
  8
0
100
AcDbLine
 10
-414.301294
 20
-912.249317
 30
0.0
 11
-415.0074479999998
 21
-912.2753259999999
 31
0.0
  0
LINE
  5
1099
330
36
100
AcDbEntity
  8
0
100
AcDbLine
 10
-415.0074479999998
 20
-912.2753259999999
 30
0.0
 11
-415.656062
 21
-912.542758
 31
0.0
  0
LINE
  5
109A
330
36
100
AcDbEntity
  8
0
100
AcDbLine
 10
-415.656062
 20
-912.542758
 30
0.0
 11
-416.0052689999998
 21
-912.8355960000003
 31
0.0
  0
LINE
  5
109B
330
36
100
AcDbEntity
  8
0
100
AcDbLine
 10
-416.0052689999998
 20
-912.8355960000003
 30
0.0
 11
-416.336505
 21
-913.1498449999996
 31
0.0
  0
LINE
  5
109C
330
36
100
AcDbEntity
  8
0
100
AcDbLine
 10
-416.336505
 20
-913.1498449999996
 30
0.0
 11
-416.958229
 21
-913.5742780000001
 31
0.0
  0
LINE
  5
109D
330
36
100
AcDbEntity
  8
0
100
AcDbLine
 10
-416.958229
 20
-913.5742780000001
 30
0.0
 11
-417.642236
 21
-913.9152559999999
 31
0.0
  0
LINE
  5
109E
330
36
100
AcDbEntity
  8
0
100
AcDbLine
 10
-502.8534480000001
 20
-999.6174429999999
 30
0.0
 11
-502.305749
 21
-999.540935
 31
0.0
  0
LINE
  5
109F
330
36
100
AcDbEntity
  8
0
100
AcDbLine
 10
-502.305749
 20
-999.540935
 30
0.0
 11
-501.7597269999998
 21
-999.4175229999999
 31
0.0
  0
LINE
  5
10A0
330
36
100
AcDbEntity
  8
0
100
AcDbLine
 10
-501.7597269999998
 20
-999.4175229999999
 30
0.0
 11
-501.5433049999998
 21
-999.3400109999999
 31
0.0
  0
LINE
  5
10A1
330
36
100
AcDbEntity
  8
0
100
AcDbLine
 10
-501.5433049999998
 20
-999.3400109999999
 30
0.0
 11
-501.352563
 21
-999.223721
 31
0.0
  0
LINE
  5
10A2
330
36
100
AcDbEntity
  8
0
100
AcDbLine
 10
-501.352563
 20
-999.223721
 30
0.0
 11
-501.217248
 21
-999.0711669999999
 31
0.0
  0
LINE
  5
10A3
330
36
100
AcDbEntity
  8
0
100
AcDbLine
 10
-501.217248
 20
-999.0711669999999
 30
0.0
 11
-501.1123
 21
-998.89053
 31
0.0
  0
LINE
  5
10A4
330
36
100
AcDbEntity
  8
0
100
AcDbLine
 10
-501.1123
 20
-998.89053
 30
0.0
 11
-500.976667
 21
-998.570997
 31
0.0
  0
LINE
  5
10A5
330
36
100
AcDbEntity
  8
0
100
AcDbLine
 10
-500.976667
 20
-998.570997
 30
0.0
 11
-500.867274
 21
-998.2449459999999
 31
0.0
  0
LINE
  5
10A6
330
36
100
AcDbEntity
  8
0
100
AcDbLine
 10
-506.3172739999997
 20
-998.910732
 30
0.0
 11
-506.018651
 21
-999.1846859999997
 31
0.0
  0
LINE
  5
10A7
330
36
100
AcDbEntity
  8
0
100
AcDbLine
 10
-506.018651
 20
-999.1846859999997
 30
0.0
 11
-505.695653
 21
-999.4175229999999
 31
0.0
  0
LINE
  5
10A8
330
36
100
AcDbEntity
  8
0
100
AcDbLine
 10
-505.695653
 20
-999.4175229999999
 30
0.0
 11
-505.3323820000001
 21
-999.582659
 31
0.0
  0
LINE
  5
10A9
330
36
100
AcDbEntity
  8
0
100
AcDbLine
 10
-505.3323820000001
 20
-999.582659
 30
0.0
 11
-504.948574
 21
-999.71098
 31
0.0
  0
LINE
  5
10AA
330
36
100
AcDbEntity
  8
0
100
AcDbLine
 10
-504.948574
 20
-999.71098
 30
0.0
 11
-504.582171
 21
-999.8276009999999
 31
0.0
  0
LINE
  5
10AB
330
36
100
AcDbEntity
  8
0
100
AcDbLine
 10
-504.582171
 20
-999.8276009999999
 30
0.0
 11
-504.2082169999998
 21
-999.910885
 31
0.0
  0
LINE
  5
10AC
330
36
100
AcDbEntity
  8
0
100
AcDbLine
 10
-504.2082169999998
 20
-999.910885
 30
0.0
 11
-503.5020629999998
 21
-999.8848759999999
 31
0.0
  0
LINE
  5
10AD
330
36
100
AcDbEntity
  8
0
100
AcDbLine
 10
-503.5020629999998
 20
-999.8848759999999
 30
0.0
 11
-502.8534480000001
 21
-999.6174429999999
 31
0.0
  0
LINE
  5
10AE
330
36
100
AcDbEntity
  8
0
100
AcDbLine
 10
-502.8534480000001
 20
-999.6174429999999
 30
0.0
 11
-502.504241
 21
-999.324606
 31
0.0
  0
LINE
  5
10AF
330
36
100
AcDbEntity
  8
0
100
AcDbLine
 10
-502.504241
 20
-999.324606
 30
0.0
 11
-502.173006
 21
-999.010357
 31
0.0
  0
LINE
  5
10B0
330
36
100
AcDbEntity
  8
0
100
AcDbLine
 10
-502.173006
 20
-999.010357
 30
0.0
 11
-501.551282
 21
-998.585923
 31
0.0
  0
LINE
  5
10B1
330
36
100
AcDbEntity
  8
0
100
AcDbLine
 10
-501.551282
 20
-998.585923
 30
0.0
 11
-500.867274
 21
-998.2449459999999
 31
0.0
  0
LINE
  5
10B2
330
36
100
AcDbEntity
  8
0
100
AcDbLine
 10
-527.389764
 20
-999.6174429999999
 30
0.0
 11
-526.842065
 21
-999.540935
 31
0.0
  0
LINE
  5
10B3
330
36
100
AcDbEntity
  8
0
100
AcDbLine
 10
-526.842065
 20
-999.540935
 30
0.0
 11
-526.2960429999998
 21
-999.4175229999999
 31
0.0
  0
LINE
  5
10B4
330
36
100
AcDbEntity
  8
0
100
AcDbLine
 10
-526.2960429999998
 20
-999.4175229999999
 30
0.0
 11
-526.0796209999998
 21
-999.3400109999999
 31
0.0
  0
LINE
  5
10B5
330
36
100
AcDbEntity
  8
0
100
AcDbLine
 10
-526.0796209999998
 20
-999.3400109999999
 30
0.0
 11
-525.8888789999998
 21
-999.223721
 31
0.0
  0
LINE
  5
10B6
330
36
100
AcDbEntity
  8
0
100
AcDbLine
 10
-525.8888789999998
 20
-999.223721
 30
0.0
 11
-525.7535639999998
 21
-999.0711669999999
 31
0.0
  0
LINE
  5
10B7
330
36
100
AcDbEntity
  8
0
100
AcDbLine
 10
-525.7535639999998
 20
-999.0711669999999
 30
0.0
 11
-525.648616
 21
-998.89053
 31
0.0
  0
LINE
  5
10B8
330
36
100
AcDbEntity
  8
0
100
AcDbLine
 10
-525.648616
 20
-998.89053
 30
0.0
 11
-525.5129829999998
 21
-998.570997
 31
0.0
  0
LINE
  5
10B9
330
36
100
AcDbEntity
  8
0
100
AcDbLine
 10
-525.5129829999998
 20
-998.570997
 30
0.0
 11
-525.4035899999998
 21
-998.2449459999999
 31
0.0
  0
LINE
  5
10BA
330
36
100
AcDbEntity
  8
0
100
AcDbLine
 10
-530.85359
 20
-998.9107330000001
 30
0.0
 11
-530.554966
 21
-999.1846859999997
 31
0.0
  0
LINE
  5
10BB
330
36
100
AcDbEntity
  8
0
100
AcDbLine
 10
-530.554966
 20
-999.1846859999997
 30
0.0
 11
-530.231969
 21
-999.4175229999999
 31
0.0
  0
LINE
  5
10BC
330
36
100
AcDbEntity
  8
0
100
AcDbLine
 10
-530.231969
 20
-999.4175229999999
 30
0.0
 11
-529.868698
 21
-999.582659
 31
0.0
  0
LINE
  5
10BD
330
36
100
AcDbEntity
  8
0
100
AcDbLine
 10
-529.868698
 20
-999.582659
 30
0.0
 11
-529.4848889999998
 21
-999.71098
 31
0.0
  0
LINE
  5
10BE
330
36
100
AcDbEntity
  8
0
100
AcDbLine
 10
-529.4848889999998
 20
-999.71098
 30
0.0
 11
-529.1184869999998
 21
-999.8276009999999
 31
0.0
  0
LINE
  5
10BF
330
36
100
AcDbEntity
  8
0
100
AcDbLine
 10
-529.1184869999998
 20
-999.8276009999999
 30
0.0
 11
-528.744533
 21
-999.910885
 31
0.0
  0
LINE
  5
10C0
330
36
100
AcDbEntity
  8
0
100
AcDbLine
 10
-528.744533
 20
-999.910885
 30
0.0
 11
-528.0383780000001
 21
-999.8848759999999
 31
0.0
  0
LINE
  5
10C1
330
36
100
AcDbEntity
  8
0
100
AcDbLine
 10
-528.0383780000001
 20
-999.8848759999999
 30
0.0
 11
-527.389764
 21
-999.6174429999999
 31
0.0
  0
LINE
  5
10C2
330
36
100
AcDbEntity
  8
0
100
AcDbLine
 10
-527.389764
 20
-999.6174429999999
 30
0.0
 11
-527.040557
 21
-999.324606
 31
0.0
  0
LINE
  5
10C3
330
36
100
AcDbEntity
  8
0
100
AcDbLine
 10
-527.040557
 20
-999.324606
 30
0.0
 11
-526.709321
 21
-999.010357
 31
0.0
  0
LINE
  5
10C4
330
36
100
AcDbEntity
  8
0
100
AcDbLine
 10
-526.709321
 20
-999.010357
 30
0.0
 11
-526.087598
 21
-998.585923
 31
0.0
  0
LINE
  5
10C5
330
36
100
AcDbEntity
  8
0
100
AcDbLine
 10
-526.087598
 20
-998.585923
 30
0.0
 11
-525.4035899999998
 21
-998.2449459999999
 31
0.0
  0
LINE
  5
10C6
330
36
100
AcDbEntity
  8
0
100
AcDbLine
 10
-514.117274
 20
-966.885597
 30
0.0
 11
-513.751896
 21
-966.493174
 31
0.0
  0
LINE
  5
10C7
330
36
100
AcDbEntity
  8
0
100
AcDbLine
 10
-513.751896
 20
-966.493174
 30
0.0
 11
-513.3572429999998
 21
-966.1295629999999
 31
0.0
  0
LINE
  5
10C8
330
36
100
AcDbEntity
  8
0
100
AcDbLine
 10
-513.3572429999998
 20
-966.1295629999999
 30
0.0
 11
-512.758141
 21
-965.737559
 31
0.0
  0
LINE
  5
10C9
330
36
100
AcDbEntity
  8
0
100
AcDbLine
 10
-512.758141
 20
-965.737559
 30
0.0
 11
-512.093942
 21
-965.4864279999999
 31
0.0
  0
LINE
  5
10CA
330
36
100
AcDbEntity
  8
0
100
AcDbLine
 10
-512.093942
 20
-965.4864279999999
 30
0.0
 11
-511.483253
 21
-965.3996699999996
 31
0.0
  0
LINE
  5
10CB
330
36
100
AcDbEntity
  8
0
100
AcDbLine
 10
-511.483253
 20
-965.3996699999996
 30
0.0
 11
-510.8536099999998
 21
-965.394552
 31
0.0
  0
LINE
  5
10CC
330
36
100
AcDbEntity
  8
0
100
AcDbLine
 10
-510.8536099999998
 20
-965.394552
 30
0.0
 11
-509.7936099999998
 21
-965.4862129999999
 31
0.0
  0
LINE
  5
10CD
330
36
100
AcDbEntity
  8
0
100
AcDbLine
 10
-509.7936099999998
 20
-965.4862129999999
 30
0.0
 11
-508.8323289999998
 21
-965.8309649999999
 31
0.0
  0
LINE
  5
10CE
330
36
100
AcDbEntity
  8
0
100
AcDbLine
 10
-508.8323289999998
 20
-965.8309649999999
 30
0.0
 11
-508.443659
 21
-966.1315009999999
 31
0.0
  0
LINE
  5
10CF
330
36
100
AcDbEntity
  8
0
100
AcDbLine
 10
-508.443659
 20
-966.1315009999999
 30
0.0
 11
-508.097317
 21
-966.4970689999996
 31
0.0
  0
LINE
  5
10D0
330
36
100
AcDbEntity
  8
0
100
AcDbLine
 10
-508.097317
 20
-966.4970689999996
 30
0.0
 11
-507.4207019999998
 21
-967.4759919999999
 31
0.0
  0
LINE
  5
10D1
330
36
100
AcDbEntity
  8
0
100
AcDbLine
 10
-507.4207019999998
 20
-967.4759919999999
 30
0.0
 11
-507.017769
 21
-968.564289
 31
0.0
  0
LINE
  5
10D2
330
36
100
AcDbEntity
  8
0
100
AcDbLine
 10
-507.017769
 20
-968.564289
 30
0.0
 11
-506.9571299999998
 21
-969.618647
 31
0.0
  0
LINE
  5
10D3
330
36
100
AcDbEntity
  8
0
100
AcDbLine
 10
-506.9571299999998
 20
-969.618647
 30
0.0
 11
-507.132615
 21
-970.700416
 31
0.0
  0
LINE
  5
10D4
330
36
100
AcDbEntity
  8
0
100
AcDbLine
 10
-507.132615
 20
-970.700416
 30
0.0
 11
-507.6050229999998
 21
-972.0464640000001
 31
0.0
  0
LINE
  5
10D5
330
36
100
AcDbEntity
  8
0
100
AcDbLine
 10
-507.6050229999998
 20
-972.0464640000001
 30
0.0
 11
-508.418885
 21
-973.112172
 31
0.0
  0
LINE
  5
10D6
330
36
100
AcDbEntity
  8
0
100
AcDbLine
 10
-508.418885
 20
-973.112172
 30
0.0
 11
-510.4256519999998
 21
-973.7811549999999
 31
0.0
  0
LINE
  5
10D7
330
36
100
AcDbEntity
  8
0
100
AcDbLine
 10
-510.4256519999998
 20
-973.7811549999999
 30
0.0
 11
-512.691139
 21
-973.4567089999996
 31
0.0
  0
LINE
  5
10D8
330
36
100
AcDbEntity
  8
0
100
AcDbLine
 10
-512.691139
 20
-973.4567089999996
 30
0.0
 11
-513.4230209999998
 21
-973.1772580000001
 31
0.0
  0
LINE
  5
10D9
330
36
100
AcDbEntity
  8
0
100
AcDbLine
 10
-513.4230209999998
 20
-973.1772580000001
 30
0.0
 11
-514.117274
 21
-972.8595119999999
 31
0.0
  0
LINE
  5
10DA
330
36
100
AcDbEntity
  8
0
100
AcDbLine
 10
-602.04312
 20
-995.5857609999997
 30
0.0
 11
-601.86776
 21
-993.522648
 31
0.0
  0
LINE
  5
10DB
330
36
100
AcDbEntity
  8
0
100
AcDbLine
 10
-601.86776
 20
-993.522648
 30
0.0
 11
-603.051183
 21
-995.2216769999999
 31
0.0
  0
ARC
  5
10DC
330
36
100
AcDbEntity
  8
0
100
AcDbCircle
 10
-517.6172740000001
 20
-993.3297029999996
 30
0.0
 40
0.25
100
AcDbArc
 50
0.0
 51
180.0
  0
ARC
  5
10DD
330
36
100
AcDbEntity
  8
0
100
AcDbCircle
 10
-517.6172740000001
 20
-993.3297029999996
 30
0.0
 40
0.25
100
AcDbArc
 50
180.0
 51
0.0
  0
ARC
  5
10DE
330
36
100
AcDbEntity
  8
0
100
AcDbCircle
 10
-464.6172739999999
 20
-975.2265699999997
 30
0.0
 40
0.25
100
AcDbArc
 50
0.0
 51
180.0
  0
ARC
  5
10DF
330
36
100
AcDbEntity
  8
0
100
AcDbCircle
 10
-464.6172739999999
 20
-975.2265699999997
 30
0.0
 40
0.25
100
AcDbArc
 50
180.0
 51
0.0
  0
ARC
  5
10E0
330
36
100
AcDbEntity
  8
0
100
AcDbCircle
 10
-459.1704959999998
 20
-965.101858
 30
0.0
 40
0.25
100
AcDbArc
 50
0.0
 51
180.0
  0
ARC
  5
10E1
330
36
100
AcDbEntity
  8
0
100
AcDbCircle
 10
-459.1704959999998
 20
-965.101858
 30
0.0
 40
0.25
100
AcDbArc
 50
180.0
 51
0.0
  0
ARC
  5
10E2
330
36
100
AcDbEntity
  8
0
100
AcDbCircle
 10
-484.9902059999998
 20
-981.063134
 30
0.0
 40
0.25
100
AcDbArc
 50
0.0
 51
180.0
  0
ARC
  5
10E3
330
36
100
AcDbEntity
  8
0
100
AcDbCircle
 10
-484.9902059999998
 20
-981.063134
 30
0.0
 40
0.25
100
AcDbArc
 50
180.0
 51
0.0
  0
ARC
  5
10E4
330
36
100
AcDbEntity
  8
0
100
AcDbCircle
 10
-499.2171499999999
 20
-976.5019200000001
 30
0.0
 40
0.2499999999999432
100
AcDbArc
 50
0.0
 51
180.0
  0
ARC
  5
10E5
330
36
100
AcDbEntity
  8
0
100
AcDbCircle
 10
-499.2171499999999
 20
-976.5019200000001
 30
0.0
 40
0.2499999999998863
100
AcDbArc
 50
180.0
 51
0.0
  0
ARC
  5
10E6
330
36
100
AcDbEntity
  8
0
100
AcDbCircle
 10
-515.210151
 20
-969.408377
 30
0.0
 40
0.25
100
AcDbArc
 50
0.0
 51
180.0
  0
ARC
  5
10E7
330
36
100
AcDbEntity
  8
0
100
AcDbCircle
 10
-515.210151
 20
-969.408377
 30
0.0
 40
0.2499999999998863
100
AcDbArc
 50
180.0
 51
0.0
  0
ARC
  5
10E8
330
36
100
AcDbEntity
  8
0
100
AcDbCircle
 10
-610.8028189999999
 20
-894.123364
 30
0.0
 40
0.25
100
AcDbArc
 50
0.0
 51
180.0
  0
ARC
  5
10E9
330
36
100
AcDbEntity
  8
0
100
AcDbCircle
 10
-610.8028189999999
 20
-894.123364
 30
0.0
 40
0.25
100
AcDbArc
 50
180.0
 51
0.0
  0
ARC
  5
10EA
330
36
100
AcDbEntity
  8
0
100
AcDbCircle
 10
-506.350048
 20
-915.340325
 30
0.0
 40
0.25
100
AcDbArc
 50
0.0
 51
180.0
  0
ARC
  5
10EB
330
36
100
AcDbEntity
  8
0
100
AcDbCircle
 10
-506.350048
 20
-915.340325
 30
0.0
 40
0.25
100
AcDbArc
 50
180.0
 51
0.0
  0
ARC
  5
10EC
330
36
100
AcDbEntity
  8
0
100
AcDbCircle
 10
-336.190381
 20
-986.3649449999996
 30
0.0
 40
0.25
100
AcDbArc
 50
0.0
 51
180.0
  0
ARC
  5
10ED
330
36
100
AcDbEntity
  8
0
100
AcDbCircle
 10
-336.190381
 20
-986.3649449999996
 30
0.0
 40
0.25
100
AcDbArc
 50
180.0
 51
0.0
  0
ARC
  5
10EE
330
36
100
AcDbEntity
  8
0
100
AcDbCircle
 10
-511.848115
 20
-930.260256
 30
0.0
 40
0.2499999999999432
100
AcDbArc
 50
0.0
 51
180.0
  0
ARC
  5
10EF
330
36
100
AcDbEntity
  8
0
100
AcDbCircle
 10
-511.848115
 20
-930.260256
 30
0.0
 40
0.25
100
AcDbArc
 50
180.0
 51
0.0
  0
ARC
  5
10F0
330
36
100
AcDbEntity
  8
0
100
AcDbCircle
 10
-568.07604
 20
-892.276342
 30
0.0
 40
0.25
100
AcDbArc
 50
0.0
 51
180.0
  0
ARC
  5
10F1
330
36
100
AcDbEntity
  8
0
100
AcDbCircle
 10
-568.07604
 20
-892.276342
 30
0.0
 40
0.25
100
AcDbArc
 50
180.0
 51
0.0
  0
ARC
  5
10F2
330
36
100
AcDbEntity
  8
0
100
AcDbCircle
 10
-355.407965
 20
-887.9421070000002
 30
0.0
 40
0.25
100
AcDbArc
 50
0.0
 51
180.0
  0
ARC
  5
10F3
330
36
100
AcDbEntity
  8
0
100
AcDbCircle
 10
-355.407965
 20
-887.9421070000002
 30
0.0
 40
0.25
100
AcDbArc
 50
180.0
 51
0.0
  0
ARC
  5
10F4
330
36
100
AcDbEntity
  8
0
100
AcDbCircle
 10
-365.804898
 20
-880.432603
 30
0.0
 40
0.25
100
AcDbArc
 50
0.0
 51
180.0
  0
ARC
  5
10F5
330
36
100
AcDbEntity
  8
0
100
AcDbCircle
 10
-365.804898
 20
-880.432603
 30
0.0
 40
0.25
100
AcDbArc
 50
180.0
 51
0.0
  0
ARC
  5
10F6
330
36
100
AcDbEntity
  8
0
100
AcDbCircle
 10
-367.909734
 20
-921.021608
 30
0.0
 40
0.25
100
AcDbArc
 50
0.0
 51
180.0
  0
ARC
  5
10F7
330
36
100
AcDbEntity
  8
0
100
AcDbCircle
 10
-367.909734
 20
-921.021608
 30
0.0
 40
0.25
100
AcDbArc
 50
180.0
 51
0.0
  0
ARC
  5
10F8
330
36
100
AcDbEntity
  8
0
100
AcDbCircle
 10
-375.605304
 20
-928.841964
 30
0.0
 40
0.25
100
AcDbArc
 50
0.0
 51
180.0
  0
ARC
  5
10F9
330
36
100
AcDbEntity
  8
0
100
AcDbCircle
 10
-375.605304
 20
-928.841964
 30
0.0
 40
0.25
100
AcDbArc
 50
180.0
 51
0.0
  0
ARC
  5
10FA
330
36
100
AcDbEntity
  8
0
100
AcDbCircle
 10
-409.4517539999999
 20
-886.919714
 30
0.0
 40
0.2500000000001137
100
AcDbArc
 50
0.0
 51
180.0
  0
ARC
  5
10FB
330
36
100
AcDbEntity
  8
0
100
AcDbCircle
 10
-409.4517539999999
 20
-886.919714
 30
0.0
 40
0.2500000000000568
100
AcDbArc
 50
180.0
 51
0.0
  0
LINE
  5
10FC
330
36
100
AcDbEntity
  8
0
100
AcDbLine
 10
-603.29029
 20
-992.6355969999999
 30
0.0
 11
-627.7646679999998
 21
-992.6355969999999
 31
0.0
  0
LINE
  5
10FD
330
36
100
AcDbEntity
  8
0
100
AcDbLine
 10
-602.8565489999997
 20
-882.6355970000001
 30
0.0
 11
-627.7646679999998
 21
-882.6355970000001
 31
0.0
  0
LINE
  5
10FE
330
36
100
AcDbEntity
  8
0
100
AcDbLine
 10
-626.5146679999998
 20
-990.1355969999999
 30
0.0
 11
-626.5146679999998
 21
-885.1355970000001
 31
0.0
  0
LINE
  5
1102
330
36
100
AcDbEntity
  8
0
100
AcDbLine
 10
-606.425832
 20
-995.635597
 30
0.0
 11
-636.8749719999999
 21
-995.635597
 31
0.0
  0
LINE
  5
1103
330
36
100
AcDbEntity
  8
0
100
AcDbLine
 10
-606.425832
 20
-879.635597
 30
0.0
 11
-636.8749719999999
 21
-879.635597
 31
0.0
  0
LINE
  5
1104
330
36
100
AcDbEntity
  8
0
100
AcDbLine
 10
-635.624972
 20
-993.135597
 30
0.0
 11
-635.624972
 21
-882.135597
 31
0.0
  0
LINE
  5
1108
330
36
100
AcDbEntity
  8
0
100
AcDbLine
 10
-342.367274
 20
-989.2855970000001
 30
0.0
 11
-282.786617
 21
-989.2855970000001
 31
0.0
  0
LINE
  5
1109
330
36
100
AcDbEntity
  8
0
100
AcDbLine
 10
-342.98194
 20
-872.1355970000002
 30
0.0
 11
-282.786617
 21
-872.1355970000002
 31
0.0
  0
LINE
  5
110A
330
36
100
AcDbEntity
  8
0
100
AcDbLine
 10
-284.036617
 20
-986.785597
 30
0.0
 11
-284.036617
 21
-874.6355970000003
 31
0.0
  0
LINE
  5
110E
330
36
100
AcDbEntity
  8
0
100
AcDbLine
 10
-309.817274
 20
-989.2855970000001
 30
0.0
 11
-290.663368
 21
-989.2855970000001
 31
0.0
  0
LINE
  5
110F
330
36
100
AcDbEntity
  8
0
100
AcDbLine
 10
-310.518941
 20
-885.9855970000001
 30
0.0
 11
-290.663368
 21
-885.9855970000001
 31
0.0
  0
LINE
  5
1110
330
36
100
AcDbEntity
  8
0
100
AcDbLine
 10
-291.9133680000001
 20
-986.785597
 30
0.0
 11
-291.913368
 21
-888.4855970000002
 31
0.0
  0
LINE
  5
1114
330
36
100
AcDbEntity
  8
0
100
AcDbLine
 10
-381.767274
 20
-982.9355969999999
 30
0.0
 11
-381.767274
 21
-1002.545473
 31
0.0
  0
LINE
  5
1115
330
36
100
AcDbEntity
  8
0
100
AcDbLine
 10
-303.467274
 20
-982.9355969999999
 30
0.0
 11
-303.467274
 21
-1002.545473
 31
0.0
  0
LINE
  5
1116
330
36
100
AcDbEntity
  8
0
100
AcDbLine
 10
-379.267274
 20
-1001.295473
 30
0.0
 11
-305.967274
 21
-1001.295473
 31
0.0
  0
LINE
  5
111A
330
36
100
AcDbEntity
  8
0
100
AcDbLine
 10
-581.175832
 20
-994.0105969999999
 30
0.0
 11
-581.175832
 21
-1004.711385
 31
0.0
  0
LINE
  5
111B
330
36
100
AcDbEntity
  8
0
100
AcDbLine
 10
-561.1758319999998
 20
-994.643545
 30
0.0
 11
-561.1758319999998
 21
-1004.711385
 31
0.0
  0
LINE
  5
111C
330
36
100
AcDbEntity
  8
0
100
AcDbLine
 10
-578.675832
 20
-1003.461385
 30
0.0
 11
-563.6758319999999
 21
-1003.461385
 31
0.0
  0
LINE
  5
1120
330
36
100
AcDbEntity
  8
0
100
AcDbLine
 10
-601.175832
 20
-994.685497
 30
0.0
 11
-601.175832
 21
-1004.711385
 31
0.0
  0
LINE
  5
1121
330
36
100
AcDbEntity
  8
0
100
AcDbLine
 10
-581.175832
 20
-994.6015890000001
 30
0.0
 11
-581.175832
 21
-1004.711385
 31
0.0
  0
LINE
  5
1122
330
36
100
AcDbEntity
  8
0
100
AcDbLine
 10
-598.6758319999999
 20
-1003.461385
 30
0.0
 11
-583.675832
 21
-1003.461385
 31
0.0
  0
LINE
  5
1126
330
36
100
AcDbEntity
  8
0
100
AcDbLine
 10
-517.6172740000001
 20
-882.8855970000001
 30
0.0
 11
-517.6172740000001
 21
-862.7803949999998
 31
0.0
  0
LINE
  5
1127
330
36
100
AcDbEntity
  8
0
100
AcDbLine
 10
-514.617274
 20
-868.717544
 30
0.0
 11
-514.617274
 21
-862.7803949999998
 31
0.0
  0
LINE
  5
1128
330
36
100
AcDbEntity
  8
0
100
AcDbLine
 10
-512.117274
 20
-864.0303949999999
 30
0.0
 11
-509.617274
 21
-864.0303949999999
 31
0.0
  0
LINE
  5
1129
330
36
100
AcDbEntity
  8
0
100
AcDbLine
 10
-520.1172740000002
 20
-864.0303949999999
 30
0.0
 11
-525.8672740000001
 21
-864.0303949999999
 31
0.0
  0
LINE
  5
112A
330
36
100
AcDbEntity
  8
0
100
AcDbLine
 10
-514.617274
 20
-864.0303949999999
 30
0.0
 11
-517.6172740000001
 21
-864.0303949999999
 31
0.0
  0
LINE
  5
112E
330
36
100
AcDbEntity
  8
0
100
AcDbLine
 10
-514.617274
 20
-886.7175439999996
 30
0.0
 11
-514.617274
 21
-862.7803949999998
 31
0.0
  0
LINE
  5
112F
330
36
100
AcDbEntity
  8
0
100
AcDbLine
 10
-436.1172739999998
 20
-886.6867670000001
 30
0.0
 11
-436.1172739999998
 21
-862.7803949999998
 31
0.0
  0
LINE
  5
1130
330
36
100
AcDbEntity
  8
0
100
AcDbLine
 10
-512.117274
 20
-864.0303949999999
 30
0.0
 11
-438.6172739999998
 21
-864.0303949999999
 31
0.0
  0
LINE
  5
1134
330
36
100
AcDbEntity
  8
0
100
AcDbLine
 10
-443.6172739999998
 20
-885.606985
 30
0.0
 11
-443.6172739999998
 21
-872.1041679999999
 31
0.0
  0
LINE
  5
1135
330
36
100
AcDbEntity
  8
0
100
AcDbLine
 10
-436.1172739999998
 20
-887.5142419999999
 30
0.0
 11
-436.1172739999998
 21
-872.1041679999999
 31
0.0
  0
LINE
  5
1136
330
36
100
AcDbEntity
  8
0
100
AcDbLine
 10
-441.1172739999998
 20
-873.354168
 30
0.0
 11
-438.6172739999998
 21
-873.354168
 31
0.0
  0
LINE
  5
113A
330
36
100
AcDbEntity
  8
0
100
AcDbLine
 10
-479.3672739999999
 20
-886.9675439999998
 30
0.0
 11
-497.3197099999999
 21
-886.9675439999998
 31
0.0
  0
LINE
  5
113B
330
36
100
AcDbEntity
  8
0
100
AcDbLine
 10
-477.3672739999998
 20
-871.9675439999999
 30
0.0
 11
-497.3197099999999
 21
-871.9675439999999
 31
0.0
  0
LINE
  5
113C
330
36
100
AcDbEntity
  8
0
100
AcDbLine
 10
-496.0697099999999
 20
-884.4675439999997
 30
0.0
 11
-496.0697099999999
 21
-874.4675439999998
 31
0.0
  0
TEXT
  5
1140
330
36
100
AcDbEntity
  8
0
 62
     4
100
AcDbText
 10
-627.1396679999996
 20
-943.3855970000001
 30
0.0
 40
3.0
  1
(220)
 50
90.0
100
AcDbText
  0
LINE
  5
1141
330
36
100
AcDbEntity
  8
0
  6
ByBlock
 62
     0
370
    -2
100
AcDbLine
 10
-627.1845404999997
 20
-885.1355970000001
 30
0.0
 11
-626.5146679999998
 21
-882.6355970000001
 31
0.0
  0
LINE
  5
1142
330
36
100
AcDbEntity
  8
0
  6
ByBlock
 62
     0
370
    -2
100
AcDbLine
 10
-626.5146679999998
 20
-882.6355970000001
 30
0.0
 11
-625.8447954999998
 21
-885.1355970000001
 31
0.0
  0
LINE
  5
1143
330
36
100
AcDbEntity
  8
0
  6
ByBlock
 62
     0
370
    -2
100
AcDbLine
 10
-626.5146679999998
 20
-882.6355970000001
 30
0.0
 11
-626.5146679999998
 21
-885.1355970000001
 31
0.0
  0
LINE
  5
1144
330
36
100
AcDbEntity
  8
0
  6
ByBlock
 62
     0
370
    -2
100
AcDbLine
 10
-625.8447954999998
 20
-990.1355969999999
 30
0.0
 11
-626.5146679999998
 21
-992.6355969999999
 31
0.0
  0
LINE
  5
1145
330
36
100
AcDbEntity
  8
0
  6
ByBlock
 62
     0
370
    -2
100
AcDbLine
 10
-626.5146679999998
 20
-992.6355969999999
 30
0.0
 11
-627.1845404999997
 21
-990.1355969999999
 31
0.0
  0
LINE
  5
1146
330
36
100
AcDbEntity
  8
0
  6
ByBlock
 62
     0
370
    -2
100
AcDbLine
 10
-626.5146679999998
 20
-992.6355969999999
 30
0.0
 11
-626.5146679999998
 21
-990.1355969999999
 31
0.0
  0
TEXT
  5
1147
330
36
100
AcDbEntity
  8
0
 62
     4
100
AcDbText
 10
-636.2499719999998
 20
-943.6355970000002
 30
0.0
 40
3.0
  1
(232)
 50
90.0
100
AcDbText
  0
LINE
  5
1148
330
36
100
AcDbEntity
  8
0
  6
ByBlock
 62
     0
370
    -2
100
AcDbLine
 10
-636.2948444999999
 20
-882.135597
 30
0.0
 11
-635.624972
 21
-879.635597
 31
0.0
  0
LINE
  5
1149
330
36
100
AcDbEntity
  8
0
  6
ByBlock
 62
     0
370
    -2
100
AcDbLine
 10
-635.624972
 20
-879.635597
 30
0.0
 11
-634.9550994999999
 21
-882.135597
 31
0.0
  0
LINE
  5
114A
330
36
100
AcDbEntity
  8
0
  6
ByBlock
 62
     0
370
    -2
100
AcDbLine
 10
-635.624972
 20
-879.635597
 30
0.0
 11
-635.624972
 21
-882.135597
 31
0.0
  0
LINE
  5
114B
330
36
100
AcDbEntity
  8
0
  6
ByBlock
 62
     0
370
    -2
100
AcDbLine
 10
-634.9550994999999
 20
-993.135597
 30
0.0
 11
-635.624972
 21
-995.635597
 31
0.0
  0
LINE
  5
114C
330
36
100
AcDbEntity
  8
0
  6
ByBlock
 62
     0
370
    -2
100
AcDbLine
 10
-635.624972
 20
-995.635597
 30
0.0
 11
-636.2948444999999
 21
-993.135597
 31
0.0
  0
LINE
  5
114D
330
36
100
AcDbEntity
  8
0
  6
ByBlock
 62
     0
370
    -2
100
AcDbLine
 10
-635.624972
 20
-995.635597
 30
0.0
 11
-635.624972
 21
-993.135597
 31
0.0
  0
TEXT
  5
114E
330
36
100
AcDbEntity
  8
0
 62
     4
100
AcDbText
 10
-284.6616169999999
 20
-934.7105970000002
 30
0.0
 40
3.0
  1
234
 50
90.0
100
AcDbText
  0
LINE
  5
114F
330
36
100
AcDbEntity
  8
0
  6
ByBlock
 62
     0
370
    -2
100
AcDbLine
 10
-284.7064895
 20
-874.6355970000003
 30
0.0
 11
-284.036617
 21
-872.1355970000002
 31
0.0
  0
LINE
  5
1150
330
36
100
AcDbEntity
  8
0
  6
ByBlock
 62
     0
370
    -2
100
AcDbLine
 10
-284.036617
 20
-872.1355970000002
 30
0.0
 11
-283.3667445
 21
-874.6355970000003
 31
0.0
  0
LINE
  5
1151
330
36
100
AcDbEntity
  8
0
  6
ByBlock
 62
     0
370
    -2
100
AcDbLine
 10
-284.036617
 20
-872.1355970000002
 30
0.0
 11
-284.036617
 21
-874.6355970000003
 31
0.0
  0
LINE
  5
1152
330
36
100
AcDbEntity
  8
0
  6
ByBlock
 62
     0
370
    -2
100
AcDbLine
 10
-283.3667445000001
 20
-986.785597
 30
0.0
 11
-284.036617
 21
-989.2855970000001
 31
0.0
  0
LINE
  5
1153
330
36
100
AcDbEntity
  8
0
  6
ByBlock
 62
     0
370
    -2
100
AcDbLine
 10
-284.036617
 20
-989.2855970000001
 30
0.0
 11
-284.7064895
 21
-986.785597
 31
0.0
  0
LINE
  5
1154
330
36
100
AcDbEntity
  8
0
  6
ByBlock
 62
     0
370
    -2
100
AcDbLine
 10
-284.036617
 20
-989.2855970000001
 30
0.0
 11
-284.036617
 21
-986.785597
 31
0.0
  0
TEXT
  5
1155
330
36
100
AcDbEntity
  8
0
 62
     4
100
AcDbText
 10
-292.5383679999999
 20
-941.3855970000001
 30
0.0
 40
3.0
  1
207
 50
90.0
100
AcDbText
  0
LINE
  5
1156
330
36
100
AcDbEntity
  8
0
  6
ByBlock
 62
     0
370
    -2
100
AcDbLine
 10
-292.5832405
 20
-888.4855970000002
 30
0.0
 11
-291.913368
 21
-885.9855970000001
 31
0.0
  0
LINE
  5
1157
330
36
100
AcDbEntity
  8
0
  6
ByBlock
 62
     0
370
    -2
100
AcDbLine
 10
-291.913368
 20
-885.9855970000001
 30
0.0
 11
-291.2434955
 21
-888.4855970000002
 31
0.0
  0
LINE
  5
1158
330
36
100
AcDbEntity
  8
0
  6
ByBlock
 62
     0
370
    -2
100
AcDbLine
 10
-291.913368
 20
-885.9855970000001
 30
0.0
 11
-291.913368
 21
-888.4855970000002
 31
0.0
  0
LINE
  5
1159
330
36
100
AcDbEntity
  8
0
  6
ByBlock
 62
     0
370
    -2
100
AcDbLine
 10
-291.2434955000001
 20
-986.785597
 30
0.0
 11
-291.9133680000001
 21
-989.2855970000001
 31
0.0
  0
LINE
  5
115A
330
36
100
AcDbEntity
  8
0
  6
ByBlock
 62
     0
370
    -2
100
AcDbLine
 10
-291.9133680000001
 20
-989.2855970000001
 30
0.0
 11
-292.5832405
 21
-986.785597
 31
0.0
  0
LINE
  5
115B
330
36
100
AcDbEntity
  8
0
  6
ByBlock
 62
     0
370
    -2
100
AcDbLine
 10
-291.9133680000001
 20
-989.2855970000001
 30
0.0
 11
-291.9133680000001
 21
-986.785597
 31
0.0
  0
TEXT
  5
115C
330
36
100
AcDbEntity
  8
0
 62
     4
100
AcDbText
 10
-346.1172740000001
 20
-1000.670473
 30
0.0
 40
3.0
  1
157
100
AcDbText
  0
LINE
  5
115D
330
36
100
AcDbEntity
  8
0
  6
ByBlock
 62
     0
370
    -2
100
AcDbLine
 10
-305.967274
 20
-1000.6256005
 30
0.0
 11
-303.467274
 21
-1001.295473
 31
0.0
  0
LINE
  5
115E
330
36
100
AcDbEntity
  8
0
  6
ByBlock
 62
     0
370
    -2
100
AcDbLine
 10
-303.467274
 20
-1001.295473
 30
0.0
 11
-305.967274
 21
-1001.9653455
 31
0.0
  0
LINE
  5
115F
330
36
100
AcDbEntity
  8
0
  6
ByBlock
 62
     0
370
    -2
100
AcDbLine
 10
-303.467274
 20
-1001.295473
 30
0.0
 11
-305.967274
 21
-1001.295473
 31
0.0
  0
LINE
  5
1160
330
36
100
AcDbEntity
  8
0
  6
ByBlock
 62
     0
370
    -2
100
AcDbLine
 10
-379.267274
 20
-1001.9653455
 30
0.0
 11
-381.767274
 21
-1001.295473
 31
0.0
  0
LINE
  5
1161
330
36
100
AcDbEntity
  8
0
  6
ByBlock
 62
     0
370
    -2
100
AcDbLine
 10
-381.767274
 20
-1001.295473
 30
0.0
 11
-379.267274
 21
-1000.6256005
 31
0.0
  0
LINE
  5
1162
330
36
100
AcDbEntity
  8
0
  6
ByBlock
 62
     0
370
    -2
100
AcDbLine
 10
-381.767274
 20
-1001.295473
 30
0.0
 11
-379.267274
 21
-1001.295473
 31
0.0
  0
TEXT
  5
1163
330
36
100
AcDbEntity
  8
0
 62
     4
100
AcDbText
 10
-573.4258319999999
 20
-1002.836385
 30
0.0
 40
3.0
  1
40
100
AcDbText
  0
LINE
  5
1164
330
36
100
AcDbEntity
  8
0
  6
ByBlock
 62
     0
370
    -2
100
AcDbLine
 10
-563.6758319999999
 20
-1002.7915125
 30
0.0
 11
-561.1758319999998
 21
-1003.461385
 31
0.0
  0
LINE
  5
1165
330
36
100
AcDbEntity
  8
0
  6
ByBlock
 62
     0
370
    -2
100
AcDbLine
 10
-561.1758319999998
 20
-1003.461385
 30
0.0
 11
-563.6758319999999
 21
-1004.1312575
 31
0.0
  0
LINE
  5
1166
330
36
100
AcDbEntity
  8
0
  6
ByBlock
 62
     0
370
    -2
100
AcDbLine
 10
-561.1758319999998
 20
-1003.461385
 30
0.0
 11
-563.6758319999999
 21
-1003.461385
 31
0.0
  0
LINE
  5
1167
330
36
100
AcDbEntity
  8
0
  6
ByBlock
 62
     0
370
    -2
100
AcDbLine
 10
-578.675832
 20
-1004.1312575
 30
0.0
 11
-581.175832
 21
-1003.461385
 31
0.0
  0
LINE
  5
1168
330
36
100
AcDbEntity
  8
0
  6
ByBlock
 62
     0
370
    -2
100
AcDbLine
 10
-581.175832
 20
-1003.461385
 30
0.0
 11
-578.675832
 21
-1002.7915125
 31
0.0
  0
LINE
  5
1169
330
36
100
AcDbEntity
  8
0
  6
ByBlock
 62
     0
370
    -2
100
AcDbLine
 10
-581.175832
 20
-1003.461385
 30
0.0
 11
-578.675832
 21
-1003.461385
 31
0.0
  0
TEXT
  5
116A
330
36
100
AcDbEntity
  8
0
 62
     4
100
AcDbText
 10
-593.425832
 20
-1002.836385
 30
0.0
 40
3.0
  1
40
100
AcDbText
  0
LINE
  5
116B
330
36
100
AcDbEntity
  8
0
  6
ByBlock
 62
     0
370
    -2
100
AcDbLine
 10
-583.675832
 20
-1002.7915125
 30
0.0
 11
-581.175832
 21
-1003.461385
 31
0.0
  0
LINE
  5
116C
330
36
100
AcDbEntity
  8
0
  6
ByBlock
 62
     0
370
    -2
100
AcDbLine
 10
-581.175832
 20
-1003.461385
 30
0.0
 11
-583.675832
 21
-1004.1312575
 31
0.0
  0
LINE
  5
116D
330
36
100
AcDbEntity
  8
0
  6
ByBlock
 62
     0
370
    -2
100
AcDbLine
 10
-581.175832
 20
-1003.461385
 30
0.0
 11
-583.675832
 21
-1003.461385
 31
0.0
  0
LINE
  5
116E
330
36
100
AcDbEntity
  8
0
  6
ByBlock
 62
     0
370
    -2
100
AcDbLine
 10
-598.6758319999999
 20
-1004.1312575
 30
0.0
 11
-601.175832
 21
-1003.461385
 31
0.0
  0
LINE
  5
116F
330
36
100
AcDbEntity
  8
0
  6
ByBlock
 62
     0
370
    -2
100
AcDbLine
 10
-601.175832
 20
-1003.461385
 30
0.0
 11
-598.6758319999999
 21
-1002.7915125
 31
0.0
  0
LINE
  5
1170
330
36
100
AcDbEntity
  8
0
  6
ByBlock
 62
     0
370
    -2
100
AcDbLine
 10
-601.175832
 20
-1003.461385
 30
0.0
 11
-598.6758319999999
 21
-1003.461385
 31
0.0
  0
TEXT
  5
1171
330
36
100
AcDbEntity
  8
0
 62
     4
100
AcDbText
 10
-525.2422740000001
 20
-863.4053949999998
 30
0.0
 40
3.0
  1
6
100
AcDbText
  0
LINE
  5
1172
330
36
100
AcDbEntity
  8
0
  6
ByBlock
 62
     0
370
    -2
100
AcDbLine
 10
-520.1172740000002
 20
-863.3605224999998
 30
0.0
 11
-517.6172740000001
 21
-864.0303949999999
 31
0.0
  0
LINE
  5
1173
330
36
100
AcDbEntity
  8
0
  6
ByBlock
 62
     0
370
    -2
100
AcDbLine
 10
-517.6172740000001
 20
-864.0303949999999
 30
0.0
 11
-520.1172740000002
 21
-864.7002674999999
 31
0.0
  0
LINE
  5
1174
330
36
100
AcDbEntity
  8
0
  6
ByBlock
 62
     0
370
    -2
100
AcDbLine
 10
-517.6172740000001
 20
-864.0303949999999
 30
0.0
 11
-520.1172740000002
 21
-864.0303949999999
 31
0.0
  0
LINE
  5
1175
330
36
100
AcDbEntity
  8
0
  6
ByBlock
 62
     0
370
    -2
100
AcDbLine
 10
-512.117274
 20
-864.7002674999999
 30
0.0
 11
-514.617274
 21
-864.0303949999999
 31
0.0
  0
LINE
  5
1176
330
36
100
AcDbEntity
  8
0
  6
ByBlock
 62
     0
370
    -2
100
AcDbLine
 10
-514.617274
 20
-864.0303949999999
 30
0.0
 11
-512.117274
 21
-863.3605224999998
 31
0.0
  0
LINE
  5
1177
330
36
100
AcDbEntity
  8
0
  6
ByBlock
 62
     0
370
    -2
100
AcDbLine
 10
-514.617274
 20
-864.0303949999999
 30
0.0
 11
-512.117274
 21
-864.0303949999999
 31
0.0
  0
TEXT
  5
1178
330
36
100
AcDbEntity
  8
0
 62
     4
100
AcDbText
 10
-478.8672739999999
 20
-863.4053949999998
 30
0.0
 40
3.0
  1
157
100
AcDbText
  0
LINE
  5
1179
330
36
100
AcDbEntity
  8
0
  6
ByBlock
 62
     0
370
    -2
100
AcDbLine
 10
-438.6172739999998
 20
-863.3605224999998
 30
0.0
 11
-436.1172739999998
 21
-864.0303949999999
 31
0.0
  0
LINE
  5
117A
330
36
100
AcDbEntity
  8
0
  6
ByBlock
 62
     0
370
    -2
100
AcDbLine
 10
-436.1172739999998
 20
-864.0303949999999
 30
0.0
 11
-438.6172739999998
 21
-864.7002674999999
 31
0.0
  0
LINE
  5
117B
330
36
100
AcDbEntity
  8
0
  6
ByBlock
 62
     0
370
    -2
100
AcDbLine
 10
-436.1172739999998
 20
-864.0303949999999
 30
0.0
 11
-438.6172739999998
 21
-864.0303949999999
 31
0.0
  0
LINE
  5
117C
330
36
100
AcDbEntity
  8
0
  6
ByBlock
 62
     0
370
    -2
100
AcDbLine
 10
-512.117274
 20
-864.7002674999999
 30
0.0
 11
-514.617274
 21
-864.0303949999999
 31
0.0
  0
LINE
  5
117D
330
36
100
AcDbEntity
  8
0
  6
ByBlock
 62
     0
370
    -2
100
AcDbLine
 10
-514.617274
 20
-864.0303949999999
 30
0.0
 11
-512.117274
 21
-863.3605224999998
 31
0.0
  0
LINE
  5
117E
330
36
100
AcDbEntity
  8
0
  6
ByBlock
 62
     0
370
    -2
100
AcDbLine
 10
-514.617274
 20
-864.0303949999999
 30
0.0
 11
-512.117274
 21
-864.0303949999999
 31
0.0
  0
TEXT
  5
117F
330
36
100
AcDbEntity
  8
0
 62
     4
100
AcDbText
 10
-441.8672739999998
 20
-872.729168
 30
0.0
 40
3.0
  1
15
100
AcDbText
  0
LINE
  5
1180
330
36
100
AcDbEntity
  8
0
  6
ByBlock
 62
     0
370
    -2
100
AcDbLine
 10
-438.6172739999998
 20
-872.6842955
 30
0.0
 11
-436.1172739999998
 21
-873.354168
 31
0.0
  0
LINE
  5
1181
330
36
100
AcDbEntity
  8
0
  6
ByBlock
 62
     0
370
    -2
100
AcDbLine
 10
-436.1172739999998
 20
-873.354168
 30
0.0
 11
-438.6172739999998
 21
-874.0240404999999
 31
0.0
  0
LINE
  5
1182
330
36
100
AcDbEntity
  8
0
  6
ByBlock
 62
     0
370
    -2
100
AcDbLine
 10
-436.1172739999998
 20
-873.354168
 30
0.0
 11
-438.6172739999998
 21
-873.354168
 31
0.0
  0
LINE
  5
1183
330
36
100
AcDbEntity
  8
0
  6
ByBlock
 62
     0
370
    -2
100
AcDbLine
 10
-441.1172739999998
 20
-874.0240404999999
 30
0.0
 11
-443.6172739999998
 21
-873.354168
 31
0.0
  0
LINE
  5
1184
330
36
100
AcDbEntity
  8
0
  6
ByBlock
 62
     0
370
    -2
100
AcDbLine
 10
-443.6172739999998
 20
-873.354168
 30
0.0
 11
-441.1172739999998
 21
-872.6842955
 31
0.0
  0
LINE
  5
1185
330
36
100
AcDbEntity
  8
0
  6
ByBlock
 62
     0
370
    -2
100
AcDbLine
 10
-443.6172739999998
 20
-873.354168
 30
0.0
 11
-441.1172739999998
 21
-873.354168
 31
0.0
  0
TEXT
  5
1186
330
36
100
AcDbEntity
  8
0
 62
     4
100
AcDbText
 10
-496.6947099999997
 20
-881.7175439999997
 30
0.0
 40
3.0
  1
30
 50
90.0
100
AcDbText
  0
LINE
  5
1187
330
36
100
AcDbEntity
  8
0
  6
ByBlock
 62
     0
370
    -2
100
AcDbLine
 10
-496.7395824999998
 20
-874.4675439999998
 30
0.0
 11
-496.0697099999999
 21
-871.9675439999999
 31
0.0
  0
LINE
  5
1188
330
36
100
AcDbEntity
  8
0
  6
ByBlock
 62
     0
370
    -2
100
AcDbLine
 10
-496.0697099999999
 20
-871.9675439999999
 30
0.0
 11
-495.3998374999998
 21
-874.4675439999998
 31
0.0
  0
LINE
  5
1189
330
36
100
AcDbEntity
  8
0
  6
ByBlock
 62
     0
370
    -2
100
AcDbLine
 10
-496.0697099999999
 20
-871.9675439999999
 30
0.0
 11
-496.0697099999999
 21
-874.4675439999998
 31
0.0
  0
LINE
  5
118A
330
36
100
AcDbEntity
  8
0
  6
ByBlock
 62
     0
370
    -2
100
AcDbLine
 10
-495.3998374999998
 20
-884.4675439999997
 30
0.0
 11
-496.0697099999999
 21
-886.9675439999998
 31
0.0
  0
LINE
  5
118B
330
36
100
AcDbEntity
  8
0
  6
ByBlock
 62
     0
370
    -2
100
AcDbLine
 10
-496.0697099999999
 20
-886.9675439999998
 30
0.0
 11
-496.7395824999998
 21
-884.4675439999997
 31
0.0
  0
LINE
  5
118C
330
36
100
AcDbEntity
  8
0
  6
ByBlock
 62
     0
370
    -2
100
AcDbLine
 10
-496.0697099999999
 20
-886.9675439999998
 30
0.0
 11
-496.0697099999999
 21
-884.4675439999997
 31
0.0
  0
ENDSEC
  0
SECTION
  2
OBJECTS
  0
DICTIONARY
  5
C
330
0
100
AcDbDictionary
281
     1
  3
ACAD_2007HEADERVARS_RT
350
1190
  3
ACAD_COLOR
350
2F
  3
ACAD_GROUP
350
D
  3
ACAD_LAYOUT
350
2E
  3
ACAD_MATERIAL
350
10
  3
ACAD_MLEADERSTYLE
350
B41
  3
ACAD_MLINESTYLE
350
2B
  3
ACAD_PLOTSETTINGS
350
2D
  3
ACAD_PLOTSTYLENAME
350
E
  3
ACAD_SCALELIST
350
B2F
  3
ACAD_TABLESTYLE
350
30
  3
ACAD_VISUALSTYLE
350
14
  3
ACDB_RECOMPOSE_DATA
350
118E
  3
AcDbVariableDictionary
350
883
  3
DWGPROPS
350
118F
  0
DICTIONARY
  5
667
330
2
100
AcDbDictionary
280
     1
281
     1
  3
ACAD_LAYERSTATES
360
668
  0
DICTIONARY
  5
DFC
330
25
100
AcDbDictionary
280
     1
281
     1
  3
ADSK_XREC_LAYER_RECONCILED
360
DFD
  0
DICTIONARY
  5
95E
330
36
100
AcDbDictionary
280
     1
281
     1
  3
ACAD_SORTENTS
360
95F
  0
DICTIONARY
  5
1190
102
{ACAD_REACTORS
330
C
102
}
330
C
100
AcDbDictionary
281
     1
  3
DIMARCSYM
350
1192
  3
DIMFXL
350
1191
  3
DIMJOGANG
350
1193
  0
DICTIONARY
  5
2F
102
{ACAD_REACTORS
330
C
102
}
330
C
100
AcDbDictionary
281
     1
  0
DICTIONARY
  5
D
102
{ACAD_REACTORS
330
C
102
}
330
C
100
AcDbDictionary
281
     1
  0
DICTIONARY
  5
2E
102
{ACAD_REACTORS
330
C
102
}
330
C
100
AcDbDictionary
281
     1
  3
Model
350
39
  3
レイアウト1
350
35
  0
DICTIONARY
  5
10
102
{ACAD_REACTORS
330
C
102
}
330
C
100
AcDbDictionary
281
     1
  3
ByBlock
350
12
  3
ByLayer
350
11
  3
Global
350
13
  0
DICTIONARY
  5
B41
102
{ACAD_REACTORS
330
C
102
}
330
C
100
AcDbDictionary
281
     1
  3
Standard
350
B42
  0
DICTIONARY
  5
2B
102
{ACAD_REACTORS
330
C
102
}
330
C
100
AcDbDictionary
281
     1
  3
Standard
350
2C
  0
DICTIONARY
  5
2D
102
{ACAD_REACTORS
330
C
102
}
330
C
100
AcDbDictionary
281
     1
  0
ACDBDICTIONARYWDFLT
  5
E
102
{ACAD_REACTORS
330
C
102
}
330
C
100
AcDbDictionary
281
     1
  3
Normal
350
F
100
AcDbDictionaryWithDefault
340
F
  0
DICTIONARY
  5
B2F
102
{ACAD_REACTORS
330
C
102
}
330
C
100
AcDbDictionary
281
     1
  3
A0
350
B30
  3
A1
350
B31
  3
A2
350
B32
  3
A3
350
B33
  3
A4
350
B34
  3
A5
350
B35
  3
A6
350
B36
  3
A7
350
B37
  3
A8
350
B38
  3
A9
350
B39
  3
B0
350
B3A
  3
B1
350
B3B
  3
B2
350
B3C
  3
B3
350
B3D
  3
B4
350
B3E
  3
B5
350
B3F
  3
B6
350
B40
  0
DICTIONARY
  5
30
102
{ACAD_REACTORS
330
C
102
}
330
C
100
AcDbDictionary
281
     1
  3
Standard
350
31
  0
DICTIONARY
  5
14
102
{ACAD_REACTORS
330
C
102
}
330
C
100
AcDbDictionary
281
     1
  3
2dWireframe
350
1A
  3
3D Hidden
350
1C
  3
3dWireframe
350
1B
  3
Basic
350
19
  3
Brighten
350
20
  3
ColorChange
350
24
  3
Conceptual
350
1D
  3
Dim
350
1F
  3
EdgeColorOff
350
B2E
  3
Facepattern
350
23
  3
Flat
350
15
  3
FlatWithEdges
350
16
  3
Gouraud
350
17
  3
GouraudWithEdges
350
18
  3
Hidden
350
B26
  3
JitterOff
350
B2C
  3
Linepattern
350
22
  3
OverhangOff
350
B2D
  3
Realistic
350
1E
  3
Shaded
350
B2B
  3
Shaded with edges
350
B2A
  3
Shades of Gray
350
B27
  3
Sketchy
350
B28
  3
Thicken
350
21
  3
Wireframe
350
B25
  3
X-Ray
350
B29
  0
XRECORD
  5
118E
102
{ACAD_REACTORS
330
C
102
}
330
C
100
AcDbXrecord
280
     1
 90
        1
330
31
  0
DICTIONARY
  5
883
102
{ACAD_REACTORS
330
C
102
}
330
C
100
AcDbDictionary
281
     1
  3
CANNOSCALE
350
DFF
  3
CMLEADERSTYLE
350
DFE
  3
CTABLESTYLE
350
884
  3
DIMASSOC
350
888
  3
INDEXCTL
350
887
  3
SORTENTS
350
886
  3
XCLIPFRAME
350
1027
  0
XRECORD
  5
118F
102
{ACAD_REACTORS
330
C
102
}
330
C
100
AcDbXrecord
280
     1
  1
DWGPROPS COOKIE
  2

  3

  4

  6

  7

  8
imamura
  9

300
=
301
=
302
=
303
=
304
=
305
=
306
=
307
=
308
=
309
=
 40
0.0697379861111111
 41
2455485.728352338
 42
2460214.490918704
  1

 90
        0
  0
DICTIONARY
  5
668
102
{ACAD_REACTORS
330
667
102
}
330
667
100
AcDbDictionary
281
     1
  0
XRECORD
  5
DFD
102
{ACAD_REACTORS
330
DFC
102
}
330
DFC
100
AcDbXrecord
280
     1
290
     1
  0
SORTENTSTABLE
  5
95F
102
{ACAD_REACTORS
330
95E
102
}
330
95E
100
AcDbSortentsTable
330
36
331
1130
  5
135
331
C80
  5
1169
331
961
  5
113C
331
93A
  5
1116
331
5BB
  5
10F7
331
5D1
  5
110C
331
59C
  5
10D8
331
499
  5
935
331
47A
  5
5B3
331
45B
  5
594
331
43C
  5
575
331
415
  5
568
331
3F6
  5
554
331
269
  5
31C
331
24A
  5
2FD
331
21B
  5
2E7
331
1FC
  5
2CF
331
1C6
  5
2A7
331
1A7
  5
28C
331
188
  5
275
331
C78
  5
1161
331
A10
  5
1142
331
949
  5
1128
331
5CA
  5
1105
331
5AB
  5
10E7
331
489
  5
5C3
331
46A
  5
5A3
331
44B
  5
584
331
405
  5
55F
331
3E6
  5
54A
331
278
  5
32B
331
259
  5
30C
331
23A
  5
2ED
331
20B
  5
2DA
331
1B6
  5
299
331
197
  5
280
331
960
  5
113B
331
939
  5
1115
331
5BA
  5
10F6
331
5D0
  5
110B
331
59B
  5
10D7
331
498
  5
934
331
479
  5
5B2
331
45A
  5
593
331
43B
  5
574
331
414
  5
567
331
268
  5
31B
331
249
  5
2FC
331
21A
  5
2E6
331
1A6
  5
28B
331
948
  5
1127
331
5C9
  5
1104
331
5AA
  5
10E6
331
4A7
  5
942
331
488
  5
5C2
331
469
  5
5A2
331
44A
  5
583
331
404
  5
55E
331
258
  5
30B
331
239
  5
2EC
331
20A
  5
2D9
331
1D4
  5
2B3
331
1B5
  5
298
331
196
  5
27F
331
1127
  5
14E
331
938
  5
1114
331
5B9
  5
10F5
331
59A
  5
10D6
331
497
  5
5D1
331
478
  5
5B1
331
459
  5
592
331
43A
  5
573
331
413
  5
566
331
377
  5
4E7
331
248
  5
2FB
331
219
  5
2E5
331
1A5
  5
28A
331
5C8
  5
1103
331
5A9
  5
10E5
331
4A6
  5
941
331
487
  5
5C1
331
468
  5
5A1
331
449
  5
582
331
403
  5
55D
331
357
  5
4C0
331
238
  5
2EB
331
1D3
  5
2B2
331
1B4
  5
297
331
1126
  5
14D
331
5B8
  5
10F4
331
599
  5
10D5
331
496
  5
5D0
331
477
  5
5B0
331
458
  5
591
331
439
  5
572
331
412
  5
565
331
3F3
  5
553
331
376
  5
4E6
331
347
  5
4AA
331
218
  5
2E4
331
1E2
  5
2BD
331
1A4
  5
289
331
10F7
  5
27E
331
1116
  5
175
331
5A8
  5
10E4
331
4A5
  5
940
331
486
  5
5C0
331
467
  5
5A0
331
448
  5
581
331
356
  5
4BE
331
337
  5
496
331
1D2
  5
2B1
331
1B3
  5
296
331
10E7
  5
2BF
331
598
  5
10D4
331
495
  5
5CF
331
476
  5
5AF
331
457
  5
590
331
438
  5
571
331
3F2
  5
552
331
346
  5
4A9
331
327
  5
486
331
1E1
  5
2BC
331
10D7
  5
4E3
331
10F6
  5
27D
331
1115
  5
174
331
95B
  5
113A
331
4A4
  5
93F
331
485
  5
5BF
331
466
  5
59F
331
447
  5
580
331
355
  5
4BC
331
336
  5
495
331
317
  5
476
331
1F0
  5
2C7
331
1D1
  5
2B0
331
1B2
  5
295
331
10C7
  5
4D3
331
10E6
  5
2BE
331
494
  5
5CE
331
475
  5
5AE
331
456
  5
58F
331
437
  5
570
331
3F1
  5
551
331
345
  5
4A8
331
326
  5
485
331
307
  5
466
331
1E0
  5
2BB
331
1C1
  5
2A4
331
183
  5
272
331
10D6
  5
4E2
331
10F5
  5
283
331
1114
  5
173
331
95A
  5
1139
331
4A3
  5
93E
331
484
  5
5BE
331
465
  5
59E
331
446
  5
57F
331
354
  5
4BB
331
335
  5
494
331
316
  5
475
331
1D0
  5
2AF
331
10C6
  5
4D2
331
10E5
  5
2C4
331
1104
  5
1A7
331
58F
  5
10CB
331
493
  5
5CD
331
474
  5
5AD
331
455
  5
58E
331
436
  5
56F
331
344
  5
4A7
331
325
  5
484
331
306
  5
465
331
2EF
  5
44E
331
1C0
  5
2A3
331
182
  5
271
331
10D5
  5
4E1
331
10F4
  5
282
331
959
  5
1138
331
57F
  5
10BB
331
4A2
  5
93B
331
483
  5
5BD
331
464
  5
59D
331
445
  5
57E
331
353
  5
4BA
331
334
  5
493
331
315
  5
474
331
2DF
  5
43E
331
191
  5
27C
331
10C5
  5
501
331
10E4
  5
2C3
331
1103
  5
1A6
331
1122
  5
161
331
58E
  5
10CA
331
56F
  5
10AB
331
492
  5
5CC
331
473
  5
5AC
331
454
  5
58D
331
435
  5
56E
331
343
  5
4A6
331
324
  5
483
331
305
  5
464
331
2EE
  5
44D
331
2CF
  5
414
331
181
  5
270
331
10D4
  5
4E0
331
10F3
  5
288
331
958
  5
1137
331
57E
  5
10BA
331
55F
  5
109B
331
4A1
  5
93A
331
482
  5
5BB
331
463
  5
59C
331
444
  5
57D
331
3FE
  5
55A
331
352
  5
4B9
331
333
  5
492
331
314
  5
473
331
2DE
  5
43D
331
2BF
  5
3F7
331
190
  5
27B
331
10C4
  5
500
331
10E3
  5
2C9
331
1102
  5
1A5
331
1121
  5
160
331
58D
  5
10C9
331
56E
  5
10AA
331
54F
  5
108B
331
491
  5
5CB
331
472
  5
5AB
331
453
  5
58C
331
434
  5
56D
331
342
  5
4A5
331
323
  5
482
331
304
  5
463
331
2ED
  5
44C
331
2CE
  5
413
331
2AF
  5
379
331
180
  5
26F
331
10D3
  5
4DF
331
10F2
  5
287
331
57D
  5
10B9
331
FF
  5
1C1
331
55E
  5
109A
331
53F
  5
107B
331
4A0
  5
939
331
481
  5
5BA
331
462
  5
59B
331
443
  5
57C
331
3FD
  5
559
331
351
  5
4B8
331
332
  5
491
331
313
  5
472
331
2DD
  5
43C
331
2BE
  5
3F6
331
29F
  5
352
331
10C3
  5
4FF
331
10E2
  5
2C8
331
1120
  5
15F
331
58C
  5
10C8
331
56D
  5
10A9
331
54E
  5
108A
331
52F
  5
106B
331
490
  5
5CA
331
471
  5
5AA
331
452
  5
58B
331
341
  5
4A4
331
322
  5
481
331
303
  5
462
331
2EC
  5
44B
331
2CD
  5
412
331
2AE
  5
378
331
28F
  5
342
331
10D2
  5
4DE
331
10F1
  5
294
331
1110
  5
17F
331
112F
  5
134
331
57C
  5
10B8
331
FE
  5
1C0
331
55D
  5
1099
331
53E
  5
107A
331
480
  5
5B9
331
461
  5
59A
331
442
  5
57B
331
3FC
  5
558
331
350
  5
4B7
331
331
  5
490
331
312
  5
471
331
2DC
  5
43B
331
2BD
  5
3F3
331
29E
  5
351
331
10C2
  5
4FE
331
10E1
  5
2CE
331
177
  5
266
331
58B
  5
10C7
331
56C
  5
10A8
331
54D
  5
1089
331
52E
  5
1068
331
517
  5
F63
331
10AF
  5
517
331
470
  5
5A9
331
451
  5
58A
331
3EC
  5
550
331
340
  5
4A3
331
321
  5
480
331
302
  5
461
331
2EB
  5
44A
331
2CC
  5
40A
331
2AD
  5
377
331
28E
  5
341
331
10D1
  5
4DD
331
10F0
  5
293
331
110F
  5
17E
331
112E
  5
133
331
167
  5
256
331
57B
  5
10B7
331
FD
  5
1BF
331
55C
  5
1098
331
53D
  5
1079
331
507
  5
C7F
331
109F
  5
51B
331
460
  5
599
331
441
  5
57A
331
3FB
  5
557
331
34F
  5
4B6
331
330
  5
48F
331
311
  5
470
331
2DB
  5
43A
331
2BC
  5
3F2
331
29D
  5
350
331
10C1
  5
4FD
331
10E0
  5
2CD
331
176
  5
265
331
157
  5
246
331
58A
  5
10C6
331
56B
  5
10A7
331
54C
  5
1088
331
52D
  5
F79
331
516
  5
F62
331
10AE
  5
516
331
4F7
  5
C6F
331
108F
  5
533
331
450
  5
589
331
40A
  5
564
331
3EB
  5
54F
331
35E
  5
4D1
331
33F
  5
4A2
331
320
  5
47F
331
301
  5
460
331
2EA
  5
449
331
2CB
  5
409
331
2AC
  5
376
331
28D
  5
340
331
10D0
  5
4DC
331
10EF
  5
2A6
331
110E
  5
17D
331
166
  5
255
331
147
  5
237
331
57A
  5
10B6
331
FC
  5
1BE
331
55B
  5
1097
331
53C
  5
1078
331
506
  5
C7E
331
109E
  5
51A
331
4E7
  5
A23
331
107F
  5
537
331
440
  5
579
331
419
  5
56C
331
37D
  5
4F5
331
34E
  5
4B5
331
32F
  5
48E
331
310
  5
46F
331
2DA
  5
439
331
2BB
  5
3F1
331
29C
  5
34F
331
10C0
  5
4FC
331
10DF
  5
2D3
331
10FE
  5
1B5
331
175
  5
264
331
156
  5
245
331
589
  5
10C5
331
56A
  5
10A6
331
54B
  5
1087
331
52C
  5
F78
331
515
  5
F61
331
10AD
  5
515
331
106F
  5
1110
331
4F6
  5
C6E
331
108E
  5
532
331
4D7
  5
A0F
331
409
  5
563
331
3EA
  5
54E
331
35D
  5
4D0
331
33E
  5
4A1
331
31F
  5
47E
331
300
  5
45F
331
2E9
  5
448
331
2CA
  5
408
331
2AB
  5
35E
331
28C
  5
33F
331
10CF
  5
4DB
331
10EE
  5
2A5
331
165
  5
254
331
146
  5
21D
331
127
  5
1F0
331
579
  5
10B5
331
FB
  5
1BD
331
55A
  5
1096
331
53B
  5
1077
331
505
  5
C7D
331
109D
  5
52D
331
4E6
  5
A22
331
107E
  5
536
331
418
  5
56B
331
37C
  5
4F4
331
34D
  5
4B4
331
32E
  5
48D
331
30F
  5
46E
331
2D9
  5
438
331
2BA
  5
3EC
331
29B
  5
34E
331
10BF
  5
4FB
331
10DE
  5
2D2
331
10FD
  5
1B4
331
111C
  5
16B
331
174
  5
263
331
155
  5
244
331
10F
  5
1E1
331
588
  5
10C4
331
569
  5
10A5
331
54A
  5
1086
331
52B
  5
F77
331
514
  5
F60
331
10AC
  5
514
331
106E
  5
110F
331
4F5
  5
C6D
331
108D
  5
531
331
4D6
  5
A0E
331
4B7
  5
94E
331
408
  5
562
331
3E9
  5
54D
331
35C
  5
4CF
331
33D
  5
4A0
331
31E
  5
47D
331
2FF
  5
45E
331
2E8
  5
447
331
2C9
  5
407
331
2AA
  5
35D
331
28B
  5
33E
331
10CE
  5
4DA
331
10ED
  5
2AE
331
164
  5
253
331
597
  5
10D3
331
578
  5
10B4
331
559
  5
1095
331
53A
  5
1076
331
504
  5
C7C
331
109C
  5
52C
331
4E5
  5
A21
331
107D
  5
549
331
4C6
  5
956
331
3F8
  5
556
331
37B
  5
4F3
331
34C
  5
4B3
331
32D
  5
48C
331
30E
  5
46D
331
2F7
  5
456
331
2D8
  5
437
331
2B9
  5
3EB
331
29A
  5
34D
331
10BE
  5
4FA
331
10DD
  5
2D8
331
10FC
  5
1B3
331
111B
  5
16A
331
173
  5
262
331
154
  5
243
331
135
  5
212
331
10E
  5
1E0
331
587
  5
10C3
331
568
  5
10A4
331
549
  5
1085
331
52A
  5
F76
331
513
  5
F5F
331
10AB
  5
513
331
106D
  5
1118
331
4F4
  5
AA0
331
108C
  5
530
331
4D5
  5
A0D
331
4B6
  5
94D
331
3E8
  5
54C
331
35B
  5
4CE
331
33C
  5
49E
331
31D
  5
47C
331
2FE
  5
45D
331
2E7
  5
446
331
2C8
  5
406
331
2A9
  5
35C
331
28A
  5
33D
331
10CD
  5
4D9
331
10EC
  5
2AD
331
112A
  5
154
331
163
  5
252
331
144
  5
21C
331
596
  5
10D2
331
577
  5
10B3
331
558
  5
1094
331
539
  5
1075
331
503
  5
C7B
331
109B
  5
52B
331
4E4
  5
A20
331
107C
  5
548
331
37A
  5
4F2
331
34B
  5
4B2
331
32C
  5
48B
331
30D
  5
46C
331
2F6
  5
455
331
2D7
  5
436
331
2B8
  5
3EA
331
299
  5
34C
331
117F
  5
12E
331
10BD
  5
4F9
331
10DC
  5
2D7
331
10FB
  5
274
331
111A
  5
169
331
172
  5
261
331
153
  5
242
331
134
  5
20C
331
10D
  5
1DB
331
586
  5
10C2
331
567
  5
10A3
331
548
  5
1084
331
529
  5
F75
331
106C
  5
111B
331
4F3
  5
A9F
331
108B
  5
52F
331
10AA
  5
50E
331
4D4
  5
977
331
4B5
  5
94C
331
35A
  5
4CD
331
33B
  5
49C
331
31C
  5
47B
331
2FD
  5
45C
331
2E6
  5
445
331
2C7
  5
405
331
2A8
  5
35B
331
289
  5
33C
331
116F
  5
163
331
10CC
  5
4D8
331
10EB
  5
2B5
331
110A
  5
191
331
1129
  5
153
331
162
  5
251
331
143
  5
21B
331
595
  5
10D1
331
576
  5
10B2
331
557
  5
1093
331
538
  5
1074
331
502
  5
C7A
331
109A
  5
52A
331
4E3
  5
A1F
331
107B
  5
547
331
379
  5
4E9
331
34A
  5
4B1
331
32B
  5
48A
331
30C
  5
46B
331
2F5
  5
454
331
2D6
  5
435
331
2B7
  5
3E9
331
298
  5
34B
331
115F
  5
17B
331
117E
  5
140
331
10BC
  5
4F8
331
10DB
  5
2DD
331
10FA
  5
273
331
171
  5
260
331
152
  5
241
331
133
  5
20B
331
10C
  5
1DA
331
585
  5
10C1
331
566
  5
10A2
331
547
  5
1083
331
528
  5
F74
331
106B
  5
111A
331
4F2
  5
A9C
331
108A
  5
52E
331
10A9
  5
50D
331
4D3
  5
962
331
4B4
  5
94B
331
359
  5
4CC
331
33A
  5
499
331
31B
  5
47A
331
2FC
  5
45B
331
2E5
  5
444
331
2C6
  5
404
331
2A7
  5
35A
331
288
  5
33B
331
114F
  5
19D
331
116E
  5
162
331
10CB
  5
4D7
331
10EA
  5
2B4
331
1109
  5
190
331
1128
  5
152
331
161
  5
250
331
F6F
  5
1182
331
142
  5
21A
331
594
  5
10D0
331
575
  5
10B1
331
556
  5
1092
331
537
  5
1073
331
501
  5
C79
331
1099
  5
529
331
4E2
  5
A1E
331
107A
  5
546
331
378
  5
4E8
331
349
  5
4B0
331
32A
  5
489
331
30B
  5
46A
331
2F4
  5
453
331
2D5
  5
434
331
2B6
  5
3E8
331
297
  5
34A
331
115E
  5
17A
331
117D
  5
13C
331
10BB
  5
4F7
331
10DA
  5
2DC
331
10F9
  5
279
331
170
  5
25F
331
151
  5
240
331
132
  5
20A
331
F5F
  5
1172
331
A24
  5
1152
331
10B
  5
1D9
331
584
  5
10C0
331
565
  5
10A1
331
546
  5
1082
331
527
  5
F73
331
4D2
  5
961
331
1089
  5
541
331
10A8
  5
50C
331
4B3
  5
94A
331
358
  5
4C6
331
339
  5
498
331
31A
  5
479
331
2FB
  5
45A
331
2E4
  5
443
331
2C5
  5
403
331
2A6
  5
359
331
287
  5
33A
331
114E
  5
1A4
331
116D
  5
167
331
118C
  5
103
331
10CA
  5
4D6
331
10E9
  5
2BA
331
1108
  5
18F
331
17F
  5
26E
331
160
  5
24F
331
F6E
  5
1181
331
141
  5
219
331
593
  5
10CF
331
574
  5
10B0
331
555
  5
1091
331
536
  5
1072
331
51F
  5
F6B
331
10B7
  5
507
331
500
  5
C78
331
1098
  5
528
331
4E1
  5
A1D
331
1079
  5
545
331
348
  5
4AB
331
329
  5
488
331
30A
  5
469
331
2F3
  5
452
331
2D4
  5
419
331
2B5
  5
3E7
331
296
  5
349
331
115D
  5
179
331
117C
  5
13B
331
10BA
  5
4F6
331
10D9
  5
4E5
331
10F8
  5
278
331
16F
  5
25E
331
150
  5
23F
331
131
  5
205
331
F5E
  5
1171
331
A23
  5
1151
331
10A
  5
1D4
331
C77
  5
1160
331
A0F
  5
1141
331
583
  5
10BF
331
564
  5
10A0
331
545
  5
1081
331
526
  5
F72
331
4D1
  5
95D
331
1088
  5
540
331
10A7
  5
50B
331
4B2
  5
949
331
338
  5
497
331
319
  5
478
331
2FA
  5
459
331
2E3
  5
442
331
2C4
  5
3FE
331
2A5
  5
358
331
286
  5
339
331
277
  5
32A
331
114D
  5
1AA
331
116C
  5
166
331
118B
  5
102
331
10C9
  5
4D5
331
10E8
  5
2B9
331
17E
  5
26D
331
15F
  5
24E
331
F6D
  5
1180
331
140
  5
218
331
957
  5
1136
331
592
  5
10CE
331
573
  5
10AF
331
554
  5
1090
331
535
  5
1071
331
51E
  5
F6A
331
10B6
  5
506
331
4FF
  5
C77
331
1097
  5
527
331
4E0
  5
A1C
331
1078
  5
544
331
328
  5
487
331
309
  5
468
331
2F2
  5
451
331
2D3
  5
418
331
2B4
  5
3E6
331
295
  5
348
331
267
  5
31A
331
115C
  5
17C
331
117B
  5
147
331
10B9
  5
509
331
10D8
  5
4E4
331
16E
  5
25D
331
14F
  5
23E
331
130
  5
204
331
F5D
  5
1170
331
A22
  5
1150
331
109
  5
1D3
331
C76
  5
115F
331
A0E
  5
1140
331
947
  5
1126
331
582
  5
10BE
331
563
  5
109F
331
544
  5
1080
331
525
  5
F71
331
50E
  5
F5C
331
10A6
  5
50A
331
1068
  5
1119
331
1087
  5
53F
331
4D0
  5
95B
331
4B1
  5
948
331
318
  5
477
331
2F9
  5
458
331
2E2
  5
441
331
2C3
  5
3FD
331
2A4
  5
357
331
285
  5
338
331
276
  5
329
331
257
  5
30A
331
114C
  5
1A9
331
116B
  5
165
331
118A
  5
101
331
10C8
  5
4D4
331
17D
  5
26C
331
F6C
  5
117F
331
15E
  5
24D
331
956
  5
1135
331
937
  5
1113
331
591
  5
10CD
331
572
  5
10AE
331
553
  5
108F
331
534
  5
1070
331
51D
  5
F69
331
10B5
  5
505
331
4FE
  5
C76
331
1096
  5
526
331
4DF
  5
A1B
331
1077
  5
543
331
4C0
  5
955
331
308
  5
467
331
2F1
  5
450
331
2D2
  5
417
331
2B3
  5
37D
331
294
  5
347
331
266
  5
319
331
247
  5
2FA
331
115B
  5
182
331
117A
  5
146
331
113C
  5
FD
331
10B8
  5
508
331
16D
  5
25C
331
14E
  5
23D
331
F5C
  5
116F
331
A21
  5
114F
331
108
  5
1D2
331
C75
  5
115E
331
A0D
  5
113F
331
946
  5
1125
331
5C7
  5
1102
331
581
  5
10BD
331
562
  5
109E
331
543
  5
107F
331
524
  5
F70
331
50D
  5
F5B
331
10A5
  5
521
331
4CF
  5
95A
331
1086
  5
53E
331
4B0
  5
947
331
2F8
  5
457
331
2E1
  5
440
331
2C2
  5
3FC
331
2A3
  5
356
331
284
  5
337
331
275
  5
328
331
256
  5
309
331
237
  5
2EA
331
114B
  5
1A8
331
116A
  5
168
331
1189
  5
109
331
17C
  5
26B
331
15D
  5
24C
331
F6B
  5
117E
331
117
  5
1EF
331
955
  5
1134
331
5B7
  5
10F3
331
590
  5
10CC
331
571
  5
10AD
331
552
  5
108E
331
533
  5
106F
331
51C
  5
F68
331
10B4
  5
504
331
4FD
  5
C75
331
1095
  5
525
331
4DE
  5
A1A
331
1076
  5
542
331
2F0
  5
44F
331
2D1
  5
416
331
2B2
  5
37C
331
293
  5
346
331
265
  5
318
331
246
  5
2F9
331
217
  5
2E3
331
115A
  5
181
331
1179
  5
144
331
113B
  5
FC
331
16C
  5
25B
331
14D
  5
23C
331
12E
  5
203
331
F5B
  5
116E
331
A20
  5
114E
331
107
  5
1D1
331
C74
  5
115D
331
A0C
  5
113E
331
945
  5
1124
331
5C6
  5
1101
331
5A7
  5
10E3
331
580
  5
10BC
331
561
  5
109D
331
542
  5
107E
331
523
  5
F6F
331
50C
  5
F5A
331
10A4
  5
520
331
4CE
  5
959
331
1085
  5
53D
331
2E0
  5
43F
331
2C1
  5
3FB
331
2A2
  5
355
331
283
  5
336
331
274
  5
327
331
255
  5
308
331
114A
  5
1AD
331
1169
  5
16E
331
1188
  5
108
331
17B
  5
26A
331
F6A
  5
117D
331
A9F
  5
1154
331
15C
  5
24B
331
954
  5
1133
331
935
  5
110E
331
5B6
  5
10F2
331
570
  5
10AC
331
551
  5
108D
331
532
  5
106E
331
51B
  5
F67
331
10B3
  5
503
331
4FC
  5
C74
331
1094
  5
524
331
4DD
  5
A18
331
1075
  5
55C
331
4BE
  5
954
331
2D0
  5
415
331
2B1
  5
37B
331
292
  5
345
331
264
  5
317
331
245
  5
2F8
331
216
  5
2E2
331
1159
  5
180
331
1178
  5
14B
331
113A
  5
FB
331
16B
  5
25A
331
12D
  5
1FE
331
F79
  5
118C
331
A1F
  5
114D
331
106
  5
1D0
331
F5A
  5
116D
331
C73
  5
115C
331
944
  5
1123
331
5C5
  5
1100
331
5A6
  5
10E2
331
560
  5
109C
331
541
  5
107D
331
522
  5
F6E
331
50B
  5
F59
331
10A3
  5
51F
331
4CD
  5
958
331
1084
  5
53C
331
2C0
  5
3F8
331
2A1
  5
354
331
282
  5
335
331
273
  5
326
331
254
  5
307
331
1EF
  5
2C6
331
1149
  5
1AC
331
1168
  5
16D
331
1187
  5
107
331
17A
  5
269
331
15B
  5
24A
331
F69
  5
117C
331
13C
  5
217
331
953
  5
1132
331
934
  5
110D
331
5B5
  5
10F1
331
550
  5
108C
331
531
  5
106D
331
51A
  5
F66
331
10B2
  5
502
331
4FB
  5
C73
331
1093
  5
523
331
4DC
  5
A16
331
1074
  5
55B
331
2B0
  5
37A
331
291
  5
344
331
263
  5
316
331
244
  5
2F7
331
215
  5
2E1
331
1158
  5
189
331
1177
  5
15A
331
16A
  5
259
331
14B
  5
23B
331
12C
  5
1FD
331
F78
  5
118B
331
A1E
  5
114C
331
105
  5
1CB
331
F59
  5
116C
331
C72
  5
115B
331
943
  5
1122
331
5C4
  5
10FF
331
5A5
  5
10E1
331
540
  5
107C
331
521
  5
F6D
331
50A
  5
F58
331
10A2
  5
51E
331
4CC
  5
957
331
1083
  5
53B
331
2A0
  5
353
331
281
  5
334
331
272
  5
325
331
253
  5
306
331
205
  5
2D6
331
1EE
  5
2C5
331
1148
  5
1AB
331
1167
  5
16C
331
1186
  5
10D
331
179
  5
268
331
15A
  5
249
331
13B
  5
216
331
F68
  5
117B
331
114
  5
1EE
331
952
  5
1131
331
5B4
  5
10F0
331
530
  5
106C
331
519
  5
F65
331
10B1
  5
519
331
1073
  5
F5E
331
4FA
  5
C72
331
1092
  5
522
331
4DB
  5
A14
331
4BC
  5
953
331
290
  5
343
331
262
  5
315
331
243
  5
2F6
331
214
  5
2E0
331
1BF
  5
2A2
331
1157
  5
188
331
1176
  5
159
331
169
  5
258
331
14A
  5
23A
331
12B
  5
1FC
331
F77
  5
118A
331
A1D
  5
114B
331
104
  5
1CA
331
F58
  5
116B
331
C71
  5
115A
331
942
  5
1121
331
5C3
  5
10FE
331
5A4
  5
10E0
331
520
  5
F6C
331
509
  5
C81
331
10A1
  5
51D
331
1082
  5
53A
331
280
  5
333
331
271
  5
324
331
252
  5
305
331
204
  5
2D5
331
1147
  5
1B2
331
1166
  5
171
331
1185
  5
127
331
178
  5
267
331
159
  5
248
331
13A
  5
215
331
F67
  5
117A
331
113
  5
1E9
331
951
  5
1130
331
5B3
  5
10EF
331
518
  5
F64
331
10B0
  5
518
331
1072
  5
F5D
331
4F9
  5
C71
331
1091
  5
535
331
4DA
  5
A12
331
4BB
  5
952
331
261
  5
314
331
242
  5
2F5
331
213
  5
2DF
331
1BE
  5
2A1
331
19F
  5
286
331
1156
  5
183
331
1175
  5
158
331
168
  5
257
331
149
  5
239
331
12A
  5
1F7
331
F76
  5
1189
331
A1C
  5
114A
331
103
  5
1C9
331
C70
  5
1159
331
941
  5
1120
331
5C2
  5
10FD
331
5A3
  5
10DF
331
508
  5
C80
331
10A0
  5
51C
331
4E9
  5
A9B
331
1081
  5
539
331
4AB
  5
946
331
270
  5
323
331
251
  5
304
331
203
  5
2D4
331
18F
  5
27A
331
1146
  5
1B8
331
1165
  5
170
331
1184
  5
117
331
158
  5
247
331
139
  5
214
331
F66
  5
1179
331
A9B
  5
1153
331
112
  5
1E8
331
C7F
  5
1168
331
AA0
  5
1155
331
A17
  5
1146
331
950
  5
112F
331
5B2
  5
10EE
331
1071
  5
1112
331
4F8
  5
C70
331
1090
  5
534
331
4D9
  5
A11
331
4BA
  5
951
331
27F
  5
332
331
260
  5
313
331
241
  5
2F4
331
212
  5
2DE
331
1BD
  5
2A0
331
19E
  5
285
331
1155
  5
18A
331
1174
  5
15D
331
1136
  5
110
331
148
  5
238
331
129
  5
1F6
331
F75
  5
1188
331
A1B
  5
1149
331
102
  5
1C8
331
C6F
  5
1158
331
940
  5
111F
331
5C1
  5
10FC
331
5A2
  5
10DE
331
4E8
  5
A24
331
1080
  5
538
331
4AA
  5
945
331
26F
  5
322
331
250
  5
303
331
1AD
  5
292
331
1145
  5
1B7
331
1164
  5
16F
331
1183
  5
111
331
138
  5
213
331
F65
  5
1178
331
111
  5
1E7
331
C7E
  5
1167
331
94F
  5
112E
331
5B1
  5
10ED
331
1070
  5
1111
331
4D8
  5
A10
331
4B9
  5
950
331
48F
  5
5C9
331
27E
  5
331
331
25F
  5
312
331
240
  5
2F3
331
1DB
  5
2B8
331
1BC
  5
29F
331
19D
  5
284
331
1154
  5
198
331
1173
  5
15C
331
1135
  5
10F
331
128
  5
1F5
331
F74
  5
1187
331
A1A
  5
1148
331
101
  5
1C7
331
C6E
  5
1157
331
93F
  5
111E
331
5C0
  5
10FB
331
5A1
  5
10DD
331
4A9
  5
944
331
49E
  5
938
331
47F
  5
5B8
331
26E
  5
321
331
24F
  5
302
331
1CB
  5
2AC
331
1AC
  5
291
331
1144
  5
1B6
331
1163
  5
172
331
1182
  5
12D
331
F64
  5
1177
331
110
  5
1E2
331
C7D
  5
1166
331
A15
  5
1145
331
94E
  5
112D
331
5CF
  5
110A
331
5B0
  5
10EC
331
4B8
  5
94F
331
48E
  5
5C8
331
46F
  5
5A8
331
27D
  5
330
331
25E
  5
311
331
23F
  5
2F2
331
1DA
  5
2B7
331
1BB
  5
29E
331
1153
  5
197
331
1172
  5
15B
331
1134
  5
10E
331
F73
  5
1186
331
A19
  5
1147
331
100
  5
1C6
331
C6D
  5
1156
331
93E
  5
111D
331
5BF
  5
10FA
331
5A0
  5
10DC
331
4A8
  5
943
331
47E
  5
5B7
331
45F
  5
598
331
26D
  5
320
331
24E
  5
301
331
1E9
  5
2C2
331
1CA
  5
2AB
331
1AB
  5
290
331
1143
  5
1BB
331
1162
  5
178
331
1181
  5
12C
331
F63
  5
1176
331
C7C
  5
1165
331
94D
  5
112C
331
5CE
  5
1109
331
5AF
  5
10EB
331
48D
  5
5C7
331
46E
  5
5A7
331
44F
  5
588
331
27C
  5
32F
331
25D
  5
310
331
23E
  5
2F1
331
1D9
  5
2B6
331
1BA
  5
29D
331
1152
  5
196
331
1171
  5
15E
331
F72
  5
1185
331
93D
  5
111C
331
5BE
  5
10F9
331
59F
  5
10DB
331
49C
  5
937
331
47D
  5
5B6
331
45E
  5
597
331
43F
  5
578
331
26C
  5
31F
331
24D
  5
300
331
1E8
  5
2C1
331
1C9
  5
2AA
331
1AA
  5
28F
331
1142
  5
1BA
331
1161
  5
177
331
1180
  5
128
331
F62
  5
1175
331
C7B
  5
1164
331
A13
  5
1144
331
94C
  5
112B
331
5CD
  5
1108
331
5AE
  5
10EA
331
48C
  5
5C6
331
46D
  5
5A6
331
44E
  5
587
331
27B
  5
32E
331
25C
  5
30F
331
23D
  5
2F0
331
1F7
  5
2CC
331
1B9
  5
29C
331
1151
  5
19F
331
1170
  5
164
331
F71
  5
1184
331
5BD
  5
10F8
331
59E
  5
10DA
331
47C
  5
5B5
331
45D
  5
596
331
43E
  5
577
331
417
  5
56A
331
26B
  5
31E
331
24C
  5
2FF
331
21D
  5
2E9
331
1FE
  5
2D1
331
1E7
  5
2C0
331
1C8
  5
2A9
331
1A9
  5
28E
331
18A
  5
277
331
1141
  5
1B9
331
1160
  5
176
331
F61
  5
1174
331
C7A
  5
1163
331
94B
  5
112A
331
5CC
  5
1107
331
5AD
  5
10E9
331
48B
  5
5C5
331
46C
  5
5A5
331
44D
  5
586
331
407
  5
561
331
27A
  5
32D
331
25B
  5
30E
331
23C
  5
2EF
331
1F6
  5
2CB
331
1B8
  5
29B
331
1150
  5
19E
331
F70
  5
1183
331
C81
  5
116A
331
962
  5
113D
331
93B
  5
1117
331
59D
  5
10D9
331
47B
  5
5B4
331
45C
  5
595
331
43D
  5
576
331
416
  5
569
331
3F7
  5
555
331
26A
  5
31D
331
24B
  5
2FE
331
21C
  5
2E8
331
1FD
  5
2D0
331
1C7
  5
2A8
331
1A8
  5
28D
331
189
  5
276
331
1140
  5
1BC
331
F60
  5
1173
331
C79
  5
1162
331
A11
  5
1143
331
94A
  5
1129
331
5CB
  5
1106
331
5AC
  5
10E8
331
48A
  5
5C4
331
46B
  5
5A4
331
44C
  5
585
331
406
  5
560
331
3E7
  5
54B
331
279
  5
32C
331
25A
  5
30D
331
23B
  5
2EE
331
20C
  5
2DB
331
1F5
  5
2CA
331
1B7
  5
29A
331
198
  5
281
  0
XRECORD
  5
1192
102
{ACAD_REACTORS
330
1190
102
}
330
1190
100
AcDbXrecord
280
     1
 70
     2
  0
XRECORD
  5
1191
102
{ACAD_REACTORS
330
1190
102
}
330
1190
100
AcDbXrecord
280
     1
 40
1.25
  0
XRECORD
  5
1193
102
{ACAD_REACTORS
330
1190
102
}
330
1190
100
AcDbXrecord
280
     1
 40
1.570796326794896
  0
LAYOUT
  5
39
102
{ACAD_XDICTIONARY
360
11B7
102
}
102
{ACAD_REACTORS
330
2E
102
}
330
2E
100
AcDbPlotSettings
  1

  2
none_device
  4
Letter_(8.50_x_11.00_Inches)
  6

 40
6.349999904632567
 41
6.349999904632567
 42
6.350006103515625
 43
6.350006103515625
 44
215.8999938964844
 45
279.3999938964844
 46
0.0
 47
0.0
 48
0.0
 49
0.0
140
0.0
141
0.0
142
1.0
143
41.97070704468819
 70
 11952
 72
     0
 73
     1
 74
     0
  7

 75
     0
147
0.0238261413832093
148
17444.5887408187
149
28128.56037043846
100
AcDbLayout
  1
Model
 70
     1
 71
     0
 10
0.0
 20
0.0
 11
12.0
 21
9.0
 12
0.0
 22
0.0
 32
0.0
 14
0.0
 24
0.0
 34
0.0
 15
0.0
 25
0.0
 35
0.0
146
0.0
 13
0.0
 23
0.0
 33
0.0
 16
1.0
 26
0.0
 36
0.0
 17
0.0
 27
1.0
 37
0.0
 76
     0
330
36
331
56
1001
ACAD_PSEXT
1000
なし
1000
なし
1000
適切ではありません
1000
新しいプロッタ環境設定名を選択しない限り、レイアウトは印刷されません。
1070
     0
  0
LAYOUT
  5
35
102
{ACAD_XDICTIONARY
360
11B5
102
}
102
{ACAD_REACTORS
330
2E
102
}
330
2E
100
AcDbPlotSettings
  1

  2
DocuPrint 305
  4

  6

 40
0.0
 41
0.0
 42
0.0
 43
0.0
 44
0.0
 45
0.0
 46
0.0
 47
0.0
 48
0.0
 49
0.0
140
0.0
141
0.0
142
1.0
143
1.0
 70
   688
 72
     0
 73
     0
 74
     5
  7

 75
    16
147
1.0
148
0.0
149
0.0
100
AcDbLayout
  1
レイアウト1
 70
     1
 71
     1
 10
0.0
 20
0.0
 11
12.0
 21
9.0
 12
0.0
 22
0.0
 32
0.0
 14
1.000000000000000E+20
 24
1.000000000000000E+20
 34
1.000000000000000E+20
 15
-1.000000000000000E+20
 25
-1.000000000000000E+20
 35
-1.000000000000000E+20
146
0.0
 13
0.0
 23
0.0
 33
0.0
 16
1.0
 26
0.0
 36
0.0
 17
0.0
 27
1.0
 37
0.0
 76
     0
330
32
  0
MATERIAL
  5
12
102
{ACAD_XDICTIONARY
360
88C
102
}
102
{ACAD_REACTORS
330
10
102
}
330
10
100
AcDbMaterial
  1
ByBlock
  0
MATERIAL
  5
11
102
{ACAD_XDICTIONARY
360
88A
102
}
102
{ACAD_REACTORS
330
10
102
}
330
10
100
AcDbMaterial
  1
ByLayer
  0
MATERIAL
  5
13
102
{ACAD_XDICTIONARY
360
88E
102
}
102
{ACAD_REACTORS
330
10
102
}
330
10
100
AcDbMaterial
  1
Global
  0
MLEADERSTYLE
  5
B42
102
{ACAD_REACTORS
330
B41
102
}
330
B41
100
AcDbMLeaderStyle
170
     2
171
     1
172
     0
 90
        2
 40
0.0
 41
0.0
173
     1
 91
-1056964608
340
28
 92
       -2
290
     1
 42
0.09
291
     1
 43
0.36
  3
Standard
 44
0.18
300

342
26
174
     1
178
     6
175
     1
176
     0
 93
-1056964608
 45
0.18
292
     0
297
     0
 46
0.18
 94
-1056964608
 47
1.0
 49
1.0
140
1.0
293
     1
141
0.0
294
     1
177
     0
142
1.0
295
     0
296
     0
143
0.125
1001
ACAD_MLEADERVER
1070
     2
  0
MLINESTYLE
  5
2C
102
{ACAD_REACTORS
330
2B
102
}
330
2B
100
AcDbMlineStyle
  2
STANDARD
 70
     0
  3

 62
   256
 51
90.0
 52
90.0
 71
     2
 49
0.5
 62
   256
  6
BYLAYER
 49
-0.5
 62
   256
  6
BYLAYER
  0
ACDBPLACEHOLDER
  5
F
102
{ACAD_REACTORS
330
E
102
}
330
E
  0
SCALE
  5
B30
102
{ACAD_REACTORS
330
B2F
102
}
330
B2F
100
AcDbScale
 70
     0
300
1:1
140
1.0
141
1.0
290
     1
  0
SCALE
  5
B31
102
{ACAD_REACTORS
330
B2F
102
}
330
B2F
100
AcDbScale
 70
     0
300
1/128" = 1'-0"
140
0.0078125
141
12.0
290
     0
  0
SCALE
  5
B32
102
{ACAD_REACTORS
330
B2F
102
}
330
B2F
100
AcDbScale
 70
     0
300
1/64" = 1'-0"
140
0.015625
141
12.0
290
     0
  0
SCALE
  5
B33
102
{ACAD_REACTORS
330
B2F
102
}
330
B2F
100
AcDbScale
 70
     0
300
1/32" = 1'-0"
140
0.03125
141
12.0
290
     0
  0
SCALE
  5
B34
102
{ACAD_REACTORS
330
B2F
102
}
330
B2F
100
AcDbScale
 70
     0
300
1/16" = 1'-0"
140
0.0625
141
12.0
290
     0
  0
SCALE
  5
B35
102
{ACAD_REACTORS
330
B2F
102
}
330
B2F
100
AcDbScale
 70
     0
300
3/32" = 1'-0"
140
0.09375
141
12.0
290
     0
  0
SCALE
  5
B36
102
{ACAD_REACTORS
330
B2F
102
}
330
B2F
100
AcDbScale
 70
     0
300
1/8" = 1'-0"
140
0.125
141
12.0
290
     0
  0
SCALE
  5
B37
102
{ACAD_REACTORS
330
B2F
102
}
330
B2F
100
AcDbScale
 70
     0
300
3/16" = 1'-0"
140
0.1875
141
12.0
290
     0
  0
SCALE
  5
B38
102
{ACAD_REACTORS
330
B2F
102
}
330
B2F
100
AcDbScale
 70
     0
300
1/4" = 1'-0"
140
0.25
141
12.0
290
     0
  0
SCALE
  5
B39
102
{ACAD_REACTORS
330
B2F
102
}
330
B2F
100
AcDbScale
 70
     0
300
3/8" = 1'-0"
140
0.375
141
12.0
290
     0
  0
SCALE
  5
B3A
102
{ACAD_REACTORS
330
B2F
102
}
330
B2F
100
AcDbScale
 70
     0
300
1/2" = 1'-0"
140
0.5
141
12.0
290
     0
  0
SCALE
  5
B3B
102
{ACAD_REACTORS
330
B2F
102
}
330
B2F
100
AcDbScale
 70
     0
300
3/4" = 1'-0"
140
0.75
141
12.0
290
     0
  0
SCALE
  5
B3C
102
{ACAD_REACTORS
330
B2F
102
}
330
B2F
100
AcDbScale
 70
     0
300
1" = 1'-0"
140
1.0
141
12.0
290
     0
  0
SCALE
  5
B3D
102
{ACAD_REACTORS
330
B2F
102
}
330
B2F
100
AcDbScale
 70
     0
300
1-1/2" = 1'-0"
140
1.5
141
12.0
290
     0
  0
SCALE
  5
B3E
102
{ACAD_REACTORS
330
B2F
102
}
330
B2F
100
AcDbScale
 70
     0
300
3" = 1'-0"
140
3.0
141
12.0
290
     0
  0
SCALE
  5
B3F
102
{ACAD_REACTORS
330
B2F
102
}
330
B2F
100
AcDbScale
 70
     0
300
6" = 1'-0"
140
6.0
141
12.0
290
     0
  0
SCALE
  5
B40
102
{ACAD_REACTORS
330
B2F
102
}
330
B2F
100
AcDbScale
 70
     0
300
1'-0" = 1'-0"
140
12.0
141
12.0
290
     0
  0
TABLESTYLE
  5
31
102
{ACAD_XDICTIONARY
360
E01
102
}
102
{ACAD_REACTORS
330
30
102
}
330
30
100
AcDbTableStyle
  3
Standard
 70
     0
 71
     0
 40
0.06
 41
0.06
280
     0
281
     0
  7
STANDARD
140
0.18
170
     2
 62
     0
 63
     7
283
     0
274
    -2
284
     1
 64
     0
275
    -2
285
     1
 65
     0
276
    -2
286
     1
 66
     0
277
    -2
287
     1
 67
     0
278
    -2
288
     1
 68
     0
279
    -2
289
     1
 69
     0
  7
STANDARD
140
0.25
170
     5
 62
     0
 63
     7
283
     0
274
    -2
284
     1
 64
     0
275
    -2
285
     1
 65
     0
276
    -2
286
     1
 66
     0
277
    -2
287
     1
 67
     0
278
    -2
288
     1
 68
     0
279
    -2
289
     1
 69
     0
  7
STANDARD
140
0.18
170
     5
 62
     0
 63
     7
283
     0
274
    -2
284
     1
 64
     0
275
    -2
285
     1
 65
     0
276
    -2
286
     1
 66
     0
277
    -2
287
     1
 67
     0
278
    -2
288
     1
 68
     0
279
    -2
289
     1
 69
     0
  0
VISUALSTYLE
  5
1A
102
{ACAD_XDICTIONARY
360
119E
102
}
102
{ACAD_REACTORS
330
14
102
}
330
14
100
AcDbVisualStyle
  2

 70
     4
 71
     0
 72
     2
 73
     0
 90
        0
 40
-0.6
 41
-30.0
 62
     5
 63
     7
 74
     1
 91
        4
 64
     7
 65
   257
 75
     1
175
     1
 42
1.0
 92
        0
 66
   257
 43
1.0
 76
     1
 77
     6
 78
     2
 67
     7
 79
     5
170
     0
171
     0
290
     0
174
     0
 93
        1
 44
0.0
173
     0
291
     0
 45
0.0
1001
ACAD
1000
AcDbSavedByObjectVersion
1070
     0
  0
VISUALSTYLE
  5
1C
102
{ACAD_XDICTIONARY
360
11A2
102
}
102
{ACAD_REACTORS
330
14
102
}
330
14
100
AcDbVisualStyle
  2

 70
     6
 71
     1
 72
     2
 73
     2
 90
        0
 40
-0.6
 41
-30.0
 62
     5
 63
     7
 74
     2
 91
        2
 64
     7
 65
   257
 75
     2
175
     1
 42
40.0
 92
        0
 66
   257
 43
1.0
 76
     1
 77
     6
 78
     2
 67
     7
 79
     3
170
     0
171
     0
290
     0
174
     0
 93
        1
 44
0.0
173
     0
291
     0
 45
0.0
1001
ACAD
1000
AcDbSavedByObjectVersion
1070
     0
  0
VISUALSTYLE
  5
1B
102
{ACAD_XDICTIONARY
360
11A0
102
}
102
{ACAD_REACTORS
330
14
102
}
330
14
100
AcDbVisualStyle
  2

 70
     5
 71
     0
 72
     2
 73
     0
 90
        0
 40
-0.6
 41
-30.0
 62
     5
 63
     7
 74
     1
 91
        4
 64
     7
 65
   257
 75
     1
175
     1
 42
1.0
 92
        0
 66
   257
 43
1.0
 76
     1
 77
     6
 78
     2
 67
     7
 79
     5
170
     0
171
     0
290
     0
174
     0
 93
        1
 44
0.0
173
     0
291
     0
 45
0.0
1001
ACAD
1000
AcDbSavedByObjectVersion
1070
     0
  0
VISUALSTYLE
  5
19
102
{ACAD_XDICTIONARY
360
119C
102
}
102
{ACAD_REACTORS
330
14
102
}
330
14
100
AcDbVisualStyle
  2

 70
     7
 71
     1
 72
     0
 73
     1
 90
        0
 40
-0.6
 41
-30.0
 62
     5
 63
     7
 74
     0
 91
        4
 64
     7
 65
   257
 75
     1
175
     1
 42
1.0
 92
        8
 66
     7
 43
1.0
 76
     1
 77
     6
 78
     2
 67
     7
 79
     5
170
     0
171
     0
290
     0
174
     0
 93
        1
 44
0.0
173
     0
291
     1
 45
0.0
1001
ACAD
1000
AcDbSavedByObjectVersion
1070
     0
  0
VISUALSTYLE
  5
20
102
{ACAD_XDICTIONARY
360
11AA
102
}
102
{ACAD_REACTORS
330
14
102
}
330
14
100
AcDbVisualStyle
  2

 70
    12
 71
     2
 72
     2
 73
     0
 90
        0
 40
-0.6
 41
-30.0
 62
     5
 63
     7
 74
     1
 91
        4
 64
     7
 65
   257
 75
     1
175
     1
 42
1.0
 92
        8
 66
     7
 43
1.0
 76
     1
 77
     6
 78
     2
 67
     7
 79
     5
170
     0
171
     0
290
     0
174
     0
 93
        1
 44
50.0
173
     0
291
     1
 45
0.0
1001
ACAD
1000
AcDbSavedByObjectVersion
1070
     0
  0
VISUALSTYLE
  5
24
102
{ACAD_XDICTIONARY
360
11B2
102
}
102
{ACAD_REACTORS
330
14
102
}
330
14
100
AcDbVisualStyle
  2

 70
    16
 71
     2
 72
     2
 73
     3
 90
        0
 40
-0.6
 41
-30.0
 62
     5
 63
     8
 74
     1
 91
        4
 64
     7
 65
   257
 75
     1
175
     1
 42
1.0
 92
        8
 66
     8
 43
1.0
 76
     1
 77
     6
 78
     2
 67
     7
 79
     5
170
     0
171
     0
290
     0
174
     0
 93
        1
 44
0.0
173
     0
291
     1
 45
0.0
1001
ACAD
1000
AcDbSavedByObjectVersion
1070
     0
  0
VISUALSTYLE
  5
1D
102
{ACAD_XDICTIONARY
360
11A4
102
}
102
{ACAD_REACTORS
330
14
102
}
330
14
100
AcDbVisualStyle
  2

 70
     9
 71
     3
 72
     2
 73
     0
 90
        0
 40
-0.6
 41
-30.0
 62
     5
 63
     7
 74
     2
 91
        2
 64
     7
 65
   257
 75
     1
175
     1
 42
40.0
 92
        8
 66
     7
 43
1.0
 76
     1
 77
     6
 78
     2
 67
     7
 79
     3
170
     0
171
     0
290
     0
174
     0
 93
        1
 44
0.0
173
     0
291
     0
 45
0.0
1001
ACAD
1000
AcDbSavedByObjectVersion
1070
     0
  0
VISUALSTYLE
  5
1F
102
{ACAD_XDICTIONARY
360
11A8
102
}
102
{ACAD_REACTORS
330
14
102
}
330
14
100
AcDbVisualStyle
  2

 70
    11
 71
     2
 72
     2
 73
     0
 90
        0
 40
-0.6
 41
-30.0
 62
     5
 63
     7
 74
     1
 91
        4
 64
     7
 65
   257
 75
     1
175
     1
 42
1.0
 92
        8
 66
     7
 43
1.0
 76
     1
 77
     6
 78
     2
 67
     7
 79
     5
170
     0
171
     0
290
     0
174
     0
 93
        1
 44
-50.0
173
     0
291
     1
 45
0.0
1001
ACAD
1000
AcDbSavedByObjectVersion
1070
     0
  0
VISUALSTYLE
  5
B2E
102
{ACAD_XDICTIONARY
360
11CB
102
}
102
{ACAD_REACTORS
330
14
102
}
330
14
100
AcDbVisualStyle
  2

 70
    22
 71
     2
 72
     2
 73
     0
 90
        0
 40
-0.6
 41
-30.0
 62
     5
 63
     7
 74
     1
 91
        4
 64
     7
 65
   257
 75
     1
175
     1
 42
1.0
 92
        8
 66
     7
 43
1.0
 76
     1
 77
     6
 78
     2
 67
     7
 79
     5
170
     0
171
     0
290
     0
174
     0
 93
        1
 44
0.0
173
     0
291
     1
 45
0.0
1001
ACAD
1000
AcDbSavedByObjectVersion
1070
     0
  0
VISUALSTYLE
  5
23
102
{ACAD_XDICTIONARY
360
11B0
102
}
102
{ACAD_REACTORS
330
14
102
}
330
14
100
AcDbVisualStyle
  2

 70
    15
 71
     2
 72
     2
 73
     0
 90
        0
 40
-0.6
 41
-30.0
 62
     5
 63
     7
 74
     1
 91
        4
 64
     7
 65
   257
 75
     1
175
     1
 42
1.0
 92
        8
 66
     7
 43
1.0
 76
     1
 77
     6
 78
     2
 67
     7
 79
     5
170
     0
171
     0
290
     0
174
     0
 93
        1
 44
0.0
173
     0
291
     1
 45
0.0
1001
ACAD
1000
AcDbSavedByObjectVersion
1070
     0
  0
VISUALSTYLE
  5
15
102
{ACAD_XDICTIONARY
360
1194
102
}
102
{ACAD_REACTORS
330
14
102
}
330
14
100
AcDbVisualStyle
  2

 70
     0
 71
     2
 72
     1
 73
     1
 90
        2
 40
-0.6
 41
30.0
 62
     5
 63
     7
 74
     0
 91
        4
 64
     7
 65
   257
 75
     1
175
     1
 42
1.0
 92
        8
 66
     7
 43
1.0
 76
     1
 77
     6
 78
     2
 67
     7
 79
     5
170
     0
171
     0
290
     0
174
     0
 93
       13
 44
0.0
173
     0
291
     1
 45
0.0
1001
ACAD
1000
AcDbSavedByObjectVersion
1070
     0
  0
VISUALSTYLE
  5
16
102
{ACAD_XDICTIONARY
360
1196
102
}
102
{ACAD_REACTORS
330
14
102
}
330
14
100
AcDbVisualStyle
  2

 70
     1
 71
     2
 72
     1
 73
     1
 90
        2
 40
-0.6
 41
30.0
 62
     5
 63
     7
 74
     1
 91
        4
 64
     7
 65
   257
 75
     1
175
     1
 42
1.0
 92
        0
 66
   257
 43
1.0
 76
     1
 77
     6
 78
     2
 67
     7
 79
     5
170
     0
171
     0
290
     0
174
     0
 93
       13
 44
0.0
173
     0
291
     1
 45
0.0
1001
ACAD
1000
AcDbSavedByObjectVersion
1070
     0
  0
VISUALSTYLE
  5
17
102
{ACAD_XDICTIONARY
360
1198
102
}
102
{ACAD_REACTORS
330
14
102
}
330
14
100
AcDbVisualStyle
  2

 70
     2
 71
     2
 72
     2
 73
     1
 90
        2
 40
-0.6
 41
30.0
 62
     5
 63
     7
 74
     0
 91
        4
 64
     7
 65
   257
 75
     1
175
     1
 42
1.0
 92
        0
 66
     7
 43
1.0
 76
     1
 77
     6
 78
     2
 67
     7
 79
     5
170
     0
171
     0
290
     0
174
     0
 93
       13
 44
0.0
173
     0
291
     1
 45
0.0
1001
ACAD
1000
AcDbSavedByObjectVersion
1070
     0
  0
VISUALSTYLE
  5
18
102
{ACAD_XDICTIONARY
360
119A
102
}
102
{ACAD_REACTORS
330
14
102
}
330
14
100
AcDbVisualStyle
  2

 70
     3
 71
     2
 72
     2
 73
     1
 90
        2
 40
-0.6
 41
30.0
 62
     5
 63
     7
 74
     1
 91
        4
 64
     7
 65
   257
 75
     1
175
     1
 42
1.0
 92
        0
 66
   257
 43
1.0
 76
     1
 77
     6
 78
     2
 67
     7
 79
     5
170
     0
171
     0
290
     0
174
     0
 93
       13
 44
0.0
173
     0
291
     1
 45
0.0
1001
ACAD
1000
AcDbSavedByObjectVersion
1070
     0
  0
VISUALSTYLE
  5
B26
102
{ACAD_XDICTIONARY
360
11BB
102
}
102
{ACAD_REACTORS
330
14
102
}
330
14
100
AcDbVisualStyle
  2

 70
     6
 71
     1
 72
     2
 73
     2
 90
        0
 40
-0.6
 41
-30.0
 62
     5
 63
     7
 74
     2
 91
        2
 64
     7
 65
   257
 75
     2
175
     1
 42
40.0
 92
        0
 66
   257
 43
1.0
 76
     1
 77
     6
 78
     2
 67
     7
 79
     3
170
     0
171
     0
290
     0
174
     0
 93
        1
 44
0.0
173
     0
291
     0
 45
0.0
1001
ACAD
1000
AcDbSavedByObjectVersion
1070
     0
  0
VISUALSTYLE
  5
B2C
102
{ACAD_XDICTIONARY
360
11C7
102
}
102
{ACAD_REACTORS
330
14
102
}
330
14
100
AcDbVisualStyle
  2

 70
    20
 71
     2
 72
     2
 73
     0
 90
        0
 40
-0.6
 41
-30.0
 62
     5
 63
     7
 74
     1
 91
        4
 64
     7
 65
   257
 75
     1
175
     1
 42
1.0
 92
       10
 66
     7
 43
1.0
 76
     1
 77
     6
 78
     2
 67
     7
 79
     5
170
     0
171
     0
290
     0
174
     0
 93
        1
 44
0.0
173
     0
291
     1
 45
0.0
1001
ACAD
1000
AcDbSavedByObjectVersion
1070
     0
  0
VISUALSTYLE
  5
22
102
{ACAD_XDICTIONARY
360
11AE
102
}
102
{ACAD_REACTORS
330
14
102
}
330
14
100
AcDbVisualStyle
  2

 70
    14
 71
     2
 72
     2
 73
     0
 90
        0
 40
-0.6
 41
-30.0
 62
     5
 63
     7
 74
     1
 91
        4
 64
     7
 65
   257
 75
     7
175
     7
 42
1.0
 92
        8
 66
     7
 43
1.0
 76
     1
 77
     6
 78
     2
 67
     7
 79
     5
170
     0
171
     0
290
     0
174
     0
 93
        1
 44
0.0
173
     0
291
     1
 45
0.0
1001
ACAD
1000
AcDbSavedByObjectVersion
1070
     0
  0
VISUALSTYLE
  5
B2D
102
{ACAD_XDICTIONARY
360
11C9
102
}
102
{ACAD_REACTORS
330
14
102
}
330
14
100
AcDbVisualStyle
  2

 70
    21
 71
     2
 72
     2
 73
     0
 90
        0
 40
-0.6
 41
-30.0
 62
     5
 63
     7
 74
     1
 91
        4
 64
     7
 65
   257
 75
     1
175
     1
 42
1.0
 92
        9
 66
     7
 43
1.0
 76
     1
 77
     6
 78
     2
 67
     7
 79
     5
170
     0
171
     0
290
     0
174
     0
 93
        1
 44
0.0
173
     0
291
     1
 45
0.0
1001
ACAD
1000
AcDbSavedByObjectVersion
1070
     0
  0
VISUALSTYLE
  5
1E
102
{ACAD_XDICTIONARY
360
11A6
102
}
102
{ACAD_REACTORS
330
14
102
}
330
14
100
AcDbVisualStyle
  2

 70
     8
 71
     2
 72
     2
 73
     0
 90
        0
 40
-0.6
 41
-30.0
 62
     5
 63
     7
 74
     1
 91
        0
 64
     7
 65
   257
 75
     1
175
     1
 42
1.0
 92
        8
 66
     8
 43
1.0
 76
     1
 77
     6
 78
     2
 67
     7
 79
     5
170
     0
171
     0
290
     0
174
     0
 93
       13
 44
0.0
173
     0
291
     0
 45
0.0
1001
ACAD
1000
AcDbSavedByObjectVersion
1070
     0
  0
VISUALSTYLE
  5
B2B
102
{ACAD_XDICTIONARY
360
11C5
102
}
102
{ACAD_REACTORS
330
14
102
}
330
14
100
AcDbVisualStyle
  2

 70
    27
 71
     2
 72
     2
 73
     1
 90
        2
 40
-0.6
 41
30.0
 62
     5
 63
     7
 74
     0
 91
        4
 64
     7
 65
   257
 75
     1
175
     1
 42
1.0
 92
        8
 66
   257
 43
1.0
 76
     1
 77
     6
 78
     2
 67
     8
 79
     3
170
     0
171
     0
290
     0
174
     0
 93
        5
 44
0.0
173
     0
291
     0
 45
0.0
1001
ACAD
1000
AcDbSavedByObjectVersion
1070
     0
  0
VISUALSTYLE
  5
B2A
102
{ACAD_XDICTIONARY
360
11C3
102
}
102
{ACAD_REACTORS
330
14
102
}
330
14
100
AcDbVisualStyle
  2

 70
    26
 71
     2
 72
     2
 73
     1
 90
        2
 40
-0.6
 41
30.0
 62
     5
 63
     7
 74
     1
 91
       10
 64
     7
 65
   257
 75
     2
175
     1
 42
1.0
 92
        8
 66
   257
 43
1.0
 76
     1
 77
     6
 78
     2
 67
     7
 79
     3
170
     0
171
     0
290
     0
174
     0
 93
        5
 44
0.0
173
     0
291
     0
 45
0.0
1001
ACAD
1000
AcDbSavedByObjectVersion
1070
     0
  0
VISUALSTYLE
  5
B27
102
{ACAD_XDICTIONARY
360
11BD
102
}
102
{ACAD_REACTORS
330
14
102
}
330
14
100
AcDbVisualStyle
  2

 70
    23
 71
     2
 72
     2
 73
     3
 90
        0
 40
-0.6
 41
-30.0
 62
     5
 63
     7
 74
     2
 91
        2
 64
     7
 65
     7
 75
     1
175
     1
 42
40.0
 92
        8
 66
     7
 43
1.0
 76
     1
 77
     6
 78
     2
 67
     7
 79
     3
170
     0
171
     0
290
     0
174
     0
 93
        1
 44
0.0
173
     0
291
     0
 45
0.0
1001
ACAD
1000
AcDbSavedByObjectVersion
1070
     0
  0
VISUALSTYLE
  5
B28
102
{ACAD_XDICTIONARY
360
11BF
102
}
102
{ACAD_REACTORS
330
14
102
}
330
14
100
AcDbVisualStyle
  2

 70
    24
 71
     1
 72
     2
 73
     2
 90
        0
 40
-0.6
 41
-30.0
 62
     5
 63
     7
 74
     2
 91
        2
 64
     7
 65
     7
 75
     1
175
     1
 42
40.0
 92
       11
 66
     7
 43
1.0
 76
     1
 77
     6
 78
     2
 67
     7
 79
     6
170
     0
171
     0
290
     0
174
     0
 93
        1
 44
0.0
173
     0
291
     0
 45
0.0
1001
ACAD
1000
AcDbSavedByObjectVersion
1070
     0
  0
VISUALSTYLE
  5
21
102
{ACAD_XDICTIONARY
360
11AC
102
}
102
{ACAD_REACTORS
330
14
102
}
330
14
100
AcDbVisualStyle
  2

 70
    13
 71
     2
 72
     2
 73
     0
 90
        0
 40
-0.6
 41
-30.0
 62
     5
 63
     7
 74
     1
 91
        4
 64
     7
 65
   257
 75
     1
175
     1
 42
1.0
 92
       12
 66
     7
 43
1.0
 76
     1
 77
     6
 78
     2
 67
     7
 79
     5
170
     0
171
     0
290
     0
174
     0
 93
        1
 44
0.0
173
     0
291
     1
 45
0.0
1001
ACAD
1000
AcDbSavedByObjectVersion
1070
     0
  0
VISUALSTYLE
  5
B25
102
{ACAD_XDICTIONARY
360
11B9
102
}
102
{ACAD_REACTORS
330
14
102
}
330
14
100
AcDbVisualStyle
  2

 70
     5
 71
     0
 72
     2
 73
     0
 90
        0
 40
-0.6
 41
-30.0
 62
     5
 63
     7
 74
     1
 91
        4
 64
     7
 65
   257
 75
     1
175
     1
 42
1.0
 92
        0
 66
   257
 43
1.0
 76
     1
 77
     6
 78
     2
 67
     7
 79
     3
170
     0
171
     0
290
     0
174
     0
 93
        1
 44
0.0
173
     0
291
     0
 45
0.0
1001
ACAD
1000
AcDbSavedByObjectVersion
1070
     0
  0
VISUALSTYLE
  5
B29
102
{ACAD_XDICTIONARY
360
11C1
102
}
102
{ACAD_REACTORS
330
14
102
}
330
14
100
AcDbVisualStyle
  2

 70
    25
 71
     2
 72
     2
 73
     1
 90
        1
 40
0.5
 41
-30.0
 62
     5
 63
     7
 74
     1
 91
        0
 64
     7
 65
   257
 75
     1
175
     1
 42
1.0
 92
        8
 66
     7
 43
1.0
 76
     1
 77
     6
 78
     2
 67
     7
 79
     3
170
     0
171
     0
290
     0
174
     0
 93
       13
 44
0.0
173
     0
291
     0
 45
0.0
1001
ACAD
1000
AcDbSavedByObjectVersion
1070
     0
  0
DICTIONARYVAR
  5
DFF
102
{ACAD_REACTORS
330
883
102
}
330
883
100
DictionaryVariables
280
     0
  1
1:1
  0
DICTIONARYVAR
  5
DFE
102
{ACAD_REACTORS
330
883
102
}
330
883
100
DictionaryVariables
280
     0
  1
STANDARD
  0
DICTIONARYVAR
  5
884
102
{ACAD_REACTORS
330
883
102
}
330
883
100
DictionaryVariables
280
     0
  1
STANDARD
  0
DICTIONARYVAR
  5
888
102
{ACAD_REACTORS
330
883
102
}
330
883
100
DictionaryVariables
280
     0
  1
1
  0
DICTIONARYVAR
  5
887
102
{ACAD_REACTORS
330
883
102
}
330
883
100
DictionaryVariables
280
     0
  1
0
  0
DICTIONARYVAR
  5
886
102
{ACAD_REACTORS
330
883
102
}
330
883
100
DictionaryVariables
280
     0
  1
127
  0
DICTIONARYVAR
  5
1027
102
{ACAD_REACTORS
330
883
102
}
330
883
100
DictionaryVariables
280
     0
  1
2
  0
DICTIONARY
  5
11B7
330
39
100
AcDbDictionary
280
     1
281
     1
  3
ACAD_XREC_ROUNDTRIP
360
11B8
  0
DICTIONARY
  5
11B5
330
35
100
AcDbDictionary
280
     1
281
     1
  3
ACAD_XREC_ROUNDTRIP
360
11B6
  0
DICTIONARY
  5
88C
330
12
100
AcDbDictionary
280
     1
281
     1
  3
ACAD_XREC_ROUNDTRIP
360
88D
  0
DICTIONARY
  5
88A
330
11
100
AcDbDictionary
280
     1
281
     1
  3
ACAD_XREC_ROUNDTRIP
360
88B
  0
DICTIONARY
  5
88E
330
13
100
AcDbDictionary
280
     1
281
     1
  3
ACAD_XREC_ROUNDTRIP
360
88F
  0
DICTIONARY
  5
E01
330
31
100
AcDbDictionary
280
     1
281
     1
  3
ACAD_ROUNDTRIP_2008_TABLESTYLE_CELLSTYLEMAP
360
118D
  3
ACAD_XREC_ROUNDTRIP
360
11B4
  0
DICTIONARY
  5
119E
330
1A
100
AcDbDictionary
280
     1
281
     1
  3
ACAD_XREC_ROUNDTRIP
360
119F
  0
DICTIONARY
  5
11A2
330
1C
100
AcDbDictionary
280
     1
281
     1
  3
ACAD_XREC_ROUNDTRIP
360
11A3
  0
DICTIONARY
  5
11A0
330
1B
100
AcDbDictionary
280
     1
281
     1
  3
ACAD_XREC_ROUNDTRIP
360
11A1
  0
DICTIONARY
  5
119C
330
19
100
AcDbDictionary
280
     1
281
     1
  3
ACAD_XREC_ROUNDTRIP
360
119D
  0
DICTIONARY
  5
11AA
330
20
100
AcDbDictionary
280
     1
281
     1
  3
ACAD_XREC_ROUNDTRIP
360
11AB
  0
DICTIONARY
  5
11B2
330
24
100
AcDbDictionary
280
     1
281
     1
  3
ACAD_XREC_ROUNDTRIP
360
11B3
  0
DICTIONARY
  5
11A4
330
1D
100
AcDbDictionary
280
     1
281
     1
  3
ACAD_XREC_ROUNDTRIP
360
11A5
  0
DICTIONARY
  5
11A8
330
1F
100
AcDbDictionary
280
     1
281
     1
  3
ACAD_XREC_ROUNDTRIP
360
11A9
  0
DICTIONARY
  5
11CB
330
B2E
100
AcDbDictionary
280
     1
281
     1
  3
ACAD_XREC_ROUNDTRIP
360
11CC
  0
DICTIONARY
  5
11B0
330
23
100
AcDbDictionary
280
     1
281
     1
  3
ACAD_XREC_ROUNDTRIP
360
11B1
  0
DICTIONARY
  5
1194
330
15
100
AcDbDictionary
280
     1
281
     1
  3
ACAD_XREC_ROUNDTRIP
360
1195
  0
DICTIONARY
  5
1196
330
16
100
AcDbDictionary
280
     1
281
     1
  3
ACAD_XREC_ROUNDTRIP
360
1197
  0
DICTIONARY
  5
1198
330
17
100
AcDbDictionary
280
     1
281
     1
  3
ACAD_XREC_ROUNDTRIP
360
1199
  0
DICTIONARY
  5
119A
330
18
100
AcDbDictionary
280
     1
281
     1
  3
ACAD_XREC_ROUNDTRIP
360
119B
  0
DICTIONARY
  5
11BB
330
B26
100
AcDbDictionary
280
     1
281
     1
  3
ACAD_XREC_ROUNDTRIP
360
11BC
  0
DICTIONARY
  5
11C7
330
B2C
100
AcDbDictionary
280
     1
281
     1
  3
ACAD_XREC_ROUNDTRIP
360
11C8
  0
DICTIONARY
  5
11AE
330
22
100
AcDbDictionary
280
     1
281
     1
  3
ACAD_XREC_ROUNDTRIP
360
11AF
  0
DICTIONARY
  5
11C9
330
B2D
100
AcDbDictionary
280
     1
281
     1
  3
ACAD_XREC_ROUNDTRIP
360
11CA
  0
DICTIONARY
  5
11A6
330
1E
100
AcDbDictionary
280
     1
281
     1
  3
ACAD_XREC_ROUNDTRIP
360
11A7
  0
DICTIONARY
  5
11C5
330
B2B
100
AcDbDictionary
280
     1
281
     1
  3
ACAD_XREC_ROUNDTRIP
360
11C6
  0
DICTIONARY
  5
11C3
330
B2A
100
AcDbDictionary
280
     1
281
     1
  3
ACAD_XREC_ROUNDTRIP
360
11C4
  0
DICTIONARY
  5
11BD
330
B27
100
AcDbDictionary
280
     1
281
     1
  3
ACAD_XREC_ROUNDTRIP
360
11BE
  0
DICTIONARY
  5
11BF
330
B28
100
AcDbDictionary
280
     1
281
     1
  3
ACAD_XREC_ROUNDTRIP
360
11C0
  0
DICTIONARY
  5
11AC
330
21
100
AcDbDictionary
280
     1
281
     1
  3
ACAD_XREC_ROUNDTRIP
360
11AD
  0
DICTIONARY
  5
11B9
330
B25
100
AcDbDictionary
280
     1
281
     1
  3
ACAD_XREC_ROUNDTRIP
360
11BA
  0
DICTIONARY
  5
11C1
330
B29
100
AcDbDictionary
280
     1
281
     1
  3
ACAD_XREC_ROUNDTRIP
360
11C2
  0
XRECORD
  5
11B8
102
{ACAD_REACTORS
330
11B7
102
}
330
11B7
100
AcDbXrecord
280
     1
102
SHADEPLOT
 70
     0
102
SHADEPLOTRESLEVEL
 70
     2
102
SHADEPLOTCUSTOMDPI
 70
   300
  0
XRECORD
  5
11B6
102
{ACAD_REACTORS
330
11B5
102
}
330
11B5
100
AcDbXrecord
280
     1
102
SHADEPLOT
 70
     0
102
SHADEPLOTRESLEVEL
 70
     2
102
SHADEPLOTCUSTOMDPI
 70
   300
  0
XRECORD
  5
88D
102
{ACAD_REACTORS
330
88C
102
}
330
88C
100
AcDbXrecord
280
     1
102
MATERIAL
148
0.0
149
0.0
149
0.0
 93
        0
 94
      127
282
     0
 72
     1
 77
     1
171
     1
175
     1
179
     1
273
     0
  0
XRECORD
  5
88B
102
{ACAD_REACTORS
330
88A
102
}
330
88A
100
AcDbXrecord
280
     1
102
MATERIAL
148
0.0
149
0.0
149
0.0
 93
        0
 94
      127
282
     0
 72
     1
 77
     1
171
     1
175
     1
179
     1
273
     0
  0
XRECORD
  5
88F
102
{ACAD_REACTORS
330
88E
102
}
330
88E
100
AcDbXrecord
280
     1
102
MATERIAL
148
0.0
149
0.0
149
0.0
 93
        0
 94
      127
282
     0
 72
     1
 77
     1
171
     1
175
     1
179
     1
273
     0
  0
CELLSTYLEMAP
  5
118D
102
{ACAD_REACTORS
330
E01
102
}
330
E01
100
AcDbCellStyleMap
 90
        3
300
CELLSTYLE
  1
TABLEFORMAT_BEGIN
 90
        5
170
     1
 91
        0
 92
    32768
 62
   257
 93
        1
300
CONTENTFORMAT
  1
CONTENTFORMAT_BEGIN
 90
        0
 91
        0
 92
      512
 93
        0
300

 40
0.0
140
1.0
 94
        5
 62
     0
340
26
144
0.25
309
CONTENTFORMAT_END
171
     1
301
MARGIN
  1
CELLMARGIN_BEGIN
 40
0.06
 40
0.06
 40
0.06
 40
0.06
 40
0.18
 40
0.18
309
CELLMARGIN_END
 94
        6
 95
        1
302
GRIDFORMAT
  1
GRIDFORMAT_BEGIN
 90
        0
 91
        1
 62
     0
 92
       -2
340
0
 93
        0
 40
0.045
309
GRIDFORMAT_END
 95
        2
302
GRIDFORMAT
  1
GRIDFORMAT_BEGIN
 90
        0
 91
        1
 62
     0
 92
       -2
340
0
 93
        0
 40
0.045
309
GRIDFORMAT_END
 95
        4
302
GRIDFORMAT
  1
GRIDFORMAT_BEGIN
 90
        0
 91
        1
 62
     0
 92
       -2
340
0
 93
        0
 40
0.045
309
GRIDFORMAT_END
 95
        8
302
GRIDFORMAT
  1
GRIDFORMAT_BEGIN
 90
        0
 91
        1
 62
     0
 92
       -2
340
0
 93
        0
 40
0.045
309
GRIDFORMAT_END
 95
       16
302
GRIDFORMAT
  1
GRIDFORMAT_BEGIN
 90
        0
 91
        1
 62
     0
 92
       -2
340
0
 93
        0
 40
0.045
309
GRIDFORMAT_END
 95
       32
302
GRIDFORMAT
  1
GRIDFORMAT_BEGIN
 90
        0
 91
        1
 62
     0
 92
       -2
340
0
 93
        0
 40
0.045
309
GRIDFORMAT_END
309
TABLEFORMAT_END
  1
CELLSTYLE_BEGIN
 90
        1
 91
        1
300
_TITLE
309
CELLSTYLE_END
300
CELLSTYLE
  1
TABLEFORMAT_BEGIN
 90
        5
170
     1
 91
        0
 92
        0
 62
   257
 93
        1
300
CONTENTFORMAT
  1
CONTENTFORMAT_BEGIN
 90
        0
 91
        0
 92
      512
 93
        0
300

 40
0.0
140
1.0
 94
        5
 62
     0
340
26
144
0.18
309
CONTENTFORMAT_END
171
     1
301
MARGIN
  1
CELLMARGIN_BEGIN
 40
0.06
 40
0.06
 40
0.06
 40
0.06
 40
0.18
 40
0.18
309
CELLMARGIN_END
 94
        6
 95
        1
302
GRIDFORMAT
  1
GRIDFORMAT_BEGIN
 90
        0
 91
        1
 62
     0
 92
       -2
340
0
 93
        0
 40
0.045
309
GRIDFORMAT_END
 95
        2
302
GRIDFORMAT
  1
GRIDFORMAT_BEGIN
 90
        0
 91
        1
 62
     0
 92
       -2
340
0
 93
        0
 40
0.045
309
GRIDFORMAT_END
 95
        4
302
GRIDFORMAT
  1
GRIDFORMAT_BEGIN
 90
        0
 91
        1
 62
     0
 92
       -2
340
0
 93
        0
 40
0.045
309
GRIDFORMAT_END
 95
        8
302
GRIDFORMAT
  1
GRIDFORMAT_BEGIN
 90
        0
 91
        1
 62
     0
 92
       -2
340
0
 93
        0
 40
0.045
309
GRIDFORMAT_END
 95
       16
302
GRIDFORMAT
  1
GRIDFORMAT_BEGIN
 90
        0
 91
        1
 62
     0
 92
       -2
340
0
 93
        0
 40
0.045
309
GRIDFORMAT_END
 95
       32
302
GRIDFORMAT
  1
GRIDFORMAT_BEGIN
 90
        0
 91
        1
 62
     0
 92
       -2
340
0
 93
        0
 40
0.045
309
GRIDFORMAT_END
309
TABLEFORMAT_END
  1
CELLSTYLE_BEGIN
 90
        2
 91
        1
300
_HEADER
309
CELLSTYLE_END
300
CELLSTYLE
  1
TABLEFORMAT_BEGIN
 90
        5
170
     1
 91
        0
 92
        0
 62
   257
 93
        1
300
CONTENTFORMAT
  1
CONTENTFORMAT_BEGIN
 90
        0
 91
        0
 92
      512
 93
        0
300

 40
0.0
140
1.0
 94
        2
 62
     0
340
26
144
0.18
309
CONTENTFORMAT_END
171
     1
301
MARGIN
  1
CELLMARGIN_BEGIN
 40
0.06
 40
0.06
 40
0.06
 40
0.06
 40
0.18
 40
0.18
309
CELLMARGIN_END
 94
        6
 95
        1
302
GRIDFORMAT
  1
GRIDFORMAT_BEGIN
 90
        0
 91
        1
 62
     0
 92
       -2
340
0
 93
        0
 40
0.045
309
GRIDFORMAT_END
 95
        2
302
GRIDFORMAT
  1
GRIDFORMAT_BEGIN
 90
        0
 91
        1
 62
     0
 92
       -2
340
0
 93
        0
 40
0.045
309
GRIDFORMAT_END
 95
        4
302
GRIDFORMAT
  1
GRIDFORMAT_BEGIN
 90
        0
 91
        1
 62
     0
 92
       -2
340
0
 93
        0
 40
0.045
309
GRIDFORMAT_END
 95
        8
302
GRIDFORMAT
  1
GRIDFORMAT_BEGIN
 90
        0
 91
        1
 62
     0
 92
       -2
340
0
 93
        0
 40
0.045
309
GRIDFORMAT_END
 95
       16
302
GRIDFORMAT
  1
GRIDFORMAT_BEGIN
 90
        0
 91
        1
 62
     0
 92
       -2
340
0
 93
        0
 40
0.045
309
GRIDFORMAT_END
 95
       32
302
GRIDFORMAT
  1
GRIDFORMAT_BEGIN
 90
        0
 91
        1
 62
     0
 92
       -2
340
0
 93
        0
 40
0.045
309
GRIDFORMAT_END
309
TABLEFORMAT_END
  1
CELLSTYLE_BEGIN
 90
        3
 91
        2
300
_DATA
309
CELLSTYLE_END
  0
XRECORD
  5
11B4
102
{ACAD_REACTORS
330
E01
102
}
330
E01
100
AcDbXrecord
280
     1
102
ACAD_ROUNDTRIP_PRE2007_TABLESTYLE
 90
      512
 91
        0
  1

 92
      512
 93
        0
  2

 94
      512
 95
        0
  3

  0
XRECORD
  5
119F
102
{ACAD_REACTORS
330
119E
102
}
330
119E
100
AcDbXrecord
280
     1
102
RTVSPropertyOp0
 70
     1
102
RTVSPropertyOp1
 70
     1
102
RTVSPropertyOp2
 70
     1
102
RTVSPropertyOp3
 70
     1
102
RTVSPropertyOp4
 70
     1
102
RTVSPropertyOp5
 70
     1
102
RTVSPropertyOp6
 70
     1
102
RTVSPropertyOp7
 70
     1
102
RTVSPropertyOp8
 70
     1
102
RTVSPropertyOp9
 70
     1
102
RTVSPropertyOp10
 70
     1
102
RTVSPropertyOp11
 70
     1
102
RTVSPropertyOp12
 70
     1
102
RTVSPropertyOp13
 70
     1
102
RTVSPropertyOp14
 70
     1
102
RTVSPropertyOp15
 70
     1
102
RTVSPropertyOp16
 70
     1
102
RTVSPropertyOp17
 70
     1
102
RTVSPropertyOp18
 70
     1
102
RTVSPropertyOp19
 70
     1
102
RTVSPropertyOp20
 70
     1
102
RTVSPropertyOp21
 70
     1
102
RTVSPropertyOp22
 70
     1
102
RTVSPropertyOp23
 70
     1
102
RTVSPropertyOp24
 70
     1
102
RTVSPropertyOp25
 70
     1
102
RTVSPropertyOp26
 70
     1
102
RTVSPropertyOp27
 70
     1
102
RTVSPropertyOp28
 70
     1
102
RTVSPropertyOp29
 70
     1
102
RTVSPropertyOp30
 70
     1
102
RTVSPropertyOp31
 70
     1
102
RTVSPropertyOp32
 70
     1
  0
XRECORD
  5
11A3
102
{ACAD_REACTORS
330
11A2
102
}
330
11A2
100
AcDbXrecord
280
     1
102
RTVSPropertyOp0
 70
     1
102
RTVSPropertyOp1
 70
     1
102
RTVSPropertyOp2
 70
     1
102
RTVSPropertyOp3
 70
     1
102
RTVSPropertyOp4
 70
     1
102
RTVSPropertyOp5
 70
     1
102
RTVSPropertyOp6
 70
     1
102
RTVSPropertyOp7
 70
     1
102
RTVSPropertyOp8
 70
     1
102
RTVSPropertyOp9
 70
     1
102
RTVSPropertyOp10
 70
     1
102
RTVSPropertyOp11
 70
     1
102
RTVSPropertyOp12
 70
     1
102
RTVSPropertyOp13
 70
     1
102
RTVSPropertyOp14
 70
     1
102
RTVSPropertyOp15
 70
     1
102
RTVSPropertyOp16
 70
     1
102
RTVSPropertyOp17
 70
     1
102
RTVSPropertyOp18
 70
     1
102
RTVSPropertyOp19
 70
     1
102
RTVSPropertyOp20
 70
     1
102
RTVSPropertyOp21
 70
     1
102
RTVSPropertyOp22
 70
     1
102
RTVSPropertyOp23
 70
     1
102
RTVSPropertyOp24
 70
     1
102
RTVSPropertyOp25
 70
     1
102
RTVSPropertyOp26
 70
     1
102
RTVSPropertyOp27
 70
     1
102
RTVSPropertyOp28
 70
     1
102
RTVSPropertyOp29
 70
     1
102
RTVSPropertyOp30
 70
     1
102
RTVSPropertyOp31
 70
     1
102
RTVSPropertyOp32
 70
     1
  0
XRECORD
  5
11A1
102
{ACAD_REACTORS
330
11A0
102
}
330
11A0
100
AcDbXrecord
280
     1
102
RTVSPropertyOp0
 70
     1
102
RTVSPropertyOp1
 70
     1
102
RTVSPropertyOp2
 70
     1
102
RTVSPropertyOp3
 70
     1
102
RTVSPropertyOp4
 70
     1
102
RTVSPropertyOp5
 70
     1
102
RTVSPropertyOp6
 70
     1
102
RTVSPropertyOp7
 70
     1
102
RTVSPropertyOp8
 70
     1
102
RTVSPropertyOp9
 70
     1
102
RTVSPropertyOp10
 70
     1
102
RTVSPropertyOp11
 70
     1
102
RTVSPropertyOp12
 70
     1
102
RTVSPropertyOp13
 70
     1
102
RTVSPropertyOp14
 70
     1
102
RTVSPropertyOp15
 70
     1
102
RTVSPropertyOp16
 70
     1
102
RTVSPropertyOp17
 70
     1
102
RTVSPropertyOp18
 70
     1
102
RTVSPropertyOp19
 70
     1
102
RTVSPropertyOp20
 70
     1
102
RTVSPropertyOp21
 70
     1
102
RTVSPropertyOp22
 70
     1
102
RTVSPropertyOp23
 70
     1
102
RTVSPropertyOp24
 70
     1
102
RTVSPropertyOp25
 70
     1
102
RTVSPropertyOp26
 70
     1
102
RTVSPropertyOp27
 70
     1
102
RTVSPropertyOp28
 70
     1
102
RTVSPropertyOp29
 70
     1
102
RTVSPropertyOp30
 70
     1
102
RTVSPropertyOp31
 70
     1
102
RTVSPropertyOp32
 70
     1
  0
XRECORD
  5
119D
102
{ACAD_REACTORS
330
119C
102
}
330
119C
100
AcDbXrecord
280
     1
102
RTVSPropertyOp0
 70
     1
102
RTVSPropertyOp1
 70
     1
102
RTVSPropertyOp2
 70
     1
102
RTVSPropertyOp3
 70
     1
102
RTVSPropertyOp4
 70
     1
102
RTVSPropertyOp5
 70
     1
102
RTVSPropertyOp6
 70
     1
102
RTVSPropertyOp7
 70
     1
102
RTVSPropertyOp8
 70
     1
102
RTVSPropertyOp9
 70
     1
102
RTVSPropertyOp10
 70
     1
102
RTVSPropertyOp11
 70
     1
102
RTVSPropertyOp12
 70
     1
102
RTVSPropertyOp13
 70
     1
102
RTVSPropertyOp14
 70
     1
102
RTVSPropertyOp15
 70
     1
102
RTVSPropertyOp16
 70
     1
102
RTVSPropertyOp17
 70
     1
102
RTVSPropertyOp18
 70
     1
102
RTVSPropertyOp19
 70
     1
102
RTVSPropertyOp20
 70
     1
102
RTVSPropertyOp21
 70
     1
102
RTVSPropertyOp22
 70
     1
102
RTVSPropertyOp23
 70
     1
102
RTVSPropertyOp24
 70
     1
102
RTVSPropertyOp25
 70
     1
102
RTVSPropertyOp26
 70
     1
102
RTVSPropertyOp27
 70
     1
102
RTVSPropertyOp28
 70
     1
102
RTVSPropertyOp29
 70
     1
102
RTVSPropertyOp30
 70
     1
102
RTVSPropertyOp31
 70
     1
102
RTVSPropertyOp32
 70
     1
  0
XRECORD
  5
11AB
102
{ACAD_REACTORS
330
11AA
102
}
330
11AA
100
AcDbXrecord
280
     1
102
RTVSPropertyOp0
 70
     1
102
RTVSPropertyOp1
 70
     1
102
RTVSPropertyOp2
 70
     1
102
RTVSPropertyOp3
 70
     1
102
RTVSPropertyOp4
 70
     1
102
RTVSPropertyOp5
 70
     1
102
RTVSPropertyOp6
 70
     1
102
RTVSPropertyOp7
 70
     1
102
RTVSPropertyOp8
 70
     1
102
RTVSPropertyOp9
 70
     1
102
RTVSPropertyOp10
 70
     1
102
RTVSPropertyOp11
 70
     1
102
RTVSPropertyOp12
 70
     1
102
RTVSPropertyOp13
 70
     1
102
RTVSPropertyOp14
 70
     1
102
RTVSPropertyOp15
 70
     1
102
RTVSPropertyOp16
 70
     1
102
RTVSPropertyOp17
 70
     1
102
RTVSPropertyOp18
 70
     1
102
RTVSPropertyOp19
 70
     1
102
RTVSPropertyOp20
 70
     1
102
RTVSPropertyOp21
 70
     1
102
RTVSPropertyOp22
 70
     1
102
RTVSPropertyOp23
 70
     1
102
RTVSPropertyOp24
 70
     1
102
RTVSPropertyOp25
 70
     1
102
RTVSPropertyOp26
 70
     1
102
RTVSPropertyOp27
 70
     1
102
RTVSPropertyOp28
 70
     1
102
RTVSPropertyOp29
 70
     1
102
RTVSPropertyOp30
 70
     1
102
RTVSPropertyOp31
 70
     1
102
RTVSPropertyOp32
 70
     1
  0
XRECORD
  5
11B3
102
{ACAD_REACTORS
330
11B2
102
}
330
11B2
100
AcDbXrecord
280
     1
102
RTVSPropertyOp0
 70
     1
102
RTVSPropertyOp1
 70
     1
102
RTVSPropertyOp2
 70
     1
102
RTVSPropertyOp3
 70
     1
102
RTVSPropertyOp4
 70
     1
102
RTVSPropertyOp5
 70
     1
102
RTVSPropertyOp6
 70
     1
102
RTVSPropertyOp7
 70
     1
102
RTVSPropertyOp8
 70
     1
102
RTVSPropertyOp9
 70
     1
102
RTVSPropertyOp10
 70
     1
102
RTVSPropertyOp11
 70
     1
102
RTVSPropertyOp12
 70
     1
102
RTVSPropertyOp13
 70
     1
102
RTVSPropertyOp14
 70
     1
102
RTVSPropertyOp15
 70
     1
102
RTVSPropertyOp16
 70
     1
102
RTVSPropertyOp17
 70
     1
102
RTVSPropertyOp18
 70
     1
102
RTVSPropertyOp19
 70
     1
102
RTVSPropertyOp20
 70
     1
102
RTVSPropertyOp21
 70
     1
102
RTVSPropertyOp22
 70
     1
102
RTVSPropertyOp23
 70
     1
102
RTVSPropertyOp24
 70
     1
102
RTVSPropertyOp25
 70
     1
102
RTVSPropertyOp26
 70
     1
102
RTVSPropertyOp27
 70
     1
102
RTVSPropertyOp28
 70
     1
102
RTVSPropertyOp29
 70
     1
102
RTVSPropertyOp30
 70
     1
102
RTVSPropertyOp31
 70
     1
102
RTVSPropertyOp32
 70
     1
  0
XRECORD
  5
11A5
102
{ACAD_REACTORS
330
11A4
102
}
330
11A4
100
AcDbXrecord
280
     1
102
RTVSPropertyOp0
 70
     1
102
RTVSPropertyOp1
 70
     1
102
RTVSPropertyOp2
 70
     1
102
RTVSPropertyOp3
 70
     1
102
RTVSPropertyOp4
 70
     1
102
RTVSPropertyOp5
 70
     1
102
RTVSPropertyOp6
 70
     1
102
RTVSPropertyOp7
 70
     1
102
RTVSPropertyOp8
 70
     1
102
RTVSPropertyOp9
 70
     1
102
RTVSPropertyOp10
 70
     1
102
RTVSPropertyOp11
 70
     1
102
RTVSPropertyOp12
 70
     1
102
RTVSPropertyOp13
 70
     1
102
RTVSPropertyOp14
 70
     1
102
RTVSPropertyOp15
 70
     1
102
RTVSPropertyOp16
 70
     1
102
RTVSPropertyOp17
 70
     1
102
RTVSPropertyOp18
 70
     1
102
RTVSPropertyOp19
 70
     1
102
RTVSPropertyOp20
 70
     1
102
RTVSPropertyOp21
 70
     1
102
RTVSPropertyOp22
 70
     1
102
RTVSPropertyOp23
 70
     1
102
RTVSPropertyOp24
 70
     1
102
RTVSPropertyOp25
 70
     1
102
RTVSPropertyOp26
 70
     1
102
RTVSPropertyOp27
 70
     1
102
RTVSPropertyOp28
 70
     1
102
RTVSPropertyOp29
 70
     1
102
RTVSPropertyOp30
 70
     1
102
RTVSPropertyOp31
 70
     1
102
RTVSPropertyOp32
 70
     1
  0
XRECORD
  5
11A9
102
{ACAD_REACTORS
330
11A8
102
}
330
11A8
100
AcDbXrecord
280
     1
102
RTVSPropertyOp0
 70
     1
102
RTVSPropertyOp1
 70
     1
102
RTVSPropertyOp2
 70
     1
102
RTVSPropertyOp3
 70
     1
102
RTVSPropertyOp4
 70
     1
102
RTVSPropertyOp5
 70
     1
102
RTVSPropertyOp6
 70
     1
102
RTVSPropertyOp7
 70
     1
102
RTVSPropertyOp8
 70
     1
102
RTVSPropertyOp9
 70
     1
102
RTVSPropertyOp10
 70
     1
102
RTVSPropertyOp11
 70
     1
102
RTVSPropertyOp12
 70
     1
102
RTVSPropertyOp13
 70
     1
102
RTVSPropertyOp14
 70
     1
102
RTVSPropertyOp15
 70
     1
102
RTVSPropertyOp16
 70
     1
102
RTVSPropertyOp17
 70
     1
102
RTVSPropertyOp18
 70
     1
102
RTVSPropertyOp19
 70
     1
102
RTVSPropertyOp20
 70
     1
102
RTVSPropertyOp21
 70
     1
102
RTVSPropertyOp22
 70
     1
102
RTVSPropertyOp23
 70
     1
102
RTVSPropertyOp24
 70
     1
102
RTVSPropertyOp25
 70
     1
102
RTVSPropertyOp26
 70
     1
102
RTVSPropertyOp27
 70
     1
102
RTVSPropertyOp28
 70
     1
102
RTVSPropertyOp29
 70
     1
102
RTVSPropertyOp30
 70
     1
102
RTVSPropertyOp31
 70
     1
102
RTVSPropertyOp32
 70
     1
  0
XRECORD
  5
11CC
102
{ACAD_REACTORS
330
11CB
102
}
330
11CB
100
AcDbXrecord
280
     1
102
RTVSPropertyOp0
 70
     0
102
RTVSPropertyOp1
 70
     0
102
RTVSPropertyOp2
 70
     0
102
RTVSPropertyOp3
 70
     0
102
RTVSPropertyOp4
 70
     0
102
RTVSPropertyOp5
 70
     0
102
RTVSPropertyOp6
 70
     0
102
RTVSPropertyOp7
 70
     0
102
RTVSPropertyOp8
 70
     0
102
RTVSPropertyOp9
 70
     0
102
RTVSPropertyOp10
 70
     0
102
RTVSPropertyOp11
 70
     0
102
RTVSPropertyOp12
 70
     0
102
RTVSPropertyOp13
 70
     0
102
RTVSPropertyOp14
 70
     2
102
RTVSPropertyOp15
 70
     0
102
RTVSPropertyOp16
 70
     0
102
RTVSPropertyOp17
 70
     0
102
RTVSPropertyOp18
 70
     0
102
RTVSPropertyOp19
 70
     0
102
RTVSPropertyOp20
 70
     0
102
RTVSPropertyOp21
 70
     0
102
RTVSPropertyOp22
 70
     0
102
RTVSPropertyOp23
 70
     0
102
RTVSPropertyOp24
 70
     0
102
RTVSPropertyOp25
 70
     0
102
RTVSPropertyOp26
 70
     0
102
RTVSPropertyOp27
 70
     0
102
RTVSPropertyOp28
 70
     0
102
RTVSPropertyOp29
 70
     0
102
RTVSPropertyOp30
 70
     0
102
RTVSPropertyOp31
 70
     0
102
RTVSPropertyOp32
 70
     0
  0
XRECORD
  5
11B1
102
{ACAD_REACTORS
330
11B0
102
}
330
11B0
100
AcDbXrecord
280
     1
102
RTVSPropertyOp0
 70
     1
102
RTVSPropertyOp1
 70
     1
102
RTVSPropertyOp2
 70
     1
102
RTVSPropertyOp3
 70
     1
102
RTVSPropertyOp4
 70
     1
102
RTVSPropertyOp5
 70
     1
102
RTVSPropertyOp6
 70
     1
102
RTVSPropertyOp7
 70
     1
102
RTVSPropertyOp8
 70
     1
102
RTVSPropertyOp9
 70
     1
102
RTVSPropertyOp10
 70
     1
102
RTVSPropertyOp11
 70
     1
102
RTVSPropertyOp12
 70
     1
102
RTVSPropertyOp13
 70
     1
102
RTVSPropertyOp14
 70
     1
102
RTVSPropertyOp15
 70
     1
102
RTVSPropertyOp16
 70
     1
102
RTVSPropertyOp17
 70
     1
102
RTVSPropertyOp18
 70
     1
102
RTVSPropertyOp19
 70
     1
102
RTVSPropertyOp20
 70
     1
102
RTVSPropertyOp21
 70
     1
102
RTVSPropertyOp22
 70
     1
102
RTVSPropertyOp23
 70
     1
102
RTVSPropertyOp24
 70
     1
102
RTVSPropertyOp25
 70
     1
102
RTVSPropertyOp26
 70
     1
102
RTVSPropertyOp27
 70
     1
102
RTVSPropertyOp28
 70
     1
102
RTVSPropertyOp29
 70
     1
102
RTVSPropertyOp30
 70
     1
102
RTVSPropertyOp31
 70
     1
102
RTVSPropertyOp32
 70
     1
  0
XRECORD
  5
1195
102
{ACAD_REACTORS
330
1194
102
}
330
1194
100
AcDbXrecord
280
     1
102
RTVSPropertyOp0
 70
     1
102
RTVSPropertyOp1
 70
     1
102
RTVSPropertyOp2
 70
     1
102
RTVSPropertyOp3
 70
     1
102
RTVSPropertyOp4
 70
     1
102
RTVSPropertyOp5
 70
     1
102
RTVSPropertyOp6
 70
     1
102
RTVSPropertyOp7
 70
     1
102
RTVSPropertyOp8
 70
     1
102
RTVSPropertyOp9
 70
     1
102
RTVSPropertyOp10
 70
     1
102
RTVSPropertyOp11
 70
     1
102
RTVSPropertyOp12
 70
     1
102
RTVSPropertyOp13
 70
     1
102
RTVSPropertyOp14
 70
     1
102
RTVSPropertyOp15
 70
     1
102
RTVSPropertyOp16
 70
     1
102
RTVSPropertyOp17
 70
     1
102
RTVSPropertyOp18
 70
     1
102
RTVSPropertyOp19
 70
     1
102
RTVSPropertyOp20
 70
     1
102
RTVSPropertyOp21
 70
     1
102
RTVSPropertyOp22
 70
     1
102
RTVSPropertyOp23
 70
     1
102
RTVSPropertyOp24
 70
     1
102
RTVSPropertyOp25
 70
     1
102
RTVSPropertyOp26
 70
     1
102
RTVSPropertyOp27
 70
     1
102
RTVSPropertyOp28
 70
     1
102
RTVSPropertyOp29
 70
     1
102
RTVSPropertyOp30
 70
     1
102
RTVSPropertyOp31
 70
     1
102
RTVSPropertyOp32
 70
     1
  0
XRECORD
  5
1197
102
{ACAD_REACTORS
330
1196
102
}
330
1196
100
AcDbXrecord
280
     1
102
RTVSPropertyOp0
 70
     1
102
RTVSPropertyOp1
 70
     1
102
RTVSPropertyOp2
 70
     1
102
RTVSPropertyOp3
 70
     1
102
RTVSPropertyOp4
 70
     1
102
RTVSPropertyOp5
 70
     1
102
RTVSPropertyOp6
 70
     1
102
RTVSPropertyOp7
 70
     1
102
RTVSPropertyOp8
 70
     1
102
RTVSPropertyOp9
 70
     1
102
RTVSPropertyOp10
 70
     1
102
RTVSPropertyOp11
 70
     1
102
RTVSPropertyOp12
 70
     1
102
RTVSPropertyOp13
 70
     1
102
RTVSPropertyOp14
 70
     1
102
RTVSPropertyOp15
 70
     1
102
RTVSPropertyOp16
 70
     1
102
RTVSPropertyOp17
 70
     1
102
RTVSPropertyOp18
 70
     1
102
RTVSPropertyOp19
 70
     1
102
RTVSPropertyOp20
 70
     1
102
RTVSPropertyOp21
 70
     1
102
RTVSPropertyOp22
 70
     1
102
RTVSPropertyOp23
 70
     1
102
RTVSPropertyOp24
 70
     1
102
RTVSPropertyOp25
 70
     1
102
RTVSPropertyOp26
 70
     1
102
RTVSPropertyOp27
 70
     1
102
RTVSPropertyOp28
 70
     1
102
RTVSPropertyOp29
 70
     1
102
RTVSPropertyOp30
 70
     1
102
RTVSPropertyOp31
 70
     1
102
RTVSPropertyOp32
 70
     1
  0
XRECORD
  5
1199
102
{ACAD_REACTORS
330
1198
102
}
330
1198
100
AcDbXrecord
280
     1
102
RTVSPropertyOp0
 70
     1
102
RTVSPropertyOp1
 70
     1
102
RTVSPropertyOp2
 70
     1
102
RTVSPropertyOp3
 70
     1
102
RTVSPropertyOp4
 70
     1
102
RTVSPropertyOp5
 70
     1
102
RTVSPropertyOp6
 70
     1
102
RTVSPropertyOp7
 70
     1
102
RTVSPropertyOp8
 70
     1
102
RTVSPropertyOp9
 70
     1
102
RTVSPropertyOp10
 70
     1
102
RTVSPropertyOp11
 70
     1
102
RTVSPropertyOp12
 70
     1
102
RTVSPropertyOp13
 70
     1
102
RTVSPropertyOp14
 70
     1
102
RTVSPropertyOp15
 70
     1
102
RTVSPropertyOp16
 70
     1
102
RTVSPropertyOp17
 70
     1
102
RTVSPropertyOp18
 70
     1
102
RTVSPropertyOp19
 70
     1
102
RTVSPropertyOp20
 70
     1
102
RTVSPropertyOp21
 70
     1
102
RTVSPropertyOp22
 70
     1
102
RTVSPropertyOp23
 70
     1
102
RTVSPropertyOp24
 70
     1
102
RTVSPropertyOp25
 70
     1
102
RTVSPropertyOp26
 70
     1
102
RTVSPropertyOp27
 70
     1
102
RTVSPropertyOp28
 70
     1
102
RTVSPropertyOp29
 70
     1
102
RTVSPropertyOp30
 70
     1
102
RTVSPropertyOp31
 70
     1
102
RTVSPropertyOp32
 70
     1
  0
XRECORD
  5
119B
102
{ACAD_REACTORS
330
119A
102
}
330
119A
100
AcDbXrecord
280
     1
102
RTVSPropertyOp0
 70
     1
102
RTVSPropertyOp1
 70
     1
102
RTVSPropertyOp2
 70
     1
102
RTVSPropertyOp3
 70
     1
102
RTVSPropertyOp4
 70
     1
102
RTVSPropertyOp5
 70
     1
102
RTVSPropertyOp6
 70
     1
102
RTVSPropertyOp7
 70
     1
102
RTVSPropertyOp8
 70
     1
102
RTVSPropertyOp9
 70
     1
102
RTVSPropertyOp10
 70
     1
102
RTVSPropertyOp11
 70
     1
102
RTVSPropertyOp12
 70
     1
102
RTVSPropertyOp13
 70
     1
102
RTVSPropertyOp14
 70
     1
102
RTVSPropertyOp15
 70
     1
102
RTVSPropertyOp16
 70
     1
102
RTVSPropertyOp17
 70
     1
102
RTVSPropertyOp18
 70
     1
102
RTVSPropertyOp19
 70
     1
102
RTVSPropertyOp20
 70
     1
102
RTVSPropertyOp21
 70
     1
102
RTVSPropertyOp22
 70
     1
102
RTVSPropertyOp23
 70
     1
102
RTVSPropertyOp24
 70
     1
102
RTVSPropertyOp25
 70
     1
102
RTVSPropertyOp26
 70
     1
102
RTVSPropertyOp27
 70
     1
102
RTVSPropertyOp28
 70
     1
102
RTVSPropertyOp29
 70
     1
102
RTVSPropertyOp30
 70
     1
102
RTVSPropertyOp31
 70
     1
102
RTVSPropertyOp32
 70
     1
  0
XRECORD
  5
11BC
102
{ACAD_REACTORS
330
11BB
102
}
330
11BB
100
AcDbXrecord
280
     1
102
RTVSPropertyOp0
 70
     1
102
RTVSPropertyOp1
 70
     1
102
RTVSPropertyOp2
 70
     1
102
RTVSPropertyOp3
 70
     1
102
RTVSPropertyOp4
 70
     1
102
RTVSPropertyOp5
 70
     1
102
RTVSPropertyOp6
 70
     1
102
RTVSPropertyOp7
 70
     1
102
RTVSPropertyOp8
 70
     1
102
RTVSPropertyOp9
 70
     1
102
RTVSPropertyOp10
 70
     1
102
RTVSPropertyOp11
 70
     1
102
RTVSPropertyOp12
 70
     1
102
RTVSPropertyOp13
 70
     1
102
RTVSPropertyOp14
 70
     1
102
RTVSPropertyOp15
 70
     1
102
RTVSPropertyOp16
 70
     1
102
RTVSPropertyOp17
 70
     1
102
RTVSPropertyOp18
 70
     1
102
RTVSPropertyOp19
 70
     1
102
RTVSPropertyOp20
 70
     1
102
RTVSPropertyOp21
 70
     1
102
RTVSPropertyOp22
 70
     1
102
RTVSPropertyOp23
 70
     1
102
RTVSPropertyOp24
 70
     1
102
RTVSPropertyOp25
 70
     1
102
RTVSPropertyOp26
 70
     1
102
RTVSPropertyOp27
 70
     1
102
RTVSPropertyOp28
 70
     1
102
RTVSPropertyOp29
 70
     1
102
RTVSPropertyOp30
 70
     1
102
RTVSPropertyOp31
 70
     1
102
RTVSPropertyOp32
 70
     1
  0
XRECORD
  5
11C8
102
{ACAD_REACTORS
330
11C7
102
}
330
11C7
100
AcDbXrecord
280
     1
102
RTVSPropertyOp0
 70
     0
102
RTVSPropertyOp1
 70
     0
102
RTVSPropertyOp2
 70
     0
102
RTVSPropertyOp3
 70
     0
102
RTVSPropertyOp4
 70
     0
102
RTVSPropertyOp5
 70
     0
102
RTVSPropertyOp6
 70
     0
102
RTVSPropertyOp7
 70
     0
102
RTVSPropertyOp8
 70
     0
102
RTVSPropertyOp9
 70
     0
102
RTVSPropertyOp10
 70
     0
102
RTVSPropertyOp11
 70
     0
102
RTVSPropertyOp12
 70
     0
102
RTVSPropertyOp13
 70
     0
102
RTVSPropertyOp14
 70
     2
102
RTVSPropertyOp15
 70
     0
102
RTVSPropertyOp16
 70
     0
102
RTVSPropertyOp17
 70
     0
102
RTVSPropertyOp18
 70
     0
102
RTVSPropertyOp19
 70
     0
102
RTVSPropertyOp20
 70
     0
102
RTVSPropertyOp21
 70
     0
102
RTVSPropertyOp22
 70
     0
102
RTVSPropertyOp23
 70
     0
102
RTVSPropertyOp24
 70
     0
102
RTVSPropertyOp25
 70
     0
102
RTVSPropertyOp26
 70
     0
102
RTVSPropertyOp27
 70
     0
102
RTVSPropertyOp28
 70
     0
102
RTVSPropertyOp29
 70
     0
102
RTVSPropertyOp30
 70
     0
102
RTVSPropertyOp31
 70
     0
102
RTVSPropertyOp32
 70
     0
  0
XRECORD
  5
11AF
102
{ACAD_REACTORS
330
11AE
102
}
330
11AE
100
AcDbXrecord
280
     1
102
RTVSPropertyOp0
 70
     1
102
RTVSPropertyOp1
 70
     1
102
RTVSPropertyOp2
 70
     1
102
RTVSPropertyOp3
 70
     1
102
RTVSPropertyOp4
 70
     1
102
RTVSPropertyOp5
 70
     1
102
RTVSPropertyOp6
 70
     1
102
RTVSPropertyOp7
 70
     1
102
RTVSPropertyOp8
 70
     1
102
RTVSPropertyOp9
 70
     1
102
RTVSPropertyOp10
 70
     1
102
RTVSPropertyOp11
 70
     1
102
RTVSPropertyOp12
 70
     1
102
RTVSPropertyOp13
 70
     1
102
RTVSPropertyOp14
 70
     1
102
RTVSPropertyOp15
 70
     1
102
RTVSPropertyOp16
 70
     1
102
RTVSPropertyOp17
 70
     1
102
RTVSPropertyOp18
 70
     1
102
RTVSPropertyOp19
 70
     1
102
RTVSPropertyOp20
 70
     1
102
RTVSPropertyOp21
 70
     1
102
RTVSPropertyOp22
 70
     1
102
RTVSPropertyOp23
 70
     1
102
RTVSPropertyOp24
 70
     1
102
RTVSPropertyOp25
 70
     1
102
RTVSPropertyOp26
 70
     1
102
RTVSPropertyOp27
 70
     1
102
RTVSPropertyOp28
 70
     1
102
RTVSPropertyOp29
 70
     1
102
RTVSPropertyOp30
 70
     1
102
RTVSPropertyOp31
 70
     1
102
RTVSPropertyOp32
 70
     1
  0
XRECORD
  5
11CA
102
{ACAD_REACTORS
330
11C9
102
}
330
11C9
100
AcDbXrecord
280
     1
102
RTVSPropertyOp0
 70
     0
102
RTVSPropertyOp1
 70
     0
102
RTVSPropertyOp2
 70
     0
102
RTVSPropertyOp3
 70
     0
102
RTVSPropertyOp4
 70
     0
102
RTVSPropertyOp5
 70
     0
102
RTVSPropertyOp6
 70
     0
102
RTVSPropertyOp7
 70
     0
102
RTVSPropertyOp8
 70
     0
102
RTVSPropertyOp9
 70
     0
102
RTVSPropertyOp10
 70
     0
102
RTVSPropertyOp11
 70
     0
102
RTVSPropertyOp12
 70
     0
102
RTVSPropertyOp13
 70
     0
102
RTVSPropertyOp14
 70
     2
102
RTVSPropertyOp15
 70
     0
102
RTVSPropertyOp16
 70
     0
102
RTVSPropertyOp17
 70
     0
102
RTVSPropertyOp18
 70
     0
102
RTVSPropertyOp19
 70
     0
102
RTVSPropertyOp20
 70
     0
102
RTVSPropertyOp21
 70
     0
102
RTVSPropertyOp22
 70
     0
102
RTVSPropertyOp23
 70
     0
102
RTVSPropertyOp24
 70
     0
102
RTVSPropertyOp25
 70
     0
102
RTVSPropertyOp26
 70
     0
102
RTVSPropertyOp27
 70
     0
102
RTVSPropertyOp28
 70
     0
102
RTVSPropertyOp29
 70
     0
102
RTVSPropertyOp30
 70
     0
102
RTVSPropertyOp31
 70
     0
102
RTVSPropertyOp32
 70
     0
  0
XRECORD
  5
11A7
102
{ACAD_REACTORS
330
11A6
102
}
330
11A6
100
AcDbXrecord
280
     1
102
RTVSPropertyOp0
 70
     1
102
RTVSPropertyOp1
 70
     1
102
RTVSPropertyOp2
 70
     1
102
RTVSPropertyOp3
 70
     1
102
RTVSPropertyOp4
 70
     1
102
RTVSPropertyOp5
 70
     1
102
RTVSPropertyOp6
 70
     1
102
RTVSPropertyOp7
 70
     1
102
RTVSPropertyOp8
 70
     1
102
RTVSPropertyOp9
 70
     1
102
RTVSPropertyOp10
 70
     1
102
RTVSPropertyOp11
 70
     1
102
RTVSPropertyOp12
 70
     1
102
RTVSPropertyOp13
 70
     1
102
RTVSPropertyOp14
 70
     1
102
RTVSPropertyOp15
 70
     1
102
RTVSPropertyOp16
 70
     1
102
RTVSPropertyOp17
 70
     1
102
RTVSPropertyOp18
 70
     1
102
RTVSPropertyOp19
 70
     1
102
RTVSPropertyOp20
 70
     1
102
RTVSPropertyOp21
 70
     1
102
RTVSPropertyOp22
 70
     1
102
RTVSPropertyOp23
 70
     1
102
RTVSPropertyOp24
 70
     1
102
RTVSPropertyOp25
 70
     1
102
RTVSPropertyOp26
 70
     1
102
RTVSPropertyOp27
 70
     1
102
RTVSPropertyOp28
 70
     1
102
RTVSPropertyOp29
 70
     1
102
RTVSPropertyOp30
 70
     1
102
RTVSPropertyOp31
 70
     1
102
RTVSPropertyOp32
 70
     1
  0
XRECORD
  5
11C6
102
{ACAD_REACTORS
330
11C5
102
}
330
11C5
100
AcDbXrecord
280
     1
102
RTVSPropertyOp0
 70
     1
102
RTVSPropertyOp1
 70
     1
102
RTVSPropertyOp2
 70
     1
102
RTVSPropertyOp3
 70
     1
102
RTVSPropertyOp4
 70
     1
102
RTVSPropertyOp5
 70
     1
102
RTVSPropertyOp6
 70
     1
102
RTVSPropertyOp7
 70
     1
102
RTVSPropertyOp8
 70
     1
102
RTVSPropertyOp9
 70
     1
102
RTVSPropertyOp10
 70
     1
102
RTVSPropertyOp11
 70
     1
102
RTVSPropertyOp12
 70
     1
102
RTVSPropertyOp13
 70
     1
102
RTVSPropertyOp14
 70
     1
102
RTVSPropertyOp15
 70
     1
102
RTVSPropertyOp16
 70
     1
102
RTVSPropertyOp17
 70
     1
102
RTVSPropertyOp18
 70
     1
102
RTVSPropertyOp19
 70
     1
102
RTVSPropertyOp20
 70
     1
102
RTVSPropertyOp21
 70
     1
102
RTVSPropertyOp22
 70
     1
102
RTVSPropertyOp23
 70
     1
102
RTVSPropertyOp24
 70
     1
102
RTVSPropertyOp25
 70
     1
102
RTVSPropertyOp26
 70
     1
102
RTVSPropertyOp27
 70
     1
102
RTVSPropertyOp28
 70
     1
102
RTVSPropertyOp29
 70
     1
102
RTVSPropertyOp30
 70
     1
102
RTVSPropertyOp31
 70
     1
102
RTVSPropertyOp32
 70
     1
  0
XRECORD
  5
11C4
102
{ACAD_REACTORS
330
11C3
102
}
330
11C3
100
AcDbXrecord
280
     1
102
RTVSPropertyOp0
 70
     1
102
RTVSPropertyOp1
 70
     1
102
RTVSPropertyOp2
 70
     1
102
RTVSPropertyOp3
 70
     1
102
RTVSPropertyOp4
 70
     1
102
RTVSPropertyOp5
 70
     1
102
RTVSPropertyOp6
 70
     1
102
RTVSPropertyOp7
 70
     1
102
RTVSPropertyOp8
 70
     1
102
RTVSPropertyOp9
 70
     1
102
RTVSPropertyOp10
 70
     1
102
RTVSPropertyOp11
 70
     1
102
RTVSPropertyOp12
 70
     1
102
RTVSPropertyOp13
 70
     1
102
RTVSPropertyOp14
 70
     1
102
RTVSPropertyOp15
 70
     1
102
RTVSPropertyOp16
 70
     1
102
RTVSPropertyOp17
 70
     1
102
RTVSPropertyOp18
 70
     1
102
RTVSPropertyOp19
 70
     1
102
RTVSPropertyOp20
 70
     1
102
RTVSPropertyOp21
 70
     1
102
RTVSPropertyOp22
 70
     1
102
RTVSPropertyOp23
 70
     1
102
RTVSPropertyOp24
 70
     1
102
RTVSPropertyOp25
 70
     1
102
RTVSPropertyOp26
 70
     1
102
RTVSPropertyOp27
 70
     1
102
RTVSPropertyOp28
 70
     1
102
RTVSPropertyOp29
 70
     1
102
RTVSPropertyOp30
 70
     1
102
RTVSPropertyOp31
 70
     1
102
RTVSPropertyOp32
 70
     1
  0
XRECORD
  5
11BE
102
{ACAD_REACTORS
330
11BD
102
}
330
11BD
100
AcDbXrecord
280
     1
102
RTVSPropertyOp0
 70
     1
102
RTVSPropertyOp1
 70
     1
102
RTVSPropertyOp2
 70
     1
102
RTVSPropertyOp3
 70
     1
102
RTVSPropertyOp4
 70
     1
102
RTVSPropertyOp5
 70
     1
102
RTVSPropertyOp6
 70
     1
102
RTVSPropertyOp7
 70
     1
102
RTVSPropertyOp8
 70
     1
102
RTVSPropertyOp9
 70
     1
102
RTVSPropertyOp10
 70
     1
102
RTVSPropertyOp11
 70
     1
102
RTVSPropertyOp12
 70
     1
102
RTVSPropertyOp13
 70
     1
102
RTVSPropertyOp14
 70
     1
102
RTVSPropertyOp15
 70
     1
102
RTVSPropertyOp16
 70
     1
102
RTVSPropertyOp17
 70
     1
102
RTVSPropertyOp18
 70
     1
102
RTVSPropertyOp19
 70
     1
102
RTVSPropertyOp20
 70
     1
102
RTVSPropertyOp21
 70
     1
102
RTVSPropertyOp22
 70
     1
102
RTVSPropertyOp23
 70
     1
102
RTVSPropertyOp24
 70
     1
102
RTVSPropertyOp25
 70
     1
102
RTVSPropertyOp26
 70
     1
102
RTVSPropertyOp27
 70
     1
102
RTVSPropertyOp28
 70
     1
102
RTVSPropertyOp29
 70
     1
102
RTVSPropertyOp30
 70
     1
102
RTVSPropertyOp31
 70
     1
102
RTVSPropertyOp32
 70
     1
  0
XRECORD
  5
11C0
102
{ACAD_REACTORS
330
11BF
102
}
330
11BF
100
AcDbXrecord
280
     1
102
RTVSPropertyOp0
 70
     1
102
RTVSPropertyOp1
 70
     1
102
RTVSPropertyOp2
 70
     1
102
RTVSPropertyOp3
 70
     1
102
RTVSPropertyOp4
 70
     1
102
RTVSPropertyOp5
 70
     1
102
RTVSPropertyOp6
 70
     1
102
RTVSPropertyOp7
 70
     1
102
RTVSPropertyOp8
 70
     1
102
RTVSPropertyOp9
 70
     1
102
RTVSPropertyOp10
 70
     1
102
RTVSPropertyOp11
 70
     1
102
RTVSPropertyOp12
 70
     1
102
RTVSPropertyOp13
 70
     1
102
RTVSPropertyOp14
 70
     1
102
RTVSPropertyOp15
 70
     1
102
RTVSPropertyOp16
 70
     1
102
RTVSPropertyOp17
 70
     1
102
RTVSPropertyOp18
 70
     1
102
RTVSPropertyOp19
 70
     1
102
RTVSPropertyOp20
 70
     1
102
RTVSPropertyOp21
 70
     1
102
RTVSPropertyOp22
 70
     1
102
RTVSPropertyOp23
 70
     1
102
RTVSPropertyOp24
 70
     1
102
RTVSPropertyOp25
 70
     1
102
RTVSPropertyOp26
 70
     1
102
RTVSPropertyOp27
 70
     1
102
RTVSPropertyOp28
 70
     1
102
RTVSPropertyOp29
 70
     1
102
RTVSPropertyOp30
 70
     1
102
RTVSPropertyOp31
 70
     1
102
RTVSPropertyOp32
 70
     1
  0
XRECORD
  5
11AD
102
{ACAD_REACTORS
330
11AC
102
}
330
11AC
100
AcDbXrecord
280
     1
102
RTVSPropertyOp0
 70
     1
102
RTVSPropertyOp1
 70
     1
102
RTVSPropertyOp2
 70
     1
102
RTVSPropertyOp3
 70
     1
102
RTVSPropertyOp4
 70
     1
102
RTVSPropertyOp5
 70
     1
102
RTVSPropertyOp6
 70
     1
102
RTVSPropertyOp7
 70
     1
102
RTVSPropertyOp8
 70
     1
102
RTVSPropertyOp9
 70
     1
102
RTVSPropertyOp10
 70
     1
102
RTVSPropertyOp11
 70
     1
102
RTVSPropertyOp12
 70
     1
102
RTVSPropertyOp13
 70
     1
102
RTVSPropertyOp14
 70
     1
102
RTVSPropertyOp15
 70
     1
102
RTVSPropertyOp16
 70
     1
102
RTVSPropertyOp17
 70
     1
102
RTVSPropertyOp18
 70
     1
102
RTVSPropertyOp19
 70
     1
102
RTVSPropertyOp20
 70
     1
102
RTVSPropertyOp21
 70
     1
102
RTVSPropertyOp22
 70
     1
102
RTVSPropertyOp23
 70
     1
102
RTVSPropertyOp24
 70
     1
102
RTVSPropertyOp25
 70
     1
102
RTVSPropertyOp26
 70
     1
102
RTVSPropertyOp27
 70
     1
102
RTVSPropertyOp28
 70
     1
102
RTVSPropertyOp29
 70
     1
102
RTVSPropertyOp30
 70
     1
102
RTVSPropertyOp31
 70
     1
102
RTVSPropertyOp32
 70
     1
  0
XRECORD
  5
11BA
102
{ACAD_REACTORS
330
11B9
102
}
330
11B9
100
AcDbXrecord
280
     1
102
RTVSPropertyOp0
 70
     1
102
RTVSPropertyOp1
 70
     1
102
RTVSPropertyOp2
 70
     1
102
RTVSPropertyOp3
 70
     1
102
RTVSPropertyOp4
 70
     1
102
RTVSPropertyOp5
 70
     1
102
RTVSPropertyOp6
 70
     1
102
RTVSPropertyOp7
 70
     1
102
RTVSPropertyOp8
 70
     1
102
RTVSPropertyOp9
 70
     1
102
RTVSPropertyOp10
 70
     1
102
RTVSPropertyOp11
 70
     1
102
RTVSPropertyOp12
 70
     1
102
RTVSPropertyOp13
 70
     1
102
RTVSPropertyOp14
 70
     1
102
RTVSPropertyOp15
 70
     1
102
RTVSPropertyOp16
 70
     1
102
RTVSPropertyOp17
 70
     1
102
RTVSPropertyOp18
 70
     1
102
RTVSPropertyOp19
 70
     1
102
RTVSPropertyOp20
 70
     1
102
RTVSPropertyOp21
 70
     1
102
RTVSPropertyOp22
 70
     1
102
RTVSPropertyOp23
 70
     1
102
RTVSPropertyOp24
 70
     1
102
RTVSPropertyOp25
 70
     1
102
RTVSPropertyOp26
 70
     1
102
RTVSPropertyOp27
 70
     1
102
RTVSPropertyOp28
 70
     1
102
RTVSPropertyOp29
 70
     1
102
RTVSPropertyOp30
 70
     1
102
RTVSPropertyOp31
 70
     1
102
RTVSPropertyOp32
 70
     1
  0
XRECORD
  5
11C2
102
{ACAD_REACTORS
330
11C1
102
}
330
11C1
100
AcDbXrecord
280
     1
102
RTVSPropertyOp0
 70
     1
102
RTVSPropertyOp1
 70
     1
102
RTVSPropertyOp2
 70
     1
102
RTVSPropertyOp3
 70
     1
102
RTVSPropertyOp4
 70
     1
102
RTVSPropertyOp5
 70
     1
102
RTVSPropertyOp6
 70
     1
102
RTVSPropertyOp7
 70
     1
102
RTVSPropertyOp8
 70
     1
102
RTVSPropertyOp9
 70
     1
102
RTVSPropertyOp10
 70
     1
102
RTVSPropertyOp11
 70
     1
102
RTVSPropertyOp12
 70
     1
102
RTVSPropertyOp13
 70
     1
102
RTVSPropertyOp14
 70
     1
102
RTVSPropertyOp15
 70
     1
102
RTVSPropertyOp16
 70
     1
102
RTVSPropertyOp17
 70
     1
102
RTVSPropertyOp18
 70
     1
102
RTVSPropertyOp19
 70
     1
102
RTVSPropertyOp20
 70
     1
102
RTVSPropertyOp21
 70
     1
102
RTVSPropertyOp22
 70
     1
102
RTVSPropertyOp23
 70
     1
102
RTVSPropertyOp24
 70
     1
102
RTVSPropertyOp25
 70
     1
102
RTVSPropertyOp26
 70
     1
102
RTVSPropertyOp27
 70
     1
102
RTVSPropertyOp28
 70
     1
102
RTVSPropertyOp29
 70
     1
102
RTVSPropertyOp30
 70
     1
102
RTVSPropertyOp31
 70
     1
102
RTVSPropertyOp32
 70
     1
  0
ENDSEC
  0
EOF
