  0
SECTION
  2
HEADER
  9
$ACADVER
  1
AC1021
  9
$ACADMAINTVER
 70
     1
  9
$DWGCODEPAGE
  3
ANSI_932
  9
$LASTSAVEDBY
  1
Administrator
  9
$INSBASE
 10
0.0
 20
0.0
 30
0.0
  9
$EXTMIN
 10
-138.5179559128252
 20
-90.01274718060221
 30
-0.0000000349181948
  9
$EXTMAX
 10
138.6306169367084
 20
102.4853669732164
 30
0.0000000814935747
  9
$LIMMIN
 10
-138.501
 20
-90.00100000000001
  9
$LIMMAX
 10
139.321633
 20
102.473618
  9
$ORTHOMODE
 70
     0
  9
$REGENMODE
 70
     1
  9
$FILLMODE
 70
     1
  9
$QTEXTMODE
 70
     0
  9
$MIRRTEXT
 70
     0
  9
$LTSCALE
 40
4.630344
  9
$ATTMODE
 70
     1
  9
$TEXTSIZE
 40
0.2
  9
$TRACEWID
 40
0.05
  9
$TEXTSTYLE
  7
STANDARD
  9
$CLAYER
  8
0
  9
$CELTYPE
  6
CONTINUOUS
  9
$CECOLOR
 62
   256
  9
$CELTSCALE
 40
1.0
  9
$DISPSILH
 70
     0
  9
$DIMSCALE
 40
1.0
  9
$DIMASZ
 40
0.18
  9
$DIMEXO
 40
0.0625
  9
$DIMDLI
 40
0.38
  9
$DIMRND
 40
0.0
  9
$DIMDLE
 40
0.0
  9
$DIMEXE
 40
0.18
  9
$DIMTP
 40
0.0
  9
$DIMTM
 40
0.0
  9
$DIMTXT
 40
0.18
  9
$DIMCEN
 40
0.09
  9
$DIMTSZ
 40
0.0
  9
$DIMTOL
 70
     0
  9
$DIMLIM
 70
     0
  9
$DIMTIH
 70
     1
  9
$DIMTOH
 70
     1
  9
$DIMSE1
 70
     0
  9
$DIMSE2
 70
     0
  9
$DIMTAD
 70
     0
  9
$DIMZIN
 70
     0
  9
$DIMBLK
  1

  9
$DIMASO
 70
     1
  9
$DIMSHO
 70
     1
  9
$DIMPOST
  1

  9
$DIMAPOST
  1

  9
$DIMALT
 70
     0
  9
$DIMALTD
 70
     2
  9
$DIMALTF
 40
25.4
  9
$DIMLFAC
 40
1.0
  9
$DIMTOFL
 70
     0
  9
$DIMTVP
 40
0.0
  9
$DIMTIX
 70
     0
  9
$DIMSOXD
 70
     0
  9
$DIMSAH
 70
     0
  9
$DIMBLK1
  1

  9
$DIMBLK2
  1

  9
$DIMSTYLE
  2
Standard
  9
$DIMCLRD
 70
     0
  9
$DIMCLRE
 70
     0
  9
$DIMCLRT
 70
     0
  9
$DIMTFAC
 40
1.0
  9
$DIMGAP
 40
0.09
  9
$DIMJUST
 70
     0
  9
$DIMSD1
 70
     0
  9
$DIMSD2
 70
     0
  9
$DIMTOLJ
 70
     1
  9
$DIMTZIN
 70
     0
  9
$DIMALTZ
 70
     0
  9
$DIMALTTZ
 70
     0
  9
$DIMUPT
 70
     0
  9
$DIMDEC
 70
     4
  9
$DIMTDEC
 70
     4
  9
$DIMALTU
 70
     2
  9
$DIMALTTD
 70
     2
  9
$DIMTXSTY
  7
STANDARD
  9
$DIMAUNIT
 70
     0
  9
$DIMADEC
 70
     0
  9
$DIMALTRND
 40
0.0
  9
$DIMAZIN
 70
     0
  9
$DIMDSEP
 70
    46
  9
$DIMATFIT
 70
     3
  9
$DIMFRAC
 70
     0
  9
$DIMLDRBLK
  1

  9
$DIMLUNIT
 70
     2
  9
$DIMLWD
 70
    -2
  9
$DIMLWE
 70
    -2
  9
$DIMTMOVE
 70
     0
  9
$DIMFXL
 40
1.0
  9
$DIMFXLON
 70
     0
  9
$DIMJOGANG
 40
0.7853981633974483
  9
$DIMTFILL
 70
     0
  9
$DIMTFILLCLR
 70
     0
  9
$DIMARCSYM
 70
     0
  9
$DIMLTYPE
  6

  9
$DIMLTEX1
  6

  9
$DIMLTEX2
  6

  9
$LUNITS
 70
     2
  9
$LUPREC
 70
     4
  9
$SKETCHINC
 40
0.1
  9
$FILLETRAD
 40
0.0
  9
$AUNITS
 70
     0
  9
$AUPREC
 70
     0
  9
$MENU
  1
.
  9
$ELEVATION
 40
0.0
  9
$PELEVATION
 40
0.0
  9
$THICKNESS
 40
0.0
  9
$LIMCHECK
 70
     0
  9
$CHAMFERA
 40
0.0
  9
$CHAMFERB
 40
0.0
  9
$CHAMFERC
 40
0.0
  9
$CHAMFERD
 40
0.0
  9
$SKPOLY
 70
     0
  9
$TDCREATE
 40
2456128.772483901
  9
$TDUCREATE
 40
2456128.397483901
  9
$TDUPDATE
 40
2456128.821980787
  9
$TDUUPDATE
 40
2456128.446980787
  9
$TDINDWG
 40
0.0031407292
  9
$TDUSRTIMER
 40
0.0031358565
  9
$USRTIMER
 70
     1
  9
$ANGBASE
 50
0.0
  9
$ANGDIR
 70
     0
  9
$PDMODE
 70
     0
  9
$PDSIZE
 40
0.0
  9
$PLINEWID
 40
0.0
  9
$SPLFRAME
 70
     0
  9
$SPLINETYPE
 70
     6
  9
$SPLINESEGS
 70
     8
  9
$HANDSEED
  5
24D
  9
$SURFTAB1
 70
     6
  9
$SURFTAB2
 70
     6
  9
$SURFTYPE
 70
     6
  9
$SURFU
 70
     6
  9
$SURFV
 70
     6
  9
$UCSBASE
  2

  9
$UCSNAME
  2

  9
$UCSORG
 10
0.0
 20
0.0
 30
0.0
  9
$UCSXDIR
 10
1.0
 20
0.0
 30
0.0
  9
$UCSYDIR
 10
0.0
 20
1.0
 30
0.0
  9
$UCSORTHOREF
  2

  9
$UCSORTHOVIEW
 70
     0
  9
$UCSORGTOP
 10
0.0
 20
0.0
 30
0.0
  9
$UCSORGBOTTOM
 10
0.0
 20
0.0
 30
0.0
  9
$UCSORGLEFT
 10
0.0
 20
0.0
 30
0.0
  9
$UCSORGRIGHT
 10
0.0
 20
0.0
 30
0.0
  9
$UCSORGFRONT
 10
0.0
 20
0.0
 30
0.0
  9
$UCSORGBACK
 10
0.0
 20
0.0
 30
0.0
  9
$PUCSBASE
  2

  9
$PUCSNAME
  2

  9
$PUCSORG
 10
0.0
 20
0.0
 30
0.0
  9
$PUCSXDIR
 10
1.0
 20
0.0
 30
0.0
  9
$PUCSYDIR
 10
0.0
 20
1.0
 30
0.0
  9
$PUCSORTHOREF
  2

  9
$PUCSORTHOVIEW
 70
     0
  9
$PUCSORGTOP
 10
0.0
 20
0.0
 30
0.0
  9
$PUCSORGBOTTOM
 10
0.0
 20
0.0
 30
0.0
  9
$PUCSORGLEFT
 10
0.0
 20
0.0
 30
0.0
  9
$PUCSORGRIGHT
 10
0.0
 20
0.0
 30
0.0
  9
$PUCSORGFRONT
 10
0.0
 20
0.0
 30
0.0
  9
$PUCSORGBACK
 10
0.0
 20
0.0
 30
0.0
  9
$USERI1
 70
     0
  9
$USERI2
 70
     0
  9
$USERI3
 70
     0
  9
$USERI4
 70
     0
  9
$USERI5
 70
     0
  9
$USERR1
 40
0.0
  9
$USERR2
 40
0.0
  9
$USERR3
 40
0.0
  9
$USERR4
 40
0.0
  9
$USERR5
 40
0.0
  9
$WORLDVIEW
 70
     1
  9
$SHADEDGE
 70
     3
  9
$SHADEDIF
 70
    70
  9
$TILEMODE
 70
     1
  9
$MAXACTVP
 70
    64
  9
$PINSBASE
 10
0.0
 20
0.0
 30
0.0
  9
$PLIMCHECK
 70
     0
  9
$PEXTMIN
 10
1.000000000000000E+20
 20
1.000000000000000E+20
 30
1.000000000000000E+20
  9
$PEXTMAX
 10
-1.000000000000000E+20
 20
-1.000000000000000E+20
 30
-1.000000000000000E+20
  9
$PLIMMIN
 10
0.0
 20
0.0
  9
$PLIMMAX
 10
12.0
 20
9.0
  9
$UNITMODE
 70
     0
  9
$VISRETAIN
 70
     1
  9
$PLINEGEN
 70
     0
  9
$PSLTSCALE
 70
     1
  9
$TREEDEPTH
 70
  3020
  9
$CMLSTYLE
  2
Standard
  9
$CMLJUST
 70
     0
  9
$CMLSCALE
 40
1.0
  9
$PROXYGRAPHICS
 70
     1
  9
$MEASUREMENT
 70
     0
  9
$CELWEIGHT
370
    -1
  9
$ENDCAPS
280
     0
  9
$JOINSTYLE
280
     0
  9
$LWDISPLAY
290
     0
  9
$INSUNITS
 70
     0
  9
$HYPERLINKBASE
  1

  9
$STYLESHEET
  1

  9
$XEDIT
290
     1
  9
$CEPSNTYPE
380
     0
  9
$PSTYLEMODE
290
     1
  9
$FINGERPRINTGUID
  2
{236EBE39-6A90-4EB8-B556-07BE4A2147B4}
  9
$VERSIONGUID
  2
{62ACF503-2A2D-4F95-A6CC-9A729191CB8C}
  9
$EXTNAMES
290
     1
  9
$PSVPSCALE
 40
0.0
  9
$OLESTARTUP
290
     0
  9
$SORTENTS
280
   127
  9
$INDEXCTL
280
     0
  9
$HIDETEXT
280
     0
  9
$XCLIPFRAME
290
     0
  9
$HALOGAP
280
     0
  9
$OBSCOLOR
 70
   257
  9
$OBSLTYPE
280
     0
  9
$INTERSECTIONDISPLAY
280
     0
  9
$INTERSECTIONCOLOR
 70
   257
  9
$DIMASSOC
280
     1
  9
$PROJECTNAME
  1

  9
$CAMERADISPLAY
290
     0
  9
$LENSLENGTH
 40
50.0
  9
$CAMERAHEIGHT
 40
0.0
  9
$STEPSPERSEC
 40
2.0
  9
$STEPSIZE
 40
6.0
  9
$3DDWFPREC
 40
2.0
  9
$PSOLWIDTH
 40
0.25
  9
$PSOLHEIGHT
 40
4.0
  9
$LOFTANG1
 40
1.570796326794896
  9
$LOFTANG2
 40
1.570796326794896
  9
$LOFTMAG1
 40
0.0
  9
$LOFTMAG2
 40
0.0
  9
$LOFTPARAM
 70
     7
  9
$LOFTNORMALS
280
     1
  9
$LATITUDE
 40
37.795
  9
$LONGITUDE
 40
-122.394
  9
$NORTHDIRECTION
 40
0.0
  9
$TIMEZONE
 70
 -8000
  9
$LIGHTGLYPHDISPLAY
280
     1
  9
$TILEMODELIGHTSYNCH
280
     1
  9
$CMATERIAL
347
11
  9
$SOLIDHIST
280
     1
  9
$SHOWHIST
280
     1
  9
$DWFFRAME
280
     2
  9
$DGNFRAME
280
     0
  9
$REALWORLDSCALE
290
     1
  9
$INTERFERECOLOR
 62
     1
  9
$INTERFEREOBJVS
345
1E
  9
$INTERFEREVPVS
346
1B
  9
$CSHADOW
280
     0
  9
$SHADOWPLANELOCATION
 40
0.0
  0
ENDSEC
  0
SECTION
  2
CLASSES
  0
CLASS
  1
ACDBDICTIONARYWDFLT
  2
AcDbDictionaryWithDefault
  3
ObjectDBX Classes
 90
        0
 91
        1
280
     0
281
     0
  0
CLASS
  1
MATERIAL
  2
AcDbMaterial
  3
ObjectDBX Classes
 90
     1024
 91
        3
280
     0
281
     0
  0
CLASS
  1
VISUALSTYLE
  2
AcDbVisualStyle
  3
ObjectDBX Classes
 90
     4095
 91
       16
280
     0
281
     0
  0
CLASS
  1
TABLESTYLE
  2
AcDbTableStyle
  3
ObjectDBX Classes
 90
     4095
 91
        1
280
     0
281
     0
  0
CLASS
  1
DICTIONARYVAR
  2
AcDbDictionaryVar
  3
ObjectDBX Classes
 90
        0
 91
        1
280
     0
281
     0
  0
CLASS
  1
SORTENTSTABLE
  2
AcDbSortentsTable
  3
ObjectDBX Classes
 90
        0
 91
        1
280
     0
281
     0
  0
ENDSEC
  0
SECTION
  2
TABLES
  0
TABLE
  2
VPORT
  5
8
330
0
100
AcDbSymbolTable
 70
     1
  0
VPORT
  5
56
330
8
100
AcDbSymbolTableRecord
100
AcDbViewportTableRecord
  2
*Active
 70
     0
 10
0.0
 20
0.0
 11
1.0
 21
1.0
 12
0.0563305119415958
 22
6.236309896307119
 13
0.0
 23
0.0
 14
1.0
 24
1.0
 15
0.0
 25
0.0
 16
0.0
 26
0.0
 36
1.0
 17
0.0
 27
0.0
 37
0.0
 40
194.1044961912636
 41
1.635097493036211
 42
50.0
 43
0.0
 44
0.0
 50
0.0
 51
0.0
 71
     0
 72
   100
 73
     1
 74
     1
 75
     0
 76
     0
 77
     0
 78
     0
281
     0
 65
     1
110
0.0
120
0.0
130
0.0
111
1.0
121
0.0
131
0.0
112
0.0
122
1.0
132
0.0
 79
     0
146
0.0
348
1A
 60
     3
 61
     5
292
     1
282
     1
141
0.0
142
0.0
 63
   250
421
  3355443
  0
ENDTAB
  0
TABLE
  2
LTYPE
  5
5
330
0
100
AcDbSymbolTable
 70
    25
  0
LTYPE
  5
28
330
5
100
AcDbSymbolTableRecord
100
AcDbLinetypeTableRecord
  2
ByBlock
 70
     0
  3

 72
    65
 73
     0
 40
0.0
  0
LTYPE
  5
29
330
5
100
AcDbSymbolTableRecord
100
AcDbLinetypeTableRecord
  2
ByLayer
 70
     0
  3

 72
    65
 73
     0
 40
0.0
  0
LTYPE
  5
2A
330
5
100
AcDbSymbolTableRecord
100
AcDbLinetypeTableRecord
  2
CONTINUOUS
 70
     0
  3
Solid-line
 72
    65
 73
     0
 40
0.0
  0
LTYPE
  5
3A
330
5
100
AcDbSymbolTableRecord
100
AcDbLinetypeTableRecord
  2
BORDER
 70
     0
  3
BORDER
 72
    65
 73
     6
 40
1.75
 49
0.5
 74
     0
 49
-0.25
 74
     0
 49
0.5
 74
     0
 49
-0.25
 74
     0
 49
0.0
 74
     0
 49
-0.25
 74
     0
  0
LTYPE
  5
3B
330
5
100
AcDbSymbolTableRecord
100
AcDbLinetypeTableRecord
  2
BORDER2
 70
     0
  3
BORDER2
 72
    65
 73
     6
 40
0.875
 49
0.25
 74
     0
 49
-0.125
 74
     0
 49
0.25
 74
     0
 49
-0.125
 74
     0
 49
0.0
 74
     0
 49
-0.125
 74
     0
  0
LTYPE
  5
3C
330
5
100
AcDbSymbolTableRecord
100
AcDbLinetypeTableRecord
  2
BORDERX2
 70
     0
  3
BORDERX2
 72
    65
 73
     6
 40
3.5
 49
1.0
 74
     0
 49
-0.5
 74
     0
 49
1.0
 74
     0
 49
-0.5
 74
     0
 49
0.0
 74
     0
 49
-0.5
 74
     0
  0
LTYPE
  5
3D
330
5
100
AcDbSymbolTableRecord
100
AcDbLinetypeTableRecord
  2
CENTER
 70
     0
  3
CENTER
 72
    65
 73
     4
 40
2.0
 49
1.25
 74
     0
 49
-0.25
 74
     0
 49
0.25
 74
     0
 49
-0.25
 74
     0
  0
LTYPE
  5
3E
330
5
100
AcDbSymbolTableRecord
100
AcDbLinetypeTableRecord
  2
CENTER2
 70
     0
  3
CENTER2
 72
    65
 73
     4
 40
1.125
 49
0.75
 74
     0
 49
-0.125
 74
     0
 49
0.125
 74
     0
 49
-0.125
 74
     0
  0
LTYPE
  5
3F
330
5
100
AcDbSymbolTableRecord
100
AcDbLinetypeTableRecord
  2
CENTERX2
 70
     0
  3
CENTERX2
 72
    65
 73
     4
 40
4.0
 49
2.5
 74
     0
 49
-0.5
 74
     0
 49
0.5
 74
     0
 49
-0.5
 74
     0
  0
LTYPE
  5
40
330
5
100
AcDbSymbolTableRecord
100
AcDbLinetypeTableRecord
  2
DASHDOT
 70
     0
  3
DASHDOT
 72
    65
 73
     4
 40
1.0
 49
0.5
 74
     0
 49
-0.25
 74
     0
 49
0.0
 74
     0
 49
-0.25
 74
     0
  0
LTYPE
  5
41
330
5
100
AcDbSymbolTableRecord
100
AcDbLinetypeTableRecord
  2
DASHDOT2
 70
     0
  3
DASHDOT2
 72
    65
 73
     4
 40
0.5
 49
0.25
 74
     0
 49
-0.125
 74
     0
 49
0.0
 74
     0
 49
-0.125
 74
     0
  0
LTYPE
  5
42
330
5
100
AcDbSymbolTableRecord
100
AcDbLinetypeTableRecord
  2
DASHDOTX2
 70
     0
  3
DASHDOTX2
 72
    65
 73
     4
 40
2.0
 49
1.0
 74
     0
 49
-0.5
 74
     0
 49
0.0
 74
     0
 49
-0.5
 74
     0
  0
LTYPE
  5
43
330
5
100
AcDbSymbolTableRecord
100
AcDbLinetypeTableRecord
  2
DASHED
 70
     0
  3
DASHED
 72
    65
 73
     2
 40
0.75
 49
0.5
 74
     0
 49
-0.25
 74
     0
  0
LTYPE
  5
44
330
5
100
AcDbSymbolTableRecord
100
AcDbLinetypeTableRecord
  2
DASHED2
 70
     0
  3
DASHED2
 72
    65
 73
     2
 40
0.375
 49
0.25
 74
     0
 49
-0.125
 74
     0
  0
LTYPE
  5
45
330
5
100
AcDbSymbolTableRecord
100
AcDbLinetypeTableRecord
  2
DASHEDX2
 70
     0
  3
DASHEDX2
 72
    65
 73
     2
 40
1.5
 49
1.0
 74
     0
 49
-0.5
 74
     0
  0
LTYPE
  5
46
330
5
100
AcDbSymbolTableRecord
100
AcDbLinetypeTableRecord
  2
DIVIDE
 70
     0
  3
DIVIDE
 72
    65
 73
     6
 40
1.25
 49
0.5
 74
     0
 49
-0.25
 74
     0
 49
0.0
 74
     0
 49
-0.25
 74
     0
 49
0.0
 74
     0
 49
-0.25
 74
     0
  0
LTYPE
  5
47
330
5
100
AcDbSymbolTableRecord
100
AcDbLinetypeTableRecord
  2
DIVIDE2
 70
     0
  3
DIVIDE2
 72
    65
 73
     6
 40
0.625
 49
0.25
 74
     0
 49
-0.125
 74
     0
 49
0.0
 74
     0
 49
-0.125
 74
     0
 49
0.0
 74
     0
 49
-0.125
 74
     0
  0
LTYPE
  5
48
330
5
100
AcDbSymbolTableRecord
100
AcDbLinetypeTableRecord
  2
DIVIDEX2
 70
     0
  3
DIVIDEX2
 72
    65
 73
     6
 40
2.5
 49
1.0
 74
     0
 49
-0.5
 74
     0
 49
0.0
 74
     0
 49
-0.5
 74
     0
 49
0.0
 74
     0
 49
-0.5
 74
     0
  0
LTYPE
  5
49
330
5
100
AcDbSymbolTableRecord
100
AcDbLinetypeTableRecord
  2
DOT
 70
     0
  3
DOT
 72
    65
 73
     2
 40
0.25
 49
0.0
 74
     0
 49
-0.25
 74
     0
  0
LTYPE
  5
4A
330
5
100
AcDbSymbolTableRecord
100
AcDbLinetypeTableRecord
  2
DOT2
 70
     0
  3
DOT2
 72
    65
 73
     2
 40
0.125
 49
0.0
 74
     0
 49
-0.125
 74
     0
  0
LTYPE
  5
4B
330
5
100
AcDbSymbolTableRecord
100
AcDbLinetypeTableRecord
  2
DOTX2
 70
     0
  3
DOTX2
 72
    65
 73
     2
 40
0.5
 49
0.0
 74
     0
 49
-0.5
 74
     0
  0
LTYPE
  5
4C
330
5
100
AcDbSymbolTableRecord
100
AcDbLinetypeTableRecord
  2
HIDDEN
 70
     0
  3
HIDDEN
 72
    65
 73
     2
 40
0.375
 49
0.25
 74
     0
 49
-0.125
 74
     0
  0
LTYPE
  5
4D
330
5
100
AcDbSymbolTableRecord
100
AcDbLinetypeTableRecord
  2
HIDDEN2
 70
     0
  3
HIDDEN2
 72
    65
 73
     2
 40
0.1875
 49
0.125
 74
     0
 49
-0.0625
 74
     0
  0
LTYPE
  5
4E
330
5
100
AcDbSymbolTableRecord
100
AcDbLinetypeTableRecord
  2
HIDDENX2
 70
     0
  3
HIDDENX2
 72
    65
 73
     2
 40
0.75
 49
0.5
 74
     0
 49
-0.25
 74
     0
  0
LTYPE
  5
4F
330
5
100
AcDbSymbolTableRecord
100
AcDbLinetypeTableRecord
  2
PHANTOM
 70
     0
  3
PHANTOM
 72
    65
 73
     6
 40
2.5
 49
1.25
 74
     0
 49
-0.25
 74
     0
 49
0.25
 74
     0
 49
-0.25
 74
     0
 49
0.25
 74
     0
 49
-0.25
 74
     0
  0
LTYPE
  5
50
330
5
100
AcDbSymbolTableRecord
100
AcDbLinetypeTableRecord
  2
PHANTOM2
 70
     0
  3
PHANTOM2
 72
    65
 73
     6
 40
1.25
 49
0.625
 74
     0
 49
-0.125
 74
     0
 49
0.125
 74
     0
 49
-0.125
 74
     0
 49
0.125
 74
     0
 49
-0.125
 74
     0
  0
LTYPE
  5
51
330
5
100
AcDbSymbolTableRecord
100
AcDbLinetypeTableRecord
  2
PHANTOMX2
 70
     0
  3
PHANTOMX2
 72
    65
 73
     6
 40
5.0
 49
2.5
 74
     0
 49
-0.5
 74
     0
 49
0.5
 74
     0
 49
-0.5
 74
     0
 49
0.5
 74
     0
 49
-0.5
 74
     0
  0
ENDTAB
  0
TABLE
  2
LAYER
  5
2
330
0
100
AcDbSymbolTable
 70
     2
  0
LAYER
  5
25
330
2
100
AcDbSymbolTableRecord
100
AcDbLayerTableRecord
  2
0
 70
     0
 62
     7
  6
CONTINUOUS
370
    -3
390
F
347
13
  0
LAYER
  5
52
330
2
100
AcDbSymbolTableRecord
100
AcDbLayerTableRecord
  2
001
 70
     0
 62
     7
  6
CONTINUOUS
370
    -3
390
F
347
13
  0
ENDTAB
  0
TABLE
  2
STYLE
  5
3
330
0
100
AcDbSymbolTable
 70
     2
  0
STYLE
  5
26
330
3
100
AcDbSymbolTableRecord
100
AcDbTextStyleTableRecord
  2
STANDARD
 70
     0
 40
0.0
 41
1.0
 50
0.0
 71
     0
 42
0.2
  3
TXT
  4
BIGFONT
  0
STYLE
  5
53
330
3
100
AcDbSymbolTableRecord
100
AcDbTextStyleTableRecord
  2
TATEGAKI
 70
     4
 40
1.0
 41
1.0
 50
0.0
 71
     0
 42
0.2
  3
TXT
  4
BIGFONT
  0
ENDTAB
  0
TABLE
  2
VIEW
  5
6
330
0
100
AcDbSymbolTable
 70
     0
  0
ENDTAB
  0
TABLE
  2
UCS
  5
7
330
0
100
AcDbSymbolTable
 70
     0
  0
ENDTAB
  0
TABLE
  2
APPID
  5
9
330
0
100
AcDbSymbolTable
 70
     1
  0
APPID
  5
27
330
9
100
AcDbSymbolTableRecord
100
AcDbRegAppTableRecord
  2
ACAD
 70
     0
  0
ENDTAB
  0
TABLE
  2
DIMSTYLE
  5
A
330
0
100
AcDbSymbolTable
 70
     1
100
AcDbDimStyleTable
 71
     0
  0
DIMSTYLE
105
223
330
A
100
AcDbSymbolTableRecord
100
AcDbDimStyleTableRecord
  2
Standard
 70
     0
340
26
  0
ENDTAB
  0
TABLE
  2
BLOCK_RECORD
  5
1
330
0
100
AcDbSymbolTable
 70
     2
  0
BLOCK_RECORD
  5
36
102
{ACAD_XDICTIONARY
360
23A
102
}
330
1
100
AcDbSymbolTableRecord
100
AcDbBlockTableRecord
  2
*Model_Space
340
39
 70
     0
280
     1
281
     0
  0
BLOCK_RECORD
  5
32
330
1
100
AcDbSymbolTableRecord
100
AcDbBlockTableRecord
  2
*Paper_Space
340
35
 70
     0
280
     1
281
     0
  0
BLOCK_RECORD
  5
57
330
1
100
AcDbSymbolTableRecord
100
AcDbBlockTableRecord
  2
ARROW
340
0
102
{BLKREFS
331
64
331
65
102
}
 70
     0
280
     1
281
     0
  0
BLOCK_RECORD
  5
5F
330
1
100
AcDbSymbolTableRecord
100
AcDbBlockTableRecord
  2
*D1
340
0
 70
     0
280
     1
281
     0
  0
ENDTAB
  0
ENDSEC
  0
SECTION
  2
BLOCKS
  0
BLOCK
  5
37
330
36
100
AcDbEntity
  8
0
100
AcDbBlockBegin
  2
*Model_Space
 70
     0
 10
0.0
 20
0.0
 30
0.0
  3
*Model_Space
  1

  0
ENDBLK
  5
38
330
36
100
AcDbEntity
  8
0
100
AcDbBlockEnd
  0
BLOCK
  5
33
330
32
100
AcDbEntity
 67
     1
  8
0
100
AcDbBlockBegin
  2
*Paper_Space
 70
     0
 10
0.0
 20
0.0
 30
0.0
  3
*Paper_Space
  1

  0
ENDBLK
  5
34
330
32
100
AcDbEntity
 67
     1
  8
0
100
AcDbBlockEnd
  0
BLOCK
  5
58
330
57
100
AcDbEntity
  8
0
100
AcDbBlockBegin
  2
ARROW
 70
     0
 10
0.0
 20
0.0
 30
0.0
  3
ARROW
  1

  0
LWPOLYLINE
  5
59
330
57
100
AcDbEntity
  8
0
  6
Continuous
 62
     0
100
AcDbPolyline
 90
        3
 70
     0
 43
0.0
 10
2.0
 20
0.535898
 10
0.0
 20
0.0
 10
2.0
 20
-0.535898
  0
ENDBLK
  5
5E
330
57
100
AcDbEntity
  8
0
100
AcDbBlockEnd
  0
BLOCK
  5
60
330
5F
100
AcDbEntity
  8
001
100
AcDbBlockBegin
  2
*D1
 70
     1
 10
0.0
 20
0.0
 30
0.0
  3
*D1
  1

  0
LINE
  5
61
330
5F
100
AcDbEntity
  8
001
100
AcDbLine
 10
-92.57051800000001
 20
3.596748
 30
0.0
 11
-92.57051800000001
 21
-12.792413
 31
0.0
  0
LINE
  5
62
330
5F
100
AcDbEntity
  8
001
100
AcDbLine
 10
117.581533
 20
2.02
 30
0.0
 11
117.581533
 21
-12.792413
 31
0.0
  0
LINE
  5
63
330
5F
100
AcDbEntity
  8
001
100
AcDbLine
 10
-92.57051800000001
 20
-11.792413
 30
0.0
 11
117.581533
 21
-11.792413
 31
0.0
  0
INSERT
  5
64
330
5F
100
AcDbEntity
  8
001
  6
ByBlock
 62
     7
100
AcDbBlockReference
  2
ARROW
 10
-92.57051800000001
 20
-11.792413
 30
0.0
  0
INSERT
  5
65
330
5F
100
AcDbEntity
  8
001
  6
ByBlock
 62
     7
100
AcDbBlockReference
  2
ARROW
 10
117.581533
 20
-11.792413
 30
0.0
 50
180.0
  0
POINT
  5
66
330
5F
100
AcDbEntity
  8
001
100
AcDbPoint
 10
-92.57051800000001
 20
4.596748
 30
0.0
  0
POINT
  5
67
330
5F
100
AcDbEntity
  8
001
100
AcDbPoint
 10
117.581533
 20
3.02
 30
0.0
  0
POINT
  5
68
330
5F
100
AcDbEntity
  8
001
100
AcDbPoint
 10
117.581533
 20
-11.792413
 30
0.0
  0
ENDBLK
  5
69
330
5F
100
AcDbEntity
  8
001
100
AcDbBlockEnd
  0
ENDSEC
  0
SECTION
  2
ENTITIES
  0
LINE
  5
6B
330
36
100
AcDbEntity
  8
001
 62
     3
100
AcDbLine
 10
86.92923099999999
 20
-73.327652
 30
0.0
 11
86.92923099999999
 21
-52.327652
 31
0.0
  0
LINE
  5
6C
330
36
100
AcDbEntity
  8
001
 62
     3
100
AcDbLine
 10
99.929231
 20
-73.327652
 30
0.0
 11
99.929231
 21
-52.327652
 31
0.0
  0
LINE
  5
6D
330
36
100
AcDbEntity
  8
001
 62
     3
100
AcDbLine
 10
112.929231
 20
-73.327652
 30
0.0
 11
112.929231
 21
-52.327652
 31
0.0
  0
LINE
  5
6E
330
36
100
AcDbEntity
  8
001
 62
     3
100
AcDbLine
 10
86.92923099999999
 20
-73.327652
 30
0.0
 11
86.92923099999999
 21
-80.327652
 31
0.0
  0
LINE
  5
6F
330
36
100
AcDbEntity
  8
001
 62
     3
100
AcDbLine
 10
59.87562099999998
 20
-80.327652
 30
0.0
 11
59.87562099999998
 21
-66.327652
 31
0.0
  0
LINE
  5
70
330
36
100
AcDbEntity
  8
001
 62
     3
100
AcDbLine
 10
70.20755600000001
 20
-66.71767599999999
 30
0.0
 11
70.20755600000001
 21
-80.327652
 31
0.0
  0
TEXT
  5
71
330
36
100
AcDbEntity
  8
001
 62
     3
100
AcDbText
 10
88.939549
 20
-54.12253599999999
 30
0.0
 40
2.0
  1
A
 41
0.7
100
AcDbText
  0
TEXT
  5
72
330
36
100
AcDbEntity
  8
001
 62
     3
100
AcDbText
 10
91.47483499999999
 20
-54.12253599999999
 30
0.0
 40
2.0
  1
P
 41
0.7
100
AcDbText
  0
TEXT
  5
73
330
36
100
AcDbEntity
  8
001
 62
     3
100
AcDbText
 10
94.010121
 20
-54.12253599999999
 30
0.0
 40
2.0
  1
P
 41
0.7
100
AcDbText
  0
TEXT
  5
74
330
36
100
AcDbEntity
  8
001
 62
     3
100
AcDbText
 10
96.54540799999999
 20
-54.12253599999999
 30
0.0
 40
2.0
  1
D
 41
0.7
100
AcDbText
  0
TEXT
  5
75
330
36
100
AcDbEntity
  8
001
 62
     3
100
AcDbText
 10
101.914091
 20
-54.12253599999999
 30
0.0
 40
2.0
  1
C
 41
0.7
100
AcDbText
  0
TEXT
  5
76
330
36
100
AcDbEntity
  8
001
 62
     3
100
AcDbText
 10
104.449377
 20
-54.12253599999999
 30
0.0
 40
2.0
  1
H
 41
0.7
100
AcDbText
  0
TEXT
  5
77
330
36
100
AcDbEntity
  8
001
 62
     3
100
AcDbText
 10
106.984663
 20
-54.12253599999999
 30
0.0
 40
2.0
  1
C
 41
0.7
100
AcDbText
  0
TEXT
  5
78
330
36
100
AcDbEntity
  8
001
 62
     3
100
AcDbText
 10
109.519949
 20
-54.12253599999999
 30
0.0
 40
2.0
  1
K
 41
0.7
100
AcDbText
  0
TEXT
  5
79
330
36
100
AcDbEntity
  8
001
 62
     3
100
AcDbText
 10
115.193916
 20
-54.12253599999999
 30
0.0
 40
2.0
  1
DESN
 41
1.216762999999998
100
AcDbText
  0
TEXT
  5
7A
330
36
100
AcDbEntity
  8
001
 62
     3
100
AcDbText
 10
30.187557
 20
-83.469034
 30
0.0
 40
2.0
  1
NICHIDO IND.CO.LTD
 41
1.274876
100
AcDbText
  0
LINE
  5
7B
330
36
100
AcDbEntity
  8
001
 62
     3
100
AcDbLine
 10
40.57058699999998
 20
-52.686976
 30
0.0
 11
40.57058699999998
 21
-73.327652
 31
0.0
  0
LINE
  5
7C
330
36
100
AcDbEntity
  8
001
 62
     3
100
AcDbLine
 10
86.92923099999999
 20
-80.327652
 30
0.0
 11
86.92923099999999
 21
-89.99337399999998
 31
0.0
  0
LINE
  5
7D
330
36
100
AcDbEntity
  8
001
 62
     3
100
AcDbLine
 10
40.57058699999998
 20
-52.327652
 30
0.0
 11
40.57058699999998
 21
-50.327652
 31
0.0
  0
LINE
  5
7E
330
36
100
AcDbEntity
  8
001
 62
     3
100
AcDbLine
 10
86.92923099999999
 20
-52.327652
 30
0.0
 11
86.92923099999999
 21
-50.327652
 31
0.0
  0
LINE
  5
7F
330
36
100
AcDbEntity
  8
001
 62
     3
100
AcDbLine
 10
99.929231
 20
-52.327652
 30
0.0
 11
99.929231
 21
-50.327652
 31
0.0
  0
LINE
  5
80
330
36
100
AcDbEntity
  8
001
 62
     3
100
AcDbLine
 10
112.929231
 20
-52.327652
 30
0.0
 11
112.929231
 21
-50.327652
 31
0.0
  0
LINE
  5
81
330
36
100
AcDbEntity
  8
001
 62
     3
100
AcDbLine
 10
99.929231
 20
-73.327652
 30
0.0
 11
99.929231
 21
-80.327652
 31
0.0
  0
TEXT
  5
82
330
36
100
AcDbEntity
  8
001
 62
     3
100
AcDbText
 10
88.20771399999998
 20
-78.622395
 30
0.0
 40
3.2
  1
作成日
 41
1.017225999999998
100
AcDbText
  0
LINE
  5
83
330
36
100
AcDbEntity
  8
001
 62
     3
100
AcDbLine
 10
138.628594
 20
-50.327652
 30
0.0
 11
27.325152
 21
-50.327652
 31
0.0
  0
LINE
  5
84
330
36
100
AcDbEntity
  8
001
 62
     3
100
AcDbLine
 10
138.628594
 20
-59.327652
 30
0.0
 11
27.325152
 21
-59.327652
 31
0.0
  0
LINE
  5
85
330
36
100
AcDbEntity
  8
001
 62
     3
100
AcDbLine
 10
138.628594
 20
-73.327652
 30
0.0
 11
27.325152
 21
-73.327652
 31
0.0
  0
LINE
  5
86
330
36
100
AcDbEntity
  8
001
 62
     3
100
AcDbLine
 10
138.628594
 20
-80.327652
 30
0.0
 11
27.325152
 21
-80.327652
 31
0.0
  0
LINE
  5
87
330
36
100
AcDbEntity
  8
001
 62
     3
100
AcDbLine
 10
125.929231
 20
-73.327652
 30
0.0
 11
125.929231
 21
-50.327652
 31
0.0
  0
TEXT
  5
88
330
36
100
AcDbEntity
  8
001
 62
     3
100
AcDbText
 10
129.253034
 20
-54.036717
 30
0.0
 40
1.8
  1
D
 41
0.666667
100
AcDbText
  0
TEXT
  5
89
330
36
100
AcDbEntity
  8
001
 62
     3
100
AcDbText
 10
132.069662
 20
-54.036717
 30
0.0
 40
1.8
  1
E
 41
0.666667
100
AcDbText
  0
TEXT
  5
8A
330
36
100
AcDbEntity
  8
001
 62
     3
100
AcDbText
 10
134.886291
 20
-54.036717
 30
0.0
 40
1.8
  1
F
 41
0.666667
100
AcDbText
  0
TEXT
  5
8B
330
36
100
AcDbEntity
  8
001
 62
     3
100
AcDbText
 10
129.253034
 20
-58.02927099999998
 30
0.0
 40
3.2
  1
製図
 41
1.076369
100
AcDbText
  0
LINE
  5
8C
330
36
100
AcDbEntity
  8
001
 62
     3
100
AcDbLine
 10
27.325152
 20
-50.327652
 30
0.0
 11
27.325152
 21
-89.99337399999998
 31
0.0
  0
LINE
  5
8D
330
36
100
AcDbEntity
  8
001
 62
     3
100
AcDbLine
 10
86.92923099999999
 20
-66.327652
 30
0.0
 11
27.325152
 21
-66.327652
 31
0.0
  0
TEXT
  5
8E
330
36
100
AcDbEntity
  8
001
 62
     3
100
AcDbText
 10
28.701805
 20
-89.66090900000002
 30
0.0
 40
5.0
  1
日動工業株式会社
 41
0.833333
100
AcDbText
  0
LINE
  5
8F
330
36
100
AcDbEntity
  8
001
 62
     3
100
AcDbLine
 10
70.20755600000001
 20
-80.327652
 30
0.0
 11
70.20755600000001
 21
-89.99337399999998
 31
0.0
  0
LINE
  5
90
330
36
100
AcDbEntity
  8
001
 62
     3
100
AcDbLine
 10
70.20755600000001
 20
-85.16051299999999
 30
0.0
 11
86.92923099999999
 21
-85.16051299999999
 31
0.0
  0
TEXT
  5
91
330
36
100
AcDbEntity
  8
001
 62
     3
100
AcDbText
 10
70.79415799999998
 20
-84.344082
 30
0.0
 40
3.2
  1
出図コード
 41
0.8356860000000001
100
AcDbText
  0
TEXT
  5
92
330
36
100
AcDbEntity
  8
001
 62
     3
100
AcDbText
 10
70.79415799999998
 20
-89.176944
 30
0.0
 40
3.2
  1
HM-A4
 41
0.999426
100
AcDbText
  0
LINE
  5
93
330
36
100
AcDbEntity
  8
001
 62
     3
100
AcDbLine
 10
54.90941
 20
65.54461100000001
 30
0.0
 11
138.50941
 21
65.54461100000001
 31
0.0
  0
LINE
  5
94
330
36
100
AcDbEntity
  8
001
 62
     3
100
AcDbLine
 10
54.90941
 20
85.494611
 30
0.0
 11
138.50941
 21
85.494611
 31
0.0
  0
TEXT
  5
95
330
36
100
AcDbEntity
  8
001
 62
     3
100
AcDbText
 10
127.78441
 20
80.64961099999997
 30
0.0
 40
3.04
  1
担
 41
0.859375
100
AcDbText
  0
TEXT
  5
96
330
36
100
AcDbEntity
  8
001
 62
     3
100
AcDbText
 10
134.67191
 20
80.64961099999997
 30
0.0
 40
3.04
  1
当
 41
0.859375
100
AcDbText
  0
TEXT
  5
97
330
36
100
AcDbEntity
  8
001
 62
     3
100
AcDbText
 10
87.58863299999999
 20
80.132449
 30
0.0
 40
3.04
  1
変更・追記内容
 41
1.182725999999999
100
AcDbText
  0
LINE
  5
98
330
36
100
AcDbEntity
  8
001
 62
     3
100
AcDbLine
 10
54.90941
 20
85.494611
 30
0.0
 11
54.90941
 21
65.54461100000001
 31
0.0
  0
TEXT
  5
99
330
36
100
AcDbEntity
  8
001
 62
     3
100
AcDbText
 10
58.68211399999999
 20
73.495435
 30
0.0
 40
2.431999999999999
  1
1
 41
1.499999
100
AcDbText
  0
TEXT
  5
9A
330
36
100
AcDbEntity
  8
001
 62
     3
100
AcDbText
 10
58.68211399999999
 20
66.639224
 30
0.0
 40
2.431999999999999
  1
2
100
AcDbText
  0
TEXT
  5
9B
330
36
100
AcDbEntity
  8
001
 62
     3
100
AcDbText
 10
67.86835899999998
 20
80.20897600000003
 30
0.0
 40
3.2
  1
日
 41
0.859375
100
AcDbText
  0
TEXT
  5
9C
330
36
100
AcDbEntity
  8
001
 62
     3
100
AcDbText
 10
76.745233
 20
80.20897600000003
 30
0.0
 40
3.2
  1
付
 41
0.859375
100
AcDbText
  0
LINE
  5
9D
330
36
100
AcDbEntity
  8
001
 62
     3
100
AcDbLine
 10
54.90941
 20
85.494611
 30
0.0
 11
54.90941
 21
89.99461099999997
 31
0.0
  0
TEXT
  5
9E
330
36
100
AcDbEntity
  8
001
 62
     3
100
AcDbText
 10
67.6942
 20
86.14461099999997
 30
0.0
 40
3.2
  1
図
 41
0.859375
100
AcDbText
  0
TEXT
  5
9F
330
36
100
AcDbEntity
  8
001
 62
     3
100
AcDbText
 10
86.350095
 20
86.14461099999997
 30
0.0
 40
3.2
  1
面
 41
0.859375
100
AcDbText
  0
TEXT
  5
A0
330
36
100
AcDbEntity
  8
001
 62
     3
100
AcDbText
 10
105.00599
 20
86.14461099999997
 30
0.0
 40
3.2
  1
略
 41
0.859375
100
AcDbText
  0
TEXT
  5
A1
330
36
100
AcDbEntity
  8
001
 62
     3
100
AcDbText
 10
123.661886
 20
86.14461099999997
 30
0.0
 40
3.2
  1
歴
 41
0.859375
100
AcDbText
  0
TEXT
  5
A2
330
36
100
AcDbEntity
  8
001
 62
     3
100
AcDbText
 10
55.511774
 20
80.569611
 30
0.0
 40
3.2
  1
記
 41
0.859375
100
AcDbText
  0
TEXT
  5
A3
330
36
100
AcDbEntity
  8
001
 62
     3
100
AcDbText
 10
61.76468100000001
 20
80.569611
 30
0.0
 40
3.2
  1
号
 41
0.859375
100
AcDbText
  0
LINE
  5
A4
330
36
100
AcDbEntity
  8
001
100
AcDbLine
 10
59.727114
 20
76.905366
 30
0.0
 11
57.827114
 21
73.614469
 31
0.0
  0
LINE
  5
A5
330
36
100
AcDbEntity
  8
001
100
AcDbLine
 10
59.727114
 20
76.905366
 30
0.0
 11
61.627114
 21
73.614469
 31
0.0
  0
LINE
  5
A6
330
36
100
AcDbEntity
  8
001
100
AcDbLine
 10
57.827114
 20
73.614469
 30
0.0
 11
61.627114
 21
73.614469
 31
0.0
  0
LINE
  5
A7
330
36
100
AcDbEntity
  8
001
100
AcDbLine
 10
59.727114
 20
70.049155
 30
0.0
 11
57.827114
 21
66.75825899999999
 31
0.0
  0
LINE
  5
A8
330
36
100
AcDbEntity
  8
001
100
AcDbLine
 10
59.727114
 20
70.049155
 30
0.0
 11
61.627114
 21
66.75825899999999
 31
0.0
  0
LINE
  5
A9
330
36
100
AcDbEntity
  8
001
100
AcDbLine
 10
57.827114
 20
66.75825899999999
 30
0.0
 11
61.627114
 21
66.75825899999999
 31
0.0
  0
LINE
  5
AA
330
36
100
AcDbEntity
  8
001
 62
     3
100
AcDbLine
 10
0.0
 20
102.472617
 30
0.0
 11
0.0
 21
101.224058
 31
0.0
  0
TEXT
  5
AB
330
36
100
AcDbEntity
  8
001
 62
     3
100
AcDbText
 10
103.889404
 20
-79.51905899999998
 30
0.0
 40
3.2
  1
2002.11.12
 41
1.392665999999999
100
AcDbText
  0
LINE
  5
AC
330
36
100
AcDbEntity
  8
001
 62
     3
100
AcDbLine
 10
79.58153299999998
 20
25.52
 30
0.0
 11
79.58153299999998
 21
7.519999999999998
 31
0.0
  0
LINE
  5
AD
330
36
100
AcDbEntity
  8
001
 62
     3
100
AcDbLine
 10
47.581533
 20
10.004497
 30
0.0
 11
47.581533
 21
23.035503
 31
0.0
  0
LINE
  5
AE
330
36
100
AcDbEntity
  8
001
 62
     3
100
AcDbLine
 10
48.56590999999998
 20
24.035381
 30
0.0
 11
79.58153299999998
 21
24.52
 31
0.0
  0
LINE
  5
AF
330
36
100
AcDbEntity
  8
001
 62
     3
100
AcDbLine
 10
48.56590999999998
 20
9.004618999999998
 30
0.0
 11
79.58153299999998
 21
8.519999999999999
 31
0.0
  0
LINE
  5
B0
330
36
100
AcDbEntity
  8
001
 62
     3
100
AcDbLine
 10
79.58153299999998
 20
25.52
 30
0.0
 11
81.581533
 21
26.27
 31
0.0
  0
LINE
  5
B1
330
36
100
AcDbEntity
  8
001
 62
     3
100
AcDbLine
 10
79.58153299999998
 20
7.519999999999998
 30
0.0
 11
81.581533
 21
6.769999999999998
 31
0.0
  0
LINE
  5
B2
330
36
100
AcDbEntity
  8
001
 62
     3
100
AcDbLine
 10
117.581533
 20
30.02
 30
0.0
 11
117.581533
 21
3.02
 31
0.0
  0
LINE
  5
B3
330
36
100
AcDbEntity
  8
001
 62
     3
100
AcDbLine
 10
107.429974
 20
30.02
 30
0.0
 11
117.581533
 21
30.02
 31
0.0
  0
ARC
  5
B4
330
36
100
AcDbEntity
  8
001
 62
     3
100
AcDbCircle
 10
88.901845
 20
45.95125
 30
0.0
 40
20.998537
100
AcDbArc
 50
249.597644
 51
300.591744
  0
ARC
  5
B5
330
36
100
AcDbEntity
  8
001
 62
     3
100
AcDbCircle
 10
107.429974
 20
14.611589
 30
0.0
 40
15.40841
100
AcDbArc
 50
90.0
 51
120.591744
  0
ARC
  5
B6
330
36
100
AcDbEntity
  8
001
 62
     3
100
AcDbCircle
 10
88.901845
 20
-12.91125
 30
0.0
 40
20.998537
100
AcDbArc
 50
59.40825600000001
 51
110.402356
  0
ARC
  5
B7
330
36
100
AcDbEntity
  8
001
 62
     3
100
AcDbCircle
 10
107.429974
 20
18.42841
 30
0.0
 40
15.40841
100
AcDbArc
 50
239.408256
 51
270.0
  0
LINE
  5
B8
330
36
100
AcDbEntity
  8
001
 62
     3
100
AcDbLine
 10
107.429974
 20
3.02
 30
0.0
 11
117.581533
 21
3.02
 31
0.0
  0
CIRCLE
  5
B9
330
36
100
AcDbEntity
  8
001
 62
     3
100
AcDbCircle
 10
102.581533
 20
16.52
 30
0.0
 40
6.0
  0
ARC
  5
BA
330
36
100
AcDbEntity
  8
001
 62
     3
100
AcDbCircle
 10
48.581533
 20
23.035503
 30
0.0
 40
1.0
100
AcDbArc
 50
90.895174
 51
180.0
  0
ARC
  5
BB
330
36
100
AcDbEntity
  8
001
 62
     3
100
AcDbCircle
 10
48.581533
 20
10.004497
 30
0.0
 40
1.0
100
AcDbArc
 50
180.0
 51
269.104826
  0
LINE
  5
BC
330
36
100
AcDbEntity
  8
001
 62
     3
100
AcDbLine
 10
-47.270215
 20
69.23924599999999
 30
0.0
 11
-47.270215
 21
49.239246
 31
0.0
  0
LINE
  5
BD
330
36
100
AcDbEntity
  8
001
 62
     3
100
AcDbLine
 10
-75.270215
 20
49.239246
 30
0.0
 11
-75.270215
 21
69.23924599999999
 31
0.0
  0
LINE
  5
BE
330
36
100
AcDbEntity
  8
001
 62
     3
100
AcDbLine
 10
-47.270215
 20
69.23924599999999
 30
0.0
 11
-75.270215
 21
69.23924599999999
 31
0.0
  0
LINE
  5
BF
330
36
100
AcDbEntity
  8
001
 62
     3
100
AcDbLine
 10
-47.270215
 20
49.239246
 30
0.0
 11
-75.270215
 21
49.239246
 31
0.0
  0
LINE
  5
C0
330
36
100
AcDbEntity
  8
001
 62
     3
100
AcDbLine
 10
38.859082
 20
21.22
 30
0.0
 11
47.581533
 21
21.22
 31
0.0
  0
LINE
  5
C1
330
36
100
AcDbEntity
  8
001
 62
     3
100
AcDbLine
 10
37.595741
 20
11.82
 30
0.0
 11
47.581533
 21
11.82
 31
0.0
  0
LINE
  5
C2
330
36
100
AcDbEntity
  8
001
 62
     3
100
AcDbLine
 10
-91.35419125513902
 20
-25.88054747252392
 30
0.0
 11
-91.35419125513902
 21
-73.88054747252394
 31
0.0
  0
TEXT
  5
C3
330
36
100
AcDbEntity
  8
001
 62
     3
100
AcDbText
 10
-89.726025
 20
-41.409651
 30
0.0
 40
4.0
  1
型
 41
0.875
100
AcDbText
  0
TEXT
  5
C4
330
36
100
AcDbEntity
  8
001
 62
     3
100
AcDbText
 10
-64.543789
 20
-41.409651
 30
0.0
 40
4.0
  1
式
 41
0.875
100
AcDbText
  0
TEXT
  5
C5
330
36
100
AcDbEntity
  8
001
 62
     3
100
AcDbText
 10
-89.726025
 20
-49.409651
 30
0.0
 40
4.0
  1
電
 41
0.875
100
AcDbText
  0
TEXT
  5
C6
330
36
100
AcDbEntity
  8
001
 62
     3
100
AcDbText
 10
-81.331947
 20
-49.409651
 30
0.0
 40
4.0
  1
線
 41
0.875
100
AcDbText
  0
TEXT
  5
C7
330
36
100
AcDbEntity
  8
001
 62
     3
100
AcDbText
 10
-72.93786800000003
 20
-49.409651
 30
0.0
 40
4.0
  1
長
 41
0.875
100
AcDbText
  0
TEXT
  5
C8
330
36
100
AcDbEntity
  8
001
 62
     3
100
AcDbText
 10
-64.54379
 20
-49.409651
 30
0.0
 40
4.0
  1
さ
 41
0.875
100
AcDbText
  0
TEXT
  5
C9
330
36
100
AcDbEntity
  8
001
 62
     3
100
AcDbText
 10
-89.726025
 20
-57.409651
 30
0.0
 40
4.0
  1
電
 41
0.875
100
AcDbText
  0
TEXT
  5
CA
330
36
100
AcDbEntity
  8
001
 62
     3
100
AcDbText
 10
-81.331947
 20
-57.409651
 30
0.0
 40
4.0
  1
線
 41
0.875
100
AcDbText
  0
TEXT
  5
CB
330
36
100
AcDbEntity
  8
001
 62
     3
100
AcDbText
 10
-72.93786800000003
 20
-57.409651
 30
0.0
 40
4.0
  1
仕
 41
0.875
100
AcDbText
  0
TEXT
  5
CC
330
36
100
AcDbEntity
  8
001
 62
     3
100
AcDbText
 10
-64.54379
 20
-57.409651
 30
0.0
 40
4.0
  1
様
 41
0.875
100
AcDbText
  0
TEXT
  5
CD
330
36
100
AcDbEntity
  8
001
 62
     3
100
AcDbText
 10
-89.726025
 20
-65.409651
 30
0.0
 40
4.0
  1
電線許容電流
 41
1.04926
100
AcDbText
  0
TEXT
  5
CE
330
36
100
AcDbEntity
  8
001
 62
     3
100
AcDbText
 10
-89.726025
 20
-73.409651
 30
0.0
 40
4.0
  1
電
 41
0.875
100
AcDbText
  0
TEXT
  5
CF
330
36
100
AcDbEntity
  8
001
 62
     3
100
AcDbText
 10
-77.134907
 20
-73.409651
 30
0.0
 40
4.0
  1
線
 41
0.875
100
AcDbText
  0
TEXT
  5
D0
330
36
100
AcDbEntity
  8
001
 62
     3
100
AcDbText
 10
-64.543789
 20
-73.409651
 30
0.0
 40
4.0
  1
色
 41
0.875
100
AcDbText
  0
TEXT
  5
D1
330
36
100
AcDbEntity
  8
001
 62
     3
100
AcDbText
 10
-75.67047999999998
 20
-31.70607
 30
0.0
 40
4.0
  1
主
 41
0.875
100
AcDbText
  0
TEXT
  5
D2
330
36
100
AcDbEntity
  8
001
 62
     3
100
AcDbText
 10
-68.85932199999999
 20
-31.70607
 30
0.0
 40
4.0
  1
仕
 41
0.875
100
AcDbText
  0
TEXT
  5
D3
330
36
100
AcDbEntity
  8
001
 62
     3
100
AcDbText
 10
-62.048165
 20
-31.70607
 30
0.0
 40
4.0
  1
様
 41
0.875
100
AcDbText
  0
TEXT
  5
D4
330
36
100
AcDbEntity
  8
001
 62
     3
100
AcDbText
 10
-55.237007
 20
-31.70607
 30
0.0
 40
4.0
  1
（
 41
0.875
100
AcDbText
  0
TEXT
  5
D5
330
36
100
AcDbEntity
  8
001
 62
     3
100
AcDbText
 10
-48.425849
 20
-31.70607
 30
0.0
 40
4.0
  1
屋
 41
0.875
100
AcDbText
  0
TEXT
  5
D6
330
36
100
AcDbEntity
  8
001
 62
     3
100
AcDbText
 10
-41.61469199999999
 20
-31.70607
 30
0.0
 40
4.0
  1
内
 41
0.875
100
AcDbText
  0
TEXT
  5
D7
330
36
100
AcDbEntity
  8
001
 62
     3
100
AcDbText
 10
-34.803534
 20
-31.70607
 30
0.0
 40
4.0
  1
型
 41
0.875
100
AcDbText
  0
TEXT
  5
D8
330
36
100
AcDbEntity
  8
001
 62
     3
100
AcDbText
 10
-27.992376
 20
-31.70607
 30
0.0
 40
4.0
  1
）
 41
0.875
100
AcDbText
  0
LINE
  5
D9
330
36
100
AcDbEntity
  8
001
 62
     3
100
AcDbLine
 10
-91.35419125513902
 20
-25.88054747252392
 30
0.0
 11
-4.567446255138996
 21
-25.88054747252392
 31
0.0
  0
LINE
  5
DA
330
36
100
AcDbEntity
  8
001
 62
     3
100
AcDbLine
 10
-91.35419125513902
 20
-33.88054747252392
 30
0.0
 11
-4.567446255138996
 21
-33.88054747252392
 31
0.0
  0
LINE
  5
DC
330
36
100
AcDbEntity
  8
001
100
AcDbLine
 10
-91.35419125513902
 20
-49.88054747252391
 30
0.0
 11
-4.567446255138996
 21
-49.88054747252391
 31
0.0
  0
LINE
  5
DD
330
36
100
AcDbEntity
  8
001
100
AcDbLine
 10
-91.35419125513902
 20
-57.88054747252392
 30
0.0
 11
-4.567446255138996
 21
-57.88054747252392
 31
0.0
  0
LINE
  5
DE
330
36
100
AcDbEntity
  8
001
100
AcDbLine
 10
-91.35419125513902
 20
-65.88054747252392
 30
0.0
 11
-4.567446255138996
 21
-65.88054747252392
 31
0.0
  0
LINE
  5
DF
330
36
100
AcDbEntity
  8
001
 62
     3
100
AcDbLine
 10
-91.35419125513902
 20
-73.88054747252391
 30
0.0
 11
-4.567446255138996
 21
-73.88054747252391
 31
0.0
  0
LINE
  5
E0
330
36
100
AcDbEntity
  8
001
100
AcDbLine
 10
-59.59217525513899
 20
-33.88054747252392
 30
0.0
 11
-59.59217525513899
 21
-73.88054747252391
 31
0.0
  0
TEXT
  5
E1
330
36
100
AcDbEntity
  8
001
 62
     3
100
AcDbText
 10
-37.43998300000001
 20
-73.089689
 30
0.0
 40
4.0
  1
　黄　
 41
0.833333
100
AcDbText
  0
LINE
  5
E2
330
36
100
AcDbEntity
  8
001
 62
     3
100
AcDbLine
 10
-4.567446255138996
 20
-73.88054747252394
 30
0.0
 11
-4.567446255138996
 21
-25.88054747252392
 31
0.0
  0
LINE
  5
E8
330
36
100
AcDbEntity
  8
001
 62
     3
100
AcDbLine
 10
-92.57051800000001
 20
28.596748
 30
0.0
 11
-92.57051800000001
 21
4.596748
 31
0.0
  0
LINE
  5
E9
330
36
100
AcDbEntity
  8
001
 62
     3
100
AcDbLine
 10
-89.570518
 20
2.096747999999998
 30
0.0
 11
-14.570518
 21
2.096747999999998
 31
0.0
  0
LINE
  5
EA
330
36
100
AcDbEntity
  8
001
 62
     3
100
AcDbLine
 10
-14.570518
 20
31.096748
 30
0.0
 11
-89.570518
 21
31.096748
 31
0.0
  0
LINE
  5
EB
330
36
100
AcDbEntity
  8
001
 62
     3
100
AcDbLine
 10
26.429482
 20
24.096748
 30
0.0
 11
26.429482
 21
16.596748
 31
0.0
  0
LINE
  5
EC
330
36
100
AcDbEntity
  8
001
 62
     3
100
AcDbLine
 10
-92.57051800000001
 20
4.596748
 30
0.0
 11
-91.57051800000001
 21
4.596748
 31
0.0
  0
LINE
  5
ED
330
36
100
AcDbEntity
  8
001
 62
     3
100
AcDbLine
 10
-92.57051800000001
 20
28.596748
 30
0.0
 11
-91.57051800000001
 21
28.596748
 31
0.0
  0
ARC
  5
EE
330
36
100
AcDbEntity
  8
001
 62
     3
100
AcDbCircle
 10
-89.570518
 20
29.096748
 30
0.0
 40
2.0
100
AcDbArc
 50
90.0
 51
180.0
  0
ARC
  5
EF
330
36
100
AcDbEntity
  8
001
 62
     3
100
AcDbCircle
 10
-89.570518
 20
4.096748
 30
0.0
 40
2.0
100
AcDbArc
 50
180.0
 51
270.0
  0
LINE
  5
F0
330
36
100
AcDbEntity
  8
001
 62
     3
100
AcDbLine
 10
5.429482
 20
24.596748
 30
0.0
 11
23.429482
 21
24.596748
 31
0.0
  0
ARC
  5
F1
330
36
100
AcDbEntity
  8
001
 62
     3
100
AcDbCircle
 10
24.929482
 20
24.096748
 30
0.0
 40
1.5
100
AcDbArc
 50
0.0
 51
180.0
  0
LINE
  5
F2
330
36
100
AcDbEntity
  8
001
 62
     3
100
AcDbLine
 10
5.429482
 20
24.596748
 30
0.0
 11
5.429482
 21
16.596748
 31
0.0
  0
LINE
  5
F3
330
36
100
AcDbEntity
  8
001
 62
     3
100
AcDbLine
 10
-11.070518
 20
28.096748
 30
0.0
 11
-10.570518
 21
28.096748
 31
0.0
  0
ARC
  5
F4
330
36
100
AcDbEntity
  8
001
 62
     3
100
AcDbCircle
 10
-14.570518
 20
29.096748
 30
0.0
 40
2.0
100
AcDbArc
 50
0.0
 51
90.0
  0
ARC
  5
F5
330
36
100
AcDbEntity
  8
001
 62
     3
100
AcDbCircle
 10
-11.070518
 20
29.596748
 30
0.0
 40
1.5
100
AcDbArc
 50
180.0
 51
270.0
  0
LINE
  5
F6
330
36
100
AcDbEntity
  8
001
 62
     3
100
AcDbLine
 10
5.429482
 20
24.596748
 30
0.0
 11
-10.570518
 21
28.096748
 31
0.0
  0
LINE
  5
F7
330
36
100
AcDbEntity
  8
001
 62
     3
100
AcDbLine
 10
-10.570518
 20
28.096748
 30
0.0
 11
-10.570518
 21
16.596748
 31
0.0
  0
LINE
  5
F8
330
36
100
AcDbEntity
  8
001
 62
     3
100
AcDbLine
 10
26.429482
 20
21.346748
 30
0.0
 11
35.185455
 21
21.346748
 31
0.0
  0
LINE
  5
F9
330
36
100
AcDbEntity
  8
001
 62
     3
100
AcDbLine
 10
26.429482
 20
9.096747999999999
 30
0.0
 11
26.429482
 21
16.596748
 31
0.0
  0
LINE
  5
FA
330
36
100
AcDbEntity
  8
001
 62
     3
100
AcDbLine
 10
5.429482
 20
8.596747999999998
 30
0.0
 11
23.429482
 21
8.596747999999998
 31
0.0
  0
ARC
  5
FB
330
36
100
AcDbEntity
  8
001
 62
     3
100
AcDbCircle
 10
24.929482
 20
9.096747999999999
 30
0.0
 40
1.5
100
AcDbArc
 50
180.0
 51
0.0
  0
LINE
  5
FC
330
36
100
AcDbEntity
  8
001
 62
     3
100
AcDbLine
 10
5.429482
 20
8.596747999999998
 30
0.0
 11
5.429482
 21
16.596748
 31
0.0
  0
LINE
  5
FD
330
36
100
AcDbEntity
  8
001
 62
     3
100
AcDbLine
 10
-11.070518
 20
5.096748
 30
0.0
 11
-10.570518
 21
5.096748
 31
0.0
  0
ARC
  5
FE
330
36
100
AcDbEntity
  8
001
 62
     3
100
AcDbCircle
 10
-14.570518
 20
4.096748
 30
0.0
 40
2.0
100
AcDbArc
 50
270.0
 51
0.0
  0
ARC
  5
FF
330
36
100
AcDbEntity
  8
001
 62
     3
100
AcDbCircle
 10
-11.070518
 20
3.596748
 30
0.0
 40
1.5
100
AcDbArc
 50
90.0
 51
180.0
  0
LINE
  5
100
330
36
100
AcDbEntity
  8
001
 62
     3
100
AcDbLine
 10
5.429482
 20
8.596747999999998
 30
0.0
 11
-10.570518
 21
5.096748
 31
0.0
  0
LINE
  5
101
330
36
100
AcDbEntity
  8
001
 62
     3
100
AcDbLine
 10
-10.570518
 20
5.096748
 30
0.0
 11
-10.570518
 21
16.596748
 31
0.0
  0
LINE
  5
102
330
36
100
AcDbEntity
  8
001
 62
     3
100
AcDbLine
 10
26.429482
 20
11.846748
 30
0.0
 11
34.007997
 21
11.846748
 31
0.0
  0
LINE
  5
103
330
36
100
AcDbEntity
  8
001
 62
     3
100
AcDbLine
 10
-87.57051800000002
 20
8.596747999999998
 30
0.0
 11
-87.57051800000002
 21
24.596748
 31
0.0
  0
LINE
  5
104
330
36
100
AcDbEntity
  8
001
 62
     3
100
AcDbLine
 10
-77.57051800000002
 20
8.596747999999998
 30
0.0
 11
-77.57051800000002
 21
24.596748
 31
0.0
  0
LINE
  5
105
330
36
100
AcDbEntity
  8
001
 62
     3
100
AcDbLine
 10
-26.99846
 20
27.682418
 30
0.0
 11
-25.070518
 21
16.596748
 31
0.0
  0
LINE
  5
106
330
36
100
AcDbEntity
  8
001
 62
     3
100
AcDbLine
 10
-26.99846
 20
5.511076999999998
 30
0.0
 11
-25.070518
 21
16.596748
 31
0.0
  0
LINE
  5
107
330
36
100
AcDbEntity
  8
001
 62
     3
100
AcDbLine
 10
-40.142575
 20
5.511076999999998
 30
0.0
 11
-42.070518
 21
16.596748
 31
0.0
  0
LINE
  5
108
330
36
100
AcDbEntity
  8
001
 62
     3
100
AcDbLine
 10
-40.142575
 20
27.682418
 30
0.0
 11
-42.070518
 21
16.596748
 31
0.0
  0
LINE
  5
109
330
36
100
AcDbEntity
  8
001
 62
     3
100
AcDbLine
 10
-55.99845999999999
 20
27.682418
 30
0.0
 11
-54.07051800000001
 21
16.596748
 31
0.0
  0
LINE
  5
10A
330
36
100
AcDbEntity
  8
001
 62
     3
100
AcDbLine
 10
-55.99845999999999
 20
5.511076999999998
 30
0.0
 11
-54.07051800000001
 21
16.596748
 31
0.0
  0
LINE
  5
10B
330
36
100
AcDbEntity
  8
001
 62
     3
100
AcDbLine
 10
-69.14257499999999
 20
5.511076999999998
 30
0.0
 11
-71.070518
 21
16.596748
 31
0.0
  0
LINE
  5
10C
330
36
100
AcDbEntity
  8
001
 62
     3
100
AcDbLine
 10
-69.14257499999999
 20
27.682418
 30
0.0
 11
-71.070518
 21
16.596748
 31
0.0
  0
LINE
  5
10D
330
36
100
AcDbEntity
  8
001
 62
     3
100
AcDbLine
 10
-56.491066
 20
28.096748
 30
0.0
 11
-68.649969
 21
28.096748
 31
0.0
  0
LINE
  5
10E
330
36
100
AcDbEntity
  8
001
 62
     3
100
AcDbLine
 10
-39.649969
 20
28.096748
 30
0.0
 11
-27.491066
 21
28.096748
 31
0.0
  0
LINE
  5
10F
330
36
100
AcDbEntity
  8
001
 62
     3
100
AcDbLine
 10
-68.649969
 20
5.096748
 30
0.0
 11
-56.491066
 21
5.096748
 31
0.0
  0
LINE
  5
110
330
36
100
AcDbEntity
  8
001
 62
     3
100
AcDbLine
 10
-27.491066
 20
5.096748
 30
0.0
 11
-39.649969
 21
5.096748
 31
0.0
  0
LINE
  5
111
330
36
100
AcDbEntity
  8
001
 62
     3
100
AcDbLine
 10
-87.57051800000002
 20
24.596748
 30
0.0
 11
-77.57051800000002
 21
24.596748
 31
0.0
  0
LINE
  5
112
330
36
100
AcDbEntity
  8
001
 62
     3
100
AcDbLine
 10
-87.57051800000002
 20
8.596747999999998
 30
0.0
 11
-77.57051800000002
 21
8.596747999999998
 31
0.0
  0
LINE
  5
113
330
36
100
AcDbEntity
  8
001
 62
     3
100
AcDbLine
 10
-66.070518
 20
21.796748
 30
0.0
 11
-59.07051800000001
 21
21.796748
 31
0.0
  0
LINE
  5
114
330
36
100
AcDbEntity
  8
001
 62
     3
100
AcDbLine
 10
-37.070518
 20
21.796748
 30
0.0
 11
-30.070518
 21
21.796748
 31
0.0
  0
LINE
  5
115
330
36
100
AcDbEntity
  8
001
 62
     3
100
AcDbLine
 10
-66.070518
 20
24.096748
 30
0.0
 11
-59.07051800000001
 21
24.096748
 31
0.0
  0
LINE
  5
116
330
36
100
AcDbEntity
  8
001
 62
     3
100
AcDbLine
 10
-37.070518
 20
24.096748
 30
0.0
 11
-30.070518
 21
24.096748
 31
0.0
  0
LINE
  5
117
330
36
100
AcDbEntity
  8
001
 62
     3
100
AcDbLine
 10
-66.070518
 20
11.396748
 30
0.0
 11
-59.07051800000001
 21
11.396748
 31
0.0
  0
LINE
  5
118
330
36
100
AcDbEntity
  8
001
 62
     3
100
AcDbLine
 10
-37.070518
 20
11.396748
 30
0.0
 11
-30.070518
 21
11.396748
 31
0.0
  0
LINE
  5
119
330
36
100
AcDbEntity
  8
001
 62
     3
100
AcDbLine
 10
-66.070518
 20
9.096747999999999
 30
0.0
 11
-59.07051800000001
 21
9.096747999999999
 31
0.0
  0
LINE
  5
11A
330
36
100
AcDbEntity
  8
001
 62
     3
100
AcDbLine
 10
-37.070518
 20
9.096747999999999
 30
0.0
 11
-30.070518
 21
9.096747999999999
 31
0.0
  0
LINE
  5
11B
330
36
100
AcDbEntity
  8
001
 62
     3
100
AcDbLine
 10
-30.070518
 20
24.096748
 30
0.0
 11
-30.070518
 21
21.796748
 31
0.0
  0
LINE
  5
11C
330
36
100
AcDbEntity
  8
001
 62
     3
100
AcDbLine
 10
-30.070518
 20
11.396748
 30
0.0
 11
-30.070518
 21
9.096747999999999
 31
0.0
  0
LINE
  5
11D
330
36
100
AcDbEntity
  8
001
 62
     3
100
AcDbLine
 10
-37.070518
 20
24.096748
 30
0.0
 11
-37.070518
 21
21.796748
 31
0.0
  0
LINE
  5
11E
330
36
100
AcDbEntity
  8
001
 62
     3
100
AcDbLine
 10
-37.070518
 20
11.396748
 30
0.0
 11
-37.070518
 21
9.096747999999999
 31
0.0
  0
LINE
  5
11F
330
36
100
AcDbEntity
  8
001
 62
     3
100
AcDbLine
 10
-59.07051800000001
 20
24.096748
 30
0.0
 11
-59.07051800000001
 21
21.796748
 31
0.0
  0
LINE
  5
120
330
36
100
AcDbEntity
  8
001
 62
     3
100
AcDbLine
 10
-59.07051800000001
 20
11.396748
 30
0.0
 11
-59.07051800000001
 21
9.096747999999999
 31
0.0
  0
LINE
  5
121
330
36
100
AcDbEntity
  8
001
 62
     3
100
AcDbLine
 10
-66.070518
 20
24.096748
 30
0.0
 11
-66.070518
 21
21.796748
 31
0.0
  0
LINE
  5
122
330
36
100
AcDbEntity
  8
001
 62
     3
100
AcDbLine
 10
-66.070518
 20
11.396748
 30
0.0
 11
-66.070518
 21
9.096747999999999
 31
0.0
  0
ARC
  5
123
330
36
100
AcDbEntity
  8
001
 62
     3
100
AcDbCircle
 10
-27.491066
 20
27.596748
 30
0.0
 40
0.5
100
AcDbArc
 50
9.865807
 51
90.0
  0
ARC
  5
124
330
36
100
AcDbEntity
  8
001
 62
     3
100
AcDbCircle
 10
-39.649969
 20
27.596748
 30
0.0
 40
0.5
100
AcDbArc
 50
90.0
 51
170.134193
  0
ARC
  5
125
330
36
100
AcDbEntity
  8
001
 62
     3
100
AcDbCircle
 10
-39.649969
 20
5.596748
 30
0.0
 40
0.5
100
AcDbArc
 50
189.865807
 51
270.0
  0
ARC
  5
126
330
36
100
AcDbEntity
  8
001
 62
     3
100
AcDbCircle
 10
-27.491066
 20
5.596748
 30
0.0
 40
0.5
100
AcDbArc
 50
270.0
 51
350.1341930000001
  0
ARC
  5
127
330
36
100
AcDbEntity
  8
001
 62
     3
100
AcDbCircle
 10
-56.491066
 20
5.596748
 30
0.0
 40
0.5
100
AcDbArc
 50
270.0
 51
350.1341930000001
  0
ARC
  5
128
330
36
100
AcDbEntity
  8
001
 62
     3
100
AcDbCircle
 10
-68.649969
 20
5.596748
 30
0.0
 40
0.5
100
AcDbArc
 50
189.865807
 51
270.0
  0
ARC
  5
129
330
36
100
AcDbEntity
  8
001
 62
     3
100
AcDbCircle
 10
-68.649969
 20
27.596748
 30
0.0
 40
0.5
100
AcDbArc
 50
90.0
 51
170.134193
  0
ARC
  5
12A
330
36
100
AcDbEntity
  8
001
 62
     3
100
AcDbCircle
 10
-56.491066
 20
27.596748
 30
0.0
 40
0.5
100
AcDbArc
 50
9.865807
 51
90.0
  0
LINE
  5
12B
330
36
100
AcDbEntity
  8
001
 62
     3
100
AcDbLine
 10
-106.409913
 20
27.686872
 30
0.0
 11
-104.48197
 21
16.601201
 31
0.0
  0
LINE
  5
12C
330
36
100
AcDbEntity
  8
001
 62
     3
100
AcDbLine
 10
-106.409913
 20
5.51553
 30
0.0
 11
-104.48197
 21
16.601201
 31
0.0
  0
LINE
  5
12D
330
36
100
AcDbEntity
  8
001
 62
     3
100
AcDbLine
 10
-119.554027
 20
5.51553
 30
0.0
 11
-121.48197
 21
16.601201
 31
0.0
  0
LINE
  5
12E
330
36
100
AcDbEntity
  8
001
 62
     3
100
AcDbLine
 10
-119.554027
 20
27.686872
 30
0.0
 11
-121.48197
 21
16.601201
 31
0.0
  0
LINE
  5
12F
330
36
100
AcDbEntity
  8
001
 62
     3
100
AcDbLine
 10
-106.902519
 20
28.101201
 30
0.0
 11
-119.061421
 21
28.101201
 31
0.0
  0
LINE
  5
130
330
36
100
AcDbEntity
  8
001
 62
     3
100
AcDbLine
 10
-119.061421
 20
5.101201
 30
0.0
 11
-106.902519
 21
5.101201
 31
0.0
  0
LINE
  5
131
330
36
100
AcDbEntity
  8
001
 62
     3
100
AcDbLine
 10
-116.48197
 20
21.801201
 30
0.0
 11
-109.48197
 21
21.801201
 31
0.0
  0
LINE
  5
132
330
36
100
AcDbEntity
  8
001
 62
     3
100
AcDbLine
 10
-116.48197
 20
24.101201
 30
0.0
 11
-109.48197
 21
24.101201
 31
0.0
  0
LINE
  5
133
330
36
100
AcDbEntity
  8
001
 62
     3
100
AcDbLine
 10
-116.48197
 20
11.401201
 30
0.0
 11
-109.48197
 21
11.401201
 31
0.0
  0
LINE
  5
134
330
36
100
AcDbEntity
  8
001
 62
     3
100
AcDbLine
 10
-116.48197
 20
9.101200999999999
 30
0.0
 11
-109.48197
 21
9.101200999999999
 31
0.0
  0
LINE
  5
135
330
36
100
AcDbEntity
  8
001
 62
     3
100
AcDbLine
 10
-109.48197
 20
24.101201
 30
0.0
 11
-109.48197
 21
21.801201
 31
0.0
  0
LINE
  5
136
330
36
100
AcDbEntity
  8
001
 62
     3
100
AcDbLine
 10
-109.48197
 20
11.401201
 30
0.0
 11
-109.48197
 21
9.101200999999999
 31
0.0
  0
LINE
  5
137
330
36
100
AcDbEntity
  8
001
 62
     3
100
AcDbLine
 10
-116.48197
 20
24.101201
 30
0.0
 11
-116.48197
 21
21.801201
 31
0.0
  0
LINE
  5
138
330
36
100
AcDbEntity
  8
001
 62
     3
100
AcDbLine
 10
-116.48197
 20
11.401201
 30
0.0
 11
-116.48197
 21
9.101200999999999
 31
0.0
  0
ARC
  5
139
330
36
100
AcDbEntity
  8
001
 62
     3
100
AcDbCircle
 10
-106.902519
 20
5.601201
 30
0.0
 40
0.5
100
AcDbArc
 50
270.0
 51
350.1341930000001
  0
ARC
  5
13A
330
36
100
AcDbEntity
  8
001
 62
     3
100
AcDbCircle
 10
-119.061421
 20
5.601201
 30
0.0
 40
0.5
100
AcDbArc
 50
189.865807
 51
270.0
  0
ARC
  5
13B
330
36
100
AcDbEntity
  8
001
 62
     3
100
AcDbCircle
 10
-119.061421
 20
27.601201
 30
0.0
 40
0.5
100
AcDbArc
 50
90.0
 51
170.134193
  0
ARC
  5
13C
330
36
100
AcDbEntity
  8
001
 62
     3
100
AcDbCircle
 10
-106.902519
 20
27.601201
 30
0.0
 40
0.5
100
AcDbArc
 50
9.865807
 51
90.0
  0
LINE
  5
13D
330
36
100
AcDbEntity
  8
001
 62
     3
100
AcDbLine
 10
-121.98197
 20
31.096748
 30
0.0
 11
-103.98197
 21
31.096748
 31
0.0
  0
LINE
  5
13E
330
36
100
AcDbEntity
  8
001
 62
     3
100
AcDbLine
 10
-103.98197
 20
2.096747999999998
 30
0.0
 11
-121.98197
 21
2.096747999999998
 31
0.0
  0
LINE
  5
13F
330
36
100
AcDbEntity
  8
001
 62
     3
100
AcDbLine
 10
-123.98197
 20
4.096748
 30
0.0
 11
-123.98197
 21
29.096748
 31
0.0
  0
LINE
  5
140
330
36
100
AcDbEntity
  8
001
 62
     3
100
AcDbLine
 10
-101.98197
 20
4.096748
 30
0.0
 11
-101.98197
 21
29.096748
 31
0.0
  0
ARC
  5
141
330
36
100
AcDbEntity
  8
001
 62
     3
100
AcDbCircle
 10
-103.98197
 20
29.096748
 30
0.0
 40
2.0
100
AcDbArc
 50
0.0
 51
90.0
  0
ARC
  5
142
330
36
100
AcDbEntity
  8
001
 62
     3
100
AcDbCircle
 10
-121.98197
 20
29.096748
 30
0.0
 40
2.0
100
AcDbArc
 50
90.0
 51
180.0
  0
ARC
  5
143
330
36
100
AcDbEntity
  8
001
 62
     3
100
AcDbCircle
 10
-121.98197
 20
4.096748
 30
0.0
 40
2.0
100
AcDbArc
 50
180.0
 51
270.0
  0
ARC
  5
144
330
36
100
AcDbEntity
  8
001
 62
     3
100
AcDbCircle
 10
-103.98197
 20
4.096748
 30
0.0
 40
2.0
100
AcDbArc
 50
270.0
 51
0.0
  0
TEXT
  5
145
330
36
100
AcDbEntity
  8
001
 62
     3
100
AcDbText
 10
-71.593377
 20
52.85923
 30
0.0
 40
3.2
  1
15A 125V
 41
0.9099199999999999
100
AcDbText
  0
TEXT
  5
146
330
36
100
AcDbEntity
  8
001
 62
     3
100
AcDbText
 10
-74.45870699999997
 20
60.603363
 30
0.0
 40
3.2
  1
<PS>E JET
 41
0.8529129999999998
100
AcDbText
  0
LINE
  5
147
330
36
100
AcDbEntity
  8
001
 62
     3
100
AcDbLine
 10
-50.258289
 20
60.78313000000001
 30
0.0
 11
-50.258289
 21
63.831015
 31
0.0
  0
CIRCLE
  5
148
330
36
100
AcDbEntity
  8
001
 62
     3
100
AcDbCircle
 10
-50.258289
 20
62.30707299999998
 30
0.0
 40
1.523941999999999
  0
LINE
  5
149
330
36
100
AcDbEntity
  8
001
 62
     3
100
AcDbLine
 10
-50.258289
 20
60.78313000000001
 30
0.0
 11
-48.713085
 21
63.55720999999999
 31
0.0
  0
LINE
  5
14A
330
36
100
AcDbEntity
  8
001
 62
     3
100
AcDbLine
 10
-50.258289
 20
63.831015
 30
0.0
 11
-51.860987
 21
61.079074
 31
0.0
  0
TEXT
  5
14C
330
36
100
AcDbEntity
  8
001
 62
     3
100
AcDbText
 10
82.66542199999998
 20
72.446055
 30
0.0
 40
3.2
  1
電取り認証表示変更
 41
0.833333
100
AcDbText
  0
TEXT
  5
14D
330
36
100
AcDbEntity
  8
001
 62
     3
100
AcDbText
 10
126.242089
 20
72.446055
 30
0.0
 40
3.2
  1
　牧田
 41
0.833333
100
AcDbText
  0
TEXT
  5
14E
330
36
100
AcDbEntity
  8
001
 62
     3
100
AcDbText
 10
64.34504699999999
 20
72.446055
 30
0.0
 40
3.2
  1
03.1.21
 41
1.17449
100
AcDbText
  0
LINE
  5
154
330
36
100
AcDbEntity
  8
001
100
AcDbLine
 10
118.516438
 20
25.12201
 30
0.0
 11
131.533611
 21
38.295518
 31
0.0
  0
LINE
  5
155
330
36
100
AcDbEntity
  8
001
100
AcDbLine
 10
131.533611
 20
38.295518
 30
0.0
 11
109.533611
 21
38.295518
 31
0.0
  0
TEXT
  5
156
330
36
100
AcDbEntity
  8
001
 62
     4
100
AcDbText
 10
112.283611
 20
39.295518
 30
0.0
 40
3.2
  1
定格表示刻印
 41
0.716146
100
AcDbText
  0
LINE
  5
15C
330
36
100
AcDbEntity
  8
001
100
AcDbLine
 10
-79.506265
 20
24.549571
 30
0.0
 11
-72.633033
 21
41.034414
 31
0.0
  0
LINE
  5
15D
330
36
100
AcDbEntity
  8
001
100
AcDbLine
 10
-72.633033
 20
41.034414
 30
0.0
 11
-50.63303300000001
 21
41.034414
 31
0.0
  0
TEXT
  5
15E
330
36
100
AcDbEntity
  8
001
 62
     4
100
AcDbText
 10
-69.883033
 20
42.03441399999999
 30
0.0
 40
3.2
  1
定格表示刻印
 41
0.716146
100
AcDbText
  0
TEXT
  5
171
330
36
100
AcDbEntity
  8
001
 62
     3
100
AcDbText
 10
4.941718999999999
 20
-11.151804
 30
0.0
 40
4.5
  1
電線長さ
 41
0.833333
100
AcDbText
  0
LINE
  5
172
330
36
100
AcDbEntity
  8
001
100
AcDbLine
 10
-91.35419125513902
 20
-41.88054747252392
 30
0.0
 11
-4.567446255138996
 21
-41.88054747252392
 31
0.0
  0
LINE
  5
173
330
36
100
AcDbEntity
  8
001
 62
     3
100
AcDbLine
 10
105.27204
 20
56.36213000000001
 30
0.0
 11
105.27204
 21
36.36213
 31
0.0
  0
LINE
  5
174
330
36
100
AcDbEntity
  8
001
 62
     3
100
AcDbLine
 10
77.27204
 20
36.36213
 30
0.0
 11
77.27204
 21
56.36213000000001
 31
0.0
  0
LINE
  5
175
330
36
100
AcDbEntity
  8
001
 62
     3
100
AcDbLine
 10
105.27204
 20
56.36213000000001
 30
0.0
 11
77.27204
 21
56.36213000000001
 31
0.0
  0
LINE
  5
176
330
36
100
AcDbEntity
  8
001
 62
     3
100
AcDbLine
 10
105.27204
 20
36.36213
 30
0.0
 11
77.27204
 21
36.36213
 31
0.0
  0
TEXT
  5
177
330
36
100
AcDbEntity
  8
001
 62
     3
100
AcDbText
 10
80.94887699999999
 20
39.982115
 30
0.0
 40
3.2
  1
15A 125V
 41
0.9099199999999999
100
AcDbText
  0
TEXT
  5
178
330
36
100
AcDbEntity
  8
001
 62
     3
100
AcDbText
 10
78.083548
 20
47.726248
 30
0.0
 40
3.2
  1
<PS>E JET
 41
0.8529129999999998
100
AcDbText
  0
LINE
  5
179
330
36
100
AcDbEntity
  8
001
 62
     3
100
AcDbLine
 10
102.283965
 20
47.906015
 30
0.0
 11
102.283965
 21
50.9539
 31
0.0
  0
CIRCLE
  5
17A
330
36
100
AcDbEntity
  8
001
 62
     3
100
AcDbCircle
 10
102.283965
 20
49.429957
 30
0.0
 40
1.523941999999999
  0
LINE
  5
17B
330
36
100
AcDbEntity
  8
001
 62
     3
100
AcDbLine
 10
102.283965
 20
47.906015
 30
0.0
 11
103.82917
 21
50.680095
 31
0.0
  0
LINE
  5
17C
330
36
100
AcDbEntity
  8
001
 62
     3
100
AcDbLine
 10
102.283965
 20
50.9539
 30
0.0
 11
100.681268
 21
48.201959
 31
0.0
  0
LINE
  5
17D
330
36
100
AcDbEntity
  8
001
100
AcDbLine
 10
54.90941
 20
72.194611
 30
0.0
 11
138.50941
 21
72.194611
 31
0.0
  0
LINE
  5
17E
330
36
100
AcDbEntity
  8
001
100
AcDbLine
 10
126.911885
 20
85.426348
 30
0.0
 11
126.911885
 21
65.54461100000001
 31
0.0
  0
LINE
  5
17F
330
36
100
AcDbEntity
  8
001
100
AcDbLine
 10
54.90941
 20
78.844611
 30
0.0
 11
138.50941
 21
78.844611
 31
0.0
  0
LINE
  5
180
330
36
100
AcDbEntity
  8
001
100
AcDbLine
 10
65.014843
 20
85.494611
 30
0.0
 11
65.014843
 21
65.54461100000001
 31
0.0
  0
LINE
  5
181
330
36
100
AcDbEntity
  8
001
100
AcDbLine
 10
82.62016899999997
 20
84.988434
 30
0.0
 11
82.62016899999997
 21
65.54461100000001
 31
0.0
  0
LINE
  5
182
330
36
100
AcDbEntity
  8
001
100
AcDbLine
 10
117.581533
 20
10.92
 30
0.0
 11
133.97544
 21
10.92
 31
0.0
  0
LINE
  5
183
330
36
100
AcDbEntity
  8
001
100
AcDbLine
 10
117.581533
 20
9.419999999999999
 30
0.0
 11
133.97544
 21
9.419999999999999
 31
0.0
  0
LINE
  5
184
330
36
100
AcDbEntity
  8
001
100
AcDbLine
 10
117.581533
 20
22.12
 30
0.0
 11
133.97544
 21
22.12
 31
0.0
  0
LINE
  5
185
330
36
100
AcDbEntity
  8
001
100
AcDbLine
 10
117.581533
 20
23.62
 30
0.0
 11
133.97544
 21
23.62
 31
0.0
  0
LINE
  5
186
330
36
100
AcDbEntity
  8
001
100
AcDbLine
 10
133.97544
 20
23.62
 30
0.0
 11
134.581533
 21
23.428602
 31
0.0
  0
LINE
  5
187
330
36
100
AcDbEntity
  8
001
100
AcDbLine
 10
133.97544
 20
22.12
 30
0.0
 11
134.581533
 21
22.311398
 31
0.0
  0
LINE
  5
188
330
36
100
AcDbEntity
  8
001
100
AcDbLine
 10
133.97544
 20
10.92
 30
0.0
 11
134.581533
 21
10.728602
 31
0.0
  0
LINE
  5
189
330
36
100
AcDbEntity
  8
001
100
AcDbLine
 10
133.97544
 20
9.419999999999999
 30
0.0
 11
134.581533
 21
9.611397999999999
 31
0.0
  0
LINE
  5
18A
330
36
100
AcDbEntity
  8
001
100
AcDbLine
 10
134.581533
 20
23.428602
 30
0.0
 11
134.581533
 21
22.311398
 31
0.0
  0
LINE
  5
18B
330
36
100
AcDbEntity
  8
001
100
AcDbLine
 10
134.581533
 20
10.728602
 30
0.0
 11
134.581533
 21
9.611397999999999
 31
0.0
  0
LINE
  5
18C
330
36
100
AcDbEntity
  8
001
100
AcDbLine
 10
81.581533
 20
26.27
 30
0.0
 11
81.581533
 21
6.769999999999998
 31
0.0
  0
LINE
  5
18D
330
36
100
AcDbEntity
  8
001
100
AcDbLine
 10
50.581533
 20
16.52
 30
0.0
 11
50.581533
 21
24.066875
 31
0.0
  0
LINE
  5
18E
330
36
100
AcDbEntity
  8
001
100
AcDbLine
 10
52.381533
 20
16.52
 30
0.0
 11
52.381533
 21
24.095
 31
0.0
  0
LINE
  5
18F
330
36
100
AcDbEntity
  8
001
100
AcDbLine
 10
57.78153299999999
 20
24.179375
 30
0.0
 11
57.78153299999999
 21
16.52
 31
0.0
  0
LINE
  5
190
330
36
100
AcDbEntity
  8
001
100
AcDbLine
 10
59.58153299999999
 20
16.52
 30
0.0
 11
59.58153299999999
 21
24.2075
 31
0.0
  0
LINE
  5
191
330
36
100
AcDbEntity
  8
001
100
AcDbLine
 10
64.981533
 20
16.52
 30
0.0
 11
64.981533
 21
24.291875
 31
0.0
  0
LINE
  5
192
330
36
100
AcDbEntity
  8
001
100
AcDbLine
 10
66.78153299999999
 20
16.52
 30
0.0
 11
66.78153299999999
 21
24.32
 31
0.0
  0
LINE
  5
193
330
36
100
AcDbEntity
  8
001
100
AcDbLine
 10
54.181533
 20
8.916874999999997
 30
0.0
 11
54.181533
 21
16.52
 31
0.0
  0
LINE
  5
194
330
36
100
AcDbEntity
  8
001
100
AcDbLine
 10
55.98153299999999
 20
8.888749999999998
 30
0.0
 11
55.98153299999999
 21
16.52
 31
0.0
  0
LINE
  5
195
330
36
100
AcDbEntity
  8
001
100
AcDbLine
 10
63.18153299999998
 20
16.52
 30
0.0
 11
63.18153299999998
 21
8.776249999999999
 31
0.0
  0
LINE
  5
196
330
36
100
AcDbEntity
  8
001
100
AcDbLine
 10
61.38153299999999
 20
16.52
 30
0.0
 11
61.38153299999999
 21
8.804375
 31
0.0
  0
ARC
  5
197
330
36
100
AcDbEntity
  8
001
100
AcDbCircle
 10
51.481533
 20
16.534767
 30
0.0
 40
0.900121
100
AcDbArc
 50
180.94
 51
359.06
  0
ARC
  5
198
330
36
100
AcDbEntity
  8
001
100
AcDbCircle
 10
55.081533
 20
16.441476
 30
0.0
 40
0.903419
100
AcDbArc
 50
4.986328
 51
175.013672
  0
ARC
  5
199
330
36
100
AcDbEntity
  8
001
100
AcDbCircle
 10
58.68153299999999
 20
16.520581
 30
0.0
 40
0.9
100
AcDbArc
 50
180.036991
 51
359.963009
  0
ARC
  5
19A
330
36
100
AcDbEntity
  8
001
100
AcDbCircle
 10
62.28153299999998
 20
16.395809
 30
0.0
 40
0.908528
100
AcDbArc
 50
7.856592999999997
 51
172.143407
  0
ARC
  5
19B
330
36
100
AcDbEntity
  8
001
100
AcDbCircle
 10
65.88153299999999
 20
16.546772
 30
0.0
 40
0.9003979999999998
100
AcDbArc
 50
181.70388
 51
358.29612
  0
LINE
  5
19C
330
36
100
AcDbEntity
  8
001
100
AcDbLine
 10
64.981533
 20
21.22
 30
0.0
 11
66.78153299999999
 21
21.22
 31
0.0
  0
LINE
  5
19D
330
36
100
AcDbEntity
  8
001
100
AcDbLine
 10
50.581533
 20
21.22
 30
0.0
 11
52.381533
 21
21.22
 31
0.0
  0
LINE
  5
19E
330
36
100
AcDbEntity
  8
001
100
AcDbLine
 10
57.78153299999999
 20
21.22
 30
0.0
 11
59.58153299999999
 21
21.22
 31
0.0
  0
LINE
  5
19F
330
36
100
AcDbEntity
  8
001
100
AcDbLine
 10
54.181533
 20
11.82
 30
0.0
 11
55.98153299999999
 21
11.82
 31
0.0
  0
LINE
  5
1A0
330
36
100
AcDbEntity
  8
001
100
AcDbLine
 10
61.38153299999999
 20
11.82
 30
0.0
 11
63.18153299999998
 21
11.82
 31
0.0
  0
LINE
  5
1A1
330
36
100
AcDbEntity
  8
001
100
AcDbLine
 10
21.429482
 20
18.695922
 30
0.0
 11
21.429482
 21
24.596748
 31
0.0
  0
LINE
  5
1A2
330
36
100
AcDbEntity
  8
001
100
AcDbLine
 10
19.429482
 20
18.695922
 30
0.0
 11
19.429482
 21
24.596748
 31
0.0
  0
LINE
  5
1A3
330
36
100
AcDbEntity
  8
001
100
AcDbLine
 10
17.429482
 20
18.695922
 30
0.0
 11
17.429482
 21
24.596748
 31
0.0
  0
LINE
  5
1A4
330
36
100
AcDbEntity
  8
001
100
AcDbLine
 10
15.429482
 20
18.695922
 30
0.0
 11
15.429482
 21
24.596748
 31
0.0
  0
LINE
  5
1A5
330
36
100
AcDbEntity
  8
001
100
AcDbLine
 10
13.429482
 20
18.695922
 30
0.0
 11
13.429482
 21
24.596748
 31
0.0
  0
LINE
  5
1A6
330
36
100
AcDbEntity
  8
001
100
AcDbLine
 10
11.429482
 20
18.695922
 30
0.0
 11
11.429482
 21
24.596748
 31
0.0
  0
LINE
  5
1A7
330
36
100
AcDbEntity
  8
001
100
AcDbLine
 10
19.929482
 20
18.195922
 30
0.0
 11
20.929482
 21
18.195922
 31
0.0
  0
ARC
  5
1A8
330
36
100
AcDbEntity
  8
001
100
AcDbCircle
 10
20.929482
 20
18.695922
 30
0.0
 40
0.5
100
AcDbArc
 50
270.0
 51
0.0
  0
ARC
  5
1A9
330
36
100
AcDbEntity
  8
001
100
AcDbCircle
 10
19.929482
 20
18.695922
 30
0.0
 40
0.5
100
AcDbArc
 50
180.0
 51
270.0
  0
LINE
  5
1AA
330
36
100
AcDbEntity
  8
001
100
AcDbLine
 10
15.929482
 20
18.195922
 30
0.0
 11
16.929482
 21
18.195922
 31
0.0
  0
ARC
  5
1AB
330
36
100
AcDbEntity
  8
001
100
AcDbCircle
 10
16.929482
 20
18.695922
 30
0.0
 40
0.5
100
AcDbArc
 50
270.0
 51
0.0
  0
ARC
  5
1AC
330
36
100
AcDbEntity
  8
001
100
AcDbCircle
 10
15.929482
 20
18.695922
 30
0.0
 40
0.5
100
AcDbArc
 50
180.0
 51
270.0
  0
LINE
  5
1AD
330
36
100
AcDbEntity
  8
001
100
AcDbLine
 10
11.929482
 20
18.195922
 30
0.0
 11
12.929482
 21
18.195922
 31
0.0
  0
ARC
  5
1AE
330
36
100
AcDbEntity
  8
001
100
AcDbCircle
 10
12.929482
 20
18.695922
 30
0.0
 40
0.5
100
AcDbArc
 50
270.0
 51
0.0
  0
ARC
  5
1AF
330
36
100
AcDbEntity
  8
001
100
AcDbCircle
 10
11.929482
 20
18.695922
 30
0.0
 40
0.5
100
AcDbArc
 50
180.0
 51
270.0
  0
LINE
  5
1B0
330
36
100
AcDbEntity
  8
001
100
AcDbLine
 10
19.429482
 20
21.346748
 30
0.0
 11
21.429482
 21
21.346748
 31
0.0
  0
LINE
  5
1B1
330
36
100
AcDbEntity
  8
001
100
AcDbLine
 10
11.429482
 20
21.346748
 30
0.0
 11
13.429482
 21
21.346748
 31
0.0
  0
LINE
  5
1B2
330
36
100
AcDbEntity
  8
001
100
AcDbLine
 10
15.429482
 20
21.346748
 30
0.0
 11
17.429482
 21
21.346748
 31
0.0
  0
LINE
  5
1B3
330
36
100
AcDbEntity
  8
001
100
AcDbLine
 10
21.429482
 20
14.497573
 30
0.0
 11
21.429482
 21
8.596747999999998
 31
0.0
  0
LINE
  5
1B4
330
36
100
AcDbEntity
  8
001
100
AcDbLine
 10
19.429482
 20
14.497573
 30
0.0
 11
19.429482
 21
8.596747999999998
 31
0.0
  0
LINE
  5
1B5
330
36
100
AcDbEntity
  8
001
100
AcDbLine
 10
17.429482
 20
14.497573
 30
0.0
 11
17.429482
 21
8.596747999999998
 31
0.0
  0
LINE
  5
1B6
330
36
100
AcDbEntity
  8
001
100
AcDbLine
 10
15.429482
 20
14.497573
 30
0.0
 11
15.429482
 21
8.596747999999998
 31
0.0
  0
LINE
  5
1B7
330
36
100
AcDbEntity
  8
001
100
AcDbLine
 10
13.429482
 20
14.497573
 30
0.0
 11
13.429482
 21
8.596747999999998
 31
0.0
  0
LINE
  5
1B8
330
36
100
AcDbEntity
  8
001
100
AcDbLine
 10
11.429482
 20
14.497573
 30
0.0
 11
11.429482
 21
8.596747999999998
 31
0.0
  0
ARC
  5
1B9
330
36
100
AcDbEntity
  8
001
100
AcDbCircle
 10
20.929482
 20
14.497573
 30
0.0
 40
0.5
100
AcDbArc
 50
0.0
 51
90.0
  0
ARC
  5
1BA
330
36
100
AcDbEntity
  8
001
100
AcDbCircle
 10
19.929482
 20
14.497573
 30
0.0
 40
0.5
100
AcDbArc
 50
90.0
 51
180.0
  0
ARC
  5
1BB
330
36
100
AcDbEntity
  8
001
100
AcDbCircle
 10
16.929482
 20
14.497573
 30
0.0
 40
0.5
100
AcDbArc
 50
0.0
 51
90.0
  0
ARC
  5
1BC
330
36
100
AcDbEntity
  8
001
100
AcDbCircle
 10
15.929482
 20
14.497573
 30
0.0
 40
0.5
100
AcDbArc
 50
90.0
 51
180.0
  0
ARC
  5
1BD
330
36
100
AcDbEntity
  8
001
100
AcDbCircle
 10
12.929482
 20
14.497573
 30
0.0
 40
0.5
100
AcDbArc
 50
0.0
 51
90.0
  0
ARC
  5
1BE
330
36
100
AcDbEntity
  8
001
100
AcDbCircle
 10
11.929482
 20
14.497573
 30
0.0
 40
0.5
100
AcDbArc
 50
90.0
 51
180.0
  0
LINE
  5
1BF
330
36
100
AcDbEntity
  8
001
100
AcDbLine
 10
19.429482
 20
11.846748
 30
0.0
 11
21.429482
 21
11.846748
 31
0.0
  0
LINE
  5
1C0
330
36
100
AcDbEntity
  8
001
100
AcDbLine
 10
11.429482
 20
11.846748
 30
0.0
 11
13.429482
 21
11.846748
 31
0.0
  0
LINE
  5
1C1
330
36
100
AcDbEntity
  8
001
100
AcDbLine
 10
15.429482
 20
11.846748
 30
0.0
 11
17.429482
 21
11.846748
 31
0.0
  0
LINE
  5
1C2
330
36
100
AcDbEntity
  8
001
100
AcDbLine
 10
19.929482
 20
14.997573
 30
0.0
 11
20.929482
 21
14.997573
 31
0.0
  0
LINE
  5
1C3
330
36
100
AcDbEntity
  8
001
100
AcDbLine
 10
15.929482
 20
14.997573
 30
0.0
 11
16.929482
 21
14.997573
 31
0.0
  0
LINE
  5
1C4
330
36
100
AcDbEntity
  8
001
100
AcDbLine
 10
11.929482
 20
14.997573
 30
0.0
 11
12.929482
 21
14.997573
 31
0.0
  0
LINE
  5
1C5
330
36
100
AcDbEntity
  8
001
100
AcDbLine
 10
23.429482
 20
24.596748
 30
0.0
 11
23.429482
 21
16.596748
 31
0.0
  0
LINE
  5
1C6
330
36
100
AcDbEntity
  8
001
100
AcDbLine
 10
23.429482
 20
8.596747999999998
 30
0.0
 11
23.429482
 21
16.596748
 31
0.0
  0
LINE
  5
1C7
330
36
100
AcDbEntity
  8
001
100
AcDbLine
 10
5.429482
 20
17.195012
 30
0.0
 11
-10.570518
 21
26.571571
 31
0.0
  0
LINE
  5
1C8
330
36
100
AcDbEntity
  8
001
100
AcDbLine
 10
5.429482
 20
15.998483
 30
0.0
 11
-10.570518
 21
6.621924
 31
0.0
  0
LINE
  5
1C9
330
36
100
AcDbEntity
  8
001
100
AcDbLine
 10
-27.434884
 20
20.853759
 30
0.0
 11
-28.200101
 21
25.253759
 31
0.0
  0
ARC
  5
1CA
330
36
100
AcDbEntity
  8
001
100
AcDbCircle
 10
-29.677919
 20
24.996748
 30
0.0
 40
1.5
100
AcDbArc
 50
9.865807
 51
90.0
  0
LINE
  5
1CB
330
36
100
AcDbEntity
  8
001
100
AcDbLine
 10
-37.463116
 20
26.496748
 30
0.0
 11
-29.677919
 21
26.496748
 31
0.0
  0
ARC
  5
1CC
330
36
100
AcDbEntity
  8
001
100
AcDbCircle
 10
-37.463116
 20
24.996748
 30
0.0
 40
1.5
100
AcDbArc
 50
90.0
 51
170.134193
  0
LINE
  5
1CD
330
36
100
AcDbEntity
  8
001
100
AcDbLine
 10
-39.706151
 20
20.853759
 30
0.0
 11
-38.94093400000001
 21
25.253759
 31
0.0
  0
ARC
  5
1CE
330
36
100
AcDbEntity
  8
001
100
AcDbCircle
 10
-38.228334
 20
20.596748
 30
0.0
 40
1.5
100
AcDbArc
 50
170.134193
 51
270.0
  0
LINE
  5
1CF
330
36
100
AcDbEntity
  8
001
100
AcDbLine
 10
-28.912701
 20
19.096748
 30
0.0
 11
-38.228334
 21
19.096748
 31
0.0
  0
ARC
  5
1D0
330
36
100
AcDbEntity
  8
001
100
AcDbCircle
 10
-28.912701
 20
20.596748
 30
0.0
 40
1.5
100
AcDbArc
 50
270.0
 51
9.865807
  0
ARC
  5
1D1
330
36
100
AcDbEntity
  8
001
100
AcDbCircle
 10
-28.8112
 20
12.596748
 30
0.0
 40
1.5
100
AcDbArc
 50
350.1341930000001
 51
90.0
  0
LINE
  5
1D2
330
36
100
AcDbEntity
  8
001
100
AcDbLine
 10
-28.8112
 20
14.096748
 30
0.0
 11
-38.228334
 21
14.096748
 31
0.0
  0
LINE
  5
1D3
330
36
100
AcDbEntity
  8
001
100
AcDbLine
 10
-27.333383
 20
12.339736
 30
0.0
 11
-28.115991
 21
7.839736
 31
0.0
  0
ARC
  5
1D4
330
36
100
AcDbEntity
  8
001
100
AcDbCircle
 10
-29.59380900000001
 20
8.096747999999998
 30
0.0
 40
1.5
100
AcDbArc
 50
270.0
 51
350.1341930000001
  0
LINE
  5
1D5
330
36
100
AcDbEntity
  8
001
100
AcDbLine
 10
-29.59380900000001
 20
6.596747999999998
 30
0.0
 11
-37.445725
 21
6.596747999999998
 31
0.0
  0
ARC
  5
1D6
330
36
100
AcDbEntity
  8
001
100
AcDbCircle
 10
-37.445725
 20
8.096747999999998
 30
0.0
 40
1.5
100
AcDbArc
 50
189.865807
 51
270.0
  0
LINE
  5
1D7
330
36
100
AcDbEntity
  8
001
100
AcDbLine
 10
-38.923543
 20
7.839736
 30
0.0
 11
-39.706151
 21
12.339736
 31
0.0
  0
ARC
  5
1D8
330
36
100
AcDbEntity
  8
001
100
AcDbCircle
 10
-38.228334
 20
12.596748
 30
0.0
 40
1.5
100
AcDbArc
 50
90.0
 51
189.865807
  0
ARC
  5
1D9
330
36
100
AcDbEntity
  8
001
100
AcDbCircle
 10
-57.8112
 20
20.596748
 30
0.0
 40
1.5
100
AcDbArc
 50
270.0
 51
9.865807
  0
LINE
  5
1DA
330
36
100
AcDbEntity
  8
001
100
AcDbLine
 10
-67.329835
 20
19.096748
 30
0.0
 11
-57.8112
 21
19.096748
 31
0.0
  0
LINE
  5
1DB
330
36
100
AcDbEntity
  8
001
100
AcDbLine
 10
-57.115991
 20
25.353759
 30
0.0
 11
-56.333383
 21
20.853759
 31
0.0
  0
ARC
  5
1DC
330
36
100
AcDbEntity
  8
001
100
AcDbCircle
 10
-58.593809
 20
25.096748
 30
0.0
 40
1.5
100
AcDbArc
 50
9.865807
 51
90.0
  0
LINE
  5
1DD
330
36
100
AcDbEntity
  8
001
100
AcDbLine
 10
-58.593809
 20
26.596748
 30
0.0
 11
-66.54722599999999
 21
26.596748
 31
0.0
  0
ARC
  5
1DE
330
36
100
AcDbEntity
  8
001
100
AcDbCircle
 10
-66.54722599999999
 20
25.096748
 30
0.0
 40
1.5
100
AcDbArc
 50
90.0
 51
170.134193
  0
LINE
  5
1DF
330
36
100
AcDbEntity
  8
001
100
AcDbLine
 10
-68.025044
 20
25.353759
 30
0.0
 11
-68.807652
 21
20.853759
 31
0.0
  0
ARC
  5
1E0
330
36
100
AcDbEntity
  8
001
100
AcDbCircle
 10
-67.329835
 20
20.596748
 30
0.0
 40
1.5
100
AcDbArc
 50
170.134193
 51
270.0
  0
LINE
  5
1E1
330
36
100
AcDbEntity
  8
001
100
AcDbLine
 10
-67.329835
 20
14.096748
 30
0.0
 11
-57.8112
 21
14.096748
 31
0.0
  0
ARC
  5
1E2
330
36
100
AcDbEntity
  8
001
100
AcDbCircle
 10
-67.329835
 20
12.596748
 30
0.0
 40
1.5
100
AcDbArc
 50
90.0
 51
189.865807
  0
LINE
  5
1E3
330
36
100
AcDbEntity
  8
001
100
AcDbLine
 10
-68.807652
 20
12.339736
 30
0.0
 11
-68.025044
 21
7.839736
 31
0.0
  0
LINE
  5
1E4
330
36
100
AcDbEntity
  8
001
100
AcDbLine
 10
-66.54722599999999
 20
6.596747999999998
 30
0.0
 11
-58.593809
 21
6.596747999999998
 31
0.0
  0
ARC
  5
1E5
330
36
100
AcDbEntity
  8
001
100
AcDbCircle
 10
-66.54722599999999
 20
8.096747999999998
 30
0.0
 40
1.5
100
AcDbArc
 50
189.865807
 51
270.0
  0
ARC
  5
1E6
330
36
100
AcDbEntity
  8
001
100
AcDbCircle
 10
-58.593809
 20
8.096747999999998
 30
0.0
 40
1.5
100
AcDbArc
 50
270.0
 51
350.1341930000001
  0
LINE
  5
1E7
330
36
100
AcDbEntity
  8
001
100
AcDbLine
 10
-57.115991
 20
7.839736
 30
0.0
 11
-56.333383
 21
12.339736
 31
0.0
  0
ARC
  5
1E8
330
36
100
AcDbEntity
  8
001
100
AcDbCircle
 10
-57.8112
 20
12.596748
 30
0.0
 40
1.5
100
AcDbArc
 50
350.1341930000001
 51
90.0
  0
ARC
  5
1E9
330
36
100
AcDbEntity
  8
001
100
AcDbCircle
 10
-108.222653
 20
20.601201
 30
0.0
 40
1.5
100
AcDbArc
 50
270.0
 51
9.865807
  0
LINE
  5
1EA
330
36
100
AcDbEntity
  8
001
100
AcDbLine
 10
-107.527444
 20
25.358213
 30
0.0
 11
-106.744835
 21
20.858213
 31
0.0
  0
ARC
  5
1EB
330
36
100
AcDbEntity
  8
001
100
AcDbCircle
 10
-109.005261
 20
25.101201
 30
0.0
 40
1.5
100
AcDbArc
 50
9.865807
 51
90.0
  0
LINE
  5
1EC
330
36
100
AcDbEntity
  8
001
100
AcDbLine
 10
-109.005261
 20
26.601201
 30
0.0
 11
-116.958678
 21
26.601201
 31
0.0
  0
ARC
  5
1ED
330
36
100
AcDbEntity
  8
001
100
AcDbCircle
 10
-116.958678
 20
25.101201
 30
0.0
 40
1.5
100
AcDbArc
 50
90.0
 51
170.134193
  0
LINE
  5
1EE
330
36
100
AcDbEntity
  8
001
100
AcDbLine
 10
-118.436496
 20
25.358213
 30
0.0
 11
-119.219105
 21
20.858213
 31
0.0
  0
ARC
  5
1EF
330
36
100
AcDbEntity
  8
001
100
AcDbCircle
 10
-117.741287
 20
20.601201
 30
0.0
 40
1.5
100
AcDbArc
 50
170.134193
 51
270.0
  0
LINE
  5
1F0
330
36
100
AcDbEntity
  8
001
100
AcDbLine
 10
-117.741287
 20
19.101201
 30
0.0
 11
-108.222653
 21
19.101201
 31
0.0
  0
LINE
  5
1F1
330
36
100
AcDbEntity
  8
001
100
AcDbLine
 10
-117.741287
 20
14.101201
 30
0.0
 11
-108.222653
 21
14.101201
 31
0.0
  0
ARC
  5
1F2
330
36
100
AcDbEntity
  8
001
100
AcDbCircle
 10
-108.222653
 20
12.601201
 30
0.0
 40
1.5
100
AcDbArc
 50
350.1341930000001
 51
90.0
  0
LINE
  5
1F3
330
36
100
AcDbEntity
  8
001
100
AcDbLine
 10
-107.527444
 20
7.844189
 30
0.0
 11
-106.744835
 21
12.344189
 31
0.0
  0
ARC
  5
1F4
330
36
100
AcDbEntity
  8
001
100
AcDbCircle
 10
-109.005261
 20
8.101200999999999
 30
0.0
 40
1.5
100
AcDbArc
 50
270.0
 51
350.1341930000001
  0
LINE
  5
1F5
330
36
100
AcDbEntity
  8
001
100
AcDbLine
 10
-116.958678
 20
6.601200999999998
 30
0.0
 11
-109.005261
 21
6.601200999999998
 31
0.0
  0
ARC
  5
1F6
330
36
100
AcDbEntity
  8
001
100
AcDbCircle
 10
-116.958678
 20
8.101200999999999
 30
0.0
 40
1.5
100
AcDbArc
 50
189.865807
 51
270.0
  0
LINE
  5
1F7
330
36
100
AcDbEntity
  8
001
100
AcDbLine
 10
-119.219105
 20
12.344189
 30
0.0
 11
-118.436496
 21
7.844189
 31
0.0
  0
ARC
  5
1F8
330
36
100
AcDbEntity
  8
001
100
AcDbCircle
 10
-117.741287
 20
12.601201
 30
0.0
 40
1.5
100
AcDbArc
 50
90.0
 51
189.865807
  0
LINE
  5
1F9
330
36
100
AcDbEntity
  8
001
100
AcDbLine
 10
-91.57051800000001
 20
4.096748
 30
0.0
 11
-91.57051800000001
 21
29.096748
 31
0.0
  0
LINE
  5
1FA
330
36
100
AcDbEntity
  8
001
 62
     3
100
AcDbLine
 10
-138.5
 20
90.0
 30
0.0
 11
-138.5
 21
-90.0
 31
0.0
  0
LINE
  5
1FB
330
36
100
AcDbEntity
  8
001
 62
     3
100
AcDbLine
 10
138.5
 20
-90.0
 30
0.0
 11
138.5
 21
90.0
 31
0.0
  0
LINE
  5
1FC
330
36
100
AcDbEntity
  8
001
 62
     3
100
AcDbLine
 10
-138.5
 20
-90.0
 30
0.0
 11
138.5
 21
-90.0
 31
0.0
  0
LINE
  5
1FD
330
36
100
AcDbEntity
  8
001
 62
     3
100
AcDbLine
 10
-138.5
 20
90.0
 30
0.0
 11
138.5
 21
90.0
 31
0.0
  0
TEXT
  5
1FE
330
36
100
AcDbEntity
  8
001
 62
     3
100
AcDbText
 10
29.142549
 20
-54.158126
 30
0.0
 40
2.0
  1
CONPONENTS
 41
0.5331600000000001
100
AcDbText
  0
TEXT
  5
1FF
330
36
100
AcDbEntity
  8
001
 62
     3
100
AcDbText
 10
28.792822
 20
-73.090303
 30
0.0
 40
3.0
  1
材
 41
0.833333
100
AcDbText
  0
TEXT
  5
200
330
36
100
AcDbEntity
  8
001
 62
     3
100
AcDbText
 10
36.328465
 20
-73.090303
 30
0.0
 40
3.0
  1
質
 41
0.833333
100
AcDbText
  0
TEXT
  5
201
330
36
100
AcDbEntity
  8
001
 62
     3
100
AcDbText
 10
28.880893
 20
-62.465778
 30
0.0
 40
2.0
  1
MODEL
 41
1.031072999999999
100
AcDbText
  0
TEXT
  5
202
330
36
100
AcDbEntity
  8
001
 62
     3
100
AcDbText
 10
28.792822
 20
-69.407995
 30
0.0
 40
2.0
  1
MATERIAL
 41
0.659278
100
AcDbText
  0
TEXT
  5
203
330
36
100
AcDbEntity
  8
001
 62
     3
100
AcDbText
 10
60.10010300000001
 20
-73.090303
 30
0.0
 40
3.0
  1
備
 41
0.833333
100
AcDbText
  0
TEXT
  5
204
330
36
100
AcDbEntity
  8
001
 62
     3
100
AcDbText
 10
66.833104
 20
-73.090303
 30
0.0
 40
3.0
  1
考
 41
0.833333
100
AcDbText
  0
TEXT
  5
205
330
36
100
AcDbEntity
  8
001
 62
     3
100
AcDbText
 10
59.853093
 20
-69.407995
 30
0.0
 40
2.0
  1
REMARKS
 41
0.675794
100
AcDbText
  0
TEXT
  5
206
330
36
100
AcDbEntity
  8
001
 62
     3
100
AcDbText
 10
30.382551
 20
-76.32811499999998
 30
0.0
 40
2.0
  1
3AD
 41
1.42614
100
AcDbText
  0
TEXT
  5
207
330
36
100
AcDbEntity
  8
001
 62
     3
100
AcDbText
 10
39.693531
 20
-76.16238199999997
 30
0.0
 40
2.0
  1
ANGLE
 41
1.669883999999998
100
AcDbText
  0
TEXT
  5
208
330
36
100
AcDbEntity
  8
001
 62
     3
100
AcDbText
 10
60.62741800000001
 20
-76.53922299999997
 30
0.0
 40
2.0
  1
SCALE
 41
0.7719630000000001
100
AcDbText
  0
TEXT
  5
209
330
36
100
AcDbEntity
  8
001
 62
     3
100
AcDbText
 10
30.068681
 20
-80.327652
 30
0.0
 40
3.0
  1
第
 41
0.833333
100
AcDbText
  0
TEXT
  5
20A
330
36
100
AcDbEntity
  8
001
 62
     3
100
AcDbText
 10
37.855531
 20
-80.327652
 30
0.0
 40
3.0
  1
三
 41
0.833333
100
AcDbText
  0
TEXT
  5
20B
330
36
100
AcDbEntity
  8
001
 62
     3
100
AcDbText
 10
45.64238099999999
 20
-80.327652
 30
0.0
 40
3.0
  1
角
 41
0.833333
100
AcDbText
  0
TEXT
  5
20C
330
36
100
AcDbEntity
  8
001
 62
     3
100
AcDbText
 10
53.42923100000001
 20
-80.327652
 30
0.0
 40
3.0
  1
法
 41
0.833333
100
AcDbText
  0
TEXT
  5
20D
330
36
100
AcDbEntity
  8
001
 62
     3
100
AcDbText
 10
60.490623
 20
-80.03922299999997
 30
0.0
 40
3.0
  1
尺
 41
0.833333
100
AcDbText
  0
TEXT
  5
20E
330
36
100
AcDbEntity
  8
001
 62
     3
100
AcDbText
 10
67.223625
 20
-80.03922299999997
 30
0.0
 40
3.0
  1
度
 41
0.833333
100
AcDbText
  0
TEXT
  5
20F
330
36
100
AcDbEntity
  8
001
 62
     3
100
AcDbText
 10
89.806895
 20
-57.869923
 30
0.0
 40
3.0
  1
承認
 41
1.089472999999999
100
AcDbText
  0
TEXT
  5
210
330
36
100
AcDbEntity
  8
001
 62
     3
100
AcDbText
 10
103.049775
 20
-57.927652
 30
0.0
 40
3.0
  1
検図
 41
0.931761
100
AcDbText
  0
TEXT
  5
211
330
36
100
AcDbEntity
  8
001
 62
     3
100
AcDbText
 10
116.050172
 20
-57.927652
 30
0.0
 40
3.0
  1
設
 41
0.833333
100
AcDbText
  0
TEXT
  5
212
330
36
100
AcDbEntity
  8
001
 62
     3
100
AcDbText
 10
120.54004
 20
-57.927652
 30
0.0
 40
3.0
  1
計
 41
0.833333
100
AcDbText
  0
TEXT
  5
213
330
36
100
AcDbEntity
  8
001
 62
     3
100
AcDbText
 10
29.212655
 20
-57.755099
 30
0.0
 40
3.0
  1
品
 41
0.833333
100
AcDbText
  0
TEXT
  5
214
330
36
100
AcDbEntity
  8
001
 62
     3
100
AcDbText
 10
36.748297
 20
-57.755099
 30
0.0
 40
3.0
  1
名
 41
0.833333
100
AcDbText
  0
TEXT
  5
215
330
36
100
AcDbEntity
  8
001
 62
     3
100
AcDbText
 10
28.880893
 20
-66.327652
 30
0.0
 40
3.0
  1
型
 41
0.833333
100
AcDbText
  0
TEXT
  5
216
330
36
100
AcDbEntity
  8
001
 62
     3
100
AcDbText
 10
36.42898300000001
 20
-66.327652
 30
0.0
 40
3.0
  1
式
 41
0.833333
100
AcDbText
  0
LINE
  5
217
330
36
100
AcDbEntity
  8
001
 62
     3
100
AcDbLine
 10
138.399964
 20
-44.327652
 30
0.0
 11
86.92923099999999
 21
-44.327652
 31
0.0
  0
LINE
  5
218
330
36
100
AcDbEntity
  8
001
 62
     3
100
AcDbLine
 10
112.929231
 20
-50.327652
 30
0.0
 11
112.929231
 21
-44.327652
 31
0.0
  0
LINE
  5
219
330
36
100
AcDbEntity
  8
001
 62
     3
100
AcDbLine
 10
86.92923099999999
 20
-50.327652
 30
0.0
 11
86.92923099999999
 21
-44.327652
 31
0.0
  0
TEXT
  5
21A
330
36
100
AcDbEntity
  8
001
 62
     3
100
AcDbText
 10
87.850114
 20
-49.771567
 30
0.0
 40
4.5
  1
コード
 41
0.833333
100
AcDbText
  0
TEXT
  5
21B
330
36
100
AcDbEntity
  8
001
 62
     3
100
AcDbText
 10
-41.423952
 20
-49.409651
 30
0.0
 40
4.0
  1
0.5m
 41
1.263158
100
AcDbText
  0
TEXT
  5
21C
330
36
100
AcDbEntity
  8
001
 62
     3
100
AcDbText
 10
-57.51793199999998
 20
-55.766553
 30
0.0
 40
4.0
  1
ＳＶＣＴ１．２５ｓｑ×２ｃ
 41
0.833333
100
AcDbText
  0
TEXT
  5
21D
330
36
100
AcDbEntity
  8
001
 62
     3
100
AcDbText
 10
-36.899091
 20
-64.51755799999999
 30
0.0
 40
4.0
  1
16A
 41
1.125
100
AcDbText
  0
TEXT
  5
21E
330
36
100
AcDbEntity
  8
001
 62
     3
100
AcDbText
 10
-48.765932
 20
-40.75420199999999
 30
0.0
 40
4.0
  1
S2-0.5S
 41
1.135135
100
AcDbText
  0
TEXT
  5
21F
330
36
100
AcDbEntity
  8
001
 62
     3
100
AcDbText
 10
40.693965
 20
-58.80171
 30
0.0
 40
4.0
  1
ショートタップ
 41
0.8117169999999999
100
AcDbText
  0
TEXT
  5
220
330
36
100
AcDbEntity
  8
001
 62
     3
100
AcDbText
 10
44.808884
 20
-65.80170999999999
 30
0.0
 40
4.0
  1
S2-0.5S
 41
1.359021999999999
100
AcDbText
  0
TEXT
  5
221
330
36
100
AcDbEntity
  8
001
 62
     3
100
AcDbText
 10
88.27417178188378
 20
-89.1038572439715
 30
0.0
 40
6.299999999999998
  1
S2-0.5S
 41
0.8746360000000001
100
AcDbText
  0
TEXT
  5
222
330
36
100
AcDbEntity
  8
001
100
AcDbText
 10
114.093391
 20
-49.829296
 30
0.0
 40
4.5
  1
9052
 41
1.043478
100
AcDbText
  0
LINE
  5
234
330
36
100
AcDbEntity
  8
001
100
AcDbLine
 10
37.730504
 20
23.458991
 30
0.0
 11
38.7155
 21
21.584759
 31
0.0
  0
LINE
  5
235
330
36
100
AcDbEntity
  8
001
100
AcDbLine
 10
38.7155
 20
21.584759
 30
0.0
 11
39.134793
 21
19.710212
 31
0.0
  0
LINE
  5
236
330
36
100
AcDbEntity
  8
001
100
AcDbLine
 10
39.134793
 20
19.710212
 30
0.0
 11
38.314499
 21
17.12007
 31
0.0
  0
LINE
  5
237
330
36
100
AcDbEntity
  8
001
100
AcDbLine
 10
38.314499
 20
17.12007
 30
0.0
 11
37.30595200000001
 21
14.502141
 31
0.0
  0
LINE
  5
238
330
36
100
AcDbEntity
  8
001
100
AcDbLine
 10
37.30595200000001
 20
14.502141
 30
0.0
 11
37.54971900000001
 21
11.966303
 31
0.0
  0
LINE
  5
239
330
36
100
AcDbEntity
  8
001
100
AcDbLine
 10
37.54971900000001
 20
11.966303
 30
0.0
 11
38.598516
 21
9.405794999999999
 31
0.0
  0
LINE
  5
23C
330
36
100
AcDbEntity
  8
001
100
AcDbLine
 10
34.151363
 20
23.458991
 30
0.0
 11
35.13635900000001
 21
21.584759
 31
0.0
  0
LINE
  5
23D
330
36
100
AcDbEntity
  8
001
100
AcDbLine
 10
35.13635900000001
 20
21.584759
 30
0.0
 11
35.555652
 21
19.710212
 31
0.0
  0
LINE
  5
23E
330
36
100
AcDbEntity
  8
001
100
AcDbLine
 10
35.555652
 20
19.710212
 30
0.0
 11
34.735358
 21
17.12007
 31
0.0
  0
LINE
  5
23F
330
36
100
AcDbEntity
  8
001
100
AcDbLine
 10
34.735358
 20
17.12007
 30
0.0
 11
33.726811
 21
14.502141
 31
0.0
  0
LINE
  5
240
330
36
100
AcDbEntity
  8
001
100
AcDbLine
 10
33.726811
 20
14.502141
 30
0.0
 11
33.97057800000001
 21
11.966303
 31
0.0
  0
LINE
  5
241
330
36
100
AcDbEntity
  8
001
100
AcDbLine
 10
33.97057800000001
 20
11.966303
 30
0.0
 11
35.019375
 21
9.405794999999999
 31
0.0
  0
LINE
  5
242
330
36
100
AcDbEntity
  8
001
100
AcDbLine
 10
-79.231227
 20
26.601775
 30
0.0
 11
-79.506265
 21
24.549571
 31
0.0
  0
LINE
  5
243
330
36
100
AcDbEntity
  8
001
100
AcDbLine
 10
-79.506265
 20
24.549571
 30
0.0
 11
-78.241973
 21
26.189313
 31
0.0
  0
LINE
  5
244
330
36
100
AcDbEntity
  8
001
100
AcDbLine
 10
119.540992
 20
26.92130800000001
 30
0.0
 11
118.516438
 21
25.12201
 31
0.0
  0
LINE
  5
245
330
36
100
AcDbEntity
  8
001
100
AcDbLine
 10
118.516438
 20
25.12201
 30
0.0
 11
120.303377
 21
26.167971
 31
0.0
  0
LINE
  5
246
330
36
100
AcDbEntity
  8
001
100
AcDbLine
 10
-92.57051800000001
 20
3.596748
 30
0.0
 11
-92.57051800000001
 21
-12.792413
 31
0.0
  0
LINE
  5
247
330
36
100
AcDbEntity
  8
001
100
AcDbLine
 10
117.581533
 20
2.02
 30
0.0
 11
117.581533
 21
-12.792413
 31
0.0
  0
LINE
  5
248
330
36
100
AcDbEntity
  8
001
100
AcDbLine
 10
-92.57051800000001
 20
-11.792413
 30
0.0
 11
117.581533
 21
-11.792413
 31
0.0
  0
LWPOLYLINE
  5
24B
330
36
100
AcDbEntity
  8
0
  6
Continuous
 62
     0
100
AcDbPolyline
 90
        3
 70
     0
 43
0.0
 10
115.581533
 20
-12.328311
 10
117.581533
 20
-11.792413
 10
115.581533
 20
-11.256515
  0
LWPOLYLINE
  5
24C
330
36
100
AcDbEntity
  8
0
  6
Continuous
 62
     0
100
AcDbPolyline
 90
        3
 70
     0
 43
0.0
 10
-90.57051800000001
 20
-11.256515
 10
-92.57051800000001
 20
-11.792413
 10
-90.57051800000001
 20
-12.328311
  0
ENDSEC
  0
SECTION
  2
OBJECTS
  0
DICTIONARY
  5
C
330
0
100
AcDbDictionary
281
     1
  3
ACAD_COLOR
350
2F
  3
ACAD_GROUP
350
D
  3
ACAD_LAYOUT
350
2E
  3
ACAD_MATERIAL
350
10
  3
ACAD_MLINESTYLE
350
2B
  3
ACAD_PLOTSETTINGS
350
2D
  3
ACAD_PLOTSTYLENAME
350
E
  3
ACAD_TABLESTYLE
350
30
  3
ACAD_VISUALSTYLE
350
14
  3
AcDbVariableDictionary
350
225
  0
DICTIONARY
  5
23A
330
36
100
AcDbDictionary
280
     1
281
     1
  3
ACAD_SORTENTS
360
23B
  0
DICTIONARY
  5
2F
102
{ACAD_REACTORS
330
C
102
}
330
C
100
AcDbDictionary
281
     1
  0
DICTIONARY
  5
D
102
{ACAD_REACTORS
330
C
102
}
330
C
100
AcDbDictionary
281
     1
  0
DICTIONARY
  5
2E
102
{ACAD_REACTORS
330
C
102
}
330
C
100
AcDbDictionary
281
     1
  3
Model
350
39
  3
レイアウト1
350
35
  0
DICTIONARY
  5
10
102
{ACAD_REACTORS
330
C
102
}
330
C
100
AcDbDictionary
281
     1
  3
ByBlock
350
12
  3
ByLayer
350
11
  3
Global
350
13
  0
DICTIONARY
  5
2B
102
{ACAD_REACTORS
330
C
102
}
330
C
100
AcDbDictionary
281
     1
  3
Standard
350
2C
  0
DICTIONARY
  5
2D
102
{ACAD_REACTORS
330
C
102
}
330
C
100
AcDbDictionary
281
     1
  0
ACDBDICTIONARYWDFLT
  5
E
102
{ACAD_REACTORS
330
C
102
}
330
C
100
AcDbDictionary
281
     1
  3
Normal
350
F
100
AcDbDictionaryWithDefault
340
F
  0
DICTIONARY
  5
30
102
{ACAD_REACTORS
330
C
102
}
330
C
100
AcDbDictionary
281
     1
  3
Standard
350
31
  0
DICTIONARY
  5
14
102
{ACAD_REACTORS
330
C
102
}
330
C
100
AcDbDictionary
281
     1
  3
2dWireframe
350
1A
  3
3D Hidden
350
1C
  3
3dWireframe
350
1B
  3
Basic
350
19
  3
Brighten
350
20
  3
ColorChange
350
24
  3
Conceptual
350
1D
  3
Dim
350
1F
  3
Facepattern
350
23
  3
Flat
350
15
  3
FlatWithEdges
350
16
  3
Gouraud
350
17
  3
GouraudWithEdges
350
18
  3
Linepattern
350
22
  3
Realistic
350
1E
  3
Thicken
350
21
  0
DICTIONARY
  5
225
102
{ACAD_REACTORS
330
C
102
}
330
C
100
AcDbDictionary
281
     1
  3
CTABLESTYLE
350
226
  0
SORTENTSTABLE
  5
23B
102
{ACAD_REACTORS
330
23A
102
}
330
23A
100
AcDbSortentsTable
330
36
331
1F1
  5
208
331
1B9
  5
1D0
331
213
  5
23D
331
1DB
  5
1F2
331
120
  5
127
331
FE
  5
105
331
74
  5
7B
331
142
  5
149
331
A9
  5
B0
331
202
  5
219
331
1CA
  5
1E1
331
1A8
  5
1BF
331
186
  5
19D
331
ED
  5
F4
331
CB
  5
D2
331
10F
  5
116
331
85
  5
8C
331
131
  5
138
331
242
  5
177
331
BA
  5
C1
331
98
  5
9F
331
197
  5
1AE
331
DC
  5
E8
331
1EC
  5
203
331
211
  5
239
331
1D9
  5
1F0
331
11E
  5
125
331
FC
  5
103
331
72
  5
79
331
140
  5
147
331
A7
  5
AE
331
200
  5
217
331
1C8
  5
1DF
331
1A6
  5
1BD
331
184
  5
19B
331
EB
  5
F2
331
C9
  5
D0
331
10D
  5
114
331
83
  5
8A
331
12F
  5
136
331
240
  5
180
331
B8
  5
BF
331
96
  5
9D
331
1B7
  5
1CE
331
195
  5
1AC
331
DA
  5
E2
331
1EA
  5
201
331
11C
  5
123
331
FA
  5
101
331
70
  5
77
331
13E
  5
145
331
A5
  5
AC
331
1A4
  5
1BB
331
182
  5
199
331
E9
  5
F0
331
C7
  5
CE
331
1FE
  5
215
331
1C6
  5
1DD
331
236
  5
184
331
10B
  5
112
331
81
  5
88
331
12D
  5
134
331
94
  5
9B
331
23E
  5
17E
331
B6
  5
BD
331
1E8
  5
1FF
331
20F
  5
237
331
1D7
  5
1EE
331
1B5
  5
1CC
331
193
  5
1AA
331
D8
  5
E0
331
11A
  5
121
331
F8
  5
FF
331
13C
  5
143
331
A3
  5
AA
331
1A2
  5
1B9
331
180
  5
197
331
15E
  5
17B
331
C5
  5
CC
331
1FC
  5
213
331
1C4
  5
1DB
331
234
  5
182
331
21E
  5
248
331
109
  5
110
331
7F
  5
86
331
12B
  5
132
331
92
  5
99
331
23C
  5
17C
331
B4
  5
BB
331
1E6
  5
1FD
331
20D
  5
235
331
1D5
  5
1EC
331
1B3
  5
1CA
331
191
  5
1A8
331
177
  5
18E
331
D6
  5
DE
331
6E
  5
75
331
14D
  5
15E
331
118
  5
11F
331
13A
  5
141
331
A1
  5
A8
331
C3
  5
CA
331
1FA
  5
211
331
1C2
  5
1D9
331
1A0
  5
1B7
331
17E
  5
195
331
15C
  5
179
331
24B
  5
71
331
21C
  5
246
331
107
  5
10E
331
7D
  5
84
331
129
  5
130
331
90
  5
97
331
175
  5
18C
331
D4
  5
DC
331
B2
  5
B9
331
1E4
  5
1FB
331
222
  5
24C
331
1B1
  5
1C8
331
18F
  5
1A6
331
20B
  5
222
331
1D3
  5
1EA
331
6C
  5
73
331
F6
  5
FD
331
138
  5
13F
331
C1
  5
C8
331
1F8
  5
20F
331
1C0
  5
1D7
331
19E
  5
1B5
331
17C
  5
193
331
21A
  5
244
331
1E2
  5
1F9
331
105
  5
10C
331
7B
  5
82
331
127
  5
12E
331
8E
  5
95
331
238
  5
186
331
B0
  5
B7
331
173
  5
18A
331
D2
  5
D9
331
220
  5
24A
331
1AF
  5
1C6
331
18D
  5
1A4
331
209
  5
220
331
1D1
  5
1E8
331
9F
  5
A6
331
116
  5
11D
331
F4
  5
FB
331
149
  5
156
331
1F6
  5
20D
331
1BE
  5
1D5
331
19C
  5
1B3
331
17A
  5
191
331
E1
  5
ED
331
218
  5
242
331
1E0
  5
1F7
331
103
  5
10A
331
79
  5
80
331
125
  5
12C
331
8C
  5
93
331
147
  5
154
331
AE
  5
B5
331
171
  5
188
331
207
  5
21E
331
1CF
  5
1E6
331
1AD
  5
1C4
331
18B
  5
1A2
331
F2
  5
F9
331
136
  5
13D
331
9D
  5
A4
331
BF
  5
C6
331
114
  5
11B
331
247
  5
6C
331
D0
  5
D7
331
1F4
  5
20B
331
1BC
  5
1D3
331
19A
  5
1B1
331
178
  5
18F
331
216
  5
240
331
1DE
  5
1F5
331
101
  5
108
331
77
  5
7E
331
123
  5
12A
331
8A
  5
91
331
145
  5
14D
331
AC
  5
B3
331
205
  5
21C
331
1CD
  5
1E4
331
1AB
  5
1C2
331
189
  5
1A0
331
F0
  5
F7
331
1EF
  5
206
331
134
  5
13B
331
9B
  5
A2
331
156
  5
176
331
245
  5
173
331
BD
  5
C4
331
DF
  5
EB
331
112
  5
119
331
CE
  5
D5
331
1F2
  5
209
331
1BA
  5
1D1
331
198
  5
1AF
331
214
  5
23E
331
1DC
  5
1F3
331
FF
  5
106
331
75
  5
7C
331
121
  5
128
331
88
  5
8F
331
143
  5
14A
331
AA
  5
B1
331
203
  5
21A
331
1CB
  5
1E2
331
1A9
  5
1C0
331
187
  5
19E
331
EE
  5
F5
331
1ED
  5
204
331
110
  5
117
331
132
  5
139
331
99
  5
A0
331
243
  5
178
331
BB
  5
C2
331
86
  5
8D
331
DD
  5
E9
331
154
  5
174
331
CC
  5
D3
331
1F0
  5
207
331
1B8
  5
1CF
331
212
  5
23C
331
1DA
  5
1F1
331
11F
  5
126
331
FD
  5
104
331
73
  5
7A
331
141
  5
148
331
A8
  5
AF
331
201
  5
218
331
1C9
  5
1E0
331
1A7
  5
1BE
331
185
  5
19C
331
EC
  5
F3
331
CA
  5
D1
331
10E
  5
115
331
84
  5
8B
331
130
  5
137
331
196
  5
1AD
331
241
  5
181
331
B9
  5
C0
331
97
  5
9E
331
1EB
  5
202
331
210
  5
238
331
1D8
  5
1EF
331
11D
  5
124
331
FB
  5
102
331
71
  5
78
331
13F
  5
146
331
A6
  5
AD
331
1A5
  5
1BC
331
183
  5
19A
331
EA
  5
F1
331
C8
  5
CF
331
1FF
  5
216
331
1C7
  5
1DE
331
1E9
  5
200
331
10C
  5
113
331
12E
  5
135
331
95
  5
9C
331
23F
  5
17F
331
B7
  5
BE
331
82
  5
89
331
1B6
  5
1CD
331
194
  5
1AB
331
D9
  5
E1
331
237
  5
185
331
11B
  5
122
331
F9
  5
100
331
13D
  5
144
331
A4
  5
AB
331
1A3
  5
1BA
331
181
  5
198
331
E8
  5
EF
331
C6
  5
CD
331
1FD
  5
214
331
1C5
  5
1DC
331
235
  5
183
331
21F
  5
249
331
10A
  5
111
331
80
  5
87
331
12C
  5
133
331
93
  5
9A
331
23D
  5
17D
331
B5
  5
BC
331
1E7
  5
1FE
331
20E
  5
236
331
1D6
  5
1ED
331
1B4
  5
1CB
331
192
  5
1A9
331
D7
  5
DF
331
6F
  5
76
331
14E
  5
171
331
119
  5
120
331
13B
  5
142
331
A2
  5
A9
331
C4
  5
CB
331
1FB
  5
212
331
1C3
  5
1DA
331
1A1
  5
1B8
331
17F
  5
196
331
15D
  5
17A
331
21D
  5
247
331
1E5
  5
1FC
331
24C
  5
70
331
108
  5
10F
331
12A
  5
131
331
91
  5
98
331
14C
  5
15D
331
B3
  5
BA
331
7E
  5
85
331
176
  5
18D
331
20C
  5
234
331
1D4
  5
1EB
331
1B2
  5
1C9
331
190
  5
1A7
331
F7
  5
FE
331
6D
  5
74
331
D5
  5
DD
331
139
  5
140
331
A0
  5
A7
331
1F9
  5
210
331
1C1
  5
1D8
331
19F
  5
1B6
331
17D
  5
194
331
C2
  5
C9
331
21B
  5
245
331
106
  5
10D
331
7C
  5
83
331
128
  5
12F
331
8F
  5
96
331
239
  5
187
331
B1
  5
B8
331
1E3
  5
1FA
331
174
  5
18B
331
D3
  5
DA
331
221
  5
24B
331
1B0
  5
1C7
331
18E
  5
1A5
331
20A
  5
221
331
1D2
  5
1E9
331
117
  5
11E
331
6B
  5
72
331
F5
  5
FC
331
14A
  5
15C
331
C0
  5
C7
331
1F7
  5
20E
331
1BF
  5
1D6
331
19D
  5
1B4
331
17B
  5
192
331
E2
  5
EE
331
219
  5
243
331
1E1
  5
1F8
331
104
  5
10B
331
7A
  5
81
331
248
  5
6D
331
126
  5
12D
331
148
  5
155
331
AF
  5
B6
331
8D
  5
94
331
172
  5
189
331
208
  5
21F
331
1D0
  5
1E7
331
1AE
  5
1C5
331
18C
  5
1A3
331
F3
  5
FA
331
137
  5
13E
331
9E
  5
A5
331
115
  5
11C
331
D1
  5
D8
331
1F5
  5
20C
331
1BD
  5
1D4
331
19B
  5
1B2
331
179
  5
190
331
E0
  5
EC
331
217
  5
241
331
1DF
  5
1F6
331
102
  5
109
331
78
  5
7F
331
124
  5
12B
331
8B
  5
92
331
146
  5
14E
331
AD
  5
B4
331
206
  5
21D
331
1CE
  5
1E5
331
1AC
  5
1C3
331
18A
  5
1A1
331
F1
  5
F8
331
113
  5
11A
331
135
  5
13C
331
BE
  5
C5
331
9C
  5
A3
331
246
  5
6B
331
CF
  5
D6
331
1F3
  5
20A
331
1BB
  5
1D2
331
199
  5
1B0
331
215
  5
23F
331
1DD
  5
1F4
331
100
  5
107
331
76
  5
7D
331
122
  5
129
331
89
  5
90
331
144
  5
14C
331
AB
  5
B2
331
204
  5
21B
331
1CC
  5
1E3
331
1AA
  5
1C1
331
188
  5
19F
331
EF
  5
F6
331
1EE
  5
205
331
111
  5
118
331
133
  5
13A
331
9A
  5
A1
331
155
  5
175
331
244
  5
172
331
BC
  5
C3
331
87
  5
8E
331
DE
  5
EA
331
CD
  5
D4
  0
LAYOUT
  5
39
102
{ACAD_REACTORS
330
2E
102
}
330
2E
100
AcDbPlotSettings
  1

  2
PDF Complete
  4

  6

 40
0.0
 41
0.0
 42
0.0
 43
0.0
 44
0.0
 45
0.0
 46
0.0
 47
0.0
 48
0.0
 49
0.0
140
0.0
141
0.0
142
1.0
143
1.0
 70
  1712
 72
     0
 73
     0
 74
     0
  7

 75
     0
147
1.0
 76
     0
 77
     2
 78
   300
148
0.0
149
0.0
100
AcDbLayout
  1
Model
 70
     1
 71
     0
 10
0.0
 20
0.0
 11
12.0
 21
9.0
 12
0.0
 22
0.0
 32
0.0
 14
0.0
 24
0.0
 34
0.0
 15
0.0
 25
0.0
 35
0.0
146
0.0
 13
0.0
 23
0.0
 33
0.0
 16
1.0
 26
0.0
 36
0.0
 17
0.0
 27
1.0
 37
0.0
 76
     0
330
36
331
56
  0
LAYOUT
  5
35
102
{ACAD_REACTORS
330
2E
102
}
330
2E
100
AcDbPlotSettings
  1

  2
PDF Complete
  4

  6

 40
0.0
 41
0.0
 42
0.0
 43
0.0
 44
0.0
 45
0.0
 46
0.0
 47
0.0
 48
0.0
 49
0.0
140
0.0
141
0.0
142
1.0
143
1.0
 70
   688
 72
     0
 73
     0
 74
     5
  7

 75
    16
147
1.0
 76
     0
 77
     2
 78
   300
148
0.0
149
0.0
100
AcDbLayout
  1
レイアウト1
 70
     1
 71
     1
 10
0.0
 20
0.0
 11
12.0
 21
9.0
 12
0.0
 22
0.0
 32
0.0
 14
1.000000000000000E+20
 24
1.000000000000000E+20
 34
1.000000000000000E+20
 15
-1.000000000000000E+20
 25
-1.000000000000000E+20
 35
-1.000000000000000E+20
146
0.0
 13
0.0
 23
0.0
 33
0.0
 16
1.0
 26
0.0
 36
0.0
 17
0.0
 27
1.0
 37
0.0
 76
     0
330
32
  0
MATERIAL
  5
12
102
{ACAD_XDICTIONARY
360
229
102
}
102
{ACAD_REACTORS
330
10
102
}
330
10
100
AcDbMaterial
  1
ByBlock
  0
MATERIAL
  5
11
102
{ACAD_XDICTIONARY
360
227
102
}
102
{ACAD_REACTORS
330
10
102
}
330
10
100
AcDbMaterial
  1
ByLayer
  0
MATERIAL
  5
13
102
{ACAD_XDICTIONARY
360
22B
102
}
102
{ACAD_REACTORS
330
10
102
}
330
10
100
AcDbMaterial
  1
Global
  0
MLINESTYLE
  5
2C
102
{ACAD_REACTORS
330
2B
102
}
330
2B
100
AcDbMlineStyle
  2
STANDARD
 70
     0
  3

 62
   256
 51
90.0
 52
90.0
 71
     2
 49
0.5
 62
   256
  6
BYLAYER
 49
-0.5
 62
   256
  6
BYLAYER
  0
ACDBPLACEHOLDER
  5
F
102
{ACAD_REACTORS
330
E
102
}
330
E
  0
TABLESTYLE
  5
31
102
{ACAD_REACTORS
330
30
102
}
330
30
100
AcDbTableStyle
  3
Standard
 70
     0
 71
     0
 40
0.06
 41
0.06
280
     0
281
     0
  7
STANDARD
140
0.18
170
     2
 62
     0
 63
     7
283
     0
 90
      512
 91
        0
  1

274
    -2
284
     1
 64
     0
275
    -2
285
     1
 65
     0
276
    -2
286
     1
 66
     0
277
    -2
287
     1
 67
     0
278
    -2
288
     1
 68
     0
279
    -2
289
     1
 69
     0
  7
STANDARD
140
0.25
170
     5
 62
     0
 63
     7
283
     0
 90
      512
 91
        0
  1

274
    -2
284
     1
 64
     0
275
    -2
285
     1
 65
     0
276
    -2
286
     1
 66
     0
277
    -2
287
     1
 67
     0
278
    -2
288
     1
 68
     0
279
    -2
289
     1
 69
     0
  7
STANDARD
140
0.18
170
     5
 62
     0
 63
     7
283
     0
 90
      512
 91
        0
  1

274
    -2
284
     1
 64
     0
275
    -2
285
     1
 65
     0
276
    -2
286
     1
 66
     0
277
    -2
287
     1
 67
     0
278
    -2
288
     1
 68
     0
279
    -2
289
     1
 69
     0
  0
VISUALSTYLE
  5
1A
102
{ACAD_REACTORS
330
14
102
}
330
14
100
AcDbVisualStyle
  2
2dWireframe
 70
     4
 71
     0
 72
     2
 73
     0
 90
        0
 40
-0.6
 41
-30.0
 62
     5
 63
     7
421
 16777215
 74
     1
 91
        4
 64
     7
 65
   257
 75
     1
175
     1
 42
1.0
 92
        0
 66
   257
 43
1.0
 76
     1
 77
     6
 78
     2
 67
     7
 79
     5
170
     0
171
     0
290
     0
174
     0
 93
        1
 44
0.0
173
     0
291
     0
 45
0.0
1001
ACAD
1000
AcDbSavedByObjectVersion
1070
     0
  0
VISUALSTYLE
  5
1C
102
{ACAD_REACTORS
330
14
102
}
330
14
100
AcDbVisualStyle
  2
3D Hidden
 70
     6
 71
     1
 72
     2
 73
     2
 90
        0
 40
-0.6
 41
-30.0
 62
     5
 63
     7
421
 16777215
 74
     2
 91
        2
 64
     7
 65
   257
 75
     2
175
     1
 42
40.0
 92
        0
 66
   257
 43
1.0
 76
     1
 77
     6
 78
     2
 67
     7
 79
     3
170
     0
171
     0
290
     0
174
     0
 93
        1
 44
0.0
173
     0
291
     0
 45
0.0
1001
ACAD
1000
AcDbSavedByObjectVersion
1070
     0
  0
VISUALSTYLE
  5
1B
102
{ACAD_REACTORS
330
14
102
}
330
14
100
AcDbVisualStyle
  2
3dWireframe
 70
     5
 71
     0
 72
     2
 73
     0
 90
        0
 40
-0.6
 41
-30.0
 62
     5
 63
     7
421
 16777215
 74
     1
 91
        4
 64
     7
 65
   257
 75
     1
175
     1
 42
1.0
 92
        0
 66
   257
 43
1.0
 76
     1
 77
     6
 78
     2
 67
     7
 79
     5
170
     0
171
     0
290
     0
174
     0
 93
        1
 44
0.0
173
     0
291
     0
 45
0.0
1001
ACAD
1000
AcDbSavedByObjectVersion
1070
     0
  0
VISUALSTYLE
  5
19
102
{ACAD_REACTORS
330
14
102
}
330
14
100
AcDbVisualStyle
  2
Basic
 70
     7
 71
     1
 72
     0
 73
     1
 90
        0
 40
-0.6
 41
-30.0
 62
     5
 63
     7
421
 16777215
 74
     0
 91
        4
 64
     7
 65
   257
 75
     1
175
     1
 42
1.0
 92
        8
 66
     7
 43
1.0
 76
     1
 77
     6
 78
     2
 67
     7
 79
     5
170
     0
171
     0
290
     0
174
     0
 93
        1
 44
0.0
173
     0
291
     1
 45
0.0
1001
ACAD
1000
AcDbSavedByObjectVersion
1070
     0
  0
VISUALSTYLE
  5
20
102
{ACAD_REACTORS
330
14
102
}
330
14
100
AcDbVisualStyle
  2
Brighten
 70
    12
 71
     2
 72
     2
 73
     0
 90
        0
 40
-0.6
 41
-30.0
 62
     5
 63
     7
421
 16777215
 74
     1
 91
        4
 64
     7
 65
   257
 75
     1
175
     1
 42
1.0
 92
        8
 66
     7
 43
1.0
 76
     1
 77
     6
 78
     2
 67
     7
 79
     5
170
     0
171
     0
290
     0
174
     0
 93
        1
 44
50.0
173
     0
291
     1
 45
0.0
1001
ACAD
1000
AcDbSavedByObjectVersion
1070
     0
  0
VISUALSTYLE
  5
24
102
{ACAD_REACTORS
330
14
102
}
330
14
100
AcDbVisualStyle
  2
ColorChange
 70
    16
 71
     2
 72
     2
 73
     3
 90
        0
 40
-0.6
 41
-30.0
 62
     5
 63
     8
421
  8421504
 74
     1
 91
        4
 64
     7
 65
   257
 75
     1
175
     1
 42
1.0
 92
        8
 66
     8
424
  8421504
 43
1.0
 76
     1
 77
     6
 78
     2
 67
     7
 79
     5
170
     0
171
     0
290
     0
174
     0
 93
        1
 44
0.0
173
     0
291
     1
 45
0.0
1001
ACAD
1000
AcDbSavedByObjectVersion
1070
     0
  0
VISUALSTYLE
  5
1D
102
{ACAD_REACTORS
330
14
102
}
330
14
100
AcDbVisualStyle
  2
Conceptual
 70
     9
 71
     3
 72
     2
 73
     0
 90
        0
 40
-0.6
 41
-30.0
 62
     5
 63
     7
421
 16777215
 74
     2
 91
        2
 64
     7
 65
   257
 75
     1
175
     1
 42
40.0
 92
        8
 66
     7
 43
1.0
 76
     1
 77
     6
 78
     2
 67
     7
 79
     3
170
     0
171
     0
290
     0
174
     0
 93
        1
 44
0.0
173
     0
291
     0
 45
0.0
1001
ACAD
1000
AcDbSavedByObjectVersion
1070
     0
  0
VISUALSTYLE
  5
1F
102
{ACAD_REACTORS
330
14
102
}
330
14
100
AcDbVisualStyle
  2
Dim
 70
    11
 71
     2
 72
     2
 73
     0
 90
        0
 40
-0.6
 41
-30.0
 62
     5
 63
     7
421
 16777215
 74
     1
 91
        4
 64
     7
 65
   257
 75
     1
175
     1
 42
1.0
 92
        8
 66
     7
 43
1.0
 76
     1
 77
     6
 78
     2
 67
     7
 79
     5
170
     0
171
     0
290
     0
174
     0
 93
        1
 44
-50.0
173
     0
291
     1
 45
0.0
1001
ACAD
1000
AcDbSavedByObjectVersion
1070
     0
  0
VISUALSTYLE
  5
23
102
{ACAD_REACTORS
330
14
102
}
330
14
100
AcDbVisualStyle
  2
Facepattern
 70
    15
 71
     2
 72
     2
 73
     0
 90
        0
 40
-0.6
 41
-30.0
 62
     5
 63
     7
421
 16777215
 74
     1
 91
        4
 64
     7
 65
   257
 75
     1
175
     1
 42
1.0
 92
        8
 66
     7
 43
1.0
 76
     1
 77
     6
 78
     2
 67
     7
 79
     5
170
     0
171
     0
290
     0
174
     0
 93
        1
 44
0.0
173
     0
291
     1
 45
0.0
1001
ACAD
1000
AcDbSavedByObjectVersion
1070
     0
  0
VISUALSTYLE
  5
15
102
{ACAD_REACTORS
330
14
102
}
330
14
100
AcDbVisualStyle
  2
Flat
 70
     0
 71
     2
 72
     1
 73
     1
 90
        2
 40
-0.6
 41
30.0
 62
     5
 63
     7
421
 16777215
 74
     0
 91
        4
 64
     7
 65
   257
 75
     1
175
     1
 42
1.0
 92
        8
 66
     7
 43
1.0
 76
     1
 77
     6
 78
     2
 67
     7
 79
     5
170
     0
171
     0
290
     0
174
     0
 93
       13
 44
0.0
173
     0
291
     1
 45
0.0
1001
ACAD
1000
AcDbSavedByObjectVersion
1070
     0
  0
VISUALSTYLE
  5
16
102
{ACAD_REACTORS
330
14
102
}
330
14
100
AcDbVisualStyle
  2
FlatWithEdges
 70
     1
 71
     2
 72
     1
 73
     1
 90
        2
 40
-0.6
 41
30.0
 62
     5
 63
     7
421
 16777215
 74
     1
 91
        4
 64
     7
 65
   257
 75
     1
175
     1
 42
1.0
 92
        0
 66
   257
 43
1.0
 76
     1
 77
     6
 78
     2
 67
     7
 79
     5
170
     0
171
     0
290
     0
174
     0
 93
       13
 44
0.0
173
     0
291
     1
 45
0.0
1001
ACAD
1000
AcDbSavedByObjectVersion
1070
     0
  0
VISUALSTYLE
  5
17
102
{ACAD_REACTORS
330
14
102
}
330
14
100
AcDbVisualStyle
  2
Gouraud
 70
     2
 71
     2
 72
     2
 73
     1
 90
        2
 40
-0.6
 41
30.0
 62
     5
 63
     7
421
 16777215
 74
     0
 91
        4
 64
     7
 65
   257
 75
     1
175
     1
 42
1.0
 92
        0
 66
     7
 43
1.0
 76
     1
 77
     6
 78
     2
 67
     7
 79
     5
170
     0
171
     0
290
     0
174
     0
 93
       13
 44
0.0
173
     0
291
     1
 45
0.0
1001
ACAD
1000
AcDbSavedByObjectVersion
1070
     0
  0
VISUALSTYLE
  5
18
102
{ACAD_REACTORS
330
14
102
}
330
14
100
AcDbVisualStyle
  2
GouraudWithEdges
 70
     3
 71
     2
 72
     2
 73
     1
 90
        2
 40
-0.6
 41
30.0
 62
     5
 63
     7
421
 16777215
 74
     1
 91
        4
 64
     7
 65
   257
 75
     1
175
     1
 42
1.0
 92
        0
 66
   257
 43
1.0
 76
     1
 77
     6
 78
     2
 67
     7
 79
     5
170
     0
171
     0
290
     0
174
     0
 93
       13
 44
0.0
173
     0
291
     1
 45
0.0
1001
ACAD
1000
AcDbSavedByObjectVersion
1070
     0
  0
VISUALSTYLE
  5
22
102
{ACAD_REACTORS
330
14
102
}
330
14
100
AcDbVisualStyle
  2
Linepattern
 70
    14
 71
     2
 72
     2
 73
     0
 90
        0
 40
-0.6
 41
-30.0
 62
     5
 63
     7
421
 16777215
 74
     1
 91
        4
 64
     7
 65
   257
 75
     7
175
     7
 42
1.0
 92
        8
 66
     7
 43
1.0
 76
     1
 77
     6
 78
     2
 67
     7
 79
     5
170
     0
171
     0
290
     0
174
     0
 93
        1
 44
0.0
173
     0
291
     1
 45
0.0
1001
ACAD
1000
AcDbSavedByObjectVersion
1070
     0
  0
VISUALSTYLE
  5
1E
102
{ACAD_REACTORS
330
14
102
}
330
14
100
AcDbVisualStyle
  2
Realistic
 70
     8
 71
     2
 72
     2
 73
     0
 90
        0
 40
-0.6
 41
-30.0
 62
     5
 63
     7
421
 16777215
 74
     1
 91
        0
 64
     7
 65
   257
 75
     1
175
     1
 42
1.0
 92
        8
 66
     8
424
  7895160
 43
1.0
 76
     1
 77
     6
 78
     2
 67
     7
 79
     5
170
     0
171
     0
290
     0
174
     0
 93
       13
 44
0.0
173
     0
291
     0
 45
0.0
1001
ACAD
1000
AcDbSavedByObjectVersion
1070
     0
  0
VISUALSTYLE
  5
21
102
{ACAD_REACTORS
330
14
102
}
330
14
100
AcDbVisualStyle
  2
Thicken
 70
    13
 71
     2
 72
     2
 73
     0
 90
        0
 40
-0.6
 41
-30.0
 62
     5
 63
     7
421
 16777215
 74
     1
 91
        4
 64
     7
 65
   257
 75
     1
175
     1
 42
1.0
 92
       12
 66
     7
 43
1.0
 76
     1
 77
     6
 78
     2
 67
     7
 79
     5
170
     0
171
     0
290
     0
174
     0
 93
        1
 44
0.0
173
     0
291
     1
 45
0.0
1001
ACAD
1000
AcDbSavedByObjectVersion
1070
     0
  0
DICTIONARYVAR
  5
226
102
{ACAD_REACTORS
330
225
102
}
330
225
100
DictionaryVariables
280
     0
  1
STANDARD
  0
DICTIONARY
  5
229
330
12
100
AcDbDictionary
280
     1
281
     1
  3
ACAD_XREC_ROUNDTRIP
360
22A
  0
DICTIONARY
  5
227
330
11
100
AcDbDictionary
280
     1
281
     1
  3
ACAD_XREC_ROUNDTRIP
360
228
  0
DICTIONARY
  5
22B
330
13
100
AcDbDictionary
280
     1
281
     1
  3
ACAD_XREC_ROUNDTRIP
360
22C
  0
XRECORD
  5
22A
102
{ACAD_REACTORS
330
229
102
}
330
229
100
AcDbXrecord
280
     1
102
MATERIAL
148
0.0
149
0.0
149
0.0
 93
        0
 94
       63
282
     0
 72
     1
 77
     1
171
     1
175
     1
179
     1
273
     0
  0
XRECORD
  5
228
102
{ACAD_REACTORS
330
227
102
}
330
227
100
AcDbXrecord
280
     1
102
MATERIAL
148
0.0
149
0.0
149
0.0
 93
        0
 94
       63
282
     0
 72
     1
 77
     1
171
     1
175
     1
179
     1
273
     0
  0
XRECORD
  5
22C
102
{ACAD_REACTORS
330
22B
102
}
330
22B
100
AcDbXrecord
280
     1
102
MATERIAL
148
0.0
149
0.0
149
0.0
 93
        0
 94
       63
282
     0
 72
     1
 77
     1
171
     1
175
     1
179
     1
273
     0
  0
ENDSEC
  0
EOF
