  0
SECTION
  2
HEADER
  9
$ACADVER
  1
AC1015
  9
$ACADMAINTVER
 70
    20
  9
$DWGCODEPAGE
  3
ANSI_932
  9
$INSBASE
 10
0.0
 20
0.0
 30
0.0
  9
$EXTMIN
 10
66.0049554957053
 20
20.84041939730628
 30
-0.0015258207003583
  9
$EXTMAX
 10
471.0696620313389
 20
300.6470090635179
 30
0.0000000349246037
  9
$LIMMIN
 10
0.0
 20
0.0
  9
$LIMMAX
 10
12.0
 20
9.0
  9
$ORTHOMODE
 70
     1
  9
$REGENMODE
 70
     1
  9
$FILLMODE
 70
     1
  9
$QTEXTMODE
 70
     0
  9
$MIRRTEXT
 70
     0
  9
$LTSCALE
 40
0.5
  9
$ATTMODE
 70
     1
  9
$TEXTSIZE
 40
3.2
  9
$TRACEWID
 40
0.05
  9
$TEXTSTYLE
  7
高3.2
  9
$CLAYER
  8
0
  9
$CELTYPE
  6
ByLayer
  9
$CECOLOR
 62
   256
  9
$CELTSCALE
 40
1.0
  9
$DISPSILH
 70
     0
  9
$DIMSCALE
 40
1.0
  9
$DIMASZ
 40
2.5
  9
$DIMEXO
 40
0.25
  9
$DIMDLI
 40
0.2
  9
$DIMRND
 40
0.0
  9
$DIMDLE
 40
0.0
  9
$DIMEXE
 40
1.25
  9
$DIMTP
 40
0.0
  9
$DIMTM
 40
0.0
  9
$DIMTXT
 40
3.0
  9
$DIMCEN
 40
0.0
  9
$DIMTSZ
 40
0.0
  9
$DIMTOL
 70
     0
  9
$DIMLIM
 70
     0
  9
$DIMTIH
 70
     0
  9
$DIMTOH
 70
     0
  9
$DIMSE1
 70
     0
  9
$DIMSE2
 70
     0
  9
$DIMTAD
 70
     3
  9
$DIMZIN
 70
     8
  9
$DIMBLK
  1
Open30
  9
$DIMASO
 70
     1
  9
$DIMSHO
 70
     1
  9
$DIMPOST
  1

  9
$DIMAPOST
  1

  9
$DIMALT
 70
     0
  9
$DIMALTD
 70
     3
  9
$DIMALTF
 40
0.03937007874016
  9
$DIMLFAC
 40
1.0
  9
$DIMTOFL
 70
     1
  9
$DIMTVP
 40
0.0
  9
$DIMTIX
 70
     0
  9
$DIMSOXD
 70
     0
  9
$DIMSAH
 70
     0
  9
$DIMBLK1
  1

  9
$DIMBLK2
  1

  9
$DIMSTYLE
  2
1：1
  9
$DIMCLRD
 70
     0
  9
$DIMCLRE
 70
     0
  9
$DIMCLRT
 70
     4
  9
$DIMTFAC
 40
1.0
  9
$DIMGAP
 40
0.625
  9
$DIMJUST
 70
     0
  9
$DIMSD1
 70
     0
  9
$DIMSD2
 70
     0
  9
$DIMTOLJ
 70
     0
  9
$DIMTZIN
 70
     8
  9
$DIMALTZ
 70
     0
  9
$DIMALTTZ
 70
     0
  9
$DIMUPT
 70
     1
  9
$DIMDEC
 70
     2
  9
$DIMTDEC
 70
     2
  9
$DIMALTU
 70
     2
  9
$DIMALTTD
 70
     3
  9
$DIMTXSTY
  7
Standard
  9
$DIMAUNIT
 70
     0
  9
$DIMADEC
 70
     1
  9
$DIMALTRND
 40
0.0
  9
$DIMAZIN
 70
     2
  9
$DIMDSEP
 70
    46
  9
$DIMATFIT
 70
     0
  9
$DIMFRAC
 70
     0
  9
$DIMLDRBLK
  1
Open30
  9
$DIMLUNIT
 70
     2
  9
$DIMLWD
 70
    -2
  9
$DIMLWE
 70
    -2
  9
$DIMTMOVE
 70
     0
  9
$LUNITS
 70
     2
  9
$LUPREC
 70
     4
  9
$SKETCHINC
 40
0.1
  9
$FILLETRAD
 40
0.0
  9
$AUNITS
 70
     0
  9
$AUPREC
 70
     0
  9
$MENU
  1
.
  9
$ELEVATION
 40
0.0
  9
$PELEVATION
 40
0.0
  9
$THICKNESS
 40
0.0
  9
$LIMCHECK
 70
     0
  9
$CHAMFERA
 40
0.0
  9
$CHAMFERB
 40
0.0
  9
$CHAMFERC
 40
0.0
  9
$CHAMFERD
 40
0.0
  9
$SKPOLY
 70
     0
  9
$TDCREATE
 40
2455541.835951239
  9
$TDUCREATE
 40
2455541.460951239
  9
$TDUPDATE
 40
2456091.641453403
  9
$TDUUPDATE
 40
2456091.266453403
  9
$TDINDWG
 40
0.0105554861
  9
$TDUSRTIMER
 40
0.0105553125
  9
$USRTIMER
 70
     1
  9
$ANGBASE
 50
0.0
  9
$ANGDIR
 70
     0
  9
$PDMODE
 70
     0
  9
$PDSIZE
 40
0.0
  9
$PLINEWID
 40
0.0
  9
$SPLFRAME
 70
     0
  9
$SPLINETYPE
 70
     6
  9
$SPLINESEGS
 70
     8
  9
$HANDSEED
  5
88C
  9
$SURFTAB1
 70
     6
  9
$SURFTAB2
 70
     6
  9
$SURFTYPE
 70
     6
  9
$SURFU
 70
     6
  9
$SURFV
 70
     6
  9
$UCSBASE
  2

  9
$UCSNAME
  2

  9
$UCSORG
 10
0.0
 20
0.0
 30
0.0
  9
$UCSXDIR
 10
1.0
 20
0.0
 30
0.0
  9
$UCSYDIR
 10
0.0
 20
1.0
 30
0.0
  9
$UCSORTHOREF
  2

  9
$UCSORTHOVIEW
 70
     0
  9
$UCSORGTOP
 10
0.0
 20
0.0
 30
0.0
  9
$UCSORGBOTTOM
 10
0.0
 20
0.0
 30
0.0
  9
$UCSORGLEFT
 10
0.0
 20
0.0
 30
0.0
  9
$UCSORGRIGHT
 10
0.0
 20
0.0
 30
0.0
  9
$UCSORGFRONT
 10
0.0
 20
0.0
 30
0.0
  9
$UCSORGBACK
 10
0.0
 20
0.0
 30
0.0
  9
$PUCSBASE
  2

  9
$PUCSNAME
  2

  9
$PUCSORG
 10
0.0
 20
0.0
 30
0.0
  9
$PUCSXDIR
 10
1.0
 20
0.0
 30
0.0
  9
$PUCSYDIR
 10
0.0
 20
1.0
 30
0.0
  9
$PUCSORTHOREF
  2

  9
$PUCSORTHOVIEW
 70
     0
  9
$PUCSORGTOP
 10
0.0
 20
0.0
 30
0.0
  9
$PUCSORGBOTTOM
 10
0.0
 20
0.0
 30
0.0
  9
$PUCSORGLEFT
 10
0.0
 20
0.0
 30
0.0
  9
$PUCSORGRIGHT
 10
0.0
 20
0.0
 30
0.0
  9
$PUCSORGFRONT
 10
0.0
 20
0.0
 30
0.0
  9
$PUCSORGBACK
 10
0.0
 20
0.0
 30
0.0
  9
$USERI1
 70
     0
  9
$USERI2
 70
     0
  9
$USERI3
 70
     0
  9
$USERI4
 70
     0
  9
$USERI5
 70
     0
  9
$USERR1
 40
0.0
  9
$USERR2
 40
0.0
  9
$USERR3
 40
0.0
  9
$USERR4
 40
0.0
  9
$USERR5
 40
0.0
  9
$WORLDVIEW
 70
     1
  9
$SHADEDGE
 70
     3
  9
$SHADEDIF
 70
    70
  9
$TILEMODE
 70
     1
  9
$MAXACTVP
 70
    64
  9
$PINSBASE
 10
0.0
 20
0.0
 30
0.0
  9
$PLIMCHECK
 70
     0
  9
$PEXTMIN
 10
0.0
 20
0.0
 30
0.0
  9
$PEXTMAX
 10
0.0
 20
0.0
 30
0.0
  9
$PLIMMIN
 10
0.0
 20
0.0
  9
$PLIMMAX
 10
12.0
 20
9.0
  9
$UNITMODE
 70
     0
  9
$VISRETAIN
 70
     1
  9
$PLINEGEN
 70
     0
  9
$PSLTSCALE
 70
     1
  9
$TREEDEPTH
 70
  3020
  9
$CMLSTYLE
  2
Standard
  9
$CMLJUST
 70
     0
  9
$CMLSCALE
 40
1.0
  9
$PROXYGRAPHICS
 70
     1
  9
$MEASUREMENT
 70
     1
  9
$CELWEIGHT
370
    -1
  9
$ENDCAPS
280
     0
  9
$JOINSTYLE
280
     0
  9
$LWDISPLAY
290
     0
  9
$INSUNITS
 70
     1
  9
$HYPERLINKBASE
  1

  9
$STYLESHEET
  1
n-plot.ctb
  9
$XEDIT
290
     1
  9
$CEPSNTYPE
380
     0
  9
$PSTYLEMODE
290
     1
  9
$FINGERPRINTGUID
  2
{78556432-72E4-4C2C-BA51-743BA385B04C}
  9
$VERSIONGUID
  2
{F9C7C4CF-8F2B-4AC0-973C-51646AC3CF1E}
  9
$EXTNAMES
290
     1
  9
$PSVPSCALE
 40
0.0
  9
$OLESTARTUP
290
     0
  0
ENDSEC
  0
SECTION
  2
CLASSES
  0
CLASS
  1
ACDBDICTIONARYWDFLT
  2
AcDbDictionaryWithDefault
  3
ObjectDBX Classes
 90
        0
280
     0
281
     0
  0
CLASS
  1
ACDBPLACEHOLDER
  2
AcDbPlaceHolder
  3
ObjectDBX Classes
 90
        0
280
     0
281
     0
  0
CLASS
  1
LAYOUT
  2
AcDbLayout
  3
ObjectDBX Classes
 90
        0
280
     0
281
     0
  0
CLASS
  1
DICTIONARYVAR
  2
AcDbDictionaryVar
  3
ObjectDBX Classes
 90
        0
280
     0
281
     0
  0
CLASS
  1
TABLESTYLE
  2
AcDbTableStyle
  3
ObjectDBX Classes
 90
     4095
280
     0
281
     0
  0
CLASS
  1
MATERIAL
  2
AcDbMaterial
  3
ObjectDBX Classes
 90
     1153
280
     0
281
     0
  0
CLASS
  1
VISUALSTYLE
  2
AcDbVisualStyle
  3
ObjectDBX Classes
 90
     4095
280
     0
281
     0
  0
CLASS
  1
SORTENTSTABLE
  2
AcDbSortentsTable
  3
ObjectDBX Classes
 90
        0
280
     0
281
     0
  0
CLASS
  1
DIMASSOC
  2
AcDbDimAssoc
  3
"AcDbDimAssoc|Product Desc:     AcDim ARX App For Dimension|Company:          Autodesk, Inc.|WEB Address:      www.autodesk.com"
 90
        0
280
     0
281
     0
  0
CLASS
  1
SCALE
  2
AcDbScale
  3
ObjectDBX Classes
 90
     1153
280
     0
281
     0
  0
CLASS
  1
MLEADERSTYLE
  2
AcDbMLeaderStyle
  3
ACDB_MLEADERSTYLE_CLASS
 90
     4095
280
     0
281
     0
  0
CLASS
  1
CELLSTYLEMAP
  2
AcDbCellStyleMap
  3
ObjectDBX Classes
 90
     1152
280
     0
281
     0
  0
ENDSEC
  0
SECTION
  2
TABLES
  0
TABLE
  2
VPORT
  5
8
330
0
100
AcDbSymbolTable
 70
     1
  0
VPORT
  5
94
330
8
100
AcDbSymbolTableRecord
100
AcDbViewportTableRecord
  2
*Active
 70
     0
 10
0.0
 20
0.0
 11
1.0
 21
1.0
 12
356.6728724911891
 22
126.9640780866436
 13
0.0
 23
0.0
 14
0.5
 24
0.5
 15
0.5
 25
0.5
 16
0.0
 26
0.0
 36
1.0
 17
0.0
 27
0.0
 37
0.0
 40
498.2203098395199
 41
2.148026315789473
 42
50.0
 43
0.0
 44
0.0
 50
0.0
 51
0.0
 71
     0
 72
  1000
 73
     1
 74
     2
 75
     0
 76
     0
 77
     0
 78
     0
281
     0
 65
     1
110
0.0
120
0.0
130
0.0
111
1.0
121
0.0
131
0.0
112
0.0
122
1.0
132
0.0
 79
     0
146
0.0
  0
ENDTAB
  0
TABLE
  2
LTYPE
  5
5
330
0
100
AcDbSymbolTable
 70
     6
  0
LTYPE
  5
14
330
5
100
AcDbSymbolTableRecord
100
AcDbLinetypeTableRecord
  2
ByBlock
 70
     0
  3

 72
    65
 73
     0
 40
0.0
  0
LTYPE
  5
15
330
5
100
AcDbSymbolTableRecord
100
AcDbLinetypeTableRecord
  2
ByLayer
 70
     0
  3

 72
    65
 73
     0
 40
0.0
  0
LTYPE
  5
16
330
5
100
AcDbSymbolTableRecord
100
AcDbLinetypeTableRecord
  2
Continuous
 70
     0
  3
Solid line
 72
    65
 73
     0
 40
0.0
  0
LTYPE
  5
148
330
5
100
AcDbSymbolTableRecord
100
AcDbLinetypeTableRecord
  2
CENTER
 70
     0
  3
Center ____ _ ____ _ ____ _ ____ _ ____ _ ____
 72
    65
 73
     4
 40
50.8
 49
31.75
 74
     0
 49
-6.349999999999997
 74
     0
 49
6.349999999999997
 74
     0
 49
-6.349999999999997
 74
     0
  0
LTYPE
  5
149
330
5
100
AcDbSymbolTableRecord
100
AcDbLinetypeTableRecord
  2
HIDDEN
 70
     0
  3
Hidden __ __ __ __ __ __ __ __ __ __ __ __ __ __
 72
    65
 73
     2
 40
9.524999999999996
 49
6.349999999999997
 74
     0
 49
-3.174999999999998
 74
     0
  0
LTYPE
  5
14A
330
5
100
AcDbSymbolTableRecord
100
AcDbLinetypeTableRecord
  2
PHANTOM
 70
     0
  3
Phantom ______  __  __  ______  __  __  ______
 72
    65
 73
     6
 40
63.5
 49
31.75
 74
     0
 49
-6.349999999999997
 74
     0
 49
6.349999999999997
 74
     0
 49
-6.349999999999997
 74
     0
 49
6.349999999999997
 74
     0
 49
-6.349999999999997
 74
     0
  0
LTYPE
  5
18D
330
5
100
AcDbSymbolTableRecord
100
AcDbLinetypeTableRecord
  2
HIDDEN2
 70
     0
  3
Hidden (.5x) _ _ _ _ _ _ _ _ _ _ _ _ _ _ _ _ _
 72
    65
 73
     2
 40
4.762499999999998
 49
3.174999999999998
 74
     0
 49
-1.587499999999999
 74
     0
  0
LTYPE
  5
18E
330
5
100
AcDbSymbolTableRecord
100
AcDbLinetypeTableRecord
  2
CENTER2
 70
     0
  3
Center (.5x) ___ _ ___ _ ___ _ ___ _ ___ _ ___
 72
    65
 73
     4
 40
28.575
 49
19.05
 74
     0
 49
-3.174999999999998
 74
     0
 49
3.174999999999998
 74
     0
 49
-3.174999999999998
 74
     0
  0
ENDTAB
  0
TABLE
  2
LAYER
  5
2
102
{ACAD_XDICTIONARY
360
DD
102
}
330
0
100
AcDbSymbolTable
 70
     5
  0
LAYER
  5
10
102
{ACAD_XDICTIONARY
360
599
102
}
330
2
100
AcDbSymbolTableRecord
100
AcDbLayerTableRecord
  2
0
 70
     0
 62
     7
  6
Continuous
370
    -3
390
F
  0
LAYER
  5
D8
330
2
100
AcDbSymbolTableRecord
100
AcDbLayerTableRecord
  2
Defpoints
 70
     0
 62
     7
  6
Continuous
290
     0
370
    -3
390
F
  0
LAYER
  5
18F
102
{ACAD_XDICTIONARY
360
59B
102
}
330
2
100
AcDbSymbolTableRecord
100
AcDbLayerTableRecord
  2
waku
 70
     0
 62
     3
  6
Continuous
370
    -3
390
F
  0
LAYER
  5
190
102
{ACAD_XDICTIONARY
360
59D
102
}
330
2
100
AcDbSymbolTableRecord
100
AcDbLayerTableRecord
  2
01
 70
     0
 62
     3
  6
Continuous
370
    -3
390
F
1001
AcAecLayerStandard
1000

1000

  0
LAYER
  5
191
102
{ACAD_XDICTIONARY
360
59F
102
}
330
2
100
AcDbSymbolTableRecord
100
AcDbLayerTableRecord
  2
dim
 70
     0
 62
   255
  6
Continuous
370
    -3
390
F
1001
AcAecLayerStandard
1000

1000

  0
ENDTAB
  0
TABLE
  2
STYLE
  5
3
330
0
100
AcDbSymbolTable
 70
     9
  0
STYLE
  5
11
330
3
100
AcDbSymbolTableRecord
100
AcDbTextStyleTableRecord
  2
Standard
 70
     0
 40
0.0
 41
1.0
 50
0.0
 71
     0
 42
0.2
  3
txt.shx
  4
bigfont.shx
  0
STYLE
  5
11D
330
3
100
AcDbSymbolTableRecord
100
AcDbTextStyleTableRecord
  2
高3.2
 70
     0
 40
3.2
 41
1.0
 50
0.0
 71
     0
 42
3.2
  3
txt.shx
  4
bigfont.shx
  0
STYLE
  5
11E
330
3
100
AcDbSymbolTableRecord
100
AcDbTextStyleTableRecord
  2
高6.3
 70
     0
 40
6.299999999999998
 41
1.0
 50
0.0
 71
     0
 42
6.299999999999998
  3
txt.shx
  4
bigfont.shx
  0
STYLE
  5
11F
330
3
100
AcDbSymbolTableRecord
100
AcDbTextStyleTableRecord
  2
高2.5
 70
     0
 40
2.5
 41
1.0
 50
0.0
 71
     0
 42
0.2
  3
txt.shx
  4
bigfont.shx
  0
STYLE
  5
146
330
3
100
AcDbSymbolTableRecord
100
AcDbTextStyleTableRecord
  2
高4.5
 70
     0
 40
4.5
 41
1.0
 50
0.0
 71
     0
 42
6.299999999999998
  3
txt.shx
  4
bigfont.shx
  0
STYLE
  5
147
330
3
100
AcDbSymbolTableRecord
100
AcDbTextStyleTableRecord
  2

 70
     1
 40
0.0
 41
1.0
 50
0.0
 71
     0
 42
6.299999999999998
  3
ltypeshp.shx
  4

  0
STYLE
  5
192
330
3
100
AcDbSymbolTableRecord
100
AcDbTextStyleTableRecord
  2
高2
 70
     0
 40
2.0
 41
1.0
 50
0.0
 71
     0
 42
6.299999999999998
  3
txt.shx
  4
bigfont.shx
  0
ENDTAB
  0
TABLE
  2
VIEW
  5
6
330
0
100
AcDbSymbolTable
 70
     0
  0
ENDTAB
  0
TABLE
  2
UCS
  5
7
330
0
100
AcDbSymbolTable
 70
     0
  0
ENDTAB
  0
TABLE
  2
APPID
  5
9
330
0
100
AcDbSymbolTable
 70
     7
  0
APPID
  5
12
330
9
100
AcDbSymbolTableRecord
100
AcDbRegAppTableRecord
  2
ACAD
 70
     0
  0
APPID
  5
DC
330
9
100
AcDbSymbolTableRecord
100
AcDbRegAppTableRecord
  2
ACAD_DSTYLE_DIMJOGGED_JOGANGLE_SYMBOL
 70
     0
  0
APPID
  5
193
330
9
100
AcDbSymbolTableRecord
100
AcDbRegAppTableRecord
  2
AcAecLayerStandard
 70
     0
  0
APPID
  5
4F0
330
9
100
AcDbSymbolTableRecord
100
AcDbRegAppTableRecord
  2
ACAD_EXEMPT_FROM_CAD_STANDARDS
 70
     0
  0
APPID
  5
50F
330
9
100
AcDbSymbolTableRecord
100
AcDbRegAppTableRecord
  2
ACAD_DSTYLE_DIMARC_LENGTH_SYMBOL
 70
     0
  0
APPID
  5
510
330
9
100
AcDbSymbolTableRecord
100
AcDbRegAppTableRecord
  2
ACAD_DSTYLE_DIMEXT_LENGTH
 70
     0
  0
APPID
  5
5E7
330
9
100
AcDbSymbolTableRecord
100
AcDbRegAppTableRecord
  2
ACAD_MLEADERVER
 70
     0
  0
ENDTAB
  0
TABLE
  2
DIMSTYLE
  5
A
330
0
100
AcDbSymbolTable
 70
     9
100
AcDbDimStyleTable
 71
     5
340
D9
340
DB
340
DA
340
127
340
129
  0
DIMSTYLE
105
D9
330
A
100
AcDbSymbolTableRecord
100
AcDbDimStyleTableRecord
  2
1：1
 70
     0
 41
2.5
 42
0.25
 43
0.2
 44
1.25
 73
     0
 74
     0
 77
     3
 78
     8
 79
     2
140
3.0
141
0.0
143
0.03937007874016
147
0.625
171
     3
172
     1
178
     4
179
     1
271
     2
272
     2
274
     3
283
     0
284
     8
288
     1
289
     0
340
11
341
C6
342
C6
1001
ACAD_DSTYLE_DIMARC_LENGTH_SYMBOL
1070
   379
1070
     2
1001
ACAD_DSTYLE_DIMEXT_LENGTH
1070
   378
1040
1.25
1001
ACAD_DSTYLE_DIMJOGGED_JOGANGLE_SYMBOL
1070
   384
1040
1.570796326794896
  0
DIMSTYLE
105
DA
330
A
100
AcDbSymbolTableRecord
100
AcDbDimStyleTableRecord
  2
2：1
 70
     0
 41
2.5
 42
0.25
 43
0.2
 44
1.25
 73
     0
 74
     0
 77
     3
 78
     8
 79
     2
140
3.0
141
0.0
143
0.03937007874016
144
0.5
147
0.625
171
     3
172
     1
178
     4
179
     1
271
     2
272
     2
274
     3
283
     0
284
     8
288
     1
289
     0
340
11
341
C6
342
C6
1001
ACAD_DSTYLE_DIMARC_LENGTH_SYMBOL
1070
   379
1070
     2
1001
ACAD_DSTYLE_DIMEXT_LENGTH
1070
   378
1040
1.25
1001
ACAD_DSTYLE_DIMJOGGED_JOGANGLE_SYMBOL
1070
   384
1040
1.570796326794896
  0
DIMSTYLE
105
DB
330
A
100
AcDbSymbolTableRecord
100
AcDbDimStyleTableRecord
  2
5：1
 70
     0
 41
2.5
 42
0.25
 43
0.2
 44
1.25
 73
     0
 74
     0
 77
     3
 78
     8
 79
     2
140
3.0
141
0.0
143
0.03937007874016
144
0.2
147
0.625
171
     3
172
     1
178
     4
179
     1
271
     2
272
     2
274
     3
283
     0
284
     8
288
     1
289
     0
340
11
341
C6
342
C6
1001
ACAD_DSTYLE_DIMARC_LENGTH_SYMBOL
1070
   379
1070
     2
1001
ACAD_DSTYLE_DIMEXT_LENGTH
1070
   378
1040
1.25
1001
ACAD_DSTYLE_DIMJOGGED_JOGANGLE_SYMBOL
1070
   384
1040
1.570796326794896
  0
DIMSTYLE
105
127
330
A
100
AcDbSymbolTableRecord
100
AcDbDimStyleTableRecord
  2
10：1
 70
     0
 41
2.5
 42
0.25
 43
0.2
 44
1.25
 73
     0
 74
     0
 77
     3
 78
     8
 79
     2
140
3.0
141
0.0
143
0.03937007874016
144
0.1
147
0.625
171
     3
172
     1
178
     4
179
     1
271
     2
272
     2
274
     3
283
     0
284
     8
288
     1
289
     0
340
11
341
C6
342
C6
1001
ACAD_DSTYLE_DIMARC_LENGTH_SYMBOL
1070
   379
1070
     2
1001
ACAD_DSTYLE_DIMEXT_LENGTH
1070
   378
1040
1.25
1001
ACAD_DSTYLE_DIMJOGGED_JOGANGLE_SYMBOL
1070
   384
1040
1.570796326794896
  0
DIMSTYLE
105
128
330
A
100
AcDbSymbolTableRecord
100
AcDbDimStyleTableRecord
  2
1／2
 70
     0
 41
2.5
 42
0.25
 43
0.2
 44
1.25
 73
     0
 74
     0
 77
     3
 78
     8
 79
     2
140
3.0
141
0.0
143
0.03937007874016
144
2.0
147
0.625
171
     3
172
     1
178
     4
179
     1
271
     2
272
     2
274
     3
283
     0
284
     8
288
     1
289
     0
340
11
341
C6
342
C6
1001
ACAD_DSTYLE_DIMARC_LENGTH_SYMBOL
1070
   379
1070
     2
1001
ACAD_DSTYLE_DIMEXT_LENGTH
1070
   378
1040
1.25
1001
ACAD_DSTYLE_DIMJOGGED_JOGANGLE_SYMBOL
1070
   384
1040
1.570796326794896
  0
DIMSTYLE
105
129
330
A
100
AcDbSymbolTableRecord
100
AcDbDimStyleTableRecord
  2
1／5
 70
     0
 41
2.5
 42
0.25
 43
0.2
 44
1.25
 73
     0
 74
     0
 77
     3
 78
     8
 79
     2
140
3.0
141
0.0
143
0.03937007874016
144
5.0
147
0.625
171
     3
172
     1
178
     4
179
     1
271
     2
272
     2
274
     3
283
     0
284
     8
288
     1
289
     0
340
11
341
C6
342
C6
1001
ACAD_DSTYLE_DIMARC_LENGTH_SYMBOL
1070
   379
1070
     2
1001
ACAD_DSTYLE_DIMEXT_LENGTH
1070
   378
1040
1.25
1001
ACAD_DSTYLE_DIMJOGGED_JOGANGLE_SYMBOL
1070
   384
1040
1.570796326794896
  0
DIMSTYLE
105
12A
330
A
100
AcDbSymbolTableRecord
100
AcDbDimStyleTableRecord
  2
1／10
 70
     0
 41
2.5
 42
0.25
 43
0.2
 44
1.25
 73
     0
 74
     0
 77
     3
 78
     8
 79
     2
140
3.0
141
0.0
143
0.03937007874016
144
10.0
147
0.625
171
     3
172
     1
178
     4
179
     1
271
     2
272
     2
274
     3
283
     0
284
     8
288
     1
289
     0
340
11
341
C6
342
C6
1001
ACAD_DSTYLE_DIMARC_LENGTH_SYMBOL
1070
   379
1070
     2
1001
ACAD_DSTYLE_DIMEXT_LENGTH
1070
   378
1040
1.25
1001
ACAD_DSTYLE_DIMJOGGED_JOGANGLE_SYMBOL
1070
   384
1040
1.570796326794896
  0
ENDTAB
  0
TABLE
  2
BLOCK_RECORD
  5
1
330
0
100
AcDbSymbolTable
 70
    14
  0
BLOCK_RECORD
  5
1F
102
{ACAD_XDICTIONARY
360
4ED
102
}
330
1
100
AcDbSymbolTableRecord
100
AcDbBlockTableRecord
  2
*Model_Space
340
22
  0
BLOCK_RECORD
  5
58
330
1
100
AcDbSymbolTableRecord
100
AcDbBlockTableRecord
  2
*Paper_Space
340
59
  0
BLOCK_RECORD
  5
5D
330
1
100
AcDbSymbolTableRecord
100
AcDbBlockTableRecord
  2
*Paper_Space0
340
5E
  0
BLOCK_RECORD
  5
C6
330
1
100
AcDbSymbolTableRecord
100
AcDbBlockTableRecord
  2
_Open30
340
0
102
{BLKREFS
331
16E
331
16F
331
162
331
163
331
17A
331
17B
331
186
331
187
331
156
331
157
331
704
331
705
331
728
331
729
331
733
331
734
331
73C
331
73D
331
745
331
746
102
}
  0
BLOCK_RECORD
  5
151
330
1
100
AcDbSymbolTableRecord
100
AcDbBlockTableRecord
  2
*D2
340
0
  0
BLOCK_RECORD
  5
15D
330
1
100
AcDbSymbolTableRecord
100
AcDbBlockTableRecord
  2
*D3
340
0
  0
BLOCK_RECORD
  5
169
330
1
100
AcDbSymbolTableRecord
100
AcDbBlockTableRecord
  2
*D4
340
0
  0
BLOCK_RECORD
  5
175
330
1
100
AcDbSymbolTableRecord
100
AcDbBlockTableRecord
  2
*D5
340
0
  0
BLOCK_RECORD
  5
181
330
1
100
AcDbSymbolTableRecord
100
AcDbBlockTableRecord
  2
*D6
340
0
  0
BLOCK_RECORD
  5
49E
330
1
100
AcDbSymbolTableRecord
100
AcDbBlockTableRecord
  2
*D7
340
0
  0
BLOCK_RECORD
  5
4AA
330
1
100
AcDbSymbolTableRecord
100
AcDbBlockTableRecord
  2
*D8
340
0
  0
BLOCK_RECORD
  5
4BF
330
1
100
AcDbSymbolTableRecord
100
AcDbBlockTableRecord
  2
*D9
340
0
  0
BLOCK_RECORD
  5
4D4
330
1
100
AcDbSymbolTableRecord
100
AcDbBlockTableRecord
  2
*D10
340
0
  0
BLOCK_RECORD
  5
4E0
330
1
100
AcDbSymbolTableRecord
100
AcDbBlockTableRecord
  2
*D11
340
0
  0
ENDTAB
  0
ENDSEC
  0
SECTION
  2
BLOCKS
  0
BLOCK
  5
20
330
1F
100
AcDbEntity
  8
0
100
AcDbBlockBegin
  2
*Model_Space
 70
     0
 10
0.0
 20
0.0
 30
0.0
  3
*Model_Space
  1

  0
ENDBLK
  5
21
330
1F
100
AcDbEntity
  8
0
100
AcDbBlockEnd
  0
BLOCK
  5
5A
330
58
100
AcDbEntity
 67
     1
  8
0
100
AcDbBlockBegin
  2
*Paper_Space
 70
     0
 10
0.0
 20
0.0
 30
0.0
  3
*Paper_Space
  1

  0
ENDBLK
  5
5B
330
58
100
AcDbEntity
 67
     1
  8
0
100
AcDbBlockEnd
  0
BLOCK
  5
5F
330
5D
100
AcDbEntity
 67
     1
  8
0
100
AcDbBlockBegin
  2
*Paper_Space0
 70
     0
 10
0.0
 20
0.0
 30
0.0
  3
*Paper_Space0
  1

  0
ENDBLK
  5
60
330
5D
100
AcDbEntity
 67
     1
  8
0
100
AcDbBlockEnd
  0
BLOCK
  5
C7
330
C6
100
AcDbEntity
  8
0
100
AcDbBlockBegin
  2
_Open30
 70
     0
 10
0.0
 20
0.0
 30
0.0
  3
_Open30
  1

  0
LINE
  5
C8
330
C6
100
AcDbEntity
  8
0
  6
ByBlock
 62
     0
370
    -2
100
AcDbLine
 10
-1.0
 20
0.267949
 30
0.0
 11
0.0
 21
0.0
 31
0.0
  0
LINE
  5
C9
330
C6
100
AcDbEntity
  8
0
  6
ByBlock
 62
     0
370
    -2
100
AcDbLine
 10
0.0
 20
0.0
 30
0.0
 11
-1.0
 21
-0.267949
 31
0.0
  0
LINE
  5
CA
330
C6
100
AcDbEntity
  8
0
  6
ByBlock
 62
     0
370
    -2
100
AcDbLine
 10
0.0
 20
0.0
 30
0.0
 11
-1.0
 21
0.0
 31
0.0
  0
ENDBLK
  5
CB
330
C6
100
AcDbEntity
  8
0
100
AcDbBlockEnd
  0
BLOCK
  5
152
330
151
100
AcDbEntity
  8
0
100
AcDbBlockBegin
  2
*D2
 70
     1
 10
0.0
 20
0.0
 30
0.0
  3
*D2
  1

  0
LINE
  5
153
330
151
100
AcDbEntity
  8
dim
 62
     0
370
    -2
100
AcDbLine
 10
123.1132680028968
 20
-679.8373049700098
 30
0.0
 11
108.2980769662753
 21
-679.8373049700098
 31
0.0
  0
LINE
  5
154
330
151
100
AcDbEntity
  8
dim
 62
     0
370
    -2
100
AcDbLine
 10
123.1132680028968
 20
-717.8373049700097
 30
0.0
 11
108.2980769662753
 21
-717.8373049700097
 31
0.0
  0
LINE
  5
155
330
151
100
AcDbEntity
  8
dim
 62
     0
370
    -2
100
AcDbLine
 10
109.5480769662753
 20
-682.33730497001
 30
0.0
 11
109.5480769662753
 21
-715.3373049700097
 31
0.0
  0
INSERT
  5
156
330
151
100
AcDbEntity
  8
dim
 62
     0
370
    -2
100
AcDbBlockReference
  2
_Open30
 10
109.5480769662753
 20
-679.8373049700098
 30
0.0
 41
2.5
 42
2.5
 43
2.5
 50
90.0
  0
INSERT
  5
157
330
151
100
AcDbEntity
  8
dim
 62
     0
370
    -2
100
AcDbBlockReference
  2
_Open30
 10
109.5480769662753
 20
-717.8373049700097
 30
0.0
 41
2.5
 42
2.5
 43
2.5
 50
270.0
  0
MTEXT
  5
158
330
151
100
AcDbEntity
  8
dim
 62
     4
100
AcDbMText
 10
107.4230769662754
 20
-698.0187740885916
 30
0.0
 40
3.0
 41
0.0
 71
     5
 72
     1
  1
%%C190
 11
0.0000000000000001
 21
1.0
 31
0.0
 73
     1
 44
1.0
1001
ACAD
1000
MTEXTBEGIN
1070
    73
1070
     1
1070
    44
1040
1.0
1070
    74
1070
     0
1000
MTEXTEND
  0
POINT
  5
159
330
151
100
AcDbEntity
  8
Defpoints
 62
     0
100
AcDbPoint
 10
123.3632680028968
 20
-679.8373049700098
 30
0.0
  0
POINT
  5
15A
330
151
100
AcDbEntity
  8
Defpoints
 62
     0
100
AcDbPoint
 10
123.3632680028968
 20
-717.8373049700097
 30
0.0
  0
POINT
  5
15B
330
151
100
AcDbEntity
  8
Defpoints
 62
     0
100
AcDbPoint
 10
109.5480769662753
 20
-717.8373049700097
 30
0.0
  0
ENDBLK
  5
15C
330
151
100
AcDbEntity
  8
0
100
AcDbBlockEnd
  0
BLOCK
  5
15E
330
15D
100
AcDbEntity
  8
0
100
AcDbBlockBegin
  2
*D3
 70
     1
 10
0.0
 20
0.0
 30
0.0
  3
*D3
  1

  0
LINE
  5
15F
330
15D
100
AcDbEntity
  8
dim
 62
     0
370
    -2
100
AcDbLine
 10
403.3632680028966
 20
-701.0873049700096
 30
0.0
 11
403.3632680028966
 21
-728.5514833980774
 31
0.0
  0
LINE
  5
160
330
15D
100
AcDbEntity
  8
dim
 62
     0
370
    -2
100
AcDbLine
 10
127.3632680028967
 20
-701.0873049700097
 30
0.0
 11
127.3632680028967
 21
-728.5514833980774
 31
0.0
  0
LINE
  5
161
330
15D
100
AcDbEntity
  8
dim
 62
     0
370
    -2
100
AcDbLine
 10
400.8632680028965
 20
-727.3014833980774
 30
0.0
 11
129.8632680028967
 21
-727.3014833980774
 31
0.0
  0
INSERT
  5
162
330
15D
100
AcDbEntity
  8
dim
 62
     0
370
    -2
100
AcDbBlockReference
  2
_Open30
 10
403.3632680028966
 20
-727.3014833980774
 30
0.0
 41
2.5
 42
2.5
 43
2.5
  0
INSERT
  5
163
330
15D
100
AcDbEntity
  8
dim
 62
     0
370
    -2
100
AcDbBlockReference
  2
_Open30
 10
127.3632680028967
 20
-727.3014833980774
 30
0.0
 41
2.5
 42
2.5
 43
2.5
 50
180.0
  0
MTEXT
  5
164
330
15D
100
AcDbEntity
  8
dim
 62
     4
100
AcDbMText
 10
258.654864616028
 20
-725.1764833980772
 30
0.0
 40
3.0
 41
0.0
 71
     5
 72
     1
  1
1380(ファスナー)
 73
     1
 44
1.0
1001
ACAD
1000
MTEXTBEGIN
1070
    73
1070
     1
1070
    44
1040
1.0
1070
    74
1070
     0
1000
MTEXTEND
  0
POINT
  5
165
330
15D
100
AcDbEntity
  8
Defpoints
 62
     0
100
AcDbPoint
 10
403.3632680028966
 20
-700.8373049700098
 30
0.0
  0
POINT
  5
166
330
15D
100
AcDbEntity
  8
Defpoints
 62
     0
100
AcDbPoint
 10
127.3632680028967
 20
-700.8373049700098
 30
0.0
  0
POINT
  5
167
330
15D
100
AcDbEntity
  8
Defpoints
 62
     0
100
AcDbPoint
 10
127.3632680028967
 20
-727.3014833980774
 30
0.0
  0
ENDBLK
  5
168
330
15D
100
AcDbEntity
  8
0
100
AcDbBlockEnd
  0
BLOCK
  5
16A
330
169
100
AcDbEntity
  8
0
100
AcDbBlockBegin
  2
*D4
 70
     1
 10
0.0
 20
0.0
 30
0.0
  3
*D4
  1

  0
LINE
  5
16B
330
169
100
AcDbEntity
  8
dim
 62
     0
370
    -2
100
AcDbLine
 10
407.3632680028969
 20
-577.2685037402247
 30
0.0
 11
407.3632680028969
 21
-566.2472754817563
 31
0.0
  0
LINE
  5
16C
330
169
100
AcDbEntity
  8
dim
 62
     0
370
    -2
100
AcDbLine
 10
123.3632680028968
 20
-573.2685037402247
 30
0.0
 11
123.3632680028968
 21
-566.2472754817563
 31
0.0
  0
LINE
  5
16D
330
169
100
AcDbEntity
  8
dim
 62
     0
370
    -2
100
AcDbLine
 10
404.8632680028966
 20
-567.4972754817563
 30
0.0
 11
125.8632680028968
 21
-567.4972754817563
 31
0.0
  0
INSERT
  5
16E
330
169
100
AcDbEntity
  8
dim
 62
     0
370
    -2
100
AcDbBlockReference
  2
_Open30
 10
407.3632680028969
 20
-567.4972754817563
 30
0.0
 41
2.5
 42
2.5
 43
2.5
  0
INSERT
  5
16F
330
169
100
AcDbEntity
  8
dim
 62
     0
370
    -2
100
AcDbBlockReference
  2
_Open30
 10
123.3632680028968
 20
-567.4972754817563
 30
0.0
 41
2.5
 42
2.5
 43
2.5
 50
180.0
  0
MTEXT
  5
170
330
169
100
AcDbEntity
  8
dim
 62
     4
100
AcDbMText
 10
250.3904106323079
 20
-565.3722754817563
 30
0.0
 40
3.0
 41
0.0
 71
     5
 72
     1
  1
1420
 73
     1
 44
1.0
1001
ACAD
1000
MTEXTBEGIN
1070
    73
1070
     1
1070
    44
1040
1.0
1070
    74
1070
     0
1000
MTEXTEND
  0
POINT
  5
171
330
169
100
AcDbEntity
  8
Defpoints
 62
     0
100
AcDbPoint
 10
407.3632680028969
 20
-577.5185037402247
 30
0.0
  0
POINT
  5
172
330
169
100
AcDbEntity
  8
Defpoints
 62
     0
100
AcDbPoint
 10
123.3632680028968
 20
-573.5185037402247
 30
0.0
  0
POINT
  5
173
330
169
100
AcDbEntity
  8
Defpoints
 62
     0
100
AcDbPoint
 10
123.3632680028968
 20
-567.4972754817563
 30
0.0
  0
ENDBLK
  5
174
330
169
100
AcDbEntity
  8
0
100
AcDbBlockEnd
  0
BLOCK
  5
176
330
175
100
AcDbEntity
  8
0
100
AcDbBlockBegin
  2
*D5
 70
     1
 10
0.0
 20
0.0
 30
0.0
  3
*D5
  1

  0
LINE
  5
177
330
175
100
AcDbEntity
  8
dim
 62
     0
370
    -2
100
AcDbLine
 10
407.613268002897
 20
-684.8373049700097
 30
0.0
 11
432.1266541270968
 21
-684.8373049700097
 31
0.0
  0
LINE
  5
178
330
175
100
AcDbEntity
  8
dim
 62
     0
370
    -2
100
AcDbLine
 10
407.6132680028966
 20
-712.8373049700098
 30
0.0
 11
432.1266541270968
 21
-712.8373049700098
 31
0.0
  0
LINE
  5
179
330
175
100
AcDbEntity
  8
dim
 62
     0
370
    -2
100
AcDbLine
 10
430.8766541270967
 20
-687.3373049700098
 30
0.0
 11
430.8766541270967
 21
-710.3373049700097
 31
0.0
  0
INSERT
  5
17A
330
175
100
AcDbEntity
  8
dim
 62
     0
370
    -2
100
AcDbBlockReference
  2
_Open30
 10
430.8766541270967
 20
-684.8373049700097
 30
0.0
 41
2.5
 42
2.5
 43
2.5
 50
90.0
  0
INSERT
  5
17B
330
175
100
AcDbEntity
  8
dim
 62
     0
370
    -2
100
AcDbBlockReference
  2
_Open30
 10
430.8766541270967
 20
-712.8373049700098
 30
0.0
 41
2.5
 42
2.5
 43
2.5
 50
270.0
  0
MTEXT
  5
17C
330
175
100
AcDbEntity
  8
dim
 62
     4
100
AcDbMText
 10
428.751654127097
 20
-698.1084829323738
 30
0.0
 40
3.0
 41
0.0
 71
     5
 72
     1
  1
%%C140
 11
0.0000000000000001
 21
1.0
 31
0.0
 73
     1
 44
1.0
1001
ACAD
1000
MTEXTBEGIN
1070
    73
1070
     1
1070
    44
1040
1.0
1070
    74
1070
     0
1000
MTEXTEND
  0
POINT
  5
17D
330
175
100
AcDbEntity
  8
Defpoints
 62
     0
100
AcDbPoint
 10
407.3632680028969
 20
-684.8373049700097
 30
0.0
  0
POINT
  5
17E
330
175
100
AcDbEntity
  8
Defpoints
 62
     0
100
AcDbPoint
 10
407.3632680028968
 20
-712.8373049700098
 30
0.0
  0
POINT
  5
17F
330
175
100
AcDbEntity
  8
Defpoints
 62
     0
100
AcDbPoint
 10
430.8766541270967
 20
-712.8373049700098
 30
0.0
  0
ENDBLK
  5
180
330
175
100
AcDbEntity
  8
0
100
AcDbBlockEnd
  0
BLOCK
  5
182
330
181
100
AcDbEntity
  8
0
100
AcDbBlockBegin
  2
*D6
 70
     1
 10
0.0
 20
0.0
 30
0.0
  3
*D6
  1

  0
LINE
  5
183
330
181
100
AcDbEntity
  8
0
 62
     0
370
    -2
100
AcDbLine
 10
323.3632680028966
 20
-674.5873049700097
 30
0.0
 11
323.3632680028966
 21
-646.1047822300887
 31
0.0
  0
LINE
  5
184
330
181
100
AcDbEntity
  8
0
 62
     0
370
    -2
100
AcDbLine
 10
123.3632680028966
 20
-679.58730497001
 30
0.0
 11
123.3632680028966
 21
-646.1047822300887
 31
0.0
  0
LINE
  5
185
330
181
100
AcDbEntity
  8
0
 62
     0
370
    -2
100
AcDbLine
 10
320.8632680028966
 20
-647.3547822300887
 30
0.0
 11
125.8632680028965
 21
-647.3547822300887
 31
0.0
  0
INSERT
  5
186
330
181
100
AcDbEntity
  8
0
 62
     0
370
    -2
100
AcDbBlockReference
  2
_Open30
 10
323.3632680028966
 20
-647.3547822300887
 30
0.0
 41
2.5
 42
2.5
 43
2.5
  0
INSERT
  5
187
330
181
100
AcDbEntity
  8
0
 62
     0
370
    -2
100
AcDbBlockReference
  2
_Open30
 10
123.3632680028966
 20
-647.3547822300887
 30
0.0
 41
2.5
 42
2.5
 43
2.5
 50
180.0
  0
MTEXT
  5
188
330
181
100
AcDbEntity
  8
0
 62
     4
100
AcDbMText
 10
229.4944765891169
 20
-645.2297822300887
 30
0.0
 40
3.0
 41
0.0
 71
     5
 72
     1
  1
1000
 73
     1
 44
1.0
1001
ACAD
1000
MTEXTBEGIN
1070
    73
1070
     1
1070
    44
1040
1.0
1070
    74
1070
     0
1000
MTEXTEND
  0
POINT
  5
189
330
181
100
AcDbEntity
  8
Defpoints
 62
     0
100
AcDbPoint
 10
323.3632680028966
 20
-674.8373049700099
 30
0.0
  0
POINT
  5
18A
330
181
100
AcDbEntity
  8
Defpoints
 62
     0
100
AcDbPoint
 10
123.3632680028966
 20
-679.8373049700098
 30
0.0
  0
POINT
  5
18B
330
181
100
AcDbEntity
  8
Defpoints
 62
     0
100
AcDbPoint
 10
123.3632680028966
 20
-647.3547822300887
 30
0.0
  0
ENDBLK
  5
18C
330
181
100
AcDbEntity
  8
0
100
AcDbBlockEnd
  0
BLOCK
  5
4A8
330
49E
100
AcDbEntity
  8
0
100
AcDbBlockBegin
  2
*D7
 70
     1
 10
0.0
 20
0.0
 30
0.0
  3
*D7
  1

  0
LINE
  5
701
330
49E
100
AcDbEntity
  8
dim
 62
     0
370
    -2
100
AcDbLine
 10
154.8935834611454
 20
153.9311898472881
 30
0.0
 11
140.078392424524
 21
153.9311898472881
 31
0.0
  0
LINE
  5
702
330
49E
100
AcDbEntity
  8
dim
 62
     0
370
    -2
100
AcDbLine
 10
154.8935834611454
 20
115.9311898472883
 30
0.0
 11
140.078392424524
 21
115.9311898472883
 31
0.0
  0
LINE
  5
703
330
49E
100
AcDbEntity
  8
dim
 62
     0
370
    -2
100
AcDbLine
 10
141.328392424524
 20
151.4311898472881
 30
0.0
 11
141.328392424524
 21
118.4311898472883
 31
0.0
  0
INSERT
  5
704
330
49E
100
AcDbEntity
  8
dim
 62
     0
370
    -2
100
AcDbBlockReference
  2
_Open30
 10
141.328392424524
 20
153.9311898472881
 30
0.0
 41
2.5
 42
2.5
 43
2.5
 50
90.0
  0
INSERT
  5
705
330
49E
100
AcDbEntity
  8
dim
 62
     0
370
    -2
100
AcDbBlockReference
  2
_Open30
 10
141.328392424524
 20
115.9311898472883
 30
0.0
 41
2.5
 42
2.5
 43
2.5
 50
270.0
  0
MTEXT
  5
706
330
49E
100
AcDbEntity
  8
dim
 62
     4
100
AcDbMText
 10
139.203392424524
 20
135.7497207287064
 30
0.0
 40
3.0
 41
0.0
 71
     5
 72
     1
  1
\U+03C6190
 11
0.0000000000000001
 21
1.0
 31
0.0
 73
     1
 44
1.0
1001
ACAD
1000
MTEXTBEGIN
1070
    73
1070
     1
1070
    44
1040
1.0
1070
    74
1070
     0
1000
MTEXTEND
  0
POINT
  5
707
330
49E
100
AcDbEntity
  8
Defpoints
 62
     0
100
AcDbPoint
 10
155.1435834611454
 20
153.9311898472881
 30
0.0
  0
POINT
  5
708
330
49E
100
AcDbEntity
  8
Defpoints
 62
     0
100
AcDbPoint
 10
155.1435834611454
 20
115.9311898472883
 30
0.0
  0
POINT
  5
709
330
49E
100
AcDbEntity
  8
Defpoints
 62
     0
100
AcDbPoint
 10
141.328392424524
 20
115.9311898472883
 30
0.0
  0
ENDBLK
  5
4A9
330
49E
100
AcDbEntity
  8
0
100
AcDbBlockEnd
  0
BLOCK
  5
4B4
330
4AA
100
AcDbEntity
  8
0
100
AcDbBlockBegin
  2
*D8
 70
     1
 10
0.0
 20
0.0
 30
0.0
  3
*D8
  1

  0
LINE
  5
739
330
4AA
100
AcDbEntity
  8
dim
 62
     0
370
    -2
100
AcDbLine
 10
439.1435834611453
 20
132.6811898472884
 30
0.0
 11
439.1435834611453
 21
105.2170114192207
 31
0.0
  0
LINE
  5
73A
330
4AA
100
AcDbEntity
  8
dim
 62
     0
370
    -2
100
AcDbLine
 10
159.1435834611452
 20
132.6811898472883
 30
0.0
 11
159.1435834611452
 21
105.2170114192207
 31
0.0
  0
LINE
  5
73B
330
4AA
100
AcDbEntity
  8
dim
 62
     0
370
    -2
100
AcDbLine
 10
436.6435834611453
 20
106.4670114192207
 30
0.0
 11
161.6435834611452
 21
106.4670114192207
 31
0.0
  0
INSERT
  5
73C
330
4AA
100
AcDbEntity
  8
dim
 62
     0
370
    -2
100
AcDbBlockReference
  2
_Open30
 10
439.1435834611453
 20
106.4670114192207
 30
0.0
 41
2.5
 42
2.5
 43
2.5
  0
INSERT
  5
73D
330
4AA
100
AcDbEntity
  8
dim
 62
     0
370
    -2
100
AcDbBlockReference
  2
_Open30
 10
159.1435834611452
 20
106.4670114192207
 30
0.0
 41
2.5
 42
2.5
 43
2.5
 50
180.0
  0
MTEXT
  5
73E
330
4AA
100
AcDbEntity
  8
dim
 62
     4
100
AcDbMText
 10
294.4351800742766
 20
108.5920114192207
 30
0.0
 40
3.0
 41
0.0
 71
     5
 72
     1
  1
1400(ファスナー)
 73
     1
 44
1.0
1001
ACAD
1000
MTEXTBEGIN
1070
    73
1070
     1
1070
    44
1040
1.0
1070
    74
1070
     0
1000
MTEXTEND
  0
POINT
  5
73F
330
4AA
100
AcDbEntity
  8
Defpoints
 62
     0
100
AcDbPoint
 10
439.1435834611453
 20
132.9311898472884
 30
0.0
  0
POINT
  5
740
330
4AA
100
AcDbEntity
  8
Defpoints
 62
     0
100
AcDbPoint
 10
159.1435834611452
 20
132.9311898472883
 30
0.0
  0
POINT
  5
741
330
4AA
100
AcDbEntity
  8
Defpoints
 62
     0
100
AcDbPoint
 10
159.1435834611452
 20
106.4670114192207
 30
0.0
  0
ENDBLK
  5
4B5
330
4AA
100
AcDbEntity
  8
0
100
AcDbBlockEnd
  0
BLOCK
  5
4C9
330
4BF
100
AcDbEntity
  8
0
100
AcDbBlockBegin
  2
*D9
 70
     1
 10
0.0
 20
0.0
 30
0.0
  3
*D9
  1

  0
LINE
  5
730
330
4BF
100
AcDbEntity
  8
dim
 62
     0
370
    -2
100
AcDbLine
 10
443.1435834611455
 20
256.4999910770731
 30
0.0
 11
443.1435834611455
 21
267.5212193355418
 31
0.0
  0
LINE
  5
731
330
4BF
100
AcDbEntity
  8
dim
 62
     0
370
    -2
100
AcDbLine
 10
155.1435834611454
 20
260.4999910770732
 30
0.0
 11
155.1435834611454
 21
267.5212193355418
 31
0.0
  0
LINE
  5
732
330
4BF
100
AcDbEntity
  8
dim
 62
     0
370
    -2
100
AcDbLine
 10
440.6435834611454
 20
266.2712193355418
 30
0.0
 11
157.6435834611454
 21
266.2712193355418
 31
0.0
  0
INSERT
  5
733
330
4BF
100
AcDbEntity
  8
dim
 62
     0
370
    -2
100
AcDbBlockReference
  2
_Open30
 10
443.1435834611455
 20
266.2712193355418
 30
0.0
 41
2.5
 42
2.5
 43
2.5
  0
INSERT
  5
734
330
4BF
100
AcDbEntity
  8
dim
 62
     0
370
    -2
100
AcDbBlockReference
  2
_Open30
 10
155.1435834611454
 20
266.2712193355418
 30
0.0
 41
2.5
 42
2.5
 43
2.5
 50
180.0
  0
MTEXT
  5
735
330
4BF
100
AcDbEntity
  8
dim
 62
     4
100
AcDbMText
 10
286.1707260905565
 20
268.3962193355418
 30
0.0
 40
3.0
 41
0.0
 71
     5
 72
     1
  1
1440
 73
     1
 44
1.0
1001
ACAD
1000
MTEXTBEGIN
1070
    73
1070
     1
1070
    44
1040
1.0
1070
    74
1070
     0
1000
MTEXTEND
  0
POINT
  5
736
330
4BF
100
AcDbEntity
  8
Defpoints
 62
     0
100
AcDbPoint
 10
443.1435834611455
 20
256.2499910770732
 30
0.0
  0
POINT
  5
737
330
4BF
100
AcDbEntity
  8
Defpoints
 62
     0
100
AcDbPoint
 10
155.1435834611454
 20
260.2499910770732
 30
0.0
  0
POINT
  5
738
330
4BF
100
AcDbEntity
  8
Defpoints
 62
     0
100
AcDbPoint
 10
155.1435834611454
 20
266.2712193355418
 30
0.0
  0
ENDBLK
  5
4CA
330
4BF
100
AcDbEntity
  8
0
100
AcDbBlockEnd
  0
BLOCK
  5
4DE
330
4D4
100
AcDbEntity
  8
0
100
AcDbBlockBegin
  2
*D10
 70
     1
 10
0.0
 20
0.0
 30
0.0
  3
*D10
  1

  0
LINE
  5
742
330
4D4
100
AcDbEntity
  8
dim
 62
     0
370
    -2
100
AcDbLine
 10
443.3935834611454
 20
148.9311898472883
 30
0.0
 11
463.9069695853456
 21
148.9311898472882
 31
0.0
  0
LINE
  5
743
330
4D4
100
AcDbEntity
  8
dim
 62
     0
370
    -2
100
AcDbLine
 10
443.3935834611453
 20
120.9311898472883
 30
0.0
 11
463.9069695853456
 21
120.9311898472883
 31
0.0
  0
LINE
  5
744
330
4D4
100
AcDbEntity
  8
dim
 62
     0
370
    -2
100
AcDbLine
 10
462.6569695853456
 20
146.4311898472882
 30
0.0
 11
462.6569695853456
 21
123.4311898472883
 31
0.0
  0
INSERT
  5
745
330
4D4
100
AcDbEntity
  8
dim
 62
     0
370
    -2
100
AcDbBlockReference
  2
_Open30
 10
462.6569695853456
 20
148.9311898472882
 30
0.0
 41
2.5
 42
2.5
 43
2.5
 50
90.0
  0
INSERT
  5
746
330
4D4
100
AcDbEntity
  8
dim
 62
     0
370
    -2
100
AcDbBlockReference
  2
_Open30
 10
462.6569695853456
 20
120.9311898472883
 30
0.0
 41
2.5
 42
2.5
 43
2.5
 50
270.0
  0
MTEXT
  5
747
330
4D4
100
AcDbEntity
  8
dim
 62
     4
100
AcDbMText
 10
460.5319695853456
 20
135.660011884924
 30
0.0
 40
3.0
 41
0.0
 71
     5
 72
     1
  1
%%C140
 11
0.0000000000000001
 21
1.0
 31
0.0
 73
     1
 44
1.0
1001
ACAD
1000
MTEXTBEGIN
1070
    73
1070
     1
1070
    44
1040
1.0
1070
    74
1070
     0
1000
MTEXTEND
  0
POINT
  5
748
330
4D4
100
AcDbEntity
  8
Defpoints
 62
     0
100
AcDbPoint
 10
443.1435834611455
 20
148.9311898472883
 30
0.0
  0
POINT
  5
749
330
4D4
100
AcDbEntity
  8
Defpoints
 62
     0
100
AcDbPoint
 10
443.1435834611454
 20
120.9311898472883
 30
0.0
  0
POINT
  5
74A
330
4D4
100
AcDbEntity
  8
Defpoints
 62
     0
100
AcDbPoint
 10
462.6569695853456
 20
120.9311898472883
 30
0.0
  0
ENDBLK
  5
4DF
330
4D4
100
AcDbEntity
  8
0
100
AcDbBlockEnd
  0
BLOCK
  5
4EA
330
4E0
100
AcDbEntity
  8
0
100
AcDbBlockBegin
  2
*D11
 70
     1
 10
0.0
 20
0.0
 30
0.0
  3
*D11
  1

  0
LINE
  5
725
330
4E0
100
AcDbEntity
  8
0
 62
     0
370
    -2
100
AcDbLine
 10
355.1435834611452
 20
159.1811898472881
 30
0.0
 11
355.1435834611452
 21
187.6637125872092
 31
0.0
  0
LINE
  5
726
330
4E0
100
AcDbEntity
  8
0
 62
     0
370
    -2
100
AcDbLine
 10
155.1435834611451
 20
154.1811898472881
 30
0.0
 11
155.1435834611451
 21
187.6637125872092
 31
0.0
  0
LINE
  5
727
330
4E0
100
AcDbEntity
  8
0
 62
     0
370
    -2
100
AcDbLine
 10
352.6435834611452
 20
186.4137125872092
 30
0.0
 11
157.6435834611451
 21
186.4137125872092
 31
0.0
  0
INSERT
  5
728
330
4E0
100
AcDbEntity
  8
0
 62
     0
370
    -2
100
AcDbBlockReference
  2
_Open30
 10
355.1435834611452
 20
186.4137125872092
 30
0.0
 41
2.5
 42
2.5
 43
2.5
  0
INSERT
  5
729
330
4E0
100
AcDbEntity
  8
0
 62
     0
370
    -2
100
AcDbBlockReference
  2
_Open30
 10
155.1435834611451
 20
186.4137125872092
 30
0.0
 41
2.5
 42
2.5
 43
2.5
 50
180.0
  0
MTEXT
  5
72A
330
4E0
100
AcDbEntity
  8
0
 62
     4
100
AcDbMText
 10
261.2747920473655
 20
188.5387125872092
 30
0.0
 40
3.0
 41
0.0
 71
     5
 72
     1
  1
1000
 73
     1
 44
1.0
1001
ACAD
1000
MTEXTBEGIN
1070
    73
1070
     1
1070
    44
1040
1.0
1070
    74
1070
     0
1000
MTEXTEND
  0
POINT
  5
72B
330
4E0
100
AcDbEntity
  8
Defpoints
 62
     0
100
AcDbPoint
 10
355.1435834611452
 20
158.9311898472882
 30
0.0
  0
POINT
  5
72C
330
4E0
100
AcDbEntity
  8
Defpoints
 62
     0
100
AcDbPoint
 10
155.1435834611451
 20
153.9311898472881
 30
0.0
  0
POINT
  5
72D
330
4E0
100
AcDbEntity
  8
Defpoints
 62
     0
100
AcDbPoint
 10
155.1435834611451
 20
186.4137125872092
 30
0.0
  0
ENDBLK
  5
4EB
330
4E0
100
AcDbEntity
  8
0
100
AcDbBlockEnd
  0
ENDSEC
  0
SECTION
  2
ENTITIES
  0
LINE
  5
31C
330
1F
100
AcDbEntity
  8
01
100
AcDbLine
 10
155.1435834611454
 20
115.9311898472883
 30
0.0
 11
155.1435834611451
 21
153.9311898472881
 31
0.0
  0
LINE
  5
31D
330
1F
100
AcDbEntity
  8
01
100
AcDbLine
 10
159.1435834611452
 20
132.9311898472883
 30
0.0
 11
159.1435834611452
 21
136.9311898472883
 31
0.0
  0
LINE
  5
31E
330
1F
100
AcDbEntity
  8
01
100
AcDbLine
 10
439.1435834611451
 20
132.9311898472883
 30
0.0
 11
439.1435834611451
 21
133.9311898472883
 31
0.0
  0
LINE
  5
31F
330
1F
100
AcDbEntity
  8
01
100
AcDbLine
 10
439.1435834611451
 20
135.9311898472883
 30
0.0
 11
439.1435834611451
 21
136.9311898472883
 31
0.0
  0
LINE
  5
320
330
1F
100
AcDbEntity
  8
01
100
AcDbLine
 10
355.1435834611452
 20
155.6210923256285
 30
0.0
 11
355.1435834611451
 21
158.9311898472882
 31
0.0
  0
ARC
  5
321
330
1F
100
AcDbEntity
  8
01
100
AcDbCircle
 10
351.1435834611452
 20
155.6210923256285
 30
0.0
 40
4.0
100
AcDbArc
 50
269.0322579234887
 51
0.0
  0
ARC
  5
322
330
1F
100
AcDbEntity
  8
01
100
AcDbCircle
 10
351.1435834611451
 20
158.9311898472881
 30
0.0
 40
4.0
100
AcDbArc
 50
0.0
 51
90.0
  0
LINE
  5
323
330
1F
100
AcDbEntity
  8
01
100
AcDbLine
 10
154.1435834611454
 20
134.9311898472883
 30
0.0
 11
154.1435834611452
 21
153.9311898472881
 31
0.0
  0
LINE
  5
324
330
1F
100
AcDbEntity
  8
01
100
AcDbLine
 10
443.1435834611454
 20
120.9311898472883
 30
0.0
 11
443.1435834611455
 21
148.9311898472883
 31
0.0
  0
LINE
  5
325
330
1F
100
AcDbEntity
  8
01
100
AcDbLine
 10
356.1435834611454
 20
155.6210923256284
 30
0.0
 11
356.1435834611454
 21
158.9311898472881
 31
0.0
  0
ARC
  5
326
330
1F
100
AcDbEntity
  8
01
100
AcDbCircle
 10
351.1435834611455
 20
158.9311898472881
 30
0.0
 40
5.0
100
AcDbArc
 50
0.0
 51
90.0
  0
LINE
  5
327
330
1F
100
AcDbEntity
  8
01
100
AcDbLine
 10
344.1435834611456
 20
150.7386222797206
 30
0.0
 11
344.1435834611457
 21
151.7387649375508
 31
0.0
  0
LINE
  5
328
330
1F
100
AcDbEntity
  8
dim
  6
CENTER2
100
AcDbLine
 10
81.7303597201465
 20
134.9311898472881
 30
0.0
 11
131.5214384151132
 21
134.9311898472881
 31
0.0
  0
LINE
  5
329
330
1F
100
AcDbEntity
  8
dim
  6
CENTER2
100
AcDbLine
 10
142.957065844157
 20
134.9311898472883
 30
0.0
 11
448.9264614380097
 21
134.9311898472883
 31
0.0
  0
LINE
  5
32A
330
1F
100
AcDbEntity
  8
01
100
AcDbLine
 10
437.1702381999287
 20
133.9311898472883
 30
0.0
 11
440.1160489540742
 21
133.9311898472883
 31
0.0
  0
LINE
  5
32B
330
1F
100
AcDbEntity
  8
01
100
AcDbLine
 10
437.1702381999287
 20
135.9311898472883
 30
0.0
 11
440.1160489540742
 21
135.9311898472883
 31
0.0
  0
LINE
  5
32C
330
1F
100
AcDbEntity
  8
01
100
AcDbLine
 10
159.1435834611452
 20
134.4311898472883
 30
0.0
 11
437.732011213388
 21
134.4311898472883
 31
0.0
  0
LINE
  5
32D
330
1F
100
AcDbEntity
  8
01
100
AcDbLine
 10
159.1435834611452
 20
132.9311898472883
 30
0.0
 11
439.1435834611451
 21
132.9311898472883
 31
0.0
  0
LINE
  5
32E
330
1F
100
AcDbEntity
  8
01
100
AcDbLine
 10
159.1435834611452
 20
135.4311898472883
 30
0.0
 11
437.732011213388
 21
135.4311898472883
 31
0.0
  0
LINE
  5
32F
330
1F
100
AcDbEntity
  8
01
100
AcDbLine
 10
159.1435834611452
 20
136.9311898472883
 30
0.0
 11
439.1435834611451
 21
136.9311898472883
 31
0.0
  0
LINE
  5
330
330
1F
100
AcDbEntity
  8
01
100
AcDbLine
 10
155.1435834611454
 20
153.9311898472881
 30
0.0
 11
443.1435834611455
 21
148.9311898472883
 31
0.0
  0
ARC
  5
331
330
1F
100
AcDbEntity
  8
01
100
AcDbCircle
 10
351.1435834611455
 20
155.6210923256285
 30
0.0
 40
5.0
100
AcDbArc
 50
269.0322579234887
 51
0.0
  0
LINE
  5
332
330
1F
100
AcDbEntity
  8
01
100
AcDbLine
 10
339.1435834611455
 20
151.8232243970103
 30
0.0
 11
351.0760255312454
 21
151.621662875556
 31
0.0
  0
LINE
  5
333
330
1F
100
AcDbEntity
  8
01
100
AcDbLine
 10
168.579480508695
 20
161.9311898472881
 30
0.0
 11
174.1249667201829
 21
161.9311898472881
 31
0.0
  0
LINE
  5
334
330
1F
100
AcDbEntity
  8
01
100
AcDbLine
 10
164.1435834611451
 20
162.9311898472881
 30
0.0
 11
250.6386863040922
 21
162.9311898472881
 31
0.0
  0
LINE
  5
335
330
1F
100
AcDbEntity
  8
01
100
AcDbLine
 10
252.7725980635134
 20
162.9311898472881
 30
0.0
 11
264.772189433792
 21
162.9311898472881
 31
0.0
  0
LINE
  5
336
330
1F
100
AcDbEntity
  8
01
100
AcDbLine
 10
266.9061011932135
 20
162.9311898472881
 30
0.0
 11
306.2675168544079
 21
162.9311898472881
 31
0.0
  0
LINE
  5
337
330
1F
100
AcDbEntity
  8
01
100
AcDbLine
 10
333.5545000671914
 20
162.9311898472881
 30
0.0
 11
351.1435834611451
 21
162.9311898472881
 31
0.0
  0
LINE
  5
338
330
1F
100
AcDbEntity
  8
01
100
AcDbLine
 10
176.1248986152292
 20
161.9311898472881
 30
0.0
 11
253.1745376566386
 21
161.9311898472881
 31
0.0
  0
LINE
  5
339
330
1F
100
AcDbEntity
  8
01
  6
HIDDEN2
 62
     7
100
AcDbLine
 10
306.2675168544079
 20
162.9311898472891
 30
0.0
 11
333.5545000671914
 21
162.9311898472891
 31
0.0
  0
LINE
  5
33A
330
1F
100
AcDbEntity
  8
01
100
AcDbLine
 10
306.2675168544079
 20
161.9311898472891
 30
0.0
 11
333.5545000671914
 21
161.9311898472891
 31
0.0
  0
LINE
  5
33B
330
1F
100
AcDbEntity
  8
01
100
AcDbLine
 10
164.1435834611451
 20
163.9311898472881
 30
0.0
 11
177.5916450795864
 21
163.9311898472881
 31
0.0
  0
LINE
  5
33C
330
1F
100
AcDbEntity
  8
01
100
AcDbLine
 10
181.7502939321654
 20
163.9311898472881
 30
0.0
 11
250.9066460328422
 21
163.9311898472881
 31
0.0
  0
LINE
  5
33D
330
1F
100
AcDbEntity
  8
01
100
AcDbLine
 10
252.7725980635134
 20
163.9311898472881
 30
0.0
 11
264.772189433792
 21
163.9311898472881
 31
0.0
  0
LINE
  5
33E
330
1F
100
AcDbEntity
  8
01
100
AcDbLine
 10
266.6381414644636
 20
163.9311898472881
 30
0.0
 11
306.2675168544079
 21
163.9311898472881
 31
0.0
  0
LINE
  5
33F
330
1F
100
AcDbEntity
  8
01
100
AcDbLine
 10
333.5545000671914
 20
163.9311898472881
 30
0.0
 11
351.1435834611455
 21
163.9311898472881
 31
0.0
  0
LINE
  5
340
330
1F
100
AcDbEntity
  8
01
  6
HIDDEN2
 62
     7
100
AcDbLine
 10
306.2675168544079
 20
163.9311898472891
 30
0.0
 11
333.5545000671914
 21
163.9311898472891
 31
0.0
  0
LINE
  5
341
330
1F
100
AcDbEntity
  8
01
100
AcDbLine
 10
306.2675168544079
 20
164.9311898472891
 30
0.0
 11
333.5545000671914
 21
164.9311898472891
 31
0.0
  0
ARC
  5
342
330
1F
100
AcDbEntity
  8
01
100
AcDbCircle
 10
164.1435834611451
 20
153.9311898472881
 30
0.0
 40
9.0
100
AcDbArc
 50
90.0
 51
180.0
  0
ARC
  5
343
330
1F
100
AcDbEntity
  8
01
100
AcDbCircle
 10
164.1435834611451
 20
153.9311898472881
 30
0.0
 40
10.0
100
AcDbArc
 50
90.0
 51
180.0
  0
LINE
  5
344
330
1F
100
AcDbEntity
  8
01
100
AcDbLine
 10
155.1435834611454
 20
115.9311898472883
 30
0.0
 11
443.1435834611454
 21
120.9311898472883
 31
0.0
  0
LINE
  5
345
330
1F
100
AcDbEntity
  8
dim
  6
CENTER2
100
AcDbLine
 10
106.6258990676301
 20
107.0881681464564
 30
0.0
 11
106.6258990676301
 21
159.7742115481198
 31
0.0
  0
LINE
  5
346
330
1F
100
AcDbEntity
  8
01
100
AcDbLine
 10
102.6258990676298
 20
134.9311898472881
 30
0.0
 11
102.6258990676301
 21
165.9311898472881
 31
0.0
  0
LINE
  5
347
330
1F
100
AcDbEntity
  8
01
100
AcDbLine
 10
110.6258990676298
 20
134.9311898472881
 30
0.0
 11
110.6258990676301
 21
165.9311898472881
 31
0.0
  0
LINE
  5
349
330
1F
100
AcDbEntity
  8
01
100
AcDbLine
 10
102.6258990676301
 20
165.9311898472881
 30
0.0
 11
110.6258990676301
 21
165.9311898472881
 31
0.0
  0
LINE
  5
34A
330
1F
100
AcDbEntity
  8
01
100
AcDbLine
 10
102.6258990676298
 20
134.9311898472881
 30
0.0
 11
110.6258990676298
 21
134.9311898472881
 31
0.0
  0
LINE
  5
34B
330
1F
100
AcDbEntity
  8
01
100
AcDbLine
 10
333.5545000671914
 20
164.9311898472891
 30
0.0
 11
333.5545000671914
 21
161.9311898472891
 31
0.0
  0
LINE
  5
34C
330
1F
100
AcDbEntity
  8
01
100
AcDbLine
 10
306.2675168544079
 20
161.9311898472891
 30
0.0
 11
306.2675168544079
 21
164.9311898472891
 31
0.0
  0
LINE
  5
34D
330
1F
100
AcDbEntity
  8
01
100
AcDbLine
 10
176.1248986152292
 20
161.9311898472881
 30
0.0
 11
174.3929264489333
 21
162.9311898472881
 31
0.0
  0
LINE
  5
34E
330
1F
100
AcDbEntity
  8
01
100
AcDbLine
 10
175.8569388864791
 20
160.9311898472881
 30
0.0
 11
174.1249667201829
 21
161.9311898472881
 31
0.0
  0
ARC
  5
34F
330
1F
100
AcDbEntity
  8
01
100
AcDbCircle
 10
177.5916450795864
 20
162.4311898472881
 30
0.0
 40
1.5
100
AcDbArc
 50
270.0
 51
340.528779365583
  0
ARC
  5
350
330
1F
100
AcDbEntity
  8
01
100
AcDbCircle
 10
177.5916450795864
 20
162.4311898472881
 30
0.0
 40
1.5
100
AcDbArc
 50
19.47122063441699
 51
90.0
  0
LINE
  5
351
330
1F
100
AcDbEntity
  8
01
100
AcDbLine
 10
177.5916450795864
 20
160.9311898472881
 30
0.0
 11
175.8569388864791
 21
160.9311898472881
 31
0.0
  0
LINE
  5
352
330
1F
100
AcDbEntity
  8
01
100
AcDbLine
 10
168.579480508695
 20
161.9311898472881
 30
0.0
 11
168.579480508695
 21
162.9311898472881
 31
0.0
  0
LINE
  5
353
330
1F
100
AcDbEntity
  8
01
100
AcDbLine
 10
253.442497385389
 20
160.9311898472881
 30
0.0
 11
256.9064417179811
 21
162.9311898472881
 31
0.0
  0
LINE
  5
354
330
1F
100
AcDbEntity
  8
01
100
AcDbLine
 10
253.1745376566386
 20
161.9311898472881
 30
0.0
 11
254.9065098229345
 21
162.9311898472881
 31
0.0
  0
LINE
  5
355
330
1F
100
AcDbEntity
  8
01
100
AcDbLine
 10
256.6384819892309
 20
163.9311898472881
 30
0.0
 11
258.0223682084254
 21
164.7302132069728
 31
0.0
  0
LINE
  5
356
330
1F
100
AcDbEntity
  8
01
100
AcDbLine
 10
254.6385500941846
 20
163.9311898472881
 30
0.0
 11
257.5223511816072
 21
165.596228780096
 31
0.0
  0
LINE
  5
357
330
1F
100
AcDbEntity
  8
01
100
AcDbLine
 10
255.4424292804355
 20
160.9311898472881
 30
0.0
 11
258.9063736130276
 21
162.9311898472881
 31
0.0
  0
LINE
  5
358
330
1F
100
AcDbEntity
  8
01
100
AcDbLine
 10
255.7103890091864
 20
159.9311898472881
 30
0.0
 11
259.5224192888799
 21
162.1321664876034
 31
0.0
  0
ARC
  5
359
330
1F
100
AcDbEntity
  8
01
100
AcDbCircle
 10
181.7502939321654
 20
162.4311898472881
 30
0.0
 40
1.5
100
AcDbArc
 50
90.0
 51
160.528779365583
  0
ARC
  5
35A
330
1F
100
AcDbEntity
  8
01
100
AcDbCircle
 10
181.7502939321654
 20
162.4311898472881
 30
0.0
 40
1.5
100
AcDbArc
 50
199.471220634417
 51
270.0
  0
LINE
  5
35B
330
1F
100
AcDbEntity
  8
01
100
AcDbLine
 10
181.7502939321654
 20
160.9311898472881
 30
0.0
 11
255.4424292804355
 21
160.9311898472881
 31
0.0
  0
LINE
  5
35C
330
1F
100
AcDbEntity
  8
01
100
AcDbLine
 10
246.7678507777506
 20
159.9311898472881
 30
0.0
 11
255.7103890091864
 21
159.9311898472881
 31
0.0
  0
LINE
  5
35D
330
1F
100
AcDbEntity
  8
01
100
AcDbLine
 10
258.2723937486528
 20
247.2499910770732
 30
0.0
 11
258.2723937486528
 21
246.2499910770731
 31
0.0
  0
LINE
  5
35E
330
1F
100
AcDbEntity
  8
01
100
AcDbLine
 10
258.2723937486528
 20
238.2499910770732
 30
0.0
 11
258.2723937486528
 21
237.2499910770732
 31
0.0
  0
LINE
  5
35F
330
1F
100
AcDbEntity
  8
01
100
AcDbLine
 10
259.2723937486527
 20
247.2499910770732
 30
0.0
 11
259.2723937486527
 21
246.2499910770731
 31
0.0
  0
LINE
  5
360
330
1F
100
AcDbEntity
  8
01
100
AcDbLine
 10
259.2723937486527
 20
238.2499910770732
 30
0.0
 11
259.2723937486527
 21
237.2499910770732
 31
0.0
  0
ARC
  5
361
330
1F
100
AcDbEntity
  8
01
100
AcDbCircle
 10
258.7723937486527
 20
163.4311898472881
 30
0.0
 40
1.5
100
AcDbArc
 50
300.0011264916194
 51
340.528779365583
  0
ARC
  5
362
330
1F
100
AcDbEntity
  8
01
100
AcDbCircle
 10
258.7723937486527
 20
163.4311898472881
 30
0.0
 40
1.5
100
AcDbArc
 50
19.47122063441699
 51
120.0011264916194
  0
ARC
  5
363
330
1F
100
AcDbEntity
  8
01
100
AcDbCircle
 10
258.7723937486527
 20
163.4311898472881
 30
0.0
 40
2.5
100
AcDbArc
 50
59.99887350838054
 51
120.0011264916194
  0
LINE
  5
364
330
1F
100
AcDbEntity
  8
01
100
AcDbLine
 10
246.7678507777506
 20
159.9311898472881
 30
0.0
 11
246.7678507777506
 21
160.9311898472881
 31
0.0
  0
LINE
  5
365
330
1F
100
AcDbEntity
  8
01
100
AcDbLine
 10
262.9062374031209
 20
163.9311898472881
 30
0.0
 11
260.0224363156983
 21
165.596228780096
 31
0.0
  0
LINE
  5
366
330
1F
100
AcDbEntity
  8
01
100
AcDbLine
 10
264.0221638935649
 20
162.1321664876034
 30
0.0
 11
262.638277674371
 21
162.9311898472881
 31
0.0
  0
LINE
  5
367
330
1F
100
AcDbEntity
  8
01
100
AcDbLine
 10
260.9063055080743
 20
163.9311898472881
 30
0.0
 11
259.5224192888801
 21
164.7302132069728
 31
0.0
  0
ARC
  5
368
330
1F
100
AcDbEntity
  8
01
100
AcDbCircle
 10
252.7725980635134
 20
163.4311898472881
 30
0.0
 40
0.50000000000018
100
AcDbArc
 50
90.0
 51
270.0
  0
ARC
  5
369
330
1F
100
AcDbEntity
  8
01
100
AcDbCircle
 10
252.7725980635134
 20
163.4311898472881
 30
0.0
 40
1.500000000000178
100
AcDbArc
 50
239.9988735083805
 51
300.0011264916194
  0
LINE
  5
36A
330
1F
100
AcDbEntity
  8
01
100
AcDbLine
 10
252.0225725232862
 20
162.1321664876034
 30
0.0
 11
250.6386863040922
 21
162.9311898472881
 31
0.0
  0
LINE
  5
36B
330
1F
100
AcDbEntity
  8
01
100
AcDbLine
 10
252.5225895501043
 20
162.9981820607265
 30
0.0
 11
250.9066460328422
 21
163.9311898472881
 31
0.0
  0
LINE
  5
36C
330
1F
100
AcDbEntity
  8
01
100
AcDbLine
 10
264.0221638935649
 20
162.1321664876034
 30
0.0
 11
262.638277674371
 21
162.9311898472881
 31
0.0
  0
LINE
  5
36D
330
1F
100
AcDbEntity
  8
01
100
AcDbLine
 10
260.9063055080743
 20
163.9311898472881
 30
0.0
 11
259.5224192888801
 21
164.7302132069728
 31
0.0
  0
LINE
  5
36E
330
1F
100
AcDbEntity
  8
01
100
AcDbLine
 10
262.9062374031207
 20
163.9311898472881
 30
0.0
 11
260.0224363156983
 21
165.596228780096
 31
0.0
  0
ARC
  5
36F
330
1F
100
AcDbEntity
  8
01
100
AcDbCircle
 10
264.772189433792
 20
163.4311898472881
 30
0.0
 40
0.50000000000018
100
AcDbArc
 50
270.0
 51
90.0
  0
ARC
  5
370
330
1F
100
AcDbEntity
  8
01
100
AcDbCircle
 10
264.772189433792
 20
163.4311898472881
 30
0.0
 40
1.500000000000178
100
AcDbArc
 50
239.9988735083805
 51
300.0011264916194
  0
LINE
  5
371
330
1F
100
AcDbEntity
  8
01
100
AcDbLine
 10
265.5222149740193
 20
162.1321664876034
 30
0.0
 11
266.9061011932135
 21
162.9311898472881
 31
0.0
  0
LINE
  5
372
330
1F
100
AcDbEntity
  8
01
100
AcDbLine
 10
265.0221979472014
 20
162.9981820607265
 30
0.0
 11
266.6381414644636
 21
163.9311898472881
 31
0.0
  0
LINE
  5
373
330
1F
100
AcDbEntity
  8
01
100
AcDbLine
 10
155.1435834611454
 20
223.2499910770731
 30
0.0
 11
155.1435834611454
 21
238.2499910770732
 31
0.0
  0
LINE
  5
374
330
1F
100
AcDbEntity
  8
01
  6
HIDDEN2
 62
     7
100
AcDbLine
 10
155.1435834611454
 20
238.2499910770732
 30
0.0
 11
155.1435834611454
 21
246.2499910770731
 31
0.0
  0
LINE
  5
375
330
1F
100
AcDbEntity
  8
01
100
AcDbLine
 10
155.1435834611454
 20
246.2499910770731
 30
0.0
 11
155.1435834611451
 21
261.2499910770732
 31
0.0
  0
LINE
  5
376
330
1F
100
AcDbEntity
  8
01
100
AcDbLine
 10
154.1435834611454
 20
238.2499910770732
 30
0.0
 11
154.1435834611454
 21
246.2499910770731
 31
0.0
  0
LINE
  5
377
330
1F
100
AcDbEntity
  8
01
  6
HIDDEN2
 62
     7
100
AcDbLine
 10
355.1435834611455
 20
238.2499910770732
 30
0.0
 11
355.1435834611455
 21
246.2499910770731
 31
0.0
  0
LINE
  5
378
330
1F
100
AcDbEntity
  8
01
100
AcDbLine
 10
443.1435834611453
 20
228.2499910770732
 30
0.0
 11
443.1435834611455
 21
256.2499910770732
 31
0.0
  0
LINE
  5
379
330
1F
100
AcDbEntity
  8
01
100
AcDbLine
 10
356.1435834611454
 20
238.2499910770732
 30
0.0
 11
356.1435834611454
 21
246.2499910770731
 31
0.0
  0
LINE
  5
37A
330
1F
100
AcDbEntity
  8
dim
  6
CENTER2
100
AcDbLine
 10
142.9570658441568
 20
242.2499910770731
 30
0.0
 11
448.9264614380092
 21
242.2499910770731
 31
0.0
  0
LINE
  5
37B
330
1F
100
AcDbEntity
  8
01
100
AcDbLine
 10
154.1435834611454
 20
238.2499910770732
 30
0.0
 11
179.0916450795864
 21
238.2499910770732
 31
0.0
  0
LINE
  5
37C
330
1F
100
AcDbEntity
  8
01
100
AcDbLine
 10
180.2502939321654
 20
238.2499910770732
 30
0.0
 11
252.2725980635129
 21
238.2499910770732
 31
0.0
  0
LINE
  5
37D
330
1F
100
AcDbEntity
  8
01
100
AcDbLine
 10
253.2725980635131
 20
238.2499910770732
 30
0.0
 11
264.2721894337926
 21
238.2499910770732
 31
0.0
  0
LINE
  5
37E
330
1F
100
AcDbEntity
  8
01
100
AcDbLine
 10
265.2721894337926
 20
238.2499910770732
 30
0.0
 11
356.1435834611454
 21
238.2499910770732
 31
0.0
  0
LINE
  5
37F
330
1F
100
AcDbEntity
  8
01
100
AcDbLine
 10
177.7164106177916
 20
237.2499910770732
 30
0.0
 11
181.6255283939603
 21
237.2499910770732
 31
0.0
  0
LINE
  5
380
330
1F
100
AcDbEntity
  8
01
100
AcDbLine
 10
177.7164106177908
 20
236.2499910770732
 30
0.0
 11
181.6255283939606
 21
236.2499910770732
 31
0.0
  0
LINE
  5
381
330
1F
100
AcDbEntity
  8
01
100
AcDbLine
 10
154.1435834611454
 20
246.2499910770731
 30
0.0
 11
179.0916450795864
 21
246.2499910770731
 31
0.0
  0
LINE
  5
382
330
1F
100
AcDbEntity
  8
01
100
AcDbLine
 10
180.2502939321654
 20
246.2499910770731
 30
0.0
 11
252.2725980635129
 21
246.2499910770731
 31
0.0
  0
LINE
  5
383
330
1F
100
AcDbEntity
  8
01
100
AcDbLine
 10
253.2725980635131
 20
246.2499910770731
 30
0.0
 11
264.2721894337926
 21
246.2499910770731
 31
0.0
  0
LINE
  5
384
330
1F
100
AcDbEntity
  8
01
100
AcDbLine
 10
265.2721894337926
 20
246.2499910770731
 30
0.0
 11
356.1435834611454
 21
246.2499910770731
 31
0.0
  0
LINE
  5
385
330
1F
100
AcDbEntity
  8
01
100
AcDbLine
 10
177.7164106177916
 20
247.2499910770732
 30
0.0
 11
181.6255283939603
 21
247.2499910770732
 31
0.0
  0
LINE
  5
386
330
1F
100
AcDbEntity
  8
01
100
AcDbLine
 10
177.7164106177908
 20
248.2499910770731
 30
0.0
 11
181.6255283939606
 21
248.2499910770731
 31
0.0
  0
LINE
  5
387
330
1F
100
AcDbEntity
  8
01
100
AcDbLine
 10
155.1435834611454
 20
261.2499910770732
 30
0.0
 11
443.1435834611455
 21
256.2499910770732
 31
0.0
  0
LINE
  5
38A
330
1F
100
AcDbEntity
  8
01
100
AcDbLine
 10
180.2502939321654
 20
238.2499910770732
 30
0.0
 11
180.2502939321654
 21
246.2499910770731
 31
0.0
  0
LINE
  5
38B
330
1F
100
AcDbEntity
  8
01
100
AcDbLine
 10
179.0916450795864
 20
238.2499910770732
 30
0.0
 11
179.0916450795864
 21
246.2499910770731
 31
0.0
  0
LINE
  5
38C
330
1F
100
AcDbEntity
  8
01
100
AcDbLine
 10
182.6255283939605
 20
247.2499910770732
 30
0.0
 11
182.6255283939605
 21
246.2499910770731
 31
0.0
  0
LINE
  5
38D
330
1F
100
AcDbEntity
  8
01
100
AcDbLine
 10
182.6255283939605
 20
238.2499910770732
 30
0.0
 11
182.6255283939605
 21
237.2499910770732
 31
0.0
  0
LINE
  5
38E
330
1F
100
AcDbEntity
  8
01
100
AcDbLine
 10
181.6255283939603
 20
247.2499910770732
 30
0.0
 11
181.6255283939603
 21
246.2499910770731
 31
0.0
  0
LINE
  5
38F
330
1F
100
AcDbEntity
  8
01
100
AcDbLine
 10
181.6255283939603
 20
238.2499910770732
 30
0.0
 11
181.6255283939603
 21
237.2499910770732
 31
0.0
  0
LINE
  5
390
330
1F
100
AcDbEntity
  8
01
100
AcDbLine
 10
177.7164106177916
 20
247.2499910770732
 30
0.0
 11
177.7164106177916
 21
246.2499910770731
 31
0.0
  0
LINE
  5
391
330
1F
100
AcDbEntity
  8
01
100
AcDbLine
 10
177.7164106177916
 20
238.2499910770732
 30
0.0
 11
177.7164106177916
 21
237.2499910770732
 31
0.0
  0
LINE
  5
392
330
1F
100
AcDbEntity
  8
01
100
AcDbLine
 10
176.7164106177908
 20
247.2499910770732
 30
0.0
 11
176.7164106177908
 21
246.2499910770731
 31
0.0
  0
LINE
  5
393
330
1F
100
AcDbEntity
  8
01
100
AcDbLine
 10
176.7164106177908
 20
238.2499910770732
 30
0.0
 11
176.7164106177908
 21
237.2499910770732
 31
0.0
  0
ARC
  5
394
330
1F
100
AcDbEntity
  8
01
100
AcDbCircle
 10
181.6255283939606
 20
247.2499910770732
 30
0.0
 40
1.0
100
AcDbArc
 50
0.0
 51
90.0
  0
ARC
  5
395
330
1F
100
AcDbEntity
  8
01
100
AcDbCircle
 10
177.716410617791
 20
247.2499910770732
 30
0.0
 40
1.0
100
AcDbArc
 50
90.0
 51
180.0
  0
ARC
  5
396
330
1F
100
AcDbEntity
  8
01
100
AcDbCircle
 10
177.716410617791
 20
237.2499910770732
 30
0.0
 40
1.0
100
AcDbArc
 50
180.0
 51
270.0
  0
ARC
  5
397
330
1F
100
AcDbEntity
  8
01
100
AcDbCircle
 10
181.6255283939603
 20
237.2499910770732
 30
0.0
 40
1.0
100
AcDbArc
 50
270.0
 51
0.0
  0
ARC
  5
398
330
1F
100
AcDbEntity
  8
01
100
AcDbCircle
 10
182.1255283939605
 20
162.4311898472881
 30
0.0
 40
0.5000000000002668
100
AcDbArc
 50
270.0
 51
90.0
  0
ARC
  5
399
330
1F
100
AcDbEntity
  8
01
100
AcDbCircle
 10
177.2164106177912
 20
162.4311898472881
 30
0.0
 40
0.5000000000002668
100
AcDbArc
 50
90.0
 51
270.0
  0
LINE
  5
39A
330
1F
100
AcDbEntity
  8
01
100
AcDbLine
 10
265.2721894337926
 20
247.2499910770732
 30
0.0
 11
265.2721894337926
 21
237.2499910770732
 31
0.0
  0
LINE
  5
39B
330
1F
100
AcDbEntity
  8
01
100
AcDbLine
 10
264.2721894337926
 20
247.2499910770732
 30
0.0
 11
264.2721894337926
 21
237.2499910770732
 31
0.0
  0
LINE
  5
39C
330
1F
100
AcDbEntity
  8
01
100
AcDbLine
 10
252.2725980635132
 20
247.2499910770732
 30
0.0
 11
252.2725980635132
 21
237.2499910770732
 31
0.0
  0
LINE
  5
39D
330
1F
100
AcDbEntity
  8
01
100
AcDbLine
 10
253.2725980635131
 20
237.2499910770732
 30
0.0
 11
253.2725980635131
 21
247.2499910770732
 31
0.0
  0
LINE
  5
39E
330
1F
100
AcDbEntity
  8
01
100
AcDbLine
 10
258.2723937486528
 20
247.2499910770732
 30
0.0
 11
253.2725980635131
 21
247.2499910770732
 31
0.0
  0
LINE
  5
39F
330
1F
100
AcDbEntity
  8
01
100
AcDbLine
 10
259.2723937486527
 20
247.2499910770732
 30
0.0
 11
264.2721894337926
 21
247.2499910770732
 31
0.0
  0
LINE
  5
3A0
330
1F
100
AcDbEntity
  8
01
100
AcDbLine
 10
264.2721894337926
 20
248.2499910770731
 30
0.0
 11
253.2725980635131
 21
248.2499910770731
 31
0.0
  0
LINE
  5
3A1
330
1F
100
AcDbEntity
  8
01
100
AcDbLine
 10
258.2723937486528
 20
237.2499910770732
 30
0.0
 11
253.2725980635131
 21
237.2499910770732
 31
0.0
  0
LINE
  5
3A2
330
1F
100
AcDbEntity
  8
01
100
AcDbLine
 10
259.2723937486527
 20
237.2499910770732
 30
0.0
 11
264.2721894337926
 21
237.2499910770732
 31
0.0
  0
LINE
  5
3A3
330
1F
100
AcDbEntity
  8
01
100
AcDbLine
 10
253.2725980635131
 20
236.2499910770732
 30
0.0
 11
264.2721894337926
 21
236.2499910770732
 31
0.0
  0
ARC
  5
3A4
330
1F
100
AcDbEntity
  8
01
100
AcDbCircle
 10
264.272189433792
 20
247.2499910770732
 30
0.0
 40
1.0
100
AcDbArc
 50
0.0
 51
90.0
  0
ARC
  5
3A5
330
1F
100
AcDbEntity
  8
01
100
AcDbCircle
 10
253.2725980635138
 20
247.2499910770732
 30
0.0
 40
1.0
100
AcDbArc
 50
90.0
 51
180.0
  0
ARC
  5
3A6
330
1F
100
AcDbEntity
  8
01
100
AcDbCircle
 10
253.2725980635138
 20
237.2499910770732
 30
0.0
 40
1.0
100
AcDbArc
 50
180.0
 51
270.0
  0
ARC
  5
3A7
330
1F
100
AcDbEntity
  8
01
100
AcDbCircle
 10
264.272189433792
 20
237.2499910770732
 30
0.0
 40
1.0
100
AcDbArc
 50
270.0
 51
0.0
  0
LINE
  5
3AC
330
1F
100
AcDbEntity
  8
01
100
AcDbLine
 10
154.1435834611454
 20
134.9311898472883
 30
0.0
 11
155.1435834611451
 21
134.9311898472883
 31
0.0
  0
CIRCLE
  5
3AD
330
1F
100
AcDbEntity
  8
01
  6
HIDDEN
 62
     7
100
AcDbCircle
 10
106.6258990676301
 20
134.9311898472881
 30
0.0
 40
13.9999999999998
  0
LINE
  5
3B1
330
1F
100
AcDbEntity
  8
waku
100
AcDbLine
 10
419.3300621280855
 20
20.86256772495642
 30
0.0
 11
419.3300621280855
 21
66.5282902549551
 31
0.0
  0
LINE
  5
3B2
330
1F
100
AcDbEntity
  8
waku
100
AcDbLine
 10
432.3300621280856
 20
30.52829025495511
 30
0.0
 11
432.3300621280856
 21
58.52829025495509
 31
0.0
  0
LINE
  5
3B3
330
1F
100
AcDbEntity
  8
waku
100
AcDbLine
 10
392.2764526980856
 20
30.52829025495511
 30
0.0
 11
392.2764526980856
 21
44.5282902549551
 31
0.0
  0
LINE
  5
3B4
330
1F
100
AcDbEntity
  8
waku
100
AcDbLine
 10
402.6083870580857
 20
44.5282902549551
 30
0.0
 11
402.6083870580857
 21
20.86256772495642
 31
0.0
  0
LINE
  5
3B5
330
1F
100
AcDbEntity
  8
waku
100
AcDbLine
 10
372.9714177480857
 20
60.52829025495508
 30
0.0
 11
372.9714177480857
 21
37.5282902549551
 31
0.0
  0
LINE
  5
3B6
330
1F
100
AcDbEntity
  8
waku
100
AcDbLine
 10
432.3300621280856
 20
58.52829025495509
 30
0.0
 11
432.3300621280856
 21
60.52829025495508
 31
0.0
  0
LINE
  5
3B7
330
1F
100
AcDbEntity
  8
waku
100
AcDbLine
 10
445.3300621280856
 20
37.5282902549551
 30
0.0
 11
445.3300621280856
 21
66.5282902549551
 31
0.0
  0
LINE
  5
3B8
330
1F
100
AcDbEntity
  8
waku
100
AcDbLine
 10
471.0294256080858
 20
60.52829025495508
 30
0.0
 11
359.7259831080857
 21
60.52829025495508
 31
0.0
  0
LINE
  5
3B9
330
1F
100
AcDbEntity
  8
waku
100
AcDbLine
 10
471.0294256080858
 20
51.5282902549551
 30
0.0
 11
359.7259831080857
 21
51.5282902549551
 31
0.0
  0
LINE
  5
3BA
330
1F
100
AcDbEntity
  8
waku
100
AcDbLine
 10
471.0294256080858
 20
37.5282902549551
 30
0.0
 11
359.7259831080857
 21
37.5282902549551
 31
0.0
  0
LINE
  5
3BB
330
1F
100
AcDbEntity
  8
waku
100
AcDbLine
 10
471.0294256080858
 20
30.52829025495511
 30
0.0
 11
359.7259831080857
 21
30.52829025495511
 31
0.0
  0
LINE
  5
3BC
330
1F
100
AcDbEntity
  8
waku
100
AcDbLine
 10
458.3300621280856
 20
37.5282902549551
 30
0.0
 11
458.3300621280856
 21
60.52829025495508
 31
0.0
  0
LINE
  5
3BD
330
1F
100
AcDbEntity
  8
waku
100
AcDbLine
 10
359.7259831080857
 20
60.52829025495508
 30
0.0
 11
359.7259831080857
 21
20.86256772495642
 31
0.0
  0
LINE
  5
3BE
330
1F
100
AcDbEntity
  8
waku
100
AcDbLine
 10
419.3300621280855
 20
44.5282902549551
 30
0.0
 11
359.7259831080857
 21
44.5282902549551
 31
0.0
  0
LINE
  5
3BF
330
1F
100
AcDbEntity
  8
waku
100
AcDbLine
 10
402.6083870580857
 20
25.69542898495627
 30
0.0
 11
419.3300621280855
 21
25.69542898495627
 31
0.0
  0
LINE
  5
3C0
330
1F
100
AcDbEntity
  8
waku
100
AcDbLine
 10
387.4552854680857
 20
270.4679287749567
 30
0.0
 11
471.0552854680856
 21
270.4679287749567
 31
0.0
  0
LINE
  5
3C1
330
1F
100
AcDbEntity
  8
waku
 62
     7
100
AcDbLine
 10
387.4552854680857
 20
277.1179287749563
 30
0.0
 11
471.0552854680856
 21
277.1179287749563
 31
0.0
  0
LINE
  5
3C2
330
1F
100
AcDbEntity
  8
waku
 62
     7
100
AcDbLine
 10
387.4552854680857
 20
283.767928774956
 30
0.0
 11
471.0552854680856
 21
283.767928774956
 31
0.0
  0
LINE
  5
3C3
330
1F
100
AcDbEntity
  8
waku
100
AcDbLine
 10
387.4552854680857
 20
290.4179287749556
 30
0.0
 11
471.0552854680856
 21
290.4179287749556
 31
0.0
  0
LINE
  5
3C4
330
1F
100
AcDbEntity
  8
waku
100
AcDbLine
 10
387.4552854680857
 20
290.4179287749556
 30
0.0
 11
387.4552854680857
 21
270.4679287749567
 31
0.0
  0
LINE
  5
3C5
330
1F
100
AcDbEntity
  8
waku
 62
     7
100
AcDbLine
 10
459.4577605780856
 20
290.3496662249562
 30
0.0
 11
459.4577605780856
 21
270.4679287749567
 31
0.0
  0
LINE
  5
3C6
330
1F
100
AcDbEntity
  8
waku
100
AcDbLine
 10
387.4552854680857
 20
290.4179287749556
 30
0.0
 11
387.4552854680857
 21
294.9179287749556
 31
0.0
  0
LINE
  5
3C7
330
1F
100
AcDbEntity
  8
waku
 62
     7
100
AcDbLine
 10
397.5607187080856
 20
290.4179287749556
 30
0.0
 11
397.5607187080856
 21
270.4679287749567
 31
0.0
  0
LINE
  5
3C8
330
1F
100
AcDbEntity
  8
waku
 62
     7
100
AcDbLine
 10
415.6709366480856
 20
290.0463855849557
 30
0.0
 11
415.6709366480856
 21
270.4679287749567
 31
0.0
  0
LINE
  5
3C9
330
1F
100
AcDbEntity
  8
waku
100
AcDbLine
 10
81.02942560808576
 20
294.8625677249546
 30
0.0
 11
81.02942560808576
 21
20.86256772495642
 31
0.0
  0
LINE
  5
3CA
330
1F
100
AcDbEntity
  8
waku
100
AcDbLine
 10
471.0294256080858
 20
20.86256772495642
 30
0.0
 11
471.0294256080858
 21
294.8625677249546
 31
0.0
  0
LINE
  5
3CB
330
1F
100
AcDbEntity
  8
waku
100
AcDbLine
 10
406.3300621280856
 20
51.5282902549551
 30
0.0
 11
414.3300621280856
 21
51.5282902549551
 31
0.0
  0
LINE
  5
3CC
330
1F
100
AcDbEntity
  8
waku
100
AcDbLine
 10
194.0294256080856
 20
20.86256772495642
 30
0.0
 11
471.0294256080858
 21
20.86256772495642
 31
0.0
  0
LINE
  5
3CD
330
1F
100
AcDbEntity
  8
waku
100
AcDbLine
 10
81.02942560808576
 20
20.86256772495642
 30
0.0
 11
471.0294256080858
 21
20.86256772495642
 31
0.0
  0
LINE
  5
3EA
330
1F
100
AcDbEntity
  8
waku
 62
     7
100
AcDbLine
 10
392.2729897599826
 20
281.8286837360501
 30
0.0
 11
390.3729897580858
 21
278.5377872049557
 31
0.0
  0
LINE
  5
3EB
330
1F
100
AcDbEntity
  8
waku
 62
     7
100
AcDbLine
 10
392.2729897599826
 20
281.8286837360501
 30
0.0
 11
394.1729897580854
 21
278.5377872049557
 31
0.0
  0
LINE
  5
3EC
330
1F
100
AcDbEntity
  8
waku
 62
     7
100
AcDbLine
 10
390.3729897580858
 20
278.5377872049557
 30
0.0
 11
394.1729897580854
 21
278.5377872049557
 31
0.0
  0
LINE
  5
3ED
330
1F
100
AcDbEntity
  8
waku
 62
     7
100
AcDbLine
 10
392.2729897556525
 20
274.972473283551
 30
0.0
 11
390.3729897580858
 21
271.6815767449551
 31
0.0
  0
LINE
  5
3EE
330
1F
100
AcDbEntity
  8
waku
 62
     7
100
AcDbLine
 10
392.2729897556525
 20
274.972473283551
 30
0.0
 11
394.1729897580854
 21
271.6815767449551
 31
0.0
  0
LINE
  5
3EF
330
1F
100
AcDbEntity
  8
waku
 62
     7
100
AcDbLine
 10
390.3729897580858
 20
271.6815767449551
 30
0.0
 11
394.1729897580854
 21
271.6815767449551
 31
0.0
  0
TEXT
  5
3F6
330
1F
100
AcDbEntity
  8
waku
100
AcDbText
 10
460.3138353080853
 20
285.2733101478478
 30
0.0
 40
3.2
  1
担当
  7
高3.2
100
AcDbText
  0
TEXT
  5
3F7
330
1F
100
AcDbEntity
  8
waku
100
AcDbText
 10
420.1180585680853
 20
285.234172279237
 30
0.0
 40
3.2
  1
変更・追記内容
  7
高3.2
100
AcDbText
  0
TEXT
  5
3F8
330
1F
100
AcDbEntity
  8
waku
100
AcDbText
 10
400.3977844080853
 20
285.3910006057485
 30
0.0
 40
3.2
  1
日　付
  7
高3.2
100
AcDbText
  0
TEXT
  5
3F9
330
1F
100
AcDbEntity
  8
waku
100
AcDbText
 10
399.8296718377456
 20
291.0071785949548
 30
0.0
 40
3.2
  1
図　　　　面　　　　略　　　　歴
  7
高3.2
100
AcDbText
  0
TEXT
  5
3FA
330
1F
100
AcDbEntity
  8
waku
100
AcDbText
 10
389.3531661570848
 20
285.342656440116
 30
0.0
 40
3.2
  1
記号
  7
高3.2
100
AcDbText
  0
LINE
  5
3FB
330
1F
100
AcDbEntity
  8
waku
100
AcDbLine
 10
258.8043150780856
 20
297.3025698649561
 30
0.0
 11
259.4268120880858
 21
296.9776153849561
 31
0.0
  0
LINE
  5
3FC
330
1F
100
AcDbEntity
  8
waku
100
AcDbLine
 10
258.8043150780856
 20
291.9730977649559
 30
0.0
 11
259.4268120880858
 21
292.298052244956
 31
0.0
  0
LINE
  5
3FD
330
1F
100
AcDbEntity
  8
waku
100
AcDbLine
 10
259.4268120880858
 20
296.9776153849561
 30
0.0
 11
259.4268120880858
 21
292.298052244956
 31
0.0
  0
LINE
  5
3FE
330
1F
100
AcDbEntity
  8
waku
100
AcDbLine
 10
261.0032655480856
 20
291.9730977649559
 30
0.0
 11
260.3807685380854
 21
292.298052244956
 31
0.0
  0
LINE
  5
3FF
330
1F
100
AcDbEntity
  8
waku
100
AcDbLine
 10
260.3807685380854
 20
295.1507076949564
 30
0.0
 11
260.3807685380854
 21
292.298052244956
 31
0.0
  0
LINE
  5
400
330
1F
100
AcDbEntity
  8
waku
100
AcDbLine
 10
264.6344980880855
 20
297.3025698649561
 30
0.0
 11
264.0120010880857
 21
296.9776153849561
 31
0.0
  0
LINE
  5
401
330
1F
100
AcDbEntity
  8
waku
100
AcDbLine
 10
262.4355476180856
 20
297.3025698649561
 30
0.0
 11
263.0580446280857
 21
296.9776153849561
 31
0.0
  0
LINE
  5
402
330
1F
100
AcDbEntity
  8
waku
100
AcDbLine
 10
263.0580446280857
 20
296.9776153849561
 30
0.0
 11
263.0580446280857
 21
294.9171338649557
 31
0.0
  0
LINE
  5
403
330
1F
100
AcDbEntity
  8
waku
100
AcDbLine
 10
264.0120010880857
 20
296.9776153849561
 30
0.0
 11
264.0120010880857
 21
291.6708675549561
 31
0.0
  0
LINE
  5
404
330
1F
100
AcDbEntity
  8
waku
100
AcDbLine
 10
264.9420655280857
 20
297.3025661149549
 30
0.0
 11
265.5645602880856
 21
296.9776073449556
 31
0.0
  0
LINE
  5
405
330
1F
100
AcDbEntity
  8
waku
100
AcDbLine
 10
264.9419541380855
 20
291.9731691549567
 30
0.0
 11
265.5644624880858
 21
292.2981019049547
 31
0.0
  0
LINE
  5
406
330
1F
100
AcDbEntity
  8
waku
100
AcDbLine
 10
265.5645602880856
 20
296.9776073449556
 30
0.0
 11
265.5645602880856
 21
292.2981019049547
 31
0.0
  0
LINE
  5
407
330
1F
100
AcDbEntity
  8
waku
100
AcDbLine
 10
267.6985460880857
 20
297.302532294956
 30
0.0
 11
267.0760445280854
 21
296.9775865349546
 31
0.0
  0
LINE
  5
408
330
1F
100
AcDbEntity
  8
waku
100
AcDbLine
 10
267.0760445280854
 20
296.9775865349546
 30
0.0
 11
267.0760445280854
 21
292.2980810949557
 31
0.0
  0
LINE
  5
409
330
1F
100
AcDbEntity
  8
waku
100
AcDbLine
 10
267.6985460880857
 20
291.9731353349561
 30
0.0
 11
267.0760445280854
 21
292.2980810949557
 31
0.0
  0
LINE
  5
40A
330
1F
100
AcDbEntity
  8
waku
100
AcDbLine
 10
272.9703367180857
 20
297.302473724956
 30
0.0
 11
273.5928325980855
 21
296.9775171049549
 31
0.0
  0
LINE
  5
40B
330
1F
100
AcDbEntity
  8
waku
100
AcDbLine
 10
273.5928325980855
 20
296.9775171049549
 30
0.0
 11
273.5927509280856
 21
292.2980116549551
 31
0.0
  0
LINE
  5
40C
330
1F
100
AcDbEntity
  8
waku
100
AcDbLine
 10
272.9702436980858
 20
291.9730767649562
 30
0.0
 11
273.5927509280856
 21
292.2980116549551
 31
0.0
  0
LINE
  5
40D
330
1F
100
AcDbEntity
  8
waku
100
AcDbLine
 10
275.7592809580854
 20
297.302473724956
 30
0.0
 11
275.1367850680856
 21
296.9775171049549
 31
0.0
  0
LINE
  5
40E
330
1F
100
AcDbEntity
  8
waku
100
AcDbLine
 10
275.7593739680857
 20
291.9730767649562
 30
0.0
 11
275.1368667380854
 21
292.2980116549551
 31
0.0
  0
LINE
  5
40F
330
1F
100
AcDbEntity
  8
waku
100
AcDbLine
 10
276.0503207580857
 20
297.302473724956
 30
0.0
 11
276.6728166380855
 21
296.9775171049549
 31
0.0
  0
LINE
  5
410
330
1F
100
AcDbEntity
  8
waku
100
AcDbLine
 10
276.0502277380853
 20
291.9730767649562
 30
0.0
 11
276.6727349680857
 21
292.2980116549551
 31
0.0
  0
LINE
  5
411
330
1F
100
AcDbEntity
  8
waku
100
AcDbLine
 10
278.8392649880854
 20
297.302473724956
 30
0.0
 11
278.2167691080855
 21
296.9775171049549
 31
0.0
  0
LINE
  5
412
330
1F
100
AcDbEntity
  8
waku
100
AcDbLine
 10
278.2167691080855
 20
296.9775171049549
 30
0.0
 11
278.2168507780854
 21
292.2980116549551
 31
0.0
  0
LINE
  5
413
330
1F
100
AcDbEntity
  8
waku
100
AcDbLine
 10
278.8393580080854
 20
291.9730767649562
 30
0.0
 11
278.2168507780854
 21
292.2980116549551
 31
0.0
  0
LINE
  5
414
330
1F
100
AcDbEntity
  8
waku
100
AcDbLine
 10
276.6727810580857
 20
294.938755504956
 30
0.0
 11
275.1368206480854
 21
294.938755504956
 31
0.0
  0
LINE
  5
415
330
1F
100
AcDbEntity
  8
waku
100
AcDbLine
 10
276.6727705580858
 20
294.336912124956
 30
0.0
 11
275.1368311480856
 21
294.336912124956
 31
0.0
  0
LINE
  5
416
330
1F
100
AcDbEntity
  8
waku
100
AcDbLine
 10
276.6728166380855
 20
296.9775171049549
 30
0.0
 11
276.6727810580857
 21
294.938755504956
 31
0.0
  0
LINE
  5
417
330
1F
100
AcDbEntity
  8
waku
100
AcDbLine
 10
276.6727705580858
 20
294.336912124956
 30
0.0
 11
276.6727349680857
 21
292.2980116549551
 31
0.0
  0
LINE
  5
418
330
1F
100
AcDbEntity
  8
waku
100
AcDbLine
 10
275.1367850680856
 20
296.9775171049549
 30
0.0
 11
275.1368206480854
 21
294.938755504956
 31
0.0
  0
LINE
  5
419
330
1F
100
AcDbEntity
  8
waku
100
AcDbLine
 10
275.1368311480856
 20
294.336912124956
 30
0.0
 11
275.1368667380854
 21
292.2980116549551
 31
0.0
  0
LINE
  5
41A
330
1F
100
AcDbEntity
  8
waku
100
AcDbLine
 10
279.1349208780854
 20
297.302473724956
 30
0.0
 11
279.7574167680856
 21
296.9775171049549
 31
0.0
  0
LINE
  5
41B
330
1F
100
AcDbEntity
  8
waku
100
AcDbLine
 10
279.7574167680856
 20
296.9775171049549
 30
0.0
 11
279.7573350880854
 21
292.2980116549551
 31
0.0
  0
LINE
  5
41C
330
1F
100
AcDbEntity
  8
waku
100
AcDbLine
 10
279.1348278580855
 20
291.9730767649562
 30
0.0
 11
279.7573350880854
 21
292.2980116549551
 31
0.0
  0
LINE
  5
41D
330
1F
100
AcDbEntity
  8
waku
100
AcDbLine
 10
281.8913641180854
 20
297.302473724956
 30
0.0
 11
281.2688682280856
 21
296.9775171049549
 31
0.0
  0
LINE
  5
41E
330
1F
100
AcDbEntity
  8
waku
100
AcDbLine
 10
281.2688682280856
 20
296.9775171049549
 30
0.0
 11
281.2689499080854
 21
292.2980116549551
 31
0.0
  0
LINE
  5
41F
330
1F
100
AcDbEntity
  8
waku
100
AcDbLine
 10
281.8914571380854
 20
291.9730767649562
 30
0.0
 11
281.2689499080854
 21
292.2980116549551
 31
0.0
  0
LINE
  5
420
330
1F
100
AcDbEntity
  8
waku
100
AcDbLine
 10
282.1975920680854
 20
297.302473724956
 30
0.0
 11
282.8200879580856
 21
296.9775171049549
 31
0.0
  0
LINE
  5
421
330
1F
100
AcDbEntity
  8
waku
100
AcDbLine
 10
282.8200879580856
 20
296.9775171049549
 30
0.0
 11
282.8200062880857
 21
292.2980116549551
 31
0.0
  0
LINE
  5
422
330
1F
100
AcDbEntity
  8
waku
100
AcDbLine
 10
282.1974990580854
 20
291.9730767649562
 30
0.0
 11
282.8200062880857
 21
292.2980116549551
 31
0.0
  0
ARC
  5
423
330
1F
100
AcDbEntity
  8
waku
100
AcDbCircle
 10
270.9818920480854
 20
294.6512477549548
 30
0.0
 40
2.98040844
100
AcDbArc
 50
97.70152351000298
 51
270.0
  0
ARC
  5
424
330
1F
100
AcDbEntity
  8
waku
100
AcDbCircle
 10
289.3827503880853
 20
294.6213097149557
 30
0.0
 40
3.012776259999998
100
AcDbArc
 50
0.3142502699683414
 51
69.00558244999135
  0
ARC
  5
425
330
1F
100
AcDbEntity
  8
waku
100
AcDbCircle
 10
290.0408579980855
 20
294.6213097149557
 30
0.0
 40
3.012776259999998
100
AcDbArc
 50
110.9944175500086
 51
148.1166110200016
  0
ARC
  5
426
330
1F
100
AcDbEntity
  8
waku
100
AcDbCircle
 10
289.3827503880853
 20
294.6543579149546
 30
0.0
 40
3.012776259999998
100
AcDbArc
 50
290.9944175500083
 51
359.6857497300316
  0
ARC
  5
427
330
1F
100
AcDbEntity
  8
waku
100
AcDbCircle
 10
290.0408579980855
 20
294.6543579149546
 30
0.0
 40
3.012776259999998
100
AcDbArc
 50
211.8833889799982
 51
249.0055824499914
  0
ARC
  5
428
330
1F
100
AcDbEntity
  8
waku
100
AcDbCircle
 10
289.7118041980854
 20
295.870412944956
 30
0.0
 40
1.73438712
100
AcDbArc
 50
64.36517190000055
 51
115.6348280999994
  0
ARC
  5
429
330
1F
100
AcDbEntity
  8
waku
100
AcDbCircle
 10
289.7118041980854
 20
293.405254684956
 30
0.0
 40
1.73438712
100
AcDbArc
 50
244.3651719000006
 51
295.6348280999994
  0
ARC
  5
42A
330
1F
100
AcDbEntity
  8
waku
100
AcDbCircle
 10
289.7118041980854
 20
295.9033582049558
 30
0.0
 40
0.85122233
100
AcDbArc
 50
19.48660554003307
 51
160.5133944599669
  0
ARC
  5
42B
330
1F
100
AcDbEntity
  8
waku
100
AcDbCircle
 10
289.7118041980854
 20
293.405254684956
 30
0.0
 40
1.73438712
100
AcDbArc
 50
244.3651719000006
 51
295.6348280999994
  0
ARC
  5
42C
330
1F
100
AcDbEntity
  8
waku
100
AcDbCircle
 10
289.7118041980854
 20
293.3723094249561
 30
0.0
 40
0.85122233
100
AcDbArc
 50
199.486605540033
 51
340.5133944599669
  0
ARC
  5
42D
330
1F
100
AcDbEntity
  8
waku
100
AcDbCircle
 10
282.9368434780856
 20
262.8834626149563
 30
0.0
 40
37.20000000000001
100
AcDbArc
 50
69.50571479999324
 51
81.68998807001136
  0
ARC
  5
42E
330
1F
100
AcDbEntity
  8
waku
100
AcDbCircle
 10
282.9368434780856
 20
326.3922050149556
 30
0.0
 40
37.20000000000001
100
AcDbArc
 50
278.3100119299886
 51
290.4942852000067
  0
ARC
  5
42F
330
1F
100
AcDbEntity
  8
waku
100
AcDbCircle
 10
294.8057065180853
 20
294.6378338149551
 30
0.0
 40
3.299999999999998
100
AcDbArc
 50
290.4942852000067
 51
69.50571479999324
  0
ARC
  5
430
330
1F
100
AcDbEntity
  8
waku
100
AcDbCircle
 10
255.8057065180853
 20
294.6378338149551
 30
0.0
 40
3.299999999999998
100
AcDbArc
 50
110.4942852000067
 51
249.5057147999932
  0
ARC
  5
431
330
1F
100
AcDbEntity
  8
waku
100
AcDbCircle
 10
267.6745695480856
 20
262.8834626149563
 30
0.0
 40
37.20000000000001
100
AcDbArc
 50
98.31001192998863
 51
110.4942852000067
  0
ARC
  5
432
330
1F
100
AcDbEntity
  8
waku
100
AcDbCircle
 10
267.6745695480856
 20
326.3922050149556
 30
0.0
 40
37.20000000000001
100
AcDbArc
 50
249.5057147999932
 51
261.6899880700113
  0
ARC
  5
433
330
1F
100
AcDbEntity
  8
waku
100
AcDbCircle
 10
275.3057065180854
 20
210.6378338149551
 30
0.0
 40
89.99999981
100
AcDbArc
 50
81.68998807001136
 51
98.31001192998863
  0
ARC
  5
434
330
1F
100
AcDbEntity
  8
waku
100
AcDbCircle
 10
275.3057065180854
 20
378.6378338149551
 30
0.0
 40
89.99999981
100
AcDbArc
 50
261.6899880700113
 51
278.3100119299886
  0
ARC
  5
435
330
1F
100
AcDbEntity
  8
waku
100
AcDbCircle
 10
275.3057065180854
 20
210.6378338149551
 30
0.0
 40
89.09999981
100
AcDbArc
 50
81.68998807001136
 51
98.31001192998863
  0
ARC
  5
436
330
1F
100
AcDbEntity
  8
waku
100
AcDbCircle
 10
275.3057065180854
 20
378.6378338149551
 30
0.0
 40
89.09999981
100
AcDbArc
 50
261.6899880700113
 51
278.3100119299886
  0
ARC
  5
437
330
1F
100
AcDbEntity
  8
waku
100
AcDbCircle
 10
282.9368434780856
 20
326.3922050149556
 30
0.0
 40
36.3
100
AcDbArc
 50
278.3100119299886
 51
290.4942852000067
  0
ARC
  5
438
330
1F
100
AcDbEntity
  8
waku
100
AcDbCircle
 10
282.9368434780856
 20
262.8834626149563
 30
0.0
 40
36.3
100
AcDbArc
 50
69.50571479999324
 51
81.68998807001136
  0
ARC
  5
439
330
1F
100
AcDbEntity
  8
waku
100
AcDbCircle
 10
294.8057065180853
 20
294.6378338149551
 30
0.0
 40
2.399999999999999
100
AcDbArc
 50
290.4942852000067
 51
69.50571479999324
  0
ARC
  5
43A
330
1F
100
AcDbEntity
  8
waku
100
AcDbCircle
 10
255.8057065180853
 20
294.6378338149551
 30
0.0
 40
2.399999999999999
100
AcDbArc
 50
110.4942852000067
 51
249.5057147999932
  0
ARC
  5
43B
330
1F
100
AcDbEntity
  8
waku
100
AcDbCircle
 10
267.6745695480856
 20
262.8834626149563
 30
0.0
 40
36.3
100
AcDbArc
 50
98.31001192998863
 51
110.4942852000067
  0
ARC
  5
43C
330
1F
100
AcDbEntity
  8
waku
100
AcDbCircle
 10
267.6745695480856
 20
326.3922050149556
 30
0.0
 40
36.3
100
AcDbArc
 50
249.5057147999932
 51
261.6899880700113
  0
LINE
  5
43D
330
1F
100
AcDbEntity
  8
waku
100
AcDbLine
 10
281.8913652380853
 20
291.6708675549561
 30
0.0
 11
279.1349197580855
 21
291.6708675549561
 31
0.0
  0
LINE
  5
43E
330
1F
100
AcDbEntity
  8
waku
100
AcDbLine
 10
281.8913652380853
 20
291.9730977649559
 30
0.0
 11
281.8913652380853
 21
291.6708675549561
 31
0.0
  0
LINE
  5
43F
330
1F
100
AcDbEntity
  8
waku
100
AcDbLine
 10
278.8392661080854
 20
297.6046590449549
 30
0.0
 11
276.0503196380857
 21
297.6046590449549
 31
0.0
  0
LINE
  5
440
330
1F
100
AcDbEntity
  8
waku
100
AcDbLine
 10
278.8392661080854
 20
297.6046590449549
 30
0.0
 11
278.8392661080854
 21
297.3025698649561
 31
0.0
  0
LINE
  5
441
330
1F
100
AcDbEntity
  8
waku
100
AcDbLine
 10
278.8392661080854
 20
291.9730977649559
 30
0.0
 11
278.8392661080854
 21
291.6707265349558
 31
0.0
  0
LINE
  5
442
330
1F
100
AcDbEntity
  8
waku
100
AcDbLine
 10
278.8392661080854
 20
291.6707265349558
 30
0.0
 11
276.0503196380857
 21
291.6707265349558
 31
0.0
  0
LINE
  5
443
330
1F
100
AcDbEntity
  8
waku
100
AcDbLine
 10
281.8913652380853
 20
297.6048000749559
 30
0.0
 11
281.8913652380853
 21
297.3025698649561
 31
0.0
  0
LINE
  5
444
330
1F
100
AcDbEntity
  8
waku
100
AcDbLine
 10
281.8913652380853
 20
297.6048000749559
 30
0.0
 11
279.1349197580855
 21
297.6048000749559
 31
0.0
  0
LINE
  5
445
330
1F
100
AcDbEntity
  8
waku
100
AcDbLine
 10
279.1349197580855
 20
297.6048000749559
 30
0.0
 11
279.1349197580855
 21
297.3025698649561
 31
0.0
  0
LINE
  5
446
330
1F
100
AcDbEntity
  8
waku
100
AcDbLine
 10
282.1975909480853
 20
291.9730977649559
 30
0.0
 11
282.1975909480853
 21
291.6708675549561
 31
0.0
  0
LINE
  5
447
330
1F
100
AcDbEntity
  8
waku
100
AcDbLine
 10
285.0323060380858
 20
291.6708675549561
 30
0.0
 11
282.1975909480853
 21
291.6708675549561
 31
0.0
  0
LINE
  5
448
330
1F
100
AcDbEntity
  8
waku
100
AcDbLine
 10
284.3315394280855
 20
296.650843614956
 30
0.0
 11
284.3315394280855
 21
292.6248240149561
 31
0.0
  0
LINE
  5
449
330
1F
100
AcDbEntity
  8
waku
100
AcDbLine
 10
284.3315394280855
 20
292.6248240149561
 30
0.0
 11
284.6030379480855
 21
292.6248240149561
 31
0.0
  0
ARC
  5
44A
330
1F
100
AcDbEntity
  8
waku
100
AcDbCircle
 10
283.2147726080854
 20
294.6378338149551
 30
0.0
 40
2.44529939
100
AcDbArc
 50
304.5919552700019
 51
55.40804472999811
  0
LINE
  5
44B
330
1F
100
AcDbEntity
  8
waku
100
AcDbLine
 10
285.0323060380858
 20
297.6048000749559
 30
0.0
 11
282.1975909480853
 21
297.6048000749559
 31
0.0
  0
LINE
  5
44C
330
1F
100
AcDbEntity
  8
waku
100
AcDbLine
 10
282.1975909480853
 20
297.6048000749559
 30
0.0
 11
282.1975909480853
 21
297.3025698649561
 31
0.0
  0
LINE
  5
44D
330
1F
100
AcDbEntity
  8
waku
100
AcDbLine
 10
279.1349197580855
 20
291.9730977649559
 30
0.0
 11
279.1349197580855
 21
291.6708675549561
 31
0.0
  0
LINE
  5
44E
330
1F
100
AcDbEntity
  8
waku
100
AcDbLine
 10
284.3315394280855
 20
296.650843614956
 30
0.0
 11
284.6030379480855
 21
296.650843614956
 31
0.0
  0
LINE
  5
44F
330
1F
100
AcDbEntity
  8
waku
100
AcDbLine
 10
267.6984541880853
 20
291.9730977649559
 30
0.0
 11
267.6984489180856
 21
291.6708393149564
 31
0.0
  0
LINE
  5
450
330
1F
100
AcDbEntity
  8
waku
100
AcDbLine
 10
264.9420034380857
 20
291.6708958049566
 30
0.0
 11
267.6984489180856
 21
291.6708476949569
 31
0.0
  0
LINE
  5
451
330
1F
100
AcDbEntity
  8
waku
100
AcDbLine
 10
258.8043150780856
 20
291.6708675549561
 30
0.0
 11
261.0032655480856
 21
291.6708675549561
 31
0.0
  0
ARC
  5
452
330
1F
100
AcDbEntity
  8
waku
100
AcDbCircle
 10
251.6872541080854
 20
294.7077004249548
 30
0.0
 40
21.01937947
100
AcDbArc
 50
353.8660061900607
 51
357.6940342600587
  0
LINE
  5
453
330
1F
100
AcDbEntity
  8
waku
100
AcDbLine
 10
271.2823681980855
 20
293.8671752049557
 30
0.0
 11
272.6896123180856
 21
293.8619682349562
 31
0.0
  0
LINE
  5
455
330
1F
100
AcDbEntity
  8
waku
100
AcDbLine
 10
271.2880516480856
 20
295.4031962649568
 30
0.0
 11
272.6952957680857
 21
295.3979892949554
 31
0.0
  0
ARC
  5
456
330
1F
100
AcDbEntity
  8
waku
100
AcDbCircle
 10
251.6872541080854
 20
294.7077004249548
 30
0.0
 40
21.01937947
100
AcDbArc
 50
1.881965740004549
 51
5.709993810046973
  0
LINE
  5
457
330
1F
100
AcDbEntity
  8
waku
100
AcDbLine
 10
267.6985524780854
 20
297.6047718249555
 30
0.0
 11
267.6985472080856
 21
297.3025698649561
 31
0.0
  0
LINE
  5
458
330
1F
100
AcDbEntity
  8
waku
100
AcDbLine
 10
264.9421069980856
 20
297.6048283149556
 30
0.0
 11
267.6985524780854
 21
297.604780204956
 31
0.0
  0
LINE
  5
459
330
1F
100
AcDbEntity
  8
waku
100
AcDbLine
 10
264.9420087080855
 20
291.9730977649559
 30
0.0
 11
264.9420034380857
 21
291.6708958049566
 31
0.0
  0
LINE
  5
45A
330
1F
100
AcDbEntity
  8
waku
100
AcDbLine
 10
264.9421069980856
 20
297.6048283149556
 30
0.0
 11
264.9421017280853
 21
297.3025698649561
 31
0.0
  0
LINE
  5
45B
330
1F
100
AcDbEntity
  8
waku
100
AcDbLine
 10
261.0032655480856
 20
291.9730977649559
 30
0.0
 11
261.0032655480856
 21
291.6708675549561
 31
0.0
  0
LINE
  5
45C
330
1F
100
AcDbEntity
  8
waku
100
AcDbLine
 10
260.3807685380854
 20
295.1507076949564
 30
0.0
 11
262.5556686180855
 21
291.6708675549561
 31
0.0
  0
LINE
  5
45D
330
1F
100
AcDbEntity
  8
waku
100
AcDbLine
 10
262.5556686180855
 20
291.6708675549561
 30
0.0
 11
264.0120010880857
 21
291.6708675549561
 31
0.0
  0
LINE
  5
45E
330
1F
100
AcDbEntity
  8
waku
100
AcDbLine
 10
264.6344980880855
 20
297.6048000749559
 30
0.0
 11
264.6344980880855
 21
297.3025698649561
 31
0.0
  0
LINE
  5
45F
330
1F
100
AcDbEntity
  8
waku
100
AcDbLine
 10
262.4355476180856
 20
297.6048000749559
 30
0.0
 11
264.6344980880855
 21
297.6048000749559
 31
0.0
  0
LINE
  5
460
330
1F
100
AcDbEntity
  8
waku
100
AcDbLine
 10
262.4355476180856
 20
297.6048000749559
 30
0.0
 11
262.4355476180856
 21
297.3025698649561
 31
0.0
  0
LINE
  5
461
330
1F
100
AcDbEntity
  8
waku
100
AcDbLine
 10
263.0580446280857
 20
294.9171338649557
 30
0.0
 11
261.2942636880855
 21
297.6048000749559
 31
0.0
  0
LINE
  5
462
330
1F
100
AcDbEntity
  8
waku
100
AcDbLine
 10
258.8043150780856
 20
297.6048000749559
 30
0.0
 11
261.2942636880855
 21
297.6048000749559
 31
0.0
  0
LINE
  5
463
330
1F
100
AcDbEntity
  8
waku
100
AcDbLine
 10
272.9703355980857
 20
297.6046590449549
 30
0.0
 11
275.7592820780853
 21
297.6046590449549
 31
0.0
  0
LINE
  5
464
330
1F
100
AcDbEntity
  8
waku
100
AcDbLine
 10
272.9703355980857
 20
297.3025698649561
 30
0.0
 11
272.9703355980857
 21
297.6046590449549
 31
0.0
  0
LINE
  5
465
330
1F
100
AcDbEntity
  8
waku
100
AcDbLine
 10
272.9703355980857
 20
291.6707265349558
 30
0.0
 11
272.9703355980857
 21
291.9730977649559
 31
0.0
  0
LINE
  5
466
330
1F
100
AcDbEntity
  8
waku
100
AcDbLine
 10
272.9703355980857
 20
291.6707265349558
 30
0.0
 11
275.7592820780853
 21
291.6707265349558
 31
0.0
  0
LINE
  5
467
330
1F
100
AcDbEntity
  8
waku
100
AcDbLine
 10
276.0503196380857
 20
291.9730977649559
 30
0.0
 11
276.0503196380857
 21
291.6707265349558
 31
0.0
  0
LINE
  5
468
330
1F
100
AcDbEntity
  8
waku
100
AcDbLine
 10
275.7592820780853
 20
291.9730977649559
 30
0.0
 11
275.7592820780853
 21
291.6707265349558
 31
0.0
  0
LINE
  5
469
330
1F
100
AcDbEntity
  8
waku
100
AcDbLine
 10
275.7592820780853
 20
297.3025698649561
 30
0.0
 11
275.7592820780853
 21
297.6046590449549
 31
0.0
  0
LINE
  5
46A
330
1F
100
AcDbEntity
  8
waku
100
AcDbLine
 10
276.0503196380857
 20
297.3025698649561
 30
0.0
 11
276.0503196380857
 21
297.6046590449549
 31
0.0
  0
LINE
  5
46B
330
1F
100
AcDbEntity
  8
waku
100
AcDbLine
 10
258.8043150780856
 20
291.9730977649559
 30
0.0
 11
258.8043150780856
 21
291.6708675549561
 31
0.0
  0
LINE
  5
46C
330
1F
100
AcDbEntity
  8
waku
100
AcDbLine
 10
258.8043150780856
 20
297.6048000749559
 30
0.0
 11
258.8043150780856
 21
297.3025698649561
 31
0.0
  0
ARC
  5
46D
330
1F
100
AcDbEntity
  8
waku
100
AcDbCircle
 10
285.3323060380855
 20
295.2603308249562
 30
0.0
 40
2.344469249999999
100
AcDbArc
 50
17.30874897999763
 51
23.76507096000735
  0
ARC
  5
46E
330
1F
100
AcDbEntity
  8
waku
100
AcDbCircle
 10
283.3347726080853
 20
294.6378338149551
 30
0.0
 40
4.43675086
100
AcDbArc
 50
342.6912510200024
 51
17.30856643999355
  0
ARC
  5
46F
330
1F
100
AcDbEntity
  8
waku
100
AcDbCircle
 10
285.3323060380855
 20
294.0153368049558
 30
0.0
 40
2.344469249999999
100
AcDbArc
 50
336.2349290399927
 51
342.6912510200024
  0
ARC
  5
470
330
1F
100
AcDbEntity
  8
waku
100
AcDbCircle
 10
285.0323060380858
 20
295.2603308249562
 30
0.0
 40
2.344469249999999
100
AcDbArc
 50
17.30874897999763
 51
90.0
  0
ARC
  5
471
330
1F
100
AcDbEntity
  8
waku
100
AcDbCircle
 10
283.0347726080855
 20
294.6378338149551
 30
0.0
 40
4.43675086
100
AcDbArc
 50
342.6912510200024
 51
17.30856643999355
  0
ARC
  5
472
330
1F
100
AcDbEntity
  8
waku
100
AcDbCircle
 10
285.0323060380858
 20
294.0153368049558
 30
0.0
 40
2.344469249999999
100
AcDbArc
 50
270.0
 51
342.6912510200024
  0
ARC
  5
473
330
1F
100
AcDbEntity
  8
waku
100
AcDbCircle
 10
270.5695340680856
 20
294.6378338149551
 30
0.0
 40
2.966966259999998
100
AcDbArc
 50
46.75287960999518
 51
89.74999828999569
  0
ARC
  5
474
330
1F
100
AcDbEntity
  8
waku
100
AcDbCircle
 10
270.5695340680856
 20
294.6378338149551
 30
0.0
 40
2.966966259999998
100
AcDbArc
 50
273.9763331500138
 51
312.8231203899947
  0
ARC
  5
475
330
1F
100
AcDbEntity
  8
waku
100
AcDbCircle
 10
286.9149739980855
 20
294.5920316349547
 30
0.0
 40
3.936984289999998
100
AcDbArc
 50
0.6665840599916574
 51
23.90392827002929
  0
ARC
  5
476
330
1F
100
AcDbEntity
  8
waku
100
AcDbCircle
 10
292.5086343880855
 20
294.5920316349547
 30
0.0
 40
3.936984289999998
100
AcDbArc
 50
156.0960717299707
 51
179.3334159400083
  0
ARC
  5
477
330
1F
100
AcDbEntity
  8
waku
100
AcDbCircle
 10
286.9149739980855
 20
294.6836359949557
 30
0.0
 40
3.936984289999998
100
AcDbArc
 50
336.0960717299708
 51
359.3334159400084
  0
ARC
  5
478
330
1F
100
AcDbEntity
  8
waku
100
AcDbCircle
 10
292.5086343880855
 20
294.6836359949557
 30
0.0
 40
3.936984289999998
100
AcDbArc
 50
180.6665840599917
 51
203.9039282700293
  0
LINE
  5
479
330
1F
100
AcDbEntity
  8
waku
100
AcDbLine
 10
299.6861507880855
 20
294.8625677249546
 30
0.0
 11
471.0294256080858
 21
294.8625677249546
 31
0.0
  0
LINE
  5
47A
330
1F
100
AcDbEntity
  8
waku
100
AcDbLine
 10
251.1321161180855
 20
294.8625677249546
 30
0.0
 11
81.02942560808576
 21
294.8625677249546
 31
0.0
  0
LINE
  5
47B
330
1F
100
AcDbEntity
  8
waku
100
AcDbLine
 10
68.62750181808559
 20
161.3072066749554
 30
0.0
 11
66.02942560808577
 21
159.8072066749554
 31
0.0
  0
LINE
  5
47C
330
1F
100
AcDbEntity
  8
waku
100
AcDbLine
 10
68.62750181808559
 20
161.3072066749554
 30
0.0
 11
66.02942560808577
 21
162.8072066749554
 31
0.0
  0
LINE
  5
47D
330
1F
100
AcDbEntity
  8
waku
100
AcDbLine
 10
66.02942560808577
 20
159.8072066749554
 30
0.0
 11
66.02942560808577
 21
162.8072066749554
 31
0.0
  0
LINE
  5
48E
330
1F
100
AcDbEntity
  8
01
100
AcDbLine
 10
440.1160489540742
 20
133.9311898472883
 30
0.0
 11
440.1160489540742
 21
135.9311898472883
 31
0.0
  0
LINE
  5
48F
330
1F
100
AcDbEntity
  8
01
100
AcDbLine
 10
436.416291887181
 20
135.4311898472883
 30
0.0
 11
436.416291887181
 21
134.4311898472883
 31
0.0
  0
LINE
  5
490
330
1F
100
AcDbEntity
  8
01
100
AcDbLine
 10
435.4162918871812
 20
135.4311898472883
 30
0.0
 11
435.4162918871812
 21
134.4311898472883
 31
0.0
  0
LINE
  5
491
330
1F
100
AcDbEntity
  8
01
100
AcDbLine
 10
437.1702381999287
 20
135.9311898472883
 30
0.0
 11
437.1702381999287
 21
133.9311898472883
 31
0.0
  0
LINE
  5
492
330
1F
100
AcDbEntity
  8
0
100
AcDbLine
 10
437.732011213388
 20
135.5311898472884
 30
0.0
 11
437.732011213388
 21
134.3311898472883
 31
0.0
  0
LINE
  5
493
330
1F
100
AcDbEntity
  8
01
100
AcDbLine
 10
344.1435834611454
 20
202.4727067669113
 30
0.0
 11
344.1435834611454
 21
238.2499910770732
 31
0.0
  0
LINE
  5
494
330
1F
100
AcDbEntity
  8
01
100
AcDbLine
 10
339.1435834611455
 20
202.4727067669113
 30
0.0
 11
339.1435834611455
 21
238.2499910770732
 31
0.0
  0
LINE
  5
495
330
1F
100
AcDbEntity
  8
01
100
AcDbLine
 10
344.1435834611454
 20
202.4727067669113
 30
0.0
 11
339.1435834611455
 21
202.4727067669113
 31
0.0
  0
LINE
  5
496
330
1F
100
AcDbEntity
  8
0
 62
     3
100
AcDbLine
 10
339.1435834611455
 20
151.8232243970103
 30
0.0
 11
339.1435834611453
 21
150.8230817391801
 31
0.0
  0
ARC
  5
49B
330
1F
100
AcDbEntity
  8
01
  6
HIDDEN2
 62
     7
100
AcDbCircle
 10
106.6338977009267
 20
134.9311898472881
 30
0.0
 40
18.99999999999977
100
AcDbArc
 50
77.87147478051569
 51
102.1778720066872
  0
ARC
  5
49C
330
1F
100
AcDbEntity
  8
01
100
AcDbCircle
 10
106.6338977009267
 20
134.9311898472881
 30
0.0
 40
18.99999999999977
100
AcDbArc
 50
102.1778720066872
 51
77.87147478051569
  0
TEXT
  5
49D
330
1F
100
AcDbEntity
  8
0
 62
     4
100
AcDbText
 10
258.0573352457956
 20
28.15033123116098
 30
0.0
 40
4.5
  1
注）S-01/S-02三脚スタンド専用
  7
高4.5
100
AcDbText
  0
LINE
  5
4EC
330
1F
100
AcDbEntity
  8
waku
100
AcDbLine
 10
471.0294256080858
 20
66.5282902549551
 30
0.0
 11
419.3300621280855
 21
66.5282902549551
 31
0.0
  0
TEXT
  5
4F6
330
1F
100
AcDbEntity
  8
0
 62
     3
100
AcDbText
 10
425.6154068386031
 20
61.08828095245485
 30
0.0
 40
4.5
  1
コード
  7
高4.5
100
AcDbText
  0
TEXT
  5
4F7
330
1F
100
AcDbEntity
  8
0
 62
     3
100
AcDbText
 10
450.3958741156123
 20
61.08828095245485
 30
0.0
 40
4.5
  1
9329
  7
高4.5
100
AcDbText
  0
LINE
  5
4F8
330
1F
100
AcDbEntity
  8
01
100
AcDbLine
 10
155.1435834611454
 20
223.2499910770731
 30
0.0
 11
339.1435834611455
 21
226.4894276967915
 31
0.0
  0
LINE
  5
4F9
330
1F
100
AcDbEntity
  8
01
100
AcDbLine
 10
344.1435834611454
 20
226.5774558658056
 30
0.0
 11
443.1435834611453
 21
228.2499910770732
 31
0.0
  0
TEXT
  5
66B
330
1F
100
AcDbEntity
  8
waku
100
AcDbText
 10
374.5401884870739
 20
54.03897409599847
 30
0.0
 40
4.5
  1
スタンドカバー
 41
0.8
  7
高4.5
100
AcDbText
1001
ACAD
1000
MTEXTBEGIN
1070
    73
1070
     1
1070
    44
1040
1.0
1070
    74
1070
     0
1000
MTEXTEND
  0
TEXT
  5
66C
330
1F
100
AcDbEntity
  8
waku
100
AcDbText
 10
460.3422864330428
 20
52.86881846284074
 30
0.0
 40
3.0
  1
製 図
100
AcDbText
1001
ACAD
1000
MTEXTBEGIN
1070
    73
1070
     1
1070
    44
1040
1.0
1070
    74
1070
     0
1000
MTEXTEND
  0
TEXT
  5
66D
330
1F
100
AcDbEntity
  8
waku
100
AcDbText
 10
447.3422864330428
 20
52.86881846284074
 30
0.0
 40
3.0
  1
設 計
100
AcDbText
1001
ACAD
1000
MTEXTBEGIN
1070
    73
1070
     1
1070
    44
1040
1.0
1070
    74
1070
     0
1000
MTEXTEND
  0
TEXT
  5
66E
330
1F
100
AcDbEntity
  8
waku
100
AcDbText
 10
434.3422864330428
 20
52.86881846284074
 30
0.0
 40
3.0
  1
検 図
100
AcDbText
1001
ACAD
1000
MTEXTBEGIN
1070
    73
1070
     1
1070
    44
1040
1.0
1070
    74
1070
     0
1000
MTEXTEND
  0
TEXT
  5
66F
330
1F
100
AcDbEntity
  8
waku
100
AcDbText
 10
421.3422864330429
 20
52.86881846284074
 30
0.0
 40
3.0
  1
承 認
100
AcDbText
1001
ACAD
1000
MTEXTBEGIN
1070
    73
1070
     1
1070
    44
1040
1.0
1070
    74
1070
     0
1000
MTEXTEND
  0
TEXT
  5
670
330
1F
100
AcDbEntity
  8
waku
100
AcDbText
 10
420.8214690137417
 20
32.3130036134861
 30
0.0
 40
3.0
  1
作成日
100
AcDbText
1001
ACAD
1000
MTEXTBEGIN
1070
    73
1070
     1
1070
    44
1040
1.0
1070
    74
1070
     0
1000
MTEXTEND
  0
TEXT
  5
671
330
1F
100
AcDbEntity
  8
waku
100
AcDbText
 10
392.9046384826727
 20
31.18152516536782
 30
0.0
 40
3.0
  1
尺 度
100
AcDbText
1001
ACAD
1000
MTEXTBEGIN
1070
    73
1070
     1
1070
    44
1040
1.0
1070
    74
1070
     0
1000
MTEXTEND
  0
TEXT
  5
672
330
1F
100
AcDbEntity
  8
waku
100
AcDbText
 10
403.4830310970854
 20
27.00879775052624
 30
0.0
 40
2.5
  1
出図コード
100
AcDbText
1001
ACAD
1000
MTEXTBEGIN
1070
    73
1070
     1
1070
    44
1040
1.0
1070
    74
1070
     0
1000
MTEXTEND
  0
TEXT
  5
673
330
1F
100
AcDbEntity
  8
waku
100
AcDbText
 10
393.0634046007601
 20
38.1128687881245
 30
0.0
 40
3.0
  1
備 考
100
AcDbText
1001
ACAD
1000
MTEXTBEGIN
1070
    73
1070
     1
1070
    44
1040
1.0
1070
    74
1070
     0
1000
MTEXTEND
  0
TEXT
  5
674
330
1F
100
AcDbEntity
  8
waku
100
AcDbText
 10
360.4286743805716
 20
21.70309593284026
 30
0.0
 40
3.5
  1
日動工業株式会社
 41
1.199999999999999
100
AcDbText
1001
ACAD
1000
MTEXTBEGIN
1070
    73
1070
     1
1070
    44
1040
1.0
1070
    74
1070
     0
1000
MTEXTEND
  0
TEXT
  5
675
330
1F
100
AcDbEntity
  8
waku
100
AcDbText
 10
361.7382074130425
 20
31.19573024720182
 30
0.0
 40
3.0
  1
第 三 角 法
100
AcDbText
1001
ACAD
1000
MTEXTBEGIN
1070
    73
1070
     1
1070
    44
1040
1.0
1070
    74
1070
     0
1000
MTEXTEND
  0
TEXT
  5
676
330
1F
100
AcDbEntity
  8
waku
100
AcDbText
 10
361.7382074130425
 20
37.97630684018611
 30
0.0
 40
3.0
  1
材 質
100
AcDbText
1001
ACAD
1000
MTEXTBEGIN
1070
    73
1070
     1
1070
    44
1040
1.0
1070
    74
1070
     0
1000
MTEXTEND
  0
TEXT
  5
677
330
1F
100
AcDbEntity
  8
waku
100
AcDbText
 10
361.7382074130425
 20
45.33834646769888
 30
0.0
 40
3.0
  1
型 式
100
AcDbText
1001
ACAD
1000
MTEXTBEGIN
1070
    73
1070
     1
1070
    44
1040
1.0
1070
    74
1070
     0
1000
MTEXTEND
1000
ACAD_MTEXT_DEFINED_HEIGHT_BEGIN
1070
    46
1040
3.064735913775952
1000
ACAD_MTEXT_DEFINED_HEIGHT_END
  0
TEXT
  5
678
330
1F
100
AcDbEntity
  8
waku
100
AcDbText
 10
361.7382074130425
 20
52.86881846284074
 30
0.0
 40
3.0
  1
品 名
100
AcDbText
1001
ACAD
1000
MTEXTBEGIN
1070
    73
1070
     1
1070
    44
1040
1.0
1070
    74
1070
     0
1000
MTEXTEND
  0
TEXT
  5
679
330
1F
100
AcDbEntity
  8
waku
100
AcDbText
 10
361.1936534580856
 20
27.387188147144
 30
0.0
 40
2.0
  1
NICHIDO IND.CO.LTD
 41
1.3
  7
高2
100
AcDbText
1001
ACAD
1000
MTEXTBEGIN
1070
    73
1070
     1
1070
    44
1040
1.0
1070
    74
1070
     0
1000
MTEXTEND
  0
TEXT
  5
67A
330
1F
100
AcDbEntity
  8
waku
100
AcDbText
 10
403.1949889980857
 20
21.67944589809183
 30
0.0
 40
3.2
  1
ZK-A3X
 41
0.8
  7
高3.2
100
AcDbText
1001
ACAD
1000
MTEXTBEGIN
1070
    73
1070
     1
1070
    44
1040
1.0
1070
    74
1070
     0
1000
MTEXTEND
  0
TEXT
  5
67B
330
1F
100
AcDbEntity
  8
waku
100
AcDbText
 10
406.1176600227318
 20
31.62920725752399
 30
0.0
 40
3.2
  1
1/5
  7
高3.2
100
AcDbText
1001
ACAD
1000
MTEXTBEGIN
1070
    73
1070
     1
1070
    44
1040
1.0
1070
    74
1070
     0
1000
MTEXTEND
  0
TEXT
  5
67C
330
1F
100
AcDbEntity
  8
waku
100
AcDbText
 10
435.8935718784151
 20
31.82917941318907
 30
0.0
 40
3.2
  1
2010.09.02
  7
高3.2
100
AcDbText
1001
ACAD
1000
MTEXTBEGIN
1070
    73
1070
     1
1070
    44
1040
1.0
1070
    74
1070
     0
1000
MTEXTEND
  0
TEXT
  5
67D
330
1F
100
AcDbEntity
  8
waku
100
AcDbText
 10
422.3951078587038
 20
22.0601335967043
 30
0.0
 40
6.299999999999998
  1
S-SB
 41
0.9
  7
高6.3
100
AcDbText
1001
ACAD
1000
MTEXTBEGIN
1070
    73
1070
     1
1070
    44
1040
1.0
1070
    74
1070
     0
1000
MTEXTEND
  0
TEXT
  5
67E
330
1F
100
AcDbEntity
  8
waku
100
AcDbText
 10
374.4728213933378
 20
45.61577138276684
 30
0.0
 40
4.5
  1
S-SB
  7
高4.5
100
AcDbText
1001
ACAD
1000
MTEXTBEGIN
1070
    73
1070
     1
1070
    44
1040
1.0
1070
    74
1070
     0
1000
MTEXTEND
  0
TEXT
  5
67F
330
1F
100
AcDbEntity
  8
waku
100
AcDbText
 10
361.4070615421708
 20
57.23531160555454
 30
0.0
 40
2.0
  1
CONPONENTS
 41
0.5
  7
高2
100
AcDbText
1001
ACAD
1000
MTEXTBEGIN
1070
    73
1070
     1
1070
    44
1040
1.0
1070
    74
1070
     0
1000
MTEXTEND
  0
TEXT
  5
680
330
1F
100
AcDbEntity
  8
waku
100
AcDbText
 10
361.1492093478411
 20
48.78402978928522
 30
0.0
 40
2.0
  1
MODEL
  7
高2
100
AcDbText
1001
ACAD
1000
MTEXTBEGIN
1070
    73
1070
     1
1070
    44
1040
1.0
1070
    74
1070
     0
1000
MTEXTEND
  0
TEXT
  5
681
330
1F
100
AcDbEntity
  8
waku
100
AcDbText
 10
361.1936534580856
 20
41.44822714714416
 30
0.0
 40
2.0
  1
MATERIAL
 41
0.7
  7
高2
100
AcDbText
1001
ACAD
1000
MTEXTBEGIN
1070
    73
1070
     1
1070
    44
1040
1.0
1070
    74
1070
     0
1000
MTEXTEND
  0
TEXT
  5
682
330
1F
100
AcDbEntity
  8
waku
100
AcDbText
 10
392.8049583880872
 20
41.44822714714416
 30
0.0
 40
2.0
  1
REMARKS
 41
0.7
  7
高2
100
AcDbText
1001
ACAD
1000
MTEXTBEGIN
1070
    73
1070
     1
1070
    44
1040
1.0
1070
    74
1070
     0
1000
MTEXTEND
  0
TEXT
  5
683
330
1F
100
AcDbEntity
  8
waku
100
AcDbText
 10
361.4105618111318
 20
34.69668907818765
 30
0.0
 40
2.0
  1
3AD
 41
1.5
  7
高2
100
AcDbText
1001
ACAD
1000
MTEXTBEGIN
1070
    73
1070
     1
1070
    44
1040
1.0
1070
    74
1070
     0
1000
MTEXTEND
  0
TEXT
  5
684
330
1F
100
AcDbEntity
  8
waku
100
AcDbText
 10
371.9227595509662
 20
34.69668907818584
 30
0.0
 40
2.0
  1
ANGLE
 41
1.5
  7
高2
100
AcDbText
1001
ACAD
1000
MTEXTBEGIN
1070
    73
1070
     1
1070
    44
1040
1.0
1070
    74
1070
     0
1000
MTEXTEND
  0
TEXT
  5
685
330
1F
100
AcDbEntity
  8
waku
100
AcDbText
 10
393.5355526972381
 20
34.69668907818765
 30
0.0
 40
2.0
  1
SCALE
 41
0.8
  7
高2
100
AcDbText
1001
ACAD
1000
MTEXTBEGIN
1070
    73
1070
     1
1070
    44
1040
1.0
1070
    74
1070
     0
1000
MTEXTEND
  0
TEXT
  5
686
330
1F
100
AcDbEntity
  8
waku
100
AcDbText
 10
434.3149220280854
 20
57.04198235365936
 30
0.0
 40
2.0
  1
CHCK
  7
高2
100
AcDbText
1001
ACAD
1000
MTEXTBEGIN
1070
    73
1070
     1
1070
    44
1040
1.0
1070
    74
1070
     0
1000
MTEXTEND
  0
TEXT
  5
687
330
1F
100
AcDbEntity
  8
waku
100
AcDbText
 10
421.2021859278513
 20
57.04198235365936
 30
0.0
 40
2.0
  1
APPD
  7
高2
100
AcDbText
1001
ACAD
1000
MTEXTBEGIN
1070
    73
1070
     1
1070
    44
1040
1.0
1070
    74
1070
     0
1000
MTEXTEND
  0
TEXT
  5
688
330
1F
100
AcDbEntity
  8
waku
100
AcDbText
 10
447.4565528678515
 20
57.04198235365936
 30
0.0
 40
2.0
  1
DESN
  7
高2
100
AcDbText
1001
ACAD
1000
MTEXTBEGIN
1070
    73
1070
     1
1070
    44
1040
1.0
1070
    74
1070
     0
1000
MTEXTEND
  0
TEXT
  5
689
330
1F
100
AcDbEntity
  8
waku
100
AcDbText
 10
461.0950147015598
 20
57.04198235365936
 30
0.0
 40
2.0
  1
DEF
  7
高2
100
AcDbText
1001
ACAD
1000
MTEXTBEGIN
1070
    73
1070
     1
1070
    44
1040
1.0
1070
    74
1070
     0
1000
MTEXTEND
  0
TEXT
  5
68A
330
1F
100
AcDbEntity
  8
waku
100
AcDbText
 10
374.4728213933378
 20
39.82610465993992
 30
0.0
 40
2.5
  1
デニム生地
  7
高2.5
100
AcDbText
1001
ACAD
1000
MTEXTBEGIN
1070
    73
1070
     1
1070
    44
1040
1.0
1070
    74
1070
     0
1000
MTEXTEND
  0
TEXT
  5
68B
330
1F
100
AcDbEntity
  8
waku
100
AcDbText
 10
402.8616556647523
 20
39.60138710832132
 30
0.0
 40
2.5
  1
－
  7
高2.5
100
AcDbText
1001
ACAD
1000
MTEXTBEGIN
1070
    73
1070
     1
1070
    44
1040
1.0
1070
    74
1070
     0
1000
MTEXTEND
  0
TEXT
  5
79E
330
1F
100
AcDbEntity
  8
0
 62
     4
100
AcDbText
 10
358.2395989333597
 20
208.9931552646962
 30
0.0
 40
3.0
  1
巻付バンド
100
AcDbText
1001
ACAD
1000
MTEXTBEGIN
1070
    73
1070
     1
1070
    44
1040
1.0
1070
    74
1070
     0
1000
MTEXTEND
  0
TEXT
  5
79F
330
1F
100
AcDbEntity
  8
0
 62
     4
100
AcDbText
 10
358.0395989333597
 20
203.9931552646962
 30
0.0
 40
3.0
  1
マジックテープ
100
AcDbText
1001
ACAD
1000
MTEXTBEGIN
1070
    73
1070
     1
1070
    44
1040
1.0
1070
    74
1070
     0
1000
MTEXTEND
  0
LINE
  5
7A2
330
1F
100
AcDbEntity
  8
0
100
AcDbLine
 10
355.1435834611452
 20
159.1811898472881
 30
0.0
 11
355.1435834611452
 21
187.6637125872092
 31
0.0
  0
LINE
  5
7A3
330
1F
100
AcDbEntity
  8
0
100
AcDbLine
 10
155.1435834611451
 20
154.1811898472881
 30
0.0
 11
155.1435834611451
 21
187.6637125872092
 31
0.0
  0
LINE
  5
7A4
330
1F
100
AcDbEntity
  8
0
100
AcDbLine
 10
352.6435834611452
 20
186.4137125872092
 30
0.0
 11
157.6435834611451
 21
186.4137125872092
 31
0.0
  0
TEXT
  5
7A8
330
1F
100
AcDbEntity
  8
0
 62
     4
100
AcDbText
 10
238.4136467870242
 20
174.6363693325191
 30
0.0
 40
3.0
  1
ショルダーベルト
100
AcDbText
1001
ACAD
1000
MTEXTBEGIN
1070
    73
1070
     1
1070
    44
1040
1.0
1070
    74
1070
     0
1000
MTEXTEND
  0
TEXT
  5
7AB
330
1F
100
AcDbEntity
  8
0
 62
     4
100
AcDbText
 10
134.111454532903
 20
167.9605926370858
 30
0.0
 40
3.0
  1
底部
100
AcDbText
1001
ACAD
1000
MTEXTBEGIN
1070
    73
1070
     1
1070
    44
1040
1.0
1070
    74
1070
     0
1000
MTEXTEND
  0
TEXT
  5
7AC
330
1F
100
AcDbEntity
  8
0
 62
     4
100
AcDbText
 10
134.111454532903
 20
162.9605926370858
 30
0.0
 40
3.0
  1
補強
100
AcDbText
1001
ACAD
1000
MTEXTBEGIN
1070
    73
1070
     1
1070
    44
1040
1.0
1070
    74
1070
     0
1000
MTEXTEND
  0
TEXT
  5
7AF
330
1F
100
AcDbEntity
  8
0
 62
     4
100
AcDbText
 10
373.8993793378156
 20
112.5231264660009
 30
0.0
 40
3.0
  1
開口部(ファスナー)
100
AcDbText
1001
ACAD
1000
MTEXTBEGIN
1070
    73
1070
     1
1070
    44
1040
1.0
1070
    74
1070
     0
1000
MTEXTEND
  0
TEXT
  5
7B2
330
1F
100
AcDbEntity
  8
0
 62
     4
100
AcDbText
 10
292.7699488324718
 20
179.8131039831205
 30
0.0
 40
3.0
  1
肩パッド
100
AcDbText
1001
ACAD
1000
MTEXTBEGIN
1070
    73
1070
     1
1070
    44
1040
1.0
1070
    74
1070
     0
1000
MTEXTEND
  0
LINE
  5
7B5
330
1F
100
AcDbEntity
  8
waku
100
AcDbLine
 10
271.2880516480856
 20
295.4031962649568
 30
0.0
 11
271.2614408980855
 21
295.5735787849552
 31
0.0
  0
LINE
  5
7B6
330
1F
100
AcDbEntity
  8
waku
100
AcDbLine
 10
271.2614408980855
 20
295.5735787849552
 30
0.0
 11
271.2294820680856
 21
295.7367284749561
 31
0.0
  0
LINE
  5
7B7
330
1F
100
AcDbEntity
  8
waku
100
AcDbLine
 10
271.2294820680856
 20
295.7367284749561
 30
0.0
 11
271.1924221680853
 21
295.891384274957
 31
0.0
  0
LINE
  5
7B8
330
1F
100
AcDbEntity
  8
waku
100
AcDbLine
 10
271.1924221680853
 20
295.891384274957
 30
0.0
 11
271.1505476680856
 21
296.036350774957
 31
0.0
  0
LINE
  5
7B9
330
1F
100
AcDbEntity
  8
waku
100
AcDbLine
 10
271.1505476680856
 20
296.036350774957
 30
0.0
 11
271.1041822380855
 21
296.1705074649561
 31
0.0
  0
LINE
  5
7BA
330
1F
100
AcDbEntity
  8
waku
100
AcDbLine
 10
271.1041822380855
 20
296.1705074649561
 30
0.0
 11
271.0536842480857
 21
296.292817364956
 31
0.0
  0
LINE
  5
7BB
330
1F
100
AcDbEntity
  8
waku
100
AcDbLine
 10
271.0536842480857
 20
296.292817364956
 30
0.0
 11
270.9994440280854
 21
296.4023351049562
 31
0.0
  0
LINE
  5
7BC
330
1F
100
AcDbEntity
  8
waku
100
AcDbLine
 10
270.9994440280854
 20
296.4023351049562
 30
0.0
 11
270.9418808280854
 21
296.4982141549553
 31
0.0
  0
LINE
  5
7BD
330
1F
100
AcDbEntity
  8
waku
100
AcDbLine
 10
270.9418808280854
 20
296.4982141549553
 30
0.0
 11
270.8814395780857
 21
296.579713424955
 31
0.0
  0
LINE
  5
7BE
330
1F
100
AcDbEntity
  8
waku
100
AcDbLine
 10
270.8814395780857
 20
296.579713424955
 30
0.0
 11
270.8185874580856
 21
296.6462029649555
 31
0.0
  0
LINE
  5
7BF
330
1F
100
AcDbEntity
  8
waku
100
AcDbLine
 10
270.8185874580856
 20
296.6462029649555
 30
0.0
 11
270.7538102780856
 21
296.6971688449556
 31
0.0
  0
LINE
  5
7C0
330
1F
100
AcDbEntity
  8
waku
100
AcDbLine
 10
270.7538102780856
 20
296.6971688449556
 30
0.0
 11
270.6876087480857
 21
296.7322171249561
 31
0.0
  0
LINE
  5
7C1
330
1F
100
AcDbEntity
  8
waku
100
AcDbLine
 10
270.6876087480857
 20
296.7322171249561
 30
0.0
 11
270.6204945580855
 21
296.7510768949559
 31
0.0
  0
LINE
  5
7C2
330
1F
100
AcDbEntity
  8
waku
100
AcDbLine
 10
270.6204945580855
 20
296.7510768949559
 30
0.0
 11
270.5529864680854
 21
296.7536023949559
 31
0.0
  0
LINE
  5
7C3
330
1F
100
AcDbEntity
  8
waku
100
AcDbLine
 10
270.5529864680854
 20
296.7536023949559
 30
0.0
 11
270.4856062780856
 21
296.7397740849555
 31
0.0
  0
LINE
  5
7C4
330
1F
100
AcDbEntity
  8
waku
100
AcDbLine
 10
270.4856062780856
 20
296.7397740849555
 30
0.0
 11
270.4188748080857
 21
296.7096988549563
 31
0.0
  0
LINE
  5
7C5
330
1F
100
AcDbEntity
  8
waku
100
AcDbLine
 10
270.4188748080857
 20
296.7096988549563
 30
0.0
 11
270.3533078680854
 21
296.6636091849558
 31
0.0
  0
LINE
  5
7C6
330
1F
100
AcDbEntity
  8
waku
100
AcDbLine
 10
270.3533078680854
 20
296.6636091849558
 30
0.0
 11
270.2894122280856
 21
296.6018613049564
 31
0.0
  0
LINE
  5
7C7
330
1F
100
AcDbEntity
  8
waku
100
AcDbLine
 10
270.2894122280856
 20
296.6018613049564
 30
0.0
 11
270.2276817980857
 21
296.524932514956
 31
0.0
  0
LINE
  5
7C8
330
1F
100
AcDbEntity
  8
waku
100
AcDbLine
 10
270.2276817980857
 20
296.524932514956
 30
0.0
 11
270.1685937080853
 21
296.4334174149552
 31
0.0
  0
LINE
  5
7C9
330
1F
100
AcDbEntity
  8
waku
100
AcDbLine
 10
270.1685937080853
 20
296.4334174149552
 30
0.0
 11
270.1126046780857
 21
296.3280233849563
 31
0.0
  0
LINE
  5
7CA
330
1F
100
AcDbEntity
  8
waku
100
AcDbLine
 10
270.1126046780857
 20
296.3280233849563
 30
0.0
 11
270.0601474780857
 21
296.2095650549562
 31
0.0
  0
LINE
  5
7CB
330
1F
100
AcDbEntity
  8
waku
100
AcDbLine
 10
270.0601474780857
 20
296.2095650549562
 30
0.0
 11
270.0116275780853
 21
296.0789580449563
 31
0.0
  0
LINE
  5
7CC
330
1F
100
AcDbEntity
  8
waku
100
AcDbLine
 10
270.0116275780853
 20
296.0789580449563
 30
0.0
 11
269.9674199980856
 21
295.9372118949559
 31
0.0
  0
LINE
  5
7CD
330
1F
100
AcDbEntity
  8
waku
100
AcDbLine
 10
269.9674199980856
 20
295.9372118949559
 30
0.0
 11
269.9278664580853
 21
295.7854222249551
 31
0.0
  0
LINE
  5
7CE
330
1F
100
AcDbEntity
  8
waku
100
AcDbLine
 10
269.9278664580853
 20
295.7854222249551
 30
0.0
 11
269.8932726780856
 21
295.624762284955
 31
0.0
  0
LINE
  5
7CF
330
1F
100
AcDbEntity
  8
waku
100
AcDbLine
 10
269.8932726780856
 20
295.624762284955
 30
0.0
 11
269.8639060480857
 21
295.4564738949557
 31
0.0
  0
LINE
  5
7D0
330
1F
100
AcDbEntity
  8
waku
100
AcDbLine
 10
269.8639060480857
 20
295.4564738949557
 30
0.0
 11
269.8399935580857
 21
295.281857834956
 31
0.0
  0
LINE
  5
7D1
330
1F
100
AcDbEntity
  8
waku
100
AcDbLine
 10
269.8399935580857
 20
295.281857834956
 30
0.0
 11
269.8217200480855
 21
295.1022638049561
 31
0.0
  0
LINE
  5
7D2
330
1F
100
AcDbEntity
  8
waku
100
AcDbLine
 10
269.8217200480855
 20
295.1022638049561
 30
0.0
 11
269.8092267480859
 21
294.9190799649548
 31
0.0
  0
LINE
  5
7D3
330
1F
100
AcDbEntity
  8
waku
100
AcDbLine
 10
269.8092267480859
 20
294.9190799649548
 30
0.0
 11
269.8026102380856
 21
294.7337222449568
 31
0.0
  0
LINE
  5
7D4
330
1F
100
AcDbEntity
  8
waku
100
AcDbLine
 10
269.8026102380856
 20
294.7337222449568
 30
0.0
 11
269.8019216480854
 21
294.5476233449552
 31
0.0
  0
LINE
  5
7D5
330
1F
100
AcDbEntity
  8
waku
100
AcDbLine
 10
269.8019216480854
 20
294.5476233449552
 30
0.0
 11
269.8071663080856
 21
294.3622217349547
 31
0.0
  0
LINE
  5
7D6
330
1F
100
AcDbEntity
  8
waku
100
AcDbLine
 10
269.8071663080856
 20
294.3622217349547
 30
0.0
 11
269.8183036780853
 21
294.1789504649567
 31
0.0
  0
LINE
  5
7D7
330
1F
100
AcDbEntity
  8
waku
100
AcDbLine
 10
269.8183036780853
 20
294.1789504649567
 30
0.0
 11
269.8352476780854
 21
293.9992261249553
 31
0.0
  0
LINE
  5
7D8
330
1F
100
AcDbEntity
  8
waku
100
AcDbLine
 10
269.8352476780854
 20
293.9992261249553
 30
0.0
 11
269.8578673280855
 21
293.8244378949566
 31
0.0
  0
LINE
  5
7D9
330
1F
100
AcDbEntity
  8
waku
100
AcDbLine
 10
269.8578673280855
 20
293.8244378949566
 30
0.0
 11
269.8859877980855
 21
293.6559367949556
 31
0.0
  0
LINE
  5
7DA
330
1F
100
AcDbEntity
  8
waku
100
AcDbLine
 10
269.8859877980855
 20
293.6559367949556
 30
0.0
 11
269.9193917280856
 21
293.4950252549569
 31
0.0
  0
LINE
  5
7DB
330
1F
100
AcDbEntity
  8
waku
100
AcDbLine
 10
269.9193917280856
 20
293.4950252549569
 30
0.0
 11
269.9578209280856
 21
293.3429470349547
 31
0.0
  0
LINE
  5
7DC
330
1F
100
AcDbEntity
  8
waku
100
AcDbLine
 10
269.9578209280856
 20
293.3429470349547
 30
0.0
 11
270.0009783480857
 21
293.2008776249567
 31
0.0
  0
LINE
  5
7DD
330
1F
100
AcDbEntity
  8
waku
100
AcDbLine
 10
270.0009783480857
 20
293.2008776249567
 30
0.0
 11
270.0485304180854
 21
293.0699151449552
 31
0.0
  0
LINE
  5
7DE
330
1F
100
AcDbEntity
  8
waku
100
AcDbLine
 10
270.0485304180854
 20
293.0699151449552
 30
0.0
 11
270.1001095680855
 21
292.9510718649561
 31
0.0
  0
LINE
  5
7DF
330
1F
100
AcDbEntity
  8
waku
100
AcDbLine
 10
270.1001095680855
 20
292.9510718649561
 30
0.0
 11
270.1553171380853
 21
292.8452663949555
 31
0.0
  0
LINE
  5
7E0
330
1F
100
AcDbEntity
  8
waku
100
AcDbLine
 10
270.1553171380853
 20
292.8452663949555
 30
0.0
 11
270.2137263880856
 21
292.7533165349558
 31
0.0
  0
LINE
  5
7E1
330
1F
100
AcDbEntity
  8
waku
100
AcDbLine
 10
270.2137263880856
 20
292.7533165349558
 30
0.0
 11
270.2748858480856
 21
292.6759330349558
 31
0.0
  0
LINE
  5
7E2
330
1F
100
AcDbEntity
  8
waku
100
AcDbLine
 10
270.2748858480856
 20
292.6759330349558
 30
0.0
 11
270.3383227880856
 21
292.6137140149548
 31
0.0
  0
LINE
  5
7E3
330
1F
100
AcDbEntity
  8
waku
100
AcDbLine
 10
270.3383227880856
 20
292.6137140149548
 30
0.0
 11
270.4035468680856
 21
292.5671404049552
 31
0.0
  0
LINE
  5
7E4
330
1F
100
AcDbEntity
  8
waku
100
AcDbLine
 10
270.4035468680856
 20
292.5671404049552
 30
0.0
 11
270.4700539480857
 21
292.5365721749548
 31
0.0
  0
LINE
  5
7E5
330
1F
100
AcDbEntity
  8
waku
100
AcDbLine
 10
270.4700539480857
 20
292.5365721749548
 30
0.0
 11
270.5373299580858
 21
292.5222456249557
 31
0.0
  0
LINE
  5
7E6
330
1F
100
AcDbEntity
  8
waku
100
AcDbLine
 10
270.5373299580858
 20
292.5222456249557
 30
0.0
 11
270.6048548880855
 21
292.5242714849554
 31
0.0
  0
LINE
  5
7E7
330
1F
100
AcDbEntity
  8
waku
100
AcDbLine
 10
270.6048548880855
 20
292.5242714849554
 30
0.0
 11
270.6721068080857
 21
292.5426340849552
 31
0.0
  0
LINE
  5
7E8
330
1F
100
AcDbEntity
  8
waku
100
AcDbLine
 10
270.6721068080857
 20
292.5426340849552
 30
0.0
 11
270.7385658880856
 21
292.5771915049553
 31
0.0
  0
LINE
  5
7E9
330
1F
100
AcDbEntity
  8
waku
100
AcDbLine
 10
270.7385658880856
 20
292.5771915049553
 30
0.0
 11
270.8037184480856
 21
292.6276766349547
 31
0.0
  0
LINE
  5
7EA
330
1F
100
AcDbEntity
  8
waku
100
AcDbLine
 10
270.8037184480856
 20
292.6276766349547
 30
0.0
 11
270.8670608780855
 21
292.6936992349546
 31
0.0
  0
LINE
  5
7EB
330
1F
100
AcDbEntity
  8
waku
100
AcDbLine
 10
270.8670608780855
 20
292.6936992349546
 30
0.0
 11
270.9281035780857
 21
292.7747489949561
 31
0.0
  0
LINE
  5
7EC
330
1F
100
AcDbEntity
  8
waku
100
AcDbLine
 10
270.9281035780857
 20
292.7747489949561
 30
0.0
 11
270.9863747180854
 21
292.8701994449546
 31
0.0
  0
LINE
  5
7ED
330
1F
100
AcDbEntity
  8
waku
100
AcDbLine
 10
270.9863747180854
 20
292.8701994449546
 30
0.0
 11
271.0414238980854
 21
292.9793128049567
 31
0.0
  0
LINE
  5
7EE
330
1F
100
AcDbEntity
  8
waku
100
AcDbLine
 10
271.0414238980854
 20
292.9793128049567
 30
0.0
 11
271.0928256180856
 21
293.101245664955
 31
0.0
  0
LINE
  5
7EF
330
1F
100
AcDbEntity
  8
waku
100
AcDbLine
 10
271.0928256180856
 20
293.101245664955
 30
0.0
 11
271.1401825580858
 21
293.2350555749561
 31
0.0
  0
LINE
  5
7F0
330
1F
100
AcDbEntity
  8
waku
100
AcDbLine
 10
271.1401825580858
 20
293.2350555749561
 30
0.0
 11
271.1831286780854
 21
293.3797082249547
 31
0.0
  0
LINE
  5
7F1
330
1F
100
AcDbEntity
  8
waku
100
AcDbLine
 10
271.1831286780854
 20
293.3797082249547
 30
0.0
 11
271.2213320280854
 21
293.5340855449557
 31
0.0
  0
LINE
  5
7F2
330
1F
100
AcDbEntity
  8
waku
100
AcDbLine
 10
271.2213320280854
 20
293.5340855449557
 30
0.0
 11
271.2544973180854
 21
293.6969942749564
 31
0.0
  0
LINE
  5
7F3
330
1F
100
AcDbEntity
  8
waku
100
AcDbLine
 10
271.2544973180854
 20
293.6969942749564
 30
0.0
 11
271.2823681980855
 21
293.8671752049557
 31
0.0
  0
TEXT
  5
7F4
330
1F
100
AcDbEntity
  8
waku
100
AcDbText
 10
391.8395004508931
 20
278.844915169151
 30
0.0
 40
2.0
  1
1
  7
高2
100
AcDbText
1001
ACAD
1000
MTEXTBEGIN
1070
    73
1070
     1
1070
    44
1040
1.0
1070
    74
1070
     0
1000
MTEXTEND
  0
TEXT
  5
7F5
330
1F
100
AcDbEntity
  8
waku
100
AcDbText
 10
391.60855351357
 20
271.9835545409786
 30
0.0
 40
2.0
  1
2
  7
高2
100
AcDbText
1001
ACAD
1000
MTEXTBEGIN
1070
    73
1070
     1
1070
    44
1040
1.0
1070
    74
1070
     0
1000
MTEXTEND
  0
LINE
  5
7F6
330
1F
100
AcDbEntity
  8
dim
100
AcDbLine
 10
443.3935834611454
 20
148.9311898472883
 30
0.0
 11
463.9069695853456
 21
148.9311898472882
 31
0.0
  0
LINE
  5
7F7
330
1F
100
AcDbEntity
  8
dim
100
AcDbLine
 10
443.3935834611453
 20
120.9311898472883
 30
0.0
 11
463.9069695853456
 21
120.9311898472883
 31
0.0
  0
LINE
  5
7F8
330
1F
100
AcDbEntity
  8
dim
100
AcDbLine
 10
462.6569695853456
 20
146.4311898472882
 30
0.0
 11
462.6569695853456
 21
123.4311898472883
 31
0.0
  0
LINE
  5
7FC
330
1F
100
AcDbEntity
  8
dim
100
AcDbLine
 10
439.1435834611453
 20
132.6811898472884
 30
0.0
 11
439.1435834611453
 21
105.2170114192207
 31
0.0
  0
LINE
  5
7FD
330
1F
100
AcDbEntity
  8
dim
100
AcDbLine
 10
159.1435834611452
 20
132.6811898472883
 30
0.0
 11
159.1435834611452
 21
105.2170114192207
 31
0.0
  0
LINE
  5
7FE
330
1F
100
AcDbEntity
  8
dim
100
AcDbLine
 10
436.6435834611453
 20
106.4670114192207
 30
0.0
 11
161.6435834611452
 21
106.4670114192207
 31
0.0
  0
LINE
  5
802
330
1F
100
AcDbEntity
  8
dim
100
AcDbLine
 10
443.1435834611455
 20
256.4999910770731
 30
0.0
 11
443.1435834611455
 21
267.5212193355418
 31
0.0
  0
LINE
  5
803
330
1F
100
AcDbEntity
  8
dim
100
AcDbLine
 10
155.1435834611454
 20
260.4999910770732
 30
0.0
 11
155.1435834611454
 21
267.5212193355418
 31
0.0
  0
LINE
  5
804
330
1F
100
AcDbEntity
  8
dim
100
AcDbLine
 10
440.6435834611454
 20
266.2712193355418
 30
0.0
 11
157.6435834611454
 21
266.2712193355418
 31
0.0
  0
LINE
  5
808
330
1F
100
AcDbEntity
  8
dim
100
AcDbLine
 10
154.8935834611454
 20
153.9311898472881
 30
0.0
 11
140.078392424524
 21
153.9311898472881
 31
0.0
  0
LINE
  5
809
330
1F
100
AcDbEntity
  8
dim
100
AcDbLine
 10
154.8935834611454
 20
115.9311898472883
 30
0.0
 11
140.078392424524
 21
115.9311898472883
 31
0.0
  0
LINE
  5
80A
330
1F
100
AcDbEntity
  8
dim
100
AcDbLine
 10
141.328392424524
 20
151.4311898472881
 30
0.0
 11
141.328392424524
 21
118.4311898472883
 31
0.0
  0
LINE
  5
80E
330
1F
100
AcDbEntity
  8
0
100
AcDbLine
 10
346.0023006383573
 20
218.6894725942882
 30
0.0
 11
355.1145989333597
 21
210.4931552646962
 31
0.0
1001
ACAD
1000
DSTYLE
1002
{
1070
   147
1040
0.625
1070
    77
1070
     0
1070
   342
1005
0
1002
}
  0
LINE
  5
80F
330
1F
100
AcDbEntity
  8
0
100
AcDbLine
 10
355.1145989333597
 20
210.4931552646962
 30
0.0
 11
357.6145989333597
 21
210.4931552646962
 31
0.0
1001
ACAD
1000
DSTYLE
1002
{
1070
   147
1040
0.625
1070
    77
1070
     0
1070
   342
1005
0
1002
}
  0
LINE
  5
810
330
1F
100
AcDbEntity
  8
0
  6
ByBlock
 62
     0
370
    -2
100
AcDbLine
 10
345.5543230482253
 20
218.1914311853714
 30
0.0
 11
344.1435834611454
 21
220.3613489219923
 31
0.0
  0
LINE
  5
811
330
1F
100
AcDbEntity
  8
0
  6
ByBlock
 62
     0
370
    -2
100
AcDbLine
 10
344.1435834611454
 20
220.3613489219923
 30
0.0
 11
346.4502782284893
 21
219.1875140032049
 31
0.0
  0
LINE
  5
812
330
1F
100
AcDbEntity
  8
0
  6
ByBlock
 62
     0
370
    -2
100
AcDbLine
 10
344.1435834611454
 20
220.3613489219923
 30
0.0
 11
346.0023006383573
 21
218.6894725942882
 31
0.0
  0
TEXT
  5
813
330
1F
100
AcDbEntity
  8
0
 62
     4
100
AcDbText
 10
257.0247920473655
 20
187.0387125872092
 30
0.0
 40
3.0
  1
1000
100
AcDbText
  0
LINE
  5
814
330
1F
100
AcDbEntity
  8
0
  6
ByBlock
 62
     0
370
    -2
100
AcDbLine
 10
157.6435834611451
 20
185.7438400872092
 30
0.0
 11
155.1435834611451
 21
186.4137125872092
 31
0.0
  0
LINE
  5
815
330
1F
100
AcDbEntity
  8
0
  6
ByBlock
 62
     0
370
    -2
100
AcDbLine
 10
155.1435834611451
 20
186.4137125872092
 30
0.0
 11
157.6435834611451
 21
187.0835850872092
 31
0.0
  0
LINE
  5
816
330
1F
100
AcDbEntity
  8
0
  6
ByBlock
 62
     0
370
    -2
100
AcDbLine
 10
155.1435834611451
 20
186.4137125872092
 30
0.0
 11
157.6435834611451
 21
186.4137125872092
 31
0.0
  0
LINE
  5
817
330
1F
100
AcDbEntity
  8
0
  6
ByBlock
 62
     0
370
    -2
100
AcDbLine
 10
352.6435834611452
 20
187.0835850872092
 30
0.0
 11
355.1435834611452
 21
186.4137125872092
 31
0.0
  0
LINE
  5
818
330
1F
100
AcDbEntity
  8
0
  6
ByBlock
 62
     0
370
    -2
100
AcDbLine
 10
355.1435834611452
 20
186.4137125872092
 30
0.0
 11
352.6435834611452
 21
185.7438400872092
 31
0.0
  0
LINE
  5
819
330
1F
100
AcDbEntity
  8
0
  6
ByBlock
 62
     0
370
    -2
100
AcDbLine
 10
355.1435834611452
 20
186.4137125872092
 30
0.0
 11
352.6435834611452
 21
186.4137125872092
 31
0.0
  0
LINE
  5
81A
330
1F
100
AcDbEntity
  8
0
100
AcDbLine
 10
271.1849837108316
 20
166.2092997461728
 30
0.0
 11
267.8148865201744
 21
173.6655429573242
 31
0.0
  0
LINE
  5
81B
330
1F
100
AcDbEntity
  8
0
100
AcDbLine
 10
267.8148865201744
 20
173.6655429573242
 30
0.0
 11
264.6898865201744
 21
173.6655429573242
 31
0.0
  0
LINE
  5
81C
330
1F
100
AcDbEntity
  8
0
  6
ByBlock
 62
     0
370
    -2
100
AcDbLine
 10
271.7954009801279
 20
166.4851981397911
 30
0.0
 11
272.2146512730106
 21
163.9311898472881
 31
0.0
  0
LINE
  5
81D
330
1F
100
AcDbEntity
  8
0
  6
ByBlock
 62
     0
370
    -2
100
AcDbLine
 10
272.2146512730106
 20
163.9311898472881
 30
0.0
 11
270.5745664415354
 21
165.9334013525545
 31
0.0
  0
LINE
  5
81E
330
1F
100
AcDbEntity
  8
0
  6
ByBlock
 62
     0
370
    -2
100
AcDbLine
 10
272.2146512730106
 20
163.9311898472881
 30
0.0
 11
271.1849837108316
 21
166.2092997461728
 31
0.0
  0
LINE
  5
81F
330
1F
100
AcDbEntity
  8
0
100
AcDbLine
 10
153.9250789726152
 20
142.5927690211555
 30
0.0
 11
143.083420404843
 21
162.0155446165867
 31
0.0
  0
LINE
  5
820
330
1F
100
AcDbEntity
  8
0
100
AcDbLine
 10
143.083420404843
 20
162.0155446165867
 30
0.0
 11
139.958420404843
 21
162.0155446165867
 31
0.0
  0
LINE
  5
821
330
1F
100
AcDbEntity
  8
0
  6
ByBlock
 62
     0
370
    -2
100
AcDbLine
 10
154.5099967758935
 20
142.9192660803527
 30
0.0
 11
155.1435834611453
 21
140.4098244933601
 31
0.0
  0
LINE
  5
822
330
1F
100
AcDbEntity
  8
0
  6
ByBlock
 62
     0
370
    -2
100
AcDbLine
 10
155.1435834611453
 20
140.4098244933601
 30
0.0
 11
153.340161169337
 21
142.2662719619584
 31
0.0
  0
LINE
  5
823
330
1F
100
AcDbEntity
  8
0
  6
ByBlock
 62
     0
370
    -2
100
AcDbLine
 10
155.1435834611453
 20
140.4098244933601
 30
0.0
 11
153.9250789726152
 21
142.5927690211555
 31
0.0
  0
LINE
  5
824
330
1F
100
AcDbEntity
  8
0
100
AcDbLine
 10
433.5161218402363
 20
133.3065810350834
 30
0.0
 11
408.5970442141646
 21
112.0012493525731
 31
0.0
  0
LINE
  5
825
330
1F
100
AcDbEntity
  8
0
100
AcDbLine
 10
408.5970442141646
 20
112.0012493525731
 30
0.0
 11
405.4720442141646
 21
112.0012493525731
 31
0.0
  0
LINE
  5
826
330
1F
100
AcDbEntity
  8
0
  6
ByBlock
 62
     0
370
    -2
100
AcDbLine
 10
433.0808095336148
 20
133.8157296989923
 30
0.0
 11
435.4162918871812
 21
134.9311898472883
 31
0.0
  0
LINE
  5
827
330
1F
100
AcDbEntity
  8
0
  6
ByBlock
 62
     0
370
    -2
100
AcDbLine
 10
435.4162918871812
 20
134.9311898472883
 30
0.0
 11
433.9514341468578
 21
132.7974323711746
 31
0.0
  0
LINE
  5
828
330
1F
100
AcDbEntity
  8
0
  6
ByBlock
 62
     0
370
    -2
100
AcDbLine
 10
435.4162918871812
 20
134.9311898472883
 30
0.0
 11
433.5161218402363
 21
133.3065810350834
 31
0.0
  0
LINE
  5
829
330
1F
100
AcDbEntity
  8
0
100
AcDbLine
 10
318.3223559552987
 20
166.8615222582395
 30
0.0
 11
308.4209957679464
 21
178.8924204036552
 31
0.0
  0
LINE
  5
82A
330
1F
100
AcDbEntity
  8
0
100
AcDbLine
 10
308.4209957679464
 20
178.8924204036552
 30
0.0
 11
305.2959957679464
 21
178.8924204036552
 31
0.0
  0
LINE
  5
82B
330
1F
100
AcDbEntity
  8
0
  6
ByBlock
 62
     0
370
    -2
100
AcDbLine
 10
318.8395865944805
 20
167.287200108436
 30
0.0
 11
319.9110084607996
 21
164.9311898472891
 31
0.0
  0
LINE
  5
82C
330
1F
100
AcDbEntity
  8
0
  6
ByBlock
 62
     0
370
    -2
100
AcDbLine
 10
319.9110084607996
 20
164.9311898472891
 30
0.0
 11
317.805125316117
 21
166.435844408043
 31
0.0
  0
LINE
  5
82D
330
1F
100
AcDbEntity
  8
0
  6
ByBlock
 62
     0
370
    -2
100
AcDbLine
 10
319.9110084607996
 20
164.9311898472891
 30
0.0
 11
318.3223559552987
 21
166.8615222582395
 31
0.0
  0
TEXT
  5
82E
330
1F
100
AcDbEntity
  8
dim
 62
     4
100
AcDbText
 10
462.0319695853456
 20
130.910011884924
 30
0.0
 40
3.0
  1
\U+2205140
 50
90.0
100
AcDbText
  0
LINE
  5
82F
330
1F
100
AcDbEntity
  8
0
  6
ByBlock
 62
     0
370
    -2
100
AcDbLine
 10
463.3268420853456
 20
123.4311898472883
 30
0.0
 11
462.6569695853456
 21
120.9311898472883
 31
0.0
  0
LINE
  5
830
330
1F
100
AcDbEntity
  8
0
  6
ByBlock
 62
     0
370
    -2
100
AcDbLine
 10
462.6569695853456
 20
120.9311898472883
 30
0.0
 11
461.9870970853455
 21
123.4311898472883
 31
0.0
  0
LINE
  5
831
330
1F
100
AcDbEntity
  8
0
  6
ByBlock
 62
     0
370
    -2
100
AcDbLine
 10
462.6569695853456
 20
120.9311898472883
 30
0.0
 11
462.6569695853456
 21
123.4311898472883
 31
0.0
  0
LINE
  5
832
330
1F
100
AcDbEntity
  8
0
  6
ByBlock
 62
     0
370
    -2
100
AcDbLine
 10
461.9870970853456
 20
146.4311898472882
 30
0.0
 11
462.6569695853456
 21
148.9311898472882
 31
0.0
  0
LINE
  5
833
330
1F
100
AcDbEntity
  8
0
  6
ByBlock
 62
     0
370
    -2
100
AcDbLine
 10
462.6569695853456
 20
148.9311898472882
 30
0.0
 11
463.3268420853457
 21
146.4311898472882
 31
0.0
  0
LINE
  5
834
330
1F
100
AcDbEntity
  8
0
  6
ByBlock
 62
     0
370
    -2
100
AcDbLine
 10
462.6569695853456
 20
148.9311898472882
 30
0.0
 11
462.6569695853456
 21
146.4311898472882
 31
0.0
  0
TEXT
  5
835
330
1F
100
AcDbEntity
  8
dim
 62
     4
100
AcDbText
 10
278.9351800742766
 20
107.0920114192207
 30
0.0
 40
3.0
  1
1400(ファスナー)
100
AcDbText
  0
LINE
  5
836
330
1F
100
AcDbEntity
  8
0
  6
ByBlock
 62
     0
370
    -2
100
AcDbLine
 10
161.6435834611452
 20
105.7971389192207
 30
0.0
 11
159.1435834611452
 21
106.4670114192207
 31
0.0
  0
LINE
  5
837
330
1F
100
AcDbEntity
  8
0
  6
ByBlock
 62
     0
370
    -2
100
AcDbLine
 10
159.1435834611452
 20
106.4670114192207
 30
0.0
 11
161.6435834611452
 21
107.1368839192207
 31
0.0
  0
LINE
  5
838
330
1F
100
AcDbEntity
  8
0
  6
ByBlock
 62
     0
370
    -2
100
AcDbLine
 10
159.1435834611452
 20
106.4670114192207
 30
0.0
 11
161.6435834611452
 21
106.4670114192207
 31
0.0
  0
LINE
  5
839
330
1F
100
AcDbEntity
  8
0
  6
ByBlock
 62
     0
370
    -2
100
AcDbLine
 10
436.6435834611453
 20
107.1368839192207
 30
0.0
 11
439.1435834611453
 21
106.4670114192207
 31
0.0
  0
LINE
  5
83A
330
1F
100
AcDbEntity
  8
0
  6
ByBlock
 62
     0
370
    -2
100
AcDbLine
 10
439.1435834611453
 20
106.4670114192207
 30
0.0
 11
436.6435834611453
 21
105.7971389192207
 31
0.0
  0
LINE
  5
83B
330
1F
100
AcDbEntity
  8
0
  6
ByBlock
 62
     0
370
    -2
100
AcDbLine
 10
439.1435834611453
 20
106.4670114192207
 30
0.0
 11
436.6435834611453
 21
106.4670114192207
 31
0.0
  0
TEXT
  5
83C
330
1F
100
AcDbEntity
  8
dim
 62
     4
100
AcDbText
 10
281.4207260905565
 20
266.8962193355418
 30
0.0
 40
3.0
  1
1440
100
AcDbText
  0
LINE
  5
83D
330
1F
100
AcDbEntity
  8
0
  6
ByBlock
 62
     0
370
    -2
100
AcDbLine
 10
157.6435834611454
 20
265.6013468355418
 30
0.0
 11
155.1435834611454
 21
266.2712193355418
 31
0.0
  0
LINE
  5
83E
330
1F
100
AcDbEntity
  8
0
  6
ByBlock
 62
     0
370
    -2
100
AcDbLine
 10
155.1435834611454
 20
266.2712193355418
 30
0.0
 11
157.6435834611454
 21
266.9410918355418
 31
0.0
  0
LINE
  5
83F
330
1F
100
AcDbEntity
  8
0
  6
ByBlock
 62
     0
370
    -2
100
AcDbLine
 10
155.1435834611454
 20
266.2712193355418
 30
0.0
 11
157.6435834611454
 21
266.2712193355418
 31
0.0
  0
LINE
  5
840
330
1F
100
AcDbEntity
  8
0
  6
ByBlock
 62
     0
370
    -2
100
AcDbLine
 10
440.6435834611454
 20
266.9410918355418
 30
0.0
 11
443.1435834611455
 21
266.2712193355418
 31
0.0
  0
LINE
  5
841
330
1F
100
AcDbEntity
  8
0
  6
ByBlock
 62
     0
370
    -2
100
AcDbLine
 10
443.1435834611455
 20
266.2712193355418
 30
0.0
 11
440.6435834611454
 21
265.6013468355418
 31
0.0
  0
LINE
  5
842
330
1F
100
AcDbEntity
  8
0
  6
ByBlock
 62
     0
370
    -2
100
AcDbLine
 10
443.1435834611455
 20
266.2712193355418
 30
0.0
 11
440.6435834611454
 21
266.2712193355418
 31
0.0
  0
TEXT
  5
843
330
1F
100
AcDbEntity
  8
dim
 62
     4
100
AcDbText
 10
140.703392424524
 20
130.3997207287064
 30
0.0
 40
3.0
  1
\U+03C6190
 50
90.0
100
AcDbText
  0
LINE
  5
844
330
1F
100
AcDbEntity
  8
0
  6
ByBlock
 62
     0
370
    -2
100
AcDbLine
 10
141.998264924524
 20
118.4311898472883
 30
0.0
 11
141.328392424524
 21
115.9311898472883
 31
0.0
  0
LINE
  5
845
330
1F
100
AcDbEntity
  8
0
  6
ByBlock
 62
     0
370
    -2
100
AcDbLine
 10
141.328392424524
 20
115.9311898472883
 30
0.0
 11
140.658519924524
 21
118.4311898472883
 31
0.0
  0
LINE
  5
846
330
1F
100
AcDbEntity
  8
0
  6
ByBlock
 62
     0
370
    -2
100
AcDbLine
 10
141.328392424524
 20
115.9311898472883
 30
0.0
 11
141.328392424524
 21
118.4311898472883
 31
0.0
  0
LINE
  5
847
330
1F
100
AcDbEntity
  8
0
  6
ByBlock
 62
     0
370
    -2
100
AcDbLine
 10
140.658519924524
 20
151.4311898472881
 30
0.0
 11
141.328392424524
 21
153.9311898472881
 31
0.0
  0
LINE
  5
848
330
1F
100
AcDbEntity
  8
0
  6
ByBlock
 62
     0
370
    -2
100
AcDbLine
 10
141.328392424524
 20
153.9311898472881
 30
0.0
 11
141.998264924524
 21
151.4311898472881
 31
0.0
  0
LINE
  5
849
330
1F
100
AcDbEntity
  8
0
  6
ByBlock
 62
     0
370
    -2
100
AcDbLine
 10
141.328392424524
 20
153.9311898472881
 30
0.0
 11
141.328392424524
 21
151.4311898472881
 31
0.0
  0
ENDSEC
  0
SECTION
  2
OBJECTS
  0
DICTIONARY
  5
C
330
0
100
AcDbDictionary
281
     1
  3
ACAD_2007HEADERVARS_RT
350
84D
  3
ACAD_COLOR
350
73
  3
ACAD_GROUP
350
D
  3
ACAD_LAYOUT
350
1A
  3
ACAD_MATERIAL
350
72
  3
ACAD_MLEADERSTYLE
350
531
  3
ACAD_MLINESTYLE
350
17
  3
ACAD_PLOTSETTINGS
350
19
  3
ACAD_PLOTSTYLENAME
350
E
  3
ACAD_SCALELIST
350
51F
  3
ACAD_TABLESTYLE
350
86
  3
ACAD_VISUALSTYLE
350
99
  3
ACDB_RECOMPOSE_DATA
350
84B
  3
AcDbVariableDictionary
350
66
  3
DWGPROPS
350
84C
  0
DICTIONARY
  5
DD
330
2
100
AcDbDictionary
280
     1
281
     1
  3
ACAD_LAYERSTATES
360
DE
  0
DICTIONARY
  5
599
330
10
100
AcDbDictionary
280
     1
281
     1
  3
ADSK_XREC_LAYER_RECONCILED
360
59A
  0
DICTIONARY
  5
59B
330
18F
100
AcDbDictionary
280
     1
281
     1
  3
ADSK_XREC_LAYER_RECONCILED
360
59C
  0
DICTIONARY
  5
59D
330
190
100
AcDbDictionary
280
     1
281
     1
  3
ADSK_XREC_LAYER_RECONCILED
360
59E
  0
DICTIONARY
  5
59F
330
191
100
AcDbDictionary
280
     1
281
     1
  3
ADSK_XREC_LAYER_RECONCILED
360
5A0
  0
DICTIONARY
  5
4ED
330
1F
100
AcDbDictionary
280
     1
281
     1
  3
ACAD_SORTENTS
360
4EE
  0
DICTIONARY
  5
84D
102
{ACAD_REACTORS
330
C
102
}
330
C
100
AcDbDictionary
281
     1
  3
DIMARCSYM
350
84F
  3
DIMFXL
350
84E
  3
DIMJOGANG
350
850
  0
DICTIONARY
  5
73
102
{ACAD_REACTORS
330
C
102
}
330
C
100
AcDbDictionary
281
     1
  0
DICTIONARY
  5
D
102
{ACAD_REACTORS
330
C
102
}
330
C
100
AcDbDictionary
281
     1
  0
DICTIONARY
  5
1A
102
{ACAD_REACTORS
330
C
102
}
330
C
100
AcDbDictionary
281
     1
  3
Model
350
22
  3
レイアウト1
350
59
  3
レイアウト2
350
5E
  0
DICTIONARY
  5
72
102
{ACAD_REACTORS
330
C
102
}
330
C
100
AcDbDictionary
281
     1
  3
ByBlock
350
97
  3
ByLayer
350
96
  3
Global
350
98
  0
DICTIONARY
  5
531
102
{ACAD_REACTORS
330
C
102
}
330
C
100
AcDbDictionary
281
     1
  3
Standard
350
532
  0
DICTIONARY
  5
17
102
{ACAD_REACTORS
330
C
102
}
330
C
100
AcDbDictionary
281
     1
  3
Standard
350
18
  0
DICTIONARY
  5
19
102
{ACAD_REACTORS
330
C
102
}
330
C
100
AcDbDictionary
281
     1
  0
ACDBDICTIONARYWDFLT
  5
E
102
{ACAD_REACTORS
330
C
102
}
330
C
100
AcDbDictionary
281
     1
  3
Normal
350
F
100
AcDbDictionaryWithDefault
340
F
  0
DICTIONARY
  5
51F
102
{ACAD_REACTORS
330
C
102
}
330
C
100
AcDbDictionary
281
     1
  3
A0
350
520
  3
A1
350
521
  3
A2
350
522
  3
A3
350
523
  3
A4
350
524
  3
A5
350
525
  3
A6
350
526
  3
A7
350
527
  3
A8
350
528
  3
A9
350
529
  3
B0
350
52A
  3
B1
350
52B
  3
B2
350
52C
  3
B3
350
52D
  3
B4
350
52E
  3
B5
350
52F
  3
B6
350
530
  0
DICTIONARY
  5
86
102
{ACAD_REACTORS
330
C
102
}
330
C
100
AcDbDictionary
281
     1
  3
Standard
350
87
  0
DICTIONARY
  5
99
102
{ACAD_REACTORS
330
C
102
}
330
C
100
AcDbDictionary
281
     1
  3
2dWireframe
350
9F
  3
3D Hidden
350
A1
  3
3dWireframe
350
A0
  3
Basic
350
9E
  3
Brighten
350
A5
  3
ColorChange
350
A9
  3
Conceptual
350
A2
  3
Dim
350
A4
  3
EdgeColorOff
350
51E
  3
Facepattern
350
A8
  3
Flat
350
9A
  3
FlatWithEdges
350
9B
  3
Gouraud
350
9C
  3
GouraudWithEdges
350
9D
  3
Hidden
350
516
  3
JitterOff
350
51C
  3
Linepattern
350
A7
  3
OverhangOff
350
51D
  3
Realistic
350
A3
  3
Shaded
350
51B
  3
Shaded with edges
350
51A
  3
Shades of Gray
350
517
  3
Sketchy
350
518
  3
Thicken
350
A6
  3
Wireframe
350
515
  3
X-Ray
350
519
  0
XRECORD
  5
84B
102
{ACAD_REACTORS
330
C
102
}
330
C
100
AcDbXrecord
280
     1
 90
        1
330
87
  0
DICTIONARY
  5
66
102
{ACAD_REACTORS
330
C
102
}
330
C
100
AcDbDictionary
281
     1
  3
CANNOSCALE
350
5A2
  3
CMLEADERSTYLE
350
5A1
  3
CTABLESTYLE
350
89
  3
DIMASSOC
350
67
  3
HIDETEXT
350
6B
  3
INDEXCTL
350
4FB
  3
SORTENTS
350
4FA
  3
XCLIPFRAME
350
74B
  0
XRECORD
  5
84C
102
{ACAD_REACTORS
330
C
102
}
330
C
100
AcDbXrecord
280
     1
  1
DWGPROPS COOKIE
  2

  3

  4

  6

  7

  8
imamura
  9

300
=
301
=
302
=
303
=
304
=
305
=
306
=
307
=
308
=
309
=
 40
0.0105553703703704
 41
2455541.835951239
 42
2456091.641453403
  1

 90
        0
  0
DICTIONARY
  5
DE
102
{ACAD_REACTORS
330
DD
102
}
330
DD
100
AcDbDictionary
281
     1
  0
XRECORD
  5
59A
102
{ACAD_REACTORS
330
599
102
}
330
599
100
AcDbXrecord
280
     1
290
     1
  0
XRECORD
  5
59C
102
{ACAD_REACTORS
330
59B
102
}
330
59B
100
AcDbXrecord
280
     1
290
     1
  0
XRECORD
  5
59E
102
{ACAD_REACTORS
330
59D
102
}
330
59D
100
AcDbXrecord
280
     1
290
     1
  0
XRECORD
  5
5A0
102
{ACAD_REACTORS
330
59F
102
}
330
59F
100
AcDbXrecord
280
     1
290
     1
  0
SORTENTSTABLE
  5
4EE
102
{ACAD_REACTORS
330
4ED
102
}
330
4ED
100
AcDbSortentsTable
330
1F
331
7A4
  5
82B
331
47A
  5
80B
331
7DF
  5
7C4
331
476
  5
807
331
7DB
  5
7C0
331
472
  5
801
331
689
  5
427
331
4EC
  5
40D
331
406
  5
45D
331
32C
  5
32C
331
35F
  5
36C
331
402
  5
459
331
328
  5
328
331
35B
  5
368
331
43D
  5
4EC
331
3FE
  5
455
331
324
  5
324
331
439
  5
49A
331
3FA
  5
451
331
320
  5
320
331
366
  5
373
331
362
  5
36F
331
81B
  5
827
331
39D
  5
3B1
331
817
  5
82C
331
399
  5
3A6
331
813
  5
832
331
7D7
  5
7BC
331
7D3
  5
7B8
331
46E
  5
7FD
331
685
  5
42B
331
7CF
  5
7B4
331
4F6
  5
846
331
46A
  5
7F6
331
681
  5
42F
331
7CB
  5
7B0
331
466
  5
7F0
331
67D
  5
433
331
462
  5
7E6
331
679
  5
437
331
3AC
  5
3F9
331
357
  5
364
331
353
  5
360
331
435
  5
494
331
3F6
  5
44D
331
31C
  5
31C
331
431
  5
490
331
3B7
  5
40B
331
42D
  5
48A
331
3B3
  5
407
331
3EE
  5
445
331
429
  5
486
331
3EA
  5
441
331
395
  5
3A2
331
80F
  5
840
331
391
  5
39E
331
38D
  5
39A
331
846
  5
354
331
842
  5
3CA
331
803
  5
3C3
331
7C7
  5
7AC
331
7C3
  5
7A8
331
45E
  5
7E2
331
675
  5
43B
331
7BF
  5
7A4
331
45A
  5
7DE
331
671
  5
43F
331
34C
  5
359
331
7BB
  5
7A0
331
456
  5
7DA
331
66D
  5
44B
331
452
  5
686
331
425
  5
47D
331
421
  5
479
331
3CA
  5
421
331
347
  5
347
331
41D
  5
474
331
3C6
  5
41D
331
343
  5
343
331
419
  5
470
331
3C2
  5
419
331
385
  5
394
331
83E
  5
3CC
331
381
  5
390
331
83A
  5
3EF
331
37D
  5
38C
331
7F7
  5
3FC
331
836
  5
3F1
331
379
  5
386
331
7F3
  5
7D8
331
832
  5
3FE
331
7B7
  5
68A
331
44E
  5
680
331
4F9
  5
849
331
7AF
  5
81B
331
44A
  5
67C
331
495
  5
83A
331
7AB
  5
821
331
446
  5
66F
331
491
  5
836
331
442
  5
66B
331
33F
  5
33F
331
415
  5
46C
331
3BE
  5
415
331
33B
  5
33B
331
411
  5
468
331
3BA
  5
40F
331
337
  5
337
331
40D
  5
464
331
3A6
  5
3BD
331
333
  5
333
331
409
  5
460
331
3A2
  5
3B6
331
375
  5
382
331
7EF
  5
7D4
331
82E
  5
404
331
371
  5
37E
331
82A
  5
814
331
36D
  5
37A
331
7EB
  5
7D0
331
826
  5
816
331
369
  5
376
331
7E7
  5
7CC
331
822
  5
81D
331
7E3
  5
7C8
331
7A3
  5
82A
331
47D
  5
80F
331
79F
  5
842
331
7DE
  5
7C3
331
479
  5
80A
331
475
  5
806
331
7DA
  5
7BF
331
471
  5
800
331
688
  5
428
331
32F
  5
32F
331
405
  5
45C
331
32B
  5
32B
331
35E
  5
36B
331
401
  5
458
331
327
  5
327
331
35A
  5
367
331
43C
  5
49D
331
3FD
  5
454
331
323
  5
323
331
438
  5
497
331
3F9
  5
450
331
365
  5
372
331
81E
  5
825
331
361
  5
36E
331
81A
  5
826
331
39C
  5
3AD
331
816
  5
831
331
398
  5
3A5
331
812
  5
83E
331
7D6
  5
7BB
331
7D2
  5
7B7
331
48F
  5
834
331
46D
  5
7FC
331
684
  5
42C
331
7CE
  5
7B3
331
469
  5
7F5
331
680
  5
430
331
7CA
  5
7AF
331
465
  5
7EF
331
67C
  5
434
331
461
  5
7E5
331
678
  5
438
331
356
  5
363
331
31F
  5
31F
331
434
  5
493
331
352
  5
35F
331
430
  5
48F
331
3B6
  5
40A
331
42C
  5
489
331
3B2
  5
406
331
3ED
  5
444
331
428
  5
485
331
394
  5
3A1
331
80E
  5
83F
331
390
  5
39D
331
38C
  5
399
331
849
  5
351
331
80A
  5
34B
331
845
  5
353
331
841
  5
3C9
331
802
  5
3C2
331
7C6
  5
7AB
331
7C2
  5
7A7
331
45D
  5
7E1
331
674
  5
43C
331
34F
  5
35C
331
7BE
  5
7A3
331
459
  5
7DD
331
670
  5
440
331
34B
  5
358
331
7BA
  5
79F
331
455
  5
7D9
331
66C
  5
44C
331
451
  5
685
331
424
  5
47C
331
3CD
  5
424
331
420
  5
478
331
3C9
  5
420
331
346
  5
346
331
41C
  5
473
331
3C5
  5
41C
331
342
  5
342
331
418
  5
46F
331
3C1
  5
418
331
384
  5
393
331
7FE
  5
3ED
331
83D
  5
3CB
331
380
  5
38F
331
49D
  5
845
331
37C
  5
38B
331
839
  5
3EE
331
7F6
  5
3FB
331
835
  5
3F8
331
378
  5
385
331
7F2
  5
7D7
331
831
  5
403
331
7B6
  5
689
331
7B2
  5
815
331
44D
  5
67F
331
4F8
  5
848
331
449
  5
67B
331
494
  5
839
331
445
  5
66E
331
490
  5
835
331
441
  5
4F9
331
33E
  5
33E
331
414
  5
46B
331
3BD
  5
414
331
33A
  5
33A
331
410
  5
467
331
3B9
  5
40E
331
336
  5
336
331
40C
  5
463
331
3A5
  5
3BC
331
332
  5
332
331
408
  5
45F
331
3A1
  5
3B5
331
374
  5
381
331
82D
  5
812
331
370
  5
37D
331
7EE
  5
7D3
331
829
  5
813
331
36C
  5
379
331
7EA
  5
7CF
331
825
  5
81A
331
368
  5
375
331
7E6
  5
7CB
331
821
  5
81C
331
7E2
  5
7C7
331
7A2
  5
829
331
47C
  5
80D
331
79E
  5
841
331
7DD
  5
7C2
331
478
  5
809
331
7D9
  5
7BE
331
474
  5
805
331
68B
  5
425
331
470
  5
7FF
331
32E
  5
32E
331
404
  5
45B
331
32A
  5
32A
331
35D
  5
36A
331
43F
  5
4F7
331
400
  5
457
331
326
  5
326
331
359
  5
366
331
43B
  5
49C
331
3FC
  5
453
331
322
  5
322
331
3F8
  5
44F
331
364
  5
371
331
39F
  5
3B3
331
81D
  5
824
331
360
  5
36D
331
819
  5
82E
331
39B
  5
3AC
331
815
  5
830
331
811
  5
83D
331
7D5
  5
7BA
331
687
  5
429
331
7D1
  5
7B6
331
48E
  5
833
331
46C
  5
7FB
331
683
  5
42D
331
7CD
  5
7B2
331
468
  5
7F4
331
67F
  5
431
331
7C9
  5
7AE
331
464
  5
7EC
331
67B
  5
435
331
460
  5
7E4
331
355
  5
362
331
437
  5
496
331
31E
  5
31E
331
433
  5
492
331
351
  5
35E
331
42F
  5
48E
331
3B5
  5
409
331
42B
  5
488
331
3B1
  5
405
331
3EC
  5
443
331
397
  5
3A4
331
393
  5
3A0
331
38F
  5
39C
331
38B
  5
398
331
848
  5
350
331
809
  5
34A
331
844
  5
352
331
840
  5
3C5
331
7C5
  5
7AA
331
677
  5
439
331
7C1
  5
7A6
331
45C
  5
7E0
331
673
  5
43D
331
34E
  5
35B
331
7BD
  5
7A2
331
458
  5
7DC
331
66F
  5
448
331
34A
  5
357
331
66B
  5
80E
331
7B9
  5
79E
331
450
  5
682
331
427
  5
484
331
423
  5
47B
331
3CC
  5
423
331
41F
  5
477
331
3C8
  5
41F
331
345
  5
345
331
41B
  5
472
331
3C4
  5
41B
331
341
  5
341
331
3C0
  5
417
331
387
  5
396
331
383
  5
392
331
7FD
  5
3EC
331
83C
  5
3CE
331
37F
  5
38E
331
49C
  5
844
331
37B
  5
38A
331
838
  5
3F7
331
7F5
  5
447
331
834
  5
400
331
7F1
  5
7D6
331
830
  5
402
331
7B5
  5
688
331
44C
  5
67E
331
448
  5
67A
331
493
  5
838
331
444
  5
66D
331
440
  5
4F8
331
417
  5
46E
331
33D
  5
33D
331
413
  5
46A
331
3BC
  5
412
331
339
  5
339
331
40F
  5
466
331
3B8
  5
40C
331
335
  5
335
331
40B
  5
462
331
3A4
  5
3BB
331
331
  5
331
331
3A0
  5
3B4
331
377
  5
384
331
373
  5
380
331
82C
  5
811
331
36F
  5
37C
331
7ED
  5
7D2
331
828
  5
818
331
36B
  5
378
331
7E9
  5
7CE
331
824
  5
819
331
7E5
  5
7CA
331
7E1
  5
7C6
331
47B
  5
80C
331
477
  5
808
331
7DC
  5
7C1
331
7D8
  5
7BD
331
473
  5
802
331
68A
  5
426
331
407
  5
45E
331
32D
  5
32D
331
403
  5
45A
331
329
  5
329
331
35C
  5
369
331
43E
  5
4F6
331
3FF
  5
456
331
325
  5
325
331
358
  5
365
331
43A
  5
49B
331
3FB
  5
452
331
321
  5
321
331
367
  5
374
331
363
  5
370
331
81C
  5
823
331
39E
  5
3B2
331
818
  5
82D
331
39A
  5
3A7
331
814
  5
82F
331
810
  5
83C
331
7D4
  5
7B9
331
46F
  5
7FE
331
686
  5
42A
331
7D0
  5
7B5
331
4F7
  5
847
331
46B
  5
7FA
331
682
  5
42E
331
7CC
  5
7B1
331
467
  5
7F3
331
67E
  5
432
331
7C8
  5
7AD
331
463
  5
7E9
331
67A
  5
436
331
3AD
  5
3FA
331
354
  5
361
331
436
  5
495
331
3F7
  5
44E
331
31D
  5
31D
331
432
  5
491
331
350
  5
35D
331
42E
  5
48B
331
3B4
  5
408
331
3EF
  5
446
331
42A
  5
487
331
3EB
  5
442
331
396
  5
3A3
331
392
  5
39F
331
38E
  5
39B
331
38A
  5
397
331
847
  5
34F
331
808
  5
349
331
804
  5
3C4
331
843
  5
355
331
7C4
  5
7A9
331
45F
  5
7E3
331
676
  5
43A
331
7C0
  5
7A5
331
45B
  5
7DF
331
672
  5
43E
331
34D
  5
35A
331
7BC
  5
7A1
331
457
  5
7DB
331
66E
  5
44A
331
349
  5
356
331
7B8
  5
68B
331
453
  5
687
331
426
  5
480
331
422
  5
47A
331
3CB
  5
422
331
41E
  5
476
331
3C7
  5
41E
331
344
  5
344
331
41A
  5
471
331
3C3
  5
41A
331
340
  5
340
331
386
  5
395
331
83F
  5
3CD
331
382
  5
391
331
83B
  5
3F0
331
37E
  5
38D
331
7FC
  5
3CF
331
49B
  5
843
331
37A
  5
387
331
7F8
  5
3FD
331
837
  5
3F2
331
7F4
  5
449
331
833
  5
3FF
331
7F0
  5
7D5
331
44F
  5
681
331
44B
  5
67D
331
496
  5
83B
331
7AC
  5
822
331
447
  5
670
331
492
  5
837
331
7A8
  5
828
331
443
  5
66C
331
416
  5
46D
331
3BF
  5
416
331
33C
  5
33C
331
412
  5
469
331
3BB
  5
410
331
338
  5
338
331
40E
  5
465
331
3A7
  5
3C1
331
334
  5
334
331
40A
  5
461
331
3A3
  5
3B7
331
330
  5
330
331
376
  5
383
331
82F
  5
401
331
372
  5
37F
331
82B
  5
810
331
36E
  5
37B
331
7EC
  5
7D1
331
827
  5
817
331
36A
  5
377
331
7E8
  5
7CD
331
823
  5
81E
331
7E4
  5
7C9
331
7E0
  5
7C5
  0
XRECORD
  5
84F
102
{ACAD_REACTORS
330
84D
102
}
330
84D
100
AcDbXrecord
280
     1
 70
     2
  0
XRECORD
  5
84E
102
{ACAD_REACTORS
330
84D
102
}
330
84D
100
AcDbXrecord
280
     1
 40
1.25
  0
XRECORD
  5
850
102
{ACAD_REACTORS
330
84D
102
}
330
84D
100
AcDbXrecord
280
     1
 40
1.570796326794896
  0
LAYOUT
  5
22
102
{ACAD_XDICTIONARY
360
851
102
}
102
{ACAD_REACTORS
330
1A
102
}
330
1A
100
AcDbPlotSettings
  1

  2
none_device
  4
ANSI_A_(8.50_x_11.00_Inches)
  6

 40
6.349999904632567
 41
19.04999923706055
 42
6.350006103515625
 43
19.04998779296875
 44
215.8999938964844
 45
279.3999938964844
 46
0.0
 47
0.0
 48
0.0
 49
0.0
140
0.0
141
0.0
142
1.0
143
2.584895464708373
 70
 11952
 72
     0
 73
     1
 74
     0
  7

 75
     0
147
0.3868628397755418
148
0.0
149
0.0
100
AcDbLayout
  1
Model
 70
     1
 71
     0
 10
0.0
 20
0.0
 11
12.0
 21
9.0
 12
0.0
 22
0.0
 32
0.0
 14
0.0
 24
0.0
 34
0.0
 15
0.0
 25
0.0
 35
0.0
146
0.0
 13
0.0
 23
0.0
 33
0.0
 16
1.0
 26
0.0
 36
0.0
 17
0.0
 27
1.0
 37
0.0
 76
     0
330
1F
331
94
  0
LAYOUT
  5
59
102
{ACAD_XDICTIONARY
360
853
102
}
102
{ACAD_REACTORS
330
1A
102
}
330
1A
100
AcDbPlotSettings
  1

  2
None
  4

  6

 40
0.0
 41
0.0
 42
0.0
 43
0.0
 44
0.0
 45
0.0
 46
0.0
 47
0.0
 48
0.0
 49
0.0
140
0.0
141
0.0
142
1.0
143
1.0
 70
   688
 72
     0
 73
     0
 74
     5
  7

 75
    16
147
1.0
148
0.0
149
0.0
100
AcDbLayout
  1
レイアウト1
 70
     1
 71
     1
 10
0.0
 20
0.0
 11
12.0
 21
9.0
 12
0.0
 22
0.0
 32
0.0
 14
0.0
 24
0.0
 34
0.0
 15
0.0
 25
0.0
 35
0.0
146
0.0
 13
0.0
 23
0.0
 33
0.0
 16
1.0
 26
0.0
 36
0.0
 17
0.0
 27
1.0
 37
0.0
 76
     0
330
58
  0
LAYOUT
  5
5E
102
{ACAD_XDICTIONARY
360
855
102
}
102
{ACAD_REACTORS
330
1A
102
}
330
1A
100
AcDbPlotSettings
  1

  2
None
  4

  6

 40
0.0
 41
0.0
 42
0.0
 43
0.0
 44
0.0
 45
0.0
 46
0.0
 47
0.0
 48
0.0
 49
0.0
140
0.0
141
0.0
142
1.0
143
1.0
 70
   688
 72
     0
 73
     0
 74
     5
  7

 75
    16
147
1.0
148
0.0
149
0.0
100
AcDbLayout
  1
レイアウト2
 70
     1
 71
     2
 10
0.0
 20
0.0
 11
12.0
 21
9.0
 12
0.0
 22
0.0
 32
0.0
 14
0.0
 24
0.0
 34
0.0
 15
0.0
 25
0.0
 35
0.0
146
0.0
 13
0.0
 23
0.0
 33
0.0
 16
1.0
 26
0.0
 36
0.0
 17
0.0
 27
1.0
 37
0.0
 76
     0
330
5D
  0
MATERIAL
  5
97
102
{ACAD_XDICTIONARY
360
50B
102
}
102
{ACAD_REACTORS
330
72
102
}
330
72
100
AcDbMaterial
  1
ByBlock
  0
MATERIAL
  5
96
102
{ACAD_XDICTIONARY
360
509
102
}
102
{ACAD_REACTORS
330
72
102
}
330
72
100
AcDbMaterial
  1
ByLayer
  0
MATERIAL
  5
98
102
{ACAD_XDICTIONARY
360
50D
102
}
102
{ACAD_REACTORS
330
72
102
}
330
72
100
AcDbMaterial
  1
Global
  0
MLEADERSTYLE
  5
532
102
{ACAD_REACTORS
330
531
102
}
330
531
100
AcDbMLeaderStyle
170
     2
171
     1
172
     0
 90
        2
 40
0.0
 41
0.0
173
     1
 91
-1056964608
340
14
 92
       -2
290
     1
 42
2.0
291
     1
 43
0.36
  3
Standard
 44
4.0
300

342
11
174
     1
178
     6
175
     1
176
     0
 93
-1056964608
 45
4.0
292
     0
297
     0
 46
4.0
 94
-1056964608
 47
1.0
 49
1.0
140
1.0
293
     1
141
0.0
294
     1
177
     0
142
1.0
295
     0
296
     0
143
0.125
1001
ACAD_MLEADERVER
1070
     2
  0
MLINESTYLE
  5
18
102
{ACAD_REACTORS
330
17
102
}
330
17
100
AcDbMlineStyle
  2
STANDARD
 70
     0
  3

 62
   256
 51
90.0
 52
90.0
 71
     2
 49
0.5
 62
   256
  6
BYLAYER
 49
-0.5
 62
   256
  6
BYLAYER
  0
ACDBPLACEHOLDER
  5
F
102
{ACAD_REACTORS
330
E
102
}
330
E
  0
SCALE
  5
520
102
{ACAD_REACTORS
330
51F
102
}
330
51F
100
AcDbScale
 70
     0
300
1:1
140
1.0
141
1.0
290
     1
  0
SCALE
  5
521
102
{ACAD_REACTORS
330
51F
102
}
330
51F
100
AcDbScale
 70
     0
300
1:2
140
1.0
141
2.0
290
     0
  0
SCALE
  5
522
102
{ACAD_REACTORS
330
51F
102
}
330
51F
100
AcDbScale
 70
     0
300
1:4
140
1.0
141
4.0
290
     0
  0
SCALE
  5
523
102
{ACAD_REACTORS
330
51F
102
}
330
51F
100
AcDbScale
 70
     0
300
1:5
140
1.0
141
5.0
290
     0
  0
SCALE
  5
524
102
{ACAD_REACTORS
330
51F
102
}
330
51F
100
AcDbScale
 70
     0
300
1:8
140
1.0
141
8.0
290
     0
  0
SCALE
  5
525
102
{ACAD_REACTORS
330
51F
102
}
330
51F
100
AcDbScale
 70
     0
300
1:10
140
1.0
141
10.0
290
     0
  0
SCALE
  5
526
102
{ACAD_REACTORS
330
51F
102
}
330
51F
100
AcDbScale
 70
     0
300
1:16
140
1.0
141
16.0
290
     0
  0
SCALE
  5
527
102
{ACAD_REACTORS
330
51F
102
}
330
51F
100
AcDbScale
 70
     0
300
1:20
140
1.0
141
20.0
290
     0
  0
SCALE
  5
528
102
{ACAD_REACTORS
330
51F
102
}
330
51F
100
AcDbScale
 70
     0
300
1:30
140
1.0
141
30.0
290
     0
  0
SCALE
  5
529
102
{ACAD_REACTORS
330
51F
102
}
330
51F
100
AcDbScale
 70
     0
300
1:40
140
1.0
141
40.0
290
     0
  0
SCALE
  5
52A
102
{ACAD_REACTORS
330
51F
102
}
330
51F
100
AcDbScale
 70
     0
300
1:50
140
1.0
141
50.0
290
     0
  0
SCALE
  5
52B
102
{ACAD_REACTORS
330
51F
102
}
330
51F
100
AcDbScale
 70
     0
300
1:100
140
1.0
141
100.0
290
     0
  0
SCALE
  5
52C
102
{ACAD_REACTORS
330
51F
102
}
330
51F
100
AcDbScale
 70
     0
300
2:1
140
2.0
141
1.0
290
     0
  0
SCALE
  5
52D
102
{ACAD_REACTORS
330
51F
102
}
330
51F
100
AcDbScale
 70
     0
300
4:1
140
4.0
141
1.0
290
     0
  0
SCALE
  5
52E
102
{ACAD_REACTORS
330
51F
102
}
330
51F
100
AcDbScale
 70
     0
300
8:1
140
8.0
141
1.0
290
     0
  0
SCALE
  5
52F
102
{ACAD_REACTORS
330
51F
102
}
330
51F
100
AcDbScale
 70
     0
300
10:1
140
10.0
141
1.0
290
     0
  0
SCALE
  5
530
102
{ACAD_REACTORS
330
51F
102
}
330
51F
100
AcDbScale
 70
     0
300
100:1
140
100.0
141
1.0
290
     0
  0
TABLESTYLE
  5
87
102
{ACAD_XDICTIONARY
360
5A4
102
}
102
{ACAD_REACTORS
330
86
102
}
330
86
100
AcDbTableStyle
  3
Standard
 70
     0
 71
     0
 40
0.06
 41
0.06
280
     0
281
     0
  7
Standard
140
0.18
170
     2
 62
     0
 63
     7
283
     0
274
    -2
284
     1
 64
     0
275
    -2
285
     1
 65
     0
276
    -2
286
     1
 66
     0
277
    -2
287
     1
 67
     0
278
    -2
288
     1
 68
     0
279
    -2
289
     1
 69
     0
  7
Standard
140
0.25
170
     5
 62
     0
 63
     7
283
     0
274
    -2
284
     1
 64
     0
275
    -2
285
     1
 65
     0
276
    -2
286
     1
 66
     0
277
    -2
287
     1
 67
     0
278
    -2
288
     1
 68
     0
279
    -2
289
     1
 69
     0
  7
Standard
140
0.18
170
     5
 62
     0
 63
     7
283
     0
274
    -2
284
     1
 64
     0
275
    -2
285
     1
 65
     0
276
    -2
286
     1
 66
     0
277
    -2
287
     1
 67
     0
278
    -2
288
     1
 68
     0
279
    -2
289
     1
 69
     0
  0
VISUALSTYLE
  5
9F
102
{ACAD_XDICTIONARY
360
862
102
}
102
{ACAD_REACTORS
330
99
102
}
330
99
100
AcDbVisualStyle
  2

 70
     4
 71
     0
 72
     2
 73
     1
 90
        0
 40
-0.6
 41
-30.0
 62
     5
 63
     7
 74
     1
 91
        4
 64
     7
 65
   257
 75
     1
175
     1
 42
1.0
 92
        0
 66
   257
 43
1.0
 76
     1
 77
     6
 78
     2
 67
     7
 79
     5
170
     0
171
     0
290
     0
174
     0
 93
        1
 44
0.0
173
     0
291
     0
 45
0.0
1001
ACAD
1000
AcDbSavedByObjectVersion
1070
     0
  0
VISUALSTYLE
  5
A1
102
{ACAD_XDICTIONARY
360
866
102
}
102
{ACAD_REACTORS
330
99
102
}
330
99
100
AcDbVisualStyle
  2

 70
     6
 71
     1
 72
     2
 73
     2
 90
        0
 40
-0.6
 41
-30.0
 62
     5
 63
     7
 74
     2
 91
        2
 64
     7
 65
   257
 75
     2
175
     1
 42
40.0
 92
        0
 66
   257
 43
1.0
 76
     1
 77
     6
 78
     2
 67
     7
 79
     3
170
     0
171
     0
290
     0
174
     0
 93
        1
 44
0.0
173
     0
291
     0
 45
0.0
1001
ACAD
1000
AcDbSavedByObjectVersion
1070
     0
  0
VISUALSTYLE
  5
A0
102
{ACAD_XDICTIONARY
360
864
102
}
102
{ACAD_REACTORS
330
99
102
}
330
99
100
AcDbVisualStyle
  2

 70
     5
 71
     0
 72
     2
 73
     1
 90
        0
 40
-0.6
 41
-30.0
 62
     5
 63
     7
 74
     1
 91
        4
 64
     7
 65
   257
 75
     1
175
     1
 42
1.0
 92
        0
 66
   257
 43
1.0
 76
     1
 77
     6
 78
     2
 67
     7
 79
     5
170
     0
171
     0
290
     0
174
     0
 93
        1
 44
0.0
173
     0
291
     0
 45
0.0
1001
ACAD
1000
AcDbSavedByObjectVersion
1070
     0
  0
VISUALSTYLE
  5
9E
102
{ACAD_XDICTIONARY
360
860
102
}
102
{ACAD_REACTORS
330
99
102
}
330
99
100
AcDbVisualStyle
  2

 70
     7
 71
     1
 72
     0
 73
     1
 90
        0
 40
-0.6
 41
-30.0
 62
     5
 63
     7
 74
     0
 91
        4
 64
     7
 65
   257
 75
     1
175
     1
 42
1.0
 92
        8
 66
     7
 43
1.0
 76
     1
 77
     6
 78
     2
 67
     7
 79
     5
170
     0
171
     0
290
     0
174
     0
 93
        1
 44
0.0
173
     0
291
     1
 45
0.0
1001
ACAD
1000
AcDbSavedByObjectVersion
1070
     0
  0
VISUALSTYLE
  5
A5
102
{ACAD_XDICTIONARY
360
86E
102
}
102
{ACAD_REACTORS
330
99
102
}
330
99
100
AcDbVisualStyle
  2

 70
    12
 71
     2
 72
     2
 73
     1
 90
        0
 40
-0.6
 41
-30.0
 62
     5
 63
     7
 74
     1
 91
        4
 64
     7
 65
   257
 75
     1
175
     1
 42
1.0
 92
        8
 66
     7
 43
1.0
 76
     1
 77
     6
 78
     2
 67
     7
 79
     5
170
     0
171
     0
290
     0
174
     0
 93
        1
 44
50.0
173
     0
291
     1
 45
0.0
1001
ACAD
1000
AcDbSavedByObjectVersion
1070
     0
  0
VISUALSTYLE
  5
A9
102
{ACAD_XDICTIONARY
360
876
102
}
102
{ACAD_REACTORS
330
99
102
}
330
99
100
AcDbVisualStyle
  2

 70
    16
 71
     2
 72
     2
 73
     3
 90
        0
 40
-0.6
 41
-30.0
 62
     5
 63
     8
 74
     1
 91
        4
 64
     7
 65
   257
 75
     1
175
     1
 42
1.0
 92
        8
 66
     8
 43
1.0
 76
     1
 77
     6
 78
     2
 67
     7
 79
     5
170
     0
171
     0
290
     0
174
     0
 93
        1
 44
0.0
173
     0
291
     1
 45
0.0
1001
ACAD
1000
AcDbSavedByObjectVersion
1070
     0
  0
VISUALSTYLE
  5
A2
102
{ACAD_XDICTIONARY
360
868
102
}
102
{ACAD_REACTORS
330
99
102
}
330
99
100
AcDbVisualStyle
  2

 70
     9
 71
     3
 72
     2
 73
     1
 90
        0
 40
-0.6
 41
-30.0
 62
     5
 63
     7
 74
     2
 91
        2
 64
     7
 65
   257
 75
     1
175
     1
 42
40.0
 92
        8
 66
     7
 43
1.0
 76
     1
 77
     6
 78
     2
 67
     7
 79
     3
170
     0
171
     0
290
     0
174
     0
 93
        1
 44
0.0
173
     0
291
     0
 45
0.0
1001
ACAD
1000
AcDbSavedByObjectVersion
1070
     0
  0
VISUALSTYLE
  5
A4
102
{ACAD_XDICTIONARY
360
86C
102
}
102
{ACAD_REACTORS
330
99
102
}
330
99
100
AcDbVisualStyle
  2

 70
    11
 71
     2
 72
     2
 73
     1
 90
        0
 40
-0.6
 41
-30.0
 62
     5
 63
     7
 74
     1
 91
        4
 64
     7
 65
   257
 75
     1
175
     1
 42
1.0
 92
        8
 66
     7
 43
1.0
 76
     1
 77
     6
 78
     2
 67
     7
 79
     5
170
     0
171
     0
290
     0
174
     0
 93
        1
 44
-50.0
173
     0
291
     1
 45
0.0
1001
ACAD
1000
AcDbSavedByObjectVersion
1070
     0
  0
VISUALSTYLE
  5
51E
102
{ACAD_XDICTIONARY
360
88A
102
}
102
{ACAD_REACTORS
330
99
102
}
330
99
100
AcDbVisualStyle
  2

 70
    22
 71
     2
 72
     2
 73
     0
 90
        0
 40
-0.6
 41
-30.0
 62
     5
 63
     7
 74
     1
 91
        4
 64
     7
 65
   257
 75
     1
175
     1
 42
1.0
 92
        8
 66
     7
 43
1.0
 76
     1
 77
     6
 78
     2
 67
     7
 79
     5
170
     0
171
     0
290
     0
174
     0
 93
        1
 44
0.0
173
     0
291
     1
 45
0.0
1001
ACAD
1000
AcDbSavedByObjectVersion
1070
     0
  0
VISUALSTYLE
  5
A8
102
{ACAD_XDICTIONARY
360
874
102
}
102
{ACAD_REACTORS
330
99
102
}
330
99
100
AcDbVisualStyle
  2

 70
    15
 71
     2
 72
     2
 73
     1
 90
        0
 40
-0.6
 41
-30.0
 62
     5
 63
     7
 74
     1
 91
        4
 64
     7
 65
   257
 75
     1
175
     1
 42
1.0
 92
        8
 66
     7
 43
1.0
 76
     1
 77
     6
 78
     2
 67
     7
 79
     5
170
     0
171
     0
290
     0
174
     0
 93
        1
 44
0.0
173
     0
291
     1
 45
0.0
1001
ACAD
1000
AcDbSavedByObjectVersion
1070
     0
  0
VISUALSTYLE
  5
9A
102
{ACAD_XDICTIONARY
360
858
102
}
102
{ACAD_REACTORS
330
99
102
}
330
99
100
AcDbVisualStyle
  2

 70
     0
 71
     2
 72
     1
 73
     1
 90
        2
 40
-0.6
 41
30.0
 62
     5
 63
     7
 74
     0
 91
        4
 64
     7
 65
   257
 75
     1
175
     1
 42
1.0
 92
        8
 66
     7
 43
1.0
 76
     1
 77
     6
 78
     2
 67
     7
 79
     5
170
     0
171
     0
290
     0
174
     0
 93
        1
 44
0.0
173
     0
291
     1
 45
0.0
1001
ACAD
1000
AcDbSavedByObjectVersion
1070
     0
  0
VISUALSTYLE
  5
9B
102
{ACAD_XDICTIONARY
360
85A
102
}
102
{ACAD_REACTORS
330
99
102
}
330
99
100
AcDbVisualStyle
  2

 70
     1
 71
     2
 72
     1
 73
     1
 90
        2
 40
-0.6
 41
30.0
 62
     5
 63
     7
 74
     1
 91
        4
 64
     7
 65
   257
 75
     1
175
     1
 42
1.0
 92
        0
 66
   257
 43
1.0
 76
     1
 77
     6
 78
     2
 67
     7
 79
     5
170
     0
171
     0
290
     0
174
     0
 93
        1
 44
0.0
173
     0
291
     1
 45
0.0
1001
ACAD
1000
AcDbSavedByObjectVersion
1070
     0
  0
VISUALSTYLE
  5
9C
102
{ACAD_XDICTIONARY
360
85C
102
}
102
{ACAD_REACTORS
330
99
102
}
330
99
100
AcDbVisualStyle
  2

 70
     2
 71
     2
 72
     2
 73
     1
 90
        2
 40
-0.6
 41
30.0
 62
     5
 63
     7
 74
     0
 91
        4
 64
     7
 65
   257
 75
     1
175
     1
 42
1.0
 92
        0
 66
     7
 43
1.0
 76
     1
 77
     6
 78
     2
 67
     7
 79
     5
170
     0
171
     0
290
     0
174
     0
 93
        1
 44
0.0
173
     0
291
     1
 45
0.0
1001
ACAD
1000
AcDbSavedByObjectVersion
1070
     0
  0
VISUALSTYLE
  5
9D
102
{ACAD_XDICTIONARY
360
85E
102
}
102
{ACAD_REACTORS
330
99
102
}
330
99
100
AcDbVisualStyle
  2

 70
     3
 71
     2
 72
     2
 73
     1
 90
        2
 40
-0.6
 41
30.0
 62
     5
 63
     7
 74
     1
 91
        4
 64
     7
 65
   257
 75
     1
175
     1
 42
1.0
 92
        0
 66
   257
 43
1.0
 76
     1
 77
     6
 78
     2
 67
     7
 79
     5
170
     0
171
     0
290
     0
174
     0
 93
        1
 44
0.0
173
     0
291
     1
 45
0.0
1001
ACAD
1000
AcDbSavedByObjectVersion
1070
     0
  0
VISUALSTYLE
  5
516
102
{ACAD_XDICTIONARY
360
87A
102
}
102
{ACAD_REACTORS
330
99
102
}
330
99
100
AcDbVisualStyle
  2

 70
     6
 71
     1
 72
     2
 73
     2
 90
        0
 40
-0.6
 41
-30.0
 62
     5
 63
     7
 74
     2
 91
        2
 64
     7
 65
   257
 75
     2
175
     1
 42
40.0
 92
        0
 66
   257
 43
1.0
 76
     1
 77
     6
 78
     2
 67
     7
 79
     3
170
     0
171
     0
290
     0
174
     0
 93
        1
 44
0.0
173
     0
291
     0
 45
0.0
1001
ACAD
1000
AcDbSavedByObjectVersion
1070
     0
  0
VISUALSTYLE
  5
51C
102
{ACAD_XDICTIONARY
360
886
102
}
102
{ACAD_REACTORS
330
99
102
}
330
99
100
AcDbVisualStyle
  2

 70
    20
 71
     2
 72
     2
 73
     0
 90
        0
 40
-0.6
 41
-30.0
 62
     5
 63
     7
 74
     1
 91
        4
 64
     7
 65
   257
 75
     1
175
     1
 42
1.0
 92
       10
 66
     7
 43
1.0
 76
     1
 77
     6
 78
     2
 67
     7
 79
     5
170
     0
171
     0
290
     0
174
     0
 93
        1
 44
0.0
173
     0
291
     1
 45
0.0
1001
ACAD
1000
AcDbSavedByObjectVersion
1070
     0
  0
VISUALSTYLE
  5
A7
102
{ACAD_XDICTIONARY
360
872
102
}
102
{ACAD_REACTORS
330
99
102
}
330
99
100
AcDbVisualStyle
  2

 70
    14
 71
     2
 72
     2
 73
     1
 90
        0
 40
-0.6
 41
-30.0
 62
     5
 63
     7
 74
     1
 91
        4
 64
     7
 65
   257
 75
     7
175
     7
 42
1.0
 92
        8
 66
     7
 43
1.0
 76
     1
 77
     6
 78
     2
 67
     7
 79
     5
170
     0
171
     0
290
     0
174
     0
 93
        1
 44
0.0
173
     0
291
     1
 45
0.0
1001
ACAD
1000
AcDbSavedByObjectVersion
1070
     0
  0
VISUALSTYLE
  5
51D
102
{ACAD_XDICTIONARY
360
888
102
}
102
{ACAD_REACTORS
330
99
102
}
330
99
100
AcDbVisualStyle
  2

 70
    21
 71
     2
 72
     2
 73
     0
 90
        0
 40
-0.6
 41
-30.0
 62
     5
 63
     7
 74
     1
 91
        4
 64
     7
 65
   257
 75
     1
175
     1
 42
1.0
 92
        9
 66
     7
 43
1.0
 76
     1
 77
     6
 78
     2
 67
     7
 79
     5
170
     0
171
     0
290
     0
174
     0
 93
        1
 44
0.0
173
     0
291
     1
 45
0.0
1001
ACAD
1000
AcDbSavedByObjectVersion
1070
     0
  0
VISUALSTYLE
  5
A3
102
{ACAD_XDICTIONARY
360
86A
102
}
102
{ACAD_REACTORS
330
99
102
}
330
99
100
AcDbVisualStyle
  2

 70
     8
 71
     2
 72
     2
 73
     1
 90
        0
 40
-0.6
 41
-30.0
 62
     5
 63
     7
 74
     1
 91
        0
 64
     7
 65
   257
 75
     1
175
     1
 42
1.0
 92
        8
 66
     8
 43
1.0
 76
     1
 77
     6
 78
     2
 67
     7
 79
     5
170
     0
171
     0
290
     0
174
     0
 93
       13
 44
0.0
173
     0
291
     0
 45
0.0
1001
ACAD
1000
AcDbSavedByObjectVersion
1070
     0
  0
VISUALSTYLE
  5
51B
102
{ACAD_XDICTIONARY
360
884
102
}
102
{ACAD_REACTORS
330
99
102
}
330
99
100
AcDbVisualStyle
  2

 70
    27
 71
     2
 72
     2
 73
     1
 90
        2
 40
-0.6
 41
30.0
 62
     5
 63
     7
 74
     0
 91
        4
 64
     7
 65
   257
 75
     1
175
     1
 42
1.0
 92
        8
 66
   257
 43
1.0
 76
     1
 77
     6
 78
     2
 67
     8
 79
     3
170
     0
171
     0
290
     0
174
     0
 93
        5
 44
0.0
173
     0
291
     0
 45
0.0
1001
ACAD
1000
AcDbSavedByObjectVersion
1070
     0
  0
VISUALSTYLE
  5
51A
102
{ACAD_XDICTIONARY
360
882
102
}
102
{ACAD_REACTORS
330
99
102
}
330
99
100
AcDbVisualStyle
  2

 70
    26
 71
     2
 72
     2
 73
     1
 90
        2
 40
-0.6
 41
30.0
 62
     5
 63
     7
 74
     1
 91
       10
 64
     7
 65
   257
 75
     2
175
     1
 42
1.0
 92
        8
 66
   257
 43
1.0
 76
     1
 77
     6
 78
     2
 67
     7
 79
     3
170
     0
171
     0
290
     0
174
     0
 93
        5
 44
0.0
173
     0
291
     0
 45
0.0
1001
ACAD
1000
AcDbSavedByObjectVersion
1070
     0
  0
VISUALSTYLE
  5
517
102
{ACAD_XDICTIONARY
360
87C
102
}
102
{ACAD_REACTORS
330
99
102
}
330
99
100
AcDbVisualStyle
  2

 70
    23
 71
     2
 72
     2
 73
     3
 90
        0
 40
-0.6
 41
-30.0
 62
     5
 63
     7
 74
     2
 91
        2
 64
     7
 65
     7
 75
     1
175
     1
 42
40.0
 92
        8
 66
     7
 43
1.0
 76
     1
 77
     6
 78
     2
 67
     7
 79
     3
170
     0
171
     0
290
     0
174
     0
 93
        1
 44
0.0
173
     0
291
     0
 45
0.0
1001
ACAD
1000
AcDbSavedByObjectVersion
1070
     0
  0
VISUALSTYLE
  5
518
102
{ACAD_XDICTIONARY
360
87E
102
}
102
{ACAD_REACTORS
330
99
102
}
330
99
100
AcDbVisualStyle
  2

 70
    24
 71
     1
 72
     2
 73
     2
 90
        0
 40
-0.6
 41
-30.0
 62
     5
 63
     7
 74
     2
 91
        2
 64
     7
 65
     7
 75
     1
175
     1
 42
40.0
 92
       11
 66
     7
 43
1.0
 76
     1
 77
     6
 78
     2
 67
     7
 79
     6
170
     0
171
     0
290
     0
174
     0
 93
        1
 44
0.0
173
     0
291
     0
 45
0.0
1001
ACAD
1000
AcDbSavedByObjectVersion
1070
     0
  0
VISUALSTYLE
  5
A6
102
{ACAD_XDICTIONARY
360
870
102
}
102
{ACAD_REACTORS
330
99
102
}
330
99
100
AcDbVisualStyle
  2

 70
    13
 71
     2
 72
     2
 73
     1
 90
        0
 40
-0.6
 41
-30.0
 62
     5
 63
     7
 74
     1
 91
        4
 64
     7
 65
   257
 75
     1
175
     1
 42
1.0
 92
       12
 66
     7
 43
1.0
 76
     1
 77
     6
 78
     2
 67
     7
 79
     5
170
     0
171
     0
290
     0
174
     0
 93
        1
 44
0.0
173
     0
291
     1
 45
0.0
1001
ACAD
1000
AcDbSavedByObjectVersion
1070
     0
  0
VISUALSTYLE
  5
515
102
{ACAD_XDICTIONARY
360
878
102
}
102
{ACAD_REACTORS
330
99
102
}
330
99
100
AcDbVisualStyle
  2

 70
     5
 71
     0
 72
     2
 73
     0
 90
        0
 40
-0.6
 41
-30.0
 62
     5
 63
     7
 74
     1
 91
        4
 64
     7
 65
   257
 75
     1
175
     1
 42
1.0
 92
        0
 66
   257
 43
1.0
 76
     1
 77
     6
 78
     2
 67
     7
 79
     3
170
     0
171
     0
290
     0
174
     0
 93
        1
 44
0.0
173
     0
291
     0
 45
0.0
1001
ACAD
1000
AcDbSavedByObjectVersion
1070
     0
  0
VISUALSTYLE
  5
519
102
{ACAD_XDICTIONARY
360
880
102
}
102
{ACAD_REACTORS
330
99
102
}
330
99
100
AcDbVisualStyle
  2

 70
    25
 71
     2
 72
     2
 73
     1
 90
        1
 40
0.5
 41
-30.0
 62
     5
 63
     7
 74
     1
 91
        0
 64
     7
 65
   257
 75
     1
175
     1
 42
1.0
 92
        8
 66
     7
 43
1.0
 76
     1
 77
     6
 78
     2
 67
     7
 79
     3
170
     0
171
     0
290
     0
174
     0
 93
       13
 44
0.0
173
     0
291
     0
 45
0.0
1001
ACAD
1000
AcDbSavedByObjectVersion
1070
     0
  0
DICTIONARYVAR
  5
5A2
102
{ACAD_REACTORS
330
66
102
}
330
66
100
DictionaryVariables
280
     0
  1
1:1
  0
DICTIONARYVAR
  5
5A1
102
{ACAD_REACTORS
330
66
102
}
330
66
100
DictionaryVariables
280
     0
  1
STANDARD
  0
DICTIONARYVAR
  5
89
102
{ACAD_REACTORS
330
66
102
}
330
66
100
DictionaryVariables
280
     0
  1
STANDARD
  0
DICTIONARYVAR
  5
67
102
{ACAD_REACTORS
330
66
102
}
330
66
100
DictionaryVariables
280
     0
  1
2
  0
DICTIONARYVAR
  5
6B
102
{ACAD_REACTORS
330
66
102
}
330
66
100
DictionaryVariables
280
     0
  1
1
  0
DICTIONARYVAR
  5
4FB
102
{ACAD_REACTORS
330
66
102
}
330
66
100
DictionaryVariables
280
     0
  1
0
  0
DICTIONARYVAR
  5
4FA
102
{ACAD_REACTORS
330
66
102
}
330
66
100
DictionaryVariables
280
     0
  1
127
  0
DICTIONARYVAR
  5
74B
102
{ACAD_REACTORS
330
66
102
}
330
66
100
DictionaryVariables
280
     0
  1
2
  0
DICTIONARY
  5
851
330
22
100
AcDbDictionary
280
     1
281
     1
  3
ACAD_XREC_ROUNDTRIP
360
852
  0
DICTIONARY
  5
853
330
59
100
AcDbDictionary
280
     1
281
     1
  3
ACAD_XREC_ROUNDTRIP
360
854
  0
DICTIONARY
  5
855
330
5E
100
AcDbDictionary
280
     1
281
     1
  3
ACAD_XREC_ROUNDTRIP
360
856
  0
DICTIONARY
  5
50B
330
97
100
AcDbDictionary
280
     1
281
     1
  3
ACAD_XREC_ROUNDTRIP
360
50C
  0
DICTIONARY
  5
509
330
96
100
AcDbDictionary
280
     1
281
     1
  3
ACAD_XREC_ROUNDTRIP
360
50A
  0
DICTIONARY
  5
50D
330
98
100
AcDbDictionary
280
     1
281
     1
  3
ACAD_XREC_ROUNDTRIP
360
50E
  0
DICTIONARY
  5
5A4
330
87
100
AcDbDictionary
280
     1
281
     1
  3
ACAD_ROUNDTRIP_2008_TABLESTYLE_CELLSTYLEMAP
360
84A
  3
ACAD_XREC_ROUNDTRIP
360
857
  0
DICTIONARY
  5
862
330
9F
100
AcDbDictionary
280
     1
281
     1
  3
ACAD_XREC_ROUNDTRIP
360
863
  0
DICTIONARY
  5
866
330
A1
100
AcDbDictionary
280
     1
281
     1
  3
ACAD_XREC_ROUNDTRIP
360
867
  0
DICTIONARY
  5
864
330
A0
100
AcDbDictionary
280
     1
281
     1
  3
ACAD_XREC_ROUNDTRIP
360
865
  0
DICTIONARY
  5
860
330
9E
100
AcDbDictionary
280
     1
281
     1
  3
ACAD_XREC_ROUNDTRIP
360
861
  0
DICTIONARY
  5
86E
330
A5
100
AcDbDictionary
280
     1
281
     1
  3
ACAD_XREC_ROUNDTRIP
360
86F
  0
DICTIONARY
  5
876
330
A9
100
AcDbDictionary
280
     1
281
     1
  3
ACAD_XREC_ROUNDTRIP
360
877
  0
DICTIONARY
  5
868
330
A2
100
AcDbDictionary
280
     1
281
     1
  3
ACAD_XREC_ROUNDTRIP
360
869
  0
DICTIONARY
  5
86C
330
A4
100
AcDbDictionary
280
     1
281
     1
  3
ACAD_XREC_ROUNDTRIP
360
86D
  0
DICTIONARY
  5
88A
330
51E
100
AcDbDictionary
280
     1
281
     1
  3
ACAD_XREC_ROUNDTRIP
360
88B
  0
DICTIONARY
  5
874
330
A8
100
AcDbDictionary
280
     1
281
     1
  3
ACAD_XREC_ROUNDTRIP
360
875
  0
DICTIONARY
  5
858
330
9A
100
AcDbDictionary
280
     1
281
     1
  3
ACAD_XREC_ROUNDTRIP
360
859
  0
DICTIONARY
  5
85A
330
9B
100
AcDbDictionary
280
     1
281
     1
  3
ACAD_XREC_ROUNDTRIP
360
85B
  0
DICTIONARY
  5
85C
330
9C
100
AcDbDictionary
280
     1
281
     1
  3
ACAD_XREC_ROUNDTRIP
360
85D
  0
DICTIONARY
  5
85E
330
9D
100
AcDbDictionary
280
     1
281
     1
  3
ACAD_XREC_ROUNDTRIP
360
85F
  0
DICTIONARY
  5
87A
330
516
100
AcDbDictionary
280
     1
281
     1
  3
ACAD_XREC_ROUNDTRIP
360
87B
  0
DICTIONARY
  5
886
330
51C
100
AcDbDictionary
280
     1
281
     1
  3
ACAD_XREC_ROUNDTRIP
360
887
  0
DICTIONARY
  5
872
330
A7
100
AcDbDictionary
280
     1
281
     1
  3
ACAD_XREC_ROUNDTRIP
360
873
  0
DICTIONARY
  5
888
330
51D
100
AcDbDictionary
280
     1
281
     1
  3
ACAD_XREC_ROUNDTRIP
360
889
  0
DICTIONARY
  5
86A
330
A3
100
AcDbDictionary
280
     1
281
     1
  3
ACAD_XREC_ROUNDTRIP
360
86B
  0
DICTIONARY
  5
884
330
51B
100
AcDbDictionary
280
     1
281
     1
  3
ACAD_XREC_ROUNDTRIP
360
885
  0
DICTIONARY
  5
882
330
51A
100
AcDbDictionary
280
     1
281
     1
  3
ACAD_XREC_ROUNDTRIP
360
883
  0
DICTIONARY
  5
87C
330
517
100
AcDbDictionary
280
     1
281
     1
  3
ACAD_XREC_ROUNDTRIP
360
87D
  0
DICTIONARY
  5
87E
330
518
100
AcDbDictionary
280
     1
281
     1
  3
ACAD_XREC_ROUNDTRIP
360
87F
  0
DICTIONARY
  5
870
330
A6
100
AcDbDictionary
280
     1
281
     1
  3
ACAD_XREC_ROUNDTRIP
360
871
  0
DICTIONARY
  5
878
330
515
100
AcDbDictionary
280
     1
281
     1
  3
ACAD_XREC_ROUNDTRIP
360
879
  0
DICTIONARY
  5
880
330
519
100
AcDbDictionary
280
     1
281
     1
  3
ACAD_XREC_ROUNDTRIP
360
881
  0
XRECORD
  5
852
102
{ACAD_REACTORS
330
851
102
}
330
851
100
AcDbXrecord
280
     1
102
SHADEPLOT
 70
     0
102
SHADEPLOTRESLEVEL
 70
     2
102
SHADEPLOTCUSTOMDPI
 70
   300
  0
XRECORD
  5
854
102
{ACAD_REACTORS
330
853
102
}
330
853
100
AcDbXrecord
280
     1
102
SHADEPLOT
 70
     0
102
SHADEPLOTRESLEVEL
 70
     2
102
SHADEPLOTCUSTOMDPI
 70
   300
  0
XRECORD
  5
856
102
{ACAD_REACTORS
330
855
102
}
330
855
100
AcDbXrecord
280
     1
102
SHADEPLOT
 70
     0
102
SHADEPLOTRESLEVEL
 70
     2
102
SHADEPLOTCUSTOMDPI
 70
   300
  0
XRECORD
  5
50C
102
{ACAD_REACTORS
330
50B
102
}
330
50B
100
AcDbXrecord
280
     1
102
MATERIAL
148
0.0
149
0.0
149
0.0
 93
        0
 94
      127
282
     0
 72
     1
 77
     1
171
     1
175
     1
179
     1
273
     0
  0
XRECORD
  5
50A
102
{ACAD_REACTORS
330
509
102
}
330
509
100
AcDbXrecord
280
     1
102
MATERIAL
148
0.0
149
0.0
149
0.0
 93
        0
 94
      127
282
     0
 72
     1
 77
     1
171
     1
175
     1
179
     1
273
     0
  0
XRECORD
  5
50E
102
{ACAD_REACTORS
330
50D
102
}
330
50D
100
AcDbXrecord
280
     1
102
MATERIAL
148
0.0
149
0.0
149
0.0
 93
        0
 94
      127
282
     0
 72
     1
 77
     1
171
     1
175
     1
179
     1
273
     0
  0
CELLSTYLEMAP
  5
84A
102
{ACAD_REACTORS
330
5A4
102
}
330
5A4
100
AcDbCellStyleMap
 90
        3
300
CELLSTYLE
  1
TABLEFORMAT_BEGIN
 90
        5
170
     1
 91
        0
 92
    32768
 62
   257
 93
        1
300
CONTENTFORMAT
  1
CONTENTFORMAT_BEGIN
 90
        0
 91
        0
 92
      512
 93
        0
300

 40
0.0
140
1.0
 94
        5
 62
     0
340
11
144
0.25
309
CONTENTFORMAT_END
171
     1
301
MARGIN
  1
CELLMARGIN_BEGIN
 40
0.06
 40
0.06
 40
0.06
 40
0.06
 40
0.18
 40
0.18
309
CELLMARGIN_END
 94
        6
 95
        1
302
GRIDFORMAT
  1
GRIDFORMAT_BEGIN
 90
        0
 91
        1
 62
     0
 92
       -2
340
0
 93
        0
 40
0.045
309
GRIDFORMAT_END
 95
        2
302
GRIDFORMAT
  1
GRIDFORMAT_BEGIN
 90
        0
 91
        1
 62
     0
 92
       -2
340
0
 93
        0
 40
0.045
309
GRIDFORMAT_END
 95
        4
302
GRIDFORMAT
  1
GRIDFORMAT_BEGIN
 90
        0
 91
        1
 62
     0
 92
       -2
340
0
 93
        0
 40
0.045
309
GRIDFORMAT_END
 95
        8
302
GRIDFORMAT
  1
GRIDFORMAT_BEGIN
 90
        0
 91
        1
 62
     0
 92
       -2
340
0
 93
        0
 40
0.045
309
GRIDFORMAT_END
 95
       16
302
GRIDFORMAT
  1
GRIDFORMAT_BEGIN
 90
        0
 91
        1
 62
     0
 92
       -2
340
0
 93
        0
 40
0.045
309
GRIDFORMAT_END
 95
       32
302
GRIDFORMAT
  1
GRIDFORMAT_BEGIN
 90
        0
 91
        1
 62
     0
 92
       -2
340
0
 93
        0
 40
0.045
309
GRIDFORMAT_END
309
TABLEFORMAT_END
  1
CELLSTYLE_BEGIN
 90
        1
 91
        1
300
_TITLE
309
CELLSTYLE_END
300
CELLSTYLE
  1
TABLEFORMAT_BEGIN
 90
        5
170
     1
 91
        0
 92
        0
 62
   257
 93
        1
300
CONTENTFORMAT
  1
CONTENTFORMAT_BEGIN
 90
        0
 91
        0
 92
      512
 93
        0
300

 40
0.0
140
1.0
 94
        5
 62
     0
340
11
144
0.18
309
CONTENTFORMAT_END
171
     1
301
MARGIN
  1
CELLMARGIN_BEGIN
 40
0.06
 40
0.06
 40
0.06
 40
0.06
 40
0.18
 40
0.18
309
CELLMARGIN_END
 94
        6
 95
        1
302
GRIDFORMAT
  1
GRIDFORMAT_BEGIN
 90
        0
 91
        1
 62
     0
 92
       -2
340
0
 93
        0
 40
0.045
309
GRIDFORMAT_END
 95
        2
302
GRIDFORMAT
  1
GRIDFORMAT_BEGIN
 90
        0
 91
        1
 62
     0
 92
       -2
340
0
 93
        0
 40
0.045
309
GRIDFORMAT_END
 95
        4
302
GRIDFORMAT
  1
GRIDFORMAT_BEGIN
 90
        0
 91
        1
 62
     0
 92
       -2
340
0
 93
        0
 40
0.045
309
GRIDFORMAT_END
 95
        8
302
GRIDFORMAT
  1
GRIDFORMAT_BEGIN
 90
        0
 91
        1
 62
     0
 92
       -2
340
0
 93
        0
 40
0.045
309
GRIDFORMAT_END
 95
       16
302
GRIDFORMAT
  1
GRIDFORMAT_BEGIN
 90
        0
 91
        1
 62
     0
 92
       -2
340
0
 93
        0
 40
0.045
309
GRIDFORMAT_END
 95
       32
302
GRIDFORMAT
  1
GRIDFORMAT_BEGIN
 90
        0
 91
        1
 62
     0
 92
       -2
340
0
 93
        0
 40
0.045
309
GRIDFORMAT_END
309
TABLEFORMAT_END
  1
CELLSTYLE_BEGIN
 90
        2
 91
        1
300
_HEADER
309
CELLSTYLE_END
300
CELLSTYLE
  1
TABLEFORMAT_BEGIN
 90
        5
170
     1
 91
        0
 92
        0
 62
   257
 93
        1
300
CONTENTFORMAT
  1
CONTENTFORMAT_BEGIN
 90
        0
 91
        0
 92
      512
 93
        0
300

 40
0.0
140
1.0
 94
        2
 62
     0
340
11
144
0.18
309
CONTENTFORMAT_END
171
     1
301
MARGIN
  1
CELLMARGIN_BEGIN
 40
0.06
 40
0.06
 40
0.06
 40
0.06
 40
0.18
 40
0.18
309
CELLMARGIN_END
 94
        6
 95
        1
302
GRIDFORMAT
  1
GRIDFORMAT_BEGIN
 90
        0
 91
        1
 62
     0
 92
       -2
340
0
 93
        0
 40
0.045
309
GRIDFORMAT_END
 95
        2
302
GRIDFORMAT
  1
GRIDFORMAT_BEGIN
 90
        0
 91
        1
 62
     0
 92
       -2
340
0
 93
        0
 40
0.045
309
GRIDFORMAT_END
 95
        4
302
GRIDFORMAT
  1
GRIDFORMAT_BEGIN
 90
        0
 91
        1
 62
     0
 92
       -2
340
0
 93
        0
 40
0.045
309
GRIDFORMAT_END
 95
        8
302
GRIDFORMAT
  1
GRIDFORMAT_BEGIN
 90
        0
 91
        1
 62
     0
 92
       -2
340
0
 93
        0
 40
0.045
309
GRIDFORMAT_END
 95
       16
302
GRIDFORMAT
  1
GRIDFORMAT_BEGIN
 90
        0
 91
        1
 62
     0
 92
       -2
340
0
 93
        0
 40
0.045
309
GRIDFORMAT_END
 95
       32
302
GRIDFORMAT
  1
GRIDFORMAT_BEGIN
 90
        0
 91
        1
 62
     0
 92
       -2
340
0
 93
        0
 40
0.045
309
GRIDFORMAT_END
309
TABLEFORMAT_END
  1
CELLSTYLE_BEGIN
 90
        3
 91
        2
300
_DATA
309
CELLSTYLE_END
  0
XRECORD
  5
857
102
{ACAD_REACTORS
330
5A4
102
}
330
5A4
100
AcDbXrecord
280
     1
102
ACAD_ROUNDTRIP_PRE2007_TABLESTYLE
 90
      512
 91
        0
  1

 92
      512
 93
        0
  2

 94
      512
 95
        0
  3

  0
XRECORD
  5
863
102
{ACAD_REACTORS
330
862
102
}
330
862
100
AcDbXrecord
280
     1
102
RTVSPropertyOp0
 70
     1
102
RTVSPropertyOp1
 70
     1
102
RTVSPropertyOp2
 70
     1
102
RTVSPropertyOp3
 70
     1
102
RTVSPropertyOp4
 70
     1
102
RTVSPropertyOp5
 70
     1
102
RTVSPropertyOp6
 70
     1
102
RTVSPropertyOp7
 70
     1
102
RTVSPropertyOp8
 70
     1
102
RTVSPropertyOp9
 70
     1
102
RTVSPropertyOp10
 70
     1
102
RTVSPropertyOp11
 70
     1
102
RTVSPropertyOp12
 70
     1
102
RTVSPropertyOp13
 70
     1
102
RTVSPropertyOp14
 70
     1
102
RTVSPropertyOp15
 70
     1
102
RTVSPropertyOp16
 70
     1
102
RTVSPropertyOp17
 70
     1
102
RTVSPropertyOp18
 70
     1
102
RTVSPropertyOp19
 70
     1
102
RTVSPropertyOp20
 70
     1
102
RTVSPropertyOp21
 70
     1
102
RTVSPropertyOp22
 70
     1
102
RTVSPropertyOp23
 70
     1
102
RTVSPropertyOp24
 70
     1
102
RTVSPropertyOp25
 70
     1
102
RTVSPropertyOp26
 70
     1
102
RTVSPropertyOp27
 70
     1
102
RTVSPropertyOp28
 70
     1
102
RTVSPropertyOp29
 70
     1
102
RTVSPropertyOp30
 70
     1
102
RTVSPropertyOp31
 70
     1
102
RTVSPropertyOp32
 70
     1
  0
XRECORD
  5
867
102
{ACAD_REACTORS
330
866
102
}
330
866
100
AcDbXrecord
280
     1
102
RTVSPropertyOp0
 70
     1
102
RTVSPropertyOp1
 70
     1
102
RTVSPropertyOp2
 70
     1
102
RTVSPropertyOp3
 70
     1
102
RTVSPropertyOp4
 70
     1
102
RTVSPropertyOp5
 70
     1
102
RTVSPropertyOp6
 70
     1
102
RTVSPropertyOp7
 70
     1
102
RTVSPropertyOp8
 70
     1
102
RTVSPropertyOp9
 70
     1
102
RTVSPropertyOp10
 70
     1
102
RTVSPropertyOp11
 70
     1
102
RTVSPropertyOp12
 70
     1
102
RTVSPropertyOp13
 70
     1
102
RTVSPropertyOp14
 70
     1
102
RTVSPropertyOp15
 70
     1
102
RTVSPropertyOp16
 70
     1
102
RTVSPropertyOp17
 70
     1
102
RTVSPropertyOp18
 70
     1
102
RTVSPropertyOp19
 70
     1
102
RTVSPropertyOp20
 70
     1
102
RTVSPropertyOp21
 70
     1
102
RTVSPropertyOp22
 70
     1
102
RTVSPropertyOp23
 70
     1
102
RTVSPropertyOp24
 70
     1
102
RTVSPropertyOp25
 70
     1
102
RTVSPropertyOp26
 70
     1
102
RTVSPropertyOp27
 70
     1
102
RTVSPropertyOp28
 70
     1
102
RTVSPropertyOp29
 70
     1
102
RTVSPropertyOp30
 70
     1
102
RTVSPropertyOp31
 70
     1
102
RTVSPropertyOp32
 70
     1
  0
XRECORD
  5
865
102
{ACAD_REACTORS
330
864
102
}
330
864
100
AcDbXrecord
280
     1
102
RTVSPropertyOp0
 70
     1
102
RTVSPropertyOp1
 70
     1
102
RTVSPropertyOp2
 70
     1
102
RTVSPropertyOp3
 70
     1
102
RTVSPropertyOp4
 70
     1
102
RTVSPropertyOp5
 70
     1
102
RTVSPropertyOp6
 70
     1
102
RTVSPropertyOp7
 70
     1
102
RTVSPropertyOp8
 70
     1
102
RTVSPropertyOp9
 70
     1
102
RTVSPropertyOp10
 70
     1
102
RTVSPropertyOp11
 70
     1
102
RTVSPropertyOp12
 70
     1
102
RTVSPropertyOp13
 70
     1
102
RTVSPropertyOp14
 70
     1
102
RTVSPropertyOp15
 70
     1
102
RTVSPropertyOp16
 70
     1
102
RTVSPropertyOp17
 70
     1
102
RTVSPropertyOp18
 70
     1
102
RTVSPropertyOp19
 70
     1
102
RTVSPropertyOp20
 70
     1
102
RTVSPropertyOp21
 70
     1
102
RTVSPropertyOp22
 70
     1
102
RTVSPropertyOp23
 70
     1
102
RTVSPropertyOp24
 70
     1
102
RTVSPropertyOp25
 70
     1
102
RTVSPropertyOp26
 70
     1
102
RTVSPropertyOp27
 70
     1
102
RTVSPropertyOp28
 70
     1
102
RTVSPropertyOp29
 70
     1
102
RTVSPropertyOp30
 70
     1
102
RTVSPropertyOp31
 70
     1
102
RTVSPropertyOp32
 70
     1
  0
XRECORD
  5
861
102
{ACAD_REACTORS
330
860
102
}
330
860
100
AcDbXrecord
280
     1
102
RTVSPropertyOp0
 70
     1
102
RTVSPropertyOp1
 70
     1
102
RTVSPropertyOp2
 70
     1
102
RTVSPropertyOp3
 70
     1
102
RTVSPropertyOp4
 70
     1
102
RTVSPropertyOp5
 70
     1
102
RTVSPropertyOp6
 70
     1
102
RTVSPropertyOp7
 70
     1
102
RTVSPropertyOp8
 70
     1
102
RTVSPropertyOp9
 70
     1
102
RTVSPropertyOp10
 70
     1
102
RTVSPropertyOp11
 70
     1
102
RTVSPropertyOp12
 70
     1
102
RTVSPropertyOp13
 70
     1
102
RTVSPropertyOp14
 70
     1
102
RTVSPropertyOp15
 70
     1
102
RTVSPropertyOp16
 70
     1
102
RTVSPropertyOp17
 70
     1
102
RTVSPropertyOp18
 70
     1
102
RTVSPropertyOp19
 70
     1
102
RTVSPropertyOp20
 70
     1
102
RTVSPropertyOp21
 70
     1
102
RTVSPropertyOp22
 70
     1
102
RTVSPropertyOp23
 70
     1
102
RTVSPropertyOp24
 70
     1
102
RTVSPropertyOp25
 70
     1
102
RTVSPropertyOp26
 70
     1
102
RTVSPropertyOp27
 70
     1
102
RTVSPropertyOp28
 70
     1
102
RTVSPropertyOp29
 70
     1
102
RTVSPropertyOp30
 70
     1
102
RTVSPropertyOp31
 70
     1
102
RTVSPropertyOp32
 70
     1
  0
XRECORD
  5
86F
102
{ACAD_REACTORS
330
86E
102
}
330
86E
100
AcDbXrecord
280
     1
102
RTVSPropertyOp0
 70
     1
102
RTVSPropertyOp1
 70
     1
102
RTVSPropertyOp2
 70
     1
102
RTVSPropertyOp3
 70
     1
102
RTVSPropertyOp4
 70
     1
102
RTVSPropertyOp5
 70
     1
102
RTVSPropertyOp6
 70
     1
102
RTVSPropertyOp7
 70
     1
102
RTVSPropertyOp8
 70
     1
102
RTVSPropertyOp9
 70
     1
102
RTVSPropertyOp10
 70
     1
102
RTVSPropertyOp11
 70
     1
102
RTVSPropertyOp12
 70
     1
102
RTVSPropertyOp13
 70
     1
102
RTVSPropertyOp14
 70
     1
102
RTVSPropertyOp15
 70
     1
102
RTVSPropertyOp16
 70
     1
102
RTVSPropertyOp17
 70
     1
102
RTVSPropertyOp18
 70
     1
102
RTVSPropertyOp19
 70
     1
102
RTVSPropertyOp20
 70
     1
102
RTVSPropertyOp21
 70
     1
102
RTVSPropertyOp22
 70
     1
102
RTVSPropertyOp23
 70
     1
102
RTVSPropertyOp24
 70
     1
102
RTVSPropertyOp25
 70
     1
102
RTVSPropertyOp26
 70
     1
102
RTVSPropertyOp27
 70
     1
102
RTVSPropertyOp28
 70
     1
102
RTVSPropertyOp29
 70
     1
102
RTVSPropertyOp30
 70
     1
102
RTVSPropertyOp31
 70
     1
102
RTVSPropertyOp32
 70
     1
  0
XRECORD
  5
877
102
{ACAD_REACTORS
330
876
102
}
330
876
100
AcDbXrecord
280
     1
102
RTVSPropertyOp0
 70
     1
102
RTVSPropertyOp1
 70
     1
102
RTVSPropertyOp2
 70
     1
102
RTVSPropertyOp3
 70
     1
102
RTVSPropertyOp4
 70
     1
102
RTVSPropertyOp5
 70
     1
102
RTVSPropertyOp6
 70
     1
102
RTVSPropertyOp7
 70
     1
102
RTVSPropertyOp8
 70
     1
102
RTVSPropertyOp9
 70
     1
102
RTVSPropertyOp10
 70
     1
102
RTVSPropertyOp11
 70
     1
102
RTVSPropertyOp12
 70
     1
102
RTVSPropertyOp13
 70
     1
102
RTVSPropertyOp14
 70
     1
102
RTVSPropertyOp15
 70
     1
102
RTVSPropertyOp16
 70
     1
102
RTVSPropertyOp17
 70
     1
102
RTVSPropertyOp18
 70
     1
102
RTVSPropertyOp19
 70
     1
102
RTVSPropertyOp20
 70
     1
102
RTVSPropertyOp21
 70
     1
102
RTVSPropertyOp22
 70
     1
102
RTVSPropertyOp23
 70
     1
102
RTVSPropertyOp24
 70
     1
102
RTVSPropertyOp25
 70
     1
102
RTVSPropertyOp26
 70
     1
102
RTVSPropertyOp27
 70
     1
102
RTVSPropertyOp28
 70
     1
102
RTVSPropertyOp29
 70
     1
102
RTVSPropertyOp30
 70
     1
102
RTVSPropertyOp31
 70
     1
102
RTVSPropertyOp32
 70
     1
  0
XRECORD
  5
869
102
{ACAD_REACTORS
330
868
102
}
330
868
100
AcDbXrecord
280
     1
102
RTVSPropertyOp0
 70
     1
102
RTVSPropertyOp1
 70
     1
102
RTVSPropertyOp2
 70
     1
102
RTVSPropertyOp3
 70
     1
102
RTVSPropertyOp4
 70
     1
102
RTVSPropertyOp5
 70
     1
102
RTVSPropertyOp6
 70
     1
102
RTVSPropertyOp7
 70
     1
102
RTVSPropertyOp8
 70
     1
102
RTVSPropertyOp9
 70
     1
102
RTVSPropertyOp10
 70
     1
102
RTVSPropertyOp11
 70
     1
102
RTVSPropertyOp12
 70
     1
102
RTVSPropertyOp13
 70
     1
102
RTVSPropertyOp14
 70
     1
102
RTVSPropertyOp15
 70
     1
102
RTVSPropertyOp16
 70
     1
102
RTVSPropertyOp17
 70
     1
102
RTVSPropertyOp18
 70
     1
102
RTVSPropertyOp19
 70
     1
102
RTVSPropertyOp20
 70
     1
102
RTVSPropertyOp21
 70
     1
102
RTVSPropertyOp22
 70
     1
102
RTVSPropertyOp23
 70
     1
102
RTVSPropertyOp24
 70
     1
102
RTVSPropertyOp25
 70
     1
102
RTVSPropertyOp26
 70
     1
102
RTVSPropertyOp27
 70
     1
102
RTVSPropertyOp28
 70
     1
102
RTVSPropertyOp29
 70
     1
102
RTVSPropertyOp30
 70
     1
102
RTVSPropertyOp31
 70
     1
102
RTVSPropertyOp32
 70
     1
  0
XRECORD
  5
86D
102
{ACAD_REACTORS
330
86C
102
}
330
86C
100
AcDbXrecord
280
     1
102
RTVSPropertyOp0
 70
     1
102
RTVSPropertyOp1
 70
     1
102
RTVSPropertyOp2
 70
     1
102
RTVSPropertyOp3
 70
     1
102
RTVSPropertyOp4
 70
     1
102
RTVSPropertyOp5
 70
     1
102
RTVSPropertyOp6
 70
     1
102
RTVSPropertyOp7
 70
     1
102
RTVSPropertyOp8
 70
     1
102
RTVSPropertyOp9
 70
     1
102
RTVSPropertyOp10
 70
     1
102
RTVSPropertyOp11
 70
     1
102
RTVSPropertyOp12
 70
     1
102
RTVSPropertyOp13
 70
     1
102
RTVSPropertyOp14
 70
     1
102
RTVSPropertyOp15
 70
     1
102
RTVSPropertyOp16
 70
     1
102
RTVSPropertyOp17
 70
     1
102
RTVSPropertyOp18
 70
     1
102
RTVSPropertyOp19
 70
     1
102
RTVSPropertyOp20
 70
     1
102
RTVSPropertyOp21
 70
     1
102
RTVSPropertyOp22
 70
     1
102
RTVSPropertyOp23
 70
     1
102
RTVSPropertyOp24
 70
     1
102
RTVSPropertyOp25
 70
     1
102
RTVSPropertyOp26
 70
     1
102
RTVSPropertyOp27
 70
     1
102
RTVSPropertyOp28
 70
     1
102
RTVSPropertyOp29
 70
     1
102
RTVSPropertyOp30
 70
     1
102
RTVSPropertyOp31
 70
     1
102
RTVSPropertyOp32
 70
     1
  0
XRECORD
  5
88B
102
{ACAD_REACTORS
330
88A
102
}
330
88A
100
AcDbXrecord
280
     1
102
RTVSPropertyOp0
 70
     0
102
RTVSPropertyOp1
 70
     0
102
RTVSPropertyOp2
 70
     0
102
RTVSPropertyOp3
 70
     0
102
RTVSPropertyOp4
 70
     0
102
RTVSPropertyOp5
 70
     0
102
RTVSPropertyOp6
 70
     0
102
RTVSPropertyOp7
 70
     0
102
RTVSPropertyOp8
 70
     0
102
RTVSPropertyOp9
 70
     0
102
RTVSPropertyOp10
 70
     0
102
RTVSPropertyOp11
 70
     0
102
RTVSPropertyOp12
 70
     0
102
RTVSPropertyOp13
 70
     0
102
RTVSPropertyOp14
 70
     2
102
RTVSPropertyOp15
 70
     0
102
RTVSPropertyOp16
 70
     0
102
RTVSPropertyOp17
 70
     0
102
RTVSPropertyOp18
 70
     0
102
RTVSPropertyOp19
 70
     0
102
RTVSPropertyOp20
 70
     0
102
RTVSPropertyOp21
 70
     0
102
RTVSPropertyOp22
 70
     0
102
RTVSPropertyOp23
 70
     0
102
RTVSPropertyOp24
 70
     0
102
RTVSPropertyOp25
 70
     0
102
RTVSPropertyOp26
 70
     0
102
RTVSPropertyOp27
 70
     0
102
RTVSPropertyOp28
 70
     0
102
RTVSPropertyOp29
 70
     0
102
RTVSPropertyOp30
 70
     0
102
RTVSPropertyOp31
 70
     0
102
RTVSPropertyOp32
 70
     0
  0
XRECORD
  5
875
102
{ACAD_REACTORS
330
874
102
}
330
874
100
AcDbXrecord
280
     1
102
RTVSPropertyOp0
 70
     1
102
RTVSPropertyOp1
 70
     1
102
RTVSPropertyOp2
 70
     1
102
RTVSPropertyOp3
 70
     1
102
RTVSPropertyOp4
 70
     1
102
RTVSPropertyOp5
 70
     1
102
RTVSPropertyOp6
 70
     1
102
RTVSPropertyOp7
 70
     1
102
RTVSPropertyOp8
 70
     1
102
RTVSPropertyOp9
 70
     1
102
RTVSPropertyOp10
 70
     1
102
RTVSPropertyOp11
 70
     1
102
RTVSPropertyOp12
 70
     1
102
RTVSPropertyOp13
 70
     1
102
RTVSPropertyOp14
 70
     1
102
RTVSPropertyOp15
 70
     1
102
RTVSPropertyOp16
 70
     1
102
RTVSPropertyOp17
 70
     1
102
RTVSPropertyOp18
 70
     1
102
RTVSPropertyOp19
 70
     1
102
RTVSPropertyOp20
 70
     1
102
RTVSPropertyOp21
 70
     1
102
RTVSPropertyOp22
 70
     1
102
RTVSPropertyOp23
 70
     1
102
RTVSPropertyOp24
 70
     1
102
RTVSPropertyOp25
 70
     1
102
RTVSPropertyOp26
 70
     1
102
RTVSPropertyOp27
 70
     1
102
RTVSPropertyOp28
 70
     1
102
RTVSPropertyOp29
 70
     1
102
RTVSPropertyOp30
 70
     1
102
RTVSPropertyOp31
 70
     1
102
RTVSPropertyOp32
 70
     1
  0
XRECORD
  5
859
102
{ACAD_REACTORS
330
858
102
}
330
858
100
AcDbXrecord
280
     1
102
RTVSPropertyOp0
 70
     1
102
RTVSPropertyOp1
 70
     1
102
RTVSPropertyOp2
 70
     1
102
RTVSPropertyOp3
 70
     1
102
RTVSPropertyOp4
 70
     1
102
RTVSPropertyOp5
 70
     1
102
RTVSPropertyOp6
 70
     1
102
RTVSPropertyOp7
 70
     1
102
RTVSPropertyOp8
 70
     1
102
RTVSPropertyOp9
 70
     1
102
RTVSPropertyOp10
 70
     1
102
RTVSPropertyOp11
 70
     1
102
RTVSPropertyOp12
 70
     1
102
RTVSPropertyOp13
 70
     1
102
RTVSPropertyOp14
 70
     1
102
RTVSPropertyOp15
 70
     1
102
RTVSPropertyOp16
 70
     1
102
RTVSPropertyOp17
 70
     1
102
RTVSPropertyOp18
 70
     1
102
RTVSPropertyOp19
 70
     1
102
RTVSPropertyOp20
 70
     1
102
RTVSPropertyOp21
 70
     1
102
RTVSPropertyOp22
 70
     1
102
RTVSPropertyOp23
 70
     1
102
RTVSPropertyOp24
 70
     1
102
RTVSPropertyOp25
 70
     1
102
RTVSPropertyOp26
 70
     1
102
RTVSPropertyOp27
 70
     1
102
RTVSPropertyOp28
 70
     1
102
RTVSPropertyOp29
 70
     1
102
RTVSPropertyOp30
 70
     1
102
RTVSPropertyOp31
 70
     1
102
RTVSPropertyOp32
 70
     1
  0
XRECORD
  5
85B
102
{ACAD_REACTORS
330
85A
102
}
330
85A
100
AcDbXrecord
280
     1
102
RTVSPropertyOp0
 70
     1
102
RTVSPropertyOp1
 70
     1
102
RTVSPropertyOp2
 70
     1
102
RTVSPropertyOp3
 70
     1
102
RTVSPropertyOp4
 70
     1
102
RTVSPropertyOp5
 70
     1
102
RTVSPropertyOp6
 70
     1
102
RTVSPropertyOp7
 70
     1
102
RTVSPropertyOp8
 70
     1
102
RTVSPropertyOp9
 70
     1
102
RTVSPropertyOp10
 70
     1
102
RTVSPropertyOp11
 70
     1
102
RTVSPropertyOp12
 70
     1
102
RTVSPropertyOp13
 70
     1
102
RTVSPropertyOp14
 70
     1
102
RTVSPropertyOp15
 70
     1
102
RTVSPropertyOp16
 70
     1
102
RTVSPropertyOp17
 70
     1
102
RTVSPropertyOp18
 70
     1
102
RTVSPropertyOp19
 70
     1
102
RTVSPropertyOp20
 70
     1
102
RTVSPropertyOp21
 70
     1
102
RTVSPropertyOp22
 70
     1
102
RTVSPropertyOp23
 70
     1
102
RTVSPropertyOp24
 70
     1
102
RTVSPropertyOp25
 70
     1
102
RTVSPropertyOp26
 70
     1
102
RTVSPropertyOp27
 70
     1
102
RTVSPropertyOp28
 70
     1
102
RTVSPropertyOp29
 70
     1
102
RTVSPropertyOp30
 70
     1
102
RTVSPropertyOp31
 70
     1
102
RTVSPropertyOp32
 70
     1
  0
XRECORD
  5
85D
102
{ACAD_REACTORS
330
85C
102
}
330
85C
100
AcDbXrecord
280
     1
102
RTVSPropertyOp0
 70
     1
102
RTVSPropertyOp1
 70
     1
102
RTVSPropertyOp2
 70
     1
102
RTVSPropertyOp3
 70
     1
102
RTVSPropertyOp4
 70
     1
102
RTVSPropertyOp5
 70
     1
102
RTVSPropertyOp6
 70
     1
102
RTVSPropertyOp7
 70
     1
102
RTVSPropertyOp8
 70
     1
102
RTVSPropertyOp9
 70
     1
102
RTVSPropertyOp10
 70
     1
102
RTVSPropertyOp11
 70
     1
102
RTVSPropertyOp12
 70
     1
102
RTVSPropertyOp13
 70
     1
102
RTVSPropertyOp14
 70
     1
102
RTVSPropertyOp15
 70
     1
102
RTVSPropertyOp16
 70
     1
102
RTVSPropertyOp17
 70
     1
102
RTVSPropertyOp18
 70
     1
102
RTVSPropertyOp19
 70
     1
102
RTVSPropertyOp20
 70
     1
102
RTVSPropertyOp21
 70
     1
102
RTVSPropertyOp22
 70
     1
102
RTVSPropertyOp23
 70
     1
102
RTVSPropertyOp24
 70
     1
102
RTVSPropertyOp25
 70
     1
102
RTVSPropertyOp26
 70
     1
102
RTVSPropertyOp27
 70
     1
102
RTVSPropertyOp28
 70
     1
102
RTVSPropertyOp29
 70
     1
102
RTVSPropertyOp30
 70
     1
102
RTVSPropertyOp31
 70
     1
102
RTVSPropertyOp32
 70
     1
  0
XRECORD
  5
85F
102
{ACAD_REACTORS
330
85E
102
}
330
85E
100
AcDbXrecord
280
     1
102
RTVSPropertyOp0
 70
     1
102
RTVSPropertyOp1
 70
     1
102
RTVSPropertyOp2
 70
     1
102
RTVSPropertyOp3
 70
     1
102
RTVSPropertyOp4
 70
     1
102
RTVSPropertyOp5
 70
     1
102
RTVSPropertyOp6
 70
     1
102
RTVSPropertyOp7
 70
     1
102
RTVSPropertyOp8
 70
     1
102
RTVSPropertyOp9
 70
     1
102
RTVSPropertyOp10
 70
     1
102
RTVSPropertyOp11
 70
     1
102
RTVSPropertyOp12
 70
     1
102
RTVSPropertyOp13
 70
     1
102
RTVSPropertyOp14
 70
     1
102
RTVSPropertyOp15
 70
     1
102
RTVSPropertyOp16
 70
     1
102
RTVSPropertyOp17
 70
     1
102
RTVSPropertyOp18
 70
     1
102
RTVSPropertyOp19
 70
     1
102
RTVSPropertyOp20
 70
     1
102
RTVSPropertyOp21
 70
     1
102
RTVSPropertyOp22
 70
     1
102
RTVSPropertyOp23
 70
     1
102
RTVSPropertyOp24
 70
     1
102
RTVSPropertyOp25
 70
     1
102
RTVSPropertyOp26
 70
     1
102
RTVSPropertyOp27
 70
     1
102
RTVSPropertyOp28
 70
     1
102
RTVSPropertyOp29
 70
     1
102
RTVSPropertyOp30
 70
     1
102
RTVSPropertyOp31
 70
     1
102
RTVSPropertyOp32
 70
     1
  0
XRECORD
  5
87B
102
{ACAD_REACTORS
330
87A
102
}
330
87A
100
AcDbXrecord
280
     1
102
RTVSPropertyOp0
 70
     1
102
RTVSPropertyOp1
 70
     1
102
RTVSPropertyOp2
 70
     1
102
RTVSPropertyOp3
 70
     1
102
RTVSPropertyOp4
 70
     1
102
RTVSPropertyOp5
 70
     1
102
RTVSPropertyOp6
 70
     1
102
RTVSPropertyOp7
 70
     1
102
RTVSPropertyOp8
 70
     1
102
RTVSPropertyOp9
 70
     1
102
RTVSPropertyOp10
 70
     1
102
RTVSPropertyOp11
 70
     1
102
RTVSPropertyOp12
 70
     1
102
RTVSPropertyOp13
 70
     1
102
RTVSPropertyOp14
 70
     1
102
RTVSPropertyOp15
 70
     1
102
RTVSPropertyOp16
 70
     1
102
RTVSPropertyOp17
 70
     1
102
RTVSPropertyOp18
 70
     1
102
RTVSPropertyOp19
 70
     1
102
RTVSPropertyOp20
 70
     1
102
RTVSPropertyOp21
 70
     1
102
RTVSPropertyOp22
 70
     1
102
RTVSPropertyOp23
 70
     1
102
RTVSPropertyOp24
 70
     1
102
RTVSPropertyOp25
 70
     1
102
RTVSPropertyOp26
 70
     1
102
RTVSPropertyOp27
 70
     1
102
RTVSPropertyOp28
 70
     1
102
RTVSPropertyOp29
 70
     1
102
RTVSPropertyOp30
 70
     1
102
RTVSPropertyOp31
 70
     1
102
RTVSPropertyOp32
 70
     1
  0
XRECORD
  5
887
102
{ACAD_REACTORS
330
886
102
}
330
886
100
AcDbXrecord
280
     1
102
RTVSPropertyOp0
 70
     0
102
RTVSPropertyOp1
 70
     0
102
RTVSPropertyOp2
 70
     0
102
RTVSPropertyOp3
 70
     0
102
RTVSPropertyOp4
 70
     0
102
RTVSPropertyOp5
 70
     0
102
RTVSPropertyOp6
 70
     0
102
RTVSPropertyOp7
 70
     0
102
RTVSPropertyOp8
 70
     0
102
RTVSPropertyOp9
 70
     0
102
RTVSPropertyOp10
 70
     0
102
RTVSPropertyOp11
 70
     0
102
RTVSPropertyOp12
 70
     0
102
RTVSPropertyOp13
 70
     0
102
RTVSPropertyOp14
 70
     2
102
RTVSPropertyOp15
 70
     0
102
RTVSPropertyOp16
 70
     0
102
RTVSPropertyOp17
 70
     0
102
RTVSPropertyOp18
 70
     0
102
RTVSPropertyOp19
 70
     0
102
RTVSPropertyOp20
 70
     0
102
RTVSPropertyOp21
 70
     0
102
RTVSPropertyOp22
 70
     0
102
RTVSPropertyOp23
 70
     0
102
RTVSPropertyOp24
 70
     0
102
RTVSPropertyOp25
 70
     0
102
RTVSPropertyOp26
 70
     0
102
RTVSPropertyOp27
 70
     0
102
RTVSPropertyOp28
 70
     0
102
RTVSPropertyOp29
 70
     0
102
RTVSPropertyOp30
 70
     0
102
RTVSPropertyOp31
 70
     0
102
RTVSPropertyOp32
 70
     0
  0
XRECORD
  5
873
102
{ACAD_REACTORS
330
872
102
}
330
872
100
AcDbXrecord
280
     1
102
RTVSPropertyOp0
 70
     1
102
RTVSPropertyOp1
 70
     1
102
RTVSPropertyOp2
 70
     1
102
RTVSPropertyOp3
 70
     1
102
RTVSPropertyOp4
 70
     1
102
RTVSPropertyOp5
 70
     1
102
RTVSPropertyOp6
 70
     1
102
RTVSPropertyOp7
 70
     1
102
RTVSPropertyOp8
 70
     1
102
RTVSPropertyOp9
 70
     1
102
RTVSPropertyOp10
 70
     1
102
RTVSPropertyOp11
 70
     1
102
RTVSPropertyOp12
 70
     1
102
RTVSPropertyOp13
 70
     1
102
RTVSPropertyOp14
 70
     1
102
RTVSPropertyOp15
 70
     1
102
RTVSPropertyOp16
 70
     1
102
RTVSPropertyOp17
 70
     1
102
RTVSPropertyOp18
 70
     1
102
RTVSPropertyOp19
 70
     1
102
RTVSPropertyOp20
 70
     1
102
RTVSPropertyOp21
 70
     1
102
RTVSPropertyOp22
 70
     1
102
RTVSPropertyOp23
 70
     1
102
RTVSPropertyOp24
 70
     1
102
RTVSPropertyOp25
 70
     1
102
RTVSPropertyOp26
 70
     1
102
RTVSPropertyOp27
 70
     1
102
RTVSPropertyOp28
 70
     1
102
RTVSPropertyOp29
 70
     1
102
RTVSPropertyOp30
 70
     1
102
RTVSPropertyOp31
 70
     1
102
RTVSPropertyOp32
 70
     1
  0
XRECORD
  5
889
102
{ACAD_REACTORS
330
888
102
}
330
888
100
AcDbXrecord
280
     1
102
RTVSPropertyOp0
 70
     0
102
RTVSPropertyOp1
 70
     0
102
RTVSPropertyOp2
 70
     0
102
RTVSPropertyOp3
 70
     0
102
RTVSPropertyOp4
 70
     0
102
RTVSPropertyOp5
 70
     0
102
RTVSPropertyOp6
 70
     0
102
RTVSPropertyOp7
 70
     0
102
RTVSPropertyOp8
 70
     0
102
RTVSPropertyOp9
 70
     0
102
RTVSPropertyOp10
 70
     0
102
RTVSPropertyOp11
 70
     0
102
RTVSPropertyOp12
 70
     0
102
RTVSPropertyOp13
 70
     0
102
RTVSPropertyOp14
 70
     2
102
RTVSPropertyOp15
 70
     0
102
RTVSPropertyOp16
 70
     0
102
RTVSPropertyOp17
 70
     0
102
RTVSPropertyOp18
 70
     0
102
RTVSPropertyOp19
 70
     0
102
RTVSPropertyOp20
 70
     0
102
RTVSPropertyOp21
 70
     0
102
RTVSPropertyOp22
 70
     0
102
RTVSPropertyOp23
 70
     0
102
RTVSPropertyOp24
 70
     0
102
RTVSPropertyOp25
 70
     0
102
RTVSPropertyOp26
 70
     0
102
RTVSPropertyOp27
 70
     0
102
RTVSPropertyOp28
 70
     0
102
RTVSPropertyOp29
 70
     0
102
RTVSPropertyOp30
 70
     0
102
RTVSPropertyOp31
 70
     0
102
RTVSPropertyOp32
 70
     0
  0
XRECORD
  5
86B
102
{ACAD_REACTORS
330
86A
102
}
330
86A
100
AcDbXrecord
280
     1
102
RTVSPropertyOp0
 70
     1
102
RTVSPropertyOp1
 70
     1
102
RTVSPropertyOp2
 70
     1
102
RTVSPropertyOp3
 70
     1
102
RTVSPropertyOp4
 70
     1
102
RTVSPropertyOp5
 70
     1
102
RTVSPropertyOp6
 70
     1
102
RTVSPropertyOp7
 70
     1
102
RTVSPropertyOp8
 70
     1
102
RTVSPropertyOp9
 70
     1
102
RTVSPropertyOp10
 70
     1
102
RTVSPropertyOp11
 70
     1
102
RTVSPropertyOp12
 70
     1
102
RTVSPropertyOp13
 70
     1
102
RTVSPropertyOp14
 70
     1
102
RTVSPropertyOp15
 70
     1
102
RTVSPropertyOp16
 70
     1
102
RTVSPropertyOp17
 70
     1
102
RTVSPropertyOp18
 70
     1
102
RTVSPropertyOp19
 70
     1
102
RTVSPropertyOp20
 70
     1
102
RTVSPropertyOp21
 70
     1
102
RTVSPropertyOp22
 70
     1
102
RTVSPropertyOp23
 70
     1
102
RTVSPropertyOp24
 70
     1
102
RTVSPropertyOp25
 70
     1
102
RTVSPropertyOp26
 70
     1
102
RTVSPropertyOp27
 70
     1
102
RTVSPropertyOp28
 70
     1
102
RTVSPropertyOp29
 70
     1
102
RTVSPropertyOp30
 70
     1
102
RTVSPropertyOp31
 70
     1
102
RTVSPropertyOp32
 70
     1
  0
XRECORD
  5
885
102
{ACAD_REACTORS
330
884
102
}
330
884
100
AcDbXrecord
280
     1
102
RTVSPropertyOp0
 70
     1
102
RTVSPropertyOp1
 70
     1
102
RTVSPropertyOp2
 70
     1
102
RTVSPropertyOp3
 70
     1
102
RTVSPropertyOp4
 70
     1
102
RTVSPropertyOp5
 70
     1
102
RTVSPropertyOp6
 70
     1
102
RTVSPropertyOp7
 70
     1
102
RTVSPropertyOp8
 70
     1
102
RTVSPropertyOp9
 70
     1
102
RTVSPropertyOp10
 70
     1
102
RTVSPropertyOp11
 70
     1
102
RTVSPropertyOp12
 70
     1
102
RTVSPropertyOp13
 70
     1
102
RTVSPropertyOp14
 70
     1
102
RTVSPropertyOp15
 70
     1
102
RTVSPropertyOp16
 70
     1
102
RTVSPropertyOp17
 70
     1
102
RTVSPropertyOp18
 70
     1
102
RTVSPropertyOp19
 70
     1
102
RTVSPropertyOp20
 70
     1
102
RTVSPropertyOp21
 70
     1
102
RTVSPropertyOp22
 70
     1
102
RTVSPropertyOp23
 70
     1
102
RTVSPropertyOp24
 70
     1
102
RTVSPropertyOp25
 70
     1
102
RTVSPropertyOp26
 70
     1
102
RTVSPropertyOp27
 70
     1
102
RTVSPropertyOp28
 70
     1
102
RTVSPropertyOp29
 70
     1
102
RTVSPropertyOp30
 70
     1
102
RTVSPropertyOp31
 70
     1
102
RTVSPropertyOp32
 70
     1
  0
XRECORD
  5
883
102
{ACAD_REACTORS
330
882
102
}
330
882
100
AcDbXrecord
280
     1
102
RTVSPropertyOp0
 70
     1
102
RTVSPropertyOp1
 70
     1
102
RTVSPropertyOp2
 70
     1
102
RTVSPropertyOp3
 70
     1
102
RTVSPropertyOp4
 70
     1
102
RTVSPropertyOp5
 70
     1
102
RTVSPropertyOp6
 70
     1
102
RTVSPropertyOp7
 70
     1
102
RTVSPropertyOp8
 70
     1
102
RTVSPropertyOp9
 70
     1
102
RTVSPropertyOp10
 70
     1
102
RTVSPropertyOp11
 70
     1
102
RTVSPropertyOp12
 70
     1
102
RTVSPropertyOp13
 70
     1
102
RTVSPropertyOp14
 70
     1
102
RTVSPropertyOp15
 70
     1
102
RTVSPropertyOp16
 70
     1
102
RTVSPropertyOp17
 70
     1
102
RTVSPropertyOp18
 70
     1
102
RTVSPropertyOp19
 70
     1
102
RTVSPropertyOp20
 70
     1
102
RTVSPropertyOp21
 70
     1
102
RTVSPropertyOp22
 70
     1
102
RTVSPropertyOp23
 70
     1
102
RTVSPropertyOp24
 70
     1
102
RTVSPropertyOp25
 70
     1
102
RTVSPropertyOp26
 70
     1
102
RTVSPropertyOp27
 70
     1
102
RTVSPropertyOp28
 70
     1
102
RTVSPropertyOp29
 70
     1
102
RTVSPropertyOp30
 70
     1
102
RTVSPropertyOp31
 70
     1
102
RTVSPropertyOp32
 70
     1
  0
XRECORD
  5
87D
102
{ACAD_REACTORS
330
87C
102
}
330
87C
100
AcDbXrecord
280
     1
102
RTVSPropertyOp0
 70
     1
102
RTVSPropertyOp1
 70
     1
102
RTVSPropertyOp2
 70
     1
102
RTVSPropertyOp3
 70
     1
102
RTVSPropertyOp4
 70
     1
102
RTVSPropertyOp5
 70
     1
102
RTVSPropertyOp6
 70
     1
102
RTVSPropertyOp7
 70
     1
102
RTVSPropertyOp8
 70
     1
102
RTVSPropertyOp9
 70
     1
102
RTVSPropertyOp10
 70
     1
102
RTVSPropertyOp11
 70
     1
102
RTVSPropertyOp12
 70
     1
102
RTVSPropertyOp13
 70
     1
102
RTVSPropertyOp14
 70
     1
102
RTVSPropertyOp15
 70
     1
102
RTVSPropertyOp16
 70
     1
102
RTVSPropertyOp17
 70
     1
102
RTVSPropertyOp18
 70
     1
102
RTVSPropertyOp19
 70
     1
102
RTVSPropertyOp20
 70
     1
102
RTVSPropertyOp21
 70
     1
102
RTVSPropertyOp22
 70
     1
102
RTVSPropertyOp23
 70
     1
102
RTVSPropertyOp24
 70
     1
102
RTVSPropertyOp25
 70
     1
102
RTVSPropertyOp26
 70
     1
102
RTVSPropertyOp27
 70
     1
102
RTVSPropertyOp28
 70
     1
102
RTVSPropertyOp29
 70
     1
102
RTVSPropertyOp30
 70
     1
102
RTVSPropertyOp31
 70
     1
102
RTVSPropertyOp32
 70
     1
  0
XRECORD
  5
87F
102
{ACAD_REACTORS
330
87E
102
}
330
87E
100
AcDbXrecord
280
     1
102
RTVSPropertyOp0
 70
     1
102
RTVSPropertyOp1
 70
     1
102
RTVSPropertyOp2
 70
     1
102
RTVSPropertyOp3
 70
     1
102
RTVSPropertyOp4
 70
     1
102
RTVSPropertyOp5
 70
     1
102
RTVSPropertyOp6
 70
     1
102
RTVSPropertyOp7
 70
     1
102
RTVSPropertyOp8
 70
     1
102
RTVSPropertyOp9
 70
     1
102
RTVSPropertyOp10
 70
     1
102
RTVSPropertyOp11
 70
     1
102
RTVSPropertyOp12
 70
     1
102
RTVSPropertyOp13
 70
     1
102
RTVSPropertyOp14
 70
     1
102
RTVSPropertyOp15
 70
     1
102
RTVSPropertyOp16
 70
     1
102
RTVSPropertyOp17
 70
     1
102
RTVSPropertyOp18
 70
     1
102
RTVSPropertyOp19
 70
     1
102
RTVSPropertyOp20
 70
     1
102
RTVSPropertyOp21
 70
     1
102
RTVSPropertyOp22
 70
     1
102
RTVSPropertyOp23
 70
     1
102
RTVSPropertyOp24
 70
     1
102
RTVSPropertyOp25
 70
     1
102
RTVSPropertyOp26
 70
     1
102
RTVSPropertyOp27
 70
     1
102
RTVSPropertyOp28
 70
     1
102
RTVSPropertyOp29
 70
     1
102
RTVSPropertyOp30
 70
     1
102
RTVSPropertyOp31
 70
     1
102
RTVSPropertyOp32
 70
     1
  0
XRECORD
  5
871
102
{ACAD_REACTORS
330
870
102
}
330
870
100
AcDbXrecord
280
     1
102
RTVSPropertyOp0
 70
     1
102
RTVSPropertyOp1
 70
     1
102
RTVSPropertyOp2
 70
     1
102
RTVSPropertyOp3
 70
     1
102
RTVSPropertyOp4
 70
     1
102
RTVSPropertyOp5
 70
     1
102
RTVSPropertyOp6
 70
     1
102
RTVSPropertyOp7
 70
     1
102
RTVSPropertyOp8
 70
     1
102
RTVSPropertyOp9
 70
     1
102
RTVSPropertyOp10
 70
     1
102
RTVSPropertyOp11
 70
     1
102
RTVSPropertyOp12
 70
     1
102
RTVSPropertyOp13
 70
     1
102
RTVSPropertyOp14
 70
     1
102
RTVSPropertyOp15
 70
     1
102
RTVSPropertyOp16
 70
     1
102
RTVSPropertyOp17
 70
     1
102
RTVSPropertyOp18
 70
     1
102
RTVSPropertyOp19
 70
     1
102
RTVSPropertyOp20
 70
     1
102
RTVSPropertyOp21
 70
     1
102
RTVSPropertyOp22
 70
     1
102
RTVSPropertyOp23
 70
     1
102
RTVSPropertyOp24
 70
     1
102
RTVSPropertyOp25
 70
     1
102
RTVSPropertyOp26
 70
     1
102
RTVSPropertyOp27
 70
     1
102
RTVSPropertyOp28
 70
     1
102
RTVSPropertyOp29
 70
     1
102
RTVSPropertyOp30
 70
     1
102
RTVSPropertyOp31
 70
     1
102
RTVSPropertyOp32
 70
     1
  0
XRECORD
  5
879
102
{ACAD_REACTORS
330
878
102
}
330
878
100
AcDbXrecord
280
     1
102
RTVSPropertyOp0
 70
     1
102
RTVSPropertyOp1
 70
     1
102
RTVSPropertyOp2
 70
     1
102
RTVSPropertyOp3
 70
     1
102
RTVSPropertyOp4
 70
     1
102
RTVSPropertyOp5
 70
     1
102
RTVSPropertyOp6
 70
     1
102
RTVSPropertyOp7
 70
     1
102
RTVSPropertyOp8
 70
     1
102
RTVSPropertyOp9
 70
     1
102
RTVSPropertyOp10
 70
     1
102
RTVSPropertyOp11
 70
     1
102
RTVSPropertyOp12
 70
     1
102
RTVSPropertyOp13
 70
     1
102
RTVSPropertyOp14
 70
     1
102
RTVSPropertyOp15
 70
     1
102
RTVSPropertyOp16
 70
     1
102
RTVSPropertyOp17
 70
     1
102
RTVSPropertyOp18
 70
     1
102
RTVSPropertyOp19
 70
     1
102
RTVSPropertyOp20
 70
     1
102
RTVSPropertyOp21
 70
     1
102
RTVSPropertyOp22
 70
     1
102
RTVSPropertyOp23
 70
     1
102
RTVSPropertyOp24
 70
     1
102
RTVSPropertyOp25
 70
     1
102
RTVSPropertyOp26
 70
     1
102
RTVSPropertyOp27
 70
     1
102
RTVSPropertyOp28
 70
     1
102
RTVSPropertyOp29
 70
     1
102
RTVSPropertyOp30
 70
     1
102
RTVSPropertyOp31
 70
     1
102
RTVSPropertyOp32
 70
     1
  0
XRECORD
  5
881
102
{ACAD_REACTORS
330
880
102
}
330
880
100
AcDbXrecord
280
     1
102
RTVSPropertyOp0
 70
     1
102
RTVSPropertyOp1
 70
     1
102
RTVSPropertyOp2
 70
     1
102
RTVSPropertyOp3
 70
     1
102
RTVSPropertyOp4
 70
     1
102
RTVSPropertyOp5
 70
     1
102
RTVSPropertyOp6
 70
     1
102
RTVSPropertyOp7
 70
     1
102
RTVSPropertyOp8
 70
     1
102
RTVSPropertyOp9
 70
     1
102
RTVSPropertyOp10
 70
     1
102
RTVSPropertyOp11
 70
     1
102
RTVSPropertyOp12
 70
     1
102
RTVSPropertyOp13
 70
     1
102
RTVSPropertyOp14
 70
     1
102
RTVSPropertyOp15
 70
     1
102
RTVSPropertyOp16
 70
     1
102
RTVSPropertyOp17
 70
     1
102
RTVSPropertyOp18
 70
     1
102
RTVSPropertyOp19
 70
     1
102
RTVSPropertyOp20
 70
     1
102
RTVSPropertyOp21
 70
     1
102
RTVSPropertyOp22
 70
     1
102
RTVSPropertyOp23
 70
     1
102
RTVSPropertyOp24
 70
     1
102
RTVSPropertyOp25
 70
     1
102
RTVSPropertyOp26
 70
     1
102
RTVSPropertyOp27
 70
     1
102
RTVSPropertyOp28
 70
     1
102
RTVSPropertyOp29
 70
     1
102
RTVSPropertyOp30
 70
     1
102
RTVSPropertyOp31
 70
     1
102
RTVSPropertyOp32
 70
     1
  0
ENDSEC
  0
EOF
