  0
SECTION
  2
HEADER
  9
$ACADVER
  1
AC1015
  9
$ACADMAINTVER
 70
    20
  9
$DWGCODEPAGE
  3
ANSI_932
  9
$INSBASE
 10
0.0
 20
0.0
 30
0.0
  9
$EXTMIN
 10
-234.613077
 20
-112.46397
 30
0.0
  9
$EXTMAX
 10
355.3534285226624
 20
164.53603
 30
0.0
  9
$LIMMIN
 10
-234.614083
 20
-112.464974
  9
$LIMMAX
 10
170.699013
 20
164.537026
  9
$ORTHOMODE
 70
     0
  9
$REGENMODE
 70
     1
  9
$FILLMODE
 70
     1
  9
$QTEXTMODE
 70
     0
  9
$MIRRTEXT
 70
     0
  9
$LTSCALE
 40
6.755185
  9
$ATTMODE
 70
     1
  9
$TEXTSIZE
 40
3.2
  9
$TRACEWID
 40
0.05
  9
$TEXTSTYLE
  7
高3.2
  9
$CLAYER
  8
0
  9
$CELTYPE
  6
ByLayer
  9
$CECOLOR
 62
   256
  9
$CELTSCALE
 40
1.0
  9
$DISPSILH
 70
     0
  9
$DIMSCALE
 40
1.0
  9
$DIMASZ
 40
2.5
  9
$DIMEXO
 40
0.25
  9
$DIMDLI
 40
0.2
  9
$DIMRND
 40
0.0
  9
$DIMDLE
 40
0.0
  9
$DIMEXE
 40
1.25
  9
$DIMTP
 40
0.0
  9
$DIMTM
 40
0.0
  9
$DIMTXT
 40
3.0
  9
$DIMCEN
 40
0.0
  9
$DIMTSZ
 40
0.0
  9
$DIMTOL
 70
     0
  9
$DIMLIM
 70
     0
  9
$DIMTIH
 70
     0
  9
$DIMTOH
 70
     0
  9
$DIMSE1
 70
     0
  9
$DIMSE2
 70
     0
  9
$DIMTAD
 70
     3
  9
$DIMZIN
 70
     8
  9
$DIMBLK
  1
Open30
  9
$DIMASO
 70
     1
  9
$DIMSHO
 70
     1
  9
$DIMPOST
  1

  9
$DIMAPOST
  1

  9
$DIMALT
 70
     0
  9
$DIMALTD
 70
     3
  9
$DIMALTF
 40
0.03937007874016
  9
$DIMLFAC
 40
1.0
  9
$DIMTOFL
 70
     1
  9
$DIMTVP
 40
0.0
  9
$DIMTIX
 70
     0
  9
$DIMSOXD
 70
     0
  9
$DIMSAH
 70
     0
  9
$DIMBLK1
  1

  9
$DIMBLK2
  1

  9
$DIMSTYLE
  2
FREE
  9
$DIMCLRD
 70
     0
  9
$DIMCLRE
 70
     0
  9
$DIMCLRT
 70
     4
  9
$DIMTFAC
 40
1.0
  9
$DIMGAP
 40
0.625
  9
$DIMJUST
 70
     0
  9
$DIMSD1
 70
     0
  9
$DIMSD2
 70
     0
  9
$DIMTOLJ
 70
     0
  9
$DIMTZIN
 70
     8
  9
$DIMALTZ
 70
     0
  9
$DIMALTTZ
 70
     0
  9
$DIMUPT
 70
     1
  9
$DIMDEC
 70
     2
  9
$DIMTDEC
 70
     2
  9
$DIMALTU
 70
     2
  9
$DIMALTTD
 70
     3
  9
$DIMTXSTY
  7
STANDARD
  9
$DIMAUNIT
 70
     0
  9
$DIMADEC
 70
     1
  9
$DIMALTRND
 40
0.0
  9
$DIMAZIN
 70
     2
  9
$DIMDSEP
 70
    46
  9
$DIMATFIT
 70
     0
  9
$DIMFRAC
 70
     0
  9
$DIMLDRBLK
  1
Open30
  9
$DIMLUNIT
 70
     2
  9
$DIMLWD
 70
    -2
  9
$DIMLWE
 70
    -2
  9
$DIMTMOVE
 70
     0
  9
$LUNITS
 70
     2
  9
$LUPREC
 70
     4
  9
$SKETCHINC
 40
0.1
  9
$FILLETRAD
 40
0.0
  9
$AUNITS
 70
     0
  9
$AUPREC
 70
     0
  9
$MENU
  1
.
  9
$ELEVATION
 40
0.0
  9
$PELEVATION
 40
0.0
  9
$THICKNESS
 40
0.0
  9
$LIMCHECK
 70
     0
  9
$CHAMFERA
 40
0.0
  9
$CHAMFERB
 40
0.0
  9
$CHAMFERC
 40
0.0
  9
$CHAMFERD
 40
0.0
  9
$SKPOLY
 70
     0
  9
$TDCREATE
 40
2455497.465426794
  9
$TDUCREATE
 40
2455497.090426794
  9
$TDUPDATE
 40
2460251.685714190
  9
$TDUUPDATE
 40
2460251.310714190
  9
$TDINDWG
 40
0.1517741435
  9
$TDUSRTIMER
 40
0.1517646759
  9
$USRTIMER
 70
     1
  9
$ANGBASE
 50
0.0
  9
$ANGDIR
 70
     0
  9
$PDMODE
 70
     0
  9
$PDSIZE
 40
0.0
  9
$PLINEWID
 40
0.0
  9
$SPLFRAME
 70
     0
  9
$SPLINETYPE
 70
     6
  9
$SPLINESEGS
 70
     8
  9
$HANDSEED
  5
E29
  9
$SURFTAB1
 70
     6
  9
$SURFTAB2
 70
     6
  9
$SURFTYPE
 70
     6
  9
$SURFU
 70
     6
  9
$SURFV
 70
     6
  9
$UCSBASE
  2

  9
$UCSNAME
  2

  9
$UCSORG
 10
0.0
 20
0.0
 30
0.0
  9
$UCSXDIR
 10
1.0
 20
0.0
 30
0.0
  9
$UCSYDIR
 10
0.0
 20
1.0
 30
0.0
  9
$UCSORTHOREF
  2

  9
$UCSORTHOVIEW
 70
     0
  9
$UCSORGTOP
 10
0.0
 20
0.0
 30
0.0
  9
$UCSORGBOTTOM
 10
0.0
 20
0.0
 30
0.0
  9
$UCSORGLEFT
 10
0.0
 20
0.0
 30
0.0
  9
$UCSORGRIGHT
 10
0.0
 20
0.0
 30
0.0
  9
$UCSORGFRONT
 10
0.0
 20
0.0
 30
0.0
  9
$UCSORGBACK
 10
0.0
 20
0.0
 30
0.0
  9
$PUCSBASE
  2

  9
$PUCSNAME
  2

  9
$PUCSORG
 10
0.0
 20
0.0
 30
0.0
  9
$PUCSXDIR
 10
1.0
 20
0.0
 30
0.0
  9
$PUCSYDIR
 10
0.0
 20
1.0
 30
0.0
  9
$PUCSORTHOREF
  2

  9
$PUCSORTHOVIEW
 70
     0
  9
$PUCSORGTOP
 10
0.0
 20
0.0
 30
0.0
  9
$PUCSORGBOTTOM
 10
0.0
 20
0.0
 30
0.0
  9
$PUCSORGLEFT
 10
0.0
 20
0.0
 30
0.0
  9
$PUCSORGRIGHT
 10
0.0
 20
0.0
 30
0.0
  9
$PUCSORGFRONT
 10
0.0
 20
0.0
 30
0.0
  9
$PUCSORGBACK
 10
0.0
 20
0.0
 30
0.0
  9
$USERI1
 70
     0
  9
$USERI2
 70
     0
  9
$USERI3
 70
     0
  9
$USERI4
 70
     0
  9
$USERI5
 70
     0
  9
$USERR1
 40
0.0
  9
$USERR2
 40
0.0
  9
$USERR3
 40
0.0
  9
$USERR4
 40
0.0
  9
$USERR5
 40
0.0
  9
$WORLDVIEW
 70
     1
  9
$SHADEDGE
 70
     3
  9
$SHADEDIF
 70
    70
  9
$TILEMODE
 70
     1
  9
$MAXACTVP
 70
    64
  9
$PINSBASE
 10
0.0
 20
0.0
 30
0.0
  9
$PLIMCHECK
 70
     0
  9
$PEXTMIN
 10
1.000000000000000E+20
 20
1.000000000000000E+20
 30
1.000000000000000E+20
  9
$PEXTMAX
 10
-1.000000000000000E+20
 20
-1.000000000000000E+20
 30
-1.000000000000000E+20
  9
$PLIMMIN
 10
0.0
 20
0.0
  9
$PLIMMAX
 10
12.0
 20
9.0
  9
$UNITMODE
 70
     0
  9
$VISRETAIN
 70
     1
  9
$PLINEGEN
 70
     0
  9
$PSLTSCALE
 70
     1
  9
$TREEDEPTH
 70
  3020
  9
$CMLSTYLE
  2
Standard
  9
$CMLJUST
 70
     0
  9
$CMLSCALE
 40
1.0
  9
$PROXYGRAPHICS
 70
     1
  9
$MEASUREMENT
 70
     0
  9
$CELWEIGHT
370
    -1
  9
$ENDCAPS
280
     0
  9
$JOINSTYLE
280
     0
  9
$LWDISPLAY
290
     0
  9
$INSUNITS
 70
     0
  9
$HYPERLINKBASE
  1

  9
$STYLESHEET
  1
N-PLOT.CTB
  9
$XEDIT
290
     1
  9
$CEPSNTYPE
380
     0
  9
$PSTYLEMODE
290
     1
  9
$FINGERPRINTGUID
  2
{ED48CA0C-95CC-417F-8EB6-F37664E1D1FD}
  9
$VERSIONGUID
  2
{0B715786-B134-4C4A-B859-02F586FBAB03}
  9
$EXTNAMES
290
     1
  9
$PSVPSCALE
 40
0.0
  9
$OLESTARTUP
290
     0
  0
ENDSEC
  0
SECTION
  2
CLASSES
  0
CLASS
  1
ACDBDICTIONARYWDFLT
  2
AcDbDictionaryWithDefault
  3
ObjectDBX Classes
 90
        0
280
     0
281
     0
  0
CLASS
  1
MATERIAL
  2
AcDbMaterial
  3
ObjectDBX Classes
 90
     1153
280
     0
281
     0
  0
CLASS
  1
VISUALSTYLE
  2
AcDbVisualStyle
  3
ObjectDBX Classes
 90
     4095
280
     0
281
     0
  0
CLASS
  1
TABLESTYLE
  2
AcDbTableStyle
  3
ObjectDBX Classes
 90
     4095
280
     0
281
     0
  0
CLASS
  1
DICTIONARYVAR
  2
AcDbDictionaryVar
  3
ObjectDBX Classes
 90
        0
280
     0
281
     0
  0
CLASS
  1
ACDBPLACEHOLDER
  2
AcDbPlaceHolder
  3
ObjectDBX Classes
 90
        0
280
     0
281
     0
  0
CLASS
  1
LAYOUT
  2
AcDbLayout
  3
ObjectDBX Classes
 90
        0
280
     0
281
     0
  0
CLASS
  1
SCALE
  2
AcDbScale
  3
ObjectDBX Classes
 90
     1153
280
     0
281
     0
  0
CLASS
  1
MLEADERSTYLE
  2
AcDbMLeaderStyle
  3
ACDB_MLEADERSTYLE_CLASS
 90
     4095
280
     0
281
     0
  0
CLASS
  1
SORTENTSTABLE
  2
AcDbSortentsTable
  3
ObjectDBX Classes
 90
        0
280
     0
281
     0
  0
CLASS
  1
CELLSTYLEMAP
  2
AcDbCellStyleMap
  3
ObjectDBX Classes
 90
     1152
280
     0
281
     0
  0
CLASS
  1
AEC_REFEDIT_STATUS_TRACKER
  2
AecDbRefEditStatusTracker
  3
AecArchBase60|Product Desc: Autodesk Architectural Desktop 2007 |Company: Autodesk,Inc. |WEB Address: www.autodesk.com
 90
      129
280
     0
281
     0
  0
CLASS
  1
NPOCOLLECTION
  2
AcDbImpNonPersistentObjectsCollection
  3
ObjectDBX Classes
 90
     1153
280
     0
281
     0
  0
ENDSEC
  0
SECTION
  2
TABLES
  0
TABLE
  2
VPORT
  5
8
330
0
100
AcDbSymbolTable
 70
     1
  0
VPORT
  5
56
330
8
100
AcDbSymbolTableRecord
100
AcDbViewportTableRecord
  2
*Active
 70
     0
 10
0.0
 20
0.0
 11
1.0
 21
1.0
 12
42.46586932899873
 22
12.14864755705963
 13
0.0
 23
0.0
 14
1.0
 24
1.0
 15
0.0
 25
0.0
 16
0.0
 26
0.0
 36
1.0
 17
0.0
 27
0.0
 37
0.0
 40
694.3449916280793
 41
1.345991561181434
 42
50.0
 43
0.0
 44
0.0
 50
0.0
 51
0.0
 71
     0
 72
   100
 73
     1
 74
     1
 75
     0
 76
     0
 77
     0
 78
     0
281
     0
 65
     1
110
0.0
120
0.0
130
0.0
111
1.0
121
0.0
131
0.0
112
0.0
122
1.0
132
0.0
 79
     0
146
0.0
  0
ENDTAB
  0
TABLE
  2
LTYPE
  5
5
330
0
100
AcDbSymbolTable
 70
     1
  0
LTYPE
  5
28
330
5
100
AcDbSymbolTableRecord
100
AcDbLinetypeTableRecord
  2
ByBlock
 70
     0
  3

 72
    65
 73
     0
 40
0.0
  0
LTYPE
  5
29
330
5
100
AcDbSymbolTableRecord
100
AcDbLinetypeTableRecord
  2
ByLayer
 70
     0
  3

 72
    65
 73
     0
 40
0.0
  0
LTYPE
  5
2A
330
5
100
AcDbSymbolTableRecord
100
AcDbLinetypeTableRecord
  2
CONTINUOUS
 70
     0
  3
Solid-line
 72
    65
 73
     0
 40
0.0
  0
ENDTAB
  0
TABLE
  2
LAYER
  5
2
102
{ACAD_XDICTIONARY
360
5F6
102
}
330
0
100
AcDbSymbolTable
 70
     2
  0
LAYER
  5
25
102
{ACAD_XDICTIONARY
360
840
102
}
330
2
100
AcDbSymbolTableRecord
100
AcDbLayerTableRecord
  2
0
 70
     0
 62
     7
  6
CONTINUOUS
370
    -3
390
F
  0
LAYER
  5
5E2
330
2
100
AcDbSymbolTableRecord
100
AcDbLayerTableRecord
  2
Defpoints
 70
     0
 62
     7
  6
CONTINUOUS
290
     0
370
    -3
390
F
  0
ENDTAB
  0
TABLE
  2
STYLE
  5
3
330
0
100
AcDbSymbolTable
 70
     6
  0
STYLE
  5
26
330
3
100
AcDbSymbolTableRecord
100
AcDbTextStyleTableRecord
  2
STANDARD
 70
     0
 40
0.0
 41
1.0
 50
0.0
 71
     0
 42
0.2
  3
TXT
  4
BIGFONT
  0
STYLE
  5
5E3
330
3
100
AcDbSymbolTableRecord
100
AcDbTextStyleTableRecord
  2
高3.2
 70
     0
 40
3.2
 41
1.0
 50
0.0
 71
     0
 42
3.2
  3
txt.shx
  4
bigfont.shx
  0
STYLE
  5
5E4
330
3
100
AcDbSymbolTableRecord
100
AcDbTextStyleTableRecord
  2
高6.3
 70
     0
 40
6.299999999999998
 41
1.0
 50
0.0
 71
     0
 42
6.299999999999998
  3
txt.shx
  4
bigfont.shx
  0
STYLE
  5
5E5
330
3
100
AcDbSymbolTableRecord
100
AcDbTextStyleTableRecord
  2
高2.5
 70
     0
 40
2.5
 41
1.0
 50
0.0
 71
     0
 42
0.2
  3
txt.shx
  4
bigfont.shx
  0
STYLE
  5
5E6
330
3
100
AcDbSymbolTableRecord
100
AcDbTextStyleTableRecord
  2
高4.5
 70
     0
 40
4.5
 41
1.0
 50
0.0
 71
     0
 42
6.299999999999998
  3
txt.shx
  4
bigfont.shx
  0
STYLE
  5
5E7
330
3
100
AcDbSymbolTableRecord
100
AcDbTextStyleTableRecord
  2
高2
 70
     0
 40
2.0
 41
1.0
 50
0.0
 71
     0
 42
2.0
  3
txt.shx
  4
bigfont.shx
  0
ENDTAB
  0
TABLE
  2
VIEW
  5
6
330
0
100
AcDbSymbolTable
 70
     0
  0
ENDTAB
  0
TABLE
  2
UCS
  5
7
330
0
100
AcDbSymbolTable
 70
     0
  0
ENDTAB
  0
TABLE
  2
APPID
  5
9
330
0
100
AcDbSymbolTable
 70
    10
  0
APPID
  5
27
330
9
100
AcDbSymbolTableRecord
100
AcDbRegAppTableRecord
  2
ACAD
 70
     0
  0
APPID
  5
4E9
330
9
100
AcDbSymbolTableRecord
100
AcDbRegAppTableRecord
  2
ACAD_PSEXT
 70
     0
  0
APPID
  5
5F2
330
9
100
AcDbSymbolTableRecord
100
AcDbRegAppTableRecord
  2
ACAD_DSTYLE_DIMJOGGED_JOGANGLE_SYMBOL
 70
     0
  0
APPID
  5
5F3
330
9
100
AcDbSymbolTableRecord
100
AcDbRegAppTableRecord
  2
ACAD_DSTYLE_DIMJAG
 70
     0
  0
APPID
  5
5F4
330
9
100
AcDbSymbolTableRecord
100
AcDbRegAppTableRecord
  2
ACAD_DSTYLE_DIMBREAK
 70
     0
  0
APPID
  5
5F5
330
9
100
AcDbSymbolTableRecord
100
AcDbRegAppTableRecord
  2
ACAD_DSTYLE_DIMTALN
 70
     0
  0
APPID
  5
763
330
9
100
AcDbSymbolTableRecord
100
AcDbRegAppTableRecord
  2
ACAD_EXEMPT_FROM_CAD_STANDARDS
 70
     0
  0
APPID
  5
8D2
330
9
100
AcDbSymbolTableRecord
100
AcDbRegAppTableRecord
  2
ACAD_MLEADERVER
 70
     0
  0
APPID
  5
8D3
330
9
100
AcDbSymbolTableRecord
100
AcDbRegAppTableRecord
  2
ACAD_DSTYLE_DIMARC_LENGTH_SYMBOL
 70
     0
  0
APPID
  5
8D4
330
9
100
AcDbSymbolTableRecord
100
AcDbRegAppTableRecord
  2
ACAD_DSTYLE_DIMEXT_LENGTH
 70
     0
  0
ENDTAB
  0
TABLE
  2
DIMSTYLE
  5
A
330
0
100
AcDbSymbolTable
 70
    11
100
AcDbDimStyleTable
 71
     3
340
5E8
340
5EC
340
4E7
  0
DIMSTYLE
105
4E7
330
A
100
AcDbSymbolTableRecord
100
AcDbDimStyleTableRecord
  2
Standard
 70
     0
340
26
  0
DIMSTYLE
105
5E8
330
A
100
AcDbSymbolTableRecord
100
AcDbDimStyleTableRecord
  2
1：1
 70
     0
 41
2.5
 42
0.25
 43
0.2
 44
1.25
 73
     0
 74
     0
 77
     3
 78
     8
 79
     2
140
3.0
141
0.0
143
0.03937007874016
147
0.625
171
     3
172
     1
178
     4
179
     1
271
     2
272
     2
274
     3
283
     0
284
     8
288
     1
289
     0
340
26
341
552
342
552
1001
ACAD_DSTYLE_DIMARC_LENGTH_SYMBOL
1070
   379
1070
     2
1001
ACAD_DSTYLE_DIMEXT_LENGTH
1070
   378
1040
1.25
1001
ACAD_DSTYLE_DIMJOGGED_JOGANGLE_SYMBOL
1070
   384
1040
1.570796326794896
  0
DIMSTYLE
105
5E9
330
A
100
AcDbSymbolTableRecord
100
AcDbDimStyleTableRecord
  2
2：1
 70
     0
 41
2.5
 42
0.25
 43
0.2
 44
1.25
 73
     0
 74
     0
 77
     3
 78
     8
 79
     2
140
3.0
141
0.0
143
0.03937007874016
144
0.5
147
0.625
171
     3
172
     1
178
     4
179
     1
271
     2
272
     2
274
     3
283
     0
284
     8
288
     1
289
     0
340
26
341
552
342
552
1001
ACAD_DSTYLE_DIMARC_LENGTH_SYMBOL
1070
   379
1070
     2
1001
ACAD_DSTYLE_DIMEXT_LENGTH
1070
   378
1040
1.25
1001
ACAD_DSTYLE_DIMJOGGED_JOGANGLE_SYMBOL
1070
   384
1040
1.570796326794896
  0
DIMSTYLE
105
5EA
330
A
100
AcDbSymbolTableRecord
100
AcDbDimStyleTableRecord
  2
5：1
 70
     0
 41
2.5
 42
0.25
 43
0.2
 44
1.25
 73
     0
 74
     0
 77
     3
 78
     8
 79
     2
140
3.0
141
0.0
143
0.03937007874016
144
0.2
147
0.625
171
     3
172
     1
178
     4
179
     1
271
     2
272
     2
274
     3
283
     0
284
     8
288
     1
289
     0
340
26
341
552
342
552
1001
ACAD_DSTYLE_DIMARC_LENGTH_SYMBOL
1070
   379
1070
     2
1001
ACAD_DSTYLE_DIMEXT_LENGTH
1070
   378
1040
1.25
1001
ACAD_DSTYLE_DIMJOGGED_JOGANGLE_SYMBOL
1070
   384
1040
1.570796326794896
  0
DIMSTYLE
105
5EB
330
A
100
AcDbSymbolTableRecord
100
AcDbDimStyleTableRecord
  2
10：1
 70
     0
 41
2.5
 42
0.25
 43
0.2
 44
1.25
 73
     0
 74
     0
 77
     3
 78
     8
 79
     2
140
3.0
141
0.0
143
0.03937007874016
144
0.1
147
0.625
171
     3
172
     1
178
     4
179
     1
271
     2
272
     2
274
     3
283
     0
284
     8
288
     1
289
     0
340
26
341
552
342
552
1001
ACAD_DSTYLE_DIMARC_LENGTH_SYMBOL
1070
   379
1070
     2
1001
ACAD_DSTYLE_DIMEXT_LENGTH
1070
   378
1040
1.25
1001
ACAD_DSTYLE_DIMJOGGED_JOGANGLE_SYMBOL
1070
   384
1040
1.570796326794896
  0
DIMSTYLE
105
5EC
330
A
100
AcDbSymbolTableRecord
100
AcDbDimStyleTableRecord
  2
1／2
 70
     0
 41
2.5
 42
0.25
 43
0.2
 44
1.25
 73
     0
 74
     0
 77
     3
 78
     8
 79
     2
140
3.0
141
0.0
143
0.03937007874016
144
2.0
147
0.625
171
     3
172
     1
178
     4
179
     1
271
     2
272
     2
274
     3
283
     0
284
     8
288
     1
289
     0
340
26
341
552
342
552
1001
ACAD_DSTYLE_DIMARC_LENGTH_SYMBOL
1070
   379
1070
     2
1001
ACAD_DSTYLE_DIMEXT_LENGTH
1070
   378
1040
1.25
1001
ACAD_DSTYLE_DIMJOGGED_JOGANGLE_SYMBOL
1070
   384
1040
1.570796326794896
  0
DIMSTYLE
105
5ED
330
A
100
AcDbSymbolTableRecord
100
AcDbDimStyleTableRecord
  2
1／5
 70
     0
 41
2.5
 42
0.25
 43
0.2
 44
1.25
 73
     0
 74
     0
 77
     3
 78
     8
 79
     2
140
3.0
141
0.0
143
0.03937007874016
144
5.0
147
0.625
171
     3
172
     1
178
     4
179
     1
271
     2
272
     2
274
     3
283
     0
284
     8
288
     1
289
     0
340
26
341
552
342
552
1001
ACAD_DSTYLE_DIMARC_LENGTH_SYMBOL
1070
   379
1070
     2
1001
ACAD_DSTYLE_DIMEXT_LENGTH
1070
   378
1040
1.25
1001
ACAD_DSTYLE_DIMJOGGED_JOGANGLE_SYMBOL
1070
   384
1040
1.570796326794896
  0
DIMSTYLE
105
5EE
330
A
100
AcDbSymbolTableRecord
100
AcDbDimStyleTableRecord
  2
1／10
 70
     0
 41
2.5
 42
0.25
 43
0.2
 44
1.25
 73
     0
 74
     0
 77
     3
 78
     8
 79
     2
140
3.0
141
0.0
143
0.03937007874016
144
10.0
147
0.625
171
     3
172
     1
178
     4
179
     1
271
     2
272
     2
274
     3
283
     0
284
     8
288
     1
289
     0
340
26
341
552
342
552
1001
ACAD_DSTYLE_DIMARC_LENGTH_SYMBOL
1070
   379
1070
     2
1001
ACAD_DSTYLE_DIMEXT_LENGTH
1070
   378
1040
1.25
1001
ACAD_DSTYLE_DIMJOGGED_JOGANGLE_SYMBOL
1070
   384
1040
1.570796326794896
  0
DIMSTYLE
105
5EF
330
A
100
AcDbSymbolTableRecord
100
AcDbDimStyleTableRecord
  2
1／4
 70
     0
 41
2.5
 42
0.25
 43
0.2
 44
1.25
 73
     0
 74
     0
 77
     3
 78
     8
 79
     2
140
3.0
141
0.0
143
0.03937007874016
144
4.0
147
0.625
171
     3
172
     1
178
     4
179
     1
271
     2
272
     2
274
     3
283
     0
284
     8
288
     1
289
     0
340
26
341
552
342
552
1001
ACAD_DSTYLE_DIMARC_LENGTH_SYMBOL
1070
   379
1070
     2
1001
ACAD_DSTYLE_DIMEXT_LENGTH
1070
   378
1040
1.25
1001
ACAD_DSTYLE_DIMJOGGED_JOGANGLE_SYMBOL
1070
   384
1040
1.570796326794896
  0
DIMSTYLE
105
5F0
330
A
100
AcDbSymbolTableRecord
100
AcDbDimStyleTableRecord
  2
1／3
 70
     0
 41
2.5
 42
0.25
 43
0.2
 44
1.25
 73
     0
 74
     0
 77
     3
 78
     8
 79
     2
140
3.0
141
0.0
143
0.03937007874016
144
3.0
147
0.625
171
     3
172
     1
178
     4
179
     1
271
     2
272
     2
274
     3
283
     0
284
     8
288
     1
289
     0
340
26
341
552
342
552
1001
ACAD_DSTYLE_DIMARC_LENGTH_SYMBOL
1070
   379
1070
     2
1001
ACAD_DSTYLE_DIMEXT_LENGTH
1070
   378
1040
1.25
1001
ACAD_DSTYLE_DIMJOGGED_JOGANGLE_SYMBOL
1070
   384
1040
1.570796326794896
  0
DIMSTYLE
105
5F1
330
A
100
AcDbSymbolTableRecord
100
AcDbDimStyleTableRecord
  2
FREE
 70
     0
 41
2.5
 42
0.25
 43
0.2
 44
1.25
 73
     0
 74
     0
 77
     3
 78
     8
 79
     2
140
3.0
141
0.0
143
0.03937007874016
147
0.625
171
     3
172
     1
178
     4
179
     1
271
     2
272
     2
274
     3
283
     0
284
     8
288
     1
289
     0
340
26
341
552
342
552
1001
ACAD_DSTYLE_DIMBREAK
1070
   391
1040
3.75
1001
ACAD_DSTYLE_DIMJAG
1070
   388
1040
1.5
1001
ACAD_DSTYLE_DIMTALN
1070
   392
1070
     0
1001
ACAD_DSTYLE_DIMARC_LENGTH_SYMBOL
1070
   379
1070
     2
1001
ACAD_DSTYLE_DIMEXT_LENGTH
1070
   378
1040
1.25
1001
ACAD_DSTYLE_DIMJOGGED_JOGANGLE_SYMBOL
1070
   384
1040
1.570796326794896
  0
ENDTAB
  0
TABLE
  2
BLOCK_RECORD
  5
1
330
0
100
AcDbSymbolTable
 70
    19
  0
BLOCK_RECORD
  5
36
102
{ACAD_XDICTIONARY
360
908
102
}
330
1
100
AcDbSymbolTableRecord
100
AcDbBlockTableRecord
  2
*Model_Space
340
39
  0
BLOCK_RECORD
  5
32
330
1
100
AcDbSymbolTableRecord
100
AcDbBlockTableRecord
  2
*Paper_Space
340
35
  0
BLOCK_RECORD
  5
552
330
1
100
AcDbSymbolTableRecord
100
AcDbBlockTableRecord
  2
_Open30
340
0
102
{BLKREFS
331
6CF
331
6D0
331
6DA
331
6DB
331
6E5
331
6E6
331
6F0
331
6F1
331
6FB
331
6FC
331
706
331
707
331
711
331
712
331
71C
331
71D
331
727
331
728
331
730
331
731
331
9DF
331
9E0
331
9E8
331
9E9
331
9F1
331
9F2
331
9FA
331
9FB
331
A03
331
A04
102
}
  0
BLOCK_RECORD
  5
640
330
1
100
AcDbSymbolTableRecord
100
AcDbBlockTableRecord
  2
*D1
340
0
  0
BLOCK_RECORD
  5
64E
330
1
100
AcDbSymbolTableRecord
100
AcDbBlockTableRecord
  2
*D2
340
0
  0
BLOCK_RECORD
  5
65C
330
1
100
AcDbSymbolTableRecord
100
AcDbBlockTableRecord
  2
*D3
340
0
  0
BLOCK_RECORD
  5
66A
330
1
100
AcDbSymbolTableRecord
100
AcDbBlockTableRecord
  2
*D4
340
0
  0
BLOCK_RECORD
  5
678
330
1
100
AcDbSymbolTableRecord
100
AcDbBlockTableRecord
  2
*D5
340
0
  0
BLOCK_RECORD
  5
686
330
1
100
AcDbSymbolTableRecord
100
AcDbBlockTableRecord
  2
*D6
340
0
  0
BLOCK_RECORD
  5
694
330
1
100
AcDbSymbolTableRecord
100
AcDbBlockTableRecord
  2
*D7
340
0
  0
BLOCK_RECORD
  5
6A2
330
1
100
AcDbSymbolTableRecord
100
AcDbBlockTableRecord
  2
*D8
340
0
  0
BLOCK_RECORD
  5
6B0
330
1
100
AcDbSymbolTableRecord
100
AcDbBlockTableRecord
  2
*D9
340
0
  0
BLOCK_RECORD
  5
6BE
330
1
100
AcDbSymbolTableRecord
100
AcDbBlockTableRecord
  2
*D10
340
0
  0
BLOCK_RECORD
  5
736
330
1
100
AcDbSymbolTableRecord
100
AcDbBlockTableRecord
  2
*D11
340
0
  0
BLOCK_RECORD
  5
742
330
1
100
AcDbSymbolTableRecord
100
AcDbBlockTableRecord
  2
*D12
340
0
  0
BLOCK_RECORD
  5
757
330
1
100
AcDbSymbolTableRecord
100
AcDbBlockTableRecord
  2
*D13
340
0
  0
BLOCK_RECORD
  5
76E
330
1
100
AcDbSymbolTableRecord
100
AcDbBlockTableRecord
  2
*D14
340
0
  0
BLOCK_RECORD
  5
7F5
330
1
100
AcDbSymbolTableRecord
100
AcDbBlockTableRecord
  2
_DotSmall
340
0
  0
BLOCK_RECORD
  5
82B
330
1
100
AcDbSymbolTableRecord
100
AcDbBlockTableRecord
  2
*D16
340
0
  0
ENDTAB
  0
ENDSEC
  0
SECTION
  2
BLOCKS
  0
BLOCK
  5
37
330
36
100
AcDbEntity
  8
0
100
AcDbBlockBegin
  2
*Model_Space
 70
     0
 10
0.0
 20
0.0
 30
0.0
  3
*Model_Space
  1

  0
ENDBLK
  5
38
330
36
100
AcDbEntity
  8
0
100
AcDbBlockEnd
  0
BLOCK
  5
33
330
32
100
AcDbEntity
 67
     1
  8
0
100
AcDbBlockBegin
  2
*Paper_Space
 70
     0
 10
0.0
 20
0.0
 30
0.0
  3
*Paper_Space
  1

  0
ENDBLK
  5
34
330
32
100
AcDbEntity
 67
     1
  8
0
100
AcDbBlockEnd
  0
BLOCK
  5
553
330
552
100
AcDbEntity
  8
0
100
AcDbBlockBegin
  2
_Open30
 70
     0
 10
0.0
 20
0.0
 30
0.0
  3
_Open30
  1

  0
LINE
  5
554
330
552
100
AcDbEntity
  8
0
  6
ByBlock
 62
     0
370
    -2
100
AcDbLine
 10
-1.0
 20
0.267949
 30
0.0
 11
0.0
 21
0.0
 31
0.0
  0
LINE
  5
555
330
552
100
AcDbEntity
  8
0
  6
ByBlock
 62
     0
370
    -2
100
AcDbLine
 10
0.0
 20
0.0
 30
0.0
 11
-1.0
 21
-0.267949
 31
0.0
  0
LINE
  5
556
330
552
100
AcDbEntity
  8
0
  6
ByBlock
 62
     0
370
    -2
100
AcDbLine
 10
0.0
 20
0.0
 30
0.0
 11
-1.0
 21
0.0
 31
0.0
  0
ENDBLK
  5
557
330
552
100
AcDbEntity
  8
0
100
AcDbBlockEnd
  0
BLOCK
  5
641
330
640
100
AcDbEntity
  8
0
100
AcDbBlockBegin
  2
*D1
 70
     1
 10
0.0
 20
0.0
 30
0.0
  3
*D1
  1

  0
LINE
  5
6CA
330
640
100
AcDbEntity
  8
0
 62
     0
370
    -2
100
AcDbLine
 10
400.5751679657644
 20
103.343432089935
 30
0.0
 11
400.5751679657644
 21
100.4338006679262
 31
0.0
  0
LINE
  5
6CB
330
640
100
AcDbEntity
  8
0
 62
     0
370
    -2
100
AcDbLine
 10
398.1179809116442
 20
103.343432089935
 30
0.0
 11
398.1179809116442
 21
100.4338006679262
 31
0.0
  0
LINE
  5
6CC
330
640
100
AcDbEntity
  8
0
 62
     0
370
    -2
100
AcDbLine
 10
403.0751679657643
 20
101.6838006679262
 30
0.0
 11
405.5751679657641
 21
101.6838006679262
 31
0.0
  0
LINE
  5
6CD
330
640
100
AcDbEntity
  8
0
 62
     0
370
    -2
100
AcDbLine
 10
395.6179809116442
 20
101.6838006679262
 30
0.0
 11
382.8679809116442
 21
101.6838006679262
 31
0.0
  0
LINE
  5
6CE
330
640
100
AcDbEntity
  8
0
 62
     0
370
    -2
100
AcDbLine
 10
400.5751679657644
 20
101.6838006679262
 30
0.0
 11
398.1179809116442
 21
101.6838006679262
 31
0.0
  0
INSERT
  5
6CF
330
640
100
AcDbEntity
  8
0
 62
     0
370
    -2
100
AcDbBlockReference
  2
_Open30
 10
400.5751679657644
 20
101.6838006679262
 30
0.0
 41
2.5
 42
2.5
 43
2.5
 50
180.0
  0
INSERT
  5
6D0
330
640
100
AcDbEntity
  8
0
 62
     0
370
    -2
100
AcDbBlockReference
  2
_Open30
 10
398.1179809116442
 20
101.6838006679262
 30
0.0
 41
2.5
 42
2.5
 43
2.5
  0
MTEXT
  5
6D1
330
640
100
AcDbEntity
  8
0
 62
     4
100
AcDbMText
 10
387.9929809116442
 20
103.8088006679262
 30
0.0
 40
3.0
 41
0.0
 71
     5
 72
     1
  1
2.46
 73
     1
 44
1.0
1001
ACAD
1000
MTEXTBEGIN
1070
    73
1070
     1
1070
    44
1040
1.0
1070
    74
1070
     0
1000
MTEXTEND
  0
POINT
  5
6D2
330
640
100
AcDbEntity
  8
Defpoints
 62
     0
100
AcDbPoint
 10
400.5751679657644
 20
103.593432089935
 30
0.0
  0
POINT
  5
6D3
330
640
100
AcDbEntity
  8
Defpoints
 62
     0
100
AcDbPoint
 10
398.1179809116442
 20
103.593432089935
 30
0.0
  0
POINT
  5
6D4
330
640
100
AcDbEntity
  8
Defpoints
 62
     0
100
AcDbPoint
 10
398.1179809116442
 20
101.6838006679262
 30
0.0
  0
ENDBLK
  5
642
330
640
100
AcDbEntity
  8
0
100
AcDbBlockEnd
  0
BLOCK
  5
64F
330
64E
100
AcDbEntity
  8
0
100
AcDbBlockBegin
  2
*D2
 70
     1
 10
0.0
 20
0.0
 30
0.0
  3
*D2
  1

  0
LINE
  5
6D5
330
64E
100
AcDbEntity
  8
0
 62
     0
370
    -2
100
AcDbLine
 10
402.2132928718376
 20
97.88734251717265
 30
0.0
 11
402.2132928718376
 21
95.34145044770935
 31
0.0
  0
LINE
  5
6D6
330
64E
100
AcDbEntity
  8
0
 62
     0
370
    -2
100
AcDbLine
 10
399.1190570736947
 20
97.88734251717265
 30
0.0
 11
399.1190570736947
 21
95.34145044770935
 31
0.0
  0
LINE
  5
6D7
330
64E
100
AcDbEntity
  8
0
 62
     0
370
    -2
100
AcDbLine
 10
404.7132928718376
 20
96.59145044770935
 30
0.0
 11
407.2132928718374
 21
96.59145044770935
 31
0.0
  0
LINE
  5
6D8
330
64E
100
AcDbEntity
  8
0
 62
     0
370
    -2
100
AcDbLine
 10
396.6190570736948
 20
96.59145044770935
 30
0.0
 11
382.7857237403614
 21
96.59145044770935
 31
0.0
  0
LINE
  5
6D9
330
64E
100
AcDbEntity
  8
0
 62
     0
370
    -2
100
AcDbLine
 10
402.2132928718376
 20
96.59145044770935
 30
0.0
 11
399.1190570736947
 21
96.59145044770935
 31
0.0
  0
INSERT
  5
6DA
330
64E
100
AcDbEntity
  8
0
 62
     0
370
    -2
100
AcDbBlockReference
  2
_Open30
 10
402.2132928718376
 20
96.59145044770935
 30
0.0
 41
2.5
 42
2.5
 43
2.5
 50
180.0
  0
INSERT
  5
6DB
330
64E
100
AcDbEntity
  8
0
 62
     0
370
    -2
100
AcDbBlockReference
  2
_Open30
 10
399.1190570736947
 20
96.59145044770935
 30
0.0
 41
2.5
 42
2.5
 43
2.5
  0
MTEXT
  5
6DC
330
64E
100
AcDbEntity
  8
0
 62
     4
100
AcDbMText
 10
387.9940570736948
 20
98.46645044770935
 30
0.0
 40
2.5
 41
0.0
 71
     5
 72
     1
  1
15.47
  7
高2.5
 73
     1
 44
1.0
1001
ACAD
1000
MTEXTBEGIN
1070
    73
1070
     1
1070
    44
1040
1.0
1070
    74
1070
     0
1000
MTEXTEND
  0
POINT
  5
6DD
330
64E
100
AcDbEntity
  8
Defpoints
 62
     0
100
AcDbPoint
 10
402.2132928718376
 20
98.13734251717264
 30
0.0
  0
POINT
  5
6DE
330
64E
100
AcDbEntity
  8
Defpoints
 62
     0
100
AcDbPoint
 10
399.1190570736947
 20
98.13734251717264
 30
0.0
  0
POINT
  5
6DF
330
64E
100
AcDbEntity
  8
Defpoints
 62
     0
100
AcDbPoint
 10
399.1190570736947
 20
96.59145044770935
 30
0.0
  0
ENDBLK
  5
650
330
64E
100
AcDbEntity
  8
0
100
AcDbBlockEnd
  0
BLOCK
  5
65D
330
65C
100
AcDbEntity
  8
0
100
AcDbBlockBegin
  2
*D3
 70
     1
 10
0.0
 20
0.0
 30
0.0
  3
*D3
  1

  0
LINE
  5
6E0
330
65C
100
AcDbEntity
  8
0
 62
     0
370
    -2
100
AcDbLine
 10
403.9424244799231
 20
92.43125280132618
 30
0.0
 11
403.9424244799231
 21
90.1581651389589
 31
0.0
  0
LINE
  5
6E1
330
65C
100
AcDbEntity
  8
0
 62
     0
370
    -2
100
AcDbLine
 10
399.9381195267313
 20
92.43125280132618
 30
0.0
 11
399.9381195267313
 21
90.1581651389589
 31
0.0
  0
LINE
  5
6E2
330
65C
100
AcDbEntity
  8
0
 62
     0
370
    -2
100
AcDbLine
 10
406.4424244799231
 20
91.4081651389589
 30
0.0
 11
408.942424479923
 21
91.4081651389589
 31
0.0
  0
LINE
  5
6E3
330
65C
100
AcDbEntity
  8
0
 62
     0
370
    -2
100
AcDbLine
 10
397.4381195267313
 20
91.4081651389589
 30
0.0
 11
385.6881195267313
 21
91.4081651389589
 31
0.0
  0
LINE
  5
6E4
330
65C
100
AcDbEntity
  8
0
 62
     0
370
    -2
100
AcDbLine
 10
403.9424244799231
 20
91.4081651389589
 30
0.0
 11
399.9381195267313
 21
91.4081651389589
 31
0.0
  0
INSERT
  5
6E5
330
65C
100
AcDbEntity
  8
0
 62
     0
370
    -2
100
AcDbBlockReference
  2
_Open30
 10
403.9424244799231
 20
91.4081651389589
 30
0.0
 41
2.5
 42
2.5
 43
2.5
 50
180.0
  0
INSERT
  5
6E6
330
65C
100
AcDbEntity
  8
0
 62
     0
370
    -2
100
AcDbBlockReference
  2
_Open30
 10
399.9381195267313
 20
91.4081651389589
 30
0.0
 41
2.5
 42
2.5
 43
2.5
  0
MTEXT
  5
6E7
330
65C
100
AcDbEntity
  8
0
 62
     4
100
AcDbMText
 10
390.3131195267313
 20
93.63316513895886
 30
0.0
 40
3.2
 41
0.0
 71
     5
 72
     1
  1
8.01
  7
高3.2
 73
     1
 44
1.0
1001
ACAD
1000
MTEXTBEGIN
1070
    73
1070
     1
1070
    44
1040
1.0
1070
    74
1070
     0
1000
MTEXTEND
  0
POINT
  5
6E8
330
65C
100
AcDbEntity
  8
Defpoints
 62
     0
100
AcDbPoint
 10
403.9424244799231
 20
92.68125280132618
 30
0.0
  0
POINT
  5
6E9
330
65C
100
AcDbEntity
  8
Defpoints
 62
     0
100
AcDbPoint
 10
399.9381195267313
 20
92.68125280132618
 30
0.0
  0
POINT
  5
6EA
330
65C
100
AcDbEntity
  8
Defpoints
 62
     0
100
AcDbPoint
 10
399.9381195267313
 20
91.4081651389589
 30
0.0
  0
ENDBLK
  5
65E
330
65C
100
AcDbEntity
  8
0
100
AcDbBlockEnd
  0
BLOCK
  5
66B
330
66A
100
AcDbEntity
  8
0
100
AcDbBlockBegin
  2
*D4
 70
     1
 10
0.0
 20
0.0
 30
0.0
  3
*D4
  1

  0
LINE
  5
6EB
330
66A
100
AcDbEntity
  8
0
 62
     0
370
    -2
100
AcDbLine
 10
403.8514177779108
 20
87.15703283329457
 30
0.0
 11
403.8514177779108
 21
85.33861932583816
 31
0.0
  0
LINE
  5
6EC
330
66A
100
AcDbEntity
  8
0
 62
     0
370
    -2
100
AcDbLine
 10
399.1190570736947
 20
87.15703283329457
 30
0.0
 11
399.1190570736947
 21
85.33861932583816
 31
0.0
  0
LINE
  5
6ED
330
66A
100
AcDbEntity
  8
0
 62
     0
370
    -2
100
AcDbLine
 10
406.3514177779108
 20
86.58861932583816
 30
0.0
 11
408.8514177779108
 21
86.58861932583816
 31
0.0
  0
LINE
  5
6EE
330
66A
100
AcDbEntity
  8
0
 62
     0
370
    -2
100
AcDbLine
 10
396.6190570736948
 20
86.58861932583816
 30
0.0
 11
374.8690570736948
 21
86.58861932583816
 31
0.0
  0
LINE
  5
6EF
330
66A
100
AcDbEntity
  8
0
 62
     0
370
    -2
100
AcDbLine
 10
403.8514177779108
 20
86.58861932583816
 30
0.0
 11
399.1190570736947
 21
86.58861932583816
 31
0.0
  0
INSERT
  5
6F0
330
66A
100
AcDbEntity
  8
0
 62
     0
370
    -2
100
AcDbBlockReference
  2
_Open30
 10
403.8514177779108
 20
86.58861932583816
 30
0.0
 41
2.5
 42
2.5
 43
2.5
 50
180.0
  0
INSERT
  5
6F1
330
66A
100
AcDbEntity
  8
0
 62
     0
370
    -2
100
AcDbBlockReference
  2
_Open30
 10
399.1190570736947
 20
86.58861932583816
 30
0.0
 41
2.5
 42
2.5
 43
2.5
  0
MTEXT
  5
6F2
330
66A
100
AcDbEntity
  8
0
 62
     4
100
AcDbMText
 10
384.4940570736948
 20
89.46361932583817
 30
0.0
 40
4.5
 41
0.0
 71
     5
 72
     1
  1
47.32
  7
高4.5
 73
     1
 44
1.0
1001
ACAD
1000
MTEXTBEGIN
1070
    73
1070
     1
1070
    44
1040
1.0
1070
    74
1070
     0
1000
MTEXTEND
  0
POINT
  5
6F3
330
66A
100
AcDbEntity
  8
Defpoints
 62
     0
100
AcDbPoint
 10
403.8514177779108
 20
87.40703283329457
 30
0.0
  0
POINT
  5
6F4
330
66A
100
AcDbEntity
  8
Defpoints
 62
     0
100
AcDbPoint
 10
399.1190570736947
 20
87.40703283329457
 30
0.0
  0
POINT
  5
6F5
330
66A
100
AcDbEntity
  8
Defpoints
 62
     0
100
AcDbPoint
 10
399.1190570736947
 20
86.58861932583816
 30
0.0
  0
ENDBLK
  5
66C
330
66A
100
AcDbEntity
  8
0
100
AcDbBlockEnd
  0
BLOCK
  5
679
330
678
100
AcDbEntity
  8
0
100
AcDbBlockBegin
  2
*D5
 70
     1
 10
0.0
 20
0.0
 30
0.0
  3
*D5
  1

  0
LINE
  5
6F6
330
678
100
AcDbEntity
  8
0
 62
     0
370
    -2
100
AcDbLine
 10
425.3290540459182
 20
103.343432089935
 30
0.0
 11
425.3290540459182
 21
100.4338006679262
 31
0.0
  0
LINE
  5
6F7
330
678
100
AcDbEntity
  8
0
 62
     0
370
    -2
100
AcDbLine
 10
422.871866991798
 20
103.343432089935
 30
0.0
 11
422.871866991798
 21
100.4338006679262
 31
0.0
  0
LINE
  5
6F8
330
678
100
AcDbEntity
  8
0
 62
     0
370
    -2
100
AcDbLine
 10
427.8290540459183
 20
101.6838006679262
 30
0.0
 11
430.3290540459183
 21
101.6838006679262
 31
0.0
  0
LINE
  5
6F9
330
678
100
AcDbEntity
  8
0
 62
     0
370
    -2
100
AcDbLine
 10
420.371866991798
 20
101.6838006679262
 30
0.0
 11
398.771866991798
 21
101.6838006679262
 31
0.0
  0
LINE
  5
6FA
330
678
100
AcDbEntity
  8
0
 62
     0
370
    -2
100
AcDbLine
 10
425.3290540459182
 20
101.6838006679262
 30
0.0
 11
422.871866991798
 21
101.6838006679262
 31
0.0
  0
INSERT
  5
6FB
330
678
100
AcDbEntity
  8
0
 62
     0
370
    -2
100
AcDbBlockReference
  2
_Open30
 10
425.3290540459182
 20
101.6838006679262
 30
0.0
 41
2.5
 42
2.5
 43
2.5
 50
180.0
  0
INSERT
  5
6FC
330
678
100
AcDbEntity
  8
0
 62
     0
370
    -2
100
AcDbBlockReference
  2
_Open30
 10
422.871866991798
 20
101.6838006679262
 30
0.0
 41
2.5
 42
2.5
 43
2.5
  0
MTEXT
  5
6FD
330
678
100
AcDbEntity
  8
0
 62
     4
100
AcDbMText
 10
408.321866991798
 20
105.4588006679262
 30
0.0
 40
6.299999999999998
 41
0.0
 71
     5
 72
     1
  1
0.25
  7
高6.3
 73
     1
 44
1.0
1001
ACAD
1000
MTEXTBEGIN
1070
    73
1070
     1
1070
    44
1040
1.0
1070
    74
1070
     0
1000
MTEXTEND
  0
POINT
  5
6FE
330
678
100
AcDbEntity
  8
Defpoints
 62
     0
100
AcDbPoint
 10
425.3290540459182
 20
103.593432089935
 30
0.0
  0
POINT
  5
6FF
330
678
100
AcDbEntity
  8
Defpoints
 62
     0
100
AcDbPoint
 10
422.871866991798
 20
103.593432089935
 30
0.0
  0
POINT
  5
700
330
678
100
AcDbEntity
  8
Defpoints
 62
     0
100
AcDbPoint
 10
422.871866991798
 20
101.6838006679262
 30
0.0
  0
ENDBLK
  5
67A
330
678
100
AcDbEntity
  8
0
100
AcDbBlockEnd
  0
BLOCK
  5
687
330
686
100
AcDbEntity
  8
0
100
AcDbBlockBegin
  2
*D6
 70
     1
 10
0.0
 20
0.0
 30
0.0
  3
*D6
  1

  0
LINE
  5
701
330
686
100
AcDbEntity
  8
0
 62
     0
370
    -2
100
AcDbLine
 10
426.9671789519913
 20
97.88734251717265
 30
0.0
 11
426.9671789519913
 21
95.34145044770935
 31
0.0
  0
LINE
  5
702
330
686
100
AcDbEntity
  8
0
 62
     0
370
    -2
100
AcDbLine
 10
423.8729431538486
 20
97.88734251717265
 30
0.0
 11
423.8729431538486
 21
95.34145044770935
 31
0.0
  0
LINE
  5
703
330
686
100
AcDbEntity
  8
0
 62
     0
370
    -2
100
AcDbLine
 10
429.4671789519915
 20
96.59145044770935
 30
0.0
 11
431.9671789519913
 21
96.59145044770935
 31
0.0
  0
LINE
  5
704
330
686
100
AcDbEntity
  8
0
 62
     0
370
    -2
100
AcDbLine
 10
421.3729431538486
 20
96.59145044770935
 30
0.0
 11
409.3729431538486
 21
96.59145044770935
 31
0.0
  0
LINE
  5
705
330
686
100
AcDbEntity
  8
0
 62
     0
370
    -2
100
AcDbLine
 10
426.9671789519913
 20
96.59145044770935
 30
0.0
 11
423.8729431538486
 21
96.59145044770935
 31
0.0
  0
INSERT
  5
706
330
686
100
AcDbEntity
  8
0
 62
     0
370
    -2
100
AcDbBlockReference
  2
_Open30
 10
426.9671789519913
 20
96.59145044770935
 30
0.0
 41
2.5
 42
2.5
 43
2.5
 50
180.0
  0
INSERT
  5
707
330
686
100
AcDbEntity
  8
0
 62
     0
370
    -2
100
AcDbBlockReference
  2
_Open30
 10
423.8729431538486
 20
96.59145044770935
 30
0.0
 41
2.5
 42
2.5
 43
2.5
  0
MTEXT
  5
708
330
686
100
AcDbEntity
  8
0
 62
     4
100
AcDbMText
 10
413.9979431538487
 20
98.71645044770936
 30
0.0
 40
3.0
 41
0.0
 71
     5
 72
     1
  1
1.55
 73
     1
 44
1.0
1001
ACAD
1000
MTEXTBEGIN
1070
    73
1070
     1
1070
    44
1040
1.0
1070
    74
1070
     0
1000
MTEXTEND
  0
POINT
  5
709
330
686
100
AcDbEntity
  8
Defpoints
 62
     0
100
AcDbPoint
 10
426.9671789519913
 20
98.13734251717264
 30
0.0
  0
POINT
  5
70A
330
686
100
AcDbEntity
  8
Defpoints
 62
     0
100
AcDbPoint
 10
423.8729431538486
 20
98.13734251717264
 30
0.0
  0
POINT
  5
70B
330
686
100
AcDbEntity
  8
Defpoints
 62
     0
100
AcDbPoint
 10
423.8729431538486
 20
96.59145044770935
 30
0.0
  0
ENDBLK
  5
688
330
686
100
AcDbEntity
  8
0
100
AcDbBlockEnd
  0
BLOCK
  5
695
330
694
100
AcDbEntity
  8
0
100
AcDbBlockBegin
  2
*D7
 70
     1
 10
0.0
 20
0.0
 30
0.0
  3
*D7
  1

  0
LINE
  5
70C
330
694
100
AcDbEntity
  8
0
 62
     0
370
    -2
100
AcDbLine
 10
428.6963105600769
 20
92.43125280132618
 30
0.0
 11
428.6963105600769
 21
90.1581651389589
 31
0.0
  0
LINE
  5
70D
330
694
100
AcDbEntity
  8
0
 62
     0
370
    -2
100
AcDbLine
 10
424.6920056068852
 20
92.43125280132618
 30
0.0
 11
424.6920056068852
 21
90.1581651389589
 31
0.0
  0
LINE
  5
70E
330
694
100
AcDbEntity
  8
0
 62
     0
370
    -2
100
AcDbLine
 10
431.196310560077
 20
91.4081651389589
 30
0.0
 11
433.6963105600768
 21
91.4081651389589
 31
0.0
  0
LINE
  5
70F
330
694
100
AcDbEntity
  8
0
 62
     0
370
    -2
100
AcDbLine
 10
422.1920056068852
 20
91.4081651389589
 30
0.0
 11
413.8586722735515
 21
91.4081651389589
 31
0.0
  0
LINE
  5
710
330
694
100
AcDbEntity
  8
0
 62
     0
370
    -2
100
AcDbLine
 10
428.6963105600769
 20
91.4081651389589
 30
0.0
 11
424.6920056068852
 21
91.4081651389589
 31
0.0
  0
INSERT
  5
711
330
694
100
AcDbEntity
  8
0
 62
     0
370
    -2
100
AcDbBlockReference
  2
_Open30
 10
428.6963105600769
 20
91.4081651389589
 30
0.0
 41
2.5
 42
2.5
 43
2.5
 50
180.0
  0
INSERT
  5
712
330
694
100
AcDbEntity
  8
0
 62
     0
370
    -2
100
AcDbBlockReference
  2
_Open30
 10
424.6920056068852
 20
91.4081651389589
 30
0.0
 41
2.5
 42
2.5
 43
2.5
  0
MTEXT
  5
713
330
694
100
AcDbEntity
  8
0
 62
     4
100
AcDbMText
 10
416.3170056068852
 20
93.03316513895888
 30
0.0
 40
2.0
 41
0.0
 71
     5
 72
     1
  1
0.8
  7
高2
 73
     1
 44
1.0
1001
ACAD
1000
MTEXTBEGIN
1070
    73
1070
     1
1070
    44
1040
1.0
1070
    74
1070
     0
1000
MTEXTEND
  0
POINT
  5
714
330
694
100
AcDbEntity
  8
Defpoints
 62
     0
100
AcDbPoint
 10
428.6963105600769
 20
92.68125280132618
 30
0.0
  0
POINT
  5
715
330
694
100
AcDbEntity
  8
Defpoints
 62
     0
100
AcDbPoint
 10
424.6920056068852
 20
92.68125280132618
 30
0.0
  0
POINT
  5
716
330
694
100
AcDbEntity
  8
Defpoints
 62
     0
100
AcDbPoint
 10
424.6920056068852
 20
91.4081651389589
 30
0.0
  0
ENDBLK
  5
696
330
694
100
AcDbEntity
  8
0
100
AcDbBlockEnd
  0
BLOCK
  5
6A3
330
6A2
100
AcDbEntity
  8
0
100
AcDbBlockBegin
  2
*D8
 70
     1
 10
0.0
 20
0.0
 30
0.0
  3
*D8
  1

  0
LINE
  5
717
330
6A2
100
AcDbEntity
  8
0
 62
     0
370
    -2
100
AcDbLine
 10
428.6053038580646
 20
87.15703283329457
 30
0.0
 11
428.6053038580646
 21
85.33861932583816
 31
0.0
  0
LINE
  5
718
330
6A2
100
AcDbEntity
  8
0
 62
     0
370
    -2
100
AcDbLine
 10
423.8729431538486
 20
87.15703283329457
 30
0.0
 11
423.8729431538486
 21
85.33861932583816
 31
0.0
  0
LINE
  5
719
330
6A2
100
AcDbEntity
  8
0
 62
     0
370
    -2
100
AcDbLine
 10
431.1053038580646
 20
86.58861932583816
 30
0.0
 11
433.6053038580646
 21
86.58861932583816
 31
0.0
  0
LINE
  5
71A
330
6A2
100
AcDbEntity
  8
0
 62
     0
370
    -2
100
AcDbLine
 10
421.3729431538486
 20
86.58861932583816
 30
0.0
 11
406.6229431538486
 21
86.58861932583816
 31
0.0
  0
LINE
  5
71B
330
6A2
100
AcDbEntity
  8
0
 62
     0
370
    -2
100
AcDbLine
 10
428.6053038580646
 20
86.58861932583816
 30
0.0
 11
423.8729431538486
 21
86.58861932583816
 31
0.0
  0
INSERT
  5
71C
330
6A2
100
AcDbEntity
  8
0
 62
     0
370
    -2
100
AcDbBlockReference
  2
_Open30
 10
428.6053038580646
 20
86.58861932583816
 30
0.0
 41
2.5
 42
2.5
 43
2.5
 50
180.0
  0
INSERT
  5
71D
330
6A2
100
AcDbEntity
  8
0
 62
     0
370
    -2
100
AcDbBlockReference
  2
_Open30
 10
423.8729431538486
 20
86.58861932583816
 30
0.0
 41
2.5
 42
2.5
 43
2.5
  0
MTEXT
  5
71E
330
6A2
100
AcDbEntity
  8
0
 62
     4
100
AcDbMText
 10
412.7479431538485
 20
88.71361932583816
 30
0.0
 40
3.0
 41
0.0
 71
     5
 72
     1
  1
18.93
 73
     1
 44
1.0
1001
ACAD
1000
MTEXTBEGIN
1070
    73
1070
     1
1070
    44
1040
1.0
1070
    74
1070
     0
1000
MTEXTEND
  0
POINT
  5
71F
330
6A2
100
AcDbEntity
  8
Defpoints
 62
     0
100
AcDbPoint
 10
428.6053038580646
 20
87.40703283329457
 30
0.0
  0
POINT
  5
720
330
6A2
100
AcDbEntity
  8
Defpoints
 62
     0
100
AcDbPoint
 10
423.8729431538486
 20
87.40703283329457
 30
0.0
  0
POINT
  5
721
330
6A2
100
AcDbEntity
  8
Defpoints
 62
     0
100
AcDbPoint
 10
423.8729431538486
 20
86.58861932583816
 30
0.0
  0
ENDBLK
  5
6A4
330
6A2
100
AcDbEntity
  8
0
100
AcDbBlockEnd
  0
BLOCK
  5
6B1
330
6B0
100
AcDbEntity
  8
0
100
AcDbBlockBegin
  2
*D9
 70
     1
 10
0.0
 20
0.0
 30
0.0
  3
*D9
  1

  0
LINE
  5
722
330
6B0
100
AcDbEntity
  8
0
 62
     0
370
    -2
100
AcDbLine
 10
425.8008770069263
 20
82.10119262670479
 30
0.0
 11
425.8008770069263
 21
79.79127154982926
 31
0.0
  0
LINE
  5
723
330
6B0
100
AcDbEntity
  8
0
 62
     0
370
    -2
100
AcDbLine
 10
421.2122018047783
 20
82.10119262670479
 30
0.0
 11
421.2122018047783
 21
79.79127154982926
 31
0.0
  0
LINE
  5
724
330
6B0
100
AcDbEntity
  8
0
 62
     0
370
    -2
100
AcDbLine
 10
428.3008770069263
 20
81.04127154982926
 30
0.0
 11
430.8008770069263
 21
81.04127154982926
 31
0.0
  0
LINE
  5
725
330
6B0
100
AcDbEntity
  8
0
 62
     0
370
    -2
100
AcDbLine
 10
418.7122018047785
 20
81.04127154982926
 30
0.0
 11
403.9622018047785
 21
81.04127154982926
 31
0.0
  0
LINE
  5
726
330
6B0
100
AcDbEntity
  8
0
 62
     0
370
    -2
100
AcDbLine
 10
425.8008770069263
 20
81.04127154982926
 30
0.0
 11
421.2122018047783
 21
81.04127154982926
 31
0.0
  0
INSERT
  5
727
330
6B0
100
AcDbEntity
  8
0
 62
     0
370
    -2
100
AcDbBlockReference
  2
_Open30
 10
425.8008770069263
 20
81.04127154982926
 30
0.0
 41
2.5
 42
2.5
 43
2.5
 50
180.0
  0
INSERT
  5
728
330
6B0
100
AcDbEntity
  8
0
 62
     0
370
    -2
100
AcDbBlockReference
  2
_Open30
 10
421.2122018047783
 20
81.04127154982926
 30
0.0
 41
2.5
 42
2.5
 43
2.5
  0
MTEXT
  5
729
330
6B0
100
AcDbEntity
  8
0
 62
     4
100
AcDbMText
 10
410.0872018047785
 20
83.16627154982926
 30
0.0
 40
3.0
 41
0.0
 71
     5
 72
     1
  1
13.77
 73
     1
 44
1.0
1001
ACAD
1000
MTEXTBEGIN
1070
    73
1070
     1
1070
    44
1040
1.0
1070
    74
1070
     0
1000
MTEXTEND
  0
POINT
  5
72A
330
6B0
100
AcDbEntity
  8
Defpoints
 62
     0
100
AcDbPoint
 10
425.8008770069263
 20
82.35119262670478
 30
0.0
  0
POINT
  5
72B
330
6B0
100
AcDbEntity
  8
Defpoints
 62
     0
100
AcDbPoint
 10
421.2122018047783
 20
82.35119262670478
 30
0.0
  0
POINT
  5
72C
330
6B0
100
AcDbEntity
  8
Defpoints
 62
     0
100
AcDbPoint
 10
421.2122018047783
 20
81.04127154982926
 30
0.0
  0
ENDBLK
  5
6B2
330
6B0
100
AcDbEntity
  8
0
100
AcDbBlockEnd
  0
BLOCK
  5
6BF
330
6BE
100
AcDbEntity
  8
0
100
AcDbBlockBegin
  2
*D10
 70
     1
 10
0.0
 20
0.0
 30
0.0
  3
*D10
  1

  0
LINE
  5
72D
330
6BE
100
AcDbEntity
  8
0
 62
     0
370
    -2
100
AcDbLine
 10
418.7045941737761
 20
113.0306839449791
 30
0.0
 11
418.7045941737761
 21
120.4272174229169
 31
0.0
  0
LINE
  5
72E
330
6BE
100
AcDbEntity
  8
0
 62
     0
370
    -2
100
AcDbLine
 10
408.7661198042859
 20
113.0306839449791
 30
0.0
 11
408.7661198042859
 21
120.4272174229169
 31
0.0
  0
LINE
  5
72F
330
6BE
100
AcDbEntity
  8
0
 62
     0
370
    -2
100
AcDbLine
 10
416.2045941737757
 20
119.1772174229169
 30
0.0
 11
411.2661198042858
 21
119.1772174229169
 31
0.0
  0
INSERT
  5
730
330
6BE
100
AcDbEntity
  8
0
 62
     0
370
    -2
100
AcDbBlockReference
  2
_Open30
 10
418.7045941737761
 20
119.1772174229169
 30
0.0
 41
2.5
 42
2.5
 43
2.5
  0
INSERT
  5
731
330
6BE
100
AcDbEntity
  8
0
 62
     0
370
    -2
100
AcDbBlockReference
  2
_Open30
 10
408.7661198042859
 20
119.1772174229169
 30
0.0
 41
2.5
 42
2.5
 43
2.5
 50
180.0
  0
MTEXT
  5
732
330
6BE
100
AcDbEntity
  8
0
 62
     4
100
AcDbMText
 10
411.6297473353661
 20
121.3022174229169
 30
0.0
 40
3.0
 41
0.0
 71
     5
 72
     1
  1
9.94
 73
     1
 44
1.0
1001
ACAD
1000
MTEXTBEGIN
1070
    73
1070
     1
1070
    44
1040
1.0
1070
    74
1070
     0
1000
MTEXTEND
  0
POINT
  5
733
330
6BE
100
AcDbEntity
  8
Defpoints
 62
     0
100
AcDbPoint
 10
418.7045941737761
 20
112.7806839449791
 30
0.0
  0
POINT
  5
734
330
6BE
100
AcDbEntity
  8
Defpoints
 62
     0
100
AcDbPoint
 10
408.7661198042859
 20
112.7806839449791
 30
0.0
  0
POINT
  5
735
330
6BE
100
AcDbEntity
  8
Defpoints
 62
     0
100
AcDbPoint
 10
408.7661198042859
 20
119.1772174229169
 30
0.0
  0
ENDBLK
  5
6C0
330
6BE
100
AcDbEntity
  8
0
100
AcDbBlockEnd
  0
BLOCK
  5
737
330
736
100
AcDbEntity
  8
0
100
AcDbBlockBegin
  2
*D11
 70
     1
 10
0.0
 20
0.0
 30
0.0
  3
*D11
  1

  0
LINE
  5
9E5
330
736
100
AcDbEntity
  8
0
 62
     0
370
    -2
100
AcDbLine
 10
-54.399747
 20
19.886601
 30
0.0
 11
-54.399747
 21
6.502708999999997
 31
0.0
  0
LINE
  5
9E6
330
736
100
AcDbEntity
  8
0
 62
     0
370
    -2
100
AcDbLine
 10
85.60025300000003
 20
19.886601
 30
0.0
 11
85.60025300000003
 21
6.502708999999997
 31
0.0
  0
LINE
  5
9E7
330
736
100
AcDbEntity
  8
0
 62
     0
370
    -2
100
AcDbLine
 10
-51.899747
 20
7.752708999999997
 30
0.0
 11
83.10025300000003
 21
7.752708999999997
 31
0.0
  0
INSERT
  5
9E8
330
736
100
AcDbEntity
  8
0
 62
     0
370
    -2
100
AcDbBlockReference
  2
_Open30
 10
-54.399747
 20
7.752708999999997
 30
0.0
 41
2.5
 42
2.5
 43
2.5
 50
180.0
  0
INSERT
  5
9E9
330
736
100
AcDbEntity
  8
0
 62
     0
370
    -2
100
AcDbBlockReference
  2
_Open30
 10
85.60025300000003
 20
7.752708999999997
 30
0.0
 41
2.5
 42
2.5
 43
2.5
  0
MTEXT
  5
9EA
330
736
100
AcDbEntity
  8
0
 62
     4
100
AcDbMText
 10
15.60025300000001
 20
9.877708999999997
 30
0.0
 40
3.0
 41
0.0
 71
     5
 72
     1
  1
280
 73
     1
 44
1.0
1001
ACAD
1000
MTEXTBEGIN
1070
    73
1070
     1
1070
    44
1040
1.0
1070
    74
1070
     0
1000
MTEXTEND
  0
POINT
  5
9EB
330
736
100
AcDbEntity
  8
Defpoints
 62
     0
100
AcDbPoint
 10
-54.399747
 20
20.136601
 30
0.0
  0
POINT
  5
9EC
330
736
100
AcDbEntity
  8
Defpoints
 62
     0
100
AcDbPoint
 10
85.60025300000003
 20
20.136601
 30
0.0
  0
POINT
  5
9ED
330
736
100
AcDbEntity
  8
Defpoints
 62
     0
100
AcDbPoint
 10
85.60025300000003
 20
7.752708999999997
 30
0.0
  0
ENDBLK
  5
738
330
736
100
AcDbEntity
  8
0
100
AcDbBlockEnd
  0
BLOCK
  5
743
330
742
100
AcDbEntity
  8
0
100
AcDbBlockBegin
  2
*D12
 70
     1
 10
0.0
 20
0.0
 30
0.0
  3
*D12
  1

  0
LINE
  5
9EE
330
742
100
AcDbEntity
  8
0
 62
     0
370
    -2
100
AcDbLine
 10
-54.64974699999999
 20
20.136601
 30
0.0
 11
-67.87466800000003
 21
20.136601
 31
0.0
  0
LINE
  5
9EF
330
742
100
AcDbEntity
  8
0
 62
     0
370
    -2
100
AcDbLine
 10
-54.64974699999999
 20
120.136601
 30
0.0
 11
-67.874668
 21
120.136601
 31
0.0
  0
LINE
  5
9F0
330
742
100
AcDbEntity
  8
0
 62
     0
370
    -2
100
AcDbLine
 10
-66.62466800000003
 20
22.636601
 30
0.0
 11
-66.624668
 21
117.636601
 31
0.0
  0
INSERT
  5
9F1
330
742
100
AcDbEntity
  8
0
 62
     0
370
    -2
100
AcDbBlockReference
  2
_Open30
 10
-66.62466800000003
 20
20.136601
 30
0.0
 41
2.5
 42
2.5
 43
2.5
 50
270.0
  0
INSERT
  5
9F2
330
742
100
AcDbEntity
  8
0
 62
     0
370
    -2
100
AcDbBlockReference
  2
_Open30
 10
-66.624668
 20
120.136601
 30
0.0
 41
2.5
 42
2.5
 43
2.5
 50
90.0
  0
MTEXT
  5
9F3
330
742
100
AcDbEntity
  8
0
 62
     4
100
AcDbMText
 10
-68.74966800000002
 20
70.13660099999999
 30
0.0
 40
3.0
 41
0.0
 71
     5
 72
     1
  1
200
 11
0.0000000000000001
 21
1.0
 31
0.0
 73
     1
 44
1.0
1001
ACAD
1000
MTEXTBEGIN
1070
    73
1070
     1
1070
    44
1040
1.0
1070
    74
1070
     0
1000
MTEXTEND
  0
POINT
  5
9F4
330
742
100
AcDbEntity
  8
Defpoints
 62
     0
100
AcDbPoint
 10
-54.399747
 20
20.136601
 30
0.0
  0
POINT
  5
9F5
330
742
100
AcDbEntity
  8
Defpoints
 62
     0
100
AcDbPoint
 10
-54.399747
 20
120.136601
 30
0.0
  0
POINT
  5
9F6
330
742
100
AcDbEntity
  8
Defpoints
 62
     0
100
AcDbPoint
 10
-66.624668
 20
120.136601
 30
0.0
  0
ENDBLK
  5
744
330
742
100
AcDbEntity
  8
0
100
AcDbBlockEnd
  0
BLOCK
  5
758
330
757
100
AcDbEntity
  8
0
100
AcDbBlockBegin
  2
*D13
 70
     1
 10
0.0
 20
0.0
 30
0.0
  3
*D13
  1

  0
LINE
  5
9F7
330
757
100
AcDbEntity
  8
0
 62
     0
370
    -2
100
AcDbLine
 10
-24.402255
 20
15.136601
 30
0.0
 11
-76.16207400000003
 21
15.13660100000002
 31
0.0
  0
LINE
  5
9F8
330
757
100
AcDbEntity
  8
0
 62
     0
370
    -2
100
AcDbLine
 10
-4.649747
 20
131.136601
 30
0.0
 11
-76.162074
 21
131.136601
 31
0.0
  0
LINE
  5
9F9
330
757
100
AcDbEntity
  8
0
 62
     0
370
    -2
100
AcDbLine
 10
-74.91207400000003
 20
17.63660100000002
 30
0.0
 11
-74.912074
 21
128.636601
 31
0.0
  0
INSERT
  5
9FA
330
757
100
AcDbEntity
  8
0
 62
     0
370
    -2
100
AcDbBlockReference
  2
_Open30
 10
-74.91207400000003
 20
15.13660100000001
 30
0.0
 41
2.5
 42
2.5
 43
2.5
 50
270.0
  0
INSERT
  5
9FB
330
757
100
AcDbEntity
  8
0
 62
     0
370
    -2
100
AcDbBlockReference
  2
_Open30
 10
-74.912074
 20
131.136601
 30
0.0
 41
2.5
 42
2.5
 43
2.5
 50
90.0
  0
MTEXT
  5
9FC
330
757
100
AcDbEntity
  8
0
 62
     4
100
AcDbMText
 10
-77.03707400000003
 20
73.13660100000001
 30
0.0
 40
3.0
 41
0.0
 71
     5
 72
     1
  1
240
 11
0.0000000000000001
 21
1.0
 31
0.0
 73
     1
 44
1.0
1001
ACAD
1000
MTEXTBEGIN
1070
    73
1070
     1
1070
    44
1040
1.0
1070
    74
1070
     0
1000
MTEXTEND
  0
POINT
  5
9FD
330
757
100
AcDbEntity
  8
Defpoints
 62
     0
100
AcDbPoint
 10
-24.152255
 20
15.136601
 30
0.0
  0
POINT
  5
9FE
330
757
100
AcDbEntity
  8
Defpoints
 62
     0
100
AcDbPoint
 10
-4.399747
 20
131.136601
 30
0.0
  0
POINT
  5
9FF
330
757
100
AcDbEntity
  8
Defpoints
 62
     0
100
AcDbPoint
 10
-74.912074
 20
131.136601
 30
0.0
  0
ENDBLK
  5
759
330
757
100
AcDbEntity
  8
0
100
AcDbBlockEnd
  0
BLOCK
  5
76F
330
76E
100
AcDbEntity
  8
0
100
AcDbBlockBegin
  2
*D14
 70
     1
 10
0.0
 20
0.0
 30
0.0
  3
*D14
  1

  0
LINE
  5
A00
330
76E
100
AcDbEntity
  8
0
 62
     0
370
    -2
100
AcDbLine
 10
-170.142255
 20
29.886601
 30
0.0
 11
-170.142255
 21
6.502708999999999
 31
0.0
  0
LINE
  5
A01
330
76E
100
AcDbEntity
  8
0
 62
     0
370
    -2
100
AcDbLine
 10
-105.142255
 20
29.886601
 30
0.0
 11
-105.142255
 21
6.502708999999999
 31
0.0
  0
LINE
  5
A02
330
76E
100
AcDbEntity
  8
0
 62
     0
370
    -2
100
AcDbLine
 10
-167.642255
 20
7.752708999999997
 30
0.0
 11
-107.642255
 21
7.752708999999997
 31
0.0
  0
INSERT
  5
A03
330
76E
100
AcDbEntity
  8
0
 62
     0
370
    -2
100
AcDbBlockReference
  2
_Open30
 10
-170.142255
 20
7.752708999999997
 30
0.0
 41
2.5
 42
2.5
 43
2.5
 50
180.0
  0
INSERT
  5
A04
330
76E
100
AcDbEntity
  8
0
 62
     0
370
    -2
100
AcDbBlockReference
  2
_Open30
 10
-105.142255
 20
7.752708999999997
 30
0.0
 41
2.5
 42
2.5
 43
2.5
  0
MTEXT
  5
A05
330
76E
100
AcDbEntity
  8
0
 62
     4
100
AcDbMText
 10
-137.642255
 20
9.877708999999997
 30
0.0
 40
3.0
 41
0.0
 71
     5
 72
     1
  1
130
 73
     1
 44
1.0
1001
ACAD
1000
MTEXTBEGIN
1070
    73
1070
     1
1070
    44
1040
1.0
1070
    74
1070
     0
1000
MTEXTEND
  0
POINT
  5
A06
330
76E
100
AcDbEntity
  8
Defpoints
 62
     0
100
AcDbPoint
 10
-170.142255
 20
30.136601
 30
0.0
  0
POINT
  5
A07
330
76E
100
AcDbEntity
  8
Defpoints
 62
     0
100
AcDbPoint
 10
-105.142255
 20
30.136601
 30
0.0
  0
POINT
  5
A08
330
76E
100
AcDbEntity
  8
Defpoints
 62
     0
100
AcDbPoint
 10
-105.142255
 20
7.752708999999997
 30
0.0
  0
ENDBLK
  5
770
330
76E
100
AcDbEntity
  8
0
100
AcDbBlockEnd
  0
BLOCK
  5
7F7
330
7F5
100
AcDbEntity
  8
0
100
AcDbBlockBegin
  2
_DotSmall
 70
     0
 10
0.0
 20
0.0
 30
0.0
  3
_DotSmall
  1

  0
LWPOLYLINE
  5
7F6
330
7F5
100
AcDbEntity
  8
0
  6
ByBlock
 62
     0
100
AcDbPolyline
 90
        2
 70
     1
 43
0.5
 10
-0.0625
 20
0.0
 42
1.0
 10
0.0625
 20
0.0
 42
1.0
  0
ENDBLK
  5
7F8
330
7F5
100
AcDbEntity
  8
0
100
AcDbBlockEnd
  0
BLOCK
  5
82C
330
82B
100
AcDbEntity
  8
0
100
AcDbBlockBegin
  2
*D16
 70
     1
 10
0.0
 20
0.0
 30
0.0
  3
*D16
  1

  0
LINE
  5
9DC
330
82B
100
AcDbEntity
  8
0
 62
     0
370
    -2
100
AcDbLine
 10
-167.673566
 20
109.386601
 30
0.0
 11
-167.673566
 21
137.211062
 31
0.0
  0
LINE
  5
9DD
330
82B
100
AcDbEntity
  8
0
 62
     0
370
    -2
100
AcDbLine
 10
-107.611005
 20
109.386601
 30
0.0
 11
-107.611005
 21
137.211062
 31
0.0
  0
LINE
  5
9DE
330
82B
100
AcDbEntity
  8
0
 62
     0
370
    -2
100
AcDbLine
 10
-165.173566
 20
135.961062
 30
0.0
 11
-110.111005
 21
135.961062
 31
0.0
  0
INSERT
  5
9DF
330
82B
100
AcDbEntity
  8
0
 62
     0
370
    -2
100
AcDbBlockReference
  2
_Open30
 10
-167.673566
 20
135.961062
 30
0.0
 41
2.5
 42
2.5
 43
2.5
 50
180.0
  0
INSERT
  5
9E0
330
82B
100
AcDbEntity
  8
0
 62
     0
370
    -2
100
AcDbBlockReference
  2
_Open30
 10
-107.611005
 20
135.961062
 30
0.0
 41
2.5
 42
2.5
 43
2.5
  0
MTEXT
  5
9E1
330
82B
100
AcDbEntity
  8
0
 62
     4
100
AcDbMText
 10
-137.6422855
 20
138.086062
 30
0.0
 40
3.0
 41
0.0
 71
     5
 72
     1
  1
60.06
 73
     1
 44
1.0
1001
ACAD
1000
MTEXTBEGIN
1070
    73
1070
     1
1070
    44
1040
1.0
1070
    74
1070
     0
1000
MTEXTEND
  0
POINT
  5
9E2
330
82B
100
AcDbEntity
  8
Defpoints
 62
     0
100
AcDbPoint
 10
-167.673566
 20
109.136601
 30
0.0
  0
POINT
  5
9E3
330
82B
100
AcDbEntity
  8
Defpoints
 62
     0
100
AcDbPoint
 10
-107.611005
 20
109.136601
 30
0.0
  0
POINT
  5
9E4
330
82B
100
AcDbEntity
  8
Defpoints
 62
     0
100
AcDbPoint
 10
-107.611005
 20
135.961062
 30
0.0
  0
ENDBLK
  5
82D
330
82B
100
AcDbEntity
  8
0
100
AcDbBlockEnd
  0
ENDSEC
  0
SECTION
  2
ENTITIES
  0
TEXT
  5
A0
330
36
100
AcDbEntity
  8
0
 62
     3
100
AcDbText
 10
104.855544
 20
-100.903648
 30
0.0
 40
3.2
  1
FREE
  7
高3.2
100
AcDbText
  0
LINE
  5
A1
330
36
100
AcDbEntity
  8
0
 62
     3
100
AcDbLine
 10
-160.142255
 20
20.136601
 30
0.0
 11
-115.142255
 21
20.136601
 31
0.0
  0
CIRCLE
  5
A2
330
36
100
AcDbEntity
  8
0
 62
     3
100
AcDbCircle
 10
6.259485999999997
 20
-40.43344199999999
 30
0.0
 40
8.96
  0
LINE
  5
A5
330
36
100
AcDbEntity
  8
0
 62
     3
100
AcDbLine
 10
-157.642255
 20
120.136601
 30
0.0
 11
-117.642255
 21
120.136601
 31
0.0
  0
ARC
  5
A6
330
36
100
AcDbEntity
  8
0
 62
     3
100
AcDbCircle
 10
-115.142255
 20
30.136601
 30
0.0
 40
10.0
100
AcDbArc
 50
270.0
 51
0.0
  0
ARC
  5
A7
330
36
100
AcDbEntity
  8
0
 62
     3
100
AcDbCircle
 10
-160.142255
 20
30.136601
 30
0.0
 40
10.0
100
AcDbArc
 50
180.0
 51
270.0
  0
ARC
  5
A8
330
36
100
AcDbEntity
  8
0
 62
     3
100
AcDbCircle
 10
-117.642255
 20
110.136601
 30
0.0
 40
10.0
100
AcDbArc
 50
0.0
 51
90.0
  0
ARC
  5
A9
330
36
100
AcDbEntity
  8
0
 62
     3
100
AcDbCircle
 10
-157.642255
 20
110.136601
 30
0.0
 40
10.0
100
AcDbArc
 50
90.0
 51
180.0
  0
LINE
  5
AA
330
36
100
AcDbEntity
  8
0
 62
     3
100
AcDbLine
 10
-105.142255
 20
30.136601
 30
0.0
 11
-107.642255
 21
110.136601
 31
0.0
  0
LINE
  5
AB
330
36
100
AcDbEntity
  8
0
 62
     3
100
AcDbLine
 10
-170.137357
 20
30.44956
 30
0.0
 11
-167.642255
 21
110.136601
 31
0.0
  0
ARC
  5
AC
330
36
100
AcDbEntity
  8
0
 62
     7
100
AcDbCircle
 10
-117.642255
 20
110.136601
 30
0.0
 40
9.0
100
AcDbArc
 50
0.0
 51
90.0
  0
LINE
  5
AD
330
36
100
AcDbEntity
  8
0
 62
     3
100
AcDbLine
 10
-126.395451
 20
108.188915
 30
0.0
 11
-126.395451
 21
82.18891500000003
 31
0.0
  0
LINE
  5
AE
330
36
100
AcDbEntity
  8
0
 62
     3
100
AcDbLine
 10
-113.895451
 20
108.188915
 30
0.0
 11
-113.895451
 21
82.18891500000003
 31
0.0
  0
LINE
  5
AF
330
36
100
AcDbEntity
  8
0
 62
     3
100
AcDbLine
 10
-126.395451
 20
82.18891500000003
 30
0.0
 11
-113.895451
 21
82.18891500000003
 31
0.0
  0
LINE
  5
B0
330
36
100
AcDbEntity
  8
0
 62
     3
100
AcDbLine
 10
-113.895451
 20
108.188915
 30
0.0
 11
-126.395451
 21
108.188915
 31
0.0
  0
LINE
  5
B1
330
36
100
AcDbEntity
  8
0
 62
     3
100
AcDbLine
 10
-159.892255
 20
15.136601
 30
0.0
 11
-150.392255
 21
15.136601
 31
0.0
  0
LINE
  5
B2
330
36
100
AcDbEntity
  8
0
 62
     3
100
AcDbLine
 10
-160.142255
 20
20.136601
 30
0.0
 11
-159.892255
 21
15.136601
 31
0.0
  0
LINE
  5
B3
330
36
100
AcDbEntity
  8
0
 62
     3
100
AcDbLine
 10
-150.392255
 20
15.136601
 30
0.0
 11
-150.142255
 21
20.136601
 31
0.0
  0
LINE
  5
B4
330
36
100
AcDbEntity
  8
0
 62
     3
100
AcDbLine
 10
-115.392255
 20
15.136601
 30
0.0
 11
-115.142255
 21
20.136601
 31
0.0
  0
LINE
  5
B5
330
36
100
AcDbEntity
  8
0
 62
     3
100
AcDbLine
 10
-124.892255
 20
15.136601
 30
0.0
 11
-115.392255
 21
15.136601
 31
0.0
  0
LINE
  5
B6
330
36
100
AcDbEntity
  8
0
 62
     3
100
AcDbLine
 10
-125.142255
 20
20.136601
 30
0.0
 11
-124.892255
 21
15.136601
 31
0.0
  0
LINE
  5
B7
330
36
100
AcDbEntity
  8
0
 62
     3
100
AcDbLine
 10
-54.399747
 20
20.136601
 30
0.0
 11
85.60025300000003
 21
20.136601
 31
0.0
  0
LINE
  5
B8
330
36
100
AcDbEntity
  8
0
 62
     3
100
AcDbLine
 10
-54.399747
 20
120.136601
 30
0.0
 11
85.60025300000003
 21
120.136601
 31
0.0
  0
LINE
  5
B9
330
36
100
AcDbEntity
  8
0
 62
     3
100
AcDbLine
 10
-54.399747
 20
120.136601
 30
0.0
 11
-54.399747
 21
20.136601
 31
0.0
  0
LINE
  5
BA
330
36
100
AcDbEntity
  8
0
 62
     3
100
AcDbLine
 10
85.60025300000003
 20
120.136601
 30
0.0
 11
85.60025300000003
 21
20.136601
 31
0.0
  0
LINE
  5
BB
330
36
100
AcDbEntity
  8
0
 62
     3
100
AcDbLine
 10
85.60025300000003
 20
40.136601
 30
0.0
 11
-54.399747
 21
40.136601
 31
0.0
  0
LINE
  5
BC
330
36
100
AcDbEntity
  8
0
 62
     3
100
AcDbLine
 10
-105.454755
 20
40.136601
 30
0.0
 11
-106.455243
 21
40.136601
 31
0.0
  0
LINE
  5
BD
330
36
100
AcDbEntity
  8
0
 62
     3
100
AcDbLine
 10
-168.833553
 20
40.136601
 30
0.0
 11
-169.834043
 21
40.136601
 31
0.0
  0
LINE
  5
BE
330
36
100
AcDbEntity
  8
0
 62
     3
100
AcDbLine
 10
79.100253
 20
120.136601
 30
0.0
 11
76.35783899999998
 21
124.886601
 31
0.0
  0
LINE
  5
BF
330
36
100
AcDbEntity
  8
0
 62
     3
100
AcDbLine
 10
-36.899747
 20
120.136601
 30
0.0
 11
-34.157333
 21
124.886601
 31
0.0
  0
LINE
  5
C0
330
36
100
AcDbEntity
  8
0
 62
     3
100
AcDbLine
 10
-34.157333
 20
124.886601
 30
0.0
 11
-13.157333
 21
128.136601
 31
0.0
  0
LINE
  5
C1
330
36
100
AcDbEntity
  8
0
 62
     3
100
AcDbLine
 10
55.357839
 20
128.136601
 30
0.0
 11
76.35783899999998
 21
124.886601
 31
0.0
  0
LINE
  5
C2
330
36
100
AcDbEntity
  8
0
 62
     3
100
AcDbLine
 10
-11.899747
 20
122.636601
 30
0.0
 11
54.100253
 21
122.636601
 31
0.0
  0
LINE
  5
C3
330
36
100
AcDbEntity
  8
0
 62
     3
100
AcDbLine
 10
-4.399747
 20
131.136601
 30
0.0
 11
46.600253
 21
131.136601
 31
0.0
  0
LINE
  5
C4
330
36
100
AcDbEntity
  8
0
 62
     3
100
AcDbLine
 10
55.357839
 20
128.136601
 30
0.0
 11
46.600253
 21
131.136601
 31
0.0
  0
LINE
  5
C5
330
36
100
AcDbEntity
  8
0
 62
     3
100
AcDbLine
 10
-13.157333
 20
128.136601
 30
0.0
 11
-4.399747
 21
131.136601
 31
0.0
  0
LINE
  5
C6
330
36
100
AcDbEntity
  8
0
 62
     3
100
AcDbLine
 10
54.100253
 20
122.636601
 30
0.0
 11
46.600253
 21
126.136601
 31
0.0
  0
LINE
  5
C7
330
36
100
AcDbEntity
  8
0
 62
     3
100
AcDbLine
 10
-11.899747
 20
122.636601
 30
0.0
 11
-4.399747
 21
126.136601
 31
0.0
  0
LINE
  5
C8
330
36
100
AcDbEntity
  8
0
 62
     3
100
AcDbLine
 10
-4.399747
 20
126.136601
 30
0.0
 11
46.600253
 21
126.136601
 31
0.0
  0
LINE
  5
C9
330
36
100
AcDbEntity
  8
0
 62
     3
100
AcDbLine
 10
-143.142255
 20
131.136601
 30
0.0
 11
-132.142255
 21
131.136601
 31
0.0
  0
LINE
  5
CA
330
36
100
AcDbEntity
  8
0
 62
     3
100
AcDbLine
 10
-143.142255
 20
124.886601
 30
0.0
 11
-132.142255
 21
124.886601
 31
0.0
  0
LINE
  5
CB
330
36
100
AcDbEntity
  8
0
 62
     3
100
AcDbLine
 10
-132.142255
 20
120.136601
 30
0.0
 11
-132.142255
 21
131.136601
 31
0.0
  0
LINE
  5
CC
330
36
100
AcDbEntity
  8
0
 62
     3
100
AcDbLine
 10
-143.142255
 20
120.136601
 30
0.0
 11
-143.142255
 21
131.136601
 31
0.0
  0
LINE
  5
CD
330
36
100
AcDbEntity
  8
0
 62
     3
100
AcDbLine
 10
-24.152255
 20
15.136601
 30
0.0
 11
-14.652255
 21
15.136601
 31
0.0
  0
LINE
  5
CE
330
36
100
AcDbEntity
  8
0
 62
     3
100
AcDbLine
 10
-14.652255
 20
15.136601
 30
0.0
 11
-14.402255
 21
20.136601
 31
0.0
  0
LINE
  5
CF
330
36
100
AcDbEntity
  8
0
 62
     3
100
AcDbLine
 10
-24.402255
 20
20.136601
 30
0.0
 11
-24.152255
 21
15.136601
 31
0.0
  0
LINE
  5
D0
330
36
100
AcDbEntity
  8
0
 62
     3
100
AcDbLine
 10
70.84774499999998
 20
15.136601
 30
0.0
 11
80.34774499999997
 21
15.136601
 31
0.0
  0
LINE
  5
D1
330
36
100
AcDbEntity
  8
0
 62
     3
100
AcDbLine
 10
80.34774499999997
 20
15.136601
 30
0.0
 11
80.59774499999997
 21
20.136601
 31
0.0
  0
LINE
  5
D2
330
36
100
AcDbEntity
  8
0
 62
     3
100
AcDbLine
 10
70.59774499999997
 20
20.136601
 30
0.0
 11
70.84774499999998
 21
15.136601
 31
0.0
  0
LINE
  5
D3
330
36
100
AcDbEntity
  8
0
 62
     3
100
AcDbLine
 10
170.386923
 20
164.53603
 30
0.0
 11
-219.613077
 21
164.53603
 31
0.0
  0
TEXT
  5
E4
330
36
100
AcDbEntity
  8
0
 62
     3
100
AcDbText
 10
74.02461615134416
 20
-88.070695
 30
0.0
 40
4.5
  1
RTB-300D-100V
 41
0.8
  7
高4.5
100
AcDbText
  0
LINE
  5
E5
330
36
100
AcDbEntity
  8
0
100
AcDbLine
 10
96.57307614678323
 20
-19.600879
 30
0.0
 11
96.57307614678323
 21
-47.32087899999998
 31
0.0
  0
LINE
  5
E6
330
36
100
AcDbEntity
  8
0
 62
     3
100
AcDbLine
 10
147.0131061467832
 20
-19.600879
 30
0.0
 11
147.0131061467832
 21
-47.32087899999998
 31
0.0
  0
LINE
  5
FE
330
36
100
AcDbEntity
  8
0
100
AcDbLine
 10
-160.008707
 20
16.285979
 30
0.0
 11
-180.535359
 21
23.442607
 31
0.0
  0
CIRCLE
  5
FF
330
36
100
AcDbEntity
  8
0
100
AcDbCircle
 10
-185.256634
 20
25.088682
 30
0.0
 40
5.0
  0
TEXT
  5
100
330
36
100
AcDbEntity
  8
0
 62
     4
100
AcDbText
 10
-187.2496155788241
 20
21.64021017507415
 30
0.0
 40
6.299999999999998
  1
6
  7
高6.3
100
AcDbText
  0
LINE
  5
106
330
36
100
AcDbEntity
  8
0
100
AcDbLine
 10
-116.516584
 20
98.20389200000001
 30
0.0
 11
-96.63064400000001
 21
112.451527
 31
0.0
  0
CIRCLE
  5
107
330
36
100
AcDbEntity
  8
0
100
AcDbCircle
 10
-92.566175
 20
115.363587
 30
0.0
 40
5.0
  0
TEXT
  5
108
330
36
100
AcDbEntity
  8
0
 62
     4
100
AcDbText
 10
-94.55915657882412
 20
111.9151151750741
 30
0.0
 40
6.299999999999998
  1
7
  7
高6.3
100
AcDbText
  0
LINE
  5
10E
330
36
100
AcDbEntity
  8
0
100
AcDbLine
 10
-164.172241
 20
58.42129499999999
 30
0.0
 11
-180.845507
 21
67.319505
 31
0.0
  0
CIRCLE
  5
10F
330
36
100
AcDbEntity
  8
0
100
AcDbCircle
 10
-185.256634
 20
69.67364100000001
 30
0.0
 40
5.0
  0
TEXT
  5
110
330
36
100
AcDbEntity
  8
0
 62
     4
100
AcDbText
 10
-187.2496155788241
 20
66.22516917507415
 30
0.0
 40
6.299999999999998
  1
8
  7
高6.3
100
AcDbText
  0
CIRCLE
  5
117
330
36
100
AcDbEntity
  8
0
100
AcDbCircle
 10
59.92876412076793
 20
142.7442473150436
 30
0.0
 40
5.0
  0
TEXT
  5
118
330
36
100
AcDbEntity
  8
0
 62
     4
100
AcDbText
 10
58.94477271597843
 20
139.4207344824956
 30
0.0
 40
6.299999999999998
  1
1
  7
高6.3
100
AcDbText
  0
CIRCLE
  5
11F
330
36
100
AcDbEntity
  8
0
100
AcDbCircle
 10
72.50551614917367
 20
142.5198551027946
 30
0.0
 40
5.0
  0
TEXT
  5
120
330
36
100
AcDbEntity
  8
0
 62
     4
100
AcDbText
 10
70.51253457034956
 20
139.0713832778689
 30
0.0
 40
6.299999999999998
  1
3
  7
高6.3
100
AcDbText
  0
LINE
  5
136
330
36
100
AcDbEntity
  8
0
100
AcDbLine
 10
-137.020361
 20
107.984461
 30
0.0
 11
-180.640407
 21
126.137041
 31
0.0
  0
CIRCLE
  5
137
330
36
100
AcDbEntity
  8
0
100
AcDbCircle
 10
-185.256634
 20
128.058094
 30
0.0
 40
5.0
  0
TEXT
  5
138
330
36
100
AcDbEntity
  8
0
 62
     4
100
AcDbText
 10
-187.2496155788241
 20
124.6096221750741
 30
0.0
 40
6.299999999999998
  1
9
  7
高6.3
100
AcDbText
  0
LINE
  5
13E
330
36
100
AcDbEntity
  8
0
100
AcDbLine
 10
-161.142943
 20
95.93660099999999
 30
0.0
 11
-180.622199
 21
103.82467
 31
0.0
  0
CIRCLE
  5
13F
330
36
100
AcDbEntity
  8
0
100
AcDbCircle
 10
-185.256634
 20
105.701371
 30
0.0
 40
5.0
  0
TEXT
  5
140
330
36
100
AcDbEntity
  8
0
 62
     4
100
AcDbText
 10
-187.9635089593189
 20
103.3423053717911
 30
0.0
 40
4.5
  1
10
  7
高4.5
100
AcDbText
  0
TEXT
  5
141
330
36
100
AcDbEntity
  8
0
 62
     3
100
AcDbText
 10
133.755399
 20
-101.486514
 30
0.0
 40
3.2
  1
2005.3.4
  7
高3.2
100
AcDbText
  0
LINE
  5
14B
330
36
100
AcDbEntity
  8
0
100
AcDbLine
 10
65.60025300000001
 20
103.136601
 30
0.0
 11
65.60025300000001
 21
94.13660099999999
 31
0.0
  0
LINE
  5
14C
330
36
100
AcDbEntity
  8
0
100
AcDbLine
 10
64.60025300000001
 20
103.136601
 30
0.0
 11
64.60025300000001
 21
94.13660099999999
 31
0.0
  0
ARC
  5
14D
330
36
100
AcDbEntity
  8
0
100
AcDbCircle
 10
65.10025300000001
 20
94.13660099999999
 30
0.0
 40
0.5
100
AcDbArc
 50
180.0
 51
0.0
  0
ARC
  5
14E
330
36
100
AcDbEntity
  8
0
100
AcDbCircle
 10
65.10025300000001
 20
103.136601
 30
0.0
 40
0.5
100
AcDbArc
 50
0.0
 51
180.0
  0
LINE
  5
14F
330
36
100
AcDbEntity
  8
0
100
AcDbLine
 10
65.60025300000001
 20
88.13660099999998
 30
0.0
 11
65.60025300000001
 21
79.136601
 31
0.0
  0
LINE
  5
150
330
36
100
AcDbEntity
  8
0
100
AcDbLine
 10
64.60025300000001
 20
88.13660099999998
 30
0.0
 11
64.60025300000001
 21
79.136601
 31
0.0
  0
ARC
  5
151
330
36
100
AcDbEntity
  8
0
100
AcDbCircle
 10
65.10025300000001
 20
79.136601
 30
0.0
 40
0.5
100
AcDbArc
 50
180.0
 51
0.0
  0
ARC
  5
152
330
36
100
AcDbEntity
  8
0
100
AcDbCircle
 10
65.10025300000001
 20
88.13660099999998
 30
0.0
 40
0.5
100
AcDbArc
 50
0.0
 51
180.0
  0
LINE
  5
153
330
36
100
AcDbEntity
  8
0
100
AcDbLine
 10
63.600253
 20
103.136601
 30
0.0
 11
63.600253
 21
94.13660099999999
 31
0.0
  0
LINE
  5
154
330
36
100
AcDbEntity
  8
0
100
AcDbLine
 10
62.600253
 20
103.136601
 30
0.0
 11
62.600253
 21
94.13660099999999
 31
0.0
  0
ARC
  5
155
330
36
100
AcDbEntity
  8
0
100
AcDbCircle
 10
63.100253
 20
94.13660099999999
 30
0.0
 40
0.5
100
AcDbArc
 50
180.0
 51
0.0
  0
ARC
  5
156
330
36
100
AcDbEntity
  8
0
100
AcDbCircle
 10
63.100253
 20
103.136601
 30
0.0
 40
0.5
100
AcDbArc
 50
0.0
 51
180.0
  0
LINE
  5
157
330
36
100
AcDbEntity
  8
0
100
AcDbLine
 10
63.600253
 20
88.13660099999998
 30
0.0
 11
63.600253
 21
79.136601
 31
0.0
  0
LINE
  5
158
330
36
100
AcDbEntity
  8
0
100
AcDbLine
 10
62.600253
 20
88.13660099999998
 30
0.0
 11
62.600253
 21
79.136601
 31
0.0
  0
ARC
  5
159
330
36
100
AcDbEntity
  8
0
100
AcDbCircle
 10
63.100253
 20
79.136601
 30
0.0
 40
0.5
100
AcDbArc
 50
180.0
 51
0.0
  0
ARC
  5
15A
330
36
100
AcDbEntity
  8
0
100
AcDbCircle
 10
63.100253
 20
88.13660099999998
 30
0.0
 40
0.5
100
AcDbArc
 50
0.0
 51
180.0
  0
LINE
  5
15B
330
36
100
AcDbEntity
  8
0
100
AcDbLine
 10
61.600253
 20
103.136601
 30
0.0
 11
61.600253
 21
94.13660099999999
 31
0.0
  0
LINE
  5
15C
330
36
100
AcDbEntity
  8
0
100
AcDbLine
 10
60.600253
 20
103.136601
 30
0.0
 11
60.600253
 21
94.13660099999999
 31
0.0
  0
ARC
  5
15D
330
36
100
AcDbEntity
  8
0
100
AcDbCircle
 10
61.100253
 20
94.13660099999999
 30
0.0
 40
0.5
100
AcDbArc
 50
180.0
 51
0.0
  0
ARC
  5
15E
330
36
100
AcDbEntity
  8
0
100
AcDbCircle
 10
61.100253
 20
103.136601
 30
0.0
 40
0.5
100
AcDbArc
 50
0.0
 51
180.0
  0
LINE
  5
15F
330
36
100
AcDbEntity
  8
0
100
AcDbLine
 10
61.600253
 20
88.13660099999998
 30
0.0
 11
61.600253
 21
79.136601
 31
0.0
  0
LINE
  5
160
330
36
100
AcDbEntity
  8
0
100
AcDbLine
 10
60.600253
 20
88.13660099999998
 30
0.0
 11
60.600253
 21
79.136601
 31
0.0
  0
ARC
  5
161
330
36
100
AcDbEntity
  8
0
100
AcDbCircle
 10
61.100253
 20
79.136601
 30
0.0
 40
0.5
100
AcDbArc
 50
180.0
 51
0.0
  0
ARC
  5
162
330
36
100
AcDbEntity
  8
0
100
AcDbCircle
 10
61.100253
 20
88.13660099999998
 30
0.0
 40
0.5
100
AcDbArc
 50
0.0
 51
180.0
  0
LINE
  5
163
330
36
100
AcDbEntity
  8
0
100
AcDbLine
 10
59.600253
 20
103.136601
 30
0.0
 11
59.600253
 21
94.13660099999999
 31
0.0
  0
LINE
  5
164
330
36
100
AcDbEntity
  8
0
100
AcDbLine
 10
58.600253
 20
103.136601
 30
0.0
 11
58.600253
 21
94.13660099999999
 31
0.0
  0
ARC
  5
165
330
36
100
AcDbEntity
  8
0
100
AcDbCircle
 10
59.100253
 20
94.13660099999999
 30
0.0
 40
0.5
100
AcDbArc
 50
180.0
 51
0.0
  0
ARC
  5
166
330
36
100
AcDbEntity
  8
0
100
AcDbCircle
 10
59.100253
 20
103.136601
 30
0.0
 40
0.5
100
AcDbArc
 50
0.0
 51
180.0
  0
LINE
  5
167
330
36
100
AcDbEntity
  8
0
100
AcDbLine
 10
59.600253
 20
88.13660099999998
 30
0.0
 11
59.600253
 21
79.136601
 31
0.0
  0
LINE
  5
168
330
36
100
AcDbEntity
  8
0
100
AcDbLine
 10
58.600253
 20
88.13660099999998
 30
0.0
 11
58.600253
 21
79.136601
 31
0.0
  0
ARC
  5
169
330
36
100
AcDbEntity
  8
0
100
AcDbCircle
 10
59.100253
 20
79.136601
 30
0.0
 40
0.5
100
AcDbArc
 50
180.0
 51
0.0
  0
ARC
  5
16A
330
36
100
AcDbEntity
  8
0
100
AcDbCircle
 10
59.100253
 20
88.13660099999998
 30
0.0
 40
0.5
100
AcDbArc
 50
0.0
 51
180.0
  0
LINE
  5
16B
330
36
100
AcDbEntity
  8
0
100
AcDbLine
 10
57.600253
 20
103.136601
 30
0.0
 11
57.600253
 21
94.13660099999999
 31
0.0
  0
LINE
  5
16C
330
36
100
AcDbEntity
  8
0
100
AcDbLine
 10
56.600253
 20
103.136601
 30
0.0
 11
56.600253
 21
94.13660099999999
 31
0.0
  0
ARC
  5
16D
330
36
100
AcDbEntity
  8
0
100
AcDbCircle
 10
57.100253
 20
94.13660099999999
 30
0.0
 40
0.5
100
AcDbArc
 50
180.0
 51
0.0
  0
ARC
  5
16E
330
36
100
AcDbEntity
  8
0
100
AcDbCircle
 10
57.100253
 20
103.136601
 30
0.0
 40
0.5
100
AcDbArc
 50
0.0
 51
180.0
  0
LINE
  5
16F
330
36
100
AcDbEntity
  8
0
100
AcDbLine
 10
57.600253
 20
88.13660099999998
 30
0.0
 11
57.600253
 21
79.136601
 31
0.0
  0
LINE
  5
170
330
36
100
AcDbEntity
  8
0
100
AcDbLine
 10
56.600253
 20
88.13660099999998
 30
0.0
 11
56.600253
 21
79.136601
 31
0.0
  0
ARC
  5
171
330
36
100
AcDbEntity
  8
0
100
AcDbCircle
 10
57.100253
 20
79.136601
 30
0.0
 40
0.5
100
AcDbArc
 50
180.0
 51
0.0
  0
ARC
  5
172
330
36
100
AcDbEntity
  8
0
100
AcDbCircle
 10
57.100253
 20
88.13660099999998
 30
0.0
 40
0.5
100
AcDbArc
 50
0.0
 51
180.0
  0
LINE
  5
173
330
36
100
AcDbEntity
  8
0
100
AcDbLine
 10
55.600253
 20
103.136601
 30
0.0
 11
55.600253
 21
94.13660099999999
 31
0.0
  0
LINE
  5
174
330
36
100
AcDbEntity
  8
0
100
AcDbLine
 10
54.600253
 20
103.136601
 30
0.0
 11
54.600253
 21
94.13660099999999
 31
0.0
  0
ARC
  5
175
330
36
100
AcDbEntity
  8
0
100
AcDbCircle
 10
55.100253
 20
94.13660099999999
 30
0.0
 40
0.5
100
AcDbArc
 50
180.0
 51
0.0
  0
ARC
  5
176
330
36
100
AcDbEntity
  8
0
100
AcDbCircle
 10
55.100253
 20
103.136601
 30
0.0
 40
0.5
100
AcDbArc
 50
0.0
 51
180.0
  0
LINE
  5
177
330
36
100
AcDbEntity
  8
0
100
AcDbLine
 10
55.600253
 20
88.13660099999998
 30
0.0
 11
55.600253
 21
79.136601
 31
0.0
  0
LINE
  5
178
330
36
100
AcDbEntity
  8
0
100
AcDbLine
 10
54.600253
 20
88.13660099999998
 30
0.0
 11
54.600253
 21
79.136601
 31
0.0
  0
ARC
  5
179
330
36
100
AcDbEntity
  8
0
100
AcDbCircle
 10
55.100253
 20
79.136601
 30
0.0
 40
0.5
100
AcDbArc
 50
180.0
 51
0.0
  0
ARC
  5
17A
330
36
100
AcDbEntity
  8
0
100
AcDbCircle
 10
55.100253
 20
88.13660099999998
 30
0.0
 40
0.5
100
AcDbArc
 50
0.0
 51
180.0
  0
LINE
  5
17B
330
36
100
AcDbEntity
  8
0
100
AcDbLine
 10
53.600253
 20
103.136601
 30
0.0
 11
53.600253
 21
94.13660099999999
 31
0.0
  0
LINE
  5
17C
330
36
100
AcDbEntity
  8
0
100
AcDbLine
 10
52.600253
 20
103.136601
 30
0.0
 11
52.600253
 21
94.13660099999999
 31
0.0
  0
ARC
  5
17D
330
36
100
AcDbEntity
  8
0
100
AcDbCircle
 10
53.100253
 20
94.13660099999999
 30
0.0
 40
0.5
100
AcDbArc
 50
180.0
 51
0.0
  0
ARC
  5
17E
330
36
100
AcDbEntity
  8
0
100
AcDbCircle
 10
53.100253
 20
103.136601
 30
0.0
 40
0.5
100
AcDbArc
 50
0.0
 51
180.0
  0
LINE
  5
17F
330
36
100
AcDbEntity
  8
0
100
AcDbLine
 10
53.600253
 20
88.13660099999998
 30
0.0
 11
53.600253
 21
79.136601
 31
0.0
  0
LINE
  5
180
330
36
100
AcDbEntity
  8
0
100
AcDbLine
 10
52.600253
 20
88.13660099999998
 30
0.0
 11
52.600253
 21
79.136601
 31
0.0
  0
ARC
  5
181
330
36
100
AcDbEntity
  8
0
100
AcDbCircle
 10
53.100253
 20
79.136601
 30
0.0
 40
0.5
100
AcDbArc
 50
180.0
 51
0.0
  0
ARC
  5
182
330
36
100
AcDbEntity
  8
0
100
AcDbCircle
 10
53.100253
 20
88.13660099999998
 30
0.0
 40
0.5
100
AcDbArc
 50
0.0
 51
180.0
  0
LINE
  5
183
330
36
100
AcDbEntity
  8
0
100
AcDbLine
 10
51.600253
 20
103.136601
 30
0.0
 11
51.600253
 21
94.13660099999999
 31
0.0
  0
LINE
  5
184
330
36
100
AcDbEntity
  8
0
100
AcDbLine
 10
50.600253
 20
103.136601
 30
0.0
 11
50.600253
 21
94.13660099999999
 31
0.0
  0
ARC
  5
185
330
36
100
AcDbEntity
  8
0
100
AcDbCircle
 10
51.100253
 20
94.13660099999999
 30
0.0
 40
0.5
100
AcDbArc
 50
180.0
 51
0.0
  0
ARC
  5
186
330
36
100
AcDbEntity
  8
0
100
AcDbCircle
 10
51.100253
 20
103.136601
 30
0.0
 40
0.5
100
AcDbArc
 50
0.0
 51
180.0
  0
LINE
  5
187
330
36
100
AcDbEntity
  8
0
100
AcDbLine
 10
51.600253
 20
88.13660099999998
 30
0.0
 11
51.600253
 21
79.136601
 31
0.0
  0
LINE
  5
188
330
36
100
AcDbEntity
  8
0
100
AcDbLine
 10
50.600253
 20
88.13660099999998
 30
0.0
 11
50.600253
 21
79.136601
 31
0.0
  0
ARC
  5
189
330
36
100
AcDbEntity
  8
0
100
AcDbCircle
 10
51.100253
 20
79.136601
 30
0.0
 40
0.5
100
AcDbArc
 50
180.0
 51
0.0
  0
ARC
  5
18A
330
36
100
AcDbEntity
  8
0
100
AcDbCircle
 10
51.100253
 20
88.13660099999998
 30
0.0
 40
0.5
100
AcDbArc
 50
0.0
 51
180.0
  0
LINE
  5
18B
330
36
100
AcDbEntity
  8
0
100
AcDbLine
 10
49.600253
 20
103.136601
 30
0.0
 11
49.600253
 21
94.13660099999999
 31
0.0
  0
LINE
  5
18C
330
36
100
AcDbEntity
  8
0
100
AcDbLine
 10
48.600253
 20
103.136601
 30
0.0
 11
48.600253
 21
94.13660099999999
 31
0.0
  0
ARC
  5
18D
330
36
100
AcDbEntity
  8
0
100
AcDbCircle
 10
49.100253
 20
94.13660099999999
 30
0.0
 40
0.5
100
AcDbArc
 50
180.0
 51
0.0
  0
ARC
  5
18E
330
36
100
AcDbEntity
  8
0
100
AcDbCircle
 10
49.100253
 20
103.136601
 30
0.0
 40
0.5
100
AcDbArc
 50
0.0
 51
180.0
  0
LINE
  5
18F
330
36
100
AcDbEntity
  8
0
100
AcDbLine
 10
49.600253
 20
88.13660099999998
 30
0.0
 11
49.600253
 21
79.136601
 31
0.0
  0
LINE
  5
190
330
36
100
AcDbEntity
  8
0
100
AcDbLine
 10
48.600253
 20
88.13660099999998
 30
0.0
 11
48.600253
 21
79.136601
 31
0.0
  0
ARC
  5
191
330
36
100
AcDbEntity
  8
0
100
AcDbCircle
 10
49.100253
 20
79.136601
 30
0.0
 40
0.5
100
AcDbArc
 50
180.0
 51
0.0
  0
ARC
  5
192
330
36
100
AcDbEntity
  8
0
100
AcDbCircle
 10
49.100253
 20
88.13660099999998
 30
0.0
 40
0.5
100
AcDbArc
 50
0.0
 51
180.0
  0
LINE
  5
193
330
36
100
AcDbEntity
  8
0
100
AcDbLine
 10
47.600253
 20
103.136601
 30
0.0
 11
47.600253
 21
94.13660099999999
 31
0.0
  0
LINE
  5
194
330
36
100
AcDbEntity
  8
0
100
AcDbLine
 10
46.600253
 20
103.136601
 30
0.0
 11
46.600253
 21
94.13660099999999
 31
0.0
  0
ARC
  5
195
330
36
100
AcDbEntity
  8
0
100
AcDbCircle
 10
47.100253
 20
94.13660099999999
 30
0.0
 40
0.5
100
AcDbArc
 50
180.0
 51
0.0
  0
ARC
  5
196
330
36
100
AcDbEntity
  8
0
100
AcDbCircle
 10
47.100253
 20
103.136601
 30
0.0
 40
0.5
100
AcDbArc
 50
0.0
 51
180.0
  0
LINE
  5
197
330
36
100
AcDbEntity
  8
0
100
AcDbLine
 10
47.600253
 20
88.13660099999998
 30
0.0
 11
47.600253
 21
79.136601
 31
0.0
  0
LINE
  5
198
330
36
100
AcDbEntity
  8
0
100
AcDbLine
 10
46.600253
 20
88.13660099999998
 30
0.0
 11
46.600253
 21
79.136601
 31
0.0
  0
ARC
  5
199
330
36
100
AcDbEntity
  8
0
100
AcDbCircle
 10
47.100253
 20
79.136601
 30
0.0
 40
0.5
100
AcDbArc
 50
180.0
 51
0.0
  0
ARC
  5
19A
330
36
100
AcDbEntity
  8
0
100
AcDbCircle
 10
47.100253
 20
88.13660099999998
 30
0.0
 40
0.5
100
AcDbArc
 50
0.0
 51
180.0
  0
LINE
  5
19B
330
36
100
AcDbEntity
  8
0
100
AcDbLine
 10
45.600253
 20
103.136601
 30
0.0
 11
45.600253
 21
94.13660099999999
 31
0.0
  0
LINE
  5
19C
330
36
100
AcDbEntity
  8
0
100
AcDbLine
 10
44.600253
 20
103.136601
 30
0.0
 11
44.600253
 21
94.13660099999999
 31
0.0
  0
ARC
  5
19D
330
36
100
AcDbEntity
  8
0
100
AcDbCircle
 10
45.100253
 20
94.13660099999999
 30
0.0
 40
0.5
100
AcDbArc
 50
180.0
 51
0.0
  0
ARC
  5
19E
330
36
100
AcDbEntity
  8
0
100
AcDbCircle
 10
45.100253
 20
103.136601
 30
0.0
 40
0.5
100
AcDbArc
 50
0.0
 51
180.0
  0
LINE
  5
19F
330
36
100
AcDbEntity
  8
0
100
AcDbLine
 10
45.600253
 20
88.13660099999998
 30
0.0
 11
45.600253
 21
79.136601
 31
0.0
  0
LINE
  5
1A0
330
36
100
AcDbEntity
  8
0
100
AcDbLine
 10
44.600253
 20
88.13660099999998
 30
0.0
 11
44.600253
 21
79.136601
 31
0.0
  0
ARC
  5
1A1
330
36
100
AcDbEntity
  8
0
100
AcDbCircle
 10
45.100253
 20
79.136601
 30
0.0
 40
0.5
100
AcDbArc
 50
180.0
 51
0.0
  0
ARC
  5
1A2
330
36
100
AcDbEntity
  8
0
100
AcDbCircle
 10
45.100253
 20
88.13660099999998
 30
0.0
 40
0.5
100
AcDbArc
 50
0.0
 51
180.0
  0
LINE
  5
1A3
330
36
100
AcDbEntity
  8
0
100
AcDbLine
 10
43.600253
 20
103.136601
 30
0.0
 11
43.600253
 21
94.13660099999999
 31
0.0
  0
LINE
  5
1A4
330
36
100
AcDbEntity
  8
0
100
AcDbLine
 10
42.600253
 20
103.136601
 30
0.0
 11
42.600253
 21
94.13660099999999
 31
0.0
  0
ARC
  5
1A5
330
36
100
AcDbEntity
  8
0
100
AcDbCircle
 10
43.100253
 20
94.13660099999999
 30
0.0
 40
0.5
100
AcDbArc
 50
180.0
 51
0.0
  0
ARC
  5
1A6
330
36
100
AcDbEntity
  8
0
100
AcDbCircle
 10
43.100253
 20
103.136601
 30
0.0
 40
0.5
100
AcDbArc
 50
0.0
 51
180.0
  0
LINE
  5
1A7
330
36
100
AcDbEntity
  8
0
100
AcDbLine
 10
43.600253
 20
88.13660099999998
 30
0.0
 11
43.600253
 21
79.136601
 31
0.0
  0
LINE
  5
1A8
330
36
100
AcDbEntity
  8
0
100
AcDbLine
 10
42.600253
 20
88.13660099999998
 30
0.0
 11
42.600253
 21
79.136601
 31
0.0
  0
ARC
  5
1A9
330
36
100
AcDbEntity
  8
0
100
AcDbCircle
 10
43.100253
 20
79.136601
 30
0.0
 40
0.5
100
AcDbArc
 50
180.0
 51
0.0
  0
ARC
  5
1AA
330
36
100
AcDbEntity
  8
0
100
AcDbCircle
 10
43.100253
 20
88.13660099999998
 30
0.0
 40
0.5
100
AcDbArc
 50
0.0
 51
180.0
  0
LINE
  5
1AB
330
36
100
AcDbEntity
  8
0
100
AcDbLine
 10
41.600253
 20
103.136601
 30
0.0
 11
41.600253
 21
94.13660099999999
 31
0.0
  0
LINE
  5
1AC
330
36
100
AcDbEntity
  8
0
100
AcDbLine
 10
40.600253
 20
103.136601
 30
0.0
 11
40.600253
 21
94.13660099999999
 31
0.0
  0
ARC
  5
1AD
330
36
100
AcDbEntity
  8
0
100
AcDbCircle
 10
41.100253
 20
94.13660099999999
 30
0.0
 40
0.5
100
AcDbArc
 50
180.0
 51
0.0
  0
ARC
  5
1AE
330
36
100
AcDbEntity
  8
0
100
AcDbCircle
 10
41.100253
 20
103.136601
 30
0.0
 40
0.5
100
AcDbArc
 50
0.0
 51
180.0
  0
LINE
  5
1AF
330
36
100
AcDbEntity
  8
0
100
AcDbLine
 10
41.600253
 20
88.13660099999998
 30
0.0
 11
41.600253
 21
79.136601
 31
0.0
  0
LINE
  5
1B0
330
36
100
AcDbEntity
  8
0
100
AcDbLine
 10
40.600253
 20
88.13660099999998
 30
0.0
 11
40.600253
 21
79.136601
 31
0.0
  0
ARC
  5
1B1
330
36
100
AcDbEntity
  8
0
100
AcDbCircle
 10
41.100253
 20
79.136601
 30
0.0
 40
0.5
100
AcDbArc
 50
180.0
 51
0.0
  0
ARC
  5
1B2
330
36
100
AcDbEntity
  8
0
100
AcDbCircle
 10
41.100253
 20
88.13660099999998
 30
0.0
 40
0.5
100
AcDbArc
 50
0.0
 51
180.0
  0
LINE
  5
1B3
330
36
100
AcDbEntity
  8
0
100
AcDbLine
 10
39.600253
 20
103.136601
 30
0.0
 11
39.600253
 21
94.13660099999999
 31
0.0
  0
LINE
  5
1B4
330
36
100
AcDbEntity
  8
0
100
AcDbLine
 10
38.600253
 20
103.136601
 30
0.0
 11
38.600253
 21
94.13660099999999
 31
0.0
  0
ARC
  5
1B5
330
36
100
AcDbEntity
  8
0
100
AcDbCircle
 10
39.100253
 20
94.13660099999999
 30
0.0
 40
0.5
100
AcDbArc
 50
180.0
 51
0.0
  0
ARC
  5
1B6
330
36
100
AcDbEntity
  8
0
100
AcDbCircle
 10
39.100253
 20
103.136601
 30
0.0
 40
0.5
100
AcDbArc
 50
0.0
 51
180.0
  0
LINE
  5
1B7
330
36
100
AcDbEntity
  8
0
100
AcDbLine
 10
39.600253
 20
88.13660099999998
 30
0.0
 11
39.600253
 21
79.136601
 31
0.0
  0
LINE
  5
1B8
330
36
100
AcDbEntity
  8
0
100
AcDbLine
 10
38.600253
 20
88.13660099999998
 30
0.0
 11
38.600253
 21
79.136601
 31
0.0
  0
ARC
  5
1B9
330
36
100
AcDbEntity
  8
0
100
AcDbCircle
 10
39.100253
 20
79.136601
 30
0.0
 40
0.5
100
AcDbArc
 50
180.0
 51
0.0
  0
ARC
  5
1BA
330
36
100
AcDbEntity
  8
0
100
AcDbCircle
 10
39.100253
 20
88.13660099999998
 30
0.0
 40
0.5
100
AcDbArc
 50
0.0
 51
180.0
  0
LINE
  5
1BB
330
36
100
AcDbEntity
  8
0
100
AcDbLine
 10
37.60025300000001
 20
103.136601
 30
0.0
 11
37.60025300000001
 21
94.13660099999999
 31
0.0
  0
LINE
  5
1BC
330
36
100
AcDbEntity
  8
0
100
AcDbLine
 10
36.600253
 20
103.136601
 30
0.0
 11
36.600253
 21
94.13660099999999
 31
0.0
  0
ARC
  5
1BD
330
36
100
AcDbEntity
  8
0
100
AcDbCircle
 10
37.100253
 20
94.13660099999999
 30
0.0
 40
0.5
100
AcDbArc
 50
180.0
 51
0.0
  0
ARC
  5
1BE
330
36
100
AcDbEntity
  8
0
100
AcDbCircle
 10
37.100253
 20
103.136601
 30
0.0
 40
0.5
100
AcDbArc
 50
0.0
 51
180.0
  0
LINE
  5
1BF
330
36
100
AcDbEntity
  8
0
100
AcDbLine
 10
37.60025300000001
 20
88.13660099999998
 30
0.0
 11
37.60025300000001
 21
79.136601
 31
0.0
  0
LINE
  5
1C0
330
36
100
AcDbEntity
  8
0
100
AcDbLine
 10
36.600253
 20
88.13660099999998
 30
0.0
 11
36.600253
 21
79.136601
 31
0.0
  0
ARC
  5
1C1
330
36
100
AcDbEntity
  8
0
100
AcDbCircle
 10
37.100253
 20
79.136601
 30
0.0
 40
0.5
100
AcDbArc
 50
180.0
 51
0.0
  0
ARC
  5
1C2
330
36
100
AcDbEntity
  8
0
100
AcDbCircle
 10
37.100253
 20
88.13660099999998
 30
0.0
 40
0.5
100
AcDbArc
 50
0.0
 51
180.0
  0
LINE
  5
1C3
330
36
100
AcDbEntity
  8
0
100
AcDbLine
 10
35.600253
 20
103.136601
 30
0.0
 11
35.600253
 21
94.13660099999999
 31
0.0
  0
LINE
  5
1C4
330
36
100
AcDbEntity
  8
0
100
AcDbLine
 10
34.600253
 20
103.136601
 30
0.0
 11
34.600253
 21
94.13660099999999
 31
0.0
  0
ARC
  5
1C5
330
36
100
AcDbEntity
  8
0
100
AcDbCircle
 10
35.10025300000001
 20
94.13660099999999
 30
0.0
 40
0.5
100
AcDbArc
 50
180.0
 51
0.0
  0
ARC
  5
1C6
330
36
100
AcDbEntity
  8
0
100
AcDbCircle
 10
35.10025300000001
 20
103.136601
 30
0.0
 40
0.5
100
AcDbArc
 50
0.0
 51
180.0
  0
LINE
  5
1C7
330
36
100
AcDbEntity
  8
0
100
AcDbLine
 10
35.600253
 20
88.13660099999998
 30
0.0
 11
35.600253
 21
79.136601
 31
0.0
  0
LINE
  5
1C8
330
36
100
AcDbEntity
  8
0
100
AcDbLine
 10
34.600253
 20
88.13660099999998
 30
0.0
 11
34.600253
 21
79.136601
 31
0.0
  0
ARC
  5
1C9
330
36
100
AcDbEntity
  8
0
100
AcDbCircle
 10
35.10025300000001
 20
79.136601
 30
0.0
 40
0.5
100
AcDbArc
 50
180.0
 51
0.0
  0
ARC
  5
1CA
330
36
100
AcDbEntity
  8
0
100
AcDbCircle
 10
35.10025300000001
 20
88.13660099999998
 30
0.0
 40
0.5
100
AcDbArc
 50
0.0
 51
180.0
  0
LINE
  5
1CB
330
36
100
AcDbEntity
  8
0
100
AcDbLine
 10
33.600253
 20
103.136601
 30
0.0
 11
33.600253
 21
94.13660099999999
 31
0.0
  0
LINE
  5
1CC
330
36
100
AcDbEntity
  8
0
100
AcDbLine
 10
32.60025300000001
 20
103.136601
 30
0.0
 11
32.60025300000001
 21
94.13660099999999
 31
0.0
  0
ARC
  5
1CD
330
36
100
AcDbEntity
  8
0
100
AcDbCircle
 10
33.100253
 20
94.13660099999999
 30
0.0
 40
0.5
100
AcDbArc
 50
180.0
 51
0.0
  0
ARC
  5
1CE
330
36
100
AcDbEntity
  8
0
100
AcDbCircle
 10
33.100253
 20
103.136601
 30
0.0
 40
0.5
100
AcDbArc
 50
0.0
 51
180.0
  0
LINE
  5
1CF
330
36
100
AcDbEntity
  8
0
100
AcDbLine
 10
33.600253
 20
88.13660099999998
 30
0.0
 11
33.600253
 21
79.136601
 31
0.0
  0
LINE
  5
1D0
330
36
100
AcDbEntity
  8
0
100
AcDbLine
 10
32.60025300000001
 20
88.13660099999998
 30
0.0
 11
32.60025300000001
 21
79.136601
 31
0.0
  0
ARC
  5
1D1
330
36
100
AcDbEntity
  8
0
100
AcDbCircle
 10
33.100253
 20
79.136601
 30
0.0
 40
0.5
100
AcDbArc
 50
180.0
 51
0.0
  0
ARC
  5
1D2
330
36
100
AcDbEntity
  8
0
100
AcDbCircle
 10
33.100253
 20
88.13660099999998
 30
0.0
 40
0.5
100
AcDbArc
 50
0.0
 51
180.0
  0
LINE
  5
1D3
330
36
100
AcDbEntity
  8
0
100
AcDbLine
 10
31.600253
 20
103.136601
 30
0.0
 11
31.600253
 21
94.13660099999999
 31
0.0
  0
LINE
  5
1D4
330
36
100
AcDbEntity
  8
0
100
AcDbLine
 10
30.600253
 20
103.136601
 30
0.0
 11
30.600253
 21
94.13660099999999
 31
0.0
  0
ARC
  5
1D5
330
36
100
AcDbEntity
  8
0
100
AcDbCircle
 10
31.100253
 20
94.13660099999999
 30
0.0
 40
0.5
100
AcDbArc
 50
180.0
 51
0.0
  0
ARC
  5
1D6
330
36
100
AcDbEntity
  8
0
100
AcDbCircle
 10
31.100253
 20
103.136601
 30
0.0
 40
0.5
100
AcDbArc
 50
0.0
 51
180.0
  0
LINE
  5
1D7
330
36
100
AcDbEntity
  8
0
100
AcDbLine
 10
31.600253
 20
88.13660099999998
 30
0.0
 11
31.600253
 21
79.136601
 31
0.0
  0
LINE
  5
1D8
330
36
100
AcDbEntity
  8
0
100
AcDbLine
 10
30.600253
 20
88.13660099999998
 30
0.0
 11
30.600253
 21
79.136601
 31
0.0
  0
ARC
  5
1D9
330
36
100
AcDbEntity
  8
0
100
AcDbCircle
 10
31.100253
 20
79.136601
 30
0.0
 40
0.5
100
AcDbArc
 50
180.0
 51
0.0
  0
ARC
  5
1DA
330
36
100
AcDbEntity
  8
0
100
AcDbCircle
 10
31.100253
 20
88.13660099999998
 30
0.0
 40
0.5
100
AcDbArc
 50
0.0
 51
180.0
  0
LINE
  5
1DB
330
36
100
AcDbEntity
  8
0
100
AcDbLine
 10
29.600253
 20
103.136601
 30
0.0
 11
29.600253
 21
94.13660099999999
 31
0.0
  0
LINE
  5
1DC
330
36
100
AcDbEntity
  8
0
100
AcDbLine
 10
28.600253
 20
103.136601
 30
0.0
 11
28.600253
 21
94.13660099999999
 31
0.0
  0
ARC
  5
1DD
330
36
100
AcDbEntity
  8
0
100
AcDbCircle
 10
29.100253
 20
94.13660099999999
 30
0.0
 40
0.5
100
AcDbArc
 50
180.0
 51
0.0
  0
ARC
  5
1DE
330
36
100
AcDbEntity
  8
0
100
AcDbCircle
 10
29.100253
 20
103.136601
 30
0.0
 40
0.5
100
AcDbArc
 50
0.0
 51
180.0
  0
LINE
  5
1DF
330
36
100
AcDbEntity
  8
0
100
AcDbLine
 10
29.600253
 20
88.13660099999998
 30
0.0
 11
29.600253
 21
79.136601
 31
0.0
  0
LINE
  5
1E0
330
36
100
AcDbEntity
  8
0
100
AcDbLine
 10
28.600253
 20
88.13660099999998
 30
0.0
 11
28.600253
 21
79.136601
 31
0.0
  0
ARC
  5
1E1
330
36
100
AcDbEntity
  8
0
100
AcDbCircle
 10
29.100253
 20
79.136601
 30
0.0
 40
0.5
100
AcDbArc
 50
180.0
 51
0.0
  0
ARC
  5
1E2
330
36
100
AcDbEntity
  8
0
100
AcDbCircle
 10
29.100253
 20
88.13660099999998
 30
0.0
 40
0.5
100
AcDbArc
 50
0.0
 51
180.0
  0
LINE
  5
1E3
330
36
100
AcDbEntity
  8
0
100
AcDbLine
 10
27.60025300000001
 20
103.136601
 30
0.0
 11
27.60025300000001
 21
94.13660099999999
 31
0.0
  0
LINE
  5
1E4
330
36
100
AcDbEntity
  8
0
100
AcDbLine
 10
26.600253
 20
103.136601
 30
0.0
 11
26.600253
 21
94.13660099999999
 31
0.0
  0
ARC
  5
1E5
330
36
100
AcDbEntity
  8
0
100
AcDbCircle
 10
27.100253
 20
94.13660099999999
 30
0.0
 40
0.5
100
AcDbArc
 50
180.0
 51
0.0
  0
ARC
  5
1E6
330
36
100
AcDbEntity
  8
0
100
AcDbCircle
 10
27.100253
 20
103.136601
 30
0.0
 40
0.5
100
AcDbArc
 50
0.0
 51
180.0
  0
LINE
  5
1E7
330
36
100
AcDbEntity
  8
0
100
AcDbLine
 10
27.60025300000001
 20
88.13660099999998
 30
0.0
 11
27.60025300000001
 21
79.136601
 31
0.0
  0
LINE
  5
1E8
330
36
100
AcDbEntity
  8
0
100
AcDbLine
 10
26.600253
 20
88.13660099999998
 30
0.0
 11
26.600253
 21
79.136601
 31
0.0
  0
ARC
  5
1E9
330
36
100
AcDbEntity
  8
0
100
AcDbCircle
 10
27.100253
 20
79.136601
 30
0.0
 40
0.5
100
AcDbArc
 50
180.0
 51
0.0
  0
ARC
  5
1EA
330
36
100
AcDbEntity
  8
0
100
AcDbCircle
 10
27.100253
 20
88.13660099999998
 30
0.0
 40
0.5
100
AcDbArc
 50
0.0
 51
180.0
  0
LINE
  5
1EB
330
36
100
AcDbEntity
  8
0
100
AcDbLine
 10
15.600253
 20
103.136601
 30
0.0
 11
15.600253
 21
94.13660099999999
 31
0.0
  0
LINE
  5
1EC
330
36
100
AcDbEntity
  8
0
100
AcDbLine
 10
14.600253
 20
103.136601
 30
0.0
 11
14.600253
 21
94.13660099999999
 31
0.0
  0
ARC
  5
1ED
330
36
100
AcDbEntity
  8
0
100
AcDbCircle
 10
15.100253
 20
94.13660099999999
 30
0.0
 40
0.5
100
AcDbArc
 50
180.0
 51
0.0
  0
ARC
  5
1EE
330
36
100
AcDbEntity
  8
0
100
AcDbCircle
 10
15.100253
 20
103.136601
 30
0.0
 40
0.5
100
AcDbArc
 50
0.0
 51
180.0
  0
LINE
  5
1EF
330
36
100
AcDbEntity
  8
0
100
AcDbLine
 10
15.600253
 20
88.13660099999998
 30
0.0
 11
15.600253
 21
79.136601
 31
0.0
  0
LINE
  5
1F0
330
36
100
AcDbEntity
  8
0
100
AcDbLine
 10
14.600253
 20
88.13660099999998
 30
0.0
 11
14.600253
 21
79.136601
 31
0.0
  0
ARC
  5
1F1
330
36
100
AcDbEntity
  8
0
100
AcDbCircle
 10
15.100253
 20
79.136601
 30
0.0
 40
0.5
100
AcDbArc
 50
180.0
 51
0.0
  0
ARC
  5
1F2
330
36
100
AcDbEntity
  8
0
100
AcDbCircle
 10
15.100253
 20
88.13660099999998
 30
0.0
 40
0.5
100
AcDbArc
 50
0.0
 51
180.0
  0
LINE
  5
1F3
330
36
100
AcDbEntity
  8
0
100
AcDbLine
 10
13.600253
 20
103.136601
 30
0.0
 11
13.600253
 21
94.13660099999999
 31
0.0
  0
LINE
  5
1F4
330
36
100
AcDbEntity
  8
0
100
AcDbLine
 10
12.600253
 20
103.136601
 30
0.0
 11
12.600253
 21
94.13660099999999
 31
0.0
  0
ARC
  5
1F5
330
36
100
AcDbEntity
  8
0
100
AcDbCircle
 10
13.100253
 20
94.13660099999999
 30
0.0
 40
0.5
100
AcDbArc
 50
180.0
 51
0.0
  0
ARC
  5
1F6
330
36
100
AcDbEntity
  8
0
100
AcDbCircle
 10
13.100253
 20
103.136601
 30
0.0
 40
0.5
100
AcDbArc
 50
0.0
 51
180.0
  0
LINE
  5
1F7
330
36
100
AcDbEntity
  8
0
100
AcDbLine
 10
13.600253
 20
88.13660099999998
 30
0.0
 11
13.600253
 21
79.136601
 31
0.0
  0
LINE
  5
1F8
330
36
100
AcDbEntity
  8
0
100
AcDbLine
 10
12.600253
 20
88.13660099999998
 30
0.0
 11
12.600253
 21
79.136601
 31
0.0
  0
ARC
  5
1F9
330
36
100
AcDbEntity
  8
0
100
AcDbCircle
 10
13.100253
 20
79.136601
 30
0.0
 40
0.5
100
AcDbArc
 50
180.0
 51
0.0
  0
ARC
  5
1FA
330
36
100
AcDbEntity
  8
0
100
AcDbCircle
 10
13.100253
 20
88.13660099999998
 30
0.0
 40
0.5
100
AcDbArc
 50
0.0
 51
180.0
  0
LINE
  5
1FB
330
36
100
AcDbEntity
  8
0
100
AcDbLine
 10
11.600253
 20
103.136601
 30
0.0
 11
11.600253
 21
94.13660099999999
 31
0.0
  0
LINE
  5
1FC
330
36
100
AcDbEntity
  8
0
100
AcDbLine
 10
10.600253
 20
103.136601
 30
0.0
 11
10.600253
 21
94.13660099999999
 31
0.0
  0
ARC
  5
1FD
330
36
100
AcDbEntity
  8
0
100
AcDbCircle
 10
11.100253
 20
94.13660099999999
 30
0.0
 40
0.5
100
AcDbArc
 50
180.0
 51
0.0
  0
ARC
  5
1FE
330
36
100
AcDbEntity
  8
0
100
AcDbCircle
 10
11.100253
 20
103.136601
 30
0.0
 40
0.5
100
AcDbArc
 50
0.0
 51
180.0
  0
LINE
  5
1FF
330
36
100
AcDbEntity
  8
0
100
AcDbLine
 10
11.600253
 20
88.13660099999998
 30
0.0
 11
11.600253
 21
79.136601
 31
0.0
  0
LINE
  5
200
330
36
100
AcDbEntity
  8
0
100
AcDbLine
 10
10.600253
 20
88.13660099999998
 30
0.0
 11
10.600253
 21
79.136601
 31
0.0
  0
ARC
  5
201
330
36
100
AcDbEntity
  8
0
100
AcDbCircle
 10
11.100253
 20
79.136601
 30
0.0
 40
0.5
100
AcDbArc
 50
180.0
 51
0.0
  0
ARC
  5
202
330
36
100
AcDbEntity
  8
0
100
AcDbCircle
 10
11.100253
 20
88.13660099999998
 30
0.0
 40
0.5
100
AcDbArc
 50
0.0
 51
180.0
  0
LINE
  5
203
330
36
100
AcDbEntity
  8
0
100
AcDbLine
 10
9.600253
 20
103.136601
 30
0.0
 11
9.600253
 21
94.13660099999999
 31
0.0
  0
LINE
  5
204
330
36
100
AcDbEntity
  8
0
100
AcDbLine
 10
8.600253
 20
103.136601
 30
0.0
 11
8.600253
 21
94.13660099999999
 31
0.0
  0
ARC
  5
205
330
36
100
AcDbEntity
  8
0
100
AcDbCircle
 10
9.100253
 20
94.13660099999999
 30
0.0
 40
0.5
100
AcDbArc
 50
180.0
 51
0.0
  0
ARC
  5
206
330
36
100
AcDbEntity
  8
0
100
AcDbCircle
 10
9.100253
 20
103.136601
 30
0.0
 40
0.5
100
AcDbArc
 50
0.0
 51
180.0
  0
LINE
  5
207
330
36
100
AcDbEntity
  8
0
100
AcDbLine
 10
9.600253
 20
88.13660099999998
 30
0.0
 11
9.600253
 21
79.136601
 31
0.0
  0
LINE
  5
208
330
36
100
AcDbEntity
  8
0
100
AcDbLine
 10
8.600253
 20
88.13660099999998
 30
0.0
 11
8.600253
 21
79.136601
 31
0.0
  0
ARC
  5
209
330
36
100
AcDbEntity
  8
0
100
AcDbCircle
 10
9.100253
 20
79.136601
 30
0.0
 40
0.5
100
AcDbArc
 50
180.0
 51
0.0
  0
ARC
  5
20A
330
36
100
AcDbEntity
  8
0
100
AcDbCircle
 10
9.100253
 20
88.13660099999998
 30
0.0
 40
0.5
100
AcDbArc
 50
0.0
 51
180.0
  0
LINE
  5
20B
330
36
100
AcDbEntity
  8
0
100
AcDbLine
 10
7.600252999999997
 20
103.136601
 30
0.0
 11
7.600252999999997
 21
94.13660099999999
 31
0.0
  0
LINE
  5
20C
330
36
100
AcDbEntity
  8
0
100
AcDbLine
 10
6.600252999999997
 20
103.136601
 30
0.0
 11
6.600252999999997
 21
94.13660099999999
 31
0.0
  0
ARC
  5
20D
330
36
100
AcDbEntity
  8
0
100
AcDbCircle
 10
7.100252999999997
 20
94.13660099999999
 30
0.0
 40
0.5
100
AcDbArc
 50
180.0
 51
0.0
  0
ARC
  5
20E
330
36
100
AcDbEntity
  8
0
100
AcDbCircle
 10
7.100252999999997
 20
103.136601
 30
0.0
 40
0.5
100
AcDbArc
 50
0.0
 51
180.0
  0
LINE
  5
20F
330
36
100
AcDbEntity
  8
0
100
AcDbLine
 10
7.600252999999997
 20
88.13660099999998
 30
0.0
 11
7.600252999999997
 21
79.136601
 31
0.0
  0
LINE
  5
210
330
36
100
AcDbEntity
  8
0
100
AcDbLine
 10
6.600252999999997
 20
88.13660099999998
 30
0.0
 11
6.600252999999997
 21
79.136601
 31
0.0
  0
ARC
  5
211
330
36
100
AcDbEntity
  8
0
100
AcDbCircle
 10
7.100252999999997
 20
79.136601
 30
0.0
 40
0.5
100
AcDbArc
 50
180.0
 51
0.0
  0
ARC
  5
212
330
36
100
AcDbEntity
  8
0
100
AcDbCircle
 10
7.100252999999997
 20
88.13660099999998
 30
0.0
 40
0.5
100
AcDbArc
 50
0.0
 51
180.0
  0
LINE
  5
213
330
36
100
AcDbEntity
  8
0
100
AcDbLine
 10
5.600252999999997
 20
103.136601
 30
0.0
 11
5.600252999999997
 21
94.13660099999999
 31
0.0
  0
LINE
  5
214
330
36
100
AcDbEntity
  8
0
100
AcDbLine
 10
4.600252999999998
 20
103.136601
 30
0.0
 11
4.600252999999998
 21
94.13660099999999
 31
0.0
  0
ARC
  5
215
330
36
100
AcDbEntity
  8
0
100
AcDbCircle
 10
5.100252999999998
 20
94.13660099999999
 30
0.0
 40
0.5
100
AcDbArc
 50
180.0
 51
0.0
  0
ARC
  5
216
330
36
100
AcDbEntity
  8
0
100
AcDbCircle
 10
5.100252999999998
 20
103.136601
 30
0.0
 40
0.5
100
AcDbArc
 50
0.0
 51
180.0
  0
LINE
  5
217
330
36
100
AcDbEntity
  8
0
100
AcDbLine
 10
5.600252999999997
 20
88.13660099999998
 30
0.0
 11
5.600252999999997
 21
79.136601
 31
0.0
  0
LINE
  5
218
330
36
100
AcDbEntity
  8
0
100
AcDbLine
 10
4.600252999999998
 20
88.13660099999998
 30
0.0
 11
4.600252999999998
 21
79.136601
 31
0.0
  0
ARC
  5
219
330
36
100
AcDbEntity
  8
0
100
AcDbCircle
 10
5.100252999999998
 20
79.136601
 30
0.0
 40
0.5
100
AcDbArc
 50
180.0
 51
0.0
  0
ARC
  5
21A
330
36
100
AcDbEntity
  8
0
100
AcDbCircle
 10
5.100252999999998
 20
88.13660099999998
 30
0.0
 40
0.5
100
AcDbArc
 50
0.0
 51
180.0
  0
LINE
  5
21B
330
36
100
AcDbEntity
  8
0
100
AcDbLine
 10
3.600252999999998
 20
103.136601
 30
0.0
 11
3.600252999999998
 21
94.13660099999999
 31
0.0
  0
LINE
  5
21C
330
36
100
AcDbEntity
  8
0
100
AcDbLine
 10
2.600252999999999
 20
103.136601
 30
0.0
 11
2.600252999999999
 21
94.13660099999999
 31
0.0
  0
ARC
  5
21D
330
36
100
AcDbEntity
  8
0
100
AcDbCircle
 10
3.100252999999998
 20
94.13660099999999
 30
0.0
 40
0.5
100
AcDbArc
 50
180.0
 51
0.0
  0
ARC
  5
21E
330
36
100
AcDbEntity
  8
0
100
AcDbCircle
 10
3.100252999999998
 20
103.136601
 30
0.0
 40
0.5
100
AcDbArc
 50
0.0
 51
180.0
  0
LINE
  5
21F
330
36
100
AcDbEntity
  8
0
100
AcDbLine
 10
3.600252999999998
 20
88.13660099999998
 30
0.0
 11
3.600252999999998
 21
79.136601
 31
0.0
  0
LINE
  5
220
330
36
100
AcDbEntity
  8
0
100
AcDbLine
 10
2.600252999999999
 20
88.13660099999998
 30
0.0
 11
2.600252999999999
 21
79.136601
 31
0.0
  0
ARC
  5
221
330
36
100
AcDbEntity
  8
0
100
AcDbCircle
 10
3.100252999999998
 20
79.136601
 30
0.0
 40
0.5
100
AcDbArc
 50
180.0
 51
0.0
  0
ARC
  5
222
330
36
100
AcDbEntity
  8
0
100
AcDbCircle
 10
3.100252999999998
 20
88.13660099999998
 30
0.0
 40
0.5
100
AcDbArc
 50
0.0
 51
180.0
  0
LINE
  5
223
330
36
100
AcDbEntity
  8
0
100
AcDbLine
 10
1.600253
 20
103.136601
 30
0.0
 11
1.600253
 21
94.13660099999999
 31
0.0
  0
LINE
  5
224
330
36
100
AcDbEntity
  8
0
100
AcDbLine
 10
0.600253
 20
103.136601
 30
0.0
 11
0.600253
 21
94.13660099999999
 31
0.0
  0
ARC
  5
225
330
36
100
AcDbEntity
  8
0
100
AcDbCircle
 10
1.100253
 20
94.13660099999999
 30
0.0
 40
0.5
100
AcDbArc
 50
180.0
 51
0.0
  0
ARC
  5
226
330
36
100
AcDbEntity
  8
0
100
AcDbCircle
 10
1.100253
 20
103.136601
 30
0.0
 40
0.5
100
AcDbArc
 50
0.0
 51
180.0
  0
LINE
  5
227
330
36
100
AcDbEntity
  8
0
100
AcDbLine
 10
1.600253
 20
88.13660099999998
 30
0.0
 11
1.600253
 21
79.136601
 31
0.0
  0
LINE
  5
228
330
36
100
AcDbEntity
  8
0
100
AcDbLine
 10
0.600253
 20
88.13660099999998
 30
0.0
 11
0.600253
 21
79.136601
 31
0.0
  0
ARC
  5
229
330
36
100
AcDbEntity
  8
0
100
AcDbCircle
 10
1.100253
 20
79.136601
 30
0.0
 40
0.5
100
AcDbArc
 50
180.0
 51
0.0
  0
ARC
  5
22A
330
36
100
AcDbEntity
  8
0
100
AcDbCircle
 10
1.100253
 20
88.13660099999998
 30
0.0
 40
0.5
100
AcDbArc
 50
0.0
 51
180.0
  0
LINE
  5
22B
330
36
100
AcDbEntity
  8
0
100
AcDbLine
 10
-0.399747
 20
103.136601
 30
0.0
 11
-0.399747
 21
94.13660099999999
 31
0.0
  0
LINE
  5
22C
330
36
100
AcDbEntity
  8
0
100
AcDbLine
 10
-1.399746999999999
 20
103.136601
 30
0.0
 11
-1.399746999999999
 21
94.13660099999999
 31
0.0
  0
ARC
  5
22D
330
36
100
AcDbEntity
  8
0
100
AcDbCircle
 10
-0.8997469999999998
 20
94.13660099999999
 30
0.0
 40
0.5
100
AcDbArc
 50
180.0
 51
0.0
  0
ARC
  5
22E
330
36
100
AcDbEntity
  8
0
100
AcDbCircle
 10
-0.8997469999999998
 20
103.136601
 30
0.0
 40
0.5
100
AcDbArc
 50
0.0
 51
180.0
  0
LINE
  5
22F
330
36
100
AcDbEntity
  8
0
100
AcDbLine
 10
-0.399747
 20
88.13660099999998
 30
0.0
 11
-0.399747
 21
79.136601
 31
0.0
  0
LINE
  5
230
330
36
100
AcDbEntity
  8
0
100
AcDbLine
 10
-1.399746999999999
 20
88.13660099999998
 30
0.0
 11
-1.399746999999999
 21
79.136601
 31
0.0
  0
ARC
  5
231
330
36
100
AcDbEntity
  8
0
100
AcDbCircle
 10
-0.8997469999999998
 20
79.136601
 30
0.0
 40
0.5
100
AcDbArc
 50
180.0
 51
0.0
  0
ARC
  5
232
330
36
100
AcDbEntity
  8
0
100
AcDbCircle
 10
-0.8997469999999998
 20
88.13660099999998
 30
0.0
 40
0.5
100
AcDbArc
 50
0.0
 51
180.0
  0
LINE
  5
233
330
36
100
AcDbEntity
  8
0
100
AcDbLine
 10
-2.399747
 20
103.136601
 30
0.0
 11
-2.399747
 21
94.13660099999999
 31
0.0
  0
LINE
  5
234
330
36
100
AcDbEntity
  8
0
100
AcDbLine
 10
-3.399747
 20
103.136601
 30
0.0
 11
-3.399747
 21
94.13660099999999
 31
0.0
  0
ARC
  5
235
330
36
100
AcDbEntity
  8
0
100
AcDbCircle
 10
-2.899746999999998
 20
94.13660099999999
 30
0.0
 40
0.5
100
AcDbArc
 50
180.0
 51
0.0
  0
ARC
  5
236
330
36
100
AcDbEntity
  8
0
100
AcDbCircle
 10
-2.899746999999998
 20
103.136601
 30
0.0
 40
0.5
100
AcDbArc
 50
0.0
 51
180.0
  0
LINE
  5
237
330
36
100
AcDbEntity
  8
0
100
AcDbLine
 10
-2.399747
 20
88.13660099999998
 30
0.0
 11
-2.399747
 21
79.136601
 31
0.0
  0
LINE
  5
238
330
36
100
AcDbEntity
  8
0
100
AcDbLine
 10
-3.399747
 20
88.13660099999998
 30
0.0
 11
-3.399747
 21
79.136601
 31
0.0
  0
ARC
  5
239
330
36
100
AcDbEntity
  8
0
100
AcDbCircle
 10
-2.899746999999998
 20
79.136601
 30
0.0
 40
0.5
100
AcDbArc
 50
180.0
 51
0.0
  0
ARC
  5
23A
330
36
100
AcDbEntity
  8
0
100
AcDbCircle
 10
-2.899746999999998
 20
88.13660099999998
 30
0.0
 40
0.5
100
AcDbArc
 50
0.0
 51
180.0
  0
LINE
  5
23B
330
36
100
AcDbEntity
  8
0
100
AcDbLine
 10
-4.399747
 20
103.136601
 30
0.0
 11
-4.399747
 21
94.13660099999999
 31
0.0
  0
LINE
  5
23C
330
36
100
AcDbEntity
  8
0
100
AcDbLine
 10
-5.399747
 20
103.136601
 30
0.0
 11
-5.399747
 21
94.13660099999999
 31
0.0
  0
ARC
  5
23D
330
36
100
AcDbEntity
  8
0
100
AcDbCircle
 10
-4.899747
 20
94.13660099999999
 30
0.0
 40
0.5
100
AcDbArc
 50
180.0
 51
0.0
  0
ARC
  5
23E
330
36
100
AcDbEntity
  8
0
100
AcDbCircle
 10
-4.899747
 20
103.136601
 30
0.0
 40
0.5
100
AcDbArc
 50
0.0
 51
180.0
  0
LINE
  5
23F
330
36
100
AcDbEntity
  8
0
100
AcDbLine
 10
-4.399747
 20
88.13660099999998
 30
0.0
 11
-4.399747
 21
79.136601
 31
0.0
  0
LINE
  5
240
330
36
100
AcDbEntity
  8
0
100
AcDbLine
 10
-5.399747
 20
88.13660099999998
 30
0.0
 11
-5.399747
 21
79.136601
 31
0.0
  0
ARC
  5
241
330
36
100
AcDbEntity
  8
0
100
AcDbCircle
 10
-4.899747
 20
79.136601
 30
0.0
 40
0.5
100
AcDbArc
 50
180.0
 51
0.0
  0
ARC
  5
242
330
36
100
AcDbEntity
  8
0
100
AcDbCircle
 10
-4.899747
 20
88.13660099999998
 30
0.0
 40
0.5
100
AcDbArc
 50
0.0
 51
180.0
  0
LINE
  5
243
330
36
100
AcDbEntity
  8
0
100
AcDbLine
 10
-6.399747
 20
103.136601
 30
0.0
 11
-6.399747
 21
94.13660099999999
 31
0.0
  0
LINE
  5
244
330
36
100
AcDbEntity
  8
0
100
AcDbLine
 10
-7.399747
 20
103.136601
 30
0.0
 11
-7.399747
 21
94.13660099999999
 31
0.0
  0
ARC
  5
245
330
36
100
AcDbEntity
  8
0
100
AcDbCircle
 10
-6.899747
 20
94.13660099999999
 30
0.0
 40
0.5
100
AcDbArc
 50
180.0
 51
0.0
  0
ARC
  5
246
330
36
100
AcDbEntity
  8
0
100
AcDbCircle
 10
-6.899747
 20
103.136601
 30
0.0
 40
0.5
100
AcDbArc
 50
0.0
 51
180.0
  0
LINE
  5
247
330
36
100
AcDbEntity
  8
0
100
AcDbLine
 10
-6.399747
 20
88.13660099999998
 30
0.0
 11
-6.399747
 21
79.136601
 31
0.0
  0
LINE
  5
248
330
36
100
AcDbEntity
  8
0
100
AcDbLine
 10
-7.399747
 20
88.13660099999998
 30
0.0
 11
-7.399747
 21
79.136601
 31
0.0
  0
ARC
  5
249
330
36
100
AcDbEntity
  8
0
100
AcDbCircle
 10
-6.899747
 20
79.136601
 30
0.0
 40
0.5
100
AcDbArc
 50
180.0
 51
0.0
  0
ARC
  5
24A
330
36
100
AcDbEntity
  8
0
100
AcDbCircle
 10
-6.899747
 20
88.13660099999998
 30
0.0
 40
0.5
100
AcDbArc
 50
0.0
 51
180.0
  0
LINE
  5
24B
330
36
100
AcDbEntity
  8
0
100
AcDbLine
 10
-8.399746999999999
 20
103.136601
 30
0.0
 11
-8.399746999999999
 21
94.13660099999999
 31
0.0
  0
LINE
  5
24C
330
36
100
AcDbEntity
  8
0
100
AcDbLine
 10
-9.399746999999999
 20
103.136601
 30
0.0
 11
-9.399746999999999
 21
94.13660099999999
 31
0.0
  0
ARC
  5
24D
330
36
100
AcDbEntity
  8
0
100
AcDbCircle
 10
-8.899746999999997
 20
94.13660099999999
 30
0.0
 40
0.5
100
AcDbArc
 50
180.0
 51
0.0
  0
ARC
  5
24E
330
36
100
AcDbEntity
  8
0
100
AcDbCircle
 10
-8.899746999999997
 20
103.136601
 30
0.0
 40
0.5
100
AcDbArc
 50
0.0
 51
180.0
  0
LINE
  5
24F
330
36
100
AcDbEntity
  8
0
100
AcDbLine
 10
-8.399746999999999
 20
88.13660099999998
 30
0.0
 11
-8.399746999999999
 21
79.136601
 31
0.0
  0
LINE
  5
250
330
36
100
AcDbEntity
  8
0
100
AcDbLine
 10
-9.399746999999999
 20
88.13660099999998
 30
0.0
 11
-9.399746999999999
 21
79.136601
 31
0.0
  0
ARC
  5
251
330
36
100
AcDbEntity
  8
0
100
AcDbCircle
 10
-8.899746999999997
 20
79.136601
 30
0.0
 40
0.5
100
AcDbArc
 50
180.0
 51
0.0
  0
ARC
  5
252
330
36
100
AcDbEntity
  8
0
100
AcDbCircle
 10
-8.899746999999997
 20
88.13660099999998
 30
0.0
 40
0.5
100
AcDbArc
 50
0.0
 51
180.0
  0
LINE
  5
253
330
36
100
AcDbEntity
  8
0
100
AcDbLine
 10
-10.399747
 20
103.136601
 30
0.0
 11
-10.399747
 21
94.13660099999999
 31
0.0
  0
LINE
  5
254
330
36
100
AcDbEntity
  8
0
100
AcDbLine
 10
-11.399747
 20
103.136601
 30
0.0
 11
-11.399747
 21
94.13660099999999
 31
0.0
  0
ARC
  5
255
330
36
100
AcDbEntity
  8
0
100
AcDbCircle
 10
-10.899747
 20
94.13660099999999
 30
0.0
 40
0.5
100
AcDbArc
 50
180.0
 51
0.0
  0
ARC
  5
256
330
36
100
AcDbEntity
  8
0
100
AcDbCircle
 10
-10.899747
 20
103.136601
 30
0.0
 40
0.5
100
AcDbArc
 50
0.0
 51
180.0
  0
LINE
  5
257
330
36
100
AcDbEntity
  8
0
100
AcDbLine
 10
-10.399747
 20
88.13660099999998
 30
0.0
 11
-10.399747
 21
79.136601
 31
0.0
  0
LINE
  5
258
330
36
100
AcDbEntity
  8
0
100
AcDbLine
 10
-11.399747
 20
88.13660099999998
 30
0.0
 11
-11.399747
 21
79.136601
 31
0.0
  0
ARC
  5
259
330
36
100
AcDbEntity
  8
0
100
AcDbCircle
 10
-10.899747
 20
79.136601
 30
0.0
 40
0.5
100
AcDbArc
 50
180.0
 51
0.0
  0
ARC
  5
25A
330
36
100
AcDbEntity
  8
0
100
AcDbCircle
 10
-10.899747
 20
88.13660099999998
 30
0.0
 40
0.5
100
AcDbArc
 50
0.0
 51
180.0
  0
LINE
  5
25B
330
36
100
AcDbEntity
  8
0
100
AcDbLine
 10
-12.399747
 20
103.136601
 30
0.0
 11
-12.399747
 21
94.13660099999999
 31
0.0
  0
LINE
  5
25C
330
36
100
AcDbEntity
  8
0
100
AcDbLine
 10
-13.399747
 20
103.136601
 30
0.0
 11
-13.399747
 21
94.13660099999999
 31
0.0
  0
ARC
  5
25D
330
36
100
AcDbEntity
  8
0
100
AcDbCircle
 10
-12.899747
 20
94.13660099999999
 30
0.0
 40
0.5
100
AcDbArc
 50
180.0
 51
0.0
  0
ARC
  5
25E
330
36
100
AcDbEntity
  8
0
100
AcDbCircle
 10
-12.899747
 20
103.136601
 30
0.0
 40
0.5
100
AcDbArc
 50
0.0
 51
180.0
  0
LINE
  5
25F
330
36
100
AcDbEntity
  8
0
100
AcDbLine
 10
-12.399747
 20
88.13660099999998
 30
0.0
 11
-12.399747
 21
79.136601
 31
0.0
  0
LINE
  5
260
330
36
100
AcDbEntity
  8
0
100
AcDbLine
 10
-13.399747
 20
88.13660099999998
 30
0.0
 11
-13.399747
 21
79.136601
 31
0.0
  0
ARC
  5
261
330
36
100
AcDbEntity
  8
0
100
AcDbCircle
 10
-12.899747
 20
79.136601
 30
0.0
 40
0.5
100
AcDbArc
 50
180.0
 51
0.0
  0
ARC
  5
262
330
36
100
AcDbEntity
  8
0
100
AcDbCircle
 10
-12.899747
 20
88.13660099999998
 30
0.0
 40
0.5
100
AcDbArc
 50
0.0
 51
180.0
  0
LINE
  5
263
330
36
100
AcDbEntity
  8
0
100
AcDbLine
 10
-14.399747
 20
103.136601
 30
0.0
 11
-14.399747
 21
94.13660099999999
 31
0.0
  0
LINE
  5
264
330
36
100
AcDbEntity
  8
0
100
AcDbLine
 10
-15.399747
 20
103.136601
 30
0.0
 11
-15.399747
 21
94.13660099999999
 31
0.0
  0
ARC
  5
265
330
36
100
AcDbEntity
  8
0
100
AcDbCircle
 10
-14.899747
 20
94.13660099999999
 30
0.0
 40
0.5
100
AcDbArc
 50
180.0
 51
0.0
  0
ARC
  5
266
330
36
100
AcDbEntity
  8
0
100
AcDbCircle
 10
-14.899747
 20
103.136601
 30
0.0
 40
0.5
100
AcDbArc
 50
0.0
 51
180.0
  0
LINE
  5
267
330
36
100
AcDbEntity
  8
0
100
AcDbLine
 10
-14.399747
 20
88.13660099999998
 30
0.0
 11
-14.399747
 21
79.136601
 31
0.0
  0
LINE
  5
268
330
36
100
AcDbEntity
  8
0
100
AcDbLine
 10
-15.399747
 20
88.13660099999998
 30
0.0
 11
-15.399747
 21
79.136601
 31
0.0
  0
ARC
  5
269
330
36
100
AcDbEntity
  8
0
100
AcDbCircle
 10
-14.899747
 20
79.136601
 30
0.0
 40
0.5
100
AcDbArc
 50
180.0
 51
0.0
  0
ARC
  5
26A
330
36
100
AcDbEntity
  8
0
100
AcDbCircle
 10
-14.899747
 20
88.13660099999998
 30
0.0
 40
0.5
100
AcDbArc
 50
0.0
 51
180.0
  0
LINE
  5
26B
330
36
100
AcDbEntity
  8
0
100
AcDbLine
 10
-16.399747
 20
103.136601
 30
0.0
 11
-16.399747
 21
94.13660099999999
 31
0.0
  0
LINE
  5
26C
330
36
100
AcDbEntity
  8
0
100
AcDbLine
 10
-17.399747
 20
103.136601
 30
0.0
 11
-17.399747
 21
94.13660099999999
 31
0.0
  0
ARC
  5
26D
330
36
100
AcDbEntity
  8
0
100
AcDbCircle
 10
-16.899747
 20
94.13660099999999
 30
0.0
 40
0.5
100
AcDbArc
 50
180.0
 51
0.0
  0
ARC
  5
26E
330
36
100
AcDbEntity
  8
0
100
AcDbCircle
 10
-16.899747
 20
103.136601
 30
0.0
 40
0.5
100
AcDbArc
 50
0.0
 51
180.0
  0
LINE
  5
26F
330
36
100
AcDbEntity
  8
0
100
AcDbLine
 10
-16.399747
 20
88.13660099999998
 30
0.0
 11
-16.399747
 21
79.136601
 31
0.0
  0
LINE
  5
270
330
36
100
AcDbEntity
  8
0
100
AcDbLine
 10
-17.399747
 20
88.13660099999998
 30
0.0
 11
-17.399747
 21
79.136601
 31
0.0
  0
ARC
  5
271
330
36
100
AcDbEntity
  8
0
100
AcDbCircle
 10
-16.899747
 20
79.136601
 30
0.0
 40
0.5
100
AcDbArc
 50
180.0
 51
0.0
  0
ARC
  5
272
330
36
100
AcDbEntity
  8
0
100
AcDbCircle
 10
-16.899747
 20
88.13660099999998
 30
0.0
 40
0.5
100
AcDbArc
 50
0.0
 51
180.0
  0
LINE
  5
273
330
36
100
AcDbEntity
  8
0
100
AcDbLine
 10
-18.399747
 20
103.136601
 30
0.0
 11
-18.399747
 21
94.13660099999999
 31
0.0
  0
LINE
  5
274
330
36
100
AcDbEntity
  8
0
100
AcDbLine
 10
-19.399747
 20
103.136601
 30
0.0
 11
-19.399747
 21
94.13660099999999
 31
0.0
  0
ARC
  5
275
330
36
100
AcDbEntity
  8
0
100
AcDbCircle
 10
-18.899747
 20
94.13660099999999
 30
0.0
 40
0.5
100
AcDbArc
 50
180.0
 51
0.0
  0
ARC
  5
276
330
36
100
AcDbEntity
  8
0
100
AcDbCircle
 10
-18.899747
 20
103.136601
 30
0.0
 40
0.5
100
AcDbArc
 50
0.0
 51
180.0
  0
LINE
  5
277
330
36
100
AcDbEntity
  8
0
100
AcDbLine
 10
-18.399747
 20
88.13660099999998
 30
0.0
 11
-18.399747
 21
79.136601
 31
0.0
  0
LINE
  5
278
330
36
100
AcDbEntity
  8
0
100
AcDbLine
 10
-19.399747
 20
88.13660099999998
 30
0.0
 11
-19.399747
 21
79.136601
 31
0.0
  0
ARC
  5
279
330
36
100
AcDbEntity
  8
0
100
AcDbCircle
 10
-18.899747
 20
79.136601
 30
0.0
 40
0.5
100
AcDbArc
 50
180.0
 51
0.0
  0
ARC
  5
27A
330
36
100
AcDbEntity
  8
0
100
AcDbCircle
 10
-18.899747
 20
88.13660099999998
 30
0.0
 40
0.5
100
AcDbArc
 50
0.0
 51
180.0
  0
LINE
  5
27B
330
36
100
AcDbEntity
  8
0
100
AcDbLine
 10
-20.399747
 20
103.136601
 30
0.0
 11
-20.399747
 21
94.13660099999999
 31
0.0
  0
LINE
  5
27C
330
36
100
AcDbEntity
  8
0
100
AcDbLine
 10
-21.399747
 20
103.136601
 30
0.0
 11
-21.399747
 21
94.13660099999999
 31
0.0
  0
ARC
  5
27D
330
36
100
AcDbEntity
  8
0
100
AcDbCircle
 10
-20.899747
 20
94.13660099999999
 30
0.0
 40
0.5
100
AcDbArc
 50
180.0
 51
0.0
  0
ARC
  5
27E
330
36
100
AcDbEntity
  8
0
100
AcDbCircle
 10
-20.899747
 20
103.136601
 30
0.0
 40
0.5
100
AcDbArc
 50
0.0
 51
180.0
  0
LINE
  5
27F
330
36
100
AcDbEntity
  8
0
100
AcDbLine
 10
-20.399747
 20
88.13660099999998
 30
0.0
 11
-20.399747
 21
79.136601
 31
0.0
  0
LINE
  5
280
330
36
100
AcDbEntity
  8
0
100
AcDbLine
 10
-21.399747
 20
88.13660099999998
 30
0.0
 11
-21.399747
 21
79.136601
 31
0.0
  0
ARC
  5
281
330
36
100
AcDbEntity
  8
0
100
AcDbCircle
 10
-20.899747
 20
79.136601
 30
0.0
 40
0.5
100
AcDbArc
 50
180.0
 51
0.0
  0
ARC
  5
282
330
36
100
AcDbEntity
  8
0
100
AcDbCircle
 10
-20.899747
 20
88.13660099999998
 30
0.0
 40
0.5
100
AcDbArc
 50
0.0
 51
180.0
  0
LINE
  5
283
330
36
100
AcDbEntity
  8
0
100
AcDbLine
 10
-23.399747
 20
103.136601
 30
0.0
 11
-23.399747
 21
94.13660099999999
 31
0.0
  0
ARC
  5
284
330
36
100
AcDbEntity
  8
0
100
AcDbCircle
 10
-22.899747
 20
94.13660099999999
 30
0.0
 40
0.5
100
AcDbArc
 50
180.0
 51
0.0
  0
ARC
  5
285
330
36
100
AcDbEntity
  8
0
100
AcDbCircle
 10
-22.899747
 20
103.136601
 30
0.0
 40
0.5
100
AcDbArc
 50
0.0
 51
180.0
  0
LINE
  5
286
330
36
100
AcDbEntity
  8
0
100
AcDbLine
 10
-22.399747
 20
88.13660099999998
 30
0.0
 11
-22.399747
 21
79.136601
 31
0.0
  0
LINE
  5
287
330
36
100
AcDbEntity
  8
0
100
AcDbLine
 10
-23.399747
 20
88.13660099999998
 30
0.0
 11
-23.399747
 21
79.136601
 31
0.0
  0
ARC
  5
288
330
36
100
AcDbEntity
  8
0
100
AcDbCircle
 10
-22.899747
 20
79.136601
 30
0.0
 40
0.5
100
AcDbArc
 50
180.0
 51
0.0
  0
ARC
  5
289
330
36
100
AcDbEntity
  8
0
100
AcDbCircle
 10
-22.899747
 20
88.13660099999998
 30
0.0
 40
0.5
100
AcDbArc
 50
0.0
 51
180.0
  0
LINE
  5
28A
330
36
100
AcDbEntity
  8
0
100
AcDbLine
 10
-22.399747
 20
103.136601
 30
0.0
 11
-22.399747
 21
94.13660099999999
 31
0.0
  0
LINE
  5
28B
330
36
100
AcDbEntity
  8
0
100
AcDbLine
 10
-169.137847
 20
30.418264
 30
0.0
 11
-166.642745
 21
110.105305
 31
0.0
  0
ARC
  5
28C
330
36
100
AcDbEntity
  8
0
100
AcDbCircle
 10
-157.642255
 20
110.136601
 30
0.0
 40
9.0
100
AcDbArc
 50
90.0
 51
180.0
  0
ARC
  5
28D
330
36
100
AcDbEntity
  8
0
100
AcDbCircle
 10
-160.142255
 20
30.136601
 30
0.0
 40
9.0
100
AcDbArc
 50
180.0
 51
270.0
  0
LINE
  5
28E
330
36
100
AcDbEntity
  8
0
100
AcDbLine
 10
-160.142255
 20
21.136601
 30
0.0
 11
-115.142255
 21
21.136601
 31
0.0
  0
ARC
  5
28F
330
36
100
AcDbEntity
  8
0
100
AcDbCircle
 10
-115.142255
 20
30.136601
 30
0.0
 40
9.0
100
AcDbArc
 50
270.0
 51
0.0
  0
LINE
  5
290
330
36
100
AcDbEntity
  8
0
100
AcDbLine
 10
-106.141767
 20
30.105366
 30
0.0
 11
-108.641767
 21
110.105366
 31
0.0
  0
LINE
  5
291
330
36
100
AcDbEntity
  8
0
100
AcDbLine
 10
-157.642255
 20
119.136601
 30
0.0
 11
-117.642255
 21
119.136601
 31
0.0
  0
CIRCLE
  5
292
330
36
100
AcDbEntity
  8
0
100
AcDbCircle
 10
-120.145451
 20
109.888915
 30
0.0
 40
1.5
  0
CIRCLE
  5
293
330
36
100
AcDbEntity
  8
0
100
AcDbCircle
 10
-120.145451
 20
78.88891499999998
 30
0.0
 40
1.5
  0
CIRCLE
  5
294
330
36
100
AcDbEntity
  8
0
100
AcDbCircle
 10
-134.542276
 20
107.136601
 30
0.0
 40
2.375
  0
CIRCLE
  5
295
330
36
100
AcDbEntity
  8
0
100
AcDbCircle
 10
82.850253
 20
42.636601
 30
0.0
 40
2.0
  0
CIRCLE
  5
296
330
36
100
AcDbEntity
  8
0
100
AcDbCircle
 10
82.850253
 20
37.636601
 30
0.0
 40
2.0
  0
CIRCLE
  5
297
330
36
100
AcDbEntity
  8
0
100
AcDbCircle
 10
-44.39974699999999
 20
37.636601
 30
0.0
 40
2.0
  0
CIRCLE
  5
298
330
36
100
AcDbEntity
  8
0
100
AcDbCircle
 10
-44.39974699999999
 20
42.636601
 30
0.0
 40
2.0
  0
ARC
  5
299
330
36
100
AcDbEntity
  8
0
100
AcDbCircle
 10
80.85025300000003
 20
120.136601
 30
0.0
 40
2.0
100
AcDbArc
 50
0.0
 51
180.0
  0
ARC
  5
29A
330
36
100
AcDbEntity
  8
0
100
AcDbCircle
 10
-44.39974699999999
 20
120.136601
 30
0.0
 40
2.0
100
AcDbArc
 50
0.0
 51
180.0
  0
LINE
  5
29B
330
36
100
AcDbEntity
  8
0
100
AcDbLine
 10
-147.528969
 20
23.54125
 30
0.0
 11
-147.528969
 21
21.648898
 31
0.0
  0
LINE
  5
29C
330
36
100
AcDbEntity
  8
0
100
AcDbLine
 10
-147.528969
 20
21.648898
 30
0.0
 11
-146.479159
 21
23.417109
 31
0.0
  0
LINE
  5
29D
330
36
100
AcDbEntity
  8
0
100
AcDbLine
 10
-147.528969
 20
23.54125
 30
0.0
 11
-148.586422
 21
21.807716
 31
0.0
  0
LINE
  5
29E
330
36
100
AcDbEntity
  8
0
100
AcDbLine
 10
6.259485999999997
 20
-34.289442
 30
0.0
 11
6.259485999999997
 21
-27.661556
 31
0.0
  0
LINE
  5
29F
330
36
100
AcDbEntity
  8
0
100
AcDbLine
 10
47.845572
 20
-40.43344199999999
 30
0.0
 11
12.403486
 21
-40.43344199999999
 31
0.0
  0
LINE
  5
2A0
330
36
100
AcDbEntity
  8
0
100
AcDbLine
 10
10.739486
 20
-38.001442
 30
0.0
 11
10.739486
 21
-42.865442
 31
0.0
  0
LINE
  5
2A1
330
36
100
AcDbEntity
  8
0
100
AcDbLine
 10
10.739486
 20
-38.001442
 30
0.0
 11
12.403486
 21
-38.001442
 31
0.0
  0
LINE
  5
2A2
330
36
100
AcDbEntity
  8
0
100
AcDbLine
 10
12.403486
 20
-38.001442
 30
0.0
 11
12.403486
 21
-42.865442
 31
0.0
  0
LINE
  5
2A3
330
36
100
AcDbEntity
  8
0
100
AcDbLine
 10
10.739486
 20
-42.865442
 30
0.0
 11
12.403486
 21
-42.865442
 31
0.0
  0
LINE
  5
2A4
330
36
100
AcDbEntity
  8
0
100
AcDbLine
 10
7.091485999999997
 20
-42.865442
 30
0.0
 11
7.091485999999997
 21
-47.729442
 31
0.0
  0
LINE
  5
2A5
330
36
100
AcDbEntity
  8
0
100
AcDbLine
 10
5.427486
 20
-42.865442
 30
0.0
 11
7.091485999999997
 21
-42.865442
 31
0.0
  0
LINE
  5
2A6
330
36
100
AcDbEntity
  8
0
100
AcDbLine
 10
5.427486
 20
-42.865442
 30
0.0
 11
5.427486
 21
-47.729442
 31
0.0
  0
LINE
  5
2A7
330
36
100
AcDbEntity
  8
0
100
AcDbLine
 10
5.491486
 20
-47.729442
 30
0.0
 11
7.091485999999997
 21
-47.729442
 31
0.0
  0
LINE
  5
2A8
330
36
100
AcDbEntity
  8
0
100
AcDbLine
 10
3.827486
 20
-35.95344199999999
 30
0.0
 11
8.691485999999999
 21
-35.95344199999999
 31
0.0
  0
LINE
  5
2A9
330
36
100
AcDbEntity
  8
0
100
AcDbLine
 10
3.827486
 20
-34.161442
 30
0.0
 11
8.691485999999999
 21
-34.161442
 31
0.0
  0
LINE
  5
2AA
330
36
100
AcDbEntity
  8
0
100
AcDbLine
 10
8.691485999999999
 20
-34.161442
 30
0.0
 11
8.691485999999999
 21
-35.95344199999999
 31
0.0
  0
LINE
  5
2AB
330
36
100
AcDbEntity
  8
0
100
AcDbLine
 10
3.827486
 20
-34.161442
 30
0.0
 11
3.827486
 21
-35.95344199999999
 31
0.0
  0
LINE
  5
2AC
330
36
100
AcDbEntity
  8
0
100
AcDbLine
 10
1.779486
 20
-38.001442
 30
0.0
 11
1.779486
 21
-42.865442
 31
0.0
  0
LINE
  5
2AD
330
36
100
AcDbEntity
  8
0
100
AcDbLine
 10
0.115486
 20
-38.001442
 30
0.0
 11
1.779486
 21
-38.001442
 31
0.0
  0
LINE
  5
2AE
330
36
100
AcDbEntity
  8
0
100
AcDbLine
 10
0.115486
 20
-42.865442
 30
0.0
 11
1.779486
 21
-42.865442
 31
0.0
  0
LINE
  5
2AF
330
36
100
AcDbEntity
  8
0
100
AcDbLine
 10
0.115486
 20
-38.001442
 30
0.0
 11
0.115486
 21
-42.865442
 31
0.0
  0
LINE
  5
2CC
330
36
100
AcDbEntity
  8
0
 62
     3
100
AcDbLine
 10
144.687559
 20
-95.798248
 30
0.0
 11
144.687559
 21
-72.798248
 31
0.0
  0
LINE
  5
2CE
330
36
100
AcDbEntity
  8
0
 62
     3
100
AcDbLine
 10
91.63394999999999
 20
-102.798248
 30
0.0
 11
91.63394999999999
 21
-88.79824799999999
 31
0.0
  0
TEXT
  5
2D0
330
36
100
AcDbEntity
  8
0
 62
     3
100
AcDbText
 10
120.697877
 20
-76.59313199999998
 30
0.0
 40
2.0
  1
A
 41
0.7
100
AcDbText
  0
TEXT
  5
2D1
330
36
100
AcDbEntity
  8
0
 62
     3
100
AcDbText
 10
123.233164
 20
-76.59313199999998
 30
0.0
 40
2.0
  1
P
 41
0.7
100
AcDbText
  0
TEXT
  5
2D2
330
36
100
AcDbEntity
  8
0
 62
     3
100
AcDbText
 10
125.76845
 20
-76.59313199999998
 30
0.0
 40
2.0
  1
P
 41
0.7
100
AcDbText
  0
TEXT
  5
2D3
330
36
100
AcDbEntity
  8
0
 62
     3
100
AcDbText
 10
128.303736
 20
-76.59313199999998
 30
0.0
 40
2.0
  1
D
 41
0.7
100
AcDbText
  0
TEXT
  5
2D4
330
36
100
AcDbEntity
  8
0
 62
     3
100
AcDbText
 10
133.672419
 20
-76.59313199999998
 30
0.0
 40
2.0
  1
C
 41
0.7
100
AcDbText
  0
TEXT
  5
2D5
330
36
100
AcDbEntity
  8
0
 62
     3
100
AcDbText
 10
136.207705
 20
-76.59313199999998
 30
0.0
 40
2.0
  1
H
 41
0.7
100
AcDbText
  0
TEXT
  5
2D6
330
36
100
AcDbEntity
  8
0
 62
     3
100
AcDbText
 10
138.742992
 20
-76.59313199999998
 30
0.0
 40
2.0
  1
C
 41
0.7
100
AcDbText
  0
TEXT
  5
2D7
330
36
100
AcDbEntity
  8
0
 62
     3
100
AcDbText
 10
141.278278
 20
-76.59313199999998
 30
0.0
 40
2.0
  1
K
 41
0.7
100
AcDbText
  0
TEXT
  5
2D8
330
36
100
AcDbEntity
  8
0
 62
     3
100
AcDbText
 10
146.952244
 20
-76.59313199999998
 30
0.0
 40
2.0
  1
DESN
 41
1.216762999999998
100
AcDbText
  0
TEXT
  5
2D9
330
36
100
AcDbEntity
  8
0
 62
     3
100
AcDbText
 10
61.945886
 20
-105.939629
 30
0.0
 40
2.0
  1
NICHIDO IND.CO.LTD
 41
1.274876
100
AcDbText
  0
LINE
  5
2DA
330
36
100
AcDbEntity
  8
0
 62
     3
100
AcDbLine
 10
72.328915
 20
-72.798248
 30
0.0
 11
72.328915
 21
-95.798248
 31
0.0
  0
LINE
  5
2DB
330
36
100
AcDbEntity
  8
0
 62
     3
100
AcDbLine
 10
118.687559
 20
-72.79824799999999
 30
0.0
 11
118.687559
 21
-112.46397
 31
0.0
  0
LINE
  5
2E0
330
36
100
AcDbEntity
  8
0
 62
     3
100
AcDbLine
 10
131.687559
 20
-72.798248
 30
0.0
 11
131.687559
 21
-102.798248
 31
0.0
  0
TEXT
  5
2E1
330
36
100
AcDbEntity
  8
0
 62
     3
100
AcDbText
 10
119.800004
 20
-101.933561
 30
0.0
 40
3.2
  1
作成日
 41
1.017225999999997
100
AcDbText
  0
LINE
  5
2E2
330
36
100
AcDbEntity
  8
0
 62
     3
100
AcDbLine
 10
170.386923
 20
-72.798248
 30
0.0
 11
59.08348
 21
-72.798248
 31
0.0
  0
LINE
  5
2E3
330
36
100
AcDbEntity
  8
0
 62
     3
100
AcDbLine
 10
157.687559
 20
-95.798248
 30
0.0
 11
157.687559
 21
-72.798248
 31
0.0
  0
TEXT
  5
2E4
330
36
100
AcDbEntity
  8
0
 62
     3
100
AcDbText
 10
161.011363
 20
-76.507313
 30
0.0
 40
1.8
  1
D
 41
0.666667
100
AcDbText
  0
TEXT
  5
2E5
330
36
100
AcDbEntity
  8
0
 62
     3
100
AcDbText
 10
163.827991
 20
-76.507313
 30
0.0
 40
1.8
  1
E
 41
0.666667
100
AcDbText
  0
TEXT
  5
2E6
330
36
100
AcDbEntity
  8
0
 62
     3
100
AcDbText
 10
166.644619
 20
-76.507313
 30
0.0
 40
1.8
  1
F
 41
0.666667
100
AcDbText
  0
TEXT
  5
2E7
330
36
100
AcDbEntity
  8
0
 62
     3
100
AcDbText
 10
161.011363
 20
-80.499866
 30
0.0
 40
3.2
  1
製図
 41
1.076369
100
AcDbText
  0
LINE
  5
2E8
330
36
100
AcDbEntity
  8
0
 62
     3
100
AcDbLine
 10
59.08348
 20
-72.798248
 30
0.0
 11
59.08348
 21
-112.46397
 31
0.0
  0
TEXT
  5
2E9
330
36
100
AcDbEntity
  8
0
 62
     3
100
AcDbText
 10
60.460133
 20
-112.131505
 30
0.0
 40
5.0
  1
日動工業株式会社
 41
0.833333
100
AcDbText
  0
LINE
  5
2EA
330
36
100
AcDbEntity
  8
0
 62
     3
100
AcDbLine
 10
101.965884
 20
-88.79824799999999
 30
0.0
 11
101.965884
 21
-112.46397
 31
0.0
  0
LINE
  5
2EB
330
36
100
AcDbEntity
  8
0
 62
     3
100
AcDbLine
 10
101.965884
 20
-107.631109
 30
0.0
 11
118.687559
 21
-107.631109
 31
0.0
  0
TEXT
  5
2EC
330
36
100
AcDbEntity
  8
0
 62
     3
100
AcDbText
 10
102.552486
 20
-106.814678
 30
0.0
 40
3.2
  1
出図コード
 41
0.8356860000000001
100
AcDbText
  0
LINE
  5
2EE
330
36
100
AcDbEntity
  8
0
 62
     3
100
AcDbLine
 10
59.08348000000001
 20
-102.798248
 30
0.0
 11
170.386923
 21
-102.798248
 31
0.0
  0
LINE
  5
2F0
330
36
100
AcDbEntity
  8
0
 62
     3
100
AcDbLine
 10
59.08348
 20
-81.798248
 30
0.0
 11
170.386923
 21
-81.798248
 31
0.0
  0
LINE
  5
2F6
330
36
100
AcDbEntity
  8
0
 62
     3
100
AcDbLine
 10
59.08348000000001
 20
-88.79824799999999
 30
0.0
 11
118.687559
 21
-88.79824799999999
 31
0.0
  0
LINE
  5
2FC
330
36
100
AcDbEntity
  8
0
 62
     3
100
AcDbLine
 10
59.08348000000001
 20
-95.798248
 30
0.0
 11
170.386923
 21
-95.798248
 31
0.0
  0
TEXT
  5
2FD
330
36
100
AcDbEntity
  8
0
 62
     3
100
AcDbText
 10
102.419938
 20
-111.8016183271805
 30
0.0
 40
3.2
  1
ZK-A3X
 41
0.8112849999999999
100
AcDbText
  0
TEXT
  5
2FE
330
36
100
AcDbEntity
  8
0
 62
     3
100
AcDbText
 10
60.900877
 20
-76.62872199999998
 30
0.0
 40
2.0
  1
CONPONENTS
 41
0.5331600000000001
100
AcDbText
  0
TEXT
  5
2FF
330
36
100
AcDbEntity
  8
0
 62
     3
100
AcDbText
 10
60.551151
 20
-95.56089900000001
 30
0.0
 40
3.0
  1
材
 41
0.833333
100
AcDbText
  0
TEXT
  5
300
330
36
100
AcDbEntity
  8
0
 62
     3
100
AcDbText
 10
68.086793
 20
-95.56089900000001
 30
0.0
 40
3.0
  1
質
 41
0.833333
100
AcDbText
  0
TEXT
  5
301
330
36
100
AcDbEntity
  8
0
 62
     3
100
AcDbText
 10
60.639221
 20
-84.936374
 30
0.0
 40
2.0
  1
MODEL
 41
1.031072999999999
100
AcDbText
  0
TEXT
  5
302
330
36
100
AcDbEntity
  8
0
 62
     3
100
AcDbText
 10
60.551151
 20
-91.87859000000001
 30
0.0
 40
2.0
  1
MATERIAL
 41
0.659278
100
AcDbText
  0
TEXT
  5
303
330
36
100
AcDbEntity
  8
0
 62
     3
100
AcDbText
 10
91.85843099999999
 20
-95.56089900000001
 30
0.0
 40
3.0
  1
備
 41
0.833333
100
AcDbText
  0
TEXT
  5
304
330
36
100
AcDbEntity
  8
0
 62
     3
100
AcDbText
 10
98.59143299999999
 20
-95.56089900000001
 30
0.0
 40
3.0
  1
考
 41
0.833333
100
AcDbText
  0
TEXT
  5
305
330
36
100
AcDbEntity
  8
0
 62
     3
100
AcDbText
 10
92.1835623036909
 20
-91.87859000000001
 30
0.0
 40
2.0
  1
REMARKS
 41
0.675794
100
AcDbText
  0
TEXT
  5
306
330
36
100
AcDbEntity
  8
0
 62
     3
100
AcDbText
 10
62.14088
 20
-98.798711
 30
0.0
 40
2.0
  1
3AD
 41
1.42614
100
AcDbText
  0
TEXT
  5
307
330
36
100
AcDbEntity
  8
0
 62
     3
100
AcDbText
 10
71.451859
 20
-98.632977
 30
0.0
 40
2.0
  1
ANGLE
 41
1.669883999999995
100
AcDbText
  0
TEXT
  5
308
330
36
100
AcDbEntity
  8
0
 62
     3
100
AcDbText
 10
92.38574599999999
 20
-99.00981800000003
 30
0.0
 40
2.0
  1
SCALE
 41
0.7719630000000001
100
AcDbText
  0
TEXT
  5
309
330
36
100
AcDbEntity
  8
0
 62
     3
100
AcDbText
 10
61.827009
 20
-102.798248
 30
0.0
 40
3.0
  1
第
 41
0.833333
100
AcDbText
  0
TEXT
  5
30A
330
36
100
AcDbEntity
  8
0
 62
     3
100
AcDbText
 10
69.61385899999999
 20
-102.798248
 30
0.0
 40
3.0
  1
三
 41
0.833333
100
AcDbText
  0
TEXT
  5
30B
330
36
100
AcDbEntity
  8
0
 62
     3
100
AcDbText
 10
77.40070899999998
 20
-102.798248
 30
0.0
 40
3.0
  1
角
 41
0.833333
100
AcDbText
  0
TEXT
  5
30C
330
36
100
AcDbEntity
  8
0
 62
     3
100
AcDbText
 10
85.187559
 20
-102.798248
 30
0.0
 40
3.0
  1
法
 41
0.833333
100
AcDbText
  0
TEXT
  5
30D
330
36
100
AcDbEntity
  8
0
 62
     3
100
AcDbText
 10
92.24895100000001
 20
-102.509818
 30
0.0
 40
3.0
  1
尺
 41
0.833333
100
AcDbText
  0
TEXT
  5
30E
330
36
100
AcDbEntity
  8
0
 62
     3
100
AcDbText
 10
98.98195300000001
 20
-102.509818
 30
0.0
 40
3.0
  1
度
 41
0.833333
100
AcDbText
  0
TEXT
  5
30F
330
36
100
AcDbEntity
  8
0
 62
     3
100
AcDbText
 10
121.565224
 20
-80.34051899999999
 30
0.0
 40
3.0
  1
承認
 41
1.089472999999999
100
AcDbText
  0
TEXT
  5
310
330
36
100
AcDbEntity
  8
0
 62
     3
100
AcDbText
 10
134.808104
 20
-80.39824799999998
 30
0.0
 40
3.0
  1
検図
 41
0.931761
100
AcDbText
  0
TEXT
  5
311
330
36
100
AcDbEntity
  8
0
 62
     3
100
AcDbText
 10
147.808501
 20
-80.39824799999998
 30
0.0
 40
3.0
  1
設
 41
0.833333
100
AcDbText
  0
TEXT
  5
312
330
36
100
AcDbEntity
  8
0
 62
     3
100
AcDbText
 10
152.298369
 20
-80.39824799999998
 30
0.0
 40
3.0
  1
計
 41
0.833333
100
AcDbText
  0
TEXT
  5
313
330
36
100
AcDbEntity
  8
0
 62
     3
100
AcDbText
 10
60.970984
 20
-80.22569500000001
 30
0.0
 40
3.0
  1
品
 41
0.833333
100
AcDbText
  0
TEXT
  5
314
330
36
100
AcDbEntity
  8
0
 62
     3
100
AcDbText
 10
68.50662599999999
 20
-80.22569500000001
 30
0.0
 40
3.0
  1
名
 41
0.833333
100
AcDbText
  0
TEXT
  5
315
330
36
100
AcDbEntity
  8
0
 62
     3
100
AcDbText
 10
60.639221
 20
-88.38221736446646
 30
0.0
 40
3.0
  1
型
 41
0.833333
100
AcDbText
  0
TEXT
  5
316
330
36
100
AcDbEntity
  8
0
 62
     3
100
AcDbText
 10
68.18731200000001
 20
-88.38221736446646
 30
0.0
 40
3.0
  1
式
 41
0.833333
100
AcDbText
  0
TEXT
  5
31D
330
36
100
AcDbEntity
  8
0
 62
     3
100
AcDbText
 10
121.6317217266999
 20
-111.448823
 30
0.0
 40
6.299999999999998
  1
RTB-300D-100V
 41
0.6
  7
高6.3
100
AcDbText
  0
LINE
  5
31E
330
36
100
AcDbEntity
  8
0
 62
     3
100
AcDbLine
 10
-232.015001
 20
26.03603
 30
0.0
 11
-234.613077
 21
24.53603
 31
0.0
  0
LINE
  5
31F
330
36
100
AcDbEntity
  8
0
 62
     3
100
AcDbLine
 10
-232.015001
 20
26.03603
 30
0.0
 11
-234.613077
 21
27.53603
 31
0.0
  0
LINE
  5
320
330
36
100
AcDbEntity
  8
0
 62
     3
100
AcDbLine
 10
-234.613077
 20
24.53603
 30
0.0
 11
-234.613077
 21
27.53603
 31
0.0
  0
LINE
  5
351
330
36
100
AcDbEntity
  8
0
100
AcDbLine
 10
-117.145451
 20
88.138915
 30
0.0
 11
-123.145451
 21
88.138915
 31
0.0
  0
LINE
  5
352
330
36
100
AcDbEntity
  8
0
100
AcDbLine
 10
-117.145451
 20
100.638915
 30
0.0
 11
-118.520451
 21
100.638915
 31
0.0
  0
LINE
  5
353
330
36
100
AcDbEntity
  8
0
100
AcDbLine
 10
-121.770451
 20
100.638915
 30
0.0
 11
-123.145451
 21
100.638915
 31
0.0
  0
LINE
  5
354
330
36
100
AcDbEntity
  8
0
100
AcDbLine
 10
-118.520451
 20
101.388915
 30
0.0
 11
-118.520451
 21
90.638915
 31
0.0
  0
LINE
  5
355
330
36
100
AcDbEntity
  8
0
100
AcDbLine
 10
-121.770451
 20
101.388915
 30
0.0
 11
-121.770451
 21
90.638915
 31
0.0
  0
LINE
  5
356
330
36
100
AcDbEntity
  8
0
100
AcDbLine
 10
-118.520451
 20
90.638915
 30
0.0
 11
-121.770451
 21
90.638915
 31
0.0
  0
LINE
  5
357
330
36
100
AcDbEntity
  8
0
100
AcDbLine
 10
-118.270451
 20
96.888915
 30
0.0
 11
-118.520451
 21
96.888915
 31
0.0
  0
LINE
  5
358
330
36
100
AcDbEntity
  8
0
100
AcDbLine
 10
-121.770451
 20
96.888915
 30
0.0
 11
-122.020451
 21
96.888915
 31
0.0
  0
LINE
  5
359
330
36
100
AcDbEntity
  8
0
100
AcDbLine
 10
-118.270451
 20
90.388915
 30
0.0
 11
-118.520451
 21
90.638915
 31
0.0
  0
TEXT
  5
35A
330
36
100
AcDbEntity
  8
0
100
AcDbText
 10
-127.631796
 20
46.034886
 30
0.0
 40
3.839999999999998
  1
100V
 41
1.090908999999999
100
AcDbText
  0
TEXT
  5
35B
330
36
100
AcDbEntity
  8
0
100
AcDbText
 10
-162.472715
 20
46.034886
 30
0.0
 40
3.839999999999998
  1
100V
 41
1.090908999999999
100
AcDbText
  0
LINE
  5
35C
330
36
100
AcDbEntity
  8
0
 62
     3
100
AcDbLine
 10
-115.32043
 20
31.13660100000001
 30
0.0
 11
-124.964081
 21
31.13660100000001
 31
0.0
  0
ARC
  5
35D
330
36
100
AcDbEntity
  8
0
 62
     3
100
AcDbCircle
 10
-120.142255
 20
38.136601
 30
0.0
 40
8.5
100
AcDbArc
 50
124.560322
 51
235.439678
  0
LINE
  5
35E
330
36
100
AcDbEntity
  8
0
 62
     3
100
AcDbLine
 10
-150.32043
 20
31.13660100000001
 30
0.0
 11
-159.964081
 21
31.13660100000001
 31
0.0
  0
ARC
  5
35F
330
36
100
AcDbEntity
  8
0
 62
     3
100
AcDbCircle
 10
-155.142255
 20
38.136601
 30
0.0
 40
8.5
100
AcDbArc
 50
304.560322
 51
55.439678
  0
ARC
  5
360
330
36
100
AcDbEntity
  8
0
 62
     3
100
AcDbCircle
 10
-155.142255
 20
38.136601
 30
0.0
 40
8.5
100
AcDbArc
 50
124.560322
 51
235.439678
  0
LINE
  5
361
330
36
100
AcDbEntity
  8
0
 62
     3
100
AcDbLine
 10
-150.32043
 20
45.136601
 30
0.0
 11
-159.964081
 21
45.136601
 31
0.0
  0
LINE
  5
362
330
36
100
AcDbEntity
  8
0
 62
     3
100
AcDbLine
 10
-150.32043
 20
50.63660099999999
 30
0.0
 11
-159.964081
 21
50.63660099999999
 31
0.0
  0
ARC
  5
363
330
36
100
AcDbEntity
  8
0
 62
     3
100
AcDbCircle
 10
-155.142255
 20
57.636601
 30
0.0
 40
8.5
100
AcDbArc
 50
124.560322
 51
235.439678
  0
LINE
  5
364
330
36
100
AcDbEntity
  8
0
 62
     3
100
AcDbLine
 10
-150.32043
 20
64.636601
 30
0.0
 11
-159.964081
 21
64.636601
 31
0.0
  0
ARC
  5
365
330
36
100
AcDbEntity
  8
0
 62
     3
100
AcDbCircle
 10
-155.142255
 20
57.636601
 30
0.0
 40
8.5
100
AcDbArc
 50
304.560322
 51
55.439678
  0
ARC
  5
366
330
36
100
AcDbEntity
  8
0
 62
     3
100
AcDbCircle
 10
-120.142255
 20
57.636601
 30
0.0
 40
8.5
100
AcDbArc
 50
124.560322
 51
235.439678
  0
LINE
  5
367
330
36
100
AcDbEntity
  8
0
 62
     3
100
AcDbLine
 10
-115.32043
 20
64.636601
 30
0.0
 11
-124.964081
 21
64.636601
 31
0.0
  0
ARC
  5
368
330
36
100
AcDbEntity
  8
0
 62
     3
100
AcDbCircle
 10
-120.142255
 20
57.636601
 30
0.0
 40
8.5
100
AcDbArc
 50
304.560322
 51
55.439678
  0
LINE
  5
369
330
36
100
AcDbEntity
  8
0
 62
     3
100
AcDbLine
 10
-115.32043
 20
50.63660099999999
 30
0.0
 11
-124.964081
 21
50.63660099999999
 31
0.0
  0
LINE
  5
36A
330
36
100
AcDbEntity
  8
0
 62
     3
100
AcDbLine
 10
-115.32043
 20
45.136601
 30
0.0
 11
-124.964081
 21
45.136601
 31
0.0
  0
ARC
  5
36F
330
36
100
AcDbEntity
  8
0
 62
     3
100
AcDbCircle
 10
-120.142255
 20
38.136601
 30
0.0
 40
8.5
100
AcDbArc
 50
304.560322
 51
55.439678
  0
LINE
  5
370
330
36
100
AcDbEntity
  8
0
100
AcDbLine
 10
-117.842255
 20
43.28660099999999
 30
0.0
 11
-115.592255
 21
43.28660099999999
 31
0.0
  0
ARC
  5
371
330
36
100
AcDbEntity
  8
0
100
AcDbCircle
 10
-117.842255
 20
42.78660099999997
 30
0.0
 40
0.5
100
AcDbArc
 50
90.0
 51
180.0
  0
LINE
  5
372
330
36
100
AcDbEntity
  8
0
100
AcDbLine
 10
-115.092255
 20
42.78660099999997
 30
0.0
 11
-115.092255
 21
36.636601
 31
0.0
  0
ARC
  5
373
330
36
100
AcDbEntity
  8
0
100
AcDbCircle
 10
-115.592255
 20
36.636601
 30
0.0
 40
0.5
100
AcDbArc
 50
270.0
 51
0.0
  0
ARC
  5
374
330
36
100
AcDbEntity
  8
0
100
AcDbCircle
 10
-124.692255
 20
37.061601
 30
0.0
 40
0.5
100
AcDbArc
 50
180.0
 51
270.0
  0
LINE
  5
375
330
36
100
AcDbEntity
  8
0
100
AcDbLine
 10
-125.192255
 20
42.361601
 30
0.0
 11
-125.192255
 21
37.061601
 31
0.0
  0
ARC
  5
376
330
36
100
AcDbEntity
  8
0
100
AcDbCircle
 10
-124.692255
 20
42.361601
 30
0.0
 40
0.5
100
AcDbArc
 50
90.0
 51
180.0
  0
LINE
  5
377
330
36
100
AcDbEntity
  8
0
100
AcDbLine
 10
-124.692255
 20
42.861601
 30
0.0
 11
-122.442255
 21
42.861601
 31
0.0
  0
ARC
  5
378
330
36
100
AcDbEntity
  8
0
100
AcDbCircle
 10
-122.442255
 20
42.361601
 30
0.0
 40
0.5
100
AcDbArc
 50
0.0
 51
90.0
  0
ARC
  5
379
330
36
100
AcDbEntity
  8
0
100
AcDbCircle
 10
-121.492255
 20
32.211601
 30
0.0
 40
0.5
100
AcDbArc
 50
180.0
 51
270.0
  0
LINE
  5
37A
330
36
100
AcDbEntity
  8
0
100
AcDbLine
 10
-121.492255
 20
31.711601
 30
0.0
 11
-120.892255
 21
31.711601
 31
0.0
  0
LINE
  5
37B
330
36
100
AcDbEntity
  8
0
100
AcDbLine
 10
-119.392255
 20
31.711601
 30
0.0
 11
-120.892255
 21
31.711601
 31
0.0
  0
LINE
  5
37C
330
36
100
AcDbEntity
  8
0
100
AcDbLine
 10
-119.392255
 20
31.711601
 30
0.0
 11
-118.792255
 21
31.711601
 31
0.0
  0
ARC
  5
37D
330
36
100
AcDbEntity
  8
0
100
AcDbCircle
 10
-118.792255
 20
32.211601
 30
0.0
 40
0.5
100
AcDbArc
 50
270.0
 51
0.0
  0
LINE
  5
37E
330
36
100
AcDbEntity
  8
0
100
AcDbLine
 10
-115.092255
 20
62.28660099999999
 30
0.0
 11
-115.092255
 21
56.136601
 31
0.0
  0
ARC
  5
37F
330
36
100
AcDbEntity
  8
0
100
AcDbCircle
 10
-115.592255
 20
56.136601
 30
0.0
 40
0.5
100
AcDbArc
 50
270.0
 51
0.0
  0
LINE
  5
380
330
36
100
AcDbEntity
  8
0
100
AcDbLine
 10
-125.192255
 20
61.861601
 30
0.0
 11
-125.192255
 21
56.56160100000001
 31
0.0
  0
ARC
  5
381
330
36
100
AcDbEntity
  8
0
100
AcDbCircle
 10
-121.492255
 20
51.711601
 30
0.0
 40
0.5
100
AcDbArc
 50
180.0
 51
270.0
  0
LINE
  5
382
330
36
100
AcDbEntity
  8
0
100
AcDbLine
 10
-121.492255
 20
51.211601
 30
0.0
 11
-120.892255
 21
51.211601
 31
0.0
  0
LINE
  5
383
330
36
100
AcDbEntity
  8
0
100
AcDbLine
 10
-119.392255
 20
51.211601
 30
0.0
 11
-118.792255
 21
51.211601
 31
0.0
  0
LINE
  5
384
330
36
100
AcDbEntity
  8
0
100
AcDbLine
 10
-119.392255
 20
51.211601
 30
0.0
 11
-120.892255
 21
51.211601
 31
0.0
  0
ARC
  5
385
330
36
100
AcDbEntity
  8
0
100
AcDbCircle
 10
-118.792255
 20
51.711601
 30
0.0
 40
0.5
100
AcDbArc
 50
270.0
 51
0.0
  0
LINE
  5
386
330
36
100
AcDbEntity
  8
0
100
AcDbLine
 10
-117.842255
 20
62.78660099999999
 30
0.0
 11
-115.592255
 21
62.78660099999999
 31
0.0
  0
ARC
  5
387
330
36
100
AcDbEntity
  8
0
100
AcDbCircle
 10
-115.592255
 20
62.28660099999999
 30
0.0
 40
0.5
100
AcDbArc
 50
0.0
 51
90.0
  0
ARC
  5
388
330
36
100
AcDbEntity
  8
0
100
AcDbCircle
 10
-117.842255
 20
62.28660099999999
 30
0.0
 40
0.5
100
AcDbArc
 50
90.0
 51
180.0
  0
ARC
  5
389
330
36
100
AcDbEntity
  8
0
100
AcDbCircle
 10
-124.692255
 20
61.861601
 30
0.0
 40
0.5
100
AcDbArc
 50
90.0
 51
180.0
  0
LINE
  5
38A
330
36
100
AcDbEntity
  8
0
100
AcDbLine
 10
-124.692255
 20
62.361601
 30
0.0
 11
-122.442255
 21
62.361601
 31
0.0
  0
ARC
  5
38B
330
36
100
AcDbEntity
  8
0
100
AcDbCircle
 10
-122.442255
 20
61.861601
 30
0.0
 40
0.5
100
AcDbArc
 50
0.0
 51
90.0
  0
ARC
  5
38C
330
36
100
AcDbEntity
  8
0
100
AcDbCircle
 10
-150.592255
 20
42.78660099999997
 30
0.0
 40
0.5
100
AcDbArc
 50
0.0
 51
90.0
  0
LINE
  5
38D
330
36
100
AcDbEntity
  8
0
100
AcDbLine
 10
-152.842255
 20
43.28660099999999
 30
0.0
 11
-150.592255
 21
43.28660099999999
 31
0.0
  0
ARC
  5
38E
330
36
100
AcDbEntity
  8
0
100
AcDbCircle
 10
-152.842255
 20
42.78660099999997
 30
0.0
 40
0.5
100
AcDbArc
 50
90.0
 51
180.0
  0
LINE
  5
38F
330
36
100
AcDbEntity
  8
0
100
AcDbLine
 10
-150.092255
 20
42.78660099999997
 30
0.0
 11
-150.092255
 21
36.636601
 31
0.0
  0
ARC
  5
390
330
36
100
AcDbEntity
  8
0
100
AcDbCircle
 10
-150.592255
 20
36.636601
 30
0.0
 40
0.5
100
AcDbArc
 50
270.0
 51
0.0
  0
ARC
  5
391
330
36
100
AcDbEntity
  8
0
100
AcDbCircle
 10
-159.692255
 20
37.061601
 30
0.0
 40
0.5
100
AcDbArc
 50
180.0
 51
270.0
  0
LINE
  5
392
330
36
100
AcDbEntity
  8
0
100
AcDbLine
 10
-160.192255
 20
42.361601
 30
0.0
 11
-160.192255
 21
37.061601
 31
0.0
  0
ARC
  5
393
330
36
100
AcDbEntity
  8
0
100
AcDbCircle
 10
-159.692255
 20
42.361601
 30
0.0
 40
0.5
100
AcDbArc
 50
90.0
 51
180.0
  0
LINE
  5
394
330
36
100
AcDbEntity
  8
0
100
AcDbLine
 10
-159.692255
 20
42.861601
 30
0.0
 11
-157.442255
 21
42.861601
 31
0.0
  0
ARC
  5
395
330
36
100
AcDbEntity
  8
0
100
AcDbCircle
 10
-157.442255
 20
42.361601
 30
0.0
 40
0.5
100
AcDbArc
 50
0.0
 51
90.0
  0
ARC
  5
396
330
36
100
AcDbEntity
  8
0
100
AcDbCircle
 10
-156.492255
 20
32.211601
 30
0.0
 40
0.5
100
AcDbArc
 50
180.0
 51
270.0
  0
LINE
  5
397
330
36
100
AcDbEntity
  8
0
100
AcDbLine
 10
-156.492255
 20
31.711601
 30
0.0
 11
-155.892255
 21
31.711601
 31
0.0
  0
LINE
  5
398
330
36
100
AcDbEntity
  8
0
100
AcDbLine
 10
-154.392255
 20
31.711601
 30
0.0
 11
-155.892255
 21
31.711601
 31
0.0
  0
LINE
  5
399
330
36
100
AcDbEntity
  8
0
100
AcDbLine
 10
-154.392255
 20
31.711601
 30
0.0
 11
-153.792255
 21
31.711601
 31
0.0
  0
ARC
  5
39A
330
36
100
AcDbEntity
  8
0
100
AcDbCircle
 10
-153.792255
 20
32.211601
 30
0.0
 40
0.5
100
AcDbArc
 50
270.0
 51
0.0
  0
LINE
  5
39B
330
36
100
AcDbEntity
  8
0
100
AcDbLine
 10
-150.092255
 20
62.28660099999999
 30
0.0
 11
-150.092255
 21
56.136601
 31
0.0
  0
ARC
  5
39C
330
36
100
AcDbEntity
  8
0
100
AcDbCircle
 10
-150.592255
 20
56.136601
 30
0.0
 40
0.5
100
AcDbArc
 50
270.0
 51
0.0
  0
ARC
  5
39D
330
36
100
AcDbEntity
  8
0
100
AcDbCircle
 10
-159.692255
 20
56.56160100000001
 30
0.0
 40
0.5
100
AcDbArc
 50
180.0
 51
270.0
  0
LINE
  5
39E
330
36
100
AcDbEntity
  8
0
100
AcDbLine
 10
-160.192255
 20
61.861601
 30
0.0
 11
-160.192255
 21
56.56160100000001
 31
0.0
  0
LINE
  5
39F
330
36
100
AcDbEntity
  8
0
100
AcDbLine
 10
-156.492255
 20
51.211601
 30
0.0
 11
-155.892255
 21
51.211601
 31
0.0
  0
LINE
  5
3A0
330
36
100
AcDbEntity
  8
0
100
AcDbLine
 10
-154.392255
 20
51.211601
 30
0.0
 11
-153.792255
 21
51.211601
 31
0.0
  0
LINE
  5
3A1
330
36
100
AcDbEntity
  8
0
100
AcDbLine
 10
-154.392255
 20
51.211601
 30
0.0
 11
-155.892255
 21
51.211601
 31
0.0
  0
LINE
  5
3A2
330
36
100
AcDbEntity
  8
0
100
AcDbLine
 10
-152.842255
 20
62.78660099999999
 30
0.0
 11
-150.592255
 21
62.78660099999999
 31
0.0
  0
ARC
  5
3A3
330
36
100
AcDbEntity
  8
0
100
AcDbCircle
 10
-150.592255
 20
62.28660099999999
 30
0.0
 40
0.5
100
AcDbArc
 50
0.0
 51
90.0
  0
ARC
  5
3A4
330
36
100
AcDbEntity
  8
0
100
AcDbCircle
 10
-152.842255
 20
62.28660099999999
 30
0.0
 40
0.5
100
AcDbArc
 50
90.0
 51
180.0
  0
ARC
  5
3A5
330
36
100
AcDbEntity
  8
0
100
AcDbCircle
 10
-159.692255
 20
61.861601
 30
0.0
 40
0.5
100
AcDbArc
 50
90.0
 51
180.0
  0
LINE
  5
3A6
330
36
100
AcDbEntity
  8
0
100
AcDbLine
 10
-159.692255
 20
62.361601
 30
0.0
 11
-157.442255
 21
62.361601
 31
0.0
  0
LINE
  5
3A7
330
36
100
AcDbEntity
  8
0
100
AcDbLine
 10
-152.142255
 20
23.386601
 30
0.0
 11
-158.142255
 21
23.386601
 31
0.0
  0
LINE
  5
3A8
330
36
100
AcDbEntity
  8
0
100
AcDbLine
 10
-158.142255
 20
23.386601
 30
0.0
 11
-158.142255
 21
24.286601
 31
0.0
  0
LINE
  5
3A9
330
36
100
AcDbEntity
  8
0
100
AcDbLine
 10
-152.142255
 20
24.286601
 30
0.0
 11
-158.142255
 21
24.286601
 31
0.0
  0
LINE
  5
3AA
330
36
100
AcDbEntity
  8
0
100
AcDbLine
 10
-152.142255
 20
23.470312
 30
0.0
 11
-152.142255
 21
24.286601
 31
0.0
  0
LINE
  5
3AB
330
36
100
AcDbEntity
  8
0
100
AcDbLine
 10
-117.142255
 20
24.286601
 30
0.0
 11
-123.142255
 21
24.286601
 31
0.0
  0
LINE
  5
3AC
330
36
100
AcDbEntity
  8
0
100
AcDbLine
 10
-117.142255
 20
23.386601
 30
0.0
 11
-123.142255
 21
23.386601
 31
0.0
  0
ARC
  5
3AD
330
36
100
AcDbEntity
  8
0
100
AcDbCircle
 10
-115.592255
 20
42.78660099999997
 30
0.0
 40
0.5
100
AcDbArc
 50
0.0
 51
90.0
  0
LINE
  5
3AE
330
36
100
AcDbEntity
  8
0
100
AcDbLine
 10
-122.842255
 20
41.88660099999998
 30
0.0
 11
-122.842255
 21
37.536601
 31
0.0
  0
LINE
  5
3AF
330
36
100
AcDbEntity
  8
0
100
AcDbLine
 10
-123.792255
 20
41.88660099999998
 30
0.0
 11
-123.792255
 21
37.536601
 31
0.0
  0
LINE
  5
3B0
330
36
100
AcDbEntity
  8
0
100
AcDbLine
 10
-122.842255
 20
41.88660099999998
 30
0.0
 11
-123.792255
 21
41.88660099999998
 31
0.0
  0
LINE
  5
3B1
330
36
100
AcDbEntity
  8
0
100
AcDbLine
 10
-122.842255
 20
37.536601
 30
0.0
 11
-123.792255
 21
37.536601
 31
0.0
  0
LINE
  5
3B2
330
36
100
AcDbEntity
  8
0
100
AcDbLine
 10
-120.892255
 20
32.81160100000001
 30
0.0
 11
-120.892255
 21
34.096592
 31
0.0
  0
ARC
  5
3B3
330
36
100
AcDbEntity
  8
0
100
AcDbCircle
 10
-120.142255
 20
33.946786
 30
0.0
 40
0.764815
100
AcDbArc
 50
11.295648
 51
168.704352
  0
LINE
  5
3B4
330
36
100
AcDbEntity
  8
0
100
AcDbLine
 10
-119.392255
 20
32.81160100000001
 30
0.0
 11
-119.392255
 21
34.096592
 31
0.0
  0
LINE
  5
3B5
330
36
100
AcDbEntity
  8
0
100
AcDbLine
 10
-120.892255
 20
32.81160100000001
 30
0.0
 11
-119.392255
 21
32.81160100000001
 31
0.0
  0
LINE
  5
3B6
330
36
100
AcDbEntity
  8
0
100
AcDbLine
 10
-116.492255
 20
41.461601
 30
0.0
 11
-117.442255
 21
41.461601
 31
0.0
  0
LINE
  5
3B7
330
36
100
AcDbEntity
  8
0
100
AcDbLine
 10
-116.492255
 20
41.461601
 30
0.0
 11
-116.492255
 21
37.961601
 31
0.0
  0
LINE
  5
3B8
330
36
100
AcDbEntity
  8
0
100
AcDbLine
 10
-117.442255
 20
41.461601
 30
0.0
 11
-117.442255
 21
37.961601
 31
0.0
  0
LINE
  5
3B9
330
36
100
AcDbEntity
  8
0
100
AcDbLine
 10
-116.492255
 20
37.961601
 30
0.0
 11
-117.442255
 21
37.961601
 31
0.0
  0
LINE
  5
3BA
330
36
100
AcDbEntity
  8
0
100
AcDbLine
 10
-118.342255
 20
42.78660099999997
 30
0.0
 11
-118.342255
 21
36.636601
 31
0.0
  0
LINE
  5
3BB
330
36
100
AcDbEntity
  8
0
100
AcDbLine
 10
-117.842255
 20
36.136601
 30
0.0
 11
-115.592255
 21
36.136601
 31
0.0
  0
ARC
  5
3BC
330
36
100
AcDbEntity
  8
0
100
AcDbCircle
 10
-117.842255
 20
36.636601
 30
0.0
 40
0.5
100
AcDbArc
 50
180.0
 51
270.0
  0
ARC
  5
3BD
330
36
100
AcDbEntity
  8
0
100
AcDbCircle
 10
-122.442255
 20
37.061601
 30
0.0
 40
0.5
100
AcDbArc
 50
270.0
 51
0.0
  0
LINE
  5
3BE
330
36
100
AcDbEntity
  8
0
100
AcDbLine
 10
-124.692255
 20
36.56160100000001
 30
0.0
 11
-122.442255
 21
36.56160100000001
 31
0.0
  0
LINE
  5
3BF
330
36
100
AcDbEntity
  8
0
100
AcDbLine
 10
-121.942255
 20
42.361601
 30
0.0
 11
-121.942255
 21
37.061601
 31
0.0
  0
LINE
  5
3C0
330
36
100
AcDbEntity
  8
0
100
AcDbLine
 10
-118.292255
 20
32.211601
 30
0.0
 11
-118.292255
 21
34.131971
 31
0.0
  0
ARC
  5
3C1
330
36
100
AcDbEntity
  8
0
100
AcDbCircle
 10
-120.142255
 20
33.946786
 30
0.0
 40
1.864815
100
AcDbArc
 50
9.147842999999999
 51
171.550276
  0
LINE
  5
3C2
330
36
100
AcDbEntity
  8
0
100
AcDbLine
 10
-121.992255
 20
32.211601
 30
0.0
 11
-121.992255
 21
34.147334
 31
0.0
  0
ARC
  5
3C3
330
36
100
AcDbEntity
  8
0
100
AcDbCircle
 10
-120.142255
 20
53.44678599999999
 30
0.0
 40
0.764815
100
AcDbArc
 50
11.295648
 51
168.704352
  0
LINE
  5
3C4
330
36
100
AcDbEntity
  8
0
100
AcDbLine
 10
-116.492255
 20
60.961601
 30
0.0
 11
-116.492255
 21
57.461601
 31
0.0
  0
LINE
  5
3C5
330
36
100
AcDbEntity
  8
0
100
AcDbLine
 10
-117.442255
 20
60.961601
 30
0.0
 11
-117.442255
 21
57.461601
 31
0.0
  0
LINE
  5
3C6
330
36
100
AcDbEntity
  8
0
100
AcDbLine
 10
-116.492255
 20
57.461601
 30
0.0
 11
-117.442255
 21
57.461601
 31
0.0
  0
LINE
  5
3C7
330
36
100
AcDbEntity
  8
0
100
AcDbLine
 10
-122.842255
 20
57.036601
 30
0.0
 11
-123.792255
 21
57.036601
 31
0.0
  0
LINE
  5
3C8
330
36
100
AcDbEntity
  8
0
100
AcDbLine
 10
-122.842255
 20
61.386601
 30
0.0
 11
-122.842255
 21
57.036601
 31
0.0
  0
LINE
  5
3C9
330
36
100
AcDbEntity
  8
0
100
AcDbLine
 10
-123.792255
 20
61.386601
 30
0.0
 11
-123.792255
 21
57.036601
 31
0.0
  0
LINE
  5
3CA
330
36
100
AcDbEntity
  8
0
100
AcDbLine
 10
-119.392255
 20
52.311601
 30
0.0
 11
-119.392255
 21
53.596592
 31
0.0
  0
LINE
  5
3CB
330
36
100
AcDbEntity
  8
0
100
AcDbLine
 10
-120.892255
 20
52.311601
 30
0.0
 11
-120.892255
 21
53.596592
 31
0.0
  0
LINE
  5
3CC
330
36
100
AcDbEntity
  8
0
100
AcDbLine
 10
-120.892255
 20
52.311601
 30
0.0
 11
-119.392255
 21
52.311601
 31
0.0
  0
LINE
  5
3CD
330
36
100
AcDbEntity
  8
0
100
AcDbLine
 10
-118.342255
 20
62.28660099999999
 30
0.0
 11
-118.342255
 21
56.136601
 31
0.0
  0
ARC
  5
3CE
330
36
100
AcDbEntity
  8
0
100
AcDbCircle
 10
-117.842255
 20
56.136601
 30
0.0
 40
0.5
100
AcDbArc
 50
180.0
 51
270.0
  0
LINE
  5
3CF
330
36
100
AcDbEntity
  8
0
100
AcDbLine
 10
-117.842255
 20
55.63660099999999
 30
0.0
 11
-115.592255
 21
55.63660099999999
 31
0.0
  0
ARC
  5
3D0
330
36
100
AcDbEntity
  8
0
100
AcDbCircle
 10
-124.692255
 20
56.56160100000001
 30
0.0
 40
0.5
100
AcDbArc
 50
180.0
 51
270.0
  0
LINE
  5
3D1
330
36
100
AcDbEntity
  8
0
100
AcDbLine
 10
-121.942255
 20
61.861601
 30
0.0
 11
-121.942255
 21
56.56160100000001
 31
0.0
  0
ARC
  5
3D2
330
36
100
AcDbEntity
  8
0
100
AcDbCircle
 10
-122.442255
 20
56.56160100000001
 30
0.0
 40
0.5
100
AcDbArc
 50
270.0
 51
0.0
  0
LINE
  5
3D3
330
36
100
AcDbEntity
  8
0
100
AcDbLine
 10
-124.692255
 20
56.061601
 30
0.0
 11
-122.442255
 21
56.061601
 31
0.0
  0
LINE
  5
3D4
330
36
100
AcDbEntity
  8
0
100
AcDbLine
 10
-118.292255
 20
51.711601
 30
0.0
 11
-118.292255
 21
53.68138
 31
0.0
  0
ARC
  5
3D5
330
36
100
AcDbEntity
  8
0
100
AcDbCircle
 10
-120.142255
 20
53.44678599999999
 30
0.0
 40
1.864815
100
AcDbArc
 50
7.226963
 51
172.773037
  0
LINE
  5
3D6
330
36
100
AcDbEntity
  8
0
100
AcDbLine
 10
-121.992255
 20
51.711601
 30
0.0
 11
-121.992255
 21
53.68138
 31
0.0
  0
LINE
  5
3D7
330
36
100
AcDbEntity
  8
0
100
AcDbLine
 10
-116.492255
 20
60.961601
 30
0.0
 11
-117.442255
 21
60.961601
 31
0.0
  0
LINE
  5
3D8
330
36
100
AcDbEntity
  8
0
100
AcDbLine
 10
-122.842255
 20
61.386601
 30
0.0
 11
-123.792255
 21
61.386601
 31
0.0
  0
ARC
  5
3D9
330
36
100
AcDbEntity
  8
0
100
AcDbCircle
 10
-155.142255
 20
53.44678599999999
 30
0.0
 40
0.764815
100
AcDbArc
 50
11.295648
 51
168.704352
  0
LINE
  5
3DA
330
36
100
AcDbEntity
  8
0
100
AcDbLine
 10
-151.492255
 20
60.961601
 30
0.0
 11
-151.492255
 21
57.461601
 31
0.0
  0
LINE
  5
3DB
330
36
100
AcDbEntity
  8
0
100
AcDbLine
 10
-152.442255
 20
60.961601
 30
0.0
 11
-152.442255
 21
57.461601
 31
0.0
  0
LINE
  5
3DC
330
36
100
AcDbEntity
  8
0
100
AcDbLine
 10
-151.492255
 20
57.461601
 30
0.0
 11
-152.442255
 21
57.461601
 31
0.0
  0
LINE
  5
3DD
330
36
100
AcDbEntity
  8
0
100
AcDbLine
 10
-157.842255
 20
57.036601
 30
0.0
 11
-158.792255
 21
57.036601
 31
0.0
  0
LINE
  5
3DE
330
36
100
AcDbEntity
  8
0
100
AcDbLine
 10
-157.842255
 20
61.386601
 30
0.0
 11
-157.842255
 21
57.036601
 31
0.0
  0
LINE
  5
3DF
330
36
100
AcDbEntity
  8
0
100
AcDbLine
 10
-158.792255
 20
61.386601
 30
0.0
 11
-158.792255
 21
57.036601
 31
0.0
  0
LINE
  5
3E0
330
36
100
AcDbEntity
  8
0
100
AcDbLine
 10
-154.392255
 20
52.311601
 30
0.0
 11
-154.392255
 21
53.596592
 31
0.0
  0
LINE
  5
3E1
330
36
100
AcDbEntity
  8
0
100
AcDbLine
 10
-155.892255
 20
52.311601
 30
0.0
 11
-155.892255
 21
53.596592
 31
0.0
  0
LINE
  5
3E2
330
36
100
AcDbEntity
  8
0
100
AcDbLine
 10
-155.892255
 20
52.311601
 30
0.0
 11
-154.392255
 21
52.311601
 31
0.0
  0
LINE
  5
3E3
330
36
100
AcDbEntity
  8
0
100
AcDbLine
 10
-153.342255
 20
62.28660099999999
 30
0.0
 11
-153.342255
 21
56.136601
 31
0.0
  0
ARC
  5
3E4
330
36
100
AcDbEntity
  8
0
100
AcDbCircle
 10
-152.842255
 20
56.136601
 30
0.0
 40
0.5
100
AcDbArc
 50
180.0
 51
270.0
  0
LINE
  5
3E5
330
36
100
AcDbEntity
  8
0
100
AcDbLine
 10
-152.842255
 20
55.63660099999999
 30
0.0
 11
-150.592255
 21
55.63660099999999
 31
0.0
  0
LINE
  5
3E6
330
36
100
AcDbEntity
  8
0
100
AcDbLine
 10
-156.942255
 20
61.861601
 30
0.0
 11
-156.942255
 21
56.56160100000001
 31
0.0
  0
ARC
  5
3E7
330
36
100
AcDbEntity
  8
0
100
AcDbCircle
 10
-157.442255
 20
56.56160100000001
 30
0.0
 40
0.5
100
AcDbArc
 50
270.0
 51
0.0
  0
LINE
  5
3E8
330
36
100
AcDbEntity
  8
0
100
AcDbLine
 10
-159.692255
 20
56.061601
 30
0.0
 11
-157.442255
 21
56.061601
 31
0.0
  0
LINE
  5
3E9
330
36
100
AcDbEntity
  8
0
100
AcDbLine
 10
-153.292255
 20
51.711601
 30
0.0
 11
-153.292255
 21
53.68138
 31
0.0
  0
ARC
  5
3EA
330
36
100
AcDbEntity
  8
0
100
AcDbCircle
 10
-155.142255
 20
53.44678599999999
 30
0.0
 40
1.864815
100
AcDbArc
 50
7.226963
 51
172.773037
  0
LINE
  5
3EB
330
36
100
AcDbEntity
  8
0
100
AcDbLine
 10
-156.992255
 20
51.711601
 30
0.0
 11
-156.992255
 21
53.68138
 31
0.0
  0
ARC
  5
3EC
330
36
100
AcDbEntity
  8
0
100
AcDbCircle
 10
-156.492255
 20
51.711601
 30
0.0
 40
0.5
100
AcDbArc
 50
180.0
 51
270.0
  0
ARC
  5
3ED
330
36
100
AcDbEntity
  8
0
100
AcDbCircle
 10
-153.792255
 20
51.711601
 30
0.0
 40
0.5
100
AcDbArc
 50
270.0
 51
0.0
  0
LINE
  5
3EE
330
36
100
AcDbEntity
  8
0
100
AcDbLine
 10
-151.492255
 20
60.961601
 30
0.0
 11
-152.442255
 21
60.961601
 31
0.0
  0
LINE
  5
3EF
330
36
100
AcDbEntity
  8
0
100
AcDbLine
 10
-157.842255
 20
61.386601
 30
0.0
 11
-158.792255
 21
61.386601
 31
0.0
  0
ARC
  5
3F0
330
36
100
AcDbEntity
  8
0
100
AcDbCircle
 10
-157.442255
 20
61.861601
 30
0.0
 40
0.5
100
AcDbArc
 50
0.0
 51
90.0
  0
LINE
  5
3F1
330
36
100
AcDbEntity
  8
0
100
AcDbLine
 10
-157.842255
 20
41.88660099999998
 30
0.0
 11
-157.842255
 21
37.536601
 31
0.0
  0
LINE
  5
3F2
330
36
100
AcDbEntity
  8
0
100
AcDbLine
 10
-158.792255
 20
41.88660099999998
 30
0.0
 11
-158.792255
 21
37.536601
 31
0.0
  0
LINE
  5
3F3
330
36
100
AcDbEntity
  8
0
100
AcDbLine
 10
-157.842255
 20
41.88660099999998
 30
0.0
 11
-158.792255
 21
41.88660099999998
 31
0.0
  0
LINE
  5
3F4
330
36
100
AcDbEntity
  8
0
100
AcDbLine
 10
-157.842255
 20
37.536601
 30
0.0
 11
-158.792255
 21
37.536601
 31
0.0
  0
LINE
  5
3F5
330
36
100
AcDbEntity
  8
0
100
AcDbLine
 10
-155.892255
 20
32.81160100000001
 30
0.0
 11
-155.892255
 21
34.096592
 31
0.0
  0
ARC
  5
3F6
330
36
100
AcDbEntity
  8
0
100
AcDbCircle
 10
-155.142255
 20
33.946786
 30
0.0
 40
0.764815
100
AcDbArc
 50
11.295648
 51
168.704352
  0
LINE
  5
3F7
330
36
100
AcDbEntity
  8
0
100
AcDbLine
 10
-154.392255
 20
32.81160100000001
 30
0.0
 11
-154.392255
 21
34.096592
 31
0.0
  0
LINE
  5
3F8
330
36
100
AcDbEntity
  8
0
100
AcDbLine
 10
-155.892255
 20
32.81160100000001
 30
0.0
 11
-154.392255
 21
32.81160100000001
 31
0.0
  0
LINE
  5
3F9
330
36
100
AcDbEntity
  8
0
100
AcDbLine
 10
-151.492255
 20
41.461601
 30
0.0
 11
-152.442255
 21
41.461601
 31
0.0
  0
LINE
  5
3FA
330
36
100
AcDbEntity
  8
0
100
AcDbLine
 10
-151.492255
 20
41.461601
 30
0.0
 11
-151.492255
 21
37.961601
 31
0.0
  0
LINE
  5
3FB
330
36
100
AcDbEntity
  8
0
100
AcDbLine
 10
-152.442255
 20
41.461601
 30
0.0
 11
-152.442255
 21
37.961601
 31
0.0
  0
LINE
  5
3FC
330
36
100
AcDbEntity
  8
0
100
AcDbLine
 10
-151.492255
 20
37.961601
 30
0.0
 11
-152.442255
 21
37.961601
 31
0.0
  0
LINE
  5
3FD
330
36
100
AcDbEntity
  8
0
100
AcDbLine
 10
-153.342255
 20
42.78660099999997
 30
0.0
 11
-153.342255
 21
36.636601
 31
0.0
  0
LINE
  5
3FE
330
36
100
AcDbEntity
  8
0
100
AcDbLine
 10
-152.842255
 20
36.136601
 30
0.0
 11
-150.592255
 21
36.136601
 31
0.0
  0
ARC
  5
3FF
330
36
100
AcDbEntity
  8
0
100
AcDbCircle
 10
-152.842255
 20
36.636601
 30
0.0
 40
0.5
100
AcDbArc
 50
180.0
 51
270.0
  0
ARC
  5
400
330
36
100
AcDbEntity
  8
0
100
AcDbCircle
 10
-157.442255
 20
37.061601
 30
0.0
 40
0.5
100
AcDbArc
 50
270.0
 51
0.0
  0
LINE
  5
401
330
36
100
AcDbEntity
  8
0
100
AcDbLine
 10
-159.692255
 20
36.56160100000001
 30
0.0
 11
-157.442255
 21
36.56160100000001
 31
0.0
  0
LINE
  5
402
330
36
100
AcDbEntity
  8
0
100
AcDbLine
 10
-156.942255
 20
42.361601
 30
0.0
 11
-156.942255
 21
37.061601
 31
0.0
  0
LINE
  5
403
330
36
100
AcDbEntity
  8
0
100
AcDbLine
 10
-153.292255
 20
32.211601
 30
0.0
 11
-153.292255
 21
34.131971
 31
0.0
  0
ARC
  5
404
330
36
100
AcDbEntity
  8
0
100
AcDbCircle
 10
-155.142255
 20
33.946786
 30
0.0
 40
1.864815
100
AcDbArc
 50
9.147842999999999
 51
171.550276
  0
LINE
  5
405
330
36
100
AcDbEntity
  8
0
100
AcDbLine
 10
-156.992255
 20
32.211601
 30
0.0
 11
-156.992255
 21
34.147334
 31
0.0
  0
CIRCLE
  5
406
330
36
100
AcDbEntity
  8
0
100
AcDbCircle
 10
-120.142255
 20
68.886601
 30
0.0
 40
2.0
  0
CIRCLE
  5
407
330
36
100
AcDbEntity
  8
0
100
AcDbCircle
 10
-155.142255
 20
68.886601
 30
0.0
 40
2.0
  0
CIRCLE
  5
408
330
36
100
AcDbEntity
  8
0
100
AcDbCircle
 10
-120.142255
 20
26.886601
 30
0.0
 40
2.0
  0
LINE
  5
409
330
36
100
AcDbEntity
  8
0
100
AcDbLine
 10
-123.142255
 20
23.386601
 30
0.0
 11
-123.142255
 21
24.286601
 31
0.0
  0
LINE
  5
40A
330
36
100
AcDbEntity
  8
0
100
AcDbLine
 10
-117.142255
 20
23.470312
 30
0.0
 11
-117.142255
 21
24.286601
 31
0.0
  0
CIRCLE
  5
40B
330
36
100
AcDbEntity
  8
0
100
AcDbCircle
 10
-155.142255
 20
26.886601
 30
0.0
 40
2.0
  0
LINE
  5
40C
330
36
100
AcDbEntity
  8
0
100
AcDbLine
 10
85.60025300000003
 20
29.136601
 30
0.0
 11
87.10025300000003
 21
30.136601
 31
0.0
  0
LINE
  5
40D
330
36
100
AcDbEntity
  8
0
100
AcDbLine
 10
87.10025300000003
 20
30.136601
 30
0.0
 11
87.10025300000003
 21
40.136601
 31
0.0
  0
LINE
  5
40E
330
36
100
AcDbEntity
  8
0
100
AcDbLine
 10
85.60025300000003
 20
41.13660099999999
 30
0.0
 11
87.10025300000003
 21
40.136601
 31
0.0
  0
LINE
  5
40F
330
36
100
AcDbEntity
  8
0
 62
     3
100
AcDbLine
 10
-141.042276
 20
87.936601
 30
0.0
 11
-141.042276
 21
109.136601
 31
0.0
  0
LINE
  5
410
330
36
100
AcDbEntity
  8
0
 62
     3
100
AcDbLine
 10
-163.242276
 20
87.936601
 30
0.0
 11
-163.242276
 21
109.136601
 31
0.0
  0
LINE
  5
411
330
36
100
AcDbEntity
  8
0
 62
     3
100
AcDbLine
 10
-162.742276
 20
109.636601
 30
0.0
 11
-141.542276
 21
109.636601
 31
0.0
  0
LINE
  5
412
330
36
100
AcDbEntity
  8
0
 62
     3
100
AcDbLine
 10
-141.542276
 20
87.43660099999997
 30
0.0
 11
-162.742276
 21
87.43660099999997
 31
0.0
  0
ARC
  5
413
330
36
100
AcDbEntity
  8
0
 62
     3
100
AcDbCircle
 10
-141.542276
 20
109.136601
 30
0.0
 40
0.5
100
AcDbArc
 50
0.0
 51
90.0
  0
ARC
  5
414
330
36
100
AcDbEntity
  8
0
 62
     3
100
AcDbCircle
 10
-162.742276
 20
109.136601
 30
0.0
 40
0.5
100
AcDbArc
 50
90.0
 51
180.0
  0
ARC
  5
415
330
36
100
AcDbEntity
  8
0
 62
     3
100
AcDbCircle
 10
-162.742276
 20
87.936601
 30
0.0
 40
0.5
100
AcDbArc
 50
180.0
 51
270.0
  0
ARC
  5
416
330
36
100
AcDbEntity
  8
0
 62
     3
100
AcDbCircle
 10
-141.542276
 20
87.936601
 30
0.0
 40
0.5
100
AcDbArc
 50
270.0
 51
0.0
  0
CIRCLE
  5
417
330
36
100
AcDbEntity
  8
0
 62
     3
100
AcDbCircle
 10
-152.142276
 20
94.93665099999999
 30
0.0
 40
0.5
  0
LINE
  5
418
330
36
100
AcDbEntity
  8
0
 62
     3
100
AcDbLine
 10
-219.613077
 20
164.53603
 30
0.0
 11
-219.613077
 21
-112.46397
 31
0.0
  0
LINE
  5
419
330
36
100
AcDbEntity
  8
0
 62
     3
100
AcDbLine
 10
170.386923
 20
-112.46397
 30
0.0
 11
170.386923
 21
164.53603
 31
0.0
  0
LINE
  5
41A
330
36
100
AcDbEntity
  8
0
 62
     3
100
AcDbLine
 10
-219.613077
 20
-112.46397
 30
0.0
 11
170.386923
 21
-112.46397
 31
0.0
  0
LINE
  5
41B
330
36
100
AcDbEntity
  8
0
100
AcDbLine
 10
-142.042276
 20
95.93660099999999
 30
0.0
 11
-162.242276
 21
95.93660099999999
 31
0.0
  0
LINE
  5
41C
330
36
100
AcDbEntity
  8
0
100
AcDbLine
 10
-142.042276
 20
95.18660099999999
 30
0.0
 11
-162.242276
 21
95.18660099999999
 31
0.0
  0
LINE
  5
41D
330
36
100
AcDbEntity
  8
0
100
AcDbLine
 10
-142.042276
 20
94.436601
 30
0.0
 11
-162.242276
 21
94.436601
 31
0.0
  0
LINE
  5
41E
330
36
100
AcDbEntity
  8
0
100
AcDbLine
 10
-142.042276
 20
93.68660099999999
 30
0.0
 11
-162.242276
 21
93.68660099999999
 31
0.0
  0
LINE
  5
41F
330
36
100
AcDbEntity
  8
0
100
AcDbLine
 10
-142.042276
 20
92.936601
 30
0.0
 11
-162.242276
 21
92.936601
 31
0.0
  0
LINE
  5
420
330
36
100
AcDbEntity
  8
0
100
AcDbLine
 10
-142.042276
 20
92.18660099999999
 30
0.0
 11
-162.242276
 21
92.18660099999999
 31
0.0
  0
LINE
  5
421
330
36
100
AcDbEntity
  8
0
100
AcDbLine
 10
-142.042276
 20
91.43660099999999
 30
0.0
 11
-162.242276
 21
91.43660099999999
 31
0.0
  0
LINE
  5
422
330
36
100
AcDbEntity
  8
0
100
AcDbLine
 10
-142.042276
 20
90.686601
 30
0.0
 11
-162.242276
 21
90.686601
 31
0.0
  0
LINE
  5
423
330
36
100
AcDbEntity
  8
0
100
AcDbLine
 10
-142.042276
 20
89.93660099999997
 30
0.0
 11
-162.242276
 21
89.93660099999997
 31
0.0
  0
LINE
  5
424
330
36
100
AcDbEntity
  8
0
100
AcDbLine
 10
-142.042276
 20
89.186601
 30
0.0
 11
-162.242276
 21
89.186601
 31
0.0
  0
LINE
  5
425
330
36
100
AcDbEntity
  8
0
 62
     3
100
AcDbLine
 10
-34.34015667225867
 20
-112.46397
 30
0.0
 11
-34.34015667225867
 21
-57.46396999999999
 31
0.0
  0
LINE
  5
426
330
36
100
AcDbEntity
  8
0
100
AcDbLine
 10
-142.042276
 20
108.636601
 30
0.0
 11
-162.242276
 21
108.636601
 31
0.0
  0
LINE
  5
427
330
36
100
AcDbEntity
  8
0
100
AcDbLine
 10
-142.042276
 20
108.636601
 30
0.0
 11
-142.042276
 21
88.43660099999999
 31
0.0
  0
LINE
  5
428
330
36
100
AcDbEntity
  8
0
100
AcDbLine
 10
-142.042276
 20
88.43660099999999
 30
0.0
 11
-162.242276
 21
88.43660099999999
 31
0.0
  0
LINE
  5
429
330
36
100
AcDbEntity
  8
0
100
AcDbLine
 10
-162.242276
 20
88.43660099999999
 30
0.0
 11
-162.242276
 21
108.636601
 31
0.0
  0
LINE
  5
42A
330
36
100
AcDbEntity
  8
0
100
AcDbLine
 10
-117.145451
 20
100.638915
 30
0.0
 11
-117.145451
 21
88.138915
 31
0.0
  0
LINE
  5
42B
330
36
100
AcDbEntity
  8
0
100
AcDbLine
 10
-123.145451
 20
88.138915
 30
0.0
 11
-123.145451
 21
100.638915
 31
0.0
  0
LINE
  5
42C
330
36
100
AcDbEntity
  8
0
100
AcDbLine
 10
-121.770451
 20
101.388915
 30
0.0
 11
-118.520451
 21
101.388915
 31
0.0
  0
LINE
  5
42D
330
36
100
AcDbEntity
  8
0
100
AcDbLine
 10
-118.520451
 20
99.88891500000001
 30
0.0
 11
-121.770451
 21
99.88891500000001
 31
0.0
  0
LINE
  5
42E
330
36
100
AcDbEntity
  8
0
100
AcDbLine
 10
-118.520451
 20
93.88891499999999
 30
0.0
 11
-121.770451
 21
93.88891499999999
 31
0.0
  0
TEXT
  5
42F
330
36
100
AcDbEntity
  8
0
100
AcDbText
 10
-120.903741
 20
94.951775
 30
0.0
 40
1.6
  1
入
 41
0.833333
100
AcDbText
  0
TEXT
  5
430
330
36
100
AcDbEntity
  8
0
100
AcDbText
 10
-121.424496
 20
100.020618
 30
0.0
 40
1.28
  1
15
 41
1.199999999999999
100
AcDbText
  0
LINE
  5
431
330
36
100
AcDbEntity
  8
0
100
AcDbLine
 10
-143.650345
 20
103.428582
 30
0.0
 11
-145.072664
 21
102.006263
 31
0.0
  0
LINE
  5
432
330
36
100
AcDbEntity
  8
0
100
AcDbLine
 10
-144.68287
 20
103.826324
 30
0.0
 11
-145.328675
 21
103.056684
 31
0.0
  0
LINE
  5
433
330
36
100
AcDbEntity
  8
0
100
AcDbLine
 10
-145.435161
 20
104.515302
 30
0.0
 11
-146.010878
 21
103.693093
 31
0.0
  0
LINE
  5
434
330
36
100
AcDbEntity
  8
0
100
AcDbLine
 10
-146.256123
 20
105.131661
 30
0.0
 11
-146.757539
 21
104.263183
 31
0.0
  0
LINE
  5
435
330
36
100
AcDbEntity
  8
0
100
AcDbLine
 10
-147.138305
 20
105.667592
 30
0.0
 11
-147.561777
 21
104.759453
 31
0.0
  0
LINE
  5
436
330
36
100
AcDbEntity
  8
0
100
AcDbLine
 10
-147.90202
 20
106.586539
 30
0.0
 11
-152.142255
 21
94.936588
 31
0.0
  0
LINE
  5
437
330
36
100
AcDbEntity
  8
0
100
AcDbLine
 10
-149.0515
 20
106.471446
 30
0.0
 11
-149.310515
 21
105.504789
 31
0.0
  0
LINE
  5
438
330
36
100
AcDbEntity
  8
0
100
AcDbLine
 10
-150.062986
 20
106.728714
 30
0.0
 11
-150.236694
 21
105.743571
 31
0.0
  0
LINE
  5
439
330
36
100
AcDbEntity
  8
0
100
AcDbLine
 10
-151.09695
 20
106.884488
 30
0.0
 11
-151.184113
 21
105.888208
 31
0.0
  0
LINE
  5
43A
330
36
100
AcDbEntity
  8
0
100
AcDbLine
 10
-153.18756
 20
106.884492
 30
0.0
 11
-153.100397
 21
105.888212
 31
0.0
  0
LINE
  5
43B
330
36
100
AcDbEntity
  8
0
100
AcDbLine
 10
-154.221523
 20
106.728722
 30
0.0
 11
-154.047816
 21
105.743579
 31
0.0
  0
LINE
  5
43C
330
36
100
AcDbEntity
  8
0
100
AcDbLine
 10
-155.233009
 20
106.471459
 30
0.0
 11
-154.973994
 21
105.504803
 31
0.0
  0
LINE
  5
43D
330
36
100
AcDbEntity
  8
0
100
AcDbLine
 10
-156.382488
 20
106.586557
 30
0.0
 11
-155.86881
 21
105.17524
 31
0.0
  0
LINE
  5
43E
330
36
100
AcDbEntity
  8
0
100
AcDbLine
 10
-157.146202
 20
105.667616
 30
0.0
 11
-156.72273
 21
104.759477
 31
0.0
  0
LINE
  5
43F
330
36
100
AcDbEntity
  8
0
100
AcDbLine
 10
-158.028383
 20
105.131692
 30
0.0
 11
-157.526967
 21
104.263215
 31
0.0
  0
LINE
  5
440
330
36
100
AcDbEntity
  8
0
100
AcDbLine
 10
-158.849345
 20
104.51534
 30
0.0
 11
-158.273628
 21
103.693132
 31
0.0
  0
LINE
  5
441
330
36
100
AcDbEntity
  8
0
100
AcDbLine
 10
-159.601636
 20
103.82637
 30
0.0
 11
-158.955832
 21
103.056731
 31
0.0
  0
LINE
  5
442
330
36
100
AcDbEntity
  8
0
100
AcDbLine
 10
-160.634252
 20
103.428527
 30
0.0
 11
-159.567835
 21
102.36211
 31
0.0
  0
ARC
  5
443
330
36
100
AcDbEntity
  8
0
100
AcDbCircle
 10
-152.142276
 20
94.93665099999999
 30
0.0
 40
2.5
100
AcDbArc
 50
23.576928
 51
156.423072
  0
TEXT
  5
444
330
36
100
AcDbEntity
  8
0
100
AcDbText
 10
-140.03806
 20
101.375838
 30
0.0
 40
2.5
  1
電源ランプ
 41
0.833333
100
AcDbText
  0
TEXT
  5
445
330
36
100
AcDbEntity
  8
0
100
AcDbText
 10
-161.854214
 20
110.300628
 30
0.0
 40
2.5
  1
出力電圧計
 41
0.833333
100
AcDbText
  0
CIRCLE
  5
446
330
36
100
AcDbEntity
  8
0
100
AcDbCircle
 10
-147.528969
 20
22.595074
 30
0.0
 40
0.9461759999999999
  0
TEXT
  5
447
330
36
100
AcDbEntity
  8
0
100
AcDbText
 10
-145.691221
 20
21.285767
 30
0.0
 40
2.5
  1
日動工業株式会社
 41
0.833333
100
AcDbText
  0
CIRCLE
  5
448
330
36
100
AcDbEntity
  8
0
 62
     3
100
AcDbCircle
 10
48.805572
 20
-40.43344199999999
 30
0.0
 40
0.9599999999999999
  0
CIRCLE
  5
449
330
36
100
AcDbEntity
  8
0
 62
     3
100
AcDbCircle
 10
48.805572
 20
-53.23344200000001
 30
0.0
 40
0.9599999999999999
  0
TEXT
  5
44A
330
36
100
AcDbEntity
  8
0
 62
     4
100
AcDbText
 10
33.809956
 20
-38.774542
 30
0.0
 40
3.2
  1
黒線
  7
高3.2
100
AcDbText
  0
TEXT
  5
44B
330
36
100
AcDbEntity
  8
0
 62
     4
100
AcDbText
 10
33.580329
 20
-51.410485
 30
0.0
 40
3.2
  1
緑線
  7
高3.2
100
AcDbText
  0
TEXT
  5
44C
330
36
100
AcDbEntity
  8
0
 62
     4
100
AcDbText
 10
8.537800999999998
 20
-21.95113021992197
 30
0.0
 40
3.2
  1
入力プラグ結線
  7
高3.2
100
AcDbText
  0
LINE
  5
44D
330
36
100
AcDbEntity
  8
0
 62
     3
100
AcDbLine
 10
78.011229
 20
-19.600879
 30
0.0
 11
78.011229
 21
-47.32087899999998
 31
0.0
  0
CIRCLE
  5
465
330
36
100
AcDbEntity
  8
0
 62
     3
100
AcDbCircle
 10
48.805572
 20
-27.633442
 30
0.0
 40
0.9599999999999999
  0
TEXT
  5
466
330
36
100
AcDbEntity
  8
0
 62
     4
100
AcDbText
 10
33.409876
 20
-26.502138
 30
0.0
 40
3.2
  1
白線
  7
高3.2
100
AcDbText
  0
TEXT
  5
467
330
36
100
AcDbEntity
  8
0
 62
     3
100
AcDbText
 10
101.0888591467832
 20
-29.733362
 30
0.0
 40
3.2
  1
AC200V 50/60Hz
  7
高3.2
100
AcDbText
  0
TEXT
  5
468
330
36
100
AcDbEntity
  8
0
 62
     3
100
AcDbText
 10
112.1612811467832
 20
-35.165107
 30
0.0
 40
3.2
  1
AC100V
  7
高3.2
100
AcDbText
  0
TEXT
  5
469
330
36
100
AcDbEntity
  8
0
 62
     3
100
AcDbText
 10
113.6120311467832
 20
-40.540566
 30
0.0
 40
3.2
  1
3KVA
  7
高3.2
100
AcDbText
  0
TEXT
  5
46A
330
36
100
AcDbEntity
  8
0
 62
     3
100
AcDbText
 10
111.9789741467832
 20
-46.084487
 30
0.0
 40
3.2
  1
約12.8kg
  7
高3.2
100
AcDbText
  0
TEXT
  5
46B
330
36
100
AcDbEntity
  8
0
 62
     3
100
AcDbText
 10
101.5276741467832
 20
-24.245489
 30
0.0
 40
3.2
  1
RTB-300D-100V
  7
高3.2
100
AcDbText
  0
TEXT
  5
46D
330
36
100
AcDbEntity
  8
0
 62
     3
100
AcDbText
 10
80.38092013162669
 20
-80.158167
 30
0.0
 40
4.5
  1
降圧トランス
  7
高4.5
100
AcDbText
  0
TEXT
  5
46E
330
36
100
AcDbEntity
  8
0
 62
     3
100
AcDbText
 10
89.15711338972169
 20
-17.45555265957755
 30
0.0
 40
4.5
  1
主　　仕　　様
  7
高4.5
100
AcDbText
  0
LINE
  5
46F
330
36
100
AcDbEntity
  8
0
100
AcDbLine
 10
78.011229
 20
-25.144879
 30
0.0
 11
147.0131061467832
 21
-25.144879
 31
0.0
  0
LINE
  5
470
330
36
100
AcDbEntity
  8
0
100
AcDbLine
 10
78.011229
 20
-30.688879
 30
0.0
 11
147.0131061467832
 21
-30.688879
 31
0.0
  0
LINE
  5
471
330
36
100
AcDbEntity
  8
0
100
AcDbLine
 10
78.011229
 20
-36.232879
 30
0.0
 11
147.0131061467832
 21
-36.232879
 31
0.0
  0
LINE
  5
472
330
36
100
AcDbEntity
  8
0
100
AcDbLine
 10
78.011229
 20
-41.776879
 30
0.0
 11
147.0131061467832
 21
-41.776879
 31
0.0
  0
TEXT
  5
473
330
36
100
AcDbEntity
  8
0
 62
     3
100
AcDbText
 10
79.595229
 20
-24.352879
 30
0.0
 40
3.2
  1
型　　式
  7
高3.2
100
AcDbText
  0
TEXT
  5
474
330
36
100
AcDbEntity
  8
0
 62
     3
100
AcDbText
 10
79.595229
 20
-29.896879
 30
0.0
 40
3.2
  1
入力電圧
  7
高3.2
100
AcDbText
  0
TEXT
  5
475
330
36
100
AcDbEntity
  8
0
 62
     3
100
AcDbText
 10
79.595229
 20
-35.440879
 30
0.0
 40
3.2
  1
出力電圧
  7
高3.2
100
AcDbText
  0
TEXT
  5
476
330
36
100
AcDbEntity
  8
0
 62
     3
100
AcDbText
 10
79.595229
 20
-40.984879
 30
0.0
 40
3.2
  1
容　　量
  7
高3.2
100
AcDbText
  0
TEXT
  5
477
330
36
100
AcDbEntity
  8
0
 62
     3
100
AcDbText
 10
79.595229
 20
-46.52887899999998
 30
0.0
 40
3.2
  1
質　　量
  7
高3.2
100
AcDbText
  0
CIRCLE
  5
478
330
36
100
AcDbEntity
  8
0
 62
     3
100
AcDbCircle
 10
6.327056999999999
 20
-53.180623
 30
0.0
 40
0.9599999999999999
  0
LINE
  5
496
330
36
100
AcDbEntity
  8
0
100
AcDbLine
 10
8.537800999999998
 20
-22.58504215208575
 30
0.0
 11
34.93280797534908
 21
-22.58504215208575
 31
0.0
  0
LINE
  5
497
330
36
100
AcDbEntity
  8
0
100
AcDbLine
 10
47.845572
 20
-27.633442
 30
0.0
 11
6.259485999999997
 21
-27.633442
 31
0.0
  0
LINE
  5
498
330
36
100
AcDbEntity
  8
0
100
AcDbLine
 10
47.845572
 20
-53.23344200000001
 30
0.0
 11
7.285603
 21
-53.23344200000001
 31
0.0
  0
LINE
  5
499
330
36
100
AcDbEntity
  8
0
100
AcDbLine
 10
6.367278999999999
 20
-54.292198
 30
0.0
 11
6.367278999999999
 21
-55.758479
 31
0.0
  0
LINE
  5
49A
330
36
100
AcDbEntity
  8
0
100
AcDbLine
 10
3.167599
 20
-55.758479
 30
0.0
 11
9.567598999999999
 21
-55.758479
 31
0.0
  0
LINE
  5
49B
330
36
100
AcDbEntity
  8
0
100
AcDbLine
 10
3.807598999999998
 20
-56.398479
 30
0.0
 11
8.927599
 21
-56.398479
 31
0.0
  0
LINE
  5
49C
330
36
100
AcDbEntity
  8
0
100
AcDbLine
 10
4.447598999999998
 20
-57.038479
 30
0.0
 11
8.287599
 21
-57.038479
 31
0.0
  0
LINE
  5
49D
330
36
100
AcDbEntity
  8
0
100
AcDbLine
 10
5.087598999999999
 20
-57.678479
 30
0.0
 11
7.647599
 21
-57.678479
 31
0.0
  0
LINE
  5
49E
330
36
100
AcDbEntity
  8
0
100
AcDbLine
 10
6.259485999999997
 20
-52.22300399999999
 30
0.0
 11
6.259485999999997
 21
-47.729442
 31
0.0
  0
LINE
  5
49F
330
36
100
AcDbEntity
  8
0
100
AcDbLine
 10
7.541586999999998
 20
-46.323737
 30
0.0
 11
10.741587
 21
-46.323737
 31
0.0
  0
LINE
  5
4A0
330
36
100
AcDbEntity
  8
0
100
AcDbLine
 10
9.141586999999999
 20
-45.38708399999999
 30
0.0
 11
9.141586999999999
 21
-46.323737
 31
0.0
  0
LINE
  5
4A1
330
36
100
AcDbEntity
  8
0
100
AcDbLine
 10
7.861586999999999
 20
-46.643737
 30
0.0
 11
10.421587
 21
-46.643737
 31
0.0
  0
LINE
  5
4A2
330
36
100
AcDbEntity
  8
0
100
AcDbLine
 10
8.501586999999997
 20
-47.283737
 30
0.0
 11
9.781587
 21
-47.283737
 31
0.0
  0
LINE
  5
4A3
330
36
100
AcDbEntity
  8
0
100
AcDbLine
 10
8.181587
 20
-46.963737
 30
0.0
 11
10.101587
 21
-46.963737
 31
0.0
  0
LINE
  5
4A4
330
36
100
AcDbEntity
  8
0
 62
     3
100
AcDbLine
 10
78.011229
 20
-47.32087899999998
 30
0.0
 11
147.0131061467832
 21
-47.32087899999998
 31
0.0
  0
LINE
  5
4A5
330
36
100
AcDbEntity
  8
0
 62
     3
100
AcDbLine
 10
78.011229
 20
-19.600879
 30
0.0
 11
147.0131061467832
 21
-19.600879
 31
0.0
  0
TEXT
  5
4A6
330
36
100
AcDbEntity
  8
0
 62
     3
100
AcDbText
 10
-110.434327611682
 20
-111.96397
 30
0.0
 40
3.2
  1
個数
 41
0.8
  7
高3.2
100
AcDbText
  0
TEXT
  5
4A7
330
36
100
AcDbEntity
  8
0
 62
     3
100
AcDbText
 10
-151.7498575307249
 20
-111.96397
 30
0.0
 40
3.2
  1
備　　　考
 41
0.8
  7
高3.2
100
AcDbText
  0
TEXT
  5
4A8
330
36
100
AcDbEntity
  8
0
 62
     3
100
AcDbText
 10
-175.2552378872836
 20
-111.96397
 30
0.0
 40
3.2
  1
材　　　質
 41
0.8
  7
高3.2
100
AcDbText
  0
TEXT
  5
4A9
330
36
100
AcDbEntity
  8
0
 62
     3
100
AcDbText
 10
-211.1582326874449
 20
-111.96397
 30
0.0
 40
3.2
  1
部　　品　　名
 41
0.8
  7
高3.2
100
AcDbText
  0
TEXT
  5
4AA
330
36
100
AcDbEntity
  8
0
 62
     3
100
AcDbText
 10
-218.113077
 20
-111.96397
 30
0.0
 40
3.2
  1
No
 41
0.8
  7
高3.2
100
AcDbText
  0
TEXT
  5
4AB
330
36
100
AcDbEntity
  8
0
 62
     3
100
AcDbText
 10
-110.434327611682
 20
-106.96397
 30
0.0
 40
3.2
  1
1
 41
0.8
  7
高3.2
100
AcDbText
  0
TEXT
  5
4AC
330
36
100
AcDbEntity
  8
0
 62
     3
100
AcDbText
 10
-110.434327611682
 20
-86.96397000000002
 30
0.0
 40
3.2
  1
1
 41
0.8
  7
高3.2
100
AcDbText
  0
TEXT
  5
4AE
330
36
100
AcDbEntity
  8
0
 62
     3
100
AcDbText
 10
-110.434327611682
 20
-61.96397000000001
 30
0.0
 40
3.2
  1
1
 41
0.8
  7
高3.2
100
AcDbText
  0
TEXT
  5
4AF
330
36
100
AcDbEntity
  8
0
 62
     3
100
AcDbText
 10
-110.434327611682
 20
-76.96396999999997
 30
0.0
 40
3.2
  1
1
 41
0.8
  7
高3.2
100
AcDbText
  0
TEXT
  5
4B0
330
36
100
AcDbEntity
  8
0
 62
     3
100
AcDbText
 10
-110.434327611682
 20
-66.96396999999999
 30
0.0
 40
3.2
  1
1
 41
0.8
  7
高3.2
100
AcDbText
  0
TEXT
  5
4B1
330
36
100
AcDbEntity
  8
0
 62
     3
100
AcDbText
 10
-110.434327611682
 20
-81.96396999999997
 30
0.0
 40
3.2
  1
4
 41
0.8
  7
高3.2
100
AcDbText
  0
TEXT
  5
4B2
330
36
100
AcDbEntity
  8
0
 62
     3
100
AcDbText
 10
-110.434327611682
 20
-71.96396999999997
 30
0.0
 40
3.2
  1
2
 41
0.8
  7
高3.2
100
AcDbText
  0
TEXT
  5
4B3
330
36
100
AcDbEntity
  8
0
 62
     3
100
AcDbText
 10
-151.7498575307249
 20
-96.96397000000001
 30
0.0
 40
3.2
  1
赤塗装
 41
0.8
  7
高3.2
100
AcDbText
  0
TEXT
  5
4B4
330
36
100
AcDbEntity
  8
0
 62
     3
100
AcDbText
 10
-110.434327611682
 20
-96.96397000000001
 30
0.0
 40
3.2
  1
1
 41
0.8
  7
高3.2
100
AcDbText
  0
LINE
  5
4B5
330
36
100
AcDbEntity
  8
0
100
AcDbLine
 10
-111.934327611682
 20
-112.46397
 30
0.0
 11
-111.934327611682
 21
-57.46396999999999
 31
0.0
  0
TEXT
  5
4B6
330
36
100
AcDbEntity
  8
0
 62
     3
100
AcDbText
 10
-175.2552378872836
 20
-96.96397000000001
 30
0.0
 40
3.2
  1
SPCC
 41
0.8
  7
高3.2
100
AcDbText
  0
TEXT
  5
4B7
330
36
100
AcDbEntity
  8
0
 62
     3
100
AcDbText
 10
-211.1582326874449
 20
-106.96397
 30
0.0
 40
3.2
  1
把手
 41
0.8
  7
高3.2
100
AcDbText
  0
TEXT
  5
4B8
330
36
100
AcDbEntity
  8
0
 62
     3
100
AcDbText
 10
-211.1582326874449
 20
-96.96397000000001
 30
0.0
 40
3.2
  1
上カバー
 41
0.8
  7
高3.2
100
AcDbText
  0
TEXT
  5
4B9
330
36
100
AcDbEntity
  8
0
 62
     3
100
AcDbText
 10
-151.7498575307249
 20
-106.96397
 30
0.0
 40
3.2
  1
M6取付ピッチ100
 41
0.8
  7
高3.2
100
AcDbText
  0
TEXT
  5
4BA
330
36
100
AcDbEntity
  8
0
 62
     3
100
AcDbText
 10
-175.2552378872836
 20
-86.96397000000002
 30
0.0
 40
3.2
  1
VCT
 41
0.8
  7
高3.2
100
AcDbText
  0
TEXT
  5
4BB
330
36
100
AcDbEntity
  8
0
 62
     3
100
AcDbText
 10
-151.7498575307249
 20
-86.96397000000002
 30
0.0
 40
3.2
  1
2sqx3芯x2m
 41
0.8
  7
高3.2
100
AcDbText
  0
TEXT
  5
4BC
330
36
100
AcDbEntity
  8
0
 62
     3
100
AcDbText
 10
-211.1582326874449
 20
-81.96396999999997
 30
0.0
 40
3.2
  1
脚ゴム
 41
0.8
  7
高3.2
100
AcDbText
  0
TEXT
  5
4BD
330
36
100
AcDbEntity
  8
0
 62
     3
100
AcDbText
 10
-211.1582326874449
 20
-76.96396999999997
 30
0.0
 40
3.2
  1
安全ブレーカー
 41
0.8
  7
高3.2
100
AcDbText
  0
TEXT
  5
4BE
330
36
100
AcDbEntity
  8
0
 62
     3
100
AcDbText
 10
-211.1582326874449
 20
-71.96396999999997
 30
0.0
 40
3.2
  1
E付Wコンセント（白）
 41
0.8
  7
高3.2
100
AcDbText
  0
TEXT
  5
4C0
330
36
100
AcDbEntity
  8
0
 62
     3
100
AcDbText
 10
-211.1582326874449
 20
-66.96396999999999
 30
0.0
 40
3.2
  1
電源ランプ
 41
0.8
  7
高3.2
100
AcDbText
  0
TEXT
  5
4C1
330
36
100
AcDbEntity
  8
0
 62
     3
100
AcDbText
 10
-211.1582326874449
 20
-61.96397000000001
 30
0.0
 40
3.2
  1
電圧計
 41
0.8
  7
高3.2
100
AcDbText
  0
TEXT
  5
4C2
330
36
100
AcDbEntity
  8
0
 62
     3
100
AcDbText
 10
-151.7498575307249
 20
-61.96397000000001
 30
0.0
 40
3.2
  1
AC150V計
 41
0.8
  7
高3.2
100
AcDbText
  0
TEXT
  5
4C3
330
36
100
AcDbEntity
  8
0
 62
     3
100
AcDbText
 10
-218.113077
 20
-106.96397
 30
0.0
 40
3.2
  1
1
 41
0.8
  7
高3.2
100
AcDbText
  0
TEXT
  5
4C4
330
36
100
AcDbEntity
  8
0
 62
     3
100
AcDbText
 10
-218.113077
 20
-101.96397
 30
0.0
 40
3.2
  1
2
 41
0.8
  7
高3.2
100
AcDbText
  0
TEXT
  5
4C5
330
36
100
AcDbEntity
  8
0
 62
     3
100
AcDbText
 10
-218.113077
 20
-96.96397000000001
 30
0.0
 40
3.2
  1
3
 41
0.8
  7
高3.2
100
AcDbText
  0
TEXT
  5
4C6
330
36
100
AcDbEntity
  8
0
 62
     3
100
AcDbText
 10
-218.113077
 20
-91.96397000000001
 30
0.0
 40
3.2
  1
4
 41
0.8
  7
高3.2
100
AcDbText
  0
TEXT
  5
4C7
330
36
100
AcDbEntity
  8
0
 62
     3
100
AcDbText
 10
-218.113077
 20
-86.96396999999995
 30
0.0
 40
3.2
  1
5
 41
0.8
  7
高3.2
100
AcDbText
  0
TEXT
  5
4C8
330
36
100
AcDbEntity
  8
0
 62
     3
100
AcDbText
 10
-218.113077
 20
-81.96396999999997
 30
0.0
 40
3.2
  1
6
 41
0.8
  7
高3.2
100
AcDbText
  0
TEXT
  5
4C9
330
36
100
AcDbEntity
  8
0
 62
     3
100
AcDbText
 10
-218.113077
 20
-76.96396999999997
 30
0.0
 40
3.2
  1
7
 41
0.8
  7
高3.2
100
AcDbText
  0
TEXT
  5
4CA
330
36
100
AcDbEntity
  8
0
 62
     3
100
AcDbText
 10
-218.113077
 20
-71.96396999999997
 30
0.0
 40
3.2
  1
8
 41
0.8
  7
高3.2
100
AcDbText
  0
TEXT
  5
4CB
330
36
100
AcDbEntity
  8
0
 62
     3
100
AcDbText
 10
-218.113077
 20
-66.96396999999999
 30
0.0
 40
3.2
  1
9
 41
0.8
  7
高3.2
100
AcDbText
  0
TEXT
  5
4CC
330
36
100
AcDbEntity
  8
0
 62
     3
100
AcDbText
 10
-175.2552378872836
 20
-66.96396999999999
 30
0.0
 40
3.2
  1
PC樹脂
 41
0.8
  7
高3.2
100
AcDbText
  0
TEXT
  5
4CD
330
36
100
AcDbEntity
  8
0
 62
     3
100
AcDbText
 10
-175.2552378872836
 20
-76.96396999999997
 30
0.0
 40
3.2
  1
PF樹脂
 41
0.8
  7
高3.2
100
AcDbText
  0
TEXT
  5
4CE
330
36
100
AcDbEntity
  8
0
 62
     3
100
AcDbText
 10
-175.2552378872836
 20
-81.96396999999997
 30
0.0
 40
3.2
  1
合成ゴム
 41
0.8
  7
高3.2
100
AcDbText
  0
TEXT
  5
4CF
330
36
100
AcDbEntity
  8
0
 62
     3
100
AcDbText
 10
-175.2552378872836
 20
-71.96396999999997
 30
0.0
 40
3.2
  1
耐熱ABS樹脂
 41
0.8
  7
高3.2
100
AcDbText
  0
TEXT
  5
4D0
330
36
100
AcDbEntity
  8
0
 62
     3
100
AcDbText
 10
-151.7498575307249
 20
-71.96396999999997
 30
0.0
 40
3.2
  1
2PE 15A 125V
 41
0.8
  7
高3.2
100
AcDbText
  0
TEXT
  5
4D2
330
36
100
AcDbEntity
  8
0
 62
     3
100
AcDbText
 10
-151.7498575307249
 20
-76.96396999999997
 30
0.0
 40
3.2
  1
220V/110V 15A
 41
0.8
  7
高3.2
100
AcDbText
  0
TEXT
  5
4D3
330
36
100
AcDbEntity
  8
0
 62
     3
100
AcDbText
 10
-211.1582326874449
 20
-86.96397000000002
 30
0.0
 40
3.2
  1
電線4Pプラグ付き
 41
0.8
  7
高3.2
100
AcDbText
  0
LINE
  5
4D4
330
36
100
AcDbEntity
  8
0
100
AcDbLine
 10
-153.2498575307249
 20
-112.46397
 30
0.0
 11
-153.2498575307249
 21
-57.46396999999999
 31
0.0
  0
LINE
  5
4D5
330
36
100
AcDbEntity
  8
0
100
AcDbLine
 10
-176.7552378872836
 20
-112.46397
 30
0.0
 11
-176.7552378872836
 21
-57.46396999999999
 31
0.0
  0
LINE
  5
4D6
330
36
100
AcDbEntity
  8
0
100
AcDbLine
 10
-212.6582326874449
 20
-112.46397
 30
0.0
 11
-212.6582326874449
 21
-57.46396999999999
 31
0.0
  0
TEXT
  5
4D7
330
36
100
AcDbEntity
  8
0
 62
     3
100
AcDbText
 10
-175.2552378872836
 20
-106.96397
 30
0.0
 40
3.2
  1
PA樹脂
 41
0.8
  7
高3.2
100
AcDbText
  0
LINE
  5
4D8
330
36
100
AcDbEntity
  8
0
 62
     3
100
AcDbLine
 10
170.286887
 20
-66.798248
 30
0.0
 11
118.687523
 21
-66.798248
 31
0.0
  0
TEXT
  5
4D9
330
36
100
AcDbEntity
  8
0
 62
     3
100
AcDbText
 10
124.1613441491933
 20
-72.24216199999998
 30
0.0
 40
4.5
  1
コード
  7
高4.5
100
AcDbText
  0
LINE
  5
4DA
330
36
100
AcDbEntity
  8
0
 62
     3
100
AcDbLine
 10
144.687523
 20
-72.798248
 30
0.0
 11
144.687523
 21
-66.798248
 31
0.0
  0
LINE
  5
4DB
330
36
100
AcDbEntity
  8
0
 62
     3
100
AcDbLine
 10
118.687523
 20
-72.798248
 30
0.0
 11
118.687523
 21
-66.798248
 31
0.0
  0
TEXT
  5
4E6
330
36
100
AcDbEntity
  8
0
 62
     3
100
AcDbText
 10
149.1720821682766
 20
-72.299891
 30
0.0
 40
4.5
  1
5608
  7
高4.5
100
AcDbText
  0
LINE
  5
4F2
330
36
100
AcDbEntity
  8
0
 62
     7
100
AcDbLine
 10
88.13748242225916
 20
-18.20067783914078
 30
0.0
 11
126.2585320944013
 21
-18.20067783914078
 31
0.0
  0
TEXT
  5
516
330
36
100
AcDbEntity
  8
0
 62
     3
100
AcDbText
 10
18.70769866389662
 20
-36.04319897048025
 30
0.0
 40
3.2
  1
X
 50
180.0
  7
高3.2
100
AcDbText
  0
TEXT
  5
517
330
36
100
AcDbEntity
  8
0
 62
     3
100
AcDbText
 10
-3.682837751140823
 20
-38.24578724656976
 30
0.0
 40
3.2
  1
Z
 50
180.0
  7
高3.2
100
AcDbText
  0
TEXT
  5
518
330
36
100
AcDbEntity
  8
0
 62
     3
100
AcDbText
 10
3.176427768204746
 20
-31.4374490816499
 30
0.0
 40
3.2
  1
Y
  7
高3.2
100
AcDbText
  0
TEXT
  5
62B
330
36
100
AcDbEntity
  8
0
 62
     3
100
AcDbText
 10
157.886923
 20
155.03603
 30
0.0
 40
3.2
  1
担　当
  7
高3.2
100
AcDbText
  0
TEXT
  5
62C
330
36
100
AcDbEntity
  8
0
 62
     3
100
AcDbText
 10
113.8869229999999
 20
155.03603
 30
0.0
 40
3.2
  1
変更・追記内容
  7
高3.2
100
AcDbText
  0
TEXT
  5
62D
330
36
100
AcDbEntity
  8
0
 62
     3
100
AcDbText
 10
89.0004380003392
 20
150.3654914900917
 30
0.0
 40
2.0
  1
1
  7
高2
100
AcDbText
  0
TEXT
  5
62E
330
36
100
AcDbEntity
  8
0
 62
     3
100
AcDbText
 10
88.69192652358192
 20
145.1956747778188
 30
0.0
 40
2.0
  1
2
  7
高2
100
AcDbText
  0
TEXT
  5
62F
330
36
100
AcDbEntity
  8
0
 62
     3
100
AcDbText
 10
95.88692299999996
 20
155.03603
 30
0.0
 40
3.2
  1
日　付
  7
高3.2
100
AcDbText
  0
TEXT
  5
630
330
36
100
AcDbEntity
  8
0
 62
     3
100
AcDbText
 10
95.88692299999996
 20
160.03603
 30
0.0
 40
3.2
  1
図　　　　面　　　　略　　　　歴
  7
高3.2
100
AcDbText
  0
TEXT
  5
631
330
36
100
AcDbEntity
  8
0
 62
     3
100
AcDbText
 10
85.88692299999996
 20
155.03603
 30
0.0
 40
3.2
  1
記号
  7
高3.2
100
AcDbText
  0
LINE
  5
632
330
36
100
AcDbEntity
  8
0
100
AcDbLine
 10
89.38692299999997
 20
148.3269260000001
 30
0.0
 11
87.486923
 21
145.03603
 31
0.0
  0
LINE
  5
633
330
36
100
AcDbEntity
  8
0
100
AcDbLine
 10
89.38692299999997
 20
148.3269260000001
 30
0.0
 11
91.28692299999995
 21
145.03603
 31
0.0
  0
LINE
  5
634
330
36
100
AcDbEntity
  8
0
100
AcDbLine
 10
87.486923
 20
145.03603
 30
0.0
 11
91.28692299999995
 21
145.03603
 31
0.0
  0
LINE
  5
635
330
36
100
AcDbEntity
  8
0
100
AcDbLine
 10
89.38692299999997
 20
153.3269270000001
 30
0.0
 11
87.486923
 21
150.03603
 31
0.0
  0
LINE
  5
636
330
36
100
AcDbEntity
  8
0
100
AcDbLine
 10
89.38692299999997
 20
153.3269270000001
 30
0.0
 11
91.28692299999995
 21
150.03603
 31
0.0
  0
LINE
  5
637
330
36
100
AcDbEntity
  8
0
100
AcDbLine
 10
87.486923
 20
150.03603
 30
0.0
 11
91.28692299999995
 21
150.03603
 31
0.0
  0
LINE
  5
638
330
36
100
AcDbEntity
  8
0
 62
     3
100
AcDbLine
 10
84.38692299999997
 20
159.53603
 30
0.0
 11
170.386923
 21
159.53603
 31
0.0
  0
LINE
  5
639
330
36
100
AcDbEntity
  8
0
 62
     3
100
AcDbLine
 10
84.38692299999997
 20
154.53603
 30
0.0
 11
170.386923
 21
154.53603
 31
0.0
  0
LINE
  5
63A
330
36
100
AcDbEntity
  8
0
 62
     7
100
AcDbLine
 10
84.38692299999997
 20
149.53603
 30
0.0
 11
170.386923
 21
149.53603
 31
0.0
  0
LINE
  5
63B
330
36
100
AcDbEntity
  8
0
 62
     3
100
AcDbLine
 10
84.38692299999997
 20
144.53603
 30
0.0
 11
170.386923
 21
144.53603
 31
0.0
  0
LINE
  5
63C
330
36
100
AcDbEntity
  8
0
 62
     7
100
AcDbLine
 10
156.3869229999999
 20
144.53603
 30
0.0
 11
156.3869229999999
 21
159.53603
 31
0.0
  0
LINE
  5
63D
330
36
100
AcDbEntity
  8
0
 62
     7
100
AcDbLine
 10
112.3869229999999
 20
144.53603
 30
0.0
 11
112.3869229999999
 21
159.53603
 31
0.0
  0
LINE
  5
63E
330
36
100
AcDbEntity
  8
0
 62
     7
100
AcDbLine
 10
94.38692299999997
 20
144.53603
 30
0.0
 11
94.38692299999997
 21
159.53603
 31
0.0
  0
LINE
  5
63F
330
36
100
AcDbEntity
  8
0
 62
     3
100
AcDbLine
 10
84.38692299999997
 20
144.53603
 30
0.0
 11
84.38692299999997
 21
164.53603
 31
0.0
  0
TEXT
  5
7E7
330
36
100
AcDbEntity
  8
0
 62
     3
100
AcDbText
 10
-100.6561979464774
 20
-111.96397
 30
0.0
 40
3.2
  1
コード
 41
0.8
  7
高3.2
100
AcDbText
  0
TEXT
  5
7E8
330
36
100
AcDbEntity
  8
0
 62
     3
100
AcDbText
 10
-100.6561979464774
 20
-106.96397
 30
0.0
 40
3.2
  1
55284
 41
0.8
  7
高3.2
100
AcDbText
  0
TEXT
  5
7E9
330
36
100
AcDbEntity
  8
0
 62
     3
100
AcDbText
 10
-100.6561979464774
 20
-96.96397000000001
 30
0.0
 40
3.2
  1
55279
 41
0.8
  7
高3.2
100
AcDbText
  0
TEXT
  5
7EA
330
36
100
AcDbEntity
  8
0
 62
     3
100
AcDbText
 10
-100.6561979464774
 20
-81.96396999999997
 30
0.0
 40
3.2
  1
54927
 41
0.8
  7
高3.2
100
AcDbText
  0
TEXT
  5
7EB
330
36
100
AcDbEntity
  8
0
 62
     3
100
AcDbText
 10
-100.6561979464774
 20
-76.96396999999997
 30
0.0
 40
3.2
  1
51762
 41
0.8
  7
高3.2
100
AcDbText
  0
TEXT
  5
7EC
330
36
100
AcDbEntity
  8
0
 62
     3
100
AcDbText
 10
-100.6561979464774
 20
-71.96396999999997
 30
0.0
 40
3.2
  1
51411
 41
0.8
  7
高3.2
100
AcDbText
  0
TEXT
  5
7ED
330
36
100
AcDbEntity
  8
0
 62
     3
100
AcDbText
 10
-100.6561979464774
 20
-66.96396999999999
 30
0.0
 40
3.2
  1
55286
 41
0.8
  7
高3.2
100
AcDbText
  0
TEXT
  5
7EE
330
36
100
AcDbEntity
  8
0
 62
     3
100
AcDbText
 10
-100.6561979464774
 20
-61.96397000000001
 30
0.0
 40
3.2
  1
53584
 41
0.8
  7
高3.2
100
AcDbText
  0
TEXT
  5
7F0
330
36
100
AcDbEntity
  8
0
 62
     3
100
AcDbText
 10
-100.6561979464774
 20
-86.96397000000002
 30
0.0
 40
3.2
  1
51322
 41
0.8
  7
高3.2
100
AcDbText
  0
LINE
  5
7F1
330
36
100
AcDbEntity
  8
0
100
AcDbLine
 10
-102.1561979464774
 20
-112.46397
 30
0.0
 11
-102.1561979464774
 21
-57.46396999999999
 31
0.0
  0
CIRCLE
  5
7F2
330
36
100
AcDbEntity
  8
0
100
AcDbCircle
 10
-92.566175
 20
128.8619264721766
 30
0.0
 40
5.0
  0
TEXT
  5
7F3
330
36
100
AcDbEntity
  8
0
 62
     4
100
AcDbText
 10
-94.81353253774342
 20
125.7327545843409
 30
0.0
 40
6.299999999999998
  1
4
  7
高6.3
100
AcDbText
  0
TEXT
  5
7F9
330
36
100
AcDbEntity
  8
0
 62
     3
100
AcDbText
 10
-151.7498575307249
 20
-91.96397000000002
 30
0.0
 40
3.2
  1
-
 41
0.8
  7
高3.2
100
AcDbText
  0
TEXT
  5
7FA
330
36
100
AcDbEntity
  8
0
 62
     3
100
AcDbText
 10
-175.2552378872836
 20
-91.96397000000002
 30
0.0
 40
3.2
  1
SPCC
 41
0.8
  7
高3.2
100
AcDbText
  0
TEXT
  5
7FB
330
36
100
AcDbEntity
  8
0
 62
     3
100
AcDbText
 10
-211.1582326874449
 20
-91.96397000000002
 30
0.0
 40
3.2
  1
フロントパネル
 41
0.8
  7
高3.2
100
AcDbText
  0
TEXT
  5
7FC
330
36
100
AcDbEntity
  8
0
 62
     3
100
AcDbText
 10
-110.434327611682
 20
-91.96397000000002
 30
0.0
 40
3.2
  1
1
 41
0.8
  7
高3.2
100
AcDbText
  0
TEXT
  5
7FD
330
36
100
AcDbEntity
  8
0
 62
     3
100
AcDbText
 10
-100.6561979464774
 20
-91.96397000000002
 30
0.0
 40
3.2
  1
55281
 41
0.8
  7
高3.2
100
AcDbText
  0
TEXT
  5
7FE
330
36
100
AcDbEntity
  8
0
 62
     3
100
AcDbText
 10
-84.75516509198213
 20
-111.96397
 30
0.0
 40
3.2
  1
コード番号名称
 41
0.6
  7
高3.2
100
AcDbText
  0
TEXT
  5
7FF
330
36
100
AcDbEntity
  8
0
 62
     3
100
AcDbText
 10
-84.75516509198213
 20
-106.96397
 30
0.0
 40
3.2
  1
RTB-300D-100V用　取手
 41
0.6
  7
高3.2
100
AcDbText
  0
TEXT
  5
800
330
36
100
AcDbEntity
  8
0
 62
     3
100
AcDbText
 10
-84.75516509198213
 20
-96.96397000000001
 30
0.0
 40
3.2
  1
RTB-300-100V用　上カバー
 41
0.6
  7
高3.2
100
AcDbText
  0
TEXT
  5
801
330
36
100
AcDbEntity
  8
0
 62
     3
100
AcDbText
 10
-84.75516509198213
 20
-81.96396999999997
 30
0.0
 40
3.2
  1
RTB-100/200/300兼用　脚ゴム(1/4)
 41
0.6
  7
高3.2
100
AcDbText
  0
TEXT
  5
802
330
36
100
AcDbEntity
  8
0
 62
     3
100
AcDbText
 10
-84.75516509198211
 20
-76.96396999999997
 30
0.0
 40
3.2
  1
B-2EA-15A　(安全ブレーカー)
 41
0.6
  7
高3.2
100
AcDbText
  0
TEXT
  5
803
330
36
100
AcDbEntity
  8
0
 62
     3
100
AcDbText
 10
-84.75516509198211
 20
-71.96396999999997
 30
0.0
 40
3.2
  1
2PE-WK(金具付コンセント白)
 41
0.6
  7
高3.2
100
AcDbText
  0
TEXT
  5
804
330
36
100
AcDbEntity
  8
0
 62
     3
100
AcDbText
 10
-84.75516509198211
 20
-66.96396999999999
 30
0.0
 40
3.2
  1
RTB-100/200/300兼用　電源ランプ
 41
0.6
  7
高3.2
100
AcDbText
  0
TEXT
  5
805
330
36
100
AcDbEntity
  8
0
 62
     3
100
AcDbText
 10
-84.75516509198211
 20
-61.96397000000001
 30
0.0
 40
3.2
  1
新150V電圧メーター
 41
0.6
  7
高3.2
100
AcDbText
  0
TEXT
  5
806
330
36
100
AcDbEntity
  8
0
 62
     3
100
AcDbText
 10
-84.75516509198213
 20
-86.96397000000002
 30
0.0
 40
3.2
  1
VCT2x3x2.5M　防雨型4Pプラグ付
 41
0.6
  7
高3.2
100
AcDbText
  0
LINE
  5
807
330
36
100
AcDbEntity
  8
0
100
AcDbLine
 10
-86.25516509198211
 20
-112.46397
 30
0.0
 11
-86.25516509198211
 21
-57.46396999999999
 31
0.0
  0
TEXT
  5
808
330
36
100
AcDbEntity
  8
0
 62
     3
100
AcDbText
 10
-84.75516509198213
 20
-91.96397000000002
 30
0.0
 40
3.2
  1
RTB-300D-100V用　フロントパネル
 41
0.6
  7
高3.2
100
AcDbText
  0
LINE
  5
90A
330
36
100
AcDbEntity
  8
0
 62
     7
100
AcDbLine
 10
-219.613077
 20
-107.46397
 30
0.0
 11
-34.34015667225867
 21
-107.46397
 31
0.0
  0
LINE
  5
90B
330
36
100
AcDbEntity
  8
0
 62
     7
100
AcDbLine
 10
-219.613077
 20
-97.46397000000001
 30
0.0
 11
-34.34015667225867
 21
-97.46397000000001
 31
0.0
  0
LINE
  5
90C
330
36
100
AcDbEntity
  8
0
 62
     7
100
AcDbLine
 10
-219.613077
 20
-92.46396999999999
 30
0.0
 11
-34.34015667225867
 21
-92.46396999999999
 31
0.0
  0
LINE
  5
90D
330
36
100
AcDbEntity
  8
0
 62
     7
100
AcDbLine
 10
-219.613077
 20
-87.46397000000001
 30
0.0
 11
-34.34015667225867
 21
-87.46397000000001
 31
0.0
  0
LINE
  5
90E
330
36
100
AcDbEntity
  8
0
 62
     7
100
AcDbLine
 10
-219.613077
 20
-82.46396999999998
 30
0.0
 11
-34.34015667225867
 21
-82.46396999999998
 31
0.0
  0
LINE
  5
90F
330
36
100
AcDbEntity
  8
0
 62
     7
100
AcDbLine
 10
-219.613077
 20
-77.46396999999998
 30
0.0
 11
-34.34015667225867
 21
-77.46396999999998
 31
0.0
  0
LINE
  5
910
330
36
100
AcDbEntity
  8
0
 62
     7
100
AcDbLine
 10
-219.613077
 20
-72.46396999999998
 30
0.0
 11
-34.34015667225867
 21
-72.46396999999998
 31
0.0
  0
LINE
  5
911
330
36
100
AcDbEntity
  8
0
 62
     7
100
AcDbLine
 10
-219.613077
 20
-67.46396999999999
 30
0.0
 11
-34.34015667225867
 21
-67.46396999999999
 31
0.0
  0
LINE
  5
912
330
36
100
AcDbEntity
  8
0
 62
     7
100
AcDbLine
 10
-219.613077
 20
-62.46396999999999
 30
0.0
 11
-34.34015667225867
 21
-62.46396999999999
 31
0.0
  0
LINE
  5
913
330
36
100
AcDbEntity
  8
0
 62
     3
100
AcDbLine
 10
-219.613077
 20
-57.46396999999999
 30
0.0
 11
-34.34015667225867
 21
-57.46396999999999
 31
0.0
  0
CIRCLE
  5
989
330
36
100
AcDbEntity
  8
0
100
AcDbCircle
 10
59.16080542747431
 20
13.62467121322106
 30
0.0
 40
5.0
  0
TEXT
  5
98A
330
36
100
AcDbEntity
  8
0
 62
     4
100
AcDbText
 10
57.1678238486502
 20
10.17619938829523
 30
0.0
 40
6.299999999999998
  1
2
  7
高6.3
100
AcDbText
  0
LINE
  5
98F
330
36
100
AcDbEntity
  8
0
 62
     7
100
AcDbLine
 10
-219.613077
 20
-102.46397
 30
0.0
 11
-34.34015667225867
 21
-102.46397
 31
0.0
  0
TEXT
  5
990
330
36
100
AcDbEntity
  8
0
 62
     3
100
AcDbText
 10
-151.7498575307249
 20
-101.96397
 30
0.0
 40
3.2
  1
赤塗装
 41
0.8
  7
高3.2
100
AcDbText
  0
TEXT
  5
991
330
36
100
AcDbEntity
  8
0
 62
     3
100
AcDbText
 10
-110.434327611682
 20
-101.96397
 30
0.0
 40
3.2
  1
1
 41
0.8
  7
高3.2
100
AcDbText
  0
TEXT
  5
992
330
36
100
AcDbEntity
  8
0
 62
     3
100
AcDbText
 10
-175.2552378872836
 20
-101.96397
 30
0.0
 40
3.2
  1
SPCC
 41
0.8
  7
高3.2
100
AcDbText
  0
TEXT
  5
993
330
36
100
AcDbEntity
  8
0
 62
     3
100
AcDbText
 10
-211.1582326874449
 20
-101.96397
 30
0.0
 40
3.2
  1
シャーシ
 41
0.8
  7
高3.2
100
AcDbText
  0
TEXT
  5
994
330
36
100
AcDbEntity
  8
0
 62
     3
100
AcDbText
 10
-100.6561979464774
 20
-101.96397
 30
0.0
 40
3.2
  1
56195
 41
0.8
  7
高3.2
100
AcDbText
  0
TEXT
  5
995
330
36
100
AcDbEntity
  8
0
 62
     3
100
AcDbText
 10
-84.75516509198213
 20
-101.96397
 30
0.0
 40
3.2
  1
RTB-300-100V用　シャーシ
 41
0.6
  7
高3.2
100
AcDbText
  0
TEXT
  5
996
330
36
100
AcDbEntity
  8
0
 62
     3
100
AcDbText
 10
-218.113077
 20
-61.96397000000001
 30
0.0
 40
3.2
  1
10
 41
0.8
  7
高3.2
100
AcDbText
  0
CIRCLE
  5
C03
330
36
100
AcDbEntity
  8
0
100
AcDbCircle
 10
150.3955139669702
 20
36.55904862042581
 30
0.0
 40
5.0
  0
TEXT
  5
C04
330
36
100
AcDbEntity
  8
0
 62
     4
100
AcDbText
 10
148.2010522764706
 20
33.66335383031982
 30
0.0
 40
6.299999999999998
  1
5
  7
高6.3
100
AcDbText
  0
ARC
  5
C06
330
36
100
AcDbEntity
  8
0
 62
     3
100
AcDbCircle
 10
118.3504566084029
 20
77.68296659164779
 30
0.0
 40
2.0
100
AcDbArc
 50
90.0
 51
270.0
  0
ARC
  5
C07
330
36
100
AcDbEntity
  8
0
 62
     3
100
AcDbCircle
 10
144.8504566084029
 20
77.68296659164779
 30
0.0
 40
2.0
100
AcDbArc
 50
270.0
 51
90.0
  0
LINE
  5
C08
330
36
100
AcDbEntity
  8
0
 62
     3
100
AcDbLine
 10
118.3504566084029
 20
75.68296659164778
 30
0.0
 11
118.3504566084029
 21
73.18296659164778
 31
0.0
  0
LINE
  5
C09
330
36
100
AcDbEntity
  8
0
 62
     3
100
AcDbLine
 10
144.8504566084029
 20
73.18296659164778
 30
0.0
 11
144.8504566084029
 21
75.68296659164778
 31
0.0
  0
LINE
  5
C0A
330
36
100
AcDbEntity
  8
0
 62
     3
100
AcDbLine
 10
118.3504566084029
 20
73.18296659164778
 30
0.0
 11
119.1004566084029
 21
71.6829665916479
 31
0.0
  0
LINE
  5
C0B
330
36
100
AcDbEntity
  8
0
 62
     3
100
AcDbLine
 10
144.1004566084029
 20
71.6829665916479
 30
0.0
 11
144.8504566084029
 21
73.18296659164778
 31
0.0
  0
LINE
  5
C0C
330
36
100
AcDbEntity
  8
0
 62
     3
100
AcDbLine
 10
118.3504566084029
 20
81.18296659164778
 30
0.0
 11
118.3504566084029
 21
79.68296659164778
 31
0.0
  0
LINE
  5
C0D
330
36
100
AcDbEntity
  8
0
 62
     3
100
AcDbLine
 10
144.8504566084029
 20
79.68296659164778
 30
0.0
 11
144.8504566084029
 21
81.18296659164778
 31
0.0
  0
ARC
  5
C0E
330
36
100
AcDbEntity
  8
0
 62
     3
100
AcDbCircle
 10
131.6004566084029
 20
67.68296659164789
 30
0.0
 40
12.50000000000002
100
AcDbArc
 50
306.6531750701011
 51
334.1582287284891
  0
ARC
  5
C0F
330
36
100
AcDbEntity
  8
0
 62
     3
100
AcDbCircle
 10
131.6004566084029
 20
67.68296659164789
 30
0.0
 40
12.50000000000001
100
AcDbArc
 50
205.8417712364031
 51
233.3468249299153
  0
ARC
  5
C10
330
36
100
AcDbEntity
  8
0
 62
     3
100
AcDbCircle
 10
121.750456608403
 20
54.44561413732381
 30
0.0
 40
4.0
100
AcDbArc
 50
0.0
 51
53.3468249299153
  0
ARC
  5
C11
330
36
100
AcDbEntity
  8
0
 62
     3
100
AcDbCircle
 10
141.4504566084028
 20
54.44561413732381
 30
0.0
 40
4.0
100
AcDbArc
 50
126.6531750700847
 51
180.0
  0
ARC
  5
C12
330
36
100
AcDbEntity
  8
0
 62
     3
100
AcDbCircle
 10
126.5248961088264
 20
46.15111261038193
 30
0.0
 40
2.174439500423603
100
AcDbArc
 50
110.8643046745889
 51
244.8405244688164
  0
ARC
  5
C13
330
36
100
AcDbEntity
  8
0
 62
     3
100
AcDbCircle
 10
136.6760171079792
 20
46.15111261038193
 30
0.0
 40
2.174439500423597
100
AcDbArc
 50
295.1594755311837
 51
69.13569532541105
  0
LINE
  5
C14
330
36
100
AcDbEntity
  8
0
 62
     3
100
AcDbLine
 10
125.6004566084029
 20
44.18296659164777
 30
0.0
 11
125.6004566084029
 21
42.68296659164788
 31
0.0
  0
LINE
  5
C15
330
36
100
AcDbEntity
  8
0
 62
     3
100
AcDbLine
 10
137.6004566084029
 20
42.68296659164788
 30
0.0
 11
137.6004566084029
 21
44.18296659164777
 31
0.0
  0
LINE
  5
C16
330
36
100
AcDbEntity
  8
0
 62
     3
100
AcDbLine
 10
125.750456608403
 20
54.44561413732381
 30
0.0
 11
125.750456608403
 21
48.18296659164778
 31
0.0
  0
LINE
  5
C17
330
36
100
AcDbEntity
  8
0
 62
     3
100
AcDbLine
 10
137.4504566084028
 20
48.18296659164778
 30
0.0
 11
137.4504566084028
 21
54.44561413732381
 31
0.0
  0
LINE
  5
C18
330
36
100
AcDbEntity
  8
0
 62
     3
100
AcDbLine
 10
126.7254566084029
 20
42.68296659164788
 30
0.0
 11
127.0874223598816
 21
29.16957853643785
 31
0.0
  0
LINE
  5
C19
330
36
100
AcDbEntity
  8
0
 62
     3
100
AcDbLine
 10
136.113490856924
 20
29.16957853643785
 30
0.0
 11
136.4754566084029
 21
42.68296659164788
 31
0.0
  0
ARC
  5
C1A
330
36
100
AcDbEntity
  8
0
 62
     3
100
AcDbCircle
 10
135.6136701290847
 20
29.18296659164778
 30
0.0
 40
0.5
100
AcDbArc
 50
270.0
 51
358.4656585003048
  0
ARC
  5
C1B
330
36
100
AcDbEntity
  8
0
 62
     3
100
AcDbCircle
 10
127.5872430877209
 20
29.18296659164778
 30
0.0
 40
0.5
100
AcDbArc
 50
181.5343414996952
 51
270.0
  0
LINE
  5
C1C
330
36
100
AcDbEntity
  8
0
 62
     3
100
AcDbLine
 10
144.8504566084029
 20
79.68296659164778
 30
0.0
 11
118.3504566084029
 21
79.68296659164778
 31
0.0
  0
LINE
  5
C1D
330
36
100
AcDbEntity
  8
0
 62
     3
100
AcDbLine
 10
118.3504566084029
 20
75.68296659164778
 30
0.0
 11
144.8504566084029
 21
75.68296659164778
 31
0.0
  0
LINE
  5
C1E
330
36
100
AcDbEntity
  8
0
 62
     3
100
AcDbLine
 10
118.3504566084029
 20
73.18296659164778
 30
0.0
 11
144.8504566084029
 21
73.18296659164778
 31
0.0
  0
LINE
  5
C1F
330
36
100
AcDbEntity
  8
0
 62
     3
100
AcDbLine
 10
119.1004566084029
 20
71.6829665916479
 30
0.0
 11
144.1004566084029
 21
71.6829665916479
 31
0.0
  0
LINE
  5
C20
330
36
100
AcDbEntity
  8
0
 62
     3
100
AcDbLine
 10
144.8504566084029
 20
81.18296659164778
 30
0.0
 11
118.3504566084029
 21
81.18296659164778
 31
0.0
  0
LINE
  5
C21
330
36
100
AcDbEntity
  8
0
 62
     3
100
AcDbLine
 10
125.750456608403
 20
48.18296659164778
 30
0.0
 11
137.4504566084026
 21
48.18296659164778
 31
0.0
  0
LINE
  5
C22
330
36
100
AcDbEntity
  8
0
 62
     3
100
AcDbLine
 10
125.6004566084029
 20
44.18296659164777
 30
0.0
 11
137.6004566084027
 21
44.18296659164772
 31
0.0
  0
LINE
  5
C23
330
36
100
AcDbEntity
  8
0
 62
     3
100
AcDbLine
 10
132.1004566084029
 20
91.68296659164779
 30
0.0
 11
131.9504566084028
 21
92.68296659164779
 31
0.0
  0
LINE
  5
C24
330
36
100
AcDbEntity
  8
0
 62
     3
100
AcDbLine
 10
131.250456608403
 20
92.68296659164779
 30
0.0
 11
131.1004566084029
 21
91.68296659164779
 31
0.0
  0
LINE
  5
C25
330
36
100
AcDbEntity
  8
0
 62
     3
100
AcDbLine
 10
131.250456608403
 20
92.68296659164779
 30
0.0
 11
131.9504566084028
 21
92.68296659164779
 31
0.0
  0
LINE
  5
C26
330
36
100
AcDbEntity
  8
0
 62
     3
100
AcDbLine
 10
131.100456608403
 20
81.18296659164778
 30
0.0
 11
131.1004566084029
 21
91.68296659164779
 31
0.0
  0
LINE
  5
C27
330
36
100
AcDbEntity
  8
0
 62
     3
100
AcDbLine
 10
132.1004566084029
 20
91.68296659164779
 30
0.0
 11
132.100456608403
 21
81.18296659164778
 31
0.0
  0
LINE
  5
C28
330
36
100
AcDbEntity
  8
0
 62
     3
100
AcDbLine
 10
125.6004566084029
 20
42.68296659164788
 30
0.0
 11
137.6004566084029
 21
42.68296659164788
 31
0.0
  0
LINE
  5
C29
330
36
100
AcDbEntity
  8
0
 62
     3
100
AcDbLine
 10
130.8504566084029
 20
33.38296659164782
 30
0.0
 11
127.0357677114718
 21
33.38296659164782
 31
0.0
  0
LINE
  5
C2A
330
36
100
AcDbEntity
  8
0
 62
     3
100
AcDbLine
 10
127.0792049721389
 20
31.7829665916478
 30
0.0
 11
127.0357677114718
 21
33.38296659164782
 31
0.0
  0
LINE
  5
C2B
330
36
100
AcDbEntity
  8
0
 62
     3
100
AcDbLine
 10
127.0792049721389
 20
31.7829665916478
 30
0.0
 11
130.8504566084029
 21
31.78296659164792
 31
0.0
  0
LINE
  5
C2C
330
36
100
AcDbEntity
  8
0
 62
     3
100
AcDbLine
 10
130.8504566084029
 20
31.78296659164792
 30
0.0
 11
130.8504566084029
 21
33.38296659164782
 31
0.0
  0
LINE
  5
C2D
330
36
100
AcDbEntity
  8
0
 62
     3
100
AcDbLine
 10
132.3504566084029
 20
34.88296659164782
 30
0.0
 11
136.2058580650113
 21
34.88296659164782
 31
0.0
  0
LINE
  5
C2E
330
36
100
AcDbEntity
  8
0
 62
     3
100
AcDbLine
 10
136.2492745539475
 20
36.48296659164785
 30
0.0
 11
136.2058580650113
 21
34.88296659164782
 31
0.0
  0
LINE
  5
C2F
330
36
100
AcDbEntity
  8
0
 62
     3
100
AcDbLine
 10
136.2492745539475
 20
36.48296659164785
 30
0.0
 11
132.3504566084029
 21
36.48296659164785
 31
0.0
  0
LINE
  5
C30
330
36
100
AcDbEntity
  8
0
 62
     3
100
AcDbLine
 10
132.3504566084029
 20
36.48296659164785
 30
0.0
 11
132.3504566084029
 21
34.88296659164782
 31
0.0
  0
LINE
  5
C31
330
36
100
AcDbEntity
  8
0
 62
     3
100
AcDbLine
 10
132.3504566084029
 20
31.78296659164792
 30
0.0
 11
136.1217082446666
 21
31.7829665916478
 31
0.0
  0
LINE
  5
C32
330
36
100
AcDbEntity
  8
0
 62
     3
100
AcDbLine
 10
136.1651455053338
 20
33.38296659164782
 30
0.0
 11
136.1217082446666
 21
31.7829665916478
 31
0.0
  0
LINE
  5
C33
330
36
100
AcDbEntity
  8
0
 62
     3
100
AcDbLine
 10
136.1651455053338
 20
33.38296659164782
 30
0.0
 11
132.3504566084029
 21
33.38296659164782
 31
0.0
  0
LINE
  5
C34
330
36
100
AcDbEntity
  8
0
 62
     3
100
AcDbLine
 10
132.3504566084029
 20
33.38296659164782
 30
0.0
 11
132.3504566084029
 21
31.78296659164792
 31
0.0
  0
LINE
  5
C35
330
36
100
AcDbEntity
  8
0
 62
     3
100
AcDbLine
 10
132.3504566084029
 20
42.68296659164788
 30
0.0
 11
132.3504566084029
 21
41.08296659164786
 31
0.0
  0
LINE
  5
C36
330
36
100
AcDbEntity
  8
0
 62
     3
100
AcDbLine
 10
132.3504566084029
 20
41.08296659164786
 30
0.0
 11
136.3740406489155
 21
41.08296659164786
 31
0.0
  0
LINE
  5
C37
330
36
100
AcDbEntity
  8
0
 62
     3
100
AcDbLine
 10
136.3740406489155
 20
41.08296659164786
 30
0.0
 11
136.4174188254023
 21
42.68296659164788
 31
0.0
  0
LINE
  5
C38
330
36
100
AcDbEntity
  8
0
 62
     3
100
AcDbLine
 10
126.8268725678904
 20
41.08296659164786
 30
0.0
 11
126.7834943914035
 21
42.68296659164788
 31
0.0
  0
LINE
  5
C39
330
36
100
AcDbEntity
  8
0
 62
     3
100
AcDbLine
 10
126.8268725678904
 20
41.08296659164786
 30
0.0
 11
130.8504566084029
 21
41.08296659164786
 31
0.0
  0
LINE
  5
C3A
330
36
100
AcDbEntity
  8
0
 62
     3
100
AcDbLine
 10
130.8504566084029
 20
41.08296659164786
 30
0.0
 11
130.8504566084029
 21
42.68296659164788
 31
0.0
  0
LINE
  5
C3B
330
36
100
AcDbEntity
  8
0
 62
     3
100
AcDbLine
 10
130.8504566084029
 20
37.98296659164785
 30
0.0
 11
130.8504566084029
 21
39.58296659164787
 31
0.0
  0
LINE
  5
C3C
330
36
100
AcDbEntity
  8
0
 62
     3
100
AcDbLine
 10
130.8504566084029
 20
39.58296659164787
 30
0.0
 11
126.8675482302951
 21
39.58296659164787
 31
0.0
  0
LINE
  5
C3D
330
36
100
AcDbEntity
  8
0
 62
     3
100
AcDbLine
 10
126.9109450502194
 20
37.98296659164785
 30
0.0
 11
126.8675482302951
 21
39.58296659164787
 31
0.0
  0
LINE
  5
C3E
330
36
100
AcDbEntity
  8
0
 62
     3
100
AcDbLine
 10
126.9109450502194
 20
37.98296659164785
 30
0.0
 11
130.8504566084029
 21
37.98296659164785
 31
0.0
  0
LINE
  5
C3F
330
36
100
AcDbEntity
  8
0
 62
     3
100
AcDbLine
 10
132.3504566084029
 20
37.98296659164785
 30
0.0
 11
136.2899681665862
 21
37.98296659164785
 31
0.0
  0
LINE
  5
C40
330
36
100
AcDbEntity
  8
0
 62
     3
100
AcDbLine
 10
136.3333649865105
 20
39.58296659164787
 30
0.0
 11
136.2899681665862
 21
37.98296659164785
 31
0.0
  0
LINE
  5
C41
330
36
100
AcDbEntity
  8
0
 62
     3
100
AcDbLine
 10
136.3333649865105
 20
39.58296659164787
 30
0.0
 11
132.3504566084029
 21
39.58296659164787
 31
0.0
  0
LINE
  5
C42
330
36
100
AcDbEntity
  8
0
 62
     3
100
AcDbLine
 10
132.3504566084029
 20
39.58296659164787
 30
0.0
 11
132.3504566084029
 21
37.98296659164785
 31
0.0
  0
LINE
  5
C43
330
36
100
AcDbEntity
  8
0
 62
     3
100
AcDbLine
 10
130.8504566084029
 20
36.48296659164785
 30
0.0
 11
126.9516386628583
 21
36.48296659164785
 31
0.0
  0
LINE
  5
C44
330
36
100
AcDbEntity
  8
0
 62
     3
100
AcDbLine
 10
126.9950551517945
 20
34.88296659164782
 30
0.0
 11
126.9516386628583
 21
36.48296659164785
 31
0.0
  0
LINE
  5
C45
330
36
100
AcDbEntity
  8
0
 62
     3
100
AcDbLine
 10
126.9950551517945
 20
34.88296659164782
 30
0.0
 11
130.8504566084029
 21
34.88296659164782
 31
0.0
  0
LINE
  5
C46
330
36
100
AcDbEntity
  8
0
 62
     3
100
AcDbLine
 10
130.8504566084029
 20
34.88296659164782
 30
0.0
 11
130.8504566084029
 21
36.48296659164785
 31
0.0
  0
LINE
  5
C47
330
36
100
AcDbEntity
  8
0
 62
     3
100
AcDbLine
 10
135.6136701290847
 20
28.68296659164778
 30
0.0
 11
127.5872430877209
 21
28.68296659164778
 31
0.0
  0
LINE
  5
C48
330
36
100
AcDbEntity
  8
0
 62
     3
100
AcDbLine
 10
128.7473880848656
 20
33.38296659164782
 30
0.0
 11
128.7473880848656
 21
31.7829665916478
 31
0.0
  0
LINE
  5
C49
330
36
100
AcDbEntity
  8
0
 62
     3
100
AcDbLine
 10
134.4535251319402
 20
34.88296659164782
 30
0.0
 11
134.4535251319402
 21
36.48296659164785
 31
0.0
  0
LINE
  5
C4A
330
36
100
AcDbEntity
  8
0
 62
     3
100
AcDbLine
 10
134.4535251319402
 20
31.7829665916478
 30
0.0
 11
134.4535251319402
 21
33.38296659164782
 31
0.0
  0
LINE
  5
C4B
330
36
100
AcDbEntity
  8
0
 62
     3
100
AcDbLine
 10
128.7473880848656
 20
42.68296659164788
 30
0.0
 11
128.7473880848656
 21
41.08296659164786
 31
0.0
  0
LINE
  5
C4C
330
36
100
AcDbEntity
  8
0
 62
     3
100
AcDbLine
 10
128.7473880848656
 20
39.58296659164787
 30
0.0
 11
128.7473880848656
 21
37.98296659164785
 31
0.0
  0
LINE
  5
C4D
330
36
100
AcDbEntity
  8
0
 62
     3
100
AcDbLine
 10
134.4535251319402
 20
37.98296659164785
 30
0.0
 11
134.4535251319402
 21
39.58296659164787
 31
0.0
  0
LINE
  5
C4E
330
36
100
AcDbEntity
  8
0
 62
     3
100
AcDbLine
 10
128.7473880848656
 20
36.48296659164785
 30
0.0
 11
128.7473880848656
 21
34.88296659164782
 31
0.0
  0
LINE
  5
C4F
330
36
100
AcDbEntity
  8
0
 62
     3
100
AcDbLine
 10
134.4535251319402
 20
42.68296659164788
 30
0.0
 11
134.4535251319402
 21
41.08296659164786
 31
0.0
  0
LINE
  5
C50
330
36
100
AcDbEntity
  8
0
 62
     3
100
AcDbLine
 10
136.250456608403
 20
89.68296659164778
 30
0.0
 11
136.250456608403
 21
81.23296659164774
 31
0.0
  0
LINE
  5
C51
330
36
100
AcDbEntity
  8
0
 62
     3
100
AcDbLine
 10
137.250456608403
 20
89.68296659164778
 30
0.0
 11
136.250456608403
 21
89.68296659164778
 31
0.0
  0
LINE
  5
C52
330
36
100
AcDbEntity
  8
0
 62
     3
100
AcDbLine
 10
137.250456608403
 20
89.68296659164778
 30
0.0
 11
137.250456608403
 21
81.18296659164789
 31
0.0
  0
LINE
  5
C53
330
36
100
AcDbEntity
  8
0
 62
     3
100
AcDbLine
 10
137.250456608403
 20
90.18296659164779
 30
0.0
 11
137.1004566084029
 21
91.18296659164778
 31
0.0
  0
LINE
  5
C54
330
36
100
AcDbEntity
  8
0
 62
     3
100
AcDbLine
 10
136.4004566084029
 20
91.18296659164778
 30
0.0
 11
136.250456608403
 21
90.18296659164779
 31
0.0
  0
LINE
  5
C55
330
36
100
AcDbEntity
  8
0
 62
     3
100
AcDbLine
 10
136.4004566084029
 20
91.18296659164778
 30
0.0
 11
137.1004566084029
 21
91.18296659164778
 31
0.0
  0
LINE
  5
C56
330
36
100
AcDbEntity
  8
0
 62
     3
100
AcDbLine
 10
136.250456608403
 20
89.68296659164778
 30
0.0
 11
136.250456608403
 21
90.18296659164779
 31
0.0
  0
LINE
  5
C57
330
36
100
AcDbEntity
  8
0
 62
     3
100
AcDbLine
 10
137.250456608403
 20
90.18296659164779
 30
0.0
 11
137.250456608403
 21
89.68296659164778
 31
0.0
  0
LINE
  5
C58
330
36
100
AcDbEntity
  8
0
 62
     3
100
AcDbLine
 10
125.9504566084028
 20
89.68296659164778
 30
0.0
 11
125.9504566084028
 21
81.18296659164789
 31
0.0
  0
LINE
  5
C59
330
36
100
AcDbEntity
  8
0
 62
     3
100
AcDbLine
 10
126.9504566084028
 20
89.68296659164778
 30
0.0
 11
125.9504566084028
 21
89.68296659164778
 31
0.0
  0
LINE
  5
C5A
330
36
100
AcDbEntity
  8
0
 62
     3
100
AcDbLine
 10
126.9504566084028
 20
89.68296659164778
 30
0.0
 11
126.9504566084028
 21
81.23296659164774
 31
0.0
  0
LINE
  5
C5B
330
36
100
AcDbEntity
  8
0
 62
     3
100
AcDbLine
 10
126.9504566084028
 20
90.18296659164779
 30
0.0
 11
126.8004566084027
 21
91.18296659164778
 31
0.0
  0
LINE
  5
C5C
330
36
100
AcDbEntity
  8
0
 62
     3
100
AcDbLine
 10
126.1004566084029
 20
91.18296659164778
 30
0.0
 11
125.9504566084028
 21
90.18296659164779
 31
0.0
  0
LINE
  5
C5D
330
36
100
AcDbEntity
  8
0
 62
     3
100
AcDbLine
 10
126.1004566084029
 20
91.18296659164778
 30
0.0
 11
126.8004566084027
 21
91.18296659164778
 31
0.0
  0
LINE
  5
C5E
330
36
100
AcDbEntity
  8
0
 62
     3
100
AcDbLine
 10
125.9504566084028
 20
89.68296659164778
 30
0.0
 11
125.9504566084028
 21
90.18296659164779
 31
0.0
  0
LINE
  5
C5F
330
36
100
AcDbEntity
  8
0
 62
     3
100
AcDbLine
 10
126.9504566084028
 20
90.18296659164779
 30
0.0
 11
126.9504566084028
 21
89.68296659164778
 31
0.0
  0
LINE
  5
C60
330
36
100
AcDbEntity
  8
0
 62
     3
100
AcDbLine
 10
133.6004566084029
 20
89.68296659164778
 30
0.0
 11
133.6004566084029
 21
81.23296659164797
 31
0.0
  0
LINE
  5
C61
330
36
100
AcDbEntity
  8
0
 62
     3
100
AcDbLine
 10
129.6004566084029
 20
89.68296659164778
 30
0.0
 11
129.6004566084029
 21
81.23296659164797
 31
0.0
  0
LINE
  5
C62
330
36
100
AcDbEntity
  8
0
 62
     3
100
AcDbLine
 10
129.8504566084029
 20
90.18296659164779
 30
0.0
 11
129.6004566084029
 21
89.68296659164778
 31
0.0
  0
LINE
  5
C63
330
36
100
AcDbEntity
  8
0
 62
     3
100
AcDbLine
 10
133.3504566084029
 20
90.18296659164779
 30
0.0
 11
132.100456608403
 21
90.18296659164779
 31
0.0
  0
LINE
  5
C64
330
36
100
AcDbEntity
  8
0
 62
     3
100
AcDbLine
 10
131.100456608403
 20
90.18296659164779
 30
0.0
 11
129.8504566084029
 21
90.18296659164779
 31
0.0
  0
LINE
  5
C65
330
36
100
AcDbEntity
  8
0
 62
     3
100
AcDbLine
 10
133.6004566084029
 20
89.68296659164778
 30
0.0
 11
133.3504566084029
 21
90.18296659164779
 31
0.0
  0
LINE
  5
C66
330
36
100
AcDbEntity
  8
0
 62
     3
100
AcDbLine
 10
130.3504566084029
 20
91.18296659164778
 30
0.0
 11
131.1004566084029
 21
91.18296659164778
 31
0.0
  0
LINE
  5
C67
330
36
100
AcDbEntity
  8
0
 62
     3
100
AcDbLine
 10
132.1004566084029
 20
91.18296659164778
 30
0.0
 11
132.8504566084029
 21
91.18296659164778
 31
0.0
  0
LINE
  5
C68
330
36
100
AcDbEntity
  8
0
 62
     3
100
AcDbLine
 10
129.8504566084029
 20
90.18296659164779
 30
0.0
 11
130.3504566084029
 21
91.18296659164778
 31
0.0
  0
LINE
  5
C69
330
36
100
AcDbEntity
  8
0
 62
     3
100
AcDbLine
 10
132.8504566084029
 20
91.18296659164778
 30
0.0
 11
133.3504566084029
 21
90.18296659164779
 31
0.0
  0
LINE
  5
C6A
330
36
100
AcDbEntity
  8
0
 62
     3
100
AcDbLine
 10
120.3504412478307
 20
62.23437462794907
 30
0.0
 11
120.3504412478307
 21
71.6829665916479
 31
0.0
  0
LINE
  5
C6B
330
36
100
AcDbEntity
  8
0
 62
     3
100
AcDbLine
 10
142.8504719656364
 20
62.23437462105629
 30
0.0
 11
142.8504719656368
 21
71.6829665916479
 31
0.0
  0
LINE
  5
C6C
330
36
100
AcDbEntity
  8
0
 62
     7
100
AcDbLine
 10
137.2504566084028
 20
107.9276950621753
 30
0.0
 11
136.2504566084028
 21
107.9276950621753
 31
0.0
  0
LINE
  5
C6D
330
36
100
AcDbEntity
  8
0
 62
     7
100
AcDbLine
 10
137.1004566084038
 20
108.0776950621753
 30
0.0
 11
136.4004566084038
 21
108.0776950621753
 31
0.0
  0
LINE
  5
C6E
330
36
100
AcDbEntity
  8
0
 62
     7
100
AcDbLine
 10
126.9504566084028
 20
107.9276950621753
 30
0.0
 11
125.9504566084028
 21
107.9276950621753
 31
0.0
  0
LINE
  5
C6F
330
36
100
AcDbEntity
  8
0
 62
     7
100
AcDbLine
 10
126.8004566084027
 20
108.0776950621753
 30
0.0
 11
126.1004566084029
 21
108.0776950621753
 31
0.0
  0
LINE
  5
C70
330
36
100
AcDbEntity
  8
0
 62
     7
100
AcDbLine
 10
137.2504566084028
 20
111.9276950621753
 30
0.0
 11
136.2504566084028
 21
111.9276950621753
 31
0.0
  0
LINE
  5
C71
330
36
100
AcDbEntity
  8
0
 62
     7
100
AcDbLine
 10
137.1004566084038
 20
111.7776950621753
 30
0.0
 11
136.4004566084038
 21
111.7776950621753
 31
0.0
  0
LINE
  5
C72
330
36
100
AcDbEntity
  8
0
 62
     7
100
AcDbLine
 10
126.9504566084028
 20
111.9276950621753
 30
0.0
 11
125.9504566084028
 21
111.9276950621753
 31
0.0
  0
LINE
  5
C73
330
36
100
AcDbEntity
  8
0
 62
     7
100
AcDbLine
 10
126.8004566084027
 20
111.7776950621753
 30
0.0
 11
126.1004566084029
 21
111.7776950621753
 31
0.0
  0
LINE
  5
C74
330
36
100
AcDbEntity
  8
0
 62
     7
100
AcDbLine
 10
133.6004566084029
 20
114.5776950621753
 30
0.0
 11
129.6004566084029
 21
114.5776950621753
 31
0.0
  0
LINE
  5
C75
330
36
100
AcDbEntity
  8
0
 62
     7
100
AcDbLine
 10
133.4504566084028
 20
114.7276950621752
 30
0.0
 11
129.7504566084028
 21
114.7276950621752
 31
0.0
  0
LINE
  5
C76
330
36
100
AcDbEntity
  8
0
 62
     7
100
AcDbLine
 10
133.6004566084029
 20
115.5776950621753
 30
0.0
 11
129.6004566084029
 21
115.5776950621753
 31
0.0
  0
LINE
  5
C77
330
36
100
AcDbEntity
  8
0
 62
     7
100
AcDbLine
 10
133.4504566084028
 20
115.4276950621752
 30
0.0
 11
129.7504566084028
 21
115.4276950621752
 31
0.0
  0
LINE
  5
C78
330
36
100
AcDbEntity
  8
0
 62
     7
100
AcDbLine
 10
132.1004566084029
 20
103.1776950621752
 30
0.0
 11
131.1004566084029
 21
103.1776950621752
 31
0.0
  0
LINE
  5
C79
330
36
100
AcDbEntity
  8
0
 62
     7
100
AcDbLine
 10
131.9504566084028
 20
103.3276950621752
 30
0.0
 11
131.2504566084028
 21
103.3276950621752
 31
0.0
  0
LINE
  5
C7A
330
36
100
AcDbEntity
  8
0
 62
     7
100
AcDbLine
 10
132.1004566084029
 20
107.1776950621752
 30
0.0
 11
131.1004566084029
 21
107.1776950621752
 31
0.0
  0
LINE
  5
C7B
330
36
100
AcDbEntity
  8
0
 62
     7
100
AcDbLine
 10
131.9504566084028
 20
107.0276950621752
 30
0.0
 11
131.2504566084028
 21
107.0276950621752
 31
0.0
  0
LINE
  5
C7C
330
36
100
AcDbEntity
  8
0
 62
     7
100
AcDbLine
 10
129.6004566084029
 20
114.5776950621753
 30
0.0
 11
129.6004566084029
 21
115.5776950621753
 31
0.0
  0
LINE
  5
C7D
330
36
100
AcDbEntity
  8
0
 62
     7
100
AcDbLine
 10
129.7504566084028
 20
114.7276950621752
 30
0.0
 11
129.7504566084028
 21
115.4276950621752
 31
0.0
  0
LINE
  5
C7E
330
36
100
AcDbEntity
  8
0
 62
     7
100
AcDbLine
 10
133.6004566084029
 20
114.5776950621753
 30
0.0
 11
133.6004566084029
 21
115.5776950621753
 31
0.0
  0
LINE
  5
C7F
330
36
100
AcDbEntity
  8
0
 62
     7
100
AcDbLine
 10
133.4504566084028
 20
114.7276950621752
 30
0.0
 11
133.4504566084028
 21
115.4276950621752
 31
0.0
  0
LINE
  5
C80
330
36
100
AcDbEntity
  8
0
 62
     7
100
AcDbLine
 10
131.1004566084029
 20
103.1776950621752
 30
0.0
 11
131.1004566084029
 21
107.1776950621752
 31
0.0
  0
LINE
  5
C81
330
36
100
AcDbEntity
  8
0
 62
     7
100
AcDbLine
 10
131.2504566084028
 20
103.3276950621752
 30
0.0
 11
131.2504566084028
 21
107.0276950621752
 31
0.0
  0
LINE
  5
C82
330
36
100
AcDbEntity
  8
0
 62
     7
100
AcDbLine
 10
132.1004566084029
 20
103.1776950621752
 30
0.0
 11
132.1004566084029
 21
107.1776950621752
 31
0.0
  0
LINE
  5
C83
330
36
100
AcDbEntity
  8
0
 62
     7
100
AcDbLine
 10
131.9504566084028
 20
103.3276950621752
 30
0.0
 11
131.9504566084028
 21
107.0276950621752
 31
0.0
  0
LINE
  5
C84
330
36
100
AcDbEntity
  8
0
 62
     7
100
AcDbLine
 10
125.9504566084028
 20
107.9276950621753
 30
0.0
 11
125.9504566084028
 21
111.9276950621753
 31
0.0
  0
LINE
  5
C85
330
36
100
AcDbEntity
  8
0
 62
     7
100
AcDbLine
 10
126.1004566084029
 20
108.0776950621753
 30
0.0
 11
126.1004566084029
 21
111.7776950621753
 31
0.0
  0
LINE
  5
C86
330
36
100
AcDbEntity
  8
0
 62
     7
100
AcDbLine
 10
126.9504566084028
 20
107.9276950621753
 30
0.0
 11
126.9504566084028
 21
111.9276950621753
 31
0.0
  0
LINE
  5
C87
330
36
100
AcDbEntity
  8
0
 62
     7
100
AcDbLine
 10
126.8004566084027
 20
108.0776950621753
 30
0.0
 11
126.8004566084027
 21
111.7776950621753
 31
0.0
  0
LINE
  5
C88
330
36
100
AcDbEntity
  8
0
 62
     7
100
AcDbLine
 10
136.2504566084028
 20
107.9276950621753
 30
0.0
 11
136.2504566084028
 21
111.9276950621753
 31
0.0
  0
LINE
  5
C89
330
36
100
AcDbEntity
  8
0
 62
     7
100
AcDbLine
 10
136.4004566084038
 20
108.0776950621753
 30
0.0
 11
136.4004566084038
 21
111.7776950621753
 31
0.0
  0
LINE
  5
C8A
330
36
100
AcDbEntity
  8
0
 62
     7
100
AcDbLine
 10
137.2504566084028
 20
107.9276950621753
 30
0.0
 11
137.2504566084028
 21
111.9276950621753
 31
0.0
  0
LINE
  5
C8B
330
36
100
AcDbEntity
  8
0
 62
     7
100
AcDbLine
 10
137.1004566084038
 20
108.0776950621753
 30
0.0
 11
137.1004566084029
 21
111.7776950621753
 31
0.0
  0
LINE
  5
C8C
330
36
100
AcDbEntity
  8
0
 62
     7
100
AcDbLine
 10
126.8004566084027
 20
111.7776950621753
 30
0.0
 11
126.9504566084028
 21
111.9276950621753
 31
0.0
  0
LINE
  5
C8D
330
36
100
AcDbEntity
  8
0
 62
     7
100
AcDbLine
 10
126.1004566084029
 20
111.7776950621753
 30
0.0
 11
125.9504566084028
 21
111.9276950621753
 31
0.0
  0
LINE
  5
C8E
330
36
100
AcDbEntity
  8
0
 62
     7
100
AcDbLine
 10
126.1004566084029
 20
108.0776950621753
 30
0.0
 11
125.9504566084028
 21
107.9276950621753
 31
0.0
  0
LINE
  5
C8F
330
36
100
AcDbEntity
  8
0
 62
     7
100
AcDbLine
 10
126.8004566084027
 20
108.0776950621753
 30
0.0
 11
126.9504566084028
 21
107.9276950621753
 31
0.0
  0
LINE
  5
C90
330
36
100
AcDbEntity
  8
0
 62
     7
100
AcDbLine
 10
131.2504566084028
 20
107.0276950621752
 30
0.0
 11
131.1004566084029
 21
107.1776950621752
 31
0.0
  0
LINE
  5
C91
330
36
100
AcDbEntity
  8
0
 62
     7
100
AcDbLine
 10
131.9504566084028
 20
107.0276950621752
 30
0.0
 11
132.1004566084029
 21
107.1776950621752
 31
0.0
  0
LINE
  5
C92
330
36
100
AcDbEntity
  8
0
 62
     7
100
AcDbLine
 10
131.2504566084028
 20
103.3276950621752
 30
0.0
 11
131.1004566084029
 21
103.1776950621752
 31
0.0
  0
LINE
  5
C93
330
36
100
AcDbEntity
  8
0
 62
     7
100
AcDbLine
 10
131.9504566084028
 20
103.3276950621752
 30
0.0
 11
132.1004566084029
 21
103.1776950621752
 31
0.0
  0
LINE
  5
C94
330
36
100
AcDbEntity
  8
0
 62
     7
100
AcDbLine
 10
136.4004566084038
 20
108.0776950621753
 30
0.0
 11
136.2504566084028
 21
107.9276950621753
 31
0.0
  0
LINE
  5
C95
330
36
100
AcDbEntity
  8
0
 62
     7
100
AcDbLine
 10
137.1004566084038
 20
108.0776950621753
 30
0.0
 11
137.2504566084028
 21
107.9276950621753
 31
0.0
  0
LINE
  5
C96
330
36
100
AcDbEntity
  8
0
 62
     7
100
AcDbLine
 10
137.1004566084038
 20
111.7776950621753
 30
0.0
 11
137.2504566084028
 21
111.9276950621753
 31
0.0
  0
LINE
  5
C97
330
36
100
AcDbEntity
  8
0
 62
     7
100
AcDbLine
 10
136.4004566084038
 20
111.7776950621753
 30
0.0
 11
136.2504566084028
 21
111.9276950621753
 31
0.0
  0
LINE
  5
C98
330
36
100
AcDbEntity
  8
0
 62
     7
100
AcDbLine
 10
133.4504566084028
 20
115.4276950621752
 30
0.0
 11
133.6004566084029
 21
115.5776950621753
 31
0.0
  0
LINE
  5
C99
330
36
100
AcDbEntity
  8
0
 62
     7
100
AcDbLine
 10
133.4504566084028
 20
114.7276950621752
 30
0.0
 11
133.6004566084029
 21
114.5776950621753
 31
0.0
  0
LINE
  5
C9A
330
36
100
AcDbEntity
  8
0
 62
     7
100
AcDbLine
 10
129.7504566084028
 20
115.4276950621752
 30
0.0
 11
129.6004566084029
 21
115.5776950621753
 31
0.0
  0
LINE
  5
C9B
330
36
100
AcDbEntity
  8
0
 62
     7
100
AcDbLine
 10
129.7504566084028
 20
114.7276950621752
 30
0.0
 11
129.6004566084029
 21
114.5776950621753
 31
0.0
  0
CIRCLE
  5
C9C
330
36
100
AcDbEntity
  8
0
 62
     3
100
AcDbCircle
 10
131.6004566084029
 20
109.9276950621753
 30
0.0
 40
13.25
  0
CIRCLE
  5
C9D
330
36
100
AcDbEntity
  8
0
 62
     3
100
AcDbCircle
 10
131.6004566084029
 20
109.9276950621753
 30
0.0
 40
15.25
  0
TEXT
  5
C9E
330
36
100
AcDbEntity
  8
0
 62
     4
100
AcDbText
 10
138.8537554021709
 20
108.2181994796727
 30
0.0
 40
3.2
  1
X
  7
高3.2
100
AcDbText
  0
TEXT
  5
C9F
330
36
100
AcDbEntity
  8
0
 62
     4
100
AcDbText
 10
122.2996376638666
 20
108.1696427228751
 30
0.0
 40
3.2
  1
Z
  7
高3.2
100
AcDbText
  0
TEXT
  5
CA0
330
36
100
AcDbEntity
  8
0
 62
     4
100
AcDbText
 10
130.6314641503777
 20
116.6172495970211
 30
0.0
 40
3.2
  1
Y
  7
高3.2
100
AcDbText
  0
LINE
  5
CA1
330
36
100
AcDbEntity
  8
0
 62
     3
100
AcDbLine
 10
128.8754566084028
 20
22.26174729069539
 30
0.0
 11
128.8754566084028
 21
28.68296659164778
 31
0.0
  0
LINE
  5
CA2
330
36
100
AcDbEntity
  8
0
 62
     3
100
AcDbLine
 10
134.3254566084028
 20
22.26174729069539
 30
0.0
 11
134.3254566084028
 21
28.68296659164778
 31
0.0
  0
ARC
  5
CA3
330
36
100
AcDbEntity
  8
0
100
AcDbCircle
 10
132.9629566084028
 20
23.69237229069537
 30
0.0
 40
1.975625000000008
100
AcDbArc
 50
226.3971810272972
 51
313.6028189727053
  0
ARC
  5
CA4
330
36
100
AcDbEntity
  8
0
100
AcDbCircle
 10
132.9629566084028
 20
20.83112229069539
 30
0.0
 40
1.975625000000008
100
AcDbArc
 50
46.39718102729712
 51
133.6028189727053
  0
ARC
  5
CA5
330
36
100
AcDbEntity
  8
0
100
AcDbCircle
 10
130.2379566084027
 20
23.69237229069534
 30
0.0
 40
1.975625000000008
100
AcDbArc
 50
226.3971810272973
 51
313.6028189727027
  0
LINE
  5
CA6
330
36
100
AcDbEntity
  8
0
 62
     3
100
AcDbLine
 10
87.10025300000003
 20
37.861601
 30
0.0
 11
95.062174633539
 21
37.861601
 31
0.0
  0
LINE
  5
CA7
330
36
100
AcDbEntity
  8
0
 62
     3
100
AcDbLine
 10
87.10025300000003
 20
32.411601
 30
0.0
 11
95.062174633539
 21
32.411601
 31
0.0
  0
LINE
  5
CA8
330
36
100
AcDbEntity
  8
0
 62
     3
100
AcDbLine
 10
107.787174633539
 20
25.136601
 30
0.0
 11
107.787174633539
 21
15.35719531767295
 31
0.0
  0
LINE
  5
CA9
330
36
100
AcDbEntity
  8
0
 62
     3
100
AcDbLine
 10
102.3371746335389
 20
25.136601
 30
0.0
 11
102.3371746335389
 21
15.35719531767295
 31
0.0
  0
ARC
  5
CAA
330
36
100
AcDbEntity
  8
0
 62
     3
100
AcDbCircle
 10
95.062174633539
 20
25.136601
 30
0.0
 40
7.275
100
AcDbArc
 50
0.0
 51
90.0
  0
ARC
  5
CAB
330
36
100
AcDbEntity
  8
0
 62
     3
100
AcDbCircle
 10
95.062174633539
 20
25.136601
 30
0.0
 40
12.725
100
AcDbArc
 50
0.0
 51
90.0
  0
LINE
  5
CAC
330
36
100
AcDbEntity
  8
0
 62
     3
100
AcDbLine
 10
115.062174633539
 20
2.632195317672952
 30
0.0
 11
121.6004566084028
 21
2.632195317672952
 31
0.0
  0
LINE
  5
CAD
330
36
100
AcDbEntity
  8
0
 62
     3
100
AcDbLine
 10
115.062174633539
 20
8.082195317672955
 30
0.0
 11
121.6004566084028
 21
8.082195317672955
 31
0.0
  0
ARC
  5
CAE
330
36
100
AcDbEntity
  8
0
 62
     3
100
AcDbCircle
 10
121.6004566084028
 20
15.35719531767295
 30
0.0
 40
7.275
100
AcDbArc
 50
270.0
 51
0.0
  0
ARC
  5
CAF
330
36
100
AcDbEntity
  8
0
 62
     3
100
AcDbCircle
 10
121.6004566084028
 20
15.35719531767295
 30
0.0
 40
12.725
100
AcDbArc
 50
270.0
 51
0.0
  0
ARC
  5
CB0
330
36
100
AcDbEntity
  8
0
 62
     3
100
AcDbCircle
 10
115.062174633539
 20
15.35719531767295
 30
0.0
 40
7.275
100
AcDbArc
 50
180.0
 51
270.0
  0
ARC
  5
CB1
330
36
100
AcDbEntity
  8
0
 62
     3
100
AcDbCircle
 10
115.062174633539
 20
15.35719531767295
 30
0.0
 40
12.725
100
AcDbArc
 50
180.0
 51
270.0
  0
LINE
  5
CB2
330
36
100
AcDbEntity
  8
0
 62
     3
100
AcDbLine
 10
134.3254566084028
 20
19.023266205963
 30
0.0
 11
134.3254566084028
 21
15.35719531767295
 31
0.0
  0
LINE
  5
CB3
330
36
100
AcDbEntity
  8
0
 62
     3
100
AcDbLine
 10
128.8754566084028
 20
19.023266205963
 30
0.0
 11
128.8754566084028
 21
15.35719531767295
 31
0.0
  0
ARC
  5
CB4
330
36
100
AcDbEntity
  8
0
100
AcDbCircle
 10
130.2379566084028
 20
17.59264120596298
 30
0.0
 40
1.97562500000002
100
AcDbArc
 50
46.39718102729727
 51
133.6028189727027
  0
ARC
  5
CB5
330
36
100
AcDbEntity
  8
0
100
AcDbCircle
 10
130.2379566084028
 20
20.45389120596302
 30
0.0
 40
1.97562500000002
100
AcDbArc
 50
226.3971810272973
 51
313.6028189727027
  0
ARC
  5
CB6
330
36
100
AcDbEntity
  8
0
100
AcDbCircle
 10
132.9629566084029
 20
17.59264120596298
 30
0.0
 40
1.97562500000002
100
AcDbArc
 50
46.3971810272974
 51
133.6028189727026
  0
LINE
  5
D8A
330
36
100
AcDbEntity
  8
0
100
AcDbLine
 10
-163.197861
 20
96.19056399999999
 30
0.0
 11
-161.142943
 21
95.93660099999999
 31
0.0
  0
LINE
  5
D8B
330
36
100
AcDbEntity
  8
0
100
AcDbLine
 10
-161.142943
 20
95.93660099999999
 30
0.0
 11
-162.795573
 21
97.18399900000001
 31
0.0
  0
LINE
  5
D8C
330
36
100
AcDbEntity
  8
0
100
AcDbLine
 10
-139.072749
 20
108.258116
 30
0.0
 11
-137.020361
 21
107.984461
 31
0.0
  0
LINE
  5
D8D
330
36
100
AcDbEntity
  8
0
100
AcDbLine
 10
-137.020361
 20
107.984461
 30
0.0
 11
-138.660954
 21
109.247648
 31
0.0
  0
LINE
  5
D8E
330
36
100
AcDbEntity
  8
0
100
AcDbLine
 10
-166.189008
 20
58.890166
 30
0.0
 11
-164.172241
 21
58.42129499999999
 31
0.0
  0
LINE
  5
D8F
330
36
100
AcDbEntity
  8
0
100
AcDbLine
 10
-164.172241
 20
58.42129499999999
 30
0.0
 11
-165.684376
 21
59.83573199999999
 31
0.0
  0
LINE
  5
D90
330
36
100
AcDbEntity
  8
0
100
AcDbLine
 10
-115.202911
 20
99.80434500000001
 30
0.0
 11
-116.516584
 21
98.20389200000001
 31
0.0
  0
LINE
  5
D91
330
36
100
AcDbEntity
  8
0
100
AcDbLine
 10
-116.516584
 20
98.20389200000001
 30
0.0
 11
-114.578683
 21
98.93308799999999
 31
0.0
  0
LINE
  5
D92
330
36
100
AcDbEntity
  8
0
100
AcDbLine
 10
-162.073643
 20
16.438385
 30
0.0
 11
-160.008707
 21
16.285979
 31
0.0
  0
LINE
  5
D93
330
36
100
AcDbEntity
  8
0
100
AcDbLine
 10
-160.008707
 20
16.285979
 30
0.0
 11
-161.720791
 21
17.450434
 31
0.0
  0
LINE
  5
D94
330
36
100
AcDbEntity
  8
0
100
AcDbLine
 10
-24.402255
 20
15.136601
 30
0.0
 11
-76.16207400000003
 21
15.13660100000002
 31
0.0
  0
LINE
  5
D95
330
36
100
AcDbEntity
  8
0
100
AcDbLine
 10
-4.649747
 20
131.136601
 30
0.0
 11
-76.162074
 21
131.136601
 31
0.0
  0
LINE
  5
D96
330
36
100
AcDbEntity
  8
0
100
AcDbLine
 10
-74.91207400000003
 20
17.63660100000002
 30
0.0
 11
-74.912074
 21
128.636601
 31
0.0
  0
LINE
  5
D9A
330
36
100
AcDbEntity
  8
0
100
AcDbLine
 10
-54.64974699999999
 20
20.136601
 30
0.0
 11
-67.87466800000003
 21
20.136601
 31
0.0
  0
LINE
  5
D9B
330
36
100
AcDbEntity
  8
0
100
AcDbLine
 10
-54.64974699999999
 20
120.136601
 30
0.0
 11
-67.874668
 21
120.136601
 31
0.0
  0
LINE
  5
D9C
330
36
100
AcDbEntity
  8
0
100
AcDbLine
 10
-66.62466800000003
 20
22.636601
 30
0.0
 11
-66.624668
 21
117.636601
 31
0.0
  0
LINE
  5
DA0
330
36
100
AcDbEntity
  8
0
100
AcDbLine
 10
-54.399747
 20
19.886601
 30
0.0
 11
-54.399747
 21
6.502708999999997
 31
0.0
  0
LINE
  5
DA1
330
36
100
AcDbEntity
  8
0
100
AcDbLine
 10
85.60025300000003
 20
19.886601
 30
0.0
 11
85.60025300000003
 21
6.502708999999997
 31
0.0
  0
LINE
  5
DA2
330
36
100
AcDbEntity
  8
0
100
AcDbLine
 10
-51.899747
 20
7.752708999999997
 30
0.0
 11
83.10025300000003
 21
7.752708999999997
 31
0.0
  0
LINE
  5
DA6
330
36
100
AcDbEntity
  8
0
100
AcDbLine
 10
-167.673566
 20
109.386601
 30
0.0
 11
-167.673566
 21
137.211062
 31
0.0
  0
LINE
  5
DA7
330
36
100
AcDbEntity
  8
0
100
AcDbLine
 10
-107.611005
 20
109.386601
 30
0.0
 11
-107.611005
 21
137.211062
 31
0.0
  0
LINE
  5
DA8
330
36
100
AcDbEntity
  8
0
100
AcDbLine
 10
-165.173566
 20
135.961062
 30
0.0
 11
-110.111005
 21
135.961062
 31
0.0
  0
LINE
  5
DAC
330
36
100
AcDbEntity
  8
0
100
AcDbLine
 10
-170.142255
 20
29.886601
 30
0.0
 11
-170.142255
 21
6.502708999999999
 31
0.0
  0
LINE
  5
DAD
330
36
100
AcDbEntity
  8
0
100
AcDbLine
 10
-105.142255
 20
29.886601
 30
0.0
 11
-105.142255
 21
6.502708999999999
 31
0.0
  0
LINE
  5
DAE
330
36
100
AcDbEntity
  8
0
100
AcDbLine
 10
-167.642255
 20
7.752708999999997
 30
0.0
 11
-107.642255
 21
7.752708999999997
 31
0.0
  0
LINE
  5
DB2
330
36
100
AcDbEntity
  8
0
100
AcDbLine
 10
136.312312628569
 20
25.803670643543
 30
0.0
 11
146.4218019266378
 21
33.52431426293795
 31
0.0
1001
ACAD
1000
DSTYLE
1002
{
1070
   147
1040
0.625
1070
    77
1070
     0
1002
}
  0
LINE
  5
DB3
330
36
100
AcDbEntity
  8
0
  6
ByBlock
 62
     0
370
    -2
100
AcDbLine
 10
136.7188896467463
 20
25.27129455979549
 30
0.0
 11
134.3254566084028
 21
24.28630346479906
 31
0.0
  0
LINE
  5
DB4
330
36
100
AcDbEntity
  8
0
  6
ByBlock
 62
     0
370
    -2
100
AcDbLine
 10
134.3254566084028
 20
24.28630346479906
 30
0.0
 11
135.9057356103918
 21
26.33604672729051
 31
0.0
  0
LINE
  5
DB5
330
36
100
AcDbEntity
  8
0
  6
ByBlock
 62
     0
370
    -2
100
AcDbLine
 10
134.3254566084028
 20
24.28630346479906
 30
0.0
 11
136.312312628569
 21
25.803670643543
 31
0.0
  0
LINE
  5
DB6
330
36
100
AcDbEntity
  8
0
100
AcDbLine
 10
50.6283348754528
 20
18.83389762187962
 30
0.0
 11
54.89327035034431
 21
16.23007796946184
 31
0.0
1001
ACAD
1000
DSTYLE
1002
{
1070
   147
1040
0.625
1070
    77
1070
     0
1002
}
  0
LINE
  5
DB7
330
36
100
AcDbEntity
  8
0
  6
ByBlock
 62
     0
370
    -2
100
AcDbLine
 10
50.27927680798882
 20
18.26215674368866
 30
0.0
 11
48.49456733688779
 21
20.136601
 31
0.0
  0
LINE
  5
DB8
330
36
100
AcDbEntity
  8
0
  6
ByBlock
 62
     0
370
    -2
100
AcDbLine
 10
48.49456733688779
 20
20.136601
 30
0.0
 11
50.97739294291677
 21
19.40563850007057
 31
0.0
  0
LINE
  5
DB9
330
36
100
AcDbEntity
  8
0
  6
ByBlock
 62
     0
370
    -2
100
AcDbLine
 10
48.49456733688779
 20
20.136601
 30
0.0
 11
50.6283348754528
 21
18.83389762187961
 31
0.0
  0
LINE
  5
DBA
330
36
100
AcDbEntity
  8
0
100
AcDbLine
 10
66.22140451507693
 20
122.5216210275957
 30
0.0
 11
71.00661059115188
 21
137.7498150476032
 31
0.0
1001
ACAD
1000
DSTYLE
1002
{
1070
   147
1040
0.625
1070
    77
1070
     0
1002
}
  0
LINE
  5
DBB
330
36
100
AcDbEntity
  8
0
  6
ByBlock
 62
     0
370
    -2
100
AcDbLine
 10
66.86046824645117
 20
122.3208059049125
 30
0.0
 11
65.47195173606603
 21
120.136601
 31
0.0
  0
LINE
  5
DBC
330
36
100
AcDbEntity
  8
0
  6
ByBlock
 62
     0
370
    -2
100
AcDbLine
 10
65.47195173606603
 20
120.136601
 30
0.0
 11
65.58234078370268
 21
122.7224361502789
 31
0.0
  0
LINE
  5
DBD
330
36
100
AcDbEntity
  8
0
  6
ByBlock
 62
     0
370
    -2
100
AcDbLine
 10
65.47195173606603
 20
120.136601
 30
0.0
 11
66.22140451507693
 21
122.5216210275957
 31
0.0
  0
LINE
  5
DBE
330
36
100
AcDbEntity
  8
0
100
AcDbLine
 10
52.38875190269321
 20
131.7012388055029
 30
0.0
 11
57.10935231538148
 21
138.6149717040378
 31
0.0
1001
ACAD
1000
DSTYLE
1002
{
1070
   147
1040
0.625
1070
    77
1070
     0
1002
}
  0
LINE
  5
DBF
330
36
100
AcDbEntity
  8
0
  6
ByBlock
 62
     0
370
    -2
100
AcDbLine
 10
52.9419695380399
 20
131.3235095185822
 30
0.0
 11
50.97904599999999
 21
129.636601
 31
0.0
  0
LINE
  5
DC0
330
36
100
AcDbEntity
  8
0
  6
ByBlock
 62
     0
370
    -2
100
AcDbLine
 10
50.97904599999999
 20
129.636601
 30
0.0
 11
51.83553426734651
 21
132.0789680924236
 31
0.0
  0
LINE
  5
DC1
330
36
100
AcDbEntity
  8
0
  6
ByBlock
 62
     0
370
    -2
100
AcDbLine
 10
50.97904599999999
 20
129.636601
 30
0.0
 11
52.38875190269321
 21
131.7012388055029
 31
0.0
  0
LINE
  5
DC2
330
36
100
AcDbEntity
  8
0
100
AcDbLine
 10
-118.0249721322498
 20
115.4626343262845
 30
0.0
 11
-96.99077146729376
 21
126.5332044832712
 31
0.0
1001
ACAD
1000
DSTYLE
1002
{
1070
   341
1005
7F5
1070
   147
1040
0.625
1070
    77
1070
     0
1002
}
  0
TEXT
  5
DC4
330
36
100
AcDbEntity
  8
0
 62
     4
100
AcDbText
 10
-75.53707400000003
 20
69.38660100000001
 30
0.0
 40
3.0
  1
240
 50
90.0
100
AcDbText
  0
LINE
  5
DC5
330
36
100
AcDbEntity
  8
0
  6
ByBlock
 62
     0
370
    -2
100
AcDbLine
 10
-75.5819465
 20
128.636601
 30
0.0
 11
-74.912074
 21
131.136601
 31
0.0
  0
LINE
  5
DC6
330
36
100
AcDbEntity
  8
0
  6
ByBlock
 62
     0
370
    -2
100
AcDbLine
 10
-74.912074
 20
131.136601
 30
0.0
 11
-74.2422015
 21
128.636601
 31
0.0
  0
LINE
  5
DC7
330
36
100
AcDbEntity
  8
0
  6
ByBlock
 62
     0
370
    -2
100
AcDbLine
 10
-74.912074
 20
131.136601
 30
0.0
 11
-74.912074
 21
128.636601
 31
0.0
  0
LINE
  5
DC8
330
36
100
AcDbEntity
  8
0
  6
ByBlock
 62
     0
370
    -2
100
AcDbLine
 10
-74.24220150000003
 20
17.63660100000001
 30
0.0
 11
-74.91207400000003
 21
15.13660100000001
 31
0.0
  0
LINE
  5
DC9
330
36
100
AcDbEntity
  8
0
  6
ByBlock
 62
     0
370
    -2
100
AcDbLine
 10
-74.91207400000003
 20
15.13660100000001
 30
0.0
 11
-75.58194650000003
 21
17.63660100000001
 31
0.0
  0
LINE
  5
DCA
330
36
100
AcDbEntity
  8
0
  6
ByBlock
 62
     0
370
    -2
100
AcDbLine
 10
-74.91207400000003
 20
15.13660100000001
 30
0.0
 11
-74.91207400000003
 21
17.63660100000001
 31
0.0
  0
TEXT
  5
DCB
330
36
100
AcDbEntity
  8
0
 62
     4
100
AcDbText
 10
-67.24966800000003
 20
66.63660099999998
 30
0.0
 40
3.0
  1
200
 50
90.0
100
AcDbText
  0
LINE
  5
DCC
330
36
100
AcDbEntity
  8
0
  6
ByBlock
 62
     0
370
    -2
100
AcDbLine
 10
-67.2945405
 20
117.636601
 30
0.0
 11
-66.624668
 21
120.136601
 31
0.0
  0
LINE
  5
DCD
330
36
100
AcDbEntity
  8
0
  6
ByBlock
 62
     0
370
    -2
100
AcDbLine
 10
-66.624668
 20
120.136601
 30
0.0
 11
-65.9547955
 21
117.636601
 31
0.0
  0
LINE
  5
DCE
330
36
100
AcDbEntity
  8
0
  6
ByBlock
 62
     0
370
    -2
100
AcDbLine
 10
-66.624668
 20
120.136601
 30
0.0
 11
-66.624668
 21
117.636601
 31
0.0
  0
LINE
  5
DCF
330
36
100
AcDbEntity
  8
0
  6
ByBlock
 62
     0
370
    -2
100
AcDbLine
 10
-65.95479550000003
 20
22.636601
 30
0.0
 11
-66.62466800000003
 21
20.136601
 31
0.0
  0
LINE
  5
DD0
330
36
100
AcDbEntity
  8
0
  6
ByBlock
 62
     0
370
    -2
100
AcDbLine
 10
-66.62466800000003
 20
20.136601
 30
0.0
 11
-67.29454050000002
 21
22.636601
 31
0.0
  0
LINE
  5
DD1
330
36
100
AcDbEntity
  8
0
  6
ByBlock
 62
     0
370
    -2
100
AcDbLine
 10
-66.62466800000003
 20
20.136601
 30
0.0
 11
-66.62466800000003
 21
22.636601
 31
0.0
  0
TEXT
  5
DD2
330
36
100
AcDbEntity
  8
0
 62
     4
100
AcDbText
 10
11.85025300000001
 20
8.377708999999997
 30
0.0
 40
3.0
  1
280
100
AcDbText
  0
LINE
  5
DD3
330
36
100
AcDbEntity
  8
0
  6
ByBlock
 62
     0
370
    -2
100
AcDbLine
 10
83.10025300000003
 20
8.422581499999997
 30
0.0
 11
85.60025300000003
 21
7.752708999999997
 31
0.0
  0
LINE
  5
DD4
330
36
100
AcDbEntity
  8
0
  6
ByBlock
 62
     0
370
    -2
100
AcDbLine
 10
85.60025300000003
 20
7.752708999999997
 30
0.0
 11
83.10025300000003
 21
7.082836499999997
 31
0.0
  0
LINE
  5
DD5
330
36
100
AcDbEntity
  8
0
  6
ByBlock
 62
     0
370
    -2
100
AcDbLine
 10
85.60025300000003
 20
7.752708999999997
 30
0.0
 11
83.10025300000003
 21
7.752708999999997
 31
0.0
  0
LINE
  5
DD6
330
36
100
AcDbEntity
  8
0
  6
ByBlock
 62
     0
370
    -2
100
AcDbLine
 10
-51.899747
 20
7.082836499999997
 30
0.0
 11
-54.399747
 21
7.752708999999997
 31
0.0
  0
LINE
  5
DD7
330
36
100
AcDbEntity
  8
0
  6
ByBlock
 62
     0
370
    -2
100
AcDbLine
 10
-54.399747
 20
7.752708999999997
 30
0.0
 11
-51.899747
 21
8.422581499999997
 31
0.0
  0
LINE
  5
DD8
330
36
100
AcDbEntity
  8
0
  6
ByBlock
 62
     0
370
    -2
100
AcDbLine
 10
-54.399747
 20
7.752708999999997
 30
0.0
 11
-51.899747
 21
7.752708999999997
 31
0.0
  0
TEXT
  5
DD9
330
36
100
AcDbEntity
  8
0
 62
     4
100
AcDbText
 10
-143.1422855
 20
136.586062
 30
0.0
 40
3.0
  1
60.06
100
AcDbText
  0
LINE
  5
DDA
330
36
100
AcDbEntity
  8
0
  6
ByBlock
 62
     0
370
    -2
100
AcDbLine
 10
-110.111005
 20
136.6309345
 30
0.0
 11
-107.611005
 21
135.961062
 31
0.0
  0
LINE
  5
DDB
330
36
100
AcDbEntity
  8
0
  6
ByBlock
 62
     0
370
    -2
100
AcDbLine
 10
-107.611005
 20
135.961062
 30
0.0
 11
-110.111005
 21
135.2911895
 31
0.0
  0
LINE
  5
DDC
330
36
100
AcDbEntity
  8
0
  6
ByBlock
 62
     0
370
    -2
100
AcDbLine
 10
-107.611005
 20
135.961062
 30
0.0
 11
-110.111005
 21
135.961062
 31
0.0
  0
LINE
  5
DDD
330
36
100
AcDbEntity
  8
0
  6
ByBlock
 62
     0
370
    -2
100
AcDbLine
 10
-165.173566
 20
135.2911895
 30
0.0
 11
-167.673566
 21
135.961062
 31
0.0
  0
LINE
  5
DDE
330
36
100
AcDbEntity
  8
0
  6
ByBlock
 62
     0
370
    -2
100
AcDbLine
 10
-167.673566
 20
135.961062
 30
0.0
 11
-165.173566
 21
136.6309345
 31
0.0
  0
LINE
  5
DDF
330
36
100
AcDbEntity
  8
0
  6
ByBlock
 62
     0
370
    -2
100
AcDbLine
 10
-167.673566
 20
135.961062
 30
0.0
 11
-165.173566
 21
135.961062
 31
0.0
  0
TEXT
  5
DE0
330
36
100
AcDbEntity
  8
0
 62
     4
100
AcDbText
 10
-140.892255
 20
8.377708999999997
 30
0.0
 40
3.0
  1
130
100
AcDbText
  0
LINE
  5
DE1
330
36
100
AcDbEntity
  8
0
  6
ByBlock
 62
     0
370
    -2
100
AcDbLine
 10
-107.642255
 20
8.422581499999997
 30
0.0
 11
-105.142255
 21
7.752708999999997
 31
0.0
  0
LINE
  5
DE2
330
36
100
AcDbEntity
  8
0
  6
ByBlock
 62
     0
370
    -2
100
AcDbLine
 10
-105.142255
 20
7.752708999999997
 30
0.0
 11
-107.642255
 21
7.082836499999997
 31
0.0
  0
LINE
  5
DE3
330
36
100
AcDbEntity
  8
0
  6
ByBlock
 62
     0
370
    -2
100
AcDbLine
 10
-105.142255
 20
7.752708999999997
 30
0.0
 11
-107.642255
 21
7.752708999999997
 31
0.0
  0
LINE
  5
DE4
330
36
100
AcDbEntity
  8
0
  6
ByBlock
 62
     0
370
    -2
100
AcDbLine
 10
-167.642255
 20
7.082836499999997
 30
0.0
 11
-170.142255
 21
7.752708999999997
 31
0.0
  0
LINE
  5
DE5
330
36
100
AcDbEntity
  8
0
  6
ByBlock
 62
     0
370
    -2
100
AcDbLine
 10
-170.142255
 20
7.752708999999997
 30
0.0
 11
-167.642255
 21
8.422581499999997
 31
0.0
  0
LINE
  5
DE6
330
36
100
AcDbEntity
  8
0
  6
ByBlock
 62
     0
370
    -2
100
AcDbLine
 10
-170.142255
 20
7.752708999999997
 30
0.0
 11
-167.642255
 21
7.752708999999997
 31
0.0
  0
ARC
  5
DE7
330
36
100
AcDbEntity
  8
0
  6
ByBlock
 62
     0
100
AcDbCircle
 10
-118.0249721322498
 20
115.4626343262845
 30
0.0
 40
0.1562499999999954
100
AcDbArc
 50
27.75840883770424
 51
207.7584088377042
  0
ARC
  5
DE8
330
36
100
AcDbEntity
  8
0
  6
ByBlock
 62
     0
100
AcDbCircle
 10
-118.0249721322498
 20
115.4626343262845
 30
0.0
 40
0.1562499999999954
100
AcDbArc
 50
207.7584088377042
 51
27.75840883770424
  0
ENDSEC
  0
SECTION
  2
OBJECTS
  0
DICTIONARY
  5
C
330
0
100
AcDbDictionary
281
     1
  3
ACAD_2007HEADERVARS_RT
350
DEC
  3
ACAD_COLOR
350
2F
  3
ACAD_GROUP
350
D
  3
ACAD_LAYOUT
350
2E
  3
ACAD_MATERIAL
350
10
  3
ACAD_MLEADERSTYLE
350
54F
  3
ACAD_MLINESTYLE
350
2B
  3
ACAD_PLOTSETTINGS
350
2D
  3
ACAD_PLOTSTYLENAME
350
E
  3
ACAD_SCALELIST
350
53D
  3
ACAD_TABLESTYLE
350
30
  3
ACAD_VISUALSTYLE
350
14
  3
ACDB_RECOMPOSE_DATA
350
DEA
  3
AcDbVariableDictionary
350
4F3
  3
AEC_PROPERTY_SET_DEFS
350
AAA
  3
DWGPROPS
350
DEB
  0
DICTIONARY
  5
5F6
330
2
100
AcDbDictionary
280
     1
281
     1
  3
ACAD_LAYERSTATES
360
5F7
  0
DICTIONARY
  5
840
330
25
100
AcDbDictionary
280
     1
281
     1
  3
ADSK_XREC_LAYER_RECONCILED
360
841
  0
DICTIONARY
  5
908
330
36
100
AcDbDictionary
280
     1
281
     1
  3
ACAD_SORTENTS
360
909
  0
DICTIONARY
  5
DEC
102
{ACAD_REACTORS
330
C
102
}
330
C
100
AcDbDictionary
281
     1
  3
DIMARCSYM
350
DEE
  3
DIMFXL
350
DED
  3
DIMJOGANG
350
DEF
  0
DICTIONARY
  5
2F
102
{ACAD_REACTORS
330
C
102
}
330
C
100
AcDbDictionary
281
     1
  0
DICTIONARY
  5
D
102
{ACAD_REACTORS
330
C
102
}
330
C
100
AcDbDictionary
281
     1
  0
DICTIONARY
  5
2E
102
{ACAD_REACTORS
330
C
102
}
330
C
100
AcDbDictionary
281
     1
  3
Model
350
39
  3
レイアウト1
350
35
  0
DICTIONARY
  5
10
102
{ACAD_REACTORS
330
C
102
}
330
C
100
AcDbDictionary
281
     1
  3
ByBlock
350
12
  3
ByLayer
350
11
  3
Global
350
13
  0
DICTIONARY
  5
54F
102
{ACAD_REACTORS
330
C
102
}
330
C
100
AcDbDictionary
281
     1
  3
Standard
350
550
  0
DICTIONARY
  5
2B
102
{ACAD_REACTORS
330
C
102
}
330
C
100
AcDbDictionary
281
     1
  3
Standard
350
2C
  0
DICTIONARY
  5
2D
102
{ACAD_REACTORS
330
C
102
}
330
C
100
AcDbDictionary
281
     1
  0
ACDBDICTIONARYWDFLT
  5
E
102
{ACAD_REACTORS
330
C
102
}
330
C
100
AcDbDictionary
281
     1
  3
Normal
350
F
100
AcDbDictionaryWithDefault
340
F
  0
DICTIONARY
  5
53D
102
{ACAD_REACTORS
330
C
102
}
330
C
100
AcDbDictionary
281
     1
  3
A0
350
53E
  3
A1
350
53F
  3
A2
350
540
  3
A3
350
541
  3
A4
350
542
  3
A5
350
543
  3
A6
350
544
  3
A7
350
545
  3
A8
350
546
  3
A9
350
547
  3
B0
350
548
  3
B1
350
549
  3
B2
350
54A
  3
B3
350
54B
  3
B4
350
54C
  3
B5
350
54D
  3
B6
350
54E
  0
DICTIONARY
  5
30
102
{ACAD_REACTORS
330
C
102
}
330
C
100
AcDbDictionary
281
     1
  3
Standard
350
31
  0
DICTIONARY
  5
14
102
{ACAD_REACTORS
330
C
102
}
330
C
100
AcDbDictionary
281
     1
  3
2dWireframe
350
1A
  3
3D Hidden
350
1C
  3
3dWireframe
350
1B
  3
Basic
350
19
  3
Brighten
350
20
  3
ColorChange
350
24
  3
Conceptual
350
1D
  3
Dim
350
1F
  3
EdgeColorOff
350
53C
  3
Facepattern
350
23
  3
Flat
350
15
  3
FlatWithEdges
350
16
  3
Gouraud
350
17
  3
GouraudWithEdges
350
18
  3
Hidden
350
534
  3
JitterOff
350
53A
  3
Linepattern
350
22
  3
OverhangOff
350
53B
  3
Realistic
350
1E
  3
Shaded
350
539
  3
Shaded with edges
350
538
  3
Shades of Gray
350
535
  3
Sketchy
350
536
  3
Thicken
350
21
  3
Wireframe
350
533
  3
X-Ray
350
537
  0
XRECORD
  5
DEA
102
{ACAD_REACTORS
330
C
102
}
330
C
100
AcDbXrecord
280
     1
 90
        1
330
31
  0
DICTIONARY
  5
4F3
102
{ACAD_REACTORS
330
C
102
}
330
C
100
AcDbDictionary
281
     1
  3
CANNOSCALE
350
843
  3
CMLEADERSTYLE
350
842
  3
CTABLESTYLE
350
4F4
  3
DIMASSOC
350
4FC
  3
INDEXCTL
350
4FB
  3
SORTENTS
350
4FA
  3
XCLIPFRAME
350
CBB
  0
DICTIONARY
  5
AAA
102
{ACAD_REACTORS
330
C
102
}
330
C
100
AcDbDictionary
281
     1
  0
XRECORD
  5
DEB
102
{ACAD_REACTORS
330
C
102
}
330
C
100
AcDbXrecord
280
     1
  1
DWGPROPS COOKIE
  2

  3

  4

  6

  7

  8
imamura
  9

300
=
301
=
302
=
303
=
304
=
305
=
306
=
307
=
308
=
309
=
 40
0.1517739814814815
 41
2455497.465426794
 42
2460251.68571419
  1

 90
        0
  0
DICTIONARY
  5
5F7
102
{ACAD_REACTORS
330
5F6
102
}
330
5F6
100
AcDbDictionary
281
     1
  0
XRECORD
  5
841
102
{ACAD_REACTORS
330
840
102
}
330
840
100
AcDbXrecord
280
     1
290
     1
  0
SORTENTSTABLE
  5
909
102
{ACAD_REACTORS
330
908
102
}
330
908
100
AcDbSortentsTable
330
36
331
C7F
  5
DB1
331
C7B
  5
DAD
331
C44
  5
CAD
331
CB6
  5
DE8
331
C77
  5
DA9
331
C40
  5
CA9
331
4B6
  5
805
331
CB2
  5
DE4
331
C73
  5
DA5
331
C3C
  5
CA5
331
4B2
  5
800
331
43C
  5
4C9
331
306
  5
38B
331
DE6
  5
AA
331
2AF
  5
35E
331
C38
  5
CA1
331
4AE
  5
7FC
331
477
  5
637
331
438
  5
4C5
331
302
  5
387
331
DE2
  5
AF
331
2AB
  5
35A
331
274
  5
2E1
331
235
  5
280
331
4AA
  5
7F9
331
473
  5
630
331
434
  5
4C1
331
2FE
  5
383
331
DDE
  5
BC
331
2A7
  5
356
331
270
  5
2D9
331
405
  5
451
331
231
  5
27C
331
3C6
  5
411
331
38F
  5
3DA
331
430
  5
4BC
331
2A3
  5
352
331
DDA
  5
C1
331
26C
  5
2D5
331
401
  5
44D
331
22D
  5
278
331
3C2
  5
40D
331
38B
  5
3D6
331
268
  5
2D1
331
3FD
  5
449
331
229
  5
274
331
3BE
  5
409
331
387
  5
3D2
331
3F9
  5
445
331
3BA
  5
405
331
383
  5
3CE
331
DAC
  5
A0
331
806
  5
C50
331
DA8
  5
BA
331
802
  5
C4C
331
7F2
  5
C3D
331
DA0
  5
C5
331
CE
  5
16F
331
CA
  5
16B
331
C6
  5
167
331
1FE
  5
249
331
C2
  5
163
331
1BF
  5
20A
331
1FA
  5
245
331
1BB
  5
206
331
184
  5
1CF
331
1F6
  5
241
331
1B7
  5
202
331
180
  5
1CB
331
141
  5
195
331
1F2
  5
23D
331
1B3
  5
1FE
331
17C
  5
1C7
331
178
  5
1C3
331
CAE
  5
DE0
331
C6F
  5
DA1
331
CAA
  5
DDC
331
C6B
  5
D9D
331
C34
  5
C9D
331
CA6
  5
DD8
331
C67
  5
D99
331
C30
  5
C99
331
4A6
  5
7F1
331
46F
  5
62C
331
CA2
  5
DD4
331
C63
  5
D95
331
C2C
  5
C95
331
4A2
  5
7EC
331
46B
  5
51A
331
42C
  5
4B8
331
2F6
  5
380
331
DD6
  5
C8
331
29F
  5
31E
331
C28
  5
C91
331
49E
  5
7E8
331
467
  5
516
331
428
  5
4B4
331
29B
  5
314
331
DD2
  5
CE
331
264
  5
2AF
331
225
  5
270
331
4D9
  5
C0C
331
49A
  5
63D
331
424
  5
4B0
331
2EE
  5
37E
331
DCE
  5
FE
331
297
  5
310
331
260
  5
2AB
331
3F5
  5
441
331
221
  5
26C
331
3B6
  5
401
331
37F
  5
3CA
331
420
  5
4AB
331
2EA
  5
37B
331
DCA
  5
10F
331
293
  5
30C
331
25C
  5
2A7
331
3F1
  5
43D
331
21D
  5
268
331
3B2
  5
3FD
331
37B
  5
3C6
331
258
  5
2A3
331
3ED
  5
439
331
219
  5
264
331
3AE
  5
3F9
331
7EE
  5
C3A
331
377
  5
3C2
331
3E9
  5
435
331
3AA
  5
3F5
331
7EA
  5
C34
331
373
  5
3BE
331
D9C
  5
D1
331
4E6
  5
C0F
331
320
  5
39F
331
D94
  5
100
331
D90
  5
17D
331
BE
  5
15F
331
BA
  5
15B
331
B6
  5
157
331
1EE
  5
239
331
B2
  5
153
331
1AF
  5
1FA
331
1EA
  5
235
331
1AB
  5
1F6
331
174
  5
1BF
331
1E6
  5
231
331
1A7
  5
1F2
331
170
  5
1BB
331
1E2
  5
22D
331
1A3
  5
1EE
331
16C
  5
1B7
331
168
  5
1B3
331
C9E
  5
DD0
331
C5F
  5
D91
331
C9A
  5
DCC
331
C5B
  5
D8D
331
C24
  5
C8D
331
C96
  5
DC8
331
C57
  5
D89
331
C20
  5
C89
331
4D5
  5
C08
331
496
  5
639
331
C92
  5
DC4
331
C53
  5
D85
331
C1C
  5
C85
331
41C
  5
4A7
331
2E6
  5
377
331
DC6
  5
117
331
28F
  5
308
331
C18
  5
C81
331
4CD
  5
994
331
DC2
  5
C42
331
418
  5
47C
331
2E2
  5
373
331
28B
  5
304
331
254
  5
29F
331
215
  5
260
331
4C9
  5
990
331
DBE
  5
C56
331
414
  5
478
331
287
  5
300
331
250
  5
29B
331
3E5
  5
431
331
211
  5
25C
331
3A6
  5
3F1
331
36F
  5
3BA
331
DBA
  5
C5A
331
410
  5
474
331
2DA
  5
36F
331
283
  5
2FC
331
24C
  5
297
331
3E1
  5
42D
331
20D
  5
258
331
3A2
  5
3ED
331
248
  5
293
331
3DD
  5
429
331
209
  5
254
331
39E
  5
3E9
331
63E
  5
C2F
331
367
  5
3B6
331
3D9
  5
425
331
39A
  5
3E5
331
363
  5
3B2
331
63A
  5
C29
331
314
  5
399
331
D8C
  5
18B
331
995
  5
C67
331
310
  5
395
331
636
  5
C21
331
991
  5
C63
331
632
  5
C1D
331
AE
  5
14F
331
AA
  5
14B
331
E5
  5
176
331
7FF
  5
C49
331
A6
  5
13E
331
7FB
  5
C45
331
A2
  5
137
331
1DE
  5
229
331
19F
  5
1EA
331
1DA
  5
225
331
19B
  5
1E6
331
164
  5
1AF
331
1D6
  5
221
331
197
  5
1E2
331
160
  5
1AB
331
1D2
  5
21D
331
193
  5
1DE
331
15C
  5
1A7
331
158
  5
1A3
331
C8E
  5
DC0
331
C8A
  5
DBC
331
C14
  5
C7D
331
C86
  5
DB8
331
C4F
  5
D81
331
C10
  5
C79
331
4C5
  5
913
331
C82
  5
DB4
331
C4B
  5
CB4
331
C0C
  5
C75
331
4C1
  5
90F
331
44B
  5
4D9
331
2D6
  5
367
331
C08
  5
C71
331
62C
  5
C17
331
4BD
  5
90C
331
447
  5
4D5
331
2D2
  5
363
331
244
  5
28F
331
4B9
  5
808
331
443
  5
4D0
331
30D
  5
392
331
2CE
  5
360
331
27F
  5
2EC
331
3D5
  5
421
331
240
  5
28B
331
35F
  5
3AE
331
309
  5
38E
331
27B
  5
2E8
331
3D1
  5
41D
331
23C
  5
287
331
35B
  5
3AA
331
40C
  5
458
331
238
  5
283
331
3CD
  5
418
331
396
  5
3E1
331
357
  5
3A6
331
408
  5
454
331
3C9
  5
414
331
392
  5
3DD
331
989
  5
C5B
331
353
  5
3A2
331
DB7
  5
C5D
331
DB3
  5
C6B
331
911
  5
4A3
331
90D
  5
482
331
110
  5
186
331
1CE
  5
219
331
D1
  5
172
331
1CA
  5
215
331
154
  5
19F
331
205
  5
250
331
1C6
  5
211
331
18F
  5
1DA
331
150
  5
19B
331
201
  5
24C
331
1C2
  5
20D
331
18B
  5
1D6
331
14C
  5
197
331
C7E
  5
DB0
331
C47
  5
CB0
331
C7A
  5
DAC
331
C43
  5
CAC
331
C04
  5
C6A
331
CB5
  5
DE7
331
C76
  5
DA8
331
C3F
  5
CA8
331
4B5
  5
804
331
43F
  5
4CC
331
CB1
  5
DE3
331
C72
  5
DA4
331
C3B
  5
CA4
331
518
  5
C15
331
4B1
  5
7FF
331
43B
  5
4C8
331
305
  5
38A
331
DE5
  5
A9
331
2AE
  5
35D
331
277
  5
2E4
331
476
  5
636
331
437
  5
4C4
331
301
  5
386
331
DE1
  5
AE
331
2AA
  5
359
331
273
  5
2E0
331
234
  5
27F
331
4A9
  5
7F4
331
472
  5
62F
331
433
  5
4C0
331
2FD
  5
382
331
DDD
  5
BB
331
2A6
  5
355
331
26F
  5
2D8
331
404
  5
450
331
230
  5
27B
331
3C5
  5
410
331
38E
  5
3D9
331
2A2
  5
351
331
DD9
  5
C4
331
26B
  5
2D4
331
400
  5
44C
331
22C
  5
277
331
3C1
  5
40C
331
38A
  5
3D5
331
3FC
  5
448
331
228
  5
273
331
3BD
  5
408
331
386
  5
3D1
331
3F8
  5
444
331
3B9
  5
404
331
382
  5
3CD
331
805
  5
C4F
331
DA7
  5
B6
331
801
  5
C4B
331
7F1
  5
C3C
331
CD
  5
16E
331
108
  5
181
331
C9
  5
16A
331
C5
  5
166
331
100
  5
17C
331
1FD
  5
248
331
C1
  5
162
331
1BE
  5
209
331
187
  5
1D2
331
1F9
  5
244
331
1BA
  5
205
331
183
  5
1CE
331
1F5
  5
240
331
1B6
  5
201
331
17F
  5
1CA
331
140
  5
194
331
1F1
  5
23C
331
1B2
  5
1FD
331
17B
  5
1C6
331
138
  5
18F
331
CAD
  5
DDF
331
C6E
  5
DA0
331
C37
  5
CA0
331
CA9
  5
DDB
331
C6A
  5
D9C
331
C33
  5
C9C
331
CA5
  5
DD7
331
C66
  5
D98
331
C2F
  5
C98
331
4A5
  5
7F0
331
46E
  5
62B
331
42F
  5
4BB
331
CA1
  5
DD3
331
C62
  5
D94
331
C2B
  5
C94
331
4A1
  5
7EB
331
46A
  5
519
331
42B
  5
4B7
331
29E
  5
31D
331
DD5
  5
CD
331
267
  5
2D0
331
49D
  5
7E7
331
466
  5
4F2
331
427
  5
4B3
331
29A
  5
313
331
DD1
  5
E4
331
263
  5
2AE
331
224
  5
26F
331
4D8
  5
C0B
331
499
  5
63C
331
423
  5
4AF
331
296
  5
30F
331
DCD
  5
E6
331
25F
  5
2AA
331
3F4
  5
440
331
220
  5
26B
331
3B5
  5
400
331
37E
  5
3C9
331
2E9
  5
37A
331
DC9
  5
10E
331
292
  5
30B
331
25B
  5
2A6
331
3F0
  5
43C
331
21C
  5
267
331
3B1
  5
3FC
331
37A
  5
3C5
331
3EC
  5
438
331
218
  5
263
331
3AD
  5
3F8
331
7ED
  5
C39
331
376
  5
3C1
331
3E8
  5
434
331
3A9
  5
3F4
331
7E9
  5
C33
331
372
  5
3BD
331
D9B
  5
D0
331
D93
  5
179
331
BD
  5
15E
331
B9
  5
15A
331
B5
  5
156
331
1ED
  5
238
331
B1
  5
152
331
1AE
  5
1F9
331
177
  5
1C2
331
1E9
  5
234
331
1AA
  5
1F5
331
173
  5
1BE
331
1E5
  5
230
331
1A6
  5
1F1
331
16F
  5
1BA
331
1E1
  5
22C
331
1A2
  5
1ED
331
16B
  5
1B6
331
C9D
  5
DCF
331
C5E
  5
D90
331
C27
  5
C90
331
C99
  5
DCB
331
C5A
  5
D8C
331
C23
  5
C8C
331
C95
  5
DC7
331
C56
  5
D88
331
C1F
  5
C88
331
4D4
  5
C07
331
41F
  5
4AA
331
C91
  5
DC3
331
C52
  5
D84
331
C1B
  5
C84
331
4D0
  5
C03
331
41B
  5
4A6
331
2E5
  5
376
331
DC5
  5
110
331
28E
  5
307
331
257
  5
2A2
331
4CC
  5
993
331
DC1
  5
C55
331
417
  5
47B
331
2E1
  5
372
331
28A
  5
303
331
253
  5
29E
331
214
  5
25F
331
4C8
  5
98F
331
DBD
  5
C59
331
413
  5
477
331
286
  5
2FF
331
24F
  5
29A
331
3E4
  5
430
331
210
  5
25B
331
3A5
  5
3F0
331
31F
  5
39E
331
DB9
  5
C5F
331
2D9
  5
36A
331
282
  5
2F6
331
24B
  5
296
331
3E0
  5
42C
331
20C
  5
257
331
3A1
  5
3EC
331
36A
  5
3B9
331
3DC
  5
428
331
208
  5
253
331
39D
  5
3E8
331
63D
  5
C2E
331
366
  5
3B5
331
D8F
  5
183
331
3D8
  5
424
331
399
  5
3E4
331
362
  5
3B1
331
639
  5
C28
331
313
  5
398
331
D8B
  5
191
331
994
  5
C66
331
635
  5
C20
331
990
  5
C62
331
631
  5
C1C
331
AD
  5
14E
331
A9
  5
141
331
E4
  5
175
331
7FE
  5
C48
331
A5
  5
138
331
7FA
  5
C44
331
A1
  5
136
331
1DD
  5
228
331
19E
  5
1E9
331
167
  5
1B2
331
1D9
  5
224
331
19A
  5
1E5
331
163
  5
1AE
331
1D5
  5
220
331
196
  5
1E1
331
15F
  5
1AA
331
120
  5
18A
331
1D1
  5
21C
331
192
  5
1DD
331
15B
  5
1A6
331
118
  5
188
331
C8D
  5
DBF
331
C17
  5
C80
331
C89
  5
DBB
331
C13
  5
C7C
331
C85
  5
DB7
331
C4E
  5
D80
331
C0F
  5
C78
331
4C4
  5
912
331
C81
  5
DB3
331
C4A
  5
CB3
331
C0B
  5
C74
331
62F
  5
C1A
331
4C0
  5
90E
331
44A
  5
4D8
331
2D5
  5
366
331
247
  5
292
331
62B
  5
C16
331
4BC
  5
90B
331
446
  5
4D4
331
2D1
  5
362
331
243
  5
28E
331
4B8
  5
807
331
442
  5
4CF
331
30C
  5
391
331
27E
  5
2EB
331
3D4
  5
420
331
23F
  5
28A
331
35E
  5
3AD
331
DE8
  5
C41
331
308
  5
38D
331
27A
  5
2E7
331
40F
  5
473
331
23B
  5
286
331
3D0
  5
41C
331
35A
  5
3A9
331
40B
  5
457
331
3CC
  5
417
331
395
  5
3E0
331
356
  5
3A5
331
3C8
  5
413
331
391
  5
3DC
331
352
  5
3A1
331
DB6
  5
C60
331
DB2
  5
C6E
331
910
  5
4A2
331
90C
  5
481
331
117
  5
187
331
1CD
  5
218
331
D0
  5
171
331
157
  5
1A2
331
1C9
  5
214
331
153
  5
19E
331
204
  5
24F
331
1C5
  5
210
331
18E
  5
1D9
331
14F
  5
19A
331
200
  5
24B
331
1C1
  5
20C
331
18A
  5
1D5
331
14B
  5
196
331
C7D
  5
DAF
331
C46
  5
CAF
331
C07
  5
C70
331
C79
  5
DAB
331
C42
  5
CAB
331
C03
  5
C69
331
CB4
  5
DE6
331
C75
  5
DA7
331
C3E
  5
CA7
331
4B4
  5
802
331
43E
  5
4CB
331
CB0
  5
DE2
331
C71
  5
DA3
331
C3A
  5
CA3
331
517
  5
C14
331
4B0
  5
7FE
331
43A
  5
4C7
331
304
  5
389
331
DE4
  5
A8
331
2AD
  5
35C
331
276
  5
2E3
331
237
  5
282
331
4AC
  5
7FB
331
475
  5
632
331
436
  5
4C3
331
300
  5
385
331
DE0
  5
B4
331
2A9
  5
358
331
272
  5
2DB
331
407
  5
453
331
233
  5
27E
331
4A8
  5
7F3
331
471
  5
62E
331
432
  5
4BE
331
2FC
  5
381
331
DDC
  5
C3
331
2A5
  5
354
331
26E
  5
2D7
331
403
  5
44F
331
22F
  5
27A
331
3C4
  5
40F
331
38D
  5
3D8
331
2A1
  5
320
331
DD8
  5
CA
331
26A
  5
2D3
331
3FF
  5
44B
331
22B
  5
276
331
3C0
  5
40B
331
389
  5
3D4
331
3FB
  5
447
331
3BC
  5
407
331
385
  5
3D0
331
DAE
  5
A2
331
3B8
  5
403
331
808
  5
C52
331
381
  5
3CC
331
804
  5
C4E
331
DA6
  5
B5
331
800
  5
C4A
331
DA2
  5
C7
331
7F0
  5
C3B
331
10F
  5
185
331
CC
  5
16D
331
107
  5
180
331
C8
  5
169
331
C4
  5
165
331
1FC
  5
247
331
C0
  5
161
331
1BD
  5
208
331
186
  5
1D1
331
1F8
  5
243
331
1B9
  5
204
331
182
  5
1CD
331
1F4
  5
23F
331
1B5
  5
200
331
17E
  5
1C9
331
13F
  5
193
331
1F0
  5
23B
331
1B1
  5
1FC
331
17A
  5
1C5
331
CAC
  5
DDE
331
C6D
  5
D9F
331
C36
  5
C9F
331
CA8
  5
DDA
331
C69
  5
D9B
331
C32
  5
C9B
331
CA4
  5
DD6
331
C65
  5
D97
331
C2E
  5
C97
331
4A4
  5
7EE
331
46D
  5
51B
331
42E
  5
4BA
331
CA0
  5
DD2
331
C61
  5
D93
331
C2A
  5
C93
331
4A0
  5
7EA
331
469
  5
518
331
42A
  5
4B6
331
29D
  5
316
331
DD4
  5
CC
331
266
  5
2CE
331
227
  5
272
331
4DB
  5
C0E
331
49C
  5
63F
331
465
  5
4DC
331
426
  5
4B2
331
2F0
  5
37F
331
DD0
  5
D3
331
299
  5
312
331
262
  5
2AD
331
3F7
  5
443
331
223
  5
26E
331
498
  5
63B
331
422
  5
4AE
331
2EC
  5
37D
331
DCC
  5
E5
331
295
  5
30E
331
25E
  5
2A9
331
3F3
  5
43F
331
21F
  5
26A
331
3B4
  5
3FF
331
37D
  5
3C8
331
2E8
  5
379
331
DC8
  5
108
331
291
  5
30A
331
25A
  5
2A5
331
3EF
  5
43B
331
21B
  5
266
331
3B0
  5
3FB
331
379
  5
3C4
331
3EB
  5
437
331
3AC
  5
3F7
331
7EC
  5
C38
331
375
  5
3C0
331
3A8
  5
3F3
331
7E8
  5
C32
331
371
  5
3BC
331
D9A
  5
CF
331
D96
  5
107
331
D92
  5
178
331
FF
  5
17B
331
BC
  5
15D
331
B8
  5
159
331
B4
  5
155
331
1EC
  5
237
331
B0
  5
151
331
1AD
  5
1F8
331
176
  5
1C1
331
137
  5
18E
331
1E8
  5
233
331
1A9
  5
1F4
331
172
  5
1BD
331
1E4
  5
22F
331
1A5
  5
1F0
331
16E
  5
1B9
331
1E0
  5
22B
331
1A1
  5
1EC
331
16A
  5
1B5
331
C9C
  5
DCE
331
C5D
  5
D8F
331
C26
  5
C8F
331
C98
  5
DCA
331
C59
  5
D8B
331
C22
  5
C8B
331
4D7
  5
C0A
331
C94
  5
DC6
331
C55
  5
D87
331
C1E
  5
C87
331
4D3
  5
C06
331
41E
  5
4A9
331
C90
  5
DC2
331
C51
  5
D83
331
C1A
  5
C83
331
4CF
  5
996
331
41A
  5
47E
331
2E4
  5
375
331
DC4
  5
11F
331
28D
  5
306
331
256
  5
2A1
331
217
  5
262
331
4CB
  5
992
331
DC0
  5
C54
331
416
  5
47A
331
2E0
  5
371
331
289
  5
302
331
252
  5
29D
331
3E7
  5
433
331
213
  5
25E
331
DBC
  5
C58
331
412
  5
476
331
285
  5
2FE
331
24E
  5
299
331
3E3
  5
42F
331
20F
  5
25A
331
3A4
  5
3EF
331
31E
  5
39D
331
DB8
  5
C5E
331
2D8
  5
369
331
281
  5
2F0
331
24A
  5
295
331
3DF
  5
42B
331
20B
  5
256
331
3A0
  5
3EB
331
369
  5
3B8
331
3DB
  5
427
331
39C
  5
3E7
331
365
  5
3B4
331
63C
  5
C2D
331
316
  5
39B
331
D8E
  5
182
331
398
  5
3E3
331
361
  5
3B0
331
638
  5
C23
331
312
  5
397
331
D8A
  5
190
331
993
  5
C65
331
634
  5
C1F
331
630
  5
C1B
331
AC
  5
14D
331
A8
  5
140
331
7FD
  5
C47
331
7F9
  5
C43
331
A0
  5
120
331
1DC
  5
227
331
19D
  5
1E8
331
166
  5
1B1
331
1D8
  5
223
331
199
  5
1E4
331
162
  5
1AD
331
1D4
  5
21F
331
195
  5
1E0
331
15E
  5
1A9
331
11F
  5
189
331
1D0
  5
21B
331
191
  5
1DC
331
15A
  5
1A5
331
C8C
  5
DBE
331
C16
  5
C7F
331
C88
  5
DBA
331
C12
  5
C7B
331
4C7
  5
98A
331
C84
  5
DB6
331
C4D
  5
CB6
331
C0E
  5
C77
331
4C3
  5
911
331
44D
  5
4DB
331
C80
  5
DB2
331
C49
  5
CB2
331
C0A
  5
C73
331
62E
  5
C19
331
449
  5
4D7
331
2D4
  5
365
331
246
  5
291
331
4BB
  5
90A
331
445
  5
4D3
331
30F
  5
394
331
2D0
  5
361
331
3D7
  5
423
331
242
  5
28D
331
441
  5
4CE
331
30B
  5
390
331
2CC
  5
35F
331
27D
  5
2EA
331
3D3
  5
41F
331
23E
  5
289
331
35D
  5
3AC
331
279
  5
2E6
331
40E
  5
472
331
23A
  5
285
331
3CF
  5
41A
331
98F
  5
C61
331
359
  5
3A8
331
40A
  5
456
331
3CB
  5
416
331
394
  5
3DF
331
355
  5
3A4
331
390
  5
3DB
331
351
  5
3A0
331
DB5
  5
C6D
331
913
  5
4A5
331
90F
  5
4A1
331
90B
  5
480
331
D3
  5
174
331
1CC
  5
217
331
156
  5
1A1
331
207
  5
252
331
1C8
  5
213
331
152
  5
19D
331
203
  5
24E
331
1C4
  5
20F
331
18D
  5
1D8
331
14E
  5
199
331
1C0
  5
20B
331
189
  5
1D4
331
C7C
  5
DAE
331
C45
  5
CAE
331
C06
  5
C6F
331
C78
  5
DAA
331
C41
  5
CAA
331
4B7
  5
806
331
CB3
  5
DE5
331
C74
  5
DA6
331
C3D
  5
CA6
331
4B3
  5
801
331
DE7
  5
C40
331
43D
  5
4CA
331
307
  5
38C
331
C70
  5
DA2
331
C39
  5
CA2
331
516
  5
C11
331
4AF
  5
7FD
331
478
  5
638
331
439
  5
4C6
331
303
  5
388
331
DE3
  5
B0
331
2AC
  5
35B
331
275
  5
2E2
331
236
  5
281
331
4AB
  5
7FA
331
474
  5
631
331
435
  5
4C2
331
2FF
  5
384
331
DDF
  5
C0
331
2A8
  5
357
331
271
  5
2DA
331
406
  5
452
331
232
  5
27D
331
3C7
  5
412
331
470
  5
62D
331
431
  5
4BD
331
2A4
  5
353
331
DDB
  5
C2
331
26D
  5
2D6
331
402
  5
44E
331
22E
  5
279
331
3C3
  5
40E
331
38C
  5
3D7
331
2A0
  5
31F
331
269
  5
2D2
331
3FE
  5
44A
331
22A
  5
275
331
3BF
  5
40A
331
388
  5
3D3
331
3FA
  5
446
331
3BB
  5
406
331
384
  5
3CF
331
DAD
  5
A1
331
807
  5
C51
331
380
  5
3CB
331
803
  5
C4D
331
7F3
  5
C3E
331
DA1
  5
C6
331
10E
  5
184
331
CF
  5
170
331
CB
  5
16C
331
106
  5
17F
331
C7
  5
168
331
1FF
  5
24A
331
C3
  5
164
331
1FB
  5
246
331
1BC
  5
207
331
185
  5
1D0
331
1F7
  5
242
331
1B8
  5
203
331
181
  5
1CC
331
1F3
  5
23E
331
1B4
  5
1FF
331
17D
  5
1C8
331
13E
  5
192
331
1B0
  5
1FB
331
179
  5
1C4
331
CAF
  5
DE1
331
CAB
  5
DDD
331
C6C
  5
D9E
331
C35
  5
C9E
331
CA7
  5
DD9
331
C68
  5
D9A
331
C31
  5
C9A
331
4A7
  5
7F2
331
CA3
  5
DD5
331
C64
  5
D96
331
C2D
  5
C96
331
4F2
  5
C10
331
4A3
  5
7ED
331
42D
  5
4B9
331
DD7
  5
C9
331
C60
  5
D92
331
C29
  5
C92
331
49F
  5
7E9
331
468
  5
517
331
429
  5
4B5
331
29C
  5
315
331
DD3
  5
CB
331
265
  5
2CC
331
226
  5
271
331
4DA
  5
C0D
331
49B
  5
63E
331
425
  5
4B1
331
298
  5
311
331
DCF
  5
D2
331
261
  5
2AC
331
3F6
  5
442
331
222
  5
26D
331
3B7
  5
402
331
421
  5
4AC
331
2EB
  5
37C
331
DCB
  5
FF
331
294
  5
30D
331
25D
  5
2A8
331
3F2
  5
43E
331
21E
  5
269
331
3B3
  5
3FE
331
37C
  5
3C7
331
290
  5
309
331
259
  5
2A4
331
3EE
  5
43A
331
21A
  5
265
331
3AF
  5
3FA
331
378
  5
3C3
331
3EA
  5
436
331
3AB
  5
3F6
331
7EB
  5
C35
331
374
  5
3BF
331
7E7
  5
C31
331
370
  5
3BB
331
D95
  5
106
331
D91
  5
17E
331
FE
  5
17A
331
BF
  5
160
331
BB
  5
15C
331
B7
  5
158
331
1EF
  5
23A
331
B3
  5
154
331
1EB
  5
236
331
1AC
  5
1F7
331
175
  5
1C0
331
136
  5
18D
331
1E7
  5
232
331
1A8
  5
1F3
331
171
  5
1BC
331
1E3
  5
22E
331
1A4
  5
1EF
331
16D
  5
1B8
331
1A0
  5
1EB
331
169
  5
1B4
331
C9F
  5
DD1
331
C9B
  5
DCD
331
C5C
  5
D8E
331
C25
  5
C8E
331
C97
  5
DC9
331
C58
  5
D8A
331
C21
  5
C8A
331
4D6
  5
C09
331
497
  5
63A
331
C93
  5
DC5
331
C54
  5
D86
331
C1D
  5
C86
331
4D2
  5
C04
331
41D
  5
4A8
331
2E7
  5
378
331
DC7
  5
118
331
C50
  5
D82
331
C19
  5
C82
331
4CE
  5
995
331
419
  5
47D
331
2E3
  5
374
331
28C
  5
305
331
255
  5
2A0
331
216
  5
261
331
4CA
  5
991
331
DBF
  5
C53
331
415
  5
479
331
288
  5
301
331
251
  5
29C
331
3E6
  5
432
331
212
  5
25D
331
3A7
  5
3F2
331
DBB
  5
C57
331
411
  5
475
331
2DB
  5
370
331
284
  5
2FD
331
24D
  5
298
331
3E2
  5
42E
331
20E
  5
259
331
3A3
  5
3EE
331
31D
  5
39C
331
280
  5
2EE
331
249
  5
294
331
3DE
  5
42A
331
20A
  5
255
331
39F
  5
3EA
331
63F
  5
C30
331
368
  5
3B7
331
3DA
  5
426
331
39B
  5
3E6
331
364
  5
3B3
331
63B
  5
C2C
331
315
  5
39A
331
D8D
  5
18C
331
360
  5
3AF
331
996
  5
C68
331
311
  5
396
331
637
  5
C22
331
992
  5
C64
331
633
  5
C1E
331
AF
  5
150
331
AB
  5
14C
331
E6
  5
177
331
A7
  5
13F
331
7FC
  5
C46
331
1DF
  5
22A
331
1DB
  5
226
331
19C
  5
1E7
331
165
  5
1B0
331
1D7
  5
222
331
198
  5
1E3
331
161
  5
1AC
331
1D3
  5
21E
331
194
  5
1DF
331
15D
  5
1A8
331
190
  5
1DB
331
159
  5
1A4
331
C8F
  5
DC1
331
C8B
  5
DBD
331
C15
  5
C7E
331
C87
  5
DB9
331
C11
  5
C7A
331
4C6
  5
989
331
C83
  5
DB5
331
C4C
  5
CB5
331
C0D
  5
C76
331
4C2
  5
910
331
44C
  5
4DA
331
2D7
  5
368
331
C48
  5
CB1
331
C09
  5
C72
331
62D
  5
C18
331
4BE
  5
90D
331
448
  5
4D6
331
2D3
  5
364
331
245
  5
290
331
4BA
  5
907
331
444
  5
4D2
331
30E
  5
393
331
3D6
  5
422
331
241
  5
28C
331
440
  5
4CD
331
30A
  5
38F
331
27C
  5
2E9
331
3D2
  5
41E
331
23D
  5
288
331
35C
  5
3AB
331
278
  5
2E5
331
40D
  5
471
331
239
  5
284
331
3CE
  5
419
331
397
  5
3E2
331
358
  5
3A7
331
409
  5
455
331
3CA
  5
415
331
393
  5
3DE
331
98A
  5
C5C
331
354
  5
3A3
331
DB4
  5
C6C
331
912
  5
4A4
331
90E
  5
483
331
90A
  5
47F
331
1CF
  5
21A
331
D2
  5
173
331
1CB
  5
216
331
155
  5
1A0
331
206
  5
251
331
1C7
  5
212
331
151
  5
19C
331
202
  5
24D
331
1C3
  5
20E
331
18C
  5
1D7
331
14D
  5
198
331
188
  5
1D3
  0
XRECORD
  5
DEE
102
{ACAD_REACTORS
330
DEC
102
}
330
DEC
100
AcDbXrecord
280
     1
 70
     2
  0
XRECORD
  5
DED
102
{ACAD_REACTORS
330
DEC
102
}
330
DEC
100
AcDbXrecord
280
     1
 40
1.25
  0
XRECORD
  5
DEF
102
{ACAD_REACTORS
330
DEC
102
}
330
DEC
100
AcDbXrecord
280
     1
 40
1.570796326794896
  0
LAYOUT
  5
39
102
{ACAD_XDICTIONARY
360
E13
102
}
102
{ACAD_REACTORS
330
2E
102
}
330
2E
100
AcDbPlotSettings
  1

  2
PDF Complete
  4
A4
  6

 40
3.174999952316281
 41
3.174999952316281
 42
3.175003051757812
 43
3.17498779296875
 44
209.9733276367186
 45
297.0106506347656
 46
0.0
 47
0.0
 48
0.0
 49
0.0
140
0.0
141
0.0
142
1.0
143
39.47281499443413
 70
 11952
 72
     0
 73
     1
 74
     0
  7

 75
     0
147
0.0253338911891895
148
6551.853142723489
149
2885.741260485867
100
AcDbLayout
  1
Model
 70
     1
 71
     0
 10
0.0
 20
0.0
 11
12.0
 21
9.0
 12
0.0
 22
0.0
 32
0.0
 14
0.0
 24
0.0
 34
0.0
 15
0.0
 25
0.0
 35
0.0
146
0.0
 13
0.0
 23
0.0
 33
0.0
 16
1.0
 26
0.0
 36
0.0
 17
0.0
 27
1.0
 37
0.0
 76
     0
330
36
331
56
1001
ACAD_PSEXT
1000
PDF Complete
1000
PDF Complete Converter
1000
PDFC
1000
PDF Document Creator
1070
     0
  0
LAYOUT
  5
35
102
{ACAD_XDICTIONARY
360
E11
102
}
102
{ACAD_REACTORS
330
2E
102
}
330
2E
100
AcDbPlotSettings
  1

  2
PDF Complete
  4

  6

 40
0.0
 41
0.0
 42
0.0
 43
0.0
 44
0.0
 45
0.0
 46
0.0
 47
0.0
 48
0.0
 49
0.0
140
0.0
141
0.0
142
1.0
143
1.0
 70
   688
 72
     0
 73
     0
 74
     5
  7

 75
    16
147
1.0
148
0.0
149
0.0
100
AcDbLayout
  1
レイアウト1
 70
     1
 71
     1
 10
0.0
 20
0.0
 11
12.0
 21
9.0
 12
0.0
 22
0.0
 32
0.0
 14
1.000000000000000E+20
 24
1.000000000000000E+20
 34
1.000000000000000E+20
 15
-1.000000000000000E+20
 25
-1.000000000000000E+20
 35
-1.000000000000000E+20
146
0.0
 13
0.0
 23
0.0
 33
0.0
 16
1.0
 26
0.0
 36
0.0
 17
0.0
 27
1.0
 37
0.0
 76
     0
330
32
  0
MATERIAL
  5
12
102
{ACAD_XDICTIONARY
360
500
102
}
102
{ACAD_REACTORS
330
10
102
}
330
10
100
AcDbMaterial
  1
ByBlock
  0
MATERIAL
  5
11
102
{ACAD_XDICTIONARY
360
4FE
102
}
102
{ACAD_REACTORS
330
10
102
}
330
10
100
AcDbMaterial
  1
ByLayer
  0
MATERIAL
  5
13
102
{ACAD_XDICTIONARY
360
502
102
}
102
{ACAD_REACTORS
330
10
102
}
330
10
100
AcDbMaterial
  1
Global
  0
MLEADERSTYLE
  5
550
102
{ACAD_REACTORS
330
54F
102
}
330
54F
100
AcDbMLeaderStyle
170
     2
171
     1
172
     0
 90
        2
 40
0.0
 41
0.0
173
     1
 91
-1056964608
340
28
 92
       -2
290
     1
 42
0.09
291
     1
 43
0.36
  3
Standard
 44
0.18
300

342
26
174
     1
178
     6
175
     1
176
     0
 93
-1056964608
 45
0.18
292
     0
297
     0
 46
0.18
 94
-1056964608
 47
1.0
 49
1.0
140
1.0
293
     1
141
0.0
294
     1
177
     0
142
1.0
295
     0
296
     0
143
0.125
1001
ACAD_MLEADERVER
1070
     2
  0
MLINESTYLE
  5
2C
102
{ACAD_REACTORS
330
2B
102
}
330
2B
100
AcDbMlineStyle
  2
STANDARD
 70
     0
  3

 62
   256
 51
90.0
 52
90.0
 71
     2
 49
0.5
 62
   256
  6
BYLAYER
 49
-0.5
 62
   256
  6
BYLAYER
  0
ACDBPLACEHOLDER
  5
F
102
{ACAD_REACTORS
330
E
102
}
330
E
  0
SCALE
  5
53E
102
{ACAD_REACTORS
330
53D
102
}
330
53D
100
AcDbScale
 70
     0
300
1:1
140
1.0
141
1.0
290
     1
  0
SCALE
  5
53F
102
{ACAD_REACTORS
330
53D
102
}
330
53D
100
AcDbScale
 70
     0
300
1/128" = 1'-0"
140
0.0078125
141
12.0
290
     0
  0
SCALE
  5
540
102
{ACAD_REACTORS
330
53D
102
}
330
53D
100
AcDbScale
 70
     0
300
1/64" = 1'-0"
140
0.015625
141
12.0
290
     0
  0
SCALE
  5
541
102
{ACAD_REACTORS
330
53D
102
}
330
53D
100
AcDbScale
 70
     0
300
1/32" = 1'-0"
140
0.03125
141
12.0
290
     0
  0
SCALE
  5
542
102
{ACAD_REACTORS
330
53D
102
}
330
53D
100
AcDbScale
 70
     0
300
1/16" = 1'-0"
140
0.0625
141
12.0
290
     0
  0
SCALE
  5
543
102
{ACAD_REACTORS
330
53D
102
}
330
53D
100
AcDbScale
 70
     0
300
3/32" = 1'-0"
140
0.09375
141
12.0
290
     0
  0
SCALE
  5
544
102
{ACAD_REACTORS
330
53D
102
}
330
53D
100
AcDbScale
 70
     0
300
1/8" = 1'-0"
140
0.125
141
12.0
290
     0
  0
SCALE
  5
545
102
{ACAD_REACTORS
330
53D
102
}
330
53D
100
AcDbScale
 70
     0
300
3/16" = 1'-0"
140
0.1875
141
12.0
290
     0
  0
SCALE
  5
546
102
{ACAD_REACTORS
330
53D
102
}
330
53D
100
AcDbScale
 70
     0
300
1/4" = 1'-0"
140
0.25
141
12.0
290
     0
  0
SCALE
  5
547
102
{ACAD_REACTORS
330
53D
102
}
330
53D
100
AcDbScale
 70
     0
300
3/8" = 1'-0"
140
0.375
141
12.0
290
     0
  0
SCALE
  5
548
102
{ACAD_REACTORS
330
53D
102
}
330
53D
100
AcDbScale
 70
     0
300
1/2" = 1'-0"
140
0.5
141
12.0
290
     0
  0
SCALE
  5
549
102
{ACAD_REACTORS
330
53D
102
}
330
53D
100
AcDbScale
 70
     0
300
3/4" = 1'-0"
140
0.75
141
12.0
290
     0
  0
SCALE
  5
54A
102
{ACAD_REACTORS
330
53D
102
}
330
53D
100
AcDbScale
 70
     0
300
1" = 1'-0"
140
1.0
141
12.0
290
     0
  0
SCALE
  5
54B
102
{ACAD_REACTORS
330
53D
102
}
330
53D
100
AcDbScale
 70
     0
300
1-1/2" = 1'-0"
140
1.5
141
12.0
290
     0
  0
SCALE
  5
54C
102
{ACAD_REACTORS
330
53D
102
}
330
53D
100
AcDbScale
 70
     0
300
3" = 1'-0"
140
3.0
141
12.0
290
     0
  0
SCALE
  5
54D
102
{ACAD_REACTORS
330
53D
102
}
330
53D
100
AcDbScale
 70
     0
300
6" = 1'-0"
140
6.0
141
12.0
290
     0
  0
SCALE
  5
54E
102
{ACAD_REACTORS
330
53D
102
}
330
53D
100
AcDbScale
 70
     0
300
1'-0" = 1'-0"
140
12.0
141
12.0
290
     0
  0
TABLESTYLE
  5
31
102
{ACAD_XDICTIONARY
360
891
102
}
102
{ACAD_REACTORS
330
30
102
}
330
30
100
AcDbTableStyle
  3
Standard
 70
     0
 71
     0
 40
0.06
 41
0.06
280
     0
281
     0
  7
STANDARD
140
0.18
170
     2
 62
     0
 63
     7
283
     0
274
    -2
284
     1
 64
     0
275
    -2
285
     1
 65
     0
276
    -2
286
     1
 66
     0
277
    -2
287
     1
 67
     0
278
    -2
288
     1
 68
     0
279
    -2
289
     1
 69
     0
  7
STANDARD
140
0.25
170
     5
 62
     0
 63
     7
283
     0
274
    -2
284
     1
 64
     0
275
    -2
285
     1
 65
     0
276
    -2
286
     1
 66
     0
277
    -2
287
     1
 67
     0
278
    -2
288
     1
 68
     0
279
    -2
289
     1
 69
     0
  7
STANDARD
140
0.18
170
     5
 62
     0
 63
     7
283
     0
274
    -2
284
     1
 64
     0
275
    -2
285
     1
 65
     0
276
    -2
286
     1
 66
     0
277
    -2
287
     1
 67
     0
278
    -2
288
     1
 68
     0
279
    -2
289
     1
 69
     0
  0
VISUALSTYLE
  5
1A
102
{ACAD_XDICTIONARY
360
DFA
102
}
102
{ACAD_REACTORS
330
14
102
}
330
14
100
AcDbVisualStyle
  2

 70
     4
 71
     0
 72
     2
 73
     0
 90
        0
 40
-0.6
 41
-30.0
 62
     5
 63
     7
 74
     1
 91
        4
 64
     7
 65
   257
 75
     1
175
     1
 42
1.0
 92
        0
 66
   257
 43
1.0
 76
     1
 77
     6
 78
     2
 67
     7
 79
     5
170
     0
171
     0
290
     0
174
     0
 93
        1
 44
0.0
173
     0
291
     0
 45
0.0
1001
ACAD
1000
AcDbSavedByObjectVersion
1070
     0
  0
VISUALSTYLE
  5
1C
102
{ACAD_XDICTIONARY
360
DFE
102
}
102
{ACAD_REACTORS
330
14
102
}
330
14
100
AcDbVisualStyle
  2

 70
     6
 71
     1
 72
     2
 73
     2
 90
        0
 40
-0.6
 41
-30.0
 62
     5
 63
     7
 74
     2
 91
        2
 64
     7
 65
   257
 75
     2
175
     1
 42
40.0
 92
        0
 66
   257
 43
1.0
 76
     1
 77
     6
 78
     2
 67
     7
 79
     3
170
     0
171
     0
290
     0
174
     0
 93
        1
 44
0.0
173
     0
291
     0
 45
0.0
1001
ACAD
1000
AcDbSavedByObjectVersion
1070
     0
  0
VISUALSTYLE
  5
1B
102
{ACAD_XDICTIONARY
360
DFC
102
}
102
{ACAD_REACTORS
330
14
102
}
330
14
100
AcDbVisualStyle
  2

 70
     5
 71
     0
 72
     2
 73
     0
 90
        0
 40
-0.6
 41
-30.0
 62
     5
 63
     7
 74
     1
 91
        4
 64
     7
 65
   257
 75
     1
175
     1
 42
1.0
 92
        0
 66
   257
 43
1.0
 76
     1
 77
     6
 78
     2
 67
     7
 79
     5
170
     0
171
     0
290
     0
174
     0
 93
        1
 44
0.0
173
     0
291
     0
 45
0.0
1001
ACAD
1000
AcDbSavedByObjectVersion
1070
     0
  0
VISUALSTYLE
  5
19
102
{ACAD_XDICTIONARY
360
DF8
102
}
102
{ACAD_REACTORS
330
14
102
}
330
14
100
AcDbVisualStyle
  2

 70
     7
 71
     1
 72
     0
 73
     1
 90
        0
 40
-0.6
 41
-30.0
 62
     5
 63
     7
 74
     0
 91
        4
 64
     7
 65
   257
 75
     1
175
     1
 42
1.0
 92
        8
 66
     7
 43
1.0
 76
     1
 77
     6
 78
     2
 67
     7
 79
     5
170
     0
171
     0
290
     0
174
     0
 93
        1
 44
0.0
173
     0
291
     1
 45
0.0
1001
ACAD
1000
AcDbSavedByObjectVersion
1070
     0
  0
VISUALSTYLE
  5
20
102
{ACAD_XDICTIONARY
360
E06
102
}
102
{ACAD_REACTORS
330
14
102
}
330
14
100
AcDbVisualStyle
  2

 70
    12
 71
     2
 72
     2
 73
     0
 90
        0
 40
-0.6
 41
-30.0
 62
     5
 63
     7
 74
     1
 91
        4
 64
     7
 65
   257
 75
     1
175
     1
 42
1.0
 92
        8
 66
     7
 43
1.0
 76
     1
 77
     6
 78
     2
 67
     7
 79
     5
170
     0
171
     0
290
     0
174
     0
 93
        1
 44
50.0
173
     0
291
     1
 45
0.0
1001
ACAD
1000
AcDbSavedByObjectVersion
1070
     0
  0
VISUALSTYLE
  5
24
102
{ACAD_XDICTIONARY
360
E0E
102
}
102
{ACAD_REACTORS
330
14
102
}
330
14
100
AcDbVisualStyle
  2

 70
    16
 71
     2
 72
     2
 73
     3
 90
        0
 40
-0.6
 41
-30.0
 62
     5
 63
     8
 74
     1
 91
        4
 64
     7
 65
   257
 75
     1
175
     1
 42
1.0
 92
        8
 66
     8
 43
1.0
 76
     1
 77
     6
 78
     2
 67
     7
 79
     5
170
     0
171
     0
290
     0
174
     0
 93
        1
 44
0.0
173
     0
291
     1
 45
0.0
1001
ACAD
1000
AcDbSavedByObjectVersion
1070
     0
  0
VISUALSTYLE
  5
1D
102
{ACAD_XDICTIONARY
360
E00
102
}
102
{ACAD_REACTORS
330
14
102
}
330
14
100
AcDbVisualStyle
  2

 70
     9
 71
     3
 72
     2
 73
     0
 90
        0
 40
-0.6
 41
-30.0
 62
     5
 63
     7
 74
     2
 91
        2
 64
     7
 65
   257
 75
     1
175
     1
 42
40.0
 92
        8
 66
     7
 43
1.0
 76
     1
 77
     6
 78
     2
 67
     7
 79
     3
170
     0
171
     0
290
     0
174
     0
 93
        1
 44
0.0
173
     0
291
     0
 45
0.0
1001
ACAD
1000
AcDbSavedByObjectVersion
1070
     0
  0
VISUALSTYLE
  5
1F
102
{ACAD_XDICTIONARY
360
E04
102
}
102
{ACAD_REACTORS
330
14
102
}
330
14
100
AcDbVisualStyle
  2

 70
    11
 71
     2
 72
     2
 73
     0
 90
        0
 40
-0.6
 41
-30.0
 62
     5
 63
     7
 74
     1
 91
        4
 64
     7
 65
   257
 75
     1
175
     1
 42
1.0
 92
        8
 66
     7
 43
1.0
 76
     1
 77
     6
 78
     2
 67
     7
 79
     5
170
     0
171
     0
290
     0
174
     0
 93
        1
 44
-50.0
173
     0
291
     1
 45
0.0
1001
ACAD
1000
AcDbSavedByObjectVersion
1070
     0
  0
VISUALSTYLE
  5
53C
102
{ACAD_XDICTIONARY
360
E27
102
}
102
{ACAD_REACTORS
330
14
102
}
330
14
100
AcDbVisualStyle
  2

 70
    22
 71
     2
 72
     2
 73
     0
 90
        0
 40
-0.6
 41
-30.0
 62
     5
 63
     7
 74
     1
 91
        4
 64
     7
 65
   257
 75
     1
175
     1
 42
1.0
 92
        8
 66
     7
 43
1.0
 76
     1
 77
     6
 78
     2
 67
     7
 79
     5
170
     0
171
     0
290
     0
174
     0
 93
        1
 44
0.0
173
     0
291
     1
 45
0.0
1001
ACAD
1000
AcDbSavedByObjectVersion
1070
     0
  0
VISUALSTYLE
  5
23
102
{ACAD_XDICTIONARY
360
E0C
102
}
102
{ACAD_REACTORS
330
14
102
}
330
14
100
AcDbVisualStyle
  2

 70
    15
 71
     2
 72
     2
 73
     0
 90
        0
 40
-0.6
 41
-30.0
 62
     5
 63
     7
 74
     1
 91
        4
 64
     7
 65
   257
 75
     1
175
     1
 42
1.0
 92
        8
 66
     7
 43
1.0
 76
     1
 77
     6
 78
     2
 67
     7
 79
     5
170
     0
171
     0
290
     0
174
     0
 93
        1
 44
0.0
173
     0
291
     1
 45
0.0
1001
ACAD
1000
AcDbSavedByObjectVersion
1070
     0
  0
VISUALSTYLE
  5
15
102
{ACAD_XDICTIONARY
360
DF0
102
}
102
{ACAD_REACTORS
330
14
102
}
330
14
100
AcDbVisualStyle
  2

 70
     0
 71
     2
 72
     1
 73
     1
 90
        2
 40
-0.6
 41
30.0
 62
     5
 63
     7
 74
     0
 91
        4
 64
     7
 65
   257
 75
     1
175
     1
 42
1.0
 92
        8
 66
     7
 43
1.0
 76
     1
 77
     6
 78
     2
 67
     7
 79
     5
170
     0
171
     0
290
     0
174
     0
 93
       13
 44
0.0
173
     0
291
     1
 45
0.0
1001
ACAD
1000
AcDbSavedByObjectVersion
1070
     0
  0
VISUALSTYLE
  5
16
102
{ACAD_XDICTIONARY
360
DF2
102
}
102
{ACAD_REACTORS
330
14
102
}
330
14
100
AcDbVisualStyle
  2

 70
     1
 71
     2
 72
     1
 73
     1
 90
        2
 40
-0.6
 41
30.0
 62
     5
 63
     7
 74
     1
 91
        4
 64
     7
 65
   257
 75
     1
175
     1
 42
1.0
 92
        0
 66
   257
 43
1.0
 76
     1
 77
     6
 78
     2
 67
     7
 79
     5
170
     0
171
     0
290
     0
174
     0
 93
       13
 44
0.0
173
     0
291
     1
 45
0.0
1001
ACAD
1000
AcDbSavedByObjectVersion
1070
     0
  0
VISUALSTYLE
  5
17
102
{ACAD_XDICTIONARY
360
DF4
102
}
102
{ACAD_REACTORS
330
14
102
}
330
14
100
AcDbVisualStyle
  2

 70
     2
 71
     2
 72
     2
 73
     1
 90
        2
 40
-0.6
 41
30.0
 62
     5
 63
     7
 74
     0
 91
        4
 64
     7
 65
   257
 75
     1
175
     1
 42
1.0
 92
        0
 66
     7
 43
1.0
 76
     1
 77
     6
 78
     2
 67
     7
 79
     5
170
     0
171
     0
290
     0
174
     0
 93
       13
 44
0.0
173
     0
291
     1
 45
0.0
1001
ACAD
1000
AcDbSavedByObjectVersion
1070
     0
  0
VISUALSTYLE
  5
18
102
{ACAD_XDICTIONARY
360
DF6
102
}
102
{ACAD_REACTORS
330
14
102
}
330
14
100
AcDbVisualStyle
  2

 70
     3
 71
     2
 72
     2
 73
     1
 90
        2
 40
-0.6
 41
30.0
 62
     5
 63
     7
 74
     1
 91
        4
 64
     7
 65
   257
 75
     1
175
     1
 42
1.0
 92
        0
 66
   257
 43
1.0
 76
     1
 77
     6
 78
     2
 67
     7
 79
     5
170
     0
171
     0
290
     0
174
     0
 93
       13
 44
0.0
173
     0
291
     1
 45
0.0
1001
ACAD
1000
AcDbSavedByObjectVersion
1070
     0
  0
VISUALSTYLE
  5
534
102
{ACAD_XDICTIONARY
360
E17
102
}
102
{ACAD_REACTORS
330
14
102
}
330
14
100
AcDbVisualStyle
  2

 70
     6
 71
     1
 72
     2
 73
     2
 90
        0
 40
-0.6
 41
-30.0
 62
     5
 63
     7
 74
     2
 91
        2
 64
     7
 65
   257
 75
     2
175
     1
 42
40.0
 92
        0
 66
   257
 43
1.0
 76
     1
 77
     6
 78
     2
 67
     7
 79
     3
170
     0
171
     0
290
     0
174
     0
 93
        1
 44
0.0
173
     0
291
     0
 45
0.0
1001
ACAD
1000
AcDbSavedByObjectVersion
1070
     0
  0
VISUALSTYLE
  5
53A
102
{ACAD_XDICTIONARY
360
E23
102
}
102
{ACAD_REACTORS
330
14
102
}
330
14
100
AcDbVisualStyle
  2

 70
    20
 71
     2
 72
     2
 73
     0
 90
        0
 40
-0.6
 41
-30.0
 62
     5
 63
     7
 74
     1
 91
        4
 64
     7
 65
   257
 75
     1
175
     1
 42
1.0
 92
       10
 66
     7
 43
1.0
 76
     1
 77
     6
 78
     2
 67
     7
 79
     5
170
     0
171
     0
290
     0
174
     0
 93
        1
 44
0.0
173
     0
291
     1
 45
0.0
1001
ACAD
1000
AcDbSavedByObjectVersion
1070
     0
  0
VISUALSTYLE
  5
22
102
{ACAD_XDICTIONARY
360
E0A
102
}
102
{ACAD_REACTORS
330
14
102
}
330
14
100
AcDbVisualStyle
  2

 70
    14
 71
     2
 72
     2
 73
     0
 90
        0
 40
-0.6
 41
-30.0
 62
     5
 63
     7
 74
     1
 91
        4
 64
     7
 65
   257
 75
     7
175
     7
 42
1.0
 92
        8
 66
     7
 43
1.0
 76
     1
 77
     6
 78
     2
 67
     7
 79
     5
170
     0
171
     0
290
     0
174
     0
 93
        1
 44
0.0
173
     0
291
     1
 45
0.0
1001
ACAD
1000
AcDbSavedByObjectVersion
1070
     0
  0
VISUALSTYLE
  5
53B
102
{ACAD_XDICTIONARY
360
E25
102
}
102
{ACAD_REACTORS
330
14
102
}
330
14
100
AcDbVisualStyle
  2

 70
    21
 71
     2
 72
     2
 73
     0
 90
        0
 40
-0.6
 41
-30.0
 62
     5
 63
     7
 74
     1
 91
        4
 64
     7
 65
   257
 75
     1
175
     1
 42
1.0
 92
        9
 66
     7
 43
1.0
 76
     1
 77
     6
 78
     2
 67
     7
 79
     5
170
     0
171
     0
290
     0
174
     0
 93
        1
 44
0.0
173
     0
291
     1
 45
0.0
1001
ACAD
1000
AcDbSavedByObjectVersion
1070
     0
  0
VISUALSTYLE
  5
1E
102
{ACAD_XDICTIONARY
360
E02
102
}
102
{ACAD_REACTORS
330
14
102
}
330
14
100
AcDbVisualStyle
  2

 70
     8
 71
     2
 72
     2
 73
     0
 90
        0
 40
-0.6
 41
-30.0
 62
     5
 63
     7
 74
     1
 91
        0
 64
     7
 65
   257
 75
     1
175
     1
 42
1.0
 92
        8
 66
     8
 43
1.0
 76
     1
 77
     6
 78
     2
 67
     7
 79
     5
170
     0
171
     0
290
     0
174
     0
 93
       13
 44
0.0
173
     0
291
     0
 45
0.0
1001
ACAD
1000
AcDbSavedByObjectVersion
1070
     0
  0
VISUALSTYLE
  5
539
102
{ACAD_XDICTIONARY
360
E21
102
}
102
{ACAD_REACTORS
330
14
102
}
330
14
100
AcDbVisualStyle
  2

 70
    27
 71
     2
 72
     2
 73
     1
 90
        2
 40
-0.6
 41
30.0
 62
     5
 63
     7
 74
     0
 91
        4
 64
     7
 65
   257
 75
     1
175
     1
 42
1.0
 92
        8
 66
   257
 43
1.0
 76
     1
 77
     6
 78
     2
 67
     8
 79
     3
170
     0
171
     0
290
     0
174
     0
 93
        5
 44
0.0
173
     0
291
     0
 45
0.0
1001
ACAD
1000
AcDbSavedByObjectVersion
1070
     0
  0
VISUALSTYLE
  5
538
102
{ACAD_XDICTIONARY
360
E1F
102
}
102
{ACAD_REACTORS
330
14
102
}
330
14
100
AcDbVisualStyle
  2

 70
    26
 71
     2
 72
     2
 73
     1
 90
        2
 40
-0.6
 41
30.0
 62
     5
 63
     7
 74
     1
 91
       10
 64
     7
 65
   257
 75
     2
175
     1
 42
1.0
 92
        8
 66
   257
 43
1.0
 76
     1
 77
     6
 78
     2
 67
     7
 79
     3
170
     0
171
     0
290
     0
174
     0
 93
        5
 44
0.0
173
     0
291
     0
 45
0.0
1001
ACAD
1000
AcDbSavedByObjectVersion
1070
     0
  0
VISUALSTYLE
  5
535
102
{ACAD_XDICTIONARY
360
E19
102
}
102
{ACAD_REACTORS
330
14
102
}
330
14
100
AcDbVisualStyle
  2

 70
    23
 71
     2
 72
     2
 73
     3
 90
        0
 40
-0.6
 41
-30.0
 62
     5
 63
     7
 74
     2
 91
        2
 64
     7
 65
     7
 75
     1
175
     1
 42
40.0
 92
        8
 66
     7
 43
1.0
 76
     1
 77
     6
 78
     2
 67
     7
 79
     3
170
     0
171
     0
290
     0
174
     0
 93
        1
 44
0.0
173
     0
291
     0
 45
0.0
1001
ACAD
1000
AcDbSavedByObjectVersion
1070
     0
  0
VISUALSTYLE
  5
536
102
{ACAD_XDICTIONARY
360
E1B
102
}
102
{ACAD_REACTORS
330
14
102
}
330
14
100
AcDbVisualStyle
  2

 70
    24
 71
     1
 72
     2
 73
     2
 90
        0
 40
-0.6
 41
-30.0
 62
     5
 63
     7
 74
     2
 91
        2
 64
     7
 65
     7
 75
     1
175
     1
 42
40.0
 92
       11
 66
     7
 43
1.0
 76
     1
 77
     6
 78
     2
 67
     7
 79
     6
170
     0
171
     0
290
     0
174
     0
 93
        1
 44
0.0
173
     0
291
     0
 45
0.0
1001
ACAD
1000
AcDbSavedByObjectVersion
1070
     0
  0
VISUALSTYLE
  5
21
102
{ACAD_XDICTIONARY
360
E08
102
}
102
{ACAD_REACTORS
330
14
102
}
330
14
100
AcDbVisualStyle
  2

 70
    13
 71
     2
 72
     2
 73
     0
 90
        0
 40
-0.6
 41
-30.0
 62
     5
 63
     7
 74
     1
 91
        4
 64
     7
 65
   257
 75
     1
175
     1
 42
1.0
 92
       12
 66
     7
 43
1.0
 76
     1
 77
     6
 78
     2
 67
     7
 79
     5
170
     0
171
     0
290
     0
174
     0
 93
        1
 44
0.0
173
     0
291
     1
 45
0.0
1001
ACAD
1000
AcDbSavedByObjectVersion
1070
     0
  0
VISUALSTYLE
  5
533
102
{ACAD_XDICTIONARY
360
E15
102
}
102
{ACAD_REACTORS
330
14
102
}
330
14
100
AcDbVisualStyle
  2

 70
     5
 71
     0
 72
     2
 73
     0
 90
        0
 40
-0.6
 41
-30.0
 62
     5
 63
     7
 74
     1
 91
        4
 64
     7
 65
   257
 75
     1
175
     1
 42
1.0
 92
        0
 66
   257
 43
1.0
 76
     1
 77
     6
 78
     2
 67
     7
 79
     3
170
     0
171
     0
290
     0
174
     0
 93
        1
 44
0.0
173
     0
291
     0
 45
0.0
1001
ACAD
1000
AcDbSavedByObjectVersion
1070
     0
  0
VISUALSTYLE
  5
537
102
{ACAD_XDICTIONARY
360
E1D
102
}
102
{ACAD_REACTORS
330
14
102
}
330
14
100
AcDbVisualStyle
  2

 70
    25
 71
     2
 72
     2
 73
     1
 90
        1
 40
0.5
 41
-30.0
 62
     5
 63
     7
 74
     1
 91
        0
 64
     7
 65
   257
 75
     1
175
     1
 42
1.0
 92
        8
 66
     7
 43
1.0
 76
     1
 77
     6
 78
     2
 67
     7
 79
     3
170
     0
171
     0
290
     0
174
     0
 93
       13
 44
0.0
173
     0
291
     0
 45
0.0
1001
ACAD
1000
AcDbSavedByObjectVersion
1070
     0
  0
DICTIONARYVAR
  5
843
102
{ACAD_REACTORS
330
4F3
102
}
330
4F3
100
DictionaryVariables
280
     0
  1
1:1
  0
DICTIONARYVAR
  5
842
102
{ACAD_REACTORS
330
4F3
102
}
330
4F3
100
DictionaryVariables
280
     0
  1
STANDARD
  0
DICTIONARYVAR
  5
4F4
102
{ACAD_REACTORS
330
4F3
102
}
330
4F3
100
DictionaryVariables
280
     0
  1
STANDARD
  0
DICTIONARYVAR
  5
4FC
102
{ACAD_REACTORS
330
4F3
102
}
330
4F3
100
DictionaryVariables
280
     0
  1
1
  0
DICTIONARYVAR
  5
4FB
102
{ACAD_REACTORS
330
4F3
102
}
330
4F3
100
DictionaryVariables
280
     0
  1
0
  0
DICTIONARYVAR
  5
4FA
102
{ACAD_REACTORS
330
4F3
102
}
330
4F3
100
DictionaryVariables
280
     0
  1
127
  0
DICTIONARYVAR
  5
CBB
102
{ACAD_REACTORS
330
4F3
102
}
330
4F3
100
DictionaryVariables
280
     0
  1
2
  0
DICTIONARY
  5
E13
330
39
100
AcDbDictionary
280
     1
281
     1
  3
ACAD_XREC_ROUNDTRIP
360
E14
  0
DICTIONARY
  5
E11
330
35
100
AcDbDictionary
280
     1
281
     1
  3
ACAD_XREC_ROUNDTRIP
360
E12
  0
DICTIONARY
  5
500
330
12
100
AcDbDictionary
280
     1
281
     1
  3
ACAD_XREC_ROUNDTRIP
360
501
  0
DICTIONARY
  5
4FE
330
11
100
AcDbDictionary
280
     1
281
     1
  3
ACAD_XREC_ROUNDTRIP
360
4FF
  0
DICTIONARY
  5
502
330
13
100
AcDbDictionary
280
     1
281
     1
  3
ACAD_XREC_ROUNDTRIP
360
503
  0
DICTIONARY
  5
891
330
31
100
AcDbDictionary
280
     1
281
     1
  3
ACAD_ROUNDTRIP_2008_TABLESTYLE_CELLSTYLEMAP
360
DE9
  3
ACAD_XREC_ROUNDTRIP
360
E10
  0
DICTIONARY
  5
DFA
330
1A
100
AcDbDictionary
280
     1
281
     1
  3
ACAD_XREC_ROUNDTRIP
360
DFB
  0
DICTIONARY
  5
DFE
330
1C
100
AcDbDictionary
280
     1
281
     1
  3
ACAD_XREC_ROUNDTRIP
360
DFF
  0
DICTIONARY
  5
DFC
330
1B
100
AcDbDictionary
280
     1
281
     1
  3
ACAD_XREC_ROUNDTRIP
360
DFD
  0
DICTIONARY
  5
DF8
330
19
100
AcDbDictionary
280
     1
281
     1
  3
ACAD_XREC_ROUNDTRIP
360
DF9
  0
DICTIONARY
  5
E06
330
20
100
AcDbDictionary
280
     1
281
     1
  3
ACAD_XREC_ROUNDTRIP
360
E07
  0
DICTIONARY
  5
E0E
330
24
100
AcDbDictionary
280
     1
281
     1
  3
ACAD_XREC_ROUNDTRIP
360
E0F
  0
DICTIONARY
  5
E00
330
1D
100
AcDbDictionary
280
     1
281
     1
  3
ACAD_XREC_ROUNDTRIP
360
E01
  0
DICTIONARY
  5
E04
330
1F
100
AcDbDictionary
280
     1
281
     1
  3
ACAD_XREC_ROUNDTRIP
360
E05
  0
DICTIONARY
  5
E27
330
53C
100
AcDbDictionary
280
     1
281
     1
  3
ACAD_XREC_ROUNDTRIP
360
E28
  0
DICTIONARY
  5
E0C
330
23
100
AcDbDictionary
280
     1
281
     1
  3
ACAD_XREC_ROUNDTRIP
360
E0D
  0
DICTIONARY
  5
DF0
330
15
100
AcDbDictionary
280
     1
281
     1
  3
ACAD_XREC_ROUNDTRIP
360
DF1
  0
DICTIONARY
  5
DF2
330
16
100
AcDbDictionary
280
     1
281
     1
  3
ACAD_XREC_ROUNDTRIP
360
DF3
  0
DICTIONARY
  5
DF4
330
17
100
AcDbDictionary
280
     1
281
     1
  3
ACAD_XREC_ROUNDTRIP
360
DF5
  0
DICTIONARY
  5
DF6
330
18
100
AcDbDictionary
280
     1
281
     1
  3
ACAD_XREC_ROUNDTRIP
360
DF7
  0
DICTIONARY
  5
E17
330
534
100
AcDbDictionary
280
     1
281
     1
  3
ACAD_XREC_ROUNDTRIP
360
E18
  0
DICTIONARY
  5
E23
330
53A
100
AcDbDictionary
280
     1
281
     1
  3
ACAD_XREC_ROUNDTRIP
360
E24
  0
DICTIONARY
  5
E0A
330
22
100
AcDbDictionary
280
     1
281
     1
  3
ACAD_XREC_ROUNDTRIP
360
E0B
  0
DICTIONARY
  5
E25
330
53B
100
AcDbDictionary
280
     1
281
     1
  3
ACAD_XREC_ROUNDTRIP
360
E26
  0
DICTIONARY
  5
E02
330
1E
100
AcDbDictionary
280
     1
281
     1
  3
ACAD_XREC_ROUNDTRIP
360
E03
  0
DICTIONARY
  5
E21
330
539
100
AcDbDictionary
280
     1
281
     1
  3
ACAD_XREC_ROUNDTRIP
360
E22
  0
DICTIONARY
  5
E1F
330
538
100
AcDbDictionary
280
     1
281
     1
  3
ACAD_XREC_ROUNDTRIP
360
E20
  0
DICTIONARY
  5
E19
330
535
100
AcDbDictionary
280
     1
281
     1
  3
ACAD_XREC_ROUNDTRIP
360
E1A
  0
DICTIONARY
  5
E1B
330
536
100
AcDbDictionary
280
     1
281
     1
  3
ACAD_XREC_ROUNDTRIP
360
E1C
  0
DICTIONARY
  5
E08
330
21
100
AcDbDictionary
280
     1
281
     1
  3
ACAD_XREC_ROUNDTRIP
360
E09
  0
DICTIONARY
  5
E15
330
533
100
AcDbDictionary
280
     1
281
     1
  3
ACAD_XREC_ROUNDTRIP
360
E16
  0
DICTIONARY
  5
E1D
330
537
100
AcDbDictionary
280
     1
281
     1
  3
ACAD_XREC_ROUNDTRIP
360
E1E
  0
XRECORD
  5
E14
102
{ACAD_REACTORS
330
E13
102
}
330
E13
100
AcDbXrecord
280
     1
102
SHADEPLOT
 70
     0
102
SHADEPLOTRESLEVEL
 70
     2
102
SHADEPLOTCUSTOMDPI
 70
   300
  0
XRECORD
  5
E12
102
{ACAD_REACTORS
330
E11
102
}
330
E11
100
AcDbXrecord
280
     1
102
SHADEPLOT
 70
     0
102
SHADEPLOTRESLEVEL
 70
     2
102
SHADEPLOTCUSTOMDPI
 70
   300
  0
XRECORD
  5
501
102
{ACAD_REACTORS
330
500
102
}
330
500
100
AcDbXrecord
280
     1
102
MATERIAL
148
0.0
149
0.0
149
0.0
 93
        0
 94
      127
282
     0
 72
     1
 77
     1
171
     1
175
     1
179
     1
273
     0
  0
XRECORD
  5
4FF
102
{ACAD_REACTORS
330
4FE
102
}
330
4FE
100
AcDbXrecord
280
     1
102
MATERIAL
148
0.0
149
0.0
149
0.0
 93
        0
 94
      127
282
     0
 72
     1
 77
     1
171
     1
175
     1
179
     1
273
     0
  0
XRECORD
  5
503
102
{ACAD_REACTORS
330
502
102
}
330
502
100
AcDbXrecord
280
     1
102
MATERIAL
148
0.0
149
0.0
149
0.0
 93
        0
 94
      127
282
     0
 72
     1
 77
     1
171
     1
175
     1
179
     1
273
     0
  0
CELLSTYLEMAP
  5
DE9
102
{ACAD_REACTORS
330
891
102
}
330
891
100
AcDbCellStyleMap
 90
        3
300
CELLSTYLE
  1
TABLEFORMAT_BEGIN
 90
        5
170
     1
 91
        0
 92
    32768
 62
   257
 93
        1
300
CONTENTFORMAT
  1
CONTENTFORMAT_BEGIN
 90
        0
 91
        0
 92
      512
 93
        0
300

 40
0.0
140
1.0
 94
        5
 62
     0
340
26
144
0.25
309
CONTENTFORMAT_END
171
     1
301
MARGIN
  1
CELLMARGIN_BEGIN
 40
0.06
 40
0.06
 40
0.06
 40
0.06
 40
0.18
 40
0.18
309
CELLMARGIN_END
 94
        6
 95
        1
302
GRIDFORMAT
  1
GRIDFORMAT_BEGIN
 90
        0
 91
        1
 62
     0
 92
       -2
340
0
 93
        0
 40
0.045
309
GRIDFORMAT_END
 95
        2
302
GRIDFORMAT
  1
GRIDFORMAT_BEGIN
 90
        0
 91
        1
 62
     0
 92
       -2
340
0
 93
        0
 40
0.045
309
GRIDFORMAT_END
 95
        4
302
GRIDFORMAT
  1
GRIDFORMAT_BEGIN
 90
        0
 91
        1
 62
     0
 92
       -2
340
0
 93
        0
 40
0.045
309
GRIDFORMAT_END
 95
        8
302
GRIDFORMAT
  1
GRIDFORMAT_BEGIN
 90
        0
 91
        1
 62
     0
 92
       -2
340
0
 93
        0
 40
0.045
309
GRIDFORMAT_END
 95
       16
302
GRIDFORMAT
  1
GRIDFORMAT_BEGIN
 90
        0
 91
        1
 62
     0
 92
       -2
340
0
 93
        0
 40
0.045
309
GRIDFORMAT_END
 95
       32
302
GRIDFORMAT
  1
GRIDFORMAT_BEGIN
 90
        0
 91
        1
 62
     0
 92
       -2
340
0
 93
        0
 40
0.045
309
GRIDFORMAT_END
309
TABLEFORMAT_END
  1
CELLSTYLE_BEGIN
 90
        1
 91
        1
300
_TITLE
309
CELLSTYLE_END
300
CELLSTYLE
  1
TABLEFORMAT_BEGIN
 90
        5
170
     1
 91
        0
 92
        0
 62
   257
 93
        1
300
CONTENTFORMAT
  1
CONTENTFORMAT_BEGIN
 90
        0
 91
        0
 92
      512
 93
        0
300

 40
0.0
140
1.0
 94
        5
 62
     0
340
26
144
0.18
309
CONTENTFORMAT_END
171
     1
301
MARGIN
  1
CELLMARGIN_BEGIN
 40
0.06
 40
0.06
 40
0.06
 40
0.06
 40
0.18
 40
0.18
309
CELLMARGIN_END
 94
        6
 95
        1
302
GRIDFORMAT
  1
GRIDFORMAT_BEGIN
 90
        0
 91
        1
 62
     0
 92
       -2
340
0
 93
        0
 40
0.045
309
GRIDFORMAT_END
 95
        2
302
GRIDFORMAT
  1
GRIDFORMAT_BEGIN
 90
        0
 91
        1
 62
     0
 92
       -2
340
0
 93
        0
 40
0.045
309
GRIDFORMAT_END
 95
        4
302
GRIDFORMAT
  1
GRIDFORMAT_BEGIN
 90
        0
 91
        1
 62
     0
 92
       -2
340
0
 93
        0
 40
0.045
309
GRIDFORMAT_END
 95
        8
302
GRIDFORMAT
  1
GRIDFORMAT_BEGIN
 90
        0
 91
        1
 62
     0
 92
       -2
340
0
 93
        0
 40
0.045
309
GRIDFORMAT_END
 95
       16
302
GRIDFORMAT
  1
GRIDFORMAT_BEGIN
 90
        0
 91
        1
 62
     0
 92
       -2
340
0
 93
        0
 40
0.045
309
GRIDFORMAT_END
 95
       32
302
GRIDFORMAT
  1
GRIDFORMAT_BEGIN
 90
        0
 91
        1
 62
     0
 92
       -2
340
0
 93
        0
 40
0.045
309
GRIDFORMAT_END
309
TABLEFORMAT_END
  1
CELLSTYLE_BEGIN
 90
        2
 91
        1
300
_HEADER
309
CELLSTYLE_END
300
CELLSTYLE
  1
TABLEFORMAT_BEGIN
 90
        5
170
     1
 91
        0
 92
        0
 62
   257
 93
        1
300
CONTENTFORMAT
  1
CONTENTFORMAT_BEGIN
 90
        0
 91
        0
 92
      512
 93
        0
300

 40
0.0
140
1.0
 94
        2
 62
     0
340
26
144
0.18
309
CONTENTFORMAT_END
171
     1
301
MARGIN
  1
CELLMARGIN_BEGIN
 40
0.06
 40
0.06
 40
0.06
 40
0.06
 40
0.18
 40
0.18
309
CELLMARGIN_END
 94
        6
 95
        1
302
GRIDFORMAT
  1
GRIDFORMAT_BEGIN
 90
        0
 91
        1
 62
     0
 92
       -2
340
0
 93
        0
 40
0.045
309
GRIDFORMAT_END
 95
        2
302
GRIDFORMAT
  1
GRIDFORMAT_BEGIN
 90
        0
 91
        1
 62
     0
 92
       -2
340
0
 93
        0
 40
0.045
309
GRIDFORMAT_END
 95
        4
302
GRIDFORMAT
  1
GRIDFORMAT_BEGIN
 90
        0
 91
        1
 62
     0
 92
       -2
340
0
 93
        0
 40
0.045
309
GRIDFORMAT_END
 95
        8
302
GRIDFORMAT
  1
GRIDFORMAT_BEGIN
 90
        0
 91
        1
 62
     0
 92
       -2
340
0
 93
        0
 40
0.045
309
GRIDFORMAT_END
 95
       16
302
GRIDFORMAT
  1
GRIDFORMAT_BEGIN
 90
        0
 91
        1
 62
     0
 92
       -2
340
0
 93
        0
 40
0.045
309
GRIDFORMAT_END
 95
       32
302
GRIDFORMAT
  1
GRIDFORMAT_BEGIN
 90
        0
 91
        1
 62
     0
 92
       -2
340
0
 93
        0
 40
0.045
309
GRIDFORMAT_END
309
TABLEFORMAT_END
  1
CELLSTYLE_BEGIN
 90
        3
 91
        2
300
_DATA
309
CELLSTYLE_END
  0
XRECORD
  5
E10
102
{ACAD_REACTORS
330
891
102
}
330
891
100
AcDbXrecord
280
     1
102
ACAD_ROUNDTRIP_PRE2007_TABLESTYLE
 90
      512
 91
        0
  1

 92
      512
 93
        0
  2

 94
      512
 95
        0
  3

  0
XRECORD
  5
DFB
102
{ACAD_REACTORS
330
DFA
102
}
330
DFA
100
AcDbXrecord
280
     1
102
RTVSPropertyOp0
 70
     1
102
RTVSPropertyOp1
 70
     1
102
RTVSPropertyOp2
 70
     1
102
RTVSPropertyOp3
 70
     1
102
RTVSPropertyOp4
 70
     1
102
RTVSPropertyOp5
 70
     1
102
RTVSPropertyOp6
 70
     1
102
RTVSPropertyOp7
 70
     1
102
RTVSPropertyOp8
 70
     1
102
RTVSPropertyOp9
 70
     1
102
RTVSPropertyOp10
 70
     1
102
RTVSPropertyOp11
 70
     1
102
RTVSPropertyOp12
 70
     1
102
RTVSPropertyOp13
 70
     1
102
RTVSPropertyOp14
 70
     1
102
RTVSPropertyOp15
 70
     1
102
RTVSPropertyOp16
 70
     1
102
RTVSPropertyOp17
 70
     1
102
RTVSPropertyOp18
 70
     1
102
RTVSPropertyOp19
 70
     1
102
RTVSPropertyOp20
 70
     1
102
RTVSPropertyOp21
 70
     1
102
RTVSPropertyOp22
 70
     1
102
RTVSPropertyOp23
 70
     1
102
RTVSPropertyOp24
 70
     1
102
RTVSPropertyOp25
 70
     1
102
RTVSPropertyOp26
 70
     1
102
RTVSPropertyOp27
 70
     1
102
RTVSPropertyOp28
 70
     1
102
RTVSPropertyOp29
 70
     1
102
RTVSPropertyOp30
 70
     1
102
RTVSPropertyOp31
 70
     1
102
RTVSPropertyOp32
 70
     1
  0
XRECORD
  5
DFF
102
{ACAD_REACTORS
330
DFE
102
}
330
DFE
100
AcDbXrecord
280
     1
102
RTVSPropertyOp0
 70
     1
102
RTVSPropertyOp1
 70
     1
102
RTVSPropertyOp2
 70
     1
102
RTVSPropertyOp3
 70
     1
102
RTVSPropertyOp4
 70
     1
102
RTVSPropertyOp5
 70
     1
102
RTVSPropertyOp6
 70
     1
102
RTVSPropertyOp7
 70
     1
102
RTVSPropertyOp8
 70
     1
102
RTVSPropertyOp9
 70
     1
102
RTVSPropertyOp10
 70
     1
102
RTVSPropertyOp11
 70
     1
102
RTVSPropertyOp12
 70
     1
102
RTVSPropertyOp13
 70
     1
102
RTVSPropertyOp14
 70
     1
102
RTVSPropertyOp15
 70
     1
102
RTVSPropertyOp16
 70
     1
102
RTVSPropertyOp17
 70
     1
102
RTVSPropertyOp18
 70
     1
102
RTVSPropertyOp19
 70
     1
102
RTVSPropertyOp20
 70
     1
102
RTVSPropertyOp21
 70
     1
102
RTVSPropertyOp22
 70
     1
102
RTVSPropertyOp23
 70
     1
102
RTVSPropertyOp24
 70
     1
102
RTVSPropertyOp25
 70
     1
102
RTVSPropertyOp26
 70
     1
102
RTVSPropertyOp27
 70
     1
102
RTVSPropertyOp28
 70
     1
102
RTVSPropertyOp29
 70
     1
102
RTVSPropertyOp30
 70
     1
102
RTVSPropertyOp31
 70
     1
102
RTVSPropertyOp32
 70
     1
  0
XRECORD
  5
DFD
102
{ACAD_REACTORS
330
DFC
102
}
330
DFC
100
AcDbXrecord
280
     1
102
RTVSPropertyOp0
 70
     1
102
RTVSPropertyOp1
 70
     1
102
RTVSPropertyOp2
 70
     1
102
RTVSPropertyOp3
 70
     1
102
RTVSPropertyOp4
 70
     1
102
RTVSPropertyOp5
 70
     1
102
RTVSPropertyOp6
 70
     1
102
RTVSPropertyOp7
 70
     1
102
RTVSPropertyOp8
 70
     1
102
RTVSPropertyOp9
 70
     1
102
RTVSPropertyOp10
 70
     1
102
RTVSPropertyOp11
 70
     1
102
RTVSPropertyOp12
 70
     1
102
RTVSPropertyOp13
 70
     1
102
RTVSPropertyOp14
 70
     1
102
RTVSPropertyOp15
 70
     1
102
RTVSPropertyOp16
 70
     1
102
RTVSPropertyOp17
 70
     1
102
RTVSPropertyOp18
 70
     1
102
RTVSPropertyOp19
 70
     1
102
RTVSPropertyOp20
 70
     1
102
RTVSPropertyOp21
 70
     1
102
RTVSPropertyOp22
 70
     1
102
RTVSPropertyOp23
 70
     1
102
RTVSPropertyOp24
 70
     1
102
RTVSPropertyOp25
 70
     1
102
RTVSPropertyOp26
 70
     1
102
RTVSPropertyOp27
 70
     1
102
RTVSPropertyOp28
 70
     1
102
RTVSPropertyOp29
 70
     1
102
RTVSPropertyOp30
 70
     1
102
RTVSPropertyOp31
 70
     1
102
RTVSPropertyOp32
 70
     1
  0
XRECORD
  5
DF9
102
{ACAD_REACTORS
330
DF8
102
}
330
DF8
100
AcDbXrecord
280
     1
102
RTVSPropertyOp0
 70
     1
102
RTVSPropertyOp1
 70
     1
102
RTVSPropertyOp2
 70
     1
102
RTVSPropertyOp3
 70
     1
102
RTVSPropertyOp4
 70
     1
102
RTVSPropertyOp5
 70
     1
102
RTVSPropertyOp6
 70
     1
102
RTVSPropertyOp7
 70
     1
102
RTVSPropertyOp8
 70
     1
102
RTVSPropertyOp9
 70
     1
102
RTVSPropertyOp10
 70
     1
102
RTVSPropertyOp11
 70
     1
102
RTVSPropertyOp12
 70
     1
102
RTVSPropertyOp13
 70
     1
102
RTVSPropertyOp14
 70
     1
102
RTVSPropertyOp15
 70
     1
102
RTVSPropertyOp16
 70
     1
102
RTVSPropertyOp17
 70
     1
102
RTVSPropertyOp18
 70
     1
102
RTVSPropertyOp19
 70
     1
102
RTVSPropertyOp20
 70
     1
102
RTVSPropertyOp21
 70
     1
102
RTVSPropertyOp22
 70
     1
102
RTVSPropertyOp23
 70
     1
102
RTVSPropertyOp24
 70
     1
102
RTVSPropertyOp25
 70
     1
102
RTVSPropertyOp26
 70
     1
102
RTVSPropertyOp27
 70
     1
102
RTVSPropertyOp28
 70
     1
102
RTVSPropertyOp29
 70
     1
102
RTVSPropertyOp30
 70
     1
102
RTVSPropertyOp31
 70
     1
102
RTVSPropertyOp32
 70
     1
  0
XRECORD
  5
E07
102
{ACAD_REACTORS
330
E06
102
}
330
E06
100
AcDbXrecord
280
     1
102
RTVSPropertyOp0
 70
     1
102
RTVSPropertyOp1
 70
     1
102
RTVSPropertyOp2
 70
     1
102
RTVSPropertyOp3
 70
     1
102
RTVSPropertyOp4
 70
     1
102
RTVSPropertyOp5
 70
     1
102
RTVSPropertyOp6
 70
     1
102
RTVSPropertyOp7
 70
     1
102
RTVSPropertyOp8
 70
     1
102
RTVSPropertyOp9
 70
     1
102
RTVSPropertyOp10
 70
     1
102
RTVSPropertyOp11
 70
     1
102
RTVSPropertyOp12
 70
     1
102
RTVSPropertyOp13
 70
     1
102
RTVSPropertyOp14
 70
     1
102
RTVSPropertyOp15
 70
     1
102
RTVSPropertyOp16
 70
     1
102
RTVSPropertyOp17
 70
     1
102
RTVSPropertyOp18
 70
     1
102
RTVSPropertyOp19
 70
     1
102
RTVSPropertyOp20
 70
     1
102
RTVSPropertyOp21
 70
     1
102
RTVSPropertyOp22
 70
     1
102
RTVSPropertyOp23
 70
     1
102
RTVSPropertyOp24
 70
     1
102
RTVSPropertyOp25
 70
     1
102
RTVSPropertyOp26
 70
     1
102
RTVSPropertyOp27
 70
     1
102
RTVSPropertyOp28
 70
     1
102
RTVSPropertyOp29
 70
     1
102
RTVSPropertyOp30
 70
     1
102
RTVSPropertyOp31
 70
     1
102
RTVSPropertyOp32
 70
     1
  0
XRECORD
  5
E0F
102
{ACAD_REACTORS
330
E0E
102
}
330
E0E
100
AcDbXrecord
280
     1
102
RTVSPropertyOp0
 70
     1
102
RTVSPropertyOp1
 70
     1
102
RTVSPropertyOp2
 70
     1
102
RTVSPropertyOp3
 70
     1
102
RTVSPropertyOp4
 70
     1
102
RTVSPropertyOp5
 70
     1
102
RTVSPropertyOp6
 70
     1
102
RTVSPropertyOp7
 70
     1
102
RTVSPropertyOp8
 70
     1
102
RTVSPropertyOp9
 70
     1
102
RTVSPropertyOp10
 70
     1
102
RTVSPropertyOp11
 70
     1
102
RTVSPropertyOp12
 70
     1
102
RTVSPropertyOp13
 70
     1
102
RTVSPropertyOp14
 70
     1
102
RTVSPropertyOp15
 70
     1
102
RTVSPropertyOp16
 70
     1
102
RTVSPropertyOp17
 70
     1
102
RTVSPropertyOp18
 70
     1
102
RTVSPropertyOp19
 70
     1
102
RTVSPropertyOp20
 70
     1
102
RTVSPropertyOp21
 70
     1
102
RTVSPropertyOp22
 70
     1
102
RTVSPropertyOp23
 70
     1
102
RTVSPropertyOp24
 70
     1
102
RTVSPropertyOp25
 70
     1
102
RTVSPropertyOp26
 70
     1
102
RTVSPropertyOp27
 70
     1
102
RTVSPropertyOp28
 70
     1
102
RTVSPropertyOp29
 70
     1
102
RTVSPropertyOp30
 70
     1
102
RTVSPropertyOp31
 70
     1
102
RTVSPropertyOp32
 70
     1
  0
XRECORD
  5
E01
102
{ACAD_REACTORS
330
E00
102
}
330
E00
100
AcDbXrecord
280
     1
102
RTVSPropertyOp0
 70
     1
102
RTVSPropertyOp1
 70
     1
102
RTVSPropertyOp2
 70
     1
102
RTVSPropertyOp3
 70
     1
102
RTVSPropertyOp4
 70
     1
102
RTVSPropertyOp5
 70
     1
102
RTVSPropertyOp6
 70
     1
102
RTVSPropertyOp7
 70
     1
102
RTVSPropertyOp8
 70
     1
102
RTVSPropertyOp9
 70
     1
102
RTVSPropertyOp10
 70
     1
102
RTVSPropertyOp11
 70
     1
102
RTVSPropertyOp12
 70
     1
102
RTVSPropertyOp13
 70
     1
102
RTVSPropertyOp14
 70
     1
102
RTVSPropertyOp15
 70
     1
102
RTVSPropertyOp16
 70
     1
102
RTVSPropertyOp17
 70
     1
102
RTVSPropertyOp18
 70
     1
102
RTVSPropertyOp19
 70
     1
102
RTVSPropertyOp20
 70
     1
102
RTVSPropertyOp21
 70
     1
102
RTVSPropertyOp22
 70
     1
102
RTVSPropertyOp23
 70
     1
102
RTVSPropertyOp24
 70
     1
102
RTVSPropertyOp25
 70
     1
102
RTVSPropertyOp26
 70
     1
102
RTVSPropertyOp27
 70
     1
102
RTVSPropertyOp28
 70
     1
102
RTVSPropertyOp29
 70
     1
102
RTVSPropertyOp30
 70
     1
102
RTVSPropertyOp31
 70
     1
102
RTVSPropertyOp32
 70
     1
  0
XRECORD
  5
E05
102
{ACAD_REACTORS
330
E04
102
}
330
E04
100
AcDbXrecord
280
     1
102
RTVSPropertyOp0
 70
     1
102
RTVSPropertyOp1
 70
     1
102
RTVSPropertyOp2
 70
     1
102
RTVSPropertyOp3
 70
     1
102
RTVSPropertyOp4
 70
     1
102
RTVSPropertyOp5
 70
     1
102
RTVSPropertyOp6
 70
     1
102
RTVSPropertyOp7
 70
     1
102
RTVSPropertyOp8
 70
     1
102
RTVSPropertyOp9
 70
     1
102
RTVSPropertyOp10
 70
     1
102
RTVSPropertyOp11
 70
     1
102
RTVSPropertyOp12
 70
     1
102
RTVSPropertyOp13
 70
     1
102
RTVSPropertyOp14
 70
     1
102
RTVSPropertyOp15
 70
     1
102
RTVSPropertyOp16
 70
     1
102
RTVSPropertyOp17
 70
     1
102
RTVSPropertyOp18
 70
     1
102
RTVSPropertyOp19
 70
     1
102
RTVSPropertyOp20
 70
     1
102
RTVSPropertyOp21
 70
     1
102
RTVSPropertyOp22
 70
     1
102
RTVSPropertyOp23
 70
     1
102
RTVSPropertyOp24
 70
     1
102
RTVSPropertyOp25
 70
     1
102
RTVSPropertyOp26
 70
     1
102
RTVSPropertyOp27
 70
     1
102
RTVSPropertyOp28
 70
     1
102
RTVSPropertyOp29
 70
     1
102
RTVSPropertyOp30
 70
     1
102
RTVSPropertyOp31
 70
     1
102
RTVSPropertyOp32
 70
     1
  0
XRECORD
  5
E28
102
{ACAD_REACTORS
330
E27
102
}
330
E27
100
AcDbXrecord
280
     1
102
RTVSPropertyOp0
 70
     0
102
RTVSPropertyOp1
 70
     0
102
RTVSPropertyOp2
 70
     0
102
RTVSPropertyOp3
 70
     0
102
RTVSPropertyOp4
 70
     0
102
RTVSPropertyOp5
 70
     0
102
RTVSPropertyOp6
 70
     0
102
RTVSPropertyOp7
 70
     0
102
RTVSPropertyOp8
 70
     0
102
RTVSPropertyOp9
 70
     0
102
RTVSPropertyOp10
 70
     0
102
RTVSPropertyOp11
 70
     0
102
RTVSPropertyOp12
 70
     0
102
RTVSPropertyOp13
 70
     0
102
RTVSPropertyOp14
 70
     2
102
RTVSPropertyOp15
 70
     0
102
RTVSPropertyOp16
 70
     0
102
RTVSPropertyOp17
 70
     0
102
RTVSPropertyOp18
 70
     0
102
RTVSPropertyOp19
 70
     0
102
RTVSPropertyOp20
 70
     0
102
RTVSPropertyOp21
 70
     0
102
RTVSPropertyOp22
 70
     0
102
RTVSPropertyOp23
 70
     0
102
RTVSPropertyOp24
 70
     0
102
RTVSPropertyOp25
 70
     0
102
RTVSPropertyOp26
 70
     0
102
RTVSPropertyOp27
 70
     0
102
RTVSPropertyOp28
 70
     0
102
RTVSPropertyOp29
 70
     0
102
RTVSPropertyOp30
 70
     0
102
RTVSPropertyOp31
 70
     0
102
RTVSPropertyOp32
 70
     0
  0
XRECORD
  5
E0D
102
{ACAD_REACTORS
330
E0C
102
}
330
E0C
100
AcDbXrecord
280
     1
102
RTVSPropertyOp0
 70
     1
102
RTVSPropertyOp1
 70
     1
102
RTVSPropertyOp2
 70
     1
102
RTVSPropertyOp3
 70
     1
102
RTVSPropertyOp4
 70
     1
102
RTVSPropertyOp5
 70
     1
102
RTVSPropertyOp6
 70
     1
102
RTVSPropertyOp7
 70
     1
102
RTVSPropertyOp8
 70
     1
102
RTVSPropertyOp9
 70
     1
102
RTVSPropertyOp10
 70
     1
102
RTVSPropertyOp11
 70
     1
102
RTVSPropertyOp12
 70
     1
102
RTVSPropertyOp13
 70
     1
102
RTVSPropertyOp14
 70
     1
102
RTVSPropertyOp15
 70
     1
102
RTVSPropertyOp16
 70
     1
102
RTVSPropertyOp17
 70
     1
102
RTVSPropertyOp18
 70
     1
102
RTVSPropertyOp19
 70
     1
102
RTVSPropertyOp20
 70
     1
102
RTVSPropertyOp21
 70
     1
102
RTVSPropertyOp22
 70
     1
102
RTVSPropertyOp23
 70
     1
102
RTVSPropertyOp24
 70
     1
102
RTVSPropertyOp25
 70
     1
102
RTVSPropertyOp26
 70
     1
102
RTVSPropertyOp27
 70
     1
102
RTVSPropertyOp28
 70
     1
102
RTVSPropertyOp29
 70
     1
102
RTVSPropertyOp30
 70
     1
102
RTVSPropertyOp31
 70
     1
102
RTVSPropertyOp32
 70
     1
  0
XRECORD
  5
DF1
102
{ACAD_REACTORS
330
DF0
102
}
330
DF0
100
AcDbXrecord
280
     1
102
RTVSPropertyOp0
 70
     1
102
RTVSPropertyOp1
 70
     1
102
RTVSPropertyOp2
 70
     1
102
RTVSPropertyOp3
 70
     1
102
RTVSPropertyOp4
 70
     1
102
RTVSPropertyOp5
 70
     1
102
RTVSPropertyOp6
 70
     1
102
RTVSPropertyOp7
 70
     1
102
RTVSPropertyOp8
 70
     1
102
RTVSPropertyOp9
 70
     1
102
RTVSPropertyOp10
 70
     1
102
RTVSPropertyOp11
 70
     1
102
RTVSPropertyOp12
 70
     1
102
RTVSPropertyOp13
 70
     1
102
RTVSPropertyOp14
 70
     1
102
RTVSPropertyOp15
 70
     1
102
RTVSPropertyOp16
 70
     1
102
RTVSPropertyOp17
 70
     1
102
RTVSPropertyOp18
 70
     1
102
RTVSPropertyOp19
 70
     1
102
RTVSPropertyOp20
 70
     1
102
RTVSPropertyOp21
 70
     1
102
RTVSPropertyOp22
 70
     1
102
RTVSPropertyOp23
 70
     1
102
RTVSPropertyOp24
 70
     1
102
RTVSPropertyOp25
 70
     1
102
RTVSPropertyOp26
 70
     1
102
RTVSPropertyOp27
 70
     1
102
RTVSPropertyOp28
 70
     1
102
RTVSPropertyOp29
 70
     1
102
RTVSPropertyOp30
 70
     1
102
RTVSPropertyOp31
 70
     1
102
RTVSPropertyOp32
 70
     1
  0
XRECORD
  5
DF3
102
{ACAD_REACTORS
330
DF2
102
}
330
DF2
100
AcDbXrecord
280
     1
102
RTVSPropertyOp0
 70
     1
102
RTVSPropertyOp1
 70
     1
102
RTVSPropertyOp2
 70
     1
102
RTVSPropertyOp3
 70
     1
102
RTVSPropertyOp4
 70
     1
102
RTVSPropertyOp5
 70
     1
102
RTVSPropertyOp6
 70
     1
102
RTVSPropertyOp7
 70
     1
102
RTVSPropertyOp8
 70
     1
102
RTVSPropertyOp9
 70
     1
102
RTVSPropertyOp10
 70
     1
102
RTVSPropertyOp11
 70
     1
102
RTVSPropertyOp12
 70
     1
102
RTVSPropertyOp13
 70
     1
102
RTVSPropertyOp14
 70
     1
102
RTVSPropertyOp15
 70
     1
102
RTVSPropertyOp16
 70
     1
102
RTVSPropertyOp17
 70
     1
102
RTVSPropertyOp18
 70
     1
102
RTVSPropertyOp19
 70
     1
102
RTVSPropertyOp20
 70
     1
102
RTVSPropertyOp21
 70
     1
102
RTVSPropertyOp22
 70
     1
102
RTVSPropertyOp23
 70
     1
102
RTVSPropertyOp24
 70
     1
102
RTVSPropertyOp25
 70
     1
102
RTVSPropertyOp26
 70
     1
102
RTVSPropertyOp27
 70
     1
102
RTVSPropertyOp28
 70
     1
102
RTVSPropertyOp29
 70
     1
102
RTVSPropertyOp30
 70
     1
102
RTVSPropertyOp31
 70
     1
102
RTVSPropertyOp32
 70
     1
  0
XRECORD
  5
DF5
102
{ACAD_REACTORS
330
DF4
102
}
330
DF4
100
AcDbXrecord
280
     1
102
RTVSPropertyOp0
 70
     1
102
RTVSPropertyOp1
 70
     1
102
RTVSPropertyOp2
 70
     1
102
RTVSPropertyOp3
 70
     1
102
RTVSPropertyOp4
 70
     1
102
RTVSPropertyOp5
 70
     1
102
RTVSPropertyOp6
 70
     1
102
RTVSPropertyOp7
 70
     1
102
RTVSPropertyOp8
 70
     1
102
RTVSPropertyOp9
 70
     1
102
RTVSPropertyOp10
 70
     1
102
RTVSPropertyOp11
 70
     1
102
RTVSPropertyOp12
 70
     1
102
RTVSPropertyOp13
 70
     1
102
RTVSPropertyOp14
 70
     1
102
RTVSPropertyOp15
 70
     1
102
RTVSPropertyOp16
 70
     1
102
RTVSPropertyOp17
 70
     1
102
RTVSPropertyOp18
 70
     1
102
RTVSPropertyOp19
 70
     1
102
RTVSPropertyOp20
 70
     1
102
RTVSPropertyOp21
 70
     1
102
RTVSPropertyOp22
 70
     1
102
RTVSPropertyOp23
 70
     1
102
RTVSPropertyOp24
 70
     1
102
RTVSPropertyOp25
 70
     1
102
RTVSPropertyOp26
 70
     1
102
RTVSPropertyOp27
 70
     1
102
RTVSPropertyOp28
 70
     1
102
RTVSPropertyOp29
 70
     1
102
RTVSPropertyOp30
 70
     1
102
RTVSPropertyOp31
 70
     1
102
RTVSPropertyOp32
 70
     1
  0
XRECORD
  5
DF7
102
{ACAD_REACTORS
330
DF6
102
}
330
DF6
100
AcDbXrecord
280
     1
102
RTVSPropertyOp0
 70
     1
102
RTVSPropertyOp1
 70
     1
102
RTVSPropertyOp2
 70
     1
102
RTVSPropertyOp3
 70
     1
102
RTVSPropertyOp4
 70
     1
102
RTVSPropertyOp5
 70
     1
102
RTVSPropertyOp6
 70
     1
102
RTVSPropertyOp7
 70
     1
102
RTVSPropertyOp8
 70
     1
102
RTVSPropertyOp9
 70
     1
102
RTVSPropertyOp10
 70
     1
102
RTVSPropertyOp11
 70
     1
102
RTVSPropertyOp12
 70
     1
102
RTVSPropertyOp13
 70
     1
102
RTVSPropertyOp14
 70
     1
102
RTVSPropertyOp15
 70
     1
102
RTVSPropertyOp16
 70
     1
102
RTVSPropertyOp17
 70
     1
102
RTVSPropertyOp18
 70
     1
102
RTVSPropertyOp19
 70
     1
102
RTVSPropertyOp20
 70
     1
102
RTVSPropertyOp21
 70
     1
102
RTVSPropertyOp22
 70
     1
102
RTVSPropertyOp23
 70
     1
102
RTVSPropertyOp24
 70
     1
102
RTVSPropertyOp25
 70
     1
102
RTVSPropertyOp26
 70
     1
102
RTVSPropertyOp27
 70
     1
102
RTVSPropertyOp28
 70
     1
102
RTVSPropertyOp29
 70
     1
102
RTVSPropertyOp30
 70
     1
102
RTVSPropertyOp31
 70
     1
102
RTVSPropertyOp32
 70
     1
  0
XRECORD
  5
E18
102
{ACAD_REACTORS
330
E17
102
}
330
E17
100
AcDbXrecord
280
     1
102
RTVSPropertyOp0
 70
     1
102
RTVSPropertyOp1
 70
     1
102
RTVSPropertyOp2
 70
     1
102
RTVSPropertyOp3
 70
     1
102
RTVSPropertyOp4
 70
     1
102
RTVSPropertyOp5
 70
     1
102
RTVSPropertyOp6
 70
     1
102
RTVSPropertyOp7
 70
     1
102
RTVSPropertyOp8
 70
     1
102
RTVSPropertyOp9
 70
     1
102
RTVSPropertyOp10
 70
     1
102
RTVSPropertyOp11
 70
     1
102
RTVSPropertyOp12
 70
     1
102
RTVSPropertyOp13
 70
     1
102
RTVSPropertyOp14
 70
     1
102
RTVSPropertyOp15
 70
     1
102
RTVSPropertyOp16
 70
     1
102
RTVSPropertyOp17
 70
     1
102
RTVSPropertyOp18
 70
     1
102
RTVSPropertyOp19
 70
     1
102
RTVSPropertyOp20
 70
     1
102
RTVSPropertyOp21
 70
     1
102
RTVSPropertyOp22
 70
     1
102
RTVSPropertyOp23
 70
     1
102
RTVSPropertyOp24
 70
     1
102
RTVSPropertyOp25
 70
     1
102
RTVSPropertyOp26
 70
     1
102
RTVSPropertyOp27
 70
     1
102
RTVSPropertyOp28
 70
     1
102
RTVSPropertyOp29
 70
     1
102
RTVSPropertyOp30
 70
     1
102
RTVSPropertyOp31
 70
     1
102
RTVSPropertyOp32
 70
     1
  0
XRECORD
  5
E24
102
{ACAD_REACTORS
330
E23
102
}
330
E23
100
AcDbXrecord
280
     1
102
RTVSPropertyOp0
 70
     0
102
RTVSPropertyOp1
 70
     0
102
RTVSPropertyOp2
 70
     0
102
RTVSPropertyOp3
 70
     0
102
RTVSPropertyOp4
 70
     0
102
RTVSPropertyOp5
 70
     0
102
RTVSPropertyOp6
 70
     0
102
RTVSPropertyOp7
 70
     0
102
RTVSPropertyOp8
 70
     0
102
RTVSPropertyOp9
 70
     0
102
RTVSPropertyOp10
 70
     0
102
RTVSPropertyOp11
 70
     0
102
RTVSPropertyOp12
 70
     0
102
RTVSPropertyOp13
 70
     0
102
RTVSPropertyOp14
 70
     2
102
RTVSPropertyOp15
 70
     0
102
RTVSPropertyOp16
 70
     0
102
RTVSPropertyOp17
 70
     0
102
RTVSPropertyOp18
 70
     0
102
RTVSPropertyOp19
 70
     0
102
RTVSPropertyOp20
 70
     0
102
RTVSPropertyOp21
 70
     0
102
RTVSPropertyOp22
 70
     0
102
RTVSPropertyOp23
 70
     0
102
RTVSPropertyOp24
 70
     0
102
RTVSPropertyOp25
 70
     0
102
RTVSPropertyOp26
 70
     0
102
RTVSPropertyOp27
 70
     0
102
RTVSPropertyOp28
 70
     0
102
RTVSPropertyOp29
 70
     0
102
RTVSPropertyOp30
 70
     0
102
RTVSPropertyOp31
 70
     0
102
RTVSPropertyOp32
 70
     0
  0
XRECORD
  5
E0B
102
{ACAD_REACTORS
330
E0A
102
}
330
E0A
100
AcDbXrecord
280
     1
102
RTVSPropertyOp0
 70
     1
102
RTVSPropertyOp1
 70
     1
102
RTVSPropertyOp2
 70
     1
102
RTVSPropertyOp3
 70
     1
102
RTVSPropertyOp4
 70
     1
102
RTVSPropertyOp5
 70
     1
102
RTVSPropertyOp6
 70
     1
102
RTVSPropertyOp7
 70
     1
102
RTVSPropertyOp8
 70
     1
102
RTVSPropertyOp9
 70
     1
102
RTVSPropertyOp10
 70
     1
102
RTVSPropertyOp11
 70
     1
102
RTVSPropertyOp12
 70
     1
102
RTVSPropertyOp13
 70
     1
102
RTVSPropertyOp14
 70
     1
102
RTVSPropertyOp15
 70
     1
102
RTVSPropertyOp16
 70
     1
102
RTVSPropertyOp17
 70
     1
102
RTVSPropertyOp18
 70
     1
102
RTVSPropertyOp19
 70
     1
102
RTVSPropertyOp20
 70
     1
102
RTVSPropertyOp21
 70
     1
102
RTVSPropertyOp22
 70
     1
102
RTVSPropertyOp23
 70
     1
102
RTVSPropertyOp24
 70
     1
102
RTVSPropertyOp25
 70
     1
102
RTVSPropertyOp26
 70
     1
102
RTVSPropertyOp27
 70
     1
102
RTVSPropertyOp28
 70
     1
102
RTVSPropertyOp29
 70
     1
102
RTVSPropertyOp30
 70
     1
102
RTVSPropertyOp31
 70
     1
102
RTVSPropertyOp32
 70
     1
  0
XRECORD
  5
E26
102
{ACAD_REACTORS
330
E25
102
}
330
E25
100
AcDbXrecord
280
     1
102
RTVSPropertyOp0
 70
     0
102
RTVSPropertyOp1
 70
     0
102
RTVSPropertyOp2
 70
     0
102
RTVSPropertyOp3
 70
     0
102
RTVSPropertyOp4
 70
     0
102
RTVSPropertyOp5
 70
     0
102
RTVSPropertyOp6
 70
     0
102
RTVSPropertyOp7
 70
     0
102
RTVSPropertyOp8
 70
     0
102
RTVSPropertyOp9
 70
     0
102
RTVSPropertyOp10
 70
     0
102
RTVSPropertyOp11
 70
     0
102
RTVSPropertyOp12
 70
     0
102
RTVSPropertyOp13
 70
     0
102
RTVSPropertyOp14
 70
     2
102
RTVSPropertyOp15
 70
     0
102
RTVSPropertyOp16
 70
     0
102
RTVSPropertyOp17
 70
     0
102
RTVSPropertyOp18
 70
     0
102
RTVSPropertyOp19
 70
     0
102
RTVSPropertyOp20
 70
     0
102
RTVSPropertyOp21
 70
     0
102
RTVSPropertyOp22
 70
     0
102
RTVSPropertyOp23
 70
     0
102
RTVSPropertyOp24
 70
     0
102
RTVSPropertyOp25
 70
     0
102
RTVSPropertyOp26
 70
     0
102
RTVSPropertyOp27
 70
     0
102
RTVSPropertyOp28
 70
     0
102
RTVSPropertyOp29
 70
     0
102
RTVSPropertyOp30
 70
     0
102
RTVSPropertyOp31
 70
     0
102
RTVSPropertyOp32
 70
     0
  0
XRECORD
  5
E03
102
{ACAD_REACTORS
330
E02
102
}
330
E02
100
AcDbXrecord
280
     1
102
RTVSPropertyOp0
 70
     1
102
RTVSPropertyOp1
 70
     1
102
RTVSPropertyOp2
 70
     1
102
RTVSPropertyOp3
 70
     1
102
RTVSPropertyOp4
 70
     1
102
RTVSPropertyOp5
 70
     1
102
RTVSPropertyOp6
 70
     1
102
RTVSPropertyOp7
 70
     1
102
RTVSPropertyOp8
 70
     1
102
RTVSPropertyOp9
 70
     1
102
RTVSPropertyOp10
 70
     1
102
RTVSPropertyOp11
 70
     1
102
RTVSPropertyOp12
 70
     1
102
RTVSPropertyOp13
 70
     1
102
RTVSPropertyOp14
 70
     1
102
RTVSPropertyOp15
 70
     1
102
RTVSPropertyOp16
 70
     1
102
RTVSPropertyOp17
 70
     1
102
RTVSPropertyOp18
 70
     1
102
RTVSPropertyOp19
 70
     1
102
RTVSPropertyOp20
 70
     1
102
RTVSPropertyOp21
 70
     1
102
RTVSPropertyOp22
 70
     1
102
RTVSPropertyOp23
 70
     1
102
RTVSPropertyOp24
 70
     1
102
RTVSPropertyOp25
 70
     1
102
RTVSPropertyOp26
 70
     1
102
RTVSPropertyOp27
 70
     1
102
RTVSPropertyOp28
 70
     1
102
RTVSPropertyOp29
 70
     1
102
RTVSPropertyOp30
 70
     1
102
RTVSPropertyOp31
 70
     1
102
RTVSPropertyOp32
 70
     1
  0
XRECORD
  5
E22
102
{ACAD_REACTORS
330
E21
102
}
330
E21
100
AcDbXrecord
280
     1
102
RTVSPropertyOp0
 70
     1
102
RTVSPropertyOp1
 70
     1
102
RTVSPropertyOp2
 70
     1
102
RTVSPropertyOp3
 70
     1
102
RTVSPropertyOp4
 70
     1
102
RTVSPropertyOp5
 70
     1
102
RTVSPropertyOp6
 70
     1
102
RTVSPropertyOp7
 70
     1
102
RTVSPropertyOp8
 70
     1
102
RTVSPropertyOp9
 70
     1
102
RTVSPropertyOp10
 70
     1
102
RTVSPropertyOp11
 70
     1
102
RTVSPropertyOp12
 70
     1
102
RTVSPropertyOp13
 70
     1
102
RTVSPropertyOp14
 70
     1
102
RTVSPropertyOp15
 70
     1
102
RTVSPropertyOp16
 70
     1
102
RTVSPropertyOp17
 70
     1
102
RTVSPropertyOp18
 70
     1
102
RTVSPropertyOp19
 70
     1
102
RTVSPropertyOp20
 70
     1
102
RTVSPropertyOp21
 70
     1
102
RTVSPropertyOp22
 70
     1
102
RTVSPropertyOp23
 70
     1
102
RTVSPropertyOp24
 70
     1
102
RTVSPropertyOp25
 70
     1
102
RTVSPropertyOp26
 70
     1
102
RTVSPropertyOp27
 70
     1
102
RTVSPropertyOp28
 70
     1
102
RTVSPropertyOp29
 70
     1
102
RTVSPropertyOp30
 70
     1
102
RTVSPropertyOp31
 70
     1
102
RTVSPropertyOp32
 70
     1
  0
XRECORD
  5
E20
102
{ACAD_REACTORS
330
E1F
102
}
330
E1F
100
AcDbXrecord
280
     1
102
RTVSPropertyOp0
 70
     1
102
RTVSPropertyOp1
 70
     1
102
RTVSPropertyOp2
 70
     1
102
RTVSPropertyOp3
 70
     1
102
RTVSPropertyOp4
 70
     1
102
RTVSPropertyOp5
 70
     1
102
RTVSPropertyOp6
 70
     1
102
RTVSPropertyOp7
 70
     1
102
RTVSPropertyOp8
 70
     1
102
RTVSPropertyOp9
 70
     1
102
RTVSPropertyOp10
 70
     1
102
RTVSPropertyOp11
 70
     1
102
RTVSPropertyOp12
 70
     1
102
RTVSPropertyOp13
 70
     1
102
RTVSPropertyOp14
 70
     1
102
RTVSPropertyOp15
 70
     1
102
RTVSPropertyOp16
 70
     1
102
RTVSPropertyOp17
 70
     1
102
RTVSPropertyOp18
 70
     1
102
RTVSPropertyOp19
 70
     1
102
RTVSPropertyOp20
 70
     1
102
RTVSPropertyOp21
 70
     1
102
RTVSPropertyOp22
 70
     1
102
RTVSPropertyOp23
 70
     1
102
RTVSPropertyOp24
 70
     1
102
RTVSPropertyOp25
 70
     1
102
RTVSPropertyOp26
 70
     1
102
RTVSPropertyOp27
 70
     1
102
RTVSPropertyOp28
 70
     1
102
RTVSPropertyOp29
 70
     1
102
RTVSPropertyOp30
 70
     1
102
RTVSPropertyOp31
 70
     1
102
RTVSPropertyOp32
 70
     1
  0
XRECORD
  5
E1A
102
{ACAD_REACTORS
330
E19
102
}
330
E19
100
AcDbXrecord
280
     1
102
RTVSPropertyOp0
 70
     1
102
RTVSPropertyOp1
 70
     1
102
RTVSPropertyOp2
 70
     1
102
RTVSPropertyOp3
 70
     1
102
RTVSPropertyOp4
 70
     1
102
RTVSPropertyOp5
 70
     1
102
RTVSPropertyOp6
 70
     1
102
RTVSPropertyOp7
 70
     1
102
RTVSPropertyOp8
 70
     1
102
RTVSPropertyOp9
 70
     1
102
RTVSPropertyOp10
 70
     1
102
RTVSPropertyOp11
 70
     1
102
RTVSPropertyOp12
 70
     1
102
RTVSPropertyOp13
 70
     1
102
RTVSPropertyOp14
 70
     1
102
RTVSPropertyOp15
 70
     1
102
RTVSPropertyOp16
 70
     1
102
RTVSPropertyOp17
 70
     1
102
RTVSPropertyOp18
 70
     1
102
RTVSPropertyOp19
 70
     1
102
RTVSPropertyOp20
 70
     1
102
RTVSPropertyOp21
 70
     1
102
RTVSPropertyOp22
 70
     1
102
RTVSPropertyOp23
 70
     1
102
RTVSPropertyOp24
 70
     1
102
RTVSPropertyOp25
 70
     1
102
RTVSPropertyOp26
 70
     1
102
RTVSPropertyOp27
 70
     1
102
RTVSPropertyOp28
 70
     1
102
RTVSPropertyOp29
 70
     1
102
RTVSPropertyOp30
 70
     1
102
RTVSPropertyOp31
 70
     1
102
RTVSPropertyOp32
 70
     1
  0
XRECORD
  5
E1C
102
{ACAD_REACTORS
330
E1B
102
}
330
E1B
100
AcDbXrecord
280
     1
102
RTVSPropertyOp0
 70
     1
102
RTVSPropertyOp1
 70
     1
102
RTVSPropertyOp2
 70
     1
102
RTVSPropertyOp3
 70
     1
102
RTVSPropertyOp4
 70
     1
102
RTVSPropertyOp5
 70
     1
102
RTVSPropertyOp6
 70
     1
102
RTVSPropertyOp7
 70
     1
102
RTVSPropertyOp8
 70
     1
102
RTVSPropertyOp9
 70
     1
102
RTVSPropertyOp10
 70
     1
102
RTVSPropertyOp11
 70
     1
102
RTVSPropertyOp12
 70
     1
102
RTVSPropertyOp13
 70
     1
102
RTVSPropertyOp14
 70
     1
102
RTVSPropertyOp15
 70
     1
102
RTVSPropertyOp16
 70
     1
102
RTVSPropertyOp17
 70
     1
102
RTVSPropertyOp18
 70
     1
102
RTVSPropertyOp19
 70
     1
102
RTVSPropertyOp20
 70
     1
102
RTVSPropertyOp21
 70
     1
102
RTVSPropertyOp22
 70
     1
102
RTVSPropertyOp23
 70
     1
102
RTVSPropertyOp24
 70
     1
102
RTVSPropertyOp25
 70
     1
102
RTVSPropertyOp26
 70
     1
102
RTVSPropertyOp27
 70
     1
102
RTVSPropertyOp28
 70
     1
102
RTVSPropertyOp29
 70
     1
102
RTVSPropertyOp30
 70
     1
102
RTVSPropertyOp31
 70
     1
102
RTVSPropertyOp32
 70
     1
  0
XRECORD
  5
E09
102
{ACAD_REACTORS
330
E08
102
}
330
E08
100
AcDbXrecord
280
     1
102
RTVSPropertyOp0
 70
     1
102
RTVSPropertyOp1
 70
     1
102
RTVSPropertyOp2
 70
     1
102
RTVSPropertyOp3
 70
     1
102
RTVSPropertyOp4
 70
     1
102
RTVSPropertyOp5
 70
     1
102
RTVSPropertyOp6
 70
     1
102
RTVSPropertyOp7
 70
     1
102
RTVSPropertyOp8
 70
     1
102
RTVSPropertyOp9
 70
     1
102
RTVSPropertyOp10
 70
     1
102
RTVSPropertyOp11
 70
     1
102
RTVSPropertyOp12
 70
     1
102
RTVSPropertyOp13
 70
     1
102
RTVSPropertyOp14
 70
     1
102
RTVSPropertyOp15
 70
     1
102
RTVSPropertyOp16
 70
     1
102
RTVSPropertyOp17
 70
     1
102
RTVSPropertyOp18
 70
     1
102
RTVSPropertyOp19
 70
     1
102
RTVSPropertyOp20
 70
     1
102
RTVSPropertyOp21
 70
     1
102
RTVSPropertyOp22
 70
     1
102
RTVSPropertyOp23
 70
     1
102
RTVSPropertyOp24
 70
     1
102
RTVSPropertyOp25
 70
     1
102
RTVSPropertyOp26
 70
     1
102
RTVSPropertyOp27
 70
     1
102
RTVSPropertyOp28
 70
     1
102
RTVSPropertyOp29
 70
     1
102
RTVSPropertyOp30
 70
     1
102
RTVSPropertyOp31
 70
     1
102
RTVSPropertyOp32
 70
     1
  0
XRECORD
  5
E16
102
{ACAD_REACTORS
330
E15
102
}
330
E15
100
AcDbXrecord
280
     1
102
RTVSPropertyOp0
 70
     1
102
RTVSPropertyOp1
 70
     1
102
RTVSPropertyOp2
 70
     1
102
RTVSPropertyOp3
 70
     1
102
RTVSPropertyOp4
 70
     1
102
RTVSPropertyOp5
 70
     1
102
RTVSPropertyOp6
 70
     1
102
RTVSPropertyOp7
 70
     1
102
RTVSPropertyOp8
 70
     1
102
RTVSPropertyOp9
 70
     1
102
RTVSPropertyOp10
 70
     1
102
RTVSPropertyOp11
 70
     1
102
RTVSPropertyOp12
 70
     1
102
RTVSPropertyOp13
 70
     1
102
RTVSPropertyOp14
 70
     1
102
RTVSPropertyOp15
 70
     1
102
RTVSPropertyOp16
 70
     1
102
RTVSPropertyOp17
 70
     1
102
RTVSPropertyOp18
 70
     1
102
RTVSPropertyOp19
 70
     1
102
RTVSPropertyOp20
 70
     1
102
RTVSPropertyOp21
 70
     1
102
RTVSPropertyOp22
 70
     1
102
RTVSPropertyOp23
 70
     1
102
RTVSPropertyOp24
 70
     1
102
RTVSPropertyOp25
 70
     1
102
RTVSPropertyOp26
 70
     1
102
RTVSPropertyOp27
 70
     1
102
RTVSPropertyOp28
 70
     1
102
RTVSPropertyOp29
 70
     1
102
RTVSPropertyOp30
 70
     1
102
RTVSPropertyOp31
 70
     1
102
RTVSPropertyOp32
 70
     1
  0
XRECORD
  5
E1E
102
{ACAD_REACTORS
330
E1D
102
}
330
E1D
100
AcDbXrecord
280
     1
102
RTVSPropertyOp0
 70
     1
102
RTVSPropertyOp1
 70
     1
102
RTVSPropertyOp2
 70
     1
102
RTVSPropertyOp3
 70
     1
102
RTVSPropertyOp4
 70
     1
102
RTVSPropertyOp5
 70
     1
102
RTVSPropertyOp6
 70
     1
102
RTVSPropertyOp7
 70
     1
102
RTVSPropertyOp8
 70
     1
102
RTVSPropertyOp9
 70
     1
102
RTVSPropertyOp10
 70
     1
102
RTVSPropertyOp11
 70
     1
102
RTVSPropertyOp12
 70
     1
102
RTVSPropertyOp13
 70
     1
102
RTVSPropertyOp14
 70
     1
102
RTVSPropertyOp15
 70
     1
102
RTVSPropertyOp16
 70
     1
102
RTVSPropertyOp17
 70
     1
102
RTVSPropertyOp18
 70
     1
102
RTVSPropertyOp19
 70
     1
102
RTVSPropertyOp20
 70
     1
102
RTVSPropertyOp21
 70
     1
102
RTVSPropertyOp22
 70
     1
102
RTVSPropertyOp23
 70
     1
102
RTVSPropertyOp24
 70
     1
102
RTVSPropertyOp25
 70
     1
102
RTVSPropertyOp26
 70
     1
102
RTVSPropertyOp27
 70
     1
102
RTVSPropertyOp28
 70
     1
102
RTVSPropertyOp29
 70
     1
102
RTVSPropertyOp30
 70
     1
102
RTVSPropertyOp31
 70
     1
102
RTVSPropertyOp32
 70
     1
  0
ENDSEC
  0
EOF
