  0
SECTION
  2
HEADER
  9
$ACADVER
  1
AC1021
  9
$ACADMAINTVER
 70
     1
  9
$DWGCODEPAGE
  3
ANSI_932
  9
$LASTSAVEDBY
  1
MAKITA
  9
$INSBASE
 10
0.0
 20
0.0
 30
0.0
  9
$EXTMIN
 10
148.6557107556132
 20
-1398.09841437855
 30
-0.0000000349181948
  9
$EXTMAX
 10
553.767330377213
 20
-1124.007333850022
 30
0.0000000814935747
  9
$LIMMIN
 10
-358.610863
 20
-1379.091454
  9
$LIMMAX
 10
46.96925
 20
-1105.034034
  9
$ORTHOMODE
 70
     0
  9
$REGENMODE
 70
     1
  9
$FILLMODE
 70
     1
  9
$QTEXTMODE
 70
     0
  9
$MIRRTEXT
 70
     0
  9
$LTSCALE
 40
6.759635
  9
$ATTMODE
 70
     1
  9
$TEXTSIZE
 40
3.2
  9
$TRACEWID
 40
0.05
  9
$TEXTSTYLE
  7
高3.2
  9
$CLAYER
  8
0
  9
$CELTYPE
  6
CONTINUOUS
  9
$CECOLOR
 62
   256
  9
$CELTSCALE
 40
1.0
  9
$DISPSILH
 70
     0
  9
$DIMSCALE
 40
1.0
  9
$DIMASZ
 40
2.5
  9
$DIMEXO
 40
0.25
  9
$DIMDLI
 40
0.2
  9
$DIMRND
 40
0.0
  9
$DIMDLE
 40
0.0
  9
$DIMEXE
 40
1.25
  9
$DIMTP
 40
0.0
  9
$DIMTM
 40
0.0
  9
$DIMTXT
 40
2.5
  9
$DIMCEN
 40
0.0
  9
$DIMTSZ
 40
0.0
  9
$DIMTOL
 70
     0
  9
$DIMLIM
 70
     0
  9
$DIMTIH
 70
     0
  9
$DIMTOH
 70
     0
  9
$DIMSE1
 70
     0
  9
$DIMSE2
 70
     0
  9
$DIMTAD
 70
     3
  9
$DIMZIN
 70
     8
  9
$DIMBLK
  1
Open30
  9
$DIMASO
 70
     1
  9
$DIMSHO
 70
     1
  9
$DIMPOST
  1

  9
$DIMAPOST
  1

  9
$DIMALT
 70
     0
  9
$DIMALTD
 70
     3
  9
$DIMALTF
 40
0.03937007874016
  9
$DIMLFAC
 40
1.0
  9
$DIMTOFL
 70
     1
  9
$DIMTVP
 40
0.0
  9
$DIMTIX
 70
     0
  9
$DIMSOXD
 70
     0
  9
$DIMSAH
 70
     0
  9
$DIMBLK1
  1

  9
$DIMBLK2
  1

  9
$DIMSTYLE
  2
1：1
  9
$DIMCLRD
 70
     0
  9
$DIMCLRE
 70
     0
  9
$DIMCLRT
 70
     4
  9
$DIMTFAC
 40
1.0
  9
$DIMGAP
 40
0.625
  9
$DIMJUST
 70
     0
  9
$DIMSD1
 70
     0
  9
$DIMSD2
 70
     0
  9
$DIMTOLJ
 70
     0
  9
$DIMTZIN
 70
     8
  9
$DIMALTZ
 70
     0
  9
$DIMALTTZ
 70
     0
  9
$DIMUPT
 70
     1
  9
$DIMDEC
 70
     2
  9
$DIMTDEC
 70
     2
  9
$DIMALTU
 70
     2
  9
$DIMALTTD
 70
     3
  9
$DIMTXSTY
  7
STANDARD
  9
$DIMAUNIT
 70
     0
  9
$DIMADEC
 70
     1
  9
$DIMALTRND
 40
0.0
  9
$DIMAZIN
 70
     2
  9
$DIMDSEP
 70
    46
  9
$DIMATFIT
 70
     0
  9
$DIMFRAC
 70
     0
  9
$DIMLDRBLK
  1
Open30
  9
$DIMLUNIT
 70
     2
  9
$DIMLWD
 70
    -2
  9
$DIMLWE
 70
    -2
  9
$DIMTMOVE
 70
     0
  9
$DIMFXL
 40
1.25
  9
$DIMFXLON
 70
     0
  9
$DIMJOGANG
 40
1.570796326794896
  9
$DIMTFILL
 70
     0
  9
$DIMTFILLCLR
 70
     0
  9
$DIMARCSYM
 70
     2
  9
$DIMLTYPE
  6

  9
$DIMLTEX1
  6

  9
$DIMLTEX2
  6

  9
$LUNITS
 70
     2
  9
$LUPREC
 70
     4
  9
$SKETCHINC
 40
0.1
  9
$FILLETRAD
 40
0.0
  9
$AUNITS
 70
     0
  9
$AUPREC
 70
     0
  9
$MENU
  1
.
  9
$ELEVATION
 40
0.0
  9
$PELEVATION
 40
0.0
  9
$THICKNESS
 40
0.0
  9
$LIMCHECK
 70
     0
  9
$CHAMFERA
 40
0.0
  9
$CHAMFERB
 40
0.0
  9
$CHAMFERC
 40
0.0
  9
$CHAMFERD
 40
0.0
  9
$SKPOLY
 70
     0
  9
$TDCREATE
 40
2455548.622828044
  9
$TDUCREATE
 40
2455548.247828044
  9
$TDUPDATE
 40
2457484.459365243
  9
$TDUUPDATE
 40
2457484.084365243
  9
$TDINDWG
 40
0.1007442245
  9
$TDUSRTIMER
 40
0.1007081134
  9
$USRTIMER
 70
     1
  9
$ANGBASE
 50
0.0
  9
$ANGDIR
 70
     0
  9
$PDMODE
 70
     0
  9
$PDSIZE
 40
0.0
  9
$PLINEWID
 40
0.0
  9
$SPLFRAME
 70
     0
  9
$SPLINETYPE
 70
     6
  9
$SPLINESEGS
 70
     8
  9
$HANDSEED
  5
1543
  9
$SURFTAB1
 70
     6
  9
$SURFTAB2
 70
     6
  9
$SURFTYPE
 70
     6
  9
$SURFU
 70
     6
  9
$SURFV
 70
     6
  9
$UCSBASE
  2

  9
$UCSNAME
  2

  9
$UCSORG
 10
0.0
 20
0.0
 30
0.0
  9
$UCSXDIR
 10
1.0
 20
0.0
 30
0.0
  9
$UCSYDIR
 10
0.0
 20
1.0
 30
0.0
  9
$UCSORTHOREF
  2

  9
$UCSORTHOVIEW
 70
     0
  9
$UCSORGTOP
 10
0.0
 20
0.0
 30
0.0
  9
$UCSORGBOTTOM
 10
0.0
 20
0.0
 30
0.0
  9
$UCSORGLEFT
 10
0.0
 20
0.0
 30
0.0
  9
$UCSORGRIGHT
 10
0.0
 20
0.0
 30
0.0
  9
$UCSORGFRONT
 10
0.0
 20
0.0
 30
0.0
  9
$UCSORGBACK
 10
0.0
 20
0.0
 30
0.0
  9
$PUCSBASE
  2

  9
$PUCSNAME
  2

  9
$PUCSORG
 10
0.0
 20
0.0
 30
0.0
  9
$PUCSXDIR
 10
1.0
 20
0.0
 30
0.0
  9
$PUCSYDIR
 10
0.0
 20
1.0
 30
0.0
  9
$PUCSORTHOREF
  2

  9
$PUCSORTHOVIEW
 70
     0
  9
$PUCSORGTOP
 10
0.0
 20
0.0
 30
0.0
  9
$PUCSORGBOTTOM
 10
0.0
 20
0.0
 30
0.0
  9
$PUCSORGLEFT
 10
0.0
 20
0.0
 30
0.0
  9
$PUCSORGRIGHT
 10
0.0
 20
0.0
 30
0.0
  9
$PUCSORGFRONT
 10
0.0
 20
0.0
 30
0.0
  9
$PUCSORGBACK
 10
0.0
 20
0.0
 30
0.0
  9
$USERI1
 70
     0
  9
$USERI2
 70
     0
  9
$USERI3
 70
     0
  9
$USERI4
 70
     0
  9
$USERI5
 70
     0
  9
$USERR1
 40
0.0
  9
$USERR2
 40
0.0
  9
$USERR3
 40
0.0
  9
$USERR4
 40
0.0
  9
$USERR5
 40
0.0
  9
$WORLDVIEW
 70
     1
  9
$SHADEDGE
 70
     3
  9
$SHADEDIF
 70
    70
  9
$TILEMODE
 70
     1
  9
$MAXACTVP
 70
    64
  9
$PINSBASE
 10
0.0
 20
0.0
 30
0.0
  9
$PLIMCHECK
 70
     0
  9
$PEXTMIN
 10
1.000000000000000E+20
 20
1.000000000000000E+20
 30
1.000000000000000E+20
  9
$PEXTMAX
 10
-1.000000000000000E+20
 20
-1.000000000000000E+20
 30
-1.000000000000000E+20
  9
$PLIMMIN
 10
0.0
 20
0.0
  9
$PLIMMAX
 10
12.0
 20
9.0
  9
$UNITMODE
 70
     0
  9
$VISRETAIN
 70
     1
  9
$PLINEGEN
 70
     0
  9
$PSLTSCALE
 70
     1
  9
$TREEDEPTH
 70
  3020
  9
$CMLSTYLE
  2
Standard
  9
$CMLJUST
 70
     0
  9
$CMLSCALE
 40
1.0
  9
$PROXYGRAPHICS
 70
     1
  9
$MEASUREMENT
 70
     0
  9
$CELWEIGHT
370
    -1
  9
$ENDCAPS
280
     0
  9
$JOINSTYLE
280
     0
  9
$LWDISPLAY
290
     0
  9
$INSUNITS
 70
     0
  9
$HYPERLINKBASE
  1

  9
$STYLESHEET
  1
N-PLOT.CTB
  9
$XEDIT
290
     1
  9
$CEPSNTYPE
380
     0
  9
$PSTYLEMODE
290
     1
  9
$FINGERPRINTGUID
  2
{764A4274-83F3-4BC6-9D0C-59EF96EC8BD7}
  9
$VERSIONGUID
  2
{75957356-44EF-4F93-9EFB-E09B44B4B93A}
  9
$EXTNAMES
290
     1
  9
$PSVPSCALE
 40
0.0
  9
$OLESTARTUP
290
     0
  9
$SORTENTS
280
   127
  9
$INDEXCTL
280
     0
  9
$HIDETEXT
280
     0
  9
$XCLIPFRAME
290
     0
  9
$HALOGAP
280
     0
  9
$OBSCOLOR
 70
   257
  9
$OBSLTYPE
280
     0
  9
$INTERSECTIONDISPLAY
280
     0
  9
$INTERSECTIONCOLOR
 70
   257
  9
$DIMASSOC
280
     1
  9
$PROJECTNAME
  1

  9
$CAMERADISPLAY
290
     0
  9
$LENSLENGTH
 40
50.0
  9
$CAMERAHEIGHT
 40
0.0
  9
$STEPSPERSEC
 40
2.0
  9
$STEPSIZE
 40
6.0
  9
$3DDWFPREC
 40
2.0
  9
$PSOLWIDTH
 40
0.25
  9
$PSOLHEIGHT
 40
4.0
  9
$LOFTANG1
 40
1.570796326794896
  9
$LOFTANG2
 40
1.570796326794896
  9
$LOFTMAG1
 40
0.0
  9
$LOFTMAG2
 40
0.0
  9
$LOFTPARAM
 70
     7
  9
$LOFTNORMALS
280
     1
  9
$LATITUDE
 40
37.795
  9
$LONGITUDE
 40
-122.394
  9
$NORTHDIRECTION
 40
0.0
  9
$TIMEZONE
 70
 -8000
  9
$LIGHTGLYPHDISPLAY
280
     1
  9
$TILEMODELIGHTSYNCH
280
     1
  9
$CMATERIAL
347
11
  9
$SOLIDHIST
280
     1
  9
$SHOWHIST
280
     1
  9
$DWFFRAME
280
     2
  9
$DGNFRAME
280
     0
  9
$REALWORLDSCALE
290
     1
  9
$INTERFERECOLOR
 62
     1
  9
$INTERFEREOBJVS
345
1E
  9
$INTERFEREVPVS
346
1B
  9
$CSHADOW
280
     0
  9
$SHADOWPLANELOCATION
 40
0.0
  0
ENDSEC
  0
SECTION
  2
CLASSES
  0
CLASS
  1
ACDBDICTIONARYWDFLT
  2
AcDbDictionaryWithDefault
  3
ObjectDBX Classes
 90
        0
 91
        1
280
     0
281
     0
  0
CLASS
  1
MATERIAL
  2
AcDbMaterial
  3
ObjectDBX Classes
 90
     1024
 91
        3
280
     0
281
     0
  0
CLASS
  1
VISUALSTYLE
  2
AcDbVisualStyle
  3
ObjectDBX Classes
 90
     4095
 91
       16
280
     0
281
     0
  0
CLASS
  1
TABLESTYLE
  2
AcDbTableStyle
  3
ObjectDBX Classes
 90
     4095
 91
        1
280
     0
281
     0
  0
CLASS
  1
DICTIONARYVAR
  2
AcDbDictionaryVar
  3
ObjectDBX Classes
 90
        0
 91
        4
280
     0
281
     0
  0
CLASS
  1
SORTENTSTABLE
  2
AcDbSortentsTable
  3
ObjectDBX Classes
 90
        0
 91
        1
280
     0
281
     0
  0
ENDSEC
  0
SECTION
  2
TABLES
  0
TABLE
  2
VPORT
  5
8
330
0
100
AcDbSymbolTable
 70
     1
  0
VPORT
  5
56
330
8
100
AcDbSymbolTableRecord
100
AcDbViewportTableRecord
  2
*Active
 70
     0
 10
0.0
 20
0.0
 11
1.0
 21
1.0
 12
351.2115205664131
 22
-1261.052874114286
 13
0.0
 23
0.0
 14
1.0
 24
1.0
 15
0.0
 25
0.0
 16
0.0
 26
0.0
 36
1.0
 17
0.0
 27
0.0
 37
0.0
 40
276.2838091727561
 41
1.495327102803738
 42
50.0
 43
0.0
 44
0.0
 50
0.0
 51
0.0
 71
     0
 72
  1000
 73
     1
 74
     1
 75
     0
 76
     0
 77
     0
 78
     0
281
     0
 65
     1
110
0.0
120
0.0
130
0.0
111
1.0
121
0.0
131
0.0
112
0.0
122
1.0
132
0.0
 79
     0
146
0.0
348
1A
 60
     3
 61
     5
292
     1
282
     1
141
0.0
142
0.0
 63
   250
421
  3355443
  0
ENDTAB
  0
TABLE
  2
LTYPE
  5
5
330
0
100
AcDbSymbolTable
 70
    25
  0
LTYPE
  5
28
330
5
100
AcDbSymbolTableRecord
100
AcDbLinetypeTableRecord
  2
ByBlock
 70
     0
  3

 72
    65
 73
     0
 40
0.0
  0
LTYPE
  5
29
330
5
100
AcDbSymbolTableRecord
100
AcDbLinetypeTableRecord
  2
ByLayer
 70
     0
  3

 72
    65
 73
     0
 40
0.0
  0
LTYPE
  5
2A
330
5
100
AcDbSymbolTableRecord
100
AcDbLinetypeTableRecord
  2
CONTINUOUS
 70
     0
  3
Solid-line
 72
    65
 73
     0
 40
0.0
  0
LTYPE
  5
3A
330
5
100
AcDbSymbolTableRecord
100
AcDbLinetypeTableRecord
  2
BORDER
 70
     0
  3
BORDER
 72
    65
 73
     6
 40
1.75
 49
0.5
 74
     0
 49
-0.25
 74
     0
 49
0.5
 74
     0
 49
-0.25
 74
     0
 49
0.0
 74
     0
 49
-0.25
 74
     0
  0
LTYPE
  5
3B
330
5
100
AcDbSymbolTableRecord
100
AcDbLinetypeTableRecord
  2
BORDER2
 70
     0
  3
BORDER2
 72
    65
 73
     6
 40
0.875
 49
0.25
 74
     0
 49
-0.125
 74
     0
 49
0.25
 74
     0
 49
-0.125
 74
     0
 49
0.0
 74
     0
 49
-0.125
 74
     0
  0
LTYPE
  5
3C
330
5
100
AcDbSymbolTableRecord
100
AcDbLinetypeTableRecord
  2
BORDERX2
 70
     0
  3
BORDERX2
 72
    65
 73
     6
 40
3.5
 49
1.0
 74
     0
 49
-0.5
 74
     0
 49
1.0
 74
     0
 49
-0.5
 74
     0
 49
0.0
 74
     0
 49
-0.5
 74
     0
  0
LTYPE
  5
3D
330
5
100
AcDbSymbolTableRecord
100
AcDbLinetypeTableRecord
  2
CENTER
 70
     0
  3
CENTER
 72
    65
 73
     4
 40
2.0
 49
1.25
 74
     0
 49
-0.25
 74
     0
 49
0.25
 74
     0
 49
-0.25
 74
     0
  0
LTYPE
  5
3E
330
5
100
AcDbSymbolTableRecord
100
AcDbLinetypeTableRecord
  2
CENTER2
 70
     0
  3
CENTER2
 72
    65
 73
     4
 40
1.125
 49
0.75
 74
     0
 49
-0.125
 74
     0
 49
0.125
 74
     0
 49
-0.125
 74
     0
  0
LTYPE
  5
3F
330
5
100
AcDbSymbolTableRecord
100
AcDbLinetypeTableRecord
  2
CENTERX2
 70
     0
  3
CENTERX2
 72
    65
 73
     4
 40
4.0
 49
2.5
 74
     0
 49
-0.5
 74
     0
 49
0.5
 74
     0
 49
-0.5
 74
     0
  0
LTYPE
  5
40
330
5
100
AcDbSymbolTableRecord
100
AcDbLinetypeTableRecord
  2
DASHDOT
 70
     0
  3
DASHDOT
 72
    65
 73
     4
 40
1.0
 49
0.5
 74
     0
 49
-0.25
 74
     0
 49
0.0
 74
     0
 49
-0.25
 74
     0
  0
LTYPE
  5
41
330
5
100
AcDbSymbolTableRecord
100
AcDbLinetypeTableRecord
  2
DASHDOT2
 70
     0
  3
DASHDOT2
 72
    65
 73
     4
 40
0.5
 49
0.25
 74
     0
 49
-0.125
 74
     0
 49
0.0
 74
     0
 49
-0.125
 74
     0
  0
LTYPE
  5
42
330
5
100
AcDbSymbolTableRecord
100
AcDbLinetypeTableRecord
  2
DASHDOTX2
 70
     0
  3
DASHDOTX2
 72
    65
 73
     4
 40
2.0
 49
1.0
 74
     0
 49
-0.5
 74
     0
 49
0.0
 74
     0
 49
-0.5
 74
     0
  0
LTYPE
  5
43
330
5
100
AcDbSymbolTableRecord
100
AcDbLinetypeTableRecord
  2
DASHED
 70
     0
  3
DASHED
 72
    65
 73
     2
 40
0.75
 49
0.5
 74
     0
 49
-0.25
 74
     0
  0
LTYPE
  5
44
330
5
100
AcDbSymbolTableRecord
100
AcDbLinetypeTableRecord
  2
DASHED2
 70
     0
  3
DASHED2
 72
    65
 73
     2
 40
0.375
 49
0.25
 74
     0
 49
-0.125
 74
     0
  0
LTYPE
  5
45
330
5
100
AcDbSymbolTableRecord
100
AcDbLinetypeTableRecord
  2
DASHEDX2
 70
     0
  3
DASHEDX2
 72
    65
 73
     2
 40
1.5
 49
1.0
 74
     0
 49
-0.5
 74
     0
  0
LTYPE
  5
46
330
5
100
AcDbSymbolTableRecord
100
AcDbLinetypeTableRecord
  2
DIVIDE
 70
     0
  3
DIVIDE
 72
    65
 73
     6
 40
1.25
 49
0.5
 74
     0
 49
-0.25
 74
     0
 49
0.0
 74
     0
 49
-0.25
 74
     0
 49
0.0
 74
     0
 49
-0.25
 74
     0
  0
LTYPE
  5
47
330
5
100
AcDbSymbolTableRecord
100
AcDbLinetypeTableRecord
  2
DIVIDE2
 70
     0
  3
DIVIDE2
 72
    65
 73
     6
 40
0.625
 49
0.25
 74
     0
 49
-0.125
 74
     0
 49
0.0
 74
     0
 49
-0.125
 74
     0
 49
0.0
 74
     0
 49
-0.125
 74
     0
  0
LTYPE
  5
48
330
5
100
AcDbSymbolTableRecord
100
AcDbLinetypeTableRecord
  2
DIVIDEX2
 70
     0
  3
DIVIDEX2
 72
    65
 73
     6
 40
2.5
 49
1.0
 74
     0
 49
-0.5
 74
     0
 49
0.0
 74
     0
 49
-0.5
 74
     0
 49
0.0
 74
     0
 49
-0.5
 74
     0
  0
LTYPE
  5
49
330
5
100
AcDbSymbolTableRecord
100
AcDbLinetypeTableRecord
  2
DOT
 70
     0
  3
DOT
 72
    65
 73
     2
 40
0.25
 49
0.0
 74
     0
 49
-0.25
 74
     0
  0
LTYPE
  5
4A
330
5
100
AcDbSymbolTableRecord
100
AcDbLinetypeTableRecord
  2
DOT2
 70
     0
  3
DOT2
 72
    65
 73
     2
 40
0.125
 49
0.0
 74
     0
 49
-0.125
 74
     0
  0
LTYPE
  5
4B
330
5
100
AcDbSymbolTableRecord
100
AcDbLinetypeTableRecord
  2
DOTX2
 70
     0
  3
DOTX2
 72
    65
 73
     2
 40
0.5
 49
0.0
 74
     0
 49
-0.5
 74
     0
  0
LTYPE
  5
4C
330
5
100
AcDbSymbolTableRecord
100
AcDbLinetypeTableRecord
  2
HIDDEN
 70
     0
  3
HIDDEN
 72
    65
 73
     2
 40
0.375
 49
0.25
 74
     0
 49
-0.125
 74
     0
  0
LTYPE
  5
4D
330
5
100
AcDbSymbolTableRecord
100
AcDbLinetypeTableRecord
  2
HIDDEN2
 70
     0
  3
HIDDEN2
 72
    65
 73
     2
 40
0.1875
 49
0.125
 74
     0
 49
-0.0625
 74
     0
  0
LTYPE
  5
4E
330
5
100
AcDbSymbolTableRecord
100
AcDbLinetypeTableRecord
  2
HIDDENX2
 70
     0
  3
HIDDENX2
 72
    65
 73
     2
 40
0.75
 49
0.5
 74
     0
 49
-0.25
 74
     0
  0
LTYPE
  5
4F
330
5
100
AcDbSymbolTableRecord
100
AcDbLinetypeTableRecord
  2
PHANTOM
 70
     0
  3
PHANTOM
 72
    65
 73
     6
 40
2.5
 49
1.25
 74
     0
 49
-0.25
 74
     0
 49
0.25
 74
     0
 49
-0.25
 74
     0
 49
0.25
 74
     0
 49
-0.25
 74
     0
  0
LTYPE
  5
50
330
5
100
AcDbSymbolTableRecord
100
AcDbLinetypeTableRecord
  2
PHANTOM2
 70
     0
  3
PHANTOM2
 72
    65
 73
     6
 40
1.25
 49
0.625
 74
     0
 49
-0.125
 74
     0
 49
0.125
 74
     0
 49
-0.125
 74
     0
 49
0.125
 74
     0
 49
-0.125
 74
     0
  0
LTYPE
  5
51
330
5
100
AcDbSymbolTableRecord
100
AcDbLinetypeTableRecord
  2
PHANTOMX2
 70
     0
  3
PHANTOMX2
 72
    65
 73
     6
 40
5.0
 49
2.5
 74
     0
 49
-0.5
 74
     0
 49
0.5
 74
     0
 49
-0.5
 74
     0
 49
0.5
 74
     0
 49
-0.5
 74
     0
  0
ENDTAB
  0
TABLE
  2
LAYER
  5
2
102
{ACAD_XDICTIONARY
360
82F
102
}
330
0
100
AcDbSymbolTable
 70
     4
  0
LAYER
  5
25
330
2
100
AcDbSymbolTableRecord
100
AcDbLayerTableRecord
  2
0
 70
     0
 62
     7
  6
CONTINUOUS
370
    -3
390
F
347
13
  0
LAYER
  5
52
330
2
100
AcDbSymbolTableRecord
100
AcDbLayerTableRecord
  2
001
 70
     0
 62
     7
  6
CONTINUOUS
370
    -3
390
F
347
13
  0
LAYER
  5
6F4
330
2
100
AcDbSymbolTableRecord
100
AcDbLayerTableRecord
  2
003
 70
     0
 62
     7
  6
CONTINUOUS
370
    -3
390
F
347
13
  0
LAYER
  5
809
330
2
100
AcDbSymbolTableRecord
100
AcDbLayerTableRecord
  2
Defpoints
 70
     0
 62
     7
  6
CONTINUOUS
290
     0
370
    -3
390
F
347
13
  0
ENDTAB
  0
TABLE
  2
STYLE
  5
3
330
0
100
AcDbSymbolTable
 70
     7
  0
STYLE
  5
26
330
3
100
AcDbSymbolTableRecord
100
AcDbTextStyleTableRecord
  2
STANDARD
 70
     0
 40
0.0
 41
1.0
 50
0.0
 71
     0
 42
0.2
  3
TXT
  4
BIGFONT
  0
STYLE
  5
53
330
3
100
AcDbSymbolTableRecord
100
AcDbTextStyleTableRecord
  2
TATEGAKI
 70
     4
 40
1.0
 41
1.0
 50
0.0
 71
     0
 42
0.2
  3
TXT
  4
BIGFONT
  0
STYLE
  5
82C
330
3
100
AcDbSymbolTableRecord
100
AcDbTextStyleTableRecord
  2
高3.2
 70
     0
 40
3.2
 41
1.0
 50
0.0
 71
     0
 42
3.2
  3
txt.shx
  4
bigfont.shx
  0
STYLE
  5
91A
330
3
100
AcDbSymbolTableRecord
100
AcDbTextStyleTableRecord
  2
高6.3
 70
     0
 40
6.299999999999998
 41
1.0
 50
0.0
 71
     0
 42
6.299999999999998
  3
txt.shx
  4
bigfont.shx
  0
STYLE
  5
91B
330
3
100
AcDbSymbolTableRecord
100
AcDbTextStyleTableRecord
  2
高4.5
 70
     0
 40
4.5
 41
1.0
 50
0.0
 71
     0
 42
6.299999999999998
  3
txt.shx
  4
bigfont.shx
  0
STYLE
  5
91C
330
3
100
AcDbSymbolTableRecord
100
AcDbTextStyleTableRecord
  2
高2.5
 70
     0
 40
2.5
 41
1.0
 50
0.0
 71
     0
 42
0.2
  3
txt.shx
  4
bigfont.shx
  0
STYLE
  5
B04
330
3
100
AcDbSymbolTableRecord
100
AcDbTextStyleTableRecord
  2
高2
 70
     0
 40
2.0
 41
1.0
 50
0.0
 71
     0
 42
2.0
  3
txt.shx
  4
bigfont.shx
  0
ENDTAB
  0
TABLE
  2
VIEW
  5
6
330
0
100
AcDbSymbolTable
 70
     0
  0
ENDTAB
  0
TABLE
  2
UCS
  5
7
330
0
100
AcDbSymbolTable
 70
     0
  0
ENDTAB
  0
TABLE
  2
APPID
  5
9
330
0
100
AcDbSymbolTable
 70
     6
  0
APPID
  5
27
330
9
100
AcDbSymbolTableRecord
100
AcDbRegAppTableRecord
  2
ACAD
 70
     0
  0
APPID
  5
6C1
330
9
100
AcDbSymbolTableRecord
100
AcDbRegAppTableRecord
  2
ACAD_PSEXT
 70
     0
  0
APPID
  5
82E
330
9
100
AcDbSymbolTableRecord
100
AcDbRegAppTableRecord
  2
ACAD_DSTYLE_DIMJOGGED_JOGANGLE_SYMBOL
 70
     0
  0
APPID
  5
924
330
9
100
AcDbSymbolTableRecord
100
AcDbRegAppTableRecord
  2
ACAD_DSTYLE_DIMJAG
 70
     0
  0
APPID
  5
925
330
9
100
AcDbSymbolTableRecord
100
AcDbRegAppTableRecord
  2
ACAD_DSTYLE_DIMBREAK
 70
     0
  0
APPID
  5
926
330
9
100
AcDbSymbolTableRecord
100
AcDbRegAppTableRecord
  2
ACAD_DSTYLE_DIMTALN
 70
     0
  0
ENDTAB
  0
TABLE
  2
DIMSTYLE
  5
A
330
0
100
AcDbSymbolTable
 70
    10
100
AcDbDimStyleTable
 71
     2
340
82D
340
6AD
  0
DIMSTYLE
105
6AD
330
A
100
AcDbSymbolTableRecord
100
AcDbDimStyleTableRecord
  2
Standard
 70
     0
340
26
  0
DIMSTYLE
105
82D
330
A
100
AcDbSymbolTableRecord
100
AcDbDimStyleTableRecord
  2
1：1
 70
     0
 41
2.5
 42
0.25
 43
0.2
 44
1.25
 49
1.25
 50
90.0
 73
     0
 74
     0
 77
     3
 78
     8
 79
     2
 90
     2
140
2.5
141
0.0
143
0.03937007874016
147
0.625
171
     3
172
     1
178
     4
179
     1
271
     2
272
     2
274
     3
283
     0
284
     8
288
     1
289
     0
340
26
341
826
342
826
1001
ACAD_DSTYLE_DIMJOGGED_JOGANGLE_SYMBOL
1070
   384
1040
1.570796326794896
  0
DIMSTYLE
105
91D
330
A
100
AcDbSymbolTableRecord
100
AcDbDimStyleTableRecord
  2
1／10
 70
     0
 41
2.5
 42
0.25
 43
0.2
 44
1.25
 49
1.25
 50
90.0
 73
     0
 74
     0
 77
     3
 78
     8
 79
     2
 90
     2
140
2.5
141
0.0
143
0.03937007874016
144
10.0
147
0.625
171
     3
172
     1
178
     4
179
     1
271
     2
272
     2
274
     3
283
     0
284
     8
288
     1
289
     0
340
26
341
826
342
826
  0
DIMSTYLE
105
91E
330
A
100
AcDbSymbolTableRecord
100
AcDbDimStyleTableRecord
  2
2：1
 70
     0
 41
2.5
 42
0.25
 43
0.2
 44
1.25
 49
1.25
 50
90.0
 73
     0
 74
     0
 77
     3
 78
     8
 79
     2
 90
     2
140
2.5
141
0.0
143
0.03937007874016
144
0.5
147
0.625
171
     3
172
     1
178
     4
179
     1
271
     2
272
     2
274
     3
283
     0
284
     8
288
     1
289
     0
340
26
341
826
342
826
1001
ACAD_DSTYLE_DIMJOGGED_JOGANGLE_SYMBOL
1070
   384
1040
1.570796326794896
  0
DIMSTYLE
105
91F
330
A
100
AcDbSymbolTableRecord
100
AcDbDimStyleTableRecord
  2
5：1
 70
     0
 41
2.5
 42
0.25
 43
0.2
 44
1.25
 49
1.25
 50
90.0
 73
     0
 74
     0
 77
     3
 78
     8
 79
     2
 90
     2
140
2.5
141
0.0
143
0.03937007874016
144
0.2
147
0.625
171
     3
178
     4
179
     1
271
     2
272
     2
274
     3
283
     0
284
     8
288
     1
289
     0
340
26
341
826
342
826
1001
ACAD_DSTYLE_DIMJOGGED_JOGANGLE_SYMBOL
1070
   384
1040
1.570796326794896
  0
DIMSTYLE
105
920
330
A
100
AcDbSymbolTableRecord
100
AcDbDimStyleTableRecord
  2
1／2
 70
     0
 41
2.5
 42
0.25
 43
0.2
 44
1.25
 49
1.25
 50
90.0
 73
     0
 74
     0
 77
     3
 78
     8
 79
     2
 90
     2
140
2.5
141
0.0
143
0.03937007874016
144
2.0
147
0.625
171
     3
172
     1
178
     4
179
     1
271
     2
272
     2
274
     3
283
     0
284
     8
288
     1
289
     0
340
26
341
826
342
826
  0
DIMSTYLE
105
921
330
A
100
AcDbSymbolTableRecord
100
AcDbDimStyleTableRecord
  2
1／5
 70
     0
 41
2.5
 42
0.25
 43
0.2
 44
1.25
 49
1.25
 50
90.0
 73
     0
 74
     0
 77
     3
 78
     8
 79
     2
 90
     2
140
2.5
141
0.0
143
0.03937007874016
144
5.0
147
0.625
171
     3
172
     1
178
     4
179
     1
271
     2
272
     2
274
     3
283
     0
284
     8
288
     1
289
     0
340
26
341
826
342
826
  0
DIMSTYLE
105
922
330
A
100
AcDbSymbolTableRecord
100
AcDbDimStyleTableRecord
  2
1／4
 70
     0
 41
2.5
 42
0.25
 43
0.2
 44
1.25
 49
1.25
 50
89.99999999999998
 73
     0
 74
     0
 77
     3
 78
     8
 79
     2
 90
     2
140
3.0
141
0.0
143
0.03937007874016
144
4.0
147
0.625
171
     3
172
     1
178
     4
179
     1
271
     2
272
     2
274
     3
283
     0
284
     8
288
     1
289
     0
340
26
341
826
342
826
1001
ACAD_DSTYLE_DIMJOGGED_JOGANGLE_SYMBOL
1070
   384
1040
1.570796326794896
  0
DIMSTYLE
105
923
330
A
100
AcDbSymbolTableRecord
100
AcDbDimStyleTableRecord
  2
1／8
 70
     0
 41
2.5
 42
0.25
 43
0.2
 44
1.25
 49
1.25
 50
89.99999999999998
 73
     0
 74
     0
 77
     3
 78
     8
 79
     2
 90
     2
140
3.0
141
0.0
143
0.03937007874016
144
8.0
147
0.625
171
     3
172
     1
178
     4
179
     1
271
     2
272
     2
274
     3
283
     0
284
     8
288
     1
289
     0
340
26
341
826
342
826
1001
ACAD_DSTYLE_DIMBREAK
1070
   391
1040
0.125
1001
ACAD_DSTYLE_DIMJAG
1070
   388
1040
1.5
1001
ACAD_DSTYLE_DIMTALN
1070
   392
1070
     0
1001
ACAD_DSTYLE_DIMJOGGED_JOGANGLE_SYMBOL
1070
   384
1040
1.570796326794896
  0
DIMSTYLE
105
B05
330
A
100
AcDbSymbolTableRecord
100
AcDbDimStyleTableRecord
  2
FREE
 70
     0
 41
2.5
 42
0.25
 43
0.2
 44
1.25
 49
1.25
 50
89.99999999999998
 73
     0
 74
     0
 77
     3
 78
     8
 79
     2
 90
     2
140
3.0
141
0.0
143
0.03937007874016
147
0.625
171
     3
172
     1
178
     4
179
     1
271
     2
272
     2
274
     3
283
     0
284
     8
288
     1
289
     0
340
26
341
826
342
826
1001
ACAD_DSTYLE_DIMBREAK
1070
   391
1040
3.75
1001
ACAD_DSTYLE_DIMJAG
1070
   388
1040
1.5
1001
ACAD_DSTYLE_DIMTALN
1070
   392
1070
     0
1001
ACAD_DSTYLE_DIMJOGGED_JOGANGLE_SYMBOL
1070
   384
1040
1.570796326794896
  0
ENDTAB
  0
TABLE
  2
BLOCK_RECORD
  5
1
330
0
100
AcDbSymbolTable
 70
    13
  0
BLOCK_RECORD
  5
36
102
{ACAD_XDICTIONARY
360
9F4
102
}
330
1
100
AcDbSymbolTableRecord
100
AcDbBlockTableRecord
  2
*Model_Space
340
39
 70
     0
280
     1
281
     0
  0
BLOCK_RECORD
  5
32
330
1
100
AcDbSymbolTableRecord
100
AcDbBlockTableRecord
  2
*Paper_Space
340
35
 70
     0
280
     1
281
     0
  0
BLOCK_RECORD
  5
57
330
1
100
AcDbSymbolTableRecord
100
AcDbBlockTableRecord
  2
ARROW
340
0
 70
     0
280
     1
281
     0
  0
BLOCK_RECORD
  5
826
330
1
100
AcDbSymbolTableRecord
100
AcDbBlockTableRecord
  2
_Open30
340
0
102
{BLKREFS
331
1242
331
1243
331
124B
331
124C
331
1254
331
1255
331
125D
331
125E
331
1266
331
1267
331
126F
331
1270
331
127A
331
127B
331
1285
331
1286
331
128E
331
128F
331
1299
331
129A
331
12A4
331
12A5
102
}
 70
     0
280
     1
281
     0
  0
BLOCK_RECORD
  5
11B3
330
1
100
AcDbSymbolTableRecord
100
AcDbBlockTableRecord
  2
*D2
340
0
 70
     0
280
     1
281
     0
  0
BLOCK_RECORD
  5
11BF
330
1
100
AcDbSymbolTableRecord
100
AcDbBlockTableRecord
  2
*D3
340
0
 70
     0
280
     1
281
     0
  0
BLOCK_RECORD
  5
11CB
330
1
100
AcDbSymbolTableRecord
100
AcDbBlockTableRecord
  2
*D4
340
0
 70
     0
280
     1
281
     0
  0
BLOCK_RECORD
  5
11D7
330
1
100
AcDbSymbolTableRecord
100
AcDbBlockTableRecord
  2
*D5
340
0
 70
     0
280
     1
281
     0
  0
BLOCK_RECORD
  5
11E3
330
1
100
AcDbSymbolTableRecord
100
AcDbBlockTableRecord
  2
*D6
340
0
 70
     0
280
     1
281
     0
  0
BLOCK_RECORD
  5
11EF
330
1
100
AcDbSymbolTableRecord
100
AcDbBlockTableRecord
  2
*D7
340
0
 70
     0
280
     1
281
     0
  0
BLOCK_RECORD
  5
11FB
330
1
100
AcDbSymbolTableRecord
100
AcDbBlockTableRecord
  2
*D8
340
0
 70
     0
280
     1
281
     0
  0
BLOCK_RECORD
  5
1209
330
1
100
AcDbSymbolTableRecord
100
AcDbBlockTableRecord
  2
*D9
340
0
 70
     0
280
     1
281
     0
  0
BLOCK_RECORD
  5
1217
330
1
100
AcDbSymbolTableRecord
100
AcDbBlockTableRecord
  2
*D10
340
0
 70
     0
280
     1
281
     0
  0
BLOCK_RECORD
  5
1223
330
1
100
AcDbSymbolTableRecord
100
AcDbBlockTableRecord
  2
*D11
340
0
 70
     0
280
     1
281
     0
  0
BLOCK_RECORD
  5
1231
330
1
100
AcDbSymbolTableRecord
100
AcDbBlockTableRecord
  2
*D12
340
0
 70
     0
280
     1
281
     0
  0
ENDTAB
  0
ENDSEC
  0
SECTION
  2
BLOCKS
  0
BLOCK
  5
37
330
36
100
AcDbEntity
  8
0
100
AcDbBlockBegin
  2
*Model_Space
 70
     0
 10
0.0
 20
0.0
 30
0.0
  3
*Model_Space
  1

  0
ENDBLK
  5
38
330
36
100
AcDbEntity
  8
0
100
AcDbBlockEnd
  0
BLOCK
  5
33
330
32
100
AcDbEntity
 67
     1
  8
0
100
AcDbBlockBegin
  2
*Paper_Space
 70
     0
 10
0.0
 20
0.0
 30
0.0
  3
*Paper_Space
  1

  0
ENDBLK
  5
34
330
32
100
AcDbEntity
 67
     1
  8
0
100
AcDbBlockEnd
  0
BLOCK
  5
58
330
57
100
AcDbEntity
  8
0
100
AcDbBlockBegin
  2
ARROW
 70
     0
 10
0.0
 20
0.0
 30
0.0
  3
ARROW
  1

  0
LWPOLYLINE
  5
59
330
57
100
AcDbEntity
  8
0
  6
Continuous
 62
     0
100
AcDbPolyline
 90
        3
 70
     0
 43
0.0
 10
2.0
 20
0.535898
 10
0.0
 20
0.0
 10
2.0
 20
-0.535898
  0
ENDBLK
  5
5E
330
57
100
AcDbEntity
  8
0
100
AcDbBlockEnd
  0
BLOCK
  5
827
330
826
100
AcDbEntity
  8
0
100
AcDbBlockBegin
  2
_Open30
 70
     0
 10
0.0
 20
0.0
 30
0.0
  3
_Open30
  1

  0
LINE
  5
828
330
826
100
AcDbEntity
  8
0
  6
ByBlock
 62
     0
370
    -2
100
AcDbLine
 10
-1.0
 20
0.267949
 30
0.0
 11
0.0
 21
0.0
 31
0.0
  0
LINE
  5
829
330
826
100
AcDbEntity
  8
0
  6
ByBlock
 62
     0
370
    -2
100
AcDbLine
 10
0.0
 20
0.0
 30
0.0
 11
-1.0
 21
-0.267949
 31
0.0
  0
LINE
  5
82A
330
826
100
AcDbEntity
  8
0
  6
ByBlock
 62
     0
370
    -2
100
AcDbLine
 10
0.0
 20
0.0
 30
0.0
 11
-1.0
 21
0.0
 31
0.0
  0
ENDBLK
  5
82B
330
826
100
AcDbEntity
  8
0
100
AcDbBlockEnd
  0
BLOCK
  5
11BD
330
11B3
100
AcDbEntity
  8
0
100
AcDbBlockBegin
  2
*D2
 70
     1
 10
0.0
 20
0.0
 30
0.0
  3
*D2
  1

  0
LINE
  5
123F
330
11B3
100
AcDbEntity
  8
0
 62
     0
370
    -2
100
AcDbLine
 10
337.4735765324055
 20
-1165.941240331623
 30
0.0
 11
337.4735765324055
 21
-1171.785135331623
 31
0.0
  0
LINE
  5
1240
330
11B3
100
AcDbEntity
  8
0
 62
     0
370
    -2
100
AcDbLine
 10
354.4735765324056
 20
-1176.441240331623
 30
0.0
 11
354.4735765324056
 21
-1169.285135331623
 31
0.0
  0
LINE
  5
1241
330
11B3
100
AcDbEntity
  8
0
 62
     0
370
    -2
100
AcDbLine
 10
339.9735765324056
 20
-1170.535135331623
 30
0.0
 11
351.9735765324055
 21
-1170.535135331623
 31
0.0
  0
INSERT
  5
1242
330
11B3
100
AcDbEntity
  8
0
 62
     0
370
    -2
100
AcDbBlockReference
  2
_Open30
 10
337.4735765324055
 20
-1170.535135331623
 30
0.0
 41
2.5
 42
2.5
 43
2.5
 50
180.0
  0
INSERT
  5
1243
330
11B3
100
AcDbEntity
  8
0
 62
     0
370
    -2
100
AcDbBlockReference
  2
_Open30
 10
354.4735765324056
 20
-1170.535135331623
 30
0.0
 41
2.5
 42
2.5
 43
2.5
  0
MTEXT
  5
1244
330
11B3
100
AcDbEntity
  8
0
 62
     4
100
AcDbMText
 10
345.9735765324055
 20
-1168.660135331623
 30
0.0
 40
2.5
 41
0.0
 46
0.0
 71
     5
 72
     1
  1
17
 73
     1
 44
1.0
  0
POINT
  5
1245
330
11B3
100
AcDbEntity
  8
Defpoints
 62
     0
100
AcDbPoint
 10
337.4735765324055
 20
-1165.691240331623
 30
0.0
  0
POINT
  5
1246
330
11B3
100
AcDbEntity
  8
Defpoints
 62
     0
100
AcDbPoint
 10
354.4735765324056
 20
-1176.691240331623
 30
0.0
  0
POINT
  5
1247
330
11B3
100
AcDbEntity
  8
Defpoints
 62
     0
100
AcDbPoint
 10
354.4735765324056
 20
-1170.535135331623
 30
0.0
  0
ENDBLK
  5
11BE
330
11B3
100
AcDbEntity
  8
0
100
AcDbBlockEnd
  0
BLOCK
  5
11C9
330
11BF
100
AcDbEntity
  8
0
100
AcDbBlockBegin
  2
*D3
 70
     1
 10
0.0
 20
0.0
 30
0.0
  3
*D3
  1

  0
LINE
  5
1248
330
11BF
100
AcDbEntity
  8
0
 62
     0
370
    -2
100
AcDbLine
 10
337.4735765324055
 20
-1200.941240331623
 30
0.0
 11
337.4735765324055
 21
-1197.242032331623
 31
0.0
  0
LINE
  5
1249
330
11BF
100
AcDbEntity
  8
0
 62
     0
370
    -2
100
AcDbLine
 10
358.8735765324055
 20
-1183.691240331623
 30
0.0
 11
358.8735765324055
 21
-1199.742032331623
 31
0.0
  0
LINE
  5
124A
330
11BF
100
AcDbEntity
  8
0
 62
     0
370
    -2
100
AcDbLine
 10
339.9735765324056
 20
-1198.492032331623
 30
0.0
 11
356.3735765324056
 21
-1198.492032331623
 31
0.0
  0
INSERT
  5
124B
330
11BF
100
AcDbEntity
  8
0
 62
     0
370
    -2
100
AcDbBlockReference
  2
_Open30
 10
337.4735765324055
 20
-1198.492032331623
 30
0.0
 41
2.5
 42
2.5
 43
2.5
 50
180.0
  0
INSERT
  5
124C
330
11BF
100
AcDbEntity
  8
0
 62
     0
370
    -2
100
AcDbBlockReference
  2
_Open30
 10
358.8735765324055
 20
-1198.492032331623
 30
0.0
 41
2.5
 42
2.5
 43
2.5
  0
MTEXT
  5
124D
330
11BF
100
AcDbEntity
  8
0
 62
     4
100
AcDbMText
 10
348.1735765324056
 20
-1196.617032331623
 30
0.0
 40
2.5
 41
0.0
 46
0.0
 71
     5
 72
     1
  1
21.4
 73
     1
 44
1.0
  0
POINT
  5
124E
330
11BF
100
AcDbEntity
  8
Defpoints
 62
     0
100
AcDbPoint
 10
337.4735765324055
 20
-1201.191240331623
 30
0.0
  0
POINT
  5
124F
330
11BF
100
AcDbEntity
  8
Defpoints
 62
     0
100
AcDbPoint
 10
358.8735765324055
 20
-1183.441240331623
 30
0.0
  0
POINT
  5
1250
330
11BF
100
AcDbEntity
  8
Defpoints
 62
     0
100
AcDbPoint
 10
358.8735765324055
 20
-1198.492032331623
 30
0.0
  0
ENDBLK
  5
11CA
330
11BF
100
AcDbEntity
  8
0
100
AcDbBlockEnd
  0
BLOCK
  5
11D5
330
11CB
100
AcDbEntity
  8
0
100
AcDbBlockBegin
  2
*D4
 70
     1
 10
0.0
 20
0.0
 30
0.0
  3
*D4
  1

  0
LINE
  5
1251
330
11CB
100
AcDbEntity
  8
0
 62
     0
370
    -2
100
AcDbLine
 10
326.6449575324056
 20
-1200.441240331623
 30
0.0
 11
253.9220685324056
 21
-1200.441240331623
 31
0.0
  0
LINE
  5
1252
330
11CB
100
AcDbEntity
  8
0
 62
     0
370
    -2
100
AcDbLine
 10
328.0002965324056
 20
-1166.441240331623
 30
0.0
 11
253.9220685324056
 21
-1166.441240331623
 31
0.0
  0
LINE
  5
1253
330
11CB
100
AcDbEntity
  8
0
 62
     0
370
    -2
100
AcDbLine
 10
255.1720685324056
 20
-1197.941240331623
 30
0.0
 11
255.1720685324056
 21
-1168.941240331623
 31
0.0
  0
INSERT
  5
1254
330
11CB
100
AcDbEntity
  8
0
 62
     0
370
    -2
100
AcDbBlockReference
  2
_Open30
 10
255.1720685324056
 20
-1200.441240331623
 30
0.0
 41
2.5
 42
2.5
 43
2.5
 50
270.0
  0
INSERT
  5
1255
330
11CB
100
AcDbEntity
  8
0
 62
     0
370
    -2
100
AcDbBlockReference
  2
_Open30
 10
255.1720685324056
 20
-1166.441240331623
 30
0.0
 41
2.5
 42
2.5
 43
2.5
 50
90.0
  0
MTEXT
  5
1256
330
11CB
100
AcDbEntity
  8
0
 62
     4
100
AcDbMText
 10
253.2970685324058
 20
-1183.441240331623
 30
0.0
 40
2.5
 41
0.0
 46
0.0
 71
     5
 72
     1
  1
%%C34
 11
0.0000000000000001
 21
1.0
 31
0.0
 73
     1
 44
1.0
  0
POINT
  5
1257
330
11CB
100
AcDbEntity
  8
Defpoints
 62
     0
100
AcDbPoint
 10
326.8949575324057
 20
-1200.441240331623
 30
0.0
  0
POINT
  5
1258
330
11CB
100
AcDbEntity
  8
Defpoints
 62
     0
100
AcDbPoint
 10
328.2502965324056
 20
-1166.441240331623
 30
0.0
  0
POINT
  5
1259
330
11CB
100
AcDbEntity
  8
Defpoints
 62
     0
100
AcDbPoint
 10
255.1720685324056
 20
-1166.441240331623
 30
0.0
  0
ENDBLK
  5
11D6
330
11CB
100
AcDbEntity
  8
0
100
AcDbBlockEnd
  0
BLOCK
  5
11E1
330
11D7
100
AcDbEntity
  8
0
100
AcDbBlockBegin
  2
*D5
 70
     1
 10
0.0
 20
0.0
 30
0.0
  3
*D5
  1

  0
LINE
  5
125A
330
11D7
100
AcDbEntity
  8
0
 62
     0
370
    -2
100
AcDbLine
 10
277.4735765324056
 20
-1180.814010331623
 30
0.0
 11
277.4735765324056
 21
-1152.405502331623
 31
0.0
  0
LINE
  5
125B
330
11D7
100
AcDbEntity
  8
0
 62
     0
370
    -2
100
AcDbLine
 10
337.4735765324055
 20
-1165.441240331623
 30
0.0
 11
337.4735765324055
 21
-1152.405502331623
 31
0.0
  0
LINE
  5
125C
330
11D7
100
AcDbEntity
  8
0
 62
     0
370
    -2
100
AcDbLine
 10
279.9735765324056
 20
-1153.655502331623
 30
0.0
 11
334.9735765324056
 21
-1153.655502331623
 31
0.0
  0
INSERT
  5
125D
330
11D7
100
AcDbEntity
  8
0
 62
     0
370
    -2
100
AcDbBlockReference
  2
_Open30
 10
277.4735765324056
 20
-1153.655502331623
 30
0.0
 41
2.5
 42
2.5
 43
2.5
 50
180.0
  0
INSERT
  5
125E
330
11D7
100
AcDbEntity
  8
0
 62
     0
370
    -2
100
AcDbBlockReference
  2
_Open30
 10
337.4735765324055
 20
-1153.655502331623
 30
0.0
 41
2.5
 42
2.5
 43
2.5
  0
MTEXT
  5
125F
330
11D7
100
AcDbEntity
  8
0
 62
     4
100
AcDbMText
 10
307.4735765324056
 20
-1151.780502331623
 30
0.0
 40
2.5
 41
0.0
 46
0.0
 71
     5
 72
     1
  1
60
 73
     1
 44
1.0
  0
POINT
  5
1260
330
11D7
100
AcDbEntity
  8
Defpoints
 62
     0
100
AcDbPoint
 10
277.4735765324056
 20
-1181.064010331623
 30
0.0
  0
POINT
  5
1261
330
11D7
100
AcDbEntity
  8
Defpoints
 62
     0
100
AcDbPoint
 10
337.4735765324055
 20
-1165.691240331623
 30
0.0
  0
POINT
  5
1262
330
11D7
100
AcDbEntity
  8
Defpoints
 62
     0
100
AcDbPoint
 10
337.4735765324055
 20
-1153.655502331623
 30
0.0
  0
ENDBLK
  5
11E2
330
11D7
100
AcDbEntity
  8
0
100
AcDbBlockEnd
  0
BLOCK
  5
11ED
330
11E3
100
AcDbEntity
  8
0
100
AcDbBlockBegin
  2
*D6
 70
     1
 10
0.0
 20
0.0
 30
0.0
  3
*D6
  1

  0
LINE
  5
1263
330
11E3
100
AcDbEntity
  8
0
 62
     0
370
    -2
100
AcDbLine
 10
333.2235765324055
 20
-1202.941240331623
 30
0.0
 11
368.0773145324057
 21
-1202.941240331623
 31
0.0
  0
LINE
  5
1264
330
11E3
100
AcDbEntity
  8
0
 62
     0
370
    -2
100
AcDbLine
 10
333.2235765324055
 20
-1163.941240331623
 30
0.0
 11
368.0773145324057
 21
-1163.941240331623
 31
0.0
  0
LINE
  5
1265
330
11E3
100
AcDbEntity
  8
0
 62
     0
370
    -2
100
AcDbLine
 10
366.8273145324056
 20
-1200.441240331623
 30
0.0
 11
366.8273145324056
 21
-1166.441240331623
 31
0.0
  0
INSERT
  5
1266
330
11E3
100
AcDbEntity
  8
0
 62
     0
370
    -2
100
AcDbBlockReference
  2
_Open30
 10
366.8273145324056
 20
-1202.941240331623
 30
0.0
 41
2.5
 42
2.5
 43
2.5
 50
270.0
  0
INSERT
  5
1267
330
11E3
100
AcDbEntity
  8
0
 62
     0
370
    -2
100
AcDbBlockReference
  2
_Open30
 10
366.8273145324056
 20
-1163.941240331623
 30
0.0
 41
2.5
 42
2.5
 43
2.5
 50
90.0
  0
MTEXT
  5
1268
330
11E3
100
AcDbEntity
  8
0
 62
     4
100
AcDbMText
 10
364.9523145324057
 20
-1183.441240331623
 30
0.0
 40
2.5
 41
0.0
 46
0.0
 71
     5
 72
     1
  1
%%C39
 11
0.0000000000000001
 21
1.0
 31
0.0
 73
     1
 44
1.0
  0
POINT
  5
1269
330
11E3
100
AcDbEntity
  8
Defpoints
 62
     0
100
AcDbPoint
 10
332.9735765324056
 20
-1202.941240331623
 30
0.0
  0
POINT
  5
126A
330
11E3
100
AcDbEntity
  8
Defpoints
 62
     0
100
AcDbPoint
 10
332.9735765324056
 20
-1163.941240331623
 30
0.0
  0
POINT
  5
126B
330
11E3
100
AcDbEntity
  8
Defpoints
 62
     0
100
AcDbPoint
 10
366.8273145324056
 20
-1163.941240331623
 30
0.0
  0
ENDBLK
  5
11EE
330
11E3
100
AcDbEntity
  8
0
100
AcDbBlockEnd
  0
BLOCK
  5
11F9
330
11EF
100
AcDbEntity
  8
0
100
AcDbBlockBegin
  2
*D7
 70
     1
 10
0.0
 20
0.0
 30
0.0
  3
*D7
  1

  0
LINE
  5
126C
330
11EF
100
AcDbEntity
  8
0
 62
     0
370
    -2
100
AcDbLine
 10
417.4969455324053
 20
-1189.891240331623
 30
0.0
 11
439.7816265324054
 21
-1189.891240331623
 31
0.0
  0
LINE
  5
126D
330
11EF
100
AcDbEntity
  8
0
 62
     0
370
    -2
100
AcDbLine
 10
417.4969455324053
 20
-1176.991240331623
 30
0.0
 11
439.7816265324054
 21
-1176.991240331623
 31
0.0
  0
LINE
  5
126E
330
11EF
100
AcDbEntity
  8
0
 62
     0
370
    -2
100
AcDbLine
 10
438.5316265324052
 20
-1187.391240331623
 30
0.0
 11
438.5316265324052
 21
-1179.491240331623
 31
0.0
  0
INSERT
  5
126F
330
11EF
100
AcDbEntity
  8
0
 62
     0
370
    -2
100
AcDbBlockReference
  2
_Open30
 10
438.5316265324052
 20
-1189.891240331623
 30
0.0
 41
2.5
 42
2.5
 43
2.5
 50
270.0
  0
INSERT
  5
1270
330
11EF
100
AcDbEntity
  8
0
 62
     0
370
    -2
100
AcDbBlockReference
  2
_Open30
 10
438.5316265324052
 20
-1176.991240331623
 30
0.0
 41
2.5
 42
2.5
 43
2.5
 50
90.0
  0
MTEXT
  5
1271
330
11EF
100
AcDbEntity
  8
0
 62
     4
100
AcDbMText
 10
436.4066265324058
 20
-1183.441240331623
 30
0.0
 40
3.0
 41
0.0
 46
0.0
 71
     5
 72
     1
  1
12.7
 11
0.0000000000000001
 21
1.0
 31
0.0
 73
     1
 44
1.0
  0
POINT
  5
1272
330
11EF
100
AcDbEntity
  8
Defpoints
 62
     0
100
AcDbPoint
 10
417.2469455324053
 20
-1189.891240331623
 30
0.0
  0
POINT
  5
1273
330
11EF
100
AcDbEntity
  8
Defpoints
 62
     0
100
AcDbPoint
 10
417.2469455324053
 20
-1176.991240331623
 30
0.0
  0
POINT
  5
1274
330
11EF
100
AcDbEntity
  8
Defpoints
 62
     0
100
AcDbPoint
 10
438.5316265324052
 20
-1176.991240331623
 30
0.0
  0
ENDBLK
  5
11FA
330
11EF
100
AcDbEntity
  8
0
100
AcDbBlockEnd
  0
BLOCK
  5
1207
330
11FB
100
AcDbEntity
  8
0
100
AcDbBlockBegin
  2
*D8
 70
     1
 10
0.0
 20
0.0
 30
0.0
  3
*D8
  1

  0
LINE
  5
1275
330
11FB
100
AcDbEntity
  8
0
 62
     0
370
    -2
100
AcDbLine
 10
417.4969455324053
 20
-1177.841240331623
 30
0.0
 11
433.8221705324055
 21
-1177.841240331623
 31
0.0
  0
LINE
  5
1276
330
11FB
100
AcDbEntity
  8
0
 62
     0
370
    -2
100
AcDbLine
 10
417.4969455324053
 20
-1176.141240331623
 30
0.0
 11
433.8221705324055
 21
-1176.141240331623
 31
0.0
  0
LINE
  5
1277
330
11FB
100
AcDbEntity
  8
0
 62
     0
370
    -2
100
AcDbLine
 10
432.5721705324053
 20
-1180.341240331623
 30
0.0
 11
432.5721705324053
 21
-1182.841240331623
 31
0.0
  0
LINE
  5
1278
330
11FB
100
AcDbEntity
  8
0
 62
     0
370
    -2
100
AcDbLine
 10
432.5721705324053
 20
-1173.641240331622
 30
0.0
 11
432.5721705324053
 21
-1164.891240331623
 31
0.0
  0
LINE
  5
1279
330
11FB
100
AcDbEntity
  8
0
 62
     0
370
    -2
100
AcDbLine
 10
432.5721705324053
 20
-1177.841240331623
 30
0.0
 11
432.5721705324053
 21
-1176.141240331623
 31
0.0
  0
INSERT
  5
127A
330
11FB
100
AcDbEntity
  8
0
 62
     0
370
    -2
100
AcDbBlockReference
  2
_Open30
 10
432.5721705324053
 20
-1177.841240331623
 30
0.0
 41
2.5
 42
2.5
 43
2.5
 50
90.0
  0
INSERT
  5
127B
330
11FB
100
AcDbEntity
  8
0
 62
     0
370
    -2
100
AcDbBlockReference
  2
_Open30
 10
432.5721705324053
 20
-1176.141240331623
 30
0.0
 41
2.5
 42
2.5
 43
2.5
 50
270.0
  0
MTEXT
  5
127C
330
11FB
100
AcDbEntity
  8
0
 62
     4
100
AcDbMText
 10
430.4471705324058
 20
-1168.016240331623
 30
0.0
 40
3.0
 41
0.0
 46
0.0
 71
     5
 72
     1
  1
1.7
 11
0.0000000000000001
 21
1.0
 31
0.0
 73
     1
 44
1.0
  0
POINT
  5
127D
330
11FB
100
AcDbEntity
  8
Defpoints
 62
     0
100
AcDbPoint
 10
417.2469455324053
 20
-1177.841240331623
 30
0.0
  0
POINT
  5
127E
330
11FB
100
AcDbEntity
  8
Defpoints
 62
     0
100
AcDbPoint
 10
417.2469455324053
 20
-1176.141240331623
 30
0.0
  0
POINT
  5
127F
330
11FB
100
AcDbEntity
  8
Defpoints
 62
     0
100
AcDbPoint
 10
432.5721705324053
 20
-1176.141240331623
 30
0.0
  0
ENDBLK
  5
1208
330
11FB
100
AcDbEntity
  8
0
100
AcDbBlockEnd
  0
BLOCK
  5
1215
330
1209
100
AcDbEntity
  8
0
100
AcDbBlockBegin
  2
*D9
 70
     1
 10
0.0
 20
0.0
 30
0.0
  3
*D9
  1

  0
LINE
  5
1280
330
1209
100
AcDbEntity
  8
0
 62
     0
370
    -2
100
AcDbLine
 10
409.8743855324054
 20
-1190.991240331623
 30
0.0
 11
409.8743855324054
 21
-1210.438761331623
 31
0.0
  0
LINE
  5
1281
330
1209
100
AcDbEntity
  8
0
 62
     0
370
    -2
100
AcDbLine
 10
416.1195065324053
 20
-1190.991240331623
 30
0.0
 11
416.1195065324053
 21
-1210.438761331623
 31
0.0
  0
LINE
  5
1282
330
1209
100
AcDbEntity
  8
0
 62
     0
370
    -2
100
AcDbLine
 10
407.3743855324056
 20
-1209.188761331623
 30
0.0
 11
404.8743855324056
 21
-1209.188761331623
 31
0.0
  0
LINE
  5
1283
330
1209
100
AcDbEntity
  8
0
 62
     0
370
    -2
100
AcDbLine
 10
418.6195065324056
 20
-1209.188761331623
 30
0.0
 11
428.3695065324056
 21
-1209.188761331623
 31
0.0
  0
LINE
  5
1284
330
1209
100
AcDbEntity
  8
0
 62
     0
370
    -2
100
AcDbLine
 10
409.8743855324054
 20
-1209.188761331623
 30
0.0
 11
416.1195065324053
 21
-1209.188761331623
 31
0.0
  0
INSERT
  5
1285
330
1209
100
AcDbEntity
  8
0
 62
     0
370
    -2
100
AcDbBlockReference
  2
_Open30
 10
409.8743855324054
 20
-1209.188761331623
 30
0.0
 41
2.5
 42
2.5
 43
2.5
  0
INSERT
  5
1286
330
1209
100
AcDbEntity
  8
0
 62
     0
370
    -2
100
AcDbBlockReference
  2
_Open30
 10
416.1195065324053
 20
-1209.188761331623
 30
0.0
 41
2.5
 42
2.5
 43
2.5
 50
180.0
  0
MTEXT
  5
1287
330
1209
100
AcDbEntity
  8
0
 62
     4
100
AcDbMText
 10
424.7445065324056
 20
-1207.063761331623
 30
0.0
 40
3.0
 41
0.0
 46
0.0
 71
     5
 72
     1
  1
6.3
 73
     1
 44
1.0
  0
POINT
  5
1288
330
1209
100
AcDbEntity
  8
Defpoints
 62
     0
100
AcDbPoint
 10
409.8743855324054
 20
-1190.741240331623
 30
0.0
  0
POINT
  5
1289
330
1209
100
AcDbEntity
  8
Defpoints
 62
     0
100
AcDbPoint
 10
416.1195065324053
 20
-1190.741240331623
 30
0.0
  0
POINT
  5
128A
330
1209
100
AcDbEntity
  8
Defpoints
 62
     0
100
AcDbPoint
 10
416.1195065324053
 20
-1209.188761331623
 30
0.0
  0
ENDBLK
  5
1216
330
1209
100
AcDbEntity
  8
0
100
AcDbBlockEnd
  0
BLOCK
  5
1221
330
1217
100
AcDbEntity
  8
0
100
AcDbBlockBegin
  2
*D10
 70
     1
 10
0.0
 20
0.0
 30
0.0
  3
*D10
  1

  0
LINE
  5
128B
330
1217
100
AcDbEntity
  8
0
 62
     0
370
    -2
100
AcDbLine
 10
401.0719455324053
 20
-1179.991240331623
 30
0.0
 11
401.0719455324053
 21
-1156.710301331623
 31
0.0
  0
LINE
  5
128C
330
1217
100
AcDbEntity
  8
0
 62
     0
370
    -2
100
AcDbLine
 10
412.9969455324054
 20
-1175.891240331623
 30
0.0
 11
412.9969455324054
 21
-1156.710301331623
 31
0.0
  0
LINE
  5
128D
330
1217
100
AcDbEntity
  8
0
 62
     0
370
    -2
100
AcDbLine
 10
403.5719455324055
 20
-1157.960301331623
 30
0.0
 11
410.4969455324053
 21
-1157.960301331623
 31
0.0
  0
INSERT
  5
128E
330
1217
100
AcDbEntity
  8
0
 62
     0
370
    -2
100
AcDbBlockReference
  2
_Open30
 10
401.0719455324053
 20
-1157.960301331623
 30
0.0
 41
2.5
 42
2.5
 43
2.5
 50
180.0
  0
INSERT
  5
128F
330
1217
100
AcDbEntity
  8
0
 62
     0
370
    -2
100
AcDbBlockReference
  2
_Open30
 10
412.9969455324054
 20
-1157.960301331623
 30
0.0
 41
2.5
 42
2.5
 43
2.5
  0
MTEXT
  5
1290
330
1217
100
AcDbEntity
  8
0
 62
     4
100
AcDbMText
 10
407.0344455324056
 20
-1156.085301331623
 30
0.0
 40
2.5
 41
0.0
 46
0.0
 71
     5
 72
     1
  1
11.9
 73
     1
 44
1.0
  0
POINT
  5
1291
330
1217
100
AcDbEntity
  8
Defpoints
 62
     0
100
AcDbPoint
 10
401.0719455324053
 20
-1180.241240331623
 30
0.0
  0
POINT
  5
1292
330
1217
100
AcDbEntity
  8
Defpoints
 62
     0
100
AcDbPoint
 10
412.9969455324054
 20
-1176.141240331623
 30
0.0
  0
POINT
  5
1293
330
1217
100
AcDbEntity
  8
Defpoints
 62
     0
100
AcDbPoint
 10
412.9969455324054
 20
-1157.960301331623
 30
0.0
  0
ENDBLK
  5
1222
330
1217
100
AcDbEntity
  8
0
100
AcDbBlockEnd
  0
BLOCK
  5
122F
330
1223
100
AcDbEntity
  8
0
100
AcDbBlockBegin
  2
*D11
 70
     1
 10
0.0
 20
0.0
 30
0.0
  3
*D11
  1

  0
LINE
  5
1294
330
1223
100
AcDbEntity
  8
0
 62
     0
370
    -2
100
AcDbLine
 10
398.7469455324056
 20
-1183.191240331623
 30
0.0
 11
398.7469455324056
 21
-1150.597466331623
 31
0.0
  0
LINE
  5
1295
330
1223
100
AcDbEntity
  8
0
 62
     0
370
    -2
100
AcDbLine
 10
416.1195065324053
 20
-1175.891240331623
 30
0.0
 11
416.1195065324053
 21
-1150.597466331623
 31
0.0
  0
LINE
  5
1296
330
1223
100
AcDbEntity
  8
0
 62
     0
370
    -2
100
AcDbLine
 10
396.2469455324056
 20
-1151.847466331623
 30
0.0
 11
393.7469455324056
 21
-1151.847466331623
 31
0.0
  0
LINE
  5
1297
330
1223
100
AcDbEntity
  8
0
 62
     0
370
    -2
100
AcDbLine
 10
418.6195065324056
 20
-1151.847466331623
 30
0.0
 11
442.7217792596783
 21
-1151.847466331623
 31
0.0
  0
LINE
  5
1298
330
1223
100
AcDbEntity
  8
0
 62
     0
370
    -2
100
AcDbLine
 10
398.7469455324056
 20
-1151.847466331623
 30
0.0
 11
416.1195065324053
 21
-1151.847466331623
 31
0.0
  0
INSERT
  5
1299
330
1223
100
AcDbEntity
  8
0
 62
     0
370
    -2
100
AcDbBlockReference
  2
_Open30
 10
398.7469455324056
 20
-1151.847466331623
 30
0.0
 41
2.5
 42
2.5
 43
2.5
  0
INSERT
  5
129A
330
1223
100
AcDbEntity
  8
0
 62
     0
370
    -2
100
AcDbBlockReference
  2
_Open30
 10
416.1195065324053
 20
-1151.847466331623
 30
0.0
 41
2.5
 42
2.5
 43
2.5
 50
180.0
  0
MTEXT
  5
129B
330
1223
100
AcDbEntity
  8
0
 62
     4
100
AcDbMText
 10
431.9206428960419
 20
-1149.458261786169
 30
0.0
 40
3.0
 41
0.0
 46
0.0
 71
     5
 72
     1
  1
17.75{\fMS PGothic|b0|i0|c128|p50;以下}
 73
     1
 44
1.0
  0
POINT
  5
129C
330
1223
100
AcDbEntity
  8
Defpoints
 62
     0
100
AcDbPoint
 10
398.7469455324056
 20
-1183.441240331623
 30
0.0
  0
POINT
  5
129D
330
1223
100
AcDbEntity
  8
Defpoints
 62
     0
100
AcDbPoint
 10
416.1195065324053
 20
-1176.141240331623
 30
0.0
  0
POINT
  5
129E
330
1223
100
AcDbEntity
  8
Defpoints
 62
     0
100
AcDbPoint
 10
416.1195065324053
 20
-1151.847466331623
 30
0.0
  0
ENDBLK
  5
1230
330
1223
100
AcDbEntity
  8
0
100
AcDbBlockEnd
  0
BLOCK
  5
123D
330
1231
100
AcDbEntity
  8
0
100
AcDbBlockBegin
  2
*D12
 70
     1
 10
0.0
 20
0.0
 30
0.0
  3
*D12
  1

  0
LINE
  5
129F
330
1231
100
AcDbEntity
  8
0
 62
     0
370
    -2
100
AcDbLine
 10
398.7469455324056
 20
-1183.691240331623
 30
0.0
 11
398.7469455324056
 21
-1210.438761331623
 31
0.0
  0
LINE
  5
12A0
330
1231
100
AcDbEntity
  8
0
 62
     0
370
    -2
100
AcDbLine
 10
403.3969455324053
 20
-1183.691240331623
 30
0.0
 11
403.3969455324053
 21
-1210.438761331623
 31
0.0
  0
LINE
  5
12A1
330
1231
100
AcDbEntity
  8
0
 62
     0
370
    -2
100
AcDbLine
 10
405.8969455324056
 20
-1209.188761331623
 30
0.0
 11
408.3969455324056
 21
-1209.188761331623
 31
0.0
  0
LINE
  5
12A2
330
1231
100
AcDbEntity
  8
0
 62
     0
370
    -2
100
AcDbLine
 10
396.2469455324056
 20
-1209.188761331623
 30
0.0
 11
381.4969455324056
 21
-1209.188761331623
 31
0.0
  0
LINE
  5
12A3
330
1231
100
AcDbEntity
  8
0
 62
     0
370
    -2
100
AcDbLine
 10
403.3969455324053
 20
-1209.188761331623
 30
0.0
 11
398.7469455324056
 21
-1209.188761331623
 31
0.0
  0
INSERT
  5
12A4
330
1231
100
AcDbEntity
  8
0
 62
     0
370
    -2
100
AcDbBlockReference
  2
_Open30
 10
403.3969455324053
 20
-1209.188761331623
 30
0.0
 41
2.5
 42
2.5
 43
2.5
 50
180.0
  0
INSERT
  5
12A5
330
1231
100
AcDbEntity
  8
0
 62
     0
370
    -2
100
AcDbBlockReference
  2
_Open30
 10
398.7469455324056
 20
-1209.188761331623
 30
0.0
 41
2.5
 42
2.5
 43
2.5
  0
MTEXT
  5
12A6
330
1231
100
AcDbEntity
  8
0
 62
     4
100
AcDbMText
 10
387.1219455324056
 20
-1207.313761331623
 30
0.0
 40
2.5
 41
0.0
 46
0.0
 71
     5
 72
     1
  1
%%C4.65
 73
     1
 44
1.0
  0
POINT
  5
12A7
330
1231
100
AcDbEntity
  8
Defpoints
 62
     0
100
AcDbPoint
 10
398.7469455324056
 20
-1183.441240331623
 30
0.0
  0
POINT
  5
12A8
330
1231
100
AcDbEntity
  8
Defpoints
 62
     0
100
AcDbPoint
 10
403.3969455324053
 20
-1183.441240331623
 30
0.0
  0
POINT
  5
12A9
330
1231
100
AcDbEntity
  8
Defpoints
 62
     0
100
AcDbPoint
 10
403.3969455324053
 20
-1209.188761331623
 30
0.0
  0
ENDBLK
  5
123E
330
1231
100
AcDbEntity
  8
0
100
AcDbBlockEnd
  0
ENDSEC
  0
SECTION
  2
ENTITIES
  0
LINE
  5
F9
330
36
100
AcDbEntity
  8
001
 62
     3
100
AcDbLine
 10
245.428648113552
 20
-1304.659914029672
 30
0.0
 11
245.4304081135519
 21
-1304.742050029672
 31
0.0
  0
LINE
  5
FA
330
36
100
AcDbEntity
  8
001
 62
     3
100
AcDbLine
 10
244.4524491135519
 20
-1304.692050029673
 30
0.0
 11
244.4513771135519
 21
-1304.742050029672
 31
0.0
  0
LINE
  5
17C
330
36
100
AcDbEntity
  8
001
  6
ByBlock
100
AcDbLine
 10
269.0050341135519
 20
-1286.874480029672
 30
0.0
 11
245.5826341135519
 21
-1280.598467029672
 31
0.0
  0
LINE
  5
17D
330
36
100
AcDbEntity
  8
001
  6
PHANTOM
100
AcDbLine
 10
260.552664113552
 20
-1287.715503029672
 30
0.0
 11
244.325669113552
 21
-1283.367493029672
 31
0.0
  0
LINE
  5
18B
330
36
100
AcDbEntity
  8
001
  6
PHANTOM
100
AcDbLine
 10
260.440893113552
 20
-1294.481338029672
 30
0.0
 11
229.033073113552
 21
-1294.481338029672
 31
0.0
  0
ARC
  5
18C
330
36
100
AcDbEntity
  8
001
  6
PHANTOM
100
AcDbCircle
 10
230.841223113552
 20
-1296.356338029672
 30
0.0
 40
2.604808999999999
100
AcDbArc
 50
133.9601849999997
 51
226.0398150000003
  0
ARC
  5
18D
330
36
100
AcDbEntity
  8
001
  6
PHANTOM
100
AcDbCircle
 10
230.841223113552
 20
-1300.106338029672
 30
0.0
 40
2.604808999999999
100
AcDbArc
 50
133.9601849999997
 51
226.0398150000003
  0
ARC
  5
18E
330
36
100
AcDbEntity
  8
001
  6
PHANTOM
100
AcDbCircle
 10
227.224923113552
 20
-1300.106338029672
 30
0.0
 40
2.604808999999999
100
AcDbArc
 50
313.9601849999997
 51
46.03981500000031
  0
LINE
  5
18F
330
36
100
AcDbEntity
  8
001
  6
PHANTOM
100
AcDbLine
 10
229.033073113552
 20
-1301.981338029672
 30
0.0
 11
260.440893113552
 21
-1301.981338029672
 31
0.0
  0
LINE
  5
190
330
36
100
AcDbEntity
  8
001
  6
PHANTOM
100
AcDbLine
 10
267.8629691135519
 20
-1289.674293029672
 30
0.0
 11
265.5182691135519
 21
-1289.046032029673
 31
0.0
  0
LINE
  5
191
330
36
100
AcDbEntity
  8
001
  6
PHANTOM
100
AcDbLine
 10
260.552664113552
 20
-1287.715503029672
 30
0.0
 11
264.9981641135519
 21
-1288.906671029672
 31
0.0
  0
LINE
  5
212
330
36
100
AcDbEntity
  8
001
  6
PHANTOM
100
AcDbLine
 10
286.1821971135519
 20
-1297.700089029672
 30
0.0
 11
280.2408931135519
 21
-1299.481338029673
 31
0.0
  0
LINE
  5
213
330
36
100
AcDbEntity
  8
001
  6
PHANTOM
100
AcDbLine
 10
286.1821971135519
 20
-1304.762587029672
 30
0.0
 11
280.2408931135519
 21
-1302.981338029672
 31
0.0
  0
ARC
  5
214
330
36
100
AcDbEntity
  8
001
  6
PHANTOM
100
AcDbCircle
 10
287.2408931135518
 20
-1301.231338029672
 30
0.0
 40
3.686537
100
AcDbArc
 50
253.3108619999992
 51
106.6891380000008
  0
LINE
  5
2E0
330
36
100
AcDbEntity
  8
001
100
AcDbLine
 10
289.2408931135518
 20
-1294.256338029672
 30
0.0
 11
282.5637681135519
 21
-1294.256338029672
 31
0.0
  0
LINE
  5
2F5
330
36
100
AcDbEntity
  8
001
100
AcDbLine
 10
287.690893113552
 20
-1300.981338029672
 30
0.0
 11
288.9729431135519
 21
-1300.981338029672
 31
0.0
  0
LINE
  5
2F6
330
36
100
AcDbEntity
  8
001
100
AcDbLine
 10
287.4908931135518
 20
-1300.781338029672
 30
0.0
 11
287.4908931135518
 21
-1298.241773029672
 31
0.0
  0
LINE
  5
2F7
330
36
100
AcDbEntity
  8
001
100
AcDbLine
 10
286.9908931135519
 20
-1300.781338029672
 30
0.0
 11
286.9908931135519
 21
-1298.241773029672
 31
0.0
  0
LINE
  5
2F8
330
36
100
AcDbEntity
  8
001
100
AcDbLine
 10
286.7908931135519
 20
-1300.981338029672
 30
0.0
 11
285.5088421135519
 21
-1300.981338029672
 31
0.0
  0
LINE
  5
2F9
330
36
100
AcDbEntity
  8
001
100
AcDbLine
 10
286.7908931135519
 20
-1301.481338029672
 30
0.0
 11
285.5088421135519
 21
-1301.481338029672
 31
0.0
  0
LINE
  5
2FA
330
36
100
AcDbEntity
  8
001
100
AcDbLine
 10
287.4908931135518
 20
-1301.681338029672
 30
0.0
 11
287.4908931135518
 21
-1304.220903029672
 31
0.0
  0
LINE
  5
2FB
330
36
100
AcDbEntity
  8
001
100
AcDbLine
 10
286.9908931135519
 20
-1301.681338029672
 30
0.0
 11
286.9908931135519
 21
-1304.220903029672
 31
0.0
  0
LINE
  5
2FC
330
36
100
AcDbEntity
  8
001
100
AcDbLine
 10
287.690893113552
 20
-1301.481338029672
 30
0.0
 11
288.9729431135519
 21
-1301.481338029672
 31
0.0
  0
CIRCLE
  5
2FD
330
36
100
AcDbEntity
  8
001
100
AcDbCircle
 10
287.2408931135518
 20
-1301.231338029672
 30
0.0
 40
3.0
  0
LINE
  5
2FE
330
36
100
AcDbEntity
  8
001
100
AcDbLine
 10
274.2836870475731
 20
-1291.883049376676
 30
0.0
 11
271.0445560475732
 21
-1291.883049376676
 31
0.0
  0
LINE
  5
2FF
330
36
100
AcDbEntity
  8
001
100
AcDbLine
 10
289.2408931135518
 20
-1294.256338029672
 30
0.0
 11
292.2408931135519
 21
-1294.256338029672
 31
0.0
  0
ARC
  5
300
330
36
100
AcDbEntity
  8
001
100
AcDbCircle
 10
298.2408931135519
 20
-1313.981338029672
 30
0.0
 40
0.5
100
AcDbArc
 50
180.0
 51
270.0
  0
LINE
  5
301
330
36
100
AcDbEntity
  8
001
100
AcDbLine
 10
297.7408931135519
 20
-1313.231338029672
 30
0.0
 11
297.7408931135519
 21
-1313.981338029672
 31
0.0
  0
ARC
  5
302
330
36
100
AcDbEntity
  8
001
100
AcDbCircle
 10
257.8069181135519
 20
-1291.731338029672
 30
0.0
 40
0.5
100
AcDbArc
 50
90.0
 51
162.4120460000002
  0
LINE
  5
303
330
36
100
AcDbEntity
  8
001
100
AcDbLine
 10
257.3302911135519
 20
-1291.580253029672
 30
0.0
 11
257.1792061135519
 21
-1292.056880029672
 31
0.0
  0
ARC
  5
304
330
36
100
AcDbEntity
  8
001
100
AcDbCircle
 10
256.9408931135519
 20
-1291.981338029672
 30
0.0
 40
0.25
100
AcDbArc
 50
197.5879539999995
 51
352.026859
  0
LINE
  5
305
330
36
100
AcDbEntity
  8
001
100
AcDbLine
 10
256.551494113552
 20
-1291.580253029672
 30
0.0
 11
256.7025791135519
 21
-1292.056880029672
 31
0.0
  0
ARC
  5
306
330
36
100
AcDbEntity
  8
001
100
AcDbCircle
 10
256.0748671135519
 20
-1291.731338029672
 30
0.0
 40
0.5
100
AcDbArc
 50
17.58795399999979
 51
90.0
  0
LINE
  5
307
330
36
100
AcDbEntity
  8
001
100
AcDbLine
 10
256.0748671135519
 20
-1291.231338029672
 30
0.0
 11
253.8069181135519
 21
-1291.231338029672
 31
0.0
  0
LINE
  5
308
330
36
100
AcDbEntity
  8
001
100
AcDbLine
 10
252.074867113552
 20
-1291.231338029672
 30
0.0
 11
249.8069181135519
 21
-1291.231338029672
 31
0.0
  0
ARC
  5
309
330
36
100
AcDbEntity
  8
001
100
AcDbCircle
 10
249.8069181135519
 20
-1291.731338029672
 30
0.0
 40
0.5
100
AcDbArc
 50
90.0
 51
162.4120460000002
  0
LINE
  5
30A
330
36
100
AcDbEntity
  8
001
100
AcDbLine
 10
249.3302911135519
 20
-1291.580253029672
 30
0.0
 11
249.1792061135519
 21
-1292.056880029672
 31
0.0
  0
ARC
  5
30B
330
36
100
AcDbEntity
  8
001
100
AcDbCircle
 10
248.9408931135519
 20
-1291.981338029672
 30
0.0
 40
0.25
100
AcDbArc
 50
197.5879539999995
 51
352.026859
  0
LINE
  5
30C
330
36
100
AcDbEntity
  8
001
100
AcDbLine
 10
248.5514941135519
 20
-1291.580253029672
 30
0.0
 11
248.7025791135519
 21
-1292.056880029672
 31
0.0
  0
ARC
  5
30D
330
36
100
AcDbEntity
  8
001
100
AcDbCircle
 10
248.074867113552
 20
-1291.731338029672
 30
0.0
 40
0.5
100
AcDbArc
 50
17.58795399999979
 51
90.0
  0
LINE
  5
30E
330
36
100
AcDbEntity
  8
001
100
AcDbLine
 10
245.9302931135519
 20
-1291.231338029672
 30
0.0
 11
248.074867113552
 21
-1291.231338029672
 31
0.0
  0
ARC
  5
30F
330
36
100
AcDbEntity
  8
001
100
AcDbCircle
 10
245.9302931135519
 20
-1291.731338029672
 30
0.0
 40
0.5
100
AcDbArc
 50
90.0
 51
178.7724209999999
  0
LINE
  5
310
330
36
100
AcDbEntity
  8
001
100
AcDbLine
 10
257.440893113552
 20
-1291.390713029672
 30
0.0
 11
257.440893113552
 21
-1292.781338029672
 31
0.0
  0
LINE
  5
311
330
36
100
AcDbEntity
  8
001
100
AcDbLine
 10
256.440893113552
 20
-1291.390713029672
 30
0.0
 11
256.440893113552
 21
-1292.781338029672
 31
0.0
  0
LINE
  5
312
330
36
100
AcDbEntity
  8
001
100
AcDbLine
 10
253.4408931135519
 20
-1292.781338029672
 30
0.0
 11
253.4408931135519
 21
-1291.390713029672
 31
0.0
  0
LINE
  5
313
330
36
100
AcDbEntity
  8
001
100
AcDbLine
 10
252.440893113552
 20
-1292.781338029672
 30
0.0
 11
252.440893113552
 21
-1291.390713029672
 31
0.0
  0
LINE
  5
314
330
36
100
AcDbEntity
  8
001
100
AcDbLine
 10
249.4408931135519
 20
-1292.781338029672
 30
0.0
 11
249.4408931135519
 21
-1291.390713029672
 31
0.0
  0
LINE
  5
315
330
36
100
AcDbEntity
  8
001
100
AcDbLine
 10
248.4408931135519
 20
-1292.781338029672
 30
0.0
 11
248.4408931135519
 21
-1291.390713029672
 31
0.0
  0
ARC
  5
316
330
36
100
AcDbEntity
  8
001
100
AcDbCircle
 10
252.9408931135519
 20
-1291.981338029672
 30
0.0
 40
0.25
100
AcDbArc
 50
197.5879539999995
 51
352.026859
  0
LINE
  5
317
330
36
100
AcDbEntity
  8
001
100
AcDbLine
 10
253.3302911135519
 20
-1291.580253029672
 30
0.0
 11
253.1792061135519
 21
-1292.056880029672
 31
0.0
  0
LINE
  5
318
330
36
100
AcDbEntity
  8
001
100
AcDbLine
 10
252.5514941135519
 20
-1291.580253029672
 30
0.0
 11
252.7025791135519
 21
-1292.056880029672
 31
0.0
  0
ARC
  5
319
330
36
100
AcDbEntity
  8
001
100
AcDbCircle
 10
253.8069181135519
 20
-1291.731338029672
 30
0.0
 40
0.5
100
AcDbArc
 50
90.0
 51
162.4120460000002
  0
ARC
  5
31A
330
36
100
AcDbEntity
  8
001
100
AcDbCircle
 10
252.074867113552
 20
-1291.731338029672
 30
0.0
 40
0.5
100
AcDbArc
 50
17.58795399999979
 51
90.0
  0
ARC
  5
31B
330
36
100
AcDbEntity
  8
001
100
AcDbCircle
 10
244.4288771135519
 20
-1291.781338029672
 30
0.0
 40
1.0
100
AcDbArc
 50
270.0
 51
358.772421
  0
ARC
  5
31C
330
36
100
AcDbEntity
  8
001
100
AcDbCircle
 10
243.9525641135519
 20
-1291.781338029672
 30
0.0
 40
0.5
100
AcDbArc
 50
270.0
 51
4.094221000000011
  0
ARC
  5
31D
330
36
100
AcDbEntity
  8
001
100
AcDbCircle
 10
243.9514921135519
 20
-1291.731338029672
 30
0.0
 40
0.5
100
AcDbArc
 50
1.227579000000063
 51
90.0
  0
LINE
  5
31E
330
36
100
AcDbEntity
  8
001
100
AcDbLine
 10
243.9514921135519
 20
-1291.231338029672
 30
0.0
 11
242.9408931135519
 21
-1291.231338029672
 31
0.0
  0
ARC
  5
31F
330
36
100
AcDbEntity
  8
001
100
AcDbCircle
 10
257.8069181135519
 20
-1304.731338029673
 30
0.0
 40
0.5
100
AcDbArc
 50
197.5879539999995
 51
270.0
  0
LINE
  5
320
330
36
100
AcDbEntity
  8
001
100
AcDbLine
 10
257.3302911135519
 20
-1304.882423029672
 30
0.0
 11
257.1792061135519
 21
-1304.405795029672
 31
0.0
  0
ARC
  5
321
330
36
100
AcDbEntity
  8
001
100
AcDbCircle
 10
256.9408931135519
 20
-1304.481338029672
 30
0.0
 40
0.25
100
AcDbArc
 50
7.97314100000003
 51
162.4120460000002
  0
LINE
  5
322
330
36
100
AcDbEntity
  8
001
100
AcDbLine
 10
256.551494113552
 20
-1304.882423029672
 30
0.0
 11
256.7025791135519
 21
-1304.405795029672
 31
0.0
  0
ARC
  5
323
330
36
100
AcDbEntity
  8
001
100
AcDbCircle
 10
256.0748671135519
 20
-1304.731338029673
 30
0.0
 40
0.5
100
AcDbArc
 50
270.0
 51
342.4120460000002
  0
LINE
  5
324
330
36
100
AcDbEntity
  8
001
100
AcDbLine
 10
256.0748671135519
 20
-1305.231338029672
 30
0.0
 11
253.8069181135519
 21
-1305.231338029672
 31
0.0
  0
ARC
  5
325
330
36
100
AcDbEntity
  8
001
100
AcDbCircle
 10
253.8069181135519
 20
-1304.731338029673
 30
0.0
 40
0.5
100
AcDbArc
 50
197.5879539999995
 51
270.0
  0
LINE
  5
326
330
36
100
AcDbEntity
  8
001
100
AcDbLine
 10
253.3302911135519
 20
-1304.882423029672
 30
0.0
 11
253.1792061135519
 21
-1304.405795029672
 31
0.0
  0
ARC
  5
327
330
36
100
AcDbEntity
  8
001
100
AcDbCircle
 10
252.9408931135519
 20
-1304.481338029672
 30
0.0
 40
0.25
100
AcDbArc
 50
7.97314100000003
 51
162.4120460000002
  0
LINE
  5
328
330
36
100
AcDbEntity
  8
001
100
AcDbLine
 10
252.5514941135519
 20
-1304.882423029672
 30
0.0
 11
252.7025791135519
 21
-1304.405795029672
 31
0.0
  0
ARC
  5
329
330
36
100
AcDbEntity
  8
001
100
AcDbCircle
 10
252.074867113552
 20
-1304.731338029673
 30
0.0
 40
0.5
100
AcDbArc
 50
270.0
 51
342.4120460000002
  0
LINE
  5
32A
330
36
100
AcDbEntity
  8
001
100
AcDbLine
 10
252.074867113552
 20
-1305.231338029672
 30
0.0
 11
249.8069181135519
 21
-1305.231338029672
 31
0.0
  0
ARC
  5
32B
330
36
100
AcDbEntity
  8
001
100
AcDbCircle
 10
249.8069181135519
 20
-1304.731338029673
 30
0.0
 40
0.5
100
AcDbArc
 50
197.5879539999995
 51
270.0
  0
LINE
  5
32C
330
36
100
AcDbEntity
  8
001
100
AcDbLine
 10
249.3302911135519
 20
-1304.882423029672
 30
0.0
 11
249.1792061135519
 21
-1304.405795029672
 31
0.0
  0
ARC
  5
32D
330
36
100
AcDbEntity
  8
001
100
AcDbCircle
 10
248.9408931135519
 20
-1304.481338029672
 30
0.0
 40
0.25
100
AcDbArc
 50
17.58795399999979
 51
162.4120460000002
  0
LINE
  5
32E
330
36
100
AcDbEntity
  8
001
100
AcDbLine
 10
248.5514941135519
 20
-1304.882423029672
 30
0.0
 11
248.7025791135519
 21
-1304.405795029672
 31
0.0
  0
ARC
  5
32F
330
36
100
AcDbEntity
  8
001
100
AcDbCircle
 10
248.074867113552
 20
-1304.731338029673
 30
0.0
 40
0.5
100
AcDbArc
 50
270.0
 51
342.4120460000002
  0
LINE
  5
330
330
36
100
AcDbEntity
  8
001
100
AcDbLine
 10
245.9302931135519
 20
-1305.231338029672
 30
0.0
 11
248.074867113552
 21
-1305.231338029672
 31
0.0
  0
LINE
  5
331
330
36
100
AcDbEntity
  8
001
100
AcDbLine
 10
257.440893113552
 20
-1303.681338029672
 30
0.0
 11
257.440893113552
 21
-1305.071963029672
 31
0.0
  0
LINE
  5
332
330
36
100
AcDbEntity
  8
001
100
AcDbLine
 10
256.440893113552
 20
-1303.681338029672
 30
0.0
 11
256.440893113552
 21
-1305.071963029672
 31
0.0
  0
LINE
  5
333
330
36
100
AcDbEntity
  8
001
100
AcDbLine
 10
253.4408931135519
 20
-1303.681338029672
 30
0.0
 11
253.4408931135519
 21
-1305.071963029672
 31
0.0
  0
LINE
  5
334
330
36
100
AcDbEntity
  8
001
100
AcDbLine
 10
252.440893113552
 20
-1303.681338029672
 30
0.0
 11
252.440893113552
 21
-1305.071963029672
 31
0.0
  0
LINE
  5
335
330
36
100
AcDbEntity
  8
001
100
AcDbLine
 10
249.4408931135519
 20
-1303.681338029672
 30
0.0
 11
249.4408931135519
 21
-1305.071963029672
 31
0.0
  0
LINE
  5
336
330
36
100
AcDbEntity
  8
001
100
AcDbLine
 10
248.4408931135519
 20
-1303.681338029672
 30
0.0
 11
248.4408931135519
 21
-1305.071963029672
 31
0.0
  0
ARC
  5
337
330
36
100
AcDbEntity
  8
001
100
AcDbCircle
 10
245.9302931135519
 20
-1304.731338029673
 30
0.0
 40
0.5
100
AcDbArc
 50
181.2275790000001
 51
270.0
  0
ARC
  5
338
330
36
100
AcDbEntity
  8
001
100
AcDbCircle
 10
243.9514921135519
 20
-1304.731338029673
 30
0.0
 40
0.5
100
AcDbArc
 50
270.0
 51
358.772421
  0
ARC
  5
339
330
36
100
AcDbEntity
  8
001
100
AcDbCircle
 10
244.4288771135519
 20
-1304.681338029672
 30
0.0
 40
1.0
100
AcDbArc
 50
1.227579000000063
 51
90.0
  0
ARC
  5
33A
330
36
100
AcDbEntity
  8
001
100
AcDbCircle
 10
243.9525641135519
 20
-1304.681338029672
 30
0.0
 40
0.5
100
AcDbArc
 50
358.772421
 51
90.0
  0
LINE
  5
33B
330
36
100
AcDbEntity
  8
001
100
AcDbLine
 10
243.9514921135519
 20
-1305.231338029672
 30
0.0
 11
242.9408931135519
 21
-1305.231338029672
 31
0.0
  0
LINE
  5
38D
330
36
100
AcDbEntity
  8
001
 62
     3
100
AcDbLine
 10
237.4408931135519
 20
-1294.481338029672
 30
0.0
 11
237.4408931135519
 21
-1301.981338029672
 31
0.0
  0
LINE
  5
38E
330
36
100
AcDbEntity
  8
001
 62
     3
100
AcDbLine
 10
237.4408931135519
 20
-1292.781338029672
 30
0.0
 11
237.4408931135519
 21
-1294.481338029672
 31
0.0
  0
LINE
  5
38F
330
36
100
AcDbEntity
  8
001
 62
     3
100
AcDbLine
 10
237.4408931135519
 20
-1301.981338029672
 30
0.0
 11
237.4408931135519
 21
-1303.681338029672
 31
0.0
  0
LINE
  5
390
330
36
100
AcDbEntity
  8
001
 62
     3
100
AcDbLine
 10
242.9408931135519
 20
-1308.031338029672
 30
0.0
 11
242.9408931135519
 21
-1304.181338029672
 31
0.0
  0
LINE
  5
391
330
36
100
AcDbEntity
  8
001
 62
     3
100
AcDbLine
 10
242.9408931135519
 20
-1288.431338029672
 30
0.0
 11
242.9408931135519
 21
-1292.281338029672
 31
0.0
  0
ARC
  5
392
330
36
100
AcDbEntity
  8
001
 62
     3
100
AcDbCircle
 10
243.1408931135519
 20
-1288.431338029672
 30
0.0
 40
0.2
100
AcDbArc
 50
90.0
 51
180.0
  0
LINE
  5
393
330
36
100
AcDbEntity
  8
001
 62
     3
100
AcDbLine
 10
243.1408931135519
 20
-1288.231338029672
 30
0.0
 11
246.9408931135519
 21
-1288.231338029672
 31
0.0
  0
ARC
  5
394
330
36
100
AcDbEntity
  8
001
 62
     3
100
AcDbCircle
 10
247.940893113552
 20
-1288.731338029672
 30
0.0
 40
1.0
100
AcDbArc
 50
180.0
 51
270.0
  0
LINE
  5
395
330
36
100
AcDbEntity
  8
001
 62
     3
100
AcDbLine
 10
247.940893113552
 20
-1289.731338029672
 30
0.0
 11
258.069940113552
 21
-1289.731338029672
 31
0.0
  0
LINE
  5
396
330
36
100
AcDbEntity
  8
001
 62
     3
100
AcDbLine
 10
246.9408931135519
 20
-1288.731338029672
 30
0.0
 11
246.9408931135519
 21
-1288.231338029672
 31
0.0
  0
ARC
  5
397
330
36
100
AcDbEntity
  8
001
 62
     3
100
AcDbCircle
 10
258.069940113552
 20
-1284.731338029672
 30
0.0
 40
5.0
100
AcDbArc
 50
270.0
 51
294.3530600000002
  0
LINE
  5
398
330
36
100
AcDbEntity
  8
001
 62
     3
100
AcDbLine
 10
260.487959113552
 20
-1287.956984029672
 30
0.0
 11
260.1317311135519
 21
-1289.286447029672
 31
0.0
  0
LINE
  5
399
330
36
100
AcDbEntity
  8
001
 62
     3
100
AcDbLine
 10
247.940893113552
 20
-1306.731338029673
 30
0.0
 11
258.069940113552
 21
-1306.731338029673
 31
0.0
  0
ARC
  5
39A
330
36
100
AcDbEntity
  8
001
 62
     3
100
AcDbCircle
 10
258.069940113552
 20
-1311.731338029672
 30
0.0
 40
5.0
100
AcDbArc
 50
37.85290299999986
 51
90.0
  0
ARC
  5
39B
330
36
100
AcDbEntity
  8
001
 62
     3
100
AcDbCircle
 10
247.940893113552
 20
-1307.731338029672
 30
0.0
 40
1.0
100
AcDbArc
 50
90.0
 51
180.0
  0
LINE
  5
39C
330
36
100
AcDbEntity
  8
001
 62
     3
100
AcDbLine
 10
246.9408931135519
 20
-1307.731338029672
 30
0.0
 11
246.9408931135519
 21
-1308.231338029672
 31
0.0
  0
LINE
  5
39D
330
36
100
AcDbEntity
  8
001
 62
     3
100
AcDbLine
 10
243.1408931135519
 20
-1308.231338029672
 30
0.0
 11
246.9408931135519
 21
-1308.231338029672
 31
0.0
  0
ARC
  5
39E
330
36
100
AcDbEntity
  8
001
 62
     3
100
AcDbCircle
 10
243.1408931135519
 20
-1308.031338029672
 30
0.0
 40
0.2
100
AcDbArc
 50
180.0
 51
270.0
  0
LINE
  5
39F
330
36
100
AcDbEntity
  8
001
 62
     3
100
AcDbLine
 10
261.329121113552
 20
-1284.817725029673
 30
0.0
 11
261.9761691135519
 21
-1282.402911029672
 31
0.0
  0
LINE
  5
3A0
330
36
100
AcDbEntity
  8
001
 62
     3
100
AcDbLine
 10
261.9761691135519
 20
-1282.402911029672
 30
0.0
 11
266.6792501135519
 21
-1283.663098029672
 31
0.0
  0
ARC
  5
3A1
330
36
100
AcDbEntity
  8
001
 62
     3
100
AcDbCircle
 10
275.4408931135519
 20
-1298.231338029672
 30
0.0
 40
17.0
100
AcDbArc
 50
90.0
 51
121.0235749999988
  0
LINE
  5
3A2
330
36
100
AcDbEntity
  8
001
 62
     3
100
AcDbLine
 10
295.440893113552
 20
-1281.231338029672
 30
0.0
 11
275.4408931135519
 21
-1281.231338029672
 31
0.0
  0
LINE
  5
3A3
330
36
100
AcDbEntity
  8
001
 62
     3
100
AcDbLine
 10
295.440893113552
 20
-1315.231338029672
 30
0.0
 11
275.4408931135519
 21
-1315.231338029672
 31
0.0
  0
ARC
  5
3A4
330
36
100
AcDbEntity
  8
001
 62
     3
100
AcDbCircle
 10
275.4408931135519
 20
-1298.231338029672
 30
0.0
 40
17.0
100
AcDbArc
 50
217.8529029999998
 51
270.0
  0
ARC
  5
3A5
330
36
100
AcDbEntity
  8
001
 62
     3
100
AcDbCircle
 10
298.5774711135519
 20
-1314.513713029672
 30
0.0
 40
3.217624
100
AcDbArc
 50
192.8870179999998
 51
332.8629490000001
  0
LINE
  5
3A6
330
36
100
AcDbEntity
  8
001
 62
     3
100
AcDbLine
 10
302.940893113552
 20
-1280.481338029672
 30
0.0
 11
302.940893113552
 21
-1315.981338029672
 31
0.0
  0
LINE
  5
3A7
330
36
100
AcDbEntity
  8
001
 62
     3
100
AcDbLine
 10
302.940893113552
 20
-1280.481338029672
 30
0.0
 11
301.440893113552
 21
-1280.481338029672
 31
0.0
  0
ARC
  5
3A8
330
36
100
AcDbEntity
  8
001
 62
     3
100
AcDbCircle
 10
298.5774711135519
 20
-1281.948962029672
 30
0.0
 40
3.217624
100
AcDbArc
 50
27.13705099999986
 51
167.1129820000002
  0
LINE
  5
3A9
330
36
100
AcDbEntity
  8
001
 62
     3
100
AcDbLine
 10
302.940893113552
 20
-1315.981338029672
 30
0.0
 11
301.440893113552
 21
-1315.981338029672
 31
0.0
  0
LINE
  5
3AB
330
36
100
AcDbEntity
  8
001
100
AcDbLine
 10
243.9525641135519
 20
-1304.181338029672
 30
0.0
 11
240.9408931135519
 21
-1304.181338029672
 31
0.0
  0
LINE
  5
3AC
330
36
100
AcDbEntity
  8
001
100
AcDbLine
 10
243.9525641135519
 20
-1292.281338029672
 30
0.0
 11
240.9408931135519
 21
-1292.281338029672
 31
0.0
  0
LINE
  5
3AD
330
36
100
AcDbEntity
  8
001
100
AcDbLine
 10
240.9408931135519
 20
-1292.781338029672
 30
0.0
 11
240.9408931135519
 21
-1292.281338029672
 31
0.0
  0
LINE
  5
3AF
330
36
100
AcDbEntity
  8
001
100
AcDbLine
 10
240.9408931135519
 20
-1304.181338029672
 30
0.0
 11
240.9408931135519
 21
-1303.681338029672
 31
0.0
  0
ARC
  5
3B0
330
36
100
AcDbEntity
  8
001
100
AcDbCircle
 10
286.7908931135519
 20
-1300.781338029672
 30
0.0
 40
0.2
100
AcDbArc
 50
270.0
 51
0.0
  0
ARC
  5
3B1
330
36
100
AcDbEntity
  8
001
100
AcDbCircle
 10
287.690893113552
 20
-1300.781338029672
 30
0.0
 40
0.2
100
AcDbArc
 50
180.0
 51
270.0
  0
ARC
  5
3B2
330
36
100
AcDbEntity
  8
001
100
AcDbCircle
 10
287.690893113552
 20
-1301.681338029672
 30
0.0
 40
0.2
100
AcDbArc
 50
90.0
 51
180.0
  0
ARC
  5
3B3
330
36
100
AcDbEntity
  8
001
100
AcDbCircle
 10
286.7908931135519
 20
-1301.681338029672
 30
0.0
 40
0.2
100
AcDbArc
 50
0.0
 51
90.0
  0
ARC
  5
3B4
330
36
100
AcDbEntity
  8
001
100
AcDbCircle
 10
268.8756251135519
 20
-1287.357443029672
 30
0.0
 40
0.5
100
AcDbArc
 50
59.43437400000131
 51
74.99999999999889
  0
ARC
  5
3B5
330
36
100
AcDbEntity
  8
001
100
AcDbCircle
 10
267.7335591135519
 20
-1290.157256029672
 30
0.0
 40
0.5
100
AcDbArc
 50
54.75281100000049
 51
74.99999999999889
  0
LINE
  5
3B6
330
36
100
AcDbEntity
  8
001
100
AcDbLine
 10
265.5182691135519
 20
-1289.046032029673
 30
0.0
 11
264.9981641135519
 21
-1288.906671029672
 31
0.0
  0
LINE
  5
3BB
330
36
100
AcDbEntity
  8
001
100
AcDbLine
 10
290.2408931135519
 20
-1293.756338029672
 30
0.0
 11
290.2408931135519
 21
-1294.256338029672
 31
0.0
  0
ARC
  5
3BC
330
36
100
AcDbEntity
  8
001
100
AcDbCircle
 10
288.7408931135519
 20
-1293.756338029672
 30
0.0
 40
1.5
100
AcDbArc
 50
0.0
 51
90.0
  0
LINE
  5
3BD
330
36
100
AcDbEntity
  8
001
100
AcDbLine
 10
288.7408931135519
 20
-1292.256338029672
 30
0.0
 11
285.7408931135519
 21
-1292.256338029672
 31
0.0
  0
ARC
  5
3BE
330
36
100
AcDbEntity
  8
001
100
AcDbCircle
 10
285.7408931135519
 20
-1293.756338029672
 30
0.0
 40
1.5
100
AcDbArc
 50
90.0
 51
180.0
  0
LINE
  5
3BF
330
36
100
AcDbEntity
  8
001
100
AcDbLine
 10
284.2408931135519
 20
-1293.756338029672
 30
0.0
 11
284.2408931135519
 21
-1294.256338029672
 31
0.0
  0
LINE
  5
3C4
330
36
100
AcDbEntity
  8
001
100
AcDbLine
 10
294.2408931135519
 20
-1286.656338029672
 30
0.0
 11
294.2408931135519
 21
-1294.756338029672
 31
0.0
  0
TEXT
  5
3C5
330
36
100
AcDbEntity
  8
001
 62
     3
100
AcDbText
 10
272.0848861135519
 20
-1325.643718029672
 30
0.0
 40
4.5
  1
結　線　図
 41
0.833333
100
AcDbText
  0
LINE
  5
3E7
330
36
100
AcDbEntity
  8
001
 62
     3
100
AcDbLine
 10
245.428648113552
 20
-1291.802761029672
 30
0.0
 11
245.4304081135519
 21
-1291.720626029672
 31
0.0
  0
LINE
  5
3E8
330
36
100
AcDbEntity
  8
001
 62
     3
100
AcDbLine
 10
244.451288113552
 20
-1291.745639029672
 30
0.0
 11
244.451288113552
 21
-1291.720626029672
 31
0.0
  0
LINE
  5
3E9
330
36
100
AcDbEntity
  8
001
 62
     3
100
AcDbLine
 10
260.487959113552
 20
-1287.956984029672
 30
0.0
 11
260.552664113552
 21
-1287.715503029672
 31
0.0
  0
LINE
  5
3ED
330
36
100
AcDbEntity
  8
001
 62
     3
100
AcDbLine
 10
269.1573101135519
 20
-1295.052186029672
 30
0.0
 11
269.2408931135519
 21
-1295.023901029672
 31
0.0
  0
ARC
  5
3EE
330
36
100
AcDbEntity
  8
001
 62
     3
100
AcDbCircle
 10
275.4408931135519
 20
-1295.456338029672
 30
0.0
 40
0.7
100
AcDbArc
 50
266.6610850000007
 51
270.0
  0
LINE
  5
40E
330
36
100
AcDbEntity
  8
001
100
AcDbLine
 10
294.2408931135519
 20
-1283.231338029672
 30
0.0
 11
297.7408931135519
 21
-1283.231338029672
 31
0.0
  0
LINE
  5
40F
330
36
100
AcDbEntity
  8
001
100
AcDbLine
 10
300.940893113552
 20
-1283.231338029672
 30
0.0
 11
302.940893113552
 21
-1283.231338029672
 31
0.0
  0
LINE
  5
410
330
36
100
AcDbEntity
  8
001
100
AcDbLine
 10
292.2408931135519
 20
-1294.256338029672
 30
0.0
 11
292.2408931135519
 21
-1283.231338029672
 31
0.0
  0
LINE
  5
411
330
36
100
AcDbEntity
  8
001
100
AcDbLine
 10
292.2408931135519
 20
-1284.731338029672
 30
0.0
 11
275.4408931135519
 21
-1284.731338029672
 31
0.0
  0
LINE
  5
412
330
36
100
AcDbEntity
  8
001
100
AcDbLine
 10
294.2408931135519
 20
-1283.231338029672
 30
0.0
 11
285.807756113552
 21
-1283.231338029672
 31
0.0
  0
LINE
  5
413
330
36
100
AcDbEntity
  8
001
100
AcDbLine
 10
285.807756113552
 20
-1283.231338029672
 30
0.0
 11
285.807756113552
 21
-1284.731338029672
 31
0.0
  0
ARC
  5
414
330
36
100
AcDbEntity
  8
001
100
AcDbCircle
 10
275.4408931135519
 20
-1298.231338029672
 30
0.0
 40
13.5
100
AcDbArc
 50
90.0
 51
121.4334209999996
  0
ARC
  5
415
330
36
100
AcDbEntity
  8
001
100
AcDbCircle
 10
259.8283981135519
 20
-1282.731338029672
 30
0.0
 40
8.5
100
AcDbArc
 50
270.0
 51
312.020509999999
  0
LINE
  5
416
330
36
100
AcDbEntity
  8
001
100
AcDbLine
 10
259.8283981135519
 20
-1291.231338029672
 30
0.0
 11
257.8069181135519
 21
-1291.231338029672
 31
0.0
  0
LINE
  5
417
330
36
100
AcDbEntity
  8
001
100
AcDbLine
 10
259.8283981135519
 20
-1305.231338029672
 30
0.0
 11
257.8069181135519
 21
-1305.231338029672
 31
0.0
  0
ARC
  5
418
330
36
100
AcDbEntity
  8
001
100
AcDbCircle
 10
259.8283981135519
 20
-1313.731338029672
 30
0.0
 40
8.5
100
AcDbArc
 50
44.79283399999894
 51
90.0
  0
LINE
  5
419
330
36
100
AcDbEntity
  8
001
100
AcDbLine
 10
282.2408931135519
 20
-1307.731338029672
 30
0.0
 11
265.8492301135519
 21
-1307.731338029672
 31
0.0
  0
LINE
  5
41A
330
36
100
AcDbEntity
  8
001
100
AcDbLine
 10
292.2408931135519
 20
-1307.731338029672
 30
0.0
 11
282.2408931135519
 21
-1307.731338029672
 31
0.0
  0
LINE
  5
41B
330
36
100
AcDbEntity
  8
001
100
AcDbLine
 10
282.2408931135519
 20
-1307.731338029672
 30
0.0
 11
282.2408931135519
 21
-1303.534634029672
 31
0.0
  0
LINE
  5
41C
330
36
100
AcDbEntity
  8
001
100
AcDbLine
 10
302.940893113552
 20
-1296.256338029672
 30
0.0
 11
275.1868581135519
 21
-1296.256338029672
 31
0.0
  0
LINE
  5
41D
330
36
100
AcDbEntity
  8
001
100
AcDbLine
 10
274.7408931135519
 20
-1298.231338029672
 30
0.0
 11
274.7408931135519
 21
-1296.490515029672
 31
0.0
  0
LINE
  5
41E
330
36
100
AcDbEntity
  8
001
100
AcDbLine
 10
274.7408931135519
 20
-1298.231338029672
 30
0.0
 11
284.4102311135518
 21
-1298.231338029672
 31
0.0
  0
LINE
  5
41F
330
36
100
AcDbEntity
  8
001
100
AcDbLine
 10
289.3834511135519
 20
-1298.231338029672
 30
0.0
 11
292.2408931135519
 21
-1298.231338029672
 31
0.0
  0
LINE
  5
420
330
36
100
AcDbEntity
  8
001
100
AcDbLine
 10
292.2408931135519
 20
-1312.731338029673
 30
0.0
 11
292.2408931135519
 21
-1298.231338029672
 31
0.0
  0
LINE
  5
421
330
36
100
AcDbEntity
  8
001
100
AcDbLine
 10
292.2408931135519
 20
-1312.731338029673
 30
0.0
 11
294.2408931135519
 21
-1313.231338029672
 31
0.0
  0
LINE
  5
422
330
36
100
AcDbEntity
  8
001
100
AcDbLine
 10
294.2408931135519
 20
-1313.231338029672
 30
0.0
 11
295.7408931135518
 21
-1313.231338029672
 31
0.0
  0
ARC
  5
423
330
36
100
AcDbEntity
  8
001
100
AcDbCircle
 10
298.2408931135519
 20
-1312.731338029673
 30
0.0
 40
2.5
100
AcDbArc
 50
191.5369590000002
 51
270.0
  0
LINE
  5
424
330
36
100
AcDbEntity
  8
001
100
AcDbLine
 10
298.2408931135519
 20
-1315.231338029672
 30
0.0
 11
302.940893113552
 21
-1315.231338029672
 31
0.0
  0
LINE
  5
425
330
36
100
AcDbEntity
  8
001
100
AcDbLine
 10
298.2408931135519
 20
-1314.481338029672
 30
0.0
 11
300.940893113552
 21
-1314.481338029672
 31
0.0
  0
LINE
  5
426
330
36
100
AcDbEntity
  8
001
100
AcDbLine
 10
295.7408931135518
 20
-1313.231338029672
 30
0.0
 11
297.7408931135519
 21
-1313.231338029672
 31
0.0
  0
LINE
  5
427
330
36
100
AcDbEntity
  8
001
100
AcDbLine
 10
271.7603448181194
 20
-1326.184391635204
 30
0.0
 11
293.7603448181194
 21
-1326.184391635204
 31
0.0
  0
LINE
  5
438
330
36
100
AcDbEntity
  8
001
 62
     3
100
AcDbLine
 10
322.0158931135518
 20
-1287.531338029672
 30
0.0
 11
302.940893113552
 21
-1287.531338029672
 31
0.0
  0
LINE
  5
439
330
36
100
AcDbEntity
  8
001
 62
     3
100
AcDbLine
 10
322.0158931135518
 20
-1292.181338029672
 30
0.0
 11
302.940893113552
 21
-1292.181338029672
 31
0.0
  0
ARC
  5
43A
330
36
100
AcDbEntity
  8
001
 62
     3
100
AcDbCircle
 10
322.0158931135518
 20
-1289.856338029672
 30
0.0
 40
2.325
100
AcDbArc
 50
270.0
 51
90.0
  0
LINE
  5
463
330
36
100
AcDbEntity
  8
001
  6
PHANTOM
100
AcDbLine
 10
275.2408931135519
 20
-1302.981338029672
 30
0.0
 11
280.2408931135519
 21
-1302.981338029672
 31
0.0
  0
LINE
  5
464
330
36
100
AcDbEntity
  8
001
  6
PHANTOM
100
AcDbLine
 10
275.2408931135519
 20
-1302.981338029672
 30
0.0
 11
275.2408931135519
 21
-1299.481338029673
 31
0.0
  0
LINE
  5
465
330
36
100
AcDbEntity
  8
001
  6
PHANTOM
100
AcDbLine
 10
275.2408931135519
 20
-1299.481338029673
 30
0.0
 11
280.2408931135519
 21
-1299.481338029673
 31
0.0
  0
LINE
  5
466
330
36
100
AcDbEntity
  8
001
  6
PHANTOM
100
AcDbLine
 10
280.2408931135519
 20
-1302.981338029672
 30
0.0
 11
280.2408931135519
 21
-1299.481338029673
 31
0.0
  0
LINE
  5
4B2
330
36
100
AcDbEntity
  8
001
100
AcDbLine
 10
294.2408931135519
 20
-1295.456338029672
 30
0.0
 11
276.814315113552
 21
-1295.456338029672
 31
0.0
  0
LINE
  5
4B3
330
36
100
AcDbEntity
  8
001
100
AcDbLine
 10
294.2408931135519
 20
-1294.756338029672
 30
0.0
 11
279.0624221135519
 21
-1294.756338029672
 31
0.0
  0
LINE
  5
4B4
330
36
100
AcDbEntity
  8
001
100
AcDbLine
 10
282.2408931135519
 20
-1298.928041029673
 30
0.0
 11
282.2408931135519
 21
-1298.231338029672
 31
0.0
  0
LINE
  5
4B6
330
36
100
AcDbEntity
  8
001
100
AcDbLine
 10
293.6408931135519
 20
-1295.456338029672
 30
0.0
 11
293.6408931135519
 21
-1296.156338029672
 31
0.0
  0
ARC
  5
4B7
330
36
100
AcDbEntity
  8
001
100
AcDbCircle
 10
294.2408931135519
 20
-1294.756338029672
 30
0.0
 40
0.7
100
AcDbArc
 50
270.0
 51
0.0
  0
LINE
  5
4B8
330
36
100
AcDbEntity
  8
001
100
AcDbLine
 10
294.940893113552
 20
-1294.756338029672
 30
0.0
 11
294.940893113552
 21
-1286.656338029672
 31
0.0
  0
LINE
  5
4B9
330
36
100
AcDbEntity
  8
001
100
AcDbLine
 10
294.940893113552
 20
-1286.656338029672
 30
0.0
 11
302.940893113552
 21
-1286.656338029672
 31
0.0
  0
LINE
  5
4BA
330
36
100
AcDbEntity
  8
001
100
AcDbLine
 10
294.940893113552
 20
-1285.956338029672
 30
0.0
 11
302.940893113552
 21
-1285.956338029672
 31
0.0
  0
ARC
  5
4BB
330
36
100
AcDbEntity
  8
001
100
AcDbCircle
 10
294.940893113552
 20
-1286.656338029672
 30
0.0
 40
0.7
100
AcDbArc
 50
90.0
 51
180.0
  0
LINE
  5
4BC
330
36
100
AcDbEntity
  8
001
100
AcDbLine
 10
300.940893113552
 20
-1281.731338029672
 30
0.0
 11
300.940893113552
 21
-1283.231338029672
 31
0.0
  0
LINE
  5
4BD
330
36
100
AcDbEntity
  8
001
100
AcDbLine
 10
301.440893113552
 20
-1290.356338029672
 30
0.0
 11
302.940893113552
 21
-1292.181338029672
 31
0.0
  0
LINE
  5
4BE
330
36
100
AcDbEntity
  8
001
100
AcDbLine
 10
300.233859113552
 20
-1291.598541029672
 30
0.0
 11
301.440893113552
 21
-1290.356338029672
 31
0.0
  0
ARC
  5
4BF
330
36
100
AcDbEntity
  8
001
100
AcDbCircle
 10
298.4408931135519
 20
-1289.856338029672
 30
0.0
 40
2.5
100
AcDbArc
 50
90.0
 51
315.822673999999
  0
LINE
  5
4C0
330
36
100
AcDbEntity
  8
001
100
AcDbLine
 10
298.4408931135519
 20
-1287.356338029672
 30
0.0
 11
302.940893113552
 21
-1287.356338029672
 31
0.0
  0
LINE
  5
4E1
330
36
100
AcDbEntity
  8
001
 62
     3
100
AcDbLine
 10
260.440893113552
 20
-1292.781338029672
 30
0.0
 11
237.4408931135519
 21
-1292.781338029672
 31
0.0
  0
LINE
  5
4E2
330
36
100
AcDbEntity
  8
001
 62
     3
100
AcDbLine
 10
237.4408931135519
 20
-1303.681338029672
 30
0.0
 11
260.440893113552
 21
-1303.681338029672
 31
0.0
  0
LINE
  5
4E3
330
36
100
AcDbEntity
  8
001
 62
     3
100
AcDbLine
 10
260.440893113552
 20
-1292.781338029672
 30
0.0
 11
260.440893113552
 21
-1303.681338029672
 31
0.0
  0
LINE
  5
4E4
330
36
100
AcDbEntity
  8
001
 62
     3
100
AcDbLine
 10
302.940893113552
 20
-1298.231338029672
 30
0.0
 11
318.440893113552
 21
-1298.231338029672
 31
0.0
  0
LINE
  5
4E5
330
36
100
AcDbEntity
  8
001
 62
     3
100
AcDbLine
 10
318.440893113552
 20
-1304.531338029672
 30
0.0
 11
302.940893113552
 21
-1304.531338029672
 31
0.0
  0
ARC
  5
4E6
330
36
100
AcDbEntity
  8
001
 62
     3
100
AcDbCircle
 10
315.883393113552
 20
-1301.381338029672
 30
0.0
 40
4.0575
100
AcDbArc
 50
309.0733099999988
 51
50.92669000000114
  0
CIRCLE
  5
4E7
330
36
100
AcDbEntity
  8
001
100
AcDbCircle
 10
314.6408931135519
 20
-1301.381338029672
 30
0.0
 40
1.5
  0
LINE
  5
4E8
330
36
100
AcDbEntity
  8
001
100
AcDbLine
 10
297.7408931135519
 20
-1281.731338029672
 30
0.0
 11
300.940893113552
 21
-1281.731338029672
 31
0.0
  0
LINE
  5
4E9
330
36
100
AcDbEntity
  8
001
100
AcDbLine
 10
297.7408931135519
 20
-1281.731338029672
 30
0.0
 11
297.7408931135519
 21
-1283.231338029672
 31
0.0
  0
CIRCLE
  5
4EA
330
36
100
AcDbEntity
  8
001
100
AcDbCircle
 10
298.4408931135519
 20
-1289.856338029672
 30
0.0
 40
1.0
  0
LINE
  5
4EB
330
36
100
AcDbEntity
  8
001
100
AcDbLine
 10
318.440893113552
 20
-1298.231338029672
 30
0.0
 11
318.440893113552
 21
-1304.531338029672
 31
0.0
  0
LINE
  5
5F6
330
36
100
AcDbEntity
  8
001
100
AcDbLine
 10
279.1483525383847
 20
-1289.238942524449
 30
0.0
 11
264.1656705383848
 21
-1258.276528524449
 31
0.0
  0
LINE
  5
5F7
330
36
100
AcDbEntity
  8
001
100
AcDbLine
 10
264.1656705383848
 20
-1258.276528524449
 30
0.0
 11
222.9156705383849
 21
-1258.276528524449
 31
0.0
  0
TEXT
  5
5F8
330
36
100
AcDbEntity
  8
001
 62
     4
100
AcDbText
 10
225.6656705383849
 20
-1257.276528524449
 30
0.0
 40
3.2
  1
アース用圧着端子2－４
 41
0.716146
100
AcDbText
  0
LINE
  5
608
330
36
100
AcDbEntity
  8
001
100
AcDbLine
 10
296.054640113552
 20
-1290.601857029672
 30
0.0
 11
295.2353731135519
 21
-1294.813620029672
 31
0.0
  0
LINE
  5
609
330
36
100
AcDbEntity
  8
001
100
AcDbLine
 10
295.9868881135518
 20
-1289.378988029672
 30
0.0
 11
294.940893113552
 21
-1294.756338029672
 31
0.0
  0
LINE
  5
60A
330
36
100
AcDbEntity
  8
001
100
AcDbLine
 10
295.2353731135519
 20
-1294.813620029672
 30
0.0
 11
294.940893113552
 21
-1294.756338029672
 31
0.0
  0
LINE
  5
620
330
36
100
AcDbEntity
  8
001
100
AcDbLine
 10
278.2310731135519
 20
-1303.386362029672
 30
0.0
 11
262.2872411135519
 21
-1321.736140029672
 31
0.0
  0
LINE
  5
621
330
36
100
AcDbEntity
  8
001
100
AcDbLine
 10
262.2872411135519
 20
-1321.736140029672
 30
0.0
 11
232.0372411135519
 21
-1321.736140029672
 31
0.0
  0
TEXT
  5
622
330
36
100
AcDbEntity
  8
001
 62
     4
100
AcDbText
 10
234.787241113552
 20
-1320.736140029672
 30
0.0
 40
3.2
  1
２－圧着端子２－４
 41
0.716146
100
AcDbText
  0
LINE
  5
639
330
36
100
AcDbEntity
  8
001
100
AcDbLine
 10
319.5076971135518
 20
-1287.959861029672
 30
0.0
 11
327.562828113552
 21
-1273.473908029673
 31
0.0
  0
CIRCLE
  5
63A
330
36
100
AcDbEntity
  8
001
100
AcDbCircle
 10
329.9927431135519
 20
-1269.104067029672
 30
0.0
 40
5.0
  0
TEXT
  5
63B
330
36
100
AcDbEntity
  8
001
 62
     4
100
AcDbText
 10
326.9927431135518
 20
-1272.594976029673
 30
0.0
 40
6.981817999999997
  1
4
100
AcDbText
  0
LINE
  5
641
330
36
100
AcDbEntity
  8
001
100
AcDbLine
 10
295.9174581135518
 20
-1291.307094029672
 30
0.0
 11
314.3733311135518
 21
-1272.657967029672
 31
0.0
  0
CIRCLE
  5
642
330
36
100
AcDbEntity
  8
001
100
AcDbCircle
 10
317.890403113552
 20
-1269.104067029672
 30
0.0
 40
5.0
  0
TEXT
  5
643
330
36
100
AcDbEntity
  8
001
 62
     4
100
AcDbText
 10
314.8904031135519
 20
-1272.594976029673
 30
0.0
 40
6.981817999999997
  1
3
100
AcDbText
  0
LINE
  5
649
330
36
100
AcDbEntity
  8
001
100
AcDbLine
 10
296.8639191135519
 20
-1285.660379029672
 30
0.0
 11
303.0550691135518
 21
-1273.555605029672
 31
0.0
  0
CIRCLE
  5
64A
330
36
100
AcDbEntity
  8
001
100
AcDbCircle
 10
305.331867113552
 20
-1269.104067029672
 30
0.0
 40
5.0
  0
TEXT
  5
64B
330
36
100
AcDbEntity
  8
001
 62
     4
100
AcDbText
 10
302.3318671135519
 20
-1272.594976029673
 30
0.0
 40
6.981817999999997
  1
2
100
AcDbText
  0
LINE
  5
651
330
36
100
AcDbEntity
  8
001
100
AcDbLine
 10
283.2432761135519
 20
-1281.231338029672
 30
0.0
 11
287.5585221135519
 21
-1273.473568029672
 31
0.0
  0
CIRCLE
  5
652
330
36
100
AcDbEntity
  8
001
100
AcDbCircle
 10
289.9890501135518
 20
-1269.104067029672
 30
0.0
 40
5.0
  0
TEXT
  5
653
330
36
100
AcDbEntity
  8
001
 62
     4
100
AcDbText
 10
286.9890501135519
 20
-1272.594976029673
 30
0.0
 40
6.981817999999997
  1
1
 41
1.499999
100
AcDbText
  0
LINE
  5
659
330
36
100
AcDbEntity
  8
001
100
AcDbLine
 10
238.6618761135519
 20
-1292.781338029672
 30
0.0
 11
234.9499111135519
 21
-1274.009093029673
 31
0.0
  0
CIRCLE
  5
65A
330
36
100
AcDbEntity
  8
001
100
AcDbCircle
 10
233.9800061135519
 20
-1269.104067029672
 30
0.0
 40
5.0
  0
TEXT
  5
65B
330
36
100
AcDbEntity
  8
001
 62
     4
100
AcDbText
 10
230.9800061135518
 20
-1272.594976029673
 30
0.0
 40
6.981817999999997
  1
7
100
AcDbText
  0
LINE
  5
889
330
36
100
AcDbEntity
  8
001
100
AcDbLine
 10
281.0772475895931
 20
-1294.256338029672
 30
0.0
 11
274.5894276490562
 21
-1294.256338029672
 31
0.0
  0
LINE
  5
88A
330
36
100
AcDbEntity
  8
001
100
AcDbLine
 10
282.0772475895931
 20
-1293.756338029672
 30
0.0
 11
282.0772475895931
 21
-1294.256338029672
 31
0.0
  0
ARC
  5
88B
330
36
100
AcDbEntity
  8
001
100
AcDbCircle
 10
280.5772475895931
 20
-1293.756338029672
 30
0.0
 40
1.5
100
AcDbArc
 50
0.0
 51
90.0
  0
LINE
  5
88C
330
36
100
AcDbEntity
  8
001
100
AcDbLine
 10
280.5772475895931
 20
-1292.256338029672
 30
0.0
 11
277.5772475895931
 21
-1292.256338029672
 31
0.0
  0
ARC
  5
88D
330
36
100
AcDbEntity
  8
001
100
AcDbCircle
 10
277.5772475895931
 20
-1293.756338029672
 30
0.0
 40
1.5
100
AcDbArc
 50
90.0
 51
180.0
  0
LINE
  5
88E
330
36
100
AcDbEntity
  8
001
100
AcDbLine
 10
276.0772475895931
 20
-1293.756338029672
 30
0.0
 11
276.0772475895931
 21
-1294.256338029672
 31
0.0
  0
LINE
  5
88F
330
36
100
AcDbEntity
  8
001
100
AcDbLine
 10
286.0772475895931
 20
-1294.756338029672
 30
0.0
 11
274.7408931135518
 21
-1294.756338029672
 31
0.0
  0
LINE
  5
891
330
36
100
AcDbEntity
  8
0
  6
Continuous
100
AcDbLine
 10
260.440893113552
 20
-1294.481338029672
 30
0.0
 11
262.3767200434591
 21
-1294.481338029672
 31
0.0
  0
LINE
  5
893
330
36
100
AcDbEntity
  8
0
  6
Continuous
100
AcDbLine
 10
262.3767200434591
 20
-1301.970818351013
 30
0.0
 11
260.440893113552
 21
-1301.970818351013
 31
0.0
  0
LINE
  5
894
330
36
100
AcDbEntity
  8
0
  6
Continuous
100
AcDbLine
 10
262.3767200434591
 20
-1294.481338029672
 30
0.0
 11
262.3767200434591
 21
-1301.970818351013
 31
0.0
  0
LINE
  5
8B1
330
36
100
AcDbEntity
  8
0
  6
Continuous
100
AcDbLine
 10
274.2836870475731
 20
-1291.883049376676
 30
0.0
 11
275.0156423055511
 21
-1293.3263969179
 31
0.0
  0
LINE
  5
8B2
330
36
100
AcDbEntity
  8
0
  6
Continuous
100
AcDbLine
 10
275.0156423055511
 20
-1293.3263969179
 30
0.0
 11
275.5801847267526
 21
-1293.858444021624
 31
0.0
  0
LINE
  5
8B3
330
36
100
AcDbEntity
  8
0
  6
Continuous
100
AcDbLine
 10
275.5801847267526
 20
-1293.858444021624
 30
0.0
 11
276.0772475895931
 21
-1294.256338029672
 31
0.0
  0
LINE
  5
8B4
330
36
100
AcDbEntity
  8
0
  6
Continuous
100
AcDbLine
 10
269.590298113552
 20
-1298.087728029672
 30
0.0
 11
266.9517963619604
 21
-1298.353328473956
 31
0.0
  0
LINE
  5
8B5
330
36
100
AcDbEntity
  8
0
  6
Continuous
100
AcDbLine
 10
266.9517963619604
 20
-1298.353328473956
 30
0.0
 11
265.3779414190543
 21
-1297.947351770894
 31
0.0
  0
LINE
  5
8B6
330
36
100
AcDbEntity
  8
0
  6
Continuous
100
AcDbLine
 10
265.3779414190543
 20
-1297.947351770894
 30
0.0
 11
263.7747993570065
 21
-1297.533820440179
 31
0.0
  0
LINE
  5
9FA
330
36
100
AcDbEntity
  8
0
  6
Continuous
100
AcDbLine
 10
276.1619545881615
 20
-1293.259401695621
 30
0.0
 11
275.6488115493334
 21
-1293.259401695622
 31
0.0
  0
LINE
  5
9FB
330
36
100
AcDbEntity
  8
0
  6
Continuous
100
AcDbLine
 10
275.6488115493334
 20
-1293.259401695622
 30
0.0
 11
274.6288402532213
 21
-1292.64894275566
 31
0.0
  0
LINE
  5
9FC
330
36
100
AcDbEntity
  8
0
  6
Continuous
100
AcDbLine
 10
271.6681605567655
 20
-1290.876958194965
 30
0.0
 11
268.0221116755138
 21
-1289.748921094864
 31
0.0
  0
LINE
  5
9FE
330
36
100
AcDbEntity
  8
0
  6
Continuous
100
AcDbLine
 10
276.4779883310056
 20
-1290.259401695622
 30
0.0
 11
273.2088190836628
 21
-1288.302784287961
 31
0.0
  0
LINE
  5
A00
330
36
100
AcDbEntity
  8
0
  6
Continuous
100
AcDbLine
 10
273.2088190836628
 20
-1288.302784287961
 30
0.0
 11
269.1298875790772
 21
-1286.92691939661
 31
0.0
  0
LINE
  5
A01
330
36
100
AcDbEntity
  8
0
  6
Continuous
100
AcDbLine
 10
273.3491648953733
 20
-1291.883049376676
 30
0.0
 11
271.6681605567655
 21
-1290.876958194965
 31
0.0
  0
LINE
  5
A02
330
36
100
AcDbEntity
  8
0
  6
Continuous
100
AcDbLine
 10
282.5637681135519
 20
-1294.256338029672
 30
0.0
 11
281.0772475895931
 21
-1294.256338029672
 31
0.0
  0
LINE
  5
A03
330
36
100
AcDbEntity
  8
0
  6
Continuous
100
AcDbLine
 10
276.814315113552
 20
-1295.456338029672
 30
0.0
 11
274.7408931135519
 21
-1295.456338029672
 31
0.0
  0
LINE
  5
A04
330
36
100
AcDbEntity
  8
0
  6
Continuous
100
AcDbLine
 10
274.7408931135519
 20
-1296.490515029672
 30
0.0
 11
274.7408931135519
 21
-1294.256338029672
 31
0.0
  0
LINE
  5
A05
330
36
100
AcDbEntity
  8
0
  6
Continuous
100
AcDbLine
 10
271.1464450475733
 20
-1294.929512376676
 30
0.0
 11
274.3653666089101
 21
-1294.756338029672
 31
0.0
  0
LINE
  5
A0A
330
36
100
AcDbEntity
  8
0
  6
Continuous
100
AcDbLine
 10
276.4779883310056
 20
-1290.259401695622
 30
0.0
 11
275.6488115493334
 21
-1293.259401695622
 31
0.0
  0
LINE
  5
A0B
330
36
100
AcDbEntity
  8
0
  6
Continuous
100
AcDbLine
 10
276.4779883310056
 20
-1290.259401695622
 30
0.0
 11
281.8062534151459
 21
-1291.829353604184
 31
0.0
  0
LINE
  5
A0D
330
36
100
AcDbEntity
  8
0
  6
Continuous
100
AcDbLine
 10
281.8062534151459
 20
-1291.829353604184
 30
0.0
 11
282.1300729488724
 21
-1292.662905902047
 31
0.0
  0
LINE
  5
A0E
330
36
100
AcDbEntity
  8
0
  6
Continuous
100
AcDbLine
 10
282.1300729488724
 20
-1292.662905902047
 30
0.0
 11
282.5902814394136
 21
-1293.254340792075
 31
0.0
  0
LINE
  5
A0F
330
36
100
AcDbEntity
  8
0
  6
Continuous
100
AcDbLine
 10
282.5902814394136
 20
-1293.254340792075
 30
0.0
 11
283.3266150242796
 21
-1293.911490884293
 31
0.0
  0
LINE
  5
A10
330
36
100
AcDbEntity
  8
0
  6
Continuous
100
AcDbLine
 10
283.3266150242796
 20
-1293.911490884293
 30
0.0
 11
283.9709059492042
 21
-1294.042920645446
 31
0.0
  0
CIRCLE
  5
A11
330
36
100
AcDbEntity
  8
001
100
AcDbCircle
 10
259.0842038942795
 20
-1268.870470111241
 30
0.0
 40
5.0
  0
TEXT
  5
A12
330
36
100
AcDbEntity
  8
001
 62
     4
100
AcDbText
 10
256.0842038942794
 20
-1272.361379111242
 30
0.0
 40
6.981817999999997
  1
9
100
AcDbText
  0
TEXT
  5
A6B
330
36
100
AcDbEntity
  8
001
 62
     3
100
AcDbText
 10
497.2248928905123
 20
-1143.469948523288
 30
0.0
 40
3.298928283558915
  1
アース用圧着端子追加
 41
0.833333
100
AcDbText
  0
TEXT
  5
A6C
330
36
100
AcDbEntity
  8
001
 62
     3
100
AcDbText
 10
479.4807463384631
 20
-1143.5588611581
 30
0.0
 40
3.546252400162233
  1
`16.4.4
 41
0.859375
100
AcDbText
  0
LINE
  5
E6B
330
36
100
AcDbEntity
  8
0
 62
     3
100
AcDbLine
 10
443.3828578698725
 20
-1263.127205796118
 30
0.0
 11
511.2787888698726
 21
-1263.127205796118
 31
0.0
  0
LINE
  5
E6C
330
36
100
AcDbEntity
  8
0
 62
     3
100
AcDbLine
 10
443.3828578698725
 20
-1235.127205796117
 30
0.0
 11
443.3828578698725
 21
-1263.127205796118
 31
0.0
  0
LINE
  5
E6D
330
36
100
AcDbEntity
  8
0
100
AcDbLine
 10
443.3828578698725
 20
-1242.127205796117
 30
0.0
 11
511.2787888698726
 21
-1242.127205796117
 31
0.0
  0
LINE
  5
E6E
330
36
100
AcDbEntity
  8
0
100
AcDbLine
 10
443.3828578698725
 20
-1249.127205796117
 30
0.0
 11
511.2787888698726
 21
-1249.127205796117
 31
0.0
  0
LINE
  5
E6F
330
36
100
AcDbEntity
  8
0
100
AcDbLine
 10
443.3828578698725
 20
-1256.127205796117
 30
0.0
 11
511.2787888698726
 21
-1256.127205796117
 31
0.0
  0
LINE
  5
E72
330
36
100
AcDbEntity
  8
0
 62
     3
100
AcDbLine
 10
294.9735765324056
 20
-1179.519223331623
 30
0.0
 11
300.1472695324056
 21
-1179.509391331623
 31
0.0
  0
CIRCLE
  5
E75
330
36
100
AcDbEntity
  8
0
 62
     3
100
AcDbCircle
 10
221.7667455324055
 20
-1183.441240331623
 30
0.0
 40
19.4971
  0
LINE
  5
E76
330
36
100
AcDbEntity
  8
0
 62
     3
100
AcDbLine
 10
281.4735765324055
 20
-1189.603885331623
 30
0.0
 11
281.4735765324055
 21
-1197.417739331623
 31
0.0
  0
ARC
  5
E77
330
36
100
AcDbEntity
  8
0
 62
     3
100
AcDbCircle
 10
285.9735765324056
 20
-1169.941240331623
 30
0.0
 40
4.525158
100
AcDbArc
 50
6.044448000004507
 51
90.0
  0
ARC
  5
E78
330
36
100
AcDbEntity
  8
0
 62
     3
100
AcDbCircle
 10
285.9735765324056
 20
-1196.941240331623
 30
0.0
 40
4.525158
100
AcDbArc
 50
186.0444480000045
 51
270.0
  0
LINE
  5
E79
330
36
100
AcDbEntity
  8
0
 62
     3
100
AcDbLine
 10
285.9735765324056
 20
-1201.466397331623
 30
0.0
 11
288.0735765324057
 21
-1201.466397331623
 31
0.0
  0
LINE
  5
E7A
330
36
100
AcDbEntity
  8
0
 62
     3
100
AcDbLine
 10
290.4735765324056
 20
-1202.341240331623
 30
0.0
 11
288.0735765324057
 21
-1202.341240331623
 31
0.0
  0
LINE
  5
E7B
330
36
100
AcDbEntity
  8
0
 62
     3
100
AcDbLine
 10
288.0735765324057
 20
-1201.466397331623
 30
0.0
 11
288.0735765324057
 21
-1202.341240331623
 31
0.0
  0
LINE
  5
E7C
330
36
100
AcDbEntity
  8
0
 62
     3
100
AcDbLine
 10
283.8735765324056
 20
-1165.416082331623
 30
0.0
 11
283.8735765324056
 21
-1164.541240331623
 31
0.0
  0
LINE
  5
E7D
330
36
100
AcDbEntity
  8
0
 62
     3
100
AcDbLine
 10
281.4735765324055
 20
-1189.603885331623
 30
0.0
 11
281.4735765324055
 21
-1164.541240331623
 31
0.0
  0
LINE
  5
E7E
330
36
100
AcDbEntity
  8
0
 62
     3
100
AcDbLine
 10
285.9735765324056
 20
-1165.416082331623
 30
0.0
 11
283.8735765324056
 21
-1165.416082331623
 31
0.0
  0
LINE
  5
E7F
330
36
100
AcDbEntity
  8
0
 62
     3
100
AcDbLine
 10
281.4735765324055
 20
-1164.541240331623
 30
0.0
 11
282.0470455324056
 21
-1164.541240331623
 31
0.0
  0
LINE
  5
E80
330
36
100
AcDbEntity
  8
0
 62
     3
100
AcDbLine
 10
282.4736325324057
 20
-1164.541240331623
 30
0.0
 11
283.8735765324056
 21
-1164.541240331623
 31
0.0
  0
LINE
  5
E81
330
36
100
AcDbEntity
  8
0
 62
     3
100
AcDbLine
 10
290.4735765324056
 20
-1202.341240331623
 30
0.0
 11
290.4735765324056
 21
-1169.464741331623
 31
0.0
  0
LINE
  5
E82
330
36
100
AcDbEntity
  8
0
 62
     3
100
AcDbLine
 10
484.0709588672699
 20
-1259.708880796118
 30
0.0
 11
481.5438988672698
 21
-1261.779666796118
 31
0.0
  0
LINE
  5
E83
330
36
100
AcDbEntity
  8
0
 62
     3
100
AcDbLine
 10
484.0709588672699
 20
-1259.708880796118
 30
0.0
 11
481.5438988672698
 21
-1257.638094796118
 31
0.0
  0
LINE
  5
E84
330
36
100
AcDbEntity
  8
0
 62
     3
100
AcDbLine
 10
470.9469358672699
 20
-1259.708880796118
 30
0.0
 11
473.4739968672697
 21
-1261.779666796118
 31
0.0
  0
LINE
  5
E85
330
36
100
AcDbEntity
  8
0
 62
     3
100
AcDbLine
 10
470.9469358672699
 20
-1259.708880796118
 30
0.0
 11
473.4739968672697
 21
-1257.638094796118
 31
0.0
  0
ARC
  5
E86
330
36
100
AcDbEntity
  8
0
 62
     3
100
AcDbCircle
 10
504.7997618698726
 20
-1260.058498796118
 30
0.0
 40
1.399999999999999
100
AcDbArc
 50
206.8022930000001
 51
24.26082999999867
  0
LINE
  5
E87
330
36
100
AcDbEntity
  8
0
 62
     3
100
AcDbLine
 10
503.3578068698727
 20
-1260.920568796117
 30
0.0
 11
504.6597618698725
 21
-1258.665515796117
 31
0.0
  0
LINE
  5
E88
330
36
100
AcDbEntity
  8
0
 62
     3
100
AcDbLine
 10
506.2417168698726
 20
-1259.196428796117
 30
0.0
 11
504.9397618698725
 21
-1261.451480796117
 31
0.0
  0
LINE
  5
E89
330
36
100
AcDbEntity
  8
0
 62
     3
100
AcDbLine
 10
504.7997618698726
 20
-1258.658498796118
 30
0.0
 11
504.7997618698726
 21
-1261.458498796118
 31
0.0
  0
ARC
  5
E8A
330
36
100
AcDbEntity
  8
0
 62
     3
100
AcDbCircle
 10
504.7997618698726
 20
-1260.058498796118
 30
0.0
 40
1.399999999999999
100
AcDbArc
 50
26.8022909999963
 51
204.2608299999987
  0
LINE
  5
E8B
330
36
100
AcDbEntity
  8
0
 62
     3
100
AcDbLine
 10
277.4735765324056
 20
-1192.941240331623
 30
0.0
 11
277.4735765324056
 21
-1188.186781331623
 31
0.0
  0
ARC
  5
E8C
330
36
100
AcDbEntity
  8
0
  6
PHANTOM
100
AcDbCircle
 10
267.4726085324055
 20
-1180.716240331623
 30
0.0
 40
4.763308999999996
100
AcDbArc
 50
145.1045089999924
 51
214.8954910000075
  0
ARC
  5
E8D
330
36
100
AcDbEntity
  8
0
  6
PHANTOM
100
AcDbCircle
 10
259.6589055324056
 20
-1186.166240331623
 30
0.0
 40
4.763308999999996
100
AcDbArc
 50
325.1045089999924
 51
34.89549100000756
  0
ARC
  5
E8E
330
36
100
AcDbEntity
  8
0
  6
PHANTOM
100
AcDbCircle
 10
267.4726085324055
 20
-1186.166240331623
 30
0.0
 40
4.763308999999996
100
AcDbArc
 50
145.1045089999924
 51
214.8954910000075
  0
LINE
  5
EAB
330
36
100
AcDbEntity
  8
0
100
AcDbLine
 10
363.2545665324057
 20
-1295.593012331623
 30
0.0
 11
365.2795665324056
 21
-1295.593012331623
 31
0.0
  0
LINE
  5
EAC
330
36
100
AcDbEntity
  8
0
100
AcDbLine
 10
398.3219455324055
 20
-1180.241240331623
 30
0.0
 11
398.3219455324055
 21
-1186.641240331623
 31
0.0
  0
LINE
  5
EAD
330
36
100
AcDbEntity
  8
0
100
AcDbLine
 10
404.4719455324054
 20
-1180.241240331623
 30
0.0
 11
398.4719455324056
 21
-1180.241240331623
 31
0.0
  0
LINE
  5
EAE
330
36
100
AcDbEntity
  8
0
100
AcDbLine
 10
398.4719455324056
 20
-1180.241240331623
 30
0.0
 11
397.6219455324056
 21
-1180.241240331623
 31
0.0
  0
LINE
  5
EAF
330
36
100
AcDbEntity
  8
0
100
AcDbLine
 10
399.7219455324056
 20
-1186.641240331623
 30
0.0
 11
403.2219455324056
 21
-1186.641240331623
 31
0.0
  0
LINE
  5
EB0
330
36
100
AcDbEntity
  8
0
100
AcDbLine
 10
403.2219455324056
 20
-1186.641240331623
 30
0.0
 11
405.3219455324056
 21
-1186.641240331623
 31
0.0
  0
LINE
  5
EB1
330
36
100
AcDbEntity
  8
0
100
AcDbLine
 10
399.7219455324056
 20
-1186.641240331623
 30
0.0
 11
397.6219455324056
 21
-1186.641240331623
 31
0.0
  0
LINE
  5
EB2
330
36
100
AcDbEntity
  8
0
100
AcDbLine
 10
404.4719455324054
 20
-1180.241240331623
 30
0.0
 11
405.3219455324056
 21
-1180.241240331623
 31
0.0
  0
ARC
  5
EB3
330
36
100
AcDbEntity
  8
0
100
AcDbCircle
 10
409.8469455324054
 20
-1183.441240331623
 30
0.0
 40
15.0
100
AcDbArc
 50
347.6822339999986
 51
12.31776600000139
  0
TEXT
  5
EB4
330
36
100
AcDbEntity
  8
0
100
AcDbText
 10
416.8523855324056
 20
-1182.262471331623
 30
0.0
 40
2.740499999999998
  1
N
 50
270.000001
100
AcDbText
  0
LINE
  5
EB5
330
36
100
AcDbEntity
  8
0
100
AcDbLine
 10
414.3469455324056
 20
-1185.191240331623
 30
0.0
 11
414.8469455324056
 21
-1185.691240331623
 31
0.0
  0
LINE
  5
EB6
330
36
100
AcDbEntity
  8
0
100
AcDbLine
 10
415.3469455324056
 20
-1185.191240331623
 30
0.0
 11
414.8469455324056
 21
-1185.691240331623
 31
0.0
  0
LINE
  5
EB7
330
36
100
AcDbEntity
  8
0
100
AcDbLine
 10
415.0969455324053
 20
-1183.691240331623
 30
0.0
 11
415.0969455324053
 21
-1185.191240331623
 31
0.0
  0
LINE
  5
EB8
330
36
100
AcDbEntity
  8
0
100
AcDbLine
 10
416.8009595324055
 20
-1183.691240331623
 30
0.0
 11
415.0969455324053
 21
-1183.691240331623
 31
0.0
  0
LINE
  5
EB9
330
36
100
AcDbEntity
  8
0
100
AcDbLine
 10
416.8009595324055
 20
-1183.191240331623
 30
0.0
 11
416.8009595324055
 21
-1183.691240331623
 31
0.0
  0
LINE
  5
EBA
330
36
100
AcDbEntity
  8
0
100
AcDbLine
 10
414.5969455324054
 20
-1183.191240331623
 30
0.0
 11
414.5969455324054
 21
-1185.191240331623
 31
0.0
  0
LINE
  5
EBB
330
36
100
AcDbEntity
  8
0
100
AcDbLine
 10
414.5969455324054
 20
-1185.191240331623
 30
0.0
 11
414.3469455324056
 21
-1185.191240331623
 31
0.0
  0
LINE
  5
EBC
330
36
100
AcDbEntity
  8
0
100
AcDbLine
 10
415.3469455324056
 20
-1185.191240331623
 30
0.0
 11
415.0969455324053
 21
-1185.191240331623
 31
0.0
  0
LINE
  5
EBD
330
36
100
AcDbEntity
  8
0
100
AcDbLine
 10
416.8009595324055
 20
-1183.191240331623
 30
0.0
 11
414.5969455324054
 21
-1183.191240331623
 31
0.0
  0
LINE
  5
EBE
330
36
100
AcDbEntity
  8
0
100
AcDbLine
 10
287.4735765324055
 20
-1193.441240331623
 30
0.0
 11
284.4735765324056
 21
-1193.441240331623
 31
0.0
  0
LINE
  5
EBF
330
36
100
AcDbEntity
  8
0
100
AcDbLine
 10
287.4735765324055
 20
-1173.441240331623
 30
0.0
 11
284.4735765324056
 21
-1173.441240331623
 31
0.0
  0
LINE
  5
EC1
330
36
100
AcDbEntity
  8
0
100
AcDbLine
 10
290.4735765324056
 20
-1197.417739331623
 30
0.0
 11
285.9735765324056
 21
-1201.466397331623
 31
0.0
  0
TEXT
  5
F0B
330
36
100
AcDbEntity
  8
0
100
AcDbText
 10
317.1297955324055
 20
-1169.754091331623
 30
0.0
 40
6.299999999999998
  1
日動
 50
270.000001
 41
0.47619
100
AcDbText
  0
LINE
  5
F0C
330
36
100
AcDbEntity
  8
0
100
AcDbLine
 10
321.2612905324056
 20
-1182.941240331623
 30
0.0
 11
317.5056845324056
 21
-1182.941240331623
 31
0.0
  0
LINE
  5
F0D
330
36
100
AcDbEntity
  8
0
100
AcDbLine
 10
323.2864895324056
 20
-1183.941240331623
 30
0.0
 11
319.5308835324056
 21
-1183.941240331623
 31
0.0
  0
TEXT
  5
F0E
330
36
100
AcDbEntity
  8
0
100
AcDbText
 10
317.0441785324056
 20
-1188.454424331623
 30
0.0
 40
6.299999999999998
  1
工業
 50
270.000001
 41
0.47619
100
AcDbText
  0
TEXT
  5
F0F
330
36
100
AcDbEntity
  8
0
100
AcDbText
 10
309.6106405324057
 20
-1170.158791331623
 30
0.0
 40
6.299999999999998
  1
ポツキンプラグ
 50
270.000001
 41
0.47619
100
AcDbText
  0
LINE
  5
F10
330
36
100
AcDbEntity
  8
0
100
AcDbLine
 10
232.8785005324057
 20
-1188.124564331623
 30
0.0
 11
231.3785005324056
 21
-1190.722640331623
 31
0.0
  0
LINE
  5
F11
330
36
100
AcDbEntity
  8
0
100
AcDbLine
 10
232.1954875324055
 20
-1188.307576331623
 30
0.0
 11
231.1954875324055
 21
-1190.039627331623
 31
0.0
  0
LINE
  5
F12
330
36
100
AcDbEntity
  8
0
100
AcDbLine
 10
231.5124755324056
 20
-1188.490589331623
 30
0.0
 11
231.0124755324056
 21
-1189.356615331623
 31
0.0
  0
CIRCLE
  5
F13
330
36
100
AcDbEntity
  8
0
100
AcDbCircle
 10
232.1285005324056
 20
-1189.423602331623
 30
0.0
 40
1.5
  0
LINE
  5
F14
330
36
100
AcDbEntity
  8
0
100
AcDbLine
 10
233.4275385324056
 20
-1190.173602331623
 30
0.0
 11
232.1285005324056
 21
-1189.423602331623
 31
0.0
  0
CIRCLE
  5
F15
330
36
100
AcDbEntity
  8
0
100
AcDbCircle
 10
233.7314695324056
 20
-1183.441240331623
 30
0.0
 40
1.75
  0
CIRCLE
  5
F16
330
36
100
AcDbEntity
  8
0
100
AcDbCircle
 10
221.7667455324055
 20
-1183.441240331623
 30
0.0
 40
3.0
  0
ARC
  5
F17
330
36
100
AcDbEntity
  8
0
100
AcDbCircle
 10
221.7667455324055
 20
-1183.441240331623
 30
0.0
 40
7.0
100
AcDbArc
 50
17.86157400000603
 51
323.901604000006
  0
ARC
  5
F19
330
36
100
AcDbEntity
  8
0
100
AcDbCircle
 10
221.7314695324056
 20
-1183.441240331623
 30
0.0
 40
8.873639
100
AcDbArc
 50
338.5441200000031
 51
22.82553599999574
  0
LINE
  5
F1A
330
36
100
AcDbEntity
  8
0
 62
     3
100
AcDbLine
 10
351.7545665324056
 20
-1302.298783331623
 30
0.0
 11
351.7545665324056
 21
-1292.393012331623
 31
0.0
  0
LINE
  5
F1B
330
36
100
AcDbEntity
  8
0
 62
     3
100
AcDbLine
 10
386.5047335324056
 20
-1286.369468331623
 30
0.0
 11
386.5047335324056
 21
-1284.869468331623
 31
0.0
  0
LINE
  5
F1C
330
36
100
AcDbEntity
  8
0
 62
     3
100
AcDbLine
 10
385.7547335324056
 20
-1302.062485331623
 30
0.0
 11
385.7547335324056
 21
-1292.369468331623
 31
0.0
  0
LINE
  5
F1D
330
36
100
AcDbEntity
  8
0
 62
     3
100
AcDbLine
 10
351.0045665324057
 20
-1286.393012331623
 30
0.0
 11
351.0045665324057
 21
-1284.893012331623
 31
0.0
  0
LINE
  5
F1E
330
36
100
AcDbEntity
  8
0
 62
     3
100
AcDbLine
 10
351.0045665324057
 20
-1284.893012331623
 30
0.0
 11
386.5045665324057
 21
-1284.893012331623
 31
0.0
  0
CIRCLE
  5
F20
330
36
100
AcDbEntity
  8
0
 62
     3
100
AcDbCircle
 10
409.8469455324054
 20
-1183.441240331623
 30
0.0
 40
19.25
  0
LINE
  5
F21
330
36
100
AcDbEntity
  8
0
 62
     3
100
AcDbLine
 10
426.8564285324056
 20
-1180.241240331623
 30
0.0
 11
406.8219455324054
 21
-1180.241240331623
 31
0.0
  0
LINE
  5
F22
330
36
100
AcDbEntity
  8
0
 62
     3
100
AcDbLine
 10
426.8564285324056
 20
-1186.641240331623
 30
0.0
 11
406.8219455324054
 21
-1186.641240331623
 31
0.0
  0
CIRCLE
  5
F23
330
36
100
AcDbEntity
  8
0
 62
     3
100
AcDbCircle
 10
401.0719455324053
 20
-1183.441240331623
 30
0.0
 40
2.325
  0
LINE
  5
F24
330
36
100
AcDbEntity
  8
0
 62
     3
100
AcDbLine
 10
309.9735765324056
 20
-1166.441240331623
 30
0.0
 11
329.8960865324056
 21
-1166.441240331623
 31
0.0
  0
ARC
  5
F25
330
36
100
AcDbEntity
  8
0
 62
     3
100
AcDbCircle
 10
309.9735765324056
 20
-1183.441240331623
 30
0.0
 40
17.0
100
AcDbArc
 50
90.0
 51
142.1470969999979
  0
ARC
  5
F26
330
36
100
AcDbEntity
  8
0
 62
     3
100
AcDbCircle
 10
292.6026235324055
 20
-1169.941240331623
 30
0.0
 40
5.0
100
AcDbArc
 50
270.0
 51
322.1470969999979
  0
LINE
  5
F27
330
36
100
AcDbEntity
  8
0
 62
     3
100
AcDbLine
 10
292.6026235324055
 20
-1174.941240331623
 30
0.0
 11
290.4735765324056
 21
-1174.941240331623
 31
0.0
  0
LINE
  5
F28
330
36
100
AcDbEntity
  8
0
 62
     3
100
AcDbLine
 10
290.4735765324056
 20
-1191.941240331623
 30
0.0
 11
292.6026235324055
 21
-1191.941240331623
 31
0.0
  0
ARC
  5
F29
330
36
100
AcDbEntity
  8
0
 62
     3
100
AcDbCircle
 10
292.6026235324055
 20
-1196.941240331623
 30
0.0
 40
5.0
100
AcDbArc
 50
37.85290300000215
 51
90.0
  0
ARC
  5
F2A
330
36
100
AcDbEntity
  8
0
 62
     3
100
AcDbCircle
 10
309.9735765324056
 20
-1183.441240331623
 30
0.0
 40
17.0
100
AcDbArc
 50
217.8529030000021
 51
270.0
  0
LINE
  5
F2B
330
36
100
AcDbEntity
  8
0
 62
     3
100
AcDbLine
 10
309.9735765324056
 20
-1200.441240331623
 30
0.0
 11
329.8960865324056
 21
-1200.441240331623
 31
0.0
  0
LINE
  5
F2C
330
36
100
AcDbEntity
  8
0
 62
     3
100
AcDbLine
 10
336.1250525324056
 20
-1201.191240331623
 30
0.0
 11
337.4735765324055
 21
-1201.191240331623
 31
0.0
  0
LINE
  5
F2D
330
36
100
AcDbEntity
  8
0
 62
     3
100
AcDbLine
 10
337.4735765324055
 20
-1201.191240331623
 30
0.0
 11
337.4735765324055
 21
-1165.691240331623
 31
0.0
  0
LINE
  5
F2E
330
36
100
AcDbEntity
  8
0
 62
     3
100
AcDbLine
 10
336.1250525324056
 20
-1165.691240331623
 30
0.0
 11
337.4735765324055
 21
-1165.691240331623
 31
0.0
  0
LINE
  5
F2F
330
36
100
AcDbEntity
  8
0
 62
     3
100
AcDbLine
 10
294.9735765324056
 20
-1187.363257331623
 30
0.0
 11
300.1472695324056
 21
-1187.373089331622
 31
0.0
  0
LINE
  5
F30
330
36
100
AcDbEntity
  8
0
 62
     3
100
AcDbLine
 10
277.9735765324056
 20
-1193.441240331623
 30
0.0
 11
281.4735765324055
 21
-1193.441240331623
 31
0.0
  0
LINE
  5
F31
330
36
100
AcDbEntity
  8
0
 62
     3
100
AcDbLine
 10
277.4735765324056
 20
-1188.186781331623
 30
0.0
 11
277.4735765324056
 21
-1173.941240331623
 31
0.0
  0
LINE
  5
F32
330
36
100
AcDbEntity
  8
0
 62
     3
100
AcDbLine
 10
277.9735765324056
 20
-1173.441240331623
 30
0.0
 11
281.4735765324055
 21
-1173.441240331623
 31
0.0
  0
LINE
  5
F33
330
36
100
AcDbEntity
  8
0
 62
     3
100
AcDbLine
 10
335.9782925324056
 20
-1216.868602331623
 30
0.0
 11
367.2282875324056
 21
-1217.868602331623
 31
0.0
  0
LINE
  5
F34
330
36
100
AcDbEntity
  8
0
 62
     3
100
AcDbLine
 10
367.2282875324056
 20
-1229.868602331623
 30
0.0
 11
337.5333255324056
 21
-1230.878170331623
 31
0.0
  0
ARC
  5
F52
330
36
100
AcDbEntity
  8
0
 62
     3
100
AcDbCircle
 10
221.7667455324055
 20
-1183.441240331623
 30
0.0
 40
10.0
100
AcDbArc
 50
29.47906000000362
 51
314.4346300000035
  0
LINE
  5
F5F
330
36
100
AcDbEntity
  8
0
  6
DASHED
100
AcDbLine
 10
359.1295665324056
 20
-1287.227948331623
 30
0.0
 11
363.1141805324056
 21
-1285.129503331623
 31
0.0
  0
LINE
  5
F60
330
36
100
AcDbEntity
  8
0
  6
DASHED
100
AcDbLine
 10
362.8797915324057
 20
-1289.018344331623
 30
0.0
 11
362.8034225324055
 21
-1290.005321331623
 31
0.0
  0
LINE
  5
F61
330
36
100
AcDbEntity
  8
0
  6
DASHED
100
AcDbLine
 10
365.4391805324055
 20
-1289.156521331623
 30
0.0
 11
362.8797915324057
 21
-1289.018344331623
 31
0.0
  0
LINE
  5
F62
330
36
100
AcDbEntity
  8
0
100
AcDbLine
 10
362.7045665324057
 20
-1284.893012331623
 30
0.0
 11
362.7045665324057
 21
-1289.018344331623
 31
0.0
  0
TEXT
  5
F68
330
36
100
AcDbEntity
  8
0
 62
     3
100
AcDbText
 10
519.1853315324054
 20
-1387.453310331623
 30
0.0
 40
3.2
  1
1999.4.14
  7
高3.2
100
AcDbText
  0
TEXT
  5
F69
330
36
100
AcDbEntity
  8
0
 62
     3
100
AcDbText
 10
465.6906955324052
 20
-1373.774657331623
 30
0.0
 40
4.5
  1
PP-02
  7
高4.5
100
AcDbText
  0
TEXT
  5
F6A
330
36
100
AcDbEntity
  8
0
 62
     3
100
AcDbText
 10
460.4684684369626
 20
-1365.863367331623
 30
0.0
 40
4.5
  1
ポッキンプラグ
  7
高4.5
100
AcDbText
  0
TEXT
  5
F6B
330
36
100
AcDbEntity
  8
0
 62
     3
100
AcDbText
 10
512.4326559495322
 20
-1397.307472120292
 30
0.0
 40
6.299999999999998
  1
PP-02
  7
高6.3
100
AcDbText
  0
TEXT
  5
F6E
330
36
100
AcDbEntity
  8
0
 62
     3
100
AcDbText
 10
488.6552325324053
 20
-1387.593674331623
 30
0.0
 40
3.2
  1
1/1
  7
高3.2
100
AcDbText
  0
LINE
  5
F6F
330
36
100
AcDbEntity
  8
0
 62
     3
100
AcDbLine
 10
511.2787888698726
 20
-1235.127205796117
 30
0.0
 11
511.2787888698726
 21
-1263.127205796118
 31
0.0
  0
LINE
  5
F70
330
36
100
AcDbEntity
  8
0
 62
     3
100
AcDbLine
 10
443.3828578698725
 20
-1235.127205796117
 30
0.0
 11
511.2787888698726
 21
-1235.127205796117
 31
0.0
  0
LINE
  5
F71
330
36
100
AcDbEntity
  8
0
 62
     3
100
AcDbLine
 10
417.2469455324053
 20
-1177.841240331623
 30
0.0
 11
417.2469455324053
 21
-1176.141240331623
 31
0.0
  0
LINE
  5
F72
330
36
100
AcDbEntity
  8
0
 62
     3
100
AcDbLine
 10
414.9969455324053
 20
-1178.841240331623
 30
0.0
 11
414.9969455324053
 21
-1177.841240331623
 31
0.0
  0
LINE
  5
F73
330
36
100
AcDbEntity
  8
0
 62
     3
100
AcDbLine
 10
408.7469455324053
 20
-1176.141240331623
 30
0.0
 11
408.7469455324053
 21
-1177.841240331623
 31
0.0
  0
LINE
  5
F74
330
36
100
AcDbEntity
  8
0
 62
     3
100
AcDbLine
 10
410.9969455324053
 20
-1178.841240331623
 30
0.0
 11
410.9969455324053
 21
-1177.841240331623
 31
0.0
  0
LINE
  5
F75
330
36
100
AcDbEntity
  8
0
 62
     3
100
AcDbLine
 10
417.2469455324053
 20
-1177.841240331623
 30
0.0
 11
408.7469455324053
 21
-1177.841240331623
 31
0.0
  0
LINE
  5
F76
330
36
100
AcDbEntity
  8
0
 62
     3
100
AcDbLine
 10
410.9969455324053
 20
-1178.841240331623
 30
0.0
 11
414.9969455324053
 21
-1178.841240331623
 31
0.0
  0
LINE
  5
F77
330
36
100
AcDbEntity
  8
0
 62
     3
100
AcDbLine
 10
417.2469455324053
 20
-1176.141240331623
 30
0.0
 11
408.7469455324053
 21
-1176.141240331623
 31
0.0
  0
LINE
  5
F78
330
36
100
AcDbEntity
  8
0
 62
     3
100
AcDbLine
 10
417.2469455324053
 20
-1189.041240331623
 30
0.0
 11
417.2469455324053
 21
-1190.741240331623
 31
0.0
  0
LINE
  5
F79
330
36
100
AcDbEntity
  8
0
 62
     3
100
AcDbLine
 10
408.7469455324053
 20
-1190.741240331623
 30
0.0
 11
408.7469455324053
 21
-1189.041240331623
 31
0.0
  0
LINE
  5
F7A
330
36
100
AcDbEntity
  8
0
 62
     3
100
AcDbLine
 10
414.9969455324053
 20
-1188.041240331623
 30
0.0
 11
414.9969455324053
 21
-1189.041240331623
 31
0.0
  0
LINE
  5
F7B
330
36
100
AcDbEntity
  8
0
 62
     3
100
AcDbLine
 10
410.9969455324053
 20
-1188.041240331623
 30
0.0
 11
410.9969455324053
 21
-1189.041240331623
 31
0.0
  0
LINE
  5
F7C
330
36
100
AcDbEntity
  8
0
 62
     3
100
AcDbLine
 10
410.9969455324053
 20
-1188.041240331623
 30
0.0
 11
414.9969455324053
 21
-1188.041240331623
 31
0.0
  0
LINE
  5
F7D
330
36
100
AcDbEntity
  8
0
 62
     3
100
AcDbLine
 10
417.2469455324053
 20
-1189.041240331623
 30
0.0
 11
408.7469455324053
 21
-1189.041240331623
 31
0.0
  0
LINE
  5
F7E
330
36
100
AcDbEntity
  8
0
 62
     3
100
AcDbLine
 10
417.2469455324053
 20
-1190.741240331623
 30
0.0
 11
408.7469455324053
 21
-1190.741240331623
 31
0.0
  0
LINE
  5
F7F
330
36
100
AcDbEntity
  8
0
100
AcDbLine
 10
397.6219455324056
 20
-1180.241240331623
 30
0.0
 11
397.6219455324056
 21
-1186.641240331623
 31
0.0
  0
LINE
  5
F80
330
36
100
AcDbEntity
  8
0
100
AcDbLine
 10
405.3219455324056
 20
-1180.241240331623
 30
0.0
 11
405.3219455324056
 21
-1186.641240331623
 31
0.0
  0
LINE
  5
F81
330
36
100
AcDbEntity
  8
0
100
AcDbLine
 10
406.8219455324054
 20
-1179.691240331623
 30
0.0
 11
406.8219455324054
 21
-1187.191240331623
 31
0.0
  0
LINE
  5
F82
330
36
100
AcDbEntity
  8
0
100
AcDbLine
 10
405.3219455324056
 20
-1180.241240331623
 30
0.0
 11
405.3219455324056
 21
-1179.691240331623
 31
0.0
  0
LINE
  5
F83
330
36
100
AcDbEntity
  8
0
100
AcDbLine
 10
405.3219455324056
 20
-1179.691240331623
 30
0.0
 11
406.8219455324054
 21
-1179.691240331623
 31
0.0
  0
LINE
  5
F84
330
36
100
AcDbEntity
  8
0
100
AcDbLine
 10
405.3219455324056
 20
-1186.641240331623
 30
0.0
 11
405.3219455324056
 21
-1187.191240331623
 31
0.0
  0
LINE
  5
F85
330
36
100
AcDbEntity
  8
0
100
AcDbLine
 10
405.3219455324056
 20
-1187.191240331623
 30
0.0
 11
406.8219455324054
 21
-1187.191240331623
 31
0.0
  0
CIRCLE
  5
F86
330
36
100
AcDbEntity
  8
0
100
AcDbCircle
 10
399.9527145324056
 20
-1189.781703331623
 30
0.0
 40
1.0
  0
LINE
  5
F87
330
36
100
AcDbEntity
  8
0
100
AcDbLine
 10
400.2877145324053
 20
-1190.026703331623
 30
0.0
 11
400.2877145324053
 21
-1189.526703331623
 31
0.0
  0
LINE
  5
F88
330
36
100
AcDbEntity
  8
0
100
AcDbLine
 10
400.0377145324056
 20
-1189.401703331623
 30
0.0
 11
400.0377145324056
 21
-1190.151703331623
 31
0.0
  0
LINE
  5
F89
330
36
100
AcDbEntity
  8
0
100
AcDbLine
 10
399.7877145324056
 20
-1190.276703331623
 30
0.0
 11
399.7877145324056
 21
-1189.276703331623
 31
0.0
  0
LINE
  5
F8A
330
36
100
AcDbEntity
  8
0
100
AcDbLine
 10
399.7877145324056
 20
-1189.776703331623
 30
0.0
 11
399.2877145324056
 21
-1189.776703331623
 31
0.0
  0
ARC
  5
F8B
330
36
100
AcDbEntity
  8
0
 62
     3
100
AcDbCircle
 10
233.7314695324056
 20
-1183.441240331623
 30
0.0
 40
4.0
100
AcDbArc
 50
212.1731249999991
 51
147.8268750000008
  0
CIRCLE
  5
F8C
330
36
100
AcDbEntity
  8
0
 62
     3
100
AcDbCircle
 10
221.7667455324055
 20
-1183.441240331623
 30
0.0
 40
17.0
  0
CIRCLE
  5
F8D
330
36
100
AcDbEntity
  8
0
 62
     3
100
AcDbCircle
 10
285.9735765324056
 20
-1196.941240331623
 30
0.0
 40
2.5
  0
CIRCLE
  5
F8E
330
36
100
AcDbEntity
  8
0
 62
     3
100
AcDbCircle
 10
285.9735765324056
 20
-1169.941240331623
 30
0.0
 40
2.5
  0
ARC
  5
F92
330
36
100
AcDbEntity
  8
0
 62
     3
100
AcDbCircle
 10
277.9735765324056
 20
-1173.941240331623
 30
0.0
 40
0.5
100
AcDbArc
 50
90.0
 51
180.0
  0
ARC
  5
F93
330
36
100
AcDbEntity
  8
0
 62
     3
100
AcDbCircle
 10
277.9735765324056
 20
-1192.941240331623
 30
0.0
 40
0.5
100
AcDbArc
 50
180.0
 51
270.0
  0
ARC
  5
F97
330
36
100
AcDbEntity
  8
0
 62
     3
100
AcDbCircle
 10
336.7708155324056
 20
-1221.982219331623
 30
0.0
 40
8.92857
100
AcDbArc
 50
255.068582999997
 51
274.899091999999
  0
CIRCLE
  5
F98
330
36
100
AcDbEntity
  8
0
100
AcDbCircle
 10
409.8469455324054
 20
-1183.441240331623
 30
0.0
 40
17.75
  0
LINE
  5
F99
330
36
100
AcDbEntity
  8
0
 62
     3
100
AcDbLine
 10
426.3393685324054
 20
-1188.691240331623
 30
0.0
 11
422.8252935324054
 21
-1188.691240331623
 31
0.0
  0
ARC
  5
F9A
330
36
100
AcDbEntity
  8
0
 62
     3
100
AcDbCircle
 10
409.8469455324054
 20
-1183.441240331623
 30
0.0
 40
17.307874
100
AcDbArc
 50
342.342270000005
 51
17.65772999999495
  0
LINE
  5
F9B
330
36
100
AcDbEntity
  8
0
 62
     3
100
AcDbLine
 10
426.3393685324054
 20
-1178.191240331623
 30
0.0
 11
422.8252935324054
 21
-1178.191240331623
 31
0.0
  0
ARC
  5
F9C
330
36
100
AcDbEntity
  8
0
 62
     3
100
AcDbCircle
 10
409.8469455324054
 20
-1183.441240331623
 30
0.0
 40
14.0
100
AcDbArc
 50
22.02431300000187
 51
337.9756869999981
  0
LINE
  5
F9D
330
36
100
AcDbEntity
  8
0
100
AcDbLine
 10
337.4735765324055
 20
-1176.341240331623
 30
0.0
 11
352.9735765324056
 21
-1176.341240331623
 31
0.0
  0
LINE
  5
F9E
330
36
100
AcDbEntity
  8
0
100
AcDbLine
 10
356.5485765324056
 20
-1181.116240331623
 30
0.0
 11
337.4735765324055
 21
-1181.116240331623
 31
0.0
  0
LINE
  5
F9F
330
36
100
AcDbEntity
  8
0
100
AcDbLine
 10
356.5485765324056
 20
-1185.766240331623
 30
0.0
 11
337.4735765324055
 21
-1185.766240331623
 31
0.0
  0
ARC
  5
FA0
330
36
100
AcDbEntity
  8
0
100
AcDbCircle
 10
356.5485765324056
 20
-1183.441240331623
 30
0.0
 40
2.325
100
AcDbArc
 50
270.0
 51
90.0
  0
LINE
  5
FA1
330
36
100
AcDbEntity
  8
0
100
AcDbLine
 10
337.4735765324055
 20
-1177.841240331623
 30
0.0
 11
352.9735765324056
 21
-1177.841240331623
 31
0.0
  0
LINE
  5
FA2
330
36
100
AcDbEntity
  8
0
100
AcDbLine
 10
352.9735765324056
 20
-1177.841240331623
 30
0.0
 11
354.4735765324056
 21
-1177.491240331623
 31
0.0
  0
LINE
  5
FA3
330
36
100
AcDbEntity
  8
0
100
AcDbLine
 10
352.9735765324056
 20
-1177.841240331623
 30
0.0
 11
352.9735765324056
 21
-1176.341240331623
 31
0.0
  0
LINE
  5
FA4
330
36
100
AcDbEntity
  8
0
100
AcDbLine
 10
354.4735765324056
 20
-1177.491240331623
 30
0.0
 11
354.4735765324056
 21
-1176.691240331623
 31
0.0
  0
LINE
  5
FA5
330
36
100
AcDbEntity
  8
0
100
AcDbLine
 10
352.9735765324056
 20
-1176.341240331623
 30
0.0
 11
354.4735765324056
 21
-1176.691240331623
 31
0.0
  0
LINE
  5
FA6
330
36
100
AcDbEntity
  8
0
100
AcDbLine
 10
337.4735765324055
 20
-1189.041240331623
 30
0.0
 11
352.9735765324056
 21
-1189.041240331623
 31
0.0
  0
LINE
  5
FA7
330
36
100
AcDbEntity
  8
0
100
AcDbLine
 10
337.4735765324055
 20
-1190.541240331623
 30
0.0
 11
352.9735765324056
 21
-1190.541240331623
 31
0.0
  0
LINE
  5
FA8
330
36
100
AcDbEntity
  8
0
100
AcDbLine
 10
352.9735765324056
 20
-1189.041240331623
 30
0.0
 11
352.9735765324056
 21
-1190.541240331623
 31
0.0
  0
LINE
  5
FA9
330
36
100
AcDbEntity
  8
0
100
AcDbLine
 10
352.9735765324056
 20
-1189.041240331623
 30
0.0
 11
354.4735765324056
 21
-1189.391240331623
 31
0.0
  0
LINE
  5
FAA
330
36
100
AcDbEntity
  8
0
100
AcDbLine
 10
352.9735765324056
 20
-1190.541240331623
 30
0.0
 11
354.4735765324056
 21
-1190.191240331623
 31
0.0
  0
LINE
  5
FAB
330
36
100
AcDbEntity
  8
0
100
AcDbLine
 10
354.4735765324056
 20
-1189.391240331623
 30
0.0
 11
354.4735765324056
 21
-1190.191240331623
 31
0.0
  0
LINE
  5
FAC
330
36
100
AcDbEntity
  8
0
100
AcDbLine
 10
329.8960865324056
 20
-1200.441240331623
 30
0.0
 11
329.8960865324056
 21
-1166.441240331623
 31
0.0
  0
LINE
  5
FAD
330
36
100
AcDbEntity
  8
0
100
AcDbLine
 10
336.1250525324056
 20
-1165.691240331623
 30
0.0
 11
336.1250525324056
 21
-1201.191240331623
 31
0.0
  0
LINE
  5
FAE
330
36
100
AcDbEntity
  8
0
100
AcDbLine
 10
322.5854375324057
 20
-1227.440030331623
 30
0.0
 11
322.5854375324057
 21
-1220.297174331623
 31
0.0
  0
LINE
  5
FAF
330
36
100
AcDbEntity
  8
0
100
AcDbLine
 10
335.9782925324056
 20
-1231.011458331623
 30
0.0
 11
335.9782925324056
 21
-1216.552930331623
 31
0.0
  0
LINE
  5
FB0
330
36
100
AcDbEntity
  8
0
100
AcDbLine
 10
370.2282875324056
 20
-1219.518602331623
 30
0.0
 11
367.2282875324056
 21
-1219.518602331623
 31
0.0
  0
ARC
  5
FB1
330
36
100
AcDbEntity
  8
0
100
AcDbCircle
 10
370.2282875324056
 20
-1220.518602331623
 30
0.0
 40
1.0
100
AcDbArc
 50
0.0
 51
90.0
  0
LINE
  5
FB2
330
36
100
AcDbEntity
  8
0
100
AcDbLine
 10
371.2282875324056
 20
-1227.218602331623
 30
0.0
 11
371.2282875324056
 21
-1220.518602331623
 31
0.0
  0
ARC
  5
FB3
330
36
100
AcDbEntity
  8
0
100
AcDbCircle
 10
370.2282875324056
 20
-1227.218602331623
 30
0.0
 40
1.0
100
AcDbArc
 50
270.0
 51
0.0
  0
LINE
  5
FB4
330
36
100
AcDbEntity
  8
0
100
AcDbLine
 10
370.2282875324056
 20
-1228.218602331623
 30
0.0
 11
367.2282875324056
 21
-1228.218602331623
 31
0.0
  0
LINE
  5
FB5
330
36
100
AcDbEntity
  8
0
100
AcDbLine
 10
368.7545665324056
 20
-1269.393012331623
 30
0.0
 11
375.0545665324056
 21
-1269.393012331623
 31
0.0
  0
TEXT
  5
FD0
330
36
100
AcDbEntity
  8
0
 62
     3
100
AcDbText
 10
473.6562498672697
 20
-1262.184194796118
 30
0.0
 40
4.5
  1
PS
  7
高4.5
100
AcDbText
  0
TEXT
  5
FD1
330
36
100
AcDbEntity
  8
0
 62
     3
100
AcDbText
 10
484.6060608698725
 20
-1262.186142796118
 30
0.0
 40
4.5
  1
E
  7
高4.5
100
AcDbText
  0
TEXT
  5
FD2
330
36
100
AcDbEntity
  8
0
 62
     3
100
AcDbText
 10
489.6542968698724
 20
-1262.186143796119
 30
0.0
 40
4.5
  1
JET
  7
高4.5
100
AcDbText
  0
TEXT
  5
FD3
330
36
100
AcDbEntity
  8
0
 62
     3
100
AcDbText
 10
445.3828578698725
 20
-1255.127205796118
 30
0.0
 40
4.5
  1
定格電流
  7
高4.5
100
AcDbText
  0
TEXT
  5
FD4
330
36
100
AcDbEntity
  8
0
 62
     3
100
AcDbText
 10
445.3828578698725
 20
-1248.127205796117
 30
0.0
 40
4.5
  1
定格電圧
  7
高4.5
100
AcDbText
  0
TEXT
  5
FD5
330
36
100
AcDbEntity
  8
0
 62
     3
100
AcDbText
 10
446.6970504251299
 20
-1241.347440796118
 30
0.0
 40
4.5
  1
仕　　　　様　（防雨型）
  7
高4.5
100
AcDbText
  0
LINE
  5
FD6
330
36
100
AcDbEntity
  8
0
  6
CENTER
100
AcDbLine
 10
379.6336155324056
 20
-1275.592003331623
 30
0.0
 11
363.1141805324056
 21
-1285.129503331623
 31
0.0
  0
LINE
  5
FD7
330
36
100
AcDbEntity
  8
0
  6
CENTER
100
AcDbLine
 10
381.9586155324056
 20
-1279.619021331623
 30
0.0
 11
365.4391805324055
 21
-1289.156521331623
 31
0.0
  0
ARC
  5
FD8
330
36
100
AcDbEntity
  8
0
  6
CENTER
100
AcDbCircle
 10
380.7961155324056
 20
-1277.605512331623
 30
0.0
 40
2.325
100
AcDbArc
 50
299.9999999999959
 51
119.9999999999958
  0
LINE
  5
FD9
330
36
100
AcDbEntity
  8
0
 62
     3
100
AcDbLine
 10
358.0545665324056
 20
-1265.818012331623
 30
0.0
 11
358.0545665324056
 21
-1284.893012331623
 31
0.0
  0
LINE
  5
FDA
330
36
100
AcDbEntity
  8
0
 62
     3
100
AcDbLine
 10
362.7045665324057
 20
-1265.818012331623
 30
0.0
 11
362.7045665324057
 21
-1284.893012331623
 31
0.0
  0
ARC
  5
FDB
330
36
100
AcDbEntity
  8
0
 62
     3
100
AcDbCircle
 10
360.3795665324057
 20
-1265.818012331623
 30
0.0
 40
2.325
100
AcDbArc
 50
0.0
 51
180.0
  0
ARC
  5
FDC
330
36
100
AcDbEntity
  8
0
 62
     3
100
AcDbCircle
 10
384.6297335324056
 20
-1289.181968331623
 30
0.0
 40
3.380203999999998
100
AcDbArc
 50
289.440035000002
 51
56.30993199999688
  0
ARC
  5
FDD
330
36
100
AcDbEntity
  8
0
 62
     3
100
AcDbCircle
 10
352.8795665324056
 20
-1289.205512331623
 30
0.0
 40
3.380203999999998
100
AcDbArc
 50
123.6900680000031
 51
250.559964999998
  0
ARC
  5
FDE
330
36
100
AcDbEntity
  8
0
 62
     3
100
AcDbCircle
 10
333.1610765324056
 20
-1199.566240331623
 30
0.0
 40
3.380203999999998
100
AcDbArc
 50
195.0024350000028
 51
331.266245000006
  0
ARC
  5
FDF
330
36
100
AcDbEntity
  8
0
 62
     3
100
AcDbCircle
 10
333.1610765324056
 20
-1167.316240331623
 30
0.0
 40
3.380203999999998
100
AcDbArc
 50
28.73375499999399
 51
164.9975649999972
  0
TEXT
  5
FE3
330
36
100
AcDbEntity
  8
0
 62
     3
100
AcDbText
 10
479.9013568698724
 20
-1248.964882796118
 30
0.0
 40
4.5
  1
125V
  7
高4.5
100
AcDbText
  0
TEXT
  5
FE4
330
36
100
AcDbEntity
  8
0
 62
     3
100
AcDbText
 10
481.6589178698725
 20
-1255.400201796118
 30
0.0
 40
4.5
  1
15A
  7
高4.5
100
AcDbText
  0
LINE
  5
FE6
330
36
100
AcDbEntity
  8
0
100
AcDbLine
 10
231.7663005324056
 20
-1190.381124331623
 30
0.0
 11
224.3176065324056
 21
-1210.797009331623
 31
0.0
  0
LINE
  5
FE7
330
36
100
AcDbEntity
  8
0
100
AcDbLine
 10
224.3176065324056
 20
-1210.797009331623
 30
0.0
 11
196.8176065324056
 21
-1210.797009331623
 31
0.0
  0
TEXT
  5
FE8
330
36
100
AcDbEntity
  8
0
 62
     4
100
AcDbText
 10
199.5676065324056
 20
-1209.797009331623
 30
0.0
 40
3.2
  1
アースマーク表示
 41
0.716146
100
AcDbText
  0
LINE
  5
FE9
330
36
100
AcDbEntity
  8
0
 62
     3
100
AcDbLine
 10
312.7640105324056
 20
-1225.368602331623
 30
0.0
 11
312.7640105324056
 21
-1222.368602331623
 31
0.0
  0
LINE
  5
FEA
330
36
100
AcDbEntity
  8
0
 62
     3
100
AcDbLine
 10
367.2282875324056
 20
-1228.218602331623
 30
0.0
 11
367.2282875324056
 21
-1219.518602331623
 31
0.0
  0
CIRCLE
  5
FEB
330
36
100
AcDbEntity
  8
0
  6
DASHED
100
AcDbCircle
 10
285.9735765324056
 20
-1196.941240331623
 30
0.0
 40
1.0
  0
CIRCLE
  5
FEC
330
36
100
AcDbEntity
  8
0
  6
DASHED
100
AcDbCircle
 10
285.9735765324056
 20
-1169.941240331623
 30
0.0
 40
1.0
  0
LINE
  5
FED
330
36
100
AcDbEntity
  8
0
  6
PHANTOM
100
AcDbLine
 10
277.4735765324056
 20
-1177.991240331623
 30
0.0
 11
263.5657575324056
 21
-1177.991240331623
 31
0.0
  0
LINE
  5
FEE
330
36
100
AcDbEntity
  8
0
  6
PHANTOM
100
AcDbLine
 10
263.5657575324056
 20
-1188.891240331622
 30
0.0
 11
276.3352225324056
 21
-1188.891240331622
 31
0.0
  0
LINE
  5
FF5
330
36
100
AcDbEntity
  8
0
100
AcDbLine
 10
365.9795665324056
 20
-1293.593012331623
 30
0.0
 11
365.9795665324056
 21
-1301.970550331623
 31
0.0
  0
LINE
  5
FF6
330
36
100
AcDbEntity
  8
0
100
AcDbLine
 10
365.2795665324056
 20
-1293.593012331623
 30
0.0
 11
365.2795665324056
 21
-1302.137627331623
 31
0.0
  0
LINE
  5
FF7
330
36
100
AcDbEntity
  8
0
100
AcDbLine
 10
357.1795665324056
 20
-1293.593012331623
 30
0.0
 11
365.2795665324056
 21
-1293.593012331623
 31
0.0
  0
LINE
  5
FF8
330
36
100
AcDbEntity
  8
0
100
AcDbLine
 10
365.2795665324056
 20
-1292.893012331623
 30
0.0
 11
357.1795665324056
 21
-1292.893012331623
 31
0.0
  0
ARC
  5
FF9
330
36
100
AcDbEntity
  8
0
100
AcDbCircle
 10
365.2795665324056
 20
-1293.593012331623
 30
0.0
 40
0.7
100
AcDbArc
 50
0.0
 51
90.0
  0
LINE
  5
FFA
330
36
100
AcDbEntity
  8
0
100
AcDbLine
 10
357.1795665324056
 20
-1292.893012331623
 30
0.0
 11
357.1795665324056
 21
-1284.893012331623
 31
0.0
  0
ARC
  5
FFB
330
36
100
AcDbEntity
  8
0
100
AcDbCircle
 10
357.1795665324056
 20
-1292.893012331623
 30
0.0
 40
0.7
100
AcDbArc
 50
180.0
 51
270.0
  0
LINE
  5
FFC
330
36
100
AcDbEntity
  8
0
100
AcDbLine
 10
356.4795665324056
 20
-1292.893012331623
 30
0.0
 11
356.4795665324056
 21
-1284.893012331623
 31
0.0
  0
LINE
  5
FFD
330
36
100
AcDbEntity
  8
0
100
AcDbLine
 10
357.8795665324057
 20
-1289.393012331623
 30
0.0
 11
357.8795665324057
 21
-1284.893012331623
 31
0.0
  0
LINE
  5
FFE
330
36
100
AcDbEntity
  8
0
100
AcDbLine
 10
365.9795665324056
 20
-1294.193012331623
 30
0.0
 11
366.6795665324056
 21
-1294.193012331623
 31
0.0
  0
LINE
  5
FFF
330
36
100
AcDbEntity
  8
0
100
AcDbLine
 10
366.7795665324056
 20
-1284.893012331623
 30
0.0
 11
366.7795665324056
 21
-1301.761691331623
 31
0.0
  0
LINE
  5
1000
330
36
100
AcDbEntity
  8
0
100
AcDbLine
 10
355.2795665324056
 20
-1284.893012331623
 30
0.0
 11
355.2795665324056
 21
-1286.893012331623
 31
0.0
  0
LINE
  5
1001
330
36
100
AcDbEntity
  8
0
100
AcDbLine
 10
355.2795665324056
 20
-1286.893012331623
 30
0.0
 11
356.4795665324056
 21
-1286.893012331623
 31
0.0
  0
LINE
  5
1002
330
36
100
AcDbEntity
  8
0
100
AcDbLine
 10
353.7545665324056
 20
-1286.893012331623
 30
0.0
 11
353.7545665324056
 21
-1284.893012331623
 31
0.0
  0
LINE
  5
1003
330
36
100
AcDbEntity
  8
0
100
AcDbLine
 10
352.2545665324056
 20
-1286.893012331623
 30
0.0
 11
353.7545665324056
 21
-1286.893012331623
 31
0.0
  0
LINE
  5
1004
330
36
100
AcDbEntity
  8
0
100
AcDbLine
 10
352.2545665324056
 20
-1290.093012331623
 30
0.0
 11
352.2545665324056
 21
-1286.893012331623
 31
0.0
  0
LINE
  5
1005
330
36
100
AcDbEntity
  8
0
100
AcDbLine
 10
352.2545665324056
 20
-1290.093012331623
 30
0.0
 11
353.7545665324056
 21
-1290.093012331623
 31
0.0
  0
LINE
  5
1006
330
36
100
AcDbEntity
  8
0
100
AcDbLine
 10
353.7545665324056
 20
-1293.593012331623
 30
0.0
 11
353.7545665324056
 21
-1290.093012331623
 31
0.0
  0
LINE
  5
1007
330
36
100
AcDbEntity
  8
0
100
AcDbLine
 10
354.2545665324056
 20
-1295.593012331623
 30
0.0
 11
353.7545665324056
 21
-1293.593012331623
 31
0.0
  0
LINE
  5
1008
330
36
100
AcDbEntity
  8
0
100
AcDbLine
 10
354.2545665324056
 20
-1295.593012331623
 30
0.0
 11
363.2545665324057
 21
-1295.593012331623
 31
0.0
  0
LINE
  5
1009
330
36
100
AcDbEntity
  8
0
100
AcDbLine
 10
383.2545665324056
 20
-1295.593012331623
 30
0.0
 11
368.7545665324056
 21
-1295.593012331623
 31
0.0
  0
LINE
  5
100A
330
36
100
AcDbEntity
  8
0
100
AcDbLine
 10
366.7795665324056
 20
-1292.693012331623
 30
0.0
 11
370.7795665324056
 21
-1292.693012331623
 31
0.0
  0
LINE
  5
100B
330
36
100
AcDbEntity
  8
0
100
AcDbLine
 10
370.7795665324056
 20
-1292.093012331623
 30
0.0
 11
383.7545665324057
 21
-1292.093012331623
 31
0.0
  0
ARC
  5
100C
330
36
100
AcDbEntity
  8
0
100
AcDbCircle
 10
383.7547335324056
 20
-1290.069468331623
 30
0.0
 40
2.0
100
AcDbArc
 50
270.0
 51
0.0
  0
LINE
  5
100D
330
36
100
AcDbEntity
  8
0
100
AcDbLine
 10
385.7547335324056
 20
-1290.069468331623
 30
0.0
 11
385.7547335324056
 21
-1284.869468331623
 31
0.0
  0
LINE
  5
100E
330
36
100
AcDbEntity
  8
0
100
AcDbLine
 10
383.7547335324056
 20
-1293.569468331623
 30
0.0
 11
383.7547335324056
 21
-1292.069468331623
 31
0.0
  0
LINE
  5
100F
330
36
100
AcDbEntity
  8
0
100
AcDbLine
 10
383.2545665324056
 20
-1295.593012331623
 30
0.0
 11
383.7545665324057
 21
-1293.593012331623
 31
0.0
  0
LINE
  5
1010
330
36
100
AcDbEntity
  8
0
100
AcDbLine
 10
287.4735765324055
 20
-1174.441240331623
 30
0.0
 11
290.4735765324056
 21
-1174.441240331623
 31
0.0
  0
LINE
  5
1011
330
36
100
AcDbEntity
  8
0
100
AcDbLine
 10
281.4735765324055
 20
-1174.441240331623
 30
0.0
 11
284.4735765324056
 21
-1174.441240331623
 31
0.0
  0
LINE
  5
1012
330
36
100
AcDbEntity
  8
0
100
AcDbLine
 10
281.4735765324055
 20
-1192.441240331623
 30
0.0
 11
284.4735765324056
 21
-1192.441240331623
 31
0.0
  0
LINE
  5
1013
330
36
100
AcDbEntity
  8
0
100
AcDbLine
 10
287.4735765324055
 20
-1192.441240331623
 30
0.0
 11
290.4735765324056
 21
-1192.441240331623
 31
0.0
  0
LINE
  5
1016
330
36
100
AcDbEntity
  8
0
100
AcDbLine
 10
294.9735765324056
 20
-1185.373092331623
 30
0.0
 11
291.0574255324056
 21
-1185.373092331623
 31
0.0
  0
LINE
  5
1017
330
36
100
AcDbEntity
  8
0
100
AcDbLine
 10
294.9735765324056
 20
-1181.509388331623
 30
0.0
 11
291.0284645324056
 21
-1181.509388331623
 31
0.0
  0
CIRCLE
  5
1018
330
36
100
AcDbEntity
  8
0
100
AcDbCircle
 10
289.2735765324056
 20
-1201.191240331623
 30
0.0
 40
0.75
  0
ARC
  5
1019
330
36
100
AcDbEntity
  8
0
100
AcDbCircle
 10
282.6735765324056
 20
-1165.691240331623
 30
0.0
 40
0.75
100
AcDbArc
 50
123.6933450000009
 51
90.0
  0
LINE
  5
1029
330
36
100
AcDbEntity
  8
0
100
AcDbLine
 10
319.1200495324056
 20
-1180.799999331623
 30
0.0
 11
321.2612905324056
 21
-1182.941240331623
 31
0.0
  0
LINE
  5
102A
330
36
100
AcDbEntity
  8
0
100
AcDbLine
 10
319.9535875324055
 20
-1180.541478331623
 30
0.0
 11
323.1286045324056
 21
-1182.374574331623
 31
0.0
  0
LINE
  5
102B
330
36
100
AcDbEntity
  8
0
100
AcDbLine
 10
317.3697465324055
 20
-1179.049696331623
 30
0.0
 11
318.7008785324056
 21
-1179.818225331623
 31
0.0
  0
LINE
  5
102C
330
36
100
AcDbEntity
  8
0
100
AcDbLine
 10
317.3697465324055
 20
-1179.049696331623
 30
0.0
 11
318.3338685324056
 21
-1180.013818331623
 31
0.0
  0
ARC
  5
102D
330
36
100
AcDbEntity
  8
0
100
AcDbCircle
 10
320.3960865324055
 20
-1183.441240331623
 30
0.0
 40
2.933329999999997
100
AcDbArc
 50
21.32368600000086
 51
98.67631400000092
  0
ARC
  5
102E
330
36
100
AcDbEntity
  8
0
100
AcDbCircle
 10
320.3960865324055
 20
-1183.441240331623
 30
0.0
 40
2.933329999999997
100
AcDbArc
 50
115.7861389999961
 51
170.1857419999947
  0
ARC
  5
102F
330
36
100
AcDbEntity
  8
0
100
AcDbCircle
 10
320.3960865324055
 20
-1183.441240331623
 30
0.0
 40
3.999995999999999
100
AcDbArc
 50
121.034570000005
 51
295.0748980000049
  0
ARC
  5
1030
330
36
100
AcDbEntity
  8
0
100
AcDbCircle
 10
320.3960865324055
 20
-1183.441240331623
 30
0.0
 40
3.999995999999999
100
AcDbArc
 50
301.0345679999986
 51
115.0748980000048
  0
LINE
  5
1031
330
36
100
AcDbEntity
  8
0
100
AcDbLine
 10
320.8385865324055
 20
-1186.341002331623
 30
0.0
 11
317.6635695324056
 21
-1184.507906331623
 31
0.0
  0
LINE
  5
1032
330
36
100
AcDbEntity
  8
0
100
AcDbLine
 10
321.6721245324056
 20
-1186.082481331623
 30
0.0
 11
319.5308835324056
 21
-1183.941240331623
 31
0.0
  0
LINE
  5
1033
330
36
100
AcDbEntity
  8
0
100
AcDbLine
 10
323.4224265324055
 20
-1187.832783331623
 30
0.0
 11
322.4583055324056
 21
-1186.868662331623
 31
0.0
  0
LINE
  5
1034
330
36
100
AcDbEntity
  8
0
100
AcDbLine
 10
323.4224265324055
 20
-1187.832783331623
 30
0.0
 11
322.0912955324055
 21
-1187.064255331623
 31
0.0
  0
ARC
  5
1035
330
36
100
AcDbEntity
  8
0
100
AcDbCircle
 10
320.3960865324055
 20
-1183.441240331623
 30
0.0
 40
2.933329999999997
100
AcDbArc
 50
201.3236860000009
 51
278.6763140000009
  0
ARC
  5
1036
330
36
100
AcDbEntity
  8
0
100
AcDbCircle
 10
320.3960865324055
 20
-1183.441240331623
 30
0.0
 40
2.933329999999997
100
AcDbArc
 50
295.786138999996
 51
350.1857419999947
  0
LINE
  5
1037
330
36
100
AcDbEntity
  8
0
 62
     3
100
AcDbLine
 10
368.7545665324056
 20
-1284.893012331623
 30
0.0
 11
368.7545665324056
 21
-1269.393012331623
 31
0.0
  0
ARC
  5
1038
330
36
100
AcDbEntity
  8
0
 62
     3
100
AcDbCircle
 10
371.9045665324056
 20
-1271.950512331623
 30
0.0
 40
4.0575
100
AcDbArc
 50
39.0733099999985
 51
140.9266900000015
  0
LINE
  5
1039
330
36
100
AcDbEntity
  8
0
 62
     3
100
AcDbLine
 10
375.0545665324056
 20
-1269.393012331623
 30
0.0
 11
375.0545665324056
 21
-1284.893012331623
 31
0.0
  0
LINE
  5
103A
330
36
100
AcDbEntity
  8
0
100
AcDbLine
 10
381.7545665324057
 20
-1301.536254331623
 30
0.0
 11
381.7545665324057
 21
-1295.593012331623
 31
0.0
  0
LINE
  5
103B
330
36
100
AcDbEntity
  8
0
100
AcDbLine
 10
378.2545665324057
 20
-1295.593012331623
 30
0.0
 11
378.2545665324057
 21
-1300.884287331623
 31
0.0
  0
LINE
  5
103C
330
36
100
AcDbEntity
  8
0
100
AcDbLine
 10
370.7795665324056
 20
-1292.093012331623
 30
0.0
 11
370.7795665324056
 21
-1292.693012331623
 31
0.0
  0
LINE
  5
103D
330
36
100
AcDbEntity
  8
0
100
AcDbLine
 10
355.7545665324056
 20
-1302.229314331623
 30
0.0
 11
355.7545665324056
 21
-1295.593012331623
 31
0.0
  0
CIRCLE
  5
103E
330
36
100
AcDbEntity
  8
0
100
AcDbCircle
 10
371.9045665324056
 20
-1273.193012331623
 30
0.0
 40
1.75
  0
LINE
  5
103F
330
36
100
AcDbEntity
  8
0
 62
     3
100
AcDbLine
 10
312.7640105324056
 20
-1222.368602331623
 30
0.0
 11
312.7640105324056
 21
-1220.297174331623
 31
0.0
  0
LINE
  5
1040
330
36
100
AcDbEntity
  8
0
 62
     3
100
AcDbLine
 10
312.7640105324056
 20
-1225.368602331623
 30
0.0
 11
312.7640105324056
 21
-1227.440030331623
 31
0.0
  0
LINE
  5
1041
330
36
100
AcDbEntity
  8
0
 62
     3
100
AcDbLine
 10
312.7640105324056
 20
-1227.440030331623
 30
0.0
 11
322.5854375324057
 21
-1227.440030331623
 31
0.0
  0
LINE
  5
1042
330
36
100
AcDbEntity
  8
0
 62
     3
100
AcDbLine
 10
334.4702565324056
 20
-1230.609315331623
 30
0.0
 11
322.5854375324057
 21
-1227.440030331623
 31
0.0
  0
LINE
  5
1043
330
36
100
AcDbEntity
  8
0
 62
     3
100
AcDbLine
 10
312.7640105324056
 20
-1220.297174331623
 30
0.0
 11
322.5854375324057
 21
-1220.297174331623
 31
0.0
  0
LINE
  5
1044
330
36
100
AcDbEntity
  8
0
 62
     3
100
AcDbLine
 10
334.4702565324056
 20
-1217.127889331622
 30
0.0
 11
322.5854375324057
 21
-1220.297174331623
 31
0.0
  0
ARC
  5
1045
330
36
100
AcDbEntity
  8
0
 62
     3
100
AcDbCircle
 10
336.7708155324056
 20
-1225.754986331623
 30
0.0
 40
8.92857
100
AcDbArc
 50
95.09242200000109
 51
104.9314170000029
  0
LINE
  5
1046
330
36
100
AcDbEntity
  8
0
 62
     3
100
AcDbLine
 10
367.2282875324056
 20
-1219.518602331623
 30
0.0
 11
367.2282875324056
 21
-1217.868602331623
 31
0.0
  0
LINE
  5
1047
330
36
100
AcDbEntity
  8
0
 62
     3
100
AcDbLine
 10
367.2282875324056
 20
-1228.218602331623
 30
0.0
 11
367.2282875324056
 21
-1229.868602331623
 31
0.0
  0
LINE
  5
1048
330
36
100
AcDbEntity
  8
0
  6
HIDDEN
 62
    15
100
AcDbLine
 10
337.5333255324056
 20
-1230.878170331623
 30
0.0
 11
335.9782925324056
 21
-1231.011458331623
 31
0.0
  0
ARC
  5
1054
330
36
100
AcDbEntity
  8
0
  6
DASHED
100
AcDbCircle
 10
360.3795665324057
 20
-1289.393012331623
 30
0.0
 40
2.5
100
AcDbArc
 50
119.9999999999958
 51
345.8226739999947
  0
CIRCLE
  5
1055
330
36
100
AcDbEntity
  8
0
100
AcDbCircle
 10
360.3795665324057
 20
-1289.393012331623
 30
0.0
 40
1.0
  0
LINE
  5
1056
330
36
100
AcDbEntity
  8
0
100
AcDbLine
 10
287.4735765324055
 20
-1174.441240331623
 30
0.0
 11
287.4735765324055
 21
-1173.441240331623
 31
0.0
  0
LINE
  5
1057
330
36
100
AcDbEntity
  8
0
100
AcDbLine
 10
284.4735765324056
 20
-1174.441240331623
 30
0.0
 11
284.4735765324056
 21
-1173.441240331623
 31
0.0
  0
LINE
  5
1058
330
36
100
AcDbEntity
  8
0
100
AcDbLine
 10
287.4735765324055
 20
-1193.441240331623
 30
0.0
 11
287.4735765324055
 21
-1192.441240331623
 31
0.0
  0
LINE
  5
1059
330
36
100
AcDbEntity
  8
0
100
AcDbLine
 10
284.4735765324056
 20
-1193.441240331623
 30
0.0
 11
284.4735765324056
 21
-1192.441240331623
 31
0.0
  0
LINE
  5
105A
330
36
100
AcDbEntity
  8
0
 62
     3
100
AcDbLine
 10
528.0122775324055
 20
-1381.414806331623
 30
0.0
 11
528.0122775324055
 21
-1358.414806331623
 31
0.0
  0
LINE
  5
105B
330
36
100
AcDbEntity
  8
0
 62
     3
100
AcDbLine
 10
474.9586685324056
 20
-1388.414806331623
 30
0.0
 11
474.9586685324056
 21
-1374.414806331623
 31
0.0
  0
TEXT
  5
105C
330
36
100
AcDbEntity
  8
0
 62
     3
100
AcDbText
 10
504.0225955324054
 20
-1362.209690331623
 30
0.0
 40
2.0
  1
A
 41
0.7
100
AcDbText
  0
TEXT
  5
105D
330
36
100
AcDbEntity
  8
0
 62
     3
100
AcDbText
 10
506.5578815324053
 20
-1362.209690331623
 30
0.0
 40
2.0
  1
P
 41
0.7
100
AcDbText
  0
TEXT
  5
105E
330
36
100
AcDbEntity
  8
0
 62
     3
100
AcDbText
 10
509.0931685324053
 20
-1362.209690331623
 30
0.0
 40
2.0
  1
P
 41
0.7
100
AcDbText
  0
TEXT
  5
105F
330
36
100
AcDbEntity
  8
0
 62
     3
100
AcDbText
 10
511.6284545324055
 20
-1362.209690331623
 30
0.0
 40
2.0
  1
D
 41
0.7
100
AcDbText
  0
TEXT
  5
1060
330
36
100
AcDbEntity
  8
0
 62
     3
100
AcDbText
 10
516.9971375324053
 20
-1362.209690331623
 30
0.0
 40
2.0
  1
C
 41
0.7
100
AcDbText
  0
TEXT
  5
1061
330
36
100
AcDbEntity
  8
0
 62
     3
100
AcDbText
 10
519.5324235324053
 20
-1362.209690331623
 30
0.0
 40
2.0
  1
H
 41
0.7
100
AcDbText
  0
TEXT
  5
1062
330
36
100
AcDbEntity
  8
0
 62
     3
100
AcDbText
 10
522.0677095324056
 20
-1362.209690331623
 30
0.0
 40
2.0
  1
C
 41
0.7
100
AcDbText
  0
TEXT
  5
1063
330
36
100
AcDbEntity
  8
0
 62
     3
100
AcDbText
 10
524.6029965324054
 20
-1362.209690331623
 30
0.0
 40
2.0
  1
K
 41
0.7
100
AcDbText
  0
TEXT
  5
1064
330
36
100
AcDbEntity
  8
0
 62
     3
100
AcDbText
 10
530.2769625324056
 20
-1362.209690331623
 30
0.0
 40
2.0
  1
DESN
 41
1.216762999999998
100
AcDbText
  0
TEXT
  5
1065
330
36
100
AcDbEntity
  8
0
 62
     3
100
AcDbText
 10
445.2706035324053
 20
-1391.556188331623
 30
0.0
 40
2.0
  1
NICHIDO IND.CO.LTD
 41
1.274876
100
AcDbText
  0
LINE
  5
1066
330
36
100
AcDbEntity
  8
0
 62
     3
100
AcDbLine
 10
455.6536335324055
 20
-1358.414806331623
 30
0.0
 11
455.6536335324055
 21
-1381.414806331623
 31
0.0
  0
LINE
  5
1067
330
36
100
AcDbEntity
  8
0
 62
     3
100
AcDbLine
 10
502.0122775324053
 20
-1358.414806331623
 30
0.0
 11
502.0122775324053
 21
-1398.080529331623
 31
0.0
  0
LINE
  5
1068
330
36
100
AcDbEntity
  8
0
 62
     3
100
AcDbLine
 10
515.0122775324055
 20
-1358.414806331623
 30
0.0
 11
515.0122775324055
 21
-1388.414806331623
 31
0.0
  0
TEXT
  5
1069
330
36
100
AcDbEntity
  8
0
 62
     3
100
AcDbText
 10
503.1247225324054
 20
-1387.550119331623
 30
0.0
 40
3.2
  1
作成日
 41
1.017225999999997
100
AcDbText
  0
LINE
  5
106A
330
36
100
AcDbEntity
  8
0
 62
     3
100
AcDbLine
 10
553.7116415324057
 20
-1358.414806331623
 30
0.0
 11
442.4081985324055
 21
-1358.414806331623
 31
0.0
  0
LINE
  5
106B
330
36
100
AcDbEntity
  8
0
 62
     3
100
AcDbLine
 10
541.0122775324055
 20
-1381.414806331623
 30
0.0
 11
541.0122775324055
 21
-1358.414806331623
 31
0.0
  0
TEXT
  5
106C
330
36
100
AcDbEntity
  8
0
 62
     3
100
AcDbText
 10
544.3360805324052
 20
-1362.123872331623
 30
0.0
 40
1.8
  1
D
 41
0.666667
100
AcDbText
  0
TEXT
  5
106D
330
36
100
AcDbEntity
  8
0
 62
     3
100
AcDbText
 10
547.1527095324056
 20
-1362.123872331623
 30
0.0
 40
1.8
  1
E
 41
0.666667
100
AcDbText
  0
TEXT
  5
106E
330
36
100
AcDbEntity
  8
0
 62
     3
100
AcDbText
 10
549.9693375324055
 20
-1362.123872331623
 30
0.0
 40
1.8
  1
F
 41
0.666667
100
AcDbText
  0
TEXT
  5
106F
330
36
100
AcDbEntity
  8
0
 62
     3
100
AcDbText
 10
544.3360805324052
 20
-1366.116425331623
 30
0.0
 40
3.2
  1
製図
 41
1.076369
100
AcDbText
  0
LINE
  5
1070
330
36
100
AcDbEntity
  8
0
 62
     3
100
AcDbLine
 10
442.4081985324055
 20
-1358.414806331623
 30
0.0
 11
442.4081985324055
 21
-1398.080529331623
 31
0.0
  0
TEXT
  5
1071
330
36
100
AcDbEntity
  8
0
 62
     3
100
AcDbText
 10
443.7848515324056
 20
-1397.748063331623
 30
0.0
 40
5.0
  1
日動工業株式会社
 41
0.833333
100
AcDbText
  0
LINE
  5
1072
330
36
100
AcDbEntity
  8
0
 62
     3
100
AcDbLine
 10
485.2906025324053
 20
-1374.414806331623
 30
0.0
 11
485.2906025324053
 21
-1398.080529331623
 31
0.0
  0
LINE
  5
1073
330
36
100
AcDbEntity
  8
0
 62
     3
100
AcDbLine
 10
485.2906025324053
 20
-1393.247668331623
 30
0.0
 11
502.0122775324053
 21
-1393.247668331623
 31
0.0
  0
TEXT
  5
1074
330
36
100
AcDbEntity
  8
0
 62
     3
100
AcDbText
 10
485.8772045324053
 20
-1392.431237331623
 30
0.0
 40
3.2
  1
出図コード
 41
0.8356860000000001
100
AcDbText
  0
LINE
  5
1075
330
36
100
AcDbEntity
  8
0
 62
     3
100
AcDbLine
 10
442.4081985324055
 20
-1388.414806331623
 30
0.0
 11
553.7116415324057
 21
-1388.414806331623
 31
0.0
  0
LINE
  5
1076
330
36
100
AcDbEntity
  8
0
 62
     3
100
AcDbLine
 10
442.4081985324055
 20
-1367.414806331623
 30
0.0
 11
553.7116415324057
 21
-1367.414806331623
 31
0.0
  0
LINE
  5
1077
330
36
100
AcDbEntity
  8
0
 62
     3
100
AcDbLine
 10
442.4081985324055
 20
-1374.414806331623
 30
0.0
 11
502.0122775324053
 21
-1374.414806331623
 31
0.0
  0
LINE
  5
1078
330
36
100
AcDbEntity
  8
0
 62
     3
100
AcDbLine
 10
442.4081985324055
 20
-1381.414806331623
 30
0.0
 11
553.7116415324057
 21
-1381.414806331623
 31
0.0
  0
LINE
  5
1079
330
36
100
AcDbEntity
  8
0
 62
     3
100
AcDbLine
 10
553.7116415324057
 20
-1124.025168331623
 30
0.0
 11
553.7116415324057
 21
-1398.080529331623
 31
0.0
  0
LINE
  5
107A
330
36
100
AcDbEntity
  8
0
 62
     3
100
AcDbLine
 10
163.7116415324055
 20
-1124.025168331623
 30
0.0
 11
163.7116415324055
 21
-1398.080529331623
 31
0.0
  0
LINE
  5
107B
330
36
100
AcDbEntity
  8
0
 62
     3
100
AcDbLine
 10
553.7116415324057
 20
-1398.080529331623
 30
0.0
 11
163.7116415324055
 21
-1398.080529331623
 31
0.0
  0
TEXT
  5
107C
330
36
100
AcDbEntity
  8
0
 62
     3
100
AcDbText
 10
485.7446565324056
 20
-1397.724863287032
 30
0.0
 40
3.2
  1
ZK-A3X
 41
0.8112849999999999
100
AcDbText
  0
TEXT
  5
107D
330
36
100
AcDbEntity
  8
0
 62
     3
100
AcDbText
 10
444.2255955324053
 20
-1362.245280331623
 30
0.0
 40
2.0
  1
CONPONENTS
 41
0.5331600000000001
100
AcDbText
  0
TEXT
  5
107E
330
36
100
AcDbEntity
  8
0
 62
     3
100
AcDbText
 10
443.8758685324055
 20
-1381.177457331623
 30
0.0
 40
3.0
  1
材
 41
0.833333
100
AcDbText
  0
TEXT
  5
107F
330
36
100
AcDbEntity
  8
0
 62
     3
100
AcDbText
 10
451.4115115324056
 20
-1381.177457331623
 30
0.0
 40
3.0
  1
質
 41
0.833333
100
AcDbText
  0
TEXT
  5
1080
330
36
100
AcDbEntity
  8
0
 62
     3
100
AcDbText
 10
443.9639395324054
 20
-1370.552933331623
 30
0.0
 40
2.0
  1
MODEL
 41
1.031072999999999
100
AcDbText
  0
TEXT
  5
1081
330
36
100
AcDbEntity
  8
0
 62
     3
100
AcDbText
 10
443.8758685324055
 20
-1377.495149331623
 30
0.0
 40
2.0
  1
MATERIAL
 41
0.659278
100
AcDbText
  0
TEXT
  5
1082
330
36
100
AcDbEntity
  8
0
 62
     3
100
AcDbText
 10
475.1831495324053
 20
-1381.177457331623
 30
0.0
 40
3.0
  1
備
 41
0.833333
100
AcDbText
  0
TEXT
  5
1083
330
36
100
AcDbEntity
  8
0
 62
     3
100
AcDbText
 10
481.9161515324053
 20
-1381.177457331623
 30
0.0
 40
3.0
  1
考
 41
0.833333
100
AcDbText
  0
TEXT
  5
1084
330
36
100
AcDbEntity
  8
0
 62
     3
100
AcDbText
 10
475.4783448233758
 20
-1377.495149331623
 30
0.0
 40
2.0
  1
REMARKS
 41
0.675794
100
AcDbText
  0
TEXT
  5
1085
330
36
100
AcDbEntity
  8
0
 62
     3
100
AcDbText
 10
445.4655975324055
 20
-1384.415270331623
 30
0.0
 40
2.0
  1
3AD
 41
1.42614
100
AcDbText
  0
TEXT
  5
1086
330
36
100
AcDbEntity
  8
0
 62
     3
100
AcDbText
 10
454.7765775324053
 20
-1384.249536331623
 30
0.0
 40
2.0
  1
ANGLE
 41
1.669883999999995
100
AcDbText
  0
TEXT
  5
1087
330
36
100
AcDbEntity
  8
0
 62
     3
100
AcDbText
 10
475.7104645324054
 20
-1384.626377331623
 30
0.0
 40
2.0
  1
SCALE
 41
0.7719630000000001
100
AcDbText
  0
TEXT
  5
1088
330
36
100
AcDbEntity
  8
0
 62
     3
100
AcDbText
 10
445.1517275324055
 20
-1388.414806331623
 30
0.0
 40
3.0
  1
第
 41
0.833333
100
AcDbText
  0
TEXT
  5
1089
330
36
100
AcDbEntity
  8
0
 62
     3
100
AcDbText
 10
452.9385775324056
 20
-1388.414806331623
 30
0.0
 40
3.0
  1
三
 41
0.833333
100
AcDbText
  0
TEXT
  5
108A
330
36
100
AcDbEntity
  8
0
 62
     3
100
AcDbText
 10
460.7254275324055
 20
-1388.414806331623
 30
0.0
 40
3.0
  1
角
 41
0.833333
100
AcDbText
  0
TEXT
  5
108B
330
36
100
AcDbEntity
  8
0
 62
     3
100
AcDbText
 10
468.5122775324053
 20
-1388.414806331623
 30
0.0
 40
3.0
  1
法
 41
0.833333
100
AcDbText
  0
TEXT
  5
108C
330
36
100
AcDbEntity
  8
0
 62
     3
100
AcDbText
 10
475.5736695324054
 20
-1388.126377331623
 30
0.0
 40
3.0
  1
尺
 41
0.833333
100
AcDbText
  0
TEXT
  5
108D
330
36
100
AcDbEntity
  8
0
 62
     3
100
AcDbText
 10
482.3066715324054
 20
-1388.126377331623
 30
0.0
 40
3.0
  1
度
 41
0.833333
100
AcDbText
  0
TEXT
  5
108E
330
36
100
AcDbEntity
  8
0
 62
     3
100
AcDbText
 10
504.8899415324056
 20
-1365.957077331623
 30
0.0
 40
3.0
  1
承認
 41
1.089472999999999
100
AcDbText
  0
TEXT
  5
108F
330
36
100
AcDbEntity
  8
0
 62
     3
100
AcDbText
 10
518.1328225324055
 20
-1366.014806331623
 30
0.0
 40
3.0
  1
検図
 41
0.931761
100
AcDbText
  0
TEXT
  5
1090
330
36
100
AcDbEntity
  8
0
 62
     3
100
AcDbText
 10
531.1332185324056
 20
-1366.014806331623
 30
0.0
 40
3.0
  1
設
 41
0.833333
100
AcDbText
  0
TEXT
  5
1091
330
36
100
AcDbEntity
  8
0
 62
     3
100
AcDbText
 10
535.6230865324055
 20
-1366.014806331623
 30
0.0
 40
3.0
  1
計
 41
0.833333
100
AcDbText
  0
TEXT
  5
1092
330
36
100
AcDbEntity
  8
0
 62
     3
100
AcDbText
 10
444.2957025324054
 20
-1365.842254331623
 30
0.0
 40
3.0
  1
品
 41
0.833333
100
AcDbText
  0
TEXT
  5
1093
330
36
100
AcDbEntity
  8
0
 62
     3
100
AcDbText
 10
451.8313445324054
 20
-1365.842254331623
 30
0.0
 40
3.0
  1
名
 41
0.833333
100
AcDbText
  0
TEXT
  5
1094
330
36
100
AcDbEntity
  8
0
 62
     3
100
AcDbText
 10
443.9639395324054
 20
-1374.024343087802
 30
0.0
 40
3.0
  1
型
 41
0.833333
100
AcDbText
  0
TEXT
  5
1095
330
36
100
AcDbEntity
  8
0
 62
     3
100
AcDbText
 10
451.5120305324053
 20
-1374.024343087802
 30
0.0
 40
3.0
  1
式
 41
0.833333
100
AcDbText
  0
LINE
  5
1096
330
36
100
AcDbEntity
  8
0
 62
     3
100
AcDbLine
 10
151.3097175324055
 20
-1257.580529331623
 30
0.0
 11
148.7116415324055
 21
-1259.080529331623
 31
0.0
  0
LINE
  5
1097
330
36
100
AcDbEntity
  8
0
 62
     3
100
AcDbLine
 10
151.3097175324055
 20
-1257.580529331623
 30
0.0
 11
148.7116415324055
 21
-1256.080529331623
 31
0.0
  0
LINE
  5
1098
330
36
100
AcDbEntity
  8
0
 62
     3
100
AcDbLine
 10
148.7116415324055
 20
-1259.080529331623
 30
0.0
 11
148.7116415324055
 21
-1256.080529331623
 31
0.0
  0
LINE
  5
1099
330
36
100
AcDbEntity
  8
0
 62
     3
100
AcDbLine
 10
553.7116415324057
 20
-1124.025168331623
 30
0.0
 11
163.7116415324055
 21
-1124.025168331623
 31
0.0
  0
TEXT
  5
109A
330
36
100
AcDbEntity
  8
0
 62
     3
100
AcDbText
 10
457.8126635324053
 20
-1380.6021318873
 30
0.0
 40
3.2
  1
別　掲
  7
高3.2
100
AcDbText
  0
CIRCLE
  5
109B
330
36
100
AcDbEntity
  8
0
 62
     3
100
AcDbCircle
 10
285.9735765324056
 20
-1183.441240331623
 30
0.0
 40
3.026600999999998
  0
LINE
  5
109C
330
36
100
AcDbEntity
  8
0
 62
     3
100
AcDbLine
 10
284.4735765324056
 20
-1174.441240331623
 30
0.0
 11
284.4735765324056
 21
-1180.812493331623
 31
0.0
  0
LINE
  5
109D
330
36
100
AcDbEntity
  8
0
 62
     3
100
AcDbLine
 10
284.4735765324056
 20
-1186.069987331623
 30
0.0
 11
284.4735765324056
 21
-1192.441240331623
 31
0.0
  0
LINE
  5
109E
330
36
100
AcDbEntity
  8
0
 62
     3
100
AcDbLine
 10
287.4735765324055
 20
-1174.441240331623
 30
0.0
 11
287.4735765324055
 21
-1180.812493331623
 31
0.0
  0
LINE
  5
109F
330
36
100
AcDbEntity
  8
0
 62
     3
100
AcDbLine
 10
287.4735765324055
 20
-1186.069987331623
 30
0.0
 11
287.4735765324055
 21
-1192.441240331623
 31
0.0
  0
TEXT
  5
10A0
330
36
100
AcDbEntity
  8
0
 62
     4
100
AcDbText
 10
289.1411985324056
 20
-1240.345330331623
 30
0.0
 40
3.2
  1
アース線　緑、黄色ストライブ線
  7
高3.2
100
AcDbText
  0
LINE
  5
10A1
330
36
100
AcDbEntity
  8
0
 62
     7
100
AcDbLine
 10
288.8564718589146
 20
-1241.224527841642
 30
0.0
 11
346.1682472764918
 21
-1241.224527841642
 31
0.0
  0
LINE
  5
10A2
330
36
100
AcDbEntity
  8
0
100
AcDbLine
 10
473.1943205324053
 20
-1180.967501331623
 30
0.0
 11
466.1943205324056
 21
-1180.967501331623
 31
0.0
  0
LINE
  5
10A3
330
36
100
AcDbEntity
  8
0
100
AcDbLine
 10
466.1943205324056
 20
-1185.967501331623
 30
0.0
 11
473.1943205324053
 21
-1185.967501331623
 31
0.0
  0
ARC
  5
10A4
330
36
100
AcDbEntity
  8
0
100
AcDbCircle
 10
467.0193205324054
 20
-1185.467501331623
 30
0.0
 40
0.5
100
AcDbArc
 50
180.0
 51
270.0
  0
LINE
  5
10A5
330
36
100
AcDbEntity
  8
0
100
AcDbLine
 10
466.5193205324056
 20
-1185.467501331623
 30
0.0
 11
466.5193205324056
 21
-1181.467501331623
 31
0.0
  0
LINE
  5
10A6
330
36
100
AcDbEntity
  8
0
100
AcDbLine
 10
466.1943205324056
 20
-1180.267501331623
 30
0.0
 11
466.1943205324056
 21
-1186.667501331623
 31
0.0
  0
ARC
  5
10A7
330
36
100
AcDbEntity
  8
0
100
AcDbCircle
 10
467.0193205324054
 20
-1181.467501331623
 30
0.0
 40
0.5
100
AcDbArc
 50
90.0
 51
180.0
  0
LINE
  5
10A8
330
36
100
AcDbEntity
  8
0
100
AcDbLine
 10
472.3443205324056
 20
-1180.267501331623
 30
0.0
 11
466.3443205324053
 21
-1180.267501331623
 31
0.0
  0
LINE
  5
10A9
330
36
100
AcDbEntity
  8
0
100
AcDbLine
 10
466.3443205324053
 20
-1180.267501331623
 30
0.0
 11
465.4943205324054
 21
-1180.267501331623
 31
0.0
  0
LINE
  5
10AA
330
36
100
AcDbEntity
  8
0
100
AcDbLine
 10
467.5943205324053
 20
-1186.667501331623
 30
0.0
 11
471.0943205324054
 21
-1186.667501331623
 31
0.0
  0
LINE
  5
10AB
330
36
100
AcDbEntity
  8
0
100
AcDbLine
 10
471.0943205324054
 20
-1186.667501331623
 30
0.0
 11
473.1943205324053
 21
-1186.667501331623
 31
0.0
  0
LINE
  5
10AC
330
36
100
AcDbEntity
  8
0
100
AcDbLine
 10
467.5943205324053
 20
-1186.667501331623
 30
0.0
 11
465.4943205324054
 21
-1186.667501331623
 31
0.0
  0
LINE
  5
10AD
330
36
100
AcDbEntity
  8
0
100
AcDbLine
 10
472.3443205324056
 20
-1180.267501331623
 30
0.0
 11
473.1943205324053
 21
-1180.267501331623
 31
0.0
  0
ARC
  5
10AE
330
36
100
AcDbEntity
  8
0
100
AcDbCircle
 10
477.7193205324056
 20
-1183.467501331623
 30
0.0
 40
15.0
100
AcDbArc
 50
347.6822339999986
 51
12.31776600000139
  0
TEXT
  5
10AF
330
36
100
AcDbEntity
  8
0
100
AcDbText
 10
484.7247605324056
 20
-1182.288732331623
 30
0.0
 40
2.740499999999998
  1
N
 50
270.000001
100
AcDbText
  0
LINE
  5
10B0
330
36
100
AcDbEntity
  8
0
100
AcDbLine
 10
482.2193205324054
 20
-1185.217501331623
 30
0.0
 11
482.7193205324054
 21
-1185.717501331623
 31
0.0
  0
LINE
  5
10B1
330
36
100
AcDbEntity
  8
0
100
AcDbLine
 10
483.2193205324053
 20
-1185.217501331623
 30
0.0
 11
482.7193205324054
 21
-1185.717501331623
 31
0.0
  0
LINE
  5
10B2
330
36
100
AcDbEntity
  8
0
100
AcDbLine
 10
482.9693205324054
 20
-1183.717501331623
 30
0.0
 11
482.9693205324054
 21
-1185.217501331623
 31
0.0
  0
LINE
  5
10B3
330
36
100
AcDbEntity
  8
0
100
AcDbLine
 10
484.6733345324055
 20
-1183.717501331623
 30
0.0
 11
482.9693205324054
 21
-1183.717501331623
 31
0.0
  0
LINE
  5
10B4
330
36
100
AcDbEntity
  8
0
100
AcDbLine
 10
484.6733345324055
 20
-1183.217501331623
 30
0.0
 11
484.6733345324055
 21
-1183.717501331623
 31
0.0
  0
LINE
  5
10B5
330
36
100
AcDbEntity
  8
0
100
AcDbLine
 10
482.4693205324053
 20
-1183.217501331623
 30
0.0
 11
482.4693205324053
 21
-1185.217501331623
 31
0.0
  0
LINE
  5
10B6
330
36
100
AcDbEntity
  8
0
100
AcDbLine
 10
482.4693205324053
 20
-1185.217501331623
 30
0.0
 11
482.2193205324054
 21
-1185.217501331623
 31
0.0
  0
LINE
  5
10B7
330
36
100
AcDbEntity
  8
0
100
AcDbLine
 10
483.2193205324053
 20
-1185.217501331623
 30
0.0
 11
482.9693205324054
 21
-1185.217501331623
 31
0.0
  0
LINE
  5
10B8
330
36
100
AcDbEntity
  8
0
100
AcDbLine
 10
484.6733345324055
 20
-1183.217501331623
 30
0.0
 11
482.4693205324053
 21
-1183.217501331623
 31
0.0
  0
TEXT
  5
10B9
330
36
100
AcDbEntity
  8
0
100
AcDbText
 10
470.4134855324054
 20
-1193.131910331623
 30
0.0
 40
1.6
  1
125V 15A
 41
1.132074999999999
100
AcDbText
  0
TEXT
  5
10BA
330
36
100
AcDbEntity
  8
0
100
AcDbText
 10
478.0666565324055
 20
-1175.779254331623
 30
0.0
 40
2.127514
  1
JET
100
AcDbText
  0
TEXT
  5
10BB
330
36
100
AcDbEntity
  8
0
100
AcDbText
 10
474.9115095324055
 20
-1175.779254331623
 30
0.0
 40
2.127514
  1
E
100
AcDbText
  0
LINE
  5
10BC
330
36
100
AcDbEntity
  8
0
100
AcDbLine
 10
474.0009555324053
 20
-1174.656462331623
 30
0.0
 11
472.9480135324052
 21
-1175.519290331623
 31
0.0
  0
TEXT
  5
10BD
330
36
100
AcDbEntity
  8
0
100
AcDbText
 10
468.8058835324055
 20
-1175.778036331623
 30
0.0
 40
2.127514
  1
PS
100
AcDbText
  0
LINE
  5
10BE
330
36
100
AcDbEntity
  8
0
100
AcDbLine
 10
474.0009555324053
 20
-1174.656462331623
 30
0.0
 11
472.9480135324052
 21
-1173.793635331623
 31
0.0
  0
LINE
  5
10BF
330
36
100
AcDbEntity
  8
0
100
AcDbLine
 10
467.4627515324056
 20
-1174.656462331623
 30
0.0
 11
468.5156935324052
 21
-1175.519290331623
 31
0.0
  0
LINE
  5
10C0
330
36
100
AcDbEntity
  8
0
100
AcDbLine
 10
467.4627515324056
 20
-1174.656462331623
 30
0.0
 11
468.5156935324052
 21
-1173.793635331623
 31
0.0
  0
LINE
  5
10C1
330
36
100
AcDbEntity
  8
0
100
AcDbLine
 10
485.7534465324055
 20
-1173.882562331623
 30
0.0
 11
485.7534465324055
 21
-1175.512350331623
 31
0.0
  0
LINE
  5
10C2
330
36
100
AcDbEntity
  8
0
100
AcDbLine
 10
486.7056025324052
 20
-1174.124561331623
 30
0.0
 11
485.7534465324055
 21
-1175.512350331623
 31
0.0
  0
LINE
  5
10C3
330
36
100
AcDbEntity
  8
0
100
AcDbLine
 10
484.8012915324054
 20
-1175.270350331623
 30
0.0
 11
485.7534465324055
 21
-1173.882562331623
 31
0.0
  0
CIRCLE
  5
10C4
330
36
100
AcDbEntity
  8
0
 62
     3
100
AcDbCircle
 10
477.7193205324056
 20
-1183.467501331623
 30
0.0
 40
19.25
  0
LINE
  5
10C5
330
36
100
AcDbEntity
  8
0
 62
     3
100
AcDbLine
 10
494.7288035324056
 20
-1180.267501331623
 30
0.0
 11
474.6943205324056
 21
-1180.267501331623
 31
0.0
  0
LINE
  5
10C6
330
36
100
AcDbEntity
  8
0
 62
     3
100
AcDbLine
 10
494.7288035324056
 20
-1186.667501331623
 30
0.0
 11
474.6943205324056
 21
-1186.667501331623
 31
0.0
  0
CIRCLE
  5
10C7
330
36
100
AcDbEntity
  8
0
 62
     3
100
AcDbCircle
 10
469.3443205324054
 20
-1183.467501331623
 30
0.0
 40
2.325
  0
LINE
  5
10C8
330
36
100
AcDbEntity
  8
0
 62
     3
100
AcDbLine
 10
485.1193205324054
 20
-1177.867501331623
 30
0.0
 11
485.1193205324054
 21
-1176.167501331623
 31
0.0
  0
LINE
  5
10C9
330
36
100
AcDbEntity
  8
0
 62
     3
100
AcDbLine
 10
482.8693205324054
 20
-1178.867501331623
 30
0.0
 11
482.8693205324054
 21
-1177.867501331623
 31
0.0
  0
LINE
  5
10CA
330
36
100
AcDbEntity
  8
0
 62
     3
100
AcDbLine
 10
476.6193205324054
 20
-1176.167501331623
 30
0.0
 11
476.6193205324054
 21
-1177.867501331623
 31
0.0
  0
LINE
  5
10CB
330
36
100
AcDbEntity
  8
0
 62
     3
100
AcDbLine
 10
478.8693205324054
 20
-1178.867501331623
 30
0.0
 11
478.8693205324054
 21
-1177.867501331623
 31
0.0
  0
LINE
  5
10CC
330
36
100
AcDbEntity
  8
0
 62
     3
100
AcDbLine
 10
485.1193205324054
 20
-1177.867501331623
 30
0.0
 11
476.6193205324054
 21
-1177.867501331623
 31
0.0
  0
LINE
  5
10CD
330
36
100
AcDbEntity
  8
0
 62
     3
100
AcDbLine
 10
478.8693205324054
 20
-1178.867501331623
 30
0.0
 11
482.8693205324054
 21
-1178.867501331623
 31
0.0
  0
LINE
  5
10CE
330
36
100
AcDbEntity
  8
0
 62
     3
100
AcDbLine
 10
485.1193205324054
 20
-1176.167501331623
 30
0.0
 11
476.6193205324054
 21
-1176.167501331623
 31
0.0
  0
LINE
  5
10CF
330
36
100
AcDbEntity
  8
0
 62
     3
100
AcDbLine
 10
485.1193205324054
 20
-1189.067501331623
 30
0.0
 11
485.1193205324054
 21
-1190.767501331623
 31
0.0
  0
LINE
  5
10D0
330
36
100
AcDbEntity
  8
0
 62
     3
100
AcDbLine
 10
476.6193205324054
 20
-1190.767501331623
 30
0.0
 11
476.6193205324054
 21
-1189.067501331623
 31
0.0
  0
LINE
  5
10D1
330
36
100
AcDbEntity
  8
0
 62
     3
100
AcDbLine
 10
482.8693205324054
 20
-1188.067501331623
 30
0.0
 11
482.8693205324054
 21
-1189.067501331623
 31
0.0
  0
LINE
  5
10D2
330
36
100
AcDbEntity
  8
0
 62
     3
100
AcDbLine
 10
478.8693205324054
 20
-1188.067501331623
 30
0.0
 11
478.8693205324054
 21
-1189.067501331623
 31
0.0
  0
LINE
  5
10D3
330
36
100
AcDbEntity
  8
0
 62
     3
100
AcDbLine
 10
478.8693205324054
 20
-1188.067501331623
 30
0.0
 11
482.8693205324054
 21
-1188.067501331623
 31
0.0
  0
LINE
  5
10D4
330
36
100
AcDbEntity
  8
0
 62
     3
100
AcDbLine
 10
485.1193205324054
 20
-1189.067501331623
 30
0.0
 11
476.6193205324054
 21
-1189.067501331623
 31
0.0
  0
LINE
  5
10D5
330
36
100
AcDbEntity
  8
0
 62
     3
100
AcDbLine
 10
485.1193205324054
 20
-1190.767501331623
 30
0.0
 11
476.6193205324054
 21
-1190.767501331623
 31
0.0
  0
LINE
  5
10D6
330
36
100
AcDbEntity
  8
0
100
AcDbLine
 10
465.4943205324054
 20
-1180.267501331623
 30
0.0
 11
465.4943205324054
 21
-1186.667501331623
 31
0.0
  0
LINE
  5
10D7
330
36
100
AcDbEntity
  8
0
100
AcDbLine
 10
473.1943205324053
 20
-1180.267501331623
 30
0.0
 11
473.1943205324053
 21
-1186.667501331623
 31
0.0
  0
LINE
  5
10D8
330
36
100
AcDbEntity
  8
0
100
AcDbLine
 10
474.6943205324056
 20
-1179.717501331623
 30
0.0
 11
474.6943205324056
 21
-1187.217501331623
 31
0.0
  0
LINE
  5
10D9
330
36
100
AcDbEntity
  8
0
100
AcDbLine
 10
473.1943205324053
 20
-1180.267501331623
 30
0.0
 11
473.1943205324053
 21
-1179.717501331623
 31
0.0
  0
LINE
  5
10DA
330
36
100
AcDbEntity
  8
0
100
AcDbLine
 10
473.1943205324053
 20
-1179.717501331623
 30
0.0
 11
474.6943205324056
 21
-1179.717501331623
 31
0.0
  0
LINE
  5
10DB
330
36
100
AcDbEntity
  8
0
100
AcDbLine
 10
473.1943205324053
 20
-1186.667501331623
 30
0.0
 11
473.1943205324053
 21
-1187.217501331623
 31
0.0
  0
LINE
  5
10DC
330
36
100
AcDbEntity
  8
0
100
AcDbLine
 10
473.1943205324053
 20
-1187.217501331623
 30
0.0
 11
474.6943205324056
 21
-1187.217501331623
 31
0.0
  0
CIRCLE
  5
10DD
330
36
100
AcDbEntity
  8
0
100
AcDbCircle
 10
467.8250895324056
 20
-1189.807964331623
 30
0.0
 40
1.0
  0
LINE
  5
10DE
330
36
100
AcDbEntity
  8
0
100
AcDbLine
 10
468.1600895324055
 20
-1190.052964331623
 30
0.0
 11
468.1600895324055
 21
-1189.552964331623
 31
0.0
  0
LINE
  5
10DF
330
36
100
AcDbEntity
  8
0
100
AcDbLine
 10
467.9100895324054
 20
-1189.427964331623
 30
0.0
 11
467.9100895324054
 21
-1190.177964331623
 31
0.0
  0
LINE
  5
10E0
330
36
100
AcDbEntity
  8
0
100
AcDbLine
 10
467.6600895324055
 20
-1190.302964331623
 30
0.0
 11
467.6600895324055
 21
-1189.302964331623
 31
0.0
  0
LINE
  5
10E1
330
36
100
AcDbEntity
  8
0
100
AcDbLine
 10
467.6600895324055
 20
-1189.802964331623
 30
0.0
 11
467.1600895324056
 21
-1189.802964331623
 31
0.0
  0
CIRCLE
  5
10E2
330
36
100
AcDbEntity
  8
0
100
AcDbCircle
 10
477.7193205324056
 20
-1183.467501331623
 30
0.0
 40
17.75
  0
LINE
  5
10E3
330
36
100
AcDbEntity
  8
0
 62
     3
100
AcDbLine
 10
494.2117425324054
 20
-1188.717501331623
 30
0.0
 11
490.6976675324056
 21
-1188.717501331623
 31
0.0
  0
ARC
  5
10E4
330
36
100
AcDbEntity
  8
0
 62
     3
100
AcDbCircle
 10
477.7193205324056
 20
-1183.467501331623
 30
0.0
 40
17.307874
100
AcDbArc
 50
342.342270000005
 51
17.65772999999495
  0
LINE
  5
10E5
330
36
100
AcDbEntity
  8
0
 62
     3
100
AcDbLine
 10
494.2117425324054
 20
-1178.217501331623
 30
0.0
 11
490.6976675324056
 21
-1178.217501331623
 31
0.0
  0
ARC
  5
10E6
330
36
100
AcDbEntity
  8
0
 62
     3
100
AcDbCircle
 10
477.7193205324056
 20
-1183.467501331623
 30
0.0
 40
14.0
100
AcDbArc
 50
22.02431300000187
 51
337.9756869999981
  0
CIRCLE
  5
10E7
330
36
100
AcDbEntity
  8
0
100
AcDbCircle
 10
485.7534465324055
 20
-1174.697456331623
 30
0.0
 40
0.8148939999999999
  0
TEXT
  5
10E8
330
36
100
AcDbEntity
  8
0
 62
     3
100
AcDbText
 10
491.8126545324056
 20
-1203.361661331623
 30
0.0
 40
4.5
  1
定格表示　刻印
 41
0.833333
100
AcDbText
  0
LINE
  5
10E9
330
36
100
AcDbEntity
  8
0
100
AcDbLine
 10
491.8126545324056
 20
-1203.361661331623
 30
0.0
 11
523.1354475324056
 21
-1203.361661331623
 31
0.0
  0
LINE
  5
10EA
330
36
100
AcDbEntity
  8
0
 62
     3
100
AcDbLine
 10
504.0206235324053
 20
-1165.774836331623
 30
0.0
 11
501.4935625324056
 21
-1167.845621331623
 31
0.0
  0
LINE
  5
10EB
330
36
100
AcDbEntity
  8
0
 62
     3
100
AcDbLine
 10
504.0206235324053
 20
-1165.774836331623
 30
0.0
 11
501.4935625324056
 21
-1163.704050331623
 31
0.0
  0
LINE
  5
10EC
330
36
100
AcDbEntity
  8
0
 62
     3
100
AcDbLine
 10
490.8966005324053
 20
-1165.774836331623
 30
0.0
 11
493.4236605324056
 21
-1167.845621331623
 31
0.0
  0
LINE
  5
10ED
330
36
100
AcDbEntity
  8
0
 62
     3
100
AcDbLine
 10
490.8966005324053
 20
-1165.774836331623
 30
0.0
 11
493.4236605324056
 21
-1163.704050331623
 31
0.0
  0
ARC
  5
10EE
330
36
100
AcDbEntity
  8
0
 62
     3
100
AcDbCircle
 10
523.7316485324056
 20
-1166.124454331623
 30
0.0
 40
1.399999999999999
100
AcDbArc
 50
206.8022930000001
 51
24.26082999999866
  0
LINE
  5
10EF
330
36
100
AcDbEntity
  8
0
 62
     3
100
AcDbLine
 10
522.2896935324056
 20
-1166.986524331623
 30
0.0
 11
523.5916485324054
 21
-1164.731471331623
 31
0.0
  0
LINE
  5
10F0
330
36
100
AcDbEntity
  8
0
 62
     3
100
AcDbLine
 10
525.1736035324056
 20
-1165.262383331623
 30
0.0
 11
523.8716485324053
 21
-1167.517436331623
 31
0.0
  0
LINE
  5
10F1
330
36
100
AcDbEntity
  8
0
 62
     3
100
AcDbLine
 10
523.7316485324056
 20
-1164.724454331623
 30
0.0
 11
523.7316485324056
 21
-1167.524454331623
 31
0.0
  0
ARC
  5
10F2
330
36
100
AcDbEntity
  8
0
 62
     3
100
AcDbCircle
 10
523.7316485324056
 20
-1166.124454331623
 30
0.0
 40
1.399999999999999
100
AcDbArc
 50
26.80229099999627
 51
204.2608299999987
  0
TEXT
  5
10F3
330
36
100
AcDbEntity
  8
0
 62
     3
100
AcDbText
 10
493.6059145324056
 20
-1168.250149331623
 30
0.0
 40
4.5
  1
PS
100
AcDbText
  0
TEXT
  5
10F4
330
36
100
AcDbEntity
  8
0
 62
     3
100
AcDbText
 10
503.5379475324055
 20
-1168.252098331623
 30
0.0
 40
4.5
  1
E
100
AcDbText
  0
TEXT
  5
10F5
330
36
100
AcDbEntity
  8
0
 62
     3
100
AcDbText
 10
508.5861835324053
 20
-1168.252099331623
 30
0.0
 40
4.5
  1
JET
100
AcDbText
  0
TEXT
  5
10F6
330
36
100
AcDbEntity
  8
0
 62
     3
100
AcDbText
 10
490.4007615324053
 20
-1160.671748331624
 30
0.0
 40
4.5
  1
電気用品認証表示
 41
0.833333
100
AcDbText
  0
LINE
  5
10F7
330
36
100
AcDbEntity
  8
0
100
AcDbLine
 10
526.9548955324053
 20
-1160.671748331624
 30
0.0
 11
490.4007615324053
 21
-1160.671748331624
 31
0.0
  0
LINE
  5
10F9
330
36
100
AcDbEntity
  8
0
100
AcDbLine
 10
479.8674105324056
 20
-1172.700712331623
 30
0.0
 11
490.4007615324053
 21
-1160.671748331624
 31
0.0
  0
LINE
  5
10FB
330
36
100
AcDbEntity
  8
0
100
AcDbLine
 10
483.3409455324055
 20
-1193.188582331623
 30
0.0
 11
491.8126545324056
 21
-1203.361661331623
 31
0.0
  0
TEXT
  5
10FC
330
36
100
AcDbEntity
  8
0
100
AcDbText
 10
473.2013115324055
 20
-1195.749636331623
 30
0.0
 40
1.919999999999999
  1
防　雨　形
 41
0.833333
100
AcDbText
  0
LINE
  5
10FE
330
36
100
AcDbEntity
  8
0
100
AcDbLine
 10
466.9009935324053
 20
-1190.673414331623
 30
0.0
 11
456.2702335324056
 21
-1199.289213331623
 31
0.0
  0
TEXT
  5
10FF
330
36
100
AcDbEntity
  8
0
 62
     3
100
AcDbText
 10
491.8126545324056
 20
-1210.522507331623
 30
0.0
 40
4.5
  1
防雨形表示刻印
 41
0.833333
100
AcDbText
  0
LINE
  5
1101
330
36
100
AcDbEntity
  8
0
100
AcDbLine
 10
479.3287015324056
 20
-1196.388529331623
 30
0.0
 11
491.8126545324056
 21
-1210.522507331623
 31
0.0
  0
LINE
  5
1102
330
36
100
AcDbEntity
  8
0
100
AcDbLine
 10
491.8126545324056
 20
-1210.522507331623
 30
0.0
 11
522.8126545324053
 21
-1210.522507331623
 31
0.0
  0
LINE
  5
1103
330
36
100
AcDbEntity
  8
0
  6
CENTER
100
AcDbLine
 10
401.0719455324053
 20
-1187.915190331623
 30
0.0
 11
401.0719455324053
 21
-1178.880809331623
 31
0.0
  0
LINE
  5
1104
330
36
100
AcDbEntity
  8
0
  6
CENTER
100
AcDbLine
 10
418.2664795324056
 20
-1189.891240331623
 30
0.0
 11
407.3903315324056
 21
-1189.891240331623
 31
0.0
  0
LINE
  5
1105
330
36
100
AcDbEntity
  8
0
  6
CENTER
100
AcDbLine
 10
407.3903315324056
 20
-1176.991240331623
 30
0.0
 11
418.6668635324056
 21
-1176.991240331623
 31
0.0
  0
LINE
  5
1106
330
36
100
AcDbEntity
  8
0
  6
CENTER
100
AcDbLine
 10
412.9969455324054
 20
-1179.587200331623
 30
0.0
 11
412.9969455324054
 21
-1174.856948331623
 31
0.0
  0
LINE
  5
1107
330
36
100
AcDbEntity
  8
0
  6
CENTER
100
AcDbLine
 10
412.9969455324054
 20
-1191.939050331623
 30
0.0
 11
412.9969455324054
 21
-1187.268855331623
 31
0.0
  0
LINE
  5
1108
330
36
100
AcDbEntity
  8
0
  6
CENTER
100
AcDbLine
 10
389.3558885324056
 20
-1183.441240331623
 30
0.0
 11
430.9243365324054
 21
-1183.441240331623
 31
0.0
  0
LINE
  5
1109
330
36
100
AcDbEntity
  8
0
 62
     3
100
AcDbLine
 10
409.8743855324054
 20
-1189.041240331623
 30
0.0
 11
409.8743855324054
 21
-1190.741240331623
 31
0.0
  0
LINE
  5
110A
330
36
100
AcDbEntity
  8
0
 62
     3
100
AcDbLine
 10
409.8743855324054
 20
-1176.141240331623
 30
0.0
 11
409.8743855324054
 21
-1177.841240331623
 31
0.0
  0
LINE
  5
110B
330
36
100
AcDbEntity
  8
0
 62
     3
100
AcDbLine
 10
416.1195065324053
 20
-1176.141240331623
 30
0.0
 11
416.1195065324053
 21
-1177.841240331623
 31
0.0
  0
LINE
  5
110C
330
36
100
AcDbEntity
  8
0
 62
     3
100
AcDbLine
 10
416.1195065324053
 20
-1189.041240331623
 30
0.0
 11
416.1195065324053
 21
-1190.741240331623
 31
0.0
  0
LINE
  5
110D
330
36
100
AcDbEntity
  8
0
  6
CENTER
100
AcDbLine
 10
409.8743855324054
 20
-1204.152365331623
 30
0.0
 11
409.8743855324054
 21
-1162.154509331623
 31
0.0
  0
LINE
  5
110E
330
36
100
AcDbEntity
  8
0
 62
     3
100
AcDbLine
 10
290.7359267125844
 20
-1398.080529331623
 30
0.0
 11
290.7359267125844
 21
-1348.080529331623
 31
0.0
  0
TEXT
  5
110F
330
36
100
AcDbEntity
  8
0
 62
     4
100
AcDbText
 10
352.4256654081605
 20
-1313.640696331623
 30
0.0
 40
3.2
  1
2P,2PE付き兼用型
  7
高3.2
100
AcDbText
  0
LINE
  5
1110
330
36
100
AcDbEntity
  8
0
100
AcDbLine
 10
352.4256654081605
 20
-1314.194002592203
 30
0.0
 11
388.784105331632
 21
-1314.194002592203
 31
0.0
  0
LINE
  5
1111
330
36
100
AcDbEntity
  8
0
100
AcDbLine
 10
368.7545665324056
 20
-1295.593012331623
 30
0.0
 11
368.7545665324056
 21
-1301.221624331623
 31
0.0
  0
LINE
  5
1112
330
36
100
AcDbEntity
  8
0
100
AcDbLine
 10
375.0545665324056
 20
-1295.593012331623
 30
0.0
 11
375.0545665324056
 21
-1300.506103331623
 31
0.0
  0
ARC
  5
1118
330
36
100
AcDbEntity
  8
0
100
AcDbCircle
 10
297.0413295324056
 20
-1212.368602331623
 30
0.0
 40
10.0
100
AcDbArc
 50
180.0
 51
270.0
  0
ARC
  5
1119
330
36
100
AcDbEntity
  8
0
100
AcDbCircle
 10
297.0413295324056
 20
-1212.368602331623
 30
0.0
 40
13.0
100
AcDbArc
 50
180.0
 51
270.0
  0
LINE
  5
111A
330
36
100
AcDbEntity
  8
0
100
AcDbLine
 10
297.0413295324056
 20
-1225.368602331623
 30
0.0
 11
312.7640105324056
 21
-1225.368602331623
 31
0.0
  0
LINE
  5
111B
330
36
100
AcDbEntity
  8
0
100
AcDbLine
 10
297.0413295324056
 20
-1222.368602331623
 30
0.0
 11
312.7640105324056
 21
-1222.368602331623
 31
0.0
  0
LINE
  5
1120
330
36
100
AcDbEntity
  8
0
100
AcDbLine
 10
284.4735765324056
 20
-1189.326474331623
 30
0.0
 11
275.5888655324056
 21
-1203.569863331623
 31
0.0
  0
CIRCLE
  5
1121
330
36
100
AcDbEntity
  8
0
100
AcDbCircle
 10
272.9426005324056
 20
-1207.812183331623
 30
0.0
 40
5.0
  0
TEXT
  5
1122
330
36
100
AcDbEntity
  8
0
 62
     4
100
AcDbText
 10
270.7248084578391
 20
-1210.955680575706
 30
0.0
 40
6.299999999999998
  1
8
  7
高6.3
100
AcDbText
  0
LINE
  5
1124
330
36
100
AcDbEntity
  8
0
100
AcDbLine
 10
287.1880535324056
 20
-1220.848752331623
 30
0.0
 11
280.2958985324056
 21
-1228.135355331623
 31
0.0
  0
CIRCLE
  5
1125
330
36
100
AcDbEntity
  8
0
100
AcDbCircle
 10
276.8600505324056
 20
-1231.767840331623
 30
0.0
 40
5.0
  0
TEXT
  5
1126
330
36
100
AcDbEntity
  8
0
 62
     4
100
AcDbText
 10
274.6422584578391
 20
-1234.911337575706
 30
0.0
 40
6.299999999999998
  1
9
  7
高6.3
100
AcDbText
  0
TEXT
  5
112B
330
36
100
AcDbEntity
  8
0
 62
     3
100
AcDbText
 10
445.2175528698727
 20
-1304.492516525792
 30
0.0
 40
4.5
  1
適応電線サイズ
  7
高4.5
100
AcDbText
  0
LINE
  5
112D
330
36
100
AcDbEntity
  8
0
100
AcDbLine
 10
381.5755675324055
 20
-1284.893012331623
 30
0.0
 11
390.7204485324056
 21
-1263.140185331623
 31
0.0
  0
CIRCLE
  5
112E
330
36
100
AcDbEntity
  8
0
100
AcDbCircle
 10
392.6581765324056
 20
-1258.530933331623
 30
0.0
 40
5.0
  0
TEXT
  5
112F
330
36
100
AcDbEntity
  8
0
 62
     4
100
AcDbText
 10
390.4403844578392
 20
-1261.674430575706
 30
0.0
 40
6.299999999999998
  1
6
  7
高6.3
100
AcDbText
  0
LINE
  5
1131
330
36
100
AcDbEntity
  8
0
100
AcDbLine
 10
371.8995045324056
 20
-1269.393012331623
 30
0.0
 11
375.5333155324056
 21
-1262.894927331623
 31
0.0
  0
CIRCLE
  5
1132
330
36
100
AcDbEntity
  8
0
100
AcDbCircle
 10
377.9737155324056
 20
-1258.530933331623
 30
0.0
 40
5.0
  0
TEXT
  5
1133
330
36
100
AcDbEntity
  8
0
 62
     4
100
AcDbText
 10
375.7559234578392
 20
-1261.674430575706
 30
0.0
 40
6.299999999999998
  1
5
  7
高6.3
100
AcDbText
  0
TEXT
  5
1148
330
36
100
AcDbEntity
  8
0
 62
     3
100
AcDbText
 10
445.3828578698725
 20
-1262.127205796117
 30
0.0
 40
4.5
  1
型式認証
  7
高4.5
100
AcDbText
  0
LINE
  5
1149
330
36
100
AcDbEntity
  8
0
100
AcDbLine
 10
468.2630235077535
 20
-1242.127205796117
 30
0.0
 11
468.2630235077535
 21
-1263.127205796118
 31
0.0
  0
LINE
  5
114A
330
36
100
AcDbEntity
  8
0
 62
     3
100
AcDbLine
 10
528.0122775324055
 20
-1358.414806331623
 30
0.0
 11
528.0122775324055
 21
-1352.414806331623
 31
0.0
  0
LINE
  5
114B
330
36
100
AcDbEntity
  8
0
 62
     3
100
AcDbLine
 10
502.0122775324053
 20
-1358.414806331623
 30
0.0
 11
502.0122775324053
 21
-1352.414806331623
 31
0.0
  0
LINE
  5
114C
330
36
100
AcDbEntity
  8
0
 62
     3
100
AcDbLine
 10
553.7116415324057
 20
-1352.414806331623
 30
0.0
 11
502.0122775324053
 21
-1352.414806331623
 31
0.0
  0
TEXT
  5
114D
330
36
100
AcDbEntity
  8
0
 62
     3
100
AcDbText
 10
508.0078755324056
 20
-1357.618457331623
 30
0.0
 40
4.5
  1
コード
  7
高4.5
100
AcDbText
  0
TEXT
  5
114E
330
36
100
AcDbEntity
  8
0
 62
     3
100
AcDbText
 10
445.4944418698726
 20
-1319.586000525792
 30
0.0
 40
4.5
  1
2PNCT:0.75,1.25,2.0,3.5
  7
高4.5
100
AcDbText
  0
TEXT
  5
114F
330
36
100
AcDbEntity
  8
0
 62
     3
100
AcDbText
 10
445.5525738698725
 20
-1311.778941525792
 30
0.0
 40
4.5
  1
VCT:0.75,1.25,2.0,3.5
  7
高4.5
100
AcDbText
  0
LINE
  5
1150
330
36
100
AcDbEntity
  8
0
 62
     3
100
AcDbLine
 10
443.3828578698725
 20
-1297.999229525792
 30
0.0
 11
443.3828578698725
 21
-1321.778912525792
 31
0.0
  0
LINE
  5
1151
330
36
100
AcDbEntity
  8
0
 62
     3
100
AcDbLine
 10
443.3828578698725
 20
-1297.999229525792
 30
0.0
 11
525.8855478647432
 21
-1297.999229525792
 31
0.0
  0
LINE
  5
1152
330
36
100
AcDbEntity
  8
0
 62
     3
100
AcDbLine
 10
525.8855478647432
 20
-1297.999229525792
 30
0.0
 11
525.8855478647432
 21
-1321.778912525792
 31
0.0
  0
LINE
  5
1153
330
36
100
AcDbEntity
  8
0
 62
     3
100
AcDbLine
 10
443.3828578698725
 20
-1321.778912525792
 30
0.0
 11
525.8855478647432
 21
-1321.778912525792
 31
0.0
  0
TEXT
  5
1154
330
36
100
AcDbEntity
  8
0
 62
     3
100
AcDbText
 10
283.7136686681134
 20
-1397.580529331623
 30
0.0
 40
3.2
  1
個数
 41
0.8
  7
高3.2
100
AcDbText
  0
TEXT
  5
1155
330
36
100
AcDbEntity
  8
0
 62
     3
100
AcDbText
 10
235.1926666477046
 20
-1397.580529331623
 30
0.0
 40
3.2
  1
仕　　様
 41
0.8
  7
高3.2
100
AcDbText
  0
TEXT
  5
1156
330
36
100
AcDbEntity
  8
0
 62
     3
100
AcDbText
 10
205.8894010893114
 20
-1397.580529331623
 30
0.0
 40
3.2
  1
材　　質
 41
0.8
  7
高3.2
100
AcDbText
  0
TEXT
  5
1157
330
36
100
AcDbEntity
  8
0
 62
     3
100
AcDbText
 10
172.2078678443816
 20
-1397.580529331623
 30
0.0
 40
3.2
  1
部　品　名
 41
0.8
  7
高3.2
100
AcDbText
  0
TEXT
  5
1158
330
36
100
AcDbEntity
  8
0
 62
     3
100
AcDbText
 10
165.2116415324055
 20
-1397.580529331623
 30
0.0
 40
3.2
  1
NO
 41
0.8
  7
高3.2
100
AcDbText
  0
TEXT
  5
1159
330
36
100
AcDbEntity
  8
0
 62
     3
100
AcDbText
 10
283.7136686681134
 20
-1392.580529331623
 30
0.0
 40
3.2
  1
1
 41
0.8
  7
高3.2
100
AcDbText
  0
TEXT
  5
115A
330
36
100
AcDbEntity
  8
0
 62
     3
100
AcDbText
 10
283.7136686681134
 20
-1387.580529331623
 30
0.0
 40
3.2
  1
1
 41
0.8
  7
高3.2
100
AcDbText
  0
TEXT
  5
115B
330
36
100
AcDbEntity
  8
0
 62
     3
100
AcDbText
 10
283.7136686681134
 20
-1377.580529331623
 30
0.0
 40
3.2
  1
1
 41
0.8
  7
高3.2
100
AcDbText
  0
LINE
  5
115C
330
36
100
AcDbEntity
  8
0
100
AcDbLine
 10
282.2136686681134
 20
-1398.080529331623
 30
0.0
 11
282.2136686681134
 21
-1348.080529331623
 31
0.0
  0
TEXT
  5
115D
330
36
100
AcDbEntity
  8
0
 62
     3
100
AcDbText
 10
283.7136686681134
 20
-1367.580529331623
 30
0.0
 40
3.2
  1
1
 41
0.8
  7
高3.2
100
AcDbText
  0
TEXT
  5
115E
330
36
100
AcDbEntity
  8
0
 62
     3
100
AcDbText
 10
283.7136686681134
 20
-1362.580529331623
 30
0.0
 40
3.2
  1
1
 41
0.8
  7
高3.2
100
AcDbText
  0
TEXT
  5
115F
330
36
100
AcDbEntity
  8
0
 62
     3
100
AcDbText
 10
283.7136686681134
 20
-1352.580529331623
 30
0.0
 40
3.2
  1
1
 41
0.8
  7
高3.2
100
AcDbText
  0
TEXT
  5
1160
330
36
100
AcDbEntity
  8
0
 62
     3
100
AcDbText
 10
283.7136686681134
 20
-1372.580529331623
 30
0.0
 40
3.2
  1
2
 41
0.8
  7
高3.2
100
AcDbText
  0
TEXT
  5
1161
330
36
100
AcDbEntity
  8
0
 62
     3
100
AcDbText
 10
283.7136686681134
 20
-1382.580529331623
 30
0.0
 40
3.2
  1
1
 41
0.8
  7
高3.2
100
AcDbText
  0
TEXT
  5
1162
330
36
100
AcDbEntity
  8
0
 62
     3
100
AcDbText
 10
235.1926666477046
 20
-1357.580529331623
 30
0.0
 40
3.2
  1
なべM3x12　クロメートメッキ
 41
0.8
  7
高3.2
100
AcDbText
  0
TEXT
  5
1163
330
36
100
AcDbEntity
  8
0
 62
     3
100
AcDbText
 10
165.2116415324055
 20
-1392.580529331623
 30
0.0
 40
3.2
  1
1
 41
0.8
  7
高3.2
100
AcDbText
  0
TEXT
  5
1164
330
36
100
AcDbEntity
  8
0
 62
     3
100
AcDbText
 10
165.2116415324055
 20
-1387.580529331623
 30
0.0
 40
3.2
  1
2
 41
0.8
  7
高3.2
100
AcDbText
  0
TEXT
  5
1165
330
36
100
AcDbEntity
  8
0
 62
     3
100
AcDbText
 10
165.2116415324055
 20
-1382.580529331623
 30
0.0
 40
3.2
  1
3
 41
0.8
  7
高3.2
100
AcDbText
  0
TEXT
  5
1166
330
36
100
AcDbEntity
  8
0
 62
     3
100
AcDbText
 10
165.2116415324055
 20
-1377.580529331623
 30
0.0
 40
3.2
  1
4
 41
0.8
  7
高3.2
100
AcDbText
  0
TEXT
  5
1167
330
36
100
AcDbEntity
  8
0
 62
     3
100
AcDbText
 10
165.2116415324055
 20
-1372.580529331623
 30
0.0
 40
3.2
  1
5
 41
0.8
  7
高3.2
100
AcDbText
  0
TEXT
  5
1168
330
36
100
AcDbEntity
  8
0
 62
     3
100
AcDbText
 10
165.2116415324055
 20
-1367.580529331623
 30
0.0
 40
3.2
  1
6
 41
0.8
  7
高3.2
100
AcDbText
  0
TEXT
  5
1169
330
36
100
AcDbEntity
  8
0
 62
     3
100
AcDbText
 10
205.8894010893114
 20
-1377.580529331623
 30
0.0
 40
3.2
  1
C2680-1/2H
 41
0.8
  7
高3.2
100
AcDbText
  0
TEXT
  5
116A
330
36
100
AcDbEntity
  8
0
 62
     3
100
AcDbText
 10
205.8894010893114
 20
-1387.580529331623
 30
0.0
 40
3.2
  1
C2680-1/2H
 41
0.8
  7
高3.2
100
AcDbText
  0
TEXT
  5
116B
330
36
100
AcDbEntity
  8
0
 62
     3
100
AcDbText
 10
235.1926666477046
 20
-1392.580529331623
 30
0.0
 40
3.2
  1
成形色　グリーン
 41
0.8
  7
高3.2
100
AcDbText
  0
TEXT
  5
116C
330
36
100
AcDbEntity
  8
0
 62
     3
100
AcDbText
 10
235.1926666477046
 20
-1377.580529331623
 30
0.0
 40
3.2
  1
ニッケルメッキ
 41
0.8
  7
高3.2
100
AcDbText
  0
LINE
  5
116D
330
36
100
AcDbEntity
  8
0
100
AcDbLine
 10
233.6926666477046
 20
-1398.080529331623
 30
0.0
 11
233.6926666477046
 21
-1348.080529331623
 31
0.0
  0
LINE
  5
116E
330
36
100
AcDbEntity
  8
0
100
AcDbLine
 10
204.3894010893114
 20
-1398.080529331623
 30
0.0
 11
204.3894010893114
 21
-1348.080529331623
 31
0.0
  0
TEXT
  5
116F
330
36
100
AcDbEntity
  8
0
 62
     3
100
AcDbText
 10
165.2116415324055
 20
-1362.580529331623
 30
0.0
 40
3.2
  1
7
 41
0.8
  7
高3.2
100
AcDbText
  0
TEXT
  5
1170
330
36
100
AcDbEntity
  8
0
 62
     3
100
AcDbText
 10
165.2116415324055
 20
-1357.580529331623
 30
0.0
 40
3.2
  1
8
 41
0.8
  7
高3.2
100
AcDbText
  0
TEXT
  5
1171
330
36
100
AcDbEntity
  8
0
 62
     3
100
AcDbText
 10
165.2116415324055
 20
-1352.580529331623
 30
0.0
 40
3.2
  1
9
 41
0.8
  7
高3.2
100
AcDbText
  0
TEXT
  5
1172
330
36
100
AcDbEntity
  8
0
 62
     3
100
AcDbText
 10
172.2078678443816
 20
-1392.580529331623
 30
0.0
 40
3.2
  1
ゴムカバー
 41
0.8
  7
高3.2
100
AcDbText
  0
TEXT
  5
1173
330
36
100
AcDbEntity
  8
0
 62
     3
100
AcDbText
 10
172.2078678443816
 20
-1367.580529331623
 30
0.0
 40
3.2
  1
刃ホルダー
 41
0.8
  7
高3.2
100
AcDbText
  0
TEXT
  5
1174
330
36
100
AcDbEntity
  8
0
 62
     3
100
AcDbText
 10
172.2078678443816
 20
-1372.580529331623
 30
0.0
 40
3.2
  1
電源刃
 41
0.8
  7
高3.2
100
AcDbText
  0
TEXT
  5
1175
330
36
100
AcDbEntity
  8
0
 62
     3
100
AcDbText
 10
172.2078678443816
 20
-1387.580529331623
 30
0.0
 40
3.2
  1
アースピンケース
 41
0.8
  7
高3.2
100
AcDbText
  0
TEXT
  5
1176
330
36
100
AcDbEntity
  8
0
 62
     3
100
AcDbText
 10
172.2078678443816
 20
-1357.580529331623
 30
0.0
 40
3.2
  1
コードクリップ
 41
0.8
  7
高3.2
100
AcDbText
  0
TEXT
  5
1177
330
36
100
AcDbEntity
  8
0
 62
     3
100
AcDbText
 10
172.2078678443816
 20
-1352.580529331623
 30
0.0
 40
3.2
  1
クリップ付きアース線
 41
0.8
  7
高3.2
100
AcDbText
  0
TEXT
  5
1178
330
36
100
AcDbEntity
  8
0
 62
     3
100
AcDbText
 10
172.2078678443816
 20
-1362.580529331623
 30
0.0
 40
3.2
  1
巻きゴム
 41
0.8
  7
高3.2
100
AcDbText
  0
TEXT
  5
1179
330
36
100
AcDbEntity
  8
0
 62
     3
100
AcDbText
 10
172.2078678443816
 20
-1377.580529331623
 30
0.0
 40
3.2
  1
アースピン
 41
0.8
  7
高3.2
100
AcDbText
  0
TEXT
  5
117A
330
36
100
AcDbEntity
  8
0
 62
     3
100
AcDbText
 10
172.2078678443816
 20
-1382.580529331623
 30
0.0
 40
3.2
  1
コイルスプリング
 41
0.8
  7
高3.2
100
AcDbText
  0
LINE
  5
117B
330
36
100
AcDbEntity
  8
0
100
AcDbLine
 10
170.7078678443816
 20
-1398.080529331623
 30
0.0
 11
170.7078678443818
 21
-1348.080529331623
 31
0.0
  0
TEXT
  5
117C
330
36
100
AcDbEntity
  8
0
 62
     3
100
AcDbText
 10
205.8894010893114
 20
-1392.580529331623
 30
0.0
 40
3.2
  1
合成ゴム(EPDM)
 41
0.8
  7
高3.2
100
AcDbText
  0
TEXT
  5
117D
330
36
100
AcDbEntity
  8
0
 62
     3
100
AcDbText
 10
205.8894010893114
 20
-1382.580529331623
 30
0.0
 40
3.2
  1
SUS
 41
0.8
  7
高3.2
100
AcDbText
  0
TEXT
  5
117E
330
36
100
AcDbEntity
  8
0
 62
     3
100
AcDbText
 10
235.1926666477046
 20
-1372.580529331623
 30
0.0
 40
3.2
  1
ニッケルメッキ
 41
0.8
  7
高3.2
100
AcDbText
  0
TEXT
  5
117F
330
36
100
AcDbEntity
  8
0
 62
     3
100
AcDbText
 10
205.8894010893114
 20
-1372.580529331623
 30
0.0
 40
3.2
  1
C2680-H
 41
0.8
  7
高3.2
100
AcDbText
  0
TEXT
  5
1180
330
36
100
AcDbEntity
  8
0
 62
     3
100
AcDbText
 10
205.8894010893114
 20
-1357.580529331623
 30
0.0
 40
3.2
  1
SPCC
 41
0.8
  7
高3.2
100
AcDbText
  0
TEXT
  5
1181
330
36
100
AcDbEntity
  8
0
 62
     3
100
AcDbText
 10
205.8894010893114
 20
-1352.580529331623
 30
0.0
 40
3.2
  1
VSF
 41
0.8
  7
高3.2
100
AcDbText
  0
TEXT
  5
1182
330
36
100
AcDbEntity
  8
0
 62
     3
100
AcDbText
 10
235.1926666477046
 20
-1352.580529331623
 30
0.0
 40
3.2
  1
2.0sqx170
 41
0.8
  7
高3.2
100
AcDbText
  0
TEXT
  5
1183
330
36
100
AcDbEntity
  8
0
 62
     3
100
AcDbText
 10
205.8894010893114
 20
-1362.580529331623
 30
0.0
 40
3.2
  1
合成ゴム(EPDM)
 41
0.8
  7
高3.2
100
AcDbText
  0
TEXT
  5
1184
330
36
100
AcDbEntity
  8
0
 62
     3
100
AcDbText
 10
235.1926666477046
 20
-1362.580529331623
 30
0.0
 40
3.2
  1
絶縁抵抗1000MΩ以上
 41
0.8
  7
高3.2
100
AcDbText
  0
TEXT
  5
1185
330
36
100
AcDbEntity
  8
0
 62
     3
100
AcDbText
 10
235.1926666477046
 20
-1387.580529331623
 30
0.0
 40
3.2
  1
ニッケルメッキ
 41
0.8
  7
高3.2
100
AcDbText
  0
LINE
  5
1186
330
36
100
AcDbEntity
  8
0
 62
     3
100
AcDbLine
 10
290.7359267125844
 20
-1348.080529331623
 30
0.0
 11
163.7116415324055
 21
-1348.080529331623
 31
0.0
  0
LINE
  5
1187
330
36
100
AcDbEntity
  8
0
 62
     3
100
AcDbLine
 10
290.7359267125844
 20
-1393.080529331623
 30
0.0
 11
163.7116415324055
 21
-1393.080529331623
 31
0.0
  0
LINE
  5
1188
330
36
100
AcDbEntity
  8
0
100
AcDbLine
 10
290.7359267125844
 20
-1353.080529331623
 30
0.0
 11
163.7116415324055
 21
-1353.080529331623
 31
0.0
  0
LINE
  5
1189
330
36
100
AcDbEntity
  8
0
100
AcDbLine
 10
290.7359267125844
 20
-1363.080529331623
 30
0.0
 11
163.7116415324055
 21
-1363.080529331623
 31
0.0
  0
LINE
  5
118A
330
36
100
AcDbEntity
  8
0
100
AcDbLine
 10
290.7359267125844
 20
-1368.080529331623
 30
0.0
 11
163.7116415324055
 21
-1368.080529331623
 31
0.0
  0
LINE
  5
118B
330
36
100
AcDbEntity
  8
0
100
AcDbLine
 10
290.7359267125844
 20
-1373.080529331623
 30
0.0
 11
163.7116415324055
 21
-1373.080529331623
 31
0.0
  0
LINE
  5
118C
330
36
100
AcDbEntity
  8
0
100
AcDbLine
 10
290.7359267125844
 20
-1378.080529331623
 30
0.0
 11
163.7116415324055
 21
-1378.080529331623
 31
0.0
  0
LINE
  5
118D
330
36
100
AcDbEntity
  8
0
100
AcDbLine
 10
290.7359267125844
 20
-1383.080529331623
 30
0.0
 11
163.7116415324055
 21
-1383.080529331623
 31
0.0
  0
LINE
  5
118E
330
36
100
AcDbEntity
  8
0
100
AcDbLine
 10
290.7359267125844
 20
-1388.080529331623
 30
0.0
 11
163.7116415324055
 21
-1388.080529331623
 31
0.0
  0
TEXT
  5
118F
330
36
100
AcDbEntity
  8
0
 62
     3
100
AcDbText
 10
529.9994245324056
 20
-1357.770669331623
 30
0.0
 40
4.5
  1
7575
  7
高4.5
100
AcDbText
  0
TEXT
  5
1190
330
36
100
AcDbEntity
  8
0
 62
     3
100
AcDbText
 10
283.7136686681134
 20
-1357.580529331623
 30
0.0
 40
3.2
  1
1式
 41
0.8
  7
高3.2
100
AcDbText
  0
CIRCLE
  5
1191
330
36
100
AcDbEntity
  8
0
 62
     3
100
AcDbCircle
 10
452.3263345324052
 20
-1201.541795331623
 30
0.0
 40
4.0
  0
LINE
  5
1192
330
36
100
AcDbEntity
  8
0
 62
     3
100
AcDbLine
 10
451.3463345324056
 20
-1202.881795331623
 30
0.0
 11
453.3463345324054
 21
-1202.881795331623
 31
0.0
  0
LINE
  5
1193
330
36
100
AcDbEntity
  8
0
 62
     3
100
AcDbLine
 10
453.8463345324053
 20
-1201.881795331623
 30
0.0
 11
450.8463345324056
 21
-1201.881795331623
 31
0.0
  0
LINE
  5
1194
330
36
100
AcDbEntity
  8
0
 62
     3
100
AcDbLine
 10
450.3463345324056
 20
-1200.881795331623
 30
0.0
 11
454.3463345324054
 21
-1200.881795331623
 31
0.0
  0
LINE
  5
1195
330
36
100
AcDbEntity
  8
0
 62
     3
100
AcDbLine
 10
452.3463345324056
 20
-1200.881795331623
 30
0.0
 11
452.3463345324056
 21
-1198.881795331623
 31
0.0
  0
LINE
  5
1196
330
36
100
AcDbEntity
  8
0
100
AcDbLine
 10
290.7359267125844
 20
-1358.080529331623
 30
0.0
 11
163.7116415324055
 21
-1358.080529331623
 31
0.0
  0
TEXT
  5
1197
330
36
100
AcDbEntity
  8
0
 62
     3
100
AcDbText
 10
545.111865385536
 20
-1133.525168331623
 30
0.0
 40
3.2
  1
担当
  7
高3.2
100
AcDbText
  0
TEXT
  5
1198
330
36
100
AcDbEntity
  8
0
 62
     3
100
AcDbText
 10
497.2116415324054
 20
-1133.525168331623
 30
0.0
 40
3.2
  1
変更・追記内容
  7
高3.2
100
AcDbText
  0
TEXT
  5
1199
330
36
100
AcDbEntity
  8
0
 62
     3
100
AcDbText
 10
472.3251565327448
 20
-1138.195706841531
 30
0.0
 40
2.0
  1
1
  7
高2
100
AcDbText
  0
TEXT
  5
119A
330
36
100
AcDbEntity
  8
0
 62
     3
100
AcDbText
 10
472.0166450559873
 20
-1143.365523553803
 30
0.0
 40
2.0
  1
2
  7
高2
100
AcDbText
  0
TEXT
  5
119B
330
36
100
AcDbEntity
  8
0
 62
     3
100
AcDbText
 10
479.2116415324056
 20
-1133.525168331623
 30
0.0
 40
3.2
  1
日　付
  7
高3.2
100
AcDbText
  0
TEXT
  5
119C
330
36
100
AcDbEntity
  8
0
 62
     3
100
AcDbText
 10
479.2116415324056
 20
-1128.525168331623
 30
0.0
 40
3.2
  1
図　　　　面　　　　略　　　　歴
  7
高3.2
100
AcDbText
  0
TEXT
  5
119D
330
36
100
AcDbEntity
  8
0
 62
     3
100
AcDbText
 10
469.2116415324053
 20
-1133.525168331623
 30
0.0
 40
3.2
  1
記号
  7
高3.2
100
AcDbText
  0
LINE
  5
119E
330
36
100
AcDbEntity
  8
0
100
AcDbLine
 10
472.7116415324053
 20
-1140.234272331623
 30
0.0
 11
470.8116415324054
 21
-1143.525168331623
 31
0.0
  0
LINE
  5
119F
330
36
100
AcDbEntity
  8
0
100
AcDbLine
 10
472.7116415324053
 20
-1140.234272331623
 30
0.0
 11
474.6116415324054
 21
-1143.525168331623
 31
0.0
  0
LINE
  5
11A0
330
36
100
AcDbEntity
  8
0
100
AcDbLine
 10
470.8116415324054
 20
-1143.525168331623
 30
0.0
 11
474.6116415324054
 21
-1143.525168331623
 31
0.0
  0
LINE
  5
11A1
330
36
100
AcDbEntity
  8
0
100
AcDbLine
 10
472.7116415324053
 20
-1135.234271331623
 30
0.0
 11
470.8116415324054
 21
-1138.525168331623
 31
0.0
  0
LINE
  5
11A2
330
36
100
AcDbEntity
  8
0
100
AcDbLine
 10
472.7116415324053
 20
-1135.234271331623
 30
0.0
 11
474.6116415324054
 21
-1138.525168331623
 31
0.0
  0
LINE
  5
11A3
330
36
100
AcDbEntity
  8
0
100
AcDbLine
 10
470.8116415324054
 20
-1138.525168331623
 30
0.0
 11
474.6116415324054
 21
-1138.525168331623
 31
0.0
  0
LINE
  5
11A4
330
36
100
AcDbEntity
  8
0
 62
     3
100
AcDbLine
 10
467.7116415324054
 20
-1129.025168331623
 30
0.0
 11
553.7116415324057
 21
-1129.025168331623
 31
0.0
  0
LINE
  5
11A5
330
36
100
AcDbEntity
  8
0
 62
     7
100
AcDbLine
 10
467.7116415324054
 20
-1134.025168331623
 30
0.0
 11
553.7116415324057
 21
-1134.025168331623
 31
0.0
  0
LINE
  5
11A6
330
36
100
AcDbEntity
  8
0
 62
     7
100
AcDbLine
 10
467.7116415324054
 20
-1139.025168331623
 30
0.0
 11
553.7116415324057
 21
-1139.025168331623
 31
0.0
  0
LINE
  5
11A7
330
36
100
AcDbEntity
  8
0
 62
     3
100
AcDbLine
 10
467.7116415324054
 20
-1144.025168331623
 30
0.0
 11
553.7116415324057
 21
-1144.025168331623
 31
0.0
  0
LINE
  5
11A8
330
36
100
AcDbEntity
  8
0
 62
     7
100
AcDbLine
 10
543.611865385536
 20
-1144.025168331623
 30
0.0
 11
543.611865385536
 21
-1129.025168331623
 31
0.0
  0
LINE
  5
11A9
330
36
100
AcDbEntity
  8
0
 62
     7
100
AcDbLine
 10
495.7116415324056
 20
-1144.025168331623
 30
0.0
 11
495.7116415324056
 21
-1129.025168331623
 31
0.0
  0
LINE
  5
11AA
330
36
100
AcDbEntity
  8
0
 62
     7
100
AcDbLine
 10
477.7116415324053
 20
-1144.025168331623
 30
0.0
 11
477.7116415324053
 21
-1129.025168331623
 31
0.0
  0
LINE
  5
11AB
330
36
100
AcDbEntity
  8
0
 62
     3
100
AcDbLine
 10
467.7116415324054
 20
-1144.025168331623
 30
0.0
 11
467.7116415324054
 21
-1124.025168331623
 31
0.0
  0
TEXT
  5
11AC
330
36
100
AcDbEntity
  8
0
 62
     3
100
AcDbText
 10
205.8894010893114
 20
-1367.106817936772
 30
0.0
 40
2.0
  1
PBT-315NF-GF15
  7
高2
100
AcDbText
  0
TEXT
  5
11AD
330
36
100
AcDbEntity
  8
0
 62
     3
100
AcDbText
 10
235.0907274809125
 20
-1367.580529331623
 30
0.0
 40
3.2
  1
耐トラッキング対策品
 41
0.8
  7
高3.2
100
AcDbText
  0
TEXT
  5
11AE
330
36
100
AcDbEntity
  8
0
 62
     3
100
AcDbText
 10
479.2116415324056
 20
-1138.525168331623
 30
0.0
 40
3.2
  1
`15.8.7
  7
高3.2
100
AcDbText
  0
TEXT
  5
11AF
330
36
100
AcDbEntity
  8
0
 62
     3
100
AcDbText
 10
497.2116415324054
 20
-1138.525168331623
 30
0.0
 40
3.2
  1
刃ホルダー材質変更
  7
高3.2
100
AcDbText
  0
TEXT
  5
11B0
330
36
100
AcDbEntity
  8
0
 62
     3
100
AcDbText
 10
544.8545755658265
 20
-1138.525168331623
 30
0.0
 40
3.2
  1
牧田
  7
高3.2
100
AcDbText
  0
TEXT
  5
11B1
330
36
100
AcDbEntity
  8
0
 62
     3
100
AcDbText
 10
450.3602371655381
 20
-1277.666347341827
 30
0.0
 40
4.5
  1
耐トラッキング対策品
  7
高4.5
100
AcDbText
  0
TEXT
  5
12AA
330
36
100
AcDbEntity
  8
0
 62
     3
100
AcDbText
 10
544.8545755658265
 20
-1143.525168331623
 30
0.0
 40
3.2
  1
牧田
  7
高3.2
100
AcDbText
  0
TEXT
  5
12B7
330
36
100
AcDbEntity
  8
0
 62
     3
100
AcDbText
 10
445.3503056320733
 20
-1342.311443609755
 30
0.0
 40
4.5
  1
ブリスターパック仕様
  7
高4.5
100
AcDbText
  0
LINE
  5
12B8
330
36
100
AcDbEntity
  8
0
  6
Continuous
 62
     3
100
AcDbLine
 10
443.9621130754916
 20
-1344.005044659692
 30
0.0
 11
499.98225571165
 21
-1344.005044659692
 31
0.0
  0
LINE
  5
12C5
330
36
100
AcDbEntity
  8
0
  6
Continuous
 62
     3
100
AcDbLine
 10
443.9664867746349
 20
-1268.64171770276
 30
0.0
 11
510.4566670586557
 21
-1268.64171770276
 31
0.0
  0
LINE
  5
12C6
330
36
100
AcDbEntity
  8
0
  6
Continuous
 62
     3
100
AcDbLine
 10
510.4566670586557
 20
-1268.64171770276
 30
0.0
 11
510.4566670586557
 21
-1283.267558010378
 31
0.0
  0
LINE
  5
12C7
330
36
100
AcDbEntity
  8
0
  6
Continuous
 62
     3
100
AcDbLine
 10
510.4566670586557
 20
-1283.267558010378
 30
0.0
 11
443.9664867746349
 21
-1283.267558010378
 31
0.0
  0
LINE
  5
12C8
330
36
100
AcDbEntity
  8
0
  6
Continuous
 62
     3
100
AcDbLine
 10
443.9664867746349
 20
-1283.267558010378
 30
0.0
 11
443.9664867746349
 21
-1268.64171770276
 31
0.0
  0
LINE
  5
12C9
330
36
100
AcDbEntity
  8
0
100
AcDbLine
 10
372.4079335324055
 20
-1267.385853331623
 30
0.0
 11
371.8995045324056
 21
-1269.393012331623
 31
0.0
  0
LINE
  5
12CA
330
36
100
AcDbEntity
  8
0
100
AcDbLine
 10
371.8995045324056
 20
-1269.393012331623
 30
0.0
 11
373.3433965324056
 21
-1267.908976331623
 31
0.0
  0
LINE
  5
12CB
330
36
100
AcDbEntity
  8
0
100
AcDbLine
 10
381.8566405324056
 20
-1282.841626331623
 30
0.0
 11
381.5755675324055
 21
-1284.893012331623
 31
0.0
  0
LINE
  5
12CC
330
36
100
AcDbEntity
  8
0
100
AcDbLine
 10
381.5755675324055
 20
-1284.893012331623
 30
0.0
 11
382.8446775324056
 21
-1283.256996331623
 31
0.0
  0
LINE
  5
12CD
330
36
100
AcDbEntity
  8
0
100
AcDbLine
 10
286.2030435324056
 20
-1222.670000331623
 30
0.0
 11
287.1880535324056
 21
-1220.848752331623
 31
0.0
  0
LINE
  5
12CE
330
36
100
AcDbEntity
  8
0
100
AcDbLine
 10
287.1880535324056
 20
-1220.848752331623
 30
0.0
 11
285.4243865324056
 21
-1221.933494331623
 31
0.0
  0
LINE
  5
12CF
330
36
100
AcDbEntity
  8
0
100
AcDbLine
 10
283.8697605324055
 20
-1191.307028331623
 30
0.0
 11
284.4735765324056
 21
-1189.326474331623
 31
0.0
  0
LINE
  5
12D0
330
36
100
AcDbEntity
  8
0
100
AcDbLine
 10
284.4735765324056
 20
-1189.326474331623
 30
0.0
 11
282.9603795324056
 21
-1190.739776331623
 31
0.0
  0
LINE
  5
12D1
330
36
100
AcDbEntity
  8
0
100
AcDbLine
 10
282.1434615324056
 20
-1213.158913331623
 30
0.0
 11
283.6070255324056
 21
-1212.159483331623
 31
0.0
  0
LINE
  5
12D2
330
36
100
AcDbEntity
  8
0
100
AcDbLine
 10
283.6070255324056
 20
-1212.159483331623
 30
0.0
 11
284.9982015324055
 21
-1212.078509331623
 31
0.0
  0
LINE
  5
12D3
330
36
100
AcDbEntity
  8
0
100
AcDbLine
 10
284.9982015324055
 20
-1212.078509331623
 30
0.0
 11
285.5750065324056
 21
-1212.478103331623
 31
0.0
  0
LINE
  5
12D4
330
36
100
AcDbEntity
  8
0
100
AcDbLine
 10
285.5750065324056
 20
-1212.478103331623
 30
0.0
 11
286.1561885324056
 21
-1212.758072331623
 31
0.0
  0
LINE
  5
12D5
330
36
100
AcDbEntity
  8
0
100
AcDbLine
 10
286.1561885324056
 20
-1212.758072331623
 30
0.0
 11
287.1862895324056
 21
-1212.301570331623
 31
0.0
  0
LINE
  5
12D6
330
36
100
AcDbEntity
  8
0
100
AcDbLine
 10
287.1862895324056
 20
-1212.301570331623
 30
0.0
 11
288.2092445324056
 21
-1211.831395331623
 31
0.0
  0
LINE
  5
12D7
330
36
100
AcDbEntity
  8
0
100
AcDbLine
 10
288.2092445324056
 20
-1211.831395331623
 30
0.0
 11
288.6789355324055
 21
-1212.033542331623
 31
0.0
  0
LINE
  5
12D8
330
36
100
AcDbEntity
  8
0
100
AcDbLine
 10
288.6789355324055
 20
-1212.033542331623
 30
0.0
 11
289.1344845324056
 21
-1212.433376331623
 31
0.0
  0
LINE
  5
12D9
330
36
100
AcDbEntity
  8
0
100
AcDbLine
 10
481.0543645324056
 20
-1197.532765331622
 30
0.0
 11
479.3287015324056
 21
-1196.388529331623
 31
0.0
  0
LINE
  5
12DA
330
36
100
AcDbEntity
  8
0
100
AcDbLine
 10
479.3287015324056
 20
-1196.388529331623
 30
0.0
 11
480.2510515324056
 21
-1198.242298331623
 31
0.0
  0
LINE
  5
12DB
330
36
100
AcDbEntity
  8
0
100
AcDbLine
 10
465.6846365324056
 20
-1192.349023331623
 30
0.0
 11
466.9009935324053
 21
-1190.673414331623
 31
0.0
  0
LINE
  5
12DC
330
36
100
AcDbEntity
  8
0
100
AcDbLine
 10
466.9009935324053
 20
-1190.673414331623
 30
0.0
 11
465.0097935324056
 21
-1191.516355331623
 31
0.0
  0
LINE
  5
12DD
330
36
100
AcDbEntity
  8
0
100
AcDbLine
 10
485.0325975324055
 20
-1194.382526331623
 30
0.0
 11
483.3409455324055
 21
-1193.188582331623
 31
0.0
  0
LINE
  5
12DE
330
36
100
AcDbEntity
  8
0
100
AcDbLine
 10
483.3409455324055
 20
-1193.188582331623
 30
0.0
 11
484.2089875324053
 21
-1195.068394331623
 31
0.0
  0
LINE
  5
12DF
330
36
100
AcDbEntity
  8
0
100
AcDbLine
 10
480.7818155324055
 20
-1170.843012331623
 30
0.0
 11
479.8674105324056
 21
-1172.700712331623
 31
0.0
  0
LINE
  5
12E0
330
36
100
AcDbEntity
  8
0
100
AcDbLine
 10
479.8674105324056
 20
-1172.700712331623
 30
0.0
 11
481.5881585324055
 21
-1171.549099331623
 31
0.0
  0
LINE
  5
12E1
330
36
100
AcDbEntity
  8
0
100
AcDbLine
 10
291.0574255324056
 20
-1185.373092331623
 30
0.0
 11
290.9651815324056
 21
-1185.158104331623
 31
0.0
  0
LINE
  5
12E2
330
36
100
AcDbEntity
  8
0
100
AcDbLine
 10
290.9651815324056
 20
-1185.158104331623
 30
0.0
 11
290.8817665324055
 21
-1184.936104331623
 31
0.0
  0
LINE
  5
12E3
330
36
100
AcDbEntity
  8
0
100
AcDbLine
 10
290.8817665324055
 20
-1184.936104331623
 30
0.0
 11
290.8399375324055
 21
-1184.786010331623
 31
0.0
  0
LINE
  5
12E4
330
36
100
AcDbEntity
  8
0
100
AcDbLine
 10
290.8399375324055
 20
-1184.786010331623
 30
0.0
 11
290.8285745324056
 21
-1184.634926331623
 31
0.0
  0
LINE
  5
12E5
330
36
100
AcDbEntity
  8
0
100
AcDbLine
 10
290.8285745324056
 20
-1184.634926331623
 30
0.0
 11
290.8586625324056
 21
-1184.487028331623
 31
0.0
  0
LINE
  5
12E6
330
36
100
AcDbEntity
  8
0
100
AcDbLine
 10
290.8586625324056
 20
-1184.487028331623
 30
0.0
 11
290.8947365324055
 21
-1184.338203331623
 31
0.0
  0
LINE
  5
12E7
330
36
100
AcDbEntity
  8
0
100
AcDbLine
 10
290.8947365324055
 20
-1184.338203331623
 30
0.0
 11
290.9047945324056
 21
-1184.233523331623
 31
0.0
  0
LINE
  5
12E8
330
36
100
AcDbEntity
  8
0
100
AcDbLine
 10
290.9047945324056
 20
-1184.233523331623
 30
0.0
 11
290.9170755324057
 21
-1184.129951331623
 31
0.0
  0
LINE
  5
12E9
330
36
100
AcDbEntity
  8
0
100
AcDbLine
 10
290.9170755324057
 20
-1184.129951331623
 30
0.0
 11
290.9463425324057
 21
-1184.031788331623
 31
0.0
  0
LINE
  5
12EA
330
36
100
AcDbEntity
  8
0
100
AcDbLine
 10
290.9463425324057
 20
-1184.031788331623
 30
0.0
 11
290.9836345324056
 21
-1183.935127331623
 31
0.0
  0
LINE
  5
12EB
330
36
100
AcDbEntity
  8
0
100
AcDbLine
 10
290.9836345324056
 20
-1183.935127331623
 30
0.0
 11
291.0555415324055
 21
-1183.690885331623
 31
0.0
  0
LINE
  5
12EC
330
36
100
AcDbEntity
  8
0
100
AcDbLine
 10
291.0555415324055
 20
-1183.690885331623
 30
0.0
 11
291.1060865324056
 21
-1183.441240331623
 31
0.0
  0
LINE
  5
12ED
330
36
100
AcDbEntity
  8
0
100
AcDbLine
 10
291.0284645324056
 20
-1181.509388331623
 30
0.0
 11
290.9335925324056
 21
-1181.692220331623
 31
0.0
  0
LINE
  5
12EE
330
36
100
AcDbEntity
  8
0
100
AcDbLine
 10
290.9335925324056
 20
-1181.692220331623
 30
0.0
 11
290.8549725324056
 21
-1181.880012331623
 31
0.0
  0
LINE
  5
12EF
330
36
100
AcDbEntity
  8
0
100
AcDbLine
 10
290.8549725324056
 20
-1181.880012331623
 30
0.0
 11
290.8003135324055
 21
-1182.091107331623
 31
0.0
  0
LINE
  5
12F0
330
36
100
AcDbEntity
  8
0
100
AcDbLine
 10
290.8003135324055
 20
-1182.091107331623
 30
0.0
 11
290.7620155324056
 21
-1182.309456331623
 31
0.0
  0
LINE
  5
12F1
330
36
100
AcDbEntity
  8
0
100
AcDbLine
 10
290.7620155324056
 20
-1182.309456331623
 30
0.0
 11
290.7338415324056
 21
-1182.499290331623
 31
0.0
  0
LINE
  5
12F2
330
36
100
AcDbEntity
  8
0
100
AcDbLine
 10
290.7338415324056
 20
-1182.499290331623
 30
0.0
 11
290.7352215324056
 21
-1182.686134331623
 31
0.0
  0
LINE
  5
12F3
330
36
100
AcDbEntity
  8
0
100
AcDbLine
 10
290.7352215324056
 20
-1182.686134331623
 30
0.0
 11
290.7955555324056
 21
-1182.879779331623
 31
0.0
  0
LINE
  5
12F4
330
36
100
AcDbEntity
  8
0
100
AcDbLine
 10
290.7955555324056
 20
-1182.879779331623
 30
0.0
 11
290.8947365324055
 21
-1183.062416331623
 31
0.0
  0
LINE
  5
12F5
330
36
100
AcDbEntity
  8
0
100
AcDbLine
 10
290.8947365324055
 20
-1183.062416331623
 30
0.0
 11
290.9464235324056
 21
-1183.146592331623
 31
0.0
  0
LINE
  5
12F6
330
36
100
AcDbEntity
  8
0
100
AcDbLine
 10
290.9464235324056
 20
-1183.146592331623
 30
0.0
 11
290.9966345324055
 21
-1183.230873331623
 31
0.0
  0
LINE
  5
12F7
330
36
100
AcDbEntity
  8
0
100
AcDbLine
 10
290.9966345324055
 20
-1183.230873331623
 30
0.0
 11
291.1564825324056
 21
-1183.540313331623
 31
0.0
  0
LINE
  5
12F8
330
36
100
AcDbEntity
  8
0
100
AcDbLine
 10
291.1564825324056
 20
-1183.540313331623
 30
0.0
 11
291.3465185324055
 21
-1183.828773331623
 31
0.0
  0
LINE
  5
12F9
330
36
100
AcDbEntity
  8
0
100
AcDbLine
 10
291.3465185324055
 20
-1183.828773331623
 30
0.0
 11
291.4149445324056
 21
-1183.900684331623
 31
0.0
  0
LINE
  5
12FA
330
36
100
AcDbEntity
  8
0
100
AcDbLine
 10
291.4149445324056
 20
-1183.900684331623
 30
0.0
 11
291.4796665324055
 21
-1183.974892331623
 31
0.0
  0
LINE
  5
12FB
330
36
100
AcDbEntity
  8
0
100
AcDbLine
 10
291.4796665324055
 20
-1183.974892331623
 30
0.0
 11
291.5723055324056
 21
-1184.167815331623
 31
0.0
  0
LINE
  5
12FC
330
36
100
AcDbEntity
  8
0
100
AcDbLine
 10
291.5723055324056
 20
-1184.167815331623
 30
0.0
 11
291.6079325324056
 21
-1184.386909331623
 31
0.0
  0
LINE
  5
12FD
330
36
100
AcDbEntity
  8
0
100
AcDbLine
 10
291.6079325324056
 20
-1184.386909331623
 30
0.0
 11
291.6076815324057
 21
-1184.521478331623
 31
0.0
  0
LINE
  5
12FE
330
36
100
AcDbEntity
  8
0
100
AcDbLine
 10
291.6076815324057
 20
-1184.521478331623
 30
0.0
 11
291.5815345324056
 21
-1184.648323331623
 31
0.0
  0
LINE
  5
12FF
330
36
100
AcDbEntity
  8
0
100
AcDbLine
 10
291.5815345324056
 20
-1184.648323331623
 30
0.0
 11
291.4925085324055
 21
-1184.802842331623
 31
0.0
  0
LINE
  5
1300
330
36
100
AcDbEntity
  8
0
100
AcDbLine
 10
291.4925085324055
 20
-1184.802842331623
 30
0.0
 11
291.3733135324056
 21
-1184.945045331623
 31
0.0
  0
LINE
  5
1301
330
36
100
AcDbEntity
  8
0
100
AcDbLine
 10
291.3733135324056
 20
-1184.945045331623
 30
0.0
 11
291.2085545324056
 21
-1185.156735331623
 31
0.0
  0
LINE
  5
1302
330
36
100
AcDbEntity
  8
0
100
AcDbLine
 10
291.2085545324056
 20
-1185.156735331623
 30
0.0
 11
291.0574255324056
 21
-1185.373092331623
 31
0.0
  0
LINE
  5
1303
330
36
100
AcDbEntity
  8
0
100
AcDbLine
 10
231.5842425324056
 20
-1192.443657331623
 30
0.0
 11
231.7663005324056
 21
-1190.381124331623
 31
0.0
  0
LINE
  5
1304
330
36
100
AcDbEntity
  8
0
100
AcDbLine
 10
231.7663005324056
 20
-1190.381124331623
 30
0.0
 11
230.5773665324056
 21
-1192.076301331623
 31
0.0
  0
LINE
  5
1305
330
36
100
AcDbEntity
  8
0
100
AcDbLine
 10
347.6485245324056
 20
-1302.525928331623
 30
0.0
 11
349.7804975324056
 21
-1302.397898331623
 31
0.0
  0
LINE
  5
1306
330
36
100
AcDbEntity
  8
0
100
AcDbLine
 10
349.7804975324056
 20
-1302.397898331623
 30
0.0
 11
351.9132555324056
 21
-1302.292180331623
 31
0.0
  0
LINE
  5
1307
330
36
100
AcDbEntity
  8
0
100
AcDbLine
 10
351.9132555324056
 20
-1302.292180331623
 30
0.0
 11
354.0475825324056
 21
-1302.231090331624
 31
0.0
  0
LINE
  5
1308
330
36
100
AcDbEntity
  8
0
100
AcDbLine
 10
354.0475825324056
 20
-1302.231090331624
 30
0.0
 11
356.1842605324056
 21
-1302.236939331623
 31
0.0
  0
LINE
  5
1309
330
36
100
AcDbEntity
  8
0
100
AcDbLine
 10
356.1842605324056
 20
-1302.236939331623
 30
0.0
 11
358.3240765324056
 21
-1302.332042331623
 31
0.0
  0
LINE
  5
130A
330
36
100
AcDbEntity
  8
0
100
AcDbLine
 10
358.3240765324056
 20
-1302.332042331623
 30
0.0
 11
360.5283475324057
 21
-1302.499513331623
 31
0.0
  0
LINE
  5
130B
330
36
100
AcDbEntity
  8
0
100
AcDbLine
 10
360.5283475324057
 20
-1302.499513331623
 30
0.0
 11
362.7177835324056
 21
-1302.525928331623
 31
0.0
  0
LINE
  5
130C
330
36
100
AcDbEntity
  8
0
100
AcDbLine
 10
362.7177835324056
 20
-1302.525928331623
 30
0.0
 11
364.9879315324056
 21
-1302.201383331623
 31
0.0
  0
LINE
  5
130D
330
36
100
AcDbEntity
  8
0
100
AcDbLine
 10
364.9879315324056
 20
-1302.201383331623
 30
0.0
 11
367.2387615324057
 21
-1301.636574331623
 31
0.0
  0
LINE
  5
130E
330
36
100
AcDbEntity
  8
0
100
AcDbLine
 10
367.2387615324057
 20
-1301.636574331623
 30
0.0
 11
369.4882995324056
 21
-1301.033213331623
 31
0.0
  0
LINE
  5
130F
330
36
100
AcDbEntity
  8
0
100
AcDbLine
 10
369.4882995324056
 20
-1301.033213331623
 30
0.0
 11
371.7545665324057
 21
-1300.593012331623
 31
0.0
  0
LINE
  5
1310
330
36
100
AcDbEntity
  8
0
100
AcDbLine
 10
371.7545665324057
 20
-1300.593012331623
 30
0.0
 11
373.9301715324056
 21
-1300.467917331623
 31
0.0
  0
LINE
  5
1311
330
36
100
AcDbEntity
  8
0
100
AcDbLine
 10
373.9301715324056
 20
-1300.467917331623
 30
0.0
 11
376.1215235324056
 21
-1300.593890331623
 31
0.0
  0
LINE
  5
1312
330
36
100
AcDbEntity
  8
0
100
AcDbLine
 10
376.1215235324056
 20
-1300.593890331623
 30
0.0
 11
378.3131215324056
 21
-1300.893930331623
 31
0.0
  0
LINE
  5
1313
330
36
100
AcDbEntity
  8
0
100
AcDbLine
 10
378.3131215324056
 20
-1300.893930331623
 30
0.0
 11
380.4894665324056
 21
-1301.291034331623
 31
0.0
  0
LINE
  5
1314
330
36
100
AcDbEntity
  8
0
100
AcDbLine
 10
380.4894665324056
 20
-1301.291034331623
 30
0.0
 11
382.0198525324057
 21
-1301.586100331623
 31
0.0
  0
LINE
  5
1315
330
36
100
AcDbEntity
  8
0
100
AcDbLine
 10
382.0198525324057
 20
-1301.586100331623
 30
0.0
 11
383.5498605324056
 21
-1301.842861331623
 31
0.0
  0
LINE
  5
1316
330
36
100
AcDbEntity
  8
0
100
AcDbLine
 10
383.5498605324056
 20
-1301.842861331623
 30
0.0
 11
385.6755925324056
 21
-1302.079363331623
 31
0.0
  0
LINE
  5
1317
330
36
100
AcDbEntity
  8
0
100
AcDbLine
 10
385.6755925324056
 20
-1302.079363331623
 30
0.0
 11
387.8153025324055
 21
-1302.233608331623
 31
0.0
  0
LINE
  5
1318
330
36
100
AcDbEntity
  8
0
100
AcDbLine
 10
230.4721015324056
 20
-1178.520185331623
 30
0.0
 11
229.9846035324056
 21
-1178.920707331623
 31
0.0
  0
LINE
  5
1319
330
36
100
AcDbEntity
  8
0
100
AcDbLine
 10
229.9846035324056
 20
-1178.920707331623
 30
0.0
 11
229.5507885324056
 21
-1179.363940331623
 31
0.0
  0
LINE
  5
131A
330
36
100
AcDbEntity
  8
0
100
AcDbLine
 10
229.5507885324056
 20
-1179.363940331623
 30
0.0
 11
229.1684385324056
 21
-1179.942795331623
 31
0.0
  0
LINE
  5
131B
330
36
100
AcDbEntity
  8
0
100
AcDbLine
 10
229.1684385324056
 20
-1179.942795331623
 30
0.0
 11
228.8357305324056
 21
-1180.565447331623
 31
0.0
  0
LINE
  5
131C
330
36
100
AcDbEntity
  8
0
100
AcDbLine
 10
228.8357305324056
 20
-1180.565447331623
 30
0.0
 11
228.3465705324056
 21
-1181.446572331623
 31
0.0
  0
LINE
  5
131D
330
36
100
AcDbEntity
  8
0
100
AcDbLine
 10
228.3465705324056
 20
-1181.446572331623
 30
0.0
 11
227.9457465324056
 21
-1182.352374331623
 31
0.0
  0
LINE
  5
131E
330
36
100
AcDbEntity
  8
0
100
AcDbLine
 10
227.9457465324056
 20
-1182.352374331623
 30
0.0
 11
227.7419505324056
 21
-1183.320807331623
 31
0.0
  0
LINE
  5
131F
330
36
100
AcDbEntity
  8
0
100
AcDbLine
 10
227.7419505324056
 20
-1183.320807331623
 30
0.0
 11
227.6342235324056
 21
-1184.314257331623
 31
0.0
  0
LINE
  5
1320
330
36
100
AcDbEntity
  8
0
100
AcDbLine
 10
227.6342235324056
 20
-1184.314257331623
 30
0.0
 11
227.5189505324056
 21
-1185.218001331623
 31
0.0
  0
LINE
  5
1321
330
36
100
AcDbEntity
  8
0
100
AcDbLine
 10
227.5189505324056
 20
-1185.218001331623
 30
0.0
 11
227.4132915324055
 21
-1186.139514331623
 31
0.0
  0
LINE
  5
1322
330
36
100
AcDbEntity
  8
0
100
AcDbLine
 10
227.4132915324055
 20
-1186.139514331623
 30
0.0
 11
227.4189825324056
 21
-1187.538610331623
 31
0.0
  0
LINE
  5
1323
330
36
100
AcDbEntity
  8
0
100
AcDbLine
 10
227.4189825324056
 20
-1187.538610331623
 30
0.0
 11
227.9004435324056
 21
-1188.771166331623
 31
0.0
  0
LINE
  5
1324
330
36
100
AcDbEntity
  8
0
100
AcDbLine
 10
227.9004435324056
 20
-1188.771166331623
 30
0.0
 11
228.2008835324055
 21
-1189.100813331623
 31
0.0
  0
LINE
  5
1325
330
36
100
AcDbEntity
  8
0
100
AcDbLine
 10
228.2008835324055
 20
-1189.100813331623
 30
0.0
 11
228.4782025324056
 21
-1189.440203331623
 31
0.0
  0
LINE
  5
1326
330
36
100
AcDbEntity
  8
0
100
AcDbLine
 10
228.4782025324056
 20
-1189.440203331623
 30
0.0
 11
228.6828075324056
 21
-1189.979234331623
 31
0.0
  0
LINE
  5
1327
330
36
100
AcDbEntity
  8
0
100
AcDbLine
 10
228.6828075324056
 20
-1189.979234331623
 30
0.0
 11
228.7676565324056
 21
-1190.581775331623
 31
0.0
  0
LINE
  5
1328
330
36
100
AcDbEntity
  8
0
100
AcDbLine
 10
294.9735765324056
 20
-1185.373092331623
 30
0.0
 11
295.0183965324056
 21
-1185.365314331622
 31
0.0
  0
LINE
  5
1329
330
36
100
AcDbEntity
  8
0
100
AcDbLine
 10
295.0183965324056
 20
-1185.365314331622
 30
0.0
 11
295.0628545324057
 21
-1185.342046331623
 31
0.0
  0
LINE
  5
132A
330
36
100
AcDbEntity
  8
0
100
AcDbLine
 10
295.0628545324057
 20
-1185.342046331623
 30
0.0
 11
295.1065945324056
 21
-1185.303473331623
 31
0.0
  0
LINE
  5
132B
330
36
100
AcDbEntity
  8
0
100
AcDbLine
 10
295.1065945324056
 20
-1185.303473331623
 30
0.0
 11
295.1492635324056
 21
-1185.249907331623
 31
0.0
  0
LINE
  5
132C
330
36
100
AcDbEntity
  8
0
100
AcDbLine
 10
295.1492635324056
 20
-1185.249907331623
 30
0.0
 11
295.1905185324056
 21
-1185.181778331623
 31
0.0
  0
LINE
  5
132D
330
36
100
AcDbEntity
  8
0
100
AcDbLine
 10
295.1905185324056
 20
-1185.181778331623
 30
0.0
 11
295.2300265324055
 21
-1185.099636331623
 31
0.0
  0
LINE
  5
132E
330
36
100
AcDbEntity
  8
0
100
AcDbLine
 10
295.2300265324055
 20
-1185.099636331623
 30
0.0
 11
295.2674685324057
 21
-1185.004141331623
 31
0.0
  0
LINE
  5
132F
330
36
100
AcDbEntity
  8
0
100
AcDbLine
 10
295.2674685324057
 20
-1185.004141331623
 30
0.0
 11
295.3025455324056
 21
-1184.896062331623
 31
0.0
  0
LINE
  5
1330
330
36
100
AcDbEntity
  8
0
100
AcDbLine
 10
295.3025455324056
 20
-1184.896062331623
 30
0.0
 11
295.3349735324056
 21
-1184.776270331623
 31
0.0
  0
LINE
  5
1331
330
36
100
AcDbEntity
  8
0
100
AcDbLine
 10
295.3349735324056
 20
-1184.776270331623
 30
0.0
 11
295.3644925324056
 21
-1184.645730331623
 31
0.0
  0
LINE
  5
1332
330
36
100
AcDbEntity
  8
0
100
AcDbLine
 10
295.3644925324056
 20
-1184.645730331623
 30
0.0
 11
295.3908625324055
 21
-1184.505491331623
 31
0.0
  0
LINE
  5
1333
330
36
100
AcDbEntity
  8
0
100
AcDbLine
 10
295.3908625324055
 20
-1184.505491331623
 30
0.0
 11
295.4138745324055
 21
-1184.356684331623
 31
0.0
  0
LINE
  5
1334
330
36
100
AcDbEntity
  8
0
100
AcDbLine
 10
295.4138745324055
 20
-1184.356684331623
 30
0.0
 11
295.4333405324056
 21
-1184.200506331623
 31
0.0
  0
LINE
  5
1335
330
36
100
AcDbEntity
  8
0
100
AcDbLine
 10
295.4333405324056
 20
-1184.200506331623
 30
0.0
 11
295.4491045324056
 21
-1184.038215331623
 31
0.0
  0
LINE
  5
1336
330
36
100
AcDbEntity
  8
0
100
AcDbLine
 10
295.4491045324056
 20
-1184.038215331623
 30
0.0
 11
295.4610405324056
 21
-1183.871117331623
 31
0.0
  0
LINE
  5
1337
330
36
100
AcDbEntity
  8
0
100
AcDbLine
 10
295.4610405324056
 20
-1183.871117331623
 30
0.0
 11
295.4690515324056
 21
-1183.700559331623
 31
0.0
  0
LINE
  5
1338
330
36
100
AcDbEntity
  8
0
100
AcDbLine
 10
295.4690515324056
 20
-1183.700559331623
 30
0.0
 11
295.4730725324056
 21
-1183.527912331623
 31
0.0
  0
LINE
  5
1339
330
36
100
AcDbEntity
  8
0
100
AcDbLine
 10
295.4730725324056
 20
-1183.527912331623
 30
0.0
 11
295.4730725324056
 21
-1183.354568331623
 31
0.0
  0
LINE
  5
133A
330
36
100
AcDbEntity
  8
0
100
AcDbLine
 10
295.4730725324056
 20
-1183.354568331623
 30
0.0
 11
295.4690515324056
 21
-1183.181921331623
 31
0.0
  0
LINE
  5
133B
330
36
100
AcDbEntity
  8
0
100
AcDbLine
 10
295.4690515324056
 20
-1183.181921331623
 30
0.0
 11
295.4610405324056
 21
-1183.011362331623
 31
0.0
  0
LINE
  5
133C
330
36
100
AcDbEntity
  8
0
100
AcDbLine
 10
295.4610405324056
 20
-1183.011362331623
 30
0.0
 11
295.4491045324056
 21
-1182.844265331623
 31
0.0
  0
LINE
  5
133D
330
36
100
AcDbEntity
  8
0
100
AcDbLine
 10
295.4491045324056
 20
-1182.844265331623
 30
0.0
 11
295.4333405324056
 21
-1182.681974331623
 31
0.0
  0
LINE
  5
133E
330
36
100
AcDbEntity
  8
0
100
AcDbLine
 10
295.4333405324056
 20
-1182.681974331623
 30
0.0
 11
295.4138745324055
 21
-1182.525796331623
 31
0.0
  0
LINE
  5
133F
330
36
100
AcDbEntity
  8
0
100
AcDbLine
 10
295.4138745324055
 20
-1182.525796331623
 30
0.0
 11
295.3908625324055
 21
-1182.376989331623
 31
0.0
  0
LINE
  5
1340
330
36
100
AcDbEntity
  8
0
100
AcDbLine
 10
295.3908625324055
 20
-1182.376989331623
 30
0.0
 11
295.3644925324056
 21
-1182.236750331623
 31
0.0
  0
LINE
  5
1341
330
36
100
AcDbEntity
  8
0
100
AcDbLine
 10
295.3644925324056
 20
-1182.236750331623
 30
0.0
 11
295.3349735324056
 21
-1182.106209331623
 31
0.0
  0
LINE
  5
1342
330
36
100
AcDbEntity
  8
0
100
AcDbLine
 10
295.3349735324056
 20
-1182.106209331623
 30
0.0
 11
295.3025455324056
 21
-1181.986418331623
 31
0.0
  0
LINE
  5
1343
330
36
100
AcDbEntity
  8
0
100
AcDbLine
 10
295.3025455324056
 20
-1181.986418331623
 30
0.0
 11
295.2674685324057
 21
-1181.878339331623
 31
0.0
  0
LINE
  5
1344
330
36
100
AcDbEntity
  8
0
100
AcDbLine
 10
295.2674685324057
 20
-1181.878339331623
 30
0.0
 11
295.2300265324055
 21
-1181.782844331623
 31
0.0
  0
LINE
  5
1345
330
36
100
AcDbEntity
  8
0
100
AcDbLine
 10
295.2300265324055
 20
-1181.782844331623
 30
0.0
 11
295.1905185324056
 21
-1181.700702331623
 31
0.0
  0
LINE
  5
1346
330
36
100
AcDbEntity
  8
0
100
AcDbLine
 10
295.1905185324056
 20
-1181.700702331623
 30
0.0
 11
295.1492635324056
 21
-1181.632573331623
 31
0.0
  0
LINE
  5
1347
330
36
100
AcDbEntity
  8
0
100
AcDbLine
 10
295.1492635324056
 20
-1181.632573331623
 30
0.0
 11
295.1065945324056
 21
-1181.579007331623
 31
0.0
  0
LINE
  5
1348
330
36
100
AcDbEntity
  8
0
100
AcDbLine
 10
295.1065945324056
 20
-1181.579007331623
 30
0.0
 11
295.0628545324057
 21
-1181.540434331623
 31
0.0
  0
LINE
  5
1349
330
36
100
AcDbEntity
  8
0
100
AcDbLine
 10
295.0628545324057
 20
-1181.540434331623
 30
0.0
 11
295.0183965324056
 21
-1181.517165331623
 31
0.0
  0
LINE
  5
134A
330
36
100
AcDbEntity
  8
0
100
AcDbLine
 10
295.0183965324056
 20
-1181.517165331623
 30
0.0
 11
294.9735765324056
 21
-1181.509388331623
 31
0.0
  0
LINE
  5
134B
330
36
100
AcDbEntity
  8
0
100
AcDbLine
 10
282.5765905324057
 20
-1164.964108331623
 30
0.0
 11
282.4373105324056
 21
-1164.785004331623
 31
0.0
  0
LINE
  5
134C
330
36
100
AcDbEntity
  8
0
100
AcDbLine
 10
282.4373105324056
 20
-1164.785004331623
 30
0.0
 11
282.2513805324056
 21
-1164.578605331623
 31
0.0
  0
LINE
  5
134D
330
36
100
AcDbEntity
  8
0
100
AcDbLine
 10
282.2513805324056
 20
-1164.578605331623
 30
0.0
 11
282.0202295324056
 21
-1164.346497331623
 31
0.0
  0
LINE
  5
134E
330
36
100
AcDbEntity
  8
0
100
AcDbLine
 10
282.0202295324056
 20
-1164.346497331623
 30
0.0
 11
281.7456345324056
 21
-1164.090465331623
 31
0.0
  0
LINE
  5
134F
330
36
100
AcDbEntity
  8
0
100
AcDbLine
 10
281.7456345324056
 20
-1164.090465331623
 30
0.0
 11
281.4297055324056
 21
-1163.812476331623
 31
0.0
  0
LINE
  5
1350
330
36
100
AcDbEntity
  8
0
100
AcDbLine
 10
281.4297055324056
 20
-1163.812476331623
 30
0.0
 11
281.0748695324056
 21
-1163.514666331623
 31
0.0
  0
LINE
  5
1351
330
36
100
AcDbEntity
  8
0
100
AcDbLine
 10
281.0748695324056
 20
-1163.514666331623
 30
0.0
 11
280.6838555324056
 21
-1163.199324331623
 31
0.0
  0
LINE
  5
1352
330
36
100
AcDbEntity
  8
0
100
AcDbLine
 10
280.6838555324056
 20
-1163.199324331623
 30
0.0
 11
280.2596665324056
 21
-1162.868875331623
 31
0.0
  0
LINE
  5
1353
330
36
100
AcDbEntity
  8
0
100
AcDbLine
 10
280.2596665324056
 20
-1162.868875331623
 30
0.0
 11
279.8055635324056
 21
-1162.525856331623
 31
0.0
  0
LINE
  5
1354
330
36
100
AcDbEntity
  8
0
100
AcDbLine
 10
279.8055635324056
 20
-1162.525856331623
 30
0.0
 11
279.3250375324055
 21
-1162.172905331622
 31
0.0
  0
LINE
  5
1355
330
36
100
AcDbEntity
  8
0
100
AcDbLine
 10
279.3250375324055
 20
-1162.172905331622
 30
0.0
 11
278.8217795324056
 21
-1161.812734331623
 31
0.0
  0
LINE
  5
1356
330
36
100
AcDbEntity
  8
0
100
AcDbLine
 10
278.8217795324056
 20
-1161.812734331623
 30
0.0
 11
278.2996585324056
 21
-1161.448112331623
 31
0.0
  0
LINE
  5
1357
330
36
100
AcDbEntity
  8
0
100
AcDbLine
 10
278.2996585324056
 20
-1161.448112331623
 30
0.0
 11
277.7626865324056
 21
-1161.081839331623
 31
0.0
  0
LINE
  5
1358
330
36
100
AcDbEntity
  8
0
100
AcDbLine
 10
277.7626865324056
 20
-1161.081839331623
 30
0.0
 11
277.2149905324056
 21
-1160.716732331623
 31
0.0
  0
LINE
  5
1359
330
36
100
AcDbEntity
  8
0
100
AcDbLine
 10
277.2149905324056
 20
-1160.716732331623
 30
0.0
 11
276.6607805324056
 21
-1160.355596331623
 31
0.0
  0
LINE
  5
135A
330
36
100
AcDbEntity
  8
0
100
AcDbLine
 10
276.6607805324056
 20
-1160.355596331623
 30
0.0
 11
276.1043145324056
 21
-1160.001207331623
 31
0.0
  0
LINE
  5
135B
330
36
100
AcDbEntity
  8
0
100
AcDbLine
 10
276.1043145324056
 20
-1160.001207331623
 30
0.0
 11
275.5498695324056
 21
-1159.656288331623
 31
0.0
  0
LINE
  5
135C
330
36
100
AcDbEntity
  8
0
100
AcDbLine
 10
275.5498695324056
 20
-1159.656288331623
 30
0.0
 11
275.0017075324056
 21
-1159.323490331623
 31
0.0
  0
LINE
  5
135D
330
36
100
AcDbEntity
  8
0
100
AcDbLine
 10
275.0017075324056
 20
-1159.323490331623
 30
0.0
 11
274.4640395324055
 21
-1159.005371331623
 31
0.0
  0
LINE
  5
135E
330
36
100
AcDbEntity
  8
0
100
AcDbLine
 10
274.4640395324055
 20
-1159.005371331623
 30
0.0
 11
273.9409995324056
 21
-1158.704375331623
 31
0.0
  0
LINE
  5
135F
330
36
100
AcDbEntity
  8
0
100
AcDbLine
 10
273.9409995324056
 20
-1158.704375331623
 30
0.0
 11
273.4366065324056
 21
-1158.422816331623
 31
0.0
  0
LINE
  5
1360
330
36
100
AcDbEntity
  8
0
100
AcDbLine
 10
273.4366065324056
 20
-1158.422816331623
 30
0.0
 11
272.9547375324055
 21
-1158.162858331623
 31
0.0
  0
LINE
  5
1361
330
36
100
AcDbEntity
  8
0
100
AcDbLine
 10
272.9547375324055
 20
-1158.162858331623
 30
0.0
 11
272.4990945324056
 21
-1157.926498331623
 31
0.0
  0
LINE
  5
1362
330
36
100
AcDbEntity
  8
0
100
AcDbLine
 10
272.4990945324056
 20
-1157.926498331623
 30
0.0
 11
272.0731795324056
 21
-1157.715554331623
 31
0.0
  0
LINE
  5
1363
330
36
100
AcDbEntity
  8
0
100
AcDbLine
 10
272.0731795324056
 20
-1157.715554331623
 30
0.0
 11
271.6802665324055
 21
-1157.531646331623
 31
0.0
  0
LINE
  5
1364
330
36
100
AcDbEntity
  8
0
100
AcDbLine
 10
271.6802665324055
 20
-1157.531646331623
 30
0.0
 11
271.3233755324056
 21
-1157.376187331623
 31
0.0
  0
LINE
  5
1365
330
36
100
AcDbEntity
  8
0
100
AcDbLine
 10
271.3233755324056
 20
-1157.376187331623
 30
0.0
 11
271.0052485324056
 21
-1157.250373331623
 31
0.0
  0
LINE
  5
1366
330
36
100
AcDbEntity
  8
0
100
AcDbLine
 10
271.0052485324056
 20
-1157.250373331623
 30
0.0
 11
270.7283305324056
 21
-1157.155170331623
 31
0.0
  0
LINE
  5
1367
330
36
100
AcDbEntity
  8
0
100
AcDbLine
 10
270.7283305324056
 20
-1157.155170331623
 30
0.0
 11
270.4947495324055
 21
-1157.091310331623
 31
0.0
  0
LINE
  5
1368
330
36
100
AcDbEntity
  8
0
100
AcDbLine
 10
270.4947495324055
 20
-1157.091310331623
 30
0.0
 11
270.3063015324056
 21
-1157.059284331623
 31
0.0
  0
LINE
  5
1369
330
36
100
AcDbEntity
  8
0
100
AcDbLine
 10
270.3063015324056
 20
-1157.059284331623
 30
0.0
 11
270.1644345324056
 21
-1157.059337331623
 31
0.0
  0
LINE
  5
136A
330
36
100
AcDbEntity
  8
0
100
AcDbLine
 10
270.1644345324056
 20
-1157.059337331623
 30
0.0
 11
270.0702385324056
 21
-1157.091471331623
 31
0.0
  0
LINE
  5
136B
330
36
100
AcDbEntity
  8
0
100
AcDbLine
 10
270.0702385324056
 20
-1157.091471331623
 30
0.0
 11
270.0244375324055
 21
-1157.155436331623
 31
0.0
  0
LINE
  5
136C
330
36
100
AcDbEntity
  8
0
100
AcDbLine
 10
270.0244375324055
 20
-1157.155436331623
 30
0.0
 11
270.0273825324056
 21
-1157.250743331623
 31
0.0
  0
LINE
  5
136D
330
36
100
AcDbEntity
  8
0
100
AcDbLine
 10
270.0273825324056
 20
-1157.250743331623
 30
0.0
 11
270.0790535324056
 21
-1157.376658331623
 31
0.0
  0
LINE
  5
136E
330
36
100
AcDbEntity
  8
0
100
AcDbLine
 10
270.0790535324056
 20
-1157.376658331623
 30
0.0
 11
270.1790505324056
 21
-1157.532213331623
 31
0.0
  0
LINE
  5
136F
330
36
100
AcDbEntity
  8
0
100
AcDbLine
 10
270.1790505324056
 20
-1157.532213331623
 30
0.0
 11
270.3266065324056
 21
-1157.716214331623
 31
0.0
  0
LINE
  5
1370
330
36
100
AcDbEntity
  8
0
100
AcDbLine
 10
270.3266065324056
 20
-1157.716214331623
 30
0.0
 11
270.5205875324056
 21
-1157.927247331623
 31
0.0
  0
LINE
  5
1371
330
36
100
AcDbEntity
  8
0
100
AcDbLine
 10
270.5205875324056
 20
-1157.927247331623
 30
0.0
 11
270.7595025324056
 21
-1158.163688331623
 31
0.0
  0
LINE
  5
1372
330
36
100
AcDbEntity
  8
0
100
AcDbLine
 10
270.7595025324056
 20
-1158.163688331623
 30
0.0
 11
271.0415145324056
 21
-1158.423722331623
 31
0.0
  0
LINE
  5
1373
330
36
100
AcDbEntity
  8
0
100
AcDbLine
 10
271.0415145324056
 20
-1158.423722331623
 30
0.0
 11
271.3644575324056
 21
-1158.705349331623
 31
0.0
  0
LINE
  5
1374
330
36
100
AcDbEntity
  8
0
100
AcDbLine
 10
271.3644575324056
 20
-1158.705349331623
 30
0.0
 11
271.7258495324056
 21
-1159.006406331623
 31
0.0
  0
LINE
  5
1375
330
36
100
AcDbEntity
  8
0
100
AcDbLine
 10
271.7258495324056
 20
-1159.006406331623
 30
0.0
 11
272.1229125324056
 21
-1159.324578331623
 31
0.0
  0
LINE
  5
1376
330
36
100
AcDbEntity
  8
0
100
AcDbLine
 10
272.1229125324056
 20
-1159.324578331623
 30
0.0
 11
272.5525945324056
 21
-1159.657421331622
 31
0.0
  0
LINE
  5
1377
330
36
100
AcDbEntity
  8
0
100
AcDbLine
 10
272.5525945324056
 20
-1159.657421331622
 30
0.0
 11
273.0115935324055
 21
-1160.002376331623
 31
0.0
  0
LINE
  5
1378
330
36
100
AcDbEntity
  8
0
100
AcDbLine
 10
273.0115935324055
 20
-1160.002376331623
 30
0.0
 11
273.4963835324056
 21
-1160.356793331623
 31
0.0
  0
LINE
  5
1379
330
36
100
AcDbEntity
  8
0
100
AcDbLine
 10
273.4963835324056
 20
-1160.356793331623
 30
0.0
 11
274.0032365324056
 21
-1160.717947331623
 31
0.0
  0
LINE
  5
137A
330
36
100
AcDbEntity
  8
0
100
AcDbLine
 10
274.0032365324056
 20
-1160.717947331623
 30
0.0
 11
274.5282585324055
 21
-1161.083062331623
 31
0.0
  0
LINE
  5
137B
330
36
100
AcDbEntity
  8
0
100
AcDbLine
 10
274.5282585324055
 20
-1161.083062331623
 30
0.0
 11
275.0674135324056
 21
-1161.449334331623
 31
0.0
  0
LINE
  5
137C
330
36
100
AcDbEntity
  8
0
100
AcDbLine
 10
275.0674135324056
 20
-1161.449334331623
 30
0.0
 11
275.6165595324056
 21
-1161.813946331623
 31
0.0
  0
LINE
  5
137D
330
36
100
AcDbEntity
  8
0
100
AcDbLine
 10
275.6165595324056
 20
-1161.813946331623
 30
0.0
 11
276.1714745324056
 21
-1162.174098331623
 31
0.0
  0
LINE
  5
137E
330
36
100
AcDbEntity
  8
0
100
AcDbLine
 10
276.1714745324056
 20
-1162.174098331623
 30
0.0
 11
276.7278955324055
 21
-1162.527020331623
 31
0.0
  0
LINE
  5
137F
330
36
100
AcDbEntity
  8
0
100
AcDbLine
 10
276.7278955324055
 20
-1162.527020331623
 30
0.0
 11
277.2815445324056
 21
-1162.870001331623
 31
0.0
  0
LINE
  5
1380
330
36
100
AcDbEntity
  8
0
100
AcDbLine
 10
277.2815445324056
 20
-1162.870001331623
 30
0.0
 11
277.8281675324056
 21
-1163.200404331623
 31
0.0
  0
LINE
  5
1381
330
36
100
AcDbEntity
  8
0
100
AcDbLine
 10
277.8281675324056
 20
-1163.200404331623
 30
0.0
 11
278.3635635324056
 21
-1163.515691331623
 31
0.0
  0
LINE
  5
1382
330
36
100
AcDbEntity
  8
0
100
AcDbLine
 10
278.3635635324056
 20
-1163.515691331623
 30
0.0
 11
278.8836185324055
 21
-1163.813439331623
 31
0.0
  0
LINE
  5
1383
330
36
100
AcDbEntity
  8
0
100
AcDbLine
 10
278.8836185324055
 20
-1163.813439331623
 30
0.0
 11
279.3843335324055
 21
-1164.091358331623
 31
0.0
  0
LINE
  5
1384
330
36
100
AcDbEntity
  8
0
100
AcDbLine
 10
279.3843335324055
 20
-1164.091358331623
 30
0.0
 11
279.8618625324055
 21
-1164.347313331623
 31
0.0
  0
LINE
  5
1385
330
36
100
AcDbEntity
  8
0
100
AcDbLine
 10
279.8618625324055
 20
-1164.347313331623
 30
0.0
 11
280.3125345324056
 21
-1164.579338331623
 31
0.0
  0
LINE
  5
1386
330
36
100
AcDbEntity
  8
0
100
AcDbLine
 10
280.3125345324056
 20
-1164.579338331623
 30
0.0
 11
280.7328855324056
 21
-1164.785648331623
 31
0.0
  0
LINE
  5
1387
330
36
100
AcDbEntity
  8
0
100
AcDbLine
 10
280.7328855324056
 20
-1164.785648331623
 30
0.0
 11
281.1196865324056
 21
-1164.964659331623
 31
0.0
  0
LINE
  5
1388
330
36
100
AcDbEntity
  8
0
100
AcDbLine
 10
281.1196865324056
 20
-1164.964659331623
 30
0.0
 11
281.4699645324056
 21
-1165.114994331623
 31
0.0
  0
LINE
  5
1389
330
36
100
AcDbEntity
  8
0
100
AcDbLine
 10
281.4699645324056
 20
-1165.114994331623
 30
0.0
 11
281.7810255324056
 21
-1165.235499331623
 31
0.0
  0
LINE
  5
138A
330
36
100
AcDbEntity
  8
0
100
AcDbLine
 10
281.7810255324056
 20
-1165.235499331623
 30
0.0
 11
282.0504815324056
 21
-1165.325246331623
 31
0.0
  0
LINE
  5
138B
330
36
100
AcDbEntity
  8
0
100
AcDbLine
 10
282.0504815324056
 20
-1165.325246331623
 30
0.0
 11
282.2762605324056
 21
-1165.383547331622
 31
0.0
  0
LINE
  5
138C
330
36
100
AcDbEntity
  8
0
100
AcDbLine
 10
282.2762605324056
 20
-1165.383547331622
 30
0.0
 11
282.4566265324056
 21
-1165.409953331623
 31
0.0
  0
LINE
  5
138D
330
36
100
AcDbEntity
  8
0
100
AcDbLine
 10
282.4566265324056
 20
-1165.409953331623
 30
0.0
 11
282.5901945324056
 21
-1165.404261331623
 31
0.0
  0
LINE
  5
138E
330
36
100
AcDbEntity
  8
0
100
AcDbLine
 10
282.5901945324056
 20
-1165.404261331623
 30
0.0
 11
282.6759385324056
 21
-1165.366516331623
 31
0.0
  0
LINE
  5
138F
330
36
100
AcDbEntity
  8
0
100
AcDbLine
 10
282.7925015324057
 20
-1164.574860331623
 30
0.0
 11
282.5499785324057
 21
-1164.281135331623
 31
0.0
  0
LINE
  5
1390
330
36
100
AcDbEntity
  8
0
100
AcDbLine
 10
282.5499785324057
 20
-1164.281135331623
 30
0.0
 11
282.2591175324056
 21
-1163.963582331623
 31
0.0
  0
LINE
  5
1391
330
36
100
AcDbEntity
  8
0
100
AcDbLine
 10
282.2591175324056
 20
-1163.963582331623
 30
0.0
 11
281.9221925324056
 21
-1163.624685331623
 31
0.0
  0
LINE
  5
1392
330
36
100
AcDbEntity
  8
0
100
AcDbLine
 10
281.9221925324056
 20
-1163.624685331623
 30
0.0
 11
281.5418375324055
 21
-1163.267091331623
 31
0.0
  0
LINE
  5
1393
330
36
100
AcDbEntity
  8
0
100
AcDbLine
 10
281.5418375324055
 20
-1163.267091331623
 30
0.0
 11
281.1210255324056
 21
-1162.893598331623
 31
0.0
  0
LINE
  5
1394
330
36
100
AcDbEntity
  8
0
100
AcDbLine
 10
281.1210255324056
 20
-1162.893598331623
 30
0.0
 11
280.6630475324056
 21
-1162.507126331623
 31
0.0
  0
LINE
  5
1395
330
36
100
AcDbEntity
  8
0
100
AcDbLine
 10
280.6630475324056
 20
-1162.507126331623
 30
0.0
 11
280.1714845324056
 21
-1162.110696331623
 31
0.0
  0
LINE
  5
1396
330
36
100
AcDbEntity
  8
0
100
AcDbLine
 10
280.1714845324056
 20
-1162.110696331623
 30
0.0
 11
279.6501785324056
 21
-1161.707407331623
 31
0.0
  0
LINE
  5
1397
330
36
100
AcDbEntity
  8
0
100
AcDbLine
 10
279.6501785324056
 20
-1161.707407331623
 30
0.0
 11
279.1032055324056
 21
-1161.300412331623
 31
0.0
  0
LINE
  5
1398
330
36
100
AcDbEntity
  8
0
100
AcDbLine
 10
279.1032055324056
 20
-1161.300412331623
 30
0.0
 11
278.5348425324056
 21
-1160.892895331623
 31
0.0
  0
LINE
  5
1399
330
36
100
AcDbEntity
  8
0
100
AcDbLine
 10
278.5348425324056
 20
-1160.892895331623
 30
0.0
 11
277.9495335324055
 21
-1160.488039331623
 31
0.0
  0
LINE
  5
139A
330
36
100
AcDbEntity
  8
0
100
AcDbLine
 10
277.9495335324055
 20
-1160.488039331623
 30
0.0
 11
277.3518535324056
 21
-1160.089012331622
 31
0.0
  0
LINE
  5
139B
330
36
100
AcDbEntity
  8
0
100
AcDbLine
 10
277.3518535324056
 20
-1160.089012331622
 30
0.0
 11
276.7464765324056
 21
-1159.698933331623
 31
0.0
  0
LINE
  5
139C
330
36
100
AcDbEntity
  8
0
100
AcDbLine
 10
276.7464765324056
 20
-1159.698933331623
 30
0.0
 11
276.1381345324056
 21
-1159.320851331623
 31
0.0
  0
LINE
  5
139D
330
36
100
AcDbEntity
  8
0
100
AcDbLine
 10
276.1381345324056
 20
-1159.320851331623
 30
0.0
 11
275.5315855324055
 21
-1158.957722331623
 31
0.0
  0
LINE
  5
139E
330
36
100
AcDbEntity
  8
0
100
AcDbLine
 10
275.5315855324055
 20
-1158.957722331623
 30
0.0
 11
274.9315695324055
 21
-1158.612386331623
 31
0.0
  0
LINE
  5
139F
330
36
100
AcDbEntity
  8
0
100
AcDbLine
 10
274.9315695324055
 20
-1158.612386331623
 30
0.0
 11
274.3427785324055
 21
-1158.287543331623
 31
0.0
  0
LINE
  5
13A0
330
36
100
AcDbEntity
  8
0
100
AcDbLine
 10
274.3427785324055
 20
-1158.287543331623
 30
0.0
 11
273.7698165324056
 21
-1157.985731331623
 31
0.0
  0
LINE
  5
13A1
330
36
100
AcDbEntity
  8
0
100
AcDbLine
 10
273.7698165324056
 20
-1157.985731331623
 30
0.0
 11
273.2171625324056
 21
-1157.709312331623
 31
0.0
  0
LINE
  5
13A2
330
36
100
AcDbEntity
  8
0
100
AcDbLine
 10
273.2171625324056
 20
-1157.709312331623
 30
0.0
 11
272.6891365324056
 21
-1157.460446331623
 31
0.0
  0
LINE
  5
13A3
330
36
100
AcDbEntity
  8
0
100
AcDbLine
 10
272.6891365324056
 20
-1157.460446331623
 30
0.0
 11
272.1898695324056
 21
-1157.241078331623
 31
0.0
  0
LINE
  5
13A4
330
36
100
AcDbEntity
  8
0
100
AcDbLine
 10
272.1898695324056
 20
-1157.241078331623
 30
0.0
 11
271.7232615324056
 21
-1157.052925331623
 31
0.0
  0
LINE
  5
13A5
330
36
100
AcDbEntity
  8
0
100
AcDbLine
 10
271.7232615324056
 20
-1157.052925331623
 30
0.0
 11
271.2929635324055
 21
-1156.897456331622
 31
0.0
  0
LINE
  5
13A6
330
36
100
AcDbEntity
  8
0
100
AcDbLine
 10
271.2929635324055
 20
-1156.897456331622
 30
0.0
 11
270.9023385324055
 21
-1156.775888331623
 31
0.0
  0
LINE
  5
13A7
330
36
100
AcDbEntity
  8
0
100
AcDbLine
 10
270.9023385324055
 20
-1156.775888331623
 30
0.0
 11
270.5544405324056
 21
-1156.689170331623
 31
0.0
  0
LINE
  5
13A8
330
36
100
AcDbEntity
  8
0
100
AcDbLine
 10
270.5544405324056
 20
-1156.689170331623
 30
0.0
 11
270.2519895324055
 21
-1156.637982331623
 31
0.0
  0
LINE
  5
13A9
330
36
100
AcDbEntity
  8
0
100
AcDbLine
 10
270.2519895324055
 20
-1156.637982331623
 30
0.0
 11
269.9973505324056
 21
-1156.622723331623
 31
0.0
  0
LINE
  5
13AA
330
36
100
AcDbEntity
  8
0
100
AcDbLine
 10
269.9973505324056
 20
-1156.622723331623
 30
0.0
 11
269.7925135324056
 21
-1156.643512331623
 31
0.0
  0
LINE
  5
13AB
330
36
100
AcDbEntity
  8
0
100
AcDbLine
 10
269.7925135324056
 20
-1156.643512331623
 30
0.0
 11
269.6390805324056
 21
-1156.700187331622
 31
0.0
  0
LINE
  5
13AC
330
36
100
AcDbEntity
  8
0
100
AcDbLine
 10
269.6390805324056
 20
-1156.700187331622
 30
0.0
 11
269.5382525324056
 21
-1156.792304331623
 31
0.0
  0
LINE
  5
13AD
330
36
100
AcDbEntity
  8
0
100
AcDbLine
 10
269.5382525324056
 20
-1156.792304331623
 30
0.0
 11
269.4908155324056
 21
-1156.919144331623
 31
0.0
  0
LINE
  5
13AE
330
36
100
AcDbEntity
  8
0
100
AcDbLine
 10
269.4908155324056
 20
-1156.919144331623
 30
0.0
 11
269.4971415324055
 21
-1157.079716331623
 31
0.0
  0
LINE
  5
13AF
330
36
100
AcDbEntity
  8
0
100
AcDbLine
 10
269.4971415324055
 20
-1157.079716331623
 30
0.0
 11
269.5571815324056
 21
-1157.272762331623
 31
0.0
  0
LINE
  5
13B0
330
36
100
AcDbEntity
  8
0
100
AcDbLine
 10
269.5571815324056
 20
-1157.272762331623
 30
0.0
 11
269.6704645324055
 21
-1157.496775331623
 31
0.0
  0
LINE
  5
13B1
330
36
100
AcDbEntity
  8
0
100
AcDbLine
 10
269.6704645324055
 20
-1157.496775331623
 30
0.0
 11
269.8361065324057
 21
-1157.750002331623
 31
0.0
  0
LINE
  5
13B2
330
36
100
AcDbEntity
  8
0
100
AcDbLine
 10
269.8361065324057
 20
-1157.750002331623
 30
0.0
 11
270.0528115324056
 21
-1158.030465331623
 31
0.0
  0
LINE
  5
13B3
330
36
100
AcDbEntity
  8
0
100
AcDbLine
 10
270.0528115324056
 20
-1158.030465331623
 30
0.0
 11
270.3188865324056
 21
-1158.335969331623
 31
0.0
  0
LINE
  5
13B4
330
36
100
AcDbEntity
  8
0
100
AcDbLine
 10
270.3188865324056
 20
-1158.335969331623
 30
0.0
 11
270.6322495324056
 21
-1158.664127331623
 31
0.0
  0
LINE
  5
13B5
330
36
100
AcDbEntity
  8
0
100
AcDbLine
 10
270.6322495324056
 20
-1158.664127331623
 30
0.0
 11
270.9904505324056
 21
-1159.012374331623
 31
0.0
  0
LINE
  5
13B6
330
36
100
AcDbEntity
  8
0
100
AcDbLine
 10
270.9904505324056
 20
-1159.012374331623
 30
0.0
 11
271.3906905324056
 21
-1159.377985331623
 31
0.0
  0
LINE
  5
13B7
330
36
100
AcDbEntity
  8
0
100
AcDbLine
 10
271.3906905324056
 20
-1159.377985331623
 30
0.0
 11
271.8298395324056
 21
-1159.758103331623
 31
0.0
  0
LINE
  5
13B8
330
36
100
AcDbEntity
  8
0
100
AcDbLine
 10
271.8298395324056
 20
-1159.758103331623
 30
0.0
 11
272.3044645324055
 21
-1160.149756331623
 31
0.0
  0
LINE
  5
13B9
330
36
100
AcDbEntity
  8
0
100
AcDbLine
 10
272.3044645324055
 20
-1160.149756331623
 30
0.0
 11
272.8108535324055
 21
-1160.549882331623
 31
0.0
  0
LINE
  5
13BA
330
36
100
AcDbEntity
  8
0
100
AcDbLine
 10
272.8108535324055
 20
-1160.549882331623
 30
0.0
 11
273.3450485324056
 21
-1160.955353331623
 31
0.0
  0
LINE
  5
13BB
330
36
100
AcDbEntity
  8
0
100
AcDbLine
 10
273.3450485324056
 20
-1160.955353331623
 30
0.0
 11
273.9028725324056
 21
-1161.362997331623
 31
0.0
  0
LINE
  5
13BC
330
36
100
AcDbEntity
  8
0
100
AcDbLine
 10
273.9028725324056
 20
-1161.362997331623
 30
0.0
 11
274.4799645324056
 21
-1161.769629331623
 31
0.0
  0
LINE
  5
13BD
330
36
100
AcDbEntity
  8
0
100
AcDbLine
 10
274.4799645324056
 20
-1161.769629331623
 30
0.0
 11
275.0718125324055
 21
-1162.172069331623
 31
0.0
  0
LINE
  5
13BE
330
36
100
AcDbEntity
  8
0
100
AcDbLine
 10
275.0718125324055
 20
-1162.172069331623
 30
0.0
 11
275.6737885324056
 21
-1162.567171331623
 31
0.0
  0
LINE
  5
13BF
330
36
100
AcDbEntity
  8
0
100
AcDbLine
 10
275.6737885324056
 20
-1162.567171331623
 30
0.0
 11
276.2811875324056
 21
-1162.951845331623
 31
0.0
  0
LINE
  5
13C0
330
36
100
AcDbEntity
  8
0
100
AcDbLine
 10
276.2811875324056
 20
-1162.951845331623
 30
0.0
 11
276.8892595324055
 21
-1163.323084331623
 31
0.0
  0
LINE
  5
13C1
330
36
100
AcDbEntity
  8
0
100
AcDbLine
 10
276.8892595324055
 20
-1163.323084331623
 30
0.0
 11
277.4932515324056
 21
-1163.677986331623
 31
0.0
  0
LINE
  5
13C2
330
36
100
AcDbEntity
  8
0
100
AcDbLine
 10
277.4932515324056
 20
-1163.677986331623
 30
0.0
 11
278.0884395324056
 21
-1164.013775331623
 31
0.0
  0
LINE
  5
13C3
330
36
100
AcDbEntity
  8
0
100
AcDbLine
 10
278.0884395324056
 20
-1164.013775331623
 30
0.0
 11
278.6701715324056
 21
-1164.327828331623
 31
0.0
  0
LINE
  5
13C4
330
36
100
AcDbEntity
  8
0
100
AcDbLine
 10
278.6701715324056
 20
-1164.327828331623
 30
0.0
 11
279.2338985324056
 21
-1164.617687331623
 31
0.0
  0
LINE
  5
13C5
330
36
100
AcDbEntity
  8
0
100
AcDbLine
 10
279.2338985324056
 20
-1164.617687331623
 30
0.0
 11
279.7752135324056
 21
-1164.881087331623
 31
0.0
  0
LINE
  5
13C6
330
36
100
AcDbEntity
  8
0
100
AcDbLine
 10
279.7752135324056
 20
-1164.881087331623
 30
0.0
 11
280.2898845324056
 21
-1165.115969331623
 31
0.0
  0
LINE
  5
13C7
330
36
100
AcDbEntity
  8
0
100
AcDbLine
 10
280.2898845324056
 20
-1165.115969331623
 30
0.0
 11
280.7738875324055
 21
-1165.320496331623
 31
0.0
  0
LINE
  5
13C8
330
36
100
AcDbEntity
  8
0
100
AcDbLine
 10
280.7738875324055
 20
-1165.320496331623
 30
0.0
 11
281.2234385324056
 21
-1165.493069331623
 31
0.0
  0
LINE
  5
13C9
330
36
100
AcDbEntity
  8
0
100
AcDbLine
 10
281.2234385324056
 20
-1165.493069331623
 30
0.0
 11
281.6350225324056
 21
-1165.632338331623
 31
0.0
  0
LINE
  5
13CA
330
36
100
AcDbEntity
  8
0
100
AcDbLine
 10
281.6350225324056
 20
-1165.632338331623
 30
0.0
 11
282.0054215324057
 21
-1165.737216331623
 31
0.0
  0
LINE
  5
13CB
330
36
100
AcDbEntity
  8
0
100
AcDbLine
 10
282.0054215324057
 20
-1165.737216331623
 30
0.0
 11
282.3317395324055
 21
-1165.806882331623
 31
0.0
  0
LINE
  5
13CC
330
36
100
AcDbEntity
  8
0
100
AcDbLine
 10
282.3317395324055
 20
-1165.806882331623
 30
0.0
 11
282.6114255324057
 21
-1165.840791331623
 31
0.0
  0
LINE
  5
13CD
330
36
100
AcDbEntity
  8
0
100
AcDbLine
 10
282.6114255324057
 20
-1165.840791331623
 30
0.0
 11
282.8422935324056
 21
-1165.838679331623
 31
0.0
  0
LINE
  5
13CE
330
36
100
AcDbEntity
  8
0
100
AcDbLine
 10
282.8422935324056
 20
-1165.838679331623
 30
0.0
 11
283.0225365324056
 21
-1165.800561331623
 31
0.0
  0
LINE
  5
13CF
330
36
100
AcDbEntity
  8
0
100
AcDbLine
 10
283.0225365324056
 20
-1165.800561331623
 30
0.0
 11
283.1507475324056
 21
-1165.726736331623
 31
0.0
  0
LINE
  5
13D0
330
36
100
AcDbEntity
  8
0
100
AcDbLine
 10
283.1507475324056
 20
-1165.726736331623
 30
0.0
 11
283.2259225324055
 21
-1165.617781331623
 31
0.0
  0
LINE
  5
13D1
330
36
100
AcDbEntity
  8
0
100
AcDbLine
 10
283.2259225324055
 20
-1165.617781331623
 30
0.0
 11
283.2474755324057
 21
-1165.474548331623
 31
0.0
  0
LINE
  5
13D2
330
36
100
AcDbEntity
  8
0
100
AcDbLine
 10
283.2474755324057
 20
-1165.474548331623
 30
0.0
 11
283.2152355324057
 21
-1165.298156331623
 31
0.0
  0
LINE
  5
13D3
330
36
100
AcDbEntity
  8
0
100
AcDbLine
 10
283.2152355324057
 20
-1165.298156331623
 30
0.0
 11
283.1294565324057
 21
-1165.089985331623
 31
0.0
  0
LINE
  5
13D4
330
36
100
AcDbEntity
  8
0
 62
     3
100
AcDbLine
 10
292.9728625324056
 20
-1185.373092331623
 30
0.0
 11
293.0886745324055
 21
-1185.665286331623
 31
0.0
  0
LINE
  5
13D5
330
36
100
AcDbEntity
  8
0
 62
     3
100
AcDbLine
 10
293.0886745324055
 20
-1185.665286331623
 30
0.0
 11
293.2202975324056
 21
-1185.940426331623
 31
0.0
  0
LINE
  5
13D6
330
36
100
AcDbEntity
  8
0
 62
     3
100
AcDbLine
 10
293.2202975324056
 20
-1185.940426331623
 30
0.0
 11
293.3667195324056
 21
-1186.196399331623
 31
0.0
  0
LINE
  5
13D7
330
36
100
AcDbEntity
  8
0
 62
     3
100
AcDbLine
 10
293.3667195324056
 20
-1186.196399331623
 30
0.0
 11
293.5268205324056
 21
-1186.431245331623
 31
0.0
  0
LINE
  5
13D8
330
36
100
AcDbEntity
  8
0
 62
     3
100
AcDbLine
 10
293.5268205324056
 20
-1186.431245331623
 30
0.0
 11
293.6993705324056
 21
-1186.643160331623
 31
0.0
  0
LINE
  5
13D9
330
36
100
AcDbEntity
  8
0
 62
     3
100
AcDbLine
 10
293.6993705324056
 20
-1186.643160331623
 30
0.0
 11
293.8830475324055
 21
-1186.830522331623
 31
0.0
  0
LINE
  5
13DA
330
36
100
AcDbEntity
  8
0
 62
     3
100
AcDbLine
 10
293.8830475324055
 20
-1186.830522331623
 30
0.0
 11
294.0764425324056
 21
-1186.991892331623
 31
0.0
  0
LINE
  5
13DB
330
36
100
AcDbEntity
  8
0
 62
     3
100
AcDbLine
 10
294.0764425324056
 20
-1186.991892331623
 30
0.0
 11
294.2780735324056
 21
-1187.126033331623
 31
0.0
  0
LINE
  5
13DC
330
36
100
AcDbEntity
  8
0
 62
     3
100
AcDbLine
 10
294.2780735324056
 20
-1187.126033331623
 30
0.0
 11
294.4863925324056
 21
-1187.231916331623
 31
0.0
  0
LINE
  5
13DD
330
36
100
AcDbEntity
  8
0
 62
     3
100
AcDbLine
 10
294.4863925324056
 20
-1187.231916331623
 30
0.0
 11
294.6998025324056
 21
-1187.308730331623
 31
0.0
  0
LINE
  5
13DE
330
36
100
AcDbEntity
  8
0
 62
     3
100
AcDbLine
 10
294.6998025324056
 20
-1187.308730331623
 30
0.0
 11
294.9166665324055
 21
-1187.355886331623
 31
0.0
  0
LINE
  5
13DF
330
36
100
AcDbEntity
  8
0
 62
     3
100
AcDbLine
 10
294.9166665324055
 20
-1187.355886331623
 30
0.0
 11
295.1353235324056
 21
-1187.373021331623
 31
0.0
  0
LINE
  5
13E0
330
36
100
AcDbEntity
  8
0
 62
     3
100
AcDbLine
 10
295.1353235324056
 20
-1187.373021331623
 30
0.0
 11
295.3540945324056
 21
-1187.360005331623
 31
0.0
  0
LINE
  5
13E1
330
36
100
AcDbEntity
  8
0
 62
     3
100
AcDbLine
 10
295.3540945324056
 20
-1187.360005331623
 30
0.0
 11
295.5713025324056
 21
-1187.316937331623
 31
0.0
  0
LINE
  5
13E2
330
36
100
AcDbEntity
  8
0
 62
     3
100
AcDbLine
 10
295.5713025324056
 20
-1187.316937331623
 30
0.0
 11
295.7852825324057
 21
-1187.244147331623
 31
0.0
  0
LINE
  5
13E3
330
36
100
AcDbEntity
  8
0
 62
     3
100
AcDbLine
 10
295.7852825324057
 20
-1187.244147331623
 30
0.0
 11
295.9943925324056
 21
-1187.142194331623
 31
0.0
  0
LINE
  5
13E4
330
36
100
AcDbEntity
  8
0
 62
     3
100
AcDbLine
 10
295.9943925324056
 20
-1187.142194331623
 30
0.0
 11
296.1970295324056
 21
-1187.011859331623
 31
0.0
  0
LINE
  5
13E5
330
36
100
AcDbEntity
  8
0
 62
     3
100
AcDbLine
 10
296.1970295324056
 20
-1187.011859331623
 30
0.0
 11
296.3916395324055
 21
-1186.854143331623
 31
0.0
  0
LINE
  5
13E6
330
36
100
AcDbEntity
  8
0
 62
     3
100
AcDbLine
 10
296.3916395324055
 20
-1186.854143331623
 30
0.0
 11
296.5767295324056
 21
-1186.670254331623
 31
0.0
  0
LINE
  5
13E7
330
36
100
AcDbEntity
  8
0
 62
     3
100
AcDbLine
 10
296.5767295324056
 20
-1186.670254331623
 30
0.0
 11
296.7508815324056
 21
-1186.461603331623
 31
0.0
  0
LINE
  5
13E8
330
36
100
AcDbEntity
  8
0
 62
     3
100
AcDbLine
 10
296.7508815324056
 20
-1186.461603331623
 30
0.0
 11
296.9127575324056
 21
-1186.229789331623
 31
0.0
  0
LINE
  5
13E9
330
36
100
AcDbEntity
  8
0
 62
     3
100
AcDbLine
 10
296.9127575324056
 20
-1186.229789331623
 30
0.0
 11
297.0611195324056
 21
-1185.976591331623
 31
0.0
  0
LINE
  5
13EA
330
36
100
AcDbEntity
  8
0
 62
     3
100
AcDbLine
 10
297.0611195324056
 20
-1185.976591331623
 30
0.0
 11
297.1948265324055
 21
-1185.703950331623
 31
0.0
  0
LINE
  5
13EB
330
36
100
AcDbEntity
  8
0
 62
     3
100
AcDbLine
 10
297.1948265324055
 20
-1185.703950331623
 30
0.0
 11
297.3128555324056
 21
-1185.413957331623
 31
0.0
  0
LINE
  5
13EC
330
36
100
AcDbEntity
  8
0
 62
     3
100
AcDbLine
 10
297.3128555324056
 20
-1185.413957331623
 30
0.0
 11
297.4142995324056
 21
-1185.108836331623
 31
0.0
  0
LINE
  5
13ED
330
36
100
AcDbEntity
  8
0
 62
     3
100
AcDbLine
 10
297.4142995324056
 20
-1185.108836331623
 30
0.0
 11
297.4983825324056
 21
-1184.790927331623
 31
0.0
  0
LINE
  5
13EE
330
36
100
AcDbEntity
  8
0
 62
     3
100
AcDbLine
 10
297.4983825324056
 20
-1184.790927331623
 30
0.0
 11
297.5644585324055
 21
-1184.462667331623
 31
0.0
  0
LINE
  5
13EF
330
36
100
AcDbEntity
  8
0
 62
     3
100
AcDbLine
 10
297.5644585324055
 20
-1184.462667331623
 30
0.0
 11
297.6120205324055
 21
-1184.126574331623
 31
0.0
  0
LINE
  5
13F0
330
36
100
AcDbEntity
  8
0
 62
     3
100
AcDbLine
 10
297.6120205324055
 20
-1184.126574331623
 30
0.0
 11
297.6407045324056
 21
-1183.785226331623
 31
0.0
  0
LINE
  5
13F1
330
36
100
AcDbEntity
  8
0
 62
     3
100
AcDbLine
 10
297.6407045324056
 20
-1183.785226331623
 30
0.0
 11
297.6502905324056
 21
-1183.441240331623
 31
0.0
  0
LINE
  5
13F2
330
36
100
AcDbEntity
  8
0
 62
     3
100
AcDbLine
 10
297.6502905324056
 20
-1183.441240331623
 30
0.0
 11
297.6407045324056
 21
-1183.097254331623
 31
0.0
  0
LINE
  5
13F3
330
36
100
AcDbEntity
  8
0
 62
     3
100
AcDbLine
 10
297.6407045324056
 20
-1183.097254331623
 30
0.0
 11
297.6120205324055
 21
-1182.755905331623
 31
0.0
  0
LINE
  5
13F4
330
36
100
AcDbEntity
  8
0
 62
     3
100
AcDbLine
 10
297.6120205324055
 20
-1182.755905331623
 30
0.0
 11
297.5644585324055
 21
-1182.419813331623
 31
0.0
  0
LINE
  5
13F5
330
36
100
AcDbEntity
  8
0
 62
     3
100
AcDbLine
 10
297.5644585324055
 20
-1182.419813331623
 30
0.0
 11
297.4983825324056
 21
-1182.091553331623
 31
0.0
  0
LINE
  5
13F6
330
36
100
AcDbEntity
  8
0
 62
     3
100
AcDbLine
 10
297.4983825324056
 20
-1182.091553331623
 30
0.0
 11
297.4142995324056
 21
-1181.773644331623
 31
0.0
  0
LINE
  5
13F7
330
36
100
AcDbEntity
  8
0
 62
     3
100
AcDbLine
 10
297.4142995324056
 20
-1181.773644331623
 30
0.0
 11
297.3128555324056
 21
-1181.468523331623
 31
0.0
  0
LINE
  5
13F8
330
36
100
AcDbEntity
  8
0
 62
     3
100
AcDbLine
 10
297.3128555324056
 20
-1181.468523331623
 30
0.0
 11
297.1948265324055
 21
-1181.178530331623
 31
0.0
  0
LINE
  5
13F9
330
36
100
AcDbEntity
  8
0
 62
     3
100
AcDbLine
 10
297.1948265324055
 20
-1181.178530331623
 30
0.0
 11
297.0611195324056
 21
-1180.905889331623
 31
0.0
  0
LINE
  5
13FA
330
36
100
AcDbEntity
  8
0
 62
     3
100
AcDbLine
 10
297.0611195324056
 20
-1180.905889331623
 30
0.0
 11
296.9127575324056
 21
-1180.652691331623
 31
0.0
  0
LINE
  5
13FB
330
36
100
AcDbEntity
  8
0
 62
     3
100
AcDbLine
 10
296.9127575324056
 20
-1180.652691331623
 30
0.0
 11
296.7508815324056
 21
-1180.420877331623
 31
0.0
  0
LINE
  5
13FC
330
36
100
AcDbEntity
  8
0
 62
     3
100
AcDbLine
 10
296.7508815324056
 20
-1180.420877331623
 30
0.0
 11
296.5767295324056
 21
-1180.212226331623
 31
0.0
  0
LINE
  5
13FD
330
36
100
AcDbEntity
  8
0
 62
     3
100
AcDbLine
 10
296.5767295324056
 20
-1180.212226331623
 30
0.0
 11
296.3916395324055
 21
-1180.028337331623
 31
0.0
  0
LINE
  5
13FE
330
36
100
AcDbEntity
  8
0
 62
     3
100
AcDbLine
 10
296.3916395324055
 20
-1180.028337331623
 30
0.0
 11
296.1970295324056
 21
-1179.870621331623
 31
0.0
  0
LINE
  5
13FF
330
36
100
AcDbEntity
  8
0
 62
     3
100
AcDbLine
 10
296.1970295324056
 20
-1179.870621331623
 30
0.0
 11
295.9943925324056
 21
-1179.740286331623
 31
0.0
  0
LINE
  5
1400
330
36
100
AcDbEntity
  8
0
 62
     3
100
AcDbLine
 10
295.9943925324056
 20
-1179.740286331623
 30
0.0
 11
295.7852825324057
 21
-1179.638333331623
 31
0.0
  0
LINE
  5
1401
330
36
100
AcDbEntity
  8
0
 62
     3
100
AcDbLine
 10
295.7852825324057
 20
-1179.638333331623
 30
0.0
 11
295.5713025324056
 21
-1179.565543331623
 31
0.0
  0
LINE
  5
1402
330
36
100
AcDbEntity
  8
0
 62
     3
100
AcDbLine
 10
295.5713025324056
 20
-1179.565543331623
 30
0.0
 11
295.3540945324056
 21
-1179.522475331623
 31
0.0
  0
LINE
  5
1403
330
36
100
AcDbEntity
  8
0
 62
     3
100
AcDbLine
 10
295.3540945324056
 20
-1179.522475331623
 30
0.0
 11
295.1353235324056
 21
-1179.509459331623
 31
0.0
  0
LINE
  5
1404
330
36
100
AcDbEntity
  8
0
 62
     3
100
AcDbLine
 10
295.1353235324056
 20
-1179.509459331623
 30
0.0
 11
294.9166665324055
 21
-1179.526594331623
 31
0.0
  0
LINE
  5
1405
330
36
100
AcDbEntity
  8
0
 62
     3
100
AcDbLine
 10
294.9166665324055
 20
-1179.526594331623
 30
0.0
 11
294.6998025324056
 21
-1179.573749331622
 31
0.0
  0
LINE
  5
1406
330
36
100
AcDbEntity
  8
0
 62
     3
100
AcDbLine
 10
294.6998025324056
 20
-1179.573749331622
 30
0.0
 11
294.4863925324056
 21
-1179.650563331622
 31
0.0
  0
LINE
  5
1407
330
36
100
AcDbEntity
  8
0
 62
     3
100
AcDbLine
 10
294.4863925324056
 20
-1179.650563331622
 30
0.0
 11
294.2780735324056
 21
-1179.756447331623
 31
0.0
  0
LINE
  5
1408
330
36
100
AcDbEntity
  8
0
 62
     3
100
AcDbLine
 10
294.2780735324056
 20
-1179.756447331623
 30
0.0
 11
294.0764425324056
 21
-1179.890588331623
 31
0.0
  0
LINE
  5
1409
330
36
100
AcDbEntity
  8
0
 62
     3
100
AcDbLine
 10
294.0764425324056
 20
-1179.890588331623
 30
0.0
 11
293.8830475324055
 21
-1180.051958331623
 31
0.0
  0
LINE
  5
140A
330
36
100
AcDbEntity
  8
0
 62
     3
100
AcDbLine
 10
293.8830475324055
 20
-1180.051958331623
 30
0.0
 11
293.6993705324056
 21
-1180.239319331623
 31
0.0
  0
LINE
  5
140B
330
36
100
AcDbEntity
  8
0
 62
     3
100
AcDbLine
 10
293.6993705324056
 20
-1180.239319331623
 30
0.0
 11
293.5268205324056
 21
-1180.451235331623
 31
0.0
  0
LINE
  5
140C
330
36
100
AcDbEntity
  8
0
 62
     3
100
AcDbLine
 10
293.5268205324056
 20
-1180.451235331623
 30
0.0
 11
293.3667195324056
 21
-1180.686081331623
 31
0.0
  0
LINE
  5
140D
330
36
100
AcDbEntity
  8
0
 62
     3
100
AcDbLine
 10
293.3667195324056
 20
-1180.686081331623
 30
0.0
 11
293.2202975324056
 21
-1180.942054331623
 31
0.0
  0
LINE
  5
140E
330
36
100
AcDbEntity
  8
0
 62
     3
100
AcDbLine
 10
293.2202975324056
 20
-1180.942054331623
 30
0.0
 11
293.0886745324055
 21
-1181.217193331623
 31
0.0
  0
LINE
  5
140F
330
36
100
AcDbEntity
  8
0
 62
     3
100
AcDbLine
 10
293.0886745324055
 20
-1181.217193331623
 30
0.0
 11
292.9728625324056
 21
-1181.509388331623
 31
0.0
  0
LINE
  5
1410
330
36
100
AcDbEntity
  8
0
 62
     3
100
AcDbLine
 10
300.1472695324056
 20
-1187.373089331622
 30
0.0
 11
300.3653375324057
 21
-1187.358518331623
 31
0.0
  0
LINE
  5
1411
330
36
100
AcDbEntity
  8
0
 62
     3
100
AcDbLine
 10
300.3653375324057
 20
-1187.358518331623
 30
0.0
 11
300.5817665324057
 21
-1187.314089331623
 31
0.0
  0
LINE
  5
1412
330
36
100
AcDbEntity
  8
0
 62
     3
100
AcDbLine
 10
300.5817665324057
 20
-1187.314089331623
 30
0.0
 11
300.7949065324055
 21
-1187.240140331623
 31
0.0
  0
LINE
  5
1413
330
36
100
AcDbEntity
  8
0
 62
     3
100
AcDbLine
 10
300.7949065324055
 20
-1187.240140331623
 30
0.0
 11
301.0031325324056
 21
-1187.137234331623
 31
0.0
  0
LINE
  5
1414
330
36
100
AcDbEntity
  8
0
 62
     3
100
AcDbLine
 10
301.0031325324056
 20
-1187.137234331623
 30
0.0
 11
301.2048585324056
 21
-1187.006156331623
 31
0.0
  0
LINE
  5
1415
330
36
100
AcDbEntity
  8
0
 62
     3
100
AcDbLine
 10
301.2048585324056
 20
-1187.006156331623
 30
0.0
 11
301.3985465324056
 21
-1186.847906331623
 31
0.0
  0
LINE
  5
1416
330
36
100
AcDbEntity
  8
0
 62
     3
100
AcDbLine
 10
301.3985465324056
 20
-1186.847906331623
 30
0.0
 11
301.5827195324056
 21
-1186.663689331623
 31
0.0
  0
LINE
  5
1417
330
36
100
AcDbEntity
  8
0
 62
     3
100
AcDbLine
 10
301.5827195324056
 20
-1186.663689331623
 30
0.0
 11
301.7559735324056
 21
-1186.454909331623
 31
0.0
  0
LINE
  5
1418
330
36
100
AcDbEntity
  8
0
 62
     3
100
AcDbLine
 10
301.7559735324056
 20
-1186.454909331623
 30
0.0
 11
301.9169895324056
 21
-1186.223158331623
 31
0.0
  0
LINE
  5
1419
330
36
100
AcDbEntity
  8
0
 62
     3
100
AcDbLine
 10
301.9169895324056
 20
-1186.223158331623
 30
0.0
 11
302.0645385324055
 21
-1185.970203331623
 31
0.0
  0
LINE
  5
141A
330
36
100
AcDbEntity
  8
0
 62
     3
100
AcDbLine
 10
302.0645385324055
 20
-1185.970203331623
 30
0.0
 11
302.1974965324056
 21
-1185.697971331623
 31
0.0
  0
LINE
  5
141B
330
36
100
AcDbEntity
  8
0
 62
     3
100
AcDbLine
 10
302.1974965324056
 20
-1185.697971331623
 30
0.0
 11
302.3148505324055
 21
-1185.408537331623
 31
0.0
  0
LINE
  5
141C
330
36
100
AcDbEntity
  8
0
 62
     3
100
AcDbLine
 10
302.3148505324055
 20
-1185.408537331623
 30
0.0
 11
302.4157055324057
 21
-1185.104108331623
 31
0.0
  0
LINE
  5
141D
330
36
100
AcDbEntity
  8
0
 62
     3
100
AcDbLine
 10
302.4157055324057
 20
-1185.104108331623
 30
0.0
 11
302.4992925324056
 21
-1184.787004331623
 31
0.0
  0
LINE
  5
141E
330
36
100
AcDbEntity
  8
0
 62
     3
100
AcDbLine
 10
302.4992925324056
 20
-1184.787004331623
 30
0.0
 11
302.5649745324056
 21
-1184.459643331623
 31
0.0
  0
LINE
  5
141F
330
36
100
AcDbEntity
  8
0
 62
     3
100
AcDbLine
 10
302.5649745324056
 20
-1184.459643331623
 30
0.0
 11
302.6122515324057
 21
-1184.124519331623
 31
0.0
  0
LINE
  5
1420
330
36
100
AcDbEntity
  8
0
 62
     3
100
AcDbLine
 10
302.6122515324057
 20
-1184.124519331623
 30
0.0
 11
302.6407625324056
 21
-1183.784186331623
 31
0.0
  0
LINE
  5
1421
330
36
100
AcDbEntity
  8
0
 62
     3
100
AcDbLine
 10
302.6407625324056
 20
-1183.784186331623
 30
0.0
 11
302.6502905324056
 21
-1183.441240331623
 31
0.0
  0
LINE
  5
1422
330
36
100
AcDbEntity
  8
0
 62
     3
100
AcDbLine
 10
302.6502905324056
 20
-1183.441240331623
 30
0.0
 11
302.6407625324056
 21
-1183.098294331623
 31
0.0
  0
LINE
  5
1423
330
36
100
AcDbEntity
  8
0
 62
     3
100
AcDbLine
 10
302.6407625324056
 20
-1183.098294331623
 30
0.0
 11
302.6122515324057
 21
-1182.757961331623
 31
0.0
  0
LINE
  5
1424
330
36
100
AcDbEntity
  8
0
 62
     3
100
AcDbLine
 10
302.6122515324057
 20
-1182.757961331623
 30
0.0
 11
302.5649745324056
 21
-1182.422837331623
 31
0.0
  0
LINE
  5
1425
330
36
100
AcDbEntity
  8
0
 62
     3
100
AcDbLine
 10
302.5649745324056
 20
-1182.422837331623
 30
0.0
 11
302.4992925324056
 21
-1182.095475331623
 31
0.0
  0
LINE
  5
1426
330
36
100
AcDbEntity
  8
0
 62
     3
100
AcDbLine
 10
302.4992925324056
 20
-1182.095475331623
 30
0.0
 11
302.4157055324057
 21
-1181.778372331623
 31
0.0
  0
LINE
  5
1427
330
36
100
AcDbEntity
  8
0
 62
     3
100
AcDbLine
 10
302.4157055324057
 20
-1181.778372331623
 30
0.0
 11
302.3148505324055
 21
-1181.473943331623
 31
0.0
  0
LINE
  5
1428
330
36
100
AcDbEntity
  8
0
 62
     3
100
AcDbLine
 10
302.3148505324055
 20
-1181.473943331623
 30
0.0
 11
302.1974965324056
 21
-1181.184509331623
 31
0.0
  0
LINE
  5
1429
330
36
100
AcDbEntity
  8
0
 62
     3
100
AcDbLine
 10
302.1974965324056
 20
-1181.184509331623
 30
0.0
 11
302.0645385324055
 21
-1180.912277331623
 31
0.0
  0
LINE
  5
142A
330
36
100
AcDbEntity
  8
0
 62
     3
100
AcDbLine
 10
302.0645385324055
 20
-1180.912277331623
 30
0.0
 11
301.9169895324056
 21
-1180.659322331623
 31
0.0
  0
LINE
  5
142B
330
36
100
AcDbEntity
  8
0
 62
     3
100
AcDbLine
 10
301.9169895324056
 20
-1180.659322331623
 30
0.0
 11
301.7559735324056
 21
-1180.427571331623
 31
0.0
  0
LINE
  5
142C
330
36
100
AcDbEntity
  8
0
 62
     3
100
AcDbLine
 10
301.7559735324056
 20
-1180.427571331623
 30
0.0
 11
301.5827195324056
 21
-1180.218791331623
 31
0.0
  0
LINE
  5
142D
330
36
100
AcDbEntity
  8
0
 62
     3
100
AcDbLine
 10
301.5827195324056
 20
-1180.218791331623
 30
0.0
 11
301.3985465324056
 21
-1180.034574331623
 31
0.0
  0
LINE
  5
142E
330
36
100
AcDbEntity
  8
0
 62
     3
100
AcDbLine
 10
301.3985465324056
 20
-1180.034574331623
 30
0.0
 11
301.2048585324056
 21
-1179.876323331623
 31
0.0
  0
LINE
  5
142F
330
36
100
AcDbEntity
  8
0
 62
     3
100
AcDbLine
 10
301.2048585324056
 20
-1179.876323331623
 30
0.0
 11
301.0031325324056
 21
-1179.745246331623
 31
0.0
  0
LINE
  5
1430
330
36
100
AcDbEntity
  8
0
 62
     3
100
AcDbLine
 10
301.0031325324056
 20
-1179.745246331623
 30
0.0
 11
300.7949065324055
 21
-1179.642340331623
 31
0.0
  0
LINE
  5
1431
330
36
100
AcDbEntity
  8
0
 62
     3
100
AcDbLine
 10
300.7949065324055
 20
-1179.642340331623
 30
0.0
 11
300.5817665324057
 21
-1179.568391331623
 31
0.0
  0
LINE
  5
1432
330
36
100
AcDbEntity
  8
0
 62
     3
100
AcDbLine
 10
300.5817665324057
 20
-1179.568391331623
 30
0.0
 11
300.3653375324057
 21
-1179.523962331623
 31
0.0
  0
LINE
  5
1433
330
36
100
AcDbEntity
  8
0
 62
     3
100
AcDbLine
 10
300.3653375324057
 20
-1179.523962331623
 30
0.0
 11
300.1472695324056
 21
-1179.509391331623
 31
0.0
  0
LINE
  5
1434
330
36
100
AcDbEntity
  8
0
100
AcDbLine
 10
398.7469455324056
 20
-1183.691240331623
 30
0.0
 11
398.7469455324056
 21
-1210.438761331623
 31
0.0
  0
LINE
  5
1435
330
36
100
AcDbEntity
  8
0
100
AcDbLine
 10
403.3969455324053
 20
-1183.691240331623
 30
0.0
 11
403.3969455324053
 21
-1210.438761331623
 31
0.0
  0
LINE
  5
1436
330
36
100
AcDbEntity
  8
0
100
AcDbLine
 10
405.8969455324056
 20
-1209.188761331623
 30
0.0
 11
408.3969455324056
 21
-1209.188761331623
 31
0.0
  0
LINE
  5
1437
330
36
100
AcDbEntity
  8
0
100
AcDbLine
 10
396.2469455324056
 20
-1209.188761331623
 30
0.0
 11
381.4969455324056
 21
-1209.188761331623
 31
0.0
  0
LINE
  5
1438
330
36
100
AcDbEntity
  8
0
100
AcDbLine
 10
403.3969455324053
 20
-1209.188761331623
 30
0.0
 11
398.7469455324056
 21
-1209.188761331623
 31
0.0
  0
LINE
  5
143C
330
36
100
AcDbEntity
  8
0
100
AcDbLine
 10
398.7469455324056
 20
-1183.191240331623
 30
0.0
 11
398.7469455324056
 21
-1150.597466331623
 31
0.0
  0
LINE
  5
143D
330
36
100
AcDbEntity
  8
0
100
AcDbLine
 10
416.1195065324053
 20
-1175.891240331623
 30
0.0
 11
416.1195065324053
 21
-1150.597466331623
 31
0.0
  0
LINE
  5
143E
330
36
100
AcDbEntity
  8
0
100
AcDbLine
 10
396.2469455324056
 20
-1151.847466331623
 30
0.0
 11
393.7469455324056
 21
-1151.847466331623
 31
0.0
  0
LINE
  5
143F
330
36
100
AcDbEntity
  8
0
100
AcDbLine
 10
418.6195065324056
 20
-1151.847466331623
 30
0.0
 11
442.7217792596783
 21
-1151.847466331623
 31
0.0
  0
LINE
  5
1440
330
36
100
AcDbEntity
  8
0
100
AcDbLine
 10
398.7469455324056
 20
-1151.847466331623
 30
0.0
 11
416.1195065324053
 21
-1151.847466331623
 31
0.0
  0
LINE
  5
1444
330
36
100
AcDbEntity
  8
0
100
AcDbLine
 10
401.0719455324053
 20
-1179.991240331623
 30
0.0
 11
401.0719455324053
 21
-1156.710301331623
 31
0.0
  0
LINE
  5
1445
330
36
100
AcDbEntity
  8
0
100
AcDbLine
 10
412.9969455324054
 20
-1175.891240331623
 30
0.0
 11
412.9969455324054
 21
-1156.710301331623
 31
0.0
  0
LINE
  5
1446
330
36
100
AcDbEntity
  8
0
100
AcDbLine
 10
403.5719455324055
 20
-1157.960301331623
 30
0.0
 11
410.4969455324053
 21
-1157.960301331623
 31
0.0
  0
LINE
  5
144A
330
36
100
AcDbEntity
  8
0
100
AcDbLine
 10
409.8743855324054
 20
-1190.991240331623
 30
0.0
 11
409.8743855324054
 21
-1210.438761331623
 31
0.0
  0
LINE
  5
144B
330
36
100
AcDbEntity
  8
0
100
AcDbLine
 10
416.1195065324053
 20
-1190.991240331623
 30
0.0
 11
416.1195065324053
 21
-1210.438761331623
 31
0.0
  0
LINE
  5
144C
330
36
100
AcDbEntity
  8
0
100
AcDbLine
 10
407.3743855324056
 20
-1209.188761331623
 30
0.0
 11
404.8743855324056
 21
-1209.188761331623
 31
0.0
  0
LINE
  5
144D
330
36
100
AcDbEntity
  8
0
100
AcDbLine
 10
418.6195065324056
 20
-1209.188761331623
 30
0.0
 11
428.3695065324056
 21
-1209.188761331623
 31
0.0
  0
LINE
  5
144E
330
36
100
AcDbEntity
  8
0
100
AcDbLine
 10
409.8743855324054
 20
-1209.188761331623
 30
0.0
 11
416.1195065324053
 21
-1209.188761331623
 31
0.0
  0
LINE
  5
1452
330
36
100
AcDbEntity
  8
0
100
AcDbLine
 10
417.4969455324053
 20
-1177.841240331623
 30
0.0
 11
433.8221705324055
 21
-1177.841240331623
 31
0.0
  0
LINE
  5
1453
330
36
100
AcDbEntity
  8
0
100
AcDbLine
 10
417.4969455324053
 20
-1176.141240331623
 30
0.0
 11
433.8221705324055
 21
-1176.141240331623
 31
0.0
  0
LINE
  5
1454
330
36
100
AcDbEntity
  8
0
100
AcDbLine
 10
432.5721705324053
 20
-1180.341240331623
 30
0.0
 11
432.5721705324053
 21
-1182.841240331623
 31
0.0
  0
LINE
  5
1455
330
36
100
AcDbEntity
  8
0
100
AcDbLine
 10
432.5721705324053
 20
-1173.641240331622
 30
0.0
 11
432.5721705324053
 21
-1164.891240331623
 31
0.0
  0
LINE
  5
1456
330
36
100
AcDbEntity
  8
0
100
AcDbLine
 10
432.5721705324053
 20
-1177.841240331623
 30
0.0
 11
432.5721705324053
 21
-1176.141240331623
 31
0.0
  0
LINE
  5
145A
330
36
100
AcDbEntity
  8
0
100
AcDbLine
 10
417.4969455324053
 20
-1189.891240331623
 30
0.0
 11
439.7816265324054
 21
-1189.891240331623
 31
0.0
  0
LINE
  5
145B
330
36
100
AcDbEntity
  8
0
100
AcDbLine
 10
417.4969455324053
 20
-1176.991240331623
 30
0.0
 11
439.7816265324054
 21
-1176.991240331623
 31
0.0
  0
LINE
  5
145C
330
36
100
AcDbEntity
  8
0
100
AcDbLine
 10
438.5316265324052
 20
-1187.391240331623
 30
0.0
 11
438.5316265324052
 21
-1179.491240331623
 31
0.0
  0
LINE
  5
1460
330
36
100
AcDbEntity
  8
0
100
AcDbLine
 10
333.2235765324055
 20
-1202.941240331623
 30
0.0
 11
368.0773145324057
 21
-1202.941240331623
 31
0.0
  0
LINE
  5
1461
330
36
100
AcDbEntity
  8
0
100
AcDbLine
 10
333.2235765324055
 20
-1163.941240331623
 30
0.0
 11
368.0773145324057
 21
-1163.941240331623
 31
0.0
  0
LINE
  5
1462
330
36
100
AcDbEntity
  8
0
100
AcDbLine
 10
366.8273145324056
 20
-1200.441240331623
 30
0.0
 11
366.8273145324056
 21
-1166.441240331623
 31
0.0
  0
LINE
  5
1466
330
36
100
AcDbEntity
  8
0
100
AcDbLine
 10
277.4735765324056
 20
-1180.814010331623
 30
0.0
 11
277.4735765324056
 21
-1152.405502331623
 31
0.0
  0
LINE
  5
1467
330
36
100
AcDbEntity
  8
0
100
AcDbLine
 10
337.4735765324055
 20
-1165.441240331623
 30
0.0
 11
337.4735765324055
 21
-1152.405502331623
 31
0.0
  0
LINE
  5
1468
330
36
100
AcDbEntity
  8
0
100
AcDbLine
 10
279.9735765324056
 20
-1153.655502331623
 30
0.0
 11
334.9735765324056
 21
-1153.655502331623
 31
0.0
  0
LINE
  5
146C
330
36
100
AcDbEntity
  8
0
100
AcDbLine
 10
326.6449575324056
 20
-1200.441240331623
 30
0.0
 11
253.9220685324056
 21
-1200.441240331623
 31
0.0
  0
LINE
  5
146D
330
36
100
AcDbEntity
  8
0
100
AcDbLine
 10
328.0002965324056
 20
-1166.441240331623
 30
0.0
 11
253.9220685324056
 21
-1166.441240331623
 31
0.0
  0
LINE
  5
146E
330
36
100
AcDbEntity
  8
0
100
AcDbLine
 10
255.1720685324056
 20
-1197.941240331623
 30
0.0
 11
255.1720685324056
 21
-1168.941240331623
 31
0.0
  0
LINE
  5
1472
330
36
100
AcDbEntity
  8
0
100
AcDbLine
 10
337.4735765324055
 20
-1200.941240331623
 30
0.0
 11
337.4735765324055
 21
-1197.242032331623
 31
0.0
  0
LINE
  5
1473
330
36
100
AcDbEntity
  8
0
100
AcDbLine
 10
358.8735765324055
 20
-1183.691240331623
 30
0.0
 11
358.8735765324055
 21
-1199.742032331623
 31
0.0
  0
LINE
  5
1474
330
36
100
AcDbEntity
  8
0
100
AcDbLine
 10
339.9735765324056
 20
-1198.492032331623
 30
0.0
 11
356.3735765324056
 21
-1198.492032331623
 31
0.0
  0
LINE
  5
1478
330
36
100
AcDbEntity
  8
0
100
AcDbLine
 10
337.4735765324055
 20
-1165.941240331623
 30
0.0
 11
337.4735765324055
 21
-1171.785135331623
 31
0.0
  0
LINE
  5
1479
330
36
100
AcDbEntity
  8
0
100
AcDbLine
 10
354.4735765324056
 20
-1176.441240331623
 30
0.0
 11
354.4735765324056
 21
-1169.285135331623
 31
0.0
  0
LINE
  5
147A
330
36
100
AcDbEntity
  8
0
100
AcDbLine
 10
339.9735765324056
 20
-1170.535135331623
 30
0.0
 11
351.9735765324055
 21
-1170.535135331623
 31
0.0
  0
LINE
  5
1480
330
36
100
AcDbEntity
  8
0
  6
Continuous
100
AcDbLine
 10
278.5300802927876
 20
-1292.256338029672
 30
0.0
 11
279.5592575184525
 21
-1292.256338029672
 31
0.0
  0
LINE
  5
1481
330
36
100
AcDbEntity
  8
0
  6
Continuous
100
AcDbLine
 10
279.5592575184525
 20
-1292.256338029672
 30
0.0
 11
279.5592575184525
 21
-1292.963457353674
 31
0.0
  0
LINE
  5
1482
330
36
100
AcDbEntity
  8
0
  6
Continuous
100
AcDbLine
 10
279.5592575184525
 20
-1292.963457353674
 30
0.0
 11
278.5300802927876
 21
-1292.963457353674
 31
0.0
  0
LINE
  5
1483
330
36
100
AcDbEntity
  8
0
  6
Continuous
100
AcDbLine
 10
278.5300802927876
 20
-1292.963457353674
 30
0.0
 11
278.5300802927876
 21
-1292.256338029672
 31
0.0
  0
LINE
  5
1484
330
36
100
AcDbEntity
  8
0
  6
Continuous
100
AcDbLine
 10
286.6937258167465
 20
-1292.256338029672
 30
0.0
 11
287.7229030424113
 21
-1292.256338029672
 31
0.0
  0
LINE
  5
1485
330
36
100
AcDbEntity
  8
0
  6
Continuous
100
AcDbLine
 10
287.7229030424113
 20
-1292.256338029672
 30
0.0
 11
287.7229030424113
 21
-1292.963457353674
 31
0.0
  0
LINE
  5
1486
330
36
100
AcDbEntity
  8
0
  6
Continuous
100
AcDbLine
 10
287.7229030424113
 20
-1292.963457353674
 30
0.0
 11
286.6937258167465
 21
-1292.963457353674
 31
0.0
  0
LINE
  5
1487
330
36
100
AcDbEntity
  8
0
  6
Continuous
100
AcDbLine
 10
286.6937258167465
 20
-1292.963457353674
 30
0.0
 11
286.6937258167465
 21
-1292.256338029672
 31
0.0
  0
LINE
  5
1488
330
36
100
AcDbEntity
  8
001
100
AcDbLine
 10
237.7481951135519
 20
-1290.923281029672
 30
0.0
 11
238.6618761135519
 21
-1292.781338029672
 31
0.0
  0
LINE
  5
1489
330
36
100
AcDbEntity
  8
001
100
AcDbLine
 10
238.6618761135519
 20
-1292.781338029672
 30
0.0
 11
238.7996331135519
 21
-1290.715373029672
 31
0.0
  0
LINE
  5
148A
330
36
100
AcDbEntity
  8
001
100
AcDbLine
 10
283.7471651135519
 20
-1279.223034029672
 30
0.0
 11
283.2432761135519
 21
-1281.231338029672
 31
0.0
  0
LINE
  5
148B
330
36
100
AcDbEntity
  8
001
100
AcDbLine
 10
283.2432761135519
 20
-1281.231338029672
 30
0.0
 11
284.6838081135519
 21
-1279.744041029672
 31
0.0
  0
LINE
  5
148C
330
36
100
AcDbEntity
  8
001
100
AcDbLine
 10
297.297524113552
 20
-1283.635738029672
 30
0.0
 11
296.8639191135519
 21
-1285.660379029672
 31
0.0
  0
LINE
  5
148D
330
36
100
AcDbEntity
  8
001
100
AcDbLine
 10
296.8639191135519
 20
-1285.660379029672
 30
0.0
 11
298.2517531135518
 21
-1284.123791029672
 31
0.0
  0
LINE
  5
148E
330
36
100
AcDbEntity
  8
001
100
AcDbLine
 10
296.943381113552
 20
-1289.508575029672
 30
0.0
 11
295.9174581135518
 21
-1291.307094029672
 31
0.0
  0
LINE
  5
148F
330
36
100
AcDbEntity
  8
001
100
AcDbLine
 10
295.9174581135518
 20
-1291.307094029672
 30
0.0
 11
297.7051931135518
 21
-1290.262492029672
 31
0.0
  0
LINE
  5
1490
330
36
100
AcDbEntity
  8
001
100
AcDbLine
 10
320.0113051135519
 20
-1285.951487029672
 30
0.0
 11
319.5076971135518
 21
-1287.959861029672
 31
0.0
  0
LINE
  5
1491
330
36
100
AcDbEntity
  8
001
100
AcDbLine
 10
319.5076971135518
 20
-1287.959861029672
 30
0.0
 11
320.9480211135519
 21
-1286.472362029672
 31
0.0
  0
LINE
  5
1492
330
36
100
AcDbEntity
  8
001
100
AcDbLine
 10
277.3238301135519
 20
-1305.247570029672
 30
0.0
 11
278.2310731135519
 21
-1303.386362029672
 31
0.0
  0
LINE
  5
1493
330
36
100
AcDbEntity
  8
001
100
AcDbLine
 10
278.2310731135519
 20
-1303.386362029672
 30
0.0
 11
276.5147731135519
 21
-1304.544593029672
 31
0.0
  0
LINE
  5
1494
330
36
100
AcDbEntity
  8
001
100
AcDbLine
 10
278.2176591952455
 20
-1288.4945988442
 30
0.0
 11
279.5712111952454
 21
-1290.061469844199
 31
0.0
  0
LINE
  5
1495
330
36
100
AcDbEntity
  8
001
100
AcDbLine
 10
279.5712111952454
 20
-1290.061469844199
 30
0.0
 11
279.1824361952454
 21
-1288.027743844199
 31
0.0
  0
LINE
  5
1496
330
36
100
AcDbEntity
  8
001
  6
PHANTOM
100
AcDbLine
 10
275.2408921135519
 20
-1302.645998029672
 30
0.0
 11
273.3077961135519
 21
-1302.040583029672
 31
0.0
  0
LINE
  5
1497
330
36
100
AcDbEntity
  8
001
  6
PHANTOM
100
AcDbLine
 10
273.3077961135519
 20
-1302.040583029672
 30
0.0
 11
271.351202113552
 21
-1301.490973029672
 31
0.0
  0
LINE
  5
1498
330
36
100
AcDbEntity
  8
001
  6
PHANTOM
100
AcDbLine
 10
271.351202113552
 20
-1301.490973029672
 30
0.0
 11
269.8600081135519
 21
-1301.172901029672
 31
0.0
  0
LINE
  5
1499
330
36
100
AcDbEntity
  8
001
  6
PHANTOM
100
AcDbLine
 10
269.8600081135519
 20
-1301.172901029672
 30
0.0
 11
268.3429061135519
 21
-1301.085146029672
 31
0.0
  0
LINE
  5
149A
330
36
100
AcDbEntity
  8
001
  6
PHANTOM
100
AcDbLine
 10
268.3429061135519
 20
-1301.085146029672
 30
0.0
 11
267.248633113552
 21
-1301.193041029672
 31
0.0
  0
LINE
  5
149B
330
36
100
AcDbEntity
  8
001
  6
PHANTOM
100
AcDbLine
 10
267.248633113552
 20
-1301.193041029672
 30
0.0
 11
266.1757961135519
 21
-1301.181493029673
 31
0.0
  0
LINE
  5
149C
330
36
100
AcDbEntity
  8
001
  6
PHANTOM
100
AcDbLine
 10
266.1757961135519
 20
-1301.181493029673
 30
0.0
 11
265.395717113552
 21
-1300.958680029672
 31
0.0
  0
LINE
  5
149D
330
36
100
AcDbEntity
  8
001
  6
PHANTOM
100
AcDbLine
 10
265.395717113552
 20
-1300.958680029672
 30
0.0
 11
264.6138231135519
 21
-1300.708513029672
 31
0.0
  0
LINE
  5
149E
330
36
100
AcDbEntity
  8
001
  6
PHANTOM
100
AcDbLine
 10
264.6138231135519
 20
-1300.708513029672
 30
0.0
 11
263.9943341135519
 21
-1300.605857029672
 31
0.0
  0
LINE
  5
149F
330
36
100
AcDbEntity
  8
001
  6
PHANTOM
100
AcDbLine
 10
263.9943341135519
 20
-1300.605857029672
 30
0.0
 11
263.3694531135519
 21
-1300.530208029673
 31
0.0
  0
LINE
  5
14A0
330
36
100
AcDbEntity
  8
001
  6
PHANTOM
100
AcDbLine
 10
263.3694531135519
 20
-1300.530208029673
 30
0.0
 11
262.8405551135519
 21
-1300.436709029672
 31
0.0
  0
LINE
  5
14A1
330
36
100
AcDbEntity
  8
001
  6
PHANTOM
100
AcDbLine
 10
262.8405551135519
 20
-1300.436709029672
 30
0.0
 11
262.3767200434591
 21
-1300.355133535662
 31
0.0
  0
LINE
  5
14A2
330
36
100
AcDbEntity
  8
001
  6
PHANTOM
100
AcDbLine
 10
275.2408931135519
 20
-1299.501850029672
 30
0.0
 11
273.6207641135519
 21
-1299.007303029672
 31
0.0
  0
LINE
  5
14A3
330
36
100
AcDbEntity
  8
001
  6
PHANTOM
100
AcDbLine
 10
273.6207641135519
 20
-1299.007303029672
 30
0.0
 11
271.9830481135519
 21
-1298.549035029672
 31
0.0
  0
LINE
  5
14A4
330
36
100
AcDbEntity
  8
001
  6
PHANTOM
100
AcDbLine
 10
271.9830481135519
 20
-1298.549035029672
 30
0.0
 11
270.7941571135519
 21
-1298.266764029672
 31
0.0
  0
LINE
  5
14A5
330
36
100
AcDbEntity
  8
001
  6
PHANTOM
100
AcDbLine
 10
270.7941571135519
 20
-1298.266764029672
 30
0.0
 11
269.590298113552
 21
-1298.087728029672
 31
0.0
  0
LINE
  5
14A6
330
36
100
AcDbEntity
  8
001
100
AcDbLine
 10
274.3653666089101
 20
-1294.756338029672
 30
0.0
 11
274.3770280475732
 21
-1294.738247376676
 31
0.0
  0
LINE
  5
14A7
330
36
100
AcDbEntity
  8
001
100
AcDbLine
 10
274.3770280475732
 20
-1294.738247376676
 30
0.0
 11
274.4605230475731
 21
-1294.581884376676
 31
0.0
  0
LINE
  5
14A8
330
36
100
AcDbEntity
  8
001
100
AcDbLine
 10
274.4605230475731
 20
-1294.581884376676
 30
0.0
 11
274.5334600475731
 21
-1294.415293376676
 31
0.0
  0
LINE
  5
14A9
330
36
100
AcDbEntity
  8
001
100
AcDbLine
 10
274.5334600475731
 20
-1294.415293376676
 30
0.0
 11
274.5952170475731
 21
-1294.239895376676
 31
0.0
  0
LINE
  5
14AA
330
36
100
AcDbEntity
  8
001
100
AcDbLine
 10
274.5952170475731
 20
-1294.239895376676
 30
0.0
 11
274.6452680475731
 21
-1294.057186376676
 31
0.0
  0
LINE
  5
14AB
330
36
100
AcDbEntity
  8
001
100
AcDbLine
 10
274.6452680475731
 20
-1294.057186376676
 30
0.0
 11
274.6831840475731
 21
-1293.868726376676
 31
0.0
  0
LINE
  5
14AC
330
36
100
AcDbEntity
  8
001
100
AcDbLine
 10
274.6831840475731
 20
-1293.868726376676
 30
0.0
 11
274.7086420475731
 21
-1293.676123376676
 31
0.0
  0
LINE
  5
14AD
330
36
100
AcDbEntity
  8
001
100
AcDbLine
 10
274.7086420475731
 20
-1293.676123376676
 30
0.0
 11
274.7214260475733
 21
-1293.481019376676
 31
0.0
  0
LINE
  5
14AE
330
36
100
AcDbEntity
  8
001
100
AcDbLine
 10
274.7214260475733
 20
-1293.481019376676
 30
0.0
 11
274.7214260475733
 21
-1293.285079376677
 31
0.0
  0
LINE
  5
14AF
330
36
100
AcDbEntity
  8
001
100
AcDbLine
 10
274.7214260475733
 20
-1293.285079376677
 30
0.0
 11
274.7086420475731
 21
-1293.089975376676
 31
0.0
  0
LINE
  5
14B0
330
36
100
AcDbEntity
  8
001
100
AcDbLine
 10
274.7086420475731
 20
-1293.089975376676
 30
0.0
 11
274.6831840475731
 21
-1292.897371376676
 31
0.0
  0
LINE
  5
14B1
330
36
100
AcDbEntity
  8
001
100
AcDbLine
 10
274.6831840475731
 20
-1292.897371376676
 30
0.0
 11
274.6452680475731
 21
-1292.708911376676
 31
0.0
  0
LINE
  5
14B2
330
36
100
AcDbEntity
  8
001
100
AcDbLine
 10
274.6452680475731
 20
-1292.708911376676
 30
0.0
 11
274.5952170475731
 21
-1292.526203376676
 31
0.0
  0
LINE
  5
14B3
330
36
100
AcDbEntity
  8
001
100
AcDbLine
 10
274.5952170475731
 20
-1292.526203376676
 30
0.0
 11
274.5334600475731
 21
-1292.350805376676
 31
0.0
  0
LINE
  5
14B4
330
36
100
AcDbEntity
  8
001
100
AcDbLine
 10
274.5334600475731
 20
-1292.350805376676
 30
0.0
 11
274.4605230475731
 21
-1292.184213376676
 31
0.0
  0
LINE
  5
14B5
330
36
100
AcDbEntity
  8
001
100
AcDbLine
 10
274.4605230475731
 20
-1292.184213376676
 30
0.0
 11
274.3770280475732
 21
-1292.027850376676
 31
0.0
  0
LINE
  5
14B6
330
36
100
AcDbEntity
  8
001
100
AcDbLine
 10
274.3770280475732
 20
-1292.027850376676
 30
0.0
 11
274.2836870475731
 21
-1291.883049376676
 31
0.0
  0
LINE
  5
14B7
330
36
100
AcDbEntity
  8
001
  6
PHANTOM
100
AcDbLine
 10
271.1464450475733
 20
-1294.929512376676
 30
0.0
 11
270.6373650475731
 21
-1294.891994376676
 31
0.0
  0
LINE
  5
14B8
330
36
100
AcDbEntity
  8
001
  6
PHANTOM
100
AcDbLine
 10
270.6373650475731
 20
-1294.891994376676
 30
0.0
 11
270.1395960475732
 21
-1294.929512376676
 31
0.0
  0
LINE
  5
14B9
330
36
100
AcDbEntity
  8
001
  6
PHANTOM
100
AcDbLine
 10
270.1395960475732
 20
-1294.929512376676
 30
0.0
 11
269.8184000475731
 21
-1295.026159376676
 31
0.0
  0
LINE
  5
14BA
330
36
100
AcDbEntity
  8
001
  6
PHANTOM
100
AcDbLine
 10
269.8184000475731
 20
-1295.026159376676
 30
0.0
 11
269.5094470475732
 21
-1295.166946376676
 31
0.0
  0
LINE
  5
14BB
330
36
100
AcDbEntity
  8
001
  6
PHANTOM
100
AcDbLine
 10
269.5094470475732
 20
-1295.166946376676
 30
0.0
 11
268.9829290475731
 21
-1295.469406376676
 31
0.0
  0
LINE
  5
14BC
330
36
100
AcDbEntity
  8
001
  6
PHANTOM
100
AcDbLine
 10
268.9829290475731
 20
-1295.469406376676
 30
0.0
 11
268.4632090475731
 21
-1295.775934376676
 31
0.0
  0
LINE
  5
14BD
330
36
100
AcDbEntity
  8
001
  6
PHANTOM
100
AcDbLine
 10
268.4632090475731
 20
-1295.775934376676
 30
0.0
 11
267.7927800475731
 21
-1296.097707376676
 31
0.0
  0
LINE
  5
14BE
330
36
100
AcDbEntity
  8
001
  6
PHANTOM
100
AcDbLine
 10
267.7927800475731
 20
-1296.097707376676
 30
0.0
 11
267.1135910475732
 21
-1296.410527376676
 31
0.0
  0
LINE
  5
14BF
330
36
100
AcDbEntity
  8
001
  6
PHANTOM
100
AcDbLine
 10
267.1135910475732
 20
-1296.410527376676
 30
0.0
 11
266.4547260475731
 21
-1296.762787376676
 31
0.0
  0
LINE
  5
14C0
330
36
100
AcDbEntity
  8
001
  6
PHANTOM
100
AcDbLine
 10
266.4547260475731
 20
-1296.762787376676
 30
0.0
 11
265.7839540475732
 21
-1297.074601376676
 31
0.0
  0
LINE
  5
14C1
330
36
100
AcDbEntity
  8
001
  6
PHANTOM
100
AcDbLine
 10
265.7839540475732
 20
-1297.074601376676
 30
0.0
 11
264.9986490475732
 21
-1297.282103376676
 31
0.0
  0
LINE
  5
14C2
330
36
100
AcDbEntity
  8
001
  6
PHANTOM
100
AcDbLine
 10
264.9986490475732
 20
-1297.282103376676
 30
0.0
 11
264.1918260475733
 21
-1297.433652376676
 31
0.0
  0
LINE
  5
14C3
330
36
100
AcDbEntity
  8
001
  6
PHANTOM
100
AcDbLine
 10
264.1918260475733
 20
-1297.433652376676
 30
0.0
 11
263.5904250475733
 21
-1297.578106376676
 31
0.0
  0
LINE
  5
14C4
330
36
100
AcDbEntity
  8
001
  6
PHANTOM
100
AcDbLine
 10
263.5904250475733
 20
-1297.578106376676
 30
0.0
 11
262.9967550475732
 21
-1297.747313376676
 31
0.0
  0
LINE
  5
14C5
330
36
100
AcDbEntity
  8
001
  6
PHANTOM
100
AcDbLine
 10
262.9967550475732
 20
-1297.747313376676
 30
0.0
 11
262.5454450475733
 21
-1297.883207376676
 31
0.0
  0
LINE
  5
14C6
330
36
100
AcDbEntity
  8
001
  6
PHANTOM
100
AcDbLine
 10
262.5454450475733
 20
-1297.883207376676
 30
0.0
 11
262.3767200434591
 21
-1297.934855429011
 31
0.0
  0
LINE
  5
14C7
330
36
100
AcDbEntity
  8
001
  6
PHANTOM
100
AcDbLine
 10
271.1814400475732
 20
-1294.883049376676
 30
0.0
 11
271.2747810475732
 21
-1294.738247376676
 31
0.0
  0
LINE
  5
14C8
330
36
100
AcDbEntity
  8
001
  6
PHANTOM
100
AcDbLine
 10
271.2747810475732
 20
-1294.738247376676
 30
0.0
 11
271.3582760475731
 21
-1294.581884376676
 31
0.0
  0
LINE
  5
14C9
330
36
100
AcDbEntity
  8
001
  6
PHANTOM
100
AcDbLine
 10
271.3582760475731
 20
-1294.581884376676
 30
0.0
 11
271.4312130475731
 21
-1294.415293376676
 31
0.0
  0
LINE
  5
14CA
330
36
100
AcDbEntity
  8
001
  6
PHANTOM
100
AcDbLine
 10
271.4312130475731
 20
-1294.415293376676
 30
0.0
 11
271.4929710475733
 21
-1294.239895376676
 31
0.0
  0
LINE
  5
14CB
330
36
100
AcDbEntity
  8
001
  6
PHANTOM
100
AcDbLine
 10
271.4929710475733
 20
-1294.239895376676
 30
0.0
 11
271.5430210475731
 21
-1294.057186376676
 31
0.0
  0
LINE
  5
14CC
330
36
100
AcDbEntity
  8
001
  6
PHANTOM
100
AcDbLine
 10
271.5430210475731
 20
-1294.057186376676
 30
0.0
 11
271.5809370475732
 21
-1293.868726376676
 31
0.0
  0
LINE
  5
14CD
330
36
100
AcDbEntity
  8
001
  6
PHANTOM
100
AcDbLine
 10
271.5809370475732
 20
-1293.868726376676
 30
0.0
 11
271.6063950475732
 21
-1293.676123376676
 31
0.0
  0
LINE
  5
14CE
330
36
100
AcDbEntity
  8
001
  6
PHANTOM
100
AcDbLine
 10
271.6063950475732
 20
-1293.676123376676
 30
0.0
 11
271.6191790475731
 21
-1293.481019376676
 31
0.0
  0
LINE
  5
14CF
330
36
100
AcDbEntity
  8
001
  6
PHANTOM
100
AcDbLine
 10
271.6191790475731
 20
-1293.481019376676
 30
0.0
 11
271.6191790475731
 21
-1293.285079376677
 31
0.0
  0
LINE
  5
14D0
330
36
100
AcDbEntity
  8
001
  6
PHANTOM
100
AcDbLine
 10
271.6191790475731
 20
-1293.285079376677
 30
0.0
 11
271.6063950475732
 21
-1293.089975376676
 31
0.0
  0
LINE
  5
14D1
330
36
100
AcDbEntity
  8
001
  6
PHANTOM
100
AcDbLine
 10
271.6063950475732
 20
-1293.089975376676
 30
0.0
 11
271.5809370475732
 21
-1292.897371376676
 31
0.0
  0
LINE
  5
14D2
330
36
100
AcDbEntity
  8
001
  6
PHANTOM
100
AcDbLine
 10
271.5809370475732
 20
-1292.897371376676
 30
0.0
 11
271.5430210475731
 21
-1292.708911376676
 31
0.0
  0
LINE
  5
14D3
330
36
100
AcDbEntity
  8
001
  6
PHANTOM
100
AcDbLine
 10
271.5430210475731
 20
-1292.708911376676
 30
0.0
 11
271.4929710475733
 21
-1292.526203376676
 31
0.0
  0
LINE
  5
14D4
330
36
100
AcDbEntity
  8
001
  6
PHANTOM
100
AcDbLine
 10
271.4929710475733
 20
-1292.526203376676
 30
0.0
 11
271.4312130475731
 21
-1292.350805376676
 31
0.0
  0
LINE
  5
14D5
330
36
100
AcDbEntity
  8
001
  6
PHANTOM
100
AcDbLine
 10
271.4312130475731
 20
-1292.350805376676
 30
0.0
 11
271.3582760475731
 21
-1292.184213376676
 31
0.0
  0
LINE
  5
14D6
330
36
100
AcDbEntity
  8
001
  6
PHANTOM
100
AcDbLine
 10
271.3582760475731
 20
-1292.184213376676
 30
0.0
 11
271.2747810475732
 21
-1292.027850376676
 31
0.0
  0
LINE
  5
14D7
330
36
100
AcDbEntity
  8
001
  6
PHANTOM
100
AcDbLine
 10
271.2747810475732
 20
-1292.027850376676
 30
0.0
 11
271.1814400475732
 21
-1291.883049376676
 31
0.0
  0
LINE
  5
14D8
330
36
100
AcDbEntity
  8
001
  6
PHANTOM
100
AcDbLine
 10
271.1464450475733
 20
-1291.929512376676
 30
0.0
 11
270.3632980475731
 21
-1291.880867376676
 31
0.0
  0
LINE
  5
14D9
330
36
100
AcDbEntity
  8
001
  6
PHANTOM
100
AcDbLine
 10
270.3632980475731
 20
-1291.880867376676
 30
0.0
 11
269.5931610475731
 21
-1291.929512376676
 31
0.0
  0
LINE
  5
14DA
330
36
100
AcDbEntity
  8
001
  6
PHANTOM
100
AcDbLine
 10
269.5931610475731
 20
-1291.929512376676
 30
0.0
 11
268.8878130475731
 21
-1292.130042376676
 31
0.0
  0
LINE
  5
14DB
330
36
100
AcDbEntity
  8
001
  6
PHANTOM
100
AcDbLine
 10
268.8878130475731
 20
-1292.130042376676
 30
0.0
 11
268.2170020475731
 21
-1292.448036376676
 31
0.0
  0
LINE
  5
14DC
330
36
100
AcDbEntity
  8
001
  6
PHANTOM
100
AcDbLine
 10
268.2170020475731
 20
-1292.448036376676
 30
0.0
 11
267.6419830475731
 21
-1292.786656376677
 31
0.0
  0
LINE
  5
14DD
330
36
100
AcDbEntity
  8
001
  6
PHANTOM
100
AcDbLine
 10
267.6419830475731
 20
-1292.786656376677
 30
0.0
 11
267.0676790475731
 21
-1293.117027376676
 31
0.0
  0
LINE
  5
14DE
330
36
100
AcDbEntity
  8
001
  6
PHANTOM
100
AcDbLine
 10
267.0676790475731
 20
-1293.117027376676
 30
0.0
 11
266.4386310475733
 21
-1293.414683376676
 31
0.0
  0
LINE
  5
14DF
330
36
100
AcDbEntity
  8
001
  6
PHANTOM
100
AcDbLine
 10
266.4386310475733
 20
-1293.414683376676
 30
0.0
 11
265.8049230475731
 21
-1293.710777376676
 31
0.0
  0
LINE
  5
14E0
330
36
100
AcDbEntity
  8
001
  6
PHANTOM
100
AcDbLine
 10
265.8049230475731
 20
-1293.710777376676
 30
0.0
 11
265.2920600475733
 21
-1293.985951376676
 31
0.0
  0
LINE
  5
14E1
330
36
100
AcDbEntity
  8
001
  6
PHANTOM
100
AcDbLine
 10
265.2920600475733
 20
-1293.985951376676
 30
0.0
 11
264.7690340475731
 21
-1294.228141376676
 31
0.0
  0
LINE
  5
14E2
330
36
100
AcDbEntity
  8
001
  6
PHANTOM
100
AcDbLine
 10
264.7690340475731
 20
-1294.228141376676
 30
0.0
 11
264.1340480475732
 21
-1294.397440376676
 31
0.0
  0
LINE
  5
14E3
330
36
100
AcDbEntity
  8
001
  6
PHANTOM
100
AcDbLine
 10
264.1340480475732
 20
-1294.397440376676
 30
0.0
 11
263.4808260475733
 21
-1294.518654376676
 31
0.0
  0
LINE
  5
14E4
330
36
100
AcDbEntity
  8
001
  6
PHANTOM
100
AcDbLine
 10
263.4808260475733
 20
-1294.518654376676
 30
0.0
 11
262.8256960475731
 21
-1294.674477376676
 31
0.0
  0
LINE
  5
14E5
330
36
100
AcDbEntity
  8
001
  6
PHANTOM
100
AcDbLine
 10
262.8256960475731
 20
-1294.674477376676
 30
0.0
 11
262.3767200434591
 21
-1294.803526241055
 31
0.0
  0
LINE
  5
14E6
330
36
100
AcDbEntity
  8
001
  6
PHANTOM
100
AcDbLine
 10
245.8839371135519
 20
-1278.017325029672
 30
0.0
 11
245.5917791135519
 21
-1279.145409029672
 31
0.0
  0
LINE
  5
14E7
330
36
100
AcDbEntity
  8
001
  6
PHANTOM
100
AcDbLine
 10
245.5917791135519
 20
-1279.145409029672
 30
0.0
 11
245.5439711135519
 21
-1280.347342029672
 31
0.0
  0
LINE
  5
14E8
330
36
100
AcDbEntity
  8
001
  6
PHANTOM
100
AcDbLine
 10
245.5439711135519
 20
-1280.347342029672
 30
0.0
 11
245.7189061135519
 21
-1281.329439029672
 31
0.0
  0
LINE
  5
14E9
330
36
100
AcDbEntity
  8
001
  6
PHANTOM
100
AcDbLine
 10
245.7189061135519
 20
-1281.329439029672
 30
0.0
 11
245.6361881135519
 21
-1282.165731029672
 31
0.0
  0
LINE
  5
14EA
330
36
100
AcDbEntity
  8
001
  6
PHANTOM
100
AcDbLine
 10
245.6361881135519
 20
-1282.165731029672
 30
0.0
 11
245.0765631135519
 21
-1282.669652029672
 31
0.0
  0
LINE
  5
14EB
330
36
100
AcDbEntity
  8
001
  6
PHANTOM
100
AcDbLine
 10
245.0765631135519
 20
-1282.669652029672
 30
0.0
 11
244.4370071135519
 21
-1283.197684029672
 31
0.0
  0
LINE
  5
14EC
330
36
100
AcDbEntity
  8
001
  6
PHANTOM
100
AcDbLine
 10
244.4370071135519
 20
-1283.197684029672
 30
0.0
 11
244.1955021135519
 21
-1283.705879029672
 31
0.0
  0
LINE
  5
14ED
330
36
100
AcDbEntity
  8
001
  6
PHANTOM
100
AcDbLine
 10
244.1955021135519
 20
-1283.705879029672
 30
0.0
 11
244.1654611135519
 21
-1284.261130029672
 31
0.0
  0
LINE
  5
14EE
330
36
100
AcDbEntity
  8
001
  6
PHANTOM
100
AcDbLine
 10
244.1654611135519
 20
-1284.261130029672
 30
0.0
 11
244.4531221135519
 21
-1284.985616029672
 31
0.0
  0
LINE
  5
14EF
330
36
100
AcDbEntity
  8
001
  6
PHANTOM
100
AcDbLine
 10
244.4531221135519
 20
-1284.985616029672
 30
0.0
 11
244.9573311135519
 21
-1285.639654029673
 31
0.0
  0
TEXT
  5
14F0
330
36
100
AcDbEntity
  8
0
  6
Continuous
 62
     4
100
AcDbText
 10
382.1219455324056
 20
-1208.563761331623
 30
0.0
 40
2.5
  1
%%C4.65
100
AcDbText
  0
LINE
  5
14F1
330
36
100
AcDbEntity
  8
0
  6
ByBlock
 62
     0
370
    -2
100
AcDbLine
 10
396.2469455324056
 20
-1208.518888831623
 30
0.0
 11
398.7469455324056
 21
-1209.188761331623
 31
0.0
  0
LINE
  5
14F2
330
36
100
AcDbEntity
  8
0
  6
ByBlock
 62
     0
370
    -2
100
AcDbLine
 10
398.7469455324056
 20
-1209.188761331623
 30
0.0
 11
396.2469455324056
 21
-1209.858633831623
 31
0.0
  0
LINE
  5
14F3
330
36
100
AcDbEntity
  8
0
  6
ByBlock
 62
     0
370
    -2
100
AcDbLine
 10
398.7469455324056
 20
-1209.188761331623
 30
0.0
 11
396.2469455324056
 21
-1209.188761331623
 31
0.0
  0
LINE
  5
14F4
330
36
100
AcDbEntity
  8
0
  6
ByBlock
 62
     0
370
    -2
100
AcDbLine
 10
405.8969455324053
 20
-1209.858633831623
 30
0.0
 11
403.3969455324053
 21
-1209.188761331623
 31
0.0
  0
LINE
  5
14F5
330
36
100
AcDbEntity
  8
0
  6
ByBlock
 62
     0
370
    -2
100
AcDbLine
 10
403.3969455324053
 20
-1209.188761331623
 30
0.0
 11
405.8969455324053
 21
-1208.518888831623
 31
0.0
  0
LINE
  5
14F6
330
36
100
AcDbEntity
  8
0
  6
ByBlock
 62
     0
370
    -2
100
AcDbLine
 10
403.3969455324053
 20
-1209.188761331623
 30
0.0
 11
405.8969455324053
 21
-1209.188761331623
 31
0.0
  0
TEXT
  5
14F7
330
36
100
AcDbEntity
  8
0
  6
Continuous
 62
     4
100
AcDbText
 10
421.7445065324055
 20
-1150.89860269526
 30
0.0
 40
3.0
  1
17.75
100
AcDbText
  0
TEXT
  5
14F8
330
36
100
AcDbEntity
  8
0
  6
Continuous
 62
     4
100
AcDbText
 10
433.7445065324055
 20
-1150.89860269526
 30
0.0
 40
3.0
  1
以下
100
AcDbText
  0
LINE
  5
14F9
330
36
100
AcDbEntity
  8
0
  6
ByBlock
 62
     0
370
    -2
100
AcDbLine
 10
418.6195065324053
 20
-1152.517338831623
 30
0.0
 11
416.1195065324053
 21
-1151.847466331623
 31
0.0
  0
LINE
  5
14FA
330
36
100
AcDbEntity
  8
0
  6
ByBlock
 62
     0
370
    -2
100
AcDbLine
 10
416.1195065324053
 20
-1151.847466331623
 30
0.0
 11
418.6195065324053
 21
-1151.177593831623
 31
0.0
  0
LINE
  5
14FB
330
36
100
AcDbEntity
  8
0
  6
ByBlock
 62
     0
370
    -2
100
AcDbLine
 10
416.1195065324053
 20
-1151.847466331623
 30
0.0
 11
418.6195065324053
 21
-1151.847466331623
 31
0.0
  0
LINE
  5
14FC
330
36
100
AcDbEntity
  8
0
  6
ByBlock
 62
     0
370
    -2
100
AcDbLine
 10
396.2469455324056
 20
-1151.177593831623
 30
0.0
 11
398.7469455324056
 21
-1151.847466331623
 31
0.0
  0
LINE
  5
14FD
330
36
100
AcDbEntity
  8
0
  6
ByBlock
 62
     0
370
    -2
100
AcDbLine
 10
398.7469455324056
 20
-1151.847466331623
 30
0.0
 11
396.2469455324056
 21
-1152.517338831623
 31
0.0
  0
LINE
  5
14FE
330
36
100
AcDbEntity
  8
0
  6
ByBlock
 62
     0
370
    -2
100
AcDbLine
 10
398.7469455324056
 20
-1151.847466331623
 30
0.0
 11
396.2469455324056
 21
-1151.847466331623
 31
0.0
  0
TEXT
  5
14FF
330
36
100
AcDbEntity
  8
0
  6
Continuous
 62
     4
100
AcDbText
 10
404.1177788657389
 20
-1157.335301331623
 30
0.0
 40
2.5
  1
11.9
100
AcDbText
  0
LINE
  5
1500
330
36
100
AcDbEntity
  8
0
  6
ByBlock
 62
     0
370
    -2
100
AcDbLine
 10
410.4969455324053
 20
-1157.290428831623
 30
0.0
 11
412.9969455324054
 21
-1157.960301331623
 31
0.0
  0
LINE
  5
1501
330
36
100
AcDbEntity
  8
0
  6
ByBlock
 62
     0
370
    -2
100
AcDbLine
 10
412.9969455324054
 20
-1157.960301331623
 30
0.0
 11
410.4969455324053
 21
-1158.630173831623
 31
0.0
  0
LINE
  5
1502
330
36
100
AcDbEntity
  8
0
  6
ByBlock
 62
     0
370
    -2
100
AcDbLine
 10
412.9969455324054
 20
-1157.960301331623
 30
0.0
 11
410.4969455324053
 21
-1157.960301331623
 31
0.0
  0
LINE
  5
1503
330
36
100
AcDbEntity
  8
0
  6
ByBlock
 62
     0
370
    -2
100
AcDbLine
 10
403.5719455324053
 20
-1158.630173831623
 30
0.0
 11
401.0719455324053
 21
-1157.960301331623
 31
0.0
  0
LINE
  5
1504
330
36
100
AcDbEntity
  8
0
  6
ByBlock
 62
     0
370
    -2
100
AcDbLine
 10
401.0719455324053
 20
-1157.960301331623
 30
0.0
 11
403.5719455324053
 21
-1157.290428831623
 31
0.0
  0
LINE
  5
1505
330
36
100
AcDbEntity
  8
0
  6
ByBlock
 62
     0
370
    -2
100
AcDbLine
 10
401.0719455324053
 20
-1157.960301331623
 30
0.0
 11
403.5719455324053
 21
-1157.960301331623
 31
0.0
  0
TEXT
  5
1506
330
36
100
AcDbEntity
  8
0
  6
Continuous
 62
     4
100
AcDbText
 10
421.7445065324056
 20
-1208.563761331623
 30
0.0
 40
3.0
  1
6.3
100
AcDbText
  0
LINE
  5
1507
330
36
100
AcDbEntity
  8
0
  6
ByBlock
 62
     0
370
    -2
100
AcDbLine
 10
418.6195065324053
 20
-1209.858633831623
 30
0.0
 11
416.1195065324053
 21
-1209.188761331623
 31
0.0
  0
LINE
  5
1508
330
36
100
AcDbEntity
  8
0
  6
ByBlock
 62
     0
370
    -2
100
AcDbLine
 10
416.1195065324053
 20
-1209.188761331623
 30
0.0
 11
418.6195065324053
 21
-1208.518888831623
 31
0.0
  0
LINE
  5
1509
330
36
100
AcDbEntity
  8
0
  6
ByBlock
 62
     0
370
    -2
100
AcDbLine
 10
416.1195065324053
 20
-1209.188761331623
 30
0.0
 11
418.6195065324053
 21
-1209.188761331623
 31
0.0
  0
LINE
  5
150A
330
36
100
AcDbEntity
  8
0
  6
ByBlock
 62
     0
370
    -2
100
AcDbLine
 10
407.3743855324053
 20
-1208.518888831623
 30
0.0
 11
409.8743855324054
 21
-1209.188761331623
 31
0.0
  0
LINE
  5
150B
330
36
100
AcDbEntity
  8
0
  6
ByBlock
 62
     0
370
    -2
100
AcDbLine
 10
409.8743855324054
 20
-1209.188761331623
 30
0.0
 11
407.3743855324053
 21
-1209.858633831623
 31
0.0
  0
LINE
  5
150C
330
36
100
AcDbEntity
  8
0
  6
ByBlock
 62
     0
370
    -2
100
AcDbLine
 10
409.8743855324054
 20
-1209.188761331623
 30
0.0
 11
407.3743855324053
 21
-1209.188761331623
 31
0.0
  0
TEXT
  5
150D
330
36
100
AcDbEntity
  8
0
  6
Continuous
 62
     4
100
AcDbText
 10
431.9471705324057
 20
-1170.516240331623
 30
0.0
 40
3.0
  1
1.7
 50
90.0
100
AcDbText
  0
LINE
  5
150E
330
36
100
AcDbEntity
  8
0
  6
ByBlock
 62
     0
370
    -2
100
AcDbLine
 10
433.2420430324053
 20
-1173.641240331622
 30
0.0
 11
432.5721705324053
 21
-1176.141240331623
 31
0.0
  0
LINE
  5
150F
330
36
100
AcDbEntity
  8
0
  6
ByBlock
 62
     0
370
    -2
100
AcDbLine
 10
432.5721705324053
 20
-1176.141240331623
 30
0.0
 11
431.9022980324053
 21
-1173.641240331622
 31
0.0
  0
LINE
  5
1510
330
36
100
AcDbEntity
  8
0
  6
ByBlock
 62
     0
370
    -2
100
AcDbLine
 10
432.5721705324053
 20
-1176.141240331623
 30
0.0
 11
432.5721705324053
 21
-1173.641240331622
 31
0.0
  0
LINE
  5
1511
330
36
100
AcDbEntity
  8
0
  6
ByBlock
 62
     0
370
    -2
100
AcDbLine
 10
431.9022980324053
 20
-1180.341240331623
 30
0.0
 11
432.5721705324053
 21
-1177.841240331623
 31
0.0
  0
LINE
  5
1512
330
36
100
AcDbEntity
  8
0
  6
ByBlock
 62
     0
370
    -2
100
AcDbLine
 10
432.5721705324053
 20
-1177.841240331623
 30
0.0
 11
433.2420430324053
 21
-1180.341240331623
 31
0.0
  0
LINE
  5
1513
330
36
100
AcDbEntity
  8
0
  6
ByBlock
 62
     0
370
    -2
100
AcDbLine
 10
432.5721705324053
 20
-1177.841240331623
 30
0.0
 11
432.5721705324053
 21
-1180.341240331623
 31
0.0
  0
TEXT
  5
1514
330
36
100
AcDbEntity
  8
0
  6
Continuous
 62
     4
100
AcDbText
 10
437.9066265324057
 20
-1187.441240331623
 30
0.0
 40
3.0
  1
12.7
 50
90.0
100
AcDbText
  0
LINE
  5
1515
330
36
100
AcDbEntity
  8
0
  6
ByBlock
 62
     0
370
    -2
100
AcDbLine
 10
437.8617540324053
 20
-1179.491240331623
 30
0.0
 11
438.5316265324052
 21
-1176.991240331623
 31
0.0
  0
LINE
  5
1516
330
36
100
AcDbEntity
  8
0
  6
ByBlock
 62
     0
370
    -2
100
AcDbLine
 10
438.5316265324052
 20
-1176.991240331623
 30
0.0
 11
439.2014990324053
 21
-1179.491240331623
 31
0.0
  0
LINE
  5
1517
330
36
100
AcDbEntity
  8
0
  6
ByBlock
 62
     0
370
    -2
100
AcDbLine
 10
438.5316265324052
 20
-1176.991240331623
 30
0.0
 11
438.5316265324052
 21
-1179.491240331623
 31
0.0
  0
LINE
  5
1518
330
36
100
AcDbEntity
  8
0
  6
ByBlock
 62
     0
370
    -2
100
AcDbLine
 10
439.2014990324053
 20
-1187.391240331623
 30
0.0
 11
438.5316265324052
 21
-1189.891240331623
 31
0.0
  0
LINE
  5
1519
330
36
100
AcDbEntity
  8
0
  6
ByBlock
 62
     0
370
    -2
100
AcDbLine
 10
438.5316265324052
 20
-1189.891240331623
 30
0.0
 11
437.8617540324053
 21
-1187.391240331623
 31
0.0
  0
LINE
  5
151A
330
36
100
AcDbEntity
  8
0
  6
ByBlock
 62
     0
370
    -2
100
AcDbLine
 10
438.5316265324052
 20
-1189.891240331623
 30
0.0
 11
438.5316265324052
 21
-1187.391240331623
 31
0.0
  0
TEXT
  5
151B
330
36
100
AcDbEntity
  8
0
  6
Continuous
 62
     4
100
AcDbText
 10
366.2023145324057
 20
-1186.774573664956
 30
0.0
 40
2.5
  1
%%C39
 50
90.0
100
AcDbText
  0
LINE
  5
151C
330
36
100
AcDbEntity
  8
0
  6
ByBlock
 62
     0
370
    -2
100
AcDbLine
 10
366.1574420324056
 20
-1166.441240331623
 30
0.0
 11
366.8273145324056
 21
-1163.941240331623
 31
0.0
  0
LINE
  5
151D
330
36
100
AcDbEntity
  8
0
  6
ByBlock
 62
     0
370
    -2
100
AcDbLine
 10
366.8273145324056
 20
-1163.941240331623
 30
0.0
 11
367.4971870324057
 21
-1166.441240331623
 31
0.0
  0
LINE
  5
151E
330
36
100
AcDbEntity
  8
0
  6
ByBlock
 62
     0
370
    -2
100
AcDbLine
 10
366.8273145324056
 20
-1163.941240331623
 30
0.0
 11
366.8273145324056
 21
-1166.441240331623
 31
0.0
  0
LINE
  5
151F
330
36
100
AcDbEntity
  8
0
  6
ByBlock
 62
     0
370
    -2
100
AcDbLine
 10
367.4971870324057
 20
-1200.441240331623
 30
0.0
 11
366.8273145324056
 21
-1202.941240331623
 31
0.0
  0
LINE
  5
1520
330
36
100
AcDbEntity
  8
0
  6
ByBlock
 62
     0
370
    -2
100
AcDbLine
 10
366.8273145324056
 20
-1202.941240331623
 30
0.0
 11
366.1574420324056
 21
-1200.441240331623
 31
0.0
  0
LINE
  5
1521
330
36
100
AcDbEntity
  8
0
  6
ByBlock
 62
     0
370
    -2
100
AcDbLine
 10
366.8273145324056
 20
-1202.941240331623
 30
0.0
 11
366.8273145324056
 21
-1200.441240331623
 31
0.0
  0
TEXT
  5
1522
330
36
100
AcDbEntity
  8
0
  6
Continuous
 62
     4
100
AcDbText
 10
305.5985765324056
 20
-1153.030502331623
 30
0.0
 40
2.5
  1
60
100
AcDbText
  0
LINE
  5
1523
330
36
100
AcDbEntity
  8
0
  6
ByBlock
 62
     0
370
    -2
100
AcDbLine
 10
334.9735765324055
 20
-1152.985629831623
 30
0.0
 11
337.4735765324055
 21
-1153.655502331623
 31
0.0
  0
LINE
  5
1524
330
36
100
AcDbEntity
  8
0
  6
ByBlock
 62
     0
370
    -2
100
AcDbLine
 10
337.4735765324055
 20
-1153.655502331623
 30
0.0
 11
334.9735765324055
 21
-1154.325374831623
 31
0.0
  0
LINE
  5
1525
330
36
100
AcDbEntity
  8
0
  6
ByBlock
 62
     0
370
    -2
100
AcDbLine
 10
337.4735765324055
 20
-1153.655502331623
 30
0.0
 11
334.9735765324055
 21
-1153.655502331623
 31
0.0
  0
LINE
  5
1526
330
36
100
AcDbEntity
  8
0
  6
ByBlock
 62
     0
370
    -2
100
AcDbLine
 10
279.9735765324056
 20
-1154.325374831623
 30
0.0
 11
277.4735765324056
 21
-1153.655502331623
 31
0.0
  0
LINE
  5
1527
330
36
100
AcDbEntity
  8
0
  6
ByBlock
 62
     0
370
    -2
100
AcDbLine
 10
277.4735765324056
 20
-1153.655502331623
 30
0.0
 11
279.9735765324056
 21
-1152.985629831623
 31
0.0
  0
LINE
  5
1528
330
36
100
AcDbEntity
  8
0
  6
ByBlock
 62
     0
370
    -2
100
AcDbLine
 10
277.4735765324056
 20
-1153.655502331623
 30
0.0
 11
279.9735765324056
 21
-1153.655502331623
 31
0.0
  0
TEXT
  5
1529
330
36
100
AcDbEntity
  8
0
  6
Continuous
 62
     4
100
AcDbText
 10
254.5470685324058
 20
-1186.774573664956
 30
0.0
 40
2.5
  1
%%C34
 50
90.0
100
AcDbText
  0
LINE
  5
152A
330
36
100
AcDbEntity
  8
0
  6
ByBlock
 62
     0
370
    -2
100
AcDbLine
 10
254.5021960324056
 20
-1168.941240331623
 30
0.0
 11
255.1720685324056
 21
-1166.441240331623
 31
0.0
  0
LINE
  5
152B
330
36
100
AcDbEntity
  8
0
  6
ByBlock
 62
     0
370
    -2
100
AcDbLine
 10
255.1720685324056
 20
-1166.441240331623
 30
0.0
 11
255.8419410324056
 21
-1168.941240331623
 31
0.0
  0
LINE
  5
152C
330
36
100
AcDbEntity
  8
0
  6
ByBlock
 62
     0
370
    -2
100
AcDbLine
 10
255.1720685324056
 20
-1166.441240331623
 30
0.0
 11
255.1720685324056
 21
-1168.941240331623
 31
0.0
  0
LINE
  5
152D
330
36
100
AcDbEntity
  8
0
  6
ByBlock
 62
     0
370
    -2
100
AcDbLine
 10
255.8419410324056
 20
-1197.941240331623
 30
0.0
 11
255.1720685324056
 21
-1200.441240331623
 31
0.0
  0
LINE
  5
152E
330
36
100
AcDbEntity
  8
0
  6
ByBlock
 62
     0
370
    -2
100
AcDbLine
 10
255.1720685324056
 20
-1200.441240331623
 30
0.0
 11
254.5021960324056
 21
-1197.941240331623
 31
0.0
  0
LINE
  5
152F
330
36
100
AcDbEntity
  8
0
  6
ByBlock
 62
     0
370
    -2
100
AcDbLine
 10
255.1720685324056
 20
-1200.441240331623
 30
0.0
 11
255.1720685324056
 21
-1197.941240331623
 31
0.0
  0
TEXT
  5
1530
330
36
100
AcDbEntity
  8
0
  6
Continuous
 62
     4
100
AcDbText
 10
344.8402431990723
 20
-1197.867032331623
 30
0.0
 40
2.5
  1
21.4
100
AcDbText
  0
LINE
  5
1531
330
36
100
AcDbEntity
  8
0
  6
ByBlock
 62
     0
370
    -2
100
AcDbLine
 10
356.3735765324055
 20
-1197.822159831623
 30
0.0
 11
358.8735765324055
 21
-1198.492032331623
 31
0.0
  0
LINE
  5
1532
330
36
100
AcDbEntity
  8
0
  6
ByBlock
 62
     0
370
    -2
100
AcDbLine
 10
358.8735765324055
 20
-1198.492032331623
 30
0.0
 11
356.3735765324055
 21
-1199.161904831623
 31
0.0
  0
LINE
  5
1533
330
36
100
AcDbEntity
  8
0
  6
ByBlock
 62
     0
370
    -2
100
AcDbLine
 10
358.8735765324055
 20
-1198.492032331623
 30
0.0
 11
356.3735765324055
 21
-1198.492032331623
 31
0.0
  0
LINE
  5
1534
330
36
100
AcDbEntity
  8
0
  6
ByBlock
 62
     0
370
    -2
100
AcDbLine
 10
339.9735765324055
 20
-1199.161904831623
 30
0.0
 11
337.4735765324055
 21
-1198.492032331623
 31
0.0
  0
LINE
  5
1535
330
36
100
AcDbEntity
  8
0
  6
ByBlock
 62
     0
370
    -2
100
AcDbLine
 10
337.4735765324055
 20
-1198.492032331623
 30
0.0
 11
339.9735765324055
 21
-1197.822159831623
 31
0.0
  0
LINE
  5
1536
330
36
100
AcDbEntity
  8
0
  6
ByBlock
 62
     0
370
    -2
100
AcDbLine
 10
337.4735765324055
 20
-1198.492032331623
 30
0.0
 11
339.9735765324055
 21
-1198.492032331623
 31
0.0
  0
TEXT
  5
1537
330
36
100
AcDbEntity
  8
0
  6
Continuous
 62
     4
100
AcDbText
 10
344.3069098657387
 20
-1169.910135331623
 30
0.0
 40
2.5
  1
17
100
AcDbText
  0
LINE
  5
1538
330
36
100
AcDbEntity
  8
0
  6
ByBlock
 62
     0
370
    -2
100
AcDbLine
 10
351.9735765324056
 20
-1169.865262831623
 30
0.0
 11
354.4735765324056
 21
-1170.535135331623
 31
0.0
  0
LINE
  5
1539
330
36
100
AcDbEntity
  8
0
  6
ByBlock
 62
     0
370
    -2
100
AcDbLine
 10
354.4735765324056
 20
-1170.535135331623
 30
0.0
 11
351.9735765324056
 21
-1171.205007831623
 31
0.0
  0
LINE
  5
153A
330
36
100
AcDbEntity
  8
0
  6
ByBlock
 62
     0
370
    -2
100
AcDbLine
 10
354.4735765324056
 20
-1170.535135331623
 30
0.0
 11
351.9735765324056
 21
-1170.535135331623
 31
0.0
  0
LINE
  5
153B
330
36
100
AcDbEntity
  8
0
  6
ByBlock
 62
     0
370
    -2
100
AcDbLine
 10
339.9735765324055
 20
-1171.205007831623
 30
0.0
 11
337.4735765324055
 21
-1170.535135331623
 31
0.0
  0
LINE
  5
153C
330
36
100
AcDbEntity
  8
0
  6
ByBlock
 62
     0
370
    -2
100
AcDbLine
 10
337.4735765324055
 20
-1170.535135331623
 30
0.0
 11
339.9735765324055
 21
-1169.865262831623
 31
0.0
  0
LINE
  5
153D
330
36
100
AcDbEntity
  8
0
  6
ByBlock
 62
     0
370
    -2
100
AcDbLine
 10
337.4735765324055
 20
-1170.535135331623
 30
0.0
 11
339.9735765324055
 21
-1170.535135331623
 31
0.0
  0
LINE
  5
153E
330
36
100
AcDbEntity
  8
0
  6
Continuous
100
AcDbLine
 10
253.5499319758738
 20
-1280.397765716011
 30
0.0
 11
255.1784249094221
 21
-1276.588468302948
 31
0.0
1001
ACAD
1000
DSTYLE
1002
{
1070
   147
1040
0.625
1070
    77
1070
     0
1002
}
  0
LINE
  5
153F
330
36
100
AcDbEntity
  8
0
  6
Continuous
100
AcDbLine
 10
255.1784249094221
 20
-1276.588468302948
 30
0.0
 11
256.8265297731448
 21
-1273.331737595124
 31
0.0
1001
ACAD
1000
DSTYLE
1002
{
1070
   147
1040
0.625
1070
    77
1070
     0
1002
}
  0
LINE
  5
1540
330
36
100
AcDbEntity
  8
0
  6
ByBlock
 62
     0
370
    -2
100
AcDbLine
 10
254.1658795792534
 20
-1280.661086273786
 30
0.0
 11
252.5672055698214
 21
-1282.6965151175
 31
0.0
  0
LINE
  5
1541
330
36
100
AcDbEntity
  8
0
  6
ByBlock
 62
     0
370
    -2
100
AcDbLine
 10
252.5672055698214
 20
-1282.6965151175
 30
0.0
 11
252.9339843724941
 21
-1280.134445158235
 31
0.0
  0
LINE
  5
1542
330
36
100
AcDbEntity
  8
0
  6
ByBlock
 62
     0
370
    -2
100
AcDbLine
 10
252.5672055698214
 20
-1282.6965151175
 30
0.0
 11
253.5499319758738
 21
-1280.397765716011
 31
0.0
  0
ENDSEC
  0
SECTION
  2
OBJECTS
  0
DICTIONARY
  5
C
330
0
100
AcDbDictionary
281
     1
  3
ACAD_COLOR
350
2F
  3
ACAD_GROUP
350
D
  3
ACAD_LAYOUT
350
2E
  3
ACAD_MATERIAL
350
10
  3
ACAD_MLINESTYLE
350
2B
  3
ACAD_PLOTSETTINGS
350
2D
  3
ACAD_PLOTSTYLENAME
350
E
  3
ACAD_TABLESTYLE
350
30
  3
ACAD_VISUALSTYLE
350
14
  3
AcadDim
350
A15
  3
AcDbVariableDictionary
350
6AF
  0
DICTIONARY
  5
82F
330
2
100
AcDbDictionary
280
     1
281
     1
  3
ACAD_LAYERSTATES
360
830
  0
DICTIONARY
  5
9F4
330
36
100
AcDbDictionary
280
     1
281
     1
  3
ACAD_SORTENTS
360
9F5
  0
DICTIONARY
  5
2F
102
{ACAD_REACTORS
330
C
102
}
330
C
100
AcDbDictionary
281
     1
  0
DICTIONARY
  5
D
102
{ACAD_REACTORS
330
C
102
}
330
C
100
AcDbDictionary
281
     1
  0
DICTIONARY
  5
2E
102
{ACAD_REACTORS
330
C
102
}
330
C
100
AcDbDictionary
281
     1
  3
Model
350
39
  3
レイアウト1
350
35
  0
DICTIONARY
  5
10
102
{ACAD_REACTORS
330
C
102
}
330
C
100
AcDbDictionary
281
     1
  3
ByBlock
350
12
  3
ByLayer
350
11
  3
Global
350
13
  0
DICTIONARY
  5
2B
102
{ACAD_REACTORS
330
C
102
}
330
C
100
AcDbDictionary
281
     1
  3
Standard
350
2C
  0
DICTIONARY
  5
2D
102
{ACAD_REACTORS
330
C
102
}
330
C
100
AcDbDictionary
281
     1
  0
ACDBDICTIONARYWDFLT
  5
E
102
{ACAD_REACTORS
330
C
102
}
330
C
100
AcDbDictionary
281
     1
  3
Normal
350
F
100
AcDbDictionaryWithDefault
340
F
  0
DICTIONARY
  5
30
102
{ACAD_REACTORS
330
C
102
}
330
C
100
AcDbDictionary
281
     1
  3
Standard
350
31
  0
DICTIONARY
  5
14
102
{ACAD_REACTORS
330
C
102
}
330
C
100
AcDbDictionary
281
     1
  3
2dWireframe
350
1A
  3
3D Hidden
350
1C
  3
3dWireframe
350
1B
  3
Basic
350
19
  3
Brighten
350
20
  3
ColorChange
350
24
  3
Conceptual
350
1D
  3
Dim
350
1F
  3
Facepattern
350
23
  3
Flat
350
15
  3
FlatWithEdges
350
16
  3
Gouraud
350
17
  3
GouraudWithEdges
350
18
  3
Linepattern
350
22
  3
Realistic
350
1E
  3
Thicken
350
21
  0
XRECORD
  5
A15
102
{ACAD_REACTORS
330
C
102
}
330
C
100
AcDbXrecord
280
     1
 90
   990106
  3

 60
     0
 61
     0
 62
     1
 63
     3
 64
     0
 65
     0
 66
     0
 67
     3
 68
     1
 69
     0
 70
     0
 71
     0
 72
     0
 40
0.0
170
     0
  0
DICTIONARY
  5
6AF
102
{ACAD_REACTORS
330
C
102
}
330
C
100
AcDbDictionary
281
     1
  3
CTABLESTYLE
350
6B0
  3
DIMASSOC
350
6B3
  3
INDEXCTL
350
6B2
  3
SORTENTS
350
6B1
  0
DICTIONARY
  5
830
102
{ACAD_REACTORS
330
82F
102
}
330
82F
100
AcDbDictionary
281
     1
  0
SORTENTSTABLE
  5
9F5
102
{ACAD_REACTORS
330
9F4
102
}
330
9F4
100
AcDbSortentsTable
330
36
331
12D1
  5
14B1
331
1310
  5
1304
331
39C
  5
4B7
331
315
  5
3B2
331
12D9
  5
149D
331
1318
  5
12E3
331
14FF
  5
1037
331
153E
  5
F7A
331
609
  5
EAF
331
4B2
  5
E72
331
3A4
  5
4BF
331
31D
  5
3BE
331
12E1
  5
13BE
331
1320
  5
12EB
331
1507
  5
102A
331
4BA
  5
E7B
331
413
  5
659
331
3AC
  5
4E6
331
325
  5
3EE
331
12E9
  5
13C6
331
150F
  5
100E
331
1483
  5
F29
331
14C2
  5
325
331
621
  5
EB4
331
41B
  5
88E
331
32D
  5
415
331
1517
  5
1003
331
148B
  5
F10
331
14CA
  5
30C
331
11B1
  5
153B
331
141B
  5
106D
331
145A
  5
FFB
331
1493
  5
EB2
331
14D2
  5
314
331
1423
  5
1075
331
1462
  5
FED
331
149B
  5
A0F
331
1190
  5
151A
331
1151
  5
14DB
331
110A
  5
14A8
331
10CB
  5
1465
331
142B
  5
107D
331
1010
  5
13A4
331
FD1
  5
136D
331
F82
  5
133E
331
F2B
  5
1317
331
1345
  5
12CF
331
EB4
  5
1196
331
1384
  5
1182
331
1198
  5
1522
331
13AF
  5
10FF
331
13EE
  5
10A0
331
1159
  5
14E3
331
1112
  5
14B0
331
10D3
  5
146D
331
1433
  5
1085
331
A0D
  5
F6F
331
1096
  5
1430
331
1057
  5
13F1
331
1018
  5
13CC
331
FD9
  5
1375
331
F8A
  5
1346
331
F33
  5
131F
331
EBC
  5
119E
331
138C
  5
118A
331
134D
  5
114B
331
11A0
  5
152A
331
13B7
  5
1108
331
13F6
  5
10A8
331
1161
  5
14EB
331
111A
  5
14BB
331
10DB
  5
1475
331
109E
  5
1438
331
105F
  5
13F9
331
F92
  5
134B
331
1355
  5
1153
331
1394
  5
10E1
331
1169
  5
14F3
331
13BF
  5
1110
331
13FE
  5
10B0
331
10E3
  5
147D
331
10A6
  5
1440
331
1067
  5
1401
331
FE9
  5
1383
331
135D
  5
115B
331
13C7
  5
1121
331
E75
  5
10C2
331
106F
  5
1409
331
12F1
  5
13AC
331
14D8
  5
2FB
331
423
  5
8B4
331
3B4
  5
5F7
331
335
  5
41D
331
2F6
  5
391
331
18F
  5
2F8
331
151F
  5
FEE
331
12F9
  5
13B4
331
14E0
  5
303
331
639
  5
EB8
331
4E2
  5
E83
331
3BC
  5
60A
331
2FE
  5
399
331
1527
  5
FDE
331
1301
  5
13BC
331
14E8
  5
18D
331
641
  5
EBD
331
4EA
  5
E8B
331
3C4
  5
639
331
38D
  5
424
331
306
  5
3A1
331
1309
  5
12FD
331
14F0
  5
105B
331
152F
  5
FB5
331
14A3
  5
A02
331
12CA
  5
14CE
331
649
  5
F0C
331
395
  5
464
331
30E
  5
3A9
331
1537
  5
F99
331
14AB
  5
333
331
1474
  5
F9F
331
14B3
  5
33B
331
1404
  5
10B6
331
14BB
  5
31E
331
11A8
  5
1532
331
1171
  5
14FB
331
1122
  5
14C1
331
10EB
  5
1485
331
10AC
  5
1446
331
140C
  5
10BE
331
144B
  5
1012
331
1030
  5
13D5
331
F9A
  5
1350
331
F0C
  5
12D7
331
1365
  5
1163
331
1179
  5
1503
331
13CF
  5
112F
331
E7D
  5
10CA
331
10F3
  5
148D
331
10B4
  5
144E
331
1414
  5
1066
331
1453
  5
1006
331
1077
  5
1411
331
1038
  5
13DD
331
FF9
  5
138D
331
FA2
  5
1358
331
F6B
  5
1329
331
F14
  5
12DF
331
136D
  5
116B
331
132E
  5
11A8
331
E85
  5
10D2
331
1181
  5
150B
331
1398
  5
10E5
331
13D7
  5
1089
331
1132
  5
14D0
331
10FB
  5
1497
331
10BC
  5
1456
331
8B6
  5
F32
331
107F
  5
1419
331
1040
  5
13E5
331
1001
  5
1395
331
FAA
  5
1360
331
F73
  5
132F
331
F1C
  5
12F6
331
1375
  5
1173
331
1336
  5
11B0
331
E8D
  5
10DA
331
1189
  5
1513
331
13A0
  5
10ED
331
13DF
  5
1091
331
114A
  5
14D4
331
1103
  5
14A1
331
10C4
  5
145E
331
9FE
  5
F5F
331
1087
  5
1421
331
1048
  5
13ED
331
1009
  5
139D
331
FB2
  5
1368
331
F7B
  5
1337
331
F24
  5
1310
331
133E
  5
12C8
331
EAD
  5
118F
331
137D
  5
117B
331
13E7
  5
1099
331
108F
  5
1429
331
1311
  5
1305
331
14F8
  5
1044
331
12D2
  5
14B2
331
651
  5
F11
331
463
  5
E6C
331
39D
  5
4B8
331
316
  5
3B3
331
1319
  5
12E4
331
1500
  5
1034
331
153F
  5
F7B
331
12DA
  5
149E
331
659
  5
F16
331
60A
  5
EB0
331
4B3
  5
E75
331
3A5
  5
4C0
331
31E
  5
3BF
331
1321
  5
12EC
331
1508
  5
102B
331
12E2
  5
13BF
331
889
  5
F1E
331
4BB
  5
E7C
331
414
  5
65A
331
3AD
  5
4E7
331
326
  5
40E
331
12EA
  5
13C7
331
1510
  5
100F
331
1484
  5
F1A
331
14C3
  5
326
331
622
  5
EB5
331
41C
  5
88F
331
32E
  5
416
331
148C
  5
EC1
331
14CB
  5
30D
331
141C
  5
106E
331
145B
  5
FFC
331
1494
  5
E8D
331
14D3
  5
315
331
1424
  5
1076
331
149C
  5
A10
331
1191
  5
151B
331
13A8
  5
10F5
331
1152
  5
14DC
331
110B
  5
14A9
331
10CC
  5
1466
331
142C
  5
107E
331
1011
  5
13A5
331
FD2
  5
136E
331
F83
  5
133F
331
F2C
  5
1318
331
1346
  5
12D0
331
EB5
  5
1197
331
1385
  5
1183
331
1199
  5
1523
331
13B0
  5
1101
331
13EF
  5
10A1
331
115A
  5
14E4
331
10D4
  5
146E
331
1434
  5
1045
331
A0E
  5
F70
331
1097
  5
1431
331
1058
  5
13F2
331
1019
  5
13CD
331
FDA
  5
1376
331
F8B
  5
1347
331
F34
  5
1320
331
EBD
  5
119F
331
138D
  5
118B
331
134E
  5
114C
331
11A1
  5
152B
331
13B8
  5
1109
331
13F7
  5
10A9
331
1162
  5
14EC
331
111B
  5
14BC
331
10DC
  5
1476
331
109F
  5
1439
331
1060
  5
13FA
331
1029
  5
13CE
331
F93
  5
134C
331
1356
  5
1154
331
1395
  5
10E2
331
116A
  5
14F4
331
13C0
  5
1111
331
13FF
  5
10B1
331
10E4
  5
147E
331
10A7
  5
1441
331
1068
  5
1402
331
FEA
  5
1384
331
135E
  5
115C
331
E76
  5
10C3
331
1518
  5
FFE
331
12F2
  5
13AD
331
14D9
  5
2FC
331
424
  5
8B5
331
3B5
  5
5F8
331
336
  5
41E
331
2F7
  5
392
331
190
  5
2F9
331
1520
  5
FF5
331
12FA
  5
13B5
331
14E1
  5
304
331
63A
  5
EB9
331
4E3
  5
E84
331
3BD
  5
620
331
2FF
  5
39A
331
1528
  5
FDF
331
1302
  5
13BD
331
14E9
  5
18E
331
642
  5
EBE
331
4EB
  5
E8C
331
3C5
  5
63A
331
38E
  5
425
331
307
  5
3A2
331
130A
  5
12FE
331
14F1
  5
1058
331
1530
  5
FAC
331
14A4
  5
A03
331
12CB
  5
14C8
331
64A
  5
F0D
331
396
  5
465
331
30F
  5
3AB
331
12C5
  5
153C
331
14AC
  5
334
331
143C
  5
1038
331
14B4
  5
38D
331
1405
  5
10B7
331
1444
  5
102E
331
14BC
  5
31F
331
11A9
  5
1533
331
13C8
  5
1122
331
1172
  5
14FC
331
10EC
  5
1486
331
10AD
  5
1447
331
140D
  5
10BF
331
144C
  5
1013
331
1070
  5
140A
331
1031
  5
13D6
331
F9B
  5
1351
331
F0D
  5
12D8
331
1366
  5
1164
331
117A
  5
1504
331
13D0
  5
1131
331
E7E
  5
10CB
331
112B
  5
14C7
331
10F4
  5
148E
331
10B5
  5
144F
331
1415
  5
1067
331
1454
  5
1007
331
1078
  5
1412
331
1039
  5
13DE
331
FFA
  5
138E
331
FA3
  5
1359
331
F15
  5
12E0
331
136E
  5
116C
331
132F
  5
11A9
331
E86
  5
10D3
331
1182
  5
150C
331
1399
  5
10E6
331
13D8
  5
108A
331
1133
  5
14D1
331
10FC
  5
1498
331
10BD
  5
1457
331
1080
  5
141A
331
1041
  5
13E6
331
1002
  5
1396
331
FAB
  5
1361
331
F74
  5
1330
331
F1D
  5
12F7
331
1376
  5
1174
331
1337
  5
11B1
331
E8E
  5
10DB
331
118A
  5
1514
331
13A1
  5
10EE
331
13E0
  5
1092
331
114B
  5
14D5
331
1104
  5
14A2
331
10C5
  5
145F
331
1088
  5
1422
331
100A
  5
139E
331
FB3
  5
1369
331
F7C
  5
1338
331
F25
  5
1311
331
133F
  5
12C9
331
EAE
  5
1190
331
137E
  5
117C
331
1312
  5
1306
331
14F9
  5
1040
331
1538
  5
F8D
331
12D3
  5
14B3
331
652
  5
F12
331
464
  5
E6D
331
3ED
  5
643
331
39E
  5
4B9
331
317
  5
3B4
331
131A
  5
12E5
331
1501
  5
1035
331
1540
  5
F77
331
12DB
  5
1499
331
65A
  5
F17
331
4B4
  5
E76
331
3A6
  5
4E1
331
31F
  5
3C4
331
2E0
  5
32D
331
F9
  5
F9
331
1322
  5
12ED
331
1509
  5
102C
331
12E3
  5
13C0
331
88A
  5
F20
331
4BC
  5
E7D
331
415
  5
65B
331
327
  5
40F
331
12EB
  5
13C8
331
1511
  5
100A
331
1485
  5
F1B
331
14C4
  5
327
331
41D
  5
891
331
32F
  5
417
331
148D
  5
F0B
331
14CC
  5
30E
331
141D
  5
106F
331
145C
  5
FFD
331
1495
  5
E8E
331
14D4
  5
316
331
1425
  5
1077
331
149D
  5
A11
331
1192
  5
151C
331
13A9
  5
10F6
331
13E8
  5
109A
331
1153
  5
14DD
331
110C
  5
14AA
331
10CD
  5
1467
331
142D
  5
107F
331
146C
  5
FAD
331
1090
  5
142A
331
1012
  5
13A6
331
FD3
  5
136F
331
F84
  5
1340
331
F2D
  5
1319
331
1347
  5
12D1
331
EB6
  5
1198
331
1386
  5
1184
331
119A
  5
1524
331
13B1
  5
1102
331
13F0
  5
10A2
331
115B
  5
14E5
331
10D5
  5
146F
331
1435
  5
1046
331
A0F
  5
F71
331
1098
  5
1432
331
1059
  5
13F3
331
FDB
  5
1377
331
F8C
  5
1348
331
EBE
  5
11A0
331
138E
  5
118C
331
134F
  5
114D
331
11A2
  5
152C
331
13B9
  5
110A
331
13F8
  5
10AA
331
1163
  5
14ED
331
10DD
  5
1477
331
10A0
  5
143A
331
1061
  5
13FB
331
102A
  5
13CF
331
FE3
  5
137C
331
1357
  5
1155
331
1396
  5
10E3
331
116B
  5
14F5
331
13C1
  5
1112
331
10E5
  5
147F
331
1069
  5
1403
331
FEB
  5
1385
331
135F
  5
115D
331
E77
  5
10C4
331
1519
  5
FFF
331
12F3
  5
13AE
331
14DA
  5
2FD
331
425
  5
8B6
331
3B6
  5
608
331
337
  5
41F
331
2F8
  5
393
331
191
  5
2FA
331
1521
  5
FF6
331
12FB
  5
13B6
331
14E2
  5
305
331
63B
  5
EBA
331
4E4
  5
E85
331
3BE
  5
621
331
300
  5
39B
331
1529
  5
FD6
331
1303
  5
137E
331
14EA
  5
18F
331
643
  5
EBF
331
38F
  5
426
331
308
  5
3A3
331
130B
  5
12FF
331
14F2
  5
1059
331
1531
  5
FA6
331
14A5
  5
A04
331
12CC
  5
14C9
331
64B
  5
F0E
331
397
  5
466
331
12C6
  5
153D
331
14AD
  5
335
331
143D
  5
1039
331
14B5
  5
38E
331
1406
  5
10B8
331
1445
  5
102F
331
14BD
  5
320
331
11AA
  5
1534
331
13C9
  5
1124
331
1173
  5
14FD
331
1124
  5
14C4
331
10ED
  5
1487
331
10AE
  5
1448
331
140E
  5
10C0
331
144D
  5
1016
331
1071
  5
140B
331
1032
  5
13D7
331
F9C
  5
1352
331
F0E
  5
12D9
331
1367
  5
1165
331
1328
  5
11A2
331
E7F
  5
10CC
331
117B
  5
1505
331
13D1
  5
1132
331
10F5
  5
148F
331
10B6
  5
1450
331
1416
  5
1068
331
1455
  5
1008
331
1079
  5
1413
331
103A
  5
13DF
331
FFB
  5
138F
331
FA4
  5
135A
331
F16
  5
12E1
331
136F
  5
116D
331
1330
  5
11AA
331
E87
  5
10D4
331
1183
  5
150D
331
139A
  5
10E7
331
13D9
  5
108B
331
10BE
  5
1458
331
1081
  5
141B
331
1042
  5
13E7
331
1003
  5
1397
331
FAC
  5
1362
331
F75
  5
1331
331
F1E
  5
12F8
331
1338
  5
12AA
331
1377
  5
1175
331
118B
  5
1515
331
13A2
  5
10EF
331
13E1
  5
1093
331
114C
  5
14D6
331
1105
  5
14A3
331
10C6
  5
1460
331
A00
  5
F61
331
1089
  5
1423
331
100B
  5
139F
331
FB4
  5
136A
331
F7D
  5
1339
331
F26
  5
1312
331
EAF
  5
1191
331
137F
  5
117D
331
310
  5
3AC
331
1313
  5
1307
331
14FA
  5
1041
331
1539
  5
F97
331
12D4
  5
14B4
331
653
  5
F13
331
465
  5
E6E
331
3EE
  5
649
331
39F
  5
4BA
331
12AA
  5
1540
331
318
  5
3B5
331
131B
  5
12E6
331
1502
  5
1036
331
1541
  5
F78
331
12DC
  5
149A
331
65B
  5
F19
331
40E
  5
64A
331
3A7
  5
4E2
331
320
  5
3C5
331
FA
  5
FA
331
1323
  5
12EE
331
150A
  5
1018
331
12E4
  5
13C1
331
88B
  5
F21
331
4BD
  5
E7E
331
416
  5
889
331
3AF
  5
4E8
331
328
  5
410
331
12EC
  5
13C9
331
1512
  5
100B
331
1486
  5
F1C
331
14C5
  5
328
331
41E
  5
893
331
148E
  5
EBB
331
14CD
  5
30F
331
141E
  5
1070
331
1496
  5
A05
331
14D5
  5
317
331
1426
  5
1078
331
149E
  5
A12
331
1340
  5
12CA
331
1193
  5
151D
331
13AA
  5
10F7
331
13E9
  5
109B
331
1154
  5
14DE
331
110D
  5
14AB
331
10CE
  5
1468
331
142E
  5
1080
331
146D
  5
FAE
331
1091
  5
142B
331
1013
  5
13A7
331
FD4
  5
1370
331
F85
  5
1341
331
F2E
  5
131A
331
1348
  5
12D2
331
EB7
  5
1199
331
1387
  5
1185
331
119B
  5
1525
331
13B2
  5
1103
331
13F1
  5
10A3
331
115C
  5
14E6
331
10D6
  5
1470
331
1436
  5
1047
331
A10
  5
F72
331
1099
  5
1433
331
105A
  5
13F4
331
FDC
  5
1378
331
F8D
  5
1349
331
EBF
  5
11A1
331
138F
  5
10DC
331
1350
  5
114E
331
11A3
  5
152D
331
13BA
  5
110B
331
13F9
  5
10AB
331
1164
  5
14EE
331
10DE
  5
1478
331
10A1
  5
143B
331
1062
  5
13FC
331
102B
  5
13D0
331
FE4
  5
137D
331
1358
  5
1156
331
1397
  5
10E4
331
116C
  5
14F6
331
13C2
  5
1118
331
10E6
  5
1480
331
106A
  5
1404
331
FEC
  5
1386
331
330
  5
418
331
151A
  5
1000
331
12F4
  5
13AF
331
14DB
  5
2FE
331
426
  5
9FA
331
338
  5
420
331
2F9
  5
394
331
1522
  5
FEA
331
12FC
  5
13B7
331
14E3
  5
306
331
4E5
  5
E86
331
3BF
  5
622
331
301
  5
39C
331
152A
  5
FD3
331
1304
  5
137F
331
14EB
  5
190
331
390
  5
427
331
309
  5
3A4
331
12CD
  5
14C2
331
130C
  5
1300
331
14F3
  5
105A
331
1532
  5
FA7
331
14A6
  5
32E
331
3E7
  5
63B
331
12C7
  5
153E
331
14AE
  5
336
331
143E
  5
103A
331
14B6
  5
38F
331
1407
  5
10B9
331
1446
  5
1030
331
E6B
  5
105C
331
14BE
  5
321
331
1360
  5
115E
331
E78
  5
10C5
331
11AB
  5
1535
331
13CA
  5
1125
331
1174
  5
14FE
331
1125
  5
14C5
331
10EE
  5
1488
331
10AF
  5
1449
331
140F
  5
10C1
331
144E
  5
1017
331
891
  5
F2A
331
1072
  5
140C
331
1033
  5
13D8
331
F9D
  5
1353
331
F0F
  5
12DA
331
1368
  5
1166
331
1329
  5
11A3
331
E80
  5
10CD
331
117C
  5
1506
331
13D2
  5
1133
331
112D
  5
14CA
331
10F6
  5
1490
331
10B7
  5
1451
331
1417
  5
1069
331
1456
  5
1009
331
8B1
  5
F2D
331
107A
  5
1414
331
103B
  5
13E0
331
FFC
  5
1390
331
FA5
  5
135B
331
F6E
  5
132A
331
F17
  5
12E2
331
1370
  5
116E
331
1331
  5
11AB
331
E88
  5
10D5
331
1184
  5
150E
331
139B
  5
10E8
331
13DA
  5
108C
331
10FE
  5
149B
331
10BF
  5
1459
331
1082
  5
141C
331
1043
  5
13E8
331
1004
  5
1398
331
FAD
  5
1363
331
F76
  5
1332
331
1339
  5
12B7
331
1378
  5
1176
331
118C
  5
1516
331
13A3
  5
10F0
331
13E2
  5
1094
331
114D
  5
14D7
331
1106
  5
14A4
331
10C7
  5
1461
331
A01
  5
F52
331
108A
  5
1424
331
100C
  5
13A0
331
FB5
  5
136B
331
F7E
  5
133A
331
F27
  5
1313
331
398
  5
4B2
331
311
  5
3AD
331
12D5
  5
14B5
331
1314
  5
1308
331
14FB
  5
1042
331
153A
  5
F98
331
466
  5
E6F
331
3A0
  5
4BB
331
319
  5
3B6
331
212
  5
32A
331
12DD
  5
1495
331
131C
  5
12E7
331
1503
  5
1031
331
1542
  5
F79
331
4B6
  5
E77
331
40F
  5
64B
331
3A8
  5
4E3
331
321
  5
3E7
331
1324
  5
12EF
331
150B
  5
1019
331
12E5
  5
13C2
331
88C
  5
F22
331
4BE
  5
E7F
331
417
  5
88A
331
329
  5
411
331
12ED
  5
13A8
331
1513
  5
100C
331
1487
  5
F1D
331
14C6
  5
329
331
41F
  5
894
331
148F
  5
EBC
331
14CE
  5
310
331
141F
  5
1071
331
1497
  5
A0A
331
14D6
  5
318
331
1427
  5
1079
331
1466
  5
FD7
331
149F
  5
A6B
331
1341
  5
12CB
331
EB0
  5
1192
331
1380
  5
117E
331
1194
  5
151E
331
13AB
  5
10F9
331
13EA
  5
109C
331
1155
  5
14DF
331
110E
  5
14AC
331
10CF
  5
1469
331
142F
  5
1081
331
146E
  5
FAF
331
1092
  5
142C
331
FD5
  5
1371
331
F86
  5
1342
331
F2F
  5
131B
331
1349
  5
12D3
331
EB8
  5
119A
331
1388
  5
1186
331
119C
  5
1526
331
13B3
  5
1104
331
13F2
  5
10A4
331
115D
  5
14E7
331
10D7
  5
1471
331
1437
  5
1048
331
A11
  5
F73
331
109A
  5
1434
331
105B
  5
13F5
331
FDD
  5
1379
331
F8E
  5
134A
331
1351
  5
114F
331
1390
  5
10DD
331
11A4
  5
152E
331
13BB
  5
110C
331
13FA
  5
10AC
331
1165
  5
14EF
331
10DF
  5
1479
331
10A2
  5
143C
331
1063
  5
13FD
331
102C
  5
13D1
331
1359
  5
1157
331
116D
  5
14F7
331
13C3
  5
1119
331
10E7
  5
1481
331
106B
  5
1405
331
FED
  5
1387
331
F5F
  5
1322
331
3B0
  5
4E9
331
331
  5
419
331
18B
  5
2E0
331
151B
  5
FFA
331
12F5
  5
13B0
331
14DC
  5
2FF
331
427
  5
9FC
331
339
  5
421
331
2FA
  5
395
331
1523
  5
FE7
331
12FD
  5
13B8
331
14E4
  5
307
331
4E6
  5
E87
331
302
  5
39D
331
12B8
  5
1542
331
152B
  5
FD4
331
1305
  5
12F9
331
14EC
  5
191
331
391
  5
438
331
30A
  5
3A5
331
12CE
  5
14C3
331
130D
  5
1301
331
14F4
  5
1055
331
1533
  5
FAB
331
14A7
  5
32F
331
5F6
  5
EAB
331
14AF
  5
337
331
1400
  5
10B2
331
143F
  5
103B
331
1478
  5
F81
331
14B7
  5
31A
331
10A8
  5
1442
331
1408
  5
10BA
331
E6C
  5
105D
331
14BF
  5
322
331
1361
  5
115F
331
11AC
  5
1536
331
13CB
  5
1126
331
E79
  5
10C6
331
1175
  5
14FF
331
1126
  5
14C6
331
10EF
  5
1489
331
10B0
  5
144A
331
1410
  5
1062
331
1073
  5
140D
331
1034
  5
13D9
331
FF5
  5
1389
331
F9E
  5
1354
331
F10
  5
12DB
331
1369
  5
1167
331
132A
  5
11A4
331
E81
  5
10CE
331
117D
  5
1507
331
13D3
  5
1148
331
112E
  5
14CB
331
10F7
  5
1491
331
10B8
  5
1452
331
8B2
  5
F2E
331
107B
  5
1415
331
103C
  5
13E1
331
FFD
  5
1391
331
FA6
  5
135C
331
F6F
  5
132B
331
1371
  5
116F
331
1332
  5
11AC
331
E89
  5
10D6
331
1185
  5
150F
331
139C
  5
10E9
331
13DB
  5
108D
331
10FF
  5
149C
331
10C0
  5
145A
331
9FA
  5
F33
331
1083
  5
141D
331
1044
  5
13E9
331
1005
  5
1399
331
FAE
  5
1364
331
F77
  5
1333
331
F20
  5
130C
331
133A
  5
12B8
331
1379
  5
1177
331
118D
  5
1517
331
13A4
  5
10F1
331
13E3
  5
1095
331
114E
  5
14D8
331
1107
  5
14A5
331
A02
  5
F62
331
108B
  5
1425
331
100D
  5
13A1
331
F7F
  5
133B
331
3E8
  5
641
331
399
  5
4B3
331
312
  5
3AF
331
12D6
  5
14B6
331
1315
  5
1309
331
14FC
  5
103D
331
153B
  5
F87
331
3A1
  5
4BC
331
31A
  5
3BB
331
213
  5
32B
331
12DE
  5
1496
331
131D
  5
12E8
331
1504
  5
1032
331
4B7
  5
E78
331
410
  5
651
331
3A9
  5
4E4
331
322
  5
3E8
331
1325
  5
12F0
331
150C
  5
1029
331
1480
  5
F26
331
12E6
  5
13C3
331
88D
  5
F23
331
4BF
  5
E80
331
418
  5
88B
331
32A
  5
412
331
17C
  5
17C
331
12EE
  5
13A9
331
1514
  5
1004
331
1488
  5
F14
331
14C7
  5
309
331
1418
  5
106A
331
1490
  5
EB6
331
14CF
  5
311
331
1420
  5
1072
331
1498
  5
A0B
331
14D7
  5
319
331
10C8
  5
1462
331
1428
  5
107A
331
1467
  5
FDB
331
F28
  5
1314
331
1342
  5
12CC
331
EB1
  5
1193
331
1381
  5
117F
331
1195
  5
151F
331
13AC
  5
10FB
331
13EB
  5
109D
331
1156
  5
14E0
331
110F
  5
14AD
331
10D0
  5
146A
331
1430
  5
1082
331
A0A
  5
F6B
331
1093
  5
142D
331
1054
  5
13EE
331
FD6
  5
1372
331
F87
  5
1343
331
F30
  5
131C
331
134A
  5
12D4
331
EB9
  5
119B
331
1389
  5
1187
331
119D
  5
1527
331
13B4
  5
1105
331
13F3
  5
10A5
331
115E
  5
14E8
331
10D8
  5
1472
331
A12
  5
F74
331
109B
  5
1435
331
105C
  5
13F6
331
FDE
  5
137A
331
EC1
  5
12D5
331
1391
  5
10DE
331
1352
  5
1150
331
11A5
  5
152F
331
13BC
  5
110D
331
13FB
  5
10AD
331
1166
  5
14F0
331
10E0
  5
147A
331
10A3
  5
143D
331
1064
  5
13FE
331
102D
  5
13D2
331
FE6
  5
1380
331
F97
  5
134D
331
135A
  5
1158
331
116E
  5
14F8
331
13C4
  5
111A
331
E72
  5
1061
331
106C
  5
1406
331
FEE
  5
1388
331
420
  5
8B1
331
3B1
  5
4EA
331
332
  5
41A
331
18C
  5
2F5
331
151C
  5
FF7
331
12F6
  5
13B1
331
14DD
  5
300
331
438
  5
9FD
331
33A
  5
422
331
2FB
  5
396
331
1524
  5
FE8
331
12FE
  5
13B9
331
14E5
  5
308
331
4E7
  5
E88
331
303
  5
39E
331
152C
  5
FD5
331
14A0
  5
A6C
331
1306
  5
12FA
331
14ED
  5
212
331
392
  5
439
331
30B
  5
3A6
331
12CF
  5
14BD
331
130E
  5
1302
331
14F5
  5
1056
331
1534
  5
FA3
331
14A8
  5
330
331
5F7
  5
EAC
331
1438
  5
1054
331
14B0
  5
338
331
1401
  5
10B3
331
1440
  5
103C
331
1479
  5
F85
331
14B8
  5
31B
331
10E8
  5
1482
331
10A9
  5
1443
331
1409
  5
10BB
331
E6D
  5
105E
331
F60
  5
1323
331
1362
  5
1160
331
E7A
  5
10C7
331
11AD
  5
1537
331
13CC
  5
112B
331
1176
  5
1500
331
10F0
  5
148A
331
10B1
  5
144B
331
1411
  5
1063
331
893
  5
F2B
331
1074
  5
140E
331
1035
  5
13DA
331
FF6
  5
138A
331
F9F
  5
1355
331
F68
  5
1326
331
F11
  5
12DC
331
136A
  5
1168
331
132B
  5
11A5
331
E82
  5
10CF
331
117E
  5
1508
331
13D4
  5
1086
331
112F
  5
14CC
331
10B9
  5
1453
331
8B3
  5
F2F
331
107C
  5
1416
331
103D
  5
13E2
331
FFE
  5
1392
331
FA7
  5
135D
331
F70
  5
132C
331
F19
  5
12F3
331
1372
  5
1170
331
1333
  5
11AD
331
E8A
  5
10D7
331
1186
  5
1510
331
139D
  5
10EA
331
13DC
  5
108E
331
10C1
  5
145B
331
9FB
  5
F34
331
1084
  5
141E
331
1045
  5
13EA
331
1006
  5
139A
331
FAF
  5
1365
331
F78
  5
1334
331
F21
  5
130D
331
133B
  5
12C5
331
137A
  5
1178
331
118E
  5
1518
331
13A5
  5
10F2
331
13E4
  5
1096
331
114F
  5
14D9
331
A03
  5
F68
331
108C
  5
1426
331
100E
  5
13A2
331
3E9
  5
642
331
39A
  5
4B4
331
313
  5
3B0
331
12D7
  5
14B7
331
1316
  5
130A
331
14FD
  5
103E
331
153C
  5
F8B
331
3A2
  5
4BD
331
31B
  5
3BC
331
214
  5
32C
331
12DF
  5
1492
331
131E
  5
12E9
331
1505
  5
1033
331
4B8
  5
E79
331
411
  5
652
331
323
  5
3E9
331
1326
  5
12F1
331
150D
  5
1010
331
1481
  5
F27
331
14C0
  5
323
331
12E7
  5
13C4
331
88E
  5
F24
331
419
  5
88C
331
32B
  5
413
331
17D
  5
17D
331
12EF
  5
13AA
331
1515
  5
1001
331
1489
  5
F15
331
14C8
  5
30A
331
1419
  5
106B
331
1491
  5
EB7
331
14D0
  5
312
331
1421
  5
1073
331
1460
  5
FEB
331
1499
  5
A0D
331
1108
  5
14A6
331
10C9
  5
1463
331
1429
  5
107B
331
1468
  5
FDC
331
F80
  5
133C
331
F29
  5
1315
331
1343
  5
12CD
331
EB2
  5
1194
331
1382
  5
1180
331
1196
  5
1520
331
13AD
  5
10FC
331
13EC
  5
109E
331
1157
  5
14E1
331
1110
  5
14AE
331
10D1
  5
146B
331
1431
  5
1083
331
A0B
  5
F6E
331
1094
  5
142E
331
1055
  5
13EF
331
1016
  5
13CA
331
FD7
  5
1373
331
F88
  5
1344
331
F31
  5
131D
331
EBA
  5
119C
331
138A
  5
1188
331
134B
  5
1149
331
119E
  5
1528
331
13B5
  5
1106
331
13F4
  5
10A6
331
115F
  5
14E9
331
1118
  5
14B9
331
10D9
  5
1473
331
109C
  5
1436
331
105D
  5
13F7
331
FDF
  5
137B
331
1353
  5
1151
331
1392
  5
10DF
331
11A6
  5
1530
331
13BD
  5
110E
331
13FC
  5
10AE
331
A6B
  5
F7F
331
1167
  5
14F1
331
10E1
  5
147B
331
10A4
  5
143E
331
1065
  5
13FF
331
102E
  5
13D3
331
FE7
  5
1381
331
135B
  5
1159
331
116F
  5
14F9
331
13C5
  5
111B
331
106D
  5
1407
331
4C0
  5
E81
331
421
  5
8B2
331
3B2
  5
4EB
331
333
  5
41B
331
18D
  5
2F6
331
151D
  5
FF8
331
12F7
  5
13B2
331
14DE
  5
301
331
439
  5
9FE
331
33B
  5
423
331
2FC
  5
397
331
1525
  5
FE9
331
12FF
  5
13BA
331
14E6
  5
18B
331
4E8
  5
E89
331
304
  5
39F
331
152D
  5
FB3
331
14A1
  5
E6B
331
12C8
  5
153F
331
1307
  5
12FB
331
14EE
  5
213
331
393
  5
43A
331
30C
  5
3A7
331
130F
  5
1303
331
14F6
  5
1057
331
1535
  5
FA4
331
14A9
  5
331
331
1472
  5
F9D
331
14B1
  5
339
331
1402
  5
10B4
331
147A
  5
F86
331
14B9
  5
31C
331
1120
  5
14BF
331
10E9
  5
1483
331
10AA
  5
1444
331
140A
  5
10BC
331
E6E
  5
105F
331
F98
  5
134E
331
F61
  5
1324
331
1363
  5
1161
331
E7B
  5
10C8
331
11AE
  5
1538
331
13CD
  5
112D
331
1177
  5
1501
331
10F1
  5
148B
331
10B2
  5
144C
331
1412
  5
1064
331
894
  5
F2C
331
1075
  5
140F
331
1036
  5
13DB
331
FF7
  5
138B
331
FA0
  5
1356
331
F69
  5
1327
331
F12
  5
12DD
331
136B
  5
1169
331
132C
  5
11A6
331
E83
  5
10D0
331
117F
  5
1509
331
13D5
  5
1087
331
10F9
  5
1494
331
10BA
  5
1454
331
8B4
  5
F30
331
107D
  5
1417
331
103E
  5
13E3
331
FFF
  5
1393
331
FA8
  5
135E
331
F71
  5
132D
331
F1A
  5
12F4
331
1373
  5
1171
331
1334
  5
11AE
331
E8B
  5
10D8
331
1187
  5
1511
331
139E
  5
10EB
331
13DD
  5
108F
331
1148
  5
14D2
331
1101
  5
149F
331
10C2
  5
145C
331
9FC
  5
F60
331
1085
  5
141F
331
1046
  5
13EB
331
1007
  5
139B
331
FB0
  5
1366
331
F79
  5
1335
331
F22
  5
130E
331
133C
  5
12C6
331
EAB
  5
118D
331
137B
  5
1179
331
118F
  5
1519
331
13A6
  5
10F3
331
13E5
  5
1097
331
A04
  5
F69
331
108D
  5
1427
331
100F
  5
13A3
331
12D0
  5
14BE
331
5F8
  5
EAD
331
39B
  5
4B6
331
314
  5
3B1
331
12D8
  5
14B8
331
1317
  5
130B
331
14FE
  5
103F
331
153D
  5
F8C
331
608
  5
EAE
331
3A3
  5
4BE
331
31C
  5
3BD
331
12E0
  5
1493
331
131F
  5
12EA
331
1506
  5
102D
331
4B9
  5
E7A
331
412
  5
653
331
3AB
  5
4E5
331
324
  5
3ED
331
1327
  5
12F2
331
150E
  5
100D
331
1482
  5
F28
331
14C1
  5
324
331
12E8
  5
13C5
331
88F
  5
F25
331
620
  5
EB3
331
41A
  5
88D
331
32C
  5
414
331
1516
  5
1002
331
148A
  5
F0F
331
14C9
  5
30B
331
11B0
  5
153A
331
141A
  5
106C
331
1492
  5
EB1
331
14D1
  5
313
331
1422
  5
1074
331
1461
  5
FEC
331
149A
  5
A0E
331
1150
  5
14DA
331
1109
  5
14A7
331
10CA
  5
1464
331
142A
  5
107C
331
FD0
  5
136C
331
F81
  5
133D
331
F2A
  5
1316
331
1344
  5
12CE
331
EB3
  5
1195
331
1383
  5
1181
331
1197
  5
1521
331
13AE
  5
10FE
331
13ED
  5
109F
331
1158
  5
14E2
331
1111
  5
14AF
331
10D2
  5
146C
331
1432
  5
1084
331
1095
  5
142F
331
1056
  5
13F0
331
1017
  5
13CB
331
FD8
  5
1374
331
F89
  5
1345
331
F32
  5
131E
331
EBB
  5
119D
331
138B
  5
1189
331
134C
  5
114A
331
119F
  5
1529
331
13B6
  5
1107
331
13F5
  5
10A7
331
1160
  5
14EA
331
1119
  5
14BA
331
10DA
  5
1474
331
109D
  5
1437
331
105E
  5
13F8
331
F52
  5
1321
331
1354
  5
1152
331
1393
  5
10E0
331
11A7
  5
1531
331
13BE
  5
110F
331
13FD
  5
10AF
331
A6C
  5
F80
331
1168
  5
14F2
331
10E2
  5
147C
331
10A5
  5
143F
331
1066
  5
1400
331
102F
  5
13D4
331
FE8
  5
1382
331
135C
  5
115A
331
13C6
  5
1120
331
106E
  5
1408
331
12F0
  5
13AB
331
422
  5
8B3
331
3B3
  5
5F6
331
334
  5
41C
331
2F5
  5
390
331
18E
  5
2F7
331
151E
  5
FF9
331
12F8
  5
13B3
331
14DF
  5
302
331
4E1
  5
E82
331
43A
  5
A00
331
3BB
  5
609
331
2FD
  5
398
331
1526
  5
FDD
331
1300
  5
13BB
331
14E7
  5
18C
331
4E9
  5
E8A
331
305
  5
3A0
331
152E
  5
FB4
331
14A2
  5
A01
331
12C9
  5
14CD
331
1308
  5
12FC
331
14EF
  5
214
331
394
  5
463
331
30D
  5
3A8
331
14F7
  5
1043
331
1536
  5
FA5
331
14AA
  5
332
331
1473
  5
F9E
331
14B2
  5
33A
331
1403
  5
10B5
331
14BA
  5
31D
331
1170
  5
14FA
331
1121
  5
14C0
331
10EA
  5
1484
331
10AB
  5
1445
331
140B
  5
10BD
331
144A
  5
1011
331
E6F
  5
1060
331
F99
  5
134F
331
F62
  5
1325
331
F0B
  5
12D6
331
1364
  5
1162
331
11AF
  5
1539
331
13CE
  5
112E
331
E7C
  5
10C9
331
1178
  5
1502
331
10F2
  5
148C
331
10B3
  5
144D
331
1413
  5
1065
331
1452
  5
1005
331
1076
  5
1410
331
1037
  5
13DC
331
FF8
  5
138C
331
FA1
  5
1357
331
F6A
  5
1328
331
F13
  5
12DE
331
136C
  5
116A
331
132D
  5
11A7
331
E84
  5
10D1
331
12B7
  5
1541
331
13D6
  5
1088
331
1180
  5
150A
331
1131
  5
14CF
331
10BB
  5
1455
331
8B5
  5
F31
331
107E
  5
1418
331
103F
  5
13E4
331
1000
  5
1394
331
FA9
  5
135F
331
F72
  5
132E
331
F1B
  5
12F5
331
1374
  5
1172
331
1335
  5
11AF
331
E8C
  5
10D9
331
1188
  5
1512
331
139F
  5
10EC
331
13DE
  5
1090
331
1149
  5
14D3
331
1102
  5
14A0
331
10C3
  5
145D
331
1086
  5
1420
331
1047
  5
13EC
331
1008
  5
139C
331
FB1
  5
1367
331
F7A
  5
1336
331
F23
  5
130F
331
133D
  5
12C7
331
EAC
  5
118E
331
137C
  5
117A
331
13A7
  5
10F4
331
13E6
  5
1098
331
A05
  5
F6A
331
108E
  5
1428
  0
LAYOUT
  5
39
102
{ACAD_REACTORS
330
2E
102
}
330
2E
100
AcDbPlotSettings
  1

  2
PDF Complete
  4
A4
  6

 40
3.174999952316281
 41
3.174999952316281
 42
3.175003051757812
 43
3.17498779296875
 44
209.9733276367186
 45
297.0106506347656
 46
0.0
 47
0.0
 48
0.0
 49
0.0
140
0.0
141
0.0
142
1.0
143
37.76170977912514
 70
 11952
 72
     0
 73
     1
 74
     0
  7

 75
     0
147
0.0264818517447747
 76
     0
 77
     2
 78
   300
148
9452.843899214284
149
35056.76028391654
100
AcDbLayout
  1
Model
 70
     1
 71
     0
 10
0.0
 20
0.0
 11
12.0
 21
9.0
 12
0.0
 22
0.0
 32
0.0
 14
0.0
 24
0.0
 34
0.0
 15
0.0
 25
0.0
 35
0.0
146
0.0
 13
0.0
 23
0.0
 33
0.0
 16
1.0
 26
0.0
 36
0.0
 17
0.0
 27
1.0
 37
0.0
 76
     0
330
36
331
56
1001
ACAD_PSEXT
1000
PDF Complete
1000
PDF Complete Converter
1000
PDFC
1000
PDF Document Creator
1070
     0
  0
LAYOUT
  5
35
102
{ACAD_REACTORS
330
2E
102
}
330
2E
100
AcDbPlotSettings
  1

  2
PDF Complete
  4

  6

 40
0.0
 41
0.0
 42
0.0
 43
0.0
 44
0.0
 45
0.0
 46
0.0
 47
0.0
 48
0.0
 49
0.0
140
0.0
141
0.0
142
1.0
143
1.0
 70
   688
 72
     0
 73
     0
 74
     5
  7

 75
    16
147
1.0
 76
     0
 77
     2
 78
   300
148
0.0
149
0.0
100
AcDbLayout
  1
レイアウト1
 70
     1
 71
     1
 10
0.0
 20
0.0
 11
12.0
 21
9.0
 12
0.0
 22
0.0
 32
0.0
 14
1.000000000000000E+20
 24
1.000000000000000E+20
 34
1.000000000000000E+20
 15
-1.000000000000000E+20
 25
-1.000000000000000E+20
 35
-1.000000000000000E+20
146
0.0
 13
0.0
 23
0.0
 33
0.0
 16
1.0
 26
0.0
 36
0.0
 17
0.0
 27
1.0
 37
0.0
 76
     0
330
32
  0
MATERIAL
  5
12
102
{ACAD_XDICTIONARY
360
6CD
102
}
102
{ACAD_REACTORS
330
10
102
}
330
10
100
AcDbMaterial
  1
ByBlock
  0
MATERIAL
  5
11
102
{ACAD_XDICTIONARY
360
6CB
102
}
102
{ACAD_REACTORS
330
10
102
}
330
10
100
AcDbMaterial
  1
ByLayer
  0
MATERIAL
  5
13
102
{ACAD_XDICTIONARY
360
6CF
102
}
102
{ACAD_REACTORS
330
10
102
}
330
10
100
AcDbMaterial
  1
Global
  0
MLINESTYLE
  5
2C
102
{ACAD_REACTORS
330
2B
102
}
330
2B
100
AcDbMlineStyle
  2
STANDARD
 70
     0
  3

 62
   256
 51
90.0
 52
90.0
 71
     2
 49
0.5
 62
   256
  6
BYLAYER
 49
-0.5
 62
   256
  6
BYLAYER
  0
ACDBPLACEHOLDER
  5
F
102
{ACAD_REACTORS
330
E
102
}
330
E
  0
TABLESTYLE
  5
31
102
{ACAD_REACTORS
330
30
102
}
330
30
100
AcDbTableStyle
  3
Standard
 70
     0
 71
     0
 40
0.06
 41
0.06
280
     0
281
     0
  7
STANDARD
140
0.18
170
     2
 62
     0
 63
     7
283
     0
 90
      512
 91
        0
  1

274
    -2
284
     1
 64
     0
275
    -2
285
     1
 65
     0
276
    -2
286
     1
 66
     0
277
    -2
287
     1
 67
     0
278
    -2
288
     1
 68
     0
279
    -2
289
     1
 69
     0
  7
STANDARD
140
0.25
170
     5
 62
     0
 63
     7
283
     0
 90
      512
 91
        0
  1

274
    -2
284
     1
 64
     0
275
    -2
285
     1
 65
     0
276
    -2
286
     1
 66
     0
277
    -2
287
     1
 67
     0
278
    -2
288
     1
 68
     0
279
    -2
289
     1
 69
     0
  7
STANDARD
140
0.18
170
     5
 62
     0
 63
     7
283
     0
 90
      512
 91
        0
  1

274
    -2
284
     1
 64
     0
275
    -2
285
     1
 65
     0
276
    -2
286
     1
 66
     0
277
    -2
287
     1
 67
     0
278
    -2
288
     1
 68
     0
279
    -2
289
     1
 69
     0
  0
VISUALSTYLE
  5
1A
102
{ACAD_REACTORS
330
14
102
}
330
14
100
AcDbVisualStyle
  2
2dWireframe
 70
     4
 71
     0
 72
     2
 73
     0
 90
        0
 40
-0.6
 41
-30.0
 62
     5
 63
     7
 74
     1
 91
        4
 64
     7
 65
   257
 75
     1
175
     1
 42
1.0
 92
        0
 66
   257
 43
1.0
 76
     1
 77
     6
 78
     2
 67
     7
 79
     5
170
     0
171
     0
290
     0
174
     0
 93
        1
 44
0.0
173
     0
291
     0
 45
0.0
  0
VISUALSTYLE
  5
1C
102
{ACAD_REACTORS
330
14
102
}
330
14
100
AcDbVisualStyle
  2
3D Hidden
 70
     6
 71
     1
 72
     2
 73
     2
 90
        0
 40
-0.6
 41
-30.0
 62
     5
 63
     7
 74
     2
 91
        2
 64
     7
 65
   257
 75
     2
175
     1
 42
40.0
 92
        0
 66
   257
 43
1.0
 76
     1
 77
     6
 78
     2
 67
     7
 79
     3
170
     0
171
     0
290
     0
174
     0
 93
        1
 44
0.0
173
     0
291
     0
 45
0.0
  0
VISUALSTYLE
  5
1B
102
{ACAD_REACTORS
330
14
102
}
330
14
100
AcDbVisualStyle
  2
3dWireframe
 70
     5
 71
     0
 72
     2
 73
     0
 90
        0
 40
-0.6
 41
-30.0
 62
     5
 63
     7
 74
     1
 91
        4
 64
     7
 65
   257
 75
     1
175
     1
 42
1.0
 92
        0
 66
   257
 43
1.0
 76
     1
 77
     6
 78
     2
 67
     7
 79
     5
170
     0
171
     0
290
     0
174
     0
 93
        1
 44
0.0
173
     0
291
     0
 45
0.0
  0
VISUALSTYLE
  5
19
102
{ACAD_REACTORS
330
14
102
}
330
14
100
AcDbVisualStyle
  2
Basic
 70
     7
 71
     1
 72
     0
 73
     1
 90
        0
 40
-0.6
 41
-30.0
 62
     5
 63
     7
 74
     0
 91
        4
 64
     7
 65
   257
 75
     1
175
     1
 42
1.0
 92
        8
 66
     7
 43
1.0
 76
     1
 77
     6
 78
     2
 67
     7
 79
     5
170
     0
171
     0
290
     0
174
     0
 93
        1
 44
0.0
173
     0
291
     1
 45
0.0
  0
VISUALSTYLE
  5
20
102
{ACAD_REACTORS
330
14
102
}
330
14
100
AcDbVisualStyle
  2
Brighten
 70
    12
 71
     2
 72
     2
 73
     0
 90
        0
 40
-0.6
 41
-30.0
 62
     5
 63
     7
 74
     1
 91
        4
 64
     7
 65
   257
 75
     1
175
     1
 42
1.0
 92
        8
 66
     7
 43
1.0
 76
     1
 77
     6
 78
     2
 67
     7
 79
     5
170
     0
171
     0
290
     0
174
     0
 93
        1
 44
50.0
173
     0
291
     1
 45
0.0
  0
VISUALSTYLE
  5
24
102
{ACAD_REACTORS
330
14
102
}
330
14
100
AcDbVisualStyle
  2
ColorChange
 70
    16
 71
     2
 72
     2
 73
     3
 90
        0
 40
-0.6
 41
-30.0
 62
     5
 63
     8
 74
     1
 91
        4
 64
     7
 65
   257
 75
     1
175
     1
 42
1.0
 92
        8
 66
     8
 43
1.0
 76
     1
 77
     6
 78
     2
 67
     7
 79
     5
170
     0
171
     0
290
     0
174
     0
 93
        1
 44
0.0
173
     0
291
     1
 45
0.0
  0
VISUALSTYLE
  5
1D
102
{ACAD_REACTORS
330
14
102
}
330
14
100
AcDbVisualStyle
  2
Conceptual
 70
     9
 71
     3
 72
     2
 73
     0
 90
        0
 40
-0.6
 41
-30.0
 62
     5
 63
     7
 74
     2
 91
        2
 64
     7
 65
   257
 75
     1
175
     1
 42
40.0
 92
        8
 66
     7
 43
1.0
 76
     1
 77
     6
 78
     2
 67
     7
 79
     3
170
     0
171
     0
290
     0
174
     0
 93
        1
 44
0.0
173
     0
291
     0
 45
0.0
  0
VISUALSTYLE
  5
1F
102
{ACAD_REACTORS
330
14
102
}
330
14
100
AcDbVisualStyle
  2
Dim
 70
    11
 71
     2
 72
     2
 73
     0
 90
        0
 40
-0.6
 41
-30.0
 62
     5
 63
     7
 74
     1
 91
        4
 64
     7
 65
   257
 75
     1
175
     1
 42
1.0
 92
        8
 66
     7
 43
1.0
 76
     1
 77
     6
 78
     2
 67
     7
 79
     5
170
     0
171
     0
290
     0
174
     0
 93
        1
 44
-50.0
173
     0
291
     1
 45
0.0
  0
VISUALSTYLE
  5
23
102
{ACAD_REACTORS
330
14
102
}
330
14
100
AcDbVisualStyle
  2
Facepattern
 70
    15
 71
     2
 72
     2
 73
     0
 90
        0
 40
-0.6
 41
-30.0
 62
     5
 63
     7
 74
     1
 91
        4
 64
     7
 65
   257
 75
     1
175
     1
 42
1.0
 92
        8
 66
     7
 43
1.0
 76
     1
 77
     6
 78
     2
 67
     7
 79
     5
170
     0
171
     0
290
     0
174
     0
 93
        1
 44
0.0
173
     0
291
     1
 45
0.0
  0
VISUALSTYLE
  5
15
102
{ACAD_REACTORS
330
14
102
}
330
14
100
AcDbVisualStyle
  2
Flat
 70
     0
 71
     2
 72
     1
 73
     1
 90
        2
 40
-0.6
 41
30.0
 62
     5
 63
     7
 74
     0
 91
        4
 64
     7
 65
   257
 75
     1
175
     1
 42
1.0
 92
        8
 66
     7
 43
1.0
 76
     1
 77
     6
 78
     2
 67
     7
 79
     5
170
     0
171
     0
290
     0
174
     0
 93
       13
 44
0.0
173
     0
291
     1
 45
0.0
  0
VISUALSTYLE
  5
16
102
{ACAD_REACTORS
330
14
102
}
330
14
100
AcDbVisualStyle
  2
FlatWithEdges
 70
     1
 71
     2
 72
     1
 73
     1
 90
        2
 40
-0.6
 41
30.0
 62
     5
 63
     7
 74
     1
 91
        4
 64
     7
 65
   257
 75
     1
175
     1
 42
1.0
 92
        0
 66
   257
 43
1.0
 76
     1
 77
     6
 78
     2
 67
     7
 79
     5
170
     0
171
     0
290
     0
174
     0
 93
       13
 44
0.0
173
     0
291
     1
 45
0.0
  0
VISUALSTYLE
  5
17
102
{ACAD_REACTORS
330
14
102
}
330
14
100
AcDbVisualStyle
  2
Gouraud
 70
     2
 71
     2
 72
     2
 73
     1
 90
        2
 40
-0.6
 41
30.0
 62
     5
 63
     7
 74
     0
 91
        4
 64
     7
 65
   257
 75
     1
175
     1
 42
1.0
 92
        0
 66
     7
 43
1.0
 76
     1
 77
     6
 78
     2
 67
     7
 79
     5
170
     0
171
     0
290
     0
174
     0
 93
       13
 44
0.0
173
     0
291
     1
 45
0.0
  0
VISUALSTYLE
  5
18
102
{ACAD_REACTORS
330
14
102
}
330
14
100
AcDbVisualStyle
  2
GouraudWithEdges
 70
     3
 71
     2
 72
     2
 73
     1
 90
        2
 40
-0.6
 41
30.0
 62
     5
 63
     7
 74
     1
 91
        4
 64
     7
 65
   257
 75
     1
175
     1
 42
1.0
 92
        0
 66
   257
 43
1.0
 76
     1
 77
     6
 78
     2
 67
     7
 79
     5
170
     0
171
     0
290
     0
174
     0
 93
       13
 44
0.0
173
     0
291
     1
 45
0.0
  0
VISUALSTYLE
  5
22
102
{ACAD_REACTORS
330
14
102
}
330
14
100
AcDbVisualStyle
  2
Linepattern
 70
    14
 71
     2
 72
     2
 73
     0
 90
        0
 40
-0.6
 41
-30.0
 62
     5
 63
     7
 74
     1
 91
        4
 64
     7
 65
   257
 75
     7
175
     7
 42
1.0
 92
        8
 66
     7
 43
1.0
 76
     1
 77
     6
 78
     2
 67
     7
 79
     5
170
     0
171
     0
290
     0
174
     0
 93
        1
 44
0.0
173
     0
291
     1
 45
0.0
  0
VISUALSTYLE
  5
1E
102
{ACAD_REACTORS
330
14
102
}
330
14
100
AcDbVisualStyle
  2
Realistic
 70
     8
 71
     2
 72
     2
 73
     0
 90
        0
 40
-0.6
 41
-30.0
 62
     5
 63
     7
 74
     1
 91
        0
 64
     7
 65
   257
 75
     1
175
     1
 42
1.0
 92
        8
 66
     8
 43
1.0
 76
     1
 77
     6
 78
     2
 67
     7
 79
     5
170
     0
171
     0
290
     0
174
     0
 93
       13
 44
0.0
173
     0
291
     0
 45
0.0
  0
VISUALSTYLE
  5
21
102
{ACAD_REACTORS
330
14
102
}
330
14
100
AcDbVisualStyle
  2
Thicken
 70
    13
 71
     2
 72
     2
 73
     0
 90
        0
 40
-0.6
 41
-30.0
 62
     5
 63
     7
 74
     1
 91
        4
 64
     7
 65
   257
 75
     1
175
     1
 42
1.0
 92
       12
 66
     7
 43
1.0
 76
     1
 77
     6
 78
     2
 67
     7
 79
     5
170
     0
171
     0
290
     0
174
     0
 93
        1
 44
0.0
173
     0
291
     1
 45
0.0
  0
DICTIONARYVAR
  5
6B0
102
{ACAD_REACTORS
330
6AF
102
}
330
6AF
100
DictionaryVariables
280
     0
  1
STANDARD
  0
DICTIONARYVAR
  5
6B3
102
{ACAD_REACTORS
330
6AF
102
}
330
6AF
100
DictionaryVariables
280
     0
  1
1
  0
DICTIONARYVAR
  5
6B2
102
{ACAD_REACTORS
330
6AF
102
}
330
6AF
100
DictionaryVariables
280
     0
  1
0
  0
DICTIONARYVAR
  5
6B1
102
{ACAD_REACTORS
330
6AF
102
}
330
6AF
100
DictionaryVariables
280
     0
  1
127
  0
DICTIONARY
  5
6CD
330
12
100
AcDbDictionary
280
     1
281
     1
  3
ACAD_XREC_ROUNDTRIP
360
6CE
  0
DICTIONARY
  5
6CB
330
11
100
AcDbDictionary
280
     1
281
     1
  3
ACAD_XREC_ROUNDTRIP
360
6CC
  0
DICTIONARY
  5
6CF
330
13
100
AcDbDictionary
280
     1
281
     1
  3
ACAD_XREC_ROUNDTRIP
360
6D0
  0
XRECORD
  5
6CE
102
{ACAD_REACTORS
330
6CD
102
}
330
6CD
100
AcDbXrecord
280
     1
102
MATERIAL
148
0.0
149
0.0
149
0.0
 93
        0
 94
       63
282
     0
 72
     1
 77
     1
171
     1
175
     1
179
     1
273
     0
  0
XRECORD
  5
6CC
102
{ACAD_REACTORS
330
6CB
102
}
330
6CB
100
AcDbXrecord
280
     1
102
MATERIAL
148
0.0
149
0.0
149
0.0
 93
        0
 94
       63
282
     0
 72
     1
 77
     1
171
     1
175
     1
179
     1
273
     0
  0
XRECORD
  5
6D0
102
{ACAD_REACTORS
330
6CF
102
}
330
6CF
100
AcDbXrecord
280
     1
102
MATERIAL
148
0.0
149
0.0
149
0.0
 93
        0
 94
       63
282
     0
 72
     1
 77
     1
171
     1
175
     1
179
     1
273
     0
  0
ENDSEC
  0
EOF
