  0
SECTION
  2
HEADER
  9
$ACADVER
  1
AC1015
  9
$ACADMAINTVER
 70
    20
  9
$DWGCODEPAGE
  3
ANSI_932
  9
$INSBASE
 10
0.0
 20
0.0
 30
0.0
  9
$EXTMIN
 10
42.00505369056648
 20
7.132962699852215
 30
0.0
  9
$EXTMAX
 10
774.1766985031645
 20
439.6816846067543
 30
0.0
  9
$LIMMIN
 10
0.0
 20
0.0
  9
$LIMMAX
 10
12.0
 20
9.0
  9
$ORTHOMODE
 70
     0
  9
$REGENMODE
 70
     1
  9
$FILLMODE
 70
     1
  9
$QTEXTMODE
 70
     0
  9
$MIRRTEXT
 70
     0
  9
$LTSCALE
 40
0.2
  9
$ATTMODE
 70
     1
  9
$TEXTSIZE
 40
3.2
  9
$TRACEWID
 40
0.05
  9
$TEXTSTYLE
  7
高3.2
  9
$CLAYER
  8
0
  9
$CELTYPE
  6
ByLayer
  9
$CECOLOR
 62
   256
  9
$CELTSCALE
 40
1.0
  9
$DISPSILH
 70
     0
  9
$DIMSCALE
 40
1.0
  9
$DIMASZ
 40
2.5
  9
$DIMEXO
 40
0.25
  9
$DIMDLI
 40
0.2
  9
$DIMRND
 40
0.0
  9
$DIMDLE
 40
0.0
  9
$DIMEXE
 40
1.25
  9
$DIMTP
 40
0.0
  9
$DIMTM
 40
0.0
  9
$DIMTXT
 40
3.0
  9
$DIMCEN
 40
0.0
  9
$DIMTSZ
 40
0.0
  9
$DIMTOL
 70
     0
  9
$DIMLIM
 70
     0
  9
$DIMTIH
 70
     0
  9
$DIMTOH
 70
     0
  9
$DIMSE1
 70
     0
  9
$DIMSE2
 70
     0
  9
$DIMTAD
 70
     3
  9
$DIMZIN
 70
     8
  9
$DIMBLK
  1
Open30
  9
$DIMASO
 70
     1
  9
$DIMSHO
 70
     1
  9
$DIMPOST
  1

  9
$DIMAPOST
  1

  9
$DIMALT
 70
     0
  9
$DIMALTD
 70
     3
  9
$DIMALTF
 40
0.03937007874016
  9
$DIMLFAC
 40
2.0
  9
$DIMTOFL
 70
     1
  9
$DIMTVP
 40
0.0
  9
$DIMTIX
 70
     0
  9
$DIMSOXD
 70
     0
  9
$DIMSAH
 70
     0
  9
$DIMBLK1
  1

  9
$DIMBLK2
  1

  9
$DIMSTYLE
  2
1／2
  9
$DIMCLRD
 70
     0
  9
$DIMCLRE
 70
     0
  9
$DIMCLRT
 70
     4
  9
$DIMTFAC
 40
1.0
  9
$DIMGAP
 40
0.625
  9
$DIMJUST
 70
     0
  9
$DIMSD1
 70
     0
  9
$DIMSD2
 70
     0
  9
$DIMTOLJ
 70
     0
  9
$DIMTZIN
 70
     8
  9
$DIMALTZ
 70
     0
  9
$DIMALTTZ
 70
     0
  9
$DIMUPT
 70
     1
  9
$DIMDEC
 70
     2
  9
$DIMTDEC
 70
     2
  9
$DIMALTU
 70
     2
  9
$DIMALTTD
 70
     3
  9
$DIMTXSTY
  7
Standard
  9
$DIMAUNIT
 70
     0
  9
$DIMADEC
 70
     1
  9
$DIMALTRND
 40
0.0
  9
$DIMAZIN
 70
     2
  9
$DIMDSEP
 70
    46
  9
$DIMATFIT
 70
     0
  9
$DIMFRAC
 70
     0
  9
$DIMLDRBLK
  1
Open30
  9
$DIMLUNIT
 70
     2
  9
$DIMLWD
 70
    -2
  9
$DIMLWE
 70
    -2
  9
$DIMTMOVE
 70
     0
  9
$LUNITS
 70
     2
  9
$LUPREC
 70
     4
  9
$SKETCHINC
 40
0.1
  9
$FILLETRAD
 40
0.0
  9
$AUNITS
 70
     0
  9
$AUPREC
 70
     0
  9
$MENU
  1
.
  9
$ELEVATION
 40
0.0
  9
$PELEVATION
 40
0.0
  9
$THICKNESS
 40
0.0
  9
$LIMCHECK
 70
     0
  9
$CHAMFERA
 40
0.0
  9
$CHAMFERB
 40
0.0
  9
$CHAMFERC
 40
0.0
  9
$CHAMFERD
 40
0.0
  9
$SKPOLY
 70
     0
  9
$TDCREATE
 40
2455910.855555764
  9
$TDUCREATE
 40
2455910.480555764
  9
$TDUPDATE
 40
2459871.579478218
  9
$TDUUPDATE
 40
2459871.204478218
  9
$TDINDWG
 40
0.3182165162
  9
$TDUSRTIMER
 40
0.3182146644
  9
$USRTIMER
 70
     1
  9
$ANGBASE
 50
0.0
  9
$ANGDIR
 70
     0
  9
$PDMODE
 70
     0
  9
$PDSIZE
 40
0.0
  9
$PLINEWID
 40
0.0
  9
$SPLFRAME
 70
     0
  9
$SPLINETYPE
 70
     6
  9
$SPLINESEGS
 70
     8
  9
$HANDSEED
  5
26B2
  9
$SURFTAB1
 70
     6
  9
$SURFTAB2
 70
     6
  9
$SURFTYPE
 70
     6
  9
$SURFU
 70
     6
  9
$SURFV
 70
     6
  9
$UCSBASE
  2

  9
$UCSNAME
  2

  9
$UCSORG
 10
0.0
 20
0.0
 30
0.0
  9
$UCSXDIR
 10
1.0
 20
0.0
 30
0.0
  9
$UCSYDIR
 10
0.0
 20
1.0
 30
0.0
  9
$UCSORTHOREF
  2

  9
$UCSORTHOVIEW
 70
     0
  9
$UCSORGTOP
 10
0.0
 20
0.0
 30
0.0
  9
$UCSORGBOTTOM
 10
0.0
 20
0.0
 30
0.0
  9
$UCSORGLEFT
 10
0.0
 20
0.0
 30
0.0
  9
$UCSORGRIGHT
 10
0.0
 20
0.0
 30
0.0
  9
$UCSORGFRONT
 10
0.0
 20
0.0
 30
0.0
  9
$UCSORGBACK
 10
0.0
 20
0.0
 30
0.0
  9
$PUCSBASE
  2

  9
$PUCSNAME
  2

  9
$PUCSORG
 10
0.0
 20
0.0
 30
0.0
  9
$PUCSXDIR
 10
1.0
 20
0.0
 30
0.0
  9
$PUCSYDIR
 10
0.0
 20
1.0
 30
0.0
  9
$PUCSORTHOREF
  2

  9
$PUCSORTHOVIEW
 70
     0
  9
$PUCSORGTOP
 10
0.0
 20
0.0
 30
0.0
  9
$PUCSORGBOTTOM
 10
0.0
 20
0.0
 30
0.0
  9
$PUCSORGLEFT
 10
0.0
 20
0.0
 30
0.0
  9
$PUCSORGRIGHT
 10
0.0
 20
0.0
 30
0.0
  9
$PUCSORGFRONT
 10
0.0
 20
0.0
 30
0.0
  9
$PUCSORGBACK
 10
0.0
 20
0.0
 30
0.0
  9
$USERI1
 70
     0
  9
$USERI2
 70
     0
  9
$USERI3
 70
     0
  9
$USERI4
 70
     0
  9
$USERI5
 70
     0
  9
$USERR1
 40
0.0
  9
$USERR2
 40
0.0
  9
$USERR3
 40
0.0
  9
$USERR4
 40
0.0
  9
$USERR5
 40
0.0
  9
$WORLDVIEW
 70
     1
  9
$SHADEDGE
 70
     3
  9
$SHADEDIF
 70
    70
  9
$TILEMODE
 70
     1
  9
$MAXACTVP
 70
    64
  9
$PINSBASE
 10
0.0
 20
0.0
 30
0.0
  9
$PLIMCHECK
 70
     0
  9
$PEXTMIN
 10
0.0
 20
0.0
 30
0.0
  9
$PEXTMAX
 10
0.0
 20
0.0
 30
0.0
  9
$PLIMMIN
 10
0.0
 20
0.0
  9
$PLIMMAX
 10
12.0
 20
9.0
  9
$UNITMODE
 70
     0
  9
$VISRETAIN
 70
     1
  9
$PLINEGEN
 70
     0
  9
$PSLTSCALE
 70
     1
  9
$TREEDEPTH
 70
  3020
  9
$CMLSTYLE
  2
Standard
  9
$CMLJUST
 70
     0
  9
$CMLSCALE
 40
1.0
  9
$PROXYGRAPHICS
 70
     1
  9
$MEASUREMENT
 70
     1
  9
$CELWEIGHT
370
    -1
  9
$ENDCAPS
280
     0
  9
$JOINSTYLE
280
     0
  9
$LWDISPLAY
290
     0
  9
$INSUNITS
 70
     1
  9
$HYPERLINKBASE
  1

  9
$STYLESHEET
  1
N-PLOT.CTB
  9
$XEDIT
290
     1
  9
$CEPSNTYPE
380
     0
  9
$PSTYLEMODE
290
     1
  9
$FINGERPRINTGUID
  2
{CA575B1B-C879-4EA6-A17D-2E1F2ACDDB8F}
  9
$VERSIONGUID
  2
{96C60F77-543F-4E16-B570-3B24E57DD576}
  9
$EXTNAMES
290
     1
  9
$PSVPSCALE
 40
0.0
  9
$OLESTARTUP
290
     0
  0
ENDSEC
  0
SECTION
  2
CLASSES
  0
CLASS
  1
ACDBDICTIONARYWDFLT
  2
AcDbDictionaryWithDefault
  3
ObjectDBX Classes
 90
        0
280
     0
281
     0
  0
CLASS
  1
ACDBPLACEHOLDER
  2
AcDbPlaceHolder
  3
ObjectDBX Classes
 90
        0
280
     0
281
     0
  0
CLASS
  1
LAYOUT
  2
AcDbLayout
  3
ObjectDBX Classes
 90
        0
280
     0
281
     0
  0
CLASS
  1
DICTIONARYVAR
  2
AcDbDictionaryVar
  3
ObjectDBX Classes
 90
        0
280
     0
281
     0
  0
CLASS
  1
TABLESTYLE
  2
AcDbTableStyle
  3
ObjectDBX Classes
 90
     4095
280
     0
281
     0
  0
CLASS
  1
MATERIAL
  2
AcDbMaterial
  3
ObjectDBX Classes
 90
     1153
280
     0
281
     0
  0
CLASS
  1
VISUALSTYLE
  2
AcDbVisualStyle
  3
ObjectDBX Classes
 90
     4095
280
     0
281
     0
  0
CLASS
  1
SORTENTSTABLE
  2
AcDbSortentsTable
  3
ObjectDBX Classes
 90
        0
280
     0
281
     0
  0
CLASS
  1
DIMASSOC
  2
AcDbDimAssoc
  3
"AcDbDimAssoc|Product Desc:     AcDim ARX App For Dimension|Company:          Autodesk, Inc.|WEB Address:      www.autodesk.com"
 90
        0
280
     0
281
     0
  0
CLASS
  1
SCALE
  2
AcDbScale
  3
ObjectDBX Classes
 90
     1153
280
     0
281
     0
  0
CLASS
  1
MLEADERSTYLE
  2
AcDbMLeaderStyle
  3
ACDB_MLEADERSTYLE_CLASS
 90
     4095
280
     0
281
     0
  0
CLASS
  1
CELLSTYLEMAP
  2
AcDbCellStyleMap
  3
ObjectDBX Classes
 90
     1152
280
     0
281
     0
  0
CLASS
  1
AEC_REFEDIT_STATUS_TRACKER
  2
AecDbRefEditStatusTracker
  3
AecArchBase60|Product Desc: Autodesk Architectural Desktop 2007 |Company: Autodesk,Inc. |WEB Address: www.autodesk.com
 90
      129
280
     0
281
     0
  0
CLASS
  1
NPOCOLLECTION
  2
AcDbImpNonPersistentObjectsCollection
  3
ObjectDBX Classes
 90
     1153
280
     0
281
     0
  0
ENDSEC
  0
SECTION
  2
TABLES
  0
TABLE
  2
VPORT
  5
8
330
0
100
AcDbSymbolTable
 70
     1
  0
VPORT
  5
94
330
8
100
AcDbSymbolTableRecord
100
AcDbViewportTableRecord
  2
*Active
 70
     0
 10
0.0
 20
0.0
 11
1.0
 21
1.0
 12
285.7446989045241
 22
166.1046176394506
 13
0.0
 23
0.0
 14
0.5
 24
0.5
 15
0.5
 25
0.5
 16
0.0
 26
0.0
 36
1.0
 17
0.0
 27
0.0
 37
0.0
 40
878.8213780886467
 41
1.05939226519337
 42
50.0
 43
0.0
 44
0.0
 50
0.0
 51
0.0
 71
     0
 72
  1000
 73
     1
 74
     2
 75
     0
 76
     0
 77
     0
 78
     0
281
     0
 65
     1
110
0.0
120
0.0
130
0.0
111
1.0
121
0.0
131
0.0
112
0.0
122
1.0
132
0.0
 79
     0
146
0.0
  0
ENDTAB
  0
TABLE
  2
LTYPE
  5
5
330
0
100
AcDbSymbolTable
 70
     5
  0
LTYPE
  5
14
330
5
100
AcDbSymbolTableRecord
100
AcDbLinetypeTableRecord
  2
ByBlock
 70
     0
  3

 72
    65
 73
     0
 40
0.0
  0
LTYPE
  5
15
330
5
100
AcDbSymbolTableRecord
100
AcDbLinetypeTableRecord
  2
ByLayer
 70
     0
  3

 72
    65
 73
     0
 40
0.0
  0
LTYPE
  5
16
330
5
100
AcDbSymbolTableRecord
100
AcDbLinetypeTableRecord
  2
Continuous
 70
     0
  3
Solid line
 72
    65
 73
     0
 40
0.0
  0
LTYPE
  5
148
330
5
100
AcDbSymbolTableRecord
100
AcDbLinetypeTableRecord
  2
CENTER
 70
     0
  3
Center ____ _ ____ _ ____ _ ____ _ ____ _ ____
 72
    65
 73
     4
 40
50.8
 49
31.75
 74
     0
 49
-6.349999999999997
 74
     0
 49
6.349999999999997
 74
     0
 49
-6.349999999999997
 74
     0
  0
LTYPE
  5
149
330
5
100
AcDbSymbolTableRecord
100
AcDbLinetypeTableRecord
  2
HIDDEN
 70
     0
  3
Hidden __ __ __ __ __ __ __ __ __ __ __ __ __ __
 72
    65
 73
     2
 40
9.524999999999996
 49
6.349999999999997
 74
     0
 49
-3.174999999999998
 74
     0
  0
ENDTAB
  0
TABLE
  2
LAYER
  5
2
102
{ACAD_XDICTIONARY
360
DD
102
}
330
0
100
AcDbSymbolTable
 70
     2
  0
LAYER
  5
10
102
{ACAD_XDICTIONARY
360
89E
102
}
330
2
100
AcDbSymbolTableRecord
100
AcDbLayerTableRecord
  2
0
 70
     0
 62
     7
  6
Continuous
370
    -3
390
F
  0
LAYER
  5
D8
330
2
100
AcDbSymbolTableRecord
100
AcDbLayerTableRecord
  2
Defpoints
 70
     0
 62
     7
  6
Continuous
290
     0
370
    -3
390
F
  0
ENDTAB
  0
TABLE
  2
STYLE
  5
3
330
0
100
AcDbSymbolTable
 70
     6
  0
STYLE
  5
11
330
3
100
AcDbSymbolTableRecord
100
AcDbTextStyleTableRecord
  2
Standard
 70
     0
 40
0.0
 41
1.0
 50
0.0
 71
     0
 42
0.2
  3
txt.shx
  4
bigfont.shx
  0
STYLE
  5
11D
330
3
100
AcDbSymbolTableRecord
100
AcDbTextStyleTableRecord
  2
高3.2
 70
     0
 40
3.2
 41
1.0
 50
0.0
 71
     0
 42
3.2
  3
txt.shx
  4
bigfont.shx
  0
STYLE
  5
11E
330
3
100
AcDbSymbolTableRecord
100
AcDbTextStyleTableRecord
  2
高6.3
 70
     0
 40
6.299999999999998
 41
1.0
 50
0.0
 71
     0
 42
6.299999999999998
  3
txt.shx
  4
bigfont.shx
  0
STYLE
  5
11F
330
3
100
AcDbSymbolTableRecord
100
AcDbTextStyleTableRecord
  2
高2.5
 70
     0
 40
2.5
 41
1.0
 50
0.0
 71
     0
 42
0.2
  3
txt.shx
  4
bigfont.shx
  0
STYLE
  5
146
330
3
100
AcDbSymbolTableRecord
100
AcDbTextStyleTableRecord
  2
高4.5
 70
     0
 40
4.5
 41
1.0
 50
0.0
 71
     0
 42
6.299999999999998
  3
txt.shx
  4
bigfont.shx
  0
STYLE
  5
1F4
330
3
100
AcDbSymbolTableRecord
100
AcDbTextStyleTableRecord
  2
高2
 70
     0
 40
2.0
 41
1.0
 50
0.0
 71
     0
 42
6.299999999999998
  3
txt.shx
  4
bigfont.shx
  0
ENDTAB
  0
TABLE
  2
VIEW
  5
6
330
0
100
AcDbSymbolTable
 70
     0
  0
ENDTAB
  0
TABLE
  2
UCS
  5
7
330
0
100
AcDbSymbolTable
 70
     0
  0
ENDTAB
  0
TABLE
  2
APPID
  5
9
330
0
100
AcDbSymbolTable
 70
    12
  0
APPID
  5
12
330
9
100
AcDbSymbolTableRecord
100
AcDbRegAppTableRecord
  2
ACAD
 70
     0
  0
APPID
  5
DC
330
9
100
AcDbSymbolTableRecord
100
AcDbRegAppTableRecord
  2
ACAD_DSTYLE_DIMJOGGED_JOGANGLE_SYMBOL
 70
     0
  0
APPID
  5
1F6
330
9
100
AcDbSymbolTableRecord
100
AcDbRegAppTableRecord
  2
AcAecLayerStandard
 70
     0
  0
APPID
  5
1F7
330
9
100
AcDbSymbolTableRecord
100
AcDbRegAppTableRecord
  2
AcCmTransparency
 70
     0
  0
APPID
  5
93B
330
9
100
AcDbSymbolTableRecord
100
AcDbRegAppTableRecord
  2
ACAD_DSTYLE_DIMARC_LENGTH_SYMBOL
 70
     0
  0
APPID
  5
93C
330
9
100
AcDbSymbolTableRecord
100
AcDbRegAppTableRecord
  2
ACAD_DSTYLE_DIMEXT_LENGTH
 70
     0
  0
APPID
  5
951
330
9
100
AcDbSymbolTableRecord
100
AcDbRegAppTableRecord
  2
ACAD_MLEADERVER
 70
     0
  0
APPID
  5
9F7
330
9
100
AcDbSymbolTableRecord
100
AcDbRegAppTableRecord
  2
ACAD_EXEMPT_FROM_CAD_STANDARDS
 70
     0
  0
APPID
  5
E98
330
9
100
AcDbSymbolTableRecord
100
AcDbRegAppTableRecord
  2
ACAD_DSTYLE_DIMJAG
 70
     0
  0
APPID
  5
E99
330
9
100
AcDbSymbolTableRecord
100
AcDbRegAppTableRecord
  2
ACAD_DSTYLE_DIMBREAK
 70
     0
  0
APPID
  5
E9A
330
9
100
AcDbSymbolTableRecord
100
AcDbRegAppTableRecord
  2
ACAD_DSTYLE_DIMTALN
 70
     0
  0
APPID
  5
1766
330
9
100
AcDbSymbolTableRecord
100
AcDbRegAppTableRecord
  2
ACAD_PSEXT
 70
     0
  0
ENDTAB
  0
TABLE
  2
DIMSTYLE
  5
A
330
0
100
AcDbSymbolTable
 70
     7
100
AcDbDimStyleTable
 71
     1
340
128
  0
DIMSTYLE
105
128
330
A
100
AcDbSymbolTableRecord
100
AcDbDimStyleTableRecord
  2
1／2
 70
     0
 41
2.5
 42
0.25
 43
0.2
 44
1.25
 73
     0
 74
     0
 77
     3
 78
     8
 79
     2
140
3.0
141
0.0
143
0.03937007874016
144
2.0
147
0.625
171
     3
172
     1
178
     4
179
     1
271
     2
272
     2
274
     3
283
     0
284
     8
288
     1
289
     0
340
11
341
C6
342
C6
1001
ACAD_DSTYLE_DIMARC_LENGTH_SYMBOL
1070
   379
1070
     2
1001
ACAD_DSTYLE_DIMEXT_LENGTH
1070
   378
1040
1.25
1001
ACAD_DSTYLE_DIMJOGGED_JOGANGLE_SYMBOL
1070
   384
1040
1.570796326794896
  0
DIMSTYLE
105
1F5
330
A
100
AcDbSymbolTableRecord
100
AcDbDimStyleTableRecord
  2
Standard
 70
     0
340
11
  0
DIMSTYLE
105
2263
330
A
100
AcDbSymbolTableRecord
100
AcDbDimStyleTableRecord
  2
1：1
 70
     0
 41
2.5
 42
0.25
 43
0.2
 44
1.25
 73
     0
 74
     0
 77
     3
 78
     8
 79
     2
140
3.0
141
0.0
143
0.03937007874016
147
0.625
171
     3
172
     1
178
     4
179
     1
271
     2
272
     2
274
     3
283
     0
284
     8
288
     1
289
     0
340
11
341
C6
342
C6
1001
ACAD_DSTYLE_DIMARC_LENGTH_SYMBOL
1070
   379
1070
     2
1001
ACAD_DSTYLE_DIMEXT_LENGTH
1070
   378
1040
1.25
1001
ACAD_DSTYLE_DIMJOGGED_JOGANGLE_SYMBOL
1070
   384
1040
1.570796326794896
  0
DIMSTYLE
105
2264
330
A
100
AcDbSymbolTableRecord
100
AcDbDimStyleTableRecord
  2
1／4
 70
     0
 41
2.5
 42
0.25
 43
0.2
 44
1.25
 73
     0
 74
     0
 77
     3
 78
     8
 79
     2
140
3.0
141
0.0
143
0.03937007874016
144
4.0
147
0.625
171
     3
172
     1
178
     4
179
     1
271
     2
272
     2
274
     3
283
     0
284
     8
288
     1
289
     0
340
11
341
C6
342
C6
1001
ACAD_DSTYLE_DIMARC_LENGTH_SYMBOL
1070
   379
1070
     2
1001
ACAD_DSTYLE_DIMEXT_LENGTH
1070
   378
1040
1.25
1001
ACAD_DSTYLE_DIMJOGGED_JOGANGLE_SYMBOL
1070
   384
1040
1.570796326794896
  0
DIMSTYLE
105
2265
330
A
100
AcDbSymbolTableRecord
100
AcDbDimStyleTableRecord
  2
1／3
 70
     0
 41
2.5
 42
0.25
 43
0.2
 44
1.25
 73
     0
 74
     0
 77
     3
 78
     8
 79
     2
140
3.0
141
0.0
143
0.03937007874016
144
3.0
147
0.625
171
     3
172
     1
178
     4
179
     1
271
     2
272
     2
274
     3
283
     0
284
     8
288
     1
289
     0
340
11
341
C6
342
C6
1001
ACAD_DSTYLE_DIMARC_LENGTH_SYMBOL
1070
   379
1070
     2
1001
ACAD_DSTYLE_DIMEXT_LENGTH
1070
   378
1040
1.25
1001
ACAD_DSTYLE_DIMJOGGED_JOGANGLE_SYMBOL
1070
   384
1040
1.570796326794896
  0
DIMSTYLE
105
2266
330
A
100
AcDbSymbolTableRecord
100
AcDbDimStyleTableRecord
  2
FREE
 70
     0
 41
2.5
 42
0.25
 43
0.2
 44
1.25
 73
     0
 74
     0
 77
     3
 78
     8
 79
     2
140
3.0
141
0.0
143
0.03937007874016
147
0.625
171
     3
172
     1
178
     4
179
     1
271
     2
272
     2
274
     3
283
     0
284
     8
288
     1
289
     0
340
11
341
C6
342
C6
1001
ACAD_DSTYLE_DIMBREAK
1070
   391
1040
3.75
1001
ACAD_DSTYLE_DIMJAG
1070
   388
1040
1.5
1001
ACAD_DSTYLE_DIMTALN
1070
   392
1070
     0
1001
ACAD_DSTYLE_DIMARC_LENGTH_SYMBOL
1070
   379
1070
     2
1001
ACAD_DSTYLE_DIMEXT_LENGTH
1070
   378
1040
1.25
1001
ACAD_DSTYLE_DIMJOGGED_JOGANGLE_SYMBOL
1070
   384
1040
1.570796326794896
  0
ENDTAB
  0
TABLE
  2
BLOCK_RECORD
  5
1
330
0
100
AcDbSymbolTable
 70
    16
  0
BLOCK_RECORD
  5
1F
102
{ACAD_XDICTIONARY
360
A0C
102
}
330
1
100
AcDbSymbolTableRecord
100
AcDbBlockTableRecord
  2
*Model_Space
340
22
  0
BLOCK_RECORD
  5
58
330
1
100
AcDbSymbolTableRecord
100
AcDbBlockTableRecord
  2
*Paper_Space
340
59
  0
BLOCK_RECORD
  5
5D
330
1
100
AcDbSymbolTableRecord
100
AcDbBlockTableRecord
  2
*Paper_Space0
340
5E
  0
BLOCK_RECORD
  5
C6
330
1
100
AcDbSymbolTableRecord
100
AcDbBlockTableRecord
  2
_Open30
340
0
102
{BLKREFS
331
2368
331
2369
331
2371
331
2372
331
237A
331
237B
331
2383
331
2384
331
238C
331
238D
331
2395
331
2396
331
23B4
331
23B5
331
23BD
331
23BE
331
2494
331
2495
331
249F
331
24A0
102
}
  0
BLOCK_RECORD
  5
16F
330
1
100
AcDbSymbolTableRecord
100
AcDbBlockTableRecord
  2
_DotSmall
340
0
  0
BLOCK_RECORD
  5
173
102
{ACAD_XDICTIONARY
360
174
102
}
330
1
100
AcDbSymbolTableRecord
100
AcDbBlockTableRecord
  2
A$C025D1124
340
0
1001
ACAD
1000
DesignCenter Data
1002
{
1070
     1
1070
     1
1002
}
  0
BLOCK_RECORD
  5
828
330
1
100
AcDbSymbolTableRecord
100
AcDbBlockTableRecord
  2
*D4
340
0
  0
BLOCK_RECORD
  5
834
330
1
100
AcDbSymbolTableRecord
100
AcDbBlockTableRecord
  2
*D5
340
0
  0
BLOCK_RECORD
  5
840
330
1
100
AcDbSymbolTableRecord
100
AcDbBlockTableRecord
  2
*D6
340
0
  0
BLOCK_RECORD
  5
84C
330
1
100
AcDbSymbolTableRecord
100
AcDbBlockTableRecord
  2
*D7
340
0
  0
BLOCK_RECORD
  5
858
330
1
100
AcDbSymbolTableRecord
100
AcDbBlockTableRecord
  2
*D8
340
0
  0
BLOCK_RECORD
  5
864
330
1
100
AcDbSymbolTableRecord
100
AcDbBlockTableRecord
  2
*D9
340
0
  0
BLOCK_RECORD
  5
870
330
1
100
AcDbSymbolTableRecord
100
AcDbBlockTableRecord
  2
*D10
340
0
  0
BLOCK_RECORD
  5
87E
330
1
100
AcDbSymbolTableRecord
100
AcDbBlockTableRecord
  2
*D11
340
0
  0
BLOCK_RECORD
  5
B0F
330
1
100
AcDbSymbolTableRecord
100
AcDbBlockTableRecord
  2
*D12
340
0
  0
BLOCK_RECORD
  5
B30
330
1
100
AcDbSymbolTableRecord
100
AcDbBlockTableRecord
  2
*D13
340
0
  0
ENDTAB
  0
ENDSEC
  0
SECTION
  2
BLOCKS
  0
BLOCK
  5
20
330
1F
100
AcDbEntity
  8
0
100
AcDbBlockBegin
  2
*Model_Space
 70
     0
 10
0.0
 20
0.0
 30
0.0
  3
*Model_Space
  1

  0
ENDBLK
  5
21
330
1F
100
AcDbEntity
  8
0
100
AcDbBlockEnd
  0
BLOCK
  5
5A
330
58
100
AcDbEntity
 67
     1
  8
0
100
AcDbBlockBegin
  2
*Paper_Space
 70
     0
 10
0.0
 20
0.0
 30
0.0
  3
*Paper_Space
  1

  0
ENDBLK
  5
5B
330
58
100
AcDbEntity
 67
     1
  8
0
100
AcDbBlockEnd
  0
BLOCK
  5
5F
330
5D
100
AcDbEntity
 67
     1
  8
0
100
AcDbBlockBegin
  2
*Paper_Space0
 70
     0
 10
0.0
 20
0.0
 30
0.0
  3
*Paper_Space0
  1

  0
ENDBLK
  5
60
330
5D
100
AcDbEntity
 67
     1
  8
0
100
AcDbBlockEnd
  0
BLOCK
  5
C7
330
C6
100
AcDbEntity
  8
0
100
AcDbBlockBegin
  2
_Open30
 70
     0
 10
0.0
 20
0.0
 30
0.0
  3
_Open30
  1

  0
LINE
  5
C8
330
C6
100
AcDbEntity
  8
0
  6
ByBlock
 62
     0
370
    -2
100
AcDbLine
 10
-1.0
 20
0.267949
 30
0.0
 11
0.0
 21
0.0
 31
0.0
  0
LINE
  5
C9
330
C6
100
AcDbEntity
  8
0
  6
ByBlock
 62
     0
370
    -2
100
AcDbLine
 10
0.0
 20
0.0
 30
0.0
 11
-1.0
 21
-0.267949
 31
0.0
  0
LINE
  5
CA
330
C6
100
AcDbEntity
  8
0
  6
ByBlock
 62
     0
370
    -2
100
AcDbLine
 10
0.0
 20
0.0
 30
0.0
 11
-1.0
 21
0.0
 31
0.0
  0
ENDBLK
  5
CB
330
C6
100
AcDbEntity
  8
0
100
AcDbBlockEnd
  0
BLOCK
  5
170
330
16F
100
AcDbEntity
  8
0
100
AcDbBlockBegin
  2
_DotSmall
 70
     0
 10
0.0
 20
0.0
 30
0.0
  3
_DotSmall
  1

  0
LWPOLYLINE
  5
171
330
16F
100
AcDbEntity
  8
0
  6
ByBlock
 62
     0
100
AcDbPolyline
 90
        2
 70
     1
 43
0.5
 10
-0.0625
 20
0.0
 42
1.0
 10
0.0625
 20
0.0
 42
1.0
  0
ENDBLK
  5
172
330
16F
100
AcDbEntity
  8
0
100
AcDbBlockEnd
  0
BLOCK
  5
176
330
173
100
AcDbEntity
  8
0
100
AcDbBlockBegin
  2
A$C025D1124
 70
     0
 10
0.0
 20
0.0
 30
0.0
  3
A$C025D1124
  1

  0
LINE
  5
177
330
173
100
AcDbEntity
  8
0
100
AcDbLine
 10
0.0000004456496754
 20
65.00000031107653
 30
0.0
 11
0.0000004456496754
 21
43.00000031107653
 31
0.0
  0
LINE
  5
178
330
173
100
AcDbEntity
  8
0
100
AcDbLine
 10
0.0000004456496754
 20
65.00000031107653
 30
0.0
 11
76.50000044564968
 21
65.00000031107653
 31
0.0
  0
LINE
  5
179
330
173
100
AcDbEntity
  8
0
100
AcDbLine
 10
55.00000044564965
 20
3.000000311076518
 30
0.0
 11
76.50000044564968
 21
3.000000311076518
 31
0.0
  0
LINE
  5
17A
330
173
100
AcDbEntity
  8
0
100
AcDbLine
 10
94.50000044564967
 20
3.000000311076518
 30
0.0
 11
94.50000044564967
 21
65.00000031107653
 31
0.0
  0
LINE
  5
17B
330
173
100
AcDbEntity
  8
0
100
AcDbLine
 10
78.50000044564969
 20
1.000000311076518
 30
0.0
 11
78.50000044564969
 21
67.00000031107653
 31
0.0
  0
LINE
  5
17C
330
173
100
AcDbEntity
  8
0
100
AcDbLine
 10
76.50000044564968
 20
1.000000311076518
 30
0.0
 11
76.50000044564968
 21
67.00000031107653
 31
0.0
  0
LINE
  5
17D
330
173
100
AcDbEntity
  8
0
100
AcDbLine
 10
55.00000044564965
 20
4.000000311076518
 30
0.0
 11
55.00000044564965
 21
3.000000311076518
 31
0.0
  0
LINE
  5
17E
330
173
100
AcDbEntity
  8
0
100
AcDbLine
 10
0.0000004456496754
 20
43.00000031107653
 30
0.0
 11
17.00000044564967
 21
12.75000031107652
 31
0.0
  0
LINE
  5
17F
330
173
100
AcDbEntity
  8
0
100
AcDbLine
 10
78.50000044564969
 20
1.000000311076518
 30
0.0
 11
76.50000044564968
 21
1.000000311076518
 31
0.0
  0
LINE
  5
180
330
173
100
AcDbEntity
  8
0
100
AcDbLine
 10
76.50000044564968
 20
67.00000031107653
 30
0.0
 11
78.50000044564969
 21
67.00000031107653
 31
0.0
  0
LINE
  5
181
330
173
100
AcDbEntity
  8
0
100
AcDbLine
 10
91.50000044564967
 20
0.0000003110765192
 30
0.0
 11
79.50000044564967
 21
0.0000003110765192
 31
0.0
  0
LINE
  5
182
330
173
100
AcDbEntity
  8
0
100
AcDbLine
 10
91.50000044564967
 20
68.00000031107654
 30
0.0
 11
79.50000044564967
 21
68.00000031107654
 31
0.0
  0
LINE
  5
183
330
173
100
AcDbEntity
  8
0
100
AcDbLine
 10
55.00000044564965
 20
4.000000311076518
 30
0.0
 11
17.00000044564967
 21
12.75000031107652
 31
0.0
  0
LINE
  5
184
330
173
100
AcDbEntity
  8
0
100
AcDbLine
 10
94.50000044564967
 20
65.00000031107653
 30
0.0
 11
91.50000044564967
 21
68.00000031107654
 31
0.0
  0
LINE
  5
185
330
173
100
AcDbEntity
  8
0
100
AcDbLine
 10
94.50000044564967
 20
3.000000311076518
 30
0.0
 11
91.50000044564967
 21
0.0000003110765192
 31
0.0
  0
LINE
  5
186
330
173
100
AcDbEntity
  8
0
100
AcDbLine
 10
79.50000044564967
 20
68.00000031107654
 30
0.0
 11
78.50000044564969
 21
67.00000031107653
 31
0.0
  0
LINE
  5
187
330
173
100
AcDbEntity
  8
0
100
AcDbLine
 10
79.50000044564967
 20
0.0000003110765192
 30
0.0
 11
78.50000044564969
 21
1.000000311076518
 31
0.0
  0
ENDBLK
  5
188
330
173
100
AcDbEntity
  8
0
100
AcDbBlockEnd
  0
BLOCK
  5
829
330
828
100
AcDbEntity
  8
0
100
AcDbBlockBegin
  2
*D4
 70
     1
 10
0.0
 20
0.0
 30
0.0
  3
*D4
  1

  0
LINE
  5
2365
330
828
100
AcDbEntity
  8
0
 62
     0
370
    -2
100
AcDbLine
 10
213.5027019927225
 20
206.6512311247529
 30
0.0
 11
229.2160320352674
 21
206.6512311247529
 31
0.0
  0
LINE
  5
2366
330
828
100
AcDbEntity
  8
0
 62
     0
370
    -2
100
AcDbLine
 10
213.5027019927225
 20
172.6512311247529
 30
0.0
 11
229.2160320352673
 21
172.6512311247529
 31
0.0
  0
LINE
  5
2367
330
828
100
AcDbEntity
  8
0
 62
     0
370
    -2
100
AcDbLine
 10
227.9660320352673
 20
204.1512311247529
 30
0.0
 11
227.9660320352673
 21
175.1512311247529
 31
0.0
  0
INSERT
  5
2368
330
828
100
AcDbEntity
  8
0
 62
     0
370
    -2
100
AcDbBlockReference
  2
_Open30
 10
227.9660320352673
 20
206.6512311247529
 30
0.0
 41
2.5
 42
2.5
 43
2.5
 50
90.0
  0
INSERT
  5
2369
330
828
100
AcDbEntity
  8
0
 62
     0
370
    -2
100
AcDbBlockReference
  2
_Open30
 10
227.9660320352673
 20
172.6512311247529
 30
0.0
 41
2.5
 42
2.5
 43
2.5
 50
270.0
  0
MTEXT
  5
236A
330
828
100
AcDbEntity
  8
0
 62
     4
100
AcDbMText
 10
225.8410320352673
 20
189.4945733000434
 30
0.0
 40
3.0
 41
0.0
 71
     5
 72
     1
  1
%%C68
 11
0.0000000000000001
 21
1.0
 31
0.0
 73
     1
 44
1.0
1001
ACAD
1000
MTEXTBEGIN
1070
    73
1070
     1
1070
    44
1040
1.0
1070
    74
1070
     0
1000
MTEXTEND
  0
POINT
  5
236B
330
828
100
AcDbEntity
  8
Defpoints
 62
     0
100
AcDbPoint
 10
213.2527019927225
 20
206.6512311247529
 30
0.0
  0
POINT
  5
236C
330
828
100
AcDbEntity
  8
Defpoints
 62
     0
100
AcDbPoint
 10
213.2527019927225
 20
172.6512311247529
 30
0.0
  0
POINT
  5
236D
330
828
100
AcDbEntity
  8
Defpoints
 62
     0
100
AcDbPoint
 10
227.9660320352673
 20
172.6512311247529
 30
0.0
  0
ENDBLK
  5
82A
330
828
100
AcDbEntity
  8
0
100
AcDbBlockEnd
  0
BLOCK
  5
835
330
834
100
AcDbEntity
  8
0
100
AcDbBlockBegin
  2
*D5
 70
     1
 10
0.0
 20
0.0
 30
0.0
  3
*D5
  1

  0
LINE
  5
236E
330
834
100
AcDbEntity
  8
0
 62
     0
370
    -2
100
AcDbLine
 10
111.7527019927225
 20
205.4012311247529
 30
0.0
 11
111.7527019927225
 21
222.7927860132944
 31
0.0
  0
LINE
  5
236F
330
834
100
AcDbEntity
  8
0
 62
     0
370
    -2
100
AcDbLine
 10
167.5027019927225
 20
205.4012311247529
 30
0.0
 11
167.5027019927225
 21
222.7927860132944
 31
0.0
  0
LINE
  5
2370
330
834
100
AcDbEntity
  8
0
 62
     0
370
    -2
100
AcDbLine
 10
114.2527019927225
 20
221.5427860132944
 30
0.0
 11
165.0027019927225
 21
221.5427860132944
 31
0.0
  0
INSERT
  5
2371
330
834
100
AcDbEntity
  8
0
 62
     0
370
    -2
100
AcDbBlockReference
  2
_Open30
 10
111.7527019927225
 20
221.5427860132944
 30
0.0
 41
2.5
 42
2.5
 43
2.5
 50
180.0
  0
INSERT
  5
2372
330
834
100
AcDbEntity
  8
0
 62
     0
370
    -2
100
AcDbBlockReference
  2
_Open30
 10
167.5027019927225
 20
221.5427860132944
 30
0.0
 41
2.5
 42
2.5
 43
2.5
  0
MTEXT
  5
2373
330
834
100
AcDbEntity
  8
0
 62
     4
100
AcDbMText
 10
140.136354948671
 20
223.6677860132944
 30
0.0
 40
3.0
 41
0.0
 71
     5
 72
     1
  1
111.5
 73
     1
 44
1.0
1001
ACAD
1000
MTEXTBEGIN
1070
    73
1070
     1
1070
    44
1040
1.0
1070
    74
1070
     0
1000
MTEXTEND
  0
POINT
  5
2374
330
834
100
AcDbEntity
  8
Defpoints
 62
     0
100
AcDbPoint
 10
111.7527019927225
 20
205.1512311247529
 30
0.0
  0
POINT
  5
2375
330
834
100
AcDbEntity
  8
Defpoints
 62
     0
100
AcDbPoint
 10
167.5027019927225
 20
205.1512311247529
 30
0.0
  0
POINT
  5
2376
330
834
100
AcDbEntity
  8
Defpoints
 62
     0
100
AcDbPoint
 10
167.5027019927225
 20
221.5427860132944
 30
0.0
  0
ENDBLK
  5
836
330
834
100
AcDbEntity
  8
0
100
AcDbBlockEnd
  0
BLOCK
  5
841
330
840
100
AcDbEntity
  8
0
100
AcDbBlockBegin
  2
*D6
 70
     1
 10
0.0
 20
0.0
 30
0.0
  3
*D6
  1

  0
LINE
  5
2377
330
840
100
AcDbEntity
  8
0
 62
     0
370
    -2
100
AcDbLine
 10
214.7527019927225
 20
205.4012311247529
 30
0.0
 11
214.7527019927225
 21
231.6554739929246
 31
0.0
  0
LINE
  5
2378
330
840
100
AcDbEntity
  8
0
 62
     0
370
    -2
100
AcDbLine
 10
111.7527019927225
 20
205.4012311247529
 30
0.0
 11
111.7527019927225
 21
231.6554739929246
 31
0.0
  0
LINE
  5
2379
330
840
100
AcDbEntity
  8
0
 62
     0
370
    -2
100
AcDbLine
 10
212.2527019927225
 20
230.4054739929246
 30
0.0
 11
114.2527019927225
 21
230.4054739929246
 31
0.0
  0
INSERT
  5
237A
330
840
100
AcDbEntity
  8
0
 62
     0
370
    -2
100
AcDbBlockReference
  2
_Open30
 10
214.7527019927225
 20
230.4054739929246
 30
0.0
 41
2.5
 42
2.5
 43
2.5
  0
INSERT
  5
237B
330
840
100
AcDbEntity
  8
0
 62
     0
370
    -2
100
AcDbBlockReference
  2
_Open30
 10
111.7527019927225
 20
230.4054739929246
 30
0.0
 41
2.5
 42
2.5
 43
2.5
 50
180.0
  0
MTEXT
  5
237C
330
840
100
AcDbEntity
  8
0
 62
     4
100
AcDbMText
 10
161.5436787346357
 20
232.5304739929246
 30
0.0
 40
3.0
 41
0.0
 71
     5
 72
     1
  1
206
 73
     1
 44
1.0
1001
ACAD
1000
MTEXTBEGIN
1070
    73
1070
     1
1070
    44
1040
1.0
1070
    74
1070
     0
1000
MTEXTEND
  0
POINT
  5
237D
330
840
100
AcDbEntity
  8
Defpoints
 62
     0
100
AcDbPoint
 10
214.7527019927225
 20
205.1512311247529
 30
0.0
  0
POINT
  5
237E
330
840
100
AcDbEntity
  8
Defpoints
 62
     0
100
AcDbPoint
 10
111.7527019927225
 20
205.1512311247529
 30
0.0
  0
POINT
  5
237F
330
840
100
AcDbEntity
  8
Defpoints
 62
     0
100
AcDbPoint
 10
111.7527019927225
 20
230.4054739929246
 30
0.0
  0
ENDBLK
  5
842
330
840
100
AcDbEntity
  8
0
100
AcDbBlockEnd
  0
BLOCK
  5
84D
330
84C
100
AcDbEntity
  8
0
100
AcDbBlockBegin
  2
*D7
 70
     1
 10
0.0
 20
0.0
 30
0.0
  3
*D7
  1

  0
LINE
  5
2380
330
84C
100
AcDbEntity
  8
0
 62
     0
370
    -2
100
AcDbLine
 10
94.34917020040513
 20
193.1455133760175
 30
0.0
 11
94.34917020040513
 21
217.9472767844429
 31
0.0
  0
LINE
  5
2381
330
84C
100
AcDbEntity
  8
0
 62
     0
370
    -2
100
AcDbLine
 10
76.29374170903594
 20
193.1455133760175
 30
0.0
 11
76.29374170903594
 21
217.9472767844429
 31
0.0
  0
LINE
  5
2382
330
84C
100
AcDbEntity
  8
0
 62
     0
370
    -2
100
AcDbLine
 10
91.84917020040513
 20
216.6972767844429
 30
0.0
 11
78.79374170903594
 21
216.6972767844429
 31
0.0
  0
INSERT
  5
2383
330
84C
100
AcDbEntity
  8
0
 62
     0
370
    -2
100
AcDbBlockReference
  2
_Open30
 10
94.34917020040513
 20
216.6972767844429
 30
0.0
 41
2.5
 42
2.5
 43
2.5
  0
INSERT
  5
2384
330
84C
100
AcDbEntity
  8
0
 62
     0
370
    -2
100
AcDbBlockReference
  2
_Open30
 10
76.29374170903594
 20
216.6972767844429
 30
0.0
 41
2.5
 42
2.5
 43
2.5
 50
180.0
  0
MTEXT
  5
2385
330
84C
100
AcDbEntity
  8
0
 62
     4
100
AcDbMText
 10
85.30155133135716
 20
218.8222767844429
 30
0.0
 40
3.0
 41
0.0
 71
     5
 72
     1
  1
36
 73
     1
 44
1.0
1001
ACAD
1000
MTEXTBEGIN
1070
    73
1070
     1
1070
    44
1040
1.0
1070
    74
1070
     0
1000
MTEXTEND
  0
POINT
  5
2386
330
84C
100
AcDbEntity
  8
Defpoints
 62
     0
100
AcDbPoint
 10
94.34917020040513
 20
192.8955133760175
 30
0.0
  0
POINT
  5
2387
330
84C
100
AcDbEntity
  8
Defpoints
 62
     0
100
AcDbPoint
 10
76.29374170903594
 20
192.8955133760175
 30
0.0
  0
POINT
  5
2388
330
84C
100
AcDbEntity
  8
Defpoints
 62
     0
100
AcDbPoint
 10
76.29374170903594
 20
216.6972767844429
 30
0.0
  0
ENDBLK
  5
84E
330
84C
100
AcDbEntity
  8
0
100
AcDbBlockEnd
  0
BLOCK
  5
859
330
858
100
AcDbEntity
  8
0
100
AcDbBlockBegin
  2
*D8
 70
     1
 10
0.0
 20
0.0
 30
0.0
  3
*D8
  1

  0
LINE
  5
2389
330
858
100
AcDbEntity
  8
0
 62
     0
370
    -2
100
AcDbLine
 10
85.07145595472049
 20
205.1512311247528
 30
0.0
 11
64.27980090795296
 21
205.1512311247528
 31
0.0
  0
LINE
  5
238A
330
858
100
AcDbEntity
  8
0
 62
     0
370
    -2
100
AcDbLine
 10
85.07145595472049
 20
178.1512311247529
 30
0.0
 11
64.27980090795296
 21
178.1512311247529
 31
0.0
  0
LINE
  5
238B
330
858
100
AcDbEntity
  8
0
 62
     0
370
    -2
100
AcDbLine
 10
65.52980090795296
 20
202.6512311247528
 30
0.0
 11
65.52980090795296
 21
180.6512311247529
 31
0.0
  0
INSERT
  5
238C
330
858
100
AcDbEntity
  8
0
 62
     0
370
    -2
100
AcDbBlockReference
  2
_Open30
 10
65.52980090795296
 20
205.1512311247528
 30
0.0
 41
2.5
 42
2.5
 43
2.5
 50
90.0
  0
INSERT
  5
238D
330
858
100
AcDbEntity
  8
0
 62
     0
370
    -2
100
AcDbBlockReference
  2
_Open30
 10
65.52980090795296
 20
178.1512311247529
 30
0.0
 41
2.5
 42
2.5
 43
2.5
 50
270.0
  0
MTEXT
  5
238E
330
858
100
AcDbEntity
  8
0
 62
     4
100
AcDbMText
 10
63.40480090795293
 20
192.3993890943305
 30
0.0
 40
3.0
 41
0.0
 71
     5
 72
     1
  1
54
 11
0.0000000000000001
 21
1.0
 31
0.0
 73
     1
 44
1.0
1001
ACAD
1000
MTEXTBEGIN
1070
    73
1070
     1
1070
    44
1040
1.0
1070
    74
1070
     0
1000
MTEXTEND
  0
POINT
  5
238F
330
858
100
AcDbEntity
  8
Defpoints
 62
     0
100
AcDbPoint
 10
85.3214559547205
 20
205.1512311247528
 30
0.0
  0
POINT
  5
2390
330
858
100
AcDbEntity
  8
Defpoints
 62
     0
100
AcDbPoint
 10
85.3214559547205
 20
178.1512311247529
 30
0.0
  0
POINT
  5
2391
330
858
100
AcDbEntity
  8
Defpoints
 62
     0
100
AcDbPoint
 10
65.52980090795296
 20
178.1512311247529
 30
0.0
  0
ENDBLK
  5
85A
330
858
100
AcDbEntity
  8
0
100
AcDbBlockEnd
  0
BLOCK
  5
865
330
864
100
AcDbEntity
  8
0
100
AcDbBlockBegin
  2
*D9
 70
     1
 10
0.0
 20
0.0
 30
0.0
  3
*D9
  1

  0
LINE
  5
2392
330
864
100
AcDbEntity
  8
0
 62
     0
370
    -2
100
AcDbLine
 10
157.7527019927225
 20
175.1512311247528
 30
0.0
 11
102.1092730755996
 21
175.1512311247528
 31
0.0
  0
LINE
  5
2393
330
864
100
AcDbEntity
  8
0
 62
     0
370
    -2
100
AcDbLine
 10
111.5027019927226
 20
205.1512311247528
 30
0.0
 11
102.1092730755996
 21
205.1512311247528
 31
0.0
  0
LINE
  5
2394
330
864
100
AcDbEntity
  8
0
 62
     0
370
    -2
100
AcDbLine
 10
103.3592730755996
 20
177.6512311247528
 30
0.0
 11
103.3592730755996
 21
202.6512311247528
 31
0.0
  0
INSERT
  5
2395
330
864
100
AcDbEntity
  8
0
 62
     0
370
    -2
100
AcDbBlockReference
  2
_Open30
 10
103.3592730755996
 20
175.1512311247528
 30
0.0
 41
2.5
 42
2.5
 43
2.5
 50
270.0
  0
INSERT
  5
2396
330
864
100
AcDbEntity
  8
0
 62
     0
370
    -2
100
AcDbBlockReference
  2
_Open30
 10
103.3592730755996
 20
205.1512311247528
 30
0.0
 41
2.5
 42
2.5
 43
2.5
 50
90.0
  0
MTEXT
  5
2397
330
864
100
AcDbEntity
  8
0
 62
     4
100
AcDbMText
 10
101.2342730755996
 20
191.1604356762268
 30
0.0
 40
3.0
 41
0.0
 71
     5
 72
     1
  1
60
 11
0.0000000000000001
 21
1.0
 31
0.0
 73
     1
 44
1.0
1001
ACAD
1000
MTEXTBEGIN
1070
    73
1070
     1
1070
    44
1040
1.0
1070
    74
1070
     0
1000
MTEXTEND
  0
POINT
  5
2398
330
864
100
AcDbEntity
  8
Defpoints
 62
     0
100
AcDbPoint
 10
158.0027019927225
 20
175.1512311247528
 30
0.0
  0
POINT
  5
2399
330
864
100
AcDbEntity
  8
Defpoints
 62
     0
100
AcDbPoint
 10
111.7527019927226
 20
205.1512311247528
 30
0.0
  0
POINT
  5
239A
330
864
100
AcDbEntity
  8
Defpoints
 62
     0
100
AcDbPoint
 10
103.3592730755996
 20
205.1512311247528
 30
0.0
  0
ENDBLK
  5
866
330
864
100
AcDbEntity
  8
0
100
AcDbBlockEnd
  0
BLOCK
  5
871
330
870
100
AcDbEntity
  8
0
100
AcDbBlockBegin
  2
*D10
 70
     1
 10
0.0
 20
0.0
 30
0.0
  3
*D10
  1

  0
LINE
  5
2491
330
870
100
AcDbEntity
  8
0
 62
     0
370
    -2
100
AcDbLine
 10
334.9354021867069
 20
147.6549048268173
 30
0.0
 11
339.3208904774959
 21
143.2694165360284
 31
0.0
  0
LINE
  5
2492
330
870
100
AcDbEntity
  8
0
 62
     0
370
    -2
100
AcDbLine
 10
321.1670877832219
 20
161.6732192303021
 30
0.0
 11
346.9439951527024
 21
161.673219230302
 31
0.0
  0
ARC
  5
2493
330
870
100
AcDbEntity
  8
0
 62
     0
370
    -2
100
AcDbCircle
 10
320.9170877832219
 20
161.6732192303021
 30
0.0
 40
24.77690736948048
100
AcDbArc
 50
320.7836225913195
 51
354.2163774086811
  0
INSERT
  5
2494
330
870
100
AcDbEntity
  8
0
 62
     0
370
    -2
100
AcDbBlockReference
  2
_Open30
 10
338.4370070010127
 20
144.1533000125116
 30
0.0
 41
2.5
 42
2.5
 43
2.5
 50
227.89181129566
  0
INSERT
  5
2495
330
870
100
AcDbEntity
  8
0
 62
     0
370
    -2
100
AcDbBlockReference
  2
_Open30
 10
345.6939951527024
 20
161.673219230302
 30
0.0
 41
2.5
 42
2.5
 43
2.5
 50
87.10818870434055
  0
MTEXT
  5
2496
330
870
100
AcDbEntity
  8
0
 62
     4
100
AcDbMText
 10
342.1527063833869
 20
153.7892221384806
 30
0.0
 40
3.0
 41
0.0
 71
     5
 72
     1
  1
45\U+00B0
 11
0.3480500323095871
 21
0.9374759596967249
 31
0.0
 73
     1
 44
1.0
1001
ACAD
1000
MTEXTBEGIN
1070
    73
1070
     1
1070
    44
1040
1.0
1070
    74
1070
     0
1000
MTEXTEND
  0
POINT
  5
2497
330
870
100
AcDbEntity
  8
Defpoints
 62
     0
100
AcDbPoint
 10
342.3745189924059
 20
149.2847655455619
 30
0.0
  0
POINT
  5
2498
330
870
100
AcDbEntity
  8
Defpoints
 62
     0
100
AcDbPoint
 10
281.6128419069341
 20
161.6732192303021
 30
0.0
  0
POINT
  5
2499
330
870
100
AcDbEntity
  8
Defpoints
 62
     0
100
AcDbPoint
 10
334.7586254914103
 20
147.8316815221139
 30
0.0
  0
POINT
  5
249A
330
870
100
AcDbEntity
  8
Defpoints
 62
     0
100
AcDbPoint
 10
320.9170877832219
 20
161.6732192303021
 30
0.0
  0
POINT
  5
249B
330
870
100
AcDbEntity
  8
Defpoints
 62
     0
100
AcDbPoint
 10
320.9170877832219
 20
161.6732192303021
 30
0.0
  0
ENDBLK
  5
872
330
870
100
AcDbEntity
  8
0
100
AcDbBlockEnd
  0
BLOCK
  5
87F
330
87E
100
AcDbEntity
  8
0
100
AcDbBlockBegin
  2
*D11
 70
     1
 10
0.0
 20
0.0
 30
0.0
  3
*D11
  1

  0
LINE
  5
249C
330
87E
100
AcDbEntity
  8
0
 62
     0
370
    -2
100
AcDbLine
 10
321.6273871499857
 20
114.363172572842
 30
0.0
 11
321.6273871499857
 21
110.193979832338
 31
0.0
  0
LINE
  5
249D
330
87E
100
AcDbEntity
  8
0
 62
     0
370
    -2
100
AcDbLine
 10
321.8773871499856
 20
132.996736137669
 30
0.0
 11
344.4301434553167
 21
132.996736137669
 31
0.0
  0
ARC
  5
249E
330
87E
100
AcDbEntity
  8
0
 62
     0
370
    -2
100
AcDbCircle
 10
321.6273871499857
 20
132.996736137669
 30
0.0
 40
21.55275630533099
100
AcDbArc
 50
276.6497236101962
 51
353.3502763898038
  0
INSERT
  5
249F
330
87E
100
AcDbEntity
  8
0
 62
     0
370
    -2
100
AcDbBlockReference
  2
_Open30
 10
321.6273871499857
 20
111.443979832338
 30
0.0
 41
2.5
 42
2.5
 43
2.5
 50
183.3248618050981
  0
INSERT
  5
24A0
330
87E
100
AcDbEntity
  8
0
 62
     0
370
    -2
100
AcDbBlockReference
  2
_Open30
 10
343.1801434553166
 20
132.996736137669
 30
0.0
 41
2.5
 42
2.5
 43
2.5
 50
86.67513819490189
  0
MTEXT
  5
24A1
330
87E
100
AcDbEntity
  8
0
 62
     4
100
AcDbMText
 10
336.1965919115771
 20
120.1446550737264
 30
0.0
 40
3.0
 41
0.0
 71
     5
 72
     1
  1
90\U+00B0
 11
0.661531926896568
 21
0.7499170018718833
 31
0.0
 73
     1
 44
1.0
1001
ACAD
1000
MTEXTBEGIN
1070
    73
1070
     1
1070
    44
1040
1.0
1070
    74
1070
     0
1000
MTEXTEND
  0
POINT
  5
24A2
330
87E
100
AcDbEntity
  8
Defpoints
 62
     0
100
AcDbPoint
 10
332.4037653026512
 20
114.3315016556771
 30
0.0
  0
POINT
  5
24A3
330
87E
100
AcDbEntity
  8
Defpoints
 62
     0
100
AcDbPoint
 10
280.8229386420639
 20
132.996736137669
 30
0.0
  0
POINT
  5
24A4
330
87E
100
AcDbEntity
  8
Defpoints
 62
     0
100
AcDbPoint
 10
321.6273871499857
 20
114.613172572842
 30
0.0
  0
POINT
  5
24A5
330
87E
100
AcDbEntity
  8
Defpoints
 62
     0
100
AcDbPoint
 10
321.6273871499857
 20
132.996736137669
 30
0.0
  0
POINT
  5
24A6
330
87E
100
AcDbEntity
  8
Defpoints
 62
     0
100
AcDbPoint
 10
321.6273871499857
 20
132.996736137669
 30
0.0
  0
ENDBLK
  5
880
330
87E
100
AcDbEntity
  8
0
100
AcDbBlockEnd
  0
BLOCK
  5
B10
330
B0F
100
AcDbEntity
  8
0
100
AcDbBlockBegin
  2
*D12
 70
     1
 10
0.0
 20
0.0
 30
0.0
  3
*D12
  1

  0
LINE
  5
23B1
330
B0F
100
AcDbEntity
  8
0
 62
     0
370
    -2
100
AcDbLine
 10
210.5027019927225
 20
154.8020064779024
 30
0.0
 11
229.3212415692065
 21
154.8020064779024
 31
0.0
  0
LINE
  5
23B2
330
B0F
100
AcDbEntity
  8
0
 62
     0
370
    -2
100
AcDbLine
 10
210.5027019927225
 20
118.3020064779024
 30
0.0
 11
229.3212415692065
 21
118.3020064779024
 31
0.0
  0
LINE
  5
23B3
330
B0F
100
AcDbEntity
  8
0
 62
     0
370
    -2
100
AcDbLine
 10
228.0712415692065
 20
152.3020064779024
 30
0.0
 11
228.0712415692065
 21
120.8020064779024
 31
0.0
  0
INSERT
  5
23B4
330
B0F
100
AcDbEntity
  8
0
 62
     0
370
    -2
100
AcDbBlockReference
  2
_Open30
 10
228.0712415692065
 20
154.8020064779024
 30
0.0
 41
2.5
 42
2.5
 43
2.5
 50
90.0
  0
INSERT
  5
23B5
330
B0F
100
AcDbEntity
  8
0
 62
     0
370
    -2
100
AcDbBlockReference
  2
_Open30
 10
228.0712415692065
 20
118.3020064779024
 30
0.0
 41
2.5
 42
2.5
 43
2.5
 50
270.0
  0
MTEXT
  5
23B6
330
B0F
100
AcDbEntity
  8
0
 62
     4
100
AcDbMText
 10
225.9462415692065
 20
136.01882475631
 30
0.0
 40
3.0
 41
0.0
 71
     5
 72
     1
  1
%%C73
 11
0.0000000000000001
 21
1.0
 31
0.0
 73
     1
 44
1.0
1001
ACAD
1000
MTEXTBEGIN
1070
    73
1070
     1
1070
    44
1040
1.0
1070
    74
1070
     0
1000
MTEXTEND
  0
POINT
  5
23B7
330
B0F
100
AcDbEntity
  8
Defpoints
 62
     0
100
AcDbPoint
 10
210.2527019927225
 20
154.8020064779024
 30
0.0
  0
POINT
  5
23B8
330
B0F
100
AcDbEntity
  8
Defpoints
 62
     0
100
AcDbPoint
 10
210.2527019927225
 20
118.3020064779024
 30
0.0
  0
POINT
  5
23B9
330
B0F
100
AcDbEntity
  8
Defpoints
 62
     0
100
AcDbPoint
 10
228.0712415692065
 20
118.3020064779024
 30
0.0
  0
ENDBLK
  5
B11
330
B0F
100
AcDbEntity
  8
0
100
AcDbBlockEnd
  0
BLOCK
  5
B31
330
B30
100
AcDbEntity
  8
0
100
AcDbBlockBegin
  2
*D13
 70
     1
 10
0.0
 20
0.0
 30
0.0
  3
*D13
  1

  0
LINE
  5
23BA
330
B30
100
AcDbEntity
  8
0
 62
     0
370
    -2
100
AcDbLine
 10
216.3527019927226
 20
118.5520064779023
 30
0.0
 11
216.3527019927226
 21
110.4175821669314
 31
0.0
  0
LINE
  5
23BB
330
B30
100
AcDbEntity
  8
0
 62
     0
370
    -2
100
AcDbLine
 10
111.7527019927225
 20
127.8992922322176
 30
0.0
 11
111.7527019927225
 21
110.4175821669314
 31
0.0
  0
LINE
  5
23BC
330
B30
100
AcDbEntity
  8
0
 62
     0
370
    -2
100
AcDbLine
 10
213.8527019927226
 20
111.6675821669314
 30
0.0
 11
114.2527019927225
 21
111.6675821669314
 31
0.0
  0
INSERT
  5
23BD
330
B30
100
AcDbEntity
  8
0
 62
     0
370
    -2
100
AcDbBlockReference
  2
_Open30
 10
216.3527019927226
 20
111.6675821669314
 30
0.0
 41
2.5
 42
2.5
 43
2.5
  0
INSERT
  5
23BE
330
B30
100
AcDbEntity
  8
0
 62
     0
370
    -2
100
AcDbBlockReference
  2
_Open30
 10
111.7527019927225
 20
111.6675821669314
 30
0.0
 41
2.5
 42
2.5
 43
2.5
 50
180.0
  0
MTEXT
  5
23BF
330
B30
100
AcDbEntity
  8
0
 62
     4
100
AcDbMText
 10
159.5993801834802
 20
113.7925821669314
 30
0.0
 40
3.0
 41
0.0
 71
     5
 72
     1
  1
209.2
 73
     1
 44
1.0
1001
ACAD
1000
MTEXTBEGIN
1070
    73
1070
     1
1070
    44
1040
1.0
1070
    74
1070
     0
1000
MTEXTEND
  0
POINT
  5
23C0
330
B30
100
AcDbEntity
  8
Defpoints
 62
     0
100
AcDbPoint
 10
216.3527019927226
 20
118.8020064779023
 30
0.0
  0
POINT
  5
23C1
330
B30
100
AcDbEntity
  8
Defpoints
 62
     0
100
AcDbPoint
 10
111.7527019927225
 20
128.1492922322176
 30
0.0
  0
POINT
  5
23C2
330
B30
100
AcDbEntity
  8
Defpoints
 62
     0
100
AcDbPoint
 10
111.7527019927225
 20
111.6675821669314
 30
0.0
  0
ENDBLK
  5
B32
330
B30
100
AcDbEntity
  8
0
100
AcDbBlockEnd
  0
ENDSEC
  0
SECTION
  2
ENTITIES
  0
LINE
  5
513
330
1F
100
AcDbEntity
  8
0
 62
     3
100
AcDbLine
 10
395.3056906905663
 20
28.96779768750736
 30
0.0
 11
395.3056906905663
 21
49.96779768750736
 31
0.0
  0
LINE
  5
514
330
1F
100
AcDbEntity
  8
0
 62
     3
100
AcDbLine
 10
408.305690690566
 20
28.96779768750736
 30
0.0
 11
408.305690690566
 21
49.96779768750736
 31
0.0
  0
LINE
  5
515
330
1F
100
AcDbEntity
  8
0
 62
     3
100
AcDbLine
 10
421.3056906905661
 20
28.96779768750736
 30
0.0
 11
421.3056906905661
 21
49.96779768750736
 31
0.0
  0
LINE
  5
516
330
1F
100
AcDbEntity
  8
0
 62
     3
100
AcDbLine
 10
395.3056906905663
 20
28.96779768750736
 30
0.0
 11
395.3056906905663
 21
21.96779768750736
 31
0.0
  0
LINE
  5
517
330
1F
100
AcDbEntity
  8
0
 62
     3
100
AcDbLine
 10
368.2520806905665
 20
21.96779768750736
 30
0.0
 11
368.2520806905665
 21
35.96779768750736
 31
0.0
  0
LINE
  5
518
330
1F
100
AcDbEntity
  8
0
 62
     3
100
AcDbLine
 10
378.5840156905665
 20
35.96779768750736
 30
0.0
 11
378.5840156905665
 21
21.96779768750736
 31
0.0
  0
TEXT
  5
519
330
1F
100
AcDbEntity
  8
0
 62
     3
100
AcDbText
 10
397.3160086905664
 20
48.17291368750733
 30
0.0
 40
2.0
  1
A
 41
0.7
100
AcDbText
  0
TEXT
  5
51A
330
1F
100
AcDbEntity
  8
0
 62
     3
100
AcDbText
 10
399.8512946905666
 20
48.17291368750733
 30
0.0
 40
2.0
  1
P
 41
0.7
100
AcDbText
  0
TEXT
  5
51B
330
1F
100
AcDbEntity
  8
0
 62
     3
100
AcDbText
 10
402.3865806905663
 20
48.17291368750733
 30
0.0
 40
2.0
  1
P
 41
0.7
100
AcDbText
  0
TEXT
  5
51C
330
1F
100
AcDbEntity
  8
0
 62
     3
100
AcDbText
 10
404.9218666905662
 20
48.17291368750733
 30
0.0
 40
2.0
  1
D
 41
0.7
100
AcDbText
  0
TEXT
  5
51D
330
1F
100
AcDbEntity
  8
0
 62
     3
100
AcDbText
 10
410.2905496905663
 20
48.17291368750733
 30
0.0
 40
2.0
  1
C
 41
0.7
100
AcDbText
  0
TEXT
  5
51E
330
1F
100
AcDbEntity
  8
0
 62
     3
100
AcDbText
 10
412.8258366905663
 20
48.17291368750733
 30
0.0
 40
2.0
  1
H
 41
0.7
100
AcDbText
  0
TEXT
  5
51F
330
1F
100
AcDbEntity
  8
0
 62
     3
100
AcDbText
 10
415.3611226905663
 20
48.17291368750733
 30
0.0
 40
2.0
  1
C
 41
0.7
100
AcDbText
  0
TEXT
  5
520
330
1F
100
AcDbEntity
  8
0
 62
     3
100
AcDbText
 10
417.8964086905661
 20
48.17291368750733
 30
0.0
 40
2.0
  1
K
 41
0.7
100
AcDbText
  0
TEXT
  5
521
330
1F
100
AcDbEntity
  8
0
 62
     3
100
AcDbText
 10
423.5703756905663
 20
48.17291368750733
 30
0.0
 40
2.0
  1
DESN
 41
1.216762999999998
100
AcDbText
  0
TEXT
  5
522
330
1F
100
AcDbEntity
  8
0
 62
     3
100
AcDbText
 10
338.5640166905663
 20
18.82641568750733
 30
0.0
 40
2.0
  1
NICHIDO IND.CO.LTD
 41
1.274876
100
AcDbText
  0
LINE
  5
523
330
1F
100
AcDbEntity
  8
0
 62
     3
100
AcDbLine
 10
348.9470456905665
 20
51.96779768750737
 30
0.0
 11
348.9470456905665
 21
28.96779768750736
 31
0.0
  0
LINE
  5
524
330
1F
100
AcDbEntity
  8
0
 62
     3
100
AcDbLine
 10
395.3056906905663
 20
21.96779768750736
 30
0.0
 11
395.3056906905663
 21
12.30207568750734
 31
0.0
  0
LINE
  5
526
330
1F
100
AcDbEntity
  8
0
 62
     3
100
AcDbLine
 10
395.3056906905663
 20
49.96779768750736
 30
0.0
 11
395.3056906905663
 21
51.96779768750737
 31
0.0
  0
LINE
  5
527
330
1F
100
AcDbEntity
  8
0
 62
     3
100
AcDbLine
 10
408.305690690566
 20
49.96779768750736
 30
0.0
 11
408.305690690566
 21
51.96779768750737
 31
0.0
  0
LINE
  5
528
330
1F
100
AcDbEntity
  8
0
 62
     3
100
AcDbLine
 10
421.3056906905661
 20
49.96779768750736
 30
0.0
 11
421.3056906905661
 21
51.96779768750737
 31
0.0
  0
LINE
  5
529
330
1F
100
AcDbEntity
  8
0
 62
     3
100
AcDbLine
 10
408.305690690566
 20
28.96779768750736
 30
0.0
 11
408.305690690566
 21
21.96779768750736
 31
0.0
  0
TEXT
  5
52A
330
1F
100
AcDbEntity
  8
0
 62
     3
100
AcDbText
 10
396.4181346905667
 20
22.83248468750736
 30
0.0
 40
3.2
  1
作成日
 41
1.017225999999997
100
AcDbText
  0
LINE
  5
52B
330
1F
100
AcDbEntity
  8
0
 62
     3
100
AcDbLine
 10
447.0050536905664
 20
51.96779768750737
 30
0.0
 11
335.7016116905664
 21
51.96779768750737
 31
0.0
  0
LINE
  5
52C
330
1F
100
AcDbEntity
  8
0
 62
     3
100
AcDbLine
 10
434.3056906905663
 20
28.96779768750736
 30
0.0
 11
434.3056906905663
 21
51.96779768750737
 31
0.0
  0
TEXT
  5
52D
330
1F
100
AcDbEntity
  8
0
 62
     3
100
AcDbText
 10
437.6294936905663
 20
48.25873268750735
 30
0.0
 40
1.8
  1
D
 41
0.666667
100
AcDbText
  0
TEXT
  5
52E
330
1F
100
AcDbEntity
  8
0
 62
     3
100
AcDbText
 10
440.4461216905665
 20
48.25873268750735
 30
0.0
 40
1.8
  1
E
 41
0.666667
100
AcDbText
  0
TEXT
  5
52F
330
1F
100
AcDbEntity
  8
0
 62
     3
100
AcDbText
 10
443.2627496905666
 20
48.25873268750735
 30
0.0
 40
1.8
  1
F
 41
0.666667
100
AcDbText
  0
TEXT
  5
530
330
1F
100
AcDbEntity
  8
0
 62
     3
100
AcDbText
 10
437.6294936905663
 20
44.26617868750736
 30
0.0
 40
3.2
  1
製図
 41
1.076369
100
AcDbText
  0
LINE
  5
531
330
1F
100
AcDbEntity
  8
0
 62
     3
100
AcDbLine
 10
335.7016116905664
 20
51.96779768750737
 30
0.0
 11
335.7016116905664
 21
12.30207568750734
 31
0.0
  0
TEXT
  5
532
330
1F
100
AcDbEntity
  8
0
 62
     3
100
AcDbText
 10
337.0782636905665
 20
12.63454068750735
 30
0.0
 40
5.0
  1
日動工業株式会社
 41
0.833333
100
AcDbText
  0
LINE
  5
533
330
1F
100
AcDbEntity
  8
0
 62
     3
100
AcDbLine
 10
378.5840156905665
 20
21.96779768750736
 30
0.0
 11
378.5840156905665
 21
12.30207568750734
 31
0.0
  0
LINE
  5
534
330
1F
100
AcDbEntity
  8
0
 62
     3
100
AcDbLine
 10
378.5840156905665
 20
17.13493668750738
 30
0.0
 11
395.3056906905663
 21
17.13493668750738
 31
0.0
  0
TEXT
  5
535
330
1F
100
AcDbEntity
  8
0
 62
     3
100
AcDbText
 10
379.170616690566
 20
17.95136668750734
 30
0.0
 40
3.2
  1
出図コード
 41
0.8356860000000001
100
AcDbText
  0
LINE
  5
543
330
1F
100
AcDbEntity
  8
0
 62
     3
100
AcDbLine
 10
443.3687866905666
 20
21.96779768750736
 30
0.0
 11
411.8892396905663
 21
21.96779768750736
 31
0.0
  0
LINE
  5
544
330
1F
100
AcDbEntity
  8
0
 62
     3
100
AcDbLine
 10
443.3687866905666
 20
21.96779768750736
 30
0.0
 11
447.0050536905664
 21
21.96779768750736
 31
0.0
  0
LINE
  5
545
330
1F
100
AcDbEntity
  8
0
 62
     3
100
AcDbLine
 10
350.8479826905665
 20
42.96779768750734
 30
0.0
 11
335.7016116905664
 21
42.96779768750734
 31
0.0
  0
LINE
  5
546
330
1F
100
AcDbEntity
  8
0
 62
     3
100
AcDbLine
 10
393.1198366905665
 20
42.96779768750734
 30
0.0
 11
447.0050536905664
 21
42.96779768750734
 31
0.0
  0
LINE
  5
547
330
1F
100
AcDbEntity
  8
0
 62
     3
100
AcDbLine
 10
354.4335056905664
 20
42.96779768750734
 30
0.0
 11
350.8479826905665
 21
42.96779768750734
 31
0.0
  0
LINE
  5
548
330
1F
100
AcDbEntity
  8
0
 62
     3
100
AcDbLine
 10
389.5382836905665
 20
42.96779768750734
 30
0.0
 11
354.4335056905664
 21
42.96779768750734
 31
0.0
  0
LINE
  5
549
330
1F
100
AcDbEntity
  8
0
 62
     3
100
AcDbLine
 10
389.5382836905665
 20
42.96779768750734
 30
0.0
 11
393.1198366905665
 21
42.96779768750734
 31
0.0
  0
LINE
  5
54A
330
1F
100
AcDbEntity
  8
0
 62
     3
100
AcDbLine
 10
354.4335056905664
 20
35.96779768750736
 30
0.0
 11
335.7016116905664
 21
35.96779768750736
 31
0.0
  0
LINE
  5
54B
330
1F
100
AcDbEntity
  8
0
 62
     3
100
AcDbLine
 10
389.4509286905663
 20
35.96779768750736
 30
0.0
 11
354.4335056905664
 21
35.96779768750736
 31
0.0
  0
LINE
  5
54C
330
1F
100
AcDbEntity
  8
0
 62
     3
100
AcDbLine
 10
389.4509286905663
 20
35.96779768750736
 30
0.0
 11
395.3056906905663
 21
35.96779768750736
 31
0.0
  0
LINE
  5
54D
330
1F
100
AcDbEntity
  8
0
 62
     3
100
AcDbLine
 10
381.9026676905664
 20
21.96779768750736
 30
0.0
 11
335.7016116905664
 21
21.96779768750736
 31
0.0
  0
LINE
  5
54E
330
1F
100
AcDbEntity
  8
0
 62
     3
100
AcDbLine
 10
391.6705386905665
 20
21.96779768750736
 30
0.0
 11
381.9026676905664
 21
21.96779768750736
 31
0.0
  0
LINE
  5
54F
330
1F
100
AcDbEntity
  8
0
 62
     3
100
AcDbLine
 10
391.6705386905665
 20
21.96779768750736
 30
0.0
 11
411.8892396905663
 21
21.96779768750736
 31
0.0
  0
LINE
  5
550
330
1F
100
AcDbEntity
  8
0
 62
     3
100
AcDbLine
 10
351.1060766905664
 20
28.96779768750736
 30
0.0
 11
335.7016116905664
 21
28.96779768750736
 31
0.0
  0
LINE
  5
551
330
1F
100
AcDbEntity
  8
0
 62
     3
100
AcDbLine
 10
365.5633206905664
 20
28.96779768750736
 30
0.0
 11
351.1060766905664
 21
28.96779768750736
 31
0.0
  0
LINE
  5
552
330
1F
100
AcDbEntity
  8
0
 62
     3
100
AcDbLine
 10
365.5633206905664
 20
28.96779768750736
 30
0.0
 11
447.0050536905664
 21
28.96779768750736
 31
0.0
  0
LINE
  5
553
330
1F
100
AcDbEntity
  8
0
 62
     3
100
AcDbLine
 10
447.0050536905664
 20
286.3574366875074
 30
0.0
 11
447.0050536905664
 21
12.30207568750734
 31
0.0
  0
LINE
  5
554
330
1F
100
AcDbEntity
  8
0
 62
     3
100
AcDbLine
 10
57.00505369056647
 20
286.3574366875074
 30
0.0
 11
57.00505369056647
 21
12.30207568750734
 31
0.0
  0
LINE
  5
555
330
1F
100
AcDbEntity
  8
0
 62
     3
100
AcDbLine
 10
396.4533876905666
 20
12.30207568750734
 30
0.0
 11
57.00505369056647
 21
12.30207568750734
 31
0.0
  0
LINE
  5
556
330
1F
100
AcDbEntity
  8
0
 62
     3
100
AcDbLine
 10
445.2917556905663
 20
12.30207568750734
 30
0.0
 11
396.4533876905666
 21
12.30207568750734
 31
0.0
  0
LINE
  5
557
330
1F
100
AcDbEntity
  8
0
 62
     3
100
AcDbLine
 10
445.2917556905663
 20
12.30207568750734
 30
0.0
 11
447.0050536905664
 21
12.30207568750734
 31
0.0
  0
TEXT
  5
558
330
1F
100
AcDbEntity
  8
0
 62
     3
100
AcDbText
 10
379.0380686905669
 20
12.69293978298566
 30
0.0
 40
3.2
  1
ZK-A3X
 41
0.8112849999999999
100
AcDbText
  0
LINE
  5
559
330
1F
100
AcDbEntity
  8
0
 62
     2
100
AcDbLine
 10
234.7799436905665
 20
288.7974386875074
 30
0.0
 11
235.4024406905665
 21
288.4724836875071
 31
0.0
  0
LINE
  5
55A
330
1F
100
AcDbEntity
  8
0
 62
     2
100
AcDbLine
 10
234.7799436905665
 20
283.4679666875073
 30
0.0
 11
235.4024406905665
 21
283.7929206875072
 31
0.0
  0
LINE
  5
55B
330
1F
100
AcDbEntity
  8
0
 62
     2
100
AcDbLine
 10
235.4024406905665
 20
288.4724836875071
 30
0.0
 11
235.4024406905665
 21
283.7929206875072
 31
0.0
  0
LINE
  5
55C
330
1F
100
AcDbEntity
  8
0
 62
     2
100
AcDbLine
 10
236.9788936905665
 20
283.4679666875073
 30
0.0
 11
236.3563966905662
 21
283.7929206875072
 31
0.0
  0
LINE
  5
55D
330
1F
100
AcDbEntity
  8
0
 62
     2
100
AcDbLine
 10
236.3563966905662
 20
286.6455766875075
 30
0.0
 11
236.3563966905662
 21
283.7929206875072
 31
0.0
  0
LINE
  5
55E
330
1F
100
AcDbEntity
  8
0
 62
     2
100
AcDbLine
 10
240.6101266905666
 20
288.7974386875074
 30
0.0
 11
239.9876296905665
 21
288.4724836875071
 31
0.0
  0
LINE
  5
55F
330
1F
100
AcDbEntity
  8
0
 62
     2
100
AcDbLine
 10
238.4111756905664
 20
288.7974386875074
 30
0.0
 11
239.0336726905662
 21
288.4724836875071
 31
0.0
  0
LINE
  5
560
330
1F
100
AcDbEntity
  8
0
 62
     2
100
AcDbLine
 10
239.0336726905662
 20
288.4724836875071
 30
0.0
 11
239.0336726905662
 21
286.4120026875074
 31
0.0
  0
LINE
  5
561
330
1F
100
AcDbEntity
  8
0
 62
     2
100
AcDbLine
 10
239.9876296905665
 20
288.4724836875071
 30
0.0
 11
239.9876296905665
 21
283.1657356875074
 31
0.0
  0
LINE
  5
562
330
1F
100
AcDbEntity
  8
0
 62
     2
100
AcDbLine
 10
240.9176936905666
 20
288.7974346875073
 30
0.0
 11
241.5401886905663
 21
288.4724756875074
 31
0.0
  0
LINE
  5
563
330
1F
100
AcDbEntity
  8
0
 62
     2
100
AcDbLine
 10
240.9175826905662
 20
283.4680376875073
 30
0.0
 11
241.5400906905665
 21
283.7929706875072
 31
0.0
  0
LINE
  5
564
330
1F
100
AcDbEntity
  8
0
 62
     2
100
AcDbLine
 10
241.5401886905663
 20
288.4724756875074
 30
0.0
 11
241.5401886905663
 21
283.7929706875072
 31
0.0
  0
LINE
  5
565
330
1F
100
AcDbEntity
  8
0
 62
     2
100
AcDbLine
 10
243.6741746905662
 20
288.7974006875074
 30
0.0
 11
243.0516726905664
 21
288.4724546875072
 31
0.0
  0
LINE
  5
566
330
1F
100
AcDbEntity
  8
0
 62
     2
100
AcDbLine
 10
243.0516726905664
 20
288.4724546875072
 30
0.0
 11
243.0516726905664
 21
283.7929496875073
 31
0.0
  0
LINE
  5
567
330
1F
100
AcDbEntity
  8
0
 62
     2
100
AcDbLine
 10
243.6741746905662
 20
283.4680036875074
 30
0.0
 11
243.0516726905664
 21
283.7929496875073
 31
0.0
  0
LINE
  5
568
330
1F
100
AcDbEntity
  8
0
 62
     2
100
AcDbLine
 10
248.9459646905662
 20
288.7973426875074
 30
0.0
 11
249.5684606905666
 21
288.4723856875074
 31
0.0
  0
LINE
  5
569
330
1F
100
AcDbEntity
  8
0
 62
     2
100
AcDbLine
 10
249.5684606905666
 20
288.4723856875074
 30
0.0
 11
249.5683786905665
 21
283.7928806875073
 31
0.0
  0
LINE
  5
56A
330
1F
100
AcDbEntity
  8
0
 62
     2
100
AcDbLine
 10
248.9458716905666
 20
283.4679456875072
 30
0.0
 11
249.5683786905665
 21
283.7928806875073
 31
0.0
  0
LINE
  5
56B
330
1F
100
AcDbEntity
  8
0
 62
     2
100
AcDbLine
 10
251.7349086905663
 20
288.7973426875074
 30
0.0
 11
251.1124136905665
 21
288.4723856875074
 31
0.0
  0
LINE
  5
56C
330
1F
100
AcDbEntity
  8
0
 62
     2
100
AcDbLine
 10
251.7350016905666
 20
283.4679456875072
 30
0.0
 11
251.1124946905665
 21
283.7928806875073
 31
0.0
  0
LINE
  5
56D
330
1F
100
AcDbEntity
  8
0
 62
     2
100
AcDbLine
 10
252.0259486905665
 20
288.7973426875074
 30
0.0
 11
252.6484446905668
 21
288.4723856875074
 31
0.0
  0
LINE
  5
56E
330
1F
100
AcDbEntity
  8
0
 62
     2
100
AcDbLine
 10
252.0258556905662
 20
283.4679456875072
 30
0.0
 11
252.6483626905665
 21
283.7928806875073
 31
0.0
  0
LINE
  5
56F
330
1F
100
AcDbEntity
  8
0
 62
     2
100
AcDbLine
 10
254.8148926905661
 20
288.7973426875074
 30
0.0
 11
254.1923976905664
 21
288.4723856875074
 31
0.0
  0
LINE
  5
570
330
1F
100
AcDbEntity
  8
0
 62
     2
100
AcDbLine
 10
254.1923976905664
 20
288.4723856875074
 30
0.0
 11
254.1924786905664
 21
283.7928806875073
 31
0.0
  0
LINE
  5
571
330
1F
100
AcDbEntity
  8
0
 62
     2
100
AcDbLine
 10
254.8149856905661
 20
283.4679456875072
 30
0.0
 11
254.1924786905664
 21
283.7928806875073
 31
0.0
  0
LINE
  5
572
330
1F
100
AcDbEntity
  8
0
 62
     2
100
AcDbLine
 10
252.6484096905665
 20
286.4336236875073
 30
0.0
 11
251.1124486905661
 21
286.4336236875073
 31
0.0
  0
LINE
  5
573
330
1F
100
AcDbEntity
  8
0
 62
     2
100
AcDbLine
 10
252.6483986905665
 20
285.8317806875073
 30
0.0
 11
251.1124596905666
 21
285.8317806875073
 31
0.0
  0
LINE
  5
574
330
1F
100
AcDbEntity
  8
0
 62
     2
100
AcDbLine
 10
252.6484446905668
 20
288.4723856875074
 30
0.0
 11
252.6484096905665
 21
286.4336236875073
 31
0.0
  0
LINE
  5
575
330
1F
100
AcDbEntity
  8
0
 62
     2
100
AcDbLine
 10
252.6483986905665
 20
285.8317806875073
 30
0.0
 11
252.6483626905665
 21
283.7928806875073
 31
0.0
  0
LINE
  5
576
330
1F
100
AcDbEntity
  8
0
 62
     2
100
AcDbLine
 10
251.1124136905665
 20
288.4723856875074
 30
0.0
 11
251.1124486905661
 21
286.4336236875073
 31
0.0
  0
LINE
  5
577
330
1F
100
AcDbEntity
  8
0
 62
     2
100
AcDbLine
 10
251.1124596905666
 20
285.8317806875073
 30
0.0
 11
251.1124946905665
 21
283.7928806875073
 31
0.0
  0
LINE
  5
578
330
1F
100
AcDbEntity
  8
0
 62
     2
100
AcDbLine
 10
255.1105486905662
 20
288.7973426875074
 30
0.0
 11
255.7330446905663
 21
288.4723856875074
 31
0.0
  0
LINE
  5
579
330
1F
100
AcDbEntity
  8
0
 62
     2
100
AcDbLine
 10
255.7330446905663
 20
288.4723856875074
 30
0.0
 11
255.7329636905664
 21
283.7928806875073
 31
0.0
  0
LINE
  5
57A
330
1F
100
AcDbEntity
  8
0
 62
     2
100
AcDbLine
 10
255.1104556905662
 20
283.4679456875072
 30
0.0
 11
255.7329636905664
 21
283.7928806875073
 31
0.0
  0
LINE
  5
57B
330
1F
100
AcDbEntity
  8
0
 62
     2
100
AcDbLine
 10
257.8669926905661
 20
288.7973426875074
 30
0.0
 11
257.2444966905664
 21
288.4723856875074
 31
0.0
  0
LINE
  5
57C
330
1F
100
AcDbEntity
  8
0
 62
     2
100
AcDbLine
 10
257.2444966905664
 20
288.4723856875074
 30
0.0
 11
257.2445776905665
 21
283.7928806875073
 31
0.0
  0
LINE
  5
57D
330
1F
100
AcDbEntity
  8
0
 62
     2
100
AcDbLine
 10
257.8670856905664
 20
283.4679456875072
 30
0.0
 11
257.2445776905665
 21
283.7928806875073
 31
0.0
  0
LINE
  5
57E
330
1F
100
AcDbEntity
  8
0
 62
     2
100
AcDbLine
 10
258.1732206905666
 20
288.7973426875074
 30
0.0
 11
258.7957156905661
 21
288.4723856875074
 31
0.0
  0
LINE
  5
57F
330
1F
100
AcDbEntity
  8
0
 62
     2
100
AcDbLine
 10
258.7957156905661
 20
288.4723856875074
 30
0.0
 11
258.7956346905666
 21
283.7928806875073
 31
0.0
  0
LINE
  5
580
330
1F
100
AcDbEntity
  8
0
 62
     2
100
AcDbLine
 10
258.1731276905665
 20
283.4679456875072
 30
0.0
 11
258.7956346905666
 21
283.7928806875073
 31
0.0
  0
ARC
  5
581
330
1F
100
AcDbEntity
  8
0
 62
     2
100
AcDbCircle
 10
246.9575206905663
 20
286.1461166875074
 30
0.0
 40
2.980408
100
AcDbArc
 50
97.70152399999965
 51
270.0
  0
ARC
  5
582
330
1F
100
AcDbEntity
  8
0
 62
     2
100
AcDbCircle
 10
265.3583786905665
 20
286.1161786875072
 30
0.0
 40
3.012775999999998
100
AcDbArc
 50
0.3142499999975783
 51
69.005581999998
  0
ARC
  5
583
330
1F
100
AcDbEntity
  8
0
 62
     2
100
AcDbCircle
 10
266.0164856905666
 20
286.1161786875072
 30
0.0
 40
3.012775999999998
100
AcDbArc
 50
110.994418000002
 51
148.1166110000001
  0
ARC
  5
584
330
1F
100
AcDbEntity
  8
0
 62
     2
100
AcDbCircle
 10
265.3583786905665
 20
286.1492266875073
 30
0.0
 40
3.012775999999998
100
AcDbArc
 50
290.9944180000021
 51
359.6857500000024
  0
ARC
  5
585
330
1F
100
AcDbEntity
  8
0
 62
     2
100
AcDbCircle
 10
266.0164856905666
 20
286.1492266875073
 30
0.0
 40
3.012775999999998
100
AcDbArc
 50
211.8833889999999
 51
249.005581999998
  0
ARC
  5
586
330
1F
100
AcDbEntity
  8
0
 62
     2
100
AcDbCircle
 10
265.6874326905664
 20
287.3652816875075
 30
0.0
 40
1.734386999999999
100
AcDbArc
 50
64.3651719999999
 51
115.6348280000001
  0
ARC
  5
587
330
1F
100
AcDbEntity
  8
0
 62
     2
100
AcDbCircle
 10
265.6874326905664
 20
284.9001236875072
 30
0.0
 40
1.734386999999999
100
AcDbArc
 50
244.3651719999999
 51
295.6348280000002
  0
ARC
  5
588
330
1F
100
AcDbEntity
  8
0
 62
     2
100
AcDbCircle
 10
265.6874326905664
 20
287.3982266875074
 30
0.0
 40
0.8512219999999999
100
AcDbArc
 50
19.48660599999861
 51
160.5133940000014
  0
ARC
  5
589
330
1F
100
AcDbEntity
  8
0
 62
     2
100
AcDbCircle
 10
265.6874326905664
 20
284.8671776875074
 30
0.0
 40
0.8512219999999999
100
AcDbArc
 50
199.4866059999986
 51
340.5133940000014
  0
ARC
  5
58A
330
1F
100
AcDbEntity
  8
0
 62
     3
100
AcDbCircle
 10
258.9124716905665
 20
254.3783306875074
 30
0.0
 40
37.20000000000001
100
AcDbArc
 50
69.50571500000283
 51
81.68998800000144
  0
ARC
  5
58B
330
1F
100
AcDbEntity
  8
0
 62
     3
100
AcDbCircle
 10
258.9124716905665
 20
317.8870736875071
 30
0.0
 40
37.20000000000001
100
AcDbArc
 50
278.3100119999986
 51
290.4942849999971
  0
ARC
  5
58C
330
1F
100
AcDbEntity
  8
0
 62
     3
100
AcDbCircle
 10
270.7813346905666
 20
286.1327026875073
 30
0.0
 40
3.299999999999998
100
AcDbArc
 50
290.4942849999971
 51
69.50571500000283
  0
ARC
  5
58D
330
1F
100
AcDbEntity
  8
0
 62
     3
100
AcDbCircle
 10
231.7813346905665
 20
286.1327026875073
 30
0.0
 40
3.299999999999998
100
AcDbArc
 50
110.4942849999971
 51
249.5057150000028
  0
ARC
  5
58E
330
1F
100
AcDbEntity
  8
0
 62
     3
100
AcDbCircle
 10
243.6501976905665
 20
254.3783306875074
 30
0.0
 40
37.20000000000001
100
AcDbArc
 50
98.31001199999851
 51
110.4942849999971
  0
ARC
  5
58F
330
1F
100
AcDbEntity
  8
0
 62
     3
100
AcDbCircle
 10
243.6501976905665
 20
317.8870736875071
 30
0.0
 40
37.20000000000001
100
AcDbArc
 50
249.5057150000028
 51
261.6899880000015
  0
ARC
  5
590
330
1F
100
AcDbEntity
  8
0
 62
     3
100
AcDbCircle
 10
251.2813346905666
 20
202.1327026875073
 30
0.0
 40
90.0
100
AcDbArc
 50
81.68998800000144
 51
98.31001199999851
  0
ARC
  5
591
330
1F
100
AcDbEntity
  8
0
 62
     3
100
AcDbCircle
 10
251.2813346905666
 20
370.1327026875071
 30
0.0
 40
90.0
100
AcDbArc
 50
261.6899880000015
 51
278.3100119999986
  0
ARC
  5
592
330
1F
100
AcDbEntity
  8
0
 62
     3
100
AcDbCircle
 10
251.2813346905666
 20
202.1327026875073
 30
0.0
 40
89.1
100
AcDbArc
 50
81.68998800000144
 51
98.31001199999851
  0
ARC
  5
593
330
1F
100
AcDbEntity
  8
0
 62
     3
100
AcDbCircle
 10
251.2813346905666
 20
370.1327026875071
 30
0.0
 40
89.1
100
AcDbArc
 50
261.6899880000015
 51
278.3100119999986
  0
ARC
  5
594
330
1F
100
AcDbEntity
  8
0
 62
     3
100
AcDbCircle
 10
258.9124716905665
 20
317.8870736875071
 30
0.0
 40
36.3
100
AcDbArc
 50
278.3100119999986
 51
290.4942849999971
  0
ARC
  5
595
330
1F
100
AcDbEntity
  8
0
 62
     3
100
AcDbCircle
 10
258.9124716905665
 20
254.3783306875074
 30
0.0
 40
36.3
100
AcDbArc
 50
69.50571500000283
 51
81.68998800000144
  0
ARC
  5
596
330
1F
100
AcDbEntity
  8
0
 62
     3
100
AcDbCircle
 10
270.7813346905666
 20
286.1327026875073
 30
0.0
 40
2.399999999999999
100
AcDbArc
 50
290.4942849999971
 51
69.50571500000283
  0
ARC
  5
597
330
1F
100
AcDbEntity
  8
0
 62
     3
100
AcDbCircle
 10
231.7813346905665
 20
286.1327026875073
 30
0.0
 40
2.399999999999999
100
AcDbArc
 50
110.4942849999971
 51
249.5057150000028
  0
ARC
  5
598
330
1F
100
AcDbEntity
  8
0
 62
     3
100
AcDbCircle
 10
243.6501976905665
 20
254.3783306875074
 30
0.0
 40
36.3
100
AcDbArc
 50
98.31001199999851
 51
110.4942849999971
  0
ARC
  5
599
330
1F
100
AcDbEntity
  8
0
 62
     3
100
AcDbCircle
 10
243.6501976905665
 20
317.8870736875071
 30
0.0
 40
36.3
100
AcDbArc
 50
249.5057150000028
 51
261.6899880000015
  0
LINE
  5
59A
330
1F
100
AcDbEntity
  8
0
 62
     2
100
AcDbLine
 10
257.8669936905665
 20
283.1657356875074
 30
0.0
 11
255.1105476905662
 21
283.1657356875074
 31
0.0
  0
LINE
  5
59B
330
1F
100
AcDbEntity
  8
0
 62
     2
100
AcDbLine
 10
257.8669936905665
 20
283.4679666875073
 30
0.0
 11
257.8669936905665
 21
283.1657356875074
 31
0.0
  0
LINE
  5
59C
330
1F
100
AcDbEntity
  8
0
 62
     2
100
AcDbLine
 10
254.8148946905665
 20
289.0995276875074
 30
0.0
 11
252.0259476905666
 21
289.0995276875074
 31
0.0
  0
LINE
  5
59D
330
1F
100
AcDbEntity
  8
0
 62
     2
100
AcDbLine
 10
254.8148946905665
 20
289.0995276875074
 30
0.0
 11
254.8148946905665
 21
288.7974386875074
 31
0.0
  0
LINE
  5
59E
330
1F
100
AcDbEntity
  8
0
 62
     2
100
AcDbLine
 10
254.8148946905665
 20
283.4679666875073
 30
0.0
 11
254.8148946905665
 21
283.1655946875073
 31
0.0
  0
LINE
  5
59F
330
1F
100
AcDbEntity
  8
0
 62
     2
100
AcDbLine
 10
254.8148946905665
 20
283.1655946875073
 30
0.0
 11
252.0259476905666
 21
283.1655946875073
 31
0.0
  0
LINE
  5
5A0
330
1F
100
AcDbEntity
  8
0
 62
     2
100
AcDbLine
 10
257.8669936905665
 20
289.0996686875072
 30
0.0
 11
257.8669936905665
 21
288.7974386875074
 31
0.0
  0
LINE
  5
5A1
330
1F
100
AcDbEntity
  8
0
 62
     2
100
AcDbLine
 10
257.8669936905665
 20
289.0996686875072
 30
0.0
 11
255.1105476905662
 21
289.0996686875072
 31
0.0
  0
LINE
  5
5A2
330
1F
100
AcDbEntity
  8
0
 62
     2
100
AcDbLine
 10
255.1105476905662
 20
289.0996686875072
 30
0.0
 11
255.1105476905662
 21
288.7974386875074
 31
0.0
  0
LINE
  5
5A3
330
1F
100
AcDbEntity
  8
0
 62
     2
100
AcDbLine
 10
258.1732186905666
 20
283.4679666875073
 30
0.0
 11
258.1732186905666
 21
283.1657356875074
 31
0.0
  0
LINE
  5
5A4
330
1F
100
AcDbEntity
  8
0
 62
     2
100
AcDbLine
 10
261.0079346905667
 20
283.1657356875074
 30
0.0
 11
258.1732186905666
 21
283.1657356875074
 31
0.0
  0
LINE
  5
5A5
330
1F
100
AcDbEntity
  8
0
 62
     2
100
AcDbLine
 10
260.3071676905661
 20
288.1457116875073
 30
0.0
 11
260.3071676905661
 21
284.1196926875073
 31
0.0
  0
LINE
  5
5A6
330
1F
100
AcDbEntity
  8
0
 62
     2
100
AcDbLine
 10
260.3071676905661
 20
284.1196926875073
 30
0.0
 11
260.5786656905662
 21
284.1196926875073
 31
0.0
  0
ARC
  5
5A7
330
1F
100
AcDbEntity
  8
0
 62
     2
100
AcDbCircle
 10
259.1904006905663
 20
286.1327026875073
 30
0.0
 40
2.445299
100
AcDbArc
 50
304.591955000001
 51
55.40804499999904
  0
LINE
  5
5A8
330
1F
100
AcDbEntity
  8
0
 62
     2
100
AcDbLine
 10
261.0079346905667
 20
289.0996686875072
 30
0.0
 11
258.1732186905666
 21
289.0996686875072
 31
0.0
  0
LINE
  5
5A9
330
1F
100
AcDbEntity
  8
0
 62
     2
100
AcDbLine
 10
258.1732186905666
 20
289.0996686875072
 30
0.0
 11
258.1732186905666
 21
288.7974386875074
 31
0.0
  0
LINE
  5
5AA
330
1F
100
AcDbEntity
  8
0
 62
     2
100
AcDbLine
 10
255.1105476905662
 20
283.4679666875073
 30
0.0
 11
255.1105476905662
 21
283.1657356875074
 31
0.0
  0
LINE
  5
5AB
330
1F
100
AcDbEntity
  8
0
 62
     2
100
AcDbLine
 10
260.3071676905661
 20
288.1457116875073
 30
0.0
 11
260.5786656905662
 21
288.1457116875073
 31
0.0
  0
LINE
  5
5AC
330
1F
100
AcDbEntity
  8
0
 62
     2
100
AcDbLine
 10
243.6740826905663
 20
283.4679666875073
 30
0.0
 11
243.6740766905666
 21
283.1657076875073
 31
0.0
  0
LINE
  5
5AD
330
1F
100
AcDbEntity
  8
0
 62
     2
100
AcDbLine
 10
240.9176316905662
 20
283.1657646875074
 30
0.0
 11
243.6740766905666
 21
283.1657166875072
 31
0.0
  0
LINE
  5
5AE
330
1F
100
AcDbEntity
  8
0
 62
     2
100
AcDbLine
 10
234.7799436905665
 20
283.1657356875074
 30
0.0
 11
236.9788936905665
 21
283.1657356875074
 31
0.0
  0
ARC
  5
5AF
330
1F
100
AcDbEntity
  8
0
 62
     2
100
AcDbCircle
 10
227.6628826905666
 20
286.2025686875074
 30
0.0
 40
21.019379
100
AcDbArc
 50
353.8660060000018
 51
357.6940340000007
  0
LINE
  5
5B0
330
1F
100
AcDbEntity
  8
0
 62
     2
100
AcDbLine
 10
247.2579966905663
 20
285.3620436875074
 30
0.0
 11
248.6652406905665
 21
285.3568366875073
 31
0.0
  0
LINE
  5
5B2
330
1F
100
AcDbEntity
  8
0
 62
     2
100
AcDbLine
 10
247.2636796905663
 20
286.8980646875073
 30
0.0
 11
248.6709236905663
 21
286.8928576875072
 31
0.0
  0
ARC
  5
5B3
330
1F
100
AcDbEntity
  8
0
 62
     2
100
AcDbCircle
 10
227.6628826905666
 20
286.2025686875074
 30
0.0
 40
21.019379
100
AcDbArc
 50
1.881965999998751
 51
5.709993999999738
  0
LINE
  5
5B4
330
1F
100
AcDbEntity
  8
0
 62
     2
100
AcDbLine
 10
243.6741806905665
 20
289.0996406875073
 30
0.0
 11
243.6741756905662
 21
288.7974386875074
 31
0.0
  0
LINE
  5
5B5
330
1F
100
AcDbEntity
  8
0
 62
     2
100
AcDbLine
 10
240.9177346905666
 20
289.0996966875073
 30
0.0
 11
243.6741806905665
 21
289.0996486875073
 31
0.0
  0
LINE
  5
5B6
330
1F
100
AcDbEntity
  8
0
 62
     2
100
AcDbLine
 10
240.9176366905665
 20
283.4679666875073
 30
0.0
 11
240.9176316905662
 21
283.1657646875074
 31
0.0
  0
LINE
  5
5B7
330
1F
100
AcDbEntity
  8
0
 62
     2
100
AcDbLine
 10
240.9177346905666
 20
289.0996966875073
 30
0.0
 11
240.9177296905665
 21
288.7974386875074
 31
0.0
  0
LINE
  5
5B8
330
1F
100
AcDbEntity
  8
0
 62
     2
100
AcDbLine
 10
236.9788936905665
 20
283.4679666875073
 30
0.0
 11
236.9788936905665
 21
283.1657356875074
 31
0.0
  0
LINE
  5
5B9
330
1F
100
AcDbEntity
  8
0
 62
     2
100
AcDbLine
 10
236.3563966905662
 20
286.6455766875075
 30
0.0
 11
238.5312966905665
 21
283.1657356875074
 31
0.0
  0
LINE
  5
5BA
330
1F
100
AcDbEntity
  8
0
 62
     2
100
AcDbLine
 10
238.5312966905665
 20
283.1657356875074
 30
0.0
 11
239.9876296905665
 21
283.1657356875074
 31
0.0
  0
LINE
  5
5BB
330
1F
100
AcDbEntity
  8
0
 62
     2
100
AcDbLine
 10
240.6101266905666
 20
289.0996686875072
 30
0.0
 11
240.6101266905666
 21
288.7974386875074
 31
0.0
  0
LINE
  5
5BC
330
1F
100
AcDbEntity
  8
0
 62
     2
100
AcDbLine
 10
238.4111756905664
 20
289.0996686875072
 30
0.0
 11
240.6101266905666
 21
289.0996686875072
 31
0.0
  0
LINE
  5
5BD
330
1F
100
AcDbEntity
  8
0
 62
     2
100
AcDbLine
 10
238.4111756905664
 20
289.0996686875072
 30
0.0
 11
238.4111756905664
 21
288.7974386875074
 31
0.0
  0
LINE
  5
5BE
330
1F
100
AcDbEntity
  8
0
 62
     2
100
AcDbLine
 10
239.0336726905662
 20
286.4120026875074
 30
0.0
 11
237.2698916905664
 21
289.0996686875072
 31
0.0
  0
LINE
  5
5BF
330
1F
100
AcDbEntity
  8
0
 62
     2
100
AcDbLine
 10
234.7799436905665
 20
289.0996686875072
 30
0.0
 11
237.2698916905664
 21
289.0996686875072
 31
0.0
  0
LINE
  5
5C0
330
1F
100
AcDbEntity
  8
0
 62
     2
100
AcDbLine
 10
248.9459636905665
 20
289.0995276875074
 30
0.0
 11
251.7349106905665
 21
289.0995276875074
 31
0.0
  0
LINE
  5
5C1
330
1F
100
AcDbEntity
  8
0
 62
     2
100
AcDbLine
 10
248.9459636905665
 20
288.7974386875074
 30
0.0
 11
248.9459636905665
 21
289.0995276875074
 31
0.0
  0
LINE
  5
5C2
330
1F
100
AcDbEntity
  8
0
 62
     2
100
AcDbLine
 10
248.9459636905665
 20
283.1655946875073
 30
0.0
 11
248.9459636905665
 21
283.4679666875073
 31
0.0
  0
LINE
  5
5C3
330
1F
100
AcDbEntity
  8
0
 62
     2
100
AcDbLine
 10
248.9459636905665
 20
283.1655946875073
 30
0.0
 11
251.7349106905665
 21
283.1655946875073
 31
0.0
  0
LINE
  5
5C4
330
1F
100
AcDbEntity
  8
0
 62
     2
100
AcDbLine
 10
252.0259476905666
 20
283.4679666875073
 30
0.0
 11
252.0259476905666
 21
283.1655946875073
 31
0.0
  0
LINE
  5
5C5
330
1F
100
AcDbEntity
  8
0
 62
     2
100
AcDbLine
 10
251.7349106905665
 20
283.4679666875073
 30
0.0
 11
251.7349106905665
 21
283.1655946875073
 31
0.0
  0
LINE
  5
5C6
330
1F
100
AcDbEntity
  8
0
 62
     2
100
AcDbLine
 10
251.7349106905665
 20
288.7974386875074
 30
0.0
 11
251.7349106905665
 21
289.0995276875074
 31
0.0
  0
LINE
  5
5C7
330
1F
100
AcDbEntity
  8
0
 62
     2
100
AcDbLine
 10
252.0259476905666
 20
288.7974386875074
 30
0.0
 11
252.0259476905666
 21
289.0995276875074
 31
0.0
  0
LINE
  5
5C8
330
1F
100
AcDbEntity
  8
0
 62
     2
100
AcDbLine
 10
234.7799436905665
 20
283.4679666875073
 30
0.0
 11
234.7799436905665
 21
283.1657356875074
 31
0.0
  0
LINE
  5
5C9
330
1F
100
AcDbEntity
  8
0
 62
     2
100
AcDbLine
 10
234.7799436905665
 20
289.0996686875072
 30
0.0
 11
234.7799436905665
 21
288.7974386875074
 31
0.0
  0
ARC
  5
5CA
330
1F
100
AcDbEntity
  8
0
 62
     2
100
AcDbCircle
 10
261.3079346905665
 20
286.7551996875072
 30
0.0
 40
2.344468999999999
100
AcDbArc
 50
17.30874899999783
 51
23.7650709999991
  0
ARC
  5
5CB
330
1F
100
AcDbEntity
  8
0
 62
     2
100
AcDbCircle
 10
259.3104006905661
 20
286.1327026875073
 30
0.0
 40
4.436751
100
AcDbArc
 50
342.6912510000022
 51
17.30856600000298
  0
ARC
  5
5CC
330
1F
100
AcDbEntity
  8
0
 62
     2
100
AcDbCircle
 10
261.3079346905665
 20
285.5102056875074
 30
0.0
 40
2.344468999999999
100
AcDbArc
 50
336.2349290000008
 51
342.6912510000022
  0
ARC
  5
5CD
330
1F
100
AcDbEntity
  8
0
 62
     2
100
AcDbCircle
 10
261.0079346905667
 20
286.7551996875072
 30
0.0
 40
2.344468999999999
100
AcDbArc
 50
17.30874899999783
 51
90.0
  0
ARC
  5
5CE
330
1F
100
AcDbEntity
  8
0
 62
     2
100
AcDbCircle
 10
259.0104006905664
 20
286.1327026875073
 30
0.0
 40
4.436751
100
AcDbArc
 50
342.6912510000022
 51
17.30856600000298
  0
ARC
  5
5CF
330
1F
100
AcDbEntity
  8
0
 62
     2
100
AcDbCircle
 10
261.0079346905667
 20
285.5102056875074
 30
0.0
 40
2.344468999999999
100
AcDbArc
 50
270.0
 51
342.6912510000022
  0
ARC
  5
5D0
330
1F
100
AcDbEntity
  8
0
 62
     2
100
AcDbCircle
 10
246.5451626905666
 20
286.1327026875073
 30
0.0
 40
2.966965999999997
100
AcDbArc
 50
46.75288000000072
 51
89.74999799999961
  0
ARC
  5
5D1
330
1F
100
AcDbEntity
  8
0
 62
     2
100
AcDbCircle
 10
246.5451626905666
 20
286.1327026875073
 30
0.0
 40
2.966965999999997
100
AcDbArc
 50
273.9763330000016
 51
312.8231200000003
  0
ARC
  5
5D2
330
1F
100
AcDbEntity
  8
0
 62
     2
100
AcDbCircle
 10
262.8906016905665
 20
286.0868996875073
 30
0.0
 40
3.936983999999998
100
AcDbArc
 50
0.6665839999989796
 51
23.90392800000229
  0
ARC
  5
5D3
330
1F
100
AcDbEntity
  8
0
 62
     2
100
AcDbCircle
 10
268.4842626905663
 20
286.0868996875073
 30
0.0
 40
3.936983999999998
100
AcDbArc
 50
156.0960719999977
 51
179.333416000001
  0
ARC
  5
5D4
330
1F
100
AcDbEntity
  8
0
 62
     2
100
AcDbCircle
 10
262.8906016905665
 20
286.1785046875073
 30
0.0
 40
3.936983999999998
100
AcDbArc
 50
336.0960719999976
 51
359.3334159999978
  0
ARC
  5
5D5
330
1F
100
AcDbEntity
  8
0
 62
     2
100
AcDbCircle
 10
268.4842626905663
 20
286.1785046875073
 30
0.0
 40
3.936983999999998
100
AcDbArc
 50
180.666583999999
 51
203.9039280000023
  0
LINE
  5
5D6
330
1F
100
AcDbEntity
  8
0
 62
     3
100
AcDbLine
 10
275.6617786905668
 20
286.3574366875074
 30
0.0
 11
447.0050536905664
 21
286.3574366875074
 31
0.0
  0
LINE
  5
5D7
330
1F
100
AcDbEntity
  8
0
 62
     3
100
AcDbLine
 10
227.1077446905664
 20
286.3574366875074
 30
0.0
 11
57.00505369056647
 21
286.3574366875074
 31
0.0
  0
TEXT
  5
5D8
330
1F
100
AcDbEntity
  8
0
 62
     3
100
AcDbText
 10
337.5190086905665
 20
48.13732368750738
 30
0.0
 40
2.0
  1
CONPONENTS
 41
0.5331600000000001
100
AcDbText
  0
TEXT
  5
5D9
330
1F
100
AcDbEntity
  8
0
 62
     3
100
AcDbText
 10
337.1692816905664
 20
29.20514668750735
 30
0.0
 40
3.0
  1
材
 41
0.833333
100
AcDbText
  0
TEXT
  5
5DA
330
1F
100
AcDbEntity
  8
0
 62
     3
100
AcDbText
 10
344.7049246905664
 20
29.20514668750735
 30
0.0
 40
3.0
  1
質
 41
0.833333
100
AcDbText
  0
TEXT
  5
5DB
330
1F
100
AcDbEntity
  8
0
 62
     3
100
AcDbText
 10
337.2573526905664
 20
39.82967168750736
 30
0.0
 40
2.0
  1
MODEL
 41
1.031072999999999
100
AcDbText
  0
TEXT
  5
5DC
330
1F
100
AcDbEntity
  8
0
 62
     3
100
AcDbText
 10
337.1692816905664
 20
32.8874546875074
 30
0.0
 40
2.0
  1
MATERIAL
 41
0.659278
100
AcDbText
  0
TEXT
  5
5DD
330
1F
100
AcDbEntity
  8
0
 62
     3
100
AcDbText
 10
368.4765616905664
 20
29.20514668750735
 30
0.0
 40
3.0
  1
備
 41
0.833333
100
AcDbText
  0
TEXT
  5
5DE
330
1F
100
AcDbEntity
  8
0
 62
     3
100
AcDbText
 10
375.2095636905665
 20
29.20514668750735
 30
0.0
 40
3.0
  1
考
 41
0.833333
100
AcDbText
  0
TEXT
  5
5DF
330
1F
100
AcDbEntity
  8
0
 62
     3
100
AcDbText
 10
368.8712357012282
 20
32.8874546875074
 30
0.0
 40
2.0
  1
REMARKS
 41
0.675794
100
AcDbText
  0
TEXT
  5
5E0
330
1F
100
AcDbEntity
  8
0
 62
     3
100
AcDbText
 10
338.7590106905665
 20
25.96733468750739
 30
0.0
 40
2.0
  1
3AD
 41
1.42614
100
AcDbText
  0
TEXT
  5
5E1
330
1F
100
AcDbEntity
  8
0
 62
     3
100
AcDbText
 10
348.0699906905664
 20
26.13306768750732
 30
0.0
 40
2.0
  1
ANGLE
 41
1.669883999999995
100
AcDbText
  0
TEXT
  5
5E2
330
1F
100
AcDbEntity
  8
0
 62
     3
100
AcDbText
 10
369.0038776905665
 20
25.75622668750731
 30
0.0
 40
2.0
  1
SCALE
 41
0.7719630000000001
100
AcDbText
  0
TEXT
  5
5E3
330
1F
100
AcDbEntity
  8
0
 62
     3
100
AcDbText
 10
338.4451406905664
 20
21.96779768750736
 30
0.0
 40
3.0
  1
第
 41
0.833333
100
AcDbText
  0
TEXT
  5
5E4
330
1F
100
AcDbEntity
  8
0
 62
     3
100
AcDbText
 10
346.2319906905665
 20
21.96779768750736
 30
0.0
 40
3.0
  1
三
 41
0.833333
100
AcDbText
  0
TEXT
  5
5E5
330
1F
100
AcDbEntity
  8
0
 62
     3
100
AcDbText
 10
354.0188406905664
 20
21.96779768750736
 30
0.0
 40
3.0
  1
角
 41
0.833333
100
AcDbText
  0
TEXT
  5
5E6
330
1F
100
AcDbEntity
  8
0
 62
     3
100
AcDbText
 10
361.8056906905664
 20
21.96779768750736
 30
0.0
 40
3.0
  1
法
 41
0.833333
100
AcDbText
  0
TEXT
  5
5E7
330
1F
100
AcDbEntity
  8
0
 62
     3
100
AcDbText
 10
368.8670826905661
 20
22.25622668750731
 30
0.0
 40
3.0
  1
尺
 41
0.833333
100
AcDbText
  0
TEXT
  5
5E8
330
1F
100
AcDbEntity
  8
0
 62
     3
100
AcDbText
 10
375.6000836905664
 20
22.25622668750731
 30
0.0
 40
3.0
  1
度
 41
0.833333
100
AcDbText
  0
TEXT
  5
5E9
330
1F
100
AcDbEntity
  8
0
 62
     3
100
AcDbText
 10
398.1833546905664
 20
44.42552668750732
 30
0.0
 40
3.0
  1
承認
 41
1.089472999999999
100
AcDbText
  0
TEXT
  5
5EA
330
1F
100
AcDbEntity
  8
0
 62
     3
100
AcDbText
 10
411.4262346905666
 20
44.36779768750732
 30
0.0
 40
3.0
  1
検図
 41
0.931761
100
AcDbText
  0
TEXT
  5
5EB
330
1F
100
AcDbEntity
  8
0
 62
     3
100
AcDbText
 10
424.4266316905664
 20
44.36779768750732
 30
0.0
 40
3.0
  1
設
 41
0.833333
100
AcDbText
  0
TEXT
  5
5EC
330
1F
100
AcDbEntity
  8
0
 62
     3
100
AcDbText
 10
428.9164996905665
 20
44.36779768750732
 30
0.0
 40
3.0
  1
計
 41
0.833333
100
AcDbText
  0
TEXT
  5
5ED
330
1F
100
AcDbEntity
  8
0
 62
     3
100
AcDbText
 10
337.5891146905662
 20
44.54034968750732
 30
0.0
 40
3.0
  1
品
 41
0.833333
100
AcDbText
  0
TEXT
  5
5EE
330
1F
100
AcDbEntity
  8
0
 62
     3
100
AcDbText
 10
345.1247566905664
 20
44.54034968750732
 30
0.0
 40
3.0
  1
名
 41
0.833333
100
AcDbText
  0
TEXT
  5
5EF
330
1F
100
AcDbEntity
  8
0
 62
     3
100
AcDbText
 10
337.2573526905664
 20
36.25299666998768
 30
0.0
 40
3.0
  1
型
 41
0.833333
100
AcDbText
  0
TEXT
  5
5F0
330
1F
100
AcDbEntity
  8
0
 62
     3
100
AcDbText
 10
344.8054426905661
 20
36.25299666998768
 30
0.0
 40
3.0
  1
式
 41
0.833333
100
AcDbText
  0
LINE
  5
5FA
330
1F
100
AcDbEntity
  8
0
 62
     3
100
AcDbLine
 10
44.60312969056647
 20
152.8020756875074
 30
0.0
 11
42.00505369056648
 21
151.3020756875074
 31
0.0
  0
LINE
  5
5FB
330
1F
100
AcDbEntity
  8
0
 62
     3
100
AcDbLine
 10
44.60312969056647
 20
152.8020756875074
 30
0.0
 11
42.00505369056648
 21
154.3020756875074
 31
0.0
  0
LINE
  5
5FC
330
1F
100
AcDbEntity
  8
0
 62
     3
100
AcDbLine
 10
42.00505369056648
 20
151.3020756875074
 30
0.0
 11
42.00505369056648
 21
154.3020756875074
 31
0.0
  0
TEXT
  5
5FD
330
1F
100
AcDbEntity
  8
0
 62
     3
100
AcDbText
 10
113.7171485505087
 20
12.80207568750734
 30
0.0
 40
3.2
  1
　備　　　　　考　
 41
0.8
  7
高3.2
100
AcDbText
  0
TEXT
  5
5FE
330
1F
100
AcDbEntity
  8
0
 62
     3
100
AcDbText
 10
165.4527067142852
 20
12.80207568750734
 30
0.0
 40
3.2
  1
個数
 41
0.8
  7
高3.2
100
AcDbText
  0
TEXT
  5
5FF
330
1F
100
AcDbEntity
  8
0
 62
     3
100
AcDbText
 10
57.96873369056622
 20
12.80207568750734
 30
0.0
 40
3.2
  1
No
 41
0.8
  7
高3.2
100
AcDbText
  0
TEXT
  5
600
330
1F
100
AcDbEntity
  8
0
 62
     3
100
AcDbText
 10
58.50505369056647
 20
27.80207568750735
 30
0.0
 40
3.2
  1
3
 41
0.8
  7
高3.2
100
AcDbText
  0
TEXT
  5
601
330
1F
100
AcDbEntity
  8
0
 62
     3
100
AcDbText
 10
58.50505369056647
 20
32.8020756875073
 30
0.0
 40
3.2
  1
4
 41
0.8
  7
高3.2
100
AcDbText
  0
TEXT
  5
602
330
1F
100
AcDbEntity
  8
0
 62
     3
100
AcDbText
 10
58.50505369056647
 20
37.80207568750734
 30
0.0
 40
3.2
  1
5
 41
0.8
  7
高3.2
100
AcDbText
  0
TEXT
  5
603
330
1F
100
AcDbEntity
  8
0
 62
     3
100
AcDbText
 10
58.50505369056647
 20
17.80207568750734
 30
0.0
 40
3.2
  1
1
 41
0.8
  7
高3.2
100
AcDbText
  0
TEXT
  5
604
330
1F
100
AcDbEntity
  8
0
 62
     3
100
AcDbText
 10
58.50505369056647
 20
22.80207568750715
 30
0.0
 40
3.2
  1
2
 41
0.8
  7
高3.2
100
AcDbText
  0
TEXT
  5
605
330
1F
100
AcDbEntity
  8
0
 62
     3
100
AcDbText
 10
66.01165367505179
 20
17.80207568750734
 30
0.0
 40
3.2
  1
本体ケース(グリップ)
 41
0.8
  7
高3.2
100
AcDbText
  0
TEXT
  5
607
330
1F
100
AcDbEntity
  8
0
 62
     3
100
AcDbText
 10
66.01165367505179
 20
12.80207568750734
 30
0.0
 40
3.2
  1
部　品　名
 41
0.8
  7
高3.2
100
AcDbText
  0
TEXT
  5
608
330
1F
100
AcDbEntity
  8
0
 62
     3
100
AcDbText
 10
99.34587848204369
 20
12.80207568750734
 30
0.0
 40
3.2
  1
材　質
 41
0.8
  7
高3.2
100
AcDbText
  0
TEXT
  5
609
330
1F
100
AcDbEntity
  8
0
 62
     3
100
AcDbText
 10
99.34587848204369
 20
42.80207568750734
 30
0.0
 40
3.2
  1
PC
 41
0.8
  7
高3.2
100
AcDbText
  0
TEXT
  5
60A
330
1F
100
AcDbEntity
  8
0
 62
     3
100
AcDbText
 10
99.34587848204369
 20
47.80207568750734
 30
0.0
 40
3.2
  1
ABS
 41
0.8
  7
高3.2
100
AcDbText
  0
TEXT
  5
60C
330
1F
100
AcDbEntity
  8
0
 62
     3
100
AcDbText
 10
58.50505369056647
 20
42.80207568750734
 30
0.0
 40
3.2
  1
6
 41
0.8
  7
高3.2
100
AcDbText
  0
TEXT
  5
60D
330
1F
100
AcDbEntity
  8
0
 62
     3
100
AcDbText
 10
58.50505369056647
 20
47.77349468750738
 30
0.0
 40
3.2
  1
7
 41
0.8
  7
高3.2
100
AcDbText
  0
TEXT
  5
60E
330
1F
100
AcDbEntity
  8
0
 62
     3
100
AcDbText
 10
58.50505369056647
 20
52.80207568750734
 30
0.0
 40
3.2
  1
8
 41
0.8
  7
高3.2
100
AcDbText
  0
TEXT
  5
60F
330
1F
100
AcDbEntity
  8
0
 62
     3
100
AcDbText
 10
66.01165367505179
 20
22.80207568750715
 30
0.0
 40
3.2
  1
本体ケース(ヘッド)
 41
0.8
  7
高3.2
100
AcDbText
  0
TEXT
  5
610
330
1F
100
AcDbEntity
  8
0
 62
     3
100
AcDbText
 10
66.01165367505179
 20
27.80207568750735
 30
0.0
 40
3.2
  1
レンズ固定枠
 41
0.8
  7
高3.2
100
AcDbText
  0
TEXT
  5
611
330
1F
100
AcDbEntity
  8
0
 62
     3
100
AcDbText
 10
66.01165367505179
 20
32.80207568750733
 30
0.0
 40
3.2
  1
充電用プラグ
 41
0.8
  7
高3.2
100
AcDbText
  0
TEXT
  5
612
330
1F
100
AcDbEntity
  8
0
 62
     3
100
AcDbText
 10
66.01165367505179
 20
37.80207568750734
 30
0.0
 40
3.2
  1
スイッチ
 41
0.8
  7
高3.2
100
AcDbText
  0
TEXT
  5
613
330
1F
100
AcDbEntity
  8
0
 62
     3
100
AcDbText
 10
66.01028582555753
 20
42.80207568750734
 30
0.0
 40
3.2
  1
レンズ
 41
0.8
  7
高3.2
100
AcDbText
  0
TEXT
  5
614
330
1F
100
AcDbEntity
  8
0
 62
     3
100
AcDbText
 10
66.01165367505179
 20
47.80207568750734
 30
0.0
 40
3.2
  1
反射板
 41
0.8
  7
高3.2
100
AcDbText
  0
TEXT
  5
615
330
1F
100
AcDbEntity
  8
0
 62
     3
100
AcDbText
 10
99.34587848204369
 20
17.80207568750734
 30
0.0
 40
3.2
  1
ABS
 41
0.8
  7
高3.2
100
AcDbText
  0
TEXT
  5
617
330
1F
100
AcDbEntity
  8
0
 62
     3
100
AcDbText
 10
99.34587848204369
 20
27.80207568750735
 30
0.0
 40
3.2
  1
ABS
 41
0.8
  7
高3.2
100
AcDbText
  0
TEXT
  5
618
330
1F
100
AcDbEntity
  8
0
 62
     3
100
AcDbText
 10
99.34587848204369
 20
32.80207568750733
 30
0.0
 40
3.2
  1
-
 41
0.8
  7
高3.2
100
AcDbText
  0
TEXT
  5
619
330
1F
100
AcDbEntity
  8
0
 62
     3
100
AcDbText
 10
99.34587848204369
 20
37.80207568750734
 30
0.0
 40
3.2
  1
-
 41
0.8
  7
高3.2
100
AcDbText
  0
TEXT
  5
61A
330
1F
100
AcDbEntity
  8
0
 62
     3
100
AcDbText
 10
113.7171485505087
 20
17.80207568750734
 30
0.0
 40
3.2
  1
緑(6000K)
 41
0.8
  7
高3.2
100
AcDbText
  0
TEXT
  5
61B
330
1F
100
AcDbEntity
  8
0
 62
     3
100
AcDbText
 10
113.7171485505087
 20
22.80207568750715
 30
0.0
 40
3.2
  1
緑(6000K)
 41
0.8
  7
高3.2
100
AcDbText
  0
TEXT
  5
61C
330
1F
100
AcDbEntity
  8
0
 62
     3
100
AcDbText
 10
113.7171485505087
 20
27.80207568750735
 30
0.0
 40
3.2
  1
-
 41
0.8
  7
高3.2
100
AcDbText
  0
TEXT
  5
61D
330
1F
100
AcDbEntity
  8
0
 62
     3
100
AcDbText
 10
113.7171485505087
 20
37.80207568750734
 30
0.0
 40
3.2
  1
シーソー
 41
0.8
  7
高3.2
100
AcDbText
  0
TEXT
  5
61E
330
1F
100
AcDbEntity
  8
0
 62
     3
100
AcDbText
 10
113.7171485505087
 20
42.80207568750734
 30
0.0
 40
3.2
  1
透明
 41
0.8
  7
高3.2
100
AcDbText
  0
TEXT
  5
61F
330
1F
100
AcDbEntity
  8
0
 62
     3
100
AcDbText
 10
113.7171485505087
 20
47.80207568750734
 30
0.0
 40
3.2
  1
-
 41
0.8
  7
高3.2
100
AcDbText
  0
TEXT
  5
620
330
1F
100
AcDbEntity
  8
0
 62
     3
100
AcDbText
 10
411.031922690566
 20
22.82511368750733
 30
0.0
 40
3.2
  1
2011.12.14
  7
高3.2
100
AcDbText
  0
TEXT
  5
621
330
1F
100
AcDbEntity
  8
0
 62
     3
100
AcDbText
 10
381.3882776905664
 20
22.65365068750731
 30
0.0
 40
3.2
  1
1/2
  7
高3.2
100
AcDbText
  0
TEXT
  5
622
330
1F
100
AcDbEntity
  8
0
 62
     3
100
AcDbText
 10
351.4490036905664
 20
29.82511368750733
 30
0.0
 40
3.2
  1
別掲
  7
高3.2
100
AcDbText
  0
TEXT
  5
623
330
1F
100
AcDbEntity
  8
0
 62
     3
100
AcDbText
 10
350.3919807507728
 20
44.66524368750737
 30
0.0
 40
4.5
  1
LEDプラグインライト
 41
0.8
  7
高4.5
100
AcDbText
  0
TEXT
  5
624
330
1F
100
AcDbEntity
  8
0
 62
     3
100
AcDbText
 10
350.3190705023693
 20
36.48218768750736
 30
0.0
 40
4.5
  1
PIL-3W-SM
 41
0.8
  7
高4.5
100
AcDbText
  0
TEXT
  5
625
330
1F
100
AcDbEntity
  8
0
 62
     3
100
AcDbText
 10
398.7806078252187
 20
13.15939168750736
 30
0.0
 40
6.299999999999998
  1
PIL-3W-SM
 41
0.8
  7
高6.3
100
AcDbText
  0
TEXT
  5
626
330
1F
100
AcDbEntity
  8
0
 62
     3
100
AcDbText
 10
113.7171485505087
 20
32.80207568750733
 30
0.0
 40
3.2
  1
回転式　AC100V
 41
0.8
  7
高3.2
100
AcDbText
  0
LINE
  5
627
330
1F
100
AcDbEntity
  8
0
 62
     3
100
AcDbLine
 10
421.3056906905661
 20
51.96779768750737
 30
0.0
 11
421.3056906905661
 21
57.96779768750734
 31
0.0
  0
LINE
  5
628
330
1F
100
AcDbEntity
  8
0
 62
     3
100
AcDbLine
 10
395.3056906905663
 20
51.96779768750737
 30
0.0
 11
395.3056906905663
 21
57.96779768750734
 31
0.0
  0
LINE
  5
629
330
1F
100
AcDbEntity
  8
0
 62
     3
100
AcDbLine
 10
447.0050536905664
 20
57.96779768750734
 30
0.0
 11
395.3056906905663
 21
57.96779768750734
 31
0.0
  0
TEXT
  5
62A
330
1F
100
AcDbEntity
  8
0
 62
     3
100
AcDbText
 10
174.3919905852812
 20
12.80207568750734
 30
0.0
 40
3.2
  1
コード
 41
0.8
  7
高3.2
100
AcDbText
  0
TEXT
  5
62B
330
1F
100
AcDbEntity
  8
0
 62
     3
100
AcDbText
 10
174.3919905852812
 20
47.80207568750734
 30
0.0
 40
3.2
  1
54871●
 41
0.8
  7
高3.2
100
AcDbText
  0
TEXT
  5
62C
330
1F
100
AcDbEntity
  8
0
 62
     3
100
AcDbText
 10
174.3919905852812
 20
42.80207568750734
 30
0.0
 40
3.2
  1
54872
 41
0.8
  7
高3.2
100
AcDbText
  0
TEXT
  5
62D
330
1F
100
AcDbEntity
  8
0
 62
     3
100
AcDbText
 10
174.3919905852812
 20
37.80207568750734
 30
0.0
 40
3.2
  1
54873
 41
0.8
  7
高3.2
100
AcDbText
  0
TEXT
  5
62E
330
1F
100
AcDbEntity
  8
0
 62
     3
100
AcDbText
 10
174.3919905852812
 20
32.80207568750733
 30
0.0
 40
3.2
  1
54874
 41
0.8
  7
高3.2
100
AcDbText
  0
TEXT
  5
62F
330
1F
100
AcDbEntity
  8
0
 62
     3
100
AcDbText
 10
174.3919905852812
 20
27.80207568750735
 30
0.0
 40
3.2
  1
54875
 41
0.8
  7
高3.2
100
AcDbText
  0
TEXT
  5
630
330
1F
100
AcDbEntity
  8
0
 62
     3
100
AcDbText
 10
174.3919905852812
 20
22.80207568750715
 30
0.0
 40
3.2
  1
54876
 41
0.8
  7
高3.2
100
AcDbText
  0
TEXT
  5
631
330
1F
100
AcDbEntity
  8
0
 62
     3
100
AcDbText
 10
174.3919905852812
 20
17.80207568750734
 30
0.0
 40
3.2
  1
54877
 41
0.8
  7
高3.2
100
AcDbText
  0
TEXT
  5
633
330
1F
100
AcDbEntity
  8
0
 62
     3
100
AcDbText
 10
423.2928376905666
 20
52.6119346875074
 30
0.0
 40
4.5
  1
12550
  7
高4.5
100
AcDbText
  0
TEXT
  5
636
330
1F
100
AcDbEntity
  8
0
 62
     3
100
AcDbText
 10
400.6298078426921
 20
52.61193468750734
 30
0.0
 40
4.5
  1
コード
100
AcDbText
  0
TEXT
  5
63A
330
1F
100
AcDbEntity
  8
0
 62
     3
100
AcDbText
 10
174.3919905852812
 20
52.80207568750734
 30
0.0
 40
3.2
  1
54075
 41
0.8
  7
高3.2
100
AcDbText
  0
TEXT
  5
63B
330
1F
100
AcDbEntity
  8
0
 62
     3
100
AcDbText
 10
66.01165367505179
 20
52.80207568750734
 30
0.0
 40
3.2
  1
充電池
 41
0.8
  7
高3.2
100
AcDbText
  0
TEXT
  5
63C
330
1F
100
AcDbEntity
  8
0
 62
     3
100
AcDbText
 10
99.34587848204369
 20
52.80207568750734
 30
0.0
 40
3.2
  1
NI-MH
 41
0.8
  7
高3.2
100
AcDbText
  0
TEXT
  5
63D
330
1F
100
AcDbEntity
  8
0
 62
     3
100
AcDbText
 10
113.7171485505087
 20
52.80207568750734
 30
0.0
 40
3.2
  1
(内部)4個組リード線付
 41
0.8
  7
高3.2
100
AcDbText
  0
TEXT
  5
63E
330
1F
100
AcDbEntity
  8
0
 62
     3
100
AcDbText
 10
174.3919905852812
 20
72.77349468750739
 30
0.0
 40
3.2
  1
-
 41
0.8
  7
高3.2
100
AcDbText
  0
TEXT
  5
63F
330
1F
100
AcDbEntity
  8
0
 62
     3
100
AcDbText
 10
113.7171485505087
 20
72.77349468750739
 30
0.0
 40
3.2
  1
-
 41
0.8
  7
高3.2
100
AcDbText
  0
LINE
  5
640
330
1F
100
AcDbEntity
  8
0
 62
     7
100
AcDbLine
 10
191.3824557112196
 20
12.38778518750734
 30
0.0
 11
191.3824557112194
 21
82.27349468750732
 31
0.0
  0
LINE
  5
641
330
1F
100
AcDbEntity
  8
0
 62
     7
100
AcDbLine
 10
112.2637927308047
 20
12.30207568750734
 30
0.0
 11
112.2637927308049
 21
82.27349468750732
 31
0.0
  0
LINE
  5
642
330
1F
100
AcDbEntity
  8
0
 62
     7
100
AcDbLine
 10
172.595900879488
 20
12.30207568750734
 30
0.0
 11
172.595900879488
 21
82.27349468750734
 31
0.0
  0
LINE
  5
643
330
1F
100
AcDbEntity
  8
0
 62
     7
100
AcDbLine
 10
97.8599677480453
 20
12.30207568750734
 30
0.0
 11
97.85996774804537
 21
82.27349468750732
 31
0.0
  0
LINE
  5
644
330
1F
100
AcDbEntity
  8
0
 62
     7
100
AcDbLine
 10
164.4962352484141
 20
12.30207568750734
 30
0.0
 11
164.4962352484144
 21
82.27349468750734
 31
0.0
  0
LINE
  5
645
330
1F
100
AcDbEntity
  8
0
 62
     7
100
AcDbLine
 10
64.64848515034501
 20
12.30207568750734
 30
0.0
 11
64.64848515034501
 21
82.27349468750729
 31
0.0
  0
TEXT
  5
646
330
1F
100
AcDbEntity
  8
0
 62
     3
100
AcDbText
 10
66.01165367505179
 20
72.77349468750739
 30
0.0
 40
3.2
  1
ストラップ
 41
0.8
  7
高3.2
100
AcDbText
  0
TEXT
  5
647
330
1F
100
AcDbEntity
  8
0
 62
     3
100
AcDbText
 10
99.34587848204369
 20
72.77349468750739
 30
0.0
 40
3.2
  1
-
 41
0.8
  7
高3.2
100
AcDbText
  0
TEXT
  5
648
330
1F
100
AcDbEntity
  8
0
 62
     3
100
AcDbText
 10
57.9297116905665
 20
72.71633268750753
 30
0.0
 40
3.2
  1
付属
 41
0.8
  7
高3.2
100
AcDbText
  0
TEXT
  5
649
330
1F
100
AcDbEntity
  8
0
 62
     3
100
AcDbText
 10
169.3305447142853
 20
22.80207568750715
 30
0.0
 40
3.2
  1
1
 41
0.8
  7
高3.2
100
AcDbText
  0
TEXT
  5
64A
330
1F
100
AcDbEntity
  8
0
 62
     3
100
AcDbText
 10
169.3305447142853
 20
27.80207568750735
 30
0.0
 40
3.2
  1
1
 41
0.8
  7
高3.2
100
AcDbText
  0
TEXT
  5
64B
330
1F
100
AcDbEntity
  8
0
 62
     3
100
AcDbText
 10
169.3305447142853
 20
37.80207568750734
 30
0.0
 40
3.2
  1
1
 41
0.8
  7
高3.2
100
AcDbText
  0
TEXT
  5
64C
330
1F
100
AcDbEntity
  8
0
 62
     3
100
AcDbText
 10
169.3305447142853
 20
42.80207568750734
 30
0.0
 40
3.2
  1
1
 41
0.8
  7
高3.2
100
AcDbText
  0
TEXT
  5
64D
330
1F
100
AcDbEntity
  8
0
 62
     3
100
AcDbText
 10
169.3305447142853
 20
47.80207568750734
 30
0.0
 40
3.2
  1
1
 41
0.8
  7
高3.2
100
AcDbText
  0
TEXT
  5
64E
330
1F
100
AcDbEntity
  8
0
 62
     3
100
AcDbText
 10
169.3305447142853
 20
52.80207568750734
 30
0.0
 40
3.2
  1
1
 41
0.8
  7
高3.2
100
AcDbText
  0
TEXT
  5
64F
330
1F
100
AcDbEntity
  8
0
 62
     3
100
AcDbText
 10
169.3305447142853
 20
72.77349468750739
 30
0.0
 40
3.2
  1
1
 41
0.8
  7
高3.2
100
AcDbText
  0
LINE
  5
650
330
1F
100
AcDbEntity
  8
0
 62
     7
100
AcDbLine
 10
273.4440620730634
 20
17.30207568750734
 30
0.0
 11
57.00505369056647
 21
17.30207568750734
 31
0.0
  0
LINE
  5
651
330
1F
100
AcDbEntity
  8
0
 62
     7
100
AcDbLine
 10
273.4440620730634
 20
22.30207568750715
 30
0.0
 11
57.00505369056647
 21
22.30207568750715
 31
0.0
  0
LINE
  5
652
330
1F
100
AcDbEntity
  8
0
 62
     7
100
AcDbLine
 10
273.4440620730634
 20
27.30207568750742
 30
0.0
 11
57.00505369056647
 21
27.30207568750735
 31
0.0
  0
LINE
  5
653
330
1F
100
AcDbEntity
  8
0
 62
     7
100
AcDbLine
 10
273.4440620730634
 20
32.30207568750731
 30
0.0
 11
57.00505369056647
 21
32.30207568750731
 31
0.0
  0
LINE
  5
654
330
1F
100
AcDbEntity
  8
0
 62
     7
100
AcDbLine
 10
273.4440620730634
 20
37.30207568750734
 30
0.0
 11
57.00505369056647
 21
37.30207568750734
 31
0.0
  0
LINE
  5
655
330
1F
100
AcDbEntity
  8
0
 62
     7
100
AcDbLine
 10
273.4440620730634
 20
42.30207568750731
 30
0.0
 11
57.00505369056647
 21
42.30207568750734
 31
0.0
  0
LINE
  5
656
330
1F
100
AcDbEntity
  8
0
 62
     7
100
AcDbLine
 10
273.4440620730634
 20
47.27349468750738
 30
0.0
 11
57.00505369056647
 21
47.27349468750738
 31
0.0
  0
LINE
  5
657
330
1F
100
AcDbEntity
  8
0
 62
     7
100
AcDbLine
 10
273.4440620730634
 20
52.30207568750734
 30
0.0
 11
57.00505369056647
 21
52.30207568750734
 31
0.0
  0
LINE
  5
658
330
1F
100
AcDbEntity
  8
0
 62
     7
100
AcDbLine
 10
273.4440620730634
 20
72.27349468750739
 30
0.0
 11
57.00505369056647
 21
72.27349468750739
 31
0.0
  0
LINE
  5
659
330
1F
100
AcDbEntity
  8
0
 62
     7
100
AcDbLine
 10
273.4440620730634
 20
57.30207568750734
 30
0.0
 11
57.00505369056647
 21
57.30207568750734
 31
0.0
  0
LINE
  5
65E
330
1F
100
AcDbEntity
  8
0
 62
     3
100
AcDbLine
 10
313.7523871499857
 20
139.6960856957405
 30
0.0
 11
313.7523871499857
 21
134.1960856957405
 31
0.0
  0
LINE
  5
65F
330
1F
100
AcDbEntity
  8
0
 62
     3
100
AcDbLine
 10
313.7523871499857
 20
134.1960856957405
 30
0.0
 11
313.7523871499857
 21
126.1960856957405
 31
0.0
  0
LINE
  5
660
330
1F
100
AcDbEntity
  8
0
 62
     3
100
AcDbLine
 10
313.7523871499857
 20
126.6335856957405
 30
0.0
 11
313.8773871499857
 21
126.6335856957405
 31
0.0
  0
LINE
  5
661
330
1F
100
AcDbEntity
  8
0
 62
     3
100
AcDbLine
 10
288.3773871499857
 20
126.1960856957405
 30
0.0
 11
313.7523871499857
 21
126.1960856957405
 31
0.0
  0
LINE
  5
662
330
1F
100
AcDbEntity
  8
0
 62
     3
100
AcDbLine
 10
285.8773871499857
 20
139.6960856957405
 30
0.0
 11
313.7523871499857
 21
139.6960856957405
 31
0.0
  0
LINE
  5
663
330
1F
100
AcDbEntity
  8
0
 62
     3
100
AcDbLine
 10
313.7523871499857
 20
139.1960856957405
 30
0.0
 11
320.7634165617502
 21
139.1960856957405
 31
0.0
  0
LINE
  5
664
330
1F
100
AcDbEntity
  8
0
 62
     3
100
AcDbLine
 10
285.8773871499857
 20
134.1960856957405
 30
0.0
 11
313.7523871499857
 21
134.1960856957405
 31
0.0
  0
LINE
  5
665
330
1F
100
AcDbEntity
  8
0
 62
     3
100
AcDbLine
 10
285.8773871499857
 20
126.2973865795976
 30
0.0
 11
285.8773871499857
 21
139.6960856957405
 31
0.0
  0
LINE
  5
666
330
1F
100
AcDbEntity
  8
0
 62
     3
100
AcDbLine
 10
288.3773871499857
 20
126.1960856957405
 30
0.0
 11
288.3773871499857
 21
126.2973865795976
 31
0.0
  0
LINE
  5
667
330
1F
100
AcDbEntity
  8
0
 62
     7
100
AcDbLine
 10
285.8773871499857
 20
138.9460856957405
 30
0.0
 11
313.7523871499857
 21
138.7235060584267
 31
0.0
  0
LINE
  5
668
330
1F
100
AcDbEntity
  8
0
 62
     7
100
AcDbLine
 10
285.8773871499857
 20
126.4460856957405
 30
0.0
 11
313.7523871499857
 21
126.5352357706502
 31
0.0
  0
LINE
  5
669
330
1F
100
AcDbEntity
  8
0
 62
     3
100
AcDbLine
 10
288.3773871499857
 20
126.2973865795976
 30
0.0
 11
285.8773871499857
 21
126.2973865795976
 31
0.0
  0
LINE
  5
66B
330
1F
100
AcDbEntity
  8
0
 62
     3
100
AcDbLine
 10
313.7523871499857
 20
168.3725687883737
 30
0.0
 11
313.7523871499857
 21
162.8725687883736
 31
0.0
  0
LINE
  5
66C
330
1F
100
AcDbEntity
  8
0
 62
     3
100
AcDbLine
 10
313.7523871499857
 20
162.8725687883736
 30
0.0
 11
313.7523871499857
 21
154.8725687883736
 31
0.0
  0
LINE
  5
66D
330
1F
100
AcDbEntity
  8
0
 62
     3
100
AcDbLine
 10
313.7523871499857
 20
155.3100687883736
 30
0.0
 11
317.5023871499856
 21
155.3100687883736
 31
0.0
  0
LINE
  5
66E
330
1F
100
AcDbEntity
  8
0
 62
     3
100
AcDbLine
 10
288.3773871499857
 20
154.8725687883736
 30
0.0
 11
313.7523871499857
 21
154.8725687883736
 31
0.0
  0
LINE
  5
66F
330
1F
100
AcDbEntity
  8
0
 62
     3
100
AcDbLine
 10
285.8773871499857
 20
168.3725687883737
 30
0.0
 11
313.7523871499857
 21
168.3725687883737
 31
0.0
  0
LINE
  5
670
330
1F
100
AcDbEntity
  8
0
 62
     3
100
AcDbLine
 10
313.7523871499857
 20
167.8725687883736
 30
0.0
 11
317.2907175188846
 21
167.8725687883736
 31
0.0
  0
LINE
  5
671
330
1F
100
AcDbEntity
  8
0
 62
     3
100
AcDbLine
 10
285.8773871499857
 20
162.8725687883736
 30
0.0
 11
313.7523871499857
 21
162.8725687883736
 31
0.0
  0
LINE
  5
672
330
1F
100
AcDbEntity
  8
0
 62
     3
100
AcDbLine
 10
285.8773871499857
 20
154.9738696722307
 30
0.0
 11
285.8773871499857
 21
168.3725687883737
 31
0.0
  0
LINE
  5
673
330
1F
100
AcDbEntity
  8
0
 62
     3
100
AcDbLine
 10
288.3773871499857
 20
154.8725687883736
 30
0.0
 11
288.3773871499857
 21
154.9738696722307
 31
0.0
  0
LINE
  5
674
330
1F
100
AcDbEntity
  8
0
 62
     7
100
AcDbLine
 10
285.8773871499857
 20
167.6225687883736
 30
0.0
 11
313.7523871499857
 21
167.3999891510599
 31
0.0
  0
LINE
  5
675
330
1F
100
AcDbEntity
  8
0
 62
     7
100
AcDbLine
 10
285.8773871499857
 20
155.1225687883736
 30
0.0
 11
313.7523871499857
 21
155.2117188632834
 31
0.0
  0
LINE
  5
676
330
1F
100
AcDbEntity
  8
0
 62
     3
100
AcDbLine
 10
288.3773871499857
 20
154.9738696722307
 30
0.0
 11
285.8773871499857
 21
154.9738696722307
 31
0.0
  0
LINE
  5
677
330
1F
100
AcDbEntity
  8
0
 62
     3
100
AcDbLine
 10
317.5023871499856
 20
155.3100687883736
 30
0.0
 11
317.8224929700911
 21
155.6301746084795
 31
0.0
  0
LINE
  5
679
330
1F
100
AcDbEntity
  8
0
 62
     3
100
AcDbLine
 10
313.7523871499857
 20
194.481057468812
 30
0.0
 11
313.7523871499857
 21
188.981057468812
 31
0.0
  0
LINE
  5
67A
330
1F
100
AcDbEntity
  8
0
 62
     3
100
AcDbLine
 10
313.7523871499857
 20
188.981057468812
 30
0.0
 11
313.7523871499857
 21
180.9810574688119
 31
0.0
  0
LINE
  5
67B
330
1F
100
AcDbEntity
  8
0
 62
     3
100
AcDbLine
 10
313.7523871499857
 20
181.4185574688119
 30
0.0
 11
317.5023871499856
 21
181.4185574688119
 31
0.0
  0
LINE
  5
67C
330
1F
100
AcDbEntity
  8
0
 62
     3
100
AcDbLine
 10
288.3773871499857
 20
180.9810574688119
 30
0.0
 11
313.7523871499857
 21
180.9810574688119
 31
0.0
  0
LINE
  5
67D
330
1F
100
AcDbEntity
  8
0
 62
     3
100
AcDbLine
 10
285.8773871499857
 20
194.481057468812
 30
0.0
 11
313.7523871499857
 21
194.481057468812
 31
0.0
  0
LINE
  5
67E
330
1F
100
AcDbEntity
  8
0
 62
     3
100
AcDbLine
 10
313.7523871499857
 20
194.481057468812
 30
0.0
 11
332.8773871499857
 21
194.481057468812
 31
0.0
  0
LINE
  5
67F
330
1F
100
AcDbEntity
  8
0
 62
     3
100
AcDbLine
 10
327.5023871499857
 20
178.9810574688119
 30
0.0
 11
332.8773871499857
 21
178.9810574688119
 31
0.0
  0
LINE
  5
680
330
1F
100
AcDbEntity
  8
0
 62
     3
100
AcDbLine
 10
285.8773871499857
 20
188.981057468812
 30
0.0
 11
313.7523871499857
 21
188.981057468812
 31
0.0
  0
LINE
  5
681
330
1F
100
AcDbEntity
  8
0
 62
     3
100
AcDbLine
 10
285.8773871499857
 20
181.0823583526691
 30
0.0
 11
285.8773871499857
 21
194.481057468812
 31
0.0
  0
LINE
  5
682
330
1F
100
AcDbEntity
  8
0
 62
     3
100
AcDbLine
 10
337.3773871499857
 20
178.9810574688119
 30
0.0
 11
337.3773871499857
 21
194.481057468812
 31
0.0
  0
LINE
  5
683
330
1F
100
AcDbEntity
  8
0
 62
     3
100
AcDbLine
 10
333.3773871499857
 20
178.481057468812
 30
0.0
 11
333.3773871499857
 21
194.981057468812
 31
0.0
  0
LINE
  5
684
330
1F
100
AcDbEntity
  8
0
 62
     3
100
AcDbLine
 10
332.8773871499857
 20
178.481057468812
 30
0.0
 11
332.8773871499857
 21
194.981057468812
 31
0.0
  0
LINE
  5
685
330
1F
100
AcDbEntity
  8
0
 62
     3
100
AcDbLine
 10
288.3773871499857
 20
180.9810574688119
 30
0.0
 11
288.3773871499857
 21
181.0823583526691
 31
0.0
  0
LINE
  5
686
330
1F
100
AcDbEntity
  8
0
 62
     3
100
AcDbLine
 10
327.5023871499857
 20
179.2310574688119
 30
0.0
 11
327.5023871499857
 21
178.9810574688119
 31
0.0
  0
LINE
  5
687
330
1F
100
AcDbEntity
  8
0
 62
     7
100
AcDbLine
 10
285.8773871499857
 20
193.7310574688119
 30
0.0
 11
313.7523871499857
 21
193.5084778314982
 31
0.0
  0
LINE
  5
688
330
1F
100
AcDbEntity
  8
0
 62
     7
100
AcDbLine
 10
285.8773871499857
 20
181.2310574688119
 30
0.0
 11
313.7523871499857
 21
181.3202075437217
 31
0.0
  0
LINE
  5
689
330
1F
100
AcDbEntity
  8
0
 62
     3
100
AcDbLine
 10
288.3773871499857
 20
181.0823583526691
 30
0.0
 11
285.8773871499857
 21
181.0823583526691
 31
0.0
  0
LINE
  5
68A
330
1F
100
AcDbEntity
  8
0
 62
     3
100
AcDbLine
 10
317.5023871499856
 20
181.4185574688119
 30
0.0
 11
317.8224929700911
 21
181.7386632889178
 31
0.0
  0
LINE
  5
68B
330
1F
100
AcDbEntity
  8
0
 62
     3
100
AcDbLine
 10
313.7523871499857
 20
188.981057468812
 30
0.0
 11
318.0023871499856
 21
181.4185574688119
 31
0.0
  0
LINE
  5
68C
330
1F
100
AcDbEntity
  8
0
 62
     3
100
AcDbLine
 10
333.3773871499857
 20
178.481057468812
 30
0.0
 11
332.8773871499857
 21
178.481057468812
 31
0.0
  0
LINE
  5
68D
330
1F
100
AcDbEntity
  8
0
 62
     3
100
AcDbLine
 10
332.8773871499857
 20
194.981057468812
 30
0.0
 11
333.3773871499857
 21
194.981057468812
 31
0.0
  0
LINE
  5
68E
330
1F
100
AcDbEntity
  8
0
 62
     3
100
AcDbLine
 10
336.6273871499855
 20
178.231057468812
 30
0.0
 11
333.6273871499856
 21
178.231057468812
 31
0.0
  0
LINE
  5
68F
330
1F
100
AcDbEntity
  8
0
 62
     3
100
AcDbLine
 10
336.6273871499855
 20
195.231057468812
 30
0.0
 11
333.6273871499856
 21
195.231057468812
 31
0.0
  0
LINE
  5
690
330
1F
100
AcDbEntity
  8
0
 62
     3
100
AcDbLine
 10
327.5023871499857
 20
179.2310574688119
 30
0.0
 11
318.0023871499856
 21
181.4185574688119
 31
0.0
  0
LINE
  5
691
330
1F
100
AcDbEntity
  8
0
 62
     3
100
AcDbLine
 10
337.3773871499857
 20
194.481057468812
 30
0.0
 11
336.6273871499855
 21
195.231057468812
 31
0.0
  0
LINE
  5
692
330
1F
100
AcDbEntity
  8
0
 62
     3
100
AcDbLine
 10
337.3773871499857
 20
178.9810574688119
 30
0.0
 11
336.6273871499855
 21
178.231057468812
 31
0.0
  0
LINE
  5
693
330
1F
100
AcDbEntity
  8
0
 62
     3
100
AcDbLine
 10
333.6273871499856
 20
195.231057468812
 30
0.0
 11
333.3773871499857
 21
194.981057468812
 31
0.0
  0
LINE
  5
694
330
1F
100
AcDbEntity
  8
0
 62
     3
100
AcDbLine
 10
333.6273871499856
 20
178.231057468812
 30
0.0
 11
333.3773871499857
 21
178.481057468812
 31
0.0
  0
LINE
  5
695
330
1F
100
AcDbEntity
  8
0
 62
     3
100
AcDbLine
 10
167.5027019927225
 20
179.0262311247529
 30
0.0
 11
175.0027019927224
 21
179.0262311247529
 31
0.0
  0
LINE
  5
696
330
1F
100
AcDbEntity
  8
0
 62
     3
100
AcDbLine
 10
116.7527019927224
 20
178.1512311247529
 30
0.0
 11
167.5027019927225
 21
178.1512311247529
 31
0.0
  0
LINE
  5
697
330
1F
100
AcDbEntity
  8
0
 62
     3
100
AcDbLine
 10
148.5027019927225
 20
177.4012311247529
 30
0.0
 11
150.5027019927225
 21
177.4012311247529
 31
0.0
  0
LINE
  5
698
330
1F
100
AcDbEntity
  8
0
 62
     3
100
AcDbLine
 10
111.7527019927225
 20
205.1512311247529
 30
0.0
 11
205.7527019927225
 21
205.1512311247529
 31
0.0
  0
LINE
  5
699
330
1F
100
AcDbEntity
  8
0
 62
     3
100
AcDbLine
 10
195.0027019927225
 20
174.1512311247529
 30
0.0
 11
205.7527019927225
 21
174.1512311247529
 31
0.0
  0
LINE
  5
69A
330
1F
100
AcDbEntity
  8
0
 62
     3
100
AcDbLine
 10
111.7527019927225
 20
194.1512311247528
 30
0.0
 11
167.5027019927225
 21
194.1512311247528
 31
0.0
  0
LINE
  5
69B
330
1F
100
AcDbEntity
  8
0
 62
     3
100
AcDbLine
 10
88.19645595472051
 20
183.6512311247529
 30
0.0
 11
82.44645595472048
 21
183.6512311247529
 31
0.0
  0
LINE
  5
69C
330
1F
100
AcDbEntity
  8
0
 62
     3
100
AcDbLine
 10
88.19645595472051
 20
180.1512311247529
 30
0.0
 11
82.44645595472048
 21
180.1512311247529
 31
0.0
  0
LINE
  5
69D
330
1F
100
AcDbEntity
  8
0
 62
     3
100
AcDbLine
 10
88.19645595472051
 20
182.6512311247529
 30
0.0
 11
82.44645595472048
 21
182.6512311247529
 31
0.0
  0
LINE
  5
69E
330
1F
100
AcDbEntity
  8
0
 62
     3
100
AcDbLine
 10
111.7527019927225
 20
178.3538328924669
 30
0.0
 11
111.7527019927225
 21
205.1512311247529
 31
0.0
  0
LINE
  5
69F
330
1F
100
AcDbEntity
  8
0
 62
     3
100
AcDbLine
 10
214.7527019927225
 20
174.1512311247529
 30
0.0
 11
214.7527019927225
 21
205.1512311247529
 31
0.0
  0
LINE
  5
6A0
330
1F
100
AcDbEntity
  8
0
 62
     3
100
AcDbLine
 10
206.7527019927225
 20
173.1512311247529
 30
0.0
 11
206.7527019927225
 21
206.1512311247529
 31
0.0
  0
LINE
  5
6A1
330
1F
100
AcDbEntity
  8
0
 62
     3
100
AcDbLine
 10
205.7527019927225
 20
173.1512311247529
 30
0.0
 11
205.7527019927225
 21
206.1512311247529
 31
0.0
  0
LINE
  5
6A2
330
1F
100
AcDbEntity
  8
0
 62
     3
100
AcDbLine
 10
116.7527019927224
 20
178.1512311247529
 30
0.0
 11
116.7527019927224
 21
178.3538328924669
 31
0.0
  0
LINE
  5
6A3
330
1F
100
AcDbEntity
  8
0
 62
     3
100
AcDbLine
 10
195.0027019927225
 20
174.6512311247529
 30
0.0
 11
195.0027019927225
 21
174.1512311247529
 31
0.0
  0
LINE
  5
6A4
330
1F
100
AcDbEntity
  8
0
 62
     3
100
AcDbLine
 10
82.44645595472048
 20
183.6512311247529
 30
0.0
 11
82.44645595472048
 21
178.3538328924669
 31
0.0
  0
LINE
  5
6A5
330
1F
100
AcDbEntity
  8
0
 62
     3
100
AcDbLine
 10
88.19645595472051
 20
183.6512311247529
 30
0.0
 11
88.19645595472051
 21
178.3538328924669
 31
0.0
  0
LINE
  5
6A6
330
1F
100
AcDbEntity
  8
0
 62
     7
100
AcDbLine
 10
84.57145595472049
 20
205.1307923564655
 30
0.0
 11
84.57145595472049
 21
183.6512311247529
 31
0.0
  0
LINE
  5
6A7
330
1F
100
AcDbEntity
  8
0
 62
     7
100
AcDbLine
 10
86.07145595472053
 20
205.1307923564655
 30
0.0
 11
86.07145595472053
 21
183.6512311247529
 31
0.0
  0
ARC
  5
6A8
330
1F
100
AcDbEntity
  8
0
 62
     3
100
AcDbCircle
 10
85.3214559547205
 20
191.3803977914193
 30
0.0
 40
13.77083333333352
100
AcDbArc
 50
59.17628532901603
 51
120.8237146709839
  0
ARC
  5
6A9
330
1F
100
AcDbEntity
  8
0
 62
     7
100
AcDbCircle
 10
65.77813807950953
 20
192.8955133760175
 30
0.0
 40
27.9460321208956
100
AcDbArc
 50
329.3556990308957
 51
22.63595508768013
  0
ARC
  5
6AA
330
1F
100
AcDbEntity
  8
0
 62
     3
100
AcDbCircle
 10
85.3214559547205
 20
198.6512311247528
 30
0.0
 40
20.49999999999983
100
AcDbArc
 50
255.2199305383044
 51
284.7800694616957
  0
ARC
  5
6AB
330
1F
100
AcDbEntity
  8
0
 62
     7
100
AcDbCircle
 10
104.8647738299314
 20
192.8955133760175
 30
0.0
 40
27.9460321208956
100
AcDbArc
 50
157.3640449123198
 51
210.6443009691045
  0
ARC
  5
6AC
330
1F
100
AcDbEntity
  8
0
 62
     3
100
AcDbCircle
 10
66.40313807950953
 20
192.8955133760175
 30
0.0
 40
27.9460321208956
100
AcDbArc
 50
329.7796669545129
 51
21.65058870404029
  0
ARC
  5
6AD
330
1F
100
AcDbEntity
  8
0
 62
     3
100
AcDbCircle
 10
104.2397738299314
 20
192.8955133760175
 30
0.0
 40
27.9460321208956
100
AcDbArc
 50
158.3494112959597
 51
210.220333045487
  0
LINE
  5
6AE
330
1F
100
AcDbEntity
  8
0
 62
     7
100
AcDbLine
 10
111.7527019927225
 20
203.6512311247529
 30
0.0
 11
167.5027019927225
 21
203.2060718501254
 31
0.0
  0
LINE
  5
6AF
330
1F
100
AcDbEntity
  8
0
 62
     7
100
AcDbLine
 10
111.7527019927225
 20
178.6512311247529
 30
0.0
 11
167.5027019927225
 21
178.8295312745723
 31
0.0
  0
LINE
  5
6B0
330
1F
100
AcDbEntity
  8
0
 62
     3
100
AcDbLine
 10
116.7527019927224
 20
178.3538328924669
 30
0.0
 11
111.7527019927225
 21
178.3538328924669
 31
0.0
  0
LINE
  5
6B1
330
1F
100
AcDbEntity
  8
0
 62
     3
100
AcDbLine
 10
175.0027019927224
 20
179.0262311247529
 30
0.0
 11
175.6429136329341
 21
179.6664427649645
 31
0.0
  0
LINE
  5
6B2
330
1F
100
AcDbEntity
  8
0
 62
     3
100
AcDbLine
 10
167.5027019927225
 20
194.1512311247528
 30
0.0
 11
176.0027019927225
 21
179.0262311247529
 31
0.0
  0
LINE
  5
6B3
330
1F
100
AcDbEntity
  8
0
 62
     7
100
AcDbLine
 10
260.0267842047569
 20
187.8834641717864
 30
0.0
 11
261.7945511577232
 21
189.6512311247528
 31
0.0
  0
LINE
  5
6B4
330
1F
100
AcDbEntity
  8
0
 62
     7
100
AcDbLine
 10
260.0267842047569
 20
191.4189980777193
 30
0.0
 11
258.2590172517907
 21
189.6512311247528
 31
0.0
  0
LINE
  5
6B5
330
1F
100
AcDbEntity
  8
0
 62
     3
100
AcDbLine
 10
206.7527019927225
 20
173.1512311247529
 30
0.0
 11
205.7527019927225
 21
173.1512311247529
 31
0.0
  0
LINE
  5
6B6
330
1F
100
AcDbEntity
  8
0
 62
     3
100
AcDbLine
 10
205.7527019927225
 20
206.1512311247529
 30
0.0
 11
206.7527019927225
 21
206.1512311247529
 31
0.0
  0
LINE
  5
6B7
330
1F
100
AcDbEntity
  8
0
 62
     3
100
AcDbLine
 10
213.2527019927225
 20
172.6512311247529
 30
0.0
 11
207.2527019927225
 21
172.6512311247529
 31
0.0
  0
LINE
  5
6B8
330
1F
100
AcDbEntity
  8
0
 62
     3
100
AcDbLine
 10
213.2527019927225
 20
206.6512311247529
 30
0.0
 11
207.2527019927225
 21
206.6512311247529
 31
0.0
  0
LINE
  5
6B9
330
1F
100
AcDbEntity
  8
0
 62
     7
100
AcDbLine
 10
213.2527019927225
 20
205.6512311247529
 30
0.0
 11
207.2527019927225
 21
205.6512311247529
 31
0.0
  0
LINE
  5
6BA
330
1F
100
AcDbEntity
  8
0
 62
     7
100
AcDbLine
 10
213.2527019927225
 20
204.6512311247529
 30
0.0
 11
207.2527019927225
 21
204.6512311247529
 31
0.0
  0
LINE
  5
6BB
330
1F
100
AcDbEntity
  8
0
 62
     7
100
AcDbLine
 10
213.2527019927225
 20
203.6512311247529
 30
0.0
 11
207.2527019927225
 21
203.6512311247529
 31
0.0
  0
LINE
  5
6BC
330
1F
100
AcDbEntity
  8
0
 62
     7
100
AcDbLine
 10
213.2527019927225
 20
202.6512311247529
 30
0.0
 11
207.2527019927225
 21
202.6512311247529
 31
0.0
  0
LINE
  5
6BD
330
1F
100
AcDbEntity
  8
0
 62
     7
100
AcDbLine
 10
213.2527019927225
 20
201.6512311247529
 30
0.0
 11
207.2527019927225
 21
201.6512311247529
 31
0.0
  0
LINE
  5
6BE
330
1F
100
AcDbEntity
  8
0
 62
     7
100
AcDbLine
 10
213.2527019927225
 20
200.6512311247529
 30
0.0
 11
207.2527019927225
 21
200.6512311247529
 31
0.0
  0
LINE
  5
6BF
330
1F
100
AcDbEntity
  8
0
 62
     7
100
AcDbLine
 10
213.2527019927225
 20
199.6512311247529
 30
0.0
 11
207.2527019927225
 21
199.6512311247529
 31
0.0
  0
LINE
  5
6C0
330
1F
100
AcDbEntity
  8
0
 62
     7
100
AcDbLine
 10
213.2527019927225
 20
198.6512311247529
 30
0.0
 11
207.2527019927225
 21
198.6512311247529
 31
0.0
  0
LINE
  5
6C1
330
1F
100
AcDbEntity
  8
0
 62
     7
100
AcDbLine
 10
213.2527019927225
 20
197.6512311247529
 30
0.0
 11
207.2527019927225
 21
197.6512311247529
 31
0.0
  0
LINE
  5
6C2
330
1F
100
AcDbEntity
  8
0
 62
     7
100
AcDbLine
 10
213.2527019927225
 20
196.6512311247529
 30
0.0
 11
207.2527019927225
 21
196.6512311247529
 31
0.0
  0
LINE
  5
6C3
330
1F
100
AcDbEntity
  8
0
 62
     7
100
AcDbLine
 10
213.2527019927225
 20
195.6512311247529
 30
0.0
 11
207.2527019927225
 21
195.6512311247529
 31
0.0
  0
LINE
  5
6C4
330
1F
100
AcDbEntity
  8
0
 62
     7
100
AcDbLine
 10
213.2527019927225
 20
194.6512311247529
 30
0.0
 11
207.2527019927225
 21
194.6512311247529
 31
0.0
  0
LINE
  5
6C5
330
1F
100
AcDbEntity
  8
0
 62
     7
100
AcDbLine
 10
213.2527019927225
 20
193.6512311247529
 30
0.0
 11
207.2527019927225
 21
193.6512311247529
 31
0.0
  0
LINE
  5
6C6
330
1F
100
AcDbEntity
  8
0
 62
     7
100
AcDbLine
 10
213.2527019927225
 20
192.6512311247529
 30
0.0
 11
207.2527019927225
 21
192.6512311247529
 31
0.0
  0
LINE
  5
6C7
330
1F
100
AcDbEntity
  8
0
 62
     7
100
AcDbLine
 10
213.2527019927225
 20
191.6512311247529
 30
0.0
 11
207.2527019927225
 21
191.6512311247529
 31
0.0
  0
LINE
  5
6C8
330
1F
100
AcDbEntity
  8
0
 62
     7
100
AcDbLine
 10
213.2527019927225
 20
190.6512311247529
 30
0.0
 11
207.2527019927225
 21
190.6512311247529
 31
0.0
  0
LINE
  5
6C9
330
1F
100
AcDbEntity
  8
0
 62
     7
100
AcDbLine
 10
213.2527019927225
 20
189.6512311247528
 30
0.0
 11
207.2527019927225
 21
189.6512311247528
 31
0.0
  0
LINE
  5
6CA
330
1F
100
AcDbEntity
  8
0
 62
     7
100
AcDbLine
 10
213.2527019927225
 20
188.6512311247529
 30
0.0
 11
207.2527019927225
 21
188.6512311247529
 31
0.0
  0
LINE
  5
6CB
330
1F
100
AcDbEntity
  8
0
 62
     7
100
AcDbLine
 10
213.2527019927225
 20
187.6512311247529
 30
0.0
 11
207.2527019927225
 21
187.6512311247529
 31
0.0
  0
LINE
  5
6CC
330
1F
100
AcDbEntity
  8
0
 62
     7
100
AcDbLine
 10
213.2527019927225
 20
186.6512311247529
 30
0.0
 11
207.2527019927225
 21
186.6512311247529
 31
0.0
  0
LINE
  5
6CD
330
1F
100
AcDbEntity
  8
0
 62
     7
100
AcDbLine
 10
213.2527019927225
 20
185.6512311247529
 30
0.0
 11
207.2527019927225
 21
185.6512311247529
 31
0.0
  0
LINE
  5
6CE
330
1F
100
AcDbEntity
  8
0
 62
     7
100
AcDbLine
 10
213.2527019927225
 20
184.6512311247528
 30
0.0
 11
207.2527019927225
 21
184.6512311247528
 31
0.0
  0
LINE
  5
6CF
330
1F
100
AcDbEntity
  8
0
 62
     7
100
AcDbLine
 10
213.2527019927225
 20
183.6512311247529
 30
0.0
 11
207.2527019927225
 21
183.6512311247529
 31
0.0
  0
LINE
  5
6D0
330
1F
100
AcDbEntity
  8
0
 62
     7
100
AcDbLine
 10
213.2527019927225
 20
182.6512311247529
 30
0.0
 11
207.2527019927225
 21
182.6512311247529
 31
0.0
  0
LINE
  5
6D1
330
1F
100
AcDbEntity
  8
0
 62
     7
100
AcDbLine
 10
213.2527019927225
 20
181.6512311247528
 30
0.0
 11
207.2527019927225
 21
181.6512311247528
 31
0.0
  0
LINE
  5
6D2
330
1F
100
AcDbEntity
  8
0
 62
     7
100
AcDbLine
 10
213.2527019927225
 20
180.6512311247528
 30
0.0
 11
207.2527019927225
 21
180.6512311247528
 31
0.0
  0
LINE
  5
6D3
330
1F
100
AcDbEntity
  8
0
 62
     7
100
AcDbLine
 10
213.2527019927225
 20
179.6512311247529
 30
0.0
 11
207.2527019927225
 21
179.6512311247529
 31
0.0
  0
LINE
  5
6D4
330
1F
100
AcDbEntity
  8
0
 62
     7
100
AcDbLine
 10
213.2527019927225
 20
178.6512311247529
 30
0.0
 11
207.2527019927225
 21
178.6512311247529
 31
0.0
  0
LINE
  5
6D5
330
1F
100
AcDbEntity
  8
0
 62
     7
100
AcDbLine
 10
213.2527019927225
 20
177.6512311247529
 30
0.0
 11
207.2527019927225
 21
177.6512311247529
 31
0.0
  0
LINE
  5
6D6
330
1F
100
AcDbEntity
  8
0
 62
     7
100
AcDbLine
 10
213.2527019927225
 20
176.6512311247529
 30
0.0
 11
207.2527019927225
 21
176.6512311247529
 31
0.0
  0
LINE
  5
6D7
330
1F
100
AcDbEntity
  8
0
 62
     7
100
AcDbLine
 10
213.2527019927225
 20
175.6512311247529
 30
0.0
 11
207.2527019927225
 21
175.6512311247529
 31
0.0
  0
LINE
  5
6D8
330
1F
100
AcDbEntity
  8
0
 62
     7
100
AcDbLine
 10
213.2527019927225
 20
174.6512311247529
 30
0.0
 11
207.2527019927225
 21
174.6512311247529
 31
0.0
  0
LINE
  5
6D9
330
1F
100
AcDbEntity
  8
0
 62
     7
100
AcDbLine
 10
213.2527019927225
 20
173.6512311247529
 30
0.0
 11
207.2527019927225
 21
173.6512311247529
 31
0.0
  0
LINE
  5
6DA
330
1F
100
AcDbEntity
  8
0
 62
     3
100
AcDbLine
 10
195.0027019927225
 20
174.6512311247529
 30
0.0
 11
176.0027019927225
 21
179.0262311247529
 31
0.0
  0
LINE
  5
6DB
330
1F
100
AcDbEntity
  8
0
 62
     3
100
AcDbLine
 10
214.7527019927225
 20
205.1512311247529
 30
0.0
 11
213.2527019927225
 21
206.6512311247529
 31
0.0
  0
LINE
  5
6DC
330
1F
100
AcDbEntity
  8
0
 62
     3
100
AcDbLine
 10
214.7527019927225
 20
174.1512311247529
 30
0.0
 11
213.2527019927225
 21
172.6512311247529
 31
0.0
  0
LINE
  5
6DD
330
1F
100
AcDbEntity
  8
0
 62
     3
100
AcDbLine
 10
207.2527019927225
 20
206.6512311247529
 30
0.0
 11
206.7527019927225
 21
206.1512311247529
 31
0.0
  0
LINE
  5
6DE
330
1F
100
AcDbEntity
  8
0
 62
     3
100
AcDbLine
 10
207.2527019927225
 20
172.6512311247529
 30
0.0
 11
206.7527019927225
 21
173.1512311247529
 31
0.0
  0
LINE
  5
6DF
330
1F
100
AcDbEntity
  8
0
 62
     3
100
AcDbLine
 10
167.5027019927225
 20
205.1512311247529
 30
0.0
 11
167.5027019927225
 21
178.1512311247529
 31
0.0
  0
LINE
  5
6E0
330
1F
100
AcDbEntity
  8
0
 62
     7
100
AcDbLine
 10
191.7527019927224
 20
248.5299666232484
 30
0.0
 11
199.2527019927225
 21
248.5299666232484
 31
0.0
  0
LINE
  5
6E1
330
1F
100
AcDbEntity
  8
0
 62
     7
100
AcDbLine
 10
199.2527019927225
 20
260.5299666232483
 30
0.0
 11
191.7527019927224
 21
260.5299666232483
 31
0.0
  0
LINE
  5
6E2
330
1F
100
AcDbEntity
  8
0
 62
     3
100
AcDbLine
 10
167.5027019927225
 20
245.5022523775636
 30
0.0
 11
167.5027019927225
 21
263.5576808689331
 31
0.0
  0
LINE
  5
6E3
330
1F
100
AcDbEntity
  8
0
 62
     3
100
AcDbLine
 10
111.7527019927225
 20
246.1272523775637
 30
0.0
 11
111.7527019927225
 21
262.9326808689331
 31
0.0
  0
LINE
  5
6E4
330
1F
100
AcDbEntity
  8
0
 62
     3
100
AcDbLine
 10
111.7527019927225
 20
262.9326808689331
 30
0.0
 11
167.5027019927225
 21
263.5576808689331
 31
0.0
  0
LINE
  5
6E5
330
1F
100
AcDbEntity
  8
0
 62
     3
100
AcDbLine
 10
111.7527019927225
 20
246.1272523775637
 30
0.0
 11
167.5027019927225
 21
245.5022523775636
 31
0.0
  0
LINE
  5
6E6
330
1F
100
AcDbEntity
  8
0
 62
     7
100
AcDbLine
 10
111.7527019927225
 20
255.2799666232484
 30
0.0
 11
167.5027019927225
 21
255.2799666232484
 31
0.0
  0
LINE
  5
6E7
330
1F
100
AcDbEntity
  8
0
 62
     7
100
AcDbLine
 10
111.7527019927225
 20
253.7799666232485
 30
0.0
 11
167.5027019927225
 21
253.7799666232485
 31
0.0
  0
LINE
  5
6E8
330
1F
100
AcDbEntity
  8
0
 62
     7
100
AcDbLine
 10
111.7527019927225
 20
260.7799666232489
 30
0.0
 11
167.5027019927225
 21
261.5861188148955
 31
0.0
  0
LINE
  5
6E9
330
1F
100
AcDbEntity
  8
0
 62
     7
100
AcDbLine
 10
111.7527019927225
 20
248.2799666232476
 30
0.0
 11
167.5027019927225
 21
247.4738144316012
 31
0.0
  0
LINE
  5
6EA
330
1F
100
AcDbEntity
  8
0
 62
     3
100
AcDbLine
 10
214.7527019927225
 20
239.0299666232483
 30
0.0
 11
214.7527019927225
 21
270.0299666232482
 31
0.0
  0
LINE
  5
6EB
330
1F
100
AcDbEntity
  8
0
 62
     3
100
AcDbLine
 10
206.7527019927225
 20
238.0299666232484
 30
0.0
 11
206.7527019927225
 21
271.0299666232483
 31
0.0
  0
LINE
  5
6EC
330
1F
100
AcDbEntity
  8
0
 62
     7
100
AcDbLine
 10
199.7527019927225
 20
249.0299666232482
 30
0.0
 11
199.7527019927225
 21
260.0299666232483
 31
0.0
  0
LINE
  5
6ED
330
1F
100
AcDbEntity
  8
0
 62
     7
100
AcDbLine
 10
191.2527019927225
 20
249.0299666232482
 30
0.0
 11
191.2527019927225
 21
260.0299666232483
 31
0.0
  0
LINE
  5
6EE
330
1F
100
AcDbEntity
  8
0
 62
     3
100
AcDbLine
 10
205.7527019927225
 20
238.0299666232484
 30
0.0
 11
205.7527019927225
 21
271.0299666232483
 31
0.0
  0
LINE
  5
6EF
330
1F
100
AcDbEntity
  8
0
 62
     3
100
AcDbLine
 10
206.7527019927225
 20
238.0299666232484
 30
0.0
 11
205.7527019927225
 21
238.0299666232484
 31
0.0
  0
LINE
  5
6F0
330
1F
100
AcDbEntity
  8
0
 62
     3
100
AcDbLine
 10
205.7527019927225
 20
271.0299666232483
 30
0.0
 11
206.7527019927225
 21
271.0299666232483
 31
0.0
  0
LINE
  5
6F1
330
1F
100
AcDbEntity
  8
0
 62
     3
100
AcDbLine
 10
213.2527019927225
 20
237.5299666232483
 30
0.0
 11
207.2527019927225
 21
237.5299666232483
 31
0.0
  0
LINE
  5
6F2
330
1F
100
AcDbEntity
  8
0
 62
     3
100
AcDbLine
 10
213.2527019927225
 20
271.5299666232484
 30
0.0
 11
207.2527019927225
 21
271.5299666232484
 31
0.0
  0
LINE
  5
6F3
330
1F
100
AcDbEntity
  8
0
 62
     3
100
AcDbLine
 10
214.7527019927225
 20
270.0299666232482
 30
0.0
 11
213.2527019927225
 21
271.5299666232484
 31
0.0
  0
LINE
  5
6F4
330
1F
100
AcDbEntity
  8
0
 62
     3
100
AcDbLine
 10
214.7527019927225
 20
239.0299666232483
 30
0.0
 11
213.2527019927225
 21
237.5299666232483
 31
0.0
  0
LINE
  5
6F5
330
1F
100
AcDbEntity
  8
0
 62
     3
100
AcDbLine
 10
207.2527019927225
 20
271.5299666232484
 30
0.0
 11
206.7527019927225
 21
271.0299666232483
 31
0.0
  0
LINE
  5
6F6
330
1F
100
AcDbEntity
  8
0
 62
     3
100
AcDbLine
 10
207.2527019927225
 20
237.5299666232483
 30
0.0
 11
206.7527019927225
 21
238.0299666232484
 31
0.0
  0
ARC
  5
6F7
330
1F
100
AcDbEntity
  8
0
 62
     3
100
AcDbCircle
 10
205.7527019927225
 20
153.7686456608558
 30
0.0
 40
116.2613209623925
100
AcDbArc
 50
90.0
 51
109.2081040643109
  0
ARC
  5
6F8
330
1F
100
AcDbEntity
  8
0
 62
     3
100
AcDbCircle
 10
205.7527019927225
 20
355.2912875856407
 30
0.0
 40
116.2613209623925
100
AcDbArc
 50
250.7918959356891
 51
270.0
  0
ARC
  5
6F9
330
1F
100
AcDbEntity
  8
0
 62
     7
100
AcDbCircle
 10
199.2527019927225
 20
260.0299666232481
 30
0.0
 40
0.5
100
AcDbArc
 50
0.0000000000130276
 51
89.99999999998697
  0
ARC
  5
6FA
330
1F
100
AcDbEntity
  8
0
 62
     7
100
AcDbCircle
 10
191.7527019927224
 20
260.0299666232483
 30
0.0
 40
0.5
100
AcDbArc
 50
90.0
 51
180.0
  0
ARC
  5
6FB
330
1F
100
AcDbEntity
  8
0
 62
     7
100
AcDbCircle
 10
191.7527019927224
 20
249.0299666232484
 30
0.0
 40
0.5
100
AcDbArc
 50
180.000000000013
 51
270.0
  0
ARC
  5
6FC
330
1F
100
AcDbEntity
  8
0
 62
     7
100
AcDbCircle
 10
199.2527019927225
 20
249.0299666232482
 30
0.0
 40
0.5
100
AcDbArc
 50
270.0
 51
0.0
  0
LINE
  5
6FD
330
1F
100
AcDbEntity
  8
0
 62
     7
100
AcDbLine
 10
167.5027019927225
 20
133.3020064779024
 30
0.0
 11
175.0027019927224
 21
133.3020064779024
 31
0.0
  0
LINE
  5
6FE
330
1F
100
AcDbEntity
  8
0
 62
     7
100
AcDbLine
 10
167.5027019927225
 20
139.8020064779023
 30
0.0
 11
175.0027019927224
 21
139.8020064779023
 31
0.0
  0
LINE
  5
6FF
330
1F
100
AcDbEntity
  8
0
 62
     3
100
AcDbLine
 10
160.1595562422149
 20
134.5520064779023
 30
0.0
 11
148.84584774323
 21
134.5520064779023
 31
0.0
  0
LINE
  5
700
330
1F
100
AcDbEntity
  8
0
 62
     3
100
AcDbLine
 10
160.1595562422149
 20
138.5520064779024
 30
0.0
 11
148.84584774323
 21
138.5520064779024
 31
0.0
  0
LINE
  5
701
330
1F
100
AcDbEntity
  8
0
 62
     3
100
AcDbLine
 10
167.5027019927225
 20
127.5242922322176
 30
0.0
 11
167.5027019927225
 21
143.3549575729719
 31
0.0
  0
LINE
  5
702
330
1F
100
AcDbEntity
  8
0
 62
     7
100
AcDbLine
 10
179.5027019927225
 20
130.3109718995795
 30
0.0
 11
179.5027019927225
 21
142.7888783764915
 31
0.0
  0
LINE
  5
703
330
1F
100
AcDbEntity
  8
0
 62
     7
100
AcDbLine
 10
175.0027019927224
 20
133.3020064779024
 30
0.0
 11
175.0027019927224
 21
139.8020064779023
 31
0.0
  0
LINE
  5
704
330
1F
100
AcDbEntity
  8
0
 62
     3
100
AcDbLine
 10
187.0027019927224
 20
130.7920896426949
 30
0.0
 11
187.0027019927224
 21
142.3119233131096
 31
0.0
  0
LINE
  5
705
330
1F
100
AcDbEntity
  8
0
 62
     3
100
AcDbLine
 10
185.5027019927224
 20
130.7920896426949
 30
0.0
 11
185.5027019927224
 21
142.3119233131096
 31
0.0
  0
LINE
  5
706
330
1F
100
AcDbEntity
  8
0
 62
     3
100
AcDbLine
 10
111.7527019927225
 20
128.1492922322176
 30
0.0
 11
111.7527019927225
 21
134.0520064779024
 31
0.0
  0
LINE
  5
707
330
1F
100
AcDbEntity
  8
0
 62
     3
100
AcDbLine
 10
111.7527019927225
 20
144.9547207235871
 30
0.0
 11
167.5027019927225
 21
145.5797207235872
 31
0.0
  0
LINE
  5
708
330
1F
100
AcDbEntity
  8
0
 62
     3
100
AcDbLine
 10
111.7527019927225
 20
128.1492922322176
 30
0.0
 11
167.5027019927225
 21
127.5242922322176
 31
0.0
  0
LINE
  5
70A
330
1F
100
AcDbEntity
  8
0
 62
     3
100
AcDbLine
 10
206.7527019927225
 20
120.0520064779023
 30
0.0
 11
206.7527019927225
 21
146.7399620233088
 31
0.0
  0
LINE
  5
70B
330
1F
100
AcDbEntity
  8
0
 62
     3
100
AcDbLine
 10
205.7527019927225
 20
120.0520064779023
 30
0.0
 11
205.7527019927225
 21
146.8653567802715
 31
0.0
  0
LINE
  5
70C
330
1F
100
AcDbEntity
  8
0
 62
     3
100
AcDbLine
 10
206.7527019927225
 20
120.0520064779023
 30
0.0
 11
205.7527019927225
 21
120.0520064779023
 31
0.0
  0
LINE
  5
70D
330
1F
100
AcDbEntity
  8
0
 62
     3
100
AcDbLine
 10
205.7527019927225
 20
153.0520064779022
 30
0.0
 11
206.7527019927225
 21
153.0520064779022
 31
0.0
  0
LINE
  5
70E
330
1F
100
AcDbEntity
  8
0
 62
     3
100
AcDbLine
 10
210.2527019927225
 20
119.5520064779024
 30
0.0
 11
207.2527019927225
 21
119.5520064779024
 31
0.0
  0
LINE
  5
70F
330
1F
100
AcDbEntity
  8
0
 62
     3
100
AcDbLine
 10
210.2527019927225
 20
153.5520064779024
 30
0.0
 11
207.2527019927225
 21
153.5520064779024
 31
0.0
  0
LINE
  5
712
330
1F
100
AcDbEntity
  8
0
 62
     3
100
AcDbLine
 10
207.2527019927225
 20
153.5520064779024
 30
0.0
 11
206.7527019927225
 21
153.0520064779022
 31
0.0
  0
LINE
  5
713
330
1F
100
AcDbEntity
  8
0
 62
     3
100
AcDbLine
 10
207.2527019927225
 20
119.5520064779024
 30
0.0
 11
206.7527019927225
 21
120.0520064779023
 31
0.0
  0
ARC
  5
714
330
1F
100
AcDbEntity
  8
0
 62
     3
100
AcDbCircle
 10
205.7527019927225
 20
35.79068551550978
 30
0.0
 40
116.2613209623925
100
AcDbArc
 50
90.0
 51
109.2081040643109
  0
ARC
  5
715
330
1F
100
AcDbEntity
  8
0
 62
     3
100
AcDbCircle
 10
205.7527019927225
 20
237.313327440295
 30
0.0
 40
116.2613209623925
100
AcDbArc
 50
250.7918959356891
 51
270.0
  0
LINE
  5
716
330
1F
100
AcDbEntity
  8
0
 62
     7
100
AcDbLine
 10
111.7527019927225
 20
141.0520064779024
 30
0.0
 11
115.3331226612153
 21
141.0988726306633
 31
0.0
  0
LINE
  5
717
330
1F
100
AcDbEntity
  8
0
 62
     7
100
AcDbLine
 10
111.7527019927225
 20
132.0520064779024
 30
0.0
 11
167.5027019927225
 21
131.3222631716447
 31
0.0
  0
LINE
  5
718
330
1F
100
AcDbEntity
  8
0
 62
     3
100
AcDbLine
 10
116.7527019927224
 20
139.4270064779022
 30
0.0
 11
114.8422522586457
 21
139.4270064779022
 31
0.0
  0
LINE
  5
719
330
1F
100
AcDbEntity
  8
0
 62
     3
100
AcDbLine
 10
116.7527019927224
 20
133.6770064779024
 30
0.0
 11
115.2883004124793
 21
133.6770064779024
 31
0.0
  0
LINE
  5
71A
330
1F
100
AcDbEntity
  8
0
 62
     3
100
AcDbLine
 10
116.7527019927224
 20
133.6770064779024
 30
0.0
 11
116.7527019927224
 21
139.4270064779022
 31
0.0
  0
LINE
  5
71B
330
1F
100
AcDbEntity
  8
0
 62
     3
100
AcDbLine
 10
113.2527019927225
 20
133.6770064779024
 30
0.0
 11
113.2527019927225
 21
134.0520064779024
 31
0.0
  0
LINE
  5
71C
330
1F
100
AcDbEntity
  8
0
 62
     3
100
AcDbLine
 10
115.7527019927224
 20
133.6770064779024
 30
0.0
 11
115.7527019927224
 21
134.0520064779024
 31
0.0
  0
ARC
  5
721
330
1F
100
AcDbEntity
  8
0
 62
     3
100
AcDbCircle
 10
154.5027019927225
 20
136.5520064779023
 30
0.0
 40
6.0
100
AcDbArc
 50
340.5287793655029
 51
19.4712206344971
  0
ARC
  5
722
330
1F
100
AcDbEntity
  8
0
 62
     3
100
AcDbCircle
 10
154.5027019927225
 20
136.5520064779023
 30
0.0
 40
6.0
100
AcDbArc
 50
160.5287793655029
 51
199.4712206344971
  0
CIRCLE
  5
723
330
1F
100
AcDbEntity
  8
0
 62
     7
100
AcDbCircle
 10
144.5027019927224
 20
136.5520064779023
 30
0.0
 40
0.75
  0
LINE
  5
724
330
1F
100
AcDbEntity
  8
0
 62
     7
100
AcDbLine
 10
156.5027019927225
 20
134.5520064779023
 30
0.0
 11
156.5027019927225
 21
138.5520064779024
 31
0.0
  0
LINE
  5
725
330
1F
100
AcDbEntity
  8
0
 62
     7
100
AcDbLine
 10
155.7527019927225
 20
134.5520064779023
 30
0.0
 11
155.7527019927225
 21
138.5520064779024
 31
0.0
  0
LINE
  5
726
330
1F
100
AcDbEntity
  8
0
 62
     7
100
AcDbLine
 10
155.0027019927225
 20
134.5520064779023
 30
0.0
 11
155.0027019927225
 21
138.5520064779024
 31
0.0
  0
LINE
  5
727
330
1F
100
AcDbEntity
  8
0
 62
     7
100
AcDbLine
 10
154.2527019927224
 20
134.5520064779023
 30
0.0
 11
154.2527019927224
 21
138.5520064779024
 31
0.0
  0
LINE
  5
728
330
1F
100
AcDbEntity
  8
0
 62
     7
100
AcDbLine
 10
153.5027019927225
 20
134.5520064779023
 30
0.0
 11
153.5027019927225
 21
138.5520064779024
 31
0.0
  0
LINE
  5
729
330
1F
100
AcDbEntity
  8
0
 62
     7
100
AcDbLine
 10
152.7527019927225
 20
134.5520064779023
 30
0.0
 11
152.7527019927225
 21
138.5520064779024
 31
0.0
  0
LINE
  5
72A
330
1F
100
AcDbEntity
  8
0
 62
     7
100
AcDbLine
 10
152.0027019927224
 20
134.5520064779023
 30
0.0
 11
152.0027019927224
 21
138.5520064779024
 31
0.0
  0
LINE
  5
72B
330
1F
100
AcDbEntity
  8
0
 62
     7
100
AcDbLine
 10
151.2527019927224
 20
134.5520064779023
 30
0.0
 11
151.2527019927224
 21
138.5520064779024
 31
0.0
  0
ARC
  5
72C
330
1F
100
AcDbEntity
  8
0
 62
     3
100
AcDbCircle
 10
152.0027019927224
 20
136.5520064779023
 30
0.0
 40
6.0
100
AcDbArc
 50
340.5287793655029
 51
19.4712206344971
  0
LINE
  5
72D
330
1F
100
AcDbEntity
  8
0
 62
     3
100
AcDbLine
 10
148.5027019927225
 20
177.4012311247529
 30
0.0
 11
148.5027019927225
 21
178.1512311247529
 31
0.0
  0
LINE
  5
72E
330
1F
100
AcDbEntity
  8
0
 62
     7
100
AcDbLine
 10
150.5027019927225
 20
134.5520064779023
 30
0.0
 11
150.5027019927225
 21
138.5520064779024
 31
0.0
  0
ARC
  5
72F
330
1F
100
AcDbEntity
  8
0
 62
     3
100
AcDbCircle
 10
153.7962381999794
 20
181.1982842853719
 30
0.0
 40
7.366219489467629
100
AcDbArc
 50
304.8233277993132
 51
335.5655300161521
  0
ARC
  5
730
330
1F
100
AcDbEntity
  8
0
 62
     3
100
AcDbCircle
 10
150.5372821592846
 20
164.5676829675535
 30
0.0
 40
12.83359474547469
100
AcDbArc
 50
62.30088041108595
 51
90.15438386793942
  0
LINE
  5
731
330
1F
100
AcDbEntity
  8
0
 62
     3
100
AcDbLine
 10
156.5027019927225
 20
175.930557617126
 30
0.0
 11
158.0027019927225
 21
175.1512311247529
 31
0.0
  0
LINE
  5
732
330
1F
100
AcDbEntity
  8
0
 62
     3
100
AcDbLine
 10
167.5027019927225
 20
129.5520064779024
 30
0.0
 11
186.955316300574
 21
130.7823282796426
 31
0.0
  0
LINE
  5
733
330
1F
100
AcDbEntity
  8
0
 62
     3
100
AcDbLine
 10
187.0027019927224
 20
142.3119233131096
 30
0.0
 11
168.4414334823369
 21
143.4923087796186
 31
0.0
  0
LINE
  5
734
330
1F
100
AcDbEntity
  8
0
 62
     3
100
AcDbLine
 10
195.0027019927225
 20
132.8020064779024
 30
0.0
 11
195.0027019927225
 21
140.3020064779024
 31
0.0
  0
ARC
  5
735
330
1F
100
AcDbEntity
  8
0
 62
     3
100
AcDbCircle
 10
167.5027019927225
 20
47.77075647790463
 30
0.0
 40
96.53124999999777
100
AcDbArc
 50
73.4482143458422
 51
86.97734732661151
  0
ARC
  5
736
330
1F
100
AcDbEntity
  8
0
 62
     3
100
AcDbCircle
 10
167.5027019927225
 20
225.3332564779001
 30
0.0
 40
96.53124999999777
100
AcDbArc
 50
270.0
 51
286.5517856541442
  0
LINE
  5
737
330
1F
100
AcDbEntity
  8
0
 62
     7
100
AcDbLine
 10
175.0027019927224
 20
139.8020064779023
 30
0.0
 11
179.5027019927225
 21
142.7888783764915
 31
0.0
  0
LINE
  5
738
330
1F
100
AcDbEntity
  8
0
 62
     7
100
AcDbLine
 10
175.0027019927224
 20
133.3020064779024
 30
0.0
 11
179.5027019927225
 21
130.3109718995795
 31
0.0
  0
LINE
  5
739
330
1F
100
AcDbEntity
  8
0
 62
     7
100
AcDbLine
 10
258.2590172517907
 20
189.6512311247528
 30
0.0
 11
260.0267842047569
 21
187.8834641717864
 31
0.0
  0
LINE
  5
73A
330
1F
100
AcDbEntity
  8
0
 62
     7
100
AcDbLine
 10
260.0267842047569
 20
191.4189980777193
 30
0.0
 11
261.7945511577232
 21
189.6512311247528
 31
0.0
  0
CIRCLE
  5
73B
330
1F
100
AcDbEntity
  8
0
 62
     7
100
AcDbCircle
 10
260.0267842047569
 20
189.6512311247528
 30
0.0
 40
15.5
  0
CIRCLE
  5
73C
330
1F
100
AcDbEntity
  8
0
 62
     3
100
AcDbCircle
 10
260.0267842047569
 20
189.6512311247528
 30
0.0
 40
17.0
  0
CIRCLE
  5
73D
330
1F
100
AcDbEntity
  8
0
 62
     3
100
AcDbCircle
 10
260.0267842047569
 20
189.6512311247528
 30
0.0
 40
13.625
  0
CIRCLE
  5
73E
330
1F
100
AcDbEntity
  8
0
 62
     7
100
AcDbCircle
 10
260.0267842047569
 20
189.6512311247528
 30
0.0
 40
10.75
  0
CIRCLE
  5
73F
330
1F
100
AcDbEntity
  8
0
 62
     7
100
AcDbCircle
 10
260.0267842047569
 20
189.6512311247528
 30
0.0
 40
4.0
  0
CIRCLE
  5
740
330
1F
100
AcDbEntity
  8
0
 62
     7
100
AcDbCircle
 10
260.0267842047569
 20
189.6512311247528
 30
0.0
 40
1.250000000000009
  0
LINE
  5
741
330
1F
100
AcDbEntity
  8
0
 62
     7
100
AcDbLine
 10
213.2527019927225
 20
270.5299666232483
 30
0.0
 11
207.2527019927225
 21
270.5299666232483
 31
0.0
  0
LINE
  5
742
330
1F
100
AcDbEntity
  8
0
 62
     7
100
AcDbLine
 10
213.2527019927225
 20
269.5299666232482
 30
0.0
 11
207.2527019927225
 21
269.5299666232482
 31
0.0
  0
LINE
  5
743
330
1F
100
AcDbEntity
  8
0
 62
     7
100
AcDbLine
 10
213.2527019927225
 20
268.5299666232483
 30
0.0
 11
207.2527019927225
 21
268.5299666232483
 31
0.0
  0
LINE
  5
744
330
1F
100
AcDbEntity
  8
0
 62
     7
100
AcDbLine
 10
213.2527019927225
 20
267.5299666232482
 30
0.0
 11
207.2527019927225
 21
267.5299666232482
 31
0.0
  0
LINE
  5
745
330
1F
100
AcDbEntity
  8
0
 62
     7
100
AcDbLine
 10
213.2527019927225
 20
266.5299666232483
 30
0.0
 11
207.2527019927225
 21
266.5299666232483
 31
0.0
  0
LINE
  5
746
330
1F
100
AcDbEntity
  8
0
 62
     7
100
AcDbLine
 10
213.2527019927225
 20
265.5299666232482
 30
0.0
 11
207.2527019927225
 21
265.5299666232482
 31
0.0
  0
LINE
  5
747
330
1F
100
AcDbEntity
  8
0
 62
     7
100
AcDbLine
 10
213.2527019927225
 20
264.5299666232483
 30
0.0
 11
207.2527019927225
 21
264.5299666232483
 31
0.0
  0
LINE
  5
748
330
1F
100
AcDbEntity
  8
0
 62
     7
100
AcDbLine
 10
213.2527019927225
 20
263.5299666232482
 30
0.0
 11
207.2527019927225
 21
263.5299666232482
 31
0.0
  0
LINE
  5
749
330
1F
100
AcDbEntity
  8
0
 62
     7
100
AcDbLine
 10
213.2527019927225
 20
262.5299666232483
 30
0.0
 11
207.2527019927225
 21
262.5299666232483
 31
0.0
  0
LINE
  5
74A
330
1F
100
AcDbEntity
  8
0
 62
     7
100
AcDbLine
 10
213.2527019927225
 20
261.5299666232482
 30
0.0
 11
207.2527019927225
 21
261.5299666232482
 31
0.0
  0
LINE
  5
74B
330
1F
100
AcDbEntity
  8
0
 62
     7
100
AcDbLine
 10
213.2527019927225
 20
260.5299666232483
 30
0.0
 11
207.2527019927225
 21
260.5299666232483
 31
0.0
  0
LINE
  5
74C
330
1F
100
AcDbEntity
  8
0
 62
     7
100
AcDbLine
 10
213.2527019927225
 20
259.5299666232482
 30
0.0
 11
207.2527019927225
 21
259.5299666232482
 31
0.0
  0
LINE
  5
74D
330
1F
100
AcDbEntity
  8
0
 62
     7
100
AcDbLine
 10
213.2527019927225
 20
258.5299666232483
 30
0.0
 11
207.2527019927225
 21
258.5299666232483
 31
0.0
  0
LINE
  5
74E
330
1F
100
AcDbEntity
  8
0
 62
     7
100
AcDbLine
 10
213.2527019927225
 20
257.5299666232482
 30
0.0
 11
207.2527019927225
 21
257.5299666232482
 31
0.0
  0
LINE
  5
74F
330
1F
100
AcDbEntity
  8
0
 62
     7
100
AcDbLine
 10
213.2527019927225
 20
256.5299666232483
 30
0.0
 11
207.2527019927225
 21
256.5299666232483
 31
0.0
  0
LINE
  5
750
330
1F
100
AcDbEntity
  8
0
 62
     7
100
AcDbLine
 10
213.2527019927225
 20
255.5299666232482
 30
0.0
 11
207.2527019927225
 21
255.5299666232482
 31
0.0
  0
LINE
  5
751
330
1F
100
AcDbEntity
  8
0
 62
     7
100
AcDbLine
 10
213.2527019927225
 20
254.5299666232484
 30
0.0
 11
207.2527019927225
 21
254.5299666232484
 31
0.0
  0
LINE
  5
752
330
1F
100
AcDbEntity
  8
0
 62
     7
100
AcDbLine
 10
213.2527019927225
 20
253.5299666232482
 30
0.0
 11
207.2527019927225
 21
253.5299666232482
 31
0.0
  0
LINE
  5
753
330
1F
100
AcDbEntity
  8
0
 62
     7
100
AcDbLine
 10
213.2527019927225
 20
252.5299666232484
 30
0.0
 11
207.2527019927225
 21
252.5299666232484
 31
0.0
  0
LINE
  5
754
330
1F
100
AcDbEntity
  8
0
 62
     7
100
AcDbLine
 10
213.2527019927225
 20
251.5299666232483
 30
0.0
 11
207.2527019927225
 21
251.5299666232483
 31
0.0
  0
LINE
  5
755
330
1F
100
AcDbEntity
  8
0
 62
     7
100
AcDbLine
 10
213.2527019927225
 20
250.5299666232484
 30
0.0
 11
207.2527019927225
 21
250.5299666232484
 31
0.0
  0
LINE
  5
756
330
1F
100
AcDbEntity
  8
0
 62
     7
100
AcDbLine
 10
213.2527019927225
 20
249.5299666232483
 30
0.0
 11
207.2527019927225
 21
249.5299666232483
 31
0.0
  0
LINE
  5
757
330
1F
100
AcDbEntity
  8
0
 62
     7
100
AcDbLine
 10
213.2527019927225
 20
248.5299666232484
 30
0.0
 11
207.2527019927225
 21
248.5299666232484
 31
0.0
  0
LINE
  5
758
330
1F
100
AcDbEntity
  8
0
 62
     7
100
AcDbLine
 10
213.2527019927225
 20
247.5299666232483
 30
0.0
 11
207.2527019927225
 21
247.5299666232483
 31
0.0
  0
LINE
  5
759
330
1F
100
AcDbEntity
  8
0
 62
     7
100
AcDbLine
 10
213.2527019927225
 20
246.5299666232484
 30
0.0
 11
207.2527019927225
 21
246.5299666232484
 31
0.0
  0
LINE
  5
75A
330
1F
100
AcDbEntity
  8
0
 62
     7
100
AcDbLine
 10
213.2527019927225
 20
245.5299666232483
 30
0.0
 11
207.2527019927225
 21
245.5299666232483
 31
0.0
  0
LINE
  5
75B
330
1F
100
AcDbEntity
  8
0
 62
     7
100
AcDbLine
 10
213.2527019927225
 20
244.5299666232482
 30
0.0
 11
207.2527019927225
 21
244.5299666232482
 31
0.0
  0
LINE
  5
75C
330
1F
100
AcDbEntity
  8
0
 62
     7
100
AcDbLine
 10
213.2527019927225
 20
243.5299666232483
 30
0.0
 11
207.2527019927225
 21
243.5299666232483
 31
0.0
  0
LINE
  5
75D
330
1F
100
AcDbEntity
  8
0
 62
     7
100
AcDbLine
 10
213.2527019927225
 20
242.5299666232482
 30
0.0
 11
207.2527019927225
 21
242.5299666232482
 31
0.0
  0
LINE
  5
75E
330
1F
100
AcDbEntity
  8
0
 62
     7
100
AcDbLine
 10
213.2527019927225
 20
241.5299666232483
 30
0.0
 11
207.2527019927225
 21
241.5299666232483
 31
0.0
  0
LINE
  5
75F
330
1F
100
AcDbEntity
  8
0
 62
     7
100
AcDbLine
 10
213.2527019927225
 20
240.5299666232482
 30
0.0
 11
207.2527019927225
 21
240.5299666232482
 31
0.0
  0
LINE
  5
760
330
1F
100
AcDbEntity
  8
0
 62
     7
100
AcDbLine
 10
213.2527019927225
 20
239.5299666232483
 30
0.0
 11
207.2527019927225
 21
239.5299666232483
 31
0.0
  0
LINE
  5
761
330
1F
100
AcDbEntity
  8
0
 62
     7
100
AcDbLine
 10
213.2527019927225
 20
238.5299666232482
 30
0.0
 11
207.2527019927225
 21
238.5299666232482
 31
0.0
  0
LINE
  5
762
330
1F
100
AcDbEntity
  8
0
 62
     7
100
AcDbLine
 10
210.2527019927225
 20
152.5520064779024
 30
0.0
 11
207.2527019927225
 21
152.5520064779024
 31
0.0
  0
LINE
  5
763
330
1F
100
AcDbEntity
  8
0
 62
     7
100
AcDbLine
 10
210.2527019927225
 20
151.5520064779024
 30
0.0
 11
207.2527019927225
 21
151.5520064779024
 31
0.0
  0
LINE
  5
764
330
1F
100
AcDbEntity
  8
0
 62
     7
100
AcDbLine
 10
210.2527019927225
 20
150.5520064779024
 30
0.0
 11
207.2527019927225
 21
150.5520064779024
 31
0.0
  0
LINE
  5
765
330
1F
100
AcDbEntity
  8
0
 62
     7
100
AcDbLine
 10
210.2527019927225
 20
149.5520064779024
 30
0.0
 11
207.2527019927225
 21
149.5520064779024
 31
0.0
  0
LINE
  5
766
330
1F
100
AcDbEntity
  8
0
 62
     7
100
AcDbLine
 10
210.2527019927225
 20
148.5520064779024
 30
0.0
 11
207.2527019927225
 21
148.5520064779024
 31
0.0
  0
LINE
  5
767
330
1F
100
AcDbEntity
  8
0
 62
     7
100
AcDbLine
 10
210.2527019927225
 20
147.5520064779024
 30
0.0
 11
208.1630181096201
 21
147.5520064779024
 31
0.0
  0
LINE
  5
768
330
1F
100
AcDbEntity
  8
0
 62
     7
100
AcDbLine
 10
208.0889541026118
 20
146.5520064779024
 30
0.0
 11
207.2527019927225
 21
146.5520064779024
 31
0.0
  0
LINE
  5
769
330
1F
100
AcDbEntity
  8
0
 62
     7
100
AcDbLine
 10
210.2527019927225
 20
145.5520064779024
 30
0.0
 11
207.2527019927225
 21
145.5520064779024
 31
0.0
  0
LINE
  5
76A
330
1F
100
AcDbEntity
  8
0
 62
     7
100
AcDbLine
 10
210.2527019927225
 20
144.5520064779024
 30
0.0
 11
207.2527019927225
 21
144.5520064779024
 31
0.0
  0
LINE
  5
76B
330
1F
100
AcDbEntity
  8
0
 62
     7
100
AcDbLine
 10
210.2527019927225
 20
143.5520064779024
 30
0.0
 11
207.2527019927225
 21
143.5520064779024
 31
0.0
  0
LINE
  5
76C
330
1F
100
AcDbEntity
  8
0
 62
     7
100
AcDbLine
 10
210.2527019927225
 20
142.5520064779022
 30
0.0
 11
207.2527019927225
 21
142.5520064779022
 31
0.0
  0
LINE
  5
76D
330
1F
100
AcDbEntity
  8
0
 62
     7
100
AcDbLine
 10
210.2527019927225
 20
141.5520064779022
 30
0.0
 11
207.2527019927225
 21
141.5520064779022
 31
0.0
  0
LINE
  5
76E
330
1F
100
AcDbEntity
  8
0
 62
     7
100
AcDbLine
 10
210.2527019927225
 20
140.5520064779022
 30
0.0
 11
207.2527019927225
 21
140.5520064779022
 31
0.0
  0
LINE
  5
76F
330
1F
100
AcDbEntity
  8
0
 62
     7
100
AcDbLine
 10
210.2527019927225
 20
139.5520064779024
 30
0.0
 11
207.2527019927225
 21
139.5520064779024
 31
0.0
  0
LINE
  5
770
330
1F
100
AcDbEntity
  8
0
 62
     7
100
AcDbLine
 10
210.2527019927225
 20
138.5520064779024
 30
0.0
 11
207.2527019927225
 21
138.5520064779024
 31
0.0
  0
LINE
  5
771
330
1F
100
AcDbEntity
  8
0
 62
     7
100
AcDbLine
 10
210.2527019927225
 20
137.5520064779023
 30
0.0
 11
207.2527019927225
 21
137.5520064779023
 31
0.0
  0
LINE
  5
772
330
1F
100
AcDbEntity
  8
0
 62
     7
100
AcDbLine
 10
210.2527019927225
 20
136.5520064779023
 30
0.0
 11
207.2527019927225
 21
136.5520064779023
 31
0.0
  0
LINE
  5
773
330
1F
100
AcDbEntity
  8
0
 62
     7
100
AcDbLine
 10
210.2527019927225
 20
135.5520064779023
 30
0.0
 11
207.2527019927225
 21
135.5520064779023
 31
0.0
  0
LINE
  5
774
330
1F
100
AcDbEntity
  8
0
 62
     7
100
AcDbLine
 10
210.2527019927225
 20
134.5520064779023
 30
0.0
 11
207.2527019927225
 21
134.5520064779023
 31
0.0
  0
LINE
  5
775
330
1F
100
AcDbEntity
  8
0
 62
     7
100
AcDbLine
 10
210.2527019927225
 20
133.5520064779023
 30
0.0
 11
207.2527019927225
 21
133.5520064779023
 31
0.0
  0
LINE
  5
776
330
1F
100
AcDbEntity
  8
0
 62
     7
100
AcDbLine
 10
210.2527019927225
 20
132.5520064779023
 30
0.0
 11
207.2527019927225
 21
132.5520064779023
 31
0.0
  0
LINE
  5
777
330
1F
100
AcDbEntity
  8
0
 62
     7
100
AcDbLine
 10
210.2527019927225
 20
131.5520064779024
 30
0.0
 11
207.2527019927225
 21
131.5520064779024
 31
0.0
  0
LINE
  5
778
330
1F
100
AcDbEntity
  8
0
 62
     7
100
AcDbLine
 10
210.2527019927225
 20
130.5520064779024
 30
0.0
 11
207.2527019927225
 21
130.5520064779024
 31
0.0
  0
LINE
  5
779
330
1F
100
AcDbEntity
  8
0
 62
     7
100
AcDbLine
 10
210.2527019927225
 20
129.5520064779024
 30
0.0
 11
207.2527019927225
 21
129.5520064779024
 31
0.0
  0
LINE
  5
77A
330
1F
100
AcDbEntity
  8
0
 62
     7
100
AcDbLine
 10
210.2527019927225
 20
128.5520064779024
 30
0.0
 11
207.2527019927225
 21
128.5520064779024
 31
0.0
  0
LINE
  5
77B
330
1F
100
AcDbEntity
  8
0
 62
     7
100
AcDbLine
 10
210.2527019927225
 20
127.5520064779024
 30
0.0
 11
207.2527019927225
 21
127.5520064779024
 31
0.0
  0
LINE
  5
77C
330
1F
100
AcDbEntity
  8
0
 62
     7
100
AcDbLine
 10
210.2527019927225
 20
126.5520064779024
 30
0.0
 11
207.2527019927225
 21
126.5520064779024
 31
0.0
  0
LINE
  5
77D
330
1F
100
AcDbEntity
  8
0
 62
     7
100
AcDbLine
 10
210.2527019927225
 20
125.5520064779024
 30
0.0
 11
207.2527019927225
 21
125.5520064779024
 31
0.0
  0
LINE
  5
77E
330
1F
100
AcDbEntity
  8
0
 62
     7
100
AcDbLine
 10
210.2527019927225
 20
124.5520064779024
 30
0.0
 11
207.2527019927225
 21
124.5520064779024
 31
0.0
  0
LINE
  5
77F
330
1F
100
AcDbEntity
  8
0
 62
     7
100
AcDbLine
 10
210.2527019927225
 20
123.5520064779024
 30
0.0
 11
207.2527019927225
 21
123.5520064779024
 31
0.0
  0
LINE
  5
780
330
1F
100
AcDbEntity
  8
0
 62
     7
100
AcDbLine
 10
210.2527019927225
 20
122.5520064779024
 30
0.0
 11
207.2527019927225
 21
122.5520064779024
 31
0.0
  0
LINE
  5
781
330
1F
100
AcDbEntity
  8
0
 62
     7
100
AcDbLine
 10
210.2527019927225
 20
121.5520064779024
 30
0.0
 11
207.2527019927225
 21
121.5520064779024
 31
0.0
  0
LINE
  5
782
330
1F
100
AcDbEntity
  8
0
 62
     7
100
AcDbLine
 10
210.2527019927225
 20
120.5520064779024
 30
0.0
 11
207.2527019927225
 21
120.5520064779024
 31
0.0
  0
CIRCLE
  5
792
330
1F
100
AcDbEntity
  8
0
100
AcDbCircle
 10
107.8989651652396
 20
276.0688148664456
 30
0.0
 40
5.0
  0
TEXT
  5
793
330
1F
100
AcDbEntity
  8
0
 62
     4
100
AcDbText
 10
106.9572179451603
 20
272.8437704160738
 30
0.0
 40
6.299999999999998
  1
1
  7
高6.3
100
AcDbText
  0
CIRCLE
  5
794
330
1F
100
AcDbEntity
  8
0
100
AcDbCircle
 10
178.4155708029562
 20
276.1122097181777
 30
0.0
 40
5.0
  0
TEXT
  5
795
330
1F
100
AcDbEntity
  8
0
 62
     4
100
AcDbText
 10
176.4038524231622
 20
272.990458974213
 30
0.0
 40
6.299999999999998
  1
2
  7
高6.3
100
AcDbText
  0
CIRCLE
  5
796
330
1F
100
AcDbEntity
  8
0
100
AcDbCircle
 10
230.1796917017696
 20
267.9216037271242
 30
0.0
 40
5.0
  0
TEXT
  5
797
330
1F
100
AcDbEntity
  8
0
 62
     4
100
AcDbText
 10
227.8436681097667
 20
264.8160044387615
 30
0.0
 40
6.299999999999998
  1
3
  7
高6.3
100
AcDbText
  0
LINE
  5
798
330
1F
100
AcDbEntity
  8
0
 62
     3
100
AcDbLine
 10
311.9922490061731
 20
257.6395223600414
 30
0.0
 11
311.9922490061731
 21
246.6395223600414
 31
0.0
  0
LINE
  5
799
330
1F
100
AcDbEntity
  8
0
 62
     7
100
AcDbLine
 10
329.6172490061731
 20
267.8895223600414
 30
0.0
 11
329.6172490061731
 21
260.1395223600414
 31
0.0
  0
LINE
  5
79A
330
1F
100
AcDbEntity
  8
0
 62
     7
100
AcDbLine
 10
326.3672490061732
 20
267.8895223600414
 30
0.0
 11
326.3672490061732
 21
260.1395223600414
 31
0.0
  0
LINE
  5
79B
330
1F
100
AcDbEntity
  8
0
 62
     3
100
AcDbLine
 10
322.4922490061729
 20
260.1395223600414
 30
0.0
 11
322.4922490061731
 21
258.6395223600415
 31
0.0
  0
LINE
  5
79C
330
1F
100
AcDbEntity
  8
0
 62
     3
100
AcDbLine
 10
325.7422490061732
 20
258.6395223600415
 30
0.0
 11
325.7422490061732
 21
256.6395223600415
 31
0.0
  0
LINE
  5
79D
330
1F
100
AcDbEntity
  8
0
 62
     3
100
AcDbLine
 10
311.9922490061731
 20
246.6395223600414
 30
0.0
 11
311.9922490061731
 21
230.6395223600414
 31
0.0
  0
LINE
  5
79E
330
1F
100
AcDbEntity
  8
0
 62
     3
100
AcDbLine
 10
311.9922490061731
 20
231.5145223600414
 30
0.0
 11
312.2422490061731
 21
231.5145223600414
 31
0.0
  0
LINE
  5
79F
330
1F
100
AcDbEntity
  8
0
 62
     3
100
AcDbLine
 10
261.2422490061731
 20
230.6395223600414
 30
0.0
 11
311.9922490061731
 21
230.6395223600414
 31
0.0
  0
LINE
  5
7A0
330
1F
100
AcDbEntity
  8
0
 62
     3
100
AcDbLine
 10
256.2422490061731
 20
257.6395223600414
 30
0.0
 11
311.9922490061731
 21
257.6395223600414
 31
0.0
  0
LINE
  5
7A1
330
1F
100
AcDbEntity
  8
0
 62
     3
100
AcDbLine
 10
311.9922490061731
 20
256.6395223600415
 30
0.0
 11
326.0143078297024
 21
256.6395223600415
 31
0.0
  0
LINE
  5
7A2
330
1F
100
AcDbEntity
  8
0
 62
     3
100
AcDbLine
 10
256.2422490061731
 20
246.6395223600414
 30
0.0
 11
311.9922490061731
 21
246.6395223600414
 31
0.0
  0
LINE
  5
7A3
330
1F
100
AcDbEntity
  8
0
 62
     3
100
AcDbLine
 10
256.2422490061731
 20
230.8421241277557
 30
0.0
 11
256.2422490061731
 21
257.6395223600414
 31
0.0
  0
LINE
  5
7A4
330
1F
100
AcDbEntity
  8
0
 62
     3
100
AcDbLine
 10
261.2422490061731
 20
230.6395223600414
 30
0.0
 11
261.2422490061731
 21
230.8421241277557
 31
0.0
  0
LINE
  5
7A5
330
1F
100
AcDbEntity
  8
0
 62
     7
100
AcDbLine
 10
256.2422490061731
 20
256.1395223600414
 30
0.0
 11
311.9922490061731
 21
255.694363085414
 31
0.0
  0
LINE
  5
7A6
330
1F
100
AcDbEntity
  8
0
 62
     7
100
AcDbLine
 10
256.2422490061731
 20
231.1395223600414
 30
0.0
 11
311.9922490061731
 21
231.3178225098607
 31
0.0
  0
LINE
  5
7A7
330
1F
100
AcDbEntity
  8
0
 62
     3
100
AcDbLine
 10
261.2422490061731
 20
230.8421241277557
 30
0.0
 11
256.2422490061731
 21
230.8421241277557
 31
0.0
  0
LINE
  5
7A9
330
1F
100
AcDbEntity
  8
0
 62
     3
100
AcDbLine
 10
332.2422490061732
 20
260.1395223600414
 30
0.0
 11
322.4922490061729
 21
260.1395223600414
 31
0.0
  0
LINE
  5
7AA
330
1F
100
AcDbEntity
  8
0
 62
     7
100
AcDbLine
 10
329.6172490061731
 20
267.8895223600414
 30
0.0
 11
326.3672490061732
 21
267.8895223600414
 31
0.0
  0
LINE
  5
7AB
330
1F
100
AcDbEntity
  8
0
 62
     3
100
AcDbLine
 10
329.5731313591143
 20
258.6395223600415
 30
0.0
 11
322.4922490061729
 21
258.6395223600415
 31
0.0
  0
ARC
  5
7AC
330
1F
100
AcDbEntity
  8
0
 62
     7
100
AcDbCircle
 10
327.9922490061732
 20
266.5041056933749
 30
0.0
 40
2.135416666666568
100
AcDbArc
 50
40.44971886233567
 51
139.5502811376642
  0
CIRCLE
  5
7AD
330
1F
100
AcDbEntity
  8
0
 62
     7
100
AcDbCircle
 10
327.9922490061732
 20
265.8895223600414
 30
0.0
 40
0.75
  0
CIRCLE
  5
7AE
330
1F
100
AcDbEntity
  8
0
100
AcDbCircle
 10
347.6652062515245
 20
271.2271507900226
 30
0.0
 40
5.0
  0
TEXT
  5
7AF
330
1F
100
AcDbEntity
  8
0
 62
     4
100
AcDbText
 10
345.4982186944671
 20
268.2035001465231
 30
0.0
 40
6.299999999999998
  1
4
  7
高6.3
100
AcDbText
  0
CIRCLE
  5
7B0
330
1F
100
AcDbEntity
  8
0
100
AcDbCircle
 10
149.4686344610914
 20
164.8461398808206
 30
0.0
 40
5.0
  0
TEXT
  5
7B1
330
1F
100
AcDbEntity
  8
0
 62
     4
100
AcDbText
 10
147.3564337471134
 20
161.3216979265656
 30
0.0
 40
6.299999999999998
  1
5
  7
高6.3
100
AcDbText
  0
CIRCLE
  5
7B2
330
1F
100
AcDbEntity
  8
0
100
AcDbCircle
 10
251.9544442569664
 20
219.3728137290048
 30
0.0
 40
5.0
  0
TEXT
  5
7B3
330
1F
100
AcDbEntity
  8
0
 62
     4
100
AcDbText
 10
249.8117918540403
 20
216.2378429290928
 30
0.0
 40
6.299999999999998
  1
6
  7
高6.3
100
AcDbText
  0
ARC
  5
7B9
330
1F
100
AcDbEntity
  8
0
  6
HIDDEN
 62
     7
100
AcDbCircle
 10
208.2674902306588
 20
182.0982935423568
 30
0.0
 40
19.03851326085914
100
AcDbArc
 50
96.07519557915118
 51
145.3705490704203
  0
LINE
  5
7BA
330
1F
100
AcDbEntity
  8
0
  6
HIDDEN
 62
     7
100
AcDbLine
 10
192.601756605404
 20
192.9172480744025
 30
0.0
 11
192.601756605404
 21
186.3842287801233
 31
0.0
  0
ARC
  5
7BB
330
1F
100
AcDbEntity
  8
0
  6
HIDDEN
 62
     7
100
AcDbCircle
 10
208.2662131077907
 20
197.2050323394141
 30
0.0
 40
19.03851326085914
100
AcDbArc
 50
214.6362138286711
 51
263.9344919849301
  0
CIRCLE
  5
7BC
330
1F
100
AcDbEntity
  8
0
100
AcDbCircle
 10
193.2871441639695
 20
219.6618995570529
 30
0.0
 40
5.0
  0
TEXT
  5
7BD
330
1F
100
AcDbEntity
  8
0
 62
     4
100
AcDbText
 10
191.6553372040155
 20
216.1375540244101
 30
0.0
 40
6.299999999999998
  1
7
  7
高6.3
100
AcDbText
  0
CIRCLE
  5
7C0
330
1F
100
AcDbEntity
  8
0
100
AcDbCircle
 10
122.4377938897674
 20
164.5946343997214
 30
0.0
 40
5.0
  0
TEXT
  5
7C1
330
1F
100
AcDbEntity
  8
0
 62
     4
100
AcDbText
 10
120.2398446929928
 20
161.4658834704115
 30
0.0
 40
6.299999999999998
  1
8
  7
高6.3
100
AcDbText
  0
TEXT
  5
7C3
330
1F
100
AcDbEntity
  8
0
 62
     3
100
AcDbText
 10
174.3919905852812
 20
77.77349468750732
 30
0.0
 40
3.2
  1
54878
 41
0.8
  7
高3.2
100
AcDbText
  0
TEXT
  5
7C4
330
1F
100
AcDbEntity
  8
0
 62
     3
100
AcDbText
 10
113.7171485505087
 20
77.77349468750732
 30
0.0
 40
3.2
  1
SL-BP-SM
 41
0.8
  7
高3.2
100
AcDbText
  0
TEXT
  5
7C5
330
1F
100
AcDbEntity
  8
0
 62
     3
100
AcDbText
 10
66.01165367505181
 20
77.77349468750732
 30
0.0
 40
3.2
  1
ベルトポーチ
 41
0.8
  7
高3.2
100
AcDbText
  0
TEXT
  5
7C6
330
1F
100
AcDbEntity
  8
0
 62
     3
100
AcDbText
 10
99.34587848204369
 20
77.77349468750732
 30
0.0
 40
3.2
  1
-
 41
0.8
  7
高3.2
100
AcDbText
  0
TEXT
  5
7C7
330
1F
100
AcDbEntity
  8
0
 62
     3
100
AcDbText
 10
57.92971169056651
 20
77.71633268750743
 30
0.0
 40
3.2
  1
付属
 41
0.8
  7
高3.2
100
AcDbText
  0
TEXT
  5
7C8
330
1F
100
AcDbEntity
  8
0
 62
     3
100
AcDbText
 10
169.3305447142853
 20
77.77349468750732
 30
0.0
 40
3.2
  1
1
 41
0.8
  7
高3.2
100
AcDbText
  0
LINE
  5
818
330
1F
100
AcDbEntity
  8
0
  6
CENTER
100
AcDbLine
 10
334.7586254914103
 20
147.8316815221139
 30
0.0
 11
320.9170877832219
 21
161.6732192303021
 31
0.0
  0
LINE
  5
819
330
1F
100
AcDbEntity
  8
0
  6
CENTER
 62
     7
100
AcDbLine
 10
281.6128419069341
 20
161.6732192303021
 30
0.0
 11
320.9170877832219
 21
161.6732192303021
 31
0.0
  0
LINE
  5
81A
330
1F
100
AcDbEntity
  8
0
  6
CENTER
 62
     7
100
AcDbLine
 10
280.8229386420639
 20
132.996736137669
 30
0.0
 11
321.6273871499857
 21
132.996736137669
 31
0.0
  0
LINE
  5
81B
330
1F
100
AcDbEntity
  8
0
  6
CENTER
100
AcDbLine
 10
321.6273871499857
 20
114.613172572842
 30
0.0
 11
321.6273871499857
 21
132.996736137669
 31
0.0
  0
ARC
  5
822
330
1F
100
AcDbEntity
  8
0
 62
     7
100
AcDbCircle
 10
327.9922490061732
 20
253.6019535794206
 30
0.0
 40
12.28756878062086
100
AcDbArc
 50
106.0058321843367
 51
159.4088554991319
  0
LINE
  5
823
330
1F
100
AcDbEntity
  8
0
 62
     7
100
AcDbLine
 10
316.8723384702282
 20
259.9161839356629
 30
0.0
 11
316.4896850197916
 21
257.9234542768275
 31
0.0
  0
LINE
  5
824
330
1F
100
AcDbEntity
  8
0
 62
     7
100
AcDbLine
 10
316.4896850197916
 20
257.9234542768275
 30
0.0
 11
317.821126471388
 21
259.5597253223
 31
0.0
  0
LINE
  5
825
330
1F
100
AcDbEntity
  8
0
 62
     7
100
AcDbLine
 10
322.5871913914401
 20
265.1910548172442
 30
0.0
 11
324.6041337463062
 21
265.4131779666018
 31
0.0
  0
LINE
  5
826
330
1F
100
AcDbEntity
  8
0
 62
     7
100
AcDbLine
 10
324.6041337463062
 20
265.4131779666018
 30
0.0
 11
322.8666597872615
 21
264.2168069894704
 31
0.0
  0
TEXT
  5
827
330
1F
100
AcDbEntity
  8
0
 62
     7
100
AcDbText
 10
439.8631371088226
 20
32.08693713833947
 30
0.0
 40
4.5
  1
I
  7
高4.5
100
AcDbText
  0
LINE
  5
9F0
330
1F
100
AcDbEntity
  8
0
 62
     7
100
AcDbLine
 10
273.4440620730634
 20
77.27349468750739
 30
0.0
 11
57.00505369056647
 21
77.27349468750734
 31
0.0
  0
TEXT
  5
9F1
330
1F
100
AcDbEntity
  8
0
 62
     3
100
AcDbText
 10
174.3919905852812
 20
57.80207568750729
 30
0.0
 40
3.2
  1
54870
 41
0.8
  7
高3.2
100
AcDbText
  0
TEXT
  5
9F2
330
1F
100
AcDbEntity
  8
0
 62
     3
100
AcDbText
 10
113.7171485505087
 20
57.80207568750729
 30
0.0
 40
3.2
  1
赤半透明　PIL-3W-SM-LFR
 41
0.8
  7
高3.2
100
AcDbText
  0
TEXT
  5
9F3
330
1F
100
AcDbEntity
  8
0
 62
     3
100
AcDbText
 10
66.01165367505179
 20
57.80207568750729
 30
0.0
 40
3.2
  1
レンズフィルター赤
 41
0.8
  7
高3.2
100
AcDbText
  0
TEXT
  5
9F4
330
1F
100
AcDbEntity
  8
0
 62
     3
100
AcDbText
 10
99.34587848204369
 20
57.80207568750729
 30
0.0
 40
3.2
  1
TPE
 41
0.8
  7
高3.2
100
AcDbText
  0
TEXT
  5
9F6
330
1F
100
AcDbEntity
  8
0
 62
     3
100
AcDbText
 10
169.3305447142853
 20
57.80207568750729
 30
0.0
 40
3.2
  1
1
 41
0.8
  7
高3.2
100
AcDbText
  0
LINE
  5
ABB
330
1F
100
AcDbEntity
  8
0
 62
     3
100
AcDbLine
 10
65.57858687360043
 20
134.0520064779024
 30
0.0
 11
65.57858687360043
 21
139.0520064779024
 31
0.0
  0
LINE
  5
ABC
330
1F
100
AcDbEntity
  8
0
 62
     7
100
AcDbLine
 10
215.7027019927225
 20
132.3020064779024
 30
0.0
 11
216.3527019927226
 21
132.3020064779024
 31
0.0
  0
LINE
  5
ABD
330
1F
100
AcDbEntity
  8
0
 62
     7
100
AcDbLine
 10
215.7027019927225
 20
140.8020064779023
 30
0.0
 11
216.3527019927226
 21
140.8020064779023
 31
0.0
  0
LINE
  5
ABE
330
1F
100
AcDbEntity
  8
0
100
AcDbLine
 10
104.2824078468002
 20
136.3020064779024
 30
0.0
 11
108.0455952115358
 21
136.3020064779024
 31
0.0
  0
LINE
  5
ABF
330
1F
100
AcDbEntity
  8
0
100
AcDbLine
 10
104.2824078468002
 20
136.8020064779024
 30
0.0
 11
108.0455952115358
 21
136.8020064779024
 31
0.0
  0
LINE
  5
AC0
330
1F
100
AcDbEntity
  8
0
 62
     3
100
AcDbLine
 10
65.57858687360043
 20
134.0520064779024
 30
0.0
 11
78.23211118041371
 21
134.0520064779024
 31
0.0
  0
LINE
  5
AC1
330
1F
100
AcDbEntity
  8
0
 62
     3
100
AcDbLine
 10
65.57858687360043
 20
139.0520064779024
 30
0.0
 11
77.50135992435412
 21
139.0520064779024
 31
0.0
  0
ARC
  5
AC2
330
1F
100
AcDbEntity
  8
0
100
AcDbCircle
 10
108.7527019927223
 20
136.5520064779022
 30
0.0
 40
0.75
100
AcDbArc
 50
199.4712206344835
 51
160.5287793655001
  0
CIRCLE
  5
AC3
330
1F
100
AcDbEntity
  8
0
 62
     3
100
AcDbCircle
 10
102.7527019927223
 20
136.5520064779022
 30
0.0
 40
1.55
  0
ARC
  5
AC4
330
1F
100
AcDbEntity
  8
0
 62
     3
100
AcDbCircle
 10
100.7527019927224
 20
136.5520064779023
 30
0.0
 40
6.500000000000047
100
AcDbArc
 50
157.3801350519594
 51
202.6198649480412
  0
LINE
  5
AC5
330
1F
100
AcDbEntity
  8
0
 62
     3
100
AcDbLine
 10
210.2527019927225
 20
118.3020064779024
 30
0.0
 11
210.2527019927225
 21
146.197761428658
 31
0.0
  0
LINE
  5
AC6
330
1F
100
AcDbEntity
  8
0
 62
     3
100
AcDbLine
 10
216.3527019927226
 20
118.8020064779023
 30
0.0
 11
216.3527019927226
 21
154.3020064779024
 31
0.0
  0
LINE
  5
AC7
330
1F
100
AcDbEntity
  8
0
 62
     7
100
AcDbLine
 10
215.7027019927225
 20
132.3020064779024
 30
0.0
 11
215.7027019927225
 21
140.8020064779023
 31
0.0
  0
LINE
  5
AC8
330
1F
100
AcDbEntity
  8
0
 62
     3
100
AcDbLine
 10
210.2527019927225
 20
154.8020064779024
 30
0.0
 11
216.3527019927225
 21
154.3020064779024
 31
0.0
  0
LINE
  5
AC9
330
1F
100
AcDbEntity
  8
0
 62
     3
100
AcDbLine
 10
216.3527019927225
 20
118.8020064779023
 30
0.0
 11
210.2527019927225
 21
118.3020064779024
 31
0.0
  0
ARC
  5
ACA
330
1F
100
AcDbEntity
  8
0
100
AcDbCircle
 10
119.4007366051817
 20
139.3536445834572
 30
0.0
 40
2.0
100
AcDbArc
 50
170.7939458240658
 51
263.4925862380734
  0
ARC
  5
ACB
330
1F
100
AcDbEntity
  8
0
100
AcDbCircle
 10
119.4007366051817
 20
139.3536445834572
 30
0.0
 40
2.0
100
AcDbArc
 50
292.4661600409626
 51
345.2996564855724
  0
ARC
  5
ACC
330
1F
100
AcDbEntity
  8
0
100
AcDbCircle
 10
115.8434384760262
 20
136.7619704178862
 30
0.0
 40
4.385058227440923
100
AcDbArc
 50
266.9614227422055
 51
9.76134803216421
  0
ARC
  5
ACD
330
1F
100
AcDbEntity
  8
0
100
AcDbCircle
 10
115.8434384760262
 20
136.7619704178862
 30
0.0
 40
3.385058227440924
100
AcDbArc
 50
268.1684861337153
 51
10.28802426455634
  0
ARC
  5
ACE
330
1F
100
AcDbEntity
  8
0
100
AcDbCircle
 10
115.9297254477505
 20
134.1539120593036
 30
0.0
 40
1.799290316120839
100
AcDbArc
 50
183.2467721753239
 51
259.7966127226794
  0
ARC
  5
ACF
330
1F
100
AcDbEntity
  8
0
100
AcDbCircle
 10
115.9297254477505
 20
134.1539120593036
 30
0.0
 40
0.7992903161208447
100
AcDbArc
 50
187.3248663362231
 51
255.9180320390125
  0
ARC
  5
AD0
330
1F
100
AcDbEntity
  8
0
100
AcDbCircle
 10
116.0345284200863
 20
138.9081249621774
 30
0.0
 40
1.300292456526759
100
AcDbArc
 50
70.95351640822198
 51
173.6470291996588
  0
ARC
  5
AD1
330
1F
100
AcDbEntity
  8
0
100
AcDbCircle
 10
116.0345284200863
 20
138.9081249621774
 30
0.0
 40
2.300292456526759
100
AcDbArc
 50
68.8197979431777
 51
176.4138522554921
  0
ARC
  5
AD2
330
1F
100
AcDbEntity
  8
0
100
AcDbCircle
 10
123.8674679876276
 20
154.3585238612134
 30
0.0
 40
16.03535554805706
100
AcDbArc
 50
242.4826560157544
 51
255.4912861755539
  0
ARC
  5
AD3
330
1F
100
AcDbEntity
  8
0
100
AcDbCircle
 10
123.8674679876276
 20
154.3585238612134
 30
0.0
 40
15.03535554805706
100
AcDbArc
 50
242.2450112617695
 51
254.5093950420459
  0
LINE
  5
AD4
330
1F
100
AcDbEntity
  8
0
100
AcDbLine
 10
118.9007366051817
 20
139.0536445834573
 30
0.0
 11
118.9007366051817
 21
139.1117469255056
 31
0.0
  0
LINE
  5
AD5
330
1F
100
AcDbEntity
  8
0
100
AcDbLine
 10
119.9007366051817
 20
139.0536445834573
 30
0.0
 11
119.9007366051817
 21
139.6536445834572
 31
0.0
  0
ARC
  5
AD6
330
1F
100
AcDbEntity
  8
0
100
AcDbCircle
 10
119.4007366051817
 20
139.6536445834572
 30
0.0
 40
0.5
100
AcDbArc
 50
0.0
 51
120.6510997242917
  0
ARC
  5
AD7
330
1F
100
AcDbEntity
  8
0
100
AcDbCircle
 10
119.4007366051817
 20
139.0536445834573
 30
0.0
 40
0.5
100
AcDbArc
 50
180.0
 51
0.0
  0
ARC
  5
AD8
330
1F
100
AcDbEntity
  8
0
100
AcDbCircle
 10
209.2782060726813
 20
139.8007246833858
 30
0.0
 40
6.502054525967687
100
AcDbArc
 50
8.858495550858123
 51
73.70532860740673
  0
ARC
  5
AD9
330
1F
100
AcDbEntity
  8
0
100
AcDbCircle
 10
209.8229141798306
 20
140.6607071536219
 30
0.0
 40
6.531316435484807
100
AcDbArc
 50
1.239640839149478
 51
76.75954795884134
  0
ARC
  5
ADA
330
1F
100
AcDbEntity
  8
0
100
AcDbCircle
 10
196.4754213997565
 20
68.83065459250357
 30
0.0
 40
78.58423939145989
100
AcDbArc
 50
79.27280831194164
 51
101.4632372343001
  0
ARC
  5
ADB
330
1F
100
AcDbEntity
  8
0
100
AcDbCircle
 10
196.4754213997565
 20
68.83065459250357
 30
0.0
 40
79.58423939145989
100
AcDbArc
 50
79.25070342818125
 51
101.4728555511795
  0
ARC
  5
ADC
330
1F
100
AcDbEntity
  8
0
100
AcDbCircle
 10
144.6401254098524
 20
302.8865859350692
 30
0.0
 40
161.16152721996
100
AcDbArc
 50
274.5875098333112
 51
282.9868928278373
  0
ARC
  5
ADD
330
1F
100
AcDbEntity
  8
0
100
AcDbCircle
 10
144.6401254098524
 20
302.8865859350692
 30
0.0
 40
160.16152721996
100
AcDbArc
 50
274.5836146871567
 51
282.9916272889605
  0
ARC
  5
ADE
330
1F
100
AcDbEntity
  8
0
100
AcDbCircle
 10
-94.40218217703877
 20
2606.645292328912
 30
0.0
 40
2477.247783580797
100
AcDbArc
 50
275.1475275099752
 51
275.8369834008227
  0
ARC
  5
ADF
330
1F
100
AcDbEntity
  8
0
100
AcDbCircle
 10
-94.40218217703877
 20
2606.645292328912
 30
0.0
 40
2476.247783580797
100
AcDbArc
 50
275.1476465481658
 51
275.8372360697109
  0
ARC
  5
AE0
330
1F
100
AcDbEntity
  8
0
100
AcDbCircle
 10
204.6797558659719
 20
-824.3015323335857
 30
0.0
 40
966.7469669366024
100
AcDbArc
 50
94.55778462899209
 51
94.94568141343837
  0
ARC
  5
AE1
330
1F
100
AcDbEntity
  8
0
100
AcDbCircle
 10
204.6797558659719
 20
-824.3015323335857
 30
0.0
 40
967.7469669366024
100
AcDbArc
 50
94.55808944009261
 51
94.94038755833608
  0
LINE
  5
AE2
330
1F
100
AcDbEntity
  8
0
100
AcDbLine
 10
116.7527019927223
 20
134.9270064779023
 30
0.0
 11
80.64828414859668
 21
134.9270064779023
 31
0.0
  0
LINE
  5
AE3
330
1F
100
AcDbEntity
  8
0
100
AcDbLine
 10
116.7527019927223
 20
138.1770064779022
 30
0.0
 11
79.76942873556166
 21
138.1770064779022
 31
0.0
  0
CIRCLE
  5
AE4
330
1F
100
AcDbEntity
  8
0
 62
     3
100
AcDbCircle
 10
260.0267842047569
 20
136.5520064779023
 30
0.0
 40
17.75
  0
ARC
  5
AE5
330
1F
100
AcDbEntity
  8
0
 62
     3
100
AcDbCircle
 10
260.0267842047569
 20
136.5520064779023
 30
0.0
 40
18.25
100
AcDbArc
 50
193.0062027246705
 51
166.9937972753347
  0
ARC
  5
AE6
330
1F
100
AcDbEntity
  8
0
 62
     3
100
AcDbCircle
 10
260.0267842047569
 20
136.5520064779023
 30
0.0
 40
18.25
100
AcDbArc
 50
177.9647101800299
 51
182.03528981997
  0
ARC
  5
AE7
330
1F
100
AcDbEntity
  8
0
 62
     3
100
AcDbCircle
 10
243.6070580846377
 20
136.5520064779014
 30
0.0
 40
4.327243215210801
100
AcDbArc
 50
100.8420224591151
 51
116.772893608609
  0
ARC
  5
AE8
330
1F
100
AcDbEntity
  8
0
 62
     3
100
AcDbCircle
 10
243.6070580846377
 20
136.5520064779014
 30
0.0
 40
4.327243215210801
100
AcDbArc
 50
131.973641770258
 51
259.1579775408915
  0
CIRCLE
  5
AE9
330
1F
100
AcDbEntity
  8
0
 62
     3
100
AcDbCircle
 10
241.0267842047569
 20
136.5520064779023
 30
0.0
 40
1.0
  0
ARC
  5
AEA
330
1F
100
AcDbEntity
  8
0
 62
     3
100
AcDbCircle
 10
247.0671781071364
 20
140.6450509910471
 30
0.0
 40
6.414223424774452
100
AcDbArc
 50
110.4212192393205
 51
187.848999688723
  0
ARC
  5
AEB
330
1F
100
AcDbEntity
  8
0
 62
     3
100
AcDbCircle
 10
247.0671781071364
 20
140.6450509910471
 30
0.0
 40
5.414223424774453
100
AcDbArc
 50
126.4624855469725
 51
182.4313713823683
  0
CIRCLE
  5
AEC
330
1F
100
AcDbEntity
  8
0
100
AcDbCircle
 10
260.0267842047569
 20
136.5520064779023
 30
0.0
 40
16.25
  0
ARC
  5
AED
330
1F
100
AcDbEntity
  8
0
100
AcDbCircle
 10
80.71334680899392
 20
138.2996941171138
 30
0.0
 40
3.298914008472064
100
AcDbArc
 50
149.6358718862903
 51
207.6097167164578
  0
ARC
  5
AEE
330
1F
100
AcDbEntity
  8
0
100
AcDbCircle
 10
74.1677341205013
 20
134.7865758805339
 30
0.0
 40
4.13022433923687
100
AcDbArc
 50
333.4641732683692
 51
28.71293622684349
  0
ARC
  5
AEF
330
1F
100
AcDbEntity
  8
0
100
AcDbCircle
 10
83.06606055887433
 20
138.2996941171138
 30
0.0
 40
3.298914008472064
100
AcDbArc
 50
149.6358718862903
 51
207.6097167164578
  0
ARC
  5
AF0
330
1F
100
AcDbEntity
  8
0
100
AcDbCircle
 10
76.52044787038175
 20
134.7865758805339
 30
0.0
 40
4.13022433923687
100
AcDbArc
 50
333.4641732683692
 51
28.71293622684349
  0
LINE
  5
AF1
330
1F
100
AcDbEntity
  8
0
 62
     3
100
AcDbLine
 10
79.85407367423454
 20
139.0520064779024
 30
0.0
 11
116.7527019927223
 21
139.0520064779024
 31
0.0
  0
LINE
  5
AF2
330
1F
100
AcDbEntity
  8
0
100
AcDbLine
 10
77.41671498568123
 20
138.1770064779022
 30
0.0
 11
65.57858687360043
 21
138.1770064779022
 31
0.0
  0
LINE
  5
AF3
330
1F
100
AcDbEntity
  8
0
100
AcDbLine
 10
78.29557039871627
 20
134.9270064779023
 30
0.0
 11
65.57858687360043
 21
134.9270064779023
 31
0.0
  0
LINE
  5
AF4
330
1F
100
AcDbEntity
  8
0
 62
     3
100
AcDbLine
 10
80.58482493029414
 20
134.0520064779024
 30
0.0
 11
116.7527019927223
 21
134.0520064779024
 31
0.0
  0
LINE
  5
AF5
330
1F
100
AcDbEntity
  8
0
 62
     3
100
AcDbLine
 10
210.2527019927225
 20
147.2132910560717
 30
0.0
 11
210.2527019927225
 21
154.8020064779024
 31
0.0
  0
LINE
  5
AF6
330
1F
100
AcDbEntity
  8
0
 62
     3
100
AcDbLine
 10
206.7527019927225
 20
147.7485148215457
 30
0.0
 11
206.7527019927225
 21
153.0520064779022
 31
0.0
  0
LINE
  5
AF7
330
1F
100
AcDbEntity
  8
0
 62
     3
100
AcDbLine
 10
205.7527019927225
 20
147.8723095873009
 30
0.0
 11
205.7527019927225
 21
153.0520064779022
 31
0.0
  0
LINE
  5
AF8
330
1F
100
AcDbEntity
  8
0
 62
     3
100
AcDbLine
 10
167.5027019927225
 20
144.3652391283303
 30
0.0
 11
167.5027019927225
 21
145.5797207235872
 31
0.0
  0
LINE
  5
AF9
330
1F
100
AcDbEntity
  8
0
 62
     7
100
AcDbLine
 10
150.8055137828435
 20
141.5631908365462
 30
0.0
 11
167.5027019927225
 21
141.7817497841599
 31
0.0
  0
LINE
  5
AFA
330
1F
100
AcDbEntity
  8
0
 62
     7
100
AcDbLine
 10
120.2523700811703
 20
141.1632634445922
 30
0.0
 11
138.8380084770006
 21
141.4065413856129
 31
0.0
  0
LINE
  5
AFB
330
1F
100
AcDbEntity
  8
0
 62
     7
100
AcDbLine
 10
116.6783518192501
 20
141.116481096555
 30
0.0
 11
118.5020287758148
 21
141.1403522364981
 31
0.0
  0
LINE
  5
AFC
330
1F
100
AcDbEntity
  8
0
 62
     3
100
AcDbLine
 10
114.1947883572154
 20
133.6770064779024
 30
0.0
 11
111.7527019927225
 21
133.6770064779024
 31
0.0
  0
LINE
  5
AFD
330
1F
100
AcDbEntity
  8
0
 62
     3
100
AcDbLine
 10
113.7935225391942
 20
139.4270064779022
 30
0.0
 11
111.7527019927225
 21
139.4270064779022
 31
0.0
  0
LINE
  5
AFE
330
1F
100
AcDbEntity
  8
0
 62
     3
100
AcDbLine
 10
115.7527019927224
 20
139.0520064779024
 30
0.0
 11
115.7527019927224
 21
139.4270064779022
 31
0.0
  0
LINE
  5
AFF
330
1F
100
AcDbEntity
  8
0
 62
     3
100
AcDbLine
 10
113.2527019927225
 20
139.0520064779024
 30
0.0
 11
113.2527019927225
 21
139.4270064779022
 31
0.0
  0
LINE
  5
B00
330
1F
100
AcDbEntity
  8
0
 62
     3
100
AcDbLine
 10
111.7527019927225
 20
139.0520064779024
 30
0.0
 11
111.7527019927225
 21
144.9547207235871
 31
0.0
  0
TEXT
  5
B05
330
1F
100
AcDbEntity
  8
0
 62
     3
100
AcDbText
 10
58.50505369056647
 20
57.80207568750734
 30
0.0
 40
3.2
  1
9
 41
0.8
  7
高3.2
100
AcDbText
  0
CIRCLE
  5
B0B
330
1F
100
AcDbEntity
  8
0
100
AcDbCircle
 10
229.3205083803914
 20
164.8461398808206
 30
0.0
 40
5.0
  0
TEXT
  5
B0C
330
1F
100
AcDbEntity
  8
0
 62
     4
100
AcDbText
 10
227.2083076664134
 20
161.3216979265656
 30
0.0
 40
6.299999999999998
  1
9
  7
高6.3
100
AcDbText
  0
TEXT
  5
B47
330
1F
100
AcDbEntity
  8
0
100
AcDbText
 10
156.7021209214726
 20
137.4267706149044
 30
0.0
 40
1.0
  1
ON
 50
270.0
  7
高2
100
AcDbText
  0
TEXT
  5
B48
330
1F
100
AcDbEntity
  8
0
100
AcDbText
 10
149.1369186599526
 20
137.7384604088482
 30
0.0
 40
1.0
  1
OFF
 50
270.0
  7
高2
100
AcDbText
  0
TEXT
  5
B5E
330
1F
100
AcDbEntity
  8
0
 62
     3
100
AcDbText
 10
99.34587848204369
 20
22.80207568750713
 30
0.0
 40
3.2
  1
ABS
 41
0.8
  7
高3.2
100
AcDbText
  0
TEXT
  5
B5F
330
1F
100
AcDbEntity
  8
0
 62
     3
100
AcDbText
 10
169.3305447142853
 20
32.80207568750733
 30
0.0
 40
3.2
  1
1
 41
0.8
  7
高3.2
100
AcDbText
  0
TEXT
  5
B60
330
1F
100
AcDbEntity
  8
0
 62
     3
100
AcDbText
 10
169.3305447142853
 20
17.80207568750734
 30
0.0
 40
3.2
  1
1
 41
0.8
  7
高3.2
100
AcDbText
  0
ARC
  5
BB5
330
1F
100
AcDbEntity
  8
0
100
AcDbCircle
 10
119.4007366051817
 20
139.3536445834572
 30
0.0
 40
2.0
100
AcDbArc
 50
14.37261612243678
 51
141.8389214494605
  0
LINE
  5
1214
330
1F
100
AcDbEntity
  8
0
 62
     3
100
AcDbLine
 10
273.4440620730634
 20
12.38778518750734
 30
0.0
 11
273.4440620730634
 21
82.27349468750734
 31
0.0
  0
TEXT
  5
1215
330
1F
100
AcDbEntity
  8
0
 62
     3
100
AcDbText
 10
193.1785454170128
 20
12.80207568750734
 30
0.0
 40
3.2
  1
コード番号名称
 41
0.6
  7
高3.2
100
AcDbText
  0
TEXT
  5
1216
330
1F
100
AcDbEntity
  8
0
 62
     3
100
AcDbText
 10
193.1785454170128
 20
47.80207568750734
 30
0.0
 40
3.2
  1
PIL-3W-SM用　反射板
 41
0.6
  7
高3.2
100
AcDbText
  0
TEXT
  5
1217
330
1F
100
AcDbEntity
  8
0
 62
     3
100
AcDbText
 10
193.1785454170128
 20
42.80207568750734
 30
0.0
 40
3.2
  1
PIL-3W-SM用　レンズ
 41
0.6
  7
高3.2
100
AcDbText
  0
TEXT
  5
1218
330
1F
100
AcDbEntity
  8
0
 62
     3
100
AcDbText
 10
193.1785454170128
 20
37.80207568750734
 30
0.0
 40
3.2
  1
PIL-3W-SM用　シーソースイッチ
 41
0.6
  7
高3.2
100
AcDbText
  0
TEXT
  5
1219
330
1F
100
AcDbEntity
  8
0
 62
     3
100
AcDbText
 10
193.1785454170128
 20
32.80207568750733
 30
0.0
 40
3.2
  1
PIL-3W-SM用　プラグ
 41
0.6
  7
高3.2
100
AcDbText
  0
TEXT
  5
121A
330
1F
100
AcDbEntity
  8
0
 62
     3
100
AcDbText
 10
193.1785454170128
 20
27.80207568750735
 30
0.0
 40
3.2
  1
PIL-3W-SM用　レンズ固定枠
 41
0.6
  7
高3.2
100
AcDbText
  0
TEXT
  5
121B
330
1F
100
AcDbEntity
  8
0
 62
     3
100
AcDbText
 10
193.1785454170128
 20
22.80207568750715
 30
0.0
 40
3.2
  1
PIL-3W-SM用 本体ケース（ヘッド側）緑
 41
0.6
  7
高3.2
100
AcDbText
  0
TEXT
  5
121C
330
1F
100
AcDbEntity
  8
0
 62
     3
100
AcDbText
 10
193.1785454170128
 20
17.80207568750734
 30
0.0
 40
3.2
  1
PIL-3W-SM用 本体ケース（グリップ側）緑
 41
0.6
  7
高3.2
100
AcDbText
  0
TEXT
  5
121D
330
1F
100
AcDbEntity
  8
0
 62
     3
100
AcDbText
 10
193.1785454170128
 20
52.80207568750734
 30
0.0
 40
3.2
  1
PIL-3W-100V/SM兼用　ニッケル水素充電池(4個セットリード線付)
 41
0.6
  7
高3.2
100
AcDbText
  0
TEXT
  5
121E
330
1F
100
AcDbEntity
  8
0
 62
     3
100
AcDbText
 10
193.1785454170128
 20
72.77349468750739
 30
0.0
 40
3.2
  1
-
 41
0.6
  7
高3.2
100
AcDbText
  0
TEXT
  5
1220
330
1F
100
AcDbEntity
  8
0
 62
     3
100
AcDbText
 10
193.1785454170128
 20
77.77349468750732
 30
0.0
 40
3.2
  1
SL-BP-SM(PIL-3W-SM用ベルトポーチ)
 41
0.6
  7
高3.2
100
AcDbText
  0
TEXT
  5
1221
330
1F
100
AcDbEntity
  8
0
 62
     3
100
AcDbText
 10
193.1785454170128
 20
57.80207568750729
 30
0.0
 40
3.2
  1
PIL-3W-SM-LFR　レンズフィルター赤
 41
0.6
  7
高3.2
100
AcDbText
  0
LINE
  5
1D65
330
1F
100
AcDbEntity
  8
0
 62
     7
100
AcDbLine
 10
273.4440620730634
 20
62.27349468750744
 30
0.0
 11
57.00505369056647
 21
62.27349468750744
 31
0.0
  0
TEXT
  5
1D66
330
1F
100
AcDbEntity
  8
0
 62
     3
100
AcDbText
 10
174.3919905852812
 20
62.77349468750738
 30
0.0
 40
3.2
  1
56483
 41
0.8
  7
高3.2
100
AcDbText
  0
TEXT
  5
1D67
330
1F
100
AcDbEntity
  8
0
 62
     3
100
AcDbText
 10
113.7171485505087
 20
62.77349468750738
 30
0.0
 40
3.2
  1
-
 41
0.8
  7
高3.2
100
AcDbText
  0
TEXT
  5
1D68
330
1F
100
AcDbEntity
  8
0
 62
     3
100
AcDbText
 10
66.01165367505179
 20
62.77349468750738
 30
0.0
 40
3.2
  1
基板
 41
0.8
  7
高3.2
100
AcDbText
  0
TEXT
  5
1D69
330
1F
100
AcDbEntity
  8
0
 62
     3
100
AcDbText
 10
99.34587848204369
 20
62.77349468750738
 30
0.0
 40
3.2
  1
-
 41
0.8
  7
高3.2
100
AcDbText
  0
TEXT
  5
1D6A
330
1F
100
AcDbEntity
  8
0
 62
     3
100
AcDbText
 10
169.3305447142853
 20
62.77349468750738
 30
0.0
 40
3.2
  1
1
 41
0.8
  7
高3.2
100
AcDbText
  0
TEXT
  5
1D6B
330
1F
100
AcDbEntity
  8
0
 62
     3
100
AcDbText
 10
58.50505369056647
 20
62.77349468750744
 30
0.0
 40
3.2
  1
10
 41
0.8
  7
高3.2
100
AcDbText
  0
TEXT
  5
1D6C
330
1F
100
AcDbEntity
  8
0
 62
     3
100
AcDbText
 10
193.1785454170128
 20
62.77349468750738
 30
0.0
 40
3.2
  1
PIL-3W-SM用　基板(充電ランプ付)
 41
0.6
  7
高3.2
100
AcDbText
  0
LINE
  5
1D76
330
1F
100
AcDbEntity
  8
0
  6
HIDDEN
100
AcDbLine
 10
116.7527019927225
 20
201.6512311247529
 30
0.0
 11
116.7527019927225
 21
187.4012311247529
 31
0.0
  0
LINE
  5
1D78
330
1F
100
AcDbEntity
  8
0
  6
HIDDEN
100
AcDbLine
 10
141.0027019927225
 20
201.6512311247529
 30
0.0
 11
116.7527019927225
 21
201.6512311247529
 31
0.0
  0
LINE
  5
1D79
330
1F
100
AcDbEntity
  8
0
  6
HIDDEN
100
AcDbLine
 10
141.0027019927225
 20
201.6512311247529
 30
0.0
 11
141.0027019927225
 21
187.4012311247529
 31
0.0
  0
LINE
  5
1D7A
330
1F
100
AcDbEntity
  8
0
  6
HIDDEN
100
AcDbLine
 10
116.7527019927225
 20
187.4012311247529
 30
0.0
 11
141.0027019927225
 21
187.4012311247529
 31
0.0
  0
CIRCLE
  5
1D85
330
1F
100
AcDbEntity
  8
0
100
AcDbCircle
 10
135.7993273195611
 20
164.5946343997214
 30
0.0
 40
5.0
  0
TEXT
  5
1D86
330
1F
100
AcDbEntity
  8
0
 62
     4
100
AcDbText
 10
133.325473733058
 20
162.3307182717296
 30
0.0
 40
4.5
  1
10
  7
高4.5
100
AcDbText
  0
LINE
  5
1EE6
330
1F
100
AcDbEntity
  8
0
 62
     7
100
AcDbLine
 10
273.4440620730634
 20
67.21633268750754
 30
0.0
 11
57.00505369056647
 21
67.21633268750754
 31
0.0
  0
TEXT
  5
1EE9
330
1F
100
AcDbEntity
  8
0
 62
     3
100
AcDbText
 10
66.01165367505179
 20
67.71633268750751
 30
0.0
 40
3.2
  1
LED基板
 41
0.8
  7
高3.2
100
AcDbText
  0
TEXT
  5
1EEA
330
1F
100
AcDbEntity
  8
0
 62
     3
100
AcDbText
 10
99.34587848204369
 20
67.71633268750751
 30
0.0
 40
3.2
  1
-
 41
0.8
  7
高3.2
100
AcDbText
  0
TEXT
  5
1EEC
330
1F
100
AcDbEntity
  8
0
 62
     3
100
AcDbText
 10
58.50505369056647
 20
67.71633268750754
 30
0.0
 40
3.2
  1
11
 41
0.8
  7
高3.2
100
AcDbText
  0
TEXT
  5
1EF2
330
1F
100
AcDbEntity
  8
0
 62
     4
100
AcDbText
 10
265.5097124079853
 20
217.1088976010131
 30
0.0
 40
4.5
  1
11
  7
高4.5
100
AcDbText
  0
CIRCLE
  5
1EF4
330
1F
100
AcDbEntity
  8
0
100
AcDbCircle
 10
267.9835659944883
 20
219.3728137290048
 30
0.0
 40
5.0
  0
TEXT
  5
2260
330
1F
100
AcDbEntity
  8
0
100
AcDbText
 10
372.5050536905662
 20
271.8574366875074
 30
0.0
 40
2.5
  1
'22.09.29
 41
0.9
  7
高2.5
100
AcDbText
  0
TEXT
  5
2261
330
1F
100
AcDbEntity
  8
0
100
AcDbText
 10
390.6152716905662
 20
271.8574366875074
 30
0.0
 40
2.5
  1
LED素子、反射板変更　lot2208
 41
0.8
  7
高2.5
100
AcDbText
  0
TEXT
  5
2262
330
1F
100
AcDbEntity
  8
0
100
AcDbText
 10
434.4020956905652
 20
271.8574366875074
 30
0.0
 40
2.5
  1
今村
 41
0.9
  7
高2.5
100
AcDbText
  0
TEXT
  5
2292
330
1F
100
AcDbEntity
  8
0
100
AcDbText
 10
58.04330770863054
 20
7.132962699852213
 30
0.0
 40
3.2
  1
コード番号末尾に●の記載がある物は過去に変更があった部品
  7
高3.2
100
AcDbText
  0
TEXT
  5
2298
330
1F
100
AcDbEntity
  8
0
 62
     3
100
AcDbText
 10
434.505053690566
 20
276.8574366875073
 30
0.0
 40
3.2
  1
担　当
  7
高3.2
100
AcDbText
  0
TEXT
  5
2299
330
1F
100
AcDbEntity
  8
0
 62
     3
100
AcDbText
 10
390.5050536905662
 20
276.8574366875073
 30
0.0
 40
3.2
  1
変更・追記内容
  7
高3.2
100
AcDbText
  0
TEXT
  5
229A
330
1F
100
AcDbEntity
  8
0
 62
     3
100
AcDbText
 10
365.6185686909055
 20
272.1868981775993
 30
0.0
 40
2.0
  1
1
  7
高2
100
AcDbText
  0
TEXT
  5
229B
330
1F
100
AcDbEntity
  8
0
 62
     3
100
AcDbText
 10
365.3100572141482
 20
267.0170814653261
 30
0.0
 40
2.0
  1
2
  7
高2
100
AcDbText
  0
TEXT
  5
229C
330
1F
100
AcDbEntity
  8
0
 62
     3
100
AcDbText
 10
372.5050536905662
 20
276.8574366875073
 30
0.0
 40
3.2
  1
日　付
  7
高3.2
100
AcDbText
  0
TEXT
  5
229D
330
1F
100
AcDbEntity
  8
0
 62
     3
100
AcDbText
 10
372.5050536905662
 20
281.8574366875073
 30
0.0
 40
3.2
  1
図　　　　面　　　　略　　　　歴
  7
高3.2
100
AcDbText
  0
TEXT
  5
229E
330
1F
100
AcDbEntity
  8
0
 62
     3
100
AcDbText
 10
362.5050536905662
 20
276.8574366875073
 30
0.0
 40
3.2
  1
記号
  7
高3.2
100
AcDbText
  0
LINE
  5
229F
330
1F
100
AcDbEntity
  8
0
 62
     7
100
AcDbLine
 10
366.0050536905662
 20
270.1483326875075
 30
0.0
 11
364.1050536905663
 21
266.8574366875073
 31
0.0
  0
LINE
  5
22A0
330
1F
100
AcDbEntity
  8
0
 62
     7
100
AcDbLine
 10
366.0050536905662
 20
270.1483326875075
 30
0.0
 11
367.9050536905663
 21
266.8574366875073
 31
0.0
  0
LINE
  5
22A1
330
1F
100
AcDbEntity
  8
0
 62
     7
100
AcDbLine
 10
364.1050536905663
 20
266.8574366875073
 30
0.0
 11
367.9050536905663
 21
266.8574366875073
 31
0.0
  0
LINE
  5
22A2
330
1F
100
AcDbEntity
  8
0
 62
     7
100
AcDbLine
 10
366.0050536905662
 20
275.1483336875072
 30
0.0
 11
364.1050536905663
 21
271.8574366875074
 31
0.0
  0
LINE
  5
22A3
330
1F
100
AcDbEntity
  8
0
 62
     7
100
AcDbLine
 10
366.0050536905662
 20
275.1483336875072
 30
0.0
 11
367.9050536905663
 21
271.8574366875074
 31
0.0
  0
LINE
  5
22A4
330
1F
100
AcDbEntity
  8
0
 62
     7
100
AcDbLine
 10
364.1050536905663
 20
271.8574366875074
 30
0.0
 11
367.9050536905663
 21
271.8574366875074
 31
0.0
  0
LINE
  5
22A5
330
1F
100
AcDbEntity
  8
0
 62
     3
100
AcDbLine
 10
361.0050536905664
 20
281.3574366875073
 30
0.0
 11
447.005053690566
 21
281.3574366875073
 31
0.0
  0
LINE
  5
22A6
330
1F
100
AcDbEntity
  8
0
 62
     3
100
AcDbLine
 10
361.0050536905664
 20
276.3574366875074
 30
0.0
 11
447.005053690566
 21
276.3574366875074
 31
0.0
  0
LINE
  5
22A7
330
1F
100
AcDbEntity
  8
0
 62
     7
100
AcDbLine
 10
361.0050536905664
 20
271.3574366875073
 30
0.0
 11
447.005053690566
 21
271.3574366875073
 31
0.0
  0
LINE
  5
22A8
330
1F
100
AcDbEntity
  8
0
 62
     3
100
AcDbLine
 10
361.0050536905664
 20
266.3574366875073
 30
0.0
 11
447.005053690566
 21
266.3574366875073
 31
0.0
  0
LINE
  5
22A9
330
1F
100
AcDbEntity
  8
0
 62
     7
100
AcDbLine
 10
433.0050536905662
 20
266.3574366875073
 30
0.0
 11
433.0050536905662
 21
281.3574366875073
 31
0.0
  0
LINE
  5
22AA
330
1F
100
AcDbEntity
  8
0
 62
     7
100
AcDbLine
 10
389.0050536905662
 20
266.3574366875073
 30
0.0
 11
389.0050536905662
 21
281.3574366875073
 31
0.0
  0
LINE
  5
22AB
330
1F
100
AcDbEntity
  8
0
 62
     7
100
AcDbLine
 10
371.0050536905662
 20
266.3574366875073
 30
0.0
 11
371.0050536905662
 21
281.3574366875073
 31
0.0
  0
LINE
  5
22AC
330
1F
100
AcDbEntity
  8
0
 62
     3
100
AcDbLine
 10
361.0050536905664
 20
266.3574366875073
 30
0.0
 11
361.0050536905664
 21
286.3574366875074
 31
0.0
  0
LINE
  5
22B0
330
1F
100
AcDbEntity
  8
0
 62
     3
100
AcDbLine
 10
273.4440620730634
 20
82.27349468750734
 30
0.0
 11
57.00505369056646
 21
82.27349468750729
 31
0.0
  0
TEXT
  5
22BB
330
1F
100
AcDbEntity
  8
0
 62
     3
100
AcDbText
 10
174.3919905852812
 20
67.71633268750751
 30
0.0
 40
3.2
  1
-●
 41
0.8
  7
高3.2
100
AcDbText
  0
TEXT
  5
22BC
330
1F
100
AcDbEntity
  8
0
 62
     3
100
AcDbText
 10
113.7171485505087
 20
67.71633268750751
 30
0.0
 40
3.2
  1
6000K用
 41
0.8
  7
高3.2
100
AcDbText
  0
TEXT
  5
22BD
330
1F
100
AcDbEntity
  8
0
 62
     3
100
AcDbText
 10
169.3305447142853
 20
67.71633268750751
 30
0.0
 40
3.2
  1
1
 41
0.8
  7
高3.2
100
AcDbText
  0
LINE
  5
2428
330
1F
100
AcDbEntity
  8
0
 62
     3
100
AcDbLine
 10
437.9437560395822
 20
240.0753986717814
 30
0.0
 11
362.7166013729043
 21
240.0753986717814
 31
0.0
  0
LINE
  5
2429
330
1F
100
AcDbEntity
  8
0
 62
     7
100
AcDbLine
 10
437.9437560395822
 20
234.5753986717814
 30
0.0
 11
362.7166013729043
 21
234.5753986717814
 31
0.0
  0
LINE
  5
242A
330
1F
100
AcDbEntity
  8
0
 62
     7
100
AcDbLine
 10
437.9437560395822
 20
207.0753986717818
 30
0.0
 11
362.7166013729043
 21
207.0753986717818
 31
0.0
  0
LINE
  5
242B
330
1F
100
AcDbEntity
  8
0
 62
     7
100
AcDbLine
 10
437.9437560395821
 20
141.0753986717806
 30
0.0
 11
362.7166013729042
 21
141.0753986717806
 31
0.0
  0
TEXT
  5
242C
330
1F
100
AcDbEntity
  8
0
 62
     3
100
AcDbText
 10
364.2166013729038
 20
158.5753986717807
 30
0.0
 40
3.2
  1
充電　時間
  7
高3.2
100
AcDbText
  0
TEXT
  5
242D
330
1F
100
AcDbEntity
  8
0
 62
     3
100
AcDbText
 10
364.2166013729043
 20
235.5753986717814
 30
0.0
 40
3.2
  1
型　　　式
  7
高3.2
100
AcDbText
  0
TEXT
  5
242E
330
1F
100
AcDbEntity
  8
0
 62
     3
100
AcDbText
 10
364.2166013729043
 20
213.5753986717814
 30
0.0
 40
3.2
  1
定格　光束
  7
高3.2
100
AcDbText
  0
TEXT
  5
242F
330
1F
100
AcDbEntity
  8
0
 62
     3
100
AcDbText
 10
364.2166013729043
 20
153.0753986717807
 30
0.0
 40
3.2
  1
蓄　電　池
  7
高3.2
100
AcDbText
  0
TEXT
  5
2430
330
1F
100
AcDbEntity
  8
0
 62
     3
100
AcDbText
 10
364.2166013729043
 20
164.0753986717804
 30
0.0
 40
3.2
  1
実用点灯時間
  7
高3.2
100
AcDbText
  0
TEXT
  5
2432
330
1F
100
AcDbEntity
  8
0
 62
     3
100
AcDbText
 10
389.5853640390619
 20
153.0753986717807
 30
0.0
 40
3.2
  1
ニッケル水素
 41
0.8
  7
高3.2
100
AcDbText
  0
LINE
  5
2433
330
1F
100
AcDbEntity
  8
0
 62
     7
100
AcDbLine
 10
437.9437560395822
 20
201.5753986717817
 30
0.0
 11
362.7166013729043
 21
201.5753986717817
 31
0.0
  0
LINE
  5
2434
330
1F
100
AcDbEntity
  8
0
 62
     3
100
AcDbLine
 10
362.7166013729043
 20
240.0753986717814
 30
0.0
 11
362.7166013729037
 21
113.575398671781
 31
0.0
  0
LINE
  5
2435
330
1F
100
AcDbEntity
  8
0
 62
     7
100
AcDbLine
 10
388.0853640390623
 20
113.575398671781
 30
0.0
 11
388.0853640390624
 21
240.0753986717814
 31
0.0
  0
TEXT
  5
2436
330
1F
100
AcDbEntity
  8
0
 62
     3
100
AcDbText
 10
389.5853640390624
 20
235.5753986717814
 30
0.0
 40
3.2
  1
PIL-3W-SM
  7
高3.2
100
AcDbText
  0
TEXT
  5
2437
330
1F
100
AcDbEntity
  8
0
 62
     3
100
AcDbText
 10
389.5853640390622
 20
114.575398671781
 30
0.0
 40
3.2
  1
330g
  7
高3.2
100
AcDbText
  0
TEXT
  5
2438
330
1F
100
AcDbEntity
  8
0
 62
     3
100
AcDbText
 10
364.2166013729042
 20
114.575398671781
 30
0.0
 40
3.2
  1
本体　質量
  7
高3.2
100
AcDbText
  0
TEXT
  5
243B
330
1F
100
AcDbEntity
  8
0
 62
     3
100
AcDbText
 10
389.5853640390619
 20
158.5753986717807
 30
0.0
 40
3.2
  1
12時間
  7
高3.2
100
AcDbText
  0
TEXT
  5
243C
330
1F
100
AcDbEntity
  8
0
 62
     3
100
AcDbText
 10
389.5853640390624
 20
164.0753986717804
 30
0.0
 40
3.2
  1
4時間
  7
高3.2
100
AcDbText
  0
LINE
  5
243D
330
1F
100
AcDbEntity
  8
0
 62
     7
100
AcDbLine
 10
437.9437560395821
 20
124.5753986717807
 30
0.0
 11
388.0853640390623
 21
124.5753986717807
 31
0.0
  0
TEXT
  5
243F
330
1F
100
AcDbEntity
  8
0
 62
     3
100
AcDbText
 10
389.5853640390619
 20
197.0753986717816
 30
0.0
 40
3.2
  1
8450Lx
  7
高3.2
100
AcDbText
  0
TEXT
  5
2441
330
1F
100
AcDbEntity
  8
0
 62
     3
100
AcDbText
 10
389.5853640390624
 20
213.5753986717814
 30
0.0
 40
3.2
  1
105Lm
  7
高3.2
100
AcDbText
  0
TEXT
  5
2442
330
1F
100
AcDbEntity
  8
0
 62
     3
100
AcDbText
 10
364.2166013729043
 20
197.0753986717816
 30
0.0
 40
3.2
  1
照度
  7
高3.2
100
AcDbText
  0
TEXT
  5
2444
330
1F
100
AcDbEntity
  8
0
 62
     3
100
AcDbText
 10
373.8957454610186
 20
197.0753986717816
 30
0.0
 40
3.2
  1
1m
  7
高3.2
100
AcDbText
  0
LINE
  5
2445
330
1F
100
AcDbEntity
  8
0
 62
     7
100
AcDbLine
 10
437.9437560395822
 20
196.0753986717817
 30
0.0
 11
372.3957454610181
 21
196.0753986717817
 31
0.0
  0
TEXT
  5
2446
330
1F
100
AcDbEntity
  8
0
 62
     3
100
AcDbText
 10
389.5853640390619
 20
191.5753986717816
 30
0.0
 40
3.2
  1
2410Lx
  7
高3.2
100
AcDbText
  0
TEXT
  5
2447
330
1F
100
AcDbEntity
  8
0
 62
     3
100
AcDbText
 10
373.8957454610186
 20
191.5753986717816
 30
0.0
 40
3.2
  1
2m
  7
高3.2
100
AcDbText
  0
LINE
  5
2448
330
1F
100
AcDbEntity
  8
0
 62
     7
100
AcDbLine
 10
437.9437560395822
 20
190.5753986717816
 30
0.0
 11
372.3957454610181
 21
190.5753986717815
 31
0.0
  0
TEXT
  5
2449
330
1F
100
AcDbEntity
  8
0
 62
     3
100
AcDbText
 10
389.5853640390619
 20
186.0753986717814
 30
0.0
 40
3.2
  1
980Lx
  7
高3.2
100
AcDbText
  0
TEXT
  5
244A
330
1F
100
AcDbEntity
  8
0
 62
     3
100
AcDbText
 10
373.8957454610186
 20
186.0753986717814
 30
0.0
 40
3.2
  1
3m
  7
高3.2
100
AcDbText
  0
LINE
  5
244B
330
1F
100
AcDbEntity
  8
0
 62
     7
100
AcDbLine
 10
437.9437560395822
 20
185.0753986717816
 30
0.0
 11
372.3957454610181
 21
185.0753986717816
 31
0.0
  0
TEXT
  5
244C
330
1F
100
AcDbEntity
  8
0
 62
     3
100
AcDbText
 10
389.5853640390619
 20
180.5753986717815
 30
0.0
 40
3.2
  1
545Lx
  7
高3.2
100
AcDbText
  0
TEXT
  5
244D
330
1F
100
AcDbEntity
  8
0
 62
     3
100
AcDbText
 10
373.8957454610186
 20
180.5753986717815
 30
0.0
 40
3.2
  1
4m
  7
高3.2
100
AcDbText
  0
LINE
  5
244E
330
1F
100
AcDbEntity
  8
0
 62
     7
100
AcDbLine
 10
437.9437560395822
 20
179.5753986717816
 30
0.0
 11
372.3957454610181
 21
179.5753986717815
 31
0.0
  0
TEXT
  5
244F
330
1F
100
AcDbEntity
  8
0
 62
     3
100
AcDbText
 10
389.5853640390619
 20
175.0753986717815
 30
0.0
 40
3.2
  1
355Lx
  7
高3.2
100
AcDbText
  0
TEXT
  5
2450
330
1F
100
AcDbEntity
  8
0
 62
     3
100
AcDbText
 10
373.8957454610186
 20
175.0753986717815
 30
0.0
 40
3.2
  1
5m
  7
高3.2
100
AcDbText
  0
LINE
  5
2451
330
1F
100
AcDbEntity
  8
0
 62
     7
100
AcDbLine
 10
437.9437560395822
 20
157.5753986717807
 30
0.0
 11
362.7166013729043
 21
157.5753986717807
 31
0.0
  0
TEXT
  5
2452
330
1F
100
AcDbEntity
  8
0
 62
     3
100
AcDbText
 10
389.5853640390618
 20
131.0753986717809
 30
0.0
 40
3.2
  1
500回(充放電回数)
  7
高3.2
100
AcDbText
  0
TEXT
  5
2453
330
1F
100
AcDbEntity
  8
0
 62
     3
100
AcDbText
 10
364.2166013729037
 20
131.0753986717809
 30
0.0
 40
3.2
  1
電池　寿命
  7
高3.2
100
AcDbText
  0
LINE
  5
2454
330
1F
100
AcDbEntity
  8
0
 62
     7
100
AcDbLine
 10
437.9437560395822
 20
174.0753986717812
 30
0.0
 11
362.7166013729043
 21
174.0753986717812
 31
0.0
  0
LINE
  5
2455
330
1F
100
AcDbEntity
  8
0
 62
     7
100
AcDbLine
 10
437.9437560395822
 20
163.0753986717804
 30
0.0
 11
362.7166013729043
 21
163.0753986717804
 31
0.0
  0
TEXT
  5
2456
330
1F
100
AcDbEntity
  8
0
 62
     3
100
AcDbText
 10
364.2166013729042
 20
125.575398671781
 30
0.0
 40
3.2
  1
使用環境温度
  7
高3.2
100
AcDbText
  0
TEXT
  5
2457
330
1F
100
AcDbEntity
  8
0
 62
     3
100
AcDbText
 10
389.5853640390622
 20
125.575398671781
 30
0.0
 40
3.2
  1
充電時　0～45℃
  7
高3.2
100
AcDbText
  0
LINE
  5
2459
330
1F
100
AcDbEntity
  8
0
 62
     7
100
AcDbLine
 10
437.9437560395821
 20
119.075398671781
 30
0.0
 11
362.7166013729042
 21
119.0753986717808
 31
0.0
  0
LINE
  5
245B
330
1F
100
AcDbEntity
  8
0
 62
     3
100
AcDbLine
 10
437.9437560395821
 20
113.575398671781
 30
0.0
 11
362.7166013729042
 21
113.575398671781
 31
0.0
  0
TEXT
  5
245C
330
1F
100
AcDbEntity
  8
0
 62
     3
100
AcDbText
 10
389.5853640390618
 20
147.5753986717806
 30
0.0
 40
3.2
  1
DC4.8V　1200mAh
  7
高3.2
100
AcDbText
  0
LINE
  5
245D
330
1F
100
AcDbEntity
  8
0
 62
     7
100
AcDbLine
 10
372.3957454610186
 20
174.0753986717814
 30
0.0
 11
372.3957454610186
 21
201.5753986717817
 31
0.0
  0
LINE
  5
245E
330
1F
100
AcDbEntity
  8
0
 62
     3
100
AcDbLine
 10
437.9437560395822
 20
240.0753986717814
 30
0.0
 11
437.943756039582
 21
113.575398671781
 31
0.0
  0
LINE
  5
2460
330
1F
100
AcDbEntity
  8
0
 62
     7
100
AcDbLine
 10
437.9437560395822
 20
152.0753986717807
 30
0.0
 11
388.0853640390628
 21
152.0753986717807
 31
0.0
  0
LINE
  5
2461
330
1F
100
AcDbEntity
  8
0
 62
     7
100
AcDbLine
 10
437.9437560395822
 20
229.0753986717812
 30
0.0
 11
362.7166013729043
 21
229.0753986717812
 31
0.0
  0
TEXT
  5
2462
330
1F
100
AcDbEntity
  8
0
 62
     3
100
AcDbText
 10
364.2166013729043
 20
230.0753986717813
 30
0.0
 40
3.2
  1
使用　場所
  7
高3.2
100
AcDbText
  0
TEXT
  5
2463
330
1F
100
AcDbEntity
  8
0
 62
     3
100
AcDbText
 10
389.5853640390624
 20
230.0753986717813
 30
0.0
 40
3.2
  1
屋内型
  7
高3.2
100
AcDbText
  0
TEXT
  5
2464
330
1F
100
AcDbEntity
  8
0
 62
     3
100
AcDbText
 10
389.5853640390618
 20
136.5753986717808
 30
0.0
 40
3.2
  1
50000時間
  7
高3.2
100
AcDbText
  0
TEXT
  5
2465
330
1F
100
AcDbEntity
  8
0
 62
     3
100
AcDbText
 10
364.2166013729037
 20
136.5753986717808
 30
0.0
 40
3.2
  1
球　寿　命
  7
高3.2
100
AcDbText
  0
LINE
  5
2466
330
1F
100
AcDbEntity
  8
0
 62
     7
100
AcDbLine
 10
437.9437560395822
 20
223.5753986717817
 30
0.0
 11
362.7166013729043
 21
223.5753986717817
 31
0.0
  0
TEXT
  5
2467
330
1F
100
AcDbEntity
  8
0
 62
     3
100
AcDbText
 10
389.5853640390624
 20
224.5753986717817
 30
0.0
 40
3.2
  1
緑
  7
高3.2
100
AcDbText
  0
TEXT
  5
2468
330
1F
100
AcDbEntity
  8
0
 62
     3
100
AcDbText
 10
364.2166013729043
 20
224.5753986717817
 30
0.0
 40
3.2
  1
本　体　色
  7
高3.2
100
AcDbText
  0
LINE
  5
2469
330
1F
100
AcDbEntity
  8
0
 62
     7
100
AcDbLine
 10
437.9437560395822
 20
218.0753986717821
 30
0.0
 11
362.7166013729043
 21
218.0753986717821
 31
0.0
  0
TEXT
  5
246A
330
1F
100
AcDbEntity
  8
0
 62
     3
100
AcDbText
 10
389.5853640390624
 20
219.0753986717821
 30
0.0
 40
3.2
  1
LED3W
  7
高3.2
100
AcDbText
  0
TEXT
  5
246B
330
1F
100
AcDbEntity
  8
0
 62
     3
100
AcDbText
 10
364.2166013729043
 20
219.0753986717821
 30
0.0
 40
3.2
  1
光　　　源
  7
高3.2
100
AcDbText
  0
LINE
  5
246C
330
1F
100
AcDbEntity
  8
0
 62
     7
100
AcDbLine
 10
437.9437560395822
 20
212.5753986717814
 30
0.0
 11
362.7166013729043
 21
212.5753986717814
 31
0.0
  0
TEXT
  5
246D
330
1F
100
AcDbEntity
  8
0
 62
     3
100
AcDbText
 10
389.5853640390624
 20
202.5753986717817
 30
0.0
 40
3.2
  1
20\U+00B0
  7
高3.2
100
AcDbText
  0
TEXT
  5
246E
330
1F
100
AcDbEntity
  8
0
 62
     3
100
AcDbText
 10
364.2166013729043
 20
202.5753986717817
 30
0.0
 40
3.2
  1
照射　角度
  7
高3.2
100
AcDbText
  0
TEXT
  5
246F
330
1F
100
AcDbEntity
  8
0
 62
     3
100
AcDbText
 10
377.928439734807
 20
245.0447918919158
 30
0.0
 40
4.5
  1
主　　仕　　様
  7
高4.5
100
AcDbText
  0
LINE
  5
2470
330
1F
100
AcDbEntity
  8
0
100
AcDbLine
 10
376.8275253670513
 20
244.1790388080731
 30
0.0
 11
415.4197456467386
 21
244.1790388080731
 31
0.0
  0
TEXT
  5
2471
330
1F
100
AcDbEntity
  8
0
 62
     7
100
AcDbText
 10
361.7656751708013
 20
102.7525812900608
 30
0.0
 40
2.5
  1
注３）照度は当社実測値の為、使用環境下により異なります。
 41
0.8
  7
高2.5
100
AcDbText
  0
TEXT
  5
2472
330
1F
100
AcDbEntity
  8
0
 62
     7
100
AcDbText
 10
361.7656751708013
 20
99.75258129006082
 30
0.0
 40
2.5
  1
注４）連続点灯時間は満充電時から1m照度が10Lx切るまでの時間、
 41
0.8
  7
高2.5
100
AcDbText
  0
TEXT
  5
2473
330
1F
100
AcDbEntity
  8
0
 62
     7
100
AcDbText
 10
361.7656751708013
 20
90.75258129006082
 30
0.0
 40
2.5
  1
注５）球寿命は光束が70%%%に低下するまでの時間です。
 41
0.8
  7
高2.5
100
AcDbText
  0
TEXT
  5
2474
330
1F
100
AcDbEntity
  8
0
 62
     7
100
AcDbText
 10
361.7656751708013
 20
87.75258129006081
 30
0.0
 40
2.5
  1
　　　表示は設計値であり、製品の寿命を保証するものではありません。
 41
0.8
  7
高2.5
100
AcDbText
  0
TEXT
  5
2476
330
1F
100
AcDbEntity
  8
0
 62
     7
100
AcDbText
 10
361.7656751708013
 20
105.7525812900608
 30
0.0
 40
2.5
  1
注２）LEDの光源色、明るさにはバラツキがあります。
 41
0.8
  7
高2.5
100
AcDbText
  0
TEXT
  5
2477
330
1F
100
AcDbEntity
  8
0
 62
     7
100
AcDbText
 10
361.7656751708013
 20
108.7525812900608
 30
0.0
 40
2.5
  1
注１）当器具のLED素子交換はできません。
 41
0.8
  7
高2.5
100
AcDbText
  0
TEXT
  5
2479
330
1F
100
AcDbEntity
  8
0
 62
     7
100
AcDbText
 10
361.7656751708013
 20
81.75258129006081
 30
0.0
 40
2.5
  1
注７）安全にご使用いただくため、取扱説明書をご参照ください。
 41
0.8
  7
高2.5
100
AcDbText
  0
TEXT
  5
247A
330
1F
100
AcDbEntity
  8
0
 62
     7
100
AcDbText
 10
361.7656751708013
 20
96.75258129006081
 30
0.0
 40
2.5
  1
　　　実用点灯時間は満充電時から1m照度が初期照度の10%%%に低下
 41
0.8
  7
高2.5
100
AcDbText
  0
TEXT
  5
247B
330
1F
100
AcDbEntity
  8
0
 62
     7
100
AcDbText
 10
361.7656751708013
 20
78.75258129006081
 30
0.0
 40
2.5
  1
注８）仕様変更は予告なく行う場合があります。予めご了承ください。
 41
0.8
  7
高2.5
100
AcDbText
  0
TEXT
  5
247D
330
1F
100
AcDbEntity
  8
0
 62
     7
100
AcDbText
 10
361.7656751708013
 20
84.75258129006082
 30
0.0
 40
2.5
  1
注６）充電中の点灯は電子部品に負荷がかかりますので、お控えください。
 41
0.8
  7
高2.5
100
AcDbText
  0
TEXT
  5
247E
330
1F
100
AcDbEntity
  8
0
 62
     3
100
AcDbText
 10
364.2166013729043
 20
169.5753986717804
 30
0.0
 40
3.2
  1
連続点灯時間
  7
高3.2
100
AcDbText
  0
TEXT
  5
247F
330
1F
100
AcDbEntity
  8
0
 62
     3
100
AcDbText
 10
389.5853640390624
 20
169.5753986717804
 30
0.0
 40
3.2
  1
30時間
  7
高3.2
100
AcDbText
  0
LINE
  5
2480
330
1F
100
AcDbEntity
  8
0
 62
     7
100
AcDbLine
 10
437.9437560395822
 20
168.5753986717804
 30
0.0
 11
362.7166013729043
 21
168.5753986717804
 31
0.0
  0
TEXT
  5
2481
330
1F
100
AcDbEntity
  8
0
 62
     3
100
AcDbText
 10
364.2166013729043
 20
208.0753986717815
 30
0.0
 40
3.2
  1
光源色[色温度]
 41
0.8
  7
高3.2
100
AcDbText
  0
TEXT
  5
2482
330
1F
100
AcDbEntity
  8
0
 62
     3
100
AcDbText
 10
389.5853640390628
 20
208.0753986717818
 30
0.0
 40
3.2
  1
昼光色　[6000K]
  7
高3.2
100
AcDbText
  0
LINE
  5
2487
330
1F
100
AcDbEntity
  8
0
 62
     7
100
AcDbLine
 10
437.9437560395821
 20
135.5753986717807
 30
0.0
 11
362.7166013729042
 21
135.5753986717807
 31
0.0
  0
LINE
  5
2488
330
1F
100
AcDbEntity
  8
0
 62
     7
100
AcDbLine
 10
437.9437560395821
 20
130.0753986717809
 30
0.0
 11
362.7166013729042
 21
130.0753986717808
 31
0.0
  0
TEXT
  5
248F
330
1F
100
AcDbEntity
  8
0
 62
     3
100
AcDbText
 10
389.5853640390622
 20
120.0753986717812
 30
0.0
 40
3.2
  1
放電時　-20～45℃
  7
高3.2
100
AcDbText
  0
TEXT
  5
2490
330
1F
100
AcDbEntity
  8
0
 62
     7
100
AcDbText
 10
361.7656751708013
 20
93.75258129006082
 30
0.0
 40
2.5
  1
　　　するまでの時間です。
 41
0.8
  7
高2.5
100
AcDbText
  0
LINE
  5
24A7
330
1F
100
AcDbEntity
  8
0
 62
     7
100
AcDbLine
 10
437.943756039582
 20
146.5753986717806
 30
0.0
 11
362.7166013729041
 21
146.5753986717806
 31
0.0
  0
TEXT
  5
24A8
330
1F
100
AcDbEntity
  8
0
 62
     3
100
AcDbText
 10
389.5853640390618
 20
142.0753986717807
 30
0.0
 40
3.2
  1
AC100V(50/60Hz)
  7
高3.2
100
AcDbText
  0
TEXT
  5
24A9
330
1F
100
AcDbEntity
  8
0
 62
     3
100
AcDbText
 10
364.2166013729037
 20
142.0753986717807
 30
0.0
 40
3.2
  1
充電　電圧
  7
高3.2
100
AcDbText
  0
TEXT
  5
24AE
330
1F
100
AcDbEntity
  8
0
 62
     3
100
AcDbText
 10
193.1785454170128
 20
67.71633268750754
 30
0.0
 40
3.2
  1
-
 41
0.6
  7
高3.2
100
AcDbText
  0
LINE
  5
253C
330
1F
100
AcDbEntity
  8
0
100
AcDbLine
 10
216.3527019927226
 20
118.5520064779023
 30
0.0
 11
216.3527019927226
 21
110.4175821669314
 31
0.0
  0
LINE
  5
253D
330
1F
100
AcDbEntity
  8
0
100
AcDbLine
 10
111.7527019927225
 20
127.8992922322176
 30
0.0
 11
111.7527019927225
 21
110.4175821669314
 31
0.0
  0
LINE
  5
253E
330
1F
100
AcDbEntity
  8
0
100
AcDbLine
 10
213.8527019927226
 20
111.6675821669314
 30
0.0
 11
114.2527019927225
 21
111.6675821669314
 31
0.0
  0
LINE
  5
2542
330
1F
100
AcDbEntity
  8
0
100
AcDbLine
 10
210.5027019927225
 20
154.8020064779024
 30
0.0
 11
229.3212415692065
 21
154.8020064779024
 31
0.0
  0
LINE
  5
2543
330
1F
100
AcDbEntity
  8
0
100
AcDbLine
 10
210.5027019927225
 20
118.3020064779024
 30
0.0
 11
229.3212415692065
 21
118.3020064779024
 31
0.0
  0
LINE
  5
2544
330
1F
100
AcDbEntity
  8
0
100
AcDbLine
 10
228.0712415692065
 20
152.3020064779024
 30
0.0
 11
228.0712415692065
 21
120.8020064779024
 31
0.0
  0
LINE
  5
254A
330
1F
100
AcDbEntity
  8
0
100
AcDbLine
 10
321.6273871499857
 20
114.363172572842
 30
0.0
 11
321.6273871499857
 21
110.193979832338
 31
0.0
  0
LINE
  5
254B
330
1F
100
AcDbEntity
  8
0
100
AcDbLine
 10
321.8773871499856
 20
132.996736137669
 30
0.0
 11
344.4301434553167
 21
132.996736137669
 31
0.0
  0
ARC
  5
254C
330
1F
100
AcDbEntity
  8
0
100
AcDbCircle
 10
321.6273871499857
 20
132.996736137669
 30
0.0
 40
21.55275630533099
100
AcDbArc
 50
276.6497236101962
 51
353.3502763898038
  0
LINE
  5
2550
330
1F
100
AcDbEntity
  8
0
100
AcDbLine
 10
334.9354021867069
 20
147.6549048268173
 30
0.0
 11
339.3208904774959
 21
143.2694165360284
 31
0.0
  0
LINE
  5
2551
330
1F
100
AcDbEntity
  8
0
100
AcDbLine
 10
321.1670877832219
 20
161.6732192303021
 30
0.0
 11
346.9439951527024
 21
161.673219230302
 31
0.0
  0
ARC
  5
2552
330
1F
100
AcDbEntity
  8
0
100
AcDbCircle
 10
320.9170877832219
 20
161.6732192303021
 30
0.0
 40
24.77690736948048
100
AcDbArc
 50
320.7836225913195
 51
354.2163774086811
  0
LINE
  5
2556
330
1F
100
AcDbEntity
  8
0
100
AcDbLine
 10
157.7527019927225
 20
175.1512311247528
 30
0.0
 11
102.1092730755996
 21
175.1512311247528
 31
0.0
  0
LINE
  5
2557
330
1F
100
AcDbEntity
  8
0
100
AcDbLine
 10
111.5027019927226
 20
205.1512311247528
 30
0.0
 11
102.1092730755996
 21
205.1512311247528
 31
0.0
  0
LINE
  5
2558
330
1F
100
AcDbEntity
  8
0
100
AcDbLine
 10
103.3592730755996
 20
177.6512311247528
 30
0.0
 11
103.3592730755996
 21
202.6512311247528
 31
0.0
  0
LINE
  5
256C
330
1F
100
AcDbEntity
  8
0
100
AcDbLine
 10
343.2422490061733
 20
260.1395223600415
 30
0.0
 11
332.2422490061733
 21
260.1395223600415
 31
0.0
  0
LINE
  5
256D
330
1F
100
AcDbEntity
  8
0
100
AcDbLine
 10
343.2422490061733
 20
260.1395223600415
 30
0.0
 11
343.2422490061733
 21
221.8895223600415
 31
0.0
  0
LINE
  5
256E
330
1F
100
AcDbEntity
  8
0
100
AcDbLine
 10
312.2422490061733
 20
232.6395223600415
 30
0.0
 11
312.2422490061733
 21
221.8895223600415
 31
0.0
  0
LINE
  5
256F
330
1F
100
AcDbEntity
  8
0
100
AcDbLine
 10
312.2422490061733
 20
212.8895223600415
 30
0.0
 11
343.2422490061733
 21
212.8895223600415
 31
0.0
  0
LINE
  5
2570
330
1F
100
AcDbEntity
  8
0
100
AcDbLine
 10
311.2422490061732
 20
220.8895223600415
 30
0.0
 11
344.2422490061733
 21
220.8895223600415
 31
0.0
  0
LINE
  5
2571
330
1F
100
AcDbEntity
  8
0
100
AcDbLine
 10
311.2422490061732
 20
221.8895223600415
 30
0.0
 11
344.2422490061733
 21
221.8895223600415
 31
0.0
  0
LINE
  5
2572
330
1F
100
AcDbEntity
  8
0
100
AcDbLine
 10
312.7422490061733
 20
232.6395223600415
 30
0.0
 11
312.2422490061733
 21
232.6395223600415
 31
0.0
  0
LINE
  5
2573
330
1F
100
AcDbEntity
  8
0
100
AcDbLine
 10
332.2422490061733
 20
260.1395223600415
 30
0.0
 11
317.1172490061733
 21
251.6395223600415
 31
0.0
  0
LINE
  5
2574
330
1F
100
AcDbEntity
  8
0
100
AcDbLine
 10
311.2422490061732
 20
220.8895223600415
 30
0.0
 11
311.2422490061732
 21
221.8895223600415
 31
0.0
  0
LINE
  5
2575
330
1F
100
AcDbEntity
  8
0
100
AcDbLine
 10
344.2422490061733
 20
221.8895223600415
 30
0.0
 11
344.2422490061733
 21
220.8895223600415
 31
0.0
  0
LINE
  5
2576
330
1F
100
AcDbEntity
  8
0
100
AcDbLine
 10
310.7422490061733
 20
214.3895223600415
 30
0.0
 11
310.7422490061733
 21
220.3895223600415
 31
0.0
  0
LINE
  5
2577
330
1F
100
AcDbEntity
  8
0
100
AcDbLine
 10
344.7422490061733
 20
214.3895223600415
 30
0.0
 11
344.7422490061733
 21
220.3895223600415
 31
0.0
  0
LINE
  5
2578
330
1F
100
AcDbEntity
  8
0
100
AcDbLine
 10
312.7422490061733
 20
232.6395223600415
 30
0.0
 11
317.1172490061733
 21
251.6395223600415
 31
0.0
  0
LINE
  5
2579
330
1F
100
AcDbEntity
  8
0
100
AcDbLine
 10
343.2422490061733
 20
212.8895223600415
 30
0.0
 11
344.7422490061733
 21
214.3895223600415
 31
0.0
  0
LINE
  5
257A
330
1F
100
AcDbEntity
  8
0
100
AcDbLine
 10
312.2422490061733
 20
212.8895223600415
 30
0.0
 11
310.7422490061733
 21
214.3895223600415
 31
0.0
  0
LINE
  5
257B
330
1F
100
AcDbEntity
  8
0
100
AcDbLine
 10
344.7422490061733
 20
220.3895223600415
 30
0.0
 11
344.2422490061733
 21
220.8895223600415
 31
0.0
  0
LINE
  5
257C
330
1F
100
AcDbEntity
  8
0
100
AcDbLine
 10
310.7422490061733
 20
220.3895223600415
 30
0.0
 11
311.2422490061732
 21
220.8895223600415
 31
0.0
  0
LINE
  5
257D
330
1F
100
AcDbEntity
  8
0
100
AcDbLine
 10
85.07145595472049
 20
205.1512311247528
 30
0.0
 11
64.27980090795296
 21
205.1512311247528
 31
0.0
  0
LINE
  5
257E
330
1F
100
AcDbEntity
  8
0
100
AcDbLine
 10
85.07145595472049
 20
178.1512311247529
 30
0.0
 11
64.27980090795296
 21
178.1512311247529
 31
0.0
  0
LINE
  5
257F
330
1F
100
AcDbEntity
  8
0
100
AcDbLine
 10
65.52980090795296
 20
202.6512311247528
 30
0.0
 11
65.52980090795296
 21
180.6512311247529
 31
0.0
  0
LINE
  5
2583
330
1F
100
AcDbEntity
  8
0
100
AcDbLine
 10
94.34917020040513
 20
193.1455133760175
 30
0.0
 11
94.34917020040513
 21
217.9472767844429
 31
0.0
  0
LINE
  5
2584
330
1F
100
AcDbEntity
  8
0
100
AcDbLine
 10
76.29374170903594
 20
193.1455133760175
 30
0.0
 11
76.29374170903594
 21
217.9472767844429
 31
0.0
  0
LINE
  5
2585
330
1F
100
AcDbEntity
  8
0
100
AcDbLine
 10
91.84917020040513
 20
216.6972767844429
 30
0.0
 11
78.79374170903594
 21
216.6972767844429
 31
0.0
  0
LINE
  5
2589
330
1F
100
AcDbEntity
  8
0
100
AcDbLine
 10
214.7527019927225
 20
205.4012311247529
 30
0.0
 11
214.7527019927225
 21
231.6554739929246
 31
0.0
  0
LINE
  5
258A
330
1F
100
AcDbEntity
  8
0
100
AcDbLine
 10
111.7527019927225
 20
205.4012311247529
 30
0.0
 11
111.7527019927225
 21
231.6554739929246
 31
0.0
  0
LINE
  5
258B
330
1F
100
AcDbEntity
  8
0
100
AcDbLine
 10
212.2527019927225
 20
230.4054739929246
 30
0.0
 11
114.2527019927225
 21
230.4054739929246
 31
0.0
  0
LINE
  5
258F
330
1F
100
AcDbEntity
  8
0
100
AcDbLine
 10
111.7527019927225
 20
205.4012311247529
 30
0.0
 11
111.7527019927225
 21
222.7927860132944
 31
0.0
  0
LINE
  5
2590
330
1F
100
AcDbEntity
  8
0
100
AcDbLine
 10
167.5027019927225
 20
205.4012311247529
 30
0.0
 11
167.5027019927225
 21
222.7927860132944
 31
0.0
  0
LINE
  5
2591
330
1F
100
AcDbEntity
  8
0
100
AcDbLine
 10
114.2527019927225
 20
221.5427860132944
 30
0.0
 11
165.0027019927225
 21
221.5427860132944
 31
0.0
  0
LINE
  5
2595
330
1F
100
AcDbEntity
  8
0
100
AcDbLine
 10
213.5027019927225
 20
206.6512311247529
 30
0.0
 11
229.2160320352674
 21
206.6512311247529
 31
0.0
  0
LINE
  5
2596
330
1F
100
AcDbEntity
  8
0
100
AcDbLine
 10
213.5027019927225
 20
172.6512311247529
 30
0.0
 11
229.2160320352673
 21
172.6512311247529
 31
0.0
  0
LINE
  5
2597
330
1F
100
AcDbEntity
  8
0
100
AcDbLine
 10
227.9660320352673
 20
204.1512311247529
 30
0.0
 11
227.9660320352673
 21
175.1512311247529
 31
0.0
  0
LINE
  5
259B
330
1F
100
AcDbEntity
  8
0
100
AcDbLine
 10
321.3131811160104
 20
172.2372810059054
 30
0.0
 11
317.4240938194844
 21
168.3481937093794
 31
0.0
  0
LINE
  5
259C
330
1F
100
AcDbEntity
  8
0
100
AcDbLine
 10
321.3131811160104
 20
172.2372810059054
 30
0.0
 11
334.8365983062031
 21
158.7138638157127
 31
0.0
  0
LINE
  5
259D
330
1F
100
AcDbEntity
  8
0
100
AcDbLine
 10
320.0757442489339
 20
151.5544076561989
 30
0.0
 11
323.8764431978116
 21
147.7537087073212
 31
0.0
  0
LINE
  5
259E
330
1F
100
AcDbEntity
  8
0
100
AcDbLine
 10
327.0584237131511
 20
144.5717281919817
 30
0.0
 11
338.0185788215425
 21
155.5318833003732
 31
0.0
  0
LINE
  5
259F
330
1F
100
AcDbEntity
  8
0
100
AcDbLine
 10
323.8764431978116
 20
147.0466019261346
 30
0.0
 11
335.5437050873896
 21
158.7138638157127
 31
0.0
  0
LINE
  5
25A0
330
1F
100
AcDbEntity
  8
0
100
AcDbLine
 10
323.5228898072183
 20
147.4001553167279
 30
0.0
 11
335.1901516967964
 21
159.0674172063059
 31
0.0
  0
LINE
  5
25A1
330
1F
100
AcDbEntity
  8
0
100
AcDbLine
 10
320.2525209442305
 20
151.7311843514955
 30
0.0
 11
320.0757442489339
 21
151.5544076561989
 31
0.0
  0
LINE
  5
25A2
330
1F
100
AcDbEntity
  8
0
100
AcDbLine
 10
317.4240938194844
 20
168.3481937093794
 30
0.0
 11
315.0818026068039
 21
159.9954948566133
 31
0.0
  0
LINE
  5
25A3
330
1F
100
AcDbEntity
  8
0
100
AcDbLine
 10
323.8764431978116
 20
147.0466019261346
 30
0.0
 11
323.5228898072183
 21
147.4001553167279
 31
0.0
  0
LINE
  5
25A4
330
1F
100
AcDbEntity
  8
0
100
AcDbLine
 10
335.1901516967964
 20
159.0674172063059
 30
0.0
 11
335.5437050873896
 21
158.7138638157127
 31
0.0
  0
LINE
  5
25A5
330
1F
100
AcDbEntity
  8
0
100
AcDbLine
 10
325.9977635413712
 20
144.5717281919817
 30
0.0
 11
323.8764431978116
 21
146.6930485355414
 31
0.0
  0
LINE
  5
25A6
330
1F
100
AcDbEntity
  8
0
100
AcDbLine
 10
338.0185788215425
 20
156.592543472153
 30
0.0
 11
335.8972584779829
 21
158.7138638157127
 31
0.0
  0
LINE
  5
25A7
330
1F
100
AcDbEntity
  8
0
100
AcDbLine
 10
320.2525209442305
 20
151.7311843514955
 30
0.0
 11
315.0818026068039
 21
159.9954948566133
 31
0.0
  0
LINE
  5
25A8
330
1F
100
AcDbEntity
  8
0
100
AcDbLine
 10
338.0185788215425
 20
155.5318833003732
 30
0.0
 11
338.0185788215425
 21
156.592543472153
 31
0.0
  0
LINE
  5
25A9
330
1F
100
AcDbEntity
  8
0
100
AcDbLine
 10
327.0584237131511
 20
144.5717281919817
 30
0.0
 11
325.9977635413712
 21
144.5717281919817
 31
0.0
  0
LINE
  5
25AA
330
1F
100
AcDbEntity
  8
0
100
AcDbLine
 10
335.8972584779829
 20
158.7138638157127
 30
0.0
 11
335.5437050873896
 21
158.7138638157127
 31
0.0
  0
LINE
  5
25AB
330
1F
100
AcDbEntity
  8
0
100
AcDbLine
 10
323.8764431978116
 20
146.6930485355414
 30
0.0
 11
323.8764431978116
 21
147.0466019261346
 31
0.0
  0
LINE
  5
25AC
330
1F
100
AcDbEntity
  8
0
100
AcDbLine
 10
329.3773871499857
 20
140.9460856957405
 30
0.0
 11
323.8773871499857
 21
140.9460856957405
 31
0.0
  0
LINE
  5
25AD
330
1F
100
AcDbEntity
  8
0
100
AcDbLine
 10
329.3773871499857
 20
140.9460856957405
 30
0.0
 11
329.3773871499857
 21
121.8210856957405
 31
0.0
  0
LINE
  5
25AE
330
1F
100
AcDbEntity
  8
0
100
AcDbLine
 10
313.8773871499858
 20
127.1960856957405
 30
0.0
 11
313.8773871499858
 21
121.8210856957405
 31
0.0
  0
LINE
  5
25AF
330
1F
100
AcDbEntity
  8
0
100
AcDbLine
 10
313.8773871499858
 20
117.3210856957405
 30
0.0
 11
329.3773871499857
 21
117.3210856957405
 31
0.0
  0
LINE
  5
25B0
330
1F
100
AcDbEntity
  8
0
100
AcDbLine
 10
313.3773871499857
 20
121.3210856957405
 30
0.0
 11
329.8773871499857
 21
121.3210856957405
 31
0.0
  0
LINE
  5
25B1
330
1F
100
AcDbEntity
  8
0
100
AcDbLine
 10
313.3773871499857
 20
121.8210856957405
 30
0.0
 11
329.8773871499857
 21
121.8210856957405
 31
0.0
  0
LINE
  5
25B2
330
1F
100
AcDbEntity
  8
0
100
AcDbLine
 10
314.1273871499858
 20
127.1960856957405
 30
0.0
 11
313.8773871499858
 21
127.1960856957405
 31
0.0
  0
LINE
  5
25B3
330
1F
100
AcDbEntity
  8
0
100
AcDbLine
 10
323.8773871499857
 20
140.9460856957405
 30
0.0
 11
316.3148871499857
 21
136.6960856957405
 31
0.0
  0
LINE
  5
25B4
330
1F
100
AcDbEntity
  8
0
100
AcDbLine
 10
313.3773871499857
 20
121.3210856957405
 30
0.0
 11
313.3773871499857
 21
121.8210856957405
 31
0.0
  0
LINE
  5
25B5
330
1F
100
AcDbEntity
  8
0
100
AcDbLine
 10
329.8773871499857
 20
121.8210856957405
 30
0.0
 11
329.8773871499857
 21
121.3210856957405
 31
0.0
  0
LINE
  5
25B6
330
1F
100
AcDbEntity
  8
0
100
AcDbLine
 10
313.1273871499857
 20
118.0710856957405
 30
0.0
 11
313.1273871499857
 21
121.0710856957405
 31
0.0
  0
LINE
  5
25B7
330
1F
100
AcDbEntity
  8
0
100
AcDbLine
 10
330.1273871499857
 20
118.0710856957405
 30
0.0
 11
330.1273871499857
 21
121.0710856957405
 31
0.0
  0
LINE
  5
25B8
330
1F
100
AcDbEntity
  8
0
100
AcDbLine
 10
314.1273871499858
 20
127.1960856957405
 30
0.0
 11
316.3148871499857
 21
136.6960856957405
 31
0.0
  0
LINE
  5
25B9
330
1F
100
AcDbEntity
  8
0
100
AcDbLine
 10
329.3773871499857
 20
117.3210856957405
 30
0.0
 11
330.1273871499857
 21
118.0710856957405
 31
0.0
  0
LINE
  5
25BA
330
1F
100
AcDbEntity
  8
0
100
AcDbLine
 10
313.8773871499858
 20
117.3210856957405
 30
0.0
 11
313.1273871499857
 21
118.0710856957405
 31
0.0
  0
LINE
  5
25BB
330
1F
100
AcDbEntity
  8
0
100
AcDbLine
 10
330.1273871499857
 20
121.0710856957405
 30
0.0
 11
329.8773871499857
 21
121.3210856957405
 31
0.0
  0
LINE
  5
25BC
330
1F
100
AcDbEntity
  8
0
100
AcDbLine
 10
313.1273871499857
 20
121.0710856957405
 30
0.0
 11
313.3773871499857
 21
121.3210856957405
 31
0.0
  0
LINE
  5
25BD
330
1F
100
AcDbEntity
  8
0
 62
     2
100
AcDbLine
 10
247.2636796905663
 20
286.8980646875073
 30
0.0
 11
247.2370686905668
 21
287.0684476875074
 31
0.0
  0
LINE
  5
25BE
330
1F
100
AcDbEntity
  8
0
 62
     2
100
AcDbLine
 10
247.2370686905668
 20
287.0684476875074
 30
0.0
 11
247.2051106905665
 21
287.2315966875074
 31
0.0
  0
LINE
  5
25BF
330
1F
100
AcDbEntity
  8
0
 62
     2
100
AcDbLine
 10
247.2051106905665
 20
287.2315966875074
 30
0.0
 11
247.1680506905661
 21
287.3862526875074
 31
0.0
  0
LINE
  5
25C0
330
1F
100
AcDbEntity
  8
0
 62
     2
100
AcDbLine
 10
247.1680506905661
 20
287.3862526875074
 30
0.0
 11
247.1261756905664
 21
287.5312196875072
 31
0.0
  0
LINE
  5
25C1
330
1F
100
AcDbEntity
  8
0
 62
     2
100
AcDbLine
 10
247.1261756905664
 20
287.5312196875072
 30
0.0
 11
247.0798106905666
 21
287.6653756875074
 31
0.0
  0
LINE
  5
25C2
330
1F
100
AcDbEntity
  8
0
 62
     2
100
AcDbLine
 10
247.0798106905666
 20
287.6653756875074
 30
0.0
 11
247.0293126905666
 21
287.7876856875071
 31
0.0
  0
LINE
  5
25C3
330
1F
100
AcDbEntity
  8
0
 62
     2
100
AcDbLine
 10
247.0293126905666
 20
287.7876856875071
 30
0.0
 11
246.9750726905665
 21
287.8972036875071
 31
0.0
  0
LINE
  5
25C4
330
1F
100
AcDbEntity
  8
0
 62
     2
100
AcDbLine
 10
246.9750726905665
 20
287.8972036875071
 30
0.0
 11
246.9175086905662
 21
287.9930826875073
 31
0.0
  0
LINE
  5
25C5
330
1F
100
AcDbEntity
  8
0
 62
     2
100
AcDbLine
 10
246.9175086905662
 20
287.9930826875073
 30
0.0
 11
246.8570676905664
 21
288.0745816875073
 31
0.0
  0
LINE
  5
25C6
330
1F
100
AcDbEntity
  8
0
 62
     2
100
AcDbLine
 10
246.8570676905664
 20
288.0745816875073
 30
0.0
 11
246.7942156905663
 21
288.1410716875073
 31
0.0
  0
LINE
  5
25C7
330
1F
100
AcDbEntity
  8
0
 62
     2
100
AcDbLine
 10
246.7942156905663
 20
288.1410716875073
 30
0.0
 11
246.7294386905665
 21
288.1920376875072
 31
0.0
  0
LINE
  5
25C8
330
1F
100
AcDbEntity
  8
0
 62
     2
100
AcDbLine
 10
246.7294386905665
 20
288.1920376875072
 30
0.0
 11
246.6632366905665
 21
288.2270856875073
 31
0.0
  0
LINE
  5
25C9
330
1F
100
AcDbEntity
  8
0
 62
     2
100
AcDbLine
 10
246.6632366905665
 20
288.2270856875073
 30
0.0
 11
246.5961226905664
 21
288.2459456875072
 31
0.0
  0
LINE
  5
25CA
330
1F
100
AcDbEntity
  8
0
 62
     2
100
AcDbLine
 10
246.5961226905664
 20
288.2459456875072
 30
0.0
 11
246.5286146905665
 21
288.2484706875073
 31
0.0
  0
LINE
  5
25CB
330
1F
100
AcDbEntity
  8
0
 62
     2
100
AcDbLine
 10
246.5286146905665
 20
288.2484706875073
 30
0.0
 11
246.4612346905665
 21
288.2346426875074
 31
0.0
  0
LINE
  5
25CC
330
1F
100
AcDbEntity
  8
0
 62
     2
100
AcDbLine
 10
246.4612346905665
 20
288.2346426875074
 30
0.0
 11
246.3945026905665
 21
288.2045676875073
 31
0.0
  0
LINE
  5
25CD
330
1F
100
AcDbEntity
  8
0
 62
     2
100
AcDbLine
 10
246.3945026905665
 20
288.2045676875073
 30
0.0
 11
246.3289356905665
 21
288.1584776875072
 31
0.0
  0
LINE
  5
25CE
330
1F
100
AcDbEntity
  8
0
 62
     2
100
AcDbLine
 10
246.3289356905665
 20
288.1584776875072
 30
0.0
 11
246.2650406905662
 21
288.0967296875073
 31
0.0
  0
LINE
  5
25CF
330
1F
100
AcDbEntity
  8
0
 62
     2
100
AcDbLine
 10
246.2650406905662
 20
288.0967296875073
 30
0.0
 11
246.2033096905665
 21
288.0198006875074
 31
0.0
  0
LINE
  5
25D0
330
1F
100
AcDbEntity
  8
0
 62
     2
100
AcDbLine
 10
246.2033096905665
 20
288.0198006875074
 30
0.0
 11
246.1442216905666
 21
287.9282856875073
 31
0.0
  0
LINE
  5
25D1
330
1F
100
AcDbEntity
  8
0
 62
     2
100
AcDbLine
 10
246.1442216905666
 20
287.9282856875073
 30
0.0
 11
246.0882326905664
 21
287.8228916875071
 31
0.0
  0
LINE
  5
25D2
330
1F
100
AcDbEntity
  8
0
 62
     2
100
AcDbLine
 10
246.0882326905664
 20
287.8228916875071
 30
0.0
 11
246.0357756905661
 21
287.7044336875071
 31
0.0
  0
LINE
  5
25D3
330
1F
100
AcDbEntity
  8
0
 62
     2
100
AcDbLine
 10
246.0357756905661
 20
287.7044336875071
 30
0.0
 11
245.9872556905664
 21
287.5738266875073
 31
0.0
  0
LINE
  5
25D4
330
1F
100
AcDbEntity
  8
0
 62
     2
100
AcDbLine
 10
245.9872556905664
 20
287.5738266875073
 30
0.0
 11
245.9430476905666
 21
287.4320806875074
 31
0.0
  0
LINE
  5
25D5
330
1F
100
AcDbEntity
  8
0
 62
     2
100
AcDbLine
 10
245.9430476905666
 20
287.4320806875074
 30
0.0
 11
245.9034946905665
 21
287.2802906875072
 31
0.0
  0
LINE
  5
25D6
330
1F
100
AcDbEntity
  8
0
 62
     2
100
AcDbLine
 10
245.9034946905665
 20
287.2802906875072
 30
0.0
 11
245.8689006905661
 21
287.1196306875074
 31
0.0
  0
LINE
  5
25D7
330
1F
100
AcDbEntity
  8
0
 62
     2
100
AcDbLine
 10
245.8689006905661
 20
287.1196306875074
 30
0.0
 11
245.8395346905666
 21
286.9513426875073
 31
0.0
  0
LINE
  5
25D8
330
1F
100
AcDbEntity
  8
0
 62
     2
100
AcDbLine
 10
245.8395346905666
 20
286.9513426875073
 30
0.0
 11
245.8156216905665
 21
286.7767266875073
 31
0.0
  0
LINE
  5
25D9
330
1F
100
AcDbEntity
  8
0
 62
     2
100
AcDbLine
 10
245.8156216905665
 20
286.7767266875073
 30
0.0
 11
245.7973486905661
 21
286.5971326875071
 31
0.0
  0
LINE
  5
25DA
330
1F
100
AcDbEntity
  8
0
 62
     2
100
AcDbLine
 10
245.7973486905661
 20
286.5971326875071
 30
0.0
 11
245.7848546905665
 21
286.4139486875073
 31
0.0
  0
LINE
  5
25DB
330
1F
100
AcDbEntity
  8
0
 62
     2
100
AcDbLine
 10
245.7848546905665
 20
286.4139486875073
 30
0.0
 11
245.7782386905666
 21
286.2285906875073
 31
0.0
  0
LINE
  5
25DC
330
1F
100
AcDbEntity
  8
0
 62
     2
100
AcDbLine
 10
245.7782386905666
 20
286.2285906875073
 30
0.0
 11
245.7775496905662
 21
286.0424916875073
 31
0.0
  0
LINE
  5
25DD
330
1F
100
AcDbEntity
  8
0
 62
     2
100
AcDbLine
 10
245.7775496905662
 20
286.0424916875073
 30
0.0
 11
245.7827946905664
 21
285.8570906875073
 31
0.0
  0
LINE
  5
25DE
330
1F
100
AcDbEntity
  8
0
 62
     2
100
AcDbLine
 10
245.7827946905664
 20
285.8570906875073
 30
0.0
 11
245.7939316905664
 21
285.6738186875073
 31
0.0
  0
LINE
  5
25DF
330
1F
100
AcDbEntity
  8
0
 62
     2
100
AcDbLine
 10
245.7939316905664
 20
285.6738186875073
 30
0.0
 11
245.8108756905663
 21
285.4940946875073
 31
0.0
  0
LINE
  5
25E0
330
1F
100
AcDbEntity
  8
0
 62
     2
100
AcDbLine
 10
245.8108756905663
 20
285.4940946875073
 30
0.0
 11
245.8334956905662
 21
285.3193066875074
 31
0.0
  0
LINE
  5
25E1
330
1F
100
AcDbEntity
  8
0
 62
     2
100
AcDbLine
 10
245.8334956905662
 20
285.3193066875074
 30
0.0
 11
245.8616156905663
 21
285.1508056875074
 31
0.0
  0
LINE
  5
25E2
330
1F
100
AcDbEntity
  8
0
 62
     2
100
AcDbLine
 10
245.8616156905663
 20
285.1508056875074
 30
0.0
 11
245.8950196905667
 21
284.9898936875074
 31
0.0
  0
LINE
  5
25E3
330
1F
100
AcDbEntity
  8
0
 62
     2
100
AcDbLine
 10
245.8950196905667
 20
284.9898936875074
 30
0.0
 11
245.9334486905663
 21
284.8378156875071
 31
0.0
  0
LINE
  5
25E4
330
1F
100
AcDbEntity
  8
0
 62
     2
100
AcDbLine
 10
245.9334486905663
 20
284.8378156875071
 30
0.0
 11
245.9766066905661
 21
284.6957456875072
 31
0.0
  0
LINE
  5
25E5
330
1F
100
AcDbEntity
  8
0
 62
     2
100
AcDbLine
 10
245.9766066905661
 20
284.6957456875072
 30
0.0
 11
246.0241586905661
 21
284.5647836875071
 31
0.0
  0
LINE
  5
25E6
330
1F
100
AcDbEntity
  8
0
 62
     2
100
AcDbLine
 10
246.0241586905661
 20
284.5647836875071
 30
0.0
 11
246.0757376905666
 21
284.4459406875072
 31
0.0
  0
LINE
  5
25E7
330
1F
100
AcDbEntity
  8
0
 62
     2
100
AcDbLine
 10
246.0757376905666
 20
284.4459406875072
 30
0.0
 11
246.1309456905665
 21
284.3401346875074
 31
0.0
  0
LINE
  5
25E8
330
1F
100
AcDbEntity
  8
0
 62
     2
100
AcDbLine
 10
246.1309456905665
 20
284.3401346875074
 30
0.0
 11
246.1893546905665
 21
284.2481846875074
 31
0.0
  0
LINE
  5
25E9
330
1F
100
AcDbEntity
  8
0
 62
     2
100
AcDbLine
 10
246.1893546905665
 20
284.2481846875074
 30
0.0
 11
246.2505136905665
 21
284.1708016875073
 31
0.0
  0
LINE
  5
25EA
330
1F
100
AcDbEntity
  8
0
 62
     2
100
AcDbLine
 10
246.2505136905665
 20
284.1708016875073
 30
0.0
 11
246.3139506905661
 21
284.1085826875073
 31
0.0
  0
LINE
  5
25EB
330
1F
100
AcDbEntity
  8
0
 62
     2
100
AcDbLine
 10
246.3139506905661
 20
284.1085826875073
 30
0.0
 11
246.3791746905662
 21
284.0620086875071
 31
0.0
  0
LINE
  5
25EC
330
1F
100
AcDbEntity
  8
0
 62
     2
100
AcDbLine
 10
246.3791746905662
 20
284.0620086875071
 30
0.0
 11
246.4456816905662
 21
284.0314406875072
 31
0.0
  0
LINE
  5
25ED
330
1F
100
AcDbEntity
  8
0
 62
     2
100
AcDbLine
 10
246.4456816905662
 20
284.0314406875072
 30
0.0
 11
246.5129576905664
 21
284.0171136875074
 31
0.0
  0
LINE
  5
25EE
330
1F
100
AcDbEntity
  8
0
 62
     2
100
AcDbLine
 10
246.5129576905664
 20
284.0171136875074
 30
0.0
 11
246.5804826905664
 21
284.0191396875074
 31
0.0
  0
LINE
  5
25EF
330
1F
100
AcDbEntity
  8
0
 62
     2
100
AcDbLine
 10
246.5804826905664
 20
284.0191396875074
 30
0.0
 11
246.6477346905667
 21
284.0375026875072
 31
0.0
  0
LINE
  5
25F0
330
1F
100
AcDbEntity
  8
0
 62
     2
100
AcDbLine
 10
246.6477346905667
 20
284.0375026875072
 30
0.0
 11
246.7141936905665
 21
284.0720596875073
 31
0.0
  0
LINE
  5
25F1
330
1F
100
AcDbEntity
  8
0
 62
     2
100
AcDbLine
 10
246.7141936905665
 20
284.0720596875073
 30
0.0
 11
246.7793466905663
 21
284.1225446875071
 31
0.0
  0
LINE
  5
25F2
330
1F
100
AcDbEntity
  8
0
 62
     2
100
AcDbLine
 10
246.7793466905663
 20
284.1225446875071
 30
0.0
 11
246.8426886905666
 21
284.1885676875071
 31
0.0
  0
LINE
  5
25F3
330
1F
100
AcDbEntity
  8
0
 62
     2
100
AcDbLine
 10
246.8426886905666
 20
284.1885676875071
 30
0.0
 11
246.9037316905662
 21
284.2696176875072
 31
0.0
  0
LINE
  5
25F4
330
1F
100
AcDbEntity
  8
0
 62
     2
100
AcDbLine
 10
246.9037316905662
 20
284.2696176875072
 30
0.0
 11
246.9620026905665
 21
284.3650676875073
 31
0.0
  0
LINE
  5
25F5
330
1F
100
AcDbEntity
  8
0
 62
     2
100
AcDbLine
 10
246.9620026905665
 20
284.3650676875073
 30
0.0
 11
247.0170516905668
 21
284.4741816875074
 31
0.0
  0
LINE
  5
25F6
330
1F
100
AcDbEntity
  8
0
 62
     2
100
AcDbLine
 10
247.0170516905668
 20
284.4741816875074
 30
0.0
 11
247.0684536905662
 21
284.5961146875073
 31
0.0
  0
LINE
  5
25F7
330
1F
100
AcDbEntity
  8
0
 62
     2
100
AcDbLine
 10
247.0684536905662
 20
284.5961146875073
 30
0.0
 11
247.1158106905665
 21
284.7299236875072
 31
0.0
  0
LINE
  5
25F8
330
1F
100
AcDbEntity
  8
0
 62
     2
100
AcDbLine
 10
247.1158106905665
 20
284.7299236875072
 30
0.0
 11
247.1587566905662
 21
284.8745766875074
 31
0.0
  0
LINE
  5
25F9
330
1F
100
AcDbEntity
  8
0
 62
     2
100
AcDbLine
 10
247.1587566905662
 20
284.8745766875074
 30
0.0
 11
247.1969606905662
 21
285.0289536875073
 31
0.0
  0
LINE
  5
25FA
330
1F
100
AcDbEntity
  8
0
 62
     2
100
AcDbLine
 10
247.1969606905662
 20
285.0289536875073
 30
0.0
 11
247.2301256905663
 21
285.1918626875072
 31
0.0
  0
LINE
  5
25FB
330
1F
100
AcDbEntity
  8
0
 62
     2
100
AcDbLine
 10
247.2301256905663
 20
285.1918626875072
 30
0.0
 11
247.2579966905663
 21
285.3620436875074
 31
0.0
  0
LINE
  5
25FC
330
1F
100
AcDbEntity
  8
0
100
AcDbLine
 10
260.0267842047569
 20
189.6512311247528
 30
0.0
 11
266.6905461276154
 21
214.5428965843871
 31
0.0
1001
ACAD
1000
DSTYLE
1002
{
1070
   341
1005
16F
1070
   147
1040
0.625
1070
    77
1070
     0
1002
}
  0
LINE
  5
25FE
330
1F
100
AcDbEntity
  8
0
100
AcDbLine
 10
143.5393550581719
 20
139.6559495643155
 30
0.0
 11
137.2813995265618
 21
159.8193373437011
 31
0.0
1001
ACAD
1000
DSTYLE
1002
{
1070
   147
1040
0.625
1070
    77
1070
     0
1002
}
  0
LINE
  5
25FF
330
1F
100
AcDbEntity
  8
0
  6
ByBlock
 62
     0
370
    -2
100
AcDbLine
 10
144.1791230936037
 20
139.8545094472123
 30
0.0
 11
144.2803911616723
 21
137.2683010363054
 31
0.0
  0
LINE
  5
2600
330
1F
100
AcDbEntity
  8
0
  6
ByBlock
 62
     0
370
    -2
100
AcDbLine
 10
144.2803911616723
 20
137.2683010363054
 30
0.0
 11
142.8995870227401
 21
139.4573896814187
 31
0.0
  0
LINE
  5
2601
330
1F
100
AcDbEntity
  8
0
  6
ByBlock
 62
     0
370
    -2
100
AcDbLine
 10
144.2803911616723
 20
137.2683010363054
 30
0.0
 11
143.5393550581719
 21
139.6559495643155
 31
0.0
  0
TEXT
  5
2602
330
1F
100
AcDbEntity
  8
0
 62
     4
100
AcDbText
 10
153.8493801834801
 20
112.2925821669314
 30
0.0
 40
3.0
  1
209.2
100
AcDbText
  0
LINE
  5
2603
330
1F
100
AcDbEntity
  8
0
  6
ByBlock
 62
     0
370
    -2
100
AcDbLine
 10
114.2527019927225
 20
110.9977096669314
 30
0.0
 11
111.7527019927225
 21
111.6675821669314
 31
0.0
  0
LINE
  5
2604
330
1F
100
AcDbEntity
  8
0
  6
ByBlock
 62
     0
370
    -2
100
AcDbLine
 10
111.7527019927225
 20
111.6675821669314
 30
0.0
 11
114.2527019927225
 21
112.3374546669314
 31
0.0
  0
LINE
  5
2605
330
1F
100
AcDbEntity
  8
0
  6
ByBlock
 62
     0
370
    -2
100
AcDbLine
 10
111.7527019927225
 20
111.6675821669314
 30
0.0
 11
114.2527019927225
 21
111.6675821669314
 31
0.0
  0
LINE
  5
2606
330
1F
100
AcDbEntity
  8
0
  6
ByBlock
 62
     0
370
    -2
100
AcDbLine
 10
213.8527019927226
 20
112.3374546669314
 30
0.0
 11
216.3527019927226
 21
111.6675821669314
 31
0.0
  0
LINE
  5
2607
330
1F
100
AcDbEntity
  8
0
  6
ByBlock
 62
     0
370
    -2
100
AcDbLine
 10
216.3527019927226
 20
111.6675821669314
 30
0.0
 11
213.8527019927226
 21
110.9977096669314
 31
0.0
  0
LINE
  5
2608
330
1F
100
AcDbEntity
  8
0
  6
ByBlock
 62
     0
370
    -2
100
AcDbLine
 10
216.3527019927226
 20
111.6675821669314
 30
0.0
 11
213.8527019927226
 21
111.6675821669314
 31
0.0
  0
TEXT
  5
2609
330
1F
100
AcDbEntity
  8
0
 62
     4
100
AcDbText
 10
227.4462415692065
 20
132.01882475631
 30
0.0
 40
3.0
  1
\U+220573
 50
90.0
100
AcDbText
  0
LINE
  5
260A
330
1F
100
AcDbEntity
  8
0
  6
ByBlock
 62
     0
370
    -2
100
AcDbLine
 10
228.7411140692065
 20
120.8020064779024
 30
0.0
 11
228.0712415692065
 21
118.3020064779024
 31
0.0
  0
LINE
  5
260B
330
1F
100
AcDbEntity
  8
0
  6
ByBlock
 62
     0
370
    -2
100
AcDbLine
 10
228.0712415692065
 20
118.3020064779024
 30
0.0
 11
227.4013690692065
 21
120.8020064779024
 31
0.0
  0
LINE
  5
260C
330
1F
100
AcDbEntity
  8
0
  6
ByBlock
 62
     0
370
    -2
100
AcDbLine
 10
228.0712415692065
 20
118.3020064779024
 30
0.0
 11
228.0712415692065
 21
120.8020064779024
 31
0.0
  0
LINE
  5
260D
330
1F
100
AcDbEntity
  8
0
  6
ByBlock
 62
     0
370
    -2
100
AcDbLine
 10
227.4013690692065
 20
152.3020064779024
 30
0.0
 11
228.0712415692065
 21
154.8020064779024
 31
0.0
  0
LINE
  5
260E
330
1F
100
AcDbEntity
  8
0
  6
ByBlock
 62
     0
370
    -2
100
AcDbLine
 10
228.0712415692065
 20
154.8020064779024
 30
0.0
 11
228.7411140692065
 21
152.3020064779024
 31
0.0
  0
LINE
  5
260F
330
1F
100
AcDbEntity
  8
0
  6
ByBlock
 62
     0
370
    -2
100
AcDbLine
 10
228.0712415692065
 20
154.8020064779024
 30
0.0
 11
228.0712415692065
 21
152.3020064779024
 31
0.0
  0
LINE
  5
2610
330
1F
100
AcDbEntity
  8
0
100
AcDbLine
 10
218.2924165403817
 20
155.8791898767498
 30
0.0
 11
225.4410792850733
 21
161.6917730831259
 31
0.0
1001
ACAD
1000
DSTYLE
1002
{
1070
   147
1040
0.625
1070
    77
1070
     0
1002
}
  0
LINE
  5
2611
330
1F
100
AcDbEntity
  8
0
  6
ByBlock
 62
     0
370
    -2
100
AcDbLine
 10
218.7150212549194
 20
155.3594453034191
 30
0.0
 11
216.3527019927226
 21
154.3020064779024
 31
0.0
  0
LINE
  5
2612
330
1F
100
AcDbEntity
  8
0
  6
ByBlock
 62
     0
370
    -2
100
AcDbLine
 10
216.3527019927226
 20
154.3020064779024
 30
0.0
 11
217.8698118258439
 21
156.3989344500805
 31
0.0
  0
LINE
  5
2613
330
1F
100
AcDbEntity
  8
0
  6
ByBlock
 62
     0
370
    -2
100
AcDbLine
 10
216.3527019927226
 20
154.3020064779024
 30
0.0
 11
218.2924165403817
 21
155.8791898767498
 31
0.0
  0
TEXT
  5
2614
330
1F
100
AcDbEntity
  8
0
 62
     4
100
AcDbText
 10
335.171488651971
 20
116.7151269272979
 30
0.0
 40
3.0
  1
90\U+00B0
 50
48.58318884891533
100
AcDbText
  0
LINE
  5
2615
330
1F
100
AcDbEntity
  8
0
  6
ByBlock
 62
     0
370
    -2
100
AcDbLine
 10
342.3664054660269
 20
130.5397950209462
 30
0.0
 11
343.1801434553166
 21
132.996736137669
 31
0.0
  0
LINE
  5
2616
330
1F
100
AcDbEntity
  8
0
  6
ByBlock
 62
     0
370
    -2
100
AcDbLine
 10
343.1801434553166
 20
132.996736137669
 30
0.0
 11
343.7038953327857
 21
130.46209353227
 31
0.0
  0
LINE
  5
2617
330
1F
100
AcDbEntity
  8
0
  6
ByBlock
 62
     0
370
    -2
100
AcDbLine
 10
343.1801434553166
 20
132.996736137669
 30
0.0
 11
343.0351503994063
 21
130.5009442766081
 31
0.0
  0
LINE
  5
2618
330
1F
100
AcDbEntity
  8
0
  6
ByBlock
 62
     0
370
    -2
100
AcDbLine
 10
324.1620297553847
 20
110.9202279548689
 30
0.0
 11
321.6273871499857
 21
111.443979832338
 31
0.0
  0
LINE
  5
2619
330
1F
100
AcDbEntity
  8
0
  6
ByBlock
 62
     0
370
    -2
100
AcDbLine
 10
321.6273871499857
 20
111.443979832338
 30
0.0
 11
324.0843282667084
 21
112.2577178216277
 31
0.0
  0
LINE
  5
261A
330
1F
100
AcDbEntity
  8
0
  6
ByBlock
 62
     0
370
    -2
100
AcDbLine
 10
321.6273871499857
 20
111.443979832338
 30
0.0
 11
324.1231790110465
 21
111.5889728882483
 31
0.0
  0
TEXT
  5
261B
330
1F
100
AcDbEntity
  8
0
 62
     4
100
AcDbText
 10
342.3407452098485
 20
149.9859812310777
 30
0.0
 40
3.0
  1
45\U+00B0
 50
69.63190732572503
100
AcDbText
  0
LINE
  5
261C
330
1F
100
AcDbEntity
  8
0
  6
ByBlock
 62
     0
370
    -2
100
AcDbLine
 10
344.8988501764249
 20
159.210197989436
 30
0.0
 11
345.6939951527024
 21
161.673219230302
 31
0.0
  0
LINE
  5
261D
330
1F
100
AcDbEntity
  8
0
  6
ByBlock
 62
     0
370
    -2
100
AcDbLine
 10
345.6939951527024
 20
161.673219230302
 30
0.0
 11
346.236889115292
 21
159.1426075825694
 31
0.0
  0
LINE
  5
261E
330
1F
100
AcDbEntity
  8
0
  6
ByBlock
 62
     0
370
    -2
100
AcDbLine
 10
345.6939951527024
 20
161.673219230302
 30
0.0
 11
345.5678696458585
 21
159.1764027860027
 31
0.0
  0
LINE
  5
261F
330
1F
100
AcDbEntity
  8
0
  6
ByBlock
 62
     0
370
    -2
100
AcDbLine
 10
340.6103036600864
 20
145.5588286667606
 30
0.0
 11
338.4370070010127
 21
144.1533000125116
 31
0.0
  0
LINE
  5
2620
330
1F
100
AcDbEntity
  8
0
  6
ByBlock
 62
     0
370
    -2
100
AcDbLine
 10
338.4370070010127
 20
144.1533000125116
 30
0.0
 11
339.6163736178833
 21
146.4571714388867
 31
0.0
  0
LINE
  5
2621
330
1F
100
AcDbEntity
  8
0
  6
ByBlock
 62
     0
370
    -2
100
AcDbLine
 10
338.4370070010127
 20
144.1533000125116
 30
0.0
 11
340.1133386389848
 21
146.0080000528237
 31
0.0
  0
TEXT
  5
2622
330
1F
100
AcDbEntity
  8
0
 62
     4
100
AcDbText
 10
102.7342730755996
 20
188.9104356762268
 30
0.0
 40
3.0
  1
60
 50
90.0
100
AcDbText
  0
LINE
  5
2623
330
1F
100
AcDbEntity
  8
0
  6
ByBlock
 62
     0
370
    -2
100
AcDbLine
 10
102.6894005755996
 20
202.6512311247528
 30
0.0
 11
103.3592730755996
 21
205.1512311247528
 31
0.0
  0
LINE
  5
2624
330
1F
100
AcDbEntity
  8
0
  6
ByBlock
 62
     0
370
    -2
100
AcDbLine
 10
103.3592730755996
 20
205.1512311247528
 30
0.0
 11
104.0291455755996
 21
202.6512311247528
 31
0.0
  0
LINE
  5
2625
330
1F
100
AcDbEntity
  8
0
  6
ByBlock
 62
     0
370
    -2
100
AcDbLine
 10
103.3592730755996
 20
205.1512311247528
 30
0.0
 11
103.3592730755996
 21
202.6512311247528
 31
0.0
  0
LINE
  5
2626
330
1F
100
AcDbEntity
  8
0
  6
ByBlock
 62
     0
370
    -2
100
AcDbLine
 10
104.0291455755996
 20
177.6512311247528
 30
0.0
 11
103.3592730755996
 21
175.1512311247528
 31
0.0
  0
LINE
  5
2627
330
1F
100
AcDbEntity
  8
0
  6
ByBlock
 62
     0
370
    -2
100
AcDbLine
 10
103.3592730755996
 20
175.1512311247528
 30
0.0
 11
102.6894005755996
 21
177.6512311247528
 31
0.0
  0
LINE
  5
2628
330
1F
100
AcDbEntity
  8
0
  6
ByBlock
 62
     0
370
    -2
100
AcDbLine
 10
103.3592730755996
 20
175.1512311247528
 30
0.0
 11
103.3592730755996
 21
177.6512311247528
 31
0.0
  0
LINE
  5
2629
330
1F
100
AcDbEntity
  8
0
100
AcDbLine
 10
128.1983403884382
 20
184.9953076408024
 30
0.0
 11
123.796517098336
 21
169.4064813676223
 31
0.0
1001
ACAD
1000
DSTYLE
1002
{
1070
   341
1005
C6
1070
   147
1040
0.625
1070
    77
1070
     0
1002
}
  0
LINE
  5
262A
330
1F
100
AcDbEntity
  8
0
  6
ByBlock
 62
     0
370
    -2
100
AcDbLine
 10
127.5536755968371
 20
185.1773419033088
 30
0.0
 11
128.8777019927225
 21
187.4012311247529
 31
0.0
  0
LINE
  5
262B
330
1F
100
AcDbEntity
  8
0
  6
ByBlock
 62
     0
370
    -2
100
AcDbLine
 10
128.8777019927225
 20
187.4012311247529
 30
0.0
 11
128.8430051800392
 21
184.8132733782961
 31
0.0
  0
LINE
  5
262C
330
1F
100
AcDbEntity
  8
0
  6
ByBlock
 62
     0
370
    -2
100
AcDbLine
 10
128.8777019927225
 20
187.4012311247529
 30
0.0
 11
128.1983403884382
 21
184.9953076408024
 31
0.0
  0
LINE
  5
262D
330
1F
100
AcDbEntity
  8
0
100
AcDbLine
 10
197.9395381524819
 20
200.8912967456099
 30
0.0
 11
194.4900236751708
 21
214.8087479128599
 31
0.0
1001
ACAD
1000
DSTYLE
1002
{
1070
   147
1040
0.625
1070
    77
1070
     0
1002
}
  0
LINE
  5
262E
330
1F
100
AcDbEntity
  8
0
  6
ByBlock
 62
     0
370
    -2
100
AcDbLine
 10
198.5897367174368
 20
201.0524519266834
 30
0.0
 11
198.5409779080825
 21
198.4647209235135
 31
0.0
  0
LINE
  5
262F
330
1F
100
AcDbEntity
  8
0
  6
ByBlock
 62
     0
370
    -2
100
AcDbLine
 10
198.5409779080825
 20
198.4647209235135
 30
0.0
 11
197.2893395875269
 21
200.7301415645365
 31
0.0
  0
LINE
  5
2630
330
1F
100
AcDbEntity
  8
0
  6
ByBlock
 62
     0
370
    -2
100
AcDbLine
 10
198.5409779080825
 20
198.4647209235135
 30
0.0
 11
197.9395381524819
 21
200.8912967456099
 31
0.0
  0
LINE
  5
2631
330
1F
100
AcDbEntity
  8
0
100
AcDbLine
 10
255.9442172873701
 20
197.3136950393411
 30
0.0
 11
252.8443422351549
 21
214.452642838841
 31
0.0
1001
ACAD
1000
DSTYLE
1002
{
1070
   341
1005
16F
1070
   147
1040
0.625
1070
    77
1070
     0
1002
}
  0
LINE
  5
2633
330
1F
100
AcDbEntity
  8
0
100
AcDbLine
 10
154.0326095297271
 20
141.0074113480277
 30
0.0
 11
150.4088193870821
 21
159.9353301405701
 31
0.0
1001
ACAD
1000
DSTYLE
1002
{
1070
   147
1040
0.625
1070
    77
1070
     0
1002
}
  0
LINE
  5
2634
330
1F
100
AcDbEntity
  8
0
  6
ByBlock
 62
     0
370
    -2
100
AcDbLine
 10
154.6905328092723
 20
141.1333721533948
 30
0.0
 11
154.5027019927225
 21
138.5520064779024
 31
0.0
  0
LINE
  5
2635
330
1F
100
AcDbEntity
  8
0
  6
ByBlock
 62
     0
370
    -2
100
AcDbLine
 10
154.5027019927225
 20
138.5520064779024
 30
0.0
 11
153.3746862501819
 21
140.8814505426605
 31
0.0
  0
LINE
  5
2636
330
1F
100
AcDbEntity
  8
0
  6
ByBlock
 62
     0
370
    -2
100
AcDbLine
 10
154.5027019927225
 20
138.5520064779024
 30
0.0
 11
154.0326095297271
 21
141.0074113480277
 31
0.0
  0
LINE
  5
2637
330
1F
100
AcDbEntity
  8
0
100
AcDbLine
 10
331.9387313408578
 20
264.9422722022658
 30
0.0
 11
343.0222415821552
 21
269.371651105574
 31
0.0
1001
ACAD
1000
DSTYLE
1002
{
1070
   147
1040
0.625
1070
    77
1070
     0
1002
}
  0
LINE
  5
2638
330
1F
100
AcDbEntity
  8
0
  6
ByBlock
 62
     0
370
    -2
100
AcDbLine
 10
332.1873209833319
 20
264.3202333321694
 30
0.0
 11
329.6172490061731
 21
264.0145223600415
 31
0.0
  0
LINE
  5
2639
330
1F
100
AcDbEntity
  8
0
  6
ByBlock
 62
     0
370
    -2
100
AcDbLine
 10
329.6172490061731
 20
264.0145223600415
 30
0.0
 11
331.6901416983836
 21
265.5643110723622
 31
0.0
  0
LINE
  5
263A
330
1F
100
AcDbEntity
  8
0
  6
ByBlock
 62
     0
370
    -2
100
AcDbLine
 10
329.6172490061731
 20
264.0145223600415
 30
0.0
 11
331.9387313408578
 21
264.9422722022658
 31
0.0
  0
LINE
  5
263B
330
1F
100
AcDbEntity
  8
0
100
AcDbLine
 10
217.2017513773698
 20
265.2606100619006
 30
0.0
 11
225.281592932475
 21
266.9172987703332
 31
0.0
1001
ACAD
1000
DSTYLE
1002
{
1070
   147
1040
0.625
1070
    77
1070
     0
1002
}
  0
LINE
  5
263C
330
1F
100
AcDbEntity
  8
0
  6
ByBlock
 62
     0
370
    -2
100
AcDbLine
 10
217.3363026318034
 20
264.6043897283338
 30
0.0
 11
214.7527019927225
 21
264.7584575835052
 31
0.0
  0
LINE
  5
263D
330
1F
100
AcDbEntity
  8
0
  6
ByBlock
 62
     0
370
    -2
100
AcDbLine
 10
214.7527019927225
 20
264.7584575835052
 30
0.0
 11
217.0672001229362
 21
265.9168303954675
 31
0.0
  0
LINE
  5
263E
330
1F
100
AcDbEntity
  8
0
  6
ByBlock
 62
     0
370
    -2
100
AcDbLine
 10
214.7527019927225
 20
264.7584575835052
 30
0.0
 11
217.2017513773698
 21
265.2606100619006
 31
0.0
  0
LINE
  5
263F
330
1F
100
AcDbEntity
  8
0
100
AcDbLine
 10
175.585524459812
 20
268.1738268351827
 30
0.0
 11
176.7365674798249
 21
271.4025443541719
 31
0.0
1001
ACAD
1000
DSTYLE
1002
{
1070
   147
1040
0.625
1070
    77
1070
     0
1002
}
  0
LINE
  5
2640
330
1F
100
AcDbEntity
  8
0
  6
ByBlock
 62
     0
370
    -2
100
AcDbLine
 10
176.216499522122
 20
267.9488832044679
 30
0.0
 11
174.7460227982464
 21
265.8189941531799
 31
0.0
  0
LINE
  5
2641
330
1F
100
AcDbEntity
  8
0
  6
ByBlock
 62
     0
370
    -2
100
AcDbLine
 10
174.7460227982464
 20
265.8189941531799
 30
0.0
 11
174.9545493975021
 21
268.3987704658976
 31
0.0
  0
LINE
  5
2642
330
1F
100
AcDbEntity
  8
0
  6
ByBlock
 62
     0
370
    -2
100
AcDbLine
 10
174.7460227982464
 20
265.8189941531799
 30
0.0
 11
175.585524459812
 21
268.1738268351828
 31
0.0
  0
LINE
  5
2643
330
1F
100
AcDbEntity
  8
0
100
AcDbLine
 10
114.5312683596191
 20
265.1168001959576
 30
0.0
 11
110.4889651650599
 21
271.7919117811594
 31
0.0
1001
ACAD
1000
DSTYLE
1002
{
1070
   147
1040
0.625
1070
    77
1070
     0
1002
}
  0
LINE
  5
2644
330
1F
100
AcDbEntity
  8
0
  6
ByBlock
 62
     0
370
    -2
100
AcDbLine
 10
115.1042643120187
 20
265.4637941509335
 30
0.0
 11
115.8262683595292
 21
262.9783486533145
 31
0.0
  0
LINE
  5
2645
330
1F
100
AcDbEntity
  8
0
  6
ByBlock
 62
     0
370
    -2
100
AcDbLine
 10
115.8262683595292
 20
262.9783486533145
 30
0.0
 11
113.9582724072194
 21
264.7698062409817
 31
0.0
  0
LINE
  5
2646
330
1F
100
AcDbEntity
  8
0
  6
ByBlock
 62
     0
370
    -2
100
AcDbLine
 10
115.8262683595292
 20
262.9783486533145
 30
0.0
 11
114.5312683596191
 21
265.1168001959576
 31
0.0
  0
TEXT
  5
2647
330
1F
100
AcDbEntity
  8
0
 62
     4
100
AcDbText
 10
64.90480090795293
 20
189.8993890943305
 30
0.0
 40
3.0
  1
54
 50
90.0
100
AcDbText
  0
LINE
  5
2648
330
1F
100
AcDbEntity
  8
0
  6
ByBlock
 62
     0
370
    -2
100
AcDbLine
 10
66.19967340795295
 20
180.6512311247529
 30
0.0
 11
65.52980090795296
 21
178.1512311247529
 31
0.0
  0
LINE
  5
2649
330
1F
100
AcDbEntity
  8
0
  6
ByBlock
 62
     0
370
    -2
100
AcDbLine
 10
65.52980090795296
 20
178.1512311247529
 30
0.0
 11
64.85992840795296
 21
180.6512311247529
 31
0.0
  0
LINE
  5
264A
330
1F
100
AcDbEntity
  8
0
  6
ByBlock
 62
     0
370
    -2
100
AcDbLine
 10
65.52980090795296
 20
178.1512311247529
 30
0.0
 11
65.52980090795296
 21
180.6512311247529
 31
0.0
  0
LINE
  5
264B
330
1F
100
AcDbEntity
  8
0
  6
ByBlock
 62
     0
370
    -2
100
AcDbLine
 10
64.85992840795296
 20
202.6512311247528
 30
0.0
 11
65.52980090795296
 21
205.1512311247528
 31
0.0
  0
LINE
  5
264C
330
1F
100
AcDbEntity
  8
0
  6
ByBlock
 62
     0
370
    -2
100
AcDbLine
 10
65.52980090795296
 20
205.1512311247528
 30
0.0
 11
66.19967340795295
 21
202.6512311247528
 31
0.0
  0
LINE
  5
264D
330
1F
100
AcDbEntity
  8
0
  6
ByBlock
 62
     0
370
    -2
100
AcDbLine
 10
65.52980090795296
 20
205.1512311247528
 30
0.0
 11
65.52980090795296
 21
202.6512311247528
 31
0.0
  0
TEXT
  5
264E
330
1F
100
AcDbEntity
  8
0
 62
     4
100
AcDbText
 10
82.80155133135716
 20
217.3222767844429
 30
0.0
 40
3.0
  1
36
100
AcDbText
  0
LINE
  5
264F
330
1F
100
AcDbEntity
  8
0
  6
ByBlock
 62
     0
370
    -2
100
AcDbLine
 10
78.79374170903594
 20
216.0274042844429
 30
0.0
 11
76.29374170903594
 21
216.6972767844429
 31
0.0
  0
LINE
  5
2650
330
1F
100
AcDbEntity
  8
0
  6
ByBlock
 62
     0
370
    -2
100
AcDbLine
 10
76.29374170903594
 20
216.6972767844429
 30
0.0
 11
78.79374170903594
 21
217.3671492844429
 31
0.0
  0
LINE
  5
2651
330
1F
100
AcDbEntity
  8
0
  6
ByBlock
 62
     0
370
    -2
100
AcDbLine
 10
76.29374170903594
 20
216.6972767844429
 30
0.0
 11
78.79374170903594
 21
216.6972767844429
 31
0.0
  0
LINE
  5
2652
330
1F
100
AcDbEntity
  8
0
  6
ByBlock
 62
     0
370
    -2
100
AcDbLine
 10
91.84917020040513
 20
217.3671492844429
 30
0.0
 11
94.34917020040513
 21
216.6972767844429
 31
0.0
  0
LINE
  5
2653
330
1F
100
AcDbEntity
  8
0
  6
ByBlock
 62
     0
370
    -2
100
AcDbLine
 10
94.34917020040513
 20
216.6972767844429
 30
0.0
 11
91.84917020040513
 21
216.0274042844429
 31
0.0
  0
LINE
  5
2654
330
1F
100
AcDbEntity
  8
0
  6
ByBlock
 62
     0
370
    -2
100
AcDbLine
 10
94.34917020040513
 20
216.6972767844429
 30
0.0
 11
91.84917020040513
 21
216.6972767844429
 31
0.0
  0
TEXT
  5
2655
330
1F
100
AcDbEntity
  8
0
 62
     4
100
AcDbText
 10
157.7936787346357
 20
231.0304739929246
 30
0.0
 40
3.0
  1
206
100
AcDbText
  0
LINE
  5
2656
330
1F
100
AcDbEntity
  8
0
  6
ByBlock
 62
     0
370
    -2
100
AcDbLine
 10
114.2527019927225
 20
229.7356014929246
 30
0.0
 11
111.7527019927225
 21
230.4054739929246
 31
0.0
  0
LINE
  5
2657
330
1F
100
AcDbEntity
  8
0
  6
ByBlock
 62
     0
370
    -2
100
AcDbLine
 10
111.7527019927225
 20
230.4054739929246
 30
0.0
 11
114.2527019927225
 21
231.0753464929246
 31
0.0
  0
LINE
  5
2658
330
1F
100
AcDbEntity
  8
0
  6
ByBlock
 62
     0
370
    -2
100
AcDbLine
 10
111.7527019927225
 20
230.4054739929246
 30
0.0
 11
114.2527019927225
 21
230.4054739929246
 31
0.0
  0
LINE
  5
2659
330
1F
100
AcDbEntity
  8
0
  6
ByBlock
 62
     0
370
    -2
100
AcDbLine
 10
212.2527019927225
 20
231.0753464929246
 30
0.0
 11
214.7527019927225
 21
230.4054739929246
 31
0.0
  0
LINE
  5
265A
330
1F
100
AcDbEntity
  8
0
  6
ByBlock
 62
     0
370
    -2
100
AcDbLine
 10
214.7527019927225
 20
230.4054739929246
 30
0.0
 11
212.2527019927225
 21
229.7356014929246
 31
0.0
  0
LINE
  5
265B
330
1F
100
AcDbEntity
  8
0
  6
ByBlock
 62
     0
370
    -2
100
AcDbLine
 10
214.7527019927225
 20
230.4054739929246
 30
0.0
 11
212.2527019927225
 21
230.4054739929246
 31
0.0
  0
TEXT
  5
265C
330
1F
100
AcDbEntity
  8
0
 62
     4
100
AcDbText
 10
135.636354948671
 20
222.1677860132944
 30
0.0
 40
3.0
  1
111.5
100
AcDbText
  0
LINE
  5
265D
330
1F
100
AcDbEntity
  8
0
  6
ByBlock
 62
     0
370
    -2
100
AcDbLine
 10
165.0027019927225
 20
222.2126585132944
 30
0.0
 11
167.5027019927225
 21
221.5427860132944
 31
0.0
  0
LINE
  5
265E
330
1F
100
AcDbEntity
  8
0
  6
ByBlock
 62
     0
370
    -2
100
AcDbLine
 10
167.5027019927225
 20
221.5427860132944
 30
0.0
 11
165.0027019927225
 21
220.8729135132944
 31
0.0
  0
LINE
  5
265F
330
1F
100
AcDbEntity
  8
0
  6
ByBlock
 62
     0
370
    -2
100
AcDbLine
 10
167.5027019927225
 20
221.5427860132944
 30
0.0
 11
165.0027019927225
 21
221.5427860132944
 31
0.0
  0
LINE
  5
2660
330
1F
100
AcDbEntity
  8
0
  6
ByBlock
 62
     0
370
    -2
100
AcDbLine
 10
114.2527019927225
 20
220.8729135132944
 30
0.0
 11
111.7527019927225
 21
221.5427860132944
 31
0.0
  0
LINE
  5
2661
330
1F
100
AcDbEntity
  8
0
  6
ByBlock
 62
     0
370
    -2
100
AcDbLine
 10
111.7527019927225
 20
221.5427860132944
 30
0.0
 11
114.2527019927225
 21
222.2126585132944
 31
0.0
  0
LINE
  5
2662
330
1F
100
AcDbEntity
  8
0
  6
ByBlock
 62
     0
370
    -2
100
AcDbLine
 10
111.7527019927225
 20
221.5427860132944
 30
0.0
 11
114.2527019927225
 21
221.5427860132944
 31
0.0
  0
TEXT
  5
2663
330
1F
100
AcDbEntity
  8
0
 62
     4
100
AcDbText
 10
227.3410320352673
 20
185.4945733000434
 30
0.0
 40
3.0
  1
\U+220568
 50
90.0
100
AcDbText
  0
LINE
  5
2664
330
1F
100
AcDbEntity
  8
0
  6
ByBlock
 62
     0
370
    -2
100
AcDbLine
 10
228.6359045352673
 20
175.1512311247529
 30
0.0
 11
227.9660320352673
 21
172.6512311247529
 31
0.0
  0
LINE
  5
2665
330
1F
100
AcDbEntity
  8
0
  6
ByBlock
 62
     0
370
    -2
100
AcDbLine
 10
227.9660320352673
 20
172.6512311247529
 30
0.0
 11
227.2961595352673
 21
175.1512311247529
 31
0.0
  0
LINE
  5
2666
330
1F
100
AcDbEntity
  8
0
  6
ByBlock
 62
     0
370
    -2
100
AcDbLine
 10
227.9660320352673
 20
172.6512311247529
 30
0.0
 11
227.9660320352673
 21
175.1512311247529
 31
0.0
  0
LINE
  5
2667
330
1F
100
AcDbEntity
  8
0
  6
ByBlock
 62
     0
370
    -2
100
AcDbLine
 10
227.2961595352673
 20
204.1512311247529
 30
0.0
 11
227.9660320352673
 21
206.6512311247529
 31
0.0
  0
LINE
  5
2668
330
1F
100
AcDbEntity
  8
0
  6
ByBlock
 62
     0
370
    -2
100
AcDbLine
 10
227.9660320352673
 20
206.6512311247529
 30
0.0
 11
228.6359045352674
 21
204.1512311247529
 31
0.0
  0
LINE
  5
2669
330
1F
100
AcDbEntity
  8
0
  6
ByBlock
 62
     0
370
    -2
100
AcDbLine
 10
227.9660320352673
 20
206.6512311247529
 30
0.0
 11
227.9660320352673
 21
204.1512311247529
 31
0.0
  0
ARC
  5
266A
330
1F
100
AcDbEntity
  8
0
  6
ByBlock
 62
     0
100
AcDbCircle
 10
260.0267842047569
 20
189.6512311247528
 30
0.0
 40
0.1562500000000041
100
AcDbArc
 50
75.01275701974218
 51
255.0127570197422
  0
ARC
  5
266B
330
1F
100
AcDbEntity
  8
0
  6
ByBlock
 62
     0
100
AcDbCircle
 10
260.0267842047569
 20
189.6512311247528
 30
0.0
 40
0.1562500000000041
100
AcDbArc
 50
255.0127570197422
 51
75.01275701974218
  0
ARC
  5
266C
330
1F
100
AcDbEntity
  8
0
  6
ByBlock
 62
     0
100
AcDbCircle
 10
255.9442172873701
 20
197.3136950393411
 30
0.0
 40
0.156249999999997
100
AcDbArc
 50
100.2520990281106
 51
280.2520990281105
  0
ARC
  5
266D
330
1F
100
AcDbEntity
  8
0
  6
ByBlock
 62
     0
100
AcDbCircle
 10
255.9442172873701
 20
197.3136950393411
 30
0.0
 40
0.156249999999997
100
AcDbArc
 50
280.2520990281105
 51
100.2520990281106
  0
ENDSEC
  0
SECTION
  2
OBJECTS
  0
DICTIONARY
  5
C
330
0
100
AcDbDictionary
281
     1
  3
ACAD_2007HEADERVARS_RT
350
2672
  3
ACAD_COLOR
350
73
  3
ACAD_GROUP
350
D
  3
ACAD_LAYOUT
350
1A
  3
ACAD_MATERIAL
350
72
  3
ACAD_MLEADERSTYLE
350
168
  3
ACAD_MLINESTYLE
350
17
  3
ACAD_PLOTSETTINGS
350
19
  3
ACAD_PLOTSTYLENAME
350
E
  3
ACAD_SCALELIST
350
156
  3
ACAD_TABLESTYLE
350
86
  3
ACAD_VISUALSTYLE
350
99
  3
ACDB_RECOMPOSE_DATA
350
2670
  3
AcDbVariableDictionary
350
66
  3
AEC_PROPERTY_SET_DEFS
350
228D
  3
DWGPROPS
350
2671
  0
DICTIONARY
  5
DD
330
2
100
AcDbDictionary
280
     1
281
     1
  3
ACAD_LAYERSTATES
360
DE
  0
DICTIONARY
  5
89E
330
10
100
AcDbDictionary
280
     1
281
     1
  3
ADSK_XREC_LAYER_RECONCILED
360
89F
  0
DICTIONARY
  5
A0C
330
1F
100
AcDbDictionary
280
     1
281
     1
  3
ACAD_SORTENTS
360
A0D
  0
DICTIONARY
  5
174
330
173
100
AcDbDictionary
280
     1
281
     1
  3
ACAD_SORTENTS
360
175
  0
DICTIONARY
  5
2672
102
{ACAD_REACTORS
330
C
102
}
330
C
100
AcDbDictionary
281
     1
  3
DIMARCSYM
350
2674
  3
DIMFXL
350
2673
  3
DIMJOGANG
350
2675
  0
DICTIONARY
  5
73
102
{ACAD_REACTORS
330
C
102
}
330
C
100
AcDbDictionary
281
     1
  0
DICTIONARY
  5
D
102
{ACAD_REACTORS
330
C
102
}
330
C
100
AcDbDictionary
281
     1
  0
DICTIONARY
  5
1A
102
{ACAD_REACTORS
330
C
102
}
330
C
100
AcDbDictionary
281
     1
  3
Model
350
22
  3
レイアウト1
350
59
  3
レイアウト2
350
5E
  0
DICTIONARY
  5
72
102
{ACAD_REACTORS
330
C
102
}
330
C
100
AcDbDictionary
281
     1
  3
ByBlock
350
97
  3
ByLayer
350
96
  3
Global
350
98
  0
DICTIONARY
  5
168
102
{ACAD_REACTORS
330
C
102
}
330
C
100
AcDbDictionary
281
     1
  3
Standard
350
169
  0
DICTIONARY
  5
17
102
{ACAD_REACTORS
330
C
102
}
330
C
100
AcDbDictionary
281
     1
  3
Standard
350
18
  0
DICTIONARY
  5
19
102
{ACAD_REACTORS
330
C
102
}
330
C
100
AcDbDictionary
281
     1
  0
ACDBDICTIONARYWDFLT
  5
E
102
{ACAD_REACTORS
330
C
102
}
330
C
100
AcDbDictionary
281
     1
  3
Normal
350
F
100
AcDbDictionaryWithDefault
340
F
  0
DICTIONARY
  5
156
102
{ACAD_REACTORS
330
C
102
}
330
C
100
AcDbDictionary
281
     1
  3
A0
350
157
  3
A1
350
158
  3
A2
350
159
  3
A3
350
15A
  3
A4
350
15B
  3
A5
350
15C
  3
A6
350
15D
  3
A7
350
15E
  3
A8
350
15F
  3
A9
350
160
  3
B0
350
161
  3
B1
350
162
  3
B2
350
163
  3
B3
350
164
  3
B4
350
165
  3
B5
350
166
  3
B6
350
167
  0
DICTIONARY
  5
86
102
{ACAD_REACTORS
330
C
102
}
330
C
100
AcDbDictionary
281
     1
  3
Standard
350
87
  3
部品表
350
2267
  0
DICTIONARY
  5
99
102
{ACAD_REACTORS
330
C
102
}
330
C
100
AcDbDictionary
281
     1
  3
2dWireframe
350
9F
  3
3D Hidden
350
A1
  3
3dWireframe
350
A0
  3
Basic
350
9E
  3
Brighten
350
A5
  3
ColorChange
350
A9
  3
Conceptual
350
A2
  3
Dim
350
A4
  3
EdgeColorOff
350
155
  3
Facepattern
350
A8
  3
Flat
350
9A
  3
FlatWithEdges
350
9B
  3
Gouraud
350
9C
  3
GouraudWithEdges
350
9D
  3
Hidden
350
14D
  3
JitterOff
350
153
  3
Linepattern
350
A7
  3
OverhangOff
350
154
  3
Realistic
350
A3
  3
Shaded
350
152
  3
Shaded with edges
350
151
  3
Shades of Gray
350
14E
  3
Sketchy
350
14F
  3
Thicken
350
A6
  3
Wireframe
350
14C
  3
X-Ray
350
150
  0
XRECORD
  5
2670
102
{ACAD_REACTORS
330
C
102
}
330
C
100
AcDbXrecord
280
     1
 90
        1
330
87
330
2267
  0
DICTIONARY
  5
66
102
{ACAD_REACTORS
330
C
102
}
330
C
100
AcDbDictionary
281
     1
  3
CANNOSCALE
350
8A6
  3
CMLEADERSTYLE
350
8A5
  3
CTABLESTYLE
350
89
  3
DIMASSOC
350
67
  3
HIDETEXT
350
6B
  3
INDEXCTL
350
8A8
  3
SORTENTS
350
8A7
  3
XCLIPFRAME
350
24AF
  0
DICTIONARY
  5
228D
102
{ACAD_REACTORS
330
C
102
}
330
C
100
AcDbDictionary
281
     1
  0
XRECORD
  5
2671
102
{ACAD_REACTORS
330
C
102
}
330
C
100
AcDbXrecord
280
     1
  1
DWGPROPS COOKIE
  2

  3

  4

  6

  7

  8
imamura
  9

300
=
301
=
302
=
303
=
304
=
305
=
306
=
307
=
308
=
309
=
 40
0.3182161689814815
 41
2455910.855555764
 42
2459871.579478218
  1

 90
        0
  0
DICTIONARY
  5
DE
102
{ACAD_REACTORS
330
DD
102
}
330
DD
100
AcDbDictionary
281
     1
  0
XRECORD
  5
89F
102
{ACAD_REACTORS
330
89E
102
}
330
89E
100
AcDbXrecord
280
     1
290
     1
  0
SORTENTSTABLE
  5
A0D
102
{ACAD_REACTORS
330
A0C
102
}
330
A0C
100
AcDbSortentsTable
330
1F
331
5BD
  5
605
331
2447
  5
2630
331
57E
  5
57E
331
2482
  5
2665
331
5B9
  5
601
331
533
  5
533
331
57A
  5
57A
331
247E
  5
2661
331
5B5
  5
5FD
331
243F
  5
262A
331
52F
  5
52F
331
576
  5
576
331
247A
  5
265E
331
243B
  5
2627
331
52B
  5
52B
331
572
  5
572
331
22B0
  5
2613
331
67F
  5
6E0
331
22AC
  5
2612
331
67B
  5
6DC
331
22A8
  5
260E
331
2626
  5
253E
331
2576
  5
2442
331
2665
  5
AF6
331
25AD
  5
6AC
331
25EC
  5
5E1
331
1EE9
  5
25F1
331
2661
  5
B0C
331
2622
  5
2544
331
2572
  5
2437
331
25A9
  5
6D7
331
25E8
  5
5DD
331
121B
  5
25D8
331
261E
  5
2553
331
ACD
  5
258B
331
256E
  5
2433
331
265D
  5
B60
331
25A5
  5
6D3
331
25E4
  5
5D9
331
1217
  5
25D4
331
261A
  5
2560
331
2659
  5
1219
331
25A1
  5
6CF
331
25E0
  5
5D5
331
AC9
  5
2584
331
B00
  5
770
331
81A
  5
2547
331
7BB
  5
2474
331
AFC
  5
78F
331
75C
  5
A03
331
725
  5
7A0
331
6EE
  5
756
331
758
  5
9FF
331
AF8
  5
76A
331
721
  5
797
331
6EA
  5
752
331
7B3
  5
245C
331
754
  5
9F5
331
6E6
  5
74E
331
6B7
  5
71B
331
750
  5
827
331
719
  5
78C
331
6E2
  5
74A
331
6B3
  5
717
331
674
  5
6C5
331
6AF
  5
713
331
670
  5
6C1
331
631
  5
67C
331
6AB
  5
70D
331
664
  5
6A5
331
62D
  5
677
331
5EE
  5
63F
331
660
  5
6A1
331
629
  5
673
331
5EA
  5
63B
331
2476
  5
265B
331
2437
  5
2625
331
56E
  5
56E
331
5AD
  5
5AD
331
527
  5
527
331
24A9
  5
266C
331
2472
  5
2658
331
2433
  5
2621
331
56A
  5
56A
331
5A9
  5
5A9
331
523
  5
523
331
246E
  5
2654
331
242F
  5
261E
331
51F
  5
51F
331
566
  5
566
331
5A5
  5
5A5
331
246A
  5
2650
331
5A1
  5
5A1
331
242B
  5
261A
331
66F
  5
6C0
331
51B
  5
51B
331
562
  5
562
331
22A4
  5
260A
331
66B
  5
6BC
331
22A0
  5
2606
331
7AF
  5
2456
331
229C
  5
2602
331
7AB
  5
2452
331
2298
  5
25FE
331
1D85
  5
25EA
331
2616
  5
2562
331
2655
  5
1220
331
259D
  5
6CB
331
25DC
  5
5D1
331
2612
  5
25B5
331
2651
  5
1D6C
331
25D8
  5
5CD
331
260E
  5
25BC
331
AC5
  5
257D
331
AF4
  5
2577
331
264D
  5
1EE6
331
2595
  5
AE9
331
25D4
  5
5C9
331
1D79
  5
25E7
331
260A
  5
25BE
331
2649
  5
1EEA
331
2591
  5
B05
331
AF0
  5
25B0
331
AC1
  5
2578
331
7A7
  5
242D
331
25D0
  5
5C5
331
AEC
  5
25AC
331
ABD
  5
2573
331
7A3
  5
22BB
331
74C
  5
7D2
331
715
  5
77E
331
6DE
  5
746
331
AE8
  5
25A8
331
79F
  5
22A0
331
748
  5
7CD
331
6DA
  5
742
331
79B
  5
229C
331
744
  5
7C5
331
70D
  5
778
331
797
  5
2298
331
6D6
  5
73E
331
740
  5
7BC
331
793
  5
2260
331
6D2
  5
73A
331
625
  5
66F
331
5E6
  5
631
331
6A7
  5
708
331
658
  5
69D
331
5E2
  5
62D
331
621
  5
66B
331
6A3
  5
704
331
654
  5
699
331
61D
  5
666
331
5DE
  5
629
331
650
  5
695
331
619
  5
662
331
5DA
  5
625
331
2466
  5
264C
331
59D
  5
59D
331
517
  5
517
331
55E
  5
55E
331
2462
  5
2648
331
55A
  5
55A
331
599
  5
599
331
513
  5
513
331
245E
  5
2645
331
556
  5
556
331
595
  5
595
331
552
  5
552
331
591
  5
591
331
2606
  5
25C5
331
2556
  5
253B
331
2645
  5
245E
331
25CC
  5
5C1
331
B5F
  5
25CF
331
2602
  5
25CB
331
2552
  5
254B
331
2641
  5
2463
331
2589
  5
1216
331
25C8
  5
5BD
331
25FE
  5
25EF
331
263D
  5
2467
331
2585
  5
1D66
331
25C4
  5
5B9
331
AE4
  5
25A4
331
825
  5
2568
331
782
  5
AE8
331
1D69
  5
25E2
331
254A
  5
2558
331
2639
  5
246B
331
25C0
  5
5B5
331
AE0
  5
259E
331
77F
  5
AE5
331
25FA
  5
5EF
331
2261
  5
25FB
331
ADC
  5
259A
331
77B
  5
AE1
331
73C
  5
7B8
331
6CE
  5
736
331
AD8
  5
2596
331
777
  5
ADD
331
738
  5
7B4
331
6CA
  5
732
331
773
  5
AD9
331
734
  5
7AF
331
705
  5
76E
331
6C6
  5
72E
331
69F
  5
700
331
730
  5
7AB
331
701
  5
769
331
6C2
  5
726
331
69B
  5
6FC
331
64C
  5
691
331
5D6
  5
621
331
615
  5
65F
331
697
  5
6F8
331
648
  5
68D
331
5D2
  5
61D
331
611
  5
657
331
693
  5
6F4
331
644
  5
689
331
60D
  5
653
331
5CE
  5
619
331
640
  5
685
331
609
  5
650
331
5CA
  5
614
331
2456
  5
263F
331
58D
  5
58D
331
2452
  5
263B
331
589
  5
589
331
5C4
  5
60E
331
244E
  5
2637
331
546
  5
546
331
585
  5
585
331
5C0
  5
609
331
244A
  5
2633
331
581
  5
581
331
54D
  5
54D
331
22BB
  5
2614
331
549
  5
549
331
1D65
  5
25DE
331
2635
  5
246F
331
25BC
  5
6BB
331
2542
  5
25B8
331
2631
  5
247D
331
9F3
  5
256E
331
25B8
  5
6B7
331
25F7
  5
5EC
331
1EF4
  5
25F6
331
266C
  5
247A
331
253E
  5
25C4
331
262D
  5
2481
331
257D
  5
1D77
331
25B4
  5
6B3
331
25F3
  5
5E8
331
2629
  5
24A7
331
2579
  5
2446
331
2668
  5
AF0
331
25B0
  5
6AF
331
76F
  5
AD5
331
AD4
  5
2592
331
76B
  5
AD1
331
6FD
  5
765
331
AD0
  5
258E
331
7C6
  5
2538
331
767
  5
ACD
331
6F9
  5
761
331
763
  5
AC9
331
72C
  5
7A7
331
6F5
  5
75D
331
68F
  5
6F0
331
728
  5
7A3
331
6F1
  5
759
331
68B
  5
6EC
331
605
  5
64D
331
6BE
  5
722
331
687
  5
6E8
331
601
  5
649
331
6BA
  5
71E
331
683
  5
6E4
331
63C
  5
681
331
5FD
  5
645
331
5BC
  5
604
331
2446
  5
262F
331
57D
  5
57D
331
2481
  5
2664
331
5B8
  5
600
331
2442
  5
262C
331
532
  5
532
331
579
  5
579
331
247D
  5
2660
331
5B4
  5
5FC
331
52E
  5
52E
331
575
  5
575
331
2479
  5
265D
331
5B0
  5
5B0
331
52A
  5
52A
331
571
  5
571
331
67E
  5
6DF
331
22AB
  5
2611
331
67A
  5
6DB
331
25EF
  5
5E4
331
1EEC
  5
25F3
331
2664
  5
AF5
331
2625
  5
2543
331
2575
  5
2441
331
25AC
  5
6AB
331
25EB
  5
5E0
331
121E
  5
25DB
331
2621
  5
254E
331
2571
  5
2436
331
2660
  5
B0B
331
25A8
  5
6D6
331
25E7
  5
5DC
331
121A
  5
25D7
331
261D
  5
2552
331
ACC
  5
258A
331
256D
  5
2432
331
265C
  5
1215
331
25A4
  5
6D2
331
25E3
  5
5D8
331
1216
  5
25D3
331
2619
  5
255F
331
2658
  5
121E
331
25A0
  5
6CE
331
AC8
  5
2583
331
AFF
  5
794
331
75F
  5
A0B
331
819
  5
2546
331
7BA
  5
2473
331
AFB
  5
780
331
75B
  5
A02
331
724
  5
79F
331
6ED
  5
755
331
757
  5
9FE
331
6E9
  5
751
331
7B2
  5
245B
331
753
  5
9F2
331
71C
  5
795
331
6E5
  5
74D
331
677
  5
6C8
331
6B6
  5
71A
331
718
  5
786
331
6E1
  5
749
331
6B2
  5
716
331
673
  5
6C4
331
6AE
  5
712
331
667
  5
6A8
331
630
  5
67B
331
6AA
  5
70C
331
663
  5
6A4
331
62C
  5
676
331
5ED
  5
63E
331
628
  5
672
331
5E9
  5
63A
331
2436
  5
2624
331
56D
  5
56D
331
5AC
  5
5AC
331
526
  5
526
331
24A8
  5
266B
331
2471
  5
2657
331
2432
  5
2620
331
522
  5
522
331
569
  5
569
331
5A8
  5
5A8
331
246D
  5
2653
331
242E
  5
261D
331
51E
  5
51E
331
565
  5
565
331
5A4
  5
5A4
331
2469
  5
264F
331
5A0
  5
5A0
331
242A
  5
2619
331
22A7
  5
260D
331
66E
  5
6BF
331
51A
  5
51A
331
561
  5
561
331
22A3
  5
2609
331
229F
  5
2605
331
7AE
  5
2455
331
229B
  5
2601
331
7AA
  5
244E
331
25DF
  5
5D4
331
2615
  5
2561
331
2654
  5
1D69
331
259C
  5
6CA
331
25DB
  5
5D0
331
2611
  5
25B4
331
2650
  5
1D6B
331
25D7
  5
5CC
331
AF7
  5
776
331
260D
  5
25BB
331
AF3
  5
25A1
331
264C
  5
1D86
331
AC4
  5
257C
331
25D3
  5
5C8
331
1D78
  5
25E8
331
2609
  5
25C1
331
2648
  5
1EE9
331
2590
  5
AFD
331
AEF
  5
25AF
331
AC0
  5
2576
331
7A6
  5
242C
331
74F
  5
7D5
331
AEB
  5
25AB
331
ABC
  5
2572
331
7A2
  5
22B0
331
74B
  5
7D1
331
714
  5
77D
331
6DD
  5
745
331
79E
  5
229F
331
747
  5
7C8
331
6D9
  5
741
331
79A
  5
229B
331
743
  5
7C4
331
70C
  5
777
331
796
  5
2292
331
6D5
  5
73D
331
65F
  5
6A0
331
708
  5
772
331
792
  5
1EF4
331
6D1
  5
739
331
624
  5
66E
331
5E5
  5
630
331
6A6
  5
707
331
657
  5
69C
331
5E1
  5
62C
331
620
  5
669
331
6A2
  5
703
331
653
  5
698
331
61C
  5
665
331
5DD
  5
628
331
618
  5
661
331
5D9
  5
624
331
2465
  5
264B
331
55D
  5
55D
331
59C
  5
59C
331
516
  5
516
331
2461
  5
2647
331
559
  5
559
331
598
  5
598
331
245D
  5
2644
331
555
  5
555
331
594
  5
594
331
2490
  5
2669
331
2459
  5
2641
331
590
  5
590
331
551
  5
551
331
25CF
  5
5C4
331
2605
  5
25CA
331
2644
  5
245D
331
25CB
  5
5C0
331
2601
  5
25EE
331
2551
  5
254A
331
B5E
  5
25CE
331
2640
  5
2462
331
AE7
  5
25A7
331
25C7
  5
5BC
331
1D6C
  5
25E5
331
263C
  5
2466
331
2584
  5
1D65
331
25C3
  5
5B8
331
AE3
  5
25A2
331
824
  5
2567
331
781
  5
AE7
331
1D68
  5
25E1
331
2638
  5
246A
331
ADF
  5
259D
331
25F9
  5
5EE
331
77E
  5
AE4
331
73F
  5
7BB
331
2260
  5
25FA
331
ADB
  5
2599
331
77A
  5
AE0
331
73B
  5
7B7
331
6CD
  5
735
331
776
  5
ADC
331
737
  5
7B2
331
6C9
  5
731
331
772
  5
AD8
331
733
  5
7AE
331
704
  5
76D
331
6C5
  5
72D
331
69E
  5
6FF
331
64F
  5
694
331
700
  5
768
331
6C1
  5
725
331
69A
  5
6FB
331
64B
  5
690
331
5D5
  5
620
331
614
  5
65E
331
696
  5
6F7
331
647
  5
68C
331
5D1
  5
61C
331
610
  5
656
331
692
  5
6F3
331
643
  5
688
331
60C
  5
652
331
5CD
  5
618
331
608
  5
64F
331
5C9
  5
613
331
2455
  5
263E
331
58C
  5
58C
331
5C7
  5
611
331
2451
  5
263A
331
588
  5
588
331
5C3
  5
60D
331
244D
  5
2636
331
545
  5
545
331
584
  5
584
331
2488
  5
2667
331
2449
  5
2632
331
580
  5
580
331
54C
  5
54C
331
548
  5
548
331
25BF
  5
5B4
331
9F6
  5
2570
331
2634
  5
246E
331
25BB
  5
6BA
331
9F2
  5
256D
331
2630
  5
2480
331
25B7
  5
6B6
331
25F6
  5
5EB
331
266B
  5
25F8
331
253D
  5
25C3
331
262C
  5
2490
331
257C
  5
244C
331
25B3
  5
6B2
331
25F2
  5
5E7
331
AD7
  5
2595
331
2628
  5
2540
331
2578
  5
2445
331
76E
  5
AD4
331
1221
  5
25DD
331
AD3
  5
2591
331
76A
  5
AD0
331
6FC
  5
764
331
7C5
  5
24AE
331
766
  5
ACC
331
72F
  5
7AA
331
6F8
  5
760
331
7C1
  5
2487
331
762
  5
AC8
331
72B
  5
7A6
331
6F4
  5
75C
331
68E
  5
6EF
331
6F0
  5
758
331
68A
  5
6EB
331
604
  5
64C
331
6BD
  5
721
331
686
  5
6E7
331
63F
  5
684
331
600
  5
648
331
6B9
  5
71D
331
682
  5
6E3
331
63B
  5
680
331
5FC
  5
644
331
5BF
  5
608
331
5BB
  5
603
331
2445
  5
262E
331
57C
  5
57C
331
535
  5
535
331
2480
  5
2663
331
5B7
  5
5FF
331
2441
  5
262B
331
531
  5
531
331
578
  5
578
331
5B3
  5
5FB
331
243D
  5
2629
331
52D
  5
52D
331
574
  5
574
331
529
  5
529
331
570
  5
570
331
67D
  5
6DE
331
22AA
  5
2610
331
679
  5
6DA
331
2667
  5
AEF
331
25AF
  5
6AE
331
25EE
  5
5E3
331
2624
  5
2542
331
2574
  5
243B
331
2663
  5
AFB
331
25AB
  5
6D9
331
25EA
  5
5DF
331
121D
  5
25DA
331
B0C
  5
25B3
331
2620
  5
254D
331
ACF
  5
258D
331
2570
  5
2435
331
265F
  5
1214
331
25A7
  5
6D5
331
25E6
  5
5DB
331
1219
  5
25D6
331
261C
  5
254F
331
ACB
  5
2588
331
256C
  5
2430
331
265B
  5
121B
331
25A3
  5
6D1
331
25E2
  5
5D7
331
1215
  5
25D2
331
2618
  5
255E
331
7BD
  5
2477
331
AFE
  5
796
331
75E
  5
A09
331
727
  5
7A2
331
818
  5
2545
331
7B9
  5
2472
331
AFA
  5
781
331
75A
  5
A01
331
723
  5
79E
331
6EC
  5
754
331
756
  5
9FD
331
6E8
  5
750
331
7B1
  5
2459
331
752
  5
9F1
331
71B
  5
793
331
6E4
  5
74C
331
676
  5
6C7
331
6B5
  5
719
331
6E0
  5
748
331
6B1
  5
715
331
672
  5
6C3
331
633
  5
67D
331
6AD
  5
70F
331
666
  5
6A7
331
62F
  5
67A
331
5F0
  5
641
331
6A9
  5
70B
331
662
  5
6A3
331
62B
  5
675
331
5EC
  5
63D
331
5E8
  5
636
331
5AF
  5
5AF
331
2474
  5
265A
331
2435
  5
2623
331
56C
  5
56C
331
5AB
  5
5AB
331
24A7
  5
266A
331
2470
  5
2656
331
521
  5
521
331
568
  5
568
331
5A7
  5
5A7
331
246C
  5
2652
331
242D
  5
261C
331
51D
  5
51D
331
564
  5
564
331
5A3
  5
5A3
331
2468
  5
264E
331
2429
  5
2618
331
22A6
  5
260C
331
66D
  5
6BE
331
519
  5
519
331
560
  5
560
331
22A2
  5
2608
331
669
  5
6AA
331
229E
  5
2604
331
7AD
  5
2454
331
229A
  5
2600
331
7A9
  5
244D
331
2657
  5
121D
331
259F
  5
6CD
331
25DE
  5
5D3
331
2614
  5
2564
331
2653
  5
1D68
331
259B
  5
6C9
331
25DA
  5
5CF
331
2610
  5
25B7
331
BB5
  5
2589
331
264F
  5
1D6A
331
2597
  5
AEB
331
25D6
  5
5CB
331
AC7
  5
2582
331
AF6
  5
774
331
260C
  5
25C0
331
AF2
  5
25A3
331
7C8
  5
253A
331
264B
  5
1D85
331
AC3
  5
257B
331
25D2
  5
5C7
331
2608
  5
25C7
331
2558
  5
253D
331
AEE
  5
25AE
331
ABF
  5
2575
331
7A5
  5
22BD
331
74E
  5
7D4
331
717
  5
783
331
AEA
  5
25AA
331
ABB
  5
2571
331
7A1
  5
22AC
331
74A
  5
7D0
331
713
  5
77C
331
6DC
  5
744
331
79D
  5
229E
331
746
  5
7C7
331
70F
  5
77A
331
6D8
  5
740
331
799
  5
229A
331
742
  5
7BE
331
70B
  5
775
331
795
  5
2262
331
6D4
  5
73C
331
65E
  5
69F
331
627
  5
671
331
6D0
  5
738
331
623
  5
66D
331
5E4
  5
62F
331
6A5
  5
706
331
656
  5
69B
331
5E0
  5
62B
331
61F
  5
668
331
6A1
  5
702
331
652
  5
697
331
61B
  5
664
331
5DC
  5
627
331
5D8
  5
623
331
59F
  5
59F
331
2464
  5
264A
331
55C
  5
55C
331
59B
  5
59B
331
515
  5
515
331
2460
  5
2646
331
558
  5
558
331
597
  5
597
331
245C
  5
2643
331
554
  5
554
331
593
  5
593
331
550
  5
550
331
2292
  5
25FD
331
2647
  5
1EF2
331
258F
  5
AFC
331
25CE
  5
5C3
331
2604
  5
25C9
331
2643
  5
2461
331
258B
  5
1218
331
25CA
  5
5BF
331
2600
  5
25ED
331
2550
  5
2549
331
AE6
  5
25A6
331
263F
  5
2465
331
827
  5
256A
331
25C6
  5
5BB
331
1D6B
  5
25E4
331
25FC
  5
25F9
331
254C
  5
255A
331
263B
  5
2469
331
2583
  5
1221
331
25C2
  5
5B7
331
AE2
  5
25A0
331
823
  5
2566
331
780
  5
AE6
331
ADE
  5
259C
331
25F8
  5
5ED
331
77D
  5
AE3
331
B47
  5
25CC
331
73E
  5
7BA
331
ADA
  5
2598
331
779
  5
ADF
331
73A
  5
7B6
331
6CC
  5
734
331
775
  5
ADB
331
736
  5
7B1
331
707
  5
771
331
6C8
  5
730
331
771
  5
AD7
331
732
  5
7AD
331
703
  5
76C
331
6C4
  5
72C
331
69D
  5
6FE
331
64E
  5
693
331
617
  5
660
331
6C0
  5
724
331
699
  5
6FA
331
64A
  5
68F
331
5D4
  5
61F
331
613
  5
659
331
695
  5
6F6
331
646
  5
68B
331
5D0
  5
61B
331
60F
  5
655
331
691
  5
6F2
331
642
  5
687
331
5CC
  5
617
331
5C8
  5
612
331
58F
  5
58F
331
2454
  5
263D
331
58B
  5
58B
331
248F
  5
2668
331
5C6
  5
610
331
2450
  5
2639
331
587
  5
587
331
5C2
  5
60C
331
244C
  5
2635
331
544
  5
544
331
583
  5
583
331
2448
  5
2631
331
54F
  5
54F
331
22BD
  5
2616
331
54B
  5
54B
331
1D67
  5
25E0
331
2637
  5
246D
331
25BE
  5
5B3
331
2544
  5
25BA
331
2633
  5
2471
331
25BA
  5
6B9
331
9F1
  5
256C
331
262F
  5
247F
331
257F
  5
1D7A
331
25B6
  5
6B5
331
25F5
  5
5EA
331
266A
  5
25F7
331
1EF2
  5
25F5
331
253C
  5
25C2
331
262B
  5
248F
331
257B
  5
2448
331
25B2
  5
6B1
331
25F1
  5
5E6
331
AD6
  5
2594
331
76D
  5
AD3
331
6FF
  5
767
331
1220
  5
25DC
331
AD2
  5
2590
331
769
  5
ACF
331
6FB
  5
763
331
7C4
  5
24A9
331
765
  5
ACB
331
72E
  5
7A9
331
6F7
  5
75F
331
7C0
  5
2482
331
761
  5
AC7
331
72A
  5
7A5
331
6F3
  5
75B
331
607
  5
64E
331
68D
  5
6EE
331
689
  5
6EA
331
603
  5
64B
331
6BC
  5
720
331
685
  5
6E6
331
63E
  5
683
331
5FF
  5
647
331
6B8
  5
71C
331
681
  5
6E2
331
63A
  5
67F
331
5FB
  5
643
331
2487
  5
2666
331
5BE
  5
607
331
57F
  5
57F
331
5BA
  5
602
331
2444
  5
262D
331
57B
  5
57B
331
534
  5
534
331
247F
  5
2662
331
5B6
  5
5FE
331
530
  5
530
331
577
  5
577
331
247B
  5
265F
331
5B2
  5
5FA
331
243C
  5
2628
331
52C
  5
52C
331
573
  5
573
331
2438
  5
2626
331
528
  5
528
331
67C
  5
6DD
331
22A9
  5
260F
331
2627
  5
253F
331
2577
  5
2444
331
2666
  5
AF7
331
25AE
  5
6AD
331
25ED
  5
5E2
331
1EEA
  5
25F2
331
2662
  5
B5F
331
2623
  5
2541
331
2573
  5
2438
331
25AA
  5
6D8
331
25E9
  5
5DE
331
1EE6
  5
25F0
331
265E
  5
BB5
331
121C
  5
25D9
331
B0B
  5
25B2
331
261F
  5
254C
331
B05
  5
25B1
331
256F
  5
2434
331
ACE
  5
258C
331
25A6
  5
6D4
331
25E5
  5
5DA
331
1218
  5
25D5
331
261B
  5
2554
331
ACA
  5
2585
331
265A
  5
121A
331
25A2
  5
6D0
331
25E1
  5
5D6
331
1214
  5
25D1
331
81B
  5
2548
331
7BC
  5
2476
331
AFD
  5
789
331
75D
  5
A04
331
726
  5
7A1
331
6EF
  5
757
331
759
  5
A00
331
AF9
  5
782
331
722
  5
79D
331
6EB
  5
753
331
755
  5
9F6
331
6E7
  5
74F
331
7B0
  5
2457
331
751
  5
9F0
331
71A
  5
792
331
6E3
  5
74B
331
675
  5
6C6
331
636
  5
67E
331
6B4
  5
718
331
6B0
  5
714
331
671
  5
6C2
331
6AC
  5
70E
331
665
  5
6A6
331
62E
  5
679
331
5EF
  5
640
331
6A8
  5
70A
331
661
  5
6A2
331
5EB
  5
63C
331
62A
  5
674
331
24AE
  5
266D
331
2477
  5
265C
331
5AE
  5
5AE
331
56F
  5
56F
331
2473
  5
2659
331
2434
  5
2622
331
56B
  5
56B
331
5AA
  5
5AA
331
524
  5
524
331
246F
  5
2655
331
2430
  5
261F
331
520
  5
520
331
567
  5
567
331
5A6
  5
5A6
331
246B
  5
2651
331
242C
  5
261B
331
51C
  5
51C
331
563
  5
563
331
5A2
  5
5A2
331
2428
  5
2617
331
22A5
  5
260B
331
66C
  5
6BD
331
518
  5
518
331
22A1
  5
2607
331
668
  5
6A9
331
229D
  5
2603
331
7AC
  5
2453
331
2299
  5
25FF
331
1D86
  5
25EB
331
2617
  5
2563
331
2656
  5
121C
331
259E
  5
6CC
331
25DD
  5
5D2
331
2613
  5
25B6
331
2652
  5
1D67
331
25D9
  5
5CE
331
260F
  5
25BD
331
AC6
  5
2581
331
AF5
  5
2580
331
264E
  5
1D76
331
2596
  5
AEA
331
25D5
  5
5CA
331
1D7A
  5
25E9
331
260B
  5
25BF
331
264A
  5
1EEC
331
AC2
  5
257A
331
AF1
  5
2579
331
25D1
  5
5C6
331
AED
  5
25AD
331
ABE
  5
2574
331
7A4
  5
22BC
331
74D
  5
7D3
331
716
  5
77F
331
6DF
  5
747
331
B60
  5
25D0
331
AE9
  5
25A9
331
7A0
  5
22A1
331
749
  5
7CE
331
712
  5
77B
331
6DB
  5
743
331
79C
  5
229D
331
745
  5
7C6
331
70E
  5
779
331
6D7
  5
73F
331
798
  5
2299
331
741
  5
7BD
331
70A
  5
773
331
794
  5
2261
331
6D3
  5
73B
331
626
  5
670
331
5E7
  5
633
331
659
  5
69E
331
622
  5
66C
331
5E3
  5
62E
331
6A4
  5
705
331
655
  5
69A
331
61E
  5
667
331
5DF
  5
62A
331
6A0
  5
701
331
651
  5
696
331
61A
  5
663
331
5DB
  5
626
331
2467
  5
264D
331
59E
  5
59E
331
55F
  5
55F
331
2463
  5
2649
331
55B
  5
55B
331
59A
  5
59A
331
514
  5
514
331
557
  5
557
331
596
  5
596
331
245B
  5
2642
331
553
  5
553
331
592
  5
592
331
1D76
  5
25E6
331
2607
  5
25C6
331
2557
  5
253C
331
2646
  5
2460
331
25CD
  5
5C2
331
2603
  5
25C8
331
2642
  5
2464
331
258A
  5
1217
331
25C9
  5
5BE
331
25FF
  5
25EC
331
AE5
  5
25A5
331
263E
  5
2468
331
826
  5
2569
331
25C5
  5
5BA
331
1D6A
  5
25E3
331
254B
  5
2559
331
263A
  5
246C
331
25C1
  5
5B6
331
AE1
  5
259F
331
822
  5
2565
331
25FB
  5
5F0
331
2262
  5
25FC
331
ADD
  5
259B
331
77C
  5
AE2
331
73D
  5
7B9
331
6CF
  5
737
331
B48
  5
25CD
331
AD9
  5
2597
331
778
  5
ADE
331
739
  5
7B5
331
6CB
  5
733
331
774
  5
ADA
331
735
  5
7B0
331
706
  5
76F
331
6C7
  5
72F
331
770
  5
AD6
331
731
  5
7AC
331
702
  5
76B
331
6C3
  5
72B
331
69C
  5
6FD
331
64D
  5
692
331
5D7
  5
622
331
698
  5
6F9
331
649
  5
68E
331
5D3
  5
61E
331
612
  5
658
331
694
  5
6F5
331
645
  5
68A
331
5CF
  5
61A
331
60E
  5
654
331
690
  5
6F1
331
641
  5
686
331
60A
  5
651
331
5CB
  5
615
331
2457
  5
2640
331
58E
  5
58E
331
2453
  5
263C
331
58A
  5
58A
331
5C5
  5
60F
331
244F
  5
2638
331
547
  5
547
331
586
  5
586
331
5C1
  5
60A
331
244B
  5
2634
331
543
  5
543
331
582
  5
582
331
54E
  5
54E
331
22BC
  5
2615
331
54A
  5
54A
331
1D66
  5
25DF
331
2636
  5
2470
331
25BD
  5
5B2
331
2543
  5
25B9
331
9F4
  5
256F
331
25B9
  5
6B8
331
266D
  5
247B
331
9F0
  5
256B
331
262E
  5
247E
331
257E
  5
1D79
331
25B5
  5
6B4
331
25F4
  5
5E9
331
262A
  5
2488
331
257A
  5
2447
331
2669
  5
AF1
331
25B1
  5
6B0
331
25F0
  5
5E5
331
AD5
  5
2593
331
76C
  5
AD2
331
6FE
  5
766
331
AD1
  5
258F
331
7C7
  5
2539
331
768
  5
ACE
331
6FA
  5
762
331
7C3
  5
24A8
331
764
  5
ACA
331
72D
  5
7A8
331
6F6
  5
75E
331
760
  5
AC6
331
729
  5
7A4
331
6F2
  5
75A
331
68C
  5
6ED
331
6BF
  5
723
331
688
  5
6E9
331
602
  5
64A
331
6BB
  5
71F
331
684
  5
6E5
331
63D
  5
682
331
5FE
  5
646
331
680
  5
6E1
331
5FA
  5
642
  0
SORTENTSTABLE
  5
175
102
{ACAD_REACTORS
330
174
102
}
330
174
100
AcDbSortentsTable
330
173
  0
XRECORD
  5
2674
102
{ACAD_REACTORS
330
2672
102
}
330
2672
100
AcDbXrecord
280
     1
 70
     2
  0
XRECORD
  5
2673
102
{ACAD_REACTORS
330
2672
102
}
330
2672
100
AcDbXrecord
280
     1
 40
1.25
  0
XRECORD
  5
2675
102
{ACAD_REACTORS
330
2672
102
}
330
2672
100
AcDbXrecord
280
     1
 40
1.570796326794896
  0
LAYOUT
  5
22
102
{ACAD_XDICTIONARY
360
2676
102
}
102
{ACAD_REACTORS
330
1A
102
}
330
1A
100
AcDbPlotSettings
  1

  2
none_device
  4
ANSI_A_(8.50_x_11.00_Inches)
  6

 40
6.349999904632567
 41
19.04999923706055
 42
6.350006103515625
 43
19.04998779296875
 44
215.8999938964844
 45
279.3999938964844
 46
0.0
 47
0.0
 48
0.0
 49
0.0
140
0.0
141
0.0
142
1.0
143
2.584895464708373
 70
 11952
 72
     0
 73
     1
 74
     0
  7

 75
     0
147
0.3868628397755418
148
0.0
149
0.0
100
AcDbLayout
  1
Model
 70
     1
 71
     0
 10
0.0
 20
0.0
 11
12.0
 21
9.0
 12
0.0
 22
0.0
 32
0.0
 14
0.0
 24
0.0
 34
0.0
 15
0.0
 25
0.0
 35
0.0
146
0.0
 13
0.0
 23
0.0
 33
0.0
 16
1.0
 26
0.0
 36
0.0
 17
0.0
 27
1.0
 37
0.0
 76
     0
330
1F
331
94
  0
LAYOUT
  5
59
102
{ACAD_XDICTIONARY
360
2678
102
}
102
{ACAD_REACTORS
330
1A
102
}
330
1A
100
AcDbPlotSettings
  1

  2
None
  4

  6

 40
0.0
 41
0.0
 42
0.0
 43
0.0
 44
0.0
 45
0.0
 46
0.0
 47
0.0
 48
0.0
 49
0.0
140
0.0
141
0.0
142
1.0
143
1.0
 70
   688
 72
     0
 73
     0
 74
     5
  7

 75
    16
147
1.0
148
0.0
149
0.0
100
AcDbLayout
  1
レイアウト1
 70
     1
 71
     1
 10
0.0
 20
0.0
 11
12.0
 21
9.0
 12
0.0
 22
0.0
 32
0.0
 14
0.0
 24
0.0
 34
0.0
 15
0.0
 25
0.0
 35
0.0
146
0.0
 13
0.0
 23
0.0
 33
0.0
 16
1.0
 26
0.0
 36
0.0
 17
0.0
 27
1.0
 37
0.0
 76
     0
330
58
  0
LAYOUT
  5
5E
102
{ACAD_XDICTIONARY
360
267A
102
}
102
{ACAD_REACTORS
330
1A
102
}
330
1A
100
AcDbPlotSettings
  1

  2
None
  4

  6

 40
0.0
 41
0.0
 42
0.0
 43
0.0
 44
0.0
 45
0.0
 46
0.0
 47
0.0
 48
0.0
 49
0.0
140
0.0
141
0.0
142
1.0
143
1.0
 70
   688
 72
     0
 73
     0
 74
     5
  7

 75
    16
147
1.0
148
0.0
149
0.0
100
AcDbLayout
  1
レイアウト2
 70
     1
 71
     2
 10
0.0
 20
0.0
 11
12.0
 21
9.0
 12
0.0
 22
0.0
 32
0.0
 14
0.0
 24
0.0
 34
0.0
 15
0.0
 25
0.0
 35
0.0
146
0.0
 13
0.0
 23
0.0
 33
0.0
 16
1.0
 26
0.0
 36
0.0
 17
0.0
 27
1.0
 37
0.0
 76
     0
330
5D
  0
MATERIAL
  5
97
102
{ACAD_XDICTIONARY
360
917
102
}
102
{ACAD_REACTORS
330
72
102
}
330
72
100
AcDbMaterial
  1
ByBlock
 73
     1
 78
     1
172
     1
176
     1
270
     1
274
     1
  0
MATERIAL
  5
96
102
{ACAD_XDICTIONARY
360
915
102
}
102
{ACAD_REACTORS
330
72
102
}
330
72
100
AcDbMaterial
  1
ByLayer
 73
     1
 78
     1
172
     1
176
     1
270
     1
274
     1
  0
MATERIAL
  5
98
102
{ACAD_XDICTIONARY
360
919
102
}
102
{ACAD_REACTORS
330
72
102
}
330
72
100
AcDbMaterial
  1
Global
 73
     1
 78
     1
172
     1
176
     1
270
     1
274
     1
  0
MLEADERSTYLE
  5
169
102
{ACAD_REACTORS
330
168
102
}
330
168
100
AcDbMLeaderStyle
170
     2
171
     1
172
     0
 90
        2
 40
0.0
 41
0.0
173
     1
 91
-1056964608
340
14
 92
       -2
290
     1
 42
2.0
291
     1
 43
0.36
  3
Standard
 44
4.0
300

342
11
174
     1
178
     6
175
     1
176
     0
 93
-1056964608
 45
4.0
292
     0
297
     0
 46
4.0
 94
-1056964608
 47
1.0
 49
1.0
140
1.0
293
     1
141
0.0
294
     1
177
     0
142
1.0
295
     0
296
     0
143
0.125
1001
ACAD_MLEADERVER
1070
     2
  0
MLINESTYLE
  5
18
102
{ACAD_REACTORS
330
17
102
}
330
17
100
AcDbMlineStyle
  2
STANDARD
 70
     0
  3

 62
   256
 51
90.0
 52
90.0
 71
     2
 49
0.5
 62
   256
  6
BYLAYER
 49
-0.5
 62
   256
  6
BYLAYER
  0
ACDBPLACEHOLDER
  5
F
102
{ACAD_REACTORS
330
E
102
}
330
E
  0
SCALE
  5
157
102
{ACAD_REACTORS
330
156
102
}
330
156
100
AcDbScale
 70
     0
300
1:1
140
1.0
141
1.0
290
     1
  0
SCALE
  5
158
102
{ACAD_REACTORS
330
156
102
}
330
156
100
AcDbScale
 70
     0
300
1:2
140
1.0
141
2.0
290
     0
  0
SCALE
  5
159
102
{ACAD_REACTORS
330
156
102
}
330
156
100
AcDbScale
 70
     0
300
1:4
140
1.0
141
4.0
290
     0
  0
SCALE
  5
15A
102
{ACAD_REACTORS
330
156
102
}
330
156
100
AcDbScale
 70
     0
300
1:5
140
1.0
141
5.0
290
     0
  0
SCALE
  5
15B
102
{ACAD_REACTORS
330
156
102
}
330
156
100
AcDbScale
 70
     0
300
1:8
140
1.0
141
8.0
290
     0
  0
SCALE
  5
15C
102
{ACAD_REACTORS
330
156
102
}
330
156
100
AcDbScale
 70
     0
300
1:10
140
1.0
141
10.0
290
     0
  0
SCALE
  5
15D
102
{ACAD_REACTORS
330
156
102
}
330
156
100
AcDbScale
 70
     0
300
1:16
140
1.0
141
16.0
290
     0
  0
SCALE
  5
15E
102
{ACAD_REACTORS
330
156
102
}
330
156
100
AcDbScale
 70
     0
300
1:20
140
1.0
141
20.0
290
     0
  0
SCALE
  5
15F
102
{ACAD_REACTORS
330
156
102
}
330
156
100
AcDbScale
 70
     0
300
1:30
140
1.0
141
30.0
290
     0
  0
SCALE
  5
160
102
{ACAD_REACTORS
330
156
102
}
330
156
100
AcDbScale
 70
     0
300
1:40
140
1.0
141
40.0
290
     0
  0
SCALE
  5
161
102
{ACAD_REACTORS
330
156
102
}
330
156
100
AcDbScale
 70
     0
300
1:50
140
1.0
141
50.0
290
     0
  0
SCALE
  5
162
102
{ACAD_REACTORS
330
156
102
}
330
156
100
AcDbScale
 70
     0
300
1:100
140
1.0
141
100.0
290
     0
  0
SCALE
  5
163
102
{ACAD_REACTORS
330
156
102
}
330
156
100
AcDbScale
 70
     0
300
2:1
140
2.0
141
1.0
290
     0
  0
SCALE
  5
164
102
{ACAD_REACTORS
330
156
102
}
330
156
100
AcDbScale
 70
     0
300
4:1
140
4.0
141
1.0
290
     0
  0
SCALE
  5
165
102
{ACAD_REACTORS
330
156
102
}
330
156
100
AcDbScale
 70
     0
300
8:1
140
8.0
141
1.0
290
     0
  0
SCALE
  5
166
102
{ACAD_REACTORS
330
156
102
}
330
156
100
AcDbScale
 70
     0
300
10:1
140
10.0
141
1.0
290
     0
  0
SCALE
  5
167
102
{ACAD_REACTORS
330
156
102
}
330
156
100
AcDbScale
 70
     0
300
100:1
140
100.0
141
1.0
290
     0
  0
TABLESTYLE
  5
87
102
{ACAD_XDICTIONARY
360
906
102
}
102
{ACAD_REACTORS
330
86
102
}
330
86
100
AcDbTableStyle
  3
Standard
 70
     0
 71
     0
 40
0.06
 41
0.06
280
     0
281
     0
  7
Standard
140
0.18
170
     2
 62
     0
 63
     7
283
     0
274
    -2
284
     1
 64
     0
275
    -2
285
     1
 65
     0
276
    -2
286
     1
 66
     0
277
    -2
287
     1
 67
     0
278
    -2
288
     1
 68
     0
279
    -2
289
     1
 69
     0
  7
Standard
140
0.25
170
     5
 62
     0
 63
     7
283
     0
274
    -2
284
     1
 64
     0
275
    -2
285
     1
 65
     0
276
    -2
286
     1
 66
     0
277
    -2
287
     1
 67
     0
278
    -2
288
     1
 68
     0
279
    -2
289
     1
 69
     0
  7
Standard
140
0.18
170
     5
 62
     0
 63
     7
283
     0
274
    -2
284
     1
 64
     0
275
    -2
285
     1
 65
     0
276
    -2
286
     1
 66
     0
277
    -2
287
     1
 67
     0
278
    -2
288
     1
 68
     0
279
    -2
289
     1
 69
     0
  0
TABLESTYLE
  5
2267
102
{ACAD_XDICTIONARY
360
2268
102
}
102
{ACAD_REACTORS
330
86
102
}
330
86
100
AcDbTableStyle
  3
Standard
 70
     1
 71
     0
 40
1.5
 41
0.5
280
     0
281
     0
  7
高3.2
140
0.18
170
     7
 62
     3
 63
     7
283
     0
274
    -2
284
     1
 64
     3
275
    -2
285
     1
 65
     7
276
    -2
286
     1
 66
     3
277
    -2
287
     1
 67
     3
278
    -2
288
     1
 68
     7
279
    -2
289
     1
 69
     3
  7
高3.2
140
0.25
170
     8
 62
     3
 63
     7
283
     0
274
    -2
284
     1
 64
     0
275
    -2
285
     1
 65
     0
276
    -2
286
     1
 66
     0
277
    -2
287
     1
 67
     0
278
    -2
288
     1
 68
     0
279
    -2
289
     1
 69
     0
  7
高3.2
140
0.18
170
     7
 62
     3
 63
     7
283
     0
274
    -2
284
     1
 64
     3
275
    -2
285
     1
 65
     7
276
    -2
286
     1
 66
     3
277
    -2
287
     1
 67
     3
278
    -2
288
     1
 68
     7
279
    -2
289
     1
 69
     3
  0
VISUALSTYLE
  5
9F
102
{ACAD_XDICTIONARY
360
2687
102
}
102
{ACAD_REACTORS
330
99
102
}
330
99
100
AcDbVisualStyle
  2

 70
     4
 71
     0
 72
     2
 73
     1
 90
        0
 40
-0.6
 41
-30.0
 62
     5
 63
     7
 74
     1
 91
        4
 64
     7
 65
   257
 75
     1
175
     1
 42
1.0
 92
        0
 66
   257
 43
1.0
 76
     1
 77
     6
 78
     2
 67
     7
 79
     5
170
     0
171
     0
290
     0
174
     0
 93
        1
 44
0.0
173
     0
291
     0
 45
0.0
1001
ACAD
1000
AcDbSavedByObjectVersion
1070
     0
  0
VISUALSTYLE
  5
A1
102
{ACAD_XDICTIONARY
360
268B
102
}
102
{ACAD_REACTORS
330
99
102
}
330
99
100
AcDbVisualStyle
  2

 70
     6
 71
     1
 72
     2
 73
     2
 90
        0
 40
-0.6
 41
-30.0
 62
     5
 63
     7
 74
     2
 91
        2
 64
     7
 65
   257
 75
     2
175
     1
 42
40.0
 92
        0
 66
   257
 43
1.0
 76
     1
 77
     6
 78
     2
 67
     7
 79
     3
170
     0
171
     0
290
     0
174
     0
 93
        1
 44
0.0
173
     0
291
     0
 45
0.0
1001
ACAD
1000
AcDbSavedByObjectVersion
1070
     0
  0
VISUALSTYLE
  5
A0
102
{ACAD_XDICTIONARY
360
2689
102
}
102
{ACAD_REACTORS
330
99
102
}
330
99
100
AcDbVisualStyle
  2

 70
     5
 71
     0
 72
     2
 73
     1
 90
        0
 40
-0.6
 41
-30.0
 62
     5
 63
     7
 74
     1
 91
        4
 64
     7
 65
   257
 75
     1
175
     1
 42
1.0
 92
        0
 66
   257
 43
1.0
 76
     1
 77
     6
 78
     2
 67
     7
 79
     5
170
     0
171
     0
290
     0
174
     0
 93
        1
 44
0.0
173
     0
291
     0
 45
0.0
1001
ACAD
1000
AcDbSavedByObjectVersion
1070
     0
  0
VISUALSTYLE
  5
9E
102
{ACAD_XDICTIONARY
360
2685
102
}
102
{ACAD_REACTORS
330
99
102
}
330
99
100
AcDbVisualStyle
  2

 70
     7
 71
     1
 72
     0
 73
     1
 90
        0
 40
-0.6
 41
-30.0
 62
     5
 63
     7
 74
     0
 91
        4
 64
     7
 65
   257
 75
     1
175
     1
 42
1.0
 92
        8
 66
     7
 43
1.0
 76
     1
 77
     6
 78
     2
 67
     7
 79
     5
170
     0
171
     0
290
     0
174
     0
 93
        1
 44
0.0
173
     0
291
     1
 45
0.0
1001
ACAD
1000
AcDbSavedByObjectVersion
1070
     0
  0
VISUALSTYLE
  5
A5
102
{ACAD_XDICTIONARY
360
2693
102
}
102
{ACAD_REACTORS
330
99
102
}
330
99
100
AcDbVisualStyle
  2

 70
    12
 71
     2
 72
     2
 73
     1
 90
        0
 40
-0.6
 41
-30.0
 62
     5
 63
     7
 74
     1
 91
        4
 64
     7
 65
   257
 75
     1
175
     1
 42
1.0
 92
        8
 66
     7
 43
1.0
 76
     1
 77
     6
 78
     2
 67
     7
 79
     5
170
     0
171
     0
290
     0
174
     0
 93
        1
 44
50.0
173
     0
291
     1
 45
0.0
1001
ACAD
1000
AcDbSavedByObjectVersion
1070
     0
  0
VISUALSTYLE
  5
A9
102
{ACAD_XDICTIONARY
360
269B
102
}
102
{ACAD_REACTORS
330
99
102
}
330
99
100
AcDbVisualStyle
  2

 70
    16
 71
     2
 72
     2
 73
     3
 90
        0
 40
-0.6
 41
-30.0
 62
     5
 63
     8
 74
     1
 91
        4
 64
     7
 65
   257
 75
     1
175
     1
 42
1.0
 92
        8
 66
     8
 43
1.0
 76
     1
 77
     6
 78
     2
 67
     7
 79
     5
170
     0
171
     0
290
     0
174
     0
 93
        1
 44
0.0
173
     0
291
     1
 45
0.0
1001
ACAD
1000
AcDbSavedByObjectVersion
1070
     0
  0
VISUALSTYLE
  5
A2
102
{ACAD_XDICTIONARY
360
268D
102
}
102
{ACAD_REACTORS
330
99
102
}
330
99
100
AcDbVisualStyle
  2

 70
     9
 71
     3
 72
     2
 73
     1
 90
        0
 40
-0.6
 41
-30.0
 62
     5
 63
     7
 74
     2
 91
        2
 64
     7
 65
   257
 75
     1
175
     1
 42
40.0
 92
        8
 66
     7
 43
1.0
 76
     1
 77
     6
 78
     2
 67
     7
 79
     3
170
     0
171
     0
290
     0
174
     0
 93
        1
 44
0.0
173
     0
291
     0
 45
0.0
1001
ACAD
1000
AcDbSavedByObjectVersion
1070
     0
  0
VISUALSTYLE
  5
A4
102
{ACAD_XDICTIONARY
360
2691
102
}
102
{ACAD_REACTORS
330
99
102
}
330
99
100
AcDbVisualStyle
  2

 70
    11
 71
     2
 72
     2
 73
     1
 90
        0
 40
-0.6
 41
-30.0
 62
     5
 63
     7
 74
     1
 91
        4
 64
     7
 65
   257
 75
     1
175
     1
 42
1.0
 92
        8
 66
     7
 43
1.0
 76
     1
 77
     6
 78
     2
 67
     7
 79
     5
170
     0
171
     0
290
     0
174
     0
 93
        1
 44
-50.0
173
     0
291
     1
 45
0.0
1001
ACAD
1000
AcDbSavedByObjectVersion
1070
     0
  0
VISUALSTYLE
  5
155
102
{ACAD_XDICTIONARY
360
26AF
102
}
102
{ACAD_REACTORS
330
99
102
}
330
99
100
AcDbVisualStyle
  2

 70
    22
 71
     2
 72
     2
 73
     0
 90
        0
 40
-0.6
 41
-30.0
 62
     5
 63
     7
 74
     1
 91
        4
 64
     7
 65
   257
 75
     1
175
     1
 42
1.0
 92
        8
 66
     7
 43
1.0
 76
     1
 77
     6
 78
     2
 67
     7
 79
     5
170
     0
171
     0
290
     0
174
     0
 93
        1
 44
0.0
173
     0
291
     1
 45
0.0
1001
ACAD
1000
AcDbSavedByObjectVersion
1070
     0
  0
VISUALSTYLE
  5
A8
102
{ACAD_XDICTIONARY
360
2699
102
}
102
{ACAD_REACTORS
330
99
102
}
330
99
100
AcDbVisualStyle
  2

 70
    15
 71
     2
 72
     2
 73
     1
 90
        0
 40
-0.6
 41
-30.0
 62
     5
 63
     7
 74
     1
 91
        4
 64
     7
 65
   257
 75
     1
175
     1
 42
1.0
 92
        8
 66
     7
 43
1.0
 76
     1
 77
     6
 78
     2
 67
     7
 79
     5
170
     0
171
     0
290
     0
174
     0
 93
        1
 44
0.0
173
     0
291
     1
 45
0.0
1001
ACAD
1000
AcDbSavedByObjectVersion
1070
     0
  0
VISUALSTYLE
  5
9A
102
{ACAD_XDICTIONARY
360
267D
102
}
102
{ACAD_REACTORS
330
99
102
}
330
99
100
AcDbVisualStyle
  2

 70
     0
 71
     2
 72
     1
 73
     1
 90
        2
 40
-0.6
 41
30.0
 62
     5
 63
     7
 74
     0
 91
        4
 64
     7
 65
   257
 75
     1
175
     1
 42
1.0
 92
        8
 66
     7
 43
1.0
 76
     1
 77
     6
 78
     2
 67
     7
 79
     5
170
     0
171
     0
290
     0
174
     0
 93
        1
 44
0.0
173
     0
291
     1
 45
0.0
1001
ACAD
1000
AcDbSavedByObjectVersion
1070
     0
  0
VISUALSTYLE
  5
9B
102
{ACAD_XDICTIONARY
360
267F
102
}
102
{ACAD_REACTORS
330
99
102
}
330
99
100
AcDbVisualStyle
  2

 70
     1
 71
     2
 72
     1
 73
     1
 90
        2
 40
-0.6
 41
30.0
 62
     5
 63
     7
 74
     1
 91
        4
 64
     7
 65
   257
 75
     1
175
     1
 42
1.0
 92
        0
 66
   257
 43
1.0
 76
     1
 77
     6
 78
     2
 67
     7
 79
     5
170
     0
171
     0
290
     0
174
     0
 93
        1
 44
0.0
173
     0
291
     1
 45
0.0
1001
ACAD
1000
AcDbSavedByObjectVersion
1070
     0
  0
VISUALSTYLE
  5
9C
102
{ACAD_XDICTIONARY
360
2681
102
}
102
{ACAD_REACTORS
330
99
102
}
330
99
100
AcDbVisualStyle
  2

 70
     2
 71
     2
 72
     2
 73
     1
 90
        2
 40
-0.6
 41
30.0
 62
     5
 63
     7
 74
     0
 91
        4
 64
     7
 65
   257
 75
     1
175
     1
 42
1.0
 92
        0
 66
     7
 43
1.0
 76
     1
 77
     6
 78
     2
 67
     7
 79
     5
170
     0
171
     0
290
     0
174
     0
 93
        1
 44
0.0
173
     0
291
     1
 45
0.0
1001
ACAD
1000
AcDbSavedByObjectVersion
1070
     0
  0
VISUALSTYLE
  5
9D
102
{ACAD_XDICTIONARY
360
2683
102
}
102
{ACAD_REACTORS
330
99
102
}
330
99
100
AcDbVisualStyle
  2

 70
     3
 71
     2
 72
     2
 73
     1
 90
        2
 40
-0.6
 41
30.0
 62
     5
 63
     7
 74
     1
 91
        4
 64
     7
 65
   257
 75
     1
175
     1
 42
1.0
 92
        0
 66
   257
 43
1.0
 76
     1
 77
     6
 78
     2
 67
     7
 79
     5
170
     0
171
     0
290
     0
174
     0
 93
        1
 44
0.0
173
     0
291
     1
 45
0.0
1001
ACAD
1000
AcDbSavedByObjectVersion
1070
     0
  0
VISUALSTYLE
  5
14D
102
{ACAD_XDICTIONARY
360
269F
102
}
102
{ACAD_REACTORS
330
99
102
}
330
99
100
AcDbVisualStyle
  2

 70
     6
 71
     1
 72
     2
 73
     2
 90
        0
 40
-0.6
 41
-30.0
 62
     5
 63
     7
 74
     2
 91
        2
 64
     7
 65
   257
 75
     2
175
     1
 42
40.0
 92
        0
 66
   257
 43
1.0
 76
     1
 77
     6
 78
     2
 67
     7
 79
     3
170
     0
171
     0
290
     0
174
     0
 93
        1
 44
0.0
173
     0
291
     0
 45
0.0
1001
ACAD
1000
AcDbSavedByObjectVersion
1070
     0
  0
VISUALSTYLE
  5
153
102
{ACAD_XDICTIONARY
360
26AB
102
}
102
{ACAD_REACTORS
330
99
102
}
330
99
100
AcDbVisualStyle
  2

 70
    20
 71
     2
 72
     2
 73
     0
 90
        0
 40
-0.6
 41
-30.0
 62
     5
 63
     7
 74
     1
 91
        4
 64
     7
 65
   257
 75
     1
175
     1
 42
1.0
 92
       10
 66
     7
 43
1.0
 76
     1
 77
     6
 78
     2
 67
     7
 79
     5
170
     0
171
     0
290
     0
174
     0
 93
        1
 44
0.0
173
     0
291
     1
 45
0.0
1001
ACAD
1000
AcDbSavedByObjectVersion
1070
     0
  0
VISUALSTYLE
  5
A7
102
{ACAD_XDICTIONARY
360
2697
102
}
102
{ACAD_REACTORS
330
99
102
}
330
99
100
AcDbVisualStyle
  2

 70
    14
 71
     2
 72
     2
 73
     1
 90
        0
 40
-0.6
 41
-30.0
 62
     5
 63
     7
 74
     1
 91
        4
 64
     7
 65
   257
 75
     7
175
     7
 42
1.0
 92
        8
 66
     7
 43
1.0
 76
     1
 77
     6
 78
     2
 67
     7
 79
     5
170
     0
171
     0
290
     0
174
     0
 93
        1
 44
0.0
173
     0
291
     1
 45
0.0
1001
ACAD
1000
AcDbSavedByObjectVersion
1070
     0
  0
VISUALSTYLE
  5
154
102
{ACAD_XDICTIONARY
360
26AD
102
}
102
{ACAD_REACTORS
330
99
102
}
330
99
100
AcDbVisualStyle
  2

 70
    21
 71
     2
 72
     2
 73
     0
 90
        0
 40
-0.6
 41
-30.0
 62
     5
 63
     7
 74
     1
 91
        4
 64
     7
 65
   257
 75
     1
175
     1
 42
1.0
 92
        9
 66
     7
 43
1.0
 76
     1
 77
     6
 78
     2
 67
     7
 79
     5
170
     0
171
     0
290
     0
174
     0
 93
        1
 44
0.0
173
     0
291
     1
 45
0.0
1001
ACAD
1000
AcDbSavedByObjectVersion
1070
     0
  0
VISUALSTYLE
  5
A3
102
{ACAD_XDICTIONARY
360
268F
102
}
102
{ACAD_REACTORS
330
99
102
}
330
99
100
AcDbVisualStyle
  2

 70
     8
 71
     2
 72
     2
 73
     1
 90
        0
 40
-0.6
 41
-30.0
 62
     5
 63
     7
 74
     1
 91
        0
 64
     7
 65
   257
 75
     1
175
     1
 42
1.0
 92
        8
 66
     8
 43
1.0
 76
     1
 77
     6
 78
     2
 67
     7
 79
     5
170
     0
171
     0
290
     0
174
     0
 93
       13
 44
0.0
173
     0
291
     0
 45
0.0
1001
ACAD
1000
AcDbSavedByObjectVersion
1070
     0
  0
VISUALSTYLE
  5
152
102
{ACAD_XDICTIONARY
360
26A9
102
}
102
{ACAD_REACTORS
330
99
102
}
330
99
100
AcDbVisualStyle
  2

 70
    27
 71
     2
 72
     2
 73
     1
 90
        2
 40
-0.6
 41
30.0
 62
     5
 63
     7
 74
     0
 91
        4
 64
     7
 65
   257
 75
     1
175
     1
 42
1.0
 92
        8
 66
   257
 43
1.0
 76
     1
 77
     6
 78
     2
 67
     8
 79
     3
170
     0
171
     0
290
     0
174
     0
 93
        5
 44
0.0
173
     0
291
     0
 45
0.0
1001
ACAD
1000
AcDbSavedByObjectVersion
1070
     0
  0
VISUALSTYLE
  5
151
102
{ACAD_XDICTIONARY
360
26A7
102
}
102
{ACAD_REACTORS
330
99
102
}
330
99
100
AcDbVisualStyle
  2

 70
    26
 71
     2
 72
     2
 73
     1
 90
        2
 40
-0.6
 41
30.0
 62
     5
 63
     7
 74
     1
 91
       10
 64
     7
 65
   257
 75
     2
175
     1
 42
1.0
 92
        8
 66
   257
 43
1.0
 76
     1
 77
     6
 78
     2
 67
     7
 79
     3
170
     0
171
     0
290
     0
174
     0
 93
        5
 44
0.0
173
     0
291
     0
 45
0.0
1001
ACAD
1000
AcDbSavedByObjectVersion
1070
     0
  0
VISUALSTYLE
  5
14E
102
{ACAD_XDICTIONARY
360
26A1
102
}
102
{ACAD_REACTORS
330
99
102
}
330
99
100
AcDbVisualStyle
  2

 70
    23
 71
     2
 72
     2
 73
     3
 90
        0
 40
-0.6
 41
-30.0
 62
     5
 63
     7
 74
     2
 91
        2
 64
     7
 65
     7
 75
     1
175
     1
 42
40.0
 92
        8
 66
     7
 43
1.0
 76
     1
 77
     6
 78
     2
 67
     7
 79
     3
170
     0
171
     0
290
     0
174
     0
 93
        1
 44
0.0
173
     0
291
     0
 45
0.0
1001
ACAD
1000
AcDbSavedByObjectVersion
1070
     0
  0
VISUALSTYLE
  5
14F
102
{ACAD_XDICTIONARY
360
26A3
102
}
102
{ACAD_REACTORS
330
99
102
}
330
99
100
AcDbVisualStyle
  2

 70
    24
 71
     1
 72
     2
 73
     2
 90
        0
 40
-0.6
 41
-30.0
 62
     5
 63
     7
 74
     2
 91
        2
 64
     7
 65
     7
 75
     1
175
     1
 42
40.0
 92
       11
 66
     7
 43
1.0
 76
     1
 77
     6
 78
     2
 67
     7
 79
     6
170
     0
171
     0
290
     0
174
     0
 93
        1
 44
0.0
173
     0
291
     0
 45
0.0
1001
ACAD
1000
AcDbSavedByObjectVersion
1070
     0
  0
VISUALSTYLE
  5
A6
102
{ACAD_XDICTIONARY
360
2695
102
}
102
{ACAD_REACTORS
330
99
102
}
330
99
100
AcDbVisualStyle
  2

 70
    13
 71
     2
 72
     2
 73
     1
 90
        0
 40
-0.6
 41
-30.0
 62
     5
 63
     7
 74
     1
 91
        4
 64
     7
 65
   257
 75
     1
175
     1
 42
1.0
 92
       12
 66
     7
 43
1.0
 76
     1
 77
     6
 78
     2
 67
     7
 79
     5
170
     0
171
     0
290
     0
174
     0
 93
        1
 44
0.0
173
     0
291
     1
 45
0.0
1001
ACAD
1000
AcDbSavedByObjectVersion
1070
     0
  0
VISUALSTYLE
  5
14C
102
{ACAD_XDICTIONARY
360
269D
102
}
102
{ACAD_REACTORS
330
99
102
}
330
99
100
AcDbVisualStyle
  2

 70
     5
 71
     0
 72
     2
 73
     0
 90
        0
 40
-0.6
 41
-30.0
 62
     5
 63
     7
 74
     1
 91
        4
 64
     7
 65
   257
 75
     1
175
     1
 42
1.0
 92
        0
 66
   257
 43
1.0
 76
     1
 77
     6
 78
     2
 67
     7
 79
     3
170
     0
171
     0
290
     0
174
     0
 93
        1
 44
0.0
173
     0
291
     0
 45
0.0
1001
ACAD
1000
AcDbSavedByObjectVersion
1070
     0
  0
VISUALSTYLE
  5
150
102
{ACAD_XDICTIONARY
360
26A5
102
}
102
{ACAD_REACTORS
330
99
102
}
330
99
100
AcDbVisualStyle
  2

 70
    25
 71
     2
 72
     2
 73
     1
 90
        1
 40
0.5
 41
-30.0
 62
     5
 63
     7
 74
     1
 91
        0
 64
     7
 65
   257
 75
     1
175
     1
 42
1.0
 92
        8
 66
     7
 43
1.0
 76
     1
 77
     6
 78
     2
 67
     7
 79
     3
170
     0
171
     0
290
     0
174
     0
 93
       13
 44
0.0
173
     0
291
     0
 45
0.0
1001
ACAD
1000
AcDbSavedByObjectVersion
1070
     0
  0
DICTIONARYVAR
  5
8A6
102
{ACAD_REACTORS
330
66
102
}
330
66
100
DictionaryVariables
280
     0
  1
1:1
  0
DICTIONARYVAR
  5
8A5
102
{ACAD_REACTORS
330
66
102
}
330
66
100
DictionaryVariables
280
     0
  1
STANDARD
  0
DICTIONARYVAR
  5
89
102
{ACAD_REACTORS
330
66
102
}
330
66
100
DictionaryVariables
280
     0
  1
STANDARD
  0
DICTIONARYVAR
  5
67
102
{ACAD_REACTORS
330
66
102
}
330
66
100
DictionaryVariables
280
     0
  1
2
  0
DICTIONARYVAR
  5
6B
102
{ACAD_REACTORS
330
66
102
}
330
66
100
DictionaryVariables
280
     0
  1
1
  0
DICTIONARYVAR
  5
8A8
102
{ACAD_REACTORS
330
66
102
}
330
66
100
DictionaryVariables
280
     0
  1
0
  0
DICTIONARYVAR
  5
8A7
102
{ACAD_REACTORS
330
66
102
}
330
66
100
DictionaryVariables
280
     0
  1
127
  0
DICTIONARYVAR
  5
24AF
102
{ACAD_REACTORS
330
66
102
}
330
66
100
DictionaryVariables
280
     0
  1
2
  0
DICTIONARY
  5
2676
330
22
100
AcDbDictionary
280
     1
281
     1
  3
ACAD_XREC_ROUNDTRIP
360
2677
  0
DICTIONARY
  5
2678
330
59
100
AcDbDictionary
280
     1
281
     1
  3
ACAD_XREC_ROUNDTRIP
360
2679
  0
DICTIONARY
  5
267A
330
5E
100
AcDbDictionary
280
     1
281
     1
  3
ACAD_XREC_ROUNDTRIP
360
267B
  0
DICTIONARY
  5
917
330
97
100
AcDbDictionary
280
     1
281
     1
  3
ACAD_XREC_ROUNDTRIP
360
918
  0
DICTIONARY
  5
915
330
96
100
AcDbDictionary
280
     1
281
     1
  3
ACAD_XREC_ROUNDTRIP
360
916
  0
DICTIONARY
  5
919
330
98
100
AcDbDictionary
280
     1
281
     1
  3
ACAD_XREC_ROUNDTRIP
360
91A
  0
DICTIONARY
  5
906
330
87
100
AcDbDictionary
280
     1
281
     1
  3
ACAD_ROUNDTRIP_2008_TABLESTYLE_CELLSTYLEMAP
360
266E
  3
ACAD_XREC_ROUNDTRIP
360
267C
  0
DICTIONARY
  5
2268
330
2267
100
AcDbDictionary
280
     1
281
     1
  3
ACAD_ROUNDTRIP_2008_TABLESTYLE_CELLSTYLEMAP
360
266F
  3
ACAD_XREC_ROUNDTRIP
360
26B1
  0
DICTIONARY
  5
2687
330
9F
100
AcDbDictionary
280
     1
281
     1
  3
ACAD_XREC_ROUNDTRIP
360
2688
  0
DICTIONARY
  5
268B
330
A1
100
AcDbDictionary
280
     1
281
     1
  3
ACAD_XREC_ROUNDTRIP
360
268C
  0
DICTIONARY
  5
2689
330
A0
100
AcDbDictionary
280
     1
281
     1
  3
ACAD_XREC_ROUNDTRIP
360
268A
  0
DICTIONARY
  5
2685
330
9E
100
AcDbDictionary
280
     1
281
     1
  3
ACAD_XREC_ROUNDTRIP
360
2686
  0
DICTIONARY
  5
2693
330
A5
100
AcDbDictionary
280
     1
281
     1
  3
ACAD_XREC_ROUNDTRIP
360
2694
  0
DICTIONARY
  5
269B
330
A9
100
AcDbDictionary
280
     1
281
     1
  3
ACAD_XREC_ROUNDTRIP
360
269C
  0
DICTIONARY
  5
268D
330
A2
100
AcDbDictionary
280
     1
281
     1
  3
ACAD_XREC_ROUNDTRIP
360
268E
  0
DICTIONARY
  5
2691
330
A4
100
AcDbDictionary
280
     1
281
     1
  3
ACAD_XREC_ROUNDTRIP
360
2692
  0
DICTIONARY
  5
26AF
330
155
100
AcDbDictionary
280
     1
281
     1
  3
ACAD_XREC_ROUNDTRIP
360
26B0
  0
DICTIONARY
  5
2699
330
A8
100
AcDbDictionary
280
     1
281
     1
  3
ACAD_XREC_ROUNDTRIP
360
269A
  0
DICTIONARY
  5
267D
330
9A
100
AcDbDictionary
280
     1
281
     1
  3
ACAD_XREC_ROUNDTRIP
360
267E
  0
DICTIONARY
  5
267F
330
9B
100
AcDbDictionary
280
     1
281
     1
  3
ACAD_XREC_ROUNDTRIP
360
2680
  0
DICTIONARY
  5
2681
330
9C
100
AcDbDictionary
280
     1
281
     1
  3
ACAD_XREC_ROUNDTRIP
360
2682
  0
DICTIONARY
  5
2683
330
9D
100
AcDbDictionary
280
     1
281
     1
  3
ACAD_XREC_ROUNDTRIP
360
2684
  0
DICTIONARY
  5
269F
330
14D
100
AcDbDictionary
280
     1
281
     1
  3
ACAD_XREC_ROUNDTRIP
360
26A0
  0
DICTIONARY
  5
26AB
330
153
100
AcDbDictionary
280
     1
281
     1
  3
ACAD_XREC_ROUNDTRIP
360
26AC
  0
DICTIONARY
  5
2697
330
A7
100
AcDbDictionary
280
     1
281
     1
  3
ACAD_XREC_ROUNDTRIP
360
2698
  0
DICTIONARY
  5
26AD
330
154
100
AcDbDictionary
280
     1
281
     1
  3
ACAD_XREC_ROUNDTRIP
360
26AE
  0
DICTIONARY
  5
268F
330
A3
100
AcDbDictionary
280
     1
281
     1
  3
ACAD_XREC_ROUNDTRIP
360
2690
  0
DICTIONARY
  5
26A9
330
152
100
AcDbDictionary
280
     1
281
     1
  3
ACAD_XREC_ROUNDTRIP
360
26AA
  0
DICTIONARY
  5
26A7
330
151
100
AcDbDictionary
280
     1
281
     1
  3
ACAD_XREC_ROUNDTRIP
360
26A8
  0
DICTIONARY
  5
26A1
330
14E
100
AcDbDictionary
280
     1
281
     1
  3
ACAD_XREC_ROUNDTRIP
360
26A2
  0
DICTIONARY
  5
26A3
330
14F
100
AcDbDictionary
280
     1
281
     1
  3
ACAD_XREC_ROUNDTRIP
360
26A4
  0
DICTIONARY
  5
2695
330
A6
100
AcDbDictionary
280
     1
281
     1
  3
ACAD_XREC_ROUNDTRIP
360
2696
  0
DICTIONARY
  5
269D
330
14C
100
AcDbDictionary
280
     1
281
     1
  3
ACAD_XREC_ROUNDTRIP
360
269E
  0
DICTIONARY
  5
26A5
330
150
100
AcDbDictionary
280
     1
281
     1
  3
ACAD_XREC_ROUNDTRIP
360
26A6
  0
XRECORD
  5
2677
102
{ACAD_REACTORS
330
2676
102
}
330
2676
100
AcDbXrecord
280
     1
102
SHADEPLOT
 70
     0
102
SHADEPLOTRESLEVEL
 70
     2
102
SHADEPLOTCUSTOMDPI
 70
   300
  0
XRECORD
  5
2679
102
{ACAD_REACTORS
330
2678
102
}
330
2678
100
AcDbXrecord
280
     1
102
SHADEPLOT
 70
     0
102
SHADEPLOTRESLEVEL
 70
     2
102
SHADEPLOTCUSTOMDPI
 70
   300
  0
XRECORD
  5
267B
102
{ACAD_REACTORS
330
267A
102
}
330
267A
100
AcDbXrecord
280
     1
102
SHADEPLOT
 70
     0
102
SHADEPLOTRESLEVEL
 70
     2
102
SHADEPLOTCUSTOMDPI
 70
   300
  0
XRECORD
  5
918
102
{ACAD_REACTORS
330
917
102
}
330
917
100
AcDbXrecord
280
     1
102
MATERIAL
148
0.0
149
0.0
149
0.0
 93
        0
 94
      127
282
     0
 72
     1
 77
     1
171
     1
175
     1
179
     1
273
     0
  0
XRECORD
  5
916
102
{ACAD_REACTORS
330
915
102
}
330
915
100
AcDbXrecord
280
     1
102
MATERIAL
148
0.0
149
0.0
149
0.0
 93
        0
 94
      127
282
     0
 72
     1
 77
     1
171
     1
175
     1
179
     1
273
     0
  0
XRECORD
  5
91A
102
{ACAD_REACTORS
330
919
102
}
330
919
100
AcDbXrecord
280
     1
102
MATERIAL
148
0.0
149
0.0
149
0.0
 93
        0
 94
      127
282
     0
 72
     1
 77
     1
171
     1
175
     1
179
     1
273
     0
  0
CELLSTYLEMAP
  5
266E
102
{ACAD_REACTORS
330
906
102
}
330
906
100
AcDbCellStyleMap
 90
        3
300
CELLSTYLE
  1
TABLEFORMAT_BEGIN
 90
        5
170
     1
 91
        0
 92
    32768
 62
   257
 93
        1
300
CONTENTFORMAT
  1
CONTENTFORMAT_BEGIN
 90
        0
 91
        0
 92
      512
 93
        0
300

 40
0.0
140
1.0
 94
        5
 62
     0
340
11
144
0.25
309
CONTENTFORMAT_END
171
     1
301
MARGIN
  1
CELLMARGIN_BEGIN
 40
0.06
 40
0.06
 40
0.06
 40
0.06
 40
0.18
 40
0.18
309
CELLMARGIN_END
 94
        6
 95
        1
302
GRIDFORMAT
  1
GRIDFORMAT_BEGIN
 90
        0
 91
        1
 62
     0
 92
       -2
340
0
 93
        0
 40
0.045
309
GRIDFORMAT_END
 95
        2
302
GRIDFORMAT
  1
GRIDFORMAT_BEGIN
 90
        0
 91
        1
 62
     0
 92
       -2
340
0
 93
        0
 40
0.045
309
GRIDFORMAT_END
 95
        4
302
GRIDFORMAT
  1
GRIDFORMAT_BEGIN
 90
        0
 91
        1
 62
     0
 92
       -2
340
0
 93
        0
 40
0.045
309
GRIDFORMAT_END
 95
        8
302
GRIDFORMAT
  1
GRIDFORMAT_BEGIN
 90
        0
 91
        1
 62
     0
 92
       -2
340
0
 93
        0
 40
0.045
309
GRIDFORMAT_END
 95
       16
302
GRIDFORMAT
  1
GRIDFORMAT_BEGIN
 90
        0
 91
        1
 62
     0
 92
       -2
340
0
 93
        0
 40
0.045
309
GRIDFORMAT_END
 95
       32
302
GRIDFORMAT
  1
GRIDFORMAT_BEGIN
 90
        0
 91
        1
 62
     0
 92
       -2
340
0
 93
        0
 40
0.045
309
GRIDFORMAT_END
309
TABLEFORMAT_END
  1
CELLSTYLE_BEGIN
 90
        1
 91
        1
300
_TITLE
309
CELLSTYLE_END
300
CELLSTYLE
  1
TABLEFORMAT_BEGIN
 90
        5
170
     1
 91
        0
 92
        0
 62
   257
 93
        1
300
CONTENTFORMAT
  1
CONTENTFORMAT_BEGIN
 90
        0
 91
        0
 92
      512
 93
        0
300

 40
0.0
140
1.0
 94
        5
 62
     0
340
11
144
0.18
309
CONTENTFORMAT_END
171
     1
301
MARGIN
  1
CELLMARGIN_BEGIN
 40
0.06
 40
0.06
 40
0.06
 40
0.06
 40
0.18
 40
0.18
309
CELLMARGIN_END
 94
        6
 95
        1
302
GRIDFORMAT
  1
GRIDFORMAT_BEGIN
 90
        0
 91
        1
 62
     0
 92
       -2
340
0
 93
        0
 40
0.045
309
GRIDFORMAT_END
 95
        2
302
GRIDFORMAT
  1
GRIDFORMAT_BEGIN
 90
        0
 91
        1
 62
     0
 92
       -2
340
0
 93
        0
 40
0.045
309
GRIDFORMAT_END
 95
        4
302
GRIDFORMAT
  1
GRIDFORMAT_BEGIN
 90
        0
 91
        1
 62
     0
 92
       -2
340
0
 93
        0
 40
0.045
309
GRIDFORMAT_END
 95
        8
302
GRIDFORMAT
  1
GRIDFORMAT_BEGIN
 90
        0
 91
        1
 62
     0
 92
       -2
340
0
 93
        0
 40
0.045
309
GRIDFORMAT_END
 95
       16
302
GRIDFORMAT
  1
GRIDFORMAT_BEGIN
 90
        0
 91
        1
 62
     0
 92
       -2
340
0
 93
        0
 40
0.045
309
GRIDFORMAT_END
 95
       32
302
GRIDFORMAT
  1
GRIDFORMAT_BEGIN
 90
        0
 91
        1
 62
     0
 92
       -2
340
0
 93
        0
 40
0.045
309
GRIDFORMAT_END
309
TABLEFORMAT_END
  1
CELLSTYLE_BEGIN
 90
        2
 91
        1
300
_HEADER
309
CELLSTYLE_END
300
CELLSTYLE
  1
TABLEFORMAT_BEGIN
 90
        5
170
     1
 91
        0
 92
        0
 62
   257
 93
        1
300
CONTENTFORMAT
  1
CONTENTFORMAT_BEGIN
 90
        0
 91
        0
 92
      512
 93
        0
300

 40
0.0
140
1.0
 94
        2
 62
     0
340
11
144
0.18
309
CONTENTFORMAT_END
171
     1
301
MARGIN
  1
CELLMARGIN_BEGIN
 40
0.06
 40
0.06
 40
0.06
 40
0.06
 40
0.18
 40
0.18
309
CELLMARGIN_END
 94
        6
 95
        1
302
GRIDFORMAT
  1
GRIDFORMAT_BEGIN
 90
        0
 91
        1
 62
     0
 92
       -2
340
0
 93
        0
 40
0.045
309
GRIDFORMAT_END
 95
        2
302
GRIDFORMAT
  1
GRIDFORMAT_BEGIN
 90
        0
 91
        1
 62
     0
 92
       -2
340
0
 93
        0
 40
0.045
309
GRIDFORMAT_END
 95
        4
302
GRIDFORMAT
  1
GRIDFORMAT_BEGIN
 90
        0
 91
        1
 62
     0
 92
       -2
340
0
 93
        0
 40
0.045
309
GRIDFORMAT_END
 95
        8
302
GRIDFORMAT
  1
GRIDFORMAT_BEGIN
 90
        0
 91
        1
 62
     0
 92
       -2
340
0
 93
        0
 40
0.045
309
GRIDFORMAT_END
 95
       16
302
GRIDFORMAT
  1
GRIDFORMAT_BEGIN
 90
        0
 91
        1
 62
     0
 92
       -2
340
0
 93
        0
 40
0.045
309
GRIDFORMAT_END
 95
       32
302
GRIDFORMAT
  1
GRIDFORMAT_BEGIN
 90
        0
 91
        1
 62
     0
 92
       -2
340
0
 93
        0
 40
0.045
309
GRIDFORMAT_END
309
TABLEFORMAT_END
  1
CELLSTYLE_BEGIN
 90
        3
 91
        2
300
_DATA
309
CELLSTYLE_END
  0
XRECORD
  5
267C
102
{ACAD_REACTORS
330
906
102
}
330
906
100
AcDbXrecord
280
     1
102
ACAD_ROUNDTRIP_PRE2007_TABLESTYLE
 90
      512
 91
        0
  1

 92
      512
 93
        0
  2

 94
      512
 95
        0
  3

  0
CELLSTYLEMAP
  5
266F
102
{ACAD_REACTORS
330
2268
102
}
330
2268
100
AcDbCellStyleMap
 90
        3
300
CELLSTYLE
  1
TABLEFORMAT_BEGIN
 90
        5
170
     1
 91
        0
 92
    32768
 62
   257
 93
        1
300
CONTENTFORMAT
  1
CONTENTFORMAT_BEGIN
 90
        0
 91
        0
 92
      512
 93
        0
300

 40
0.0
140
1.0
 94
        8
 62
     3
340
11D
144
0.25
309
CONTENTFORMAT_END
171
     1
301
MARGIN
  1
CELLMARGIN_BEGIN
 40
0.5
 40
10.0
 40
0.06
 40
0.06
 40
0.18
 40
0.18
309
CELLMARGIN_END
 94
        6
 95
        1
302
GRIDFORMAT
  1
GRIDFORMAT_BEGIN
 90
        0
 91
        1
 62
     0
 92
       -2
340
0
 93
        0
 40
0.045
309
GRIDFORMAT_END
 95
        2
302
GRIDFORMAT
  1
GRIDFORMAT_BEGIN
 90
        0
 91
        1
 62
     0
 92
       -2
340
0
 93
        0
 40
0.045
309
GRIDFORMAT_END
 95
        4
302
GRIDFORMAT
  1
GRIDFORMAT_BEGIN
 90
        0
 91
        1
 62
     0
 92
       -2
340
0
 93
        0
 40
0.045
309
GRIDFORMAT_END
 95
        8
302
GRIDFORMAT
  1
GRIDFORMAT_BEGIN
 90
        0
 91
        1
 62
     0
 92
       -2
340
0
 93
        0
 40
0.045
309
GRIDFORMAT_END
 95
       16
302
GRIDFORMAT
  1
GRIDFORMAT_BEGIN
 90
        0
 91
        1
 62
     0
 92
       -2
340
0
 93
        0
 40
0.045
309
GRIDFORMAT_END
 95
       32
302
GRIDFORMAT
  1
GRIDFORMAT_BEGIN
 90
        0
 91
        1
 62
     0
 92
       -2
340
0
 93
        0
 40
0.045
309
GRIDFORMAT_END
309
TABLEFORMAT_END
  1
CELLSTYLE_BEGIN
 90
        1
 91
        1
300
_TITLE
309
CELLSTYLE_END
300
CELLSTYLE
  1
TABLEFORMAT_BEGIN
 90
        5
170
     1
 91
        0
 92
        0
 62
   257
 93
        1
300
CONTENTFORMAT
  1
CONTENTFORMAT_BEGIN
 90
        0
 91
        0
 92
      512
 93
        0
300

 40
0.0
140
1.0
 94
        7
 62
     3
340
11D
144
0.18
309
CONTENTFORMAT_END
171
     1
301
MARGIN
  1
CELLMARGIN_BEGIN
 40
0.5
 40
1.5
 40
0.06
 40
0.06
 40
0.18
 40
0.18
309
CELLMARGIN_END
 94
        6
 95
        1
302
GRIDFORMAT
  1
GRIDFORMAT_BEGIN
 90
        0
 91
        1
 62
     3
 92
       -2
340
14
 93
        0
 40
0.045
309
GRIDFORMAT_END
 95
        2
302
GRIDFORMAT
  1
GRIDFORMAT_BEGIN
 90
        0
 91
        1
 62
     7
 92
       -2
340
14
 93
        0
 40
0.045
309
GRIDFORMAT_END
 95
        4
302
GRIDFORMAT
  1
GRIDFORMAT_BEGIN
 90
        0
 91
        1
 62
     3
 92
       -2
340
14
 93
        0
 40
0.045
309
GRIDFORMAT_END
 95
        8
302
GRIDFORMAT
  1
GRIDFORMAT_BEGIN
 90
        0
 91
        1
 62
     3
 92
       -2
340
14
 93
        0
 40
0.045
309
GRIDFORMAT_END
 95
       16
302
GRIDFORMAT
  1
GRIDFORMAT_BEGIN
 90
        0
 91
        1
 62
     7
 92
       -2
340
14
 93
        0
 40
0.045
309
GRIDFORMAT_END
 95
       32
302
GRIDFORMAT
  1
GRIDFORMAT_BEGIN
 90
        0
 91
        1
 62
     3
 92
       -2
340
14
 93
        0
 40
0.045
309
GRIDFORMAT_END
309
TABLEFORMAT_END
  1
CELLSTYLE_BEGIN
 90
        2
 91
        1
300
_HEADER
309
CELLSTYLE_END
300
CELLSTYLE
  1
TABLEFORMAT_BEGIN
 90
        5
170
     1
 91
        0
 92
        0
 62
   257
 93
        1
300
CONTENTFORMAT
  1
CONTENTFORMAT_BEGIN
 90
        0
 91
        0
 92
      512
 93
        0
300

 40
0.0
140
1.0
 94
        7
 62
     3
340
11D
144
0.18
309
CONTENTFORMAT_END
171
     1
301
MARGIN
  1
CELLMARGIN_BEGIN
 40
0.5
 40
1.5
 40
0.06
 40
0.06
 40
0.18
 40
0.18
309
CELLMARGIN_END
 94
        6
 95
        1
302
GRIDFORMAT
  1
GRIDFORMAT_BEGIN
 90
        0
 91
        1
 62
     3
 92
       -2
340
14
 93
        0
 40
0.045
309
GRIDFORMAT_END
 95
        2
302
GRIDFORMAT
  1
GRIDFORMAT_BEGIN
 90
        0
 91
        1
 62
     7
 92
       -2
340
14
 93
        0
 40
0.045
309
GRIDFORMAT_END
 95
        4
302
GRIDFORMAT
  1
GRIDFORMAT_BEGIN
 90
        0
 91
        1
 62
     3
 92
       -2
340
14
 93
        0
 40
0.045
309
GRIDFORMAT_END
 95
        8
302
GRIDFORMAT
  1
GRIDFORMAT_BEGIN
 90
        0
 91
        1
 62
     3
 92
       -2
340
14
 93
        0
 40
0.045
309
GRIDFORMAT_END
 95
       16
302
GRIDFORMAT
  1
GRIDFORMAT_BEGIN
 90
        0
 91
        1
 62
     7
 92
       -2
340
14
 93
        0
 40
0.045
309
GRIDFORMAT_END
 95
       32
302
GRIDFORMAT
  1
GRIDFORMAT_BEGIN
 90
        0
 91
        1
 62
     3
 92
       -2
340
14
 93
        0
 40
0.045
309
GRIDFORMAT_END
309
TABLEFORMAT_END
  1
CELLSTYLE_BEGIN
 90
        3
 91
        2
300
_DATA
309
CELLSTYLE_END
  0
XRECORD
  5
26B1
102
{ACAD_REACTORS
330
2268
102
}
330
2268
100
AcDbXrecord
280
     1
102
ACAD_ROUNDTRIP_PRE2007_TABLESTYLE
 90
      512
 91
        0
  1

 92
      512
 93
        0
  2

 94
      512
 95
        0
  3

  0
XRECORD
  5
2688
102
{ACAD_REACTORS
330
2687
102
}
330
2687
100
AcDbXrecord
280
     1
102
RTVSPropertyOp0
 70
     1
102
RTVSPropertyOp1
 70
     1
102
RTVSPropertyOp2
 70
     1
102
RTVSPropertyOp3
 70
     1
102
RTVSPropertyOp4
 70
     1
102
RTVSPropertyOp5
 70
     1
102
RTVSPropertyOp6
 70
     1
102
RTVSPropertyOp7
 70
     1
102
RTVSPropertyOp8
 70
     1
102
RTVSPropertyOp9
 70
     1
102
RTVSPropertyOp10
 70
     1
102
RTVSPropertyOp11
 70
     1
102
RTVSPropertyOp12
 70
     1
102
RTVSPropertyOp13
 70
     1
102
RTVSPropertyOp14
 70
     1
102
RTVSPropertyOp15
 70
     1
102
RTVSPropertyOp16
 70
     1
102
RTVSPropertyOp17
 70
     1
102
RTVSPropertyOp18
 70
     1
102
RTVSPropertyOp19
 70
     1
102
RTVSPropertyOp20
 70
     1
102
RTVSPropertyOp21
 70
     1
102
RTVSPropertyOp22
 70
     1
102
RTVSPropertyOp23
 70
     1
102
RTVSPropertyOp24
 70
     1
102
RTVSPropertyOp25
 70
     1
102
RTVSPropertyOp26
 70
     1
102
RTVSPropertyOp27
 70
     1
102
RTVSPropertyOp28
 70
     1
102
RTVSPropertyOp29
 70
     1
102
RTVSPropertyOp30
 70
     1
102
RTVSPropertyOp31
 70
     1
102
RTVSPropertyOp32
 70
     1
  0
XRECORD
  5
268C
102
{ACAD_REACTORS
330
268B
102
}
330
268B
100
AcDbXrecord
280
     1
102
RTVSPropertyOp0
 70
     1
102
RTVSPropertyOp1
 70
     1
102
RTVSPropertyOp2
 70
     1
102
RTVSPropertyOp3
 70
     1
102
RTVSPropertyOp4
 70
     1
102
RTVSPropertyOp5
 70
     1
102
RTVSPropertyOp6
 70
     1
102
RTVSPropertyOp7
 70
     1
102
RTVSPropertyOp8
 70
     1
102
RTVSPropertyOp9
 70
     1
102
RTVSPropertyOp10
 70
     1
102
RTVSPropertyOp11
 70
     1
102
RTVSPropertyOp12
 70
     1
102
RTVSPropertyOp13
 70
     1
102
RTVSPropertyOp14
 70
     1
102
RTVSPropertyOp15
 70
     1
102
RTVSPropertyOp16
 70
     1
102
RTVSPropertyOp17
 70
     1
102
RTVSPropertyOp18
 70
     1
102
RTVSPropertyOp19
 70
     1
102
RTVSPropertyOp20
 70
     1
102
RTVSPropertyOp21
 70
     1
102
RTVSPropertyOp22
 70
     1
102
RTVSPropertyOp23
 70
     1
102
RTVSPropertyOp24
 70
     1
102
RTVSPropertyOp25
 70
     1
102
RTVSPropertyOp26
 70
     1
102
RTVSPropertyOp27
 70
     1
102
RTVSPropertyOp28
 70
     1
102
RTVSPropertyOp29
 70
     1
102
RTVSPropertyOp30
 70
     1
102
RTVSPropertyOp31
 70
     1
102
RTVSPropertyOp32
 70
     1
  0
XRECORD
  5
268A
102
{ACAD_REACTORS
330
2689
102
}
330
2689
100
AcDbXrecord
280
     1
102
RTVSPropertyOp0
 70
     1
102
RTVSPropertyOp1
 70
     1
102
RTVSPropertyOp2
 70
     1
102
RTVSPropertyOp3
 70
     1
102
RTVSPropertyOp4
 70
     1
102
RTVSPropertyOp5
 70
     1
102
RTVSPropertyOp6
 70
     1
102
RTVSPropertyOp7
 70
     1
102
RTVSPropertyOp8
 70
     1
102
RTVSPropertyOp9
 70
     1
102
RTVSPropertyOp10
 70
     1
102
RTVSPropertyOp11
 70
     1
102
RTVSPropertyOp12
 70
     1
102
RTVSPropertyOp13
 70
     1
102
RTVSPropertyOp14
 70
     1
102
RTVSPropertyOp15
 70
     1
102
RTVSPropertyOp16
 70
     1
102
RTVSPropertyOp17
 70
     1
102
RTVSPropertyOp18
 70
     1
102
RTVSPropertyOp19
 70
     1
102
RTVSPropertyOp20
 70
     1
102
RTVSPropertyOp21
 70
     1
102
RTVSPropertyOp22
 70
     1
102
RTVSPropertyOp23
 70
     1
102
RTVSPropertyOp24
 70
     1
102
RTVSPropertyOp25
 70
     1
102
RTVSPropertyOp26
 70
     1
102
RTVSPropertyOp27
 70
     1
102
RTVSPropertyOp28
 70
     1
102
RTVSPropertyOp29
 70
     1
102
RTVSPropertyOp30
 70
     1
102
RTVSPropertyOp31
 70
     1
102
RTVSPropertyOp32
 70
     1
  0
XRECORD
  5
2686
102
{ACAD_REACTORS
330
2685
102
}
330
2685
100
AcDbXrecord
280
     1
102
RTVSPropertyOp0
 70
     1
102
RTVSPropertyOp1
 70
     1
102
RTVSPropertyOp2
 70
     1
102
RTVSPropertyOp3
 70
     1
102
RTVSPropertyOp4
 70
     1
102
RTVSPropertyOp5
 70
     1
102
RTVSPropertyOp6
 70
     1
102
RTVSPropertyOp7
 70
     1
102
RTVSPropertyOp8
 70
     1
102
RTVSPropertyOp9
 70
     1
102
RTVSPropertyOp10
 70
     1
102
RTVSPropertyOp11
 70
     1
102
RTVSPropertyOp12
 70
     1
102
RTVSPropertyOp13
 70
     1
102
RTVSPropertyOp14
 70
     1
102
RTVSPropertyOp15
 70
     1
102
RTVSPropertyOp16
 70
     1
102
RTVSPropertyOp17
 70
     1
102
RTVSPropertyOp18
 70
     1
102
RTVSPropertyOp19
 70
     1
102
RTVSPropertyOp20
 70
     1
102
RTVSPropertyOp21
 70
     1
102
RTVSPropertyOp22
 70
     1
102
RTVSPropertyOp23
 70
     1
102
RTVSPropertyOp24
 70
     1
102
RTVSPropertyOp25
 70
     1
102
RTVSPropertyOp26
 70
     1
102
RTVSPropertyOp27
 70
     1
102
RTVSPropertyOp28
 70
     1
102
RTVSPropertyOp29
 70
     1
102
RTVSPropertyOp30
 70
     1
102
RTVSPropertyOp31
 70
     1
102
RTVSPropertyOp32
 70
     1
  0
XRECORD
  5
2694
102
{ACAD_REACTORS
330
2693
102
}
330
2693
100
AcDbXrecord
280
     1
102
RTVSPropertyOp0
 70
     1
102
RTVSPropertyOp1
 70
     1
102
RTVSPropertyOp2
 70
     1
102
RTVSPropertyOp3
 70
     1
102
RTVSPropertyOp4
 70
     1
102
RTVSPropertyOp5
 70
     1
102
RTVSPropertyOp6
 70
     1
102
RTVSPropertyOp7
 70
     1
102
RTVSPropertyOp8
 70
     1
102
RTVSPropertyOp9
 70
     1
102
RTVSPropertyOp10
 70
     1
102
RTVSPropertyOp11
 70
     1
102
RTVSPropertyOp12
 70
     1
102
RTVSPropertyOp13
 70
     1
102
RTVSPropertyOp14
 70
     1
102
RTVSPropertyOp15
 70
     1
102
RTVSPropertyOp16
 70
     1
102
RTVSPropertyOp17
 70
     1
102
RTVSPropertyOp18
 70
     1
102
RTVSPropertyOp19
 70
     1
102
RTVSPropertyOp20
 70
     1
102
RTVSPropertyOp21
 70
     1
102
RTVSPropertyOp22
 70
     1
102
RTVSPropertyOp23
 70
     1
102
RTVSPropertyOp24
 70
     1
102
RTVSPropertyOp25
 70
     1
102
RTVSPropertyOp26
 70
     1
102
RTVSPropertyOp27
 70
     1
102
RTVSPropertyOp28
 70
     1
102
RTVSPropertyOp29
 70
     1
102
RTVSPropertyOp30
 70
     1
102
RTVSPropertyOp31
 70
     1
102
RTVSPropertyOp32
 70
     1
  0
XRECORD
  5
269C
102
{ACAD_REACTORS
330
269B
102
}
330
269B
100
AcDbXrecord
280
     1
102
RTVSPropertyOp0
 70
     1
102
RTVSPropertyOp1
 70
     1
102
RTVSPropertyOp2
 70
     1
102
RTVSPropertyOp3
 70
     1
102
RTVSPropertyOp4
 70
     1
102
RTVSPropertyOp5
 70
     1
102
RTVSPropertyOp6
 70
     1
102
RTVSPropertyOp7
 70
     1
102
RTVSPropertyOp8
 70
     1
102
RTVSPropertyOp9
 70
     1
102
RTVSPropertyOp10
 70
     1
102
RTVSPropertyOp11
 70
     1
102
RTVSPropertyOp12
 70
     1
102
RTVSPropertyOp13
 70
     1
102
RTVSPropertyOp14
 70
     1
102
RTVSPropertyOp15
 70
     1
102
RTVSPropertyOp16
 70
     1
102
RTVSPropertyOp17
 70
     1
102
RTVSPropertyOp18
 70
     1
102
RTVSPropertyOp19
 70
     1
102
RTVSPropertyOp20
 70
     1
102
RTVSPropertyOp21
 70
     1
102
RTVSPropertyOp22
 70
     1
102
RTVSPropertyOp23
 70
     1
102
RTVSPropertyOp24
 70
     1
102
RTVSPropertyOp25
 70
     1
102
RTVSPropertyOp26
 70
     1
102
RTVSPropertyOp27
 70
     1
102
RTVSPropertyOp28
 70
     1
102
RTVSPropertyOp29
 70
     1
102
RTVSPropertyOp30
 70
     1
102
RTVSPropertyOp31
 70
     1
102
RTVSPropertyOp32
 70
     1
  0
XRECORD
  5
268E
102
{ACAD_REACTORS
330
268D
102
}
330
268D
100
AcDbXrecord
280
     1
102
RTVSPropertyOp0
 70
     1
102
RTVSPropertyOp1
 70
     1
102
RTVSPropertyOp2
 70
     1
102
RTVSPropertyOp3
 70
     1
102
RTVSPropertyOp4
 70
     1
102
RTVSPropertyOp5
 70
     1
102
RTVSPropertyOp6
 70
     1
102
RTVSPropertyOp7
 70
     1
102
RTVSPropertyOp8
 70
     1
102
RTVSPropertyOp9
 70
     1
102
RTVSPropertyOp10
 70
     1
102
RTVSPropertyOp11
 70
     1
102
RTVSPropertyOp12
 70
     1
102
RTVSPropertyOp13
 70
     1
102
RTVSPropertyOp14
 70
     1
102
RTVSPropertyOp15
 70
     1
102
RTVSPropertyOp16
 70
     1
102
RTVSPropertyOp17
 70
     1
102
RTVSPropertyOp18
 70
     1
102
RTVSPropertyOp19
 70
     1
102
RTVSPropertyOp20
 70
     1
102
RTVSPropertyOp21
 70
     1
102
RTVSPropertyOp22
 70
     1
102
RTVSPropertyOp23
 70
     1
102
RTVSPropertyOp24
 70
     1
102
RTVSPropertyOp25
 70
     1
102
RTVSPropertyOp26
 70
     1
102
RTVSPropertyOp27
 70
     1
102
RTVSPropertyOp28
 70
     1
102
RTVSPropertyOp29
 70
     1
102
RTVSPropertyOp30
 70
     1
102
RTVSPropertyOp31
 70
     1
102
RTVSPropertyOp32
 70
     1
  0
XRECORD
  5
2692
102
{ACAD_REACTORS
330
2691
102
}
330
2691
100
AcDbXrecord
280
     1
102
RTVSPropertyOp0
 70
     1
102
RTVSPropertyOp1
 70
     1
102
RTVSPropertyOp2
 70
     1
102
RTVSPropertyOp3
 70
     1
102
RTVSPropertyOp4
 70
     1
102
RTVSPropertyOp5
 70
     1
102
RTVSPropertyOp6
 70
     1
102
RTVSPropertyOp7
 70
     1
102
RTVSPropertyOp8
 70
     1
102
RTVSPropertyOp9
 70
     1
102
RTVSPropertyOp10
 70
     1
102
RTVSPropertyOp11
 70
     1
102
RTVSPropertyOp12
 70
     1
102
RTVSPropertyOp13
 70
     1
102
RTVSPropertyOp14
 70
     1
102
RTVSPropertyOp15
 70
     1
102
RTVSPropertyOp16
 70
     1
102
RTVSPropertyOp17
 70
     1
102
RTVSPropertyOp18
 70
     1
102
RTVSPropertyOp19
 70
     1
102
RTVSPropertyOp20
 70
     1
102
RTVSPropertyOp21
 70
     1
102
RTVSPropertyOp22
 70
     1
102
RTVSPropertyOp23
 70
     1
102
RTVSPropertyOp24
 70
     1
102
RTVSPropertyOp25
 70
     1
102
RTVSPropertyOp26
 70
     1
102
RTVSPropertyOp27
 70
     1
102
RTVSPropertyOp28
 70
     1
102
RTVSPropertyOp29
 70
     1
102
RTVSPropertyOp30
 70
     1
102
RTVSPropertyOp31
 70
     1
102
RTVSPropertyOp32
 70
     1
  0
XRECORD
  5
26B0
102
{ACAD_REACTORS
330
26AF
102
}
330
26AF
100
AcDbXrecord
280
     1
102
RTVSPropertyOp0
 70
     0
102
RTVSPropertyOp1
 70
     0
102
RTVSPropertyOp2
 70
     0
102
RTVSPropertyOp3
 70
     0
102
RTVSPropertyOp4
 70
     0
102
RTVSPropertyOp5
 70
     0
102
RTVSPropertyOp6
 70
     0
102
RTVSPropertyOp7
 70
     0
102
RTVSPropertyOp8
 70
     0
102
RTVSPropertyOp9
 70
     0
102
RTVSPropertyOp10
 70
     0
102
RTVSPropertyOp11
 70
     0
102
RTVSPropertyOp12
 70
     0
102
RTVSPropertyOp13
 70
     0
102
RTVSPropertyOp14
 70
     2
102
RTVSPropertyOp15
 70
     0
102
RTVSPropertyOp16
 70
     0
102
RTVSPropertyOp17
 70
     0
102
RTVSPropertyOp18
 70
     0
102
RTVSPropertyOp19
 70
     0
102
RTVSPropertyOp20
 70
     0
102
RTVSPropertyOp21
 70
     0
102
RTVSPropertyOp22
 70
     0
102
RTVSPropertyOp23
 70
     0
102
RTVSPropertyOp24
 70
     0
102
RTVSPropertyOp25
 70
     0
102
RTVSPropertyOp26
 70
     0
102
RTVSPropertyOp27
 70
     0
102
RTVSPropertyOp28
 70
     0
102
RTVSPropertyOp29
 70
     0
102
RTVSPropertyOp30
 70
     0
102
RTVSPropertyOp31
 70
     0
102
RTVSPropertyOp32
 70
     0
  0
XRECORD
  5
269A
102
{ACAD_REACTORS
330
2699
102
}
330
2699
100
AcDbXrecord
280
     1
102
RTVSPropertyOp0
 70
     1
102
RTVSPropertyOp1
 70
     1
102
RTVSPropertyOp2
 70
     1
102
RTVSPropertyOp3
 70
     1
102
RTVSPropertyOp4
 70
     1
102
RTVSPropertyOp5
 70
     1
102
RTVSPropertyOp6
 70
     1
102
RTVSPropertyOp7
 70
     1
102
RTVSPropertyOp8
 70
     1
102
RTVSPropertyOp9
 70
     1
102
RTVSPropertyOp10
 70
     1
102
RTVSPropertyOp11
 70
     1
102
RTVSPropertyOp12
 70
     1
102
RTVSPropertyOp13
 70
     1
102
RTVSPropertyOp14
 70
     1
102
RTVSPropertyOp15
 70
     1
102
RTVSPropertyOp16
 70
     1
102
RTVSPropertyOp17
 70
     1
102
RTVSPropertyOp18
 70
     1
102
RTVSPropertyOp19
 70
     1
102
RTVSPropertyOp20
 70
     1
102
RTVSPropertyOp21
 70
     1
102
RTVSPropertyOp22
 70
     1
102
RTVSPropertyOp23
 70
     1
102
RTVSPropertyOp24
 70
     1
102
RTVSPropertyOp25
 70
     1
102
RTVSPropertyOp26
 70
     1
102
RTVSPropertyOp27
 70
     1
102
RTVSPropertyOp28
 70
     1
102
RTVSPropertyOp29
 70
     1
102
RTVSPropertyOp30
 70
     1
102
RTVSPropertyOp31
 70
     1
102
RTVSPropertyOp32
 70
     1
  0
XRECORD
  5
267E
102
{ACAD_REACTORS
330
267D
102
}
330
267D
100
AcDbXrecord
280
     1
102
RTVSPropertyOp0
 70
     1
102
RTVSPropertyOp1
 70
     1
102
RTVSPropertyOp2
 70
     1
102
RTVSPropertyOp3
 70
     1
102
RTVSPropertyOp4
 70
     1
102
RTVSPropertyOp5
 70
     1
102
RTVSPropertyOp6
 70
     1
102
RTVSPropertyOp7
 70
     1
102
RTVSPropertyOp8
 70
     1
102
RTVSPropertyOp9
 70
     1
102
RTVSPropertyOp10
 70
     1
102
RTVSPropertyOp11
 70
     1
102
RTVSPropertyOp12
 70
     1
102
RTVSPropertyOp13
 70
     1
102
RTVSPropertyOp14
 70
     1
102
RTVSPropertyOp15
 70
     1
102
RTVSPropertyOp16
 70
     1
102
RTVSPropertyOp17
 70
     1
102
RTVSPropertyOp18
 70
     1
102
RTVSPropertyOp19
 70
     1
102
RTVSPropertyOp20
 70
     1
102
RTVSPropertyOp21
 70
     1
102
RTVSPropertyOp22
 70
     1
102
RTVSPropertyOp23
 70
     1
102
RTVSPropertyOp24
 70
     1
102
RTVSPropertyOp25
 70
     1
102
RTVSPropertyOp26
 70
     1
102
RTVSPropertyOp27
 70
     1
102
RTVSPropertyOp28
 70
     1
102
RTVSPropertyOp29
 70
     1
102
RTVSPropertyOp30
 70
     1
102
RTVSPropertyOp31
 70
     1
102
RTVSPropertyOp32
 70
     1
  0
XRECORD
  5
2680
102
{ACAD_REACTORS
330
267F
102
}
330
267F
100
AcDbXrecord
280
     1
102
RTVSPropertyOp0
 70
     1
102
RTVSPropertyOp1
 70
     1
102
RTVSPropertyOp2
 70
     1
102
RTVSPropertyOp3
 70
     1
102
RTVSPropertyOp4
 70
     1
102
RTVSPropertyOp5
 70
     1
102
RTVSPropertyOp6
 70
     1
102
RTVSPropertyOp7
 70
     1
102
RTVSPropertyOp8
 70
     1
102
RTVSPropertyOp9
 70
     1
102
RTVSPropertyOp10
 70
     1
102
RTVSPropertyOp11
 70
     1
102
RTVSPropertyOp12
 70
     1
102
RTVSPropertyOp13
 70
     1
102
RTVSPropertyOp14
 70
     1
102
RTVSPropertyOp15
 70
     1
102
RTVSPropertyOp16
 70
     1
102
RTVSPropertyOp17
 70
     1
102
RTVSPropertyOp18
 70
     1
102
RTVSPropertyOp19
 70
     1
102
RTVSPropertyOp20
 70
     1
102
RTVSPropertyOp21
 70
     1
102
RTVSPropertyOp22
 70
     1
102
RTVSPropertyOp23
 70
     1
102
RTVSPropertyOp24
 70
     1
102
RTVSPropertyOp25
 70
     1
102
RTVSPropertyOp26
 70
     1
102
RTVSPropertyOp27
 70
     1
102
RTVSPropertyOp28
 70
     1
102
RTVSPropertyOp29
 70
     1
102
RTVSPropertyOp30
 70
     1
102
RTVSPropertyOp31
 70
     1
102
RTVSPropertyOp32
 70
     1
  0
XRECORD
  5
2682
102
{ACAD_REACTORS
330
2681
102
}
330
2681
100
AcDbXrecord
280
     1
102
RTVSPropertyOp0
 70
     1
102
RTVSPropertyOp1
 70
     1
102
RTVSPropertyOp2
 70
     1
102
RTVSPropertyOp3
 70
     1
102
RTVSPropertyOp4
 70
     1
102
RTVSPropertyOp5
 70
     1
102
RTVSPropertyOp6
 70
     1
102
RTVSPropertyOp7
 70
     1
102
RTVSPropertyOp8
 70
     1
102
RTVSPropertyOp9
 70
     1
102
RTVSPropertyOp10
 70
     1
102
RTVSPropertyOp11
 70
     1
102
RTVSPropertyOp12
 70
     1
102
RTVSPropertyOp13
 70
     1
102
RTVSPropertyOp14
 70
     1
102
RTVSPropertyOp15
 70
     1
102
RTVSPropertyOp16
 70
     1
102
RTVSPropertyOp17
 70
     1
102
RTVSPropertyOp18
 70
     1
102
RTVSPropertyOp19
 70
     1
102
RTVSPropertyOp20
 70
     1
102
RTVSPropertyOp21
 70
     1
102
RTVSPropertyOp22
 70
     1
102
RTVSPropertyOp23
 70
     1
102
RTVSPropertyOp24
 70
     1
102
RTVSPropertyOp25
 70
     1
102
RTVSPropertyOp26
 70
     1
102
RTVSPropertyOp27
 70
     1
102
RTVSPropertyOp28
 70
     1
102
RTVSPropertyOp29
 70
     1
102
RTVSPropertyOp30
 70
     1
102
RTVSPropertyOp31
 70
     1
102
RTVSPropertyOp32
 70
     1
  0
XRECORD
  5
2684
102
{ACAD_REACTORS
330
2683
102
}
330
2683
100
AcDbXrecord
280
     1
102
RTVSPropertyOp0
 70
     1
102
RTVSPropertyOp1
 70
     1
102
RTVSPropertyOp2
 70
     1
102
RTVSPropertyOp3
 70
     1
102
RTVSPropertyOp4
 70
     1
102
RTVSPropertyOp5
 70
     1
102
RTVSPropertyOp6
 70
     1
102
RTVSPropertyOp7
 70
     1
102
RTVSPropertyOp8
 70
     1
102
RTVSPropertyOp9
 70
     1
102
RTVSPropertyOp10
 70
     1
102
RTVSPropertyOp11
 70
     1
102
RTVSPropertyOp12
 70
     1
102
RTVSPropertyOp13
 70
     1
102
RTVSPropertyOp14
 70
     1
102
RTVSPropertyOp15
 70
     1
102
RTVSPropertyOp16
 70
     1
102
RTVSPropertyOp17
 70
     1
102
RTVSPropertyOp18
 70
     1
102
RTVSPropertyOp19
 70
     1
102
RTVSPropertyOp20
 70
     1
102
RTVSPropertyOp21
 70
     1
102
RTVSPropertyOp22
 70
     1
102
RTVSPropertyOp23
 70
     1
102
RTVSPropertyOp24
 70
     1
102
RTVSPropertyOp25
 70
     1
102
RTVSPropertyOp26
 70
     1
102
RTVSPropertyOp27
 70
     1
102
RTVSPropertyOp28
 70
     1
102
RTVSPropertyOp29
 70
     1
102
RTVSPropertyOp30
 70
     1
102
RTVSPropertyOp31
 70
     1
102
RTVSPropertyOp32
 70
     1
  0
XRECORD
  5
26A0
102
{ACAD_REACTORS
330
269F
102
}
330
269F
100
AcDbXrecord
280
     1
102
RTVSPropertyOp0
 70
     1
102
RTVSPropertyOp1
 70
     1
102
RTVSPropertyOp2
 70
     1
102
RTVSPropertyOp3
 70
     1
102
RTVSPropertyOp4
 70
     1
102
RTVSPropertyOp5
 70
     1
102
RTVSPropertyOp6
 70
     1
102
RTVSPropertyOp7
 70
     1
102
RTVSPropertyOp8
 70
     1
102
RTVSPropertyOp9
 70
     1
102
RTVSPropertyOp10
 70
     1
102
RTVSPropertyOp11
 70
     1
102
RTVSPropertyOp12
 70
     1
102
RTVSPropertyOp13
 70
     1
102
RTVSPropertyOp14
 70
     1
102
RTVSPropertyOp15
 70
     1
102
RTVSPropertyOp16
 70
     1
102
RTVSPropertyOp17
 70
     1
102
RTVSPropertyOp18
 70
     1
102
RTVSPropertyOp19
 70
     1
102
RTVSPropertyOp20
 70
     1
102
RTVSPropertyOp21
 70
     1
102
RTVSPropertyOp22
 70
     1
102
RTVSPropertyOp23
 70
     1
102
RTVSPropertyOp24
 70
     1
102
RTVSPropertyOp25
 70
     1
102
RTVSPropertyOp26
 70
     1
102
RTVSPropertyOp27
 70
     1
102
RTVSPropertyOp28
 70
     1
102
RTVSPropertyOp29
 70
     1
102
RTVSPropertyOp30
 70
     1
102
RTVSPropertyOp31
 70
     1
102
RTVSPropertyOp32
 70
     1
  0
XRECORD
  5
26AC
102
{ACAD_REACTORS
330
26AB
102
}
330
26AB
100
AcDbXrecord
280
     1
102
RTVSPropertyOp0
 70
     0
102
RTVSPropertyOp1
 70
     0
102
RTVSPropertyOp2
 70
     0
102
RTVSPropertyOp3
 70
     0
102
RTVSPropertyOp4
 70
     0
102
RTVSPropertyOp5
 70
     0
102
RTVSPropertyOp6
 70
     0
102
RTVSPropertyOp7
 70
     0
102
RTVSPropertyOp8
 70
     0
102
RTVSPropertyOp9
 70
     0
102
RTVSPropertyOp10
 70
     0
102
RTVSPropertyOp11
 70
     0
102
RTVSPropertyOp12
 70
     0
102
RTVSPropertyOp13
 70
     0
102
RTVSPropertyOp14
 70
     2
102
RTVSPropertyOp15
 70
     0
102
RTVSPropertyOp16
 70
     0
102
RTVSPropertyOp17
 70
     0
102
RTVSPropertyOp18
 70
     0
102
RTVSPropertyOp19
 70
     0
102
RTVSPropertyOp20
 70
     0
102
RTVSPropertyOp21
 70
     0
102
RTVSPropertyOp22
 70
     0
102
RTVSPropertyOp23
 70
     0
102
RTVSPropertyOp24
 70
     0
102
RTVSPropertyOp25
 70
     0
102
RTVSPropertyOp26
 70
     0
102
RTVSPropertyOp27
 70
     0
102
RTVSPropertyOp28
 70
     0
102
RTVSPropertyOp29
 70
     0
102
RTVSPropertyOp30
 70
     0
102
RTVSPropertyOp31
 70
     0
102
RTVSPropertyOp32
 70
     0
  0
XRECORD
  5
2698
102
{ACAD_REACTORS
330
2697
102
}
330
2697
100
AcDbXrecord
280
     1
102
RTVSPropertyOp0
 70
     1
102
RTVSPropertyOp1
 70
     1
102
RTVSPropertyOp2
 70
     1
102
RTVSPropertyOp3
 70
     1
102
RTVSPropertyOp4
 70
     1
102
RTVSPropertyOp5
 70
     1
102
RTVSPropertyOp6
 70
     1
102
RTVSPropertyOp7
 70
     1
102
RTVSPropertyOp8
 70
     1
102
RTVSPropertyOp9
 70
     1
102
RTVSPropertyOp10
 70
     1
102
RTVSPropertyOp11
 70
     1
102
RTVSPropertyOp12
 70
     1
102
RTVSPropertyOp13
 70
     1
102
RTVSPropertyOp14
 70
     1
102
RTVSPropertyOp15
 70
     1
102
RTVSPropertyOp16
 70
     1
102
RTVSPropertyOp17
 70
     1
102
RTVSPropertyOp18
 70
     1
102
RTVSPropertyOp19
 70
     1
102
RTVSPropertyOp20
 70
     1
102
RTVSPropertyOp21
 70
     1
102
RTVSPropertyOp22
 70
     1
102
RTVSPropertyOp23
 70
     1
102
RTVSPropertyOp24
 70
     1
102
RTVSPropertyOp25
 70
     1
102
RTVSPropertyOp26
 70
     1
102
RTVSPropertyOp27
 70
     1
102
RTVSPropertyOp28
 70
     1
102
RTVSPropertyOp29
 70
     1
102
RTVSPropertyOp30
 70
     1
102
RTVSPropertyOp31
 70
     1
102
RTVSPropertyOp32
 70
     1
  0
XRECORD
  5
26AE
102
{ACAD_REACTORS
330
26AD
102
}
330
26AD
100
AcDbXrecord
280
     1
102
RTVSPropertyOp0
 70
     0
102
RTVSPropertyOp1
 70
     0
102
RTVSPropertyOp2
 70
     0
102
RTVSPropertyOp3
 70
     0
102
RTVSPropertyOp4
 70
     0
102
RTVSPropertyOp5
 70
     0
102
RTVSPropertyOp6
 70
     0
102
RTVSPropertyOp7
 70
     0
102
RTVSPropertyOp8
 70
     0
102
RTVSPropertyOp9
 70
     0
102
RTVSPropertyOp10
 70
     0
102
RTVSPropertyOp11
 70
     0
102
RTVSPropertyOp12
 70
     0
102
RTVSPropertyOp13
 70
     0
102
RTVSPropertyOp14
 70
     2
102
RTVSPropertyOp15
 70
     0
102
RTVSPropertyOp16
 70
     0
102
RTVSPropertyOp17
 70
     0
102
RTVSPropertyOp18
 70
     0
102
RTVSPropertyOp19
 70
     0
102
RTVSPropertyOp20
 70
     0
102
RTVSPropertyOp21
 70
     0
102
RTVSPropertyOp22
 70
     0
102
RTVSPropertyOp23
 70
     0
102
RTVSPropertyOp24
 70
     0
102
RTVSPropertyOp25
 70
     0
102
RTVSPropertyOp26
 70
     0
102
RTVSPropertyOp27
 70
     0
102
RTVSPropertyOp28
 70
     0
102
RTVSPropertyOp29
 70
     0
102
RTVSPropertyOp30
 70
     0
102
RTVSPropertyOp31
 70
     0
102
RTVSPropertyOp32
 70
     0
  0
XRECORD
  5
2690
102
{ACAD_REACTORS
330
268F
102
}
330
268F
100
AcDbXrecord
280
     1
102
RTVSPropertyOp0
 70
     1
102
RTVSPropertyOp1
 70
     1
102
RTVSPropertyOp2
 70
     1
102
RTVSPropertyOp3
 70
     1
102
RTVSPropertyOp4
 70
     1
102
RTVSPropertyOp5
 70
     1
102
RTVSPropertyOp6
 70
     1
102
RTVSPropertyOp7
 70
     1
102
RTVSPropertyOp8
 70
     1
102
RTVSPropertyOp9
 70
     1
102
RTVSPropertyOp10
 70
     1
102
RTVSPropertyOp11
 70
     1
102
RTVSPropertyOp12
 70
     1
102
RTVSPropertyOp13
 70
     1
102
RTVSPropertyOp14
 70
     1
102
RTVSPropertyOp15
 70
     1
102
RTVSPropertyOp16
 70
     1
102
RTVSPropertyOp17
 70
     1
102
RTVSPropertyOp18
 70
     1
102
RTVSPropertyOp19
 70
     1
102
RTVSPropertyOp20
 70
     1
102
RTVSPropertyOp21
 70
     1
102
RTVSPropertyOp22
 70
     1
102
RTVSPropertyOp23
 70
     1
102
RTVSPropertyOp24
 70
     1
102
RTVSPropertyOp25
 70
     1
102
RTVSPropertyOp26
 70
     1
102
RTVSPropertyOp27
 70
     1
102
RTVSPropertyOp28
 70
     1
102
RTVSPropertyOp29
 70
     1
102
RTVSPropertyOp30
 70
     1
102
RTVSPropertyOp31
 70
     1
102
RTVSPropertyOp32
 70
     1
  0
XRECORD
  5
26AA
102
{ACAD_REACTORS
330
26A9
102
}
330
26A9
100
AcDbXrecord
280
     1
102
RTVSPropertyOp0
 70
     1
102
RTVSPropertyOp1
 70
     1
102
RTVSPropertyOp2
 70
     1
102
RTVSPropertyOp3
 70
     1
102
RTVSPropertyOp4
 70
     1
102
RTVSPropertyOp5
 70
     1
102
RTVSPropertyOp6
 70
     1
102
RTVSPropertyOp7
 70
     1
102
RTVSPropertyOp8
 70
     1
102
RTVSPropertyOp9
 70
     1
102
RTVSPropertyOp10
 70
     1
102
RTVSPropertyOp11
 70
     1
102
RTVSPropertyOp12
 70
     1
102
RTVSPropertyOp13
 70
     1
102
RTVSPropertyOp14
 70
     1
102
RTVSPropertyOp15
 70
     1
102
RTVSPropertyOp16
 70
     1
102
RTVSPropertyOp17
 70
     1
102
RTVSPropertyOp18
 70
     1
102
RTVSPropertyOp19
 70
     1
102
RTVSPropertyOp20
 70
     1
102
RTVSPropertyOp21
 70
     1
102
RTVSPropertyOp22
 70
     1
102
RTVSPropertyOp23
 70
     1
102
RTVSPropertyOp24
 70
     1
102
RTVSPropertyOp25
 70
     1
102
RTVSPropertyOp26
 70
     1
102
RTVSPropertyOp27
 70
     1
102
RTVSPropertyOp28
 70
     1
102
RTVSPropertyOp29
 70
     1
102
RTVSPropertyOp30
 70
     1
102
RTVSPropertyOp31
 70
     1
102
RTVSPropertyOp32
 70
     1
  0
XRECORD
  5
26A8
102
{ACAD_REACTORS
330
26A7
102
}
330
26A7
100
AcDbXrecord
280
     1
102
RTVSPropertyOp0
 70
     1
102
RTVSPropertyOp1
 70
     1
102
RTVSPropertyOp2
 70
     1
102
RTVSPropertyOp3
 70
     1
102
RTVSPropertyOp4
 70
     1
102
RTVSPropertyOp5
 70
     1
102
RTVSPropertyOp6
 70
     1
102
RTVSPropertyOp7
 70
     1
102
RTVSPropertyOp8
 70
     1
102
RTVSPropertyOp9
 70
     1
102
RTVSPropertyOp10
 70
     1
102
RTVSPropertyOp11
 70
     1
102
RTVSPropertyOp12
 70
     1
102
RTVSPropertyOp13
 70
     1
102
RTVSPropertyOp14
 70
     1
102
RTVSPropertyOp15
 70
     1
102
RTVSPropertyOp16
 70
     1
102
RTVSPropertyOp17
 70
     1
102
RTVSPropertyOp18
 70
     1
102
RTVSPropertyOp19
 70
     1
102
RTVSPropertyOp20
 70
     1
102
RTVSPropertyOp21
 70
     1
102
RTVSPropertyOp22
 70
     1
102
RTVSPropertyOp23
 70
     1
102
RTVSPropertyOp24
 70
     1
102
RTVSPropertyOp25
 70
     1
102
RTVSPropertyOp26
 70
     1
102
RTVSPropertyOp27
 70
     1
102
RTVSPropertyOp28
 70
     1
102
RTVSPropertyOp29
 70
     1
102
RTVSPropertyOp30
 70
     1
102
RTVSPropertyOp31
 70
     1
102
RTVSPropertyOp32
 70
     1
  0
XRECORD
  5
26A2
102
{ACAD_REACTORS
330
26A1
102
}
330
26A1
100
AcDbXrecord
280
     1
102
RTVSPropertyOp0
 70
     1
102
RTVSPropertyOp1
 70
     1
102
RTVSPropertyOp2
 70
     1
102
RTVSPropertyOp3
 70
     1
102
RTVSPropertyOp4
 70
     1
102
RTVSPropertyOp5
 70
     1
102
RTVSPropertyOp6
 70
     1
102
RTVSPropertyOp7
 70
     1
102
RTVSPropertyOp8
 70
     1
102
RTVSPropertyOp9
 70
     1
102
RTVSPropertyOp10
 70
     1
102
RTVSPropertyOp11
 70
     1
102
RTVSPropertyOp12
 70
     1
102
RTVSPropertyOp13
 70
     1
102
RTVSPropertyOp14
 70
     1
102
RTVSPropertyOp15
 70
     1
102
RTVSPropertyOp16
 70
     1
102
RTVSPropertyOp17
 70
     1
102
RTVSPropertyOp18
 70
     1
102
RTVSPropertyOp19
 70
     1
102
RTVSPropertyOp20
 70
     1
102
RTVSPropertyOp21
 70
     1
102
RTVSPropertyOp22
 70
     1
102
RTVSPropertyOp23
 70
     1
102
RTVSPropertyOp24
 70
     1
102
RTVSPropertyOp25
 70
     1
102
RTVSPropertyOp26
 70
     1
102
RTVSPropertyOp27
 70
     1
102
RTVSPropertyOp28
 70
     1
102
RTVSPropertyOp29
 70
     1
102
RTVSPropertyOp30
 70
     1
102
RTVSPropertyOp31
 70
     1
102
RTVSPropertyOp32
 70
     1
  0
XRECORD
  5
26A4
102
{ACAD_REACTORS
330
26A3
102
}
330
26A3
100
AcDbXrecord
280
     1
102
RTVSPropertyOp0
 70
     1
102
RTVSPropertyOp1
 70
     1
102
RTVSPropertyOp2
 70
     1
102
RTVSPropertyOp3
 70
     1
102
RTVSPropertyOp4
 70
     1
102
RTVSPropertyOp5
 70
     1
102
RTVSPropertyOp6
 70
     1
102
RTVSPropertyOp7
 70
     1
102
RTVSPropertyOp8
 70
     1
102
RTVSPropertyOp9
 70
     1
102
RTVSPropertyOp10
 70
     1
102
RTVSPropertyOp11
 70
     1
102
RTVSPropertyOp12
 70
     1
102
RTVSPropertyOp13
 70
     1
102
RTVSPropertyOp14
 70
     1
102
RTVSPropertyOp15
 70
     1
102
RTVSPropertyOp16
 70
     1
102
RTVSPropertyOp17
 70
     1
102
RTVSPropertyOp18
 70
     1
102
RTVSPropertyOp19
 70
     1
102
RTVSPropertyOp20
 70
     1
102
RTVSPropertyOp21
 70
     1
102
RTVSPropertyOp22
 70
     1
102
RTVSPropertyOp23
 70
     1
102
RTVSPropertyOp24
 70
     1
102
RTVSPropertyOp25
 70
     1
102
RTVSPropertyOp26
 70
     1
102
RTVSPropertyOp27
 70
     1
102
RTVSPropertyOp28
 70
     1
102
RTVSPropertyOp29
 70
     1
102
RTVSPropertyOp30
 70
     1
102
RTVSPropertyOp31
 70
     1
102
RTVSPropertyOp32
 70
     1
  0
XRECORD
  5
2696
102
{ACAD_REACTORS
330
2695
102
}
330
2695
100
AcDbXrecord
280
     1
102
RTVSPropertyOp0
 70
     1
102
RTVSPropertyOp1
 70
     1
102
RTVSPropertyOp2
 70
     1
102
RTVSPropertyOp3
 70
     1
102
RTVSPropertyOp4
 70
     1
102
RTVSPropertyOp5
 70
     1
102
RTVSPropertyOp6
 70
     1
102
RTVSPropertyOp7
 70
     1
102
RTVSPropertyOp8
 70
     1
102
RTVSPropertyOp9
 70
     1
102
RTVSPropertyOp10
 70
     1
102
RTVSPropertyOp11
 70
     1
102
RTVSPropertyOp12
 70
     1
102
RTVSPropertyOp13
 70
     1
102
RTVSPropertyOp14
 70
     1
102
RTVSPropertyOp15
 70
     1
102
RTVSPropertyOp16
 70
     1
102
RTVSPropertyOp17
 70
     1
102
RTVSPropertyOp18
 70
     1
102
RTVSPropertyOp19
 70
     1
102
RTVSPropertyOp20
 70
     1
102
RTVSPropertyOp21
 70
     1
102
RTVSPropertyOp22
 70
     1
102
RTVSPropertyOp23
 70
     1
102
RTVSPropertyOp24
 70
     1
102
RTVSPropertyOp25
 70
     1
102
RTVSPropertyOp26
 70
     1
102
RTVSPropertyOp27
 70
     1
102
RTVSPropertyOp28
 70
     1
102
RTVSPropertyOp29
 70
     1
102
RTVSPropertyOp30
 70
     1
102
RTVSPropertyOp31
 70
     1
102
RTVSPropertyOp32
 70
     1
  0
XRECORD
  5
269E
102
{ACAD_REACTORS
330
269D
102
}
330
269D
100
AcDbXrecord
280
     1
102
RTVSPropertyOp0
 70
     1
102
RTVSPropertyOp1
 70
     1
102
RTVSPropertyOp2
 70
     1
102
RTVSPropertyOp3
 70
     1
102
RTVSPropertyOp4
 70
     1
102
RTVSPropertyOp5
 70
     1
102
RTVSPropertyOp6
 70
     1
102
RTVSPropertyOp7
 70
     1
102
RTVSPropertyOp8
 70
     1
102
RTVSPropertyOp9
 70
     1
102
RTVSPropertyOp10
 70
     1
102
RTVSPropertyOp11
 70
     1
102
RTVSPropertyOp12
 70
     1
102
RTVSPropertyOp13
 70
     1
102
RTVSPropertyOp14
 70
     1
102
RTVSPropertyOp15
 70
     1
102
RTVSPropertyOp16
 70
     1
102
RTVSPropertyOp17
 70
     1
102
RTVSPropertyOp18
 70
     1
102
RTVSPropertyOp19
 70
     1
102
RTVSPropertyOp20
 70
     1
102
RTVSPropertyOp21
 70
     1
102
RTVSPropertyOp22
 70
     1
102
RTVSPropertyOp23
 70
     1
102
RTVSPropertyOp24
 70
     1
102
RTVSPropertyOp25
 70
     1
102
RTVSPropertyOp26
 70
     1
102
RTVSPropertyOp27
 70
     1
102
RTVSPropertyOp28
 70
     1
102
RTVSPropertyOp29
 70
     1
102
RTVSPropertyOp30
 70
     1
102
RTVSPropertyOp31
 70
     1
102
RTVSPropertyOp32
 70
     1
  0
XRECORD
  5
26A6
102
{ACAD_REACTORS
330
26A5
102
}
330
26A5
100
AcDbXrecord
280
     1
102
RTVSPropertyOp0
 70
     1
102
RTVSPropertyOp1
 70
     1
102
RTVSPropertyOp2
 70
     1
102
RTVSPropertyOp3
 70
     1
102
RTVSPropertyOp4
 70
     1
102
RTVSPropertyOp5
 70
     1
102
RTVSPropertyOp6
 70
     1
102
RTVSPropertyOp7
 70
     1
102
RTVSPropertyOp8
 70
     1
102
RTVSPropertyOp9
 70
     1
102
RTVSPropertyOp10
 70
     1
102
RTVSPropertyOp11
 70
     1
102
RTVSPropertyOp12
 70
     1
102
RTVSPropertyOp13
 70
     1
102
RTVSPropertyOp14
 70
     1
102
RTVSPropertyOp15
 70
     1
102
RTVSPropertyOp16
 70
     1
102
RTVSPropertyOp17
 70
     1
102
RTVSPropertyOp18
 70
     1
102
RTVSPropertyOp19
 70
     1
102
RTVSPropertyOp20
 70
     1
102
RTVSPropertyOp21
 70
     1
102
RTVSPropertyOp22
 70
     1
102
RTVSPropertyOp23
 70
     1
102
RTVSPropertyOp24
 70
     1
102
RTVSPropertyOp25
 70
     1
102
RTVSPropertyOp26
 70
     1
102
RTVSPropertyOp27
 70
     1
102
RTVSPropertyOp28
 70
     1
102
RTVSPropertyOp29
 70
     1
102
RTVSPropertyOp30
 70
     1
102
RTVSPropertyOp31
 70
     1
102
RTVSPropertyOp32
 70
     1
  0
ENDSEC
  0
EOF
