  0
SECTION
  2
HEADER
  9
$ACADVER
  1
AC1015
  9
$ACADMAINTVER
 70
    20
  9
$DWGCODEPAGE
  3
ANSI_932
  9
$INSBASE
 10
0.0
 20
0.0
 30
0.0
  9
$EXTMIN
 10
971.117955
 20
-332.498079
 30
0.0
  9
$EXTMAX
 10
1376.117955
 20
-58.44271800000001
 30
0.0
  9
$LIMMIN
 10
971.1169809999999
 20
-332.499077
  9
$LIMMAX
 10
1376.144799
 20
-58.44171899999999
  9
$ORTHOMODE
 70
     1
  9
$REGENMODE
 70
     1
  9
$FILLMODE
 70
     1
  9
$QTEXTMODE
 70
     0
  9
$MIRRTEXT
 70
     0
  9
$LTSCALE
 40
6.75043
  9
$ATTMODE
 70
     1
  9
$TEXTSIZE
 40
3.2
  9
$TRACEWID
 40
0.05
  9
$TEXTSTYLE
  7
高3.2
  9
$CLAYER
  8
0
  9
$CELTYPE
  6
CONTINUOUS
  9
$CECOLOR
 62
   256
  9
$CELTSCALE
 40
1.0
  9
$DISPSILH
 70
     0
  9
$DIMSCALE
 40
1.0
  9
$DIMASZ
 40
2.5
  9
$DIMEXO
 40
0.25
  9
$DIMDLI
 40
0.2
  9
$DIMRND
 40
0.0
  9
$DIMDLE
 40
0.0
  9
$DIMEXE
 40
1.25
  9
$DIMTP
 40
0.0
  9
$DIMTM
 40
0.0
  9
$DIMTXT
 40
3.0
  9
$DIMCEN
 40
0.0
  9
$DIMTSZ
 40
0.0
  9
$DIMTOL
 70
     0
  9
$DIMLIM
 70
     0
  9
$DIMTIH
 70
     0
  9
$DIMTOH
 70
     0
  9
$DIMSE1
 70
     0
  9
$DIMSE2
 70
     0
  9
$DIMTAD
 70
     3
  9
$DIMZIN
 70
     8
  9
$DIMBLK
  1
Open30
  9
$DIMASO
 70
     1
  9
$DIMSHO
 70
     1
  9
$DIMPOST
  1

  9
$DIMAPOST
  1

  9
$DIMALT
 70
     0
  9
$DIMALTD
 70
     3
  9
$DIMALTF
 40
0.03937007874016
  9
$DIMLFAC
 40
1.0
  9
$DIMTOFL
 70
     1
  9
$DIMTVP
 40
0.0
  9
$DIMTIX
 70
     0
  9
$DIMSOXD
 70
     0
  9
$DIMSAH
 70
     0
  9
$DIMBLK1
  1

  9
$DIMBLK2
  1

  9
$DIMSTYLE
  2
FREE
  9
$DIMCLRD
 70
     0
  9
$DIMCLRE
 70
     0
  9
$DIMCLRT
 70
     4
  9
$DIMTFAC
 40
1.0
  9
$DIMGAP
 40
0.625
  9
$DIMJUST
 70
     0
  9
$DIMSD1
 70
     0
  9
$DIMSD2
 70
     0
  9
$DIMTOLJ
 70
     0
  9
$DIMTZIN
 70
     8
  9
$DIMALTZ
 70
     0
  9
$DIMALTTZ
 70
     0
  9
$DIMUPT
 70
     1
  9
$DIMDEC
 70
     2
  9
$DIMTDEC
 70
     2
  9
$DIMALTU
 70
     2
  9
$DIMALTTD
 70
     3
  9
$DIMTXSTY
  7
STANDARD
  9
$DIMAUNIT
 70
     0
  9
$DIMADEC
 70
     1
  9
$DIMALTRND
 40
0.0
  9
$DIMAZIN
 70
     2
  9
$DIMDSEP
 70
    46
  9
$DIMATFIT
 70
     0
  9
$DIMFRAC
 70
     0
  9
$DIMLDRBLK
  1
Open30
  9
$DIMLUNIT
 70
     2
  9
$DIMLWD
 70
    -2
  9
$DIMLWE
 70
    -2
  9
$DIMTMOVE
 70
     0
  9
$LUNITS
 70
     2
  9
$LUPREC
 70
     4
  9
$SKETCHINC
 40
0.1
  9
$FILLETRAD
 40
0.0
  9
$AUNITS
 70
     0
  9
$AUPREC
 70
     0
  9
$MENU
  1
.
  9
$ELEVATION
 40
0.0
  9
$PELEVATION
 40
0.0
  9
$THICKNESS
 40
0.0
  9
$LIMCHECK
 70
     0
  9
$CHAMFERA
 40
0.0
  9
$CHAMFERB
 40
0.0
  9
$CHAMFERC
 40
0.0
  9
$CHAMFERD
 40
0.0
  9
$SKPOLY
 70
     0
  9
$TDCREATE
 40
2456350.826640544
  9
$TDUCREATE
 40
2456350.451640544
  9
$TDUPDATE
 40
2456868.849123981
  9
$TDUUPDATE
 40
2456868.474123981
  9
$TDINDWG
 40
0.0110373380
  9
$TDUSRTIMER
 40
0.0110373380
  9
$USRTIMER
 70
     1
  9
$ANGBASE
 50
0.0
  9
$ANGDIR
 70
     0
  9
$PDMODE
 70
     0
  9
$PDSIZE
 40
0.0
  9
$PLINEWID
 40
0.0
  9
$SPLFRAME
 70
     0
  9
$SPLINETYPE
 70
     6
  9
$SPLINESEGS
 70
     8
  9
$HANDSEED
  5
7C1
  9
$SURFTAB1
 70
     6
  9
$SURFTAB2
 70
     6
  9
$SURFTYPE
 70
     6
  9
$SURFU
 70
     6
  9
$SURFV
 70
     6
  9
$UCSBASE
  2

  9
$UCSNAME
  2

  9
$UCSORG
 10
0.0
 20
0.0
 30
0.0
  9
$UCSXDIR
 10
1.0
 20
0.0
 30
0.0
  9
$UCSYDIR
 10
0.0
 20
1.0
 30
0.0
  9
$UCSORTHOREF
  2

  9
$UCSORTHOVIEW
 70
     0
  9
$UCSORGTOP
 10
0.0
 20
0.0
 30
0.0
  9
$UCSORGBOTTOM
 10
0.0
 20
0.0
 30
0.0
  9
$UCSORGLEFT
 10
0.0
 20
0.0
 30
0.0
  9
$UCSORGRIGHT
 10
0.0
 20
0.0
 30
0.0
  9
$UCSORGFRONT
 10
0.0
 20
0.0
 30
0.0
  9
$UCSORGBACK
 10
0.0
 20
0.0
 30
0.0
  9
$PUCSBASE
  2

  9
$PUCSNAME
  2

  9
$PUCSORG
 10
0.0
 20
0.0
 30
0.0
  9
$PUCSXDIR
 10
1.0
 20
0.0
 30
0.0
  9
$PUCSYDIR
 10
0.0
 20
1.0
 30
0.0
  9
$PUCSORTHOREF
  2

  9
$PUCSORTHOVIEW
 70
     0
  9
$PUCSORGTOP
 10
0.0
 20
0.0
 30
0.0
  9
$PUCSORGBOTTOM
 10
0.0
 20
0.0
 30
0.0
  9
$PUCSORGLEFT
 10
0.0
 20
0.0
 30
0.0
  9
$PUCSORGRIGHT
 10
0.0
 20
0.0
 30
0.0
  9
$PUCSORGFRONT
 10
0.0
 20
0.0
 30
0.0
  9
$PUCSORGBACK
 10
0.0
 20
0.0
 30
0.0
  9
$USERI1
 70
     0
  9
$USERI2
 70
     0
  9
$USERI3
 70
     0
  9
$USERI4
 70
     0
  9
$USERI5
 70
     0
  9
$USERR1
 40
0.0
  9
$USERR2
 40
0.0
  9
$USERR3
 40
0.0
  9
$USERR4
 40
0.0
  9
$USERR5
 40
0.0
  9
$WORLDVIEW
 70
     1
  9
$SHADEDGE
 70
     3
  9
$SHADEDIF
 70
    70
  9
$TILEMODE
 70
     1
  9
$MAXACTVP
 70
    64
  9
$PINSBASE
 10
0.0
 20
0.0
 30
0.0
  9
$PLIMCHECK
 70
     0
  9
$PEXTMIN
 10
1.000000000000000E+20
 20
1.000000000000000E+20
 30
1.000000000000000E+20
  9
$PEXTMAX
 10
-1.000000000000000E+20
 20
-1.000000000000000E+20
 30
-1.000000000000000E+20
  9
$PLIMMIN
 10
0.0
 20
0.0
  9
$PLIMMAX
 10
12.0
 20
9.0
  9
$UNITMODE
 70
     0
  9
$VISRETAIN
 70
     1
  9
$PLINEGEN
 70
     0
  9
$PSLTSCALE
 70
     1
  9
$TREEDEPTH
 70
  3020
  9
$CMLSTYLE
  2
Standard
  9
$CMLJUST
 70
     0
  9
$CMLSCALE
 40
1.0
  9
$PROXYGRAPHICS
 70
     1
  9
$MEASUREMENT
 70
     0
  9
$CELWEIGHT
370
    -1
  9
$ENDCAPS
280
     0
  9
$JOINSTYLE
280
     0
  9
$LWDISPLAY
290
     0
  9
$INSUNITS
 70
     0
  9
$HYPERLINKBASE
  1

  9
$STYLESHEET
  1

  9
$XEDIT
290
     1
  9
$CEPSNTYPE
380
     0
  9
$PSTYLEMODE
290
     1
  9
$FINGERPRINTGUID
  2
{D4783A3D-4124-40A0-B7F5-1B0B102C2435}
  9
$VERSIONGUID
  2
{56CD4DE2-1F2B-475C-BF37-0C556AFABB7C}
  9
$EXTNAMES
290
     1
  9
$PSVPSCALE
 40
0.0
  9
$OLESTARTUP
290
     0
  0
ENDSEC
  0
SECTION
  2
CLASSES
  0
CLASS
  1
ACDBDICTIONARYWDFLT
  2
AcDbDictionaryWithDefault
  3
ObjectDBX Classes
 90
        0
280
     0
281
     0
  0
CLASS
  1
MATERIAL
  2
AcDbMaterial
  3
ObjectDBX Classes
 90
     1153
280
     0
281
     0
  0
CLASS
  1
VISUALSTYLE
  2
AcDbVisualStyle
  3
ObjectDBX Classes
 90
     4095
280
     0
281
     0
  0
CLASS
  1
SCALE
  2
AcDbScale
  3
ObjectDBX Classes
 90
     1153
280
     0
281
     0
  0
CLASS
  1
TABLESTYLE
  2
AcDbTableStyle
  3
ObjectDBX Classes
 90
     4095
280
     0
281
     0
  0
CLASS
  1
MLEADERSTYLE
  2
AcDbMLeaderStyle
  3
ACDB_MLEADERSTYLE_CLASS
 90
     4095
280
     0
281
     0
  0
CLASS
  1
SORTENTSTABLE
  2
AcDbSortentsTable
  3
ObjectDBX Classes
 90
        0
280
     0
281
     0
  0
CLASS
  1
DICTIONARYVAR
  2
AcDbDictionaryVar
  3
ObjectDBX Classes
 90
        0
280
     0
281
     0
  0
CLASS
  1
CELLSTYLEMAP
  2
AcDbCellStyleMap
  3
ObjectDBX Classes
 90
     1152
280
     0
281
     0
  0
CLASS
  1
ACDBPLACEHOLDER
  2
AcDbPlaceHolder
  3
ObjectDBX Classes
 90
        0
280
     0
281
     0
  0
CLASS
  1
LAYOUT
  2
AcDbLayout
  3
ObjectDBX Classes
 90
        0
280
     0
281
     0
  0
ENDSEC
  0
SECTION
  2
TABLES
  0
TABLE
  2
VPORT
  5
8
330
0
100
AcDbSymbolTable
 70
     1
  0
VPORT
  5
8B
330
8
100
AcDbSymbolTableRecord
100
AcDbViewportTableRecord
  2
*Active
 70
     0
 10
0.0
 20
0.0
 11
1.0
 21
1.0
 12
1150.627317013211
 22
-177.8252361712107
 13
0.0
 23
0.0
 14
1.0
 24
1.0
 15
0.0
 25
0.0
 16
0.0
 26
0.0
 36
1.0
 17
0.0
 27
0.0
 37
0.0
 40
671.5647476825766
 41
1.709039548022598
 42
50.0
 43
0.0
 44
0.0
 50
0.0
 51
0.0
 71
     0
 72
   100
 73
     1
 74
     1
 75
     0
 76
     0
 77
     0
 78
     0
281
     0
 65
     1
110
0.0
120
0.0
130
0.0
111
1.0
121
0.0
131
0.0
112
0.0
122
1.0
132
0.0
 79
     0
146
0.0
  0
ENDTAB
  0
TABLE
  2
LTYPE
  5
5
330
0
100
AcDbSymbolTable
 70
     1
  0
LTYPE
  5
5A
330
5
100
AcDbSymbolTableRecord
100
AcDbLinetypeTableRecord
  2
ByBlock
 70
     0
  3

 72
    65
 73
     0
 40
0.0
  0
LTYPE
  5
5B
330
5
100
AcDbSymbolTableRecord
100
AcDbLinetypeTableRecord
  2
ByLayer
 70
     0
  3

 72
    65
 73
     0
 40
0.0
  0
LTYPE
  5
5C
330
5
100
AcDbSymbolTableRecord
100
AcDbLinetypeTableRecord
  2
CONTINUOUS
 70
     0
  3
Solid-line
 72
    65
 73
     0
 40
0.0
  0
ENDTAB
  0
TABLE
  2
LAYER
  5
2
102
{ACAD_XDICTIONARY
360
4F7
102
}
330
0
100
AcDbSymbolTable
 70
     2
  0
LAYER
  5
54
102
{ACAD_XDICTIONARY
360
69C
102
}
330
2
100
AcDbSymbolTableRecord
100
AcDbLayerTableRecord
  2
0
 70
     0
 62
     7
  6
CONTINUOUS
370
    -3
390
F
  0
LAYER
  5
4E0
330
2
100
AcDbSymbolTableRecord
100
AcDbLayerTableRecord
  2
Defpoints
 70
     0
 62
     7
  6
CONTINUOUS
290
     0
370
    -3
390
F
  0
ENDTAB
  0
TABLE
  2
STYLE
  5
3
330
0
100
AcDbSymbolTable
 70
     5
  0
STYLE
  5
55
330
3
100
AcDbSymbolTableRecord
100
AcDbTextStyleTableRecord
  2
STANDARD
 70
     0
 40
0.0
 41
1.0
 50
0.0
 71
     0
 42
0.2
  3
TXT
  4
BIGFONT
  0
STYLE
  5
4E1
330
3
100
AcDbSymbolTableRecord
100
AcDbTextStyleTableRecord
  2
高3.2
 70
     0
 40
3.2
 41
1.0
 50
0.0
 71
     0
 42
3.2
  3
txt.shx
  4
bigfont.shx
  0
STYLE
  5
4E2
330
3
100
AcDbSymbolTableRecord
100
AcDbTextStyleTableRecord
  2
高6.3
 70
     0
 40
6.299999999999998
 41
1.0
 50
0.0
 71
     0
 42
6.299999999999998
  3
txt.shx
  4
bigfont.shx
  0
STYLE
  5
4E4
330
3
100
AcDbSymbolTableRecord
100
AcDbTextStyleTableRecord
  2
高4.5
 70
     0
 40
4.5
 41
1.0
 50
0.0
 71
     0
 42
6.299999999999998
  3
txt.shx
  4
bigfont.shx
  0
STYLE
  5
4E5
330
3
100
AcDbSymbolTableRecord
100
AcDbTextStyleTableRecord
  2
高2
 70
     0
 40
2.0
 41
1.0
 50
0.0
 71
     0
 42
2.0
  3
txt.shx
  4
bigfont.shx
  0
ENDTAB
  0
TABLE
  2
VIEW
  5
6
330
0
100
AcDbSymbolTable
 70
     0
  0
ENDTAB
  0
TABLE
  2
UCS
  5
7
330
0
100
AcDbSymbolTable
 70
     0
  0
ENDTAB
  0
TABLE
  2
APPID
  5
9
330
0
100
AcDbSymbolTable
 70
    10
  0
APPID
  5
56
330
9
100
AcDbSymbolTableRecord
100
AcDbRegAppTableRecord
  2
ACAD
 70
     0
  0
APPID
  5
5D
330
9
100
AcDbSymbolTableRecord
100
AcDbRegAppTableRecord
  2
AcadAnnotative
 70
     0
  0
APPID
  5
4F0
330
9
100
AcDbSymbolTableRecord
100
AcDbRegAppTableRecord
  2
ACAD_DSTYLE_DIMJOGGED_JOGANGLE_SYMBOL
 70
     0
  0
APPID
  5
4F1
330
9
100
AcDbSymbolTableRecord
100
AcDbRegAppTableRecord
  2
ACAD_DSTYLE_DIMJAG
 70
     0
  0
APPID
  5
4F2
330
9
100
AcDbSymbolTableRecord
100
AcDbRegAppTableRecord
  2
ACAD_DSTYLE_DIMBREAK
 70
     0
  0
APPID
  5
4F3
330
9
100
AcDbSymbolTableRecord
100
AcDbRegAppTableRecord
  2
ACAD_DSTYLE_DIMTALN
 70
     0
  0
APPID
  5
637
330
9
100
AcDbSymbolTableRecord
100
AcDbRegAppTableRecord
  2
ACAD_EXEMPT_FROM_CAD_STANDARDS
 70
     0
  0
APPID
  5
6E2
330
9
100
AcDbSymbolTableRecord
100
AcDbRegAppTableRecord
  2
ACAD_MLEADERVER
 70
     0
  0
APPID
  5
6E7
330
9
100
AcDbSymbolTableRecord
100
AcDbRegAppTableRecord
  2
ACAD_DSTYLE_DIMARC_LENGTH_SYMBOL
 70
     0
  0
APPID
  5
6E8
330
9
100
AcDbSymbolTableRecord
100
AcDbRegAppTableRecord
  2
ACAD_DSTYLE_DIMEXT_LENGTH
 70
     0
  0
ENDTAB
  0
TABLE
  2
DIMSTYLE
  5
A
330
0
100
AcDbSymbolTable
 70
     2
100
AcDbDimStyleTable
 71
     1
340
4EF
  0
DIMSTYLE
105
57
330
A
100
AcDbSymbolTableRecord
100
AcDbDimStyleTableRecord
  2
Standard
 70
     0
340
55
  0
DIMSTYLE
105
4EF
330
A
100
AcDbSymbolTableRecord
100
AcDbDimStyleTableRecord
  2
FREE
 70
     0
 41
2.5
 42
0.25
 43
0.2
 44
1.25
 73
     0
 74
     0
 77
     3
 78
     8
 79
     2
140
3.0
141
0.0
143
0.03937007874016
147
0.625
171
     3
172
     1
178
     4
179
     1
271
     2
272
     2
274
     3
283
     0
284
     8
288
     1
289
     0
340
55
341
450
342
450
1001
ACAD_DSTYLE_DIMBREAK
1070
   391
1040
3.75
1001
ACAD_DSTYLE_DIMJAG
1070
   388
1040
1.5
1001
ACAD_DSTYLE_DIMTALN
1070
   392
1070
     0
1001
ACAD_DSTYLE_DIMARC_LENGTH_SYMBOL
1070
   379
1070
     2
1001
ACAD_DSTYLE_DIMEXT_LENGTH
1070
   378
1040
1.25
1001
ACAD_DSTYLE_DIMJOGGED_JOGANGLE_SYMBOL
1070
   384
1040
1.570796326794896
  0
ENDTAB
  0
TABLE
  2
BLOCK_RECORD
  5
1
330
0
100
AcDbSymbolTable
 70
     4
  0
BLOCK_RECORD
  5
6B
102
{ACAD_XDICTIONARY
360
74C
102
}
330
1
100
AcDbSymbolTableRecord
100
AcDbBlockTableRecord
  2
*Model_Space
340
6E
  0
BLOCK_RECORD
  5
67
330
1
100
AcDbSymbolTableRecord
100
AcDbBlockTableRecord
  2
*Paper_Space
340
6A
  0
BLOCK_RECORD
  5
450
330
1
100
AcDbSymbolTableRecord
100
AcDbBlockTableRecord
  2
_Open30
340
0
102
{BLKREFS
331
6F2
331
6F3
331
6FB
331
6FC
331
704
331
705
102
}
  0
BLOCK_RECORD
  5
639
330
1
100
AcDbSymbolTableRecord
100
AcDbBlockTableRecord
  2
*D1
340
0
  0
BLOCK_RECORD
  5
646
330
1
100
AcDbSymbolTableRecord
100
AcDbBlockTableRecord
  2
*D2
340
0
  0
BLOCK_RECORD
  5
653
330
1
100
AcDbSymbolTableRecord
100
AcDbBlockTableRecord
  2
*D3
340
0
  0
ENDTAB
  0
ENDSEC
  0
SECTION
  2
BLOCKS
  0
BLOCK
  5
6C
330
6B
100
AcDbEntity
  8
0
100
AcDbBlockBegin
  2
*Model_Space
 70
     0
 10
0.0
 20
0.0
 30
0.0
  3
*Model_Space
  1

  0
ENDBLK
  5
6D
330
6B
100
AcDbEntity
  8
0
100
AcDbBlockEnd
  0
BLOCK
  5
68
330
67
100
AcDbEntity
 67
     1
  8
0
100
AcDbBlockBegin
  2
*Paper_Space
 70
     0
 10
0.0
 20
0.0
 30
0.0
  3
*Paper_Space
  1

  0
ENDBLK
  5
69
330
67
100
AcDbEntity
 67
     1
  8
0
100
AcDbBlockEnd
  0
BLOCK
  5
451
330
450
100
AcDbEntity
  8
0
100
AcDbBlockBegin
  2
_Open30
 70
     0
 10
0.0
 20
0.0
 30
0.0
  3
_Open30
  1

  0
LINE
  5
452
330
450
100
AcDbEntity
  8
0
  6
ByBlock
 62
     0
370
    -2
100
AcDbLine
 10
-1.0
 20
0.267949
 30
0.0
 11
0.0
 21
0.0
 31
0.0
  0
LINE
  5
453
330
450
100
AcDbEntity
  8
0
  6
ByBlock
 62
     0
370
    -2
100
AcDbLine
 10
0.0
 20
0.0
 30
0.0
 11
-1.0
 21
-0.267949
 31
0.0
  0
LINE
  5
454
330
450
100
AcDbEntity
  8
0
  6
ByBlock
 62
     0
370
    -2
100
AcDbLine
 10
0.0
 20
0.0
 30
0.0
 11
-1.0
 21
0.0
 31
0.0
  0
ENDBLK
  5
455
330
450
100
AcDbEntity
  8
0
100
AcDbBlockEnd
  0
BLOCK
  5
63A
330
639
100
AcDbEntity
  8
0
100
AcDbBlockBegin
  2
*D1
 70
     1
 10
0.0
 20
0.0
 30
0.0
  3
*D1
  1

  0
LINE
  5
701
330
639
100
AcDbEntity
  8
0
 62
     0
370
    -2
100
AcDbLine
 10
1105.464045
 20
-204.663594
 30
0.0
 11
1105.464045
 21
-230.015397
 31
0.0
  0
LINE
  5
702
330
639
100
AcDbEntity
  8
0
 62
     0
370
    -2
100
AcDbLine
 10
1251.764045
 20
-204.663594
 30
0.0
 11
1251.764045
 21
-230.015397
 31
0.0
  0
LINE
  5
703
330
639
100
AcDbEntity
  8
0
 62
     0
370
    -2
100
AcDbLine
 10
1107.964045
 20
-228.765397
 30
0.0
 11
1249.264045
 21
-228.765397
 31
0.0
  0
INSERT
  5
704
330
639
100
AcDbEntity
  8
0
 62
     0
370
    -2
100
AcDbBlockReference
  2
_Open30
 10
1105.464045
 20
-228.765397
 30
0.0
 41
2.5
 42
2.5
 43
2.5
 50
180.0
  0
INSERT
  5
705
330
639
100
AcDbEntity
  8
0
 62
     0
370
    -2
100
AcDbBlockReference
  2
_Open30
 10
1251.764045
 20
-228.765397
 30
0.0
 41
2.5
 42
2.5
 43
2.5
  0
MTEXT
  5
706
330
639
100
AcDbEntity
  8
0
 62
     4
100
AcDbMText
 10
1178.614044999999
 20
-226.640397
 30
0.0
 40
3.0
 41
0.0
 71
     5
 72
     1
  1
180
 73
     1
 44
1.0
1001
ACAD
1000
MTEXTBEGIN
1070
    73
1070
     1
1070
    44
1040
1.0
1070
    74
1070
     0
1000
MTEXTEND
  0
POINT
  5
707
330
639
100
AcDbEntity
  8
Defpoints
 62
     0
100
AcDbPoint
 10
1105.464045
 20
-204.413594
 30
0.0
  0
POINT
  5
708
330
639
100
AcDbEntity
  8
Defpoints
 62
     0
100
AcDbPoint
 10
1251.764045
 20
-204.413594
 30
0.0
  0
POINT
  5
709
330
639
100
AcDbEntity
  8
Defpoints
 62
     0
100
AcDbPoint
 10
1251.764045
 20
-228.765397
 30
0.0
  0
ENDBLK
  5
63B
330
639
100
AcDbEntity
  8
0
100
AcDbBlockEnd
  0
BLOCK
  5
647
330
646
100
AcDbEntity
  8
0
100
AcDbBlockBegin
  2
*D2
 70
     1
 10
0.0
 20
0.0
 30
0.0
  3
*D2
  1

  0
LINE
  5
6F8
330
646
100
AcDbEntity
  8
0
 62
     0
370
    -2
100
AcDbLine
 10
1066.531045
 20
-205.260594
 30
0.0
 11
1089.280802
 21
-205.260594
 31
0.0
  0
LINE
  5
6F9
330
646
100
AcDbEntity
  8
0
 62
     0
370
    -2
100
AcDbLine
 10
1055.369125
 20
-97.802474
 30
0.0
 11
1089.280802
 21
-97.80247400000002
 31
0.0
  0
LINE
  5
6FA
330
646
100
AcDbEntity
  8
0
 62
     0
370
    -2
100
AcDbLine
 10
1088.030802
 20
-202.760594
 30
0.0
 11
1088.030802
 21
-100.302474
 31
0.0
  0
INSERT
  5
6FB
330
646
100
AcDbEntity
  8
0
 62
     0
370
    -2
100
AcDbBlockReference
  2
_Open30
 10
1088.030802
 20
-205.260594
 30
0.0
 41
2.5
 42
2.5
 43
2.5
 50
270.0
  0
INSERT
  5
6FC
330
646
100
AcDbEntity
  8
0
 62
     0
370
    -2
100
AcDbBlockReference
  2
_Open30
 10
1088.030802
 20
-97.80247400000002
 30
0.0
 41
2.5
 42
2.5
 43
2.5
 50
90.0
  0
MTEXT
  5
6FD
330
646
100
AcDbEntity
  8
0
 62
     4
100
AcDbMText
 10
1085.905802
 20
-151.5315339999998
 30
0.0
 40
3.0
 41
0.0
 71
     5
 72
     1
  1
145
 11
0.0000000000000001
 21
1.0
 31
0.0
 73
     1
 44
1.0
1001
ACAD
1000
MTEXTBEGIN
1070
    73
1070
     1
1070
    44
1040
1.0
1070
    74
1070
     0
1000
MTEXTEND
  0
POINT
  5
6FE
330
646
100
AcDbEntity
  8
Defpoints
 62
     0
100
AcDbPoint
 10
1066.281045
 20
-205.260594
 30
0.0
  0
POINT
  5
6FF
330
646
100
AcDbEntity
  8
Defpoints
 62
     0
100
AcDbPoint
 10
1055.119125
 20
-97.802474
 30
0.0
  0
POINT
  5
700
330
646
100
AcDbEntity
  8
Defpoints
 62
     0
100
AcDbPoint
 10
1088.030802
 20
-97.80247400000002
 30
0.0
  0
ENDBLK
  5
648
330
646
100
AcDbEntity
  8
0
100
AcDbBlockEnd
  0
BLOCK
  5
654
330
653
100
AcDbEntity
  8
0
100
AcDbBlockBegin
  2
*D3
 70
     1
 10
0.0
 20
0.0
 30
0.0
  3
*D3
  1

  0
LINE
  5
6EF
330
653
100
AcDbEntity
  8
0
 62
     0
370
    -2
100
AcDbLine
 10
1015.849125
 20
-199.347514
 30
0.0
 11
1015.849125
 21
-230.015397
 31
0.0
  0
LINE
  5
6F0
330
653
100
AcDbEntity
  8
0
 62
     0
370
    -2
100
AcDbLine
 10
1077.449125
 20
-199.347514
 30
0.0
 11
1077.449125
 21
-230.015397
 31
0.0
  0
LINE
  5
6F1
330
653
100
AcDbEntity
  8
0
 62
     0
370
    -2
100
AcDbLine
 10
1018.349125
 20
-228.765397
 30
0.0
 11
1074.949125
 21
-228.765397
 31
0.0
  0
INSERT
  5
6F2
330
653
100
AcDbEntity
  8
0
 62
     0
370
    -2
100
AcDbBlockReference
  2
_Open30
 10
1015.849125
 20
-228.765397
 30
0.0
 41
2.5
 42
2.5
 43
2.5
 50
180.0
  0
INSERT
  5
6F3
330
653
100
AcDbEntity
  8
0
 62
     0
370
    -2
100
AcDbBlockReference
  2
_Open30
 10
1077.449125
 20
-228.765397
 30
0.0
 41
2.5
 42
2.5
 43
2.5
  0
MTEXT
  5
6F4
330
653
100
AcDbEntity
  8
0
 62
     4
100
AcDbMText
 10
1046.649125
 20
-226.640397
 30
0.0
 40
3.0
 41
0.0
 71
     5
 72
     1
  1
88
 73
     1
 44
1.0
1001
ACAD
1000
MTEXTBEGIN
1070
    73
1070
     1
1070
    44
1040
1.0
1070
    74
1070
     0
1000
MTEXTEND
  0
POINT
  5
6F5
330
653
100
AcDbEntity
  8
Defpoints
 62
     0
100
AcDbPoint
 10
1015.849125
 20
-199.097514
 30
0.0
  0
POINT
  5
6F6
330
653
100
AcDbEntity
  8
Defpoints
 62
     0
100
AcDbPoint
 10
1077.449125
 20
-199.097514
 30
0.0
  0
POINT
  5
6F7
330
653
100
AcDbEntity
  8
Defpoints
 62
     0
100
AcDbPoint
 10
1077.449125
 20
-228.765397
 30
0.0
  0
ENDBLK
  5
655
330
653
100
AcDbEntity
  8
0
100
AcDbBlockEnd
  0
ENDSEC
  0
SECTION
  2
ENTITIES
  0
TEXT
  5
BB
330
6B
100
AcDbEntity
  8
0
 62
     3
100
AcDbText
 10
1282.608115
 20
-299.988096
 30
0.0
 40
4.5
  1
海外用トランス
  7
高4.5
100
AcDbText
  0
LINE
  5
BE
330
6B
100
AcDbEntity
  8
0
 62
     3
100
AcDbLine
 10
1350.418592
 20
-315.832356
 30
0.0
 11
1350.418592
 21
-292.832356
 31
0.0
  0
LINE
  5
C0
330
6B
100
AcDbEntity
  8
0
 62
     3
100
AcDbLine
 10
1297.364982
 20
-322.832356
 30
0.0
 11
1297.364982
 21
-308.832356
 31
0.0
  0
TEXT
  5
C2
330
6B
100
AcDbEntity
  8
0
 62
     3
100
AcDbText
 10
1326.42891
 20
-296.62724
 30
0.0
 40
2.0
  1
A
 41
0.7
100
AcDbText
  0
TEXT
  5
C3
330
6B
100
AcDbEntity
  8
0
 62
     3
100
AcDbText
 10
1328.964196
 20
-296.62724
 30
0.0
 40
2.0
  1
P
 41
0.7
100
AcDbText
  0
TEXT
  5
C4
330
6B
100
AcDbEntity
  8
0
 62
     3
100
AcDbText
 10
1331.499482
 20
-296.62724
 30
0.0
 40
2.0
  1
P
 41
0.7
100
AcDbText
  0
TEXT
  5
C5
330
6B
100
AcDbEntity
  8
0
 62
     3
100
AcDbText
 10
1334.034768
 20
-296.62724
 30
0.0
 40
2.0
  1
D
 41
0.7
100
AcDbText
  0
TEXT
  5
C6
330
6B
100
AcDbEntity
  8
0
 62
     3
100
AcDbText
 10
1339.403452
 20
-296.62724
 30
0.0
 40
2.0
  1
C
 41
0.7
100
AcDbText
  0
TEXT
  5
C7
330
6B
100
AcDbEntity
  8
0
 62
     3
100
AcDbText
 10
1341.938738
 20
-296.62724
 30
0.0
 40
2.0
  1
H
 41
0.7
100
AcDbText
  0
TEXT
  5
C8
330
6B
100
AcDbEntity
  8
0
 62
     3
100
AcDbText
 10
1344.474024
 20
-296.62724
 30
0.0
 40
2.0
  1
C
 41
0.7
100
AcDbText
  0
TEXT
  5
C9
330
6B
100
AcDbEntity
  8
0
 62
     3
100
AcDbText
 10
1347.00931
 20
-296.62724
 30
0.0
 40
2.0
  1
K
 41
0.7
100
AcDbText
  0
TEXT
  5
CA
330
6B
100
AcDbEntity
  8
0
 62
     3
100
AcDbText
 10
1352.683277
 20
-296.62724
 30
0.0
 40
2.0
  1
DESN
 41
1.216762999999998
100
AcDbText
  0
TEXT
  5
CB
330
6B
100
AcDbEntity
  8
0
 62
     3
100
AcDbText
 10
1267.676918
 20
-325.973738
 30
0.0
 40
2.0
  1
NICHIDO IND.CO.LTD
 41
1.274876
100
AcDbText
  0
LINE
  5
CC
330
6B
100
AcDbEntity
  8
0
 62
     3
100
AcDbLine
 10
1278.059947
 20
-292.832356
 30
0.0
 11
1278.059947
 21
-315.832356
 31
0.0
  0
LINE
  5
CD
330
6B
100
AcDbEntity
  8
0
 62
     3
100
AcDbLine
 10
1324.418592
 20
-292.8323560000001
 30
0.0
 11
1324.418592
 21
-332.498079
 31
0.0
  0
LINE
  5
D2
330
6B
100
AcDbEntity
  8
0
 62
     3
100
AcDbLine
 10
1337.418592
 20
-292.832356
 30
0.0
 11
1337.418592
 21
-322.832356
 31
0.0
  0
TEXT
  5
D3
330
6B
100
AcDbEntity
  8
0
 62
     3
100
AcDbText
 10
1325.531036
 20
-321.967669
 30
0.0
 40
3.2
  1
作成日
 41
1.017225999999998
100
AcDbText
  0
LINE
  5
D4
330
6B
100
AcDbEntity
  8
0
 62
     3
100
AcDbLine
 10
1376.117955
 20
-292.832356
 30
0.0
 11
1264.814513
 21
-292.832356
 31
0.0
  0
LINE
  5
D5
330
6B
100
AcDbEntity
  8
0
 62
     3
100
AcDbLine
 10
1363.418592
 20
-315.832356
 30
0.0
 11
1363.418592
 21
-292.832356
 31
0.0
  0
TEXT
  5
D6
330
6B
100
AcDbEntity
  8
0
 62
     3
100
AcDbText
 10
1366.742395
 20
-296.541422
 30
0.0
 40
1.8
  1
D
 41
0.666667
100
AcDbText
  0
TEXT
  5
D7
330
6B
100
AcDbEntity
  8
0
 62
     3
100
AcDbText
 10
1369.559023
 20
-296.541422
 30
0.0
 40
1.8
  1
E
 41
0.666667
100
AcDbText
  0
TEXT
  5
D8
330
6B
100
AcDbEntity
  8
0
 62
     3
100
AcDbText
 10
1372.375652
 20
-296.541422
 30
0.0
 40
1.8
  1
F
 41
0.666667
100
AcDbText
  0
TEXT
  5
D9
330
6B
100
AcDbEntity
  8
0
 62
     3
100
AcDbText
 10
1366.742395
 20
-300.533975
 30
0.0
 40
3.2
  1
製図
 41
1.076369
100
AcDbText
  0
LINE
  5
DA
330
6B
100
AcDbEntity
  8
0
 62
     3
100
AcDbLine
 10
1264.814513
 20
-292.832356
 30
0.0
 11
1264.814513
 21
-332.498079
 31
0.0
  0
TEXT
  5
DB
330
6B
100
AcDbEntity
  8
0
 62
     3
100
AcDbText
 10
1266.191166
 20
-332.165613
 30
0.0
 40
5.0
  1
日動工業株式会社
 41
0.833333
100
AcDbText
  0
LINE
  5
DC
330
6B
100
AcDbEntity
  8
0
 62
     3
100
AcDbLine
 10
1307.696917
 20
-308.832356
 30
0.0
 11
1307.696917
 21
-332.498079
 31
0.0
  0
LINE
  5
DD
330
6B
100
AcDbEntity
  8
0
 62
     3
100
AcDbLine
 10
1307.696917
 20
-327.665217
 30
0.0
 11
1324.418592
 21
-327.665217
 31
0.0
  0
TEXT
  5
DE
330
6B
100
AcDbEntity
  8
0
 62
     3
100
AcDbText
 10
1308.283519
 20
-326.848787
 30
0.0
 40
3.2
  1
出図コード
 41
0.8356860000000001
100
AcDbText
  0
LINE
  5
F0
330
6B
100
AcDbEntity
  8
0
 62
     3
100
AcDbLine
 10
1264.814513
 20
-322.8323560000001
 30
0.0
 11
1376.117955
 21
-322.832356
 31
0.0
  0
LINE
  5
F2
330
6B
100
AcDbEntity
  8
0
 62
     3
100
AcDbLine
 10
1264.814513
 20
-301.832356
 30
0.0
 11
1376.117955
 21
-301.832356
 31
0.0
  0
LINE
  5
F8
330
6B
100
AcDbEntity
  8
0
 62
     3
100
AcDbLine
 10
1264.814513
 20
-308.832356
 30
0.0
 11
1324.418592
 21
-308.832356
 31
0.0
  0
LINE
  5
FE
330
6B
100
AcDbEntity
  8
0
 62
     3
100
AcDbLine
 10
1264.814513
 20
-315.832356
 30
0.0
 11
1376.117955
 21
-315.832356
 31
0.0
  0
LINE
  5
102
330
6B
100
AcDbEntity
  8
0
 62
     3
100
AcDbLine
 10
1376.117955
 20
-58.44271800000001
 30
0.0
 11
1376.117955
 21
-332.498079
 31
0.0
  0
LINE
  5
103
330
6B
100
AcDbEntity
  8
0
 62
     3
100
AcDbLine
 10
986.1179550000001
 20
-58.44271800000001
 30
0.0
 11
986.1179550000001
 21
-332.498079
 31
0.0
  0
LINE
  5
104
330
6B
100
AcDbEntity
  8
0
 62
     3
100
AcDbLine
 10
1376.117955
 20
-332.498079
 30
0.0
 11
986.1179550000001
 21
-332.498079
 31
0.0
  0
TEXT
  5
107
330
6B
100
AcDbEntity
  8
0
 62
     3
100
AcDbText
 10
1308.15097
 20
-332.0982517334833
 30
0.0
 40
3.2
  1
ZK-A3X
 41
0.8112849999999999
100
AcDbText
  0
TEXT
  5
108
330
6B
100
AcDbEntity
  8
0
 62
     3
100
AcDbText
 10
1266.63191
 20
-296.66283
 30
0.0
 40
2.0
  1
CONPONENTS
 41
0.5331600000000001
100
AcDbText
  0
TEXT
  5
109
330
6B
100
AcDbEntity
  8
0
 62
     3
100
AcDbText
 10
1266.282183
 20
-315.595007
 30
0.0
 40
3.0
  1
材
 41
0.833333
100
AcDbText
  0
TEXT
  5
10A
330
6B
100
AcDbEntity
  8
0
 62
     3
100
AcDbText
 10
1273.817826
 20
-315.595007
 30
0.0
 40
3.0
  1
質
 41
0.833333
100
AcDbText
  0
TEXT
  5
10B
330
6B
100
AcDbEntity
  8
0
 62
     3
100
AcDbText
 10
1266.370254
 20
-304.970483
 30
0.0
 40
2.0
  1
MODEL
 41
1.031072999999999
100
AcDbText
  0
TEXT
  5
10C
330
6B
100
AcDbEntity
  8
0
 62
     3
100
AcDbText
 10
1266.282183
 20
-311.912699
 30
0.0
 40
2.0
  1
MATERIAL
 41
0.659278
100
AcDbText
  0
TEXT
  5
10D
330
6B
100
AcDbEntity
  8
0
 62
     3
100
AcDbText
 10
1297.589463
 20
-315.595007
 30
0.0
 40
3.0
  1
備
 41
0.833333
100
AcDbText
  0
TEXT
  5
10E
330
6B
100
AcDbEntity
  8
0
 62
     3
100
AcDbText
 10
1304.322465
 20
-315.595007
 30
0.0
 40
3.0
  1
考
 41
0.833333
100
AcDbText
  0
TEXT
  5
10F
330
6B
100
AcDbEntity
  8
0
 62
     3
100
AcDbText
 10
1297.963913379394
 20
-311.912699
 30
0.0
 40
2.0
  1
REMARKS
 41
0.675794
100
AcDbText
  0
TEXT
  5
110
330
6B
100
AcDbEntity
  8
0
 62
     3
100
AcDbText
 10
1267.871912
 20
-318.83282
 30
0.0
 40
2.0
  1
3AD
 41
1.42614
100
AcDbText
  0
TEXT
  5
111
330
6B
100
AcDbEntity
  8
0
 62
     3
100
AcDbText
 10
1277.182892
 20
-318.667086
 30
0.0
 40
2.0
  1
ANGLE
 41
1.669883999999998
100
AcDbText
  0
TEXT
  5
112
330
6B
100
AcDbEntity
  8
0
 62
     3
100
AcDbText
 10
1298.116779
 20
-319.043927
 30
0.0
 40
2.0
  1
SCALE
 41
0.7719630000000001
100
AcDbText
  0
TEXT
  5
113
330
6B
100
AcDbEntity
  8
0
 62
     3
100
AcDbText
 10
1267.558042
 20
-322.832356
 30
0.0
 40
3.0
  1
第
 41
0.833333
100
AcDbText
  0
TEXT
  5
114
330
6B
100
AcDbEntity
  8
0
 62
     3
100
AcDbText
 10
1275.344892
 20
-322.832356
 30
0.0
 40
3.0
  1
三
 41
0.833333
100
AcDbText
  0
TEXT
  5
115
330
6B
100
AcDbEntity
  8
0
 62
     3
100
AcDbText
 10
1283.131742
 20
-322.832356
 30
0.0
 40
3.0
  1
角
 41
0.833333
100
AcDbText
  0
TEXT
  5
116
330
6B
100
AcDbEntity
  8
0
 62
     3
100
AcDbText
 10
1290.918592
 20
-322.832356
 30
0.0
 40
3.0
  1
法
 41
0.833333
100
AcDbText
  0
TEXT
  5
117
330
6B
100
AcDbEntity
  8
0
 62
     3
100
AcDbText
 10
1297.979984
 20
-322.543927
 30
0.0
 40
3.0
  1
尺
 41
0.833333
100
AcDbText
  0
TEXT
  5
118
330
6B
100
AcDbEntity
  8
0
 62
     3
100
AcDbText
 10
1304.712986
 20
-322.543927
 30
0.0
 40
3.0
  1
度
 41
0.833333
100
AcDbText
  0
TEXT
  5
119
330
6B
100
AcDbEntity
  8
0
 62
     3
100
AcDbText
 10
1327.296256
 20
-300.374627
 30
0.0
 40
3.0
  1
承認
 41
1.089472999999999
100
AcDbText
  0
TEXT
  5
11A
330
6B
100
AcDbEntity
  8
0
 62
     3
100
AcDbText
 10
1340.539136
 20
-300.432356
 30
0.0
 40
3.0
  1
検図
 41
0.931761
100
AcDbText
  0
TEXT
  5
11B
330
6B
100
AcDbEntity
  8
0
 62
     3
100
AcDbText
 10
1353.539533
 20
-300.432356
 30
0.0
 40
3.0
  1
設
 41
0.833333
100
AcDbText
  0
TEXT
  5
11C
330
6B
100
AcDbEntity
  8
0
 62
     3
100
AcDbText
 10
1358.029401
 20
-300.432356
 30
0.0
 40
3.0
  1
計
 41
0.833333
100
AcDbText
  0
TEXT
  5
11D
330
6B
100
AcDbEntity
  8
0
 62
     3
100
AcDbText
 10
1266.702016
 20
-300.259804
 30
0.0
 40
3.0
  1
品
 41
0.833333
100
AcDbText
  0
TEXT
  5
11E
330
6B
100
AcDbEntity
  8
0
 62
     3
100
AcDbText
 10
1274.237658
 20
-300.259804
 30
0.0
 40
3.0
  1
名
 41
0.833333
100
AcDbText
  0
TEXT
  5
11F
330
6B
100
AcDbEntity
  8
0
 62
     3
100
AcDbText
 10
1266.370254
 20
-308.5305276438943
 30
0.0
 40
3.0
  1
型
 41
0.833333
100
AcDbText
  0
TEXT
  5
120
330
6B
100
AcDbEntity
  8
0
 62
     3
100
AcDbText
 10
1273.918344
 20
-308.5305276438943
 30
0.0
 40
3.0
  1
式
 41
0.833333
100
AcDbText
  0
LINE
  5
128
330
6B
100
AcDbEntity
  8
0
 62
     3
100
AcDbLine
 10
1376.117955
 20
-58.44271800000001
 30
0.0
 11
986.1179550000001
 21
-58.44271800000001
 31
0.0
  0
LINE
  5
129
330
6B
100
AcDbEntity
  8
0
 62
     3
100
AcDbLine
 10
1350.418592
 20
-292.832356
 30
0.0
 11
1350.418592
 21
-286.832356
 31
0.0
  0
LINE
  5
12A
330
6B
100
AcDbEntity
  8
0
 62
     3
100
AcDbLine
 10
1324.418592
 20
-292.832356
 30
0.0
 11
1324.418592
 21
-286.832356
 31
0.0
  0
LINE
  5
12B
330
6B
100
AcDbEntity
  8
0
 62
     3
100
AcDbLine
 10
1376.117955
 20
-286.832356
 30
0.0
 11
1324.418592
 21
-286.832356
 31
0.0
  0
TEXT
  5
12C
330
6B
100
AcDbEntity
  8
0
 62
     3
100
AcDbText
 10
1330.41419
 20
-292.036007
 30
0.0
 40
4.5
  1
コード
  7
高4.5
100
AcDbText
  0
TEXT
  5
12D
330
6B
100
AcDbEntity
  8
0
 62
     3
100
AcDbText
 10
1056.18856823141
 20
-331.998079
 30
0.0
 40
3.2
  1
備　　　　　考　
 41
0.8
  7
高3.2
100
AcDbText
  0
TEXT
  5
12E
330
6B
100
AcDbEntity
  8
0
 62
     3
100
AcDbText
 10
1031.995960884054
 20
-331.998079
 30
0.0
 40
3.2
  1
個数
 41
0.8
  7
高3.2
100
AcDbText
  0
TEXT
  5
12F
330
6B
100
AcDbEntity
  8
0
 62
     3
100
AcDbText
 10
995.1762815625
 20
-331.998079
 30
0.0
 40
3.2
  1
部　　品　　名
 41
0.8
  7
高3.2
100
AcDbText
  0
TEXT
  5
130
330
6B
100
AcDbEntity
  8
0
 62
     3
100
AcDbText
 10
987.6179550000001
 20
-331.998079
 30
0.0
 40
3.2
  1
No
 41
0.8
  7
高3.2
100
AcDbText
  0
TEXT
  5
131
330
6B
100
AcDbEntity
  8
0
 62
     3
100
AcDbText
 10
1040.656999234481
 20
-331.998079
 30
0.0
 40
3.2
  1
材　質
 41
0.8
  7
高3.2
100
AcDbText
  0
LINE
  5
132
330
6B
100
AcDbEntity
  8
0
100
AcDbLine
 10
1324.300603377384
 20
-218.63387
 30
0.0
 11
1361.464349772061
 21
-218.63387
 31
0.0
  0
TEXT
  5
133
330
6B
100
AcDbEntity
  8
0
 62
     3
100
AcDbText
 10
1324.412153578131
 20
-217.6211814698522
 30
0.0
 40
4.5
  1
主　　仕　　様
  7
高4.5
100
AcDbText
  0
TEXT
  5
134
330
6B
100
AcDbEntity
  8
0
 62
     3
100
AcDbText
 10
1342.273545
 20
-321.532652
 30
0.0
 40
3.2
  1
2006.12.06
  7
高3.2
100
AcDbText
  0
TEXT
  5
135
330
6B
100
AcDbEntity
  8
0
 62
     3
100
AcDbText
 10
987.6179550000001
 20
-316.998079
 30
0.0
 40
3.2
  1
3
 41
0.8
  7
高3.2
100
AcDbText
  0
TEXT
  5
136
330
6B
100
AcDbEntity
  8
0
 62
     3
100
AcDbText
 10
987.6179550000001
 20
-311.998079
 30
0.0
 40
3.2
  1
4
 41
0.8
  7
高3.2
100
AcDbText
  0
TEXT
  5
137
330
6B
100
AcDbEntity
  8
0
 62
     3
100
AcDbText
 10
987.6179550000001
 20
-306.998079
 30
0.0
 40
3.2
  1
5
 41
0.8
  7
高3.2
100
AcDbText
  0
TEXT
  5
138
330
6B
100
AcDbEntity
  8
0
 62
     3
100
AcDbText
 10
987.6179550000001
 20
-301.998079
 30
0.0
 40
3.2
  1
6
 41
0.8
  7
高3.2
100
AcDbText
  0
TEXT
  5
139
330
6B
100
AcDbEntity
  8
0
 62
     3
100
AcDbText
 10
1031.995960884054
 20
-316.998079
 30
0.0
 40
3.2
  1
1
 41
0.8
  7
高3.2
100
AcDbText
  0
TEXT
  5
13A
330
6B
100
AcDbEntity
  8
0
 62
     3
100
AcDbText
 10
987.6179550000001
 20
-326.998079
 30
0.0
 40
3.2
  1
1
 41
0.8
  7
高3.2
100
AcDbText
  0
TEXT
  5
13B
330
6B
100
AcDbEntity
  8
0
 62
     3
100
AcDbText
 10
987.6179550000001
 20
-321.998079
 30
0.0
 40
3.2
  1
2
 41
0.8
  7
高3.2
100
AcDbText
  0
TEXT
  5
13C
330
6B
100
AcDbEntity
  8
0
 62
     3
100
AcDbText
 10
995.1762815625
 20
-326.998079
 30
0.0
 40
3.2
  1
ケース本体
 41
0.8
  7
高3.2
100
AcDbText
  0
TEXT
  5
13D
330
6B
100
AcDbEntity
  8
0
 62
     3
100
AcDbText
 10
1031.995960884054
 20
-311.998079
 30
0.0
 40
3.2
  1
1
 41
0.8
  7
高3.2
100
AcDbText
  0
TEXT
  5
13E
330
6B
100
AcDbEntity
  8
0
 62
     3
100
AcDbText
 10
1031.995960884054
 20
-326.998079
 30
0.0
 40
3.2
  1
1式
 41
0.8
  7
高3.2
100
AcDbText
  0
TEXT
  5
13F
330
6B
100
AcDbEntity
  8
0
 62
     3
100
AcDbText
 10
1310.335003
 20
-242.271452
 30
0.0
 40
3.2
  1
周波数
  7
高3.2
100
AcDbText
  0
TEXT
  5
140
330
6B
100
AcDbEntity
  8
0
 62
     3
100
AcDbText
 10
1310.335003
 20
-247.815452
 30
0.0
 40
3.2
  1
1次電圧
  7
高3.2
100
AcDbText
  0
TEXT
  5
141
330
6B
100
AcDbEntity
  8
0
 62
     3
100
AcDbText
 10
1310.335003
 20
-253.359452
 30
0.0
 40
3.2
  1
2次電圧
  7
高3.2
100
AcDbText
  0
TEXT
  5
142
330
6B
100
AcDbEntity
  8
0
 62
     3
100
AcDbText
 10
1310.335003
 20
-258.903452
 30
0.0
 40
3.2
  1
2次電流
  7
高3.2
100
AcDbText
  0
TEXT
  5
143
330
6B
100
AcDbEntity
  8
0
 62
     3
100
AcDbText
 10
1310.335003
 20
-264.447452
 30
0.0
 40
3.2
  1
絶縁種類
  7
高3.2
100
AcDbText
  0
TEXT
  5
144
330
6B
100
AcDbEntity
  8
0
 62
     3
100
AcDbText
 10
1310.335003
 20
-269.991452
 30
0.0
 40
3.2
  1
絶縁抵抗
  7
高3.2
100
AcDbText
  0
TEXT
  5
145
330
6B
100
AcDbEntity
  8
0
 62
     3
100
AcDbText
 10
1310.335003
 20
-275.535452
 30
0.0
 40
3.2
  1
絶縁耐圧
  7
高3.2
100
AcDbText
  0
TEXT
  5
146
330
6B
100
AcDbEntity
  8
0
 62
     3
100
AcDbText
 10
1310.335003
 20
-281.079452
 30
0.0
 40
3.2
  1
質　量
  7
高3.2
100
AcDbText
  0
LINE
  5
147
330
6B
100
AcDbEntity
  8
0
 62
     3
100
AcDbLine
 10
1326.349809902586
 20
-220.595452
 30
0.0
 11
1326.349809902586
 21
-281.579452
 31
0.0
  0
LINE
  5
148
330
6B
100
AcDbEntity
  8
0
 62
     3
100
AcDbLine
 10
1371.247513
 20
-220.595452
 30
0.0
 11
1371.247513
 21
-281.579452
 31
0.0
  0
LINE
  5
149
330
6B
100
AcDbEntity
  8
0
 62
     3
100
AcDbLine
 10
1308.835003
 20
-220.595452
 30
0.0
 11
1308.835003
 21
-281.579452
 31
0.0
  0
TEXT
  5
14A
330
6B
100
AcDbEntity
  8
0
 62
     3
100
AcDbText
 10
1310.335003
 20
-225.639452
 30
0.0
 40
3.2
  1
型　式
  7
高3.2
100
AcDbText
  0
TEXT
  5
14B
330
6B
100
AcDbEntity
  8
0
 62
     3
100
AcDbText
 10
1310.335003
 20
-231.183452
 30
0.0
 40
3.2
  1
容　量
  7
高3.2
100
AcDbText
  0
TEXT
  5
14C
330
6B
100
AcDbEntity
  8
0
 62
     3
100
AcDbText
 10
1310.335003
 20
-236.727452
 30
0.0
 40
3.2
  1
相　数
  7
高3.2
100
AcDbText
  0
TEXT
  5
14D
330
6B
100
AcDbEntity
  8
0
 62
     3
100
AcDbText
 10
1327.849809902586
 20
-275.535452
 30
0.0
 40
3.2
  1
AC2KV/min
  7
高3.2
100
AcDbText
  0
TEXT
  5
14E
330
6B
100
AcDbEntity
  8
0
 62
     3
100
AcDbText
 10
1327.849809902586
 20
-242.271452
 30
0.0
 40
3.2
  1
50/ 60Hz
  7
高3.2
100
AcDbText
  0
TEXT
  5
14F
330
6B
100
AcDbEntity
  8
0
 62
     3
100
AcDbText
 10
1327.849809902586
 20
-236.727452
 30
0.0
 40
3.2
  1
1Ph
  7
高3.2
100
AcDbText
  0
TEXT
  5
150
330
6B
100
AcDbEntity
  8
0
 62
     3
100
AcDbText
 10
1040.656999234481
 20
-326.998079
 30
0.0
 40
3.2
  1
-
 41
0.8
  7
高3.2
100
AcDbText
  0
TEXT
  5
151
330
6B
100
AcDbEntity
  8
0
 62
     3
100
AcDbText
 10
1040.656999234481
 20
-311.998079
 30
0.0
 40
3.2
  1
-
 41
0.8
  7
高3.2
100
AcDbText
  0
TEXT
  5
152
330
6B
100
AcDbEntity
  8
0
 62
     3
100
AcDbText
 10
1056.18856823141
 20
-321.998079
 30
0.0
 40
3.2
  1
-
 41
0.8
  7
高3.2
100
AcDbText
  0
TEXT
  5
153
330
6B
100
AcDbEntity
  8
0
 62
     3
100
AcDbText
 10
1040.656999234481
 20
-321.998079
 30
0.0
 40
3.2
  1
-
 41
0.8
  7
高3.2
100
AcDbText
  0
TEXT
  5
154
330
6B
100
AcDbEntity
  8
0
 62
     3
100
AcDbText
 10
1031.995960884054
 20
-321.998079
 30
0.0
 40
3.2
  1
1
 41
0.8
  7
高3.2
100
AcDbText
  0
LINE
  5
155
330
6B
100
AcDbEntity
  8
0
100
AcDbLine
 10
993.6762815625
 20
-332.498079
 30
0.0
 11
993.6762815625
 21
-292.498079
 31
0.0
  0
LINE
  5
15C
330
6B
100
AcDbEntity
  8
0
 62
     3
100
AcDbLine
 10
973.716031
 20
-191.998079
 30
0.0
 11
971.117955
 21
-193.498079
 31
0.0
  0
LINE
  5
15D
330
6B
100
AcDbEntity
  8
0
 62
     3
100
AcDbLine
 10
973.716031
 20
-191.998079
 30
0.0
 11
971.117955
 21
-190.498079
 31
0.0
  0
LINE
  5
15E
330
6B
100
AcDbEntity
  8
0
 62
     3
100
AcDbLine
 10
971.117955
 20
-193.498079
 30
0.0
 11
971.117955
 21
-190.498079
 31
0.0
  0
LINE
  5
15F
330
6B
100
AcDbEntity
  8
0
 62
     3
100
AcDbLine
 10
1111.599405
 20
-102.935294
 30
0.0
 11
1111.599405
 21
-100.625294
 31
0.0
  0
ARC
  5
160
330
6B
100
AcDbEntity
  8
0
 62
     3
100
AcDbCircle
 10
1113.139405
 20
-100.625294
 30
0.0
 40
1.54
100
AcDbArc
 50
90.0
 51
180.0
  0
ARC
  5
161
330
6B
100
AcDbEntity
  8
0
 62
     3
100
AcDbCircle
 10
1072.059125
 20
-108.237514
 30
0.0
 40
5.389999999999998
100
AcDbArc
 50
0.0
 51
90.0
  0
LINE
  5
162
330
6B
100
AcDbEntity
  8
0
 62
     3
100
AcDbLine
 10
1072.059125
 20
-102.847514
 30
0.0
 11
1021.239125
 21
-102.847514
 31
0.0
  0
ARC
  5
163
330
6B
100
AcDbEntity
  8
0
 62
     3
100
AcDbCircle
 10
1021.239125
 20
-108.237514
 30
0.0
 40
5.389999999999998
100
AcDbArc
 50
90.0
 51
180.0
  0
LINE
  5
164
330
6B
100
AcDbEntity
  8
0
 62
     3
100
AcDbLine
 10
1077.449125
 20
-197.557514
 30
0.0
 11
1077.449125
 21
-108.237514
 31
0.0
  0
ARC
  5
165
330
6B
100
AcDbEntity
  8
0
 62
     3
100
AcDbCircle
 10
1072.059125
 20
-197.557514
 30
0.0
 40
5.389999999999998
100
AcDbArc
 50
270.0
 51
0.0
  0
LINE
  5
166
330
6B
100
AcDbEntity
  8
0
 62
     3
100
AcDbLine
 10
1015.849125
 20
-108.237514
 30
0.0
 11
1015.849125
 21
-197.557514
 31
0.0
  0
LINE
  5
167
330
6B
100
AcDbEntity
  8
0
 62
     3
100
AcDbLine
 10
1021.239125
 20
-202.947514
 30
0.0
 11
1072.059125
 21
-202.947514
 31
0.0
  0
ARC
  5
168
330
6B
100
AcDbEntity
  8
0
 62
     3
100
AcDbCircle
 10
1021.239125
 20
-197.557514
 30
0.0
 40
5.389999999999998
100
AcDbArc
 50
180.0
 51
270.0
  0
LINE
  5
169
330
6B
100
AcDbEntity
  8
0
 62
     3
100
AcDbLine
 10
1111.599405
 20
-102.935294
 30
0.0
 11
1111.599405
 21
-100.625294
 31
0.0
  0
ARC
  5
16A
330
6B
100
AcDbEntity
  8
0
 62
     3
100
AcDbCircle
 10
1113.139405
 20
-100.625294
 30
0.0
 40
1.54
100
AcDbArc
 50
90.0
 51
180.0
  0
LINE
  5
16B
330
6B
100
AcDbEntity
  8
0
 62
     3
100
AcDbLine
 10
1039.719125
 20
-102.847514
 30
0.0
 11
1039.719125
 21
-99.76751400000001
 31
0.0
  0
LINE
  5
16C
330
6B
100
AcDbEntity
  8
0
 62
     3
100
AcDbLine
 10
1053.579125
 20
-99.76751400000001
 30
0.0
 11
1053.579125
 21
-102.847514
 31
0.0
  0
ARC
  5
16D
330
6B
100
AcDbEntity
  8
0
 62
     3
100
AcDbCircle
 10
1052.809125
 20
-99.76751400000001
 30
0.0
 40
0.7700000000000001
100
AcDbArc
 50
0.0
 51
90.0
  0
LINE
  5
16E
330
6B
100
AcDbEntity
  8
0
 62
     3
100
AcDbLine
 10
1039.719125
 20
-100.651474
 30
0.0
 11
1039.719125
 21
-97.802474
 31
0.0
  0
LINE
  5
16F
330
6B
100
AcDbEntity
  8
0
 62
     3
100
AcDbLine
 10
1039.719125
 20
-97.802474
 30
0.0
 11
1053.579125
 21
-97.802474
 31
0.0
  0
LINE
  5
170
330
6B
100
AcDbEntity
  8
0
 62
     3
100
AcDbLine
 10
1053.579125
 20
-97.802474
 30
0.0
 11
1053.579125
 21
-100.959474
 31
0.0
  0
LINE
  5
171
330
6B
100
AcDbEntity
  8
0
 62
     3
100
AcDbLine
 10
1039.719125
 20
-102.847514
 30
0.0
 11
1039.719125
 21
-99.76751400000001
 31
0.0
  0
LINE
  5
172
330
6B
100
AcDbEntity
  8
0
 62
     3
100
AcDbLine
 10
1053.579125
 20
-99.76751400000001
 30
0.0
 11
1053.579125
 21
-102.847514
 31
0.0
  0
LINE
  5
173
330
6B
100
AcDbEntity
  8
0
 62
     3
100
AcDbLine
 10
1039.719125
 20
-100.651474
 30
0.0
 11
1039.719125
 21
-97.802474
 31
0.0
  0
LINE
  5
174
330
6B
100
AcDbEntity
  8
0
 62
     3
100
AcDbLine
 10
1039.719125
 20
-97.802474
 30
0.0
 11
1053.579125
 21
-97.802474
 31
0.0
  0
LINE
  5
175
330
6B
100
AcDbEntity
  8
0
 62
     3
100
AcDbLine
 10
1053.579125
 20
-97.802474
 30
0.0
 11
1053.579125
 21
-100.959474
 31
0.0
  0
LINE
  5
176
330
6B
100
AcDbEntity
  8
0
 62
     3
100
AcDbLine
 10
1251.764045
 20
-202.873594
 30
0.0
 11
1251.764045
 21
-179.773594
 31
0.0
  0
LINE
  5
177
330
6B
100
AcDbEntity
  8
0
 62
     3
100
AcDbLine
 10
1251.764045
 20
-202.873594
 30
0.0
 11
1242.524045
 21
-202.873594
 31
0.0
  0
LINE
  5
178
330
6B
100
AcDbEntity
  8
0
 62
     3
100
AcDbLine
 10
1105.464045
 20
-179.773594
 30
0.0
 11
1251.764045
 21
-179.773594
 31
0.0
  0
LINE
  5
179
330
6B
100
AcDbEntity
  8
0
 62
     3
100
AcDbLine
 10
1105.464045
 20
-102.927594
 30
0.0
 11
1105.464045
 21
-179.773594
 31
0.0
  0
LINE
  5
17A
330
6B
100
AcDbEntity
  8
0
 62
     3
100
AcDbLine
 10
1105.464045
 20
-202.873594
 30
0.0
 11
1251.764045
 21
-202.873594
 31
0.0
  0
LINE
  5
17B
330
6B
100
AcDbEntity
  8
0
 62
     3
100
AcDbLine
 10
1251.764045
 20
-179.773594
 30
0.0
 11
1105.464045
 21
-179.773594
 31
0.0
  0
LINE
  5
17C
330
6B
100
AcDbEntity
  8
0
 62
     3
100
AcDbLine
 10
1105.464045
 20
-179.773594
 30
0.0
 11
1105.464045
 21
-202.873594
 31
0.0
  0
ARC
  5
17D
330
6B
100
AcDbEntity
  8
0
 62
     3
100
AcDbCircle
 10
1285.167425
 20
-108.237514
 30
0.0
 40
5.389999999999998
100
AcDbArc
 50
90.0
 51
180.0
  0
LINE
  5
17E
330
6B
100
AcDbEntity
  8
0
 62
     3
100
AcDbLine
 10
1285.167425
 20
-102.847514
 30
0.0
 11
1335.987425
 21
-102.847514
 31
0.0
  0
ARC
  5
17F
330
6B
100
AcDbEntity
  8
0
 62
     3
100
AcDbCircle
 10
1335.987425
 20
-108.237514
 30
0.0
 40
5.389999999999998
100
AcDbArc
 50
0.0
 51
90.0
  0
ARC
  5
180
330
6B
100
AcDbEntity
  8
0
 62
     3
100
AcDbCircle
 10
1310.577425
 20
-101.563154
 30
0.0
 40
3.72218
100
AcDbArc
 50
43.603
 51
136.397
  0
LINE
  5
181
330
6B
100
AcDbEntity
  8
0
 62
     3
100
AcDbLine
 10
1317.507425
 20
-102.847514
 30
0.0
 11
1317.507425
 21
-99.76751400000001
 31
0.0
  0
ARC
  5
182
330
6B
100
AcDbEntity
  8
0
 62
     3
100
AcDbCircle
 10
1316.737425
 20
-99.76751400000001
 30
0.0
 40
0.7700000000000001
100
AcDbArc
 50
0.0
 51
90.0
  0
LINE
  5
183
330
6B
100
AcDbEntity
  8
0
 62
     3
100
AcDbLine
 10
1303.647425
 20
-99.76751400000001
 30
0.0
 11
1303.647425
 21
-102.847514
 31
0.0
  0
ARC
  5
184
330
6B
100
AcDbEntity
  8
0
 62
     3
100
AcDbCircle
 10
1304.417425
 20
-99.76751400000001
 30
0.0
 40
0.7700000000000001
100
AcDbArc
 50
90.0
 51
180.0
  0
LINE
  5
185
330
6B
100
AcDbEntity
  8
0
 62
     3
100
AcDbLine
 10
1317.507425
 20
-100.651474
 30
0.0
 11
1317.507425
 21
-97.802474
 31
0.0
  0
LINE
  5
186
330
6B
100
AcDbEntity
  8
0
 62
     3
100
AcDbLine
 10
1317.507425
 20
-97.802474
 30
0.0
 11
1303.647425
 21
-97.802474
 31
0.0
  0
LINE
  5
187
330
6B
100
AcDbEntity
  8
0
 62
     3
100
AcDbLine
 10
1303.647425
 20
-97.802474
 30
0.0
 11
1303.647425
 21
-100.959474
 31
0.0
  0
LINE
  5
188
330
6B
100
AcDbEntity
  8
0
 62
     3
100
AcDbLine
 10
1317.507425
 20
-102.847514
 30
0.0
 11
1317.507425
 21
-99.76751400000001
 31
0.0
  0
LINE
  5
189
330
6B
100
AcDbEntity
  8
0
 62
     3
100
AcDbLine
 10
1303.647425
 20
-99.76751400000001
 30
0.0
 11
1303.647425
 21
-102.847514
 31
0.0
  0
LINE
  5
18A
330
6B
100
AcDbEntity
  8
0
 62
     3
100
AcDbLine
 10
1317.507425
 20
-100.651474
 30
0.0
 11
1317.507425
 21
-97.802474
 31
0.0
  0
LINE
  5
18B
330
6B
100
AcDbEntity
  8
0
 62
     3
100
AcDbLine
 10
1317.507425
 20
-97.802474
 30
0.0
 11
1303.647425
 21
-97.802474
 31
0.0
  0
LINE
  5
18C
330
6B
100
AcDbEntity
  8
0
 62
     3
100
AcDbLine
 10
1303.647425
 20
-97.802474
 30
0.0
 11
1303.647425
 21
-100.959474
 31
0.0
  0
LINE
  5
18D
330
6B
100
AcDbEntity
  8
0
 62
     3
100
AcDbLine
 10
1279.777425
 20
-197.557514
 30
0.0
 11
1279.777425
 21
-108.237514
 31
0.0
  0
ARC
  5
18E
330
6B
100
AcDbEntity
  8
0
 62
     3
100
AcDbCircle
 10
1285.167425
 20
-197.557514
 30
0.0
 40
5.389999999999998
100
AcDbArc
 50
180.0
 51
270.0
  0
LINE
  5
18F
330
6B
100
AcDbEntity
  8
0
 62
     3
100
AcDbLine
 10
1341.377425
 20
-108.237514
 30
0.0
 11
1341.377425
 21
-197.557514
 31
0.0
  0
LINE
  5
190
330
6B
100
AcDbEntity
  8
0
 62
     3
100
AcDbLine
 10
1335.987425
 20
-202.947514
 30
0.0
 11
1285.167425
 21
-202.947514
 31
0.0
  0
ARC
  5
191
330
6B
100
AcDbEntity
  8
0
 62
     3
100
AcDbCircle
 10
1335.987425
 20
-197.557514
 30
0.0
 40
5.389999999999998
100
AcDbArc
 50
270.0
 51
0.0
  0
LINE
  5
192
330
6B
100
AcDbEntity
  8
0
 62
     3
100
AcDbLine
 10
1245.579405
 20
-102.935294
 30
0.0
 11
1245.579405
 21
-100.625294
 31
0.0
  0
LINE
  5
193
330
6B
100
AcDbEntity
  8
0
 62
     3
100
AcDbLine
 10
1244.039405
 20
-99.085294
 30
0.0
 11
1225.559405
 21
-99.085294
 31
0.0
  0
ARC
  5
194
330
6B
100
AcDbEntity
  8
0
 62
     3
100
AcDbCircle
 10
1244.039405
 20
-100.625294
 30
0.0
 40
1.54
100
AcDbArc
 50
0.0
 51
90.0
  0
LINE
  5
195
330
6B
100
AcDbEntity
  8
0
 62
     3
100
AcDbLine
 10
1251.764045
 20
-112.013594
 30
0.0
 11
1251.764045
 21
-110.473594
 31
0.0
  0
LINE
  5
196
330
6B
100
AcDbEntity
  8
0
 62
     3
100
AcDbLine
 10
1245.579405
 20
-102.935294
 30
0.0
 11
1245.579405
 21
-100.625294
 31
0.0
  0
LINE
  5
197
330
6B
100
AcDbEntity
  8
0
 62
     3
100
AcDbLine
 10
1244.039405
 20
-99.085294
 30
0.0
 11
1225.559405
 21
-99.085294
 31
0.0
  0
ARC
  5
198
330
6B
100
AcDbEntity
  8
0
 62
     3
100
AcDbCircle
 10
1244.039405
 20
-100.625294
 30
0.0
 40
1.54
100
AcDbArc
 50
0.0
 51
90.0
  0
LINE
  5
199
330
6B
100
AcDbEntity
  8
0
 62
     3
100
AcDbLine
 10
1251.764045
 20
-179.773594
 30
0.0
 11
1251.764045
 21
-102.927594
 31
0.0
  0
LINE
  5
19A
330
6B
100
AcDbEntity
  8
0
 62
     3
100
AcDbLine
 10
1234.414405
 20
-99.085294
 30
0.0
 11
1234.414405
 21
-98.315294
 31
0.0
  0
LINE
  5
19B
330
6B
100
AcDbEntity
  8
0
 62
     3
100
AcDbLine
 10
1229.024405
 20
-99.085294
 30
0.0
 11
1229.024405
 21
-98.315294
 31
0.0
  0
ARC
  5
19C
330
6B
100
AcDbEntity
  8
0
 62
     3
100
AcDbCircle
 10
1231.719405
 20
-100.882474
 30
0.0
 40
3.72218
100
AcDbArc
 50
43.603
 51
136.397
  0
LINE
  5
19D
330
6B
100
AcDbEntity
  8
0
 62
     3
100
AcDbLine
 10
1234.414405
 20
-99.085294
 30
0.0
 11
1234.414405
 21
-98.315294
 31
0.0
  0
LINE
  5
19E
330
6B
100
AcDbEntity
  8
0
 62
     3
100
AcDbLine
 10
1229.024405
 20
-99.085294
 30
0.0
 11
1229.024405
 21
-98.315294
 31
0.0
  0
ARC
  5
19F
330
6B
100
AcDbEntity
  8
0
 62
     3
100
AcDbCircle
 10
1231.719405
 20
-100.882474
 30
0.0
 40
3.72218
100
AcDbArc
 50
43.603
 51
136.397
  0
LINE
  5
1A0
330
6B
100
AcDbEntity
  8
0
 62
     3
100
AcDbLine
 10
1225.559405
 20
-99.855294
 30
0.0
 11
1225.559405
 21
-102.935294
 31
0.0
  0
LINE
  5
1A1
330
6B
100
AcDbEntity
  8
0
 62
     3
100
AcDbLine
 10
1225.559405
 20
-99.855294
 30
0.0
 11
1225.559405
 21
-102.935294
 31
0.0
  0
LINE
  5
1A2
330
6B
100
AcDbEntity
  8
0
 62
     3
100
AcDbLine
 10
1131.619405
 20
-99.855294
 30
0.0
 11
1131.619405
 21
-102.935294
 31
0.0
  0
LINE
  5
1A3
330
6B
100
AcDbEntity
  8
0
 62
     3
100
AcDbLine
 10
1131.619405
 20
-99.855294
 30
0.0
 11
1131.619405
 21
-102.935294
 31
0.0
  0
LINE
  5
1A4
330
6B
100
AcDbEntity
  8
0
 62
     3
100
AcDbLine
 10
1128.154405
 20
-99.085294
 30
0.0
 11
1128.154405
 21
-98.315294
 31
0.0
  0
LINE
  5
1A5
330
6B
100
AcDbEntity
  8
0
 62
     3
100
AcDbLine
 10
1128.154405
 20
-99.085294
 30
0.0
 11
1128.154405
 21
-98.315294
 31
0.0
  0
LINE
  5
1A6
330
6B
100
AcDbEntity
  8
0
 62
     3
100
AcDbLine
 10
1122.764405
 20
-99.085294
 30
0.0
 11
1122.764405
 21
-98.315294
 31
0.0
  0
LINE
  5
1A7
330
6B
100
AcDbEntity
  8
0
 62
     3
100
AcDbLine
 10
1122.764405
 20
-99.085294
 30
0.0
 11
1122.764405
 21
-98.315294
 31
0.0
  0
LINE
  5
1A8
330
6B
100
AcDbEntity
  8
0
 62
     3
100
AcDbLine
 10
1251.764045
 20
-102.927594
 30
0.0
 11
1105.464045
 21
-102.927594
 31
0.0
  0
ARC
  5
1A9
330
6B
100
AcDbEntity
  8
0
 62
     3
100
AcDbCircle
 10
1125.459405
 20
-100.882474
 30
0.0
 40
3.72218
100
AcDbArc
 50
43.603
 51
136.397
  0
ARC
  5
1AA
330
6B
100
AcDbEntity
  8
0
 62
     3
100
AcDbCircle
 10
1125.459405
 20
-100.882474
 30
0.0
 40
3.72218
100
AcDbArc
 50
43.603
 51
136.397
  0
LINE
  5
1AB
330
6B
100
AcDbEntity
  8
0
 62
     3
100
AcDbLine
 10
1113.139405
 20
-99.085294
 30
0.0
 11
1131.619405
 21
-99.085294
 31
0.0
  0
LINE
  5
1AC
330
6B
100
AcDbEntity
  8
0
 62
     3
100
AcDbLine
 10
1113.139405
 20
-99.085294
 30
0.0
 11
1131.619405
 21
-99.085294
 31
0.0
  0
ARC
  5
1AD
330
6B
100
AcDbEntity
  8
0
 62
     3
100
AcDbCircle
 10
1292.097425
 20
-190.921654
 30
0.0
 40
5.389999999999998
100
AcDbArc
 50
27.66
 51
152.34
  0
LINE
  5
1AE
330
6B
100
AcDbEntity
  8
0
 62
     3
100
AcDbLine
 10
1287.323425
 20
-188.496154
 30
0.0
 11
1287.323425
 21
-193.924654
 31
0.0
  0
LINE
  5
1AF
330
6B
100
AcDbEntity
  8
0
 62
     3
100
AcDbLine
 10
1287.323425
 20
-193.924654
 30
0.0
 11
1296.871425
 21
-193.924654
 31
0.0
  0
LINE
  5
1B0
330
6B
100
AcDbEntity
  8
0
 62
     3
100
AcDbLine
 10
1296.871425
 20
-188.496154
 30
0.0
 11
1296.871425
 21
-193.924654
 31
0.0
  0
LINE
  5
1B1
330
6B
100
AcDbEntity
  8
0
 62
     3
100
AcDbLine
 10
1265.624045
 20
-238.238154
 30
0.0
 11
1257.924045
 21
-238.238154
 31
0.0
  0
LINE
  5
1B2
330
6B
100
AcDbEntity
  8
0
 62
     3
100
AcDbLine
 10
1256.769045
 20
-252.098154
 30
0.0
 11
1257.924045
 21
-238.238154
 31
0.0
  0
LINE
  5
1B3
330
6B
100
AcDbEntity
  8
0
 62
     3
100
AcDbLine
 10
1266.779045
 20
-252.098154
 30
0.0
 11
1265.624045
 21
-238.238154
 31
0.0
  0
ARC
  5
1B4
330
6B
100
AcDbEntity
  8
0
 62
     3
100
AcDbCircle
 10
1285.545485
 20
-272.620194
 30
0.0
 40
35.34608
100
AcDbArc
 50
144.506
 51
177.937
  0
ARC
  5
1B5
330
6B
100
AcDbEntity
  8
0
 62
     3
100
AcDbCircle
 10
1238.001065
 20
-272.620194
 30
0.0
 40
35.34608
100
AcDbArc
 50
2.063
 51
35.494
  0
LINE
  5
1B6
330
6B
100
AcDbEntity
  8
0
 62
     3
100
AcDbLine
 10
1256.769045
 20
-252.098154
 30
0.0
 11
1266.779045
 21
-252.098154
 31
0.0
  0
LINE
  5
1B7
330
6B
100
AcDbEntity
  8
0
 62
     3
100
AcDbLine
 10
1259.464045
 20
-213.213154
 30
0.0
 11
1259.464045
 21
-238.238154
 31
0.0
  0
LINE
  5
1B8
330
6B
100
AcDbEntity
  8
0
 62
     3
100
AcDbLine
 10
1264.084045
 20
-213.213154
 30
0.0
 11
1264.084045
 21
-238.238154
 31
0.0
  0
ARC
  5
1B9
330
6B
100
AcDbEntity
  8
0
 62
     3
100
AcDbCircle
 10
1027.754012
 20
-110.939757
 30
0.0
 40
1.185135999999998
100
AcDbArc
 50
0.350156
 51
38.942337
  0
ARC
  5
1BA
330
6B
100
AcDbEntity
  8
0
 62
     3
100
AcDbCircle
 10
1026.925301
 20
-111.539462
 30
0.0
 40
2.207297
100
AcDbArc
 50
37.529117
 51
63.09109799999998
  0
ARC
  5
1BB
330
6B
100
AcDbEntity
  8
0
 62
     3
100
AcDbCircle
 10
1025.92058
 20
-113.24572
 30
0.0
 40
4.185355
100
AcDbArc
 50
61.39703899999999
 51
77.86979800000001
  0
ARC
  5
1BC
330
6B
100
AcDbEntity
  8
0
 62
     3
100
AcDbCircle
 10
1025.497513
 20
-114.877295
 30
0.0
 40
5.869829
100
AcDbArc
 50
77.178976
 51
90.22829299999999
  0
ARC
  5
1BD
330
6B
100
AcDbEntity
  8
0
 62
     3
100
AcDbCircle
 10
1025.474144
 20
-115.089431
 30
0.0
 40
6.081919
100
AcDbArc
 50
90.00017300000001
 51
102.592558
  0
ARC
  5
1BE
330
6B
100
AcDbEntity
  8
0
 62
     3
100
AcDbCircle
 10
1025.136334
 20
-113.53843
 30
0.0
 40
4.494584999999998
100
AcDbArc
 50
102.700404
 51
118.032758
  0
ARC
  5
1BF
330
6B
100
AcDbEntity
  8
0
 62
     3
100
AcDbCircle
 10
1024.207789
 20
-111.762181
 30
0.0
 40
2.49038
100
AcDbArc
 50
118.382174
 51
140.99761
  0
ARC
  5
1C0
330
6B
100
AcDbEntity
  8
0
 62
     3
100
AcDbCircle
 10
1023.28646
 20
-110.972679
 30
0.0
 40
1.277965999999999
100
AcDbArc
 50
142.50855
 51
178.198958
  0
ARC
  5
1C1
330
6B
100
AcDbEntity
  8
0
 62
     3
100
AcDbCircle
 10
1023.192039
 20
-110.924501
 30
0.0
 40
1.182941999999999
100
AcDbArc
 50
180.388101
 51
218.980282
  0
ARC
  5
1C2
330
6B
100
AcDbEntity
  8
0
 62
     3
100
AcDbCircle
 10
1024.026343
 20
-110.324796
 30
0.0
 40
2.209522999999999
100
AcDbArc
 50
217.459663
 51
243.021644
  0
ARC
  5
1C3
330
6B
100
AcDbEntity
  8
0
 62
     3
100
AcDbCircle
 10
1025.022351
 20
-108.618538
 30
0.0
 40
4.183487
100
AcDbArc
 50
241.466051
 51
257.93881
  0
ARC
  5
1C4
330
6B
100
AcDbEntity
  8
0
 62
     3
100
AcDbCircle
 10
1025.45747
 20
-106.986962
 30
0.0
 40
5.870574999999998
100
AcDbArc
 50
257.113239
 51
270.162557
  0
ARC
  5
1C5
330
6B
100
AcDbEntity
  8
0
 62
     3
100
AcDbCircle
 10
1025.467127
 20
-106.774825
 30
0.0
 40
6.082691999999998
100
AcDbArc
 50
270.06591
 51
282.658294
  0
ARC
  5
1C6
330
6B
100
AcDbEntity
  8
0
 62
     3
100
AcDbCircle
 10
1025.817638
 20
-108.325828
 30
0.0
 40
4.492579
100
AcDbArc
 50
282.631393
 51
297.963747
  0
ARC
  5
1C7
330
6B
100
AcDbEntity
  8
0
 62
     3
100
AcDbCircle
 10
1026.736611
 20
-110.102077
 30
0.0
 40
2.49289
100
AcDbArc
 50
298.451628
 51
321.067064
  0
ARC
  5
1C8
330
6B
100
AcDbEntity
  8
0
 62
     3
100
AcDbCircle
 10
1027.664182
 20
-110.891579
 30
0.0
 40
1.2756
100
AcDbArc
 50
322.470604
 51
358.161013
  0
TEXT
  5
1C9
330
6B
100
AcDbEntity
  8
0
 62
     3
100
AcDbText
 10
1020.469125
 20
-125.177514
 30
0.0
 40
5.389999999999998
  1
TRANS PAL
 41
0.669857
100
AcDbText
  0
TEXT
  5
1CA
330
6B
100
AcDbEntity
  8
0
 62
     3
100
AcDbText
 10
1057.429125
 20
-117.477514
 30
0.0
 40
3.08
  1
POWER
 41
0.5760000000000001
100
AcDbText
  0
TEXT
  5
1CB
330
6B
100
AcDbEntity
  8
0
 62
     3
100
AcDbText
 10
1032.019125
 20
-132.107514
 30
0.0
 40
5.389999999999998
  1
1500
 41
1.01232
100
AcDbText
  0
TEXT
  5
1CC
330
6B
100
AcDbEntity
  8
0
 62
     3
100
AcDbText
 10
1024.739545
 20
-199.867514
 30
0.0
 40
6.16
  1
AC100V 1.5KVA
 41
0.6253680000000001
100
AcDbText
  0
LINE
  5
1CD
330
6B
100
AcDbEntity
  8
0
 62
     3
100
AcDbLine
 10
1256.384045
 20
-191.884154
 30
0.0
 11
1253.304045
 21
-191.884154
 31
0.0
  0
LINE
  5
1CE
330
6B
100
AcDbEntity
  8
0
 62
     3
100
AcDbLine
 10
1259.464045
 20
-194.964154
 30
0.0
 11
1259.464045
 21
-210.133154
 31
0.0
  0
LINE
  5
1CF
330
6B
100
AcDbEntity
  8
0
 62
     3
100
AcDbLine
 10
1253.304045
 20
-187.264154
 30
0.0
 11
1256.384045
 21
-187.264154
 31
0.0
  0
LINE
  5
1D0
330
6B
100
AcDbEntity
  8
0
 62
     3
100
AcDbLine
 10
1264.084045
 20
-194.964154
 30
0.0
 11
1264.084045
 21
-210.133154
 31
0.0
  0
CIRCLE
  5
1D1
330
6B
100
AcDbEntity
  8
0
 62
     3
100
AcDbCircle
 10
1062.049125
 20
-175.997514
 30
0.0
 40
4.62
  0
CIRCLE
  5
1D2
330
6B
100
AcDbEntity
  8
0
 62
     3
100
AcDbCircle
 10
1062.049125
 20
-175.997514
 30
0.0
 40
2.008159999999999
  0
TEXT
  5
1D3
330
6B
100
AcDbEntity
  8
0
 62
     3
100
AcDbText
 10
1298.257425
 20
-121.327514
 30
0.0
 40
5.389999999999998
  1
TRANS PAL
 41
0.5361430000000002
100
AcDbText
  0
TEXT
  5
1D4
330
6B
100
AcDbEntity
  8
0
 62
     3
100
AcDbText
 10
1304.417425
 20
-125.408514
 30
0.0
 40
3.08
  1
ご使用上の注意
 41
0.7320000000000002
100
AcDbText
  0
TEXT
  5
1D5
330
6B
100
AcDbEntity
  8
0
 62
     3
100
AcDbText
 10
1058.969125
 20
-188.317514
 30
0.0
 40
3.85
  1
10A
 41
0.6292800000000001
100
AcDbText
  0
LINE
  5
1D6
330
6B
100
AcDbEntity
  8
0
 62
     3
100
AcDbLine
 10
1273.324045
 20
-271.348154
 30
0.0
 11
1250.224045
 21
-271.348154
 31
0.0
  0
LINE
  5
1D7
330
6B
100
AcDbEntity
  8
0
 62
     3
100
AcDbLine
 10
1271.014045
 20
-271.348154
 30
0.0
 11
1271.014045
 21
-283.146094
 31
0.0
  0
LINE
  5
1D8
330
6B
100
AcDbEntity
  8
0
 62
     3
100
AcDbLine
 10
1255.614045
 20
-283.146094
 30
0.0
 11
1255.614045
 21
-271.348154
 31
0.0
  0
ARC
  5
1D9
330
6B
100
AcDbEntity
  8
0
 62
     3
100
AcDbCircle
 10
1254.074045
 20
-283.146094
 30
0.0
 40
1.54
100
AcDbArc
 50
180.0
 51
0.0
  0
LINE
  5
1DA
330
6B
100
AcDbEntity
  8
0
 62
     3
100
AcDbLine
 10
1252.534045
 20
-271.348154
 30
0.0
 11
1252.534045
 21
-283.146094
 31
0.0
  0
ARC
  5
1DB
330
6B
100
AcDbEntity
  8
0
 62
     3
100
AcDbCircle
 10
1269.474045
 20
-283.146094
 30
0.0
 40
1.54
100
AcDbArc
 50
180.0
 51
0.0
  0
LINE
  5
1DC
330
6B
100
AcDbEntity
  8
0
 62
     3
100
AcDbLine
 10
1267.934045
 20
-283.146094
 30
0.0
 11
1267.934045
 21
-271.348154
 31
0.0
  0
TEXT
  5
1DD
330
6B
100
AcDbEntity
  8
0
 62
     3
100
AcDbText
 10
1048.229964
 20
-147.472428
 30
0.0
 40
2.956799999999999
  1
２２０Ｖ～２３０Ｖ
 41
0.833333
100
AcDbText
  0
ARC
  5
1DE
330
6B
100
AcDbEntity
  8
0
 62
     3
100
AcDbCircle
 10
1256.384045
 20
-194.964154
 30
0.0
 40
3.08
100
AcDbArc
 50
0.0
 51
90.0
  0
ARC
  5
1DF
330
6B
100
AcDbEntity
  8
0
 62
     3
100
AcDbCircle
 10
1256.384045
 20
-194.964154
 30
0.0
 40
7.7
100
AcDbArc
 50
0.0
 51
90.0
  0
TEXT
  5
1E0
330
6B
100
AcDbEntity
  8
0
100
AcDbText
 10
1292.097425
 20
-146.198514
 30
0.0
 40
2.31
  1
　除いてから、ブレ－カ－を復帰させて下さい。
 41
0.596
100
AcDbText
  0
TEXT
  5
1E1
330
6B
100
AcDbEntity
  8
0
100
AcDbText
 10
1292.097425
 20
-143.888514
 30
0.0
 40
2.31
  1
●ブレ－カ－がＯＦＦになった場合は、原因を取り
 41
0.596
100
AcDbText
  0
TEXT
  5
1E2
330
6B
100
AcDbEntity
  8
0
100
AcDbText
 10
1292.097425
 20
-139.2685139999999
 30
0.0
 40
2.31
  1
●使用後は電源スイッチを切り電源コ－ドを抜い
 41
0.596
100
AcDbText
  0
TEXT
  5
1E3
330
6B
100
AcDbEntity
  8
0
100
AcDbText
 10
1292.097425
 20
-136.958514
 30
0.0
 40
2.31
  1
　下さい。
 41
0.596
100
AcDbText
  0
TEXT
  5
1E4
330
6B
100
AcDbEntity
  8
0
100
AcDbText
 10
1292.097425
 20
-141.578514
 30
0.0
 40
2.31
  1
　て下さい。
 41
0.596
100
AcDbText
  0
TEXT
  5
1E5
330
6B
100
AcDbEntity
  8
0
100
AcDbText
 10
1292.097425
 20
-132.338514
 30
0.0
 40
2.31
  1
　必ず確認して下さい。
 41
0.596
100
AcDbText
  0
CIRCLE
  5
1E6
330
6B
100
AcDbEntity
  8
0
100
AcDbCircle
 10
1134.724045
 20
-125.950594
 30
0.0
 40
1.155
  0
CIRCLE
  5
1E7
330
6B
100
AcDbEntity
  8
0
100
AcDbCircle
 10
1132.414045
 20
-127.875594
 30
0.0
 40
1.155
  0
CIRCLE
  5
1E8
330
6B
100
AcDbEntity
  8
0
100
AcDbCircle
 10
1132.414045
 20
-131.725594
 30
0.0
 40
1.155
  0
CIRCLE
  5
1E9
330
6B
100
AcDbEntity
  8
0
100
AcDbCircle
 10
1134.724045
 20
-129.800594
 30
0.0
 40
1.155
  0
CIRCLE
  5
1EA
330
6B
100
AcDbEntity
  8
0
100
AcDbCircle
 10
1137.034045
 20
-127.875594
 30
0.0
 40
1.155
  0
CIRCLE
  5
1EB
330
6B
100
AcDbEntity
  8
0
100
AcDbCircle
 10
1137.034045
 20
-131.725594
 30
0.0
 40
1.155
  0
CIRCLE
  5
1EC
330
6B
100
AcDbEntity
  8
0
100
AcDbCircle
 10
1141.654045
 20
-127.875594
 30
0.0
 40
1.155
  0
CIRCLE
  5
1ED
330
6B
100
AcDbEntity
  8
0
100
AcDbCircle
 10
1141.654045
 20
-131.725594
 30
0.0
 40
1.155
  0
CIRCLE
  5
1EE
330
6B
100
AcDbEntity
  8
0
100
AcDbCircle
 10
1146.274045
 20
-127.875594
 30
0.0
 40
1.155
  0
CIRCLE
  5
1EF
330
6B
100
AcDbEntity
  8
0
100
AcDbCircle
 10
1146.274045
 20
-131.725594
 30
0.0
 40
1.155
  0
CIRCLE
  5
1F0
330
6B
100
AcDbEntity
  8
0
100
AcDbCircle
 10
1150.894045
 20
-127.875594
 30
0.0
 40
1.155
  0
CIRCLE
  5
1F1
330
6B
100
AcDbEntity
  8
0
100
AcDbCircle
 10
1150.894045
 20
-131.725594
 30
0.0
 40
1.155
  0
CIRCLE
  5
1F2
330
6B
100
AcDbEntity
  8
0
100
AcDbCircle
 10
1155.514045
 20
-127.875594
 30
0.0
 40
1.155
  0
CIRCLE
  5
1F3
330
6B
100
AcDbEntity
  8
0
100
AcDbCircle
 10
1155.514045
 20
-131.725594
 30
0.0
 40
1.155
  0
CIRCLE
  5
1F4
330
6B
100
AcDbEntity
  8
0
100
AcDbCircle
 10
1160.134045
 20
-127.875594
 30
0.0
 40
1.155
  0
CIRCLE
  5
1F5
330
6B
100
AcDbEntity
  8
0
100
AcDbCircle
 10
1160.134045
 20
-131.725594
 30
0.0
 40
1.155
  0
CIRCLE
  5
1F6
330
6B
100
AcDbEntity
  8
0
100
AcDbCircle
 10
1164.754045
 20
-127.875594
 30
0.0
 40
1.155
  0
CIRCLE
  5
1F7
330
6B
100
AcDbEntity
  8
0
100
AcDbCircle
 10
1164.754045
 20
-131.725594
 30
0.0
 40
1.155
  0
CIRCLE
  5
1F8
330
6B
100
AcDbEntity
  8
0
100
AcDbCircle
 10
1169.374045
 20
-127.875594
 30
0.0
 40
1.155
  0
CIRCLE
  5
1F9
330
6B
100
AcDbEntity
  8
0
100
AcDbCircle
 10
1169.374045
 20
-131.725594
 30
0.0
 40
1.155
  0
CIRCLE
  5
1FA
330
6B
100
AcDbEntity
  8
0
100
AcDbCircle
 10
1173.994045
 20
-127.875594
 30
0.0
 40
1.155
  0
CIRCLE
  5
1FB
330
6B
100
AcDbEntity
  8
0
100
AcDbCircle
 10
1173.994045
 20
-131.725594
 30
0.0
 40
1.155
  0
CIRCLE
  5
1FC
330
6B
100
AcDbEntity
  8
0
100
AcDbCircle
 10
1178.614045
 20
-127.875594
 30
0.0
 40
1.155
  0
CIRCLE
  5
1FD
330
6B
100
AcDbEntity
  8
0
100
AcDbCircle
 10
1178.614045
 20
-131.725594
 30
0.0
 40
1.155
  0
CIRCLE
  5
1FE
330
6B
100
AcDbEntity
  8
0
100
AcDbCircle
 10
1139.344045
 20
-125.950594
 30
0.0
 40
1.155
  0
CIRCLE
  5
1FF
330
6B
100
AcDbEntity
  8
0
100
AcDbCircle
 10
1139.344045
 20
-129.800594
 30
0.0
 40
1.155
  0
CIRCLE
  5
200
330
6B
100
AcDbEntity
  8
0
100
AcDbCircle
 10
1143.964045
 20
-125.950594
 30
0.0
 40
1.155
  0
CIRCLE
  5
201
330
6B
100
AcDbEntity
  8
0
100
AcDbCircle
 10
1143.964045
 20
-129.800594
 30
0.0
 40
1.155
  0
CIRCLE
  5
202
330
6B
100
AcDbEntity
  8
0
100
AcDbCircle
 10
1148.584044999999
 20
-125.950594
 30
0.0
 40
1.155
  0
CIRCLE
  5
203
330
6B
100
AcDbEntity
  8
0
100
AcDbCircle
 10
1148.584044999999
 20
-129.800594
 30
0.0
 40
1.155
  0
CIRCLE
  5
204
330
6B
100
AcDbEntity
  8
0
100
AcDbCircle
 10
1153.204045
 20
-125.950594
 30
0.0
 40
1.155
  0
CIRCLE
  5
205
330
6B
100
AcDbEntity
  8
0
100
AcDbCircle
 10
1153.204045
 20
-129.800594
 30
0.0
 40
1.155
  0
CIRCLE
  5
206
330
6B
100
AcDbEntity
  8
0
100
AcDbCircle
 10
1157.824045
 20
-125.950594
 30
0.0
 40
1.155
  0
CIRCLE
  5
207
330
6B
100
AcDbEntity
  8
0
100
AcDbCircle
 10
1157.824045
 20
-129.800594
 30
0.0
 40
1.155
  0
CIRCLE
  5
208
330
6B
100
AcDbEntity
  8
0
100
AcDbCircle
 10
1162.444045
 20
-125.950594
 30
0.0
 40
1.155
  0
CIRCLE
  5
209
330
6B
100
AcDbEntity
  8
0
100
AcDbCircle
 10
1162.444045
 20
-129.800594
 30
0.0
 40
1.155
  0
CIRCLE
  5
20A
330
6B
100
AcDbEntity
  8
0
100
AcDbCircle
 10
1167.064045
 20
-125.950594
 30
0.0
 40
1.155
  0
CIRCLE
  5
20B
330
6B
100
AcDbEntity
  8
0
100
AcDbCircle
 10
1167.064045
 20
-129.800594
 30
0.0
 40
1.155
  0
CIRCLE
  5
20C
330
6B
100
AcDbEntity
  8
0
100
AcDbCircle
 10
1171.684045
 20
-125.950594
 30
0.0
 40
1.155
  0
CIRCLE
  5
20D
330
6B
100
AcDbEntity
  8
0
100
AcDbCircle
 10
1171.684045
 20
-129.800594
 30
0.0
 40
1.155
  0
CIRCLE
  5
20E
330
6B
100
AcDbEntity
  8
0
100
AcDbCircle
 10
1176.304045
 20
-125.950594
 30
0.0
 40
1.155
  0
CIRCLE
  5
20F
330
6B
100
AcDbEntity
  8
0
100
AcDbCircle
 10
1176.304045
 20
-129.800594
 30
0.0
 40
1.155
  0
CIRCLE
  5
210
330
6B
100
AcDbEntity
  8
0
100
AcDbCircle
 10
1134.724045
 20
-137.885594
 30
0.0
 40
1.155
  0
CIRCLE
  5
211
330
6B
100
AcDbEntity
  8
0
100
AcDbCircle
 10
1132.414045
 20
-139.8105939999999
 30
0.0
 40
1.155
  0
CIRCLE
  5
212
330
6B
100
AcDbEntity
  8
0
100
AcDbCircle
 10
1132.414045
 20
-143.660594
 30
0.0
 40
1.155
  0
CIRCLE
  5
213
330
6B
100
AcDbEntity
  8
0
100
AcDbCircle
 10
1134.724045
 20
-141.735594
 30
0.0
 40
1.155
  0
CIRCLE
  5
214
330
6B
100
AcDbEntity
  8
0
100
AcDbCircle
 10
1137.034045
 20
-139.8105939999999
 30
0.0
 40
1.155
  0
CIRCLE
  5
215
330
6B
100
AcDbEntity
  8
0
100
AcDbCircle
 10
1137.034045
 20
-143.660594
 30
0.0
 40
1.155
  0
CIRCLE
  5
216
330
6B
100
AcDbEntity
  8
0
100
AcDbCircle
 10
1141.654045
 20
-139.8105939999999
 30
0.0
 40
1.155
  0
CIRCLE
  5
217
330
6B
100
AcDbEntity
  8
0
100
AcDbCircle
 10
1141.654045
 20
-143.660594
 30
0.0
 40
1.155
  0
CIRCLE
  5
218
330
6B
100
AcDbEntity
  8
0
100
AcDbCircle
 10
1146.274045
 20
-139.8105939999999
 30
0.0
 40
1.155
  0
CIRCLE
  5
219
330
6B
100
AcDbEntity
  8
0
100
AcDbCircle
 10
1146.274045
 20
-143.660594
 30
0.0
 40
1.155
  0
CIRCLE
  5
21A
330
6B
100
AcDbEntity
  8
0
100
AcDbCircle
 10
1150.894045
 20
-139.8105939999999
 30
0.0
 40
1.155
  0
CIRCLE
  5
21B
330
6B
100
AcDbEntity
  8
0
100
AcDbCircle
 10
1150.894045
 20
-143.660594
 30
0.0
 40
1.155
  0
CIRCLE
  5
21C
330
6B
100
AcDbEntity
  8
0
100
AcDbCircle
 10
1155.514045
 20
-139.8105939999999
 30
0.0
 40
1.155
  0
CIRCLE
  5
21D
330
6B
100
AcDbEntity
  8
0
100
AcDbCircle
 10
1155.514045
 20
-143.660594
 30
0.0
 40
1.155
  0
CIRCLE
  5
21E
330
6B
100
AcDbEntity
  8
0
100
AcDbCircle
 10
1160.134045
 20
-139.8105939999999
 30
0.0
 40
1.155
  0
CIRCLE
  5
21F
330
6B
100
AcDbEntity
  8
0
100
AcDbCircle
 10
1160.134045
 20
-143.660594
 30
0.0
 40
1.155
  0
CIRCLE
  5
220
330
6B
100
AcDbEntity
  8
0
100
AcDbCircle
 10
1164.754045
 20
-139.8105939999999
 30
0.0
 40
1.155
  0
CIRCLE
  5
221
330
6B
100
AcDbEntity
  8
0
100
AcDbCircle
 10
1164.754045
 20
-143.660594
 30
0.0
 40
1.155
  0
CIRCLE
  5
222
330
6B
100
AcDbEntity
  8
0
100
AcDbCircle
 10
1169.374045
 20
-139.8105939999999
 30
0.0
 40
1.155
  0
CIRCLE
  5
223
330
6B
100
AcDbEntity
  8
0
100
AcDbCircle
 10
1169.374045
 20
-143.660594
 30
0.0
 40
1.155
  0
CIRCLE
  5
224
330
6B
100
AcDbEntity
  8
0
100
AcDbCircle
 10
1173.994045
 20
-139.8105939999999
 30
0.0
 40
1.155
  0
CIRCLE
  5
225
330
6B
100
AcDbEntity
  8
0
100
AcDbCircle
 10
1173.994045
 20
-143.660594
 30
0.0
 40
1.155
  0
CIRCLE
  5
226
330
6B
100
AcDbEntity
  8
0
100
AcDbCircle
 10
1178.614045
 20
-139.8105939999999
 30
0.0
 40
1.155
  0
CIRCLE
  5
227
330
6B
100
AcDbEntity
  8
0
100
AcDbCircle
 10
1178.614045
 20
-143.660594
 30
0.0
 40
1.155
  0
CIRCLE
  5
228
330
6B
100
AcDbEntity
  8
0
100
AcDbCircle
 10
1139.344045
 20
-137.885594
 30
0.0
 40
1.155
  0
CIRCLE
  5
229
330
6B
100
AcDbEntity
  8
0
100
AcDbCircle
 10
1139.344045
 20
-141.735594
 30
0.0
 40
1.155
  0
CIRCLE
  5
22A
330
6B
100
AcDbEntity
  8
0
100
AcDbCircle
 10
1143.964045
 20
-137.885594
 30
0.0
 40
1.155
  0
CIRCLE
  5
22B
330
6B
100
AcDbEntity
  8
0
100
AcDbCircle
 10
1143.964045
 20
-141.735594
 30
0.0
 40
1.155
  0
CIRCLE
  5
22C
330
6B
100
AcDbEntity
  8
0
100
AcDbCircle
 10
1148.584044999999
 20
-137.885594
 30
0.0
 40
1.155
  0
CIRCLE
  5
22D
330
6B
100
AcDbEntity
  8
0
100
AcDbCircle
 10
1148.584044999999
 20
-141.735594
 30
0.0
 40
1.155
  0
CIRCLE
  5
22E
330
6B
100
AcDbEntity
  8
0
100
AcDbCircle
 10
1153.204045
 20
-137.885594
 30
0.0
 40
1.155
  0
CIRCLE
  5
22F
330
6B
100
AcDbEntity
  8
0
100
AcDbCircle
 10
1153.204045
 20
-141.735594
 30
0.0
 40
1.155
  0
CIRCLE
  5
230
330
6B
100
AcDbEntity
  8
0
100
AcDbCircle
 10
1157.824045
 20
-137.885594
 30
0.0
 40
1.155
  0
CIRCLE
  5
231
330
6B
100
AcDbEntity
  8
0
100
AcDbCircle
 10
1157.824045
 20
-141.735594
 30
0.0
 40
1.155
  0
CIRCLE
  5
232
330
6B
100
AcDbEntity
  8
0
100
AcDbCircle
 10
1162.444045
 20
-137.885594
 30
0.0
 40
1.155
  0
CIRCLE
  5
233
330
6B
100
AcDbEntity
  8
0
100
AcDbCircle
 10
1162.444045
 20
-141.735594
 30
0.0
 40
1.155
  0
CIRCLE
  5
234
330
6B
100
AcDbEntity
  8
0
100
AcDbCircle
 10
1167.064045
 20
-137.885594
 30
0.0
 40
1.155
  0
CIRCLE
  5
235
330
6B
100
AcDbEntity
  8
0
100
AcDbCircle
 10
1167.064045
 20
-141.735594
 30
0.0
 40
1.155
  0
CIRCLE
  5
236
330
6B
100
AcDbEntity
  8
0
100
AcDbCircle
 10
1171.684045
 20
-137.885594
 30
0.0
 40
1.155
  0
CIRCLE
  5
237
330
6B
100
AcDbEntity
  8
0
100
AcDbCircle
 10
1171.684045
 20
-141.735594
 30
0.0
 40
1.155
  0
CIRCLE
  5
238
330
6B
100
AcDbEntity
  8
0
100
AcDbCircle
 10
1176.304045
 20
-137.885594
 30
0.0
 40
1.155
  0
CIRCLE
  5
239
330
6B
100
AcDbEntity
  8
0
100
AcDbCircle
 10
1176.304045
 20
-141.735594
 30
0.0
 40
1.155
  0
CIRCLE
  5
23A
330
6B
100
AcDbEntity
  8
0
100
AcDbCircle
 10
1207.874045
 20
-145.123594
 30
0.0
 40
1.54
  0
CIRCLE
  5
23B
330
6B
100
AcDbEntity
  8
0
100
AcDbCircle
 10
1200.174045
 20
-152.823594
 30
0.0
 40
1.54
  0
CIRCLE
  5
23C
330
6B
100
AcDbEntity
  8
0
100
AcDbCircle
 10
1192.474045
 20
-145.123594
 30
0.0
 40
1.54
  0
CIRCLE
  5
23D
330
6B
100
AcDbEntity
  8
0
100
AcDbCircle
 10
1192.474045
 20
-160.523594
 30
0.0
 40
1.54
  0
CIRCLE
  5
23E
330
6B
100
AcDbEntity
  8
0
100
AcDbCircle
 10
1207.874045
 20
-160.523594
 30
0.0
 40
1.54
  0
CIRCLE
  5
23F
330
6B
100
AcDbEntity
  8
0
100
AcDbCircle
 10
1247.914045
 20
-126.027594
 30
0.0
 40
2.694999999999998
  0
LINE
  5
240
330
6B
100
AcDbEntity
  8
0
100
AcDbLine
 10
1246.374045
 20
-126.297094
 30
0.0
 11
1246.374045
 21
-125.758094
 31
0.0
  0
LINE
  5
241
330
6B
100
AcDbEntity
  8
0
100
AcDbLine
 10
1246.374045
 20
-125.758094
 30
0.0
 11
1246.951545
 21
-125.758094
 31
0.0
  0
LINE
  5
242
330
6B
100
AcDbEntity
  8
0
100
AcDbLine
 10
1246.374045
 20
-126.297094
 30
0.0
 11
1246.951545
 21
-126.297094
 31
0.0
  0
LINE
  5
243
330
6B
100
AcDbEntity
  8
0
100
AcDbLine
 10
1248.183545
 20
-127.567594
 30
0.0
 11
1247.644545
 21
-127.567594
 31
0.0
  0
LINE
  5
244
330
6B
100
AcDbEntity
  8
0
100
AcDbLine
 10
1247.644545
 20
-127.567594
 30
0.0
 11
1247.644545
 21
-126.990094
 31
0.0
  0
LINE
  5
245
330
6B
100
AcDbEntity
  8
0
100
AcDbLine
 10
1248.183545
 20
-127.567594
 30
0.0
 11
1248.183545
 21
-126.990094
 31
0.0
  0
LINE
  5
246
330
6B
100
AcDbEntity
  8
0
100
AcDbLine
 10
1249.454045
 20
-125.758094
 30
0.0
 11
1249.454045
 21
-126.297094
 31
0.0
  0
LINE
  5
247
330
6B
100
AcDbEntity
  8
0
100
AcDbLine
 10
1249.454045
 20
-126.297094
 30
0.0
 11
1248.876545
 21
-126.297094
 31
0.0
  0
LINE
  5
248
330
6B
100
AcDbEntity
  8
0
100
AcDbLine
 10
1249.454045
 20
-125.758094
 30
0.0
 11
1248.876545
 21
-125.758094
 31
0.0
  0
LINE
  5
249
330
6B
100
AcDbEntity
  8
0
100
AcDbLine
 10
1247.644545
 20
-124.487594
 30
0.0
 11
1248.183545
 21
-124.487594
 31
0.0
  0
LINE
  5
24A
330
6B
100
AcDbEntity
  8
0
100
AcDbLine
 10
1248.183545
 20
-124.487594
 30
0.0
 11
1248.183545
 21
-125.065094
 31
0.0
  0
LINE
  5
24B
330
6B
100
AcDbEntity
  8
0
100
AcDbLine
 10
1247.644545
 20
-124.487594
 30
0.0
 11
1247.644545
 21
-125.065094
 31
0.0
  0
ARC
  5
24C
330
6B
100
AcDbEntity
  8
0
100
AcDbCircle
 10
1248.876545
 20
-126.990094
 30
0.0
 40
0.693
100
AcDbArc
 50
90.0
 51
180.0
  0
ARC
  5
24D
330
6B
100
AcDbEntity
  8
0
100
AcDbCircle
 10
1248.876545
 20
-125.065094
 30
0.0
 40
0.693
100
AcDbArc
 50
180.0
 51
270.0
  0
ARC
  5
24E
330
6B
100
AcDbEntity
  8
0
100
AcDbCircle
 10
1246.951545
 20
-125.065094
 30
0.0
 40
0.693
100
AcDbArc
 50
270.0
 51
0.0
  0
ARC
  5
24F
330
6B
100
AcDbEntity
  8
0
100
AcDbCircle
 10
1246.951545
 20
-126.990094
 30
0.0
 40
0.693
100
AcDbArc
 50
0.0
 51
90.0
  0
CIRCLE
  5
250
330
6B
100
AcDbEntity
  8
0
100
AcDbCircle
 10
1247.914045
 20
-126.027594
 30
0.0
 40
2.694999999999998
  0
LINE
  5
251
330
6B
100
AcDbEntity
  8
0
100
AcDbLine
 10
1246.374045
 20
-126.297094
 30
0.0
 11
1246.374045
 21
-125.758094
 31
0.0
  0
LINE
  5
252
330
6B
100
AcDbEntity
  8
0
100
AcDbLine
 10
1246.374045
 20
-125.758094
 30
0.0
 11
1246.951545
 21
-125.758094
 31
0.0
  0
LINE
  5
253
330
6B
100
AcDbEntity
  8
0
100
AcDbLine
 10
1246.374045
 20
-126.297094
 30
0.0
 11
1246.951545
 21
-126.297094
 31
0.0
  0
LINE
  5
254
330
6B
100
AcDbEntity
  8
0
100
AcDbLine
 10
1248.183545
 20
-127.567594
 30
0.0
 11
1247.644545
 21
-127.567594
 31
0.0
  0
LINE
  5
255
330
6B
100
AcDbEntity
  8
0
100
AcDbLine
 10
1247.644545
 20
-127.567594
 30
0.0
 11
1247.644545
 21
-126.990094
 31
0.0
  0
LINE
  5
256
330
6B
100
AcDbEntity
  8
0
100
AcDbLine
 10
1248.183545
 20
-127.567594
 30
0.0
 11
1248.183545
 21
-126.990094
 31
0.0
  0
LINE
  5
257
330
6B
100
AcDbEntity
  8
0
100
AcDbLine
 10
1249.454045
 20
-125.758094
 30
0.0
 11
1249.454045
 21
-126.297094
 31
0.0
  0
LINE
  5
258
330
6B
100
AcDbEntity
  8
0
100
AcDbLine
 10
1249.454045
 20
-126.297094
 30
0.0
 11
1248.876545
 21
-126.297094
 31
0.0
  0
LINE
  5
259
330
6B
100
AcDbEntity
  8
0
100
AcDbLine
 10
1249.454045
 20
-125.758094
 30
0.0
 11
1248.876545
 21
-125.758094
 31
0.0
  0
LINE
  5
25A
330
6B
100
AcDbEntity
  8
0
100
AcDbLine
 10
1247.644545
 20
-124.487594
 30
0.0
 11
1248.183545
 21
-124.487594
 31
0.0
  0
LINE
  5
25B
330
6B
100
AcDbEntity
  8
0
100
AcDbLine
 10
1248.183545
 20
-124.487594
 30
0.0
 11
1248.183545
 21
-125.065094
 31
0.0
  0
LINE
  5
25C
330
6B
100
AcDbEntity
  8
0
100
AcDbLine
 10
1247.644545
 20
-124.487594
 30
0.0
 11
1247.644545
 21
-125.065094
 31
0.0
  0
ARC
  5
25D
330
6B
100
AcDbEntity
  8
0
100
AcDbCircle
 10
1248.876545
 20
-126.990094
 30
0.0
 40
0.693
100
AcDbArc
 50
90.0
 51
180.0
  0
ARC
  5
25E
330
6B
100
AcDbEntity
  8
0
100
AcDbCircle
 10
1248.876545
 20
-125.065094
 30
0.0
 40
0.693
100
AcDbArc
 50
180.0
 51
270.0
  0
ARC
  5
25F
330
6B
100
AcDbEntity
  8
0
100
AcDbCircle
 10
1246.951545
 20
-125.065094
 30
0.0
 40
0.693
100
AcDbArc
 50
270.0
 51
0.0
  0
ARC
  5
260
330
6B
100
AcDbEntity
  8
0
100
AcDbCircle
 10
1246.951545
 20
-126.990094
 30
0.0
 40
0.693
100
AcDbArc
 50
0.0
 51
90.0
  0
CIRCLE
  5
261
330
6B
100
AcDbEntity
  8
0
100
AcDbCircle
 10
1247.914045
 20
-176.077594
 30
0.0
 40
2.694999999999998
  0
LINE
  5
262
330
6B
100
AcDbEntity
  8
0
100
AcDbLine
 10
1246.374045
 20
-176.347094
 30
0.0
 11
1246.374045
 21
-175.808094
 31
0.0
  0
LINE
  5
263
330
6B
100
AcDbEntity
  8
0
100
AcDbLine
 10
1246.374045
 20
-175.808094
 30
0.0
 11
1246.951545
 21
-175.808094
 31
0.0
  0
LINE
  5
264
330
6B
100
AcDbEntity
  8
0
100
AcDbLine
 10
1246.374045
 20
-176.347094
 30
0.0
 11
1246.951545
 21
-176.347094
 31
0.0
  0
LINE
  5
265
330
6B
100
AcDbEntity
  8
0
100
AcDbLine
 10
1248.183545
 20
-177.617594
 30
0.0
 11
1247.644545
 21
-177.617594
 31
0.0
  0
LINE
  5
266
330
6B
100
AcDbEntity
  8
0
100
AcDbLine
 10
1247.644545
 20
-177.617594
 30
0.0
 11
1247.644545
 21
-177.040094
 31
0.0
  0
LINE
  5
267
330
6B
100
AcDbEntity
  8
0
100
AcDbLine
 10
1248.183545
 20
-177.617594
 30
0.0
 11
1248.183545
 21
-177.040094
 31
0.0
  0
LINE
  5
268
330
6B
100
AcDbEntity
  8
0
100
AcDbLine
 10
1249.454045
 20
-175.808094
 30
0.0
 11
1249.454045
 21
-176.347094
 31
0.0
  0
LINE
  5
269
330
6B
100
AcDbEntity
  8
0
100
AcDbLine
 10
1249.454045
 20
-176.347094
 30
0.0
 11
1248.876545
 21
-176.347094
 31
0.0
  0
LINE
  5
26A
330
6B
100
AcDbEntity
  8
0
100
AcDbLine
 10
1249.454045
 20
-175.808094
 30
0.0
 11
1248.876545
 21
-175.808094
 31
0.0
  0
LINE
  5
26B
330
6B
100
AcDbEntity
  8
0
100
AcDbLine
 10
1247.644545
 20
-174.537594
 30
0.0
 11
1248.183545
 21
-174.537594
 31
0.0
  0
LINE
  5
26C
330
6B
100
AcDbEntity
  8
0
100
AcDbLine
 10
1248.183545
 20
-174.537594
 30
0.0
 11
1248.183545
 21
-175.115094
 31
0.0
  0
LINE
  5
26D
330
6B
100
AcDbEntity
  8
0
100
AcDbLine
 10
1247.644545
 20
-174.537594
 30
0.0
 11
1247.644545
 21
-175.115094
 31
0.0
  0
ARC
  5
26E
330
6B
100
AcDbEntity
  8
0
100
AcDbCircle
 10
1248.876545
 20
-177.040094
 30
0.0
 40
0.693
100
AcDbArc
 50
90.0
 51
180.0
  0
ARC
  5
26F
330
6B
100
AcDbEntity
  8
0
100
AcDbCircle
 10
1248.876545
 20
-175.115094
 30
0.0
 40
0.693
100
AcDbArc
 50
180.0
 51
270.0
  0
ARC
  5
270
330
6B
100
AcDbEntity
  8
0
100
AcDbCircle
 10
1246.951545
 20
-175.115094
 30
0.0
 40
0.693
100
AcDbArc
 50
270.0
 51
0.0
  0
ARC
  5
271
330
6B
100
AcDbEntity
  8
0
100
AcDbCircle
 10
1246.951545
 20
-177.040094
 30
0.0
 40
0.693
100
AcDbArc
 50
0.0
 51
90.0
  0
CIRCLE
  5
272
330
6B
100
AcDbEntity
  8
0
100
AcDbCircle
 10
1247.914045
 20
-176.077594
 30
0.0
 40
2.694999999999998
  0
LINE
  5
273
330
6B
100
AcDbEntity
  8
0
100
AcDbLine
 10
1246.374045
 20
-176.347094
 30
0.0
 11
1246.374045
 21
-175.808094
 31
0.0
  0
LINE
  5
274
330
6B
100
AcDbEntity
  8
0
100
AcDbLine
 10
1246.374045
 20
-175.808094
 30
0.0
 11
1246.951545
 21
-175.808094
 31
0.0
  0
LINE
  5
275
330
6B
100
AcDbEntity
  8
0
100
AcDbLine
 10
1246.374045
 20
-176.347094
 30
0.0
 11
1246.951545
 21
-176.347094
 31
0.0
  0
LINE
  5
276
330
6B
100
AcDbEntity
  8
0
100
AcDbLine
 10
1248.183545
 20
-177.617594
 30
0.0
 11
1247.644545
 21
-177.617594
 31
0.0
  0
LINE
  5
277
330
6B
100
AcDbEntity
  8
0
100
AcDbLine
 10
1247.644545
 20
-177.617594
 30
0.0
 11
1247.644545
 21
-177.040094
 31
0.0
  0
LINE
  5
278
330
6B
100
AcDbEntity
  8
0
100
AcDbLine
 10
1248.183545
 20
-177.617594
 30
0.0
 11
1248.183545
 21
-177.040094
 31
0.0
  0
LINE
  5
279
330
6B
100
AcDbEntity
  8
0
100
AcDbLine
 10
1249.454045
 20
-175.808094
 30
0.0
 11
1249.454045
 21
-176.347094
 31
0.0
  0
LINE
  5
27A
330
6B
100
AcDbEntity
  8
0
100
AcDbLine
 10
1249.454045
 20
-176.347094
 30
0.0
 11
1248.876545
 21
-176.347094
 31
0.0
  0
LINE
  5
27B
330
6B
100
AcDbEntity
  8
0
100
AcDbLine
 10
1249.454045
 20
-175.808094
 30
0.0
 11
1248.876545
 21
-175.808094
 31
0.0
  0
LINE
  5
27C
330
6B
100
AcDbEntity
  8
0
100
AcDbLine
 10
1247.644545
 20
-174.537594
 30
0.0
 11
1248.183545
 21
-174.537594
 31
0.0
  0
LINE
  5
27D
330
6B
100
AcDbEntity
  8
0
100
AcDbLine
 10
1248.183545
 20
-174.537594
 30
0.0
 11
1248.183545
 21
-175.115094
 31
0.0
  0
LINE
  5
27E
330
6B
100
AcDbEntity
  8
0
100
AcDbLine
 10
1247.644545
 20
-174.537594
 30
0.0
 11
1247.644545
 21
-175.115094
 31
0.0
  0
ARC
  5
27F
330
6B
100
AcDbEntity
  8
0
100
AcDbCircle
 10
1248.876545
 20
-177.040094
 30
0.0
 40
0.693
100
AcDbArc
 50
90.0
 51
180.0
  0
ARC
  5
280
330
6B
100
AcDbEntity
  8
0
100
AcDbCircle
 10
1248.876545
 20
-175.115094
 30
0.0
 40
0.693
100
AcDbArc
 50
180.0
 51
270.0
  0
ARC
  5
281
330
6B
100
AcDbEntity
  8
0
100
AcDbCircle
 10
1246.951545
 20
-175.115094
 30
0.0
 40
0.693
100
AcDbArc
 50
270.0
 51
0.0
  0
ARC
  5
282
330
6B
100
AcDbEntity
  8
0
100
AcDbCircle
 10
1246.951545
 20
-177.040094
 30
0.0
 40
0.693
100
AcDbArc
 50
0.0
 51
90.0
  0
CIRCLE
  5
283
330
6B
100
AcDbEntity
  8
0
100
AcDbCircle
 10
1247.914045
 20
-183.623594
 30
0.0
 40
2.694999999999998
  0
LINE
  5
284
330
6B
100
AcDbEntity
  8
0
100
AcDbLine
 10
1246.374045
 20
-183.893094
 30
0.0
 11
1246.374045
 21
-183.354094
 31
0.0
  0
LINE
  5
285
330
6B
100
AcDbEntity
  8
0
100
AcDbLine
 10
1246.374045
 20
-183.354094
 30
0.0
 11
1246.951545
 21
-183.354094
 31
0.0
  0
LINE
  5
286
330
6B
100
AcDbEntity
  8
0
100
AcDbLine
 10
1246.374045
 20
-183.893094
 30
0.0
 11
1246.951545
 21
-183.893094
 31
0.0
  0
LINE
  5
287
330
6B
100
AcDbEntity
  8
0
100
AcDbLine
 10
1248.183545
 20
-185.163594
 30
0.0
 11
1247.644545
 21
-185.163594
 31
0.0
  0
LINE
  5
288
330
6B
100
AcDbEntity
  8
0
100
AcDbLine
 10
1247.644545
 20
-185.163594
 30
0.0
 11
1247.644545
 21
-184.586094
 31
0.0
  0
LINE
  5
289
330
6B
100
AcDbEntity
  8
0
100
AcDbLine
 10
1248.183545
 20
-185.163594
 30
0.0
 11
1248.183545
 21
-184.586094
 31
0.0
  0
LINE
  5
28A
330
6B
100
AcDbEntity
  8
0
100
AcDbLine
 10
1249.454045
 20
-183.893094
 30
0.0
 11
1248.876545
 21
-183.893094
 31
0.0
  0
LINE
  5
28B
330
6B
100
AcDbEntity
  8
0
100
AcDbLine
 10
1249.454045
 20
-183.354094
 30
0.0
 11
1248.876545
 21
-183.354094
 31
0.0
  0
LINE
  5
28C
330
6B
100
AcDbEntity
  8
0
100
AcDbLine
 10
1247.644545
 20
-182.083594
 30
0.0
 11
1248.183545
 21
-182.083594
 31
0.0
  0
LINE
  5
28D
330
6B
100
AcDbEntity
  8
0
100
AcDbLine
 10
1248.183545
 20
-182.083594
 30
0.0
 11
1248.183545
 21
-182.661094
 31
0.0
  0
LINE
  5
28E
330
6B
100
AcDbEntity
  8
0
100
AcDbLine
 10
1247.644545
 20
-182.083594
 30
0.0
 11
1247.644545
 21
-182.661094
 31
0.0
  0
ARC
  5
28F
330
6B
100
AcDbEntity
  8
0
100
AcDbCircle
 10
1248.876545
 20
-184.586094
 30
0.0
 40
0.693
100
AcDbArc
 50
90.0
 51
180.0
  0
ARC
  5
290
330
6B
100
AcDbEntity
  8
0
100
AcDbCircle
 10
1248.876545
 20
-182.661094
 30
0.0
 40
0.693
100
AcDbArc
 50
180.0
 51
270.0
  0
ARC
  5
291
330
6B
100
AcDbEntity
  8
0
100
AcDbCircle
 10
1246.951545
 20
-182.661094
 30
0.0
 40
0.693
100
AcDbArc
 50
270.0
 51
0.0
  0
ARC
  5
292
330
6B
100
AcDbEntity
  8
0
100
AcDbCircle
 10
1246.951545
 20
-184.586094
 30
0.0
 40
0.693
100
AcDbArc
 50
0.0
 51
90.0
  0
CIRCLE
  5
293
330
6B
100
AcDbEntity
  8
0
100
AcDbCircle
 10
1247.914045
 20
-183.623594
 30
0.0
 40
2.694999999999998
  0
LINE
  5
294
330
6B
100
AcDbEntity
  8
0
100
AcDbLine
 10
1246.374045
 20
-183.893094
 30
0.0
 11
1246.374045
 21
-183.354094
 31
0.0
  0
LINE
  5
295
330
6B
100
AcDbEntity
  8
0
100
AcDbLine
 10
1246.374045
 20
-183.354094
 30
0.0
 11
1246.951545
 21
-183.354094
 31
0.0
  0
LINE
  5
296
330
6B
100
AcDbEntity
  8
0
100
AcDbLine
 10
1246.374045
 20
-183.893094
 30
0.0
 11
1246.951545
 21
-183.893094
 31
0.0
  0
LINE
  5
297
330
6B
100
AcDbEntity
  8
0
100
AcDbLine
 10
1248.183545
 20
-185.163594
 30
0.0
 11
1247.644545
 21
-185.163594
 31
0.0
  0
LINE
  5
298
330
6B
100
AcDbEntity
  8
0
100
AcDbLine
 10
1247.644545
 20
-185.163594
 30
0.0
 11
1247.644545
 21
-184.586094
 31
0.0
  0
LINE
  5
299
330
6B
100
AcDbEntity
  8
0
100
AcDbLine
 10
1248.183545
 20
-185.163594
 30
0.0
 11
1248.183545
 21
-184.586094
 31
0.0
  0
LINE
  5
29A
330
6B
100
AcDbEntity
  8
0
100
AcDbLine
 10
1249.454045
 20
-183.893094
 30
0.0
 11
1248.876545
 21
-183.893094
 31
0.0
  0
LINE
  5
29B
330
6B
100
AcDbEntity
  8
0
100
AcDbLine
 10
1249.454045
 20
-183.354094
 30
0.0
 11
1248.876545
 21
-183.354094
 31
0.0
  0
LINE
  5
29C
330
6B
100
AcDbEntity
  8
0
100
AcDbLine
 10
1247.644545
 20
-182.083594
 30
0.0
 11
1248.183545
 21
-182.083594
 31
0.0
  0
LINE
  5
29D
330
6B
100
AcDbEntity
  8
0
100
AcDbLine
 10
1248.183545
 20
-182.083594
 30
0.0
 11
1248.183545
 21
-182.661094
 31
0.0
  0
LINE
  5
29E
330
6B
100
AcDbEntity
  8
0
100
AcDbLine
 10
1247.644545
 20
-182.083594
 30
0.0
 11
1247.644545
 21
-182.661094
 31
0.0
  0
ARC
  5
29F
330
6B
100
AcDbEntity
  8
0
100
AcDbCircle
 10
1248.876545
 20
-184.586094
 30
0.0
 40
0.693
100
AcDbArc
 50
90.0
 51
180.0
  0
ARC
  5
2A0
330
6B
100
AcDbEntity
  8
0
100
AcDbCircle
 10
1248.876545
 20
-182.661094
 30
0.0
 40
0.693
100
AcDbArc
 50
180.0
 51
270.0
  0
ARC
  5
2A1
330
6B
100
AcDbEntity
  8
0
100
AcDbCircle
 10
1246.951545
 20
-182.661094
 30
0.0
 40
0.693
100
AcDbArc
 50
270.0
 51
0.0
  0
ARC
  5
2A2
330
6B
100
AcDbEntity
  8
0
100
AcDbCircle
 10
1246.951545
 20
-184.586094
 30
0.0
 40
0.693
100
AcDbArc
 50
0.0
 51
90.0
  0
LINE
  5
2A3
330
6B
100
AcDbEntity
  8
0
100
AcDbLine
 10
1249.454045
 20
-183.354094
 30
0.0
 11
1249.454045
 21
-183.893094
 31
0.0
  0
LINE
  5
2A4
330
6B
100
AcDbEntity
  8
0
100
AcDbLine
 10
1249.454045
 20
-183.354094
 30
0.0
 11
1249.454045
 21
-183.893094
 31
0.0
  0
LINE
  5
2A5
330
6B
100
AcDbEntity
  8
0
100
AcDbLine
 10
1253.304045
 20
-193.770654
 30
0.0
 11
1251.764045
 21
-193.770654
 31
0.0
  0
LINE
  5
2A6
330
6B
100
AcDbEntity
  8
0
100
AcDbLine
 10
1253.304045
 20
-193.770654
 30
0.0
 11
1253.304045
 21
-185.377654
 31
0.0
  0
LINE
  5
2A7
330
6B
100
AcDbEntity
  8
0
100
AcDbLine
 10
1253.304045
 20
-185.377654
 30
0.0
 11
1251.764045
 21
-185.377654
 31
0.0
  0
LINE
  5
2A8
330
6B
100
AcDbEntity
  8
0
100
AcDbLine
 10
1242.524045
 20
-202.873594
 30
0.0
 11
1239.059045
 21
-205.183594
 31
0.0
  0
LINE
  5
2A9
330
6B
100
AcDbEntity
  8
0
100
AcDbLine
 10
1239.059045
 20
-205.183594
 30
0.0
 11
1233.669045
 21
-205.183594
 31
0.0
  0
LINE
  5
2AA
330
6B
100
AcDbEntity
  8
0
100
AcDbLine
 10
1233.669045
 20
-205.183594
 30
0.0
 11
1230.204045
 21
-202.873594
 31
0.0
  0
LINE
  5
2AB
330
6B
100
AcDbEntity
  8
0
100
AcDbLine
 10
1123.559045
 20
-205.183594
 30
0.0
 11
1127.024045
 21
-202.873594
 31
0.0
  0
LINE
  5
2AC
330
6B
100
AcDbEntity
  8
0
100
AcDbLine
 10
1114.704045
 20
-202.873594
 30
0.0
 11
1118.169045
 21
-205.183594
 31
0.0
  0
LINE
  5
2AD
330
6B
100
AcDbEntity
  8
0
100
AcDbLine
 10
1118.169045
 20
-205.183594
 30
0.0
 11
1123.559045
 21
-205.183594
 31
0.0
  0
LINE
  5
2AE
330
6B
100
AcDbEntity
  8
0
100
AcDbLine
 10
1103.154045
 20
-183.694434
 30
0.0
 11
1105.477905
 21
-183.694434
 31
0.0
  0
LINE
  5
2AF
330
6B
100
AcDbEntity
  8
0
100
AcDbLine
 10
1102.384045
 20
-182.924434
 30
0.0
 11
1102.384045
 21
-169.073674
 31
0.0
  0
ARC
  5
2B0
330
6B
100
AcDbEntity
  8
0
100
AcDbCircle
 10
1103.154045
 20
-182.924434
 30
0.0
 40
0.7700000000000001
100
AcDbArc
 50
180.0
 51
270.0
  0
LINE
  5
2B1
330
6B
100
AcDbEntity
  8
0
100
AcDbLine
 10
1104.004125
 20
-186.392514
 30
0.0
 11
1102.849125
 21
-185.2375139999999
 31
0.0
  0
LINE
  5
2B2
330
6B
100
AcDbEntity
  8
0
100
AcDbLine
 10
1104.004125
 20
-186.392514
 30
0.0
 11
1105.544125
 21
-186.392514
 31
0.0
  0
LINE
  5
2B3
330
6B
100
AcDbEntity
  8
0
100
AcDbLine
 10
1102.849125
 20
-183.631294
 30
0.0
 11
1102.849125
 21
-185.2375139999999
 31
0.0
  0
LINE
  5
2B4
330
6B
100
AcDbEntity
  8
0
100
AcDbLine
 10
1103.154045
 20
-168.303674
 30
0.0
 11
1105.462505
 21
-168.303674
 31
0.0
  0
ARC
  5
2B5
330
6B
100
AcDbEntity
  8
0
100
AcDbCircle
 10
1103.154045
 20
-169.073674
 30
0.0
 40
0.7700000000000001
100
AcDbArc
 50
90.0
 51
180.0
  0
LINE
  5
2B6
330
6B
100
AcDbEntity
  8
0
100
AcDbLine
 10
1104.004125
 20
-165.602514
 30
0.0
 11
1102.849125
 21
-166.757514
 31
0.0
  0
LINE
  5
2B7
330
6B
100
AcDbEntity
  8
0
100
AcDbLine
 10
1104.004125
 20
-165.602514
 30
0.0
 11
1105.544125
 21
-165.602514
 31
0.0
  0
LINE
  5
2B8
330
6B
100
AcDbEntity
  8
0
100
AcDbLine
 10
1102.849125
 20
-166.757514
 30
0.0
 11
1102.849125
 21
-168.380674
 31
0.0
  0
CIRCLE
  5
2B9
330
6B
100
AcDbEntity
  8
0
100
AcDbCircle
 10
1109.314045
 20
-176.077594
 30
0.0
 40
2.694999999999998
  0
LINE
  5
2BA
330
6B
100
AcDbEntity
  8
0
100
AcDbLine
 10
1107.774045
 20
-176.347094
 30
0.0
 11
1107.774045
 21
-175.808094
 31
0.0
  0
LINE
  5
2BB
330
6B
100
AcDbEntity
  8
0
100
AcDbLine
 10
1107.774045
 20
-175.808094
 30
0.0
 11
1108.351545
 21
-175.808094
 31
0.0
  0
LINE
  5
2BC
330
6B
100
AcDbEntity
  8
0
100
AcDbLine
 10
1107.774045
 20
-176.347094
 30
0.0
 11
1108.351545
 21
-176.347094
 31
0.0
  0
LINE
  5
2BD
330
6B
100
AcDbEntity
  8
0
100
AcDbLine
 10
1109.583545
 20
-177.617594
 30
0.0
 11
1109.044545
 21
-177.617594
 31
0.0
  0
LINE
  5
2BE
330
6B
100
AcDbEntity
  8
0
100
AcDbLine
 10
1109.044545
 20
-177.617594
 30
0.0
 11
1109.044545
 21
-177.040094
 31
0.0
  0
LINE
  5
2BF
330
6B
100
AcDbEntity
  8
0
100
AcDbLine
 10
1109.583545
 20
-177.617594
 30
0.0
 11
1109.583545
 21
-177.040094
 31
0.0
  0
LINE
  5
2C0
330
6B
100
AcDbEntity
  8
0
100
AcDbLine
 10
1110.854044999999
 20
-175.808094
 30
0.0
 11
1110.854044999999
 21
-176.347094
 31
0.0
  0
LINE
  5
2C1
330
6B
100
AcDbEntity
  8
0
100
AcDbLine
 10
1110.854044999999
 20
-176.347094
 30
0.0
 11
1110.276545
 21
-176.347094
 31
0.0
  0
LINE
  5
2C2
330
6B
100
AcDbEntity
  8
0
100
AcDbLine
 10
1110.854044999999
 20
-175.808094
 30
0.0
 11
1110.276545
 21
-175.808094
 31
0.0
  0
LINE
  5
2C3
330
6B
100
AcDbEntity
  8
0
100
AcDbLine
 10
1109.044545
 20
-174.537594
 30
0.0
 11
1109.583545
 21
-174.537594
 31
0.0
  0
LINE
  5
2C4
330
6B
100
AcDbEntity
  8
0
100
AcDbLine
 10
1109.583545
 20
-174.537594
 30
0.0
 11
1109.583545
 21
-175.115094
 31
0.0
  0
LINE
  5
2C5
330
6B
100
AcDbEntity
  8
0
100
AcDbLine
 10
1109.044545
 20
-174.537594
 30
0.0
 11
1109.044545
 21
-175.115094
 31
0.0
  0
ARC
  5
2C6
330
6B
100
AcDbEntity
  8
0
100
AcDbCircle
 10
1110.276545
 20
-177.040094
 30
0.0
 40
0.693
100
AcDbArc
 50
90.0
 51
180.0
  0
ARC
  5
2C7
330
6B
100
AcDbEntity
  8
0
100
AcDbCircle
 10
1110.276545
 20
-175.115094
 30
0.0
 40
0.693
100
AcDbArc
 50
180.0
 51
270.0
  0
ARC
  5
2C8
330
6B
100
AcDbEntity
  8
0
100
AcDbCircle
 10
1108.351545
 20
-175.115094
 30
0.0
 40
0.693
100
AcDbArc
 50
270.0
 51
0.0
  0
ARC
  5
2C9
330
6B
100
AcDbEntity
  8
0
100
AcDbCircle
 10
1108.351545
 20
-177.040094
 30
0.0
 40
0.693
100
AcDbArc
 50
0.0
 51
90.0
  0
CIRCLE
  5
2CA
330
6B
100
AcDbEntity
  8
0
100
AcDbCircle
 10
1109.314045
 20
-176.077594
 30
0.0
 40
2.694999999999998
  0
LINE
  5
2CB
330
6B
100
AcDbEntity
  8
0
100
AcDbLine
 10
1107.774045
 20
-176.347094
 30
0.0
 11
1107.774045
 21
-175.808094
 31
0.0
  0
LINE
  5
2CC
330
6B
100
AcDbEntity
  8
0
100
AcDbLine
 10
1107.774045
 20
-175.808094
 30
0.0
 11
1108.351545
 21
-175.808094
 31
0.0
  0
LINE
  5
2CD
330
6B
100
AcDbEntity
  8
0
100
AcDbLine
 10
1107.774045
 20
-176.347094
 30
0.0
 11
1108.351545
 21
-176.347094
 31
0.0
  0
LINE
  5
2CE
330
6B
100
AcDbEntity
  8
0
100
AcDbLine
 10
1109.583545
 20
-177.617594
 30
0.0
 11
1109.044545
 21
-177.617594
 31
0.0
  0
LINE
  5
2CF
330
6B
100
AcDbEntity
  8
0
100
AcDbLine
 10
1109.044545
 20
-177.617594
 30
0.0
 11
1109.044545
 21
-177.040094
 31
0.0
  0
LINE
  5
2D0
330
6B
100
AcDbEntity
  8
0
100
AcDbLine
 10
1109.583545
 20
-177.617594
 30
0.0
 11
1109.583545
 21
-177.040094
 31
0.0
  0
LINE
  5
2D1
330
6B
100
AcDbEntity
  8
0
100
AcDbLine
 10
1110.854044999999
 20
-175.808094
 30
0.0
 11
1110.854044999999
 21
-176.347094
 31
0.0
  0
LINE
  5
2D2
330
6B
100
AcDbEntity
  8
0
100
AcDbLine
 10
1110.854044999999
 20
-176.347094
 30
0.0
 11
1110.276545
 21
-176.347094
 31
0.0
  0
LINE
  5
2D3
330
6B
100
AcDbEntity
  8
0
100
AcDbLine
 10
1110.854044999999
 20
-175.808094
 30
0.0
 11
1110.276545
 21
-175.808094
 31
0.0
  0
LINE
  5
2D4
330
6B
100
AcDbEntity
  8
0
100
AcDbLine
 10
1109.044545
 20
-174.537594
 30
0.0
 11
1109.583545
 21
-174.537594
 31
0.0
  0
LINE
  5
2D5
330
6B
100
AcDbEntity
  8
0
100
AcDbLine
 10
1109.583545
 20
-174.537594
 30
0.0
 11
1109.583545
 21
-175.115094
 31
0.0
  0
LINE
  5
2D6
330
6B
100
AcDbEntity
  8
0
100
AcDbLine
 10
1109.044545
 20
-174.537594
 30
0.0
 11
1109.044545
 21
-175.115094
 31
0.0
  0
ARC
  5
2D7
330
6B
100
AcDbEntity
  8
0
100
AcDbCircle
 10
1110.276545
 20
-177.040094
 30
0.0
 40
0.693
100
AcDbArc
 50
90.0
 51
180.0
  0
ARC
  5
2D8
330
6B
100
AcDbEntity
  8
0
100
AcDbCircle
 10
1110.276545
 20
-175.115094
 30
0.0
 40
0.693
100
AcDbArc
 50
180.0
 51
270.0
  0
ARC
  5
2D9
330
6B
100
AcDbEntity
  8
0
100
AcDbCircle
 10
1108.351545
 20
-175.115094
 30
0.0
 40
0.693
100
AcDbArc
 50
270.0
 51
0.0
  0
ARC
  5
2DA
330
6B
100
AcDbEntity
  8
0
100
AcDbCircle
 10
1108.351545
 20
-177.040094
 30
0.0
 40
0.693
100
AcDbArc
 50
0.0
 51
90.0
  0
CIRCLE
  5
2DB
330
6B
100
AcDbEntity
  8
0
100
AcDbCircle
 10
1109.314045
 20
-183.623594
 30
0.0
 40
2.694999999999998
  0
LINE
  5
2DC
330
6B
100
AcDbEntity
  8
0
100
AcDbLine
 10
1107.774045
 20
-183.893094
 30
0.0
 11
1107.774045
 21
-183.354094
 31
0.0
  0
LINE
  5
2DD
330
6B
100
AcDbEntity
  8
0
100
AcDbLine
 10
1107.774045
 20
-183.354094
 30
0.0
 11
1108.351545
 21
-183.354094
 31
0.0
  0
LINE
  5
2DE
330
6B
100
AcDbEntity
  8
0
100
AcDbLine
 10
1107.774045
 20
-183.893094
 30
0.0
 11
1108.351545
 21
-183.893094
 31
0.0
  0
LINE
  5
2DF
330
6B
100
AcDbEntity
  8
0
100
AcDbLine
 10
1109.583545
 20
-185.163594
 30
0.0
 11
1109.044545
 21
-185.163594
 31
0.0
  0
LINE
  5
2E0
330
6B
100
AcDbEntity
  8
0
100
AcDbLine
 10
1109.044545
 20
-185.163594
 30
0.0
 11
1109.044545
 21
-184.586094
 31
0.0
  0
LINE
  5
2E1
330
6B
100
AcDbEntity
  8
0
100
AcDbLine
 10
1109.583545
 20
-185.163594
 30
0.0
 11
1109.583545
 21
-184.586094
 31
0.0
  0
LINE
  5
2E2
330
6B
100
AcDbEntity
  8
0
100
AcDbLine
 10
1110.854044999999
 20
-183.354094
 30
0.0
 11
1110.854044999999
 21
-183.893094
 31
0.0
  0
LINE
  5
2E3
330
6B
100
AcDbEntity
  8
0
100
AcDbLine
 10
1110.854044999999
 20
-183.893094
 30
0.0
 11
1110.276545
 21
-183.893094
 31
0.0
  0
LINE
  5
2E4
330
6B
100
AcDbEntity
  8
0
100
AcDbLine
 10
1110.854044999999
 20
-183.354094
 30
0.0
 11
1110.276545
 21
-183.354094
 31
0.0
  0
LINE
  5
2E5
330
6B
100
AcDbEntity
  8
0
100
AcDbLine
 10
1109.044545
 20
-182.083594
 30
0.0
 11
1109.583545
 21
-182.083594
 31
0.0
  0
LINE
  5
2E6
330
6B
100
AcDbEntity
  8
0
100
AcDbLine
 10
1109.583545
 20
-182.083594
 30
0.0
 11
1109.583545
 21
-182.661094
 31
0.0
  0
LINE
  5
2E7
330
6B
100
AcDbEntity
  8
0
100
AcDbLine
 10
1109.044545
 20
-182.083594
 30
0.0
 11
1109.044545
 21
-182.661094
 31
0.0
  0
ARC
  5
2E8
330
6B
100
AcDbEntity
  8
0
100
AcDbCircle
 10
1110.276545
 20
-184.586094
 30
0.0
 40
0.693
100
AcDbArc
 50
90.0
 51
180.0
  0
ARC
  5
2E9
330
6B
100
AcDbEntity
  8
0
100
AcDbCircle
 10
1110.276545
 20
-182.661094
 30
0.0
 40
0.693
100
AcDbArc
 50
180.0
 51
270.0
  0
ARC
  5
2EA
330
6B
100
AcDbEntity
  8
0
100
AcDbCircle
 10
1108.351545
 20
-182.661094
 30
0.0
 40
0.693
100
AcDbArc
 50
270.0
 51
0.0
  0
ARC
  5
2EB
330
6B
100
AcDbEntity
  8
0
100
AcDbCircle
 10
1108.351545
 20
-184.586094
 30
0.0
 40
0.693
100
AcDbArc
 50
0.0
 51
90.0
  0
CIRCLE
  5
2EC
330
6B
100
AcDbEntity
  8
0
100
AcDbCircle
 10
1109.314045
 20
-183.623594
 30
0.0
 40
2.694999999999998
  0
LINE
  5
2ED
330
6B
100
AcDbEntity
  8
0
100
AcDbLine
 10
1107.774045
 20
-183.893094
 30
0.0
 11
1107.774045
 21
-183.354094
 31
0.0
  0
LINE
  5
2EE
330
6B
100
AcDbEntity
  8
0
100
AcDbLine
 10
1107.774045
 20
-183.354094
 30
0.0
 11
1108.351545
 21
-183.354094
 31
0.0
  0
LINE
  5
2EF
330
6B
100
AcDbEntity
  8
0
100
AcDbLine
 10
1107.774045
 20
-183.893094
 30
0.0
 11
1108.351545
 21
-183.893094
 31
0.0
  0
LINE
  5
2F0
330
6B
100
AcDbEntity
  8
0
100
AcDbLine
 10
1109.583545
 20
-185.163594
 30
0.0
 11
1109.044545
 21
-185.163594
 31
0.0
  0
LINE
  5
2F1
330
6B
100
AcDbEntity
  8
0
100
AcDbLine
 10
1109.044545
 20
-185.163594
 30
0.0
 11
1109.044545
 21
-184.586094
 31
0.0
  0
LINE
  5
2F2
330
6B
100
AcDbEntity
  8
0
100
AcDbLine
 10
1109.583545
 20
-185.163594
 30
0.0
 11
1109.583545
 21
-184.586094
 31
0.0
  0
LINE
  5
2F3
330
6B
100
AcDbEntity
  8
0
100
AcDbLine
 10
1110.854044999999
 20
-183.354094
 30
0.0
 11
1110.854044999999
 21
-183.893094
 31
0.0
  0
LINE
  5
2F4
330
6B
100
AcDbEntity
  8
0
100
AcDbLine
 10
1110.854044999999
 20
-183.893094
 30
0.0
 11
1110.276545
 21
-183.893094
 31
0.0
  0
LINE
  5
2F5
330
6B
100
AcDbEntity
  8
0
100
AcDbLine
 10
1110.854044999999
 20
-183.354094
 30
0.0
 11
1110.276545
 21
-183.354094
 31
0.0
  0
LINE
  5
2F6
330
6B
100
AcDbEntity
  8
0
100
AcDbLine
 10
1109.044545
 20
-182.083594
 30
0.0
 11
1109.583545
 21
-182.083594
 31
0.0
  0
LINE
  5
2F7
330
6B
100
AcDbEntity
  8
0
100
AcDbLine
 10
1109.583545
 20
-182.083594
 30
0.0
 11
1109.583545
 21
-182.661094
 31
0.0
  0
LINE
  5
2F8
330
6B
100
AcDbEntity
  8
0
100
AcDbLine
 10
1109.044545
 20
-182.083594
 30
0.0
 11
1109.044545
 21
-182.661094
 31
0.0
  0
ARC
  5
2F9
330
6B
100
AcDbEntity
  8
0
100
AcDbCircle
 10
1110.276545
 20
-184.586094
 30
0.0
 40
0.693
100
AcDbArc
 50
90.0
 51
180.0
  0
ARC
  5
2FA
330
6B
100
AcDbEntity
  8
0
100
AcDbCircle
 10
1110.276545
 20
-182.661094
 30
0.0
 40
0.693
100
AcDbArc
 50
180.0
 51
270.0
  0
ARC
  5
2FB
330
6B
100
AcDbEntity
  8
0
100
AcDbCircle
 10
1108.351545
 20
-182.661094
 30
0.0
 40
0.693
100
AcDbArc
 50
270.0
 51
0.0
  0
ARC
  5
2FC
330
6B
100
AcDbEntity
  8
0
100
AcDbCircle
 10
1108.351545
 20
-184.586094
 30
0.0
 40
0.693
100
AcDbArc
 50
0.0
 51
90.0
  0
LINE
  5
2FD
330
6B
100
AcDbEntity
  8
0
100
AcDbLine
 10
1104.004125
 20
-141.347514
 30
0.0
 11
1104.004125
 21
-118.247514
 31
0.0
  0
LINE
  5
2FE
330
6B
100
AcDbEntity
  8
0
100
AcDbLine
 10
1105.464045
 20
-141.347514
 30
0.0
 11
1104.004125
 21
-141.347514
 31
0.0
  0
LINE
  5
2FF
330
6B
100
AcDbEntity
  8
0
100
AcDbLine
 10
1104.004125
 20
-118.247514
 30
0.0
 11
1105.464045
 21
-118.247514
 31
0.0
  0
LINE
  5
300
330
6B
100
AcDbEntity
  8
0
100
AcDbLine
 10
1104.004125
 20
-137.497514
 30
0.0
 11
1100.154125
 21
-135.572514
 31
0.0
  0
ARC
  5
301
330
6B
100
AcDbEntity
  8
0
100
AcDbCircle
 10
1043.597625
 20
-109.295494
 30
0.0
 40
62.36229999999999
100
AcDbArc
 50
335.08
 51
345.612
  0
LINE
  5
302
330
6B
100
AcDbEntity
  8
0
100
AcDbLine
 10
1103.234125
 20
-127.487514
 30
0.0
 11
1102.849125
 21
-127.102514
 31
0.0
  0
LINE
  5
303
330
6B
100
AcDbEntity
  8
0
100
AcDbLine
 10
1102.849125
 20
-127.102514
 30
0.0
 11
1103.619125
 21
-124.407514
 31
0.0
  0
LINE
  5
304
330
6B
100
AcDbEntity
  8
0
100
AcDbLine
 10
1103.619125
 20
-124.407514
 30
0.0
 11
1104.004125
 21
-124.407514
 31
0.0
  0
LINE
  5
305
330
6B
100
AcDbEntity
  8
0
100
AcDbLine
 10
1107.774045
 20
-126.297094
 30
0.0
 11
1107.774045
 21
-125.758094
 31
0.0
  0
LINE
  5
306
330
6B
100
AcDbEntity
  8
0
100
AcDbLine
 10
1107.774045
 20
-126.297094
 30
0.0
 11
1107.774045
 21
-125.758094
 31
0.0
  0
CIRCLE
  5
307
330
6B
100
AcDbEntity
  8
0
100
AcDbCircle
 10
1109.314045
 20
-126.027594
 30
0.0
 40
2.694999999999998
  0
LINE
  5
308
330
6B
100
AcDbEntity
  8
0
100
AcDbLine
 10
1107.774045
 20
-125.758094
 30
0.0
 11
1108.351545
 21
-125.758094
 31
0.0
  0
LINE
  5
309
330
6B
100
AcDbEntity
  8
0
100
AcDbLine
 10
1107.774045
 20
-126.297094
 30
0.0
 11
1108.351545
 21
-126.297094
 31
0.0
  0
LINE
  5
30A
330
6B
100
AcDbEntity
  8
0
100
AcDbLine
 10
1109.583545
 20
-127.567594
 30
0.0
 11
1109.044545
 21
-127.567594
 31
0.0
  0
LINE
  5
30B
330
6B
100
AcDbEntity
  8
0
100
AcDbLine
 10
1109.044545
 20
-127.567594
 30
0.0
 11
1109.044545
 21
-126.990094
 31
0.0
  0
LINE
  5
30C
330
6B
100
AcDbEntity
  8
0
100
AcDbLine
 10
1109.583545
 20
-127.567594
 30
0.0
 11
1109.583545
 21
-126.990094
 31
0.0
  0
LINE
  5
30D
330
6B
100
AcDbEntity
  8
0
100
AcDbLine
 10
1110.854044999999
 20
-125.758094
 30
0.0
 11
1110.854044999999
 21
-126.297094
 31
0.0
  0
LINE
  5
30E
330
6B
100
AcDbEntity
  8
0
100
AcDbLine
 10
1110.854044999999
 20
-126.297094
 30
0.0
 11
1110.276545
 21
-126.297094
 31
0.0
  0
LINE
  5
30F
330
6B
100
AcDbEntity
  8
0
100
AcDbLine
 10
1110.854044999999
 20
-125.758094
 30
0.0
 11
1110.276545
 21
-125.758094
 31
0.0
  0
LINE
  5
310
330
6B
100
AcDbEntity
  8
0
100
AcDbLine
 10
1109.044545
 20
-124.487594
 30
0.0
 11
1109.583545
 21
-124.487594
 31
0.0
  0
LINE
  5
311
330
6B
100
AcDbEntity
  8
0
100
AcDbLine
 10
1109.583545
 20
-124.487594
 30
0.0
 11
1109.583545
 21
-125.065094
 31
0.0
  0
LINE
  5
312
330
6B
100
AcDbEntity
  8
0
100
AcDbLine
 10
1109.044545
 20
-124.487594
 30
0.0
 11
1109.044545
 21
-125.065094
 31
0.0
  0
ARC
  5
313
330
6B
100
AcDbEntity
  8
0
100
AcDbCircle
 10
1110.276545
 20
-126.990094
 30
0.0
 40
0.693
100
AcDbArc
 50
90.0
 51
180.0
  0
ARC
  5
314
330
6B
100
AcDbEntity
  8
0
100
AcDbCircle
 10
1110.276545
 20
-125.065094
 30
0.0
 40
0.693
100
AcDbArc
 50
180.0
 51
270.0
  0
ARC
  5
315
330
6B
100
AcDbEntity
  8
0
100
AcDbCircle
 10
1108.351545
 20
-125.065094
 30
0.0
 40
0.693
100
AcDbArc
 50
270.0
 51
0.0
  0
ARC
  5
316
330
6B
100
AcDbEntity
  8
0
100
AcDbCircle
 10
1108.351545
 20
-126.990094
 30
0.0
 40
0.693
100
AcDbArc
 50
0.0
 51
90.0
  0
CIRCLE
  5
317
330
6B
100
AcDbEntity
  8
0
100
AcDbCircle
 10
1109.314045
 20
-126.027594
 30
0.0
 40
2.694999999999998
  0
LINE
  5
318
330
6B
100
AcDbEntity
  8
0
100
AcDbLine
 10
1107.774045
 20
-125.758094
 30
0.0
 11
1108.351545
 21
-125.758094
 31
0.0
  0
LINE
  5
319
330
6B
100
AcDbEntity
  8
0
100
AcDbLine
 10
1107.774045
 20
-126.297094
 30
0.0
 11
1108.351545
 21
-126.297094
 31
0.0
  0
LINE
  5
31A
330
6B
100
AcDbEntity
  8
0
100
AcDbLine
 10
1109.583545
 20
-127.567594
 30
0.0
 11
1109.044545
 21
-127.567594
 31
0.0
  0
LINE
  5
31B
330
6B
100
AcDbEntity
  8
0
100
AcDbLine
 10
1109.044545
 20
-127.567594
 30
0.0
 11
1109.044545
 21
-126.990094
 31
0.0
  0
LINE
  5
31C
330
6B
100
AcDbEntity
  8
0
100
AcDbLine
 10
1109.583545
 20
-127.567594
 30
0.0
 11
1109.583545
 21
-126.990094
 31
0.0
  0
LINE
  5
31D
330
6B
100
AcDbEntity
  8
0
100
AcDbLine
 10
1110.854044999999
 20
-125.758094
 30
0.0
 11
1110.854044999999
 21
-126.297094
 31
0.0
  0
LINE
  5
31E
330
6B
100
AcDbEntity
  8
0
100
AcDbLine
 10
1110.854044999999
 20
-126.297094
 30
0.0
 11
1110.276545
 21
-126.297094
 31
0.0
  0
LINE
  5
31F
330
6B
100
AcDbEntity
  8
0
100
AcDbLine
 10
1110.854044999999
 20
-125.758094
 30
0.0
 11
1110.276545
 21
-125.758094
 31
0.0
  0
LINE
  5
320
330
6B
100
AcDbEntity
  8
0
100
AcDbLine
 10
1109.044545
 20
-124.487594
 30
0.0
 11
1109.583545
 21
-124.487594
 31
0.0
  0
LINE
  5
321
330
6B
100
AcDbEntity
  8
0
100
AcDbLine
 10
1109.583545
 20
-124.487594
 30
0.0
 11
1109.583545
 21
-125.065094
 31
0.0
  0
LINE
  5
322
330
6B
100
AcDbEntity
  8
0
100
AcDbLine
 10
1109.044545
 20
-124.487594
 30
0.0
 11
1109.044545
 21
-125.065094
 31
0.0
  0
ARC
  5
323
330
6B
100
AcDbEntity
  8
0
100
AcDbCircle
 10
1110.276545
 20
-126.990094
 30
0.0
 40
0.693
100
AcDbArc
 50
90.0
 51
180.0
  0
ARC
  5
324
330
6B
100
AcDbEntity
  8
0
100
AcDbCircle
 10
1110.276545
 20
-125.065094
 30
0.0
 40
0.693
100
AcDbArc
 50
180.0
 51
270.0
  0
ARC
  5
325
330
6B
100
AcDbEntity
  8
0
100
AcDbCircle
 10
1108.351545
 20
-125.065094
 30
0.0
 40
0.693
100
AcDbArc
 50
270.0
 51
0.0
  0
ARC
  5
326
330
6B
100
AcDbEntity
  8
0
100
AcDbCircle
 10
1108.351545
 20
-126.990094
 30
0.0
 40
0.693
100
AcDbArc
 50
0.0
 51
90.0
  0
ARC
  5
327
330
6B
100
AcDbEntity
  8
0
100
AcDbCircle
 10
1021.239125
 20
-197.557514
 30
0.0
 40
4.62
100
AcDbArc
 50
180.0
 51
270.0
  0
LINE
  5
328
330
6B
100
AcDbEntity
  8
0
100
AcDbLine
 10
1016.619125
 20
-197.557514
 30
0.0
 11
1016.619125
 21
-108.237514
 31
0.0
  0
LINE
  5
329
330
6B
100
AcDbEntity
  8
0
100
AcDbLine
 10
1072.059125
 20
-202.177514
 30
0.0
 11
1021.239125
 21
-202.177514
 31
0.0
  0
ARC
  5
32A
330
6B
100
AcDbEntity
  8
0
100
AcDbCircle
 10
1072.059125
 20
-197.557514
 30
0.0
 40
4.62
100
AcDbArc
 50
270.0
 51
0.0
  0
LINE
  5
32B
330
6B
100
AcDbEntity
  8
0
100
AcDbLine
 10
1076.679125
 20
-108.237514
 30
0.0
 11
1076.679125
 21
-197.557514
 31
0.0
  0
ARC
  5
32C
330
6B
100
AcDbEntity
  8
0
100
AcDbCircle
 10
1072.059125
 20
-108.237514
 30
0.0
 40
4.62
100
AcDbArc
 50
0.0
 51
90.0
  0
LINE
  5
32D
330
6B
100
AcDbEntity
  8
0
100
AcDbLine
 10
1021.239125
 20
-103.617514
 30
0.0
 11
1072.059125
 21
-103.617514
 31
0.0
  0
ARC
  5
32E
330
6B
100
AcDbEntity
  8
0
100
AcDbCircle
 10
1021.239125
 20
-108.237514
 30
0.0
 40
4.62
100
AcDbArc
 50
90.0
 51
180.0
  0
ARC
  5
32F
330
6B
100
AcDbEntity
  8
0
100
AcDbCircle
 10
1052.809125
 20
-99.76751400000001
 30
0.0
 40
0.7700000000000001
100
AcDbArc
 50
0.0
 51
90.0
  0
ARC
  5
330
330
6B
100
AcDbEntity
  8
0
100
AcDbCircle
 10
1046.649125
 20
-101.563154
 30
0.0
 40
3.72218
100
AcDbArc
 50
43.603
 51
136.397
  0
ARC
  5
331
330
6B
100
AcDbEntity
  8
0
100
AcDbCircle
 10
1040.489125
 20
-99.76751400000001
 30
0.0
 40
0.7700000000000001
100
AcDbArc
 50
90.0
 51
180.0
  0
LINE
  5
332
330
6B
100
AcDbEntity
  8
0
100
AcDbLine
 10
1040.489125
 20
-98.99751399999999
 30
0.0
 11
1052.809125
 21
-98.99751399999999
 31
0.0
  0
ARC
  5
333
330
6B
100
AcDbEntity
  8
0
100
AcDbCircle
 10
1046.649125
 20
-101.563154
 30
0.0
 40
3.72218
100
AcDbArc
 50
43.603
 51
136.397
  0
ARC
  5
334
330
6B
100
AcDbEntity
  8
0
100
AcDbCircle
 10
1040.489125
 20
-99.76751400000001
 30
0.0
 40
0.7700000000000001
100
AcDbArc
 50
90.0
 51
180.0
  0
LINE
  5
335
330
6B
100
AcDbEntity
  8
0
100
AcDbLine
 10
1040.489125
 20
-98.99751399999999
 30
0.0
 11
1052.809125
 21
-98.99751399999999
 31
0.0
  0
LINE
  5
336
330
6B
100
AcDbEntity
  8
0
100
AcDbLine
 10
1134.699405
 20
-97.93029400000001
 30
0.0
 11
1134.699405
 21
-97.160294
 31
0.0
  0
LINE
  5
337
330
6B
100
AcDbEntity
  8
0
100
AcDbLine
 10
1134.699405
 20
-97.160294
 30
0.0
 11
1131.619405
 21
-99.085294
 31
0.0
  0
LINE
  5
338
330
6B
100
AcDbEntity
  8
0
100
AcDbLine
 10
1131.619405
 20
-99.855294
 30
0.0
 11
1134.699405
 21
-97.93029400000001
 31
0.0
  0
LINE
  5
339
330
6B
100
AcDbEntity
  8
0
100
AcDbLine
 10
1134.699405
 20
-97.93029400000001
 30
0.0
 11
1134.699405
 21
-97.160294
 31
0.0
  0
LINE
  5
33A
330
6B
100
AcDbEntity
  8
0
100
AcDbLine
 10
1134.699405
 20
-97.160294
 30
0.0
 11
1131.619405
 21
-99.085294
 31
0.0
  0
LINE
  5
33B
330
6B
100
AcDbEntity
  8
0
100
AcDbLine
 10
1131.619405
 20
-99.855294
 30
0.0
 11
1134.699405
 21
-97.93029400000001
 31
0.0
  0
LINE
  5
33C
330
6B
100
AcDbEntity
  8
0
100
AcDbLine
 10
1222.479405
 20
-97.93029400000001
 30
0.0
 11
1222.479405
 21
-97.160294
 31
0.0
  0
LINE
  5
33D
330
6B
100
AcDbEntity
  8
0
100
AcDbLine
 10
1222.479405
 20
-97.160294
 30
0.0
 11
1225.559405
 21
-99.085294
 31
0.0
  0
LINE
  5
33E
330
6B
100
AcDbEntity
  8
0
100
AcDbLine
 10
1225.559405
 20
-99.855294
 30
0.0
 11
1222.479405
 21
-97.93029400000001
 31
0.0
  0
LINE
  5
33F
330
6B
100
AcDbEntity
  8
0
100
AcDbLine
 10
1222.479405
 20
-97.93029400000001
 30
0.0
 11
1222.479405
 21
-97.160294
 31
0.0
  0
LINE
  5
340
330
6B
100
AcDbEntity
  8
0
100
AcDbLine
 10
1222.479405
 20
-97.160294
 30
0.0
 11
1225.559405
 21
-99.085294
 31
0.0
  0
LINE
  5
341
330
6B
100
AcDbEntity
  8
0
100
AcDbLine
 10
1225.559405
 20
-99.855294
 30
0.0
 11
1222.479405
 21
-97.93029400000001
 31
0.0
  0
ARC
  5
342
330
6B
100
AcDbEntity
  8
0
100
AcDbCircle
 10
1178.589405
 20
-817.687794
 30
0.0
 40
717.0625
100
AcDbArc
 50
86.24399999999999
 51
93.756
  0
ARC
  5
343
330
6B
100
AcDbEntity
  8
0
100
AcDbCircle
 10
1178.627905
 20
-817.322814
 30
0.0
 40
718.23752
100
AcDbArc
 50
86.24700000000002
 51
93.75300000000001
  0
LINE
  5
344
330
6B
100
AcDbEntity
  8
0
100
AcDbLine
 10
1058.969125
 20
-127.487514
 30
0.0
 11
1065.129125
 21
-127.487514
 31
0.0
  0
LINE
  5
345
330
6B
100
AcDbEntity
  8
0
100
AcDbLine
 10
1065.129125
 20
-127.487514
 30
0.0
 11
1065.129125
 21
-122.8675139999999
 31
0.0
  0
LINE
  5
346
330
6B
100
AcDbEntity
  8
0
100
AcDbLine
 10
1065.129125
 20
-122.8675139999999
 30
0.0
 11
1058.969125
 21
-122.8675139999999
 31
0.0
  0
LINE
  5
347
330
6B
100
AcDbEntity
  8
0
100
AcDbLine
 10
1058.969125
 20
-122.8675139999999
 30
0.0
 11
1058.969125
 21
-127.487514
 31
0.0
  0
LINE
  5
348
330
6B
100
AcDbEntity
  8
0
100
AcDbLine
 10
1058.199125
 20
-134.417514
 30
0.0
 11
1065.899125
 21
-134.417514
 31
0.0
  0
CIRCLE
  5
349
330
6B
100
AcDbEntity
  8
0
100
AcDbCircle
 10
1062.049125
 20
-132.107514
 30
0.0
 40
1.54
  0
ARC
  5
34A
330
6B
100
AcDbEntity
  8
0
100
AcDbCircle
 10
1031.249125
 20
-154.8225139999999
 30
0.0
 40
2.694999999999998
100
AcDbArc
 50
0.0
 51
180.0
  0
LINE
  5
34B
330
6B
100
AcDbEntity
  8
0
100
AcDbLine
 10
1033.944125
 20
-157.5175139999999
 30
0.0
 11
1033.944125
 21
-154.8225139999999
 31
0.0
  0
LINE
  5
34C
330
6B
100
AcDbEntity
  8
0
100
AcDbLine
 10
1028.554125
 20
-157.5175139999999
 30
0.0
 11
1033.944125
 21
-157.5175139999999
 31
0.0
  0
LINE
  5
34D
330
6B
100
AcDbEntity
  8
0
100
AcDbLine
 10
1028.554125
 20
-154.8225139999999
 30
0.0
 11
1028.554125
 21
-157.5175139999999
 31
0.0
  0
LINE
  5
34E
330
6B
100
AcDbEntity
  8
0
100
AcDbLine
 10
1025.089125
 20
-142.117514
 30
0.0
 11
1027.784125
 21
-142.117514
 31
0.0
  0
LINE
  5
34F
330
6B
100
AcDbEntity
  8
0
100
AcDbLine
 10
1025.089125
 20
-149.817514
 30
0.0
 11
1025.089125
 21
-142.117514
 31
0.0
  0
LINE
  5
350
330
6B
100
AcDbEntity
  8
0
100
AcDbLine
 10
1027.784125
 20
-149.817514
 30
0.0
 11
1025.089125
 21
-149.817514
 31
0.0
  0
LINE
  5
351
330
6B
100
AcDbEntity
  8
0
100
AcDbLine
 10
1027.784125
 20
-149.817514
 30
0.0
 11
1027.784125
 21
-142.117514
 31
0.0
  0
LINE
  5
352
330
6B
100
AcDbEntity
  8
0
100
AcDbLine
 10
1034.714125
 20
-142.502514
 30
0.0
 11
1037.409125
 21
-142.502514
 31
0.0
  0
LINE
  5
353
330
6B
100
AcDbEntity
  8
0
100
AcDbLine
 10
1034.714125
 20
-142.502514
 30
0.0
 11
1034.714125
 21
-149.432514
 31
0.0
  0
LINE
  5
354
330
6B
100
AcDbEntity
  8
0
100
AcDbLine
 10
1037.409125
 20
-142.502514
 30
0.0
 11
1037.409125
 21
-149.432514
 31
0.0
  0
LINE
  5
355
330
6B
100
AcDbEntity
  8
0
100
AcDbLine
 10
1034.714125
 20
-149.432514
 30
0.0
 11
1037.409125
 21
-149.432514
 31
0.0
  0
ARC
  5
356
330
6B
100
AcDbEntity
  8
0
100
AcDbCircle
 10
1031.249125
 20
-181.002514
 30
0.0
 40
2.694999999999998
100
AcDbArc
 50
0.0
 51
180.0
  0
LINE
  5
357
330
6B
100
AcDbEntity
  8
0
100
AcDbLine
 10
1033.944125
 20
-183.697514
 30
0.0
 11
1033.944125
 21
-181.002514
 31
0.0
  0
LINE
  5
358
330
6B
100
AcDbEntity
  8
0
100
AcDbLine
 10
1028.554125
 20
-183.697514
 30
0.0
 11
1033.944125
 21
-183.697514
 31
0.0
  0
LINE
  5
359
330
6B
100
AcDbEntity
  8
0
100
AcDbLine
 10
1028.554125
 20
-181.002514
 30
0.0
 11
1028.554125
 21
-183.697514
 31
0.0
  0
LINE
  5
35A
330
6B
100
AcDbEntity
  8
0
100
AcDbLine
 10
1025.089125
 20
-168.297514
 30
0.0
 11
1027.784125
 21
-168.297514
 31
0.0
  0
LINE
  5
35B
330
6B
100
AcDbEntity
  8
0
100
AcDbLine
 10
1025.089125
 20
-175.997514
 30
0.0
 11
1025.089125
 21
-168.297514
 31
0.0
  0
LINE
  5
35C
330
6B
100
AcDbEntity
  8
0
100
AcDbLine
 10
1027.784125
 20
-175.997514
 30
0.0
 11
1025.089125
 21
-175.997514
 31
0.0
  0
LINE
  5
35D
330
6B
100
AcDbEntity
  8
0
100
AcDbLine
 10
1027.784125
 20
-175.997514
 30
0.0
 11
1027.784125
 21
-168.297514
 31
0.0
  0
LINE
  5
35E
330
6B
100
AcDbEntity
  8
0
100
AcDbLine
 10
1034.714125
 20
-168.682514
 30
0.0
 11
1037.409125
 21
-168.682514
 31
0.0
  0
LINE
  5
35F
330
6B
100
AcDbEntity
  8
0
100
AcDbLine
 10
1034.714125
 20
-168.682514
 30
0.0
 11
1034.714125
 21
-175.6125139999999
 31
0.0
  0
LINE
  5
360
330
6B
100
AcDbEntity
  8
0
100
AcDbLine
 10
1037.409125
 20
-168.682514
 30
0.0
 11
1037.409125
 21
-175.6125139999999
 31
0.0
  0
LINE
  5
361
330
6B
100
AcDbEntity
  8
0
100
AcDbLine
 10
1034.714125
 20
-175.6125139999999
 30
0.0
 11
1037.409125
 21
-175.6125139999999
 31
0.0
  0
ARC
  5
362
330
6B
100
AcDbEntity
  8
0
100
AcDbCircle
 10
1316.737425
 20
-99.76751400000001
 30
0.0
 40
0.7700000000000001
100
AcDbArc
 50
0.0
 51
90.0
  0
LINE
  5
363
330
6B
100
AcDbEntity
  8
0
100
AcDbLine
 10
1316.737425
 20
-98.99751399999999
 30
0.0
 11
1304.417425
 21
-98.99751399999999
 31
0.0
  0
ARC
  5
364
330
6B
100
AcDbEntity
  8
0
100
AcDbCircle
 10
1310.577425
 20
-101.563154
 30
0.0
 40
3.72218
100
AcDbArc
 50
43.603
 51
136.397
  0
ARC
  5
365
330
6B
100
AcDbEntity
  8
0
100
AcDbCircle
 10
1304.417425
 20
-99.76751400000001
 30
0.0
 40
0.7700000000000001
100
AcDbArc
 50
90.0
 51
180.0
  0
LINE
  5
366
330
6B
100
AcDbEntity
  8
0
100
AcDbLine
 10
1285.167425
 20
-103.617514
 30
0.0
 11
1335.987425
 21
-103.617514
 31
0.0
  0
ARC
  5
367
330
6B
100
AcDbEntity
  8
0
100
AcDbCircle
 10
1335.987425
 20
-108.237514
 30
0.0
 40
4.62
100
AcDbArc
 50
0.0
 51
90.0
  0
ARC
  5
368
330
6B
100
AcDbEntity
  8
0
100
AcDbCircle
 10
1285.167425
 20
-108.237514
 30
0.0
 40
4.62
100
AcDbArc
 50
90.0
 51
180.0
  0
LINE
  5
369
330
6B
100
AcDbEntity
  8
0
100
AcDbLine
 10
1333.677425
 20
-113.627514
 30
0.0
 11
1287.477425
 21
-113.627514
 31
0.0
  0
LINE
  5
36A
330
6B
100
AcDbEntity
  8
0
100
AcDbLine
 10
1291.327425
 20
-115.167514
 30
0.0
 11
1329.827425
 21
-115.167514
 31
0.0
  0
ARC
  5
36B
330
6B
100
AcDbEntity
  8
0
100
AcDbCircle
 10
1329.827425
 20
-117.477514
 30
0.0
 40
2.31
100
AcDbArc
 50
0.0
 51
90.0
  0
TEXT
  5
36C
330
6B
100
AcDbEntity
  8
0
100
AcDbText
 10
1292.097425
 20
-134.6485139999999
 30
0.0
 40
2.31
  1
●前面パネルに表示されている容量以下でご使用
 41
0.596
100
AcDbText
  0
LINE
  5
36D
330
6B
100
AcDbEntity
  8
0
100
AcDbLine
 10
1299.874425
 20
-121.327514
 30
0.0
 11
1296.794425
 21
-126.332514
 31
0.0
  0
TEXT
  5
36E
330
6B
100
AcDbEntity
  8
0
100
AcDbText
 10
1298.360092
 20
-125.485514
 30
0.0
 40
3.157
  1
!
 41
3.600004
100
AcDbText
  0
LINE
  5
36F
330
6B
100
AcDbEntity
  8
0
100
AcDbLine
 10
1299.874425
 20
-121.327514
 30
0.0
 11
1302.954425
 21
-126.332514
 31
0.0
  0
TEXT
  5
370
330
6B
100
AcDbEntity
  8
0
100
AcDbText
 10
1292.097425
 20
-130.028514
 30
0.0
 40
2.31
  1
●入力電圧がＡＣ２２０Ｖ～２３０Ｖであることを
 41
0.596
100
AcDbText
  0
LINE
  5
371
330
6B
100
AcDbEntity
  8
0
100
AcDbLine
 10
1296.794425
 20
-126.332514
 30
0.0
 11
1302.954425
 21
-126.332514
 31
0.0
  0
LINE
  5
372
330
6B
100
AcDbEntity
  8
0
100
AcDbLine
 10
1280.547425
 20
-197.557514
 30
0.0
 11
1280.547425
 21
-108.237514
 31
0.0
  0
ARC
  5
373
330
6B
100
AcDbEntity
  8
0
100
AcDbCircle
 10
1291.327425
 20
-117.477514
 30
0.0
 40
2.31
100
AcDbArc
 50
90.0
 51
180.0
  0
LINE
  5
374
330
6B
100
AcDbEntity
  8
0
100
AcDbLine
 10
1287.477425
 20
-159.827514
 30
0.0
 11
1333.677425
 21
-159.827514
 31
0.0
  0
ARC
  5
375
330
6B
100
AcDbEntity
  8
0
100
AcDbCircle
 10
1329.827425
 20
-155.977514
 30
0.0
 40
2.31
100
AcDbArc
 50
270.0
 51
0.0
  0
LINE
  5
376
330
6B
100
AcDbEntity
  8
0
100
AcDbLine
 10
1329.827425
 20
-158.287514
 30
0.0
 11
1291.327425
 21
-158.287514
 31
0.0
  0
ARC
  5
377
330
6B
100
AcDbEntity
  8
0
100
AcDbCircle
 10
1291.327425
 20
-155.977514
 30
0.0
 40
2.31
100
AcDbArc
 50
180.0
 51
270.0
  0
LINE
  5
378
330
6B
100
AcDbEntity
  8
0
100
AcDbLine
 10
1333.677425
 20
-159.827514
 30
0.0
 11
1333.677425
 21
-113.627514
 31
0.0
  0
LINE
  5
379
330
6B
100
AcDbEntity
  8
0
100
AcDbLine
 10
1332.137425
 20
-117.477514
 30
0.0
 11
1332.137425
 21
-155.977514
 31
0.0
  0
LINE
  5
37A
330
6B
100
AcDbEntity
  8
0
100
AcDbLine
 10
1287.477425
 20
-113.627514
 30
0.0
 11
1287.477425
 21
-159.827514
 31
0.0
  0
LINE
  5
37B
330
6B
100
AcDbEntity
  8
0
100
AcDbLine
 10
1289.017425
 20
-155.977514
 30
0.0
 11
1289.017425
 21
-117.477514
 31
0.0
  0
LINE
  5
37C
330
6B
100
AcDbEntity
  8
0
100
AcDbLine
 10
1331.057885
 20
-189.472514
 30
0.0
 11
1329.057425
 21
-188.317514
 31
0.0
  0
LINE
  5
37D
330
6B
100
AcDbEntity
  8
0
100
AcDbLine
 10
1329.057425
 20
-188.317514
 30
0.0
 11
1327.056965
 21
-189.472514
 31
0.0
  0
LINE
  5
37E
330
6B
100
AcDbEntity
  8
0
100
AcDbLine
 10
1327.056965
 20
-189.472514
 30
0.0
 11
1327.056965
 21
-191.782514
 31
0.0
  0
LINE
  5
37F
330
6B
100
AcDbEntity
  8
0
100
AcDbLine
 10
1327.056965
 20
-191.782514
 30
0.0
 11
1329.057425
 21
-192.937514
 31
0.0
  0
LINE
  5
380
330
6B
100
AcDbEntity
  8
0
100
AcDbLine
 10
1329.057425
 20
-192.937514
 30
0.0
 11
1331.057885
 21
-191.782514
 31
0.0
  0
LINE
  5
381
330
6B
100
AcDbEntity
  8
0
100
AcDbLine
 10
1331.057885
 20
-191.782514
 30
0.0
 11
1331.057885
 21
-189.472514
 31
0.0
  0
CIRCLE
  5
382
330
6B
100
AcDbEntity
  8
0
100
AcDbCircle
 10
1329.057425
 20
-190.627514
 30
0.0
 40
1.155
  0
LINE
  5
383
330
6B
100
AcDbEntity
  8
0
100
AcDbLine
 10
1324.822425
 20
-186.007514
 30
0.0
 11
1333.292425
 21
-186.007514
 31
0.0
  0
LINE
  5
384
330
6B
100
AcDbEntity
  8
0
100
AcDbLine
 10
1333.292425
 20
-186.007514
 30
0.0
 11
1333.292425
 21
-180.617514
 31
0.0
  0
LINE
  5
385
330
6B
100
AcDbEntity
  8
0
100
AcDbLine
 10
1333.292425
 20
-180.617514
 30
0.0
 11
1324.822425
 21
-180.617514
 31
0.0
  0
LINE
  5
386
330
6B
100
AcDbEntity
  8
0
100
AcDbLine
 10
1324.822425
 20
-180.617514
 30
0.0
 11
1324.822425
 21
-186.007514
 31
0.0
  0
LINE
  5
387
330
6B
100
AcDbEntity
  8
0
100
AcDbLine
 10
1329.057425
 20
-181.387514
 30
0.0
 11
1329.057425
 21
-183.312514
 31
0.0
  0
LINE
  5
388
330
6B
100
AcDbEntity
  8
0
100
AcDbLine
 10
1326.747425
 20
-183.312514
 30
0.0
 11
1331.367425
 21
-183.312514
 31
0.0
  0
LINE
  5
389
330
6B
100
AcDbEntity
  8
0
100
AcDbLine
 10
1327.517425
 20
-184.082514
 30
0.0
 11
1330.597425
 21
-184.082514
 31
0.0
  0
LINE
  5
38A
330
6B
100
AcDbEntity
  8
0
100
AcDbLine
 10
1328.287425
 20
-184.8525139999999
 30
0.0
 11
1329.827425
 21
-184.8525139999999
 31
0.0
  0
LINE
  5
38B
330
6B
100
AcDbEntity
  8
0
100
AcDbLine
 10
1335.987425
 20
-202.177514
 30
0.0
 11
1285.167425
 21
-202.177514
 31
0.0
  0
ARC
  5
38C
330
6B
100
AcDbEntity
  8
0
100
AcDbCircle
 10
1285.167425
 20
-197.557514
 30
0.0
 40
4.62
100
AcDbArc
 50
180.0
 51
270.0
  0
ARC
  5
38D
330
6B
100
AcDbEntity
  8
0
100
AcDbCircle
 10
1335.987425
 20
-197.557514
 30
0.0
 40
4.62
100
AcDbArc
 50
270.0
 51
0.0
  0
LINE
  5
38E
330
6B
100
AcDbEntity
  8
0
100
AcDbLine
 10
1340.607425
 20
-108.237514
 30
0.0
 11
1340.607425
 21
-197.557514
 31
0.0
  0
LINE
  5
38F
330
6B
100
AcDbEntity
  8
0
100
AcDbLine
 10
1328.669345
 20
-205.260594
 30
0.0
 11
1332.134345
 21
-202.950594
 31
0.0
  0
LINE
  5
390
330
6B
100
AcDbEntity
  8
0
100
AcDbLine
 10
1323.279345
 20
-205.260594
 30
0.0
 11
1328.669345
 21
-205.260594
 31
0.0
  0
LINE
  5
391
330
6B
100
AcDbEntity
  8
0
100
AcDbLine
 10
1319.814345
 20
-202.950594
 30
0.0
 11
1323.279345
 21
-205.260594
 31
0.0
  0
LINE
  5
392
330
6B
100
AcDbEntity
  8
0
100
AcDbLine
 10
1301.342045
 20
-202.950594
 30
0.0
 11
1297.877045
 21
-205.260594
 31
0.0
  0
LINE
  5
393
330
6B
100
AcDbEntity
  8
0
100
AcDbLine
 10
1297.877045
 20
-205.260594
 30
0.0
 11
1292.487045
 21
-205.260594
 31
0.0
  0
LINE
  5
394
330
6B
100
AcDbEntity
  8
0
100
AcDbLine
 10
1292.487045
 20
-205.260594
 30
0.0
 11
1289.022045
 21
-202.950594
 31
0.0
  0
LINE
  5
395
330
6B
100
AcDbEntity
  8
0
100
AcDbLine
 10
1257.539045
 20
-210.133154
 30
0.0
 11
1266.009045
 21
-210.133154
 31
0.0
  0
LINE
  5
396
330
6B
100
AcDbEntity
  8
0
100
AcDbLine
 10
1257.539045
 20
-213.213154
 30
0.0
 11
1266.009045
 21
-213.213154
 31
0.0
  0
LINE
  5
397
330
6B
100
AcDbEntity
  8
0
100
AcDbLine
 10
1064.741045
 20
-205.260594
 30
0.0
 11
1068.206045
 21
-202.950594
 31
0.0
  0
LINE
  5
398
330
6B
100
AcDbEntity
  8
0
100
AcDbLine
 10
1059.351045
 20
-205.260594
 30
0.0
 11
1064.741045
 21
-205.260594
 31
0.0
  0
LINE
  5
399
330
6B
100
AcDbEntity
  8
0
100
AcDbLine
 10
1055.886045
 20
-202.950594
 30
0.0
 11
1059.351045
 21
-205.260594
 31
0.0
  0
LINE
  5
39A
330
6B
100
AcDbEntity
  8
0
100
AcDbLine
 10
1033.947205
 20
-205.260594
 30
0.0
 11
1028.557205
 21
-205.260594
 31
0.0
  0
LINE
  5
39B
330
6B
100
AcDbEntity
  8
0
100
AcDbLine
 10
1028.557205
 20
-205.260594
 30
0.0
 11
1025.092205
 21
-202.950594
 31
0.0
  0
LINE
  5
39C
330
6B
100
AcDbEntity
  8
0
100
AcDbLine
 10
1037.412205
 20
-202.950594
 30
0.0
 11
1033.947205
 21
-205.260594
 31
0.0
  0
TEXT
  5
39D
330
6B
100
AcDbEntity
  8
0
 62
     3
100
AcDbText
 10
1327.849809902586
 20
-247.815452
 30
0.0
 40
3.2
  1
220-230V
  7
高3.2
100
AcDbText
  0
TEXT
  5
39E
330
6B
100
AcDbEntity
  8
0
 62
     3
100
AcDbText
 10
1327.849809902586
 20
-253.359452
 30
0.0
 40
3.2
  1
AC100V
  7
高3.2
100
AcDbText
  0
TEXT
  5
39F
330
6B
100
AcDbEntity
  8
0
 62
     3
100
AcDbText
 10
1327.849809902586
 20
-258.903452
 30
0.0
 40
3.2
  1
15A
  7
高3.2
100
AcDbText
  0
TEXT
  5
3A0
330
6B
100
AcDbEntity
  8
0
 62
     3
100
AcDbText
 10
1327.849809902586
 20
-264.447452
 30
0.0
 40
3.2
  1
B種
  7
高3.2
100
AcDbText
  0
TEXT
  5
3A1
330
6B
100
AcDbEntity
  8
0
 62
     3
100
AcDbText
 10
1327.849809902586
 20
-269.991452
 30
0.0
 40
3.2
  1
DC500V,100M\U+03A9以上
  7
高3.2
100
AcDbText
  0
TEXT
  5
3A2
330
6B
100
AcDbEntity
  8
0
 62
     3
100
AcDbText
 10
1327.849809902586
 20
-281.079452
 30
0.0
 40
3.2
  1
約6.4kg
  7
高3.2
100
AcDbText
  0
TEXT
  5
3A3
330
6B
100
AcDbEntity
  8
0
 62
     3
100
AcDbText
 10
1327.849809902586
 20
-231.183452
 30
0.0
 40
3.2
  1
1.5KVA
  7
高3.2
100
AcDbText
  0
TEXT
  5
3A4
330
6B
100
AcDbEntity
  8
0
 62
     3
100
AcDbText
 10
1327.849809902586
 20
-225.639452
 30
0.0
 40
3.2
  1
PAL-1500EP
  7
高3.2
100
AcDbText
  0
LINE
  5
3A5
330
6B
100
AcDbEntity
  8
0
 62
     3
100
AcDbLine
 10
1308.835003
 20
-220.595452
 30
0.0
 11
1371.247513
 21
-220.595452
 31
0.0
  0
LINE
  5
3A6
330
6B
100
AcDbEntity
  8
0
 62
     3
100
AcDbLine
 10
1308.835003
 20
-281.579452
 30
0.0
 11
1371.247513
 21
-281.579452
 31
0.0
  0
LINE
  5
3A7
330
6B
100
AcDbEntity
  8
0
100
AcDbLine
 10
1308.835003
 20
-253.859452
 30
0.0
 11
1371.247513
 21
-253.859452
 31
0.0
  0
LINE
  5
3A8
330
6B
100
AcDbEntity
  8
0
100
AcDbLine
 10
1308.835003
 20
-231.683452
 30
0.0
 11
1371.247513
 21
-231.683452
 31
0.0
  0
LINE
  5
3A9
330
6B
100
AcDbEntity
  8
0
100
AcDbLine
 10
1308.835003
 20
-237.227452
 30
0.0
 11
1371.247513
 21
-237.227452
 31
0.0
  0
LINE
  5
3AA
330
6B
100
AcDbEntity
  8
0
100
AcDbLine
 10
1308.835003
 20
-242.771452
 30
0.0
 11
1371.247513
 21
-242.771452
 31
0.0
  0
LINE
  5
3AB
330
6B
100
AcDbEntity
  8
0
100
AcDbLine
 10
1308.835003
 20
-248.315452
 30
0.0
 11
1371.247513
 21
-248.315452
 31
0.0
  0
LINE
  5
3AC
330
6B
100
AcDbEntity
  8
0
100
AcDbLine
 10
1308.835003
 20
-259.403452
 30
0.0
 11
1371.247513
 21
-259.403452
 31
0.0
  0
LINE
  5
3AD
330
6B
100
AcDbEntity
  8
0
100
AcDbLine
 10
1308.835003
 20
-264.947452
 30
0.0
 11
1371.247513
 21
-264.947452
 31
0.0
  0
LINE
  5
3AE
330
6B
100
AcDbEntity
  8
0
100
AcDbLine
 10
1308.835003
 20
-270.491452
 30
0.0
 11
1371.247513
 21
-270.491452
 31
0.0
  0
LINE
  5
3AF
330
6B
100
AcDbEntity
  8
0
100
AcDbLine
 10
1308.835003
 20
-276.035452
 30
0.0
 11
1371.247513
 21
-276.035452
 31
0.0
  0
LINE
  5
3B0
330
6B
100
AcDbEntity
  8
0
100
AcDbLine
 10
1308.835003
 20
-226.139452
 30
0.0
 11
1371.247513
 21
-226.139452
 31
0.0
  0
TEXT
  5
3B1
330
6B
100
AcDbEntity
  8
0
 62
     3
100
AcDbText
 10
995.1762815625
 20
-321.998079
 30
0.0
 40
3.2
  1
取手
 41
0.8
  7
高3.2
100
AcDbText
  0
TEXT
  5
3B2
330
6B
100
AcDbEntity
  8
0
 62
     3
100
AcDbText
 10
1040.656999234481
 20
-316.998079
 30
0.0
 40
3.2
  1
-
 41
0.8
  7
高3.2
100
AcDbText
  0
TEXT
  5
3B3
330
6B
100
AcDbEntity
  8
0
 62
     3
100
AcDbText
 10
995.1762815625
 20
-316.998079
 30
0.0
 40
3.2
  1
スイッチ
 41
0.8
  7
高3.2
100
AcDbText
  0
TEXT
  5
3B4
330
6B
100
AcDbEntity
  8
0
 62
     3
100
AcDbText
 10
1056.18856823141
 20
-316.998079
 30
0.0
 40
3.2
  1
ランプ付き
 41
0.8
  7
高3.2
100
AcDbText
  0
TEXT
  5
3B5
330
6B
100
AcDbEntity
  8
0
 62
     3
100
AcDbText
 10
995.1762815625
 20
-311.998079
 30
0.0
 40
3.2
  1
電線　プラグ付き
 41
0.8
  7
高3.2
100
AcDbText
  0
TEXT
  5
3B6
330
6B
100
AcDbEntity
  8
0
 62
     3
100
AcDbText
 10
1056.18856823141
 20
-311.998079
 30
0.0
 40
3.2
  1
1.3m
 41
0.8
  7
高3.2
100
AcDbText
  0
TEXT
  5
3B7
330
6B
100
AcDbEntity
  8
0
 62
     3
100
AcDbText
 10
1031.995960884054
 20
-306.998079
 30
0.0
 40
3.2
  1
2
 41
0.8
  7
高3.2
100
AcDbText
  0
TEXT
  5
3B8
330
6B
100
AcDbEntity
  8
0
 62
     3
100
AcDbText
 10
1040.656999234481
 20
-306.998079
 30
0.0
 40
3.2
  1
-
 41
0.8
  7
高3.2
100
AcDbText
  0
TEXT
  5
3B9
330
6B
100
AcDbEntity
  8
0
 62
     3
100
AcDbText
 10
1056.18856823141
 20
-301.998079
 30
0.0
 40
3.2
  1
-
 41
0.8
  7
高3.2
100
AcDbText
  0
TEXT
  5
3BA
330
6B
100
AcDbEntity
  8
0
 62
     3
100
AcDbText
 10
995.1762815625
 20
-306.998079
 30
0.0
 40
3.2
  1
コンセント
 41
0.8
  7
高3.2
100
AcDbText
  0
TEXT
  5
3BB
330
6B
100
AcDbEntity
  8
0
 62
     3
100
AcDbText
 10
1056.18856823141
 20
-306.998079
 30
0.0
 40
3.2
  1
出力　AC100V
 41
0.8
  7
高3.2
100
AcDbText
  0
TEXT
  5
3BC
330
6B
100
AcDbEntity
  8
0
 62
     3
100
AcDbText
 10
995.1762815625
 20
-296.998079
 30
0.0
 40
3.2
  1
ゴム脚
 41
0.8
  7
高3.2
100
AcDbText
  0
TEXT
  5
3BD
330
6B
100
AcDbEntity
  8
0
 62
     3
100
AcDbText
 10
995.1762815625
 20
-301.998079
 30
0.0
 40
3.2
  1
サーキットプロテクター
 41
0.8
  7
高3.2
100
AcDbText
  0
TEXT
  5
3BE
330
6B
100
AcDbEntity
  8
0
 62
     3
100
AcDbText
 10
1031.995960884054
 20
-296.998079
 30
0.0
 40
3.2
  1
4
 41
0.8
  7
高3.2
100
AcDbText
  0
TEXT
  5
3BF
330
6B
100
AcDbEntity
  8
0
 62
     3
100
AcDbText
 10
1031.995960884054
 20
-301.998079
 30
0.0
 40
3.2
  1
1
 41
0.8
  7
高3.2
100
AcDbText
  0
TEXT
  5
3C0
330
6B
100
AcDbEntity
  8
0
 62
     3
100
AcDbText
 10
1040.656999234481
 20
-296.998079
 30
0.0
 40
3.2
  1
合成ゴム
 41
0.8
  7
高3.2
100
AcDbText
  0
TEXT
  5
3C1
330
6B
100
AcDbEntity
  8
0
 62
     3
100
AcDbText
 10
1040.656999234481
 20
-301.998079
 30
0.0
 40
3.2
  1
-
 41
0.8
  7
高3.2
100
AcDbText
  0
TEXT
  5
3C2
330
6B
100
AcDbEntity
  8
0
 62
     3
100
AcDbText
 10
1056.18856823141
 20
-296.998079
 30
0.0
 40
3.2
  1
-
 41
0.8
  7
高3.2
100
AcDbText
  0
TEXT
  5
3C3
330
6B
100
AcDbEntity
  8
0
 62
     3
100
AcDbText
 10
987.6179550000001
 20
-296.998079
 30
0.0
 40
3.2
  1
7
 41
0.8
  7
高3.2
100
AcDbText
  0
LINE
  5
3C4
330
6B
100
AcDbEntity
  8
0
 62
     3
100
AcDbLine
 10
1081.094099639198
 20
-332.498079
 30
0.0
 11
1081.094099639198
 21
-292.498079
 31
0.0
  0
LINE
  5
3C5
330
6B
100
AcDbEntity
  8
0
100
AcDbLine
 10
1039.156999234481
 20
-332.498079
 30
0.0
 11
1039.156999234481
 21
-292.498079
 31
0.0
  0
LINE
  5
3C6
330
6B
100
AcDbEntity
  8
0
100
AcDbLine
 10
1030.495960884054
 20
-332.498079
 30
0.0
 11
1030.495960884054
 21
-292.498079
 31
0.0
  0
LINE
  5
3C7
330
6B
100
AcDbEntity
  8
0
100
AcDbLine
 10
1054.688568231409
 20
-332.498079
 30
0.0
 11
1054.688568231409
 21
-292.498079
 31
0.0
  0
LINE
  5
3CD
330
6B
100
AcDbEntity
  8
0
100
AcDbLine
 10
1164.071975
 20
-101.338591
 30
0.0
 11
1166.301246
 21
-86.441397
 31
0.0
  0
CIRCLE
  5
3CE
330
6B
100
AcDbEntity
  8
0
100
AcDbCircle
 10
1167.041225
 20
-81.49645699999998
 30
0.0
 40
5.0
  0
TEXT
  5
3CF
330
6B
100
AcDbEntity
  8
0
 62
     4
100
AcDbText
 10
1164.833886660573
 20
-84.6478584675148
 30
0.0
 40
6.299999999999998
  1
2
  7
高6.3
100
AcDbText
  0
LINE
  5
3D5
330
6B
100
AcDbEntity
  8
0
100
AcDbLine
 10
1020.854125
 20
-149.817514
 30
0.0
 11
1006.1621
 21
-141.588038
 31
0.0
  0
CIRCLE
  5
3D6
330
6B
100
AcDbEntity
  8
0
100
AcDbCircle
 10
1001.799816
 20
-139.144582
 30
0.0
 40
5.0
  0
TEXT
  5
3D7
330
6B
100
AcDbEntity
  8
0
 62
     4
100
AcDbText
 10
999.5924776605733
 20
-142.2959844675148
 30
0.0
 40
6.299999999999998
  1
5
  7
高6.3
100
AcDbText
  0
LINE
  5
3DD
330
6B
100
AcDbEntity
  8
0
100
AcDbLine
 10
1066.870747
 20
-180.166796
 30
0.0
 11
1084.183963
 21
-210.165153
 31
0.0
  0
CIRCLE
  5
3DE
330
6B
100
AcDbEntity
  8
0
100
AcDbCircle
 10
1086.683276
 20
-214.495676
 30
0.0
 40
5.0
  0
TEXT
  5
3DF
330
6B
100
AcDbEntity
  8
0
 62
     4
100
AcDbText
 10
1084.475937660573
 20
-217.6470774675149
 30
0.0
 40
6.299999999999998
  1
6
  7
高6.3
100
AcDbText
  0
LINE
  5
3E5
330
6B
100
AcDbEntity
  8
0
100
AcDbLine
 10
1062.791377
 20
-124.776781
 30
0.0
 11
1073.076438
 21
-88.12618399999998
 31
0.0
  0
CIRCLE
  5
3E6
330
6B
100
AcDbEntity
  8
0
100
AcDbCircle
 10
1074.427376
 20
-83.312146
 30
0.0
 40
5.0
  0
TEXT
  5
3E7
330
6B
100
AcDbEntity
  8
0
 62
     4
100
AcDbText
 10
1072.220037660573
 20
-86.46354746751482
 30
0.0
 40
6.299999999999998
  1
3
  7
高6.3
100
AcDbText
  0
LINE
  5
3ED
330
6B
100
AcDbEntity
  8
0
100
AcDbLine
 10
1019.48961
 20
-103.139348
 30
0.0
 11
1007.139009
 21
-87.259001
 31
0.0
  0
CIRCLE
  5
3EE
330
6B
100
AcDbEntity
  8
0
100
AcDbCircle
 10
1004.069427
 20
-83.312146
 30
0.0
 40
5.0
  0
TEXT
  5
3EF
330
6B
100
AcDbEntity
  8
0
 62
     4
100
AcDbText
 10
1002.690000125634
 20
-86.46845361260714
 30
0.0
 40
6.299999999999998
  1
1
  7
高6.3
100
AcDbText
  0
LINE
  5
3F5
330
6B
100
AcDbEntity
  8
0
100
AcDbLine
 10
1264.084045
 20
-225.725654
 30
0.0
 11
1246.798318
 21
-239.122077
 31
0.0
  0
CIRCLE
  5
3F6
330
6B
100
AcDbEntity
  8
0
100
AcDbCircle
 10
1242.846241
 20
-242.184933
 30
0.0
 40
5.0
  0
TEXT
  5
3F7
330
6B
100
AcDbEntity
  8
0
 62
     4
100
AcDbText
 10
1240.638902660573
 20
-245.3363344675148
 30
0.0
 40
6.299999999999998
  1
4
  7
高6.3
100
AcDbText
  0
CIRCLE
  5
3F8
330
6B
100
AcDbEntity
  8
0
100
AcDbCircle
 10
1200.174045
 20
-152.823594
 30
0.0
 40
15.4
  0
LINE
  5
3FE
330
6B
100
AcDbEntity
  8
0
100
AcDbLine
 10
1331.057885
 20
-191.782514
 30
0.0
 11
1345.697901
 21
-203.508667
 31
0.0
  0
LINE
  5
3FF
330
6B
100
AcDbEntity
  8
0
100
AcDbLine
 10
1345.697901
 20
-203.508667
 30
0.0
 11
1364.947901
 21
-203.508667
 31
0.0
  0
TEXT
  5
400
330
6B
100
AcDbEntity
  8
0
 62
     4
100
AcDbText
 10
1348.447901
 20
-202.508667
 30
0.0
 40
3.2
  1
アース端子
 41
0.716146
100
AcDbText
  0
LINE
  5
406
330
6B
100
AcDbEntity
  8
0
100
AcDbLine
 10
1332.137425
 20
-124.530159
 30
0.0
 11
1345.924188
 21
-117.967475
 31
0.0
  0
LINE
  5
407
330
6B
100
AcDbEntity
  8
0
100
AcDbLine
 10
1345.924188
 20
-117.967475
 30
0.0
 11
1367.924188
 21
-117.967475
 31
0.0
  0
TEXT
  5
408
330
6B
100
AcDbEntity
  8
0
 62
     4
100
AcDbText
 10
1348.674188
 20
-116.967475
 30
0.0
 40
3.2
  1
注意書シール
 41
0.716146
100
AcDbText
  0
LINE
  5
409
330
6B
100
AcDbEntity
  8
0
100
AcDbLine
 10
1071.679125
 20
-200.177514
 30
0.0
 11
1021.619125
 21
-200.177514
 31
0.0
  0
LINE
  5
40A
330
6B
100
AcDbEntity
  8
0
100
AcDbLine
 10
1071.679125
 20
-193.177514
 30
0.0
 11
1021.619125
 21
-193.177514
 31
0.0
  0
LINE
  5
40B
330
6B
100
AcDbEntity
  8
0
100
AcDbLine
 10
1071.679125
 20
-193.177514
 30
0.0
 11
1071.679125
 21
-200.177514
 31
0.0
  0
LINE
  5
40C
330
6B
100
AcDbEntity
  8
0
100
AcDbLine
 10
1021.619125
 20
-200.177514
 30
0.0
 11
1021.619125
 21
-193.177514
 31
0.0
  0
LINE
  5
40D
330
6B
100
AcDbEntity
  8
0
100
AcDbLine
 10
1067.824125
 20
-119.017514
 30
0.0
 11
1067.824125
 21
-140.577514
 31
0.0
  0
ARC
  5
40E
330
6B
100
AcDbEntity
  8
0
100
AcDbCircle
 10
1067.054125
 20
-119.017514
 30
0.0
 40
0.7700000000000001
100
AcDbArc
 50
0.0
 51
90.0
  0
LINE
  5
40F
330
6B
100
AcDbEntity
  8
0
100
AcDbLine
 10
1057.044125
 20
-118.247514
 30
0.0
 11
1067.054125
 21
-118.247514
 31
0.0
  0
LINE
  5
410
330
6B
100
AcDbEntity
  8
0
100
AcDbLine
 10
1056.274125
 20
-119.017514
 30
0.0
 11
1056.274125
 21
-140.577514
 31
0.0
  0
ARC
  5
411
330
6B
100
AcDbEntity
  8
0
100
AcDbCircle
 10
1057.044125
 20
-119.017514
 30
0.0
 40
0.7700000000000001
100
AcDbArc
 50
90.0
 51
180.0
  0
ARC
  5
412
330
6B
100
AcDbEntity
  8
0
100
AcDbCircle
 10
1057.044125
 20
-140.577514
 30
0.0
 40
0.7700000000000001
100
AcDbArc
 50
180.0
 51
270.0
  0
LINE
  5
413
330
6B
100
AcDbEntity
  8
0
100
AcDbLine
 10
1057.044125
 20
-141.347514
 30
0.0
 11
1067.054125
 21
-141.347514
 31
0.0
  0
ARC
  5
414
330
6B
100
AcDbEntity
  8
0
100
AcDbCircle
 10
1067.054125
 20
-140.577514
 30
0.0
 40
0.7700000000000001
100
AcDbArc
 50
270.0
 51
0.0
  0
CIRCLE
  5
415
330
6B
100
AcDbEntity
  8
0
100
AcDbCircle
 10
1062.049125
 20
-175.997514
 30
0.0
 40
7.7
  0
ARC
  5
416
330
6B
100
AcDbEntity
  8
0
 62
     3
100
AcDbCircle
 10
1039.719125
 20
-158.287514
 30
0.0
 40
0.7700000000000001
100
AcDbArc
 50
270.0
 51
0.0
  0
ARC
  5
417
330
6B
100
AcDbEntity
  8
0
 62
     3
100
AcDbCircle
 10
1039.719125
 20
-141.347514
 30
0.0
 40
0.7700000000000001
100
AcDbArc
 50
0.0
 51
90.0
  0
LINE
  5
418
330
6B
100
AcDbEntity
  8
0
 62
     3
100
AcDbLine
 10
1039.719125
 20
-140.577514
 30
0.0
 11
1022.779125
 21
-140.577514
 31
0.0
  0
LINE
  5
419
330
6B
100
AcDbEntity
  8
0
 62
     3
100
AcDbLine
 10
1022.779125
 20
-159.057514
 30
0.0
 11
1039.719125
 21
-159.057514
 31
0.0
  0
LINE
  5
41A
330
6B
100
AcDbEntity
  8
0
 62
     3
100
AcDbLine
 10
1040.489125
 20
-158.287514
 30
0.0
 11
1040.489125
 21
-141.347514
 31
0.0
  0
TEXT
  5
41B
330
6B
100
AcDbEntity
  8
0
 62
     3
100
AcDbText
 10
1025.089125
 20
-164.909514
 30
0.0
 40
3.85
  1
OUT PUT
 41
0.492188
100
AcDbText
  0
LINE
  5
41C
330
6B
100
AcDbEntity
  8
0
 62
     3
100
AcDbLine
 10
1022.009125
 20
-141.347514
 30
0.0
 11
1022.009125
 21
-158.287514
 31
0.0
  0
ARC
  5
41D
330
6B
100
AcDbEntity
  8
0
 62
     3
100
AcDbCircle
 10
1022.779125
 20
-158.287514
 30
0.0
 40
0.7700000000000001
100
AcDbArc
 50
180.0
 51
270.0
  0
ARC
  5
41E
330
6B
100
AcDbEntity
  8
0
 62
     3
100
AcDbCircle
 10
1022.779125
 20
-141.347514
 30
0.0
 40
0.7700000000000001
100
AcDbArc
 50
90.0
 51
180.0
  0
ARC
  5
41F
330
6B
100
AcDbEntity
  8
0
 62
     3
100
AcDbCircle
 10
1039.719125
 20
-184.467514
 30
0.0
 40
0.7700000000000001
100
AcDbArc
 50
270.0
 51
0.0
  0
LINE
  5
420
330
6B
100
AcDbEntity
  8
0
 62
     3
100
AcDbLine
 10
1040.489125
 20
-184.467514
 30
0.0
 11
1040.489125
 21
-167.527514
 31
0.0
  0
LINE
  5
421
330
6B
100
AcDbEntity
  8
0
 62
     3
100
AcDbLine
 10
1022.779125
 20
-185.2375139999999
 30
0.0
 11
1039.719125
 21
-185.2375139999999
 31
0.0
  0
ARC
  5
422
330
6B
100
AcDbEntity
  8
0
 62
     3
100
AcDbCircle
 10
1039.719125
 20
-167.527514
 30
0.0
 40
0.7700000000000001
100
AcDbArc
 50
0.0
 51
90.0
  0
LINE
  5
423
330
6B
100
AcDbEntity
  8
0
 62
     3
100
AcDbLine
 10
1039.719125
 20
-166.757514
 30
0.0
 11
1022.779125
 21
-166.757514
 31
0.0
  0
LINE
  5
424
330
6B
100
AcDbEntity
  8
0
 62
     3
100
AcDbLine
 10
1022.009125
 20
-167.527514
 30
0.0
 11
1022.009125
 21
-184.467514
 31
0.0
  0
ARC
  5
425
330
6B
100
AcDbEntity
  8
0
 62
     3
100
AcDbCircle
 10
1022.779125
 20
-184.467514
 30
0.0
 40
0.7700000000000001
100
AcDbArc
 50
180.0
 51
270.0
  0
ARC
  5
426
330
6B
100
AcDbEntity
  8
0
 62
     3
100
AcDbCircle
 10
1022.779125
 20
-167.527514
 30
0.0
 40
0.7700000000000001
100
AcDbArc
 50
90.0
 51
180.0
  0
LINE
  5
427
330
6B
100
AcDbEntity
  8
0
 62
     3
100
AcDbLine
 10
1058.969125
 20
-137.497514
 30
0.0
 11
1065.129125
 21
-137.497514
 31
0.0
  0
ARC
  5
428
330
6B
100
AcDbEntity
  8
0
 62
     3
100
AcDbCircle
 10
1065.129125
 20
-136.727514
 30
0.0
 40
0.7700000000000001
100
AcDbArc
 50
270.0
 51
0.0
  0
LINE
  5
429
330
6B
100
AcDbEntity
  8
0
 62
     3
100
AcDbLine
 10
1065.899125
 20
-136.727514
 30
0.0
 11
1065.899125
 21
-122.8675139999999
 31
0.0
  0
ARC
  5
42A
330
6B
100
AcDbEntity
  8
0
 62
     3
100
AcDbCircle
 10
1065.129125
 20
-122.8675139999999
 30
0.0
 40
0.7700000000000001
100
AcDbArc
 50
0.0
 51
90.0
  0
LINE
  5
42B
330
6B
100
AcDbEntity
  8
0
 62
     3
100
AcDbLine
 10
1065.129125
 20
-122.097514
 30
0.0
 11
1058.969125
 21
-122.097514
 31
0.0
  0
ARC
  5
42C
330
6B
100
AcDbEntity
  8
0
 62
     3
100
AcDbCircle
 10
1058.969125
 20
-122.8675139999999
 30
0.0
 40
0.7700000000000001
100
AcDbArc
 50
90.0
 51
180.0
  0
LINE
  5
42D
330
6B
100
AcDbEntity
  8
0
 62
     3
100
AcDbLine
 10
1058.199125
 20
-122.8675139999999
 30
0.0
 11
1058.199125
 21
-136.727514
 31
0.0
  0
ARC
  5
42E
330
6B
100
AcDbEntity
  8
0
 62
     3
100
AcDbCircle
 10
1058.969125
 20
-136.727514
 30
0.0
 40
0.7700000000000001
100
AcDbArc
 50
180.0
 51
270.0
  0
LINE
  5
42F
330
6B
100
AcDbEntity
  8
0
100
AcDbLine
 10
1041.644125
 20
-166.372514
 30
0.0
 11
1041.644125
 21
-185.622514
 31
0.0
  0
ARC
  5
430
330
6B
100
AcDbEntity
  8
0
100
AcDbCircle
 10
1040.874125
 20
-166.372514
 30
0.0
 40
0.7700000000000001
100
AcDbArc
 50
0.0
 51
90.0
  0
LINE
  5
431
330
6B
100
AcDbEntity
  8
0
100
AcDbLine
 10
1021.624125
 20
-165.602514
 30
0.0
 11
1040.874125
 21
-165.602514
 31
0.0
  0
ARC
  5
432
330
6B
100
AcDbEntity
  8
0
100
AcDbCircle
 10
1040.874125
 20
-159.442514
 30
0.0
 40
0.7700000000000001
100
AcDbArc
 50
270.0
 51
0.0
  0
LINE
  5
433
330
6B
100
AcDbEntity
  8
0
100
AcDbLine
 10
1041.644125
 20
-140.192514
 30
0.0
 11
1041.644125
 21
-159.442514
 31
0.0
  0
LINE
  5
434
330
6B
100
AcDbEntity
  8
0
100
AcDbLine
 10
1040.874125
 20
-160.212514
 30
0.0
 11
1021.624125
 21
-160.212514
 31
0.0
  0
ARC
  5
435
330
6B
100
AcDbEntity
  8
0
100
AcDbCircle
 10
1040.874125
 20
-140.192514
 30
0.0
 40
0.7700000000000001
100
AcDbArc
 50
0.0
 51
90.0
  0
LINE
  5
436
330
6B
100
AcDbEntity
  8
0
100
AcDbLine
 10
1021.624125
 20
-139.422514
 30
0.0
 11
1040.874125
 21
-139.422514
 31
0.0
  0
ARC
  5
437
330
6B
100
AcDbEntity
  8
0
100
AcDbCircle
 10
1021.624125
 20
-140.192514
 30
0.0
 40
0.7700000000000001
100
AcDbArc
 50
90.0
 51
180.0
  0
LINE
  5
438
330
6B
100
AcDbEntity
  8
0
100
AcDbLine
 10
1020.854125
 20
-159.442514
 30
0.0
 11
1020.854125
 21
-140.192514
 31
0.0
  0
ARC
  5
439
330
6B
100
AcDbEntity
  8
0
100
AcDbCircle
 10
1021.624125
 20
-159.442514
 30
0.0
 40
0.7700000000000001
100
AcDbArc
 50
180.0
 51
270.0
  0
ARC
  5
43A
330
6B
100
AcDbEntity
  8
0
100
AcDbCircle
 10
1021.624125
 20
-166.372514
 30
0.0
 40
0.7700000000000001
100
AcDbArc
 50
90.0
 51
180.0
  0
LINE
  5
43B
330
6B
100
AcDbEntity
  8
0
100
AcDbLine
 10
1020.854125
 20
-185.622514
 30
0.0
 11
1020.854125
 21
-166.372514
 31
0.0
  0
LINE
  5
43C
330
6B
100
AcDbEntity
  8
0
100
AcDbLine
 10
1040.874125
 20
-186.392514
 30
0.0
 11
1021.624125
 21
-186.392514
 31
0.0
  0
ARC
  5
43D
330
6B
100
AcDbEntity
  8
0
100
AcDbCircle
 10
1021.624125
 20
-185.622514
 30
0.0
 40
0.7700000000000001
100
AcDbArc
 50
180.0
 51
270.0
  0
ARC
  5
43E
330
6B
100
AcDbEntity
  8
0
100
AcDbCircle
 10
1040.874125
 20
-185.622514
 30
0.0
 40
0.7700000000000001
100
AcDbArc
 50
270.0
 51
0.0
  0
TEXT
  5
43F
330
6B
100
AcDbEntity
  8
0
 62
     3
100
AcDbText
 10
1280.67667293986
 20
-308.021379
 30
0.0
 40
4.5
  1
PAL-1500EP
  7
高4.5
100
AcDbText
  0
TEXT
  5
440
330
6B
100
AcDbEntity
  8
0
 62
     3
100
AcDbText
 10
1326.971662761289
 20
-331.723677
 30
0.0
 40
6.299999999999998
  1
PAL-1500EP
 41
0.8
  7
高6.3
100
AcDbText
  0
TEXT
  5
441
330
6B
100
AcDbEntity
  8
0
 62
     3
100
AcDbText
 10
1310.035302
 20
-322.311885
 30
0.0
 40
3.2
  1
FREE
  7
高3.2
100
AcDbText
  0
TEXT
  5
442
330
6B
100
AcDbEntity
  8
0
 62
     3
100
AcDbText
 10
1056.18856823141
 20
-326.998079
 30
0.0
 40
3.2
  1
-
 41
0.8
  7
高3.2
100
AcDbText
  0
TEXT
  5
443
330
6B
100
AcDbEntity
  8
0
100
AcDbText
 10
1020.469125
 20
-135.187514
 30
0.0
 40
2.31
  1
STEP DOWN TRANSFORMER
 41
0.640848
100
AcDbText
  0
TEXT
  5
444
330
6B
100
AcDbEntity
  8
0
 62
     4
100
AcDbText
 10
1215.740999870473
 20
-256.2558808992223
 30
0.0
 40
3.2
  1
丸ピン　C2
  7
高3.2
100
AcDbText
  0
TEXT
  5
445
330
6B
100
AcDbEntity
  8
0
 62
     4
100
AcDbText
 10
1215.289164870473
 20
-260.7742348992223
 30
0.0
 40
3.2
  1
AC220～230V
  7
高3.2
100
AcDbText
  0
LINE
  5
446
330
6B
100
AcDbEntity
  8
0
100
AcDbLine
 10
986.1179550000001
 20
-322.498079
 30
0.0
 11
1081.094099639198
 21
-322.498079
 31
0.0
  0
LINE
  5
447
330
6B
100
AcDbEntity
  8
0
100
AcDbLine
 10
986.1179550000001
 20
-317.498079
 30
0.0
 11
1081.094099639198
 21
-317.498079
 31
0.0
  0
LINE
  5
448
330
6B
100
AcDbEntity
  8
0
100
AcDbLine
 10
986.1179550000001
 20
-312.498079
 30
0.0
 11
1081.094099639198
 21
-312.498079
 31
0.0
  0
LINE
  5
449
330
6B
100
AcDbEntity
  8
0
100
AcDbLine
 10
986.1179550000001
 20
-307.498079
 30
0.0
 11
1081.094099639198
 21
-307.498079
 31
0.0
  0
LINE
  5
44A
330
6B
100
AcDbEntity
  8
0
100
AcDbLine
 10
986.1179550000001
 20
-302.498079
 30
0.0
 11
1081.094099639198
 21
-302.498079
 31
0.0
  0
LINE
  5
44B
330
6B
100
AcDbEntity
  8
0
 62
     3
100
AcDbLine
 10
986.1179550000001
 20
-327.498079
 30
0.0
 11
1081.094099639198
 21
-327.498079
 31
0.0
  0
LINE
  5
44C
330
6B
100
AcDbEntity
  8
0
 62
     3
100
AcDbLine
 10
986.1179550000001
 20
-292.498079
 30
0.0
 11
1081.094099639198
 21
-292.498079
 31
0.0
  0
LINE
  5
44D
330
6B
100
AcDbEntity
  8
0
100
AcDbLine
 10
986.1179550000001
 20
-297.498079
 30
0.0
 11
1081.094099639198
 21
-297.498079
 31
0.0
  0
TEXT
  5
44E
330
6B
100
AcDbEntity
  8
0
 62
     3
100
AcDbText
 10
1354.955614237273
 20
-292.188219
 30
0.0
 40
4.5
  1
5860
  7
高4.5
100
AcDbText
  0
TEXT
  5
52C
330
6B
100
AcDbEntity
  8
0
 62
     3
100
AcDbText
 10
1363.617955
 20
-67.94271800000001
 30
0.0
 40
3.2
  1
担　当
  7
高3.2
100
AcDbText
  0
TEXT
  5
52D
330
6B
100
AcDbEntity
  8
0
 62
     3
100
AcDbText
 10
1319.617955
 20
-67.94271800000001
 30
0.0
 40
3.2
  1
変更・追記内容
  7
高3.2
100
AcDbText
  0
TEXT
  5
52E
330
6B
100
AcDbEntity
  8
0
 62
     3
100
AcDbText
 10
1294.731470000339
 20
-72.6132565099083
 30
0.0
 40
2.0
  1
1
  7
高2
100
AcDbText
  0
TEXT
  5
52F
330
6B
100
AcDbEntity
  8
0
 62
     3
100
AcDbText
 10
1294.422958523582
 20
-77.7830732221812
 30
0.0
 40
2.0
  1
2
  7
高2
100
AcDbText
  0
TEXT
  5
530
330
6B
100
AcDbEntity
  8
0
 62
     3
100
AcDbText
 10
1301.617955
 20
-67.94271800000001
 30
0.0
 40
3.2
  1
日　付
  7
高3.2
100
AcDbText
  0
TEXT
  5
531
330
6B
100
AcDbEntity
  8
0
 62
     3
100
AcDbText
 10
1301.617955
 20
-62.942718
 30
0.0
 40
3.2
  1
図　　　　面　　　　略　　　　歴
  7
高3.2
100
AcDbText
  0
TEXT
  5
532
330
6B
100
AcDbEntity
  8
0
 62
     3
100
AcDbText
 10
1291.617955
 20
-67.94271800000001
 30
0.0
 40
3.2
  1
記号
  7
高3.2
100
AcDbText
  0
LINE
  5
533
330
6B
100
AcDbEntity
  8
0
100
AcDbLine
 10
1295.117955
 20
-74.65182199999992
 30
0.0
 11
1293.217955
 21
-77.94271800000001
 31
0.0
  0
LINE
  5
534
330
6B
100
AcDbEntity
  8
0
100
AcDbLine
 10
1295.117955
 20
-74.65182199999992
 30
0.0
 11
1297.017955
 21
-77.94271800000001
 31
0.0
  0
LINE
  5
535
330
6B
100
AcDbEntity
  8
0
100
AcDbLine
 10
1293.217955
 20
-77.94271800000001
 30
0.0
 11
1297.017955
 21
-77.94271800000001
 31
0.0
  0
LINE
  5
536
330
6B
100
AcDbEntity
  8
0
100
AcDbLine
 10
1295.117955
 20
-69.65182099999992
 30
0.0
 11
1293.217955
 21
-72.94271800000001
 31
0.0
  0
LINE
  5
537
330
6B
100
AcDbEntity
  8
0
100
AcDbLine
 10
1295.117955
 20
-69.65182099999992
 30
0.0
 11
1297.017955
 21
-72.94271800000001
 31
0.0
  0
LINE
  5
538
330
6B
100
AcDbEntity
  8
0
100
AcDbLine
 10
1293.217955
 20
-72.94271800000001
 30
0.0
 11
1297.017955
 21
-72.94271800000001
 31
0.0
  0
LINE
  5
539
330
6B
100
AcDbEntity
  8
0
 62
     3
100
AcDbLine
 10
1290.117955
 20
-63.44271800000001
 30
0.0
 11
1376.117955
 21
-63.44271800000001
 31
0.0
  0
LINE
  5
53A
330
6B
100
AcDbEntity
  8
0
 62
     3
100
AcDbLine
 10
1290.117955
 20
-68.44271800000001
 30
0.0
 11
1376.117955
 21
-68.44271800000001
 31
0.0
  0
LINE
  5
53B
330
6B
100
AcDbEntity
  8
0
 62
     7
100
AcDbLine
 10
1290.117955
 20
-73.44271800000001
 30
0.0
 11
1376.117955
 21
-73.44271800000001
 31
0.0
  0
LINE
  5
53C
330
6B
100
AcDbEntity
  8
0
 62
     3
100
AcDbLine
 10
1290.117955
 20
-78.44271800000001
 30
0.0
 11
1376.117955
 21
-78.44271800000001
 31
0.0
  0
LINE
  5
53D
330
6B
100
AcDbEntity
  8
0
 62
     7
100
AcDbLine
 10
1362.117955
 20
-78.44271800000001
 30
0.0
 11
1362.117955
 21
-63.44271800000001
 31
0.0
  0
LINE
  5
53E
330
6B
100
AcDbEntity
  8
0
 62
     7
100
AcDbLine
 10
1318.117955
 20
-78.44271800000001
 30
0.0
 11
1318.117955
 21
-63.44271800000001
 31
0.0
  0
LINE
  5
53F
330
6B
100
AcDbEntity
  8
0
 62
     7
100
AcDbLine
 10
1300.117955
 20
-78.44271800000001
 30
0.0
 11
1300.117955
 21
-63.44271800000001
 31
0.0
  0
LINE
  5
540
330
6B
100
AcDbEntity
  8
0
 62
     3
100
AcDbLine
 10
1290.117955
 20
-78.44271800000001
 30
0.0
 11
1290.117955
 21
-58.44271800000001
 31
0.0
  0
LINE
  5
74A
330
6B
100
AcDbEntity
  8
0
100
AcDbLine
 10
1333.712939
 20
-123.186678
 30
0.0
 11
1332.137425
 21
-124.530159
 31
0.0
  0
LINE
  5
74B
330
6B
100
AcDbEntity
  8
0
100
AcDbLine
 10
1332.137425
 20
-124.530159
 30
0.0
 11
1334.173601
 21
-124.154427
 31
0.0
  0
LINE
  5
74E
330
6B
100
AcDbEntity
  8
0
100
AcDbLine
 10
1332.953906
 20
-192.614554
 30
0.0
 11
1331.057885
 21
-191.782514
 31
0.0
  0
LINE
  5
74F
330
6B
100
AcDbEntity
  8
0
100
AcDbLine
 10
1331.057885
 20
-191.782514
 30
0.0
 11
1332.283868
 21
-193.451092
 31
0.0
  0
LINE
  5
750
330
6B
100
AcDbEntity
  8
0
100
AcDbLine
 10
1262.83149
 20
-227.374379
 30
0.0
 11
1264.084045
 21
-225.725654
 31
0.0
  0
LINE
  5
751
330
6B
100
AcDbEntity
  8
0
100
AcDbLine
 10
1264.084045
 20
-225.725654
 30
0.0
 11
1262.174938
 21
-226.527214
 31
0.0
  0
LINE
  5
752
330
6B
100
AcDbEntity
  8
0
100
AcDbLine
 10
1017.838755
 20
-101.889603
 30
0.0
 11
1019.48961
 21
-103.139348
 31
0.0
  0
LINE
  5
753
330
6B
100
AcDbEntity
  8
0
100
AcDbLine
 10
1019.48961
 20
-103.139348
 30
0.0
 11
1018.6848
 21
-101.231609
 31
0.0
  0
LINE
  5
754
330
6B
100
AcDbEntity
  8
0
100
AcDbLine
 10
1062.815786
 20
-122.706373
 30
0.0
 11
1062.791377
 21
-124.776781
 31
0.0
  0
LINE
  5
755
330
6B
100
AcDbEntity
  8
0
100
AcDbLine
 10
1062.791377
 20
-124.776781
 30
0.0
 11
1063.84772
 21
-122.995959
 31
0.0
  0
LINE
  5
756
330
6B
100
AcDbEntity
  8
0
100
AcDbLine
 10
1068.334616
 20
-181.63113
 30
0.0
 11
1066.870747
 21
-180.166796
 31
0.0
  0
LINE
  5
757
330
6B
100
AcDbEntity
  8
0
100
AcDbLine
 10
1066.870747
 20
-180.166796
 30
0.0
 11
1067.406328
 21
-182.166881
 31
0.0
  0
LINE
  5
758
330
6B
100
AcDbEntity
  8
0
100
AcDbLine
 10
1018.847323
 20
-149.30768
 30
0.0
 11
1020.854125
 21
-149.817514
 31
0.0
  0
LINE
  5
759
330
6B
100
AcDbEntity
  8
0
100
AcDbLine
 10
1020.854125
 20
-149.817514
 30
0.0
 11
1019.3711
 21
-148.372584
 31
0.0
  0
LINE
  5
75A
330
6B
100
AcDbEntity
  8
0
100
AcDbLine
 10
1163.837969
 20
-99.28130500000001
 30
0.0
 11
1164.071975
 21
-101.338591
 31
0.0
  0
LINE
  5
75B
330
6B
100
AcDbEntity
  8
0
100
AcDbLine
 10
1164.071975
 20
-101.338591
 30
0.0
 11
1164.897963
 21
-99.43992600000001
 31
0.0
  0
LINE
  5
75C
330
6B
100
AcDbEntity
  8
0
100
AcDbLine
 10
1066.531045
 20
-205.260594
 30
0.0
 11
1089.280802
 21
-205.260594
 31
0.0
  0
LINE
  5
75D
330
6B
100
AcDbEntity
  8
0
100
AcDbLine
 10
1055.369125
 20
-97.802474
 30
0.0
 11
1089.280802
 21
-97.80247400000002
 31
0.0
  0
LINE
  5
75E
330
6B
100
AcDbEntity
  8
0
100
AcDbLine
 10
1088.030802
 20
-202.760594
 30
0.0
 11
1088.030802
 21
-100.302474
 31
0.0
  0
LINE
  5
762
330
6B
100
AcDbEntity
  8
0
100
AcDbLine
 10
1015.849125
 20
-199.347514
 30
0.0
 11
1015.849125
 21
-230.015397
 31
0.0
  0
LINE
  5
763
330
6B
100
AcDbEntity
  8
0
100
AcDbLine
 10
1077.449125
 20
-199.347514
 30
0.0
 11
1077.449125
 21
-230.015397
 31
0.0
  0
LINE
  5
764
330
6B
100
AcDbEntity
  8
0
100
AcDbLine
 10
1018.349125
 20
-228.765397
 30
0.0
 11
1074.949125
 21
-228.765397
 31
0.0
  0
LINE
  5
768
330
6B
100
AcDbEntity
  8
0
100
AcDbLine
 10
1105.464045
 20
-204.663594
 30
0.0
 11
1105.464045
 21
-230.015397
 31
0.0
  0
LINE
  5
769
330
6B
100
AcDbEntity
  8
0
100
AcDbLine
 10
1251.764045
 20
-204.663594
 30
0.0
 11
1251.764045
 21
-230.015397
 31
0.0
  0
LINE
  5
76A
330
6B
100
AcDbEntity
  8
0
100
AcDbLine
 10
1107.964045
 20
-228.765397
 30
0.0
 11
1249.264045
 21
-228.765397
 31
0.0
  0
TEXT
  5
76E
330
6B
100
AcDbEntity
  8
0
  6
Continuous
 62
     4
100
AcDbText
 10
1087.405802
 20
-155.0315339999998
 30
0.0
 40
3.0
  1
145
 50
90.0
100
AcDbText
  0
LINE
  5
76F
330
6B
100
AcDbEntity
  8
0
  6
ByBlock
 62
     0
370
    -2
100
AcDbLine
 10
1087.3609295
 20
-100.302474
 30
0.0
 11
1088.030802
 21
-97.80247400000002
 31
0.0
  0
LINE
  5
770
330
6B
100
AcDbEntity
  8
0
  6
ByBlock
 62
     0
370
    -2
100
AcDbLine
 10
1088.030802
 20
-97.80247400000002
 30
0.0
 11
1088.7006745
 21
-100.302474
 31
0.0
  0
LINE
  5
771
330
6B
100
AcDbEntity
  8
0
  6
ByBlock
 62
     0
370
    -2
100
AcDbLine
 10
1088.030802
 20
-97.80247400000002
 30
0.0
 11
1088.030802
 21
-100.302474
 31
0.0
  0
LINE
  5
772
330
6B
100
AcDbEntity
  8
0
  6
ByBlock
 62
     0
370
    -2
100
AcDbLine
 10
1088.7006745
 20
-202.760594
 30
0.0
 11
1088.030802
 21
-205.260594
 31
0.0
  0
LINE
  5
773
330
6B
100
AcDbEntity
  8
0
  6
ByBlock
 62
     0
370
    -2
100
AcDbLine
 10
1088.030802
 20
-205.260594
 30
0.0
 11
1087.3609295
 21
-202.760594
 31
0.0
  0
LINE
  5
774
330
6B
100
AcDbEntity
  8
0
  6
ByBlock
 62
     0
370
    -2
100
AcDbLine
 10
1088.030802
 20
-205.260594
 30
0.0
 11
1088.030802
 21
-202.760594
 31
0.0
  0
TEXT
  5
775
330
6B
100
AcDbEntity
  8
0
  6
Continuous
 62
     4
100
AcDbText
 10
1044.149125
 20
-228.140397
 30
0.0
 40
3.0
  1
88
100
AcDbText
  0
LINE
  5
776
330
6B
100
AcDbEntity
  8
0
  6
ByBlock
 62
     0
370
    -2
100
AcDbLine
 10
1074.949125
 20
-228.0955245
 30
0.0
 11
1077.449125
 21
-228.765397
 31
0.0
  0
LINE
  5
777
330
6B
100
AcDbEntity
  8
0
  6
ByBlock
 62
     0
370
    -2
100
AcDbLine
 10
1077.449125
 20
-228.765397
 30
0.0
 11
1074.949125
 21
-229.4352695
 31
0.0
  0
LINE
  5
778
330
6B
100
AcDbEntity
  8
0
  6
ByBlock
 62
     0
370
    -2
100
AcDbLine
 10
1077.449125
 20
-228.765397
 30
0.0
 11
1074.949125
 21
-228.765397
 31
0.0
  0
LINE
  5
779
330
6B
100
AcDbEntity
  8
0
  6
ByBlock
 62
     0
370
    -2
100
AcDbLine
 10
1018.349125
 20
-229.4352695
 30
0.0
 11
1015.849125
 21
-228.765397
 31
0.0
  0
LINE
  5
77A
330
6B
100
AcDbEntity
  8
0
  6
ByBlock
 62
     0
370
    -2
100
AcDbLine
 10
1015.849125
 20
-228.765397
 30
0.0
 11
1018.349125
 21
-228.0955245
 31
0.0
  0
LINE
  5
77B
330
6B
100
AcDbEntity
  8
0
  6
ByBlock
 62
     0
370
    -2
100
AcDbLine
 10
1015.849125
 20
-228.765397
 30
0.0
 11
1018.349125
 21
-228.765397
 31
0.0
  0
TEXT
  5
77C
330
6B
100
AcDbEntity
  8
0
  6
Continuous
 62
     4
100
AcDbText
 10
1175.364045
 20
-228.140397
 30
0.0
 40
3.0
  1
180
100
AcDbText
  0
LINE
  5
77D
330
6B
100
AcDbEntity
  8
0
  6
ByBlock
 62
     0
370
    -2
100
AcDbLine
 10
1249.264045
 20
-228.0955245
 30
0.0
 11
1251.764045
 21
-228.765397
 31
0.0
  0
LINE
  5
77E
330
6B
100
AcDbEntity
  8
0
  6
ByBlock
 62
     0
370
    -2
100
AcDbLine
 10
1251.764045
 20
-228.765397
 30
0.0
 11
1249.264045
 21
-229.4352695
 31
0.0
  0
LINE
  5
77F
330
6B
100
AcDbEntity
  8
0
  6
ByBlock
 62
     0
370
    -2
100
AcDbLine
 10
1251.764045
 20
-228.765397
 30
0.0
 11
1249.264045
 21
-228.765397
 31
0.0
  0
LINE
  5
780
330
6B
100
AcDbEntity
  8
0
  6
ByBlock
 62
     0
370
    -2
100
AcDbLine
 10
1107.964045
 20
-229.4352695
 30
0.0
 11
1105.464045
 21
-228.765397
 31
0.0
  0
LINE
  5
781
330
6B
100
AcDbEntity
  8
0
  6
ByBlock
 62
     0
370
    -2
100
AcDbLine
 10
1105.464045
 20
-228.765397
 30
0.0
 11
1107.964045
 21
-228.0955245
 31
0.0
  0
LINE
  5
782
330
6B
100
AcDbEntity
  8
0
  6
ByBlock
 62
     0
370
    -2
100
AcDbLine
 10
1105.464045
 20
-228.765397
 30
0.0
 11
1107.964045
 21
-228.765397
 31
0.0
  0
ENDSEC
  0
SECTION
  2
OBJECTS
  0
DICTIONARY
  5
C
330
0
100
AcDbDictionary
281
     1
  3
ACAD_2007HEADERVARS_RT
350
786
  3
ACAD_COLOR
350
62
  3
ACAD_GROUP
350
D
  3
ACAD_LAYOUT
350
61
  3
ACAD_MATERIAL
350
10
  3
ACAD_MLEADERSTYLE
350
65
  3
ACAD_MLINESTYLE
350
5E
  3
ACAD_PLOTSETTINGS
350
60
  3
ACAD_PLOTSTYLENAME
350
E
  3
ACAD_SCALELIST
350
42
  3
ACAD_TABLESTYLE
350
63
  3
ACAD_VISUALSTYLE
350
29
  3
ACDB_RECOMPOSE_DATA
350
784
  3
AcDbVariableDictionary
350
69E
  3
DWGPROPS
350
785
  0
DICTIONARY
  5
4F7
330
2
100
AcDbDictionary
280
     1
281
     1
  3
ACAD_LAYERSTATES
360
4F8
  0
DICTIONARY
  5
69C
330
54
100
AcDbDictionary
280
     1
281
     1
  3
ADSK_XREC_LAYER_RECONCILED
360
69D
  0
DICTIONARY
  5
74C
330
6B
100
AcDbDictionary
280
     1
281
     1
  3
ACAD_SORTENTS
360
74D
  0
DICTIONARY
  5
786
102
{ACAD_REACTORS
330
C
102
}
330
C
100
AcDbDictionary
281
     1
  3
DIMARCSYM
350
788
  3
DIMFXL
350
787
  3
DIMJOGANG
350
789
  0
DICTIONARY
  5
62
102
{ACAD_REACTORS
330
C
102
}
330
C
100
AcDbDictionary
281
     1
  0
DICTIONARY
  5
D
102
{ACAD_REACTORS
330
C
102
}
330
C
100
AcDbDictionary
281
     1
  0
DICTIONARY
  5
61
102
{ACAD_REACTORS
330
C
102
}
330
C
100
AcDbDictionary
281
     1
  3
Model
350
6E
  3
レイアウト1
350
6A
  0
DICTIONARY
  5
10
102
{ACAD_REACTORS
330
C
102
}
330
C
100
AcDbDictionary
281
     1
  3
ByBlock
350
19
  3
ByLayer
350
11
  3
Global
350
21
  0
DICTIONARY
  5
65
102
{ACAD_REACTORS
330
C
102
}
330
C
100
AcDbDictionary
281
     1
  3
Standard
350
66
  0
DICTIONARY
  5
5E
102
{ACAD_REACTORS
330
C
102
}
330
C
100
AcDbDictionary
281
     1
  3
Standard
350
5F
  0
DICTIONARY
  5
60
102
{ACAD_REACTORS
330
C
102
}
330
C
100
AcDbDictionary
281
     1
  0
ACDBDICTIONARYWDFLT
  5
E
102
{ACAD_REACTORS
330
C
102
}
330
C
100
AcDbDictionary
281
     1
  3
Normal
350
F
100
AcDbDictionaryWithDefault
340
F
  0
DICTIONARY
  5
42
102
{ACAD_REACTORS
330
C
102
}
330
C
100
AcDbDictionary
281
     1
  3
A0
350
43
  3
A1
350
44
  3
A2
350
45
  3
A3
350
46
  3
A4
350
47
  3
A5
350
48
  3
A6
350
49
  3
A7
350
4A
  3
A8
350
4B
  3
A9
350
4C
  3
B0
350
4D
  3
B1
350
4E
  3
B2
350
4F
  3
B3
350
50
  3
B4
350
51
  3
B5
350
52
  3
B6
350
53
  0
DICTIONARY
  5
63
102
{ACAD_REACTORS
330
C
102
}
330
C
100
AcDbDictionary
281
     1
  3
Standard
350
64
  0
DICTIONARY
  5
29
102
{ACAD_REACTORS
330
C
102
}
330
C
100
AcDbDictionary
281
     1
  3
2dWireframe
350
2F
  3
3dWireframe
350
4F4
  3
Basic
350
2E
  3
Brighten
350
35
  3
ColorChange
350
39
  3
Conceptual
350
32
  3
Dim
350
34
  3
EdgeColorOff
350
41
  3
Facepattern
350
38
  3
Flat
350
2A
  3
FlatWithEdges
350
2B
  3
Gouraud
350
2C
  3
GouraudWithEdges
350
2D
  3
Hidden
350
31
  3
JitterOff
350
3F
  3
Linepattern
350
37
  3
OverhangOff
350
40
  3
Realistic
350
33
  3
Shaded
350
3E
  3
Shaded with edges
350
3D
  3
Shades of Gray
350
3A
  3
Sketchy
350
3B
  3
Thicken
350
36
  3
Wireframe
350
30
  3
X-Ray
350
3C
  0
XRECORD
  5
784
102
{ACAD_REACTORS
330
C
102
}
330
C
100
AcDbXrecord
280
     1
 90
        1
330
64
  0
DICTIONARY
  5
69E
102
{ACAD_REACTORS
330
C
102
}
330
C
100
AcDbDictionary
281
     1
  3
CANNOSCALE
350
6A1
  3
CMLEADERSTYLE
350
6A0
  3
CTABLESTYLE
350
69F
  3
DIMASSOC
350
6A4
  3
INDEXCTL
350
6A3
  3
SORTENTS
350
6A2
  3
XCLIPFRAME
350
70B
  0
XRECORD
  5
785
102
{ACAD_REACTORS
330
C
102
}
330
C
100
AcDbXrecord
280
     1
  1
DWGPROPS COOKIE
  2

  3

  4

  6

  7

  8
imamura
  9

300
=
301
=
302
=
303
=
304
=
305
=
306
=
307
=
308
=
309
=
 40
0.0110372337962963
 41
2456350.826640544
 42
2456868.849123981
  1

 90
        0
  0
DICTIONARY
  5
4F8
102
{ACAD_REACTORS
330
4F7
102
}
330
4F7
100
AcDbDictionary
281
     1
  0
XRECORD
  5
69D
102
{ACAD_REACTORS
330
69C
102
}
330
69C
100
AcDbXrecord
280
     1
290
     1
  0
SORTENTSTABLE
  5
74D
102
{ACAD_REACTORS
330
74C
102
}
330
74C
100
AcDbSortentsTable
330
6B
331
398
  5
3BF
331
260
  5
287
331
F8
  5
130
331
3A9
  5
3DF
331
188
  5
1AF
331
412
  5
449
331
3BA
  5
409
331
199
  5
1C0
331
26A
  5
291
331
423
  5
537
331
1AA
  5
1D1
331
27B
  5
2A2
331
434
  5
753
331
2E4
  5
30B
331
1BB
  5
1E2
331
28C
  5
2B3
331
445
  5
764
331
2F5
  5
31C
331
1CC
  5
1F3
331
29D
  5
2C4
331
74E
  5
436
331
306
  5
32D
331
1DD
  5
204
331
2AE
  5
2D5
331
317
  5
33E
331
2BF
  5
2E6
331
328
  5
34F
331
538
  5
77A
331
770
  5
108
331
339
  5
360
331
118
  5
146
331
34A
  5
371
331
129
  5
150
331
1FA
  5
221
331
20B
  5
232
331
13A
  5
167
331
21C
  5
243
331
14B
  5
178
331
365
  5
38C
331
22D
  5
254
331
15C
  5
183
331
376
  5
39D
331
16D
  5
194
331
3DF
  5
425
331
387
  5
3AE
331
24F
  5
276
331
23E
  5
265
331
781
  5
C6
331
2D0
  5
2F7
331
107
  5
135
331
1EE
  5
215
331
388
  5
3AF
331
250
  5
277
331
399
  5
3C0
331
178
  5
19F
331
261
  5
288
331
3AA
  5
3E5
331
189
  5
1B0
331
413
  5
44A
331
3BB
  5
40A
331
19A
  5
1C1
331
26B
  5
292
331
424
  5
538
331
1AB
  5
1D2
331
27C
  5
2A3
331
435
  5
754
331
2E5
  5
30C
331
1BC
  5
1E3
331
28D
  5
2B4
331
446
  5
765
331
2F6
  5
31D
331
1CD
  5
1F4
331
29E
  5
2C5
331
74F
  5
437
331
307
  5
32E
331
1DE
  5
205
331
318
  5
33F
331
1EF
  5
216
331
329
  5
350
331
108
  5
136
331
539
  5
77B
331
771
  5
109
331
33A
  5
361
331
119
  5
147
331
34B
  5
372
331
12A
  5
151
331
1FB
  5
222
331
20C
  5
233
331
21D
  5
244
331
14C
  5
179
331
13B
  5
168
331
782
  5
C7
331
2D1
  5
2F8
331
2C0
  5
2E7
331
2AF
  5
2D6
331
366
  5
38D
331
22E
  5
255
331
377
  5
39E
331
16E
  5
195
331
23F
  5
266
331
15D
  5
184
331
378
  5
39F
331
389
  5
3B0
331
240
  5
267
331
251
  5
278
331
39A
  5
3C1
331
179
  5
1A0
331
262
  5
289
331
3AB
  5
3E6
331
18A
  5
1B1
331
414
  5
44B
331
3BC
  5
40B
331
19B
  5
1C2
331
26C
  5
293
331
425
  5
539
331
3CD
  5
419
331
1AC
  5
1D3
331
27D
  5
2A4
331
436
  5
755
331
2E6
  5
30D
331
1BD
  5
1E4
331
28E
  5
2B5
331
447
  5
766
331
2F7
  5
31E
331
1CE
  5
1F5
331
750
  5
430
331
308
  5
32F
331
1DF
  5
206
331
29F
  5
2C6
331
319
  5
340
331
2C1
  5
2E8
331
32A
  5
351
331
53A
  5
77C
331
772
  5
102
331
2D2
  5
2F9
331
33B
  5
362
331
34C
  5
373
331
12B
  5
152
331
20D
  5
234
331
13C
  5
169
331
21E
  5
245
331
367
  5
38E
331
15E
  5
185
331
22F
  5
256
331
14D
  5
17A
331
1FC
  5
223
331
11A
  5
148
331
109
  5
137
331
2B0
  5
2D7
331
16F
  5
196
331
368
  5
38F
331
230
  5
257
331
C0
  5
10D
331
379
  5
3A0
331
170
  5
197
331
38A
  5
3B1
331
241
  5
268
331
252
  5
279
331
39B
  5
3C2
331
17A
  5
1A1
331
263
  5
28A
331
3AC
  5
3E7
331
18B
  5
1B2
331
415
  5
44C
331
3BD
  5
40C
331
19C
  5
1C3
331
26D
  5
294
331
426
  5
53A
331
3CE
  5
41A
331
1AD
  5
1D4
331
27E
  5
2A5
331
437
  5
756
331
2E7
  5
30E
331
1BE
  5
1E5
331
2F8
  5
31F
331
1CF
  5
1F6
331
751
  5
431
331
309
  5
330
331
1E0
  5
207
331
2A0
  5
2C7
331
31A
  5
341
331
2C2
  5
2E9
331
762
  5
D6
331
32B
  5
352
331
53B
  5
77D
331
773
  5
103
331
33C
  5
363
331
11B
  5
149
331
34D
  5
374
331
12C
  5
153
331
1FD
  5
224
331
20E
  5
235
331
13D
  5
16A
331
21F
  5
246
331
15F
  5
186
331
14E
  5
17B
331
2D3
  5
2FA
331
10A
  5
138
331
2B1
  5
2D8
331
28F
  5
2B6
331
358
  5
37F
331
220
  5
247
331
369
  5
390
331
160
  5
187
331
231
  5
258
331
37A
  5
3A1
331
171
  5
198
331
38B
  5
3B2
331
242
  5
269
331
D2
  5
11A
331
253
  5
27A
331
39C
  5
3C3
331
17B
  5
1A2
331
264
  5
28B
331
3AD
  5
3ED
331
18C
  5
1B3
331
416
  5
44D
331
3BE
  5
40D
331
19D
  5
1C4
331
26E
  5
295
331
427
  5
53B
331
3CF
  5
41B
331
1AE
  5
1D5
331
27F
  5
2A6
331
438
  5
757
331
2E8
  5
30F
331
290
  5
2B7
331
2F9
  5
320
331
1D0
  5
1F7
331
1BF
  5
1E6
331
752
  5
42B
331
30A
  5
331
331
1E1
  5
208
331
31B
  5
342
331
2C3
  5
2EA
331
BB
  5
10B
331
763
  5
D7
331
32C
  5
353
331
53C
  5
77E
331
774
  5
104
331
33D
  5
364
331
11C
  5
14A
331
34E
  5
375
331
12D
  5
154
331
1FE
  5
225
331
20F
  5
236
331
13E
  5
16B
331
14F
  5
17C
331
2D4
  5
2FB
331
10B
  5
139
331
2B2
  5
2D9
331
2A1
  5
2C8
331
210
  5
237
331
359
  5
380
331
150
  5
17D
331
221
  5
248
331
36A
  5
391
331
161
  5
188
331
232
  5
259
331
C2
  5
10E
331
37B
  5
3A2
331
172
  5
199
331
38C
  5
3B3
331
243
  5
26A
331
D3
  5
11B
331
254
  5
27B
331
3F5
  5
432
331
39D
  5
3C4
331
17C
  5
1A3
331
265
  5
28C
331
406
  5
43D
331
3AE
  5
3EE
331
18D
  5
1B4
331
417
  5
44E
331
3BF
  5
40E
331
19E
  5
1C5
331
26F
  5
296
331
428
  5
53C
331
280
  5
2A7
331
439
  5
758
331
2E9
  5
310
331
1C0
  5
1E7
331
1AF
  5
1D6
331
2FA
  5
321
331
1D1
  5
1F8
331
753
  5
42C
331
30B
  5
332
331
1E2
  5
209
331
31C
  5
343
331
52C
  5
76E
331
764
  5
D8
331
32D
  5
354
331
10C
  5
13A
331
53D
  5
77F
331
2D5
  5
2FC
331
33E
  5
365
331
11D
  5
14B
331
34F
  5
376
331
12E
  5
155
331
1FF
  5
226
331
13F
  5
16C
331
775
  5
F0
331
2C4
  5
2EB
331
2B3
  5
2DA
331
2A2
  5
2C9
331
291
  5
2B8
331
350
  5
377
331
200
  5
227
331
211
  5
238
331
140
  5
16D
331
35A
  5
381
331
151
  5
17E
331
222
  5
249
331
36B
  5
392
331
162
  5
189
331
233
  5
25A
331
C3
  5
10F
331
37C
  5
3A3
331
173
  5
19A
331
3E5
  5
428
331
38D
  5
3B4
331
244
  5
26B
331
D4
  5
11C
331
255
  5
27C
331
3F6
  5
433
331
39E
  5
3C5
331
17D
  5
1A4
331
266
  5
28D
331
FE
  5
131
331
407
  5
43E
331
3AF
  5
3EF
331
18E
  5
1B5
331
418
  5
52C
331
3C0
  5
40F
331
19F
  5
1C6
331
429
  5
53D
331
1B0
  5
1D7
331
281
  5
2A8
331
43A
  5
759
331
2EA
  5
311
331
1C1
  5
1E8
331
270
  5
297
331
2FB
  5
322
331
1D2
  5
1F9
331
754
  5
426
331
30C
  5
333
331
1E3
  5
20A
331
52D
  5
76F
331
31D
  5
344
331
2B4
  5
2DB
331
32E
  5
355
331
10D
  5
13B
331
53E
  5
780
331
2D6
  5
2FD
331
33F
  5
366
331
11E
  5
14C
331
12F
  5
15C
331
776
  5
DC
331
2C5
  5
2EC
331
2A3
  5
2CA
331
292
  5
2B9
331
340
  5
367
331
1F0
  5
217
331
351
  5
378
331
130
  5
15D
331
201
  5
228
331
212
  5
239
331
141
  5
16E
331
35B
  5
382
331
152
  5
17F
331
223
  5
24A
331
36C
  5
393
331
163
  5
18A
331
234
  5
25B
331
C4
  5
110
331
3D5
  5
41E
331
37D
  5
3A4
331
174
  5
19B
331
3E6
  5
429
331
38E
  5
3B5
331
245
  5
26C
331
D5
  5
11D
331
256
  5
27D
331
3F7
  5
434
331
39F
  5
3C6
331
17E
  5
1A5
331
267
  5
28E
331
408
  5
43F
331
3B0
  5
3F5
331
419
  5
52D
331
3C1
  5
410
331
1A0
  5
1C7
331
42A
  5
53E
331
1B1
  5
1D8
331
282
  5
2A9
331
43B
  5
75A
331
2EB
  5
312
331
1C2
  5
1E9
331
271
  5
298
331
18F
  5
1B6
331
2FC
  5
323
331
1D3
  5
1FA
331
755
  5
427
331
30D
  5
334
331
1E4
  5
20B
331
52E
  5
770
331
31E
  5
345
331
2C6
  5
2ED
331
BE
  5
10C
331
32F
  5
356
331
53F
  5
781
331
777
  5
DD
331
11F
  5
14D
331
2D7
  5
2FE
331
10E
  5
13C
331
2B5
  5
2DC
331
2A4
  5
2CB
331
293
  5
2BA
331
330
  5
357
331
540
  5
782
331
778
  5
DE
331
2D8
  5
2FF
331
341
  5
368
331
120
  5
14E
331
1F1
  5
218
331
352
  5
379
331
131
  5
15E
331
202
  5
229
331
213
  5
23A
331
142
  5
16F
331
35C
  5
383
331
153
  5
180
331
224
  5
24B
331
36D
  5
394
331
164
  5
18B
331
235
  5
25C
331
C5
  5
111
331
3D6
  5
41F
331
37E
  5
3A5
331
175
  5
19C
331
3E7
  5
42A
331
38F
  5
3B6
331
246
  5
26D
331
D6
  5
11E
331
257
  5
27E
331
3F8
  5
435
331
3A0
  5
3C7
331
409
  5
440
331
3B1
  5
3F6
331
190
  5
1B7
331
41A
  5
52E
331
3C2
  5
411
331
272
  5
299
331
42B
  5
53F
331
283
  5
2AA
331
43C
  5
75B
331
2EC
  5
313
331
1C3
  5
1EA
331
294
  5
2BB
331
1B2
  5
1D9
331
1A1
  5
1C8
331
17F
  5
1A6
331
2FD
  5
324
331
2A5
  5
2CC
331
756
  5
421
331
30E
  5
335
331
52F
  5
771
331
31F
  5
346
331
2B6
  5
2DD
331
10F
  5
13D
331
2C7
  5
2EE
331
1E5
  5
20C
331
1D4
  5
1FB
331
320
  5
347
331
530
  5
772
331
2C8
  5
2EF
331
331
  5
358
331
110
  5
13E
331
342
  5
369
331
2D9
  5
300
331
779
  5
D9
331
1F2
  5
219
331
353
  5
37A
331
132
  5
15F
331
203
  5
22A
331
214
  5
23B
331
143
  5
170
331
35D
  5
384
331
154
  5
181
331
225
  5
24C
331
768
  5
BB
331
36E
  5
395
331
165
  5
18C
331
236
  5
25D
331
C6
  5
112
331
3D7
  5
420
331
37F
  5
3A6
331
176
  5
19D
331
390
  5
3B7
331
247
  5
26E
331
D7
  5
11F
331
258
  5
27F
331
3A1
  5
3CD
331
180
  5
1A7
331
40A
  5
441
331
3B2
  5
3F7
331
191
  5
1B8
331
41B
  5
52F
331
3C3
  5
412
331
273
  5
29A
331
42C
  5
540
331
284
  5
2AB
331
43D
  5
75C
331
2ED
  5
314
331
1C4
  5
1EB
331
295
  5
2BC
331
1B3
  5
1DA
331
1A2
  5
1C9
331
F0
  5
12E
331
2FE
  5
325
331
2A6
  5
2CD
331
757
  5
422
331
30F
  5
336
331
2B7
  5
2DE
331
1E6
  5
20D
331
1D5
  5
1FC
331
448
  5
767
331
758
  5
41C
331
310
  5
337
331
321
  5
348
331
2B8
  5
2DF
331
531
  5
773
331
2C9
  5
2F0
331
332
  5
359
331
111
  5
13F
331
343
  5
36A
331
2DA
  5
301
331
77A
  5
DA
331
1F3
  5
21A
331
354
  5
37B
331
133
  5
160
331
204
  5
22B
331
215
  5
23C
331
144
  5
171
331
35E
  5
385
331
155
  5
182
331
226
  5
24D
331
36F
  5
396
331
166
  5
18D
331
769
  5
BE
331
237
  5
25E
331
C7
  5
113
331
380
  5
3A7
331
391
  5
3B8
331
248
  5
26F
331
D8
  5
120
331
177
  5
19E
331
3A2
  5
3CE
331
181
  5
1A8
331
40B
  5
442
331
3B3
  5
3F8
331
192
  5
1B9
331
41C
  5
530
331
3C4
  5
413
331
274
  5
29B
331
42D
  5
74A
331
285
  5
2AC
331
43E
  5
75D
331
2EE
  5
315
331
1C5
  5
1EC
331
296
  5
2BD
331
1B4
  5
1DB
331
1A3
  5
1CA
331
259
  5
280
331
2FF
  5
326
331
2A7
  5
2CE
331
1E7
  5
20E
331
1D6
  5
1FD
331
300
  5
327
331
2A8
  5
2CF
331
449
  5
768
331
759
  5
41D
331
311
  5
338
331
1E8
  5
20F
331
322
  5
349
331
2B9
  5
2E0
331
532
  5
774
331
2CA
  5
2F1
331
333
  5
35A
331
112
  5
140
331
344
  5
36B
331
2DB
  5
302
331
77B
  5
DB
331
1F4
  5
21B
331
355
  5
37C
331
134
  5
161
331
205
  5
22C
331
35F
  5
386
331
216
  5
23D
331
145
  5
172
331
227
  5
24E
331
370
  5
397
331
167
  5
18E
331
381
  5
3A8
331
238
  5
25F
331
C8
  5
114
331
76A
  5
C0
331
392
  5
3B9
331
249
  5
270
331
25A
  5
281
331
F2
  5
12F
331
3A3
  5
3CF
331
182
  5
1A9
331
D9
  5
128
331
40C
  5
443
331
3B4
  5
3FE
331
41D
  5
531
331
3C5
  5
414
331
1A4
  5
1CB
331
275
  5
29C
331
42E
  5
74B
331
286
  5
2AD
331
43F
  5
75E
331
2EF
  5
316
331
297
  5
2BE
331
1D7
  5
1FE
331
1C6
  5
1ED
331
1B5
  5
1DC
331
193
  5
1BA
331
440
  5
75F
331
2F0
  5
317
331
298
  5
2BF
331
301
  5
328
331
1D8
  5
1FF
331
2A9
  5
2D0
331
44A
  5
769
331
75A
  5
417
331
312
  5
339
331
1E9
  5
210
331
2BA
  5
2E1
331
323
  5
34A
331
102
  5
132
331
533
  5
775
331
2CB
  5
2F2
331
334
  5
35B
331
113
  5
141
331
345
  5
36C
331
2DC
  5
303
331
77C
  5
D5
331
1F5
  5
21C
331
356
  5
37D
331
135
  5
162
331
206
  5
22D
331
360
  5
387
331
217
  5
23E
331
146
  5
173
331
228
  5
24F
331
371
  5
398
331
168
  5
18F
331
382
  5
3A9
331
239
  5
260
331
C9
  5
115
331
393
  5
3BA
331
24A
  5
271
331
DA
  5
129
331
3A4
  5
3D5
331
183
  5
1AA
331
40D
  5
444
331
3B5
  5
3FF
331
41E
  5
532
331
3C6
  5
415
331
1A5
  5
1CC
331
276
  5
29D
331
42F
  5
74E
331
287
  5
2AE
331
1C7
  5
1EE
331
1B6
  5
1DD
331
194
  5
1BB
331
25B
  5
282
331
430
  5
74F
331
2E0
  5
307
331
288
  5
2AF
331
441
  5
760
331
2F1
  5
318
331
1C8
  5
1EF
331
299
  5
2C0
331
74A
  5
43B
331
302
  5
329
331
1D9
  5
200
331
2AA
  5
2D1
331
44B
  5
76A
331
75B
  5
418
331
313
  5
33A
331
1EA
  5
211
331
2BB
  5
2E2
331
534
  5
776
331
324
  5
34B
331
103
  5
133
331
335
  5
35C
331
114
  5
142
331
346
  5
36D
331
2DD
  5
304
331
77D
  5
CB
331
1F6
  5
21D
331
357
  5
37E
331
136
  5
163
331
207
  5
22E
331
361
  5
388
331
218
  5
23F
331
147
  5
174
331
229
  5
250
331
372
  5
399
331
169
  5
190
331
383
  5
3AA
331
23A
  5
261
331
CA
  5
116
331
394
  5
3BB
331
24B
  5
272
331
DB
  5
12A
331
2CC
  5
2F3
331
3A5
  5
3D6
331
184
  5
1AB
331
40E
  5
445
331
3B6
  5
400
331
41F
  5
533
331
3C7
  5
416
331
1A6
  5
1CD
331
277
  5
29E
331
1B7
  5
1DE
331
195
  5
1BC
331
25C
  5
283
331
420
  5
534
331
278
  5
29F
331
431
  5
750
331
2E1
  5
308
331
1B8
  5
1DF
331
289
  5
2B0
331
442
  5
761
331
2F2
  5
319
331
1C9
  5
1F0
331
29A
  5
2C1
331
74B
  5
43C
331
303
  5
32A
331
1DA
  5
201
331
2AB
  5
2D2
331
314
  5
33B
331
1EB
  5
212
331
44C
  5
76B
331
75C
  5
F2
331
2BC
  5
2E3
331
535
  5
777
331
325
  5
34C
331
104
  5
134
331
2CD
  5
2F4
331
336
  5
35D
331
347
  5
36E
331
2DE
  5
305
331
77E
  5
CC
331
1F7
  5
21E
331
208
  5
22F
331
137
  5
164
331
362
  5
389
331
219
  5
240
331
148
  5
175
331
22A
  5
251
331
373
  5
39A
331
16A
  5
191
331
384
  5
3AB
331
23B
  5
262
331
CB
  5
117
331
3ED
  5
42D
331
395
  5
3BC
331
24C
  5
273
331
DC
  5
12B
331
25D
  5
284
331
115
  5
143
331
3FE
  5
438
331
3A6
  5
3D7
331
40F
  5
446
331
3B7
  5
406
331
196
  5
1BD
331
1A7
  5
1CE
331
185
  5
1AC
331
410
  5
447
331
3B8
  5
407
331
268
  5
28F
331
421
  5
535
331
1A8
  5
1CF
331
279
  5
2A0
331
432
  5
751
331
2E2
  5
309
331
1B9
  5
1E0
331
28A
  5
2B1
331
443
  5
762
331
2F3
  5
31A
331
1CA
  5
1F1
331
29B
  5
2C2
331
304
  5
32B
331
1DB
  5
202
331
2AC
  5
2D3
331
315
  5
33C
331
1EC
  5
213
331
44D
  5
76C
331
75D
  5
F8
331
326
  5
34D
331
2BD
  5
2E4
331
536
  5
778
331
76E
  5
10A
331
337
  5
35E
331
116
  5
144
331
348
  5
36F
331
2DF
  5
306
331
1F8
  5
21F
331
209
  5
230
331
138
  5
165
331
363
  5
38A
331
21A
  5
241
331
149
  5
176
331
22B
  5
252
331
374
  5
39B
331
3DD
  5
423
331
385
  5
3AC
331
23C
  5
263
331
CC
  5
118
331
16B
  5
192
331
3EE
  5
42E
331
396
  5
3BD
331
24D
  5
274
331
25E
  5
285
331
3FF
  5
439
331
3A7
  5
3DD
331
197
  5
1BE
331
186
  5
1AD
331
DD
  5
12C
331
77F
  5
CD
331
2CE
  5
2F5
331
400
  5
43A
331
3A8
  5
3DE
331
411
  5
448
331
3B9
  5
408
331
198
  5
1BF
331
269
  5
290
331
422
  5
536
331
1A9
  5
1D0
331
27A
  5
2A1
331
433
  5
752
331
2E3
  5
30A
331
1BA
  5
1E1
331
28B
  5
2B2
331
444
  5
763
331
2F4
  5
31B
331
1CB
  5
1F2
331
29C
  5
2C3
331
305
  5
32C
331
1DC
  5
203
331
2AD
  5
2D4
331
316
  5
33D
331
1ED
  5
214
331
44E
  5
76D
331
75E
  5
FE
331
327
  5
34E
331
537
  5
779
331
76F
  5
107
331
338
  5
35F
331
117
  5
145
331
349
  5
370
331
128
  5
14F
331
1F9
  5
220
331
20A
  5
231
331
139
  5
166
331
364
  5
38B
331
21B
  5
242
331
14A
  5
177
331
375
  5
39C
331
16C
  5
193
331
22C
  5
253
331
3DE
  5
424
331
386
  5
3AD
331
23D
  5
264
331
CD
  5
119
331
3EF
  5
42F
331
397
  5
3BE
331
24E
  5
275
331
25F
  5
286
331
187
  5
1AE
331
DE
  5
12D
331
780
  5
C5
331
2CF
  5
2F6
331
2BE
  5
2E5
  0
XRECORD
  5
788
102
{ACAD_REACTORS
330
786
102
}
330
786
100
AcDbXrecord
280
     1
 70
     2
  0
XRECORD
  5
787
102
{ACAD_REACTORS
330
786
102
}
330
786
100
AcDbXrecord
280
     1
 40
1.25
  0
XRECORD
  5
789
102
{ACAD_REACTORS
330
786
102
}
330
786
100
AcDbXrecord
280
     1
 40
1.570796326794896
  0
LAYOUT
  5
6E
102
{ACAD_XDICTIONARY
360
7BD
102
}
102
{ACAD_REACTORS
330
61
102
}
330
61
100
AcDbPlotSettings
  1

  2
FX DP 205
  4

  6

 40
0.0
 41
0.0
 42
0.0
 43
0.0
 44
0.0
 45
0.0
 46
0.0
 47
0.0
 48
0.0
 49
0.0
140
0.0
141
0.0
142
1.0
143
1.0
 70
  1712
 72
     0
 73
     0
 74
     0
  7

 75
     0
147
1.0
148
0.0
149
0.0
100
AcDbLayout
  1
Model
 70
     1
 71
     0
 10
0.0
 20
0.0
 11
12.0
 21
9.0
 12
0.0
 22
0.0
 32
0.0
 14
0.0
 24
0.0
 34
0.0
 15
0.0
 25
0.0
 35
0.0
146
0.0
 13
0.0
 23
0.0
 33
0.0
 16
1.0
 26
0.0
 36
0.0
 17
0.0
 27
1.0
 37
0.0
 76
     0
330
6B
331
8B
  0
LAYOUT
  5
6A
102
{ACAD_XDICTIONARY
360
7BB
102
}
102
{ACAD_REACTORS
330
61
102
}
330
61
100
AcDbPlotSettings
  1

  2
FX DP 205
  4

  6

 40
0.0
 41
0.0
 42
0.0
 43
0.0
 44
0.0
 45
0.0
 46
0.0
 47
0.0
 48
0.0
 49
0.0
140
0.0
141
0.0
142
1.0
143
1.0
 70
   688
 72
     0
 73
     0
 74
     5
  7

 75
    16
147
1.0
148
0.0
149
0.0
100
AcDbLayout
  1
レイアウト1
 70
     1
 71
     1
 10
0.0
 20
0.0
 11
12.0
 21
9.0
 12
0.0
 22
0.0
 32
0.0
 14
1.000000000000000E+20
 24
1.000000000000000E+20
 34
1.000000000000000E+20
 15
-1.000000000000000E+20
 25
-1.000000000000000E+20
 35
-1.000000000000000E+20
146
0.0
 13
0.0
 23
0.0
 33
0.0
 16
1.0
 26
0.0
 36
0.0
 17
0.0
 27
1.0
 37
0.0
 76
     0
330
67
  0
MATERIAL
  5
19
102
{ACAD_XDICTIONARY
360
1A
102
}
102
{ACAD_REACTORS
330
10
102
}
330
10
100
AcDbMaterial
  1
ByBlock
 72
     0
 43
0.0208333333333333
 43
0.0
 43
0.0
 43
0.0
 43
0.0
 43
0.0208333333333333
 43
0.0
 43
0.0
 43
0.0
 43
0.0
 43
1.0
 43
0.0
 43
0.0
 43
0.0
 43
0.0
 43
1.0
 77
     0
 47
0.0208333333333333
 47
0.0
 47
0.0
 47
0.0
 47
0.0
 47
0.0208333333333333
 47
0.0
 47
0.0
 47
0.0
 47
0.0
 47
1.0
 47
0.0
 47
0.0
 47
0.0
 47
0.0
 47
1.0
171
     0
 49
0.0208333333333333
 49
0.0
 49
0.0
 49
0.0
 49
0.0
 49
0.0208333333333333
 49
0.0
 49
0.0
 49
0.0
 49
0.0
 49
1.0
 49
0.0
 49
0.0
 49
0.0
 49
0.0
 49
1.0
175
     0
142
0.0208333333333333
142
0.0
142
0.0
142
0.0
142
0.0
142
0.0208333333333333
142
0.0
142
0.0
142
0.0
142
0.0
142
1.0
142
0.0
142
0.0
142
0.0
142
0.0
142
1.0
179
     0
144
0.0208333333333333
144
0.0
144
0.0
144
0.0
144
0.0
144
0.0208333333333333
144
0.0
144
0.0
144
0.0
144
0.0
144
1.0
144
0.0
144
0.0
144
0.0
144
0.0
144
1.0
147
0.0208333333333333
147
0.0
147
0.0
147
0.0
147
0.0
147
0.0208333333333333
147
0.0
147
0.0
147
0.0
147
0.0
147
1.0
147
0.0
147
0.0
147
0.0
147
0.0
147
1.0
  0
MATERIAL
  5
11
102
{ACAD_XDICTIONARY
360
12
102
}
102
{ACAD_REACTORS
330
10
102
}
330
10
100
AcDbMaterial
  1
ByLayer
 72
     0
 43
0.0208333333333333
 43
0.0
 43
0.0
 43
0.0
 43
0.0
 43
0.0208333333333333
 43
0.0
 43
0.0
 43
0.0
 43
0.0
 43
1.0
 43
0.0
 43
0.0
 43
0.0
 43
0.0
 43
1.0
 77
     0
 47
0.0208333333333333
 47
0.0
 47
0.0
 47
0.0
 47
0.0
 47
0.0208333333333333
 47
0.0
 47
0.0
 47
0.0
 47
0.0
 47
1.0
 47
0.0
 47
0.0
 47
0.0
 47
0.0
 47
1.0
171
     0
 49
0.0208333333333333
 49
0.0
 49
0.0
 49
0.0
 49
0.0
 49
0.0208333333333333
 49
0.0
 49
0.0
 49
0.0
 49
0.0
 49
1.0
 49
0.0
 49
0.0
 49
0.0
 49
0.0
 49
1.0
175
     0
142
0.0208333333333333
142
0.0
142
0.0
142
0.0
142
0.0
142
0.0208333333333333
142
0.0
142
0.0
142
0.0
142
0.0
142
1.0
142
0.0
142
0.0
142
0.0
142
0.0
142
1.0
179
     0
144
0.0208333333333333
144
0.0
144
0.0
144
0.0
144
0.0
144
0.0208333333333333
144
0.0
144
0.0
144
0.0
144
0.0
144
1.0
144
0.0
144
0.0
144
0.0
144
0.0
144
1.0
147
0.0208333333333333
147
0.0
147
0.0
147
0.0
147
0.0
147
0.0208333333333333
147
0.0
147
0.0
147
0.0
147
0.0
147
1.0
147
0.0
147
0.0
147
0.0
147
0.0
147
1.0
  0
MATERIAL
  5
21
102
{ACAD_XDICTIONARY
360
22
102
}
102
{ACAD_REACTORS
330
10
102
}
330
10
100
AcDbMaterial
  1
Global
 72
     0
 43
0.0208333333333333
 43
0.0
 43
0.0
 43
0.0
 43
0.0
 43
0.0208333333333333
 43
0.0
 43
0.0
 43
0.0
 43
0.0
 43
1.0
 43
0.0
 43
0.0
 43
0.0
 43
0.0
 43
1.0
 77
     0
 47
0.0208333333333333
 47
0.0
 47
0.0
 47
0.0
 47
0.0
 47
0.0208333333333333
 47
0.0
 47
0.0
 47
0.0
 47
0.0
 47
1.0
 47
0.0
 47
0.0
 47
0.0
 47
0.0
 47
1.0
171
     0
 49
0.0208333333333333
 49
0.0
 49
0.0
 49
0.0
 49
0.0
 49
0.0208333333333333
 49
0.0
 49
0.0
 49
0.0
 49
0.0
 49
1.0
 49
0.0
 49
0.0
 49
0.0
 49
0.0
 49
1.0
175
     0
142
0.0208333333333333
142
0.0
142
0.0
142
0.0
142
0.0
142
0.0208333333333333
142
0.0
142
0.0
142
0.0
142
0.0
142
1.0
142
0.0
142
0.0
142
0.0
142
0.0
142
1.0
179
     0
144
0.0208333333333333
144
0.0
144
0.0
144
0.0
144
0.0
144
0.0208333333333333
144
0.0
144
0.0
144
0.0
144
0.0
144
1.0
144
0.0
144
0.0
144
0.0
144
0.0
144
1.0
147
0.0208333333333333
147
0.0
147
0.0
147
0.0
147
0.0
147
0.0208333333333333
147
0.0
147
0.0
147
0.0
147
0.0
147
1.0
147
0.0
147
0.0
147
0.0
147
0.0
147
1.0
  0
MLEADERSTYLE
  5
66
102
{ACAD_REACTORS
330
65
102
}
330
65
100
AcDbMLeaderStyle
170
     2
171
     1
172
     0
 90
        2
 40
0.0
 41
0.0
173
     1
 91
-1056964608
340
5A
 92
       -2
290
     1
 42
0.09
291
     1
 43
0.36
  3
Standard
 44
0.18
300

342
55
174
     1
178
     6
175
     1
176
     0
 93
-1056964608
 45
0.18
292
     0
297
     0
 46
0.18
 94
-1056964608
 47
1.0
 49
1.0
140
1.0
293
     1
141
0.0
294
     1
177
     0
142
1.0
295
     0
296
     0
143
0.125
1001
ACAD_MLEADERVER
1070
     2
  0
MLINESTYLE
  5
5F
102
{ACAD_REACTORS
330
5E
102
}
330
5E
100
AcDbMlineStyle
  2
STANDARD
 70
     0
  3

 62
   256
 51
90.0
 52
90.0
 71
     2
 49
0.5
 62
   256
  6
BYLAYER
 49
-0.5
 62
   256
  6
BYLAYER
  0
ACDBPLACEHOLDER
  5
F
102
{ACAD_REACTORS
330
E
102
}
330
E
  0
SCALE
  5
43
102
{ACAD_REACTORS
330
42
102
}
330
42
100
AcDbScale
 70
     0
300
1:1
140
1.0
141
1.0
290
     1
  0
SCALE
  5
44
102
{ACAD_REACTORS
330
42
102
}
330
42
100
AcDbScale
 70
     0
300
1/128" = 1'-0"
140
0.0078125
141
12.0
290
     0
  0
SCALE
  5
45
102
{ACAD_REACTORS
330
42
102
}
330
42
100
AcDbScale
 70
     0
300
1/64" = 1'-0"
140
0.015625
141
12.0
290
     0
  0
SCALE
  5
46
102
{ACAD_REACTORS
330
42
102
}
330
42
100
AcDbScale
 70
     0
300
1/32" = 1'-0"
140
0.03125
141
12.0
290
     0
  0
SCALE
  5
47
102
{ACAD_REACTORS
330
42
102
}
330
42
100
AcDbScale
 70
     0
300
1/16" = 1'-0"
140
0.0625
141
12.0
290
     0
  0
SCALE
  5
48
102
{ACAD_REACTORS
330
42
102
}
330
42
100
AcDbScale
 70
     0
300
3/32" = 1'-0"
140
0.09375
141
12.0
290
     0
  0
SCALE
  5
49
102
{ACAD_REACTORS
330
42
102
}
330
42
100
AcDbScale
 70
     0
300
1/8" = 1'-0"
140
0.125
141
12.0
290
     0
  0
SCALE
  5
4A
102
{ACAD_REACTORS
330
42
102
}
330
42
100
AcDbScale
 70
     0
300
3/16" = 1'-0"
140
0.1875
141
12.0
290
     0
  0
SCALE
  5
4B
102
{ACAD_REACTORS
330
42
102
}
330
42
100
AcDbScale
 70
     0
300
1/4" = 1'-0"
140
0.25
141
12.0
290
     0
  0
SCALE
  5
4C
102
{ACAD_REACTORS
330
42
102
}
330
42
100
AcDbScale
 70
     0
300
3/8" = 1'-0"
140
0.375
141
12.0
290
     0
  0
SCALE
  5
4D
102
{ACAD_REACTORS
330
42
102
}
330
42
100
AcDbScale
 70
     0
300
1/2" = 1'-0"
140
0.5
141
12.0
290
     0
  0
SCALE
  5
4E
102
{ACAD_REACTORS
330
42
102
}
330
42
100
AcDbScale
 70
     0
300
3/4" = 1'-0"
140
0.75
141
12.0
290
     0
  0
SCALE
  5
4F
102
{ACAD_REACTORS
330
42
102
}
330
42
100
AcDbScale
 70
     0
300
1" = 1'-0"
140
1.0
141
12.0
290
     0
  0
SCALE
  5
50
102
{ACAD_REACTORS
330
42
102
}
330
42
100
AcDbScale
 70
     0
300
1-1/2" = 1'-0"
140
1.5
141
12.0
290
     0
  0
SCALE
  5
51
102
{ACAD_REACTORS
330
42
102
}
330
42
100
AcDbScale
 70
     0
300
3" = 1'-0"
140
3.0
141
12.0
290
     0
  0
SCALE
  5
52
102
{ACAD_REACTORS
330
42
102
}
330
42
100
AcDbScale
 70
     0
300
6" = 1'-0"
140
6.0
141
12.0
290
     0
  0
SCALE
  5
53
102
{ACAD_REACTORS
330
42
102
}
330
42
100
AcDbScale
 70
     0
300
1'-0" = 1'-0"
140
12.0
141
12.0
290
     0
  0
TABLESTYLE
  5
64
102
{ACAD_XDICTIONARY
360
6A6
102
}
102
{ACAD_REACTORS
330
63
102
}
330
63
100
AcDbTableStyle
  3
Standard
 70
     0
 71
     0
 40
0.06
 41
0.06
280
     0
281
     0
  7
STANDARD
140
0.18
170
     2
 62
     0
 63
     7
283
     0
274
    -2
284
     1
 64
     0
275
    -2
285
     1
 65
     0
276
    -2
286
     1
 66
     0
277
    -2
287
     1
 67
     0
278
    -2
288
     1
 68
     0
279
    -2
289
     1
 69
     0
  7
STANDARD
140
0.25
170
     5
 62
     0
 63
     7
283
     0
274
    -2
284
     1
 64
     0
275
    -2
285
     1
 65
     0
276
    -2
286
     1
 66
     0
277
    -2
287
     1
 67
     0
278
    -2
288
     1
 68
     0
279
    -2
289
     1
 69
     0
  7
STANDARD
140
0.18
170
     5
 62
     0
 63
     7
283
     0
274
    -2
284
     1
 64
     0
275
    -2
285
     1
 65
     0
276
    -2
286
     1
 66
     0
277
    -2
287
     1
 67
     0
278
    -2
288
     1
 68
     0
279
    -2
289
     1
 69
     0
  0
VISUALSTYLE
  5
2F
102
{ACAD_XDICTIONARY
360
794
102
}
102
{ACAD_REACTORS
330
29
102
}
330
29
100
AcDbVisualStyle
  2

 70
     4
 71
     0
 72
     2
 73
     0
 90
        0
 40
-0.6
 41
-30.0
 62
     5
 63
     7
 74
     1
 91
        4
 64
     7
 65
   257
 75
     1
175
     1
 42
1.0
 92
        0
 66
   257
 43
1.0
 76
     1
 77
     6
 78
     2
 67
     7
 79
     5
170
     0
171
     0
290
     0
174
     0
 93
        1
 44
0.0
173
     0
291
     0
 45
0.0
1001
ACAD
1000
AcDbSavedByObjectVersion
1070
     0
  0
VISUALSTYLE
  5
4F4
102
{ACAD_XDICTIONARY
360
7BF
102
}
102
{ACAD_REACTORS
330
29
102
}
330
29
100
AcDbVisualStyle
  2

 70
     5
 71
     0
 72
     2
 73
     1
 90
        0
 40
-0.6
 41
-30.0
 62
     5
 63
     7
 74
     1
 91
        4
 64
     7
 65
   257
 75
     1
175
     1
 42
1.0
 92
        0
 66
   257
 43
1.0
 76
     1
 77
     6
 78
     2
 67
     7
 79
     5
170
     0
171
     0
290
     0
174
     0
 93
        1
 44
0.0
173
     0
291
     0
 45
0.0
1001
ACAD
1000
AcDbSavedByObjectVersion
1070
     0
  0
VISUALSTYLE
  5
2E
102
{ACAD_XDICTIONARY
360
792
102
}
102
{ACAD_REACTORS
330
29
102
}
330
29
100
AcDbVisualStyle
  2

 70
     7
 71
     1
 72
     0
 73
     1
 90
        0
 40
-0.6
 41
-30.0
 62
     5
 63
     7
 74
     0
 91
        4
 64
     7
 65
   257
 75
     1
175
     1
 42
1.0
 92
        8
 66
     7
 43
1.0
 76
     1
 77
     6
 78
     2
 67
     7
 79
     5
170
     0
171
     0
290
     0
174
     0
 93
        1
 44
0.0
173
     0
291
     1
 45
0.0
1001
ACAD
1000
AcDbSavedByObjectVersion
1070
     0
  0
VISUALSTYLE
  5
35
102
{ACAD_XDICTIONARY
360
7A0
102
}
102
{ACAD_REACTORS
330
29
102
}
330
29
100
AcDbVisualStyle
  2

 70
    12
 71
     2
 72
     2
 73
     0
 90
        0
 40
-0.6
 41
-30.0
 62
     5
 63
     7
 74
     1
 91
        4
 64
     7
 65
   257
 75
     1
175
     1
 42
1.0
 92
        8
 66
     7
 43
1.0
 76
     1
 77
     6
 78
     2
 67
     7
 79
     5
170
     0
171
     0
290
     0
174
     0
 93
        1
 44
50.0
173
     0
291
     1
 45
0.0
1001
ACAD
1000
AcDbSavedByObjectVersion
1070
     0
  0
VISUALSTYLE
  5
39
102
{ACAD_XDICTIONARY
360
7A8
102
}
102
{ACAD_REACTORS
330
29
102
}
330
29
100
AcDbVisualStyle
  2

 70
    16
 71
     2
 72
     2
 73
     3
 90
        0
 40
-0.6
 41
-30.0
 62
     5
 63
     8
 74
     1
 91
        4
 64
     7
 65
   257
 75
     1
175
     1
 42
1.0
 92
        8
 66
     8
 43
1.0
 76
     1
 77
     6
 78
     2
 67
     7
 79
     5
170
     0
171
     0
290
     0
174
     0
 93
        1
 44
0.0
173
     0
291
     1
 45
0.0
1001
ACAD
1000
AcDbSavedByObjectVersion
1070
     0
  0
VISUALSTYLE
  5
32
102
{ACAD_XDICTIONARY
360
79A
102
}
102
{ACAD_REACTORS
330
29
102
}
330
29
100
AcDbVisualStyle
  2

 70
     9
 71
     3
 72
     2
 73
     0
 90
        0
 40
-0.6
 41
-30.0
 62
     5
 63
     7
 74
     2
 91
        2
 64
     7
 65
   257
 75
     1
175
     1
 42
179.0
 92
        8
 66
     7
 43
1.0
 76
     1
 77
     6
 78
     2
 67
     7
 79
     3
170
     0
171
     0
290
     0
174
     0
 93
        1
 44
0.0
173
     0
291
     0
 45
0.0
1001
ACAD
1000
AcDbSavedByObjectVersion
1070
     0
  0
VISUALSTYLE
  5
34
102
{ACAD_XDICTIONARY
360
79E
102
}
102
{ACAD_REACTORS
330
29
102
}
330
29
100
AcDbVisualStyle
  2

 70
    11
 71
     2
 72
     2
 73
     0
 90
        0
 40
-0.6
 41
-30.0
 62
     5
 63
     7
 74
     1
 91
        4
 64
     7
 65
   257
 75
     1
175
     1
 42
1.0
 92
        8
 66
     7
 43
1.0
 76
     1
 77
     6
 78
     2
 67
     7
 79
     5
170
     0
171
     0
290
     0
174
     0
 93
        1
 44
-50.0
173
     0
291
     1
 45
0.0
1001
ACAD
1000
AcDbSavedByObjectVersion
1070
     0
  0
VISUALSTYLE
  5
41
102
{ACAD_XDICTIONARY
360
7B8
102
}
102
{ACAD_REACTORS
330
29
102
}
330
29
100
AcDbVisualStyle
  2

 70
    22
 71
     2
 72
     2
 73
     0
 90
        0
 40
-0.6
 41
-30.0
 62
     5
 63
     7
 74
     1
 91
        4
 64
     7
 65
   257
 75
     1
175
     1
 42
1.0
 92
        8
 66
     7
 43
1.0
 76
     1
 77
     6
 78
     2
 67
     7
 79
     5
170
     0
171
     0
290
     0
174
     0
 93
        1
 44
0.0
173
     0
291
     1
 45
0.0
1001
ACAD
1000
AcDbSavedByObjectVersion
1070
     0
  0
VISUALSTYLE
  5
38
102
{ACAD_XDICTIONARY
360
7A6
102
}
102
{ACAD_REACTORS
330
29
102
}
330
29
100
AcDbVisualStyle
  2

 70
    15
 71
     2
 72
     2
 73
     0
 90
        0
 40
-0.6
 41
-30.0
 62
     5
 63
     7
 74
     1
 91
        4
 64
     7
 65
   257
 75
     1
175
     1
 42
1.0
 92
        8
 66
     7
 43
1.0
 76
     1
 77
     6
 78
     2
 67
     7
 79
     5
170
     0
171
     0
290
     0
174
     0
 93
        1
 44
0.0
173
     0
291
     1
 45
0.0
1001
ACAD
1000
AcDbSavedByObjectVersion
1070
     0
  0
VISUALSTYLE
  5
2A
102
{ACAD_XDICTIONARY
360
78A
102
}
102
{ACAD_REACTORS
330
29
102
}
330
29
100
AcDbVisualStyle
  2

 70
     0
 71
     2
 72
     1
 73
     1
 90
        2
 40
-0.6
 41
30.0
 62
     5
 63
     7
 74
     0
 91
        0
 64
     7
 65
   257
 75
     1
175
     1
 42
1.0
 92
        8
 66
     7
 43
1.0
 76
     1
 77
     6
 78
     2
 67
     7
 79
     5
170
     0
171
     0
290
     0
174
     0
 93
       13
 44
0.0
173
     0
291
     1
 45
0.0
1001
ACAD
1000
AcDbSavedByObjectVersion
1070
     0
  0
VISUALSTYLE
  5
2B
102
{ACAD_XDICTIONARY
360
78C
102
}
102
{ACAD_REACTORS
330
29
102
}
330
29
100
AcDbVisualStyle
  2

 70
     1
 71
     2
 72
     1
 73
     1
 90
        2
 40
-0.6
 41
30.0
 62
     5
 63
     7
 74
     1
 91
        0
 64
     7
 65
   257
 75
     1
175
     1
 42
1.0
 92
        0
 66
   257
 43
1.0
 76
     1
 77
     6
 78
     2
 67
     7
 79
     5
170
     0
171
     0
290
     0
174
     0
 93
       13
 44
0.0
173
     0
291
     1
 45
0.0
1001
ACAD
1000
AcDbSavedByObjectVersion
1070
     0
  0
VISUALSTYLE
  5
2C
102
{ACAD_XDICTIONARY
360
78E
102
}
102
{ACAD_REACTORS
330
29
102
}
330
29
100
AcDbVisualStyle
  2

 70
     2
 71
     2
 72
     2
 73
     1
 90
        2
 40
-0.6
 41
30.0
 62
     5
 63
     7
 74
     0
 91
        0
 64
     7
 65
   257
 75
     1
175
     1
 42
1.0
 92
        0
 66
     7
 43
1.0
 76
     1
 77
     6
 78
     2
 67
     7
 79
     5
170
     0
171
     0
290
     0
174
     0
 93
       13
 44
0.0
173
     0
291
     1
 45
0.0
1001
ACAD
1000
AcDbSavedByObjectVersion
1070
     0
  0
VISUALSTYLE
  5
2D
102
{ACAD_XDICTIONARY
360
790
102
}
102
{ACAD_REACTORS
330
29
102
}
330
29
100
AcDbVisualStyle
  2

 70
     3
 71
     2
 72
     2
 73
     1
 90
        2
 40
-0.6
 41
30.0
 62
     5
 63
     7
 74
     1
 91
        0
 64
     7
 65
   257
 75
     1
175
     1
 42
1.0
 92
        0
 66
   257
 43
1.0
 76
     1
 77
     6
 78
     2
 67
     7
 79
     5
170
     0
171
     0
290
     0
174
     0
 93
       13
 44
0.0
173
     0
291
     1
 45
0.0
1001
ACAD
1000
AcDbSavedByObjectVersion
1070
     0
  0
VISUALSTYLE
  5
31
102
{ACAD_XDICTIONARY
360
798
102
}
102
{ACAD_REACTORS
330
29
102
}
330
29
100
AcDbVisualStyle
  2

 70
     6
 71
     1
 72
     2
 73
     2
 90
        0
 40
-0.6
 41
-30.0
 62
     5
 63
     7
 74
     2
 91
        2
 64
     7
 65
   257
 75
     2
175
     1
 42
40.0
 92
        0
 66
   257
 43
1.0
 76
     1
 77
     6
 78
     2
 67
     7
 79
     3
170
     0
171
     0
290
     0
174
     0
 93
        1
 44
0.0
173
     0
291
     0
 45
0.0
1001
ACAD
1000
AcDbSavedByObjectVersion
1070
     0
  0
VISUALSTYLE
  5
3F
102
{ACAD_XDICTIONARY
360
7B4
102
}
102
{ACAD_REACTORS
330
29
102
}
330
29
100
AcDbVisualStyle
  2

 70
    20
 71
     2
 72
     2
 73
     0
 90
        0
 40
-0.6
 41
-30.0
 62
     5
 63
     7
 74
     1
 91
        4
 64
     7
 65
   257
 75
     1
175
     1
 42
1.0
 92
       10
 66
     7
 43
1.0
 76
     1
 77
     6
 78
     2
 67
     7
 79
     5
170
     0
171
     0
290
     0
174
     0
 93
        1
 44
0.0
173
     0
291
     1
 45
0.0
1001
ACAD
1000
AcDbSavedByObjectVersion
1070
     0
  0
VISUALSTYLE
  5
37
102
{ACAD_XDICTIONARY
360
7A4
102
}
102
{ACAD_REACTORS
330
29
102
}
330
29
100
AcDbVisualStyle
  2

 70
    14
 71
     2
 72
     2
 73
     0
 90
        0
 40
-0.6
 41
-30.0
 62
     5
 63
     7
 74
     1
 91
        4
 64
     7
 65
   257
 75
     7
175
     7
 42
1.0
 92
        8
 66
     7
 43
1.0
 76
     1
 77
     6
 78
     2
 67
     7
 79
     5
170
     0
171
     0
290
     0
174
     0
 93
        1
 44
0.0
173
     0
291
     1
 45
0.0
1001
ACAD
1000
AcDbSavedByObjectVersion
1070
     0
  0
VISUALSTYLE
  5
40
102
{ACAD_XDICTIONARY
360
7B6
102
}
102
{ACAD_REACTORS
330
29
102
}
330
29
100
AcDbVisualStyle
  2

 70
    21
 71
     2
 72
     2
 73
     0
 90
        0
 40
-0.6
 41
-30.0
 62
     5
 63
     7
 74
     1
 91
        4
 64
     7
 65
   257
 75
     1
175
     1
 42
1.0
 92
        9
 66
     7
 43
1.0
 76
     1
 77
     6
 78
     2
 67
     7
 79
     5
170
     0
171
     0
290
     0
174
     0
 93
        1
 44
0.0
173
     0
291
     1
 45
0.0
1001
ACAD
1000
AcDbSavedByObjectVersion
1070
     0
  0
VISUALSTYLE
  5
33
102
{ACAD_XDICTIONARY
360
79C
102
}
102
{ACAD_REACTORS
330
29
102
}
330
29
100
AcDbVisualStyle
  2

 70
     8
 71
     2
 72
     3
 73
     0
 90
        2
 40
-0.6
 41
30.0
 62
     5
 63
     7
 74
     0
 91
        0
 64
     7
 65
   257
 75
     1
175
     1
 42
1.0
 92
        8
 66
   257
 43
1.0
 76
     1
 77
     6
 78
     2
 67
     7
 79
     3
170
     0
171
     0
290
     0
174
     0
 93
       13
 44
0.0
173
     0
291
     0
 45
0.0
1001
ACAD
1000
AcDbSavedByObjectVersion
1070
     0
  0
VISUALSTYLE
  5
3E
102
{ACAD_XDICTIONARY
360
7B2
102
}
102
{ACAD_REACTORS
330
29
102
}
330
29
100
AcDbVisualStyle
  2

 70
    27
 71
     2
 72
     2
 73
     1
 90
        2
 40
-0.6
 41
30.0
 62
     5
 63
     7
 74
     0
 91
        4
 64
     7
 65
   257
 75
     1
175
     1
 42
1.0
 92
        8
 66
   257
 43
1.0
 76
     1
 77
     6
 78
     2
 67
     8
 79
     3
170
     0
171
     0
290
     0
174
     0
 93
        5
 44
0.0
173
     0
291
     0
 45
0.0
1001
ACAD
1000
AcDbSavedByObjectVersion
1070
     0
  0
VISUALSTYLE
  5
3D
102
{ACAD_XDICTIONARY
360
7B0
102
}
102
{ACAD_REACTORS
330
29
102
}
330
29
100
AcDbVisualStyle
  2

 70
    26
 71
     2
 72
     2
 73
     1
 90
        2
 40
-0.6
 41
30.0
 62
     5
 63
     7
 74
     1
 91
       10
 64
     7
 65
   257
 75
     2
175
     1
 42
1.0
 92
        8
 66
   257
 43
1.0
 76
     1
 77
     6
 78
     2
 67
     7
 79
     3
170
     0
171
     0
290
     0
174
     0
 93
        5
 44
0.0
173
     0
291
     0
 45
0.0
1001
ACAD
1000
AcDbSavedByObjectVersion
1070
     0
  0
VISUALSTYLE
  5
3A
102
{ACAD_XDICTIONARY
360
7AA
102
}
102
{ACAD_REACTORS
330
29
102
}
330
29
100
AcDbVisualStyle
  2

 70
    23
 71
     2
 72
     2
 73
     3
 90
        0
 40
-0.6
 41
-30.0
 62
     5
 63
     7
 74
     2
 91
        2
 64
     7
 65
     7
 75
     1
175
     1
 42
40.0
 92
        8
 66
     7
 43
1.0
 76
     1
 77
     6
 78
     2
 67
     7
 79
     3
170
     0
171
     0
290
     0
174
     0
 93
        1
 44
0.0
173
     0
291
     0
 45
0.0
1001
ACAD
1000
AcDbSavedByObjectVersion
1070
     0
  0
VISUALSTYLE
  5
3B
102
{ACAD_XDICTIONARY
360
7AC
102
}
102
{ACAD_REACTORS
330
29
102
}
330
29
100
AcDbVisualStyle
  2

 70
    24
 71
     1
 72
     2
 73
     2
 90
        0
 40
-0.6
 41
-30.0
 62
     5
 63
     7
 74
     2
 91
        2
 64
     7
 65
     7
 75
     1
175
     1
 42
40.0
 92
       11
 66
     7
 43
1.0
 76
     1
 77
     6
 78
     2
 67
     7
 79
     6
170
     0
171
     0
290
     0
174
     0
 93
        1
 44
0.0
173
     0
291
     0
 45
0.0
1001
ACAD
1000
AcDbSavedByObjectVersion
1070
     0
  0
VISUALSTYLE
  5
36
102
{ACAD_XDICTIONARY
360
7A2
102
}
102
{ACAD_REACTORS
330
29
102
}
330
29
100
AcDbVisualStyle
  2

 70
    13
 71
     2
 72
     2
 73
     0
 90
        0
 40
-0.6
 41
-30.0
 62
     5
 63
     7
 74
     1
 91
        4
 64
     7
 65
   257
 75
     1
175
     1
 42
1.0
 92
       12
 66
     7
 43
1.0
 76
     1
 77
     6
 78
     2
 67
     7
 79
     5
170
     0
171
     0
290
     0
174
     0
 93
        1
 44
0.0
173
     0
291
     1
 45
0.0
1001
ACAD
1000
AcDbSavedByObjectVersion
1070
     0
  0
VISUALSTYLE
  5
30
102
{ACAD_XDICTIONARY
360
796
102
}
102
{ACAD_REACTORS
330
29
102
}
330
29
100
AcDbVisualStyle
  2

 70
     5
 71
     0
 72
     2
 73
     0
 90
        0
 40
-0.6
 41
-30.0
 62
     5
 63
     7
 74
     1
 91
        4
 64
     7
 65
   257
 75
     1
175
     1
 42
1.0
 92
        0
 66
   257
 43
1.0
 76
     1
 77
     6
 78
     2
 67
     7
 79
     3
170
     0
171
     0
290
     0
174
     0
 93
        1
 44
0.0
173
     0
291
     0
 45
0.0
1001
ACAD
1000
AcDbSavedByObjectVersion
1070
     0
  0
VISUALSTYLE
  5
3C
102
{ACAD_XDICTIONARY
360
7AE
102
}
102
{ACAD_REACTORS
330
29
102
}
330
29
100
AcDbVisualStyle
  2

 70
    25
 71
     2
 72
     2
 73
     1
 90
        1
 40
0.5
 41
-30.0
 62
     5
 63
     7
 74
     1
 91
        0
 64
     7
 65
   257
 75
     1
175
     1
 42
1.0
 92
        8
 66
     7
 43
1.0
 76
     1
 77
     6
 78
     2
 67
     7
 79
     3
170
     0
171
     0
290
     0
174
     0
 93
       13
 44
0.0
173
     0
291
     0
 45
0.0
1001
ACAD
1000
AcDbSavedByObjectVersion
1070
     0
  0
DICTIONARYVAR
  5
6A1
102
{ACAD_REACTORS
330
69E
102
}
330
69E
100
DictionaryVariables
280
     0
  1
1:1
  0
DICTIONARYVAR
  5
6A0
102
{ACAD_REACTORS
330
69E
102
}
330
69E
100
DictionaryVariables
280
     0
  1
STANDARD
  0
DICTIONARYVAR
  5
69F
102
{ACAD_REACTORS
330
69E
102
}
330
69E
100
DictionaryVariables
280
     0
  1
STANDARD
  0
DICTIONARYVAR
  5
6A4
102
{ACAD_REACTORS
330
69E
102
}
330
69E
100
DictionaryVariables
280
     0
  1
1
  0
DICTIONARYVAR
  5
6A3
102
{ACAD_REACTORS
330
69E
102
}
330
69E
100
DictionaryVariables
280
     0
  1
0
  0
DICTIONARYVAR
  5
6A2
102
{ACAD_REACTORS
330
69E
102
}
330
69E
100
DictionaryVariables
280
     0
  1
127
  0
DICTIONARYVAR
  5
70B
102
{ACAD_REACTORS
330
69E
102
}
330
69E
100
DictionaryVariables
280
     0
  1
2
  0
DICTIONARY
  5
7BD
330
6E
100
AcDbDictionary
280
     1
281
     1
  3
ACAD_XREC_ROUNDTRIP
360
7BE
  0
DICTIONARY
  5
7BB
330
6A
100
AcDbDictionary
280
     1
281
     1
  3
ACAD_XREC_ROUNDTRIP
360
7BC
  0
DICTIONARY
  5
1A
330
19
100
AcDbDictionary
280
     1
281
     1
  3
ACAD_XREC_ROUNDTRIP
360
6AF
  3
BUMPTILE
360
1C
  3
DIFFUSETILE
360
1B
  3
OPACITYTILE
360
1F
  3
REFLECTIONTILE
360
1E
  3
REFRACTIONTILE
360
20
  3
SPECULARTILE
360
1D
  0
DICTIONARY
  5
12
330
11
100
AcDbDictionary
280
     1
281
     1
  3
ACAD_XREC_ROUNDTRIP
360
6AE
  3
BUMPTILE
360
14
  3
DIFFUSETILE
360
13
  3
OPACITYTILE
360
17
  3
REFLECTIONTILE
360
16
  3
REFRACTIONTILE
360
18
  3
SPECULARTILE
360
15
  0
DICTIONARY
  5
22
330
21
100
AcDbDictionary
280
     1
281
     1
  3
ACAD_XREC_ROUNDTRIP
360
6B0
  3
BUMPTILE
360
24
  3
DIFFUSETILE
360
23
  3
OPACITYTILE
360
27
  3
REFLECTIONTILE
360
26
  3
REFRACTIONTILE
360
28
  3
SPECULARTILE
360
25
  0
DICTIONARY
  5
6A6
330
64
100
AcDbDictionary
280
     1
281
     1
  3
ACAD_ROUNDTRIP_2008_TABLESTYLE_CELLSTYLEMAP
360
783
  3
ACAD_XREC_ROUNDTRIP
360
7BA
  0
DICTIONARY
  5
794
330
2F
100
AcDbDictionary
280
     1
281
     1
  3
ACAD_XREC_ROUNDTRIP
360
795
  0
DICTIONARY
  5
7BF
330
4F4
100
AcDbDictionary
280
     1
281
     1
  3
ACAD_XREC_ROUNDTRIP
360
7C0
  0
DICTIONARY
  5
792
330
2E
100
AcDbDictionary
280
     1
281
     1
  3
ACAD_XREC_ROUNDTRIP
360
793
  0
DICTIONARY
  5
7A0
330
35
100
AcDbDictionary
280
     1
281
     1
  3
ACAD_XREC_ROUNDTRIP
360
7A1
  0
DICTIONARY
  5
7A8
330
39
100
AcDbDictionary
280
     1
281
     1
  3
ACAD_XREC_ROUNDTRIP
360
7A9
  0
DICTIONARY
  5
79A
330
32
100
AcDbDictionary
280
     1
281
     1
  3
ACAD_XREC_ROUNDTRIP
360
79B
  0
DICTIONARY
  5
79E
330
34
100
AcDbDictionary
280
     1
281
     1
  3
ACAD_XREC_ROUNDTRIP
360
79F
  0
DICTIONARY
  5
7B8
330
41
100
AcDbDictionary
280
     1
281
     1
  3
ACAD_XREC_ROUNDTRIP
360
7B9
  0
DICTIONARY
  5
7A6
330
38
100
AcDbDictionary
280
     1
281
     1
  3
ACAD_XREC_ROUNDTRIP
360
7A7
  0
DICTIONARY
  5
78A
330
2A
100
AcDbDictionary
280
     1
281
     1
  3
ACAD_XREC_ROUNDTRIP
360
78B
  0
DICTIONARY
  5
78C
330
2B
100
AcDbDictionary
280
     1
281
     1
  3
ACAD_XREC_ROUNDTRIP
360
78D
  0
DICTIONARY
  5
78E
330
2C
100
AcDbDictionary
280
     1
281
     1
  3
ACAD_XREC_ROUNDTRIP
360
78F
  0
DICTIONARY
  5
790
330
2D
100
AcDbDictionary
280
     1
281
     1
  3
ACAD_XREC_ROUNDTRIP
360
791
  0
DICTIONARY
  5
798
330
31
100
AcDbDictionary
280
     1
281
     1
  3
ACAD_XREC_ROUNDTRIP
360
799
  0
DICTIONARY
  5
7B4
330
3F
100
AcDbDictionary
280
     1
281
     1
  3
ACAD_XREC_ROUNDTRIP
360
7B5
  0
DICTIONARY
  5
7A4
330
37
100
AcDbDictionary
280
     1
281
     1
  3
ACAD_XREC_ROUNDTRIP
360
7A5
  0
DICTIONARY
  5
7B6
330
40
100
AcDbDictionary
280
     1
281
     1
  3
ACAD_XREC_ROUNDTRIP
360
7B7
  0
DICTIONARY
  5
79C
330
33
100
AcDbDictionary
280
     1
281
     1
  3
ACAD_XREC_ROUNDTRIP
360
79D
  0
DICTIONARY
  5
7B2
330
3E
100
AcDbDictionary
280
     1
281
     1
  3
ACAD_XREC_ROUNDTRIP
360
7B3
  0
DICTIONARY
  5
7B0
330
3D
100
AcDbDictionary
280
     1
281
     1
  3
ACAD_XREC_ROUNDTRIP
360
7B1
  0
DICTIONARY
  5
7AA
330
3A
100
AcDbDictionary
280
     1
281
     1
  3
ACAD_XREC_ROUNDTRIP
360
7AB
  0
DICTIONARY
  5
7AC
330
3B
100
AcDbDictionary
280
     1
281
     1
  3
ACAD_XREC_ROUNDTRIP
360
7AD
  0
DICTIONARY
  5
7A2
330
36
100
AcDbDictionary
280
     1
281
     1
  3
ACAD_XREC_ROUNDTRIP
360
7A3
  0
DICTIONARY
  5
796
330
30
100
AcDbDictionary
280
     1
281
     1
  3
ACAD_XREC_ROUNDTRIP
360
797
  0
DICTIONARY
  5
7AE
330
3C
100
AcDbDictionary
280
     1
281
     1
  3
ACAD_XREC_ROUNDTRIP
360
7AF
  0
XRECORD
  5
7BE
102
{ACAD_REACTORS
330
7BD
102
}
330
7BD
100
AcDbXrecord
280
     1
102
SHADEPLOT
 70
     0
102
SHADEPLOTRESLEVEL
 70
     2
102
SHADEPLOTCUSTOMDPI
 70
   300
  0
XRECORD
  5
7BC
102
{ACAD_REACTORS
330
7BB
102
}
330
7BB
100
AcDbXrecord
280
     1
102
SHADEPLOT
 70
     0
102
SHADEPLOTRESLEVEL
 70
     2
102
SHADEPLOTCUSTOMDPI
 70
   300
  0
XRECORD
  5
6AF
102
{ACAD_REACTORS
330
1A
102
}
330
1A
100
AcDbXrecord
280
     1
102
MATERIAL
148
0.0
149
0.0
149
0.0
 93
        0
 94
      127
282
     0
 72
     0
 77
     0
171
     0
175
     0
179
     0
273
     0
  0
XRECORD
  5
1C
102
{ACAD_REACTORS
330
1A
102
}
330
1A
100
AcDbXrecord
280
     1
270
     1
271
     1
  0
XRECORD
  5
1B
102
{ACAD_REACTORS
330
1A
102
}
330
1A
100
AcDbXrecord
280
     1
270
     1
271
     1
  0
XRECORD
  5
1F
102
{ACAD_REACTORS
330
1A
102
}
330
1A
100
AcDbXrecord
280
     1
270
     1
271
     1
  0
XRECORD
  5
1E
102
{ACAD_REACTORS
330
1A
102
}
330
1A
100
AcDbXrecord
280
     1
270
     1
271
     1
  0
XRECORD
  5
20
102
{ACAD_REACTORS
330
1A
102
}
330
1A
100
AcDbXrecord
280
     1
270
     1
271
     1
  0
XRECORD
  5
1D
102
{ACAD_REACTORS
330
1A
102
}
330
1A
100
AcDbXrecord
280
     1
270
     1
271
     1
  0
XRECORD
  5
6AE
102
{ACAD_REACTORS
330
12
102
}
330
12
100
AcDbXrecord
280
     1
102
MATERIAL
148
0.0
149
0.0
149
0.0
 93
        0
 94
      127
282
     0
 72
     0
 77
     0
171
     0
175
     0
179
     0
273
     0
  0
XRECORD
  5
14
102
{ACAD_REACTORS
330
12
102
}
330
12
100
AcDbXrecord
280
     1
270
     1
271
     1
  0
XRECORD
  5
13
102
{ACAD_REACTORS
330
12
102
}
330
12
100
AcDbXrecord
280
     1
270
     1
271
     1
  0
XRECORD
  5
17
102
{ACAD_REACTORS
330
12
102
}
330
12
100
AcDbXrecord
280
     1
270
     1
271
     1
  0
XRECORD
  5
16
102
{ACAD_REACTORS
330
12
102
}
330
12
100
AcDbXrecord
280
     1
270
     1
271
     1
  0
XRECORD
  5
18
102
{ACAD_REACTORS
330
12
102
}
330
12
100
AcDbXrecord
280
     1
270
     1
271
     1
  0
XRECORD
  5
15
102
{ACAD_REACTORS
330
12
102
}
330
12
100
AcDbXrecord
280
     1
270
     1
271
     1
  0
XRECORD
  5
6B0
102
{ACAD_REACTORS
330
22
102
}
330
22
100
AcDbXrecord
280
     1
102
MATERIAL
148
0.0
149
0.0
149
0.0
 93
        0
 94
      127
282
     0
 72
     0
 77
     0
171
     0
175
     0
179
     0
273
     0
  0
XRECORD
  5
24
102
{ACAD_REACTORS
330
22
102
}
330
22
100
AcDbXrecord
280
     1
270
     1
271
     1
  0
XRECORD
  5
23
102
{ACAD_REACTORS
330
22
102
}
330
22
100
AcDbXrecord
280
     1
270
     1
271
     1
  0
XRECORD
  5
27
102
{ACAD_REACTORS
330
22
102
}
330
22
100
AcDbXrecord
280
     1
270
     1
271
     1
  0
XRECORD
  5
26
102
{ACAD_REACTORS
330
22
102
}
330
22
100
AcDbXrecord
280
     1
270
     1
271
     1
  0
XRECORD
  5
28
102
{ACAD_REACTORS
330
22
102
}
330
22
100
AcDbXrecord
280
     1
270
     1
271
     1
  0
XRECORD
  5
25
102
{ACAD_REACTORS
330
22
102
}
330
22
100
AcDbXrecord
280
     1
270
     1
271
     1
  0
CELLSTYLEMAP
  5
783
102
{ACAD_REACTORS
330
6A6
102
}
330
6A6
100
AcDbCellStyleMap
 90
        3
300
CELLSTYLE
  1
TABLEFORMAT_BEGIN
 90
        5
170
     1
 91
        0
 92
    32768
 62
   257
 93
        1
300
CONTENTFORMAT
  1
CONTENTFORMAT_BEGIN
 90
        0
 91
        0
 92
      512
 93
        0
300

 40
0.0
140
1.0
 94
        5
 62
     0
340
55
144
0.25
309
CONTENTFORMAT_END
171
     1
301
MARGIN
  1
CELLMARGIN_BEGIN
 40
0.06
 40
0.06
 40
0.06
 40
0.06
 40
0.18
 40
0.18
309
CELLMARGIN_END
 94
        6
 95
        1
302
GRIDFORMAT
  1
GRIDFORMAT_BEGIN
 90
        0
 91
        1
 62
     0
 92
       -2
340
0
 93
        0
 40
0.045
309
GRIDFORMAT_END
 95
        2
302
GRIDFORMAT
  1
GRIDFORMAT_BEGIN
 90
        0
 91
        1
 62
     0
 92
       -2
340
0
 93
        0
 40
0.045
309
GRIDFORMAT_END
 95
        4
302
GRIDFORMAT
  1
GRIDFORMAT_BEGIN
 90
        0
 91
        1
 62
     0
 92
       -2
340
0
 93
        0
 40
0.045
309
GRIDFORMAT_END
 95
        8
302
GRIDFORMAT
  1
GRIDFORMAT_BEGIN
 90
        0
 91
        1
 62
     0
 92
       -2
340
0
 93
        0
 40
0.045
309
GRIDFORMAT_END
 95
       16
302
GRIDFORMAT
  1
GRIDFORMAT_BEGIN
 90
        0
 91
        1
 62
     0
 92
       -2
340
0
 93
        0
 40
0.045
309
GRIDFORMAT_END
 95
       32
302
GRIDFORMAT
  1
GRIDFORMAT_BEGIN
 90
        0
 91
        1
 62
     0
 92
       -2
340
0
 93
        0
 40
0.045
309
GRIDFORMAT_END
309
TABLEFORMAT_END
  1
CELLSTYLE_BEGIN
 90
        1
 91
        1
300
_TITLE
309
CELLSTYLE_END
300
CELLSTYLE
  1
TABLEFORMAT_BEGIN
 90
        5
170
     1
 91
        0
 92
        0
 62
   257
 93
        1
300
CONTENTFORMAT
  1
CONTENTFORMAT_BEGIN
 90
        0
 91
        0
 92
      512
 93
        0
300

 40
0.0
140
1.0
 94
        5
 62
     0
340
55
144
0.18
309
CONTENTFORMAT_END
171
     1
301
MARGIN
  1
CELLMARGIN_BEGIN
 40
0.06
 40
0.06
 40
0.06
 40
0.06
 40
0.18
 40
0.18
309
CELLMARGIN_END
 94
        6
 95
        1
302
GRIDFORMAT
  1
GRIDFORMAT_BEGIN
 90
        0
 91
        1
 62
     0
 92
       -2
340
0
 93
        0
 40
0.045
309
GRIDFORMAT_END
 95
        2
302
GRIDFORMAT
  1
GRIDFORMAT_BEGIN
 90
        0
 91
        1
 62
     0
 92
       -2
340
0
 93
        0
 40
0.045
309
GRIDFORMAT_END
 95
        4
302
GRIDFORMAT
  1
GRIDFORMAT_BEGIN
 90
        0
 91
        1
 62
     0
 92
       -2
340
0
 93
        0
 40
0.045
309
GRIDFORMAT_END
 95
        8
302
GRIDFORMAT
  1
GRIDFORMAT_BEGIN
 90
        0
 91
        1
 62
     0
 92
       -2
340
0
 93
        0
 40
0.045
309
GRIDFORMAT_END
 95
       16
302
GRIDFORMAT
  1
GRIDFORMAT_BEGIN
 90
        0
 91
        1
 62
     0
 92
       -2
340
0
 93
        0
 40
0.045
309
GRIDFORMAT_END
 95
       32
302
GRIDFORMAT
  1
GRIDFORMAT_BEGIN
 90
        0
 91
        1
 62
     0
 92
       -2
340
0
 93
        0
 40
0.045
309
GRIDFORMAT_END
309
TABLEFORMAT_END
  1
CELLSTYLE_BEGIN
 90
        2
 91
        1
300
_HEADER
309
CELLSTYLE_END
300
CELLSTYLE
  1
TABLEFORMAT_BEGIN
 90
        5
170
     1
 91
        0
 92
        0
 62
   257
 93
        1
300
CONTENTFORMAT
  1
CONTENTFORMAT_BEGIN
 90
        0
 91
        0
 92
      512
 93
        0
300

 40
0.0
140
1.0
 94
        2
 62
     0
340
55
144
0.18
309
CONTENTFORMAT_END
171
     1
301
MARGIN
  1
CELLMARGIN_BEGIN
 40
0.06
 40
0.06
 40
0.06
 40
0.06
 40
0.18
 40
0.18
309
CELLMARGIN_END
 94
        6
 95
        1
302
GRIDFORMAT
  1
GRIDFORMAT_BEGIN
 90
        0
 91
        1
 62
     0
 92
       -2
340
0
 93
        0
 40
0.045
309
GRIDFORMAT_END
 95
        2
302
GRIDFORMAT
  1
GRIDFORMAT_BEGIN
 90
        0
 91
        1
 62
     0
 92
       -2
340
0
 93
        0
 40
0.045
309
GRIDFORMAT_END
 95
        4
302
GRIDFORMAT
  1
GRIDFORMAT_BEGIN
 90
        0
 91
        1
 62
     0
 92
       -2
340
0
 93
        0
 40
0.045
309
GRIDFORMAT_END
 95
        8
302
GRIDFORMAT
  1
GRIDFORMAT_BEGIN
 90
        0
 91
        1
 62
     0
 92
       -2
340
0
 93
        0
 40
0.045
309
GRIDFORMAT_END
 95
       16
302
GRIDFORMAT
  1
GRIDFORMAT_BEGIN
 90
        0
 91
        1
 62
     0
 92
       -2
340
0
 93
        0
 40
0.045
309
GRIDFORMAT_END
 95
       32
302
GRIDFORMAT
  1
GRIDFORMAT_BEGIN
 90
        0
 91
        1
 62
     0
 92
       -2
340
0
 93
        0
 40
0.045
309
GRIDFORMAT_END
309
TABLEFORMAT_END
  1
CELLSTYLE_BEGIN
 90
        3
 91
        2
300
_DATA
309
CELLSTYLE_END
  0
XRECORD
  5
7BA
102
{ACAD_REACTORS
330
6A6
102
}
330
6A6
100
AcDbXrecord
280
     1
102
ACAD_ROUNDTRIP_PRE2007_TABLESTYLE
 90
      512
 91
        0
  1

 92
      512
 93
        0
  2

 94
      512
 95
        0
  3

  0
XRECORD
  5
795
102
{ACAD_REACTORS
330
794
102
}
330
794
100
AcDbXrecord
280
     1
102
RTVSPropertyOp0
 70
     1
102
RTVSPropertyOp1
 70
     1
102
RTVSPropertyOp2
 70
     1
102
RTVSPropertyOp3
 70
     1
102
RTVSPropertyOp4
 70
     1
102
RTVSPropertyOp5
 70
     1
102
RTVSPropertyOp6
 70
     1
102
RTVSPropertyOp7
 70
     1
102
RTVSPropertyOp8
 70
     1
102
RTVSPropertyOp9
 70
     1
102
RTVSPropertyOp10
 70
     1
102
RTVSPropertyOp11
 70
     1
102
RTVSPropertyOp12
 70
     1
102
RTVSPropertyOp13
 70
     1
102
RTVSPropertyOp14
 70
     1
102
RTVSPropertyOp15
 70
     1
102
RTVSPropertyOp16
 70
     1
102
RTVSPropertyOp17
 70
     1
102
RTVSPropertyOp18
 70
     1
102
RTVSPropertyOp19
 70
     1
102
RTVSPropertyOp20
 70
     1
102
RTVSPropertyOp21
 70
     1
102
RTVSPropertyOp22
 70
     1
102
RTVSPropertyOp23
 70
     1
102
RTVSPropertyOp24
 70
     1
102
RTVSPropertyOp25
 70
     1
102
RTVSPropertyOp26
 70
     1
102
RTVSPropertyOp27
 70
     1
102
RTVSPropertyOp28
 70
     1
102
RTVSPropertyOp29
 70
     1
102
RTVSPropertyOp30
 70
     1
102
RTVSPropertyOp31
 70
     1
102
RTVSPropertyOp32
 70
     1
  0
XRECORD
  5
7C0
102
{ACAD_REACTORS
330
7BF
102
}
330
7BF
100
AcDbXrecord
280
     1
102
RTVSPropertyOp0
 70
     1
102
RTVSPropertyOp1
 70
     1
102
RTVSPropertyOp2
 70
     1
102
RTVSPropertyOp3
 70
     1
102
RTVSPropertyOp4
 70
     1
102
RTVSPropertyOp5
 70
     1
102
RTVSPropertyOp6
 70
     1
102
RTVSPropertyOp7
 70
     1
102
RTVSPropertyOp8
 70
     1
102
RTVSPropertyOp9
 70
     1
102
RTVSPropertyOp10
 70
     1
102
RTVSPropertyOp11
 70
     1
102
RTVSPropertyOp12
 70
     1
102
RTVSPropertyOp13
 70
     1
102
RTVSPropertyOp14
 70
     1
102
RTVSPropertyOp15
 70
     1
102
RTVSPropertyOp16
 70
     1
102
RTVSPropertyOp17
 70
     1
102
RTVSPropertyOp18
 70
     1
102
RTVSPropertyOp19
 70
     1
102
RTVSPropertyOp20
 70
     1
102
RTVSPropertyOp21
 70
     1
102
RTVSPropertyOp22
 70
     1
102
RTVSPropertyOp23
 70
     1
102
RTVSPropertyOp24
 70
     1
102
RTVSPropertyOp25
 70
     1
102
RTVSPropertyOp26
 70
     1
102
RTVSPropertyOp27
 70
     1
102
RTVSPropertyOp28
 70
     1
102
RTVSPropertyOp29
 70
     1
102
RTVSPropertyOp30
 70
     1
102
RTVSPropertyOp31
 70
     1
102
RTVSPropertyOp32
 70
     1
  0
XRECORD
  5
793
102
{ACAD_REACTORS
330
792
102
}
330
792
100
AcDbXrecord
280
     1
102
RTVSPropertyOp0
 70
     1
102
RTVSPropertyOp1
 70
     1
102
RTVSPropertyOp2
 70
     1
102
RTVSPropertyOp3
 70
     1
102
RTVSPropertyOp4
 70
     1
102
RTVSPropertyOp5
 70
     1
102
RTVSPropertyOp6
 70
     1
102
RTVSPropertyOp7
 70
     1
102
RTVSPropertyOp8
 70
     1
102
RTVSPropertyOp9
 70
     1
102
RTVSPropertyOp10
 70
     1
102
RTVSPropertyOp11
 70
     1
102
RTVSPropertyOp12
 70
     1
102
RTVSPropertyOp13
 70
     1
102
RTVSPropertyOp14
 70
     1
102
RTVSPropertyOp15
 70
     1
102
RTVSPropertyOp16
 70
     1
102
RTVSPropertyOp17
 70
     1
102
RTVSPropertyOp18
 70
     1
102
RTVSPropertyOp19
 70
     1
102
RTVSPropertyOp20
 70
     1
102
RTVSPropertyOp21
 70
     1
102
RTVSPropertyOp22
 70
     1
102
RTVSPropertyOp23
 70
     1
102
RTVSPropertyOp24
 70
     1
102
RTVSPropertyOp25
 70
     1
102
RTVSPropertyOp26
 70
     1
102
RTVSPropertyOp27
 70
     1
102
RTVSPropertyOp28
 70
     1
102
RTVSPropertyOp29
 70
     1
102
RTVSPropertyOp30
 70
     1
102
RTVSPropertyOp31
 70
     1
102
RTVSPropertyOp32
 70
     1
  0
XRECORD
  5
7A1
102
{ACAD_REACTORS
330
7A0
102
}
330
7A0
100
AcDbXrecord
280
     1
102
RTVSPropertyOp0
 70
     1
102
RTVSPropertyOp1
 70
     1
102
RTVSPropertyOp2
 70
     1
102
RTVSPropertyOp3
 70
     1
102
RTVSPropertyOp4
 70
     1
102
RTVSPropertyOp5
 70
     1
102
RTVSPropertyOp6
 70
     1
102
RTVSPropertyOp7
 70
     1
102
RTVSPropertyOp8
 70
     1
102
RTVSPropertyOp9
 70
     1
102
RTVSPropertyOp10
 70
     1
102
RTVSPropertyOp11
 70
     1
102
RTVSPropertyOp12
 70
     1
102
RTVSPropertyOp13
 70
     1
102
RTVSPropertyOp14
 70
     1
102
RTVSPropertyOp15
 70
     1
102
RTVSPropertyOp16
 70
     1
102
RTVSPropertyOp17
 70
     1
102
RTVSPropertyOp18
 70
     1
102
RTVSPropertyOp19
 70
     1
102
RTVSPropertyOp20
 70
     1
102
RTVSPropertyOp21
 70
     1
102
RTVSPropertyOp22
 70
     1
102
RTVSPropertyOp23
 70
     1
102
RTVSPropertyOp24
 70
     1
102
RTVSPropertyOp25
 70
     1
102
RTVSPropertyOp26
 70
     1
102
RTVSPropertyOp27
 70
     1
102
RTVSPropertyOp28
 70
     1
102
RTVSPropertyOp29
 70
     1
102
RTVSPropertyOp30
 70
     1
102
RTVSPropertyOp31
 70
     1
102
RTVSPropertyOp32
 70
     1
  0
XRECORD
  5
7A9
102
{ACAD_REACTORS
330
7A8
102
}
330
7A8
100
AcDbXrecord
280
     1
102
RTVSPropertyOp0
 70
     1
102
RTVSPropertyOp1
 70
     1
102
RTVSPropertyOp2
 70
     1
102
RTVSPropertyOp3
 70
     1
102
RTVSPropertyOp4
 70
     1
102
RTVSPropertyOp5
 70
     1
102
RTVSPropertyOp6
 70
     1
102
RTVSPropertyOp7
 70
     1
102
RTVSPropertyOp8
 70
     1
102
RTVSPropertyOp9
 70
     1
102
RTVSPropertyOp10
 70
     1
102
RTVSPropertyOp11
 70
     1
102
RTVSPropertyOp12
 70
     1
102
RTVSPropertyOp13
 70
     1
102
RTVSPropertyOp14
 70
     1
102
RTVSPropertyOp15
 70
     1
102
RTVSPropertyOp16
 70
     1
102
RTVSPropertyOp17
 70
     1
102
RTVSPropertyOp18
 70
     1
102
RTVSPropertyOp19
 70
     1
102
RTVSPropertyOp20
 70
     1
102
RTVSPropertyOp21
 70
     1
102
RTVSPropertyOp22
 70
     1
102
RTVSPropertyOp23
 70
     1
102
RTVSPropertyOp24
 70
     1
102
RTVSPropertyOp25
 70
     1
102
RTVSPropertyOp26
 70
     1
102
RTVSPropertyOp27
 70
     1
102
RTVSPropertyOp28
 70
     1
102
RTVSPropertyOp29
 70
     1
102
RTVSPropertyOp30
 70
     1
102
RTVSPropertyOp31
 70
     1
102
RTVSPropertyOp32
 70
     1
  0
XRECORD
  5
79B
102
{ACAD_REACTORS
330
79A
102
}
330
79A
100
AcDbXrecord
280
     1
102
RTVSPropertyOp0
 70
     1
102
RTVSPropertyOp1
 70
     1
102
RTVSPropertyOp2
 70
     1
102
RTVSPropertyOp3
 70
     1
102
RTVSPropertyOp4
 70
     1
102
RTVSPropertyOp5
 70
     1
102
RTVSPropertyOp6
 70
     1
102
RTVSPropertyOp7
 70
     1
102
RTVSPropertyOp8
 70
     1
102
RTVSPropertyOp9
 70
     1
102
RTVSPropertyOp10
 70
     1
102
RTVSPropertyOp11
 70
     1
102
RTVSPropertyOp12
 70
     1
102
RTVSPropertyOp13
 70
     1
102
RTVSPropertyOp14
 70
     1
102
RTVSPropertyOp15
 70
     1
102
RTVSPropertyOp16
 70
     1
102
RTVSPropertyOp17
 70
     1
102
RTVSPropertyOp18
 70
     1
102
RTVSPropertyOp19
 70
     1
102
RTVSPropertyOp20
 70
     1
102
RTVSPropertyOp21
 70
     1
102
RTVSPropertyOp22
 70
     1
102
RTVSPropertyOp23
 70
     1
102
RTVSPropertyOp24
 70
     1
102
RTVSPropertyOp25
 70
     1
102
RTVSPropertyOp26
 70
     1
102
RTVSPropertyOp27
 70
     1
102
RTVSPropertyOp28
 70
     1
102
RTVSPropertyOp29
 70
     1
102
RTVSPropertyOp30
 70
     1
102
RTVSPropertyOp31
 70
     1
102
RTVSPropertyOp32
 70
     1
  0
XRECORD
  5
79F
102
{ACAD_REACTORS
330
79E
102
}
330
79E
100
AcDbXrecord
280
     1
102
RTVSPropertyOp0
 70
     1
102
RTVSPropertyOp1
 70
     1
102
RTVSPropertyOp2
 70
     1
102
RTVSPropertyOp3
 70
     1
102
RTVSPropertyOp4
 70
     1
102
RTVSPropertyOp5
 70
     1
102
RTVSPropertyOp6
 70
     1
102
RTVSPropertyOp7
 70
     1
102
RTVSPropertyOp8
 70
     1
102
RTVSPropertyOp9
 70
     1
102
RTVSPropertyOp10
 70
     1
102
RTVSPropertyOp11
 70
     1
102
RTVSPropertyOp12
 70
     1
102
RTVSPropertyOp13
 70
     1
102
RTVSPropertyOp14
 70
     1
102
RTVSPropertyOp15
 70
     1
102
RTVSPropertyOp16
 70
     1
102
RTVSPropertyOp17
 70
     1
102
RTVSPropertyOp18
 70
     1
102
RTVSPropertyOp19
 70
     1
102
RTVSPropertyOp20
 70
     1
102
RTVSPropertyOp21
 70
     1
102
RTVSPropertyOp22
 70
     1
102
RTVSPropertyOp23
 70
     1
102
RTVSPropertyOp24
 70
     1
102
RTVSPropertyOp25
 70
     1
102
RTVSPropertyOp26
 70
     1
102
RTVSPropertyOp27
 70
     1
102
RTVSPropertyOp28
 70
     1
102
RTVSPropertyOp29
 70
     1
102
RTVSPropertyOp30
 70
     1
102
RTVSPropertyOp31
 70
     1
102
RTVSPropertyOp32
 70
     1
  0
XRECORD
  5
7B9
102
{ACAD_REACTORS
330
7B8
102
}
330
7B8
100
AcDbXrecord
280
     1
102
RTVSPropertyOp0
 70
     0
102
RTVSPropertyOp1
 70
     0
102
RTVSPropertyOp2
 70
     0
102
RTVSPropertyOp3
 70
     0
102
RTVSPropertyOp4
 70
     0
102
RTVSPropertyOp5
 70
     0
102
RTVSPropertyOp6
 70
     0
102
RTVSPropertyOp7
 70
     0
102
RTVSPropertyOp8
 70
     0
102
RTVSPropertyOp9
 70
     0
102
RTVSPropertyOp10
 70
     0
102
RTVSPropertyOp11
 70
     0
102
RTVSPropertyOp12
 70
     0
102
RTVSPropertyOp13
 70
     0
102
RTVSPropertyOp14
 70
     2
102
RTVSPropertyOp15
 70
     0
102
RTVSPropertyOp16
 70
     0
102
RTVSPropertyOp17
 70
     0
102
RTVSPropertyOp18
 70
     0
102
RTVSPropertyOp19
 70
     0
102
RTVSPropertyOp20
 70
     0
102
RTVSPropertyOp21
 70
     0
102
RTVSPropertyOp22
 70
     0
102
RTVSPropertyOp23
 70
     0
102
RTVSPropertyOp24
 70
     0
102
RTVSPropertyOp25
 70
     0
102
RTVSPropertyOp26
 70
     0
102
RTVSPropertyOp27
 70
     0
102
RTVSPropertyOp28
 70
     0
102
RTVSPropertyOp29
 70
     0
102
RTVSPropertyOp30
 70
     0
102
RTVSPropertyOp31
 70
     0
102
RTVSPropertyOp32
 70
     0
  0
XRECORD
  5
7A7
102
{ACAD_REACTORS
330
7A6
102
}
330
7A6
100
AcDbXrecord
280
     1
102
RTVSPropertyOp0
 70
     1
102
RTVSPropertyOp1
 70
     1
102
RTVSPropertyOp2
 70
     1
102
RTVSPropertyOp3
 70
     1
102
RTVSPropertyOp4
 70
     1
102
RTVSPropertyOp5
 70
     1
102
RTVSPropertyOp6
 70
     1
102
RTVSPropertyOp7
 70
     1
102
RTVSPropertyOp8
 70
     1
102
RTVSPropertyOp9
 70
     1
102
RTVSPropertyOp10
 70
     1
102
RTVSPropertyOp11
 70
     1
102
RTVSPropertyOp12
 70
     1
102
RTVSPropertyOp13
 70
     1
102
RTVSPropertyOp14
 70
     1
102
RTVSPropertyOp15
 70
     1
102
RTVSPropertyOp16
 70
     1
102
RTVSPropertyOp17
 70
     1
102
RTVSPropertyOp18
 70
     1
102
RTVSPropertyOp19
 70
     1
102
RTVSPropertyOp20
 70
     1
102
RTVSPropertyOp21
 70
     1
102
RTVSPropertyOp22
 70
     1
102
RTVSPropertyOp23
 70
     1
102
RTVSPropertyOp24
 70
     1
102
RTVSPropertyOp25
 70
     1
102
RTVSPropertyOp26
 70
     1
102
RTVSPropertyOp27
 70
     1
102
RTVSPropertyOp28
 70
     1
102
RTVSPropertyOp29
 70
     1
102
RTVSPropertyOp30
 70
     1
102
RTVSPropertyOp31
 70
     1
102
RTVSPropertyOp32
 70
     1
  0
XRECORD
  5
78B
102
{ACAD_REACTORS
330
78A
102
}
330
78A
100
AcDbXrecord
280
     1
102
RTVSPropertyOp0
 70
     1
102
RTVSPropertyOp1
 70
     1
102
RTVSPropertyOp2
 70
     1
102
RTVSPropertyOp3
 70
     1
102
RTVSPropertyOp4
 70
     1
102
RTVSPropertyOp5
 70
     1
102
RTVSPropertyOp6
 70
     1
102
RTVSPropertyOp7
 70
     1
102
RTVSPropertyOp8
 70
     1
102
RTVSPropertyOp9
 70
     1
102
RTVSPropertyOp10
 70
     1
102
RTVSPropertyOp11
 70
     1
102
RTVSPropertyOp12
 70
     1
102
RTVSPropertyOp13
 70
     1
102
RTVSPropertyOp14
 70
     1
102
RTVSPropertyOp15
 70
     1
102
RTVSPropertyOp16
 70
     1
102
RTVSPropertyOp17
 70
     1
102
RTVSPropertyOp18
 70
     1
102
RTVSPropertyOp19
 70
     1
102
RTVSPropertyOp20
 70
     1
102
RTVSPropertyOp21
 70
     1
102
RTVSPropertyOp22
 70
     1
102
RTVSPropertyOp23
 70
     1
102
RTVSPropertyOp24
 70
     1
102
RTVSPropertyOp25
 70
     1
102
RTVSPropertyOp26
 70
     1
102
RTVSPropertyOp27
 70
     1
102
RTVSPropertyOp28
 70
     1
102
RTVSPropertyOp29
 70
     1
102
RTVSPropertyOp30
 70
     1
102
RTVSPropertyOp31
 70
     1
102
RTVSPropertyOp32
 70
     1
  0
XRECORD
  5
78D
102
{ACAD_REACTORS
330
78C
102
}
330
78C
100
AcDbXrecord
280
     1
102
RTVSPropertyOp0
 70
     1
102
RTVSPropertyOp1
 70
     1
102
RTVSPropertyOp2
 70
     1
102
RTVSPropertyOp3
 70
     1
102
RTVSPropertyOp4
 70
     1
102
RTVSPropertyOp5
 70
     1
102
RTVSPropertyOp6
 70
     1
102
RTVSPropertyOp7
 70
     1
102
RTVSPropertyOp8
 70
     1
102
RTVSPropertyOp9
 70
     1
102
RTVSPropertyOp10
 70
     1
102
RTVSPropertyOp11
 70
     1
102
RTVSPropertyOp12
 70
     1
102
RTVSPropertyOp13
 70
     1
102
RTVSPropertyOp14
 70
     1
102
RTVSPropertyOp15
 70
     1
102
RTVSPropertyOp16
 70
     1
102
RTVSPropertyOp17
 70
     1
102
RTVSPropertyOp18
 70
     1
102
RTVSPropertyOp19
 70
     1
102
RTVSPropertyOp20
 70
     1
102
RTVSPropertyOp21
 70
     1
102
RTVSPropertyOp22
 70
     1
102
RTVSPropertyOp23
 70
     1
102
RTVSPropertyOp24
 70
     1
102
RTVSPropertyOp25
 70
     1
102
RTVSPropertyOp26
 70
     1
102
RTVSPropertyOp27
 70
     1
102
RTVSPropertyOp28
 70
     1
102
RTVSPropertyOp29
 70
     1
102
RTVSPropertyOp30
 70
     1
102
RTVSPropertyOp31
 70
     1
102
RTVSPropertyOp32
 70
     1
  0
XRECORD
  5
78F
102
{ACAD_REACTORS
330
78E
102
}
330
78E
100
AcDbXrecord
280
     1
102
RTVSPropertyOp0
 70
     1
102
RTVSPropertyOp1
 70
     1
102
RTVSPropertyOp2
 70
     1
102
RTVSPropertyOp3
 70
     1
102
RTVSPropertyOp4
 70
     1
102
RTVSPropertyOp5
 70
     1
102
RTVSPropertyOp6
 70
     1
102
RTVSPropertyOp7
 70
     1
102
RTVSPropertyOp8
 70
     1
102
RTVSPropertyOp9
 70
     1
102
RTVSPropertyOp10
 70
     1
102
RTVSPropertyOp11
 70
     1
102
RTVSPropertyOp12
 70
     1
102
RTVSPropertyOp13
 70
     1
102
RTVSPropertyOp14
 70
     1
102
RTVSPropertyOp15
 70
     1
102
RTVSPropertyOp16
 70
     1
102
RTVSPropertyOp17
 70
     1
102
RTVSPropertyOp18
 70
     1
102
RTVSPropertyOp19
 70
     1
102
RTVSPropertyOp20
 70
     1
102
RTVSPropertyOp21
 70
     1
102
RTVSPropertyOp22
 70
     1
102
RTVSPropertyOp23
 70
     1
102
RTVSPropertyOp24
 70
     1
102
RTVSPropertyOp25
 70
     1
102
RTVSPropertyOp26
 70
     1
102
RTVSPropertyOp27
 70
     1
102
RTVSPropertyOp28
 70
     1
102
RTVSPropertyOp29
 70
     1
102
RTVSPropertyOp30
 70
     1
102
RTVSPropertyOp31
 70
     1
102
RTVSPropertyOp32
 70
     1
  0
XRECORD
  5
791
102
{ACAD_REACTORS
330
790
102
}
330
790
100
AcDbXrecord
280
     1
102
RTVSPropertyOp0
 70
     1
102
RTVSPropertyOp1
 70
     1
102
RTVSPropertyOp2
 70
     1
102
RTVSPropertyOp3
 70
     1
102
RTVSPropertyOp4
 70
     1
102
RTVSPropertyOp5
 70
     1
102
RTVSPropertyOp6
 70
     1
102
RTVSPropertyOp7
 70
     1
102
RTVSPropertyOp8
 70
     1
102
RTVSPropertyOp9
 70
     1
102
RTVSPropertyOp10
 70
     1
102
RTVSPropertyOp11
 70
     1
102
RTVSPropertyOp12
 70
     1
102
RTVSPropertyOp13
 70
     1
102
RTVSPropertyOp14
 70
     1
102
RTVSPropertyOp15
 70
     1
102
RTVSPropertyOp16
 70
     1
102
RTVSPropertyOp17
 70
     1
102
RTVSPropertyOp18
 70
     1
102
RTVSPropertyOp19
 70
     1
102
RTVSPropertyOp20
 70
     1
102
RTVSPropertyOp21
 70
     1
102
RTVSPropertyOp22
 70
     1
102
RTVSPropertyOp23
 70
     1
102
RTVSPropertyOp24
 70
     1
102
RTVSPropertyOp25
 70
     1
102
RTVSPropertyOp26
 70
     1
102
RTVSPropertyOp27
 70
     1
102
RTVSPropertyOp28
 70
     1
102
RTVSPropertyOp29
 70
     1
102
RTVSPropertyOp30
 70
     1
102
RTVSPropertyOp31
 70
     1
102
RTVSPropertyOp32
 70
     1
  0
XRECORD
  5
799
102
{ACAD_REACTORS
330
798
102
}
330
798
100
AcDbXrecord
280
     1
102
RTVSPropertyOp0
 70
     1
102
RTVSPropertyOp1
 70
     1
102
RTVSPropertyOp2
 70
     1
102
RTVSPropertyOp3
 70
     1
102
RTVSPropertyOp4
 70
     1
102
RTVSPropertyOp5
 70
     1
102
RTVSPropertyOp6
 70
     1
102
RTVSPropertyOp7
 70
     1
102
RTVSPropertyOp8
 70
     1
102
RTVSPropertyOp9
 70
     1
102
RTVSPropertyOp10
 70
     1
102
RTVSPropertyOp11
 70
     1
102
RTVSPropertyOp12
 70
     1
102
RTVSPropertyOp13
 70
     1
102
RTVSPropertyOp14
 70
     1
102
RTVSPropertyOp15
 70
     1
102
RTVSPropertyOp16
 70
     1
102
RTVSPropertyOp17
 70
     1
102
RTVSPropertyOp18
 70
     1
102
RTVSPropertyOp19
 70
     1
102
RTVSPropertyOp20
 70
     1
102
RTVSPropertyOp21
 70
     1
102
RTVSPropertyOp22
 70
     1
102
RTVSPropertyOp23
 70
     1
102
RTVSPropertyOp24
 70
     1
102
RTVSPropertyOp25
 70
     1
102
RTVSPropertyOp26
 70
     1
102
RTVSPropertyOp27
 70
     1
102
RTVSPropertyOp28
 70
     1
102
RTVSPropertyOp29
 70
     1
102
RTVSPropertyOp30
 70
     1
102
RTVSPropertyOp31
 70
     1
102
RTVSPropertyOp32
 70
     1
  0
XRECORD
  5
7B5
102
{ACAD_REACTORS
330
7B4
102
}
330
7B4
100
AcDbXrecord
280
     1
102
RTVSPropertyOp0
 70
     0
102
RTVSPropertyOp1
 70
     0
102
RTVSPropertyOp2
 70
     0
102
RTVSPropertyOp3
 70
     0
102
RTVSPropertyOp4
 70
     0
102
RTVSPropertyOp5
 70
     0
102
RTVSPropertyOp6
 70
     0
102
RTVSPropertyOp7
 70
     0
102
RTVSPropertyOp8
 70
     0
102
RTVSPropertyOp9
 70
     0
102
RTVSPropertyOp10
 70
     0
102
RTVSPropertyOp11
 70
     0
102
RTVSPropertyOp12
 70
     0
102
RTVSPropertyOp13
 70
     0
102
RTVSPropertyOp14
 70
     2
102
RTVSPropertyOp15
 70
     0
102
RTVSPropertyOp16
 70
     0
102
RTVSPropertyOp17
 70
     0
102
RTVSPropertyOp18
 70
     0
102
RTVSPropertyOp19
 70
     0
102
RTVSPropertyOp20
 70
     0
102
RTVSPropertyOp21
 70
     0
102
RTVSPropertyOp22
 70
     0
102
RTVSPropertyOp23
 70
     0
102
RTVSPropertyOp24
 70
     0
102
RTVSPropertyOp25
 70
     0
102
RTVSPropertyOp26
 70
     0
102
RTVSPropertyOp27
 70
     0
102
RTVSPropertyOp28
 70
     0
102
RTVSPropertyOp29
 70
     0
102
RTVSPropertyOp30
 70
     0
102
RTVSPropertyOp31
 70
     0
102
RTVSPropertyOp32
 70
     0
  0
XRECORD
  5
7A5
102
{ACAD_REACTORS
330
7A4
102
}
330
7A4
100
AcDbXrecord
280
     1
102
RTVSPropertyOp0
 70
     1
102
RTVSPropertyOp1
 70
     1
102
RTVSPropertyOp2
 70
     1
102
RTVSPropertyOp3
 70
     1
102
RTVSPropertyOp4
 70
     1
102
RTVSPropertyOp5
 70
     1
102
RTVSPropertyOp6
 70
     1
102
RTVSPropertyOp7
 70
     1
102
RTVSPropertyOp8
 70
     1
102
RTVSPropertyOp9
 70
     1
102
RTVSPropertyOp10
 70
     1
102
RTVSPropertyOp11
 70
     1
102
RTVSPropertyOp12
 70
     1
102
RTVSPropertyOp13
 70
     1
102
RTVSPropertyOp14
 70
     1
102
RTVSPropertyOp15
 70
     1
102
RTVSPropertyOp16
 70
     1
102
RTVSPropertyOp17
 70
     1
102
RTVSPropertyOp18
 70
     1
102
RTVSPropertyOp19
 70
     1
102
RTVSPropertyOp20
 70
     1
102
RTVSPropertyOp21
 70
     1
102
RTVSPropertyOp22
 70
     1
102
RTVSPropertyOp23
 70
     1
102
RTVSPropertyOp24
 70
     1
102
RTVSPropertyOp25
 70
     1
102
RTVSPropertyOp26
 70
     1
102
RTVSPropertyOp27
 70
     1
102
RTVSPropertyOp28
 70
     1
102
RTVSPropertyOp29
 70
     1
102
RTVSPropertyOp30
 70
     1
102
RTVSPropertyOp31
 70
     1
102
RTVSPropertyOp32
 70
     1
  0
XRECORD
  5
7B7
102
{ACAD_REACTORS
330
7B6
102
}
330
7B6
100
AcDbXrecord
280
     1
102
RTVSPropertyOp0
 70
     0
102
RTVSPropertyOp1
 70
     0
102
RTVSPropertyOp2
 70
     0
102
RTVSPropertyOp3
 70
     0
102
RTVSPropertyOp4
 70
     0
102
RTVSPropertyOp5
 70
     0
102
RTVSPropertyOp6
 70
     0
102
RTVSPropertyOp7
 70
     0
102
RTVSPropertyOp8
 70
     0
102
RTVSPropertyOp9
 70
     0
102
RTVSPropertyOp10
 70
     0
102
RTVSPropertyOp11
 70
     0
102
RTVSPropertyOp12
 70
     0
102
RTVSPropertyOp13
 70
     0
102
RTVSPropertyOp14
 70
     2
102
RTVSPropertyOp15
 70
     0
102
RTVSPropertyOp16
 70
     0
102
RTVSPropertyOp17
 70
     0
102
RTVSPropertyOp18
 70
     0
102
RTVSPropertyOp19
 70
     0
102
RTVSPropertyOp20
 70
     0
102
RTVSPropertyOp21
 70
     0
102
RTVSPropertyOp22
 70
     0
102
RTVSPropertyOp23
 70
     0
102
RTVSPropertyOp24
 70
     0
102
RTVSPropertyOp25
 70
     0
102
RTVSPropertyOp26
 70
     0
102
RTVSPropertyOp27
 70
     0
102
RTVSPropertyOp28
 70
     0
102
RTVSPropertyOp29
 70
     0
102
RTVSPropertyOp30
 70
     0
102
RTVSPropertyOp31
 70
     0
102
RTVSPropertyOp32
 70
     0
  0
XRECORD
  5
79D
102
{ACAD_REACTORS
330
79C
102
}
330
79C
100
AcDbXrecord
280
     1
102
RTVSPropertyOp0
 70
     1
102
RTVSPropertyOp1
 70
     1
102
RTVSPropertyOp2
 70
     1
102
RTVSPropertyOp3
 70
     1
102
RTVSPropertyOp4
 70
     1
102
RTVSPropertyOp5
 70
     1
102
RTVSPropertyOp6
 70
     1
102
RTVSPropertyOp7
 70
     1
102
RTVSPropertyOp8
 70
     1
102
RTVSPropertyOp9
 70
     1
102
RTVSPropertyOp10
 70
     1
102
RTVSPropertyOp11
 70
     1
102
RTVSPropertyOp12
 70
     1
102
RTVSPropertyOp13
 70
     1
102
RTVSPropertyOp14
 70
     1
102
RTVSPropertyOp15
 70
     1
102
RTVSPropertyOp16
 70
     1
102
RTVSPropertyOp17
 70
     1
102
RTVSPropertyOp18
 70
     1
102
RTVSPropertyOp19
 70
     1
102
RTVSPropertyOp20
 70
     1
102
RTVSPropertyOp21
 70
     1
102
RTVSPropertyOp22
 70
     1
102
RTVSPropertyOp23
 70
     1
102
RTVSPropertyOp24
 70
     1
102
RTVSPropertyOp25
 70
     1
102
RTVSPropertyOp26
 70
     1
102
RTVSPropertyOp27
 70
     1
102
RTVSPropertyOp28
 70
     1
102
RTVSPropertyOp29
 70
     1
102
RTVSPropertyOp30
 70
     1
102
RTVSPropertyOp31
 70
     1
102
RTVSPropertyOp32
 70
     1
  0
XRECORD
  5
7B3
102
{ACAD_REACTORS
330
7B2
102
}
330
7B2
100
AcDbXrecord
280
     1
102
RTVSPropertyOp0
 70
     1
102
RTVSPropertyOp1
 70
     1
102
RTVSPropertyOp2
 70
     1
102
RTVSPropertyOp3
 70
     1
102
RTVSPropertyOp4
 70
     1
102
RTVSPropertyOp5
 70
     1
102
RTVSPropertyOp6
 70
     1
102
RTVSPropertyOp7
 70
     1
102
RTVSPropertyOp8
 70
     1
102
RTVSPropertyOp9
 70
     1
102
RTVSPropertyOp10
 70
     1
102
RTVSPropertyOp11
 70
     1
102
RTVSPropertyOp12
 70
     1
102
RTVSPropertyOp13
 70
     1
102
RTVSPropertyOp14
 70
     1
102
RTVSPropertyOp15
 70
     1
102
RTVSPropertyOp16
 70
     1
102
RTVSPropertyOp17
 70
     1
102
RTVSPropertyOp18
 70
     1
102
RTVSPropertyOp19
 70
     1
102
RTVSPropertyOp20
 70
     1
102
RTVSPropertyOp21
 70
     1
102
RTVSPropertyOp22
 70
     1
102
RTVSPropertyOp23
 70
     1
102
RTVSPropertyOp24
 70
     1
102
RTVSPropertyOp25
 70
     1
102
RTVSPropertyOp26
 70
     1
102
RTVSPropertyOp27
 70
     1
102
RTVSPropertyOp28
 70
     1
102
RTVSPropertyOp29
 70
     1
102
RTVSPropertyOp30
 70
     1
102
RTVSPropertyOp31
 70
     1
102
RTVSPropertyOp32
 70
     1
  0
XRECORD
  5
7B1
102
{ACAD_REACTORS
330
7B0
102
}
330
7B0
100
AcDbXrecord
280
     1
102
RTVSPropertyOp0
 70
     1
102
RTVSPropertyOp1
 70
     1
102
RTVSPropertyOp2
 70
     1
102
RTVSPropertyOp3
 70
     1
102
RTVSPropertyOp4
 70
     1
102
RTVSPropertyOp5
 70
     1
102
RTVSPropertyOp6
 70
     1
102
RTVSPropertyOp7
 70
     1
102
RTVSPropertyOp8
 70
     1
102
RTVSPropertyOp9
 70
     1
102
RTVSPropertyOp10
 70
     1
102
RTVSPropertyOp11
 70
     1
102
RTVSPropertyOp12
 70
     1
102
RTVSPropertyOp13
 70
     1
102
RTVSPropertyOp14
 70
     1
102
RTVSPropertyOp15
 70
     1
102
RTVSPropertyOp16
 70
     1
102
RTVSPropertyOp17
 70
     1
102
RTVSPropertyOp18
 70
     1
102
RTVSPropertyOp19
 70
     1
102
RTVSPropertyOp20
 70
     1
102
RTVSPropertyOp21
 70
     1
102
RTVSPropertyOp22
 70
     1
102
RTVSPropertyOp23
 70
     1
102
RTVSPropertyOp24
 70
     1
102
RTVSPropertyOp25
 70
     1
102
RTVSPropertyOp26
 70
     1
102
RTVSPropertyOp27
 70
     1
102
RTVSPropertyOp28
 70
     1
102
RTVSPropertyOp29
 70
     1
102
RTVSPropertyOp30
 70
     1
102
RTVSPropertyOp31
 70
     1
102
RTVSPropertyOp32
 70
     1
  0
XRECORD
  5
7AB
102
{ACAD_REACTORS
330
7AA
102
}
330
7AA
100
AcDbXrecord
280
     1
102
RTVSPropertyOp0
 70
     1
102
RTVSPropertyOp1
 70
     1
102
RTVSPropertyOp2
 70
     1
102
RTVSPropertyOp3
 70
     1
102
RTVSPropertyOp4
 70
     1
102
RTVSPropertyOp5
 70
     1
102
RTVSPropertyOp6
 70
     1
102
RTVSPropertyOp7
 70
     1
102
RTVSPropertyOp8
 70
     1
102
RTVSPropertyOp9
 70
     1
102
RTVSPropertyOp10
 70
     1
102
RTVSPropertyOp11
 70
     1
102
RTVSPropertyOp12
 70
     1
102
RTVSPropertyOp13
 70
     1
102
RTVSPropertyOp14
 70
     1
102
RTVSPropertyOp15
 70
     1
102
RTVSPropertyOp16
 70
     1
102
RTVSPropertyOp17
 70
     1
102
RTVSPropertyOp18
 70
     1
102
RTVSPropertyOp19
 70
     1
102
RTVSPropertyOp20
 70
     1
102
RTVSPropertyOp21
 70
     1
102
RTVSPropertyOp22
 70
     1
102
RTVSPropertyOp23
 70
     1
102
RTVSPropertyOp24
 70
     1
102
RTVSPropertyOp25
 70
     1
102
RTVSPropertyOp26
 70
     1
102
RTVSPropertyOp27
 70
     1
102
RTVSPropertyOp28
 70
     1
102
RTVSPropertyOp29
 70
     1
102
RTVSPropertyOp30
 70
     1
102
RTVSPropertyOp31
 70
     1
102
RTVSPropertyOp32
 70
     1
  0
XRECORD
  5
7AD
102
{ACAD_REACTORS
330
7AC
102
}
330
7AC
100
AcDbXrecord
280
     1
102
RTVSPropertyOp0
 70
     1
102
RTVSPropertyOp1
 70
     1
102
RTVSPropertyOp2
 70
     1
102
RTVSPropertyOp3
 70
     1
102
RTVSPropertyOp4
 70
     1
102
RTVSPropertyOp5
 70
     1
102
RTVSPropertyOp6
 70
     1
102
RTVSPropertyOp7
 70
     1
102
RTVSPropertyOp8
 70
     1
102
RTVSPropertyOp9
 70
     1
102
RTVSPropertyOp10
 70
     1
102
RTVSPropertyOp11
 70
     1
102
RTVSPropertyOp12
 70
     1
102
RTVSPropertyOp13
 70
     1
102
RTVSPropertyOp14
 70
     1
102
RTVSPropertyOp15
 70
     1
102
RTVSPropertyOp16
 70
     1
102
RTVSPropertyOp17
 70
     1
102
RTVSPropertyOp18
 70
     1
102
RTVSPropertyOp19
 70
     1
102
RTVSPropertyOp20
 70
     1
102
RTVSPropertyOp21
 70
     1
102
RTVSPropertyOp22
 70
     1
102
RTVSPropertyOp23
 70
     1
102
RTVSPropertyOp24
 70
     1
102
RTVSPropertyOp25
 70
     1
102
RTVSPropertyOp26
 70
     1
102
RTVSPropertyOp27
 70
     1
102
RTVSPropertyOp28
 70
     1
102
RTVSPropertyOp29
 70
     1
102
RTVSPropertyOp30
 70
     1
102
RTVSPropertyOp31
 70
     1
102
RTVSPropertyOp32
 70
     1
  0
XRECORD
  5
7A3
102
{ACAD_REACTORS
330
7A2
102
}
330
7A2
100
AcDbXrecord
280
     1
102
RTVSPropertyOp0
 70
     1
102
RTVSPropertyOp1
 70
     1
102
RTVSPropertyOp2
 70
     1
102
RTVSPropertyOp3
 70
     1
102
RTVSPropertyOp4
 70
     1
102
RTVSPropertyOp5
 70
     1
102
RTVSPropertyOp6
 70
     1
102
RTVSPropertyOp7
 70
     1
102
RTVSPropertyOp8
 70
     1
102
RTVSPropertyOp9
 70
     1
102
RTVSPropertyOp10
 70
     1
102
RTVSPropertyOp11
 70
     1
102
RTVSPropertyOp12
 70
     1
102
RTVSPropertyOp13
 70
     1
102
RTVSPropertyOp14
 70
     1
102
RTVSPropertyOp15
 70
     1
102
RTVSPropertyOp16
 70
     1
102
RTVSPropertyOp17
 70
     1
102
RTVSPropertyOp18
 70
     1
102
RTVSPropertyOp19
 70
     1
102
RTVSPropertyOp20
 70
     1
102
RTVSPropertyOp21
 70
     1
102
RTVSPropertyOp22
 70
     1
102
RTVSPropertyOp23
 70
     1
102
RTVSPropertyOp24
 70
     1
102
RTVSPropertyOp25
 70
     1
102
RTVSPropertyOp26
 70
     1
102
RTVSPropertyOp27
 70
     1
102
RTVSPropertyOp28
 70
     1
102
RTVSPropertyOp29
 70
     1
102
RTVSPropertyOp30
 70
     1
102
RTVSPropertyOp31
 70
     1
102
RTVSPropertyOp32
 70
     1
  0
XRECORD
  5
797
102
{ACAD_REACTORS
330
796
102
}
330
796
100
AcDbXrecord
280
     1
102
RTVSPropertyOp0
 70
     1
102
RTVSPropertyOp1
 70
     1
102
RTVSPropertyOp2
 70
     1
102
RTVSPropertyOp3
 70
     1
102
RTVSPropertyOp4
 70
     1
102
RTVSPropertyOp5
 70
     1
102
RTVSPropertyOp6
 70
     1
102
RTVSPropertyOp7
 70
     1
102
RTVSPropertyOp8
 70
     1
102
RTVSPropertyOp9
 70
     1
102
RTVSPropertyOp10
 70
     1
102
RTVSPropertyOp11
 70
     1
102
RTVSPropertyOp12
 70
     1
102
RTVSPropertyOp13
 70
     1
102
RTVSPropertyOp14
 70
     1
102
RTVSPropertyOp15
 70
     1
102
RTVSPropertyOp16
 70
     1
102
RTVSPropertyOp17
 70
     1
102
RTVSPropertyOp18
 70
     1
102
RTVSPropertyOp19
 70
     1
102
RTVSPropertyOp20
 70
     1
102
RTVSPropertyOp21
 70
     1
102
RTVSPropertyOp22
 70
     1
102
RTVSPropertyOp23
 70
     1
102
RTVSPropertyOp24
 70
     1
102
RTVSPropertyOp25
 70
     1
102
RTVSPropertyOp26
 70
     1
102
RTVSPropertyOp27
 70
     1
102
RTVSPropertyOp28
 70
     1
102
RTVSPropertyOp29
 70
     1
102
RTVSPropertyOp30
 70
     1
102
RTVSPropertyOp31
 70
     1
102
RTVSPropertyOp32
 70
     1
  0
XRECORD
  5
7AF
102
{ACAD_REACTORS
330
7AE
102
}
330
7AE
100
AcDbXrecord
280
     1
102
RTVSPropertyOp0
 70
     1
102
RTVSPropertyOp1
 70
     1
102
RTVSPropertyOp2
 70
     1
102
RTVSPropertyOp3
 70
     1
102
RTVSPropertyOp4
 70
     1
102
RTVSPropertyOp5
 70
     1
102
RTVSPropertyOp6
 70
     1
102
RTVSPropertyOp7
 70
     1
102
RTVSPropertyOp8
 70
     1
102
RTVSPropertyOp9
 70
     1
102
RTVSPropertyOp10
 70
     1
102
RTVSPropertyOp11
 70
     1
102
RTVSPropertyOp12
 70
     1
102
RTVSPropertyOp13
 70
     1
102
RTVSPropertyOp14
 70
     1
102
RTVSPropertyOp15
 70
     1
102
RTVSPropertyOp16
 70
     1
102
RTVSPropertyOp17
 70
     1
102
RTVSPropertyOp18
 70
     1
102
RTVSPropertyOp19
 70
     1
102
RTVSPropertyOp20
 70
     1
102
RTVSPropertyOp21
 70
     1
102
RTVSPropertyOp22
 70
     1
102
RTVSPropertyOp23
 70
     1
102
RTVSPropertyOp24
 70
     1
102
RTVSPropertyOp25
 70
     1
102
RTVSPropertyOp26
 70
     1
102
RTVSPropertyOp27
 70
     1
102
RTVSPropertyOp28
 70
     1
102
RTVSPropertyOp29
 70
     1
102
RTVSPropertyOp30
 70
     1
102
RTVSPropertyOp31
 70
     1
102
RTVSPropertyOp32
 70
     1
  0
ENDSEC
  0
EOF
