  0
SECTION
  2
HEADER
  9
$ACADVER
  1
AC1015
  9
$ACADMAINTVER
 70
    20
  9
$DWGCODEPAGE
  3
ANSI_932
  9
$INSBASE
 10
0.0
 20
0.0
 30
0.0
  9
$EXTMIN
 10
388.188487
 20
15.14285699999999
 30
0.0
  9
$EXTMAX
 10
793.188487
 20
289.198219
 30
0.0
  9
$LIMMIN
 10
388.187477
 20
15.141858
  9
$LIMMAX
 10
793.2153549999997
 20
289.199212
  9
$ORTHOMODE
 70
     1
  9
$REGENMODE
 70
     1
  9
$FILLMODE
 70
     1
  9
$QTEXTMODE
 70
     0
  9
$MIRRTEXT
 70
     0
  9
$LTSCALE
 40
6.750430999999998
  9
$ATTMODE
 70
     1
  9
$TEXTSIZE
 40
3.2
  9
$TRACEWID
 40
0.05
  9
$TEXTSTYLE
  7
高3.2
  9
$CLAYER
  8
0
  9
$CELTYPE
  6
CONTINUOUS
  9
$CECOLOR
 62
   256
  9
$CELTSCALE
 40
1.0
  9
$DISPSILH
 70
     0
  9
$DIMSCALE
 40
1.0
  9
$DIMASZ
 40
2.5
  9
$DIMEXO
 40
0.25
  9
$DIMDLI
 40
0.2
  9
$DIMRND
 40
0.0
  9
$DIMDLE
 40
0.0
  9
$DIMEXE
 40
1.25
  9
$DIMTP
 40
0.0
  9
$DIMTM
 40
0.0
  9
$DIMTXT
 40
3.0
  9
$DIMCEN
 40
0.0
  9
$DIMTSZ
 40
0.0
  9
$DIMTOL
 70
     0
  9
$DIMLIM
 70
     0
  9
$DIMTIH
 70
     0
  9
$DIMTOH
 70
     0
  9
$DIMSE1
 70
     0
  9
$DIMSE2
 70
     0
  9
$DIMTAD
 70
     3
  9
$DIMZIN
 70
     8
  9
$DIMBLK
  1
Open30
  9
$DIMASO
 70
     1
  9
$DIMSHO
 70
     1
  9
$DIMPOST
  1

  9
$DIMAPOST
  1

  9
$DIMALT
 70
     0
  9
$DIMALTD
 70
     3
  9
$DIMALTF
 40
0.03937007874016
  9
$DIMLFAC
 40
1.0
  9
$DIMTOFL
 70
     1
  9
$DIMTVP
 40
0.0
  9
$DIMTIX
 70
     0
  9
$DIMSOXD
 70
     0
  9
$DIMSAH
 70
     0
  9
$DIMBLK1
  1

  9
$DIMBLK2
  1

  9
$DIMSTYLE
  2
FREE
  9
$DIMCLRD
 70
     0
  9
$DIMCLRE
 70
     0
  9
$DIMCLRT
 70
     4
  9
$DIMTFAC
 40
1.0
  9
$DIMGAP
 40
0.625
  9
$DIMJUST
 70
     0
  9
$DIMSD1
 70
     0
  9
$DIMSD2
 70
     0
  9
$DIMTOLJ
 70
     0
  9
$DIMTZIN
 70
     8
  9
$DIMALTZ
 70
     0
  9
$DIMALTTZ
 70
     0
  9
$DIMUPT
 70
     1
  9
$DIMDEC
 70
     2
  9
$DIMTDEC
 70
     2
  9
$DIMALTU
 70
     2
  9
$DIMALTTD
 70
     3
  9
$DIMTXSTY
  7
STANDARD
  9
$DIMAUNIT
 70
     0
  9
$DIMADEC
 70
     1
  9
$DIMALTRND
 40
0.0
  9
$DIMAZIN
 70
     2
  9
$DIMDSEP
 70
    46
  9
$DIMATFIT
 70
     0
  9
$DIMFRAC
 70
     0
  9
$DIMLDRBLK
  1
Open30
  9
$DIMLUNIT
 70
     2
  9
$DIMLWD
 70
    -2
  9
$DIMLWE
 70
    -2
  9
$DIMTMOVE
 70
     0
  9
$LUNITS
 70
     2
  9
$LUPREC
 70
     4
  9
$SKETCHINC
 40
0.1
  9
$FILLETRAD
 40
0.0
  9
$AUNITS
 70
     0
  9
$AUPREC
 70
     0
  9
$MENU
  1
.
  9
$ELEVATION
 40
0.0
  9
$PELEVATION
 40
0.0
  9
$THICKNESS
 40
0.0
  9
$LIMCHECK
 70
     0
  9
$CHAMFERA
 40
0.0
  9
$CHAMFERB
 40
0.0
  9
$CHAMFERC
 40
0.0
  9
$CHAMFERD
 40
0.0
  9
$SKPOLY
 70
     0
  9
$TDCREATE
 40
2456350.813002349
  9
$TDUCREATE
 40
2456350.438002349
  9
$TDUPDATE
 40
2456868.849625579
  9
$TDUUPDATE
 40
2456868.474625579
  9
$TDINDWG
 40
0.0149386343
  9
$TDUSRTIMER
 40
0.0149386343
  9
$USRTIMER
 70
     1
  9
$ANGBASE
 50
0.0
  9
$ANGDIR
 70
     0
  9
$PDMODE
 70
     0
  9
$PDSIZE
 40
0.0
  9
$PLINEWID
 40
0.0
  9
$SPLFRAME
 70
     0
  9
$SPLINETYPE
 70
     6
  9
$SPLINESEGS
 70
     8
  9
$HANDSEED
  5
82A
  9
$SURFTAB1
 70
     6
  9
$SURFTAB2
 70
     6
  9
$SURFTYPE
 70
     6
  9
$SURFU
 70
     6
  9
$SURFV
 70
     6
  9
$UCSBASE
  2

  9
$UCSNAME
  2

  9
$UCSORG
 10
0.0
 20
0.0
 30
0.0
  9
$UCSXDIR
 10
1.0
 20
0.0
 30
0.0
  9
$UCSYDIR
 10
0.0
 20
1.0
 30
0.0
  9
$UCSORTHOREF
  2

  9
$UCSORTHOVIEW
 70
     0
  9
$UCSORGTOP
 10
0.0
 20
0.0
 30
0.0
  9
$UCSORGBOTTOM
 10
0.0
 20
0.0
 30
0.0
  9
$UCSORGLEFT
 10
0.0
 20
0.0
 30
0.0
  9
$UCSORGRIGHT
 10
0.0
 20
0.0
 30
0.0
  9
$UCSORGFRONT
 10
0.0
 20
0.0
 30
0.0
  9
$UCSORGBACK
 10
0.0
 20
0.0
 30
0.0
  9
$PUCSBASE
  2

  9
$PUCSNAME
  2

  9
$PUCSORG
 10
0.0
 20
0.0
 30
0.0
  9
$PUCSXDIR
 10
1.0
 20
0.0
 30
0.0
  9
$PUCSYDIR
 10
0.0
 20
1.0
 30
0.0
  9
$PUCSORTHOREF
  2

  9
$PUCSORTHOVIEW
 70
     0
  9
$PUCSORGTOP
 10
0.0
 20
0.0
 30
0.0
  9
$PUCSORGBOTTOM
 10
0.0
 20
0.0
 30
0.0
  9
$PUCSORGLEFT
 10
0.0
 20
0.0
 30
0.0
  9
$PUCSORGRIGHT
 10
0.0
 20
0.0
 30
0.0
  9
$PUCSORGFRONT
 10
0.0
 20
0.0
 30
0.0
  9
$PUCSORGBACK
 10
0.0
 20
0.0
 30
0.0
  9
$USERI1
 70
     0
  9
$USERI2
 70
     0
  9
$USERI3
 70
     0
  9
$USERI4
 70
     0
  9
$USERI5
 70
     0
  9
$USERR1
 40
0.0
  9
$USERR2
 40
0.0
  9
$USERR3
 40
0.0
  9
$USERR4
 40
0.0
  9
$USERR5
 40
0.0
  9
$WORLDVIEW
 70
     1
  9
$SHADEDGE
 70
     3
  9
$SHADEDIF
 70
    70
  9
$TILEMODE
 70
     1
  9
$MAXACTVP
 70
    64
  9
$PINSBASE
 10
0.0
 20
0.0
 30
0.0
  9
$PLIMCHECK
 70
     0
  9
$PEXTMIN
 10
1.000000000000000E+20
 20
1.000000000000000E+20
 30
1.000000000000000E+20
  9
$PEXTMAX
 10
-1.000000000000000E+20
 20
-1.000000000000000E+20
 30
-1.000000000000000E+20
  9
$PLIMMIN
 10
0.0
 20
0.0
  9
$PLIMMAX
 10
12.0
 20
9.0
  9
$UNITMODE
 70
     0
  9
$VISRETAIN
 70
     1
  9
$PLINEGEN
 70
     0
  9
$PSLTSCALE
 70
     1
  9
$TREEDEPTH
 70
  3020
  9
$CMLSTYLE
  2
Standard
  9
$CMLJUST
 70
     0
  9
$CMLSCALE
 40
1.0
  9
$PROXYGRAPHICS
 70
     1
  9
$MEASUREMENT
 70
     0
  9
$CELWEIGHT
370
    -1
  9
$ENDCAPS
280
     0
  9
$JOINSTYLE
280
     0
  9
$LWDISPLAY
290
     0
  9
$INSUNITS
 70
     0
  9
$HYPERLINKBASE
  1

  9
$STYLESHEET
  1

  9
$XEDIT
290
     1
  9
$CEPSNTYPE
380
     0
  9
$PSTYLEMODE
290
     1
  9
$FINGERPRINTGUID
  2
{D87B6B62-DC7E-44E7-834E-4E5845B52B95}
  9
$VERSIONGUID
  2
{B437AE79-4346-402A-8C9B-2455A9A5B741}
  9
$EXTNAMES
290
     1
  9
$PSVPSCALE
 40
0.0
  9
$OLESTARTUP
290
     0
  0
ENDSEC
  0
SECTION
  2
CLASSES
  0
CLASS
  1
ACDBDICTIONARYWDFLT
  2
AcDbDictionaryWithDefault
  3
ObjectDBX Classes
 90
        0
280
     0
281
     0
  0
CLASS
  1
MATERIAL
  2
AcDbMaterial
  3
ObjectDBX Classes
 90
     1153
280
     0
281
     0
  0
CLASS
  1
VISUALSTYLE
  2
AcDbVisualStyle
  3
ObjectDBX Classes
 90
     4095
280
     0
281
     0
  0
CLASS
  1
SCALE
  2
AcDbScale
  3
ObjectDBX Classes
 90
     1153
280
     0
281
     0
  0
CLASS
  1
TABLESTYLE
  2
AcDbTableStyle
  3
ObjectDBX Classes
 90
     4095
280
     0
281
     0
  0
CLASS
  1
MLEADERSTYLE
  2
AcDbMLeaderStyle
  3
ACDB_MLEADERSTYLE_CLASS
 90
     4095
280
     0
281
     0
  0
CLASS
  1
SORTENTSTABLE
  2
AcDbSortentsTable
  3
ObjectDBX Classes
 90
        0
280
     0
281
     0
  0
CLASS
  1
DICTIONARYVAR
  2
AcDbDictionaryVar
  3
ObjectDBX Classes
 90
        0
280
     0
281
     0
  0
CLASS
  1
CELLSTYLEMAP
  2
AcDbCellStyleMap
  3
ObjectDBX Classes
 90
     1152
280
     0
281
     0
  0
CLASS
  1
ACDBPLACEHOLDER
  2
AcDbPlaceHolder
  3
ObjectDBX Classes
 90
        0
280
     0
281
     0
  0
CLASS
  1
LAYOUT
  2
AcDbLayout
  3
ObjectDBX Classes
 90
        0
280
     0
281
     0
  0
ENDSEC
  0
SECTION
  2
TABLES
  0
TABLE
  2
VPORT
  5
8
330
0
100
AcDbSymbolTable
 70
     1
  0
VPORT
  5
8B
330
8
100
AcDbSymbolTableRecord
100
AcDbViewportTableRecord
  2
*Active
 70
     0
 10
0.0
 20
0.0
 11
1.0
 21
1.0
 12
811.1221748534697
 22
91.73357547897888
 13
0.0
 23
0.0
 14
1.0
 24
1.0
 15
0.0
 25
0.0
 16
0.0
 26
0.0
 36
1.0
 17
0.0
 27
0.0
 37
0.0
 40
791.1377955974169
 41
2.039337474120082
 42
50.0
 43
0.0
 44
0.0
 50
0.0
 51
0.0
 71
     0
 72
   100
 73
     1
 74
     1
 75
     0
 76
     0
 77
     0
 78
     0
281
     0
 65
     1
110
0.0
120
0.0
130
0.0
111
1.0
121
0.0
131
0.0
112
0.0
122
1.0
132
0.0
 79
     0
146
0.0
  0
ENDTAB
  0
TABLE
  2
LTYPE
  5
5
330
0
100
AcDbSymbolTable
 70
     1
  0
LTYPE
  5
5A
330
5
100
AcDbSymbolTableRecord
100
AcDbLinetypeTableRecord
  2
ByBlock
 70
     0
  3

 72
    65
 73
     0
 40
0.0
  0
LTYPE
  5
5B
330
5
100
AcDbSymbolTableRecord
100
AcDbLinetypeTableRecord
  2
ByLayer
 70
     0
  3

 72
    65
 73
     0
 40
0.0
  0
LTYPE
  5
5C
330
5
100
AcDbSymbolTableRecord
100
AcDbLinetypeTableRecord
  2
CONTINUOUS
 70
     0
  3
Solid-line
 72
    65
 73
     0
 40
0.0
  0
ENDTAB
  0
TABLE
  2
LAYER
  5
2
102
{ACAD_XDICTIONARY
360
544
102
}
330
0
100
AcDbSymbolTable
 70
     2
  0
LAYER
  5
54
102
{ACAD_XDICTIONARY
360
6F1
102
}
330
2
100
AcDbSymbolTableRecord
100
AcDbLayerTableRecord
  2
0
 70
     0
 62
     7
  6
CONTINUOUS
370
    -3
390
F
  0
LAYER
  5
52D
330
2
100
AcDbSymbolTableRecord
100
AcDbLayerTableRecord
  2
Defpoints
 70
     0
 62
     7
  6
CONTINUOUS
290
     0
370
    -3
390
F
  0
ENDTAB
  0
TABLE
  2
STYLE
  5
3
330
0
100
AcDbSymbolTable
 70
     5
  0
STYLE
  5
55
330
3
100
AcDbSymbolTableRecord
100
AcDbTextStyleTableRecord
  2
STANDARD
 70
     0
 40
0.0
 41
1.0
 50
0.0
 71
     0
 42
0.2
  3
TXT
  4
BIGFONT
  0
STYLE
  5
52E
330
3
100
AcDbSymbolTableRecord
100
AcDbTextStyleTableRecord
  2
高3.2
 70
     0
 40
3.2
 41
1.0
 50
0.0
 71
     0
 42
3.2
  3
txt.shx
  4
bigfont.shx
  0
STYLE
  5
52F
330
3
100
AcDbSymbolTableRecord
100
AcDbTextStyleTableRecord
  2
高6.3
 70
     0
 40
6.299999999999998
 41
1.0
 50
0.0
 71
     0
 42
6.299999999999998
  3
txt.shx
  4
bigfont.shx
  0
STYLE
  5
531
330
3
100
AcDbSymbolTableRecord
100
AcDbTextStyleTableRecord
  2
高4.5
 70
     0
 40
4.5
 41
1.0
 50
0.0
 71
     0
 42
6.299999999999998
  3
txt.shx
  4
bigfont.shx
  0
STYLE
  5
532
330
3
100
AcDbSymbolTableRecord
100
AcDbTextStyleTableRecord
  2
高2
 70
     0
 40
2.0
 41
1.0
 50
0.0
 71
     0
 42
2.0
  3
txt.shx
  4
bigfont.shx
  0
ENDTAB
  0
TABLE
  2
VIEW
  5
6
330
0
100
AcDbSymbolTable
 70
     0
  0
ENDTAB
  0
TABLE
  2
UCS
  5
7
330
0
100
AcDbSymbolTable
 70
     0
  0
ENDTAB
  0
TABLE
  2
APPID
  5
9
330
0
100
AcDbSymbolTable
 70
    10
  0
APPID
  5
56
330
9
100
AcDbSymbolTableRecord
100
AcDbRegAppTableRecord
  2
ACAD
 70
     0
  0
APPID
  5
5D
330
9
100
AcDbSymbolTableRecord
100
AcDbRegAppTableRecord
  2
AcadAnnotative
 70
     0
  0
APPID
  5
53D
330
9
100
AcDbSymbolTableRecord
100
AcDbRegAppTableRecord
  2
ACAD_DSTYLE_DIMJOGGED_JOGANGLE_SYMBOL
 70
     0
  0
APPID
  5
53E
330
9
100
AcDbSymbolTableRecord
100
AcDbRegAppTableRecord
  2
ACAD_DSTYLE_DIMJAG
 70
     0
  0
APPID
  5
53F
330
9
100
AcDbSymbolTableRecord
100
AcDbRegAppTableRecord
  2
ACAD_DSTYLE_DIMBREAK
 70
     0
  0
APPID
  5
540
330
9
100
AcDbSymbolTableRecord
100
AcDbRegAppTableRecord
  2
ACAD_DSTYLE_DIMTALN
 70
     0
  0
APPID
  5
684
330
9
100
AcDbSymbolTableRecord
100
AcDbRegAppTableRecord
  2
ACAD_EXEMPT_FROM_CAD_STANDARDS
 70
     0
  0
APPID
  5
737
330
9
100
AcDbSymbolTableRecord
100
AcDbRegAppTableRecord
  2
ACAD_MLEADERVER
 70
     0
  0
APPID
  5
73C
330
9
100
AcDbSymbolTableRecord
100
AcDbRegAppTableRecord
  2
ACAD_DSTYLE_DIMARC_LENGTH_SYMBOL
 70
     0
  0
APPID
  5
73D
330
9
100
AcDbSymbolTableRecord
100
AcDbRegAppTableRecord
  2
ACAD_DSTYLE_DIMEXT_LENGTH
 70
     0
  0
ENDTAB
  0
TABLE
  2
DIMSTYLE
  5
A
330
0
100
AcDbSymbolTable
 70
     2
100
AcDbDimStyleTable
 71
     1
340
53C
  0
DIMSTYLE
105
57
330
A
100
AcDbSymbolTableRecord
100
AcDbDimStyleTableRecord
  2
Standard
 70
     0
340
55
  0
DIMSTYLE
105
53C
330
A
100
AcDbSymbolTableRecord
100
AcDbDimStyleTableRecord
  2
FREE
 70
     0
 41
2.5
 42
0.25
 43
0.2
 44
1.25
 73
     0
 74
     0
 77
     3
 78
     8
 79
     2
140
3.0
141
0.0
143
0.03937007874016
147
0.625
171
     3
172
     1
178
     4
179
     1
271
     2
272
     2
274
     3
283
     0
284
     8
288
     1
289
     0
340
55
341
49D
342
49D
1001
ACAD_DSTYLE_DIMBREAK
1070
   391
1040
3.75
1001
ACAD_DSTYLE_DIMJAG
1070
   388
1040
1.5
1001
ACAD_DSTYLE_DIMTALN
1070
   392
1070
     0
1001
ACAD_DSTYLE_DIMARC_LENGTH_SYMBOL
1070
   379
1070
     2
1001
ACAD_DSTYLE_DIMEXT_LENGTH
1070
   378
1040
1.25
1001
ACAD_DSTYLE_DIMJOGGED_JOGANGLE_SYMBOL
1070
   384
1040
1.570796326794896
  0
ENDTAB
  0
TABLE
  2
BLOCK_RECORD
  5
1
330
0
100
AcDbSymbolTable
 70
     4
  0
BLOCK_RECORD
  5
6B
102
{ACAD_XDICTIONARY
360
7A9
102
}
330
1
100
AcDbSymbolTableRecord
100
AcDbBlockTableRecord
  2
*Model_Space
340
6E
  0
BLOCK_RECORD
  5
67
330
1
100
AcDbSymbolTableRecord
100
AcDbBlockTableRecord
  2
*Paper_Space
340
6A
  0
BLOCK_RECORD
  5
49D
330
1
100
AcDbSymbolTableRecord
100
AcDbBlockTableRecord
  2
_Open30
340
0
102
{BLKREFS
331
747
331
748
331
750
331
751
331
759
331
75A
102
}
  0
BLOCK_RECORD
  5
686
330
1
100
AcDbSymbolTableRecord
100
AcDbBlockTableRecord
  2
*D1
340
0
  0
BLOCK_RECORD
  5
693
330
1
100
AcDbSymbolTableRecord
100
AcDbBlockTableRecord
  2
*D2
340
0
  0
BLOCK_RECORD
  5
6A0
330
1
100
AcDbSymbolTableRecord
100
AcDbBlockTableRecord
  2
*D3
340
0
  0
ENDTAB
  0
ENDSEC
  0
SECTION
  2
BLOCKS
  0
BLOCK
  5
6C
330
6B
100
AcDbEntity
  8
0
100
AcDbBlockBegin
  2
*Model_Space
 70
     0
 10
0.0
 20
0.0
 30
0.0
  3
*Model_Space
  1

  0
ENDBLK
  5
6D
330
6B
100
AcDbEntity
  8
0
100
AcDbBlockEnd
  0
BLOCK
  5
68
330
67
100
AcDbEntity
 67
     1
  8
0
100
AcDbBlockBegin
  2
*Paper_Space
 70
     0
 10
0.0
 20
0.0
 30
0.0
  3
*Paper_Space
  1

  0
ENDBLK
  5
69
330
67
100
AcDbEntity
 67
     1
  8
0
100
AcDbBlockEnd
  0
BLOCK
  5
49E
330
49D
100
AcDbEntity
  8
0
100
AcDbBlockBegin
  2
_Open30
 70
     0
 10
0.0
 20
0.0
 30
0.0
  3
_Open30
  1

  0
LINE
  5
49F
330
49D
100
AcDbEntity
  8
0
  6
ByBlock
 62
     0
370
    -2
100
AcDbLine
 10
-1.0
 20
0.267949
 30
0.0
 11
0.0
 21
0.0
 31
0.0
  0
LINE
  5
4A0
330
49D
100
AcDbEntity
  8
0
  6
ByBlock
 62
     0
370
    -2
100
AcDbLine
 10
0.0
 20
0.0
 30
0.0
 11
-1.0
 21
-0.267949
 31
0.0
  0
LINE
  5
4A1
330
49D
100
AcDbEntity
  8
0
  6
ByBlock
 62
     0
370
    -2
100
AcDbLine
 10
0.0
 20
0.0
 30
0.0
 11
-1.0
 21
0.0
 31
0.0
  0
ENDBLK
  5
4A2
330
49D
100
AcDbEntity
  8
0
100
AcDbBlockEnd
  0
BLOCK
  5
687
330
686
100
AcDbEntity
  8
0
100
AcDbBlockBegin
  2
*D1
 70
     1
 10
0.0
 20
0.0
 30
0.0
  3
*D1
  1

  0
LINE
  5
756
330
686
100
AcDbEntity
  8
0
 62
     0
370
    -2
100
AcDbLine
 10
540.90413
 20
145.105449
 30
0.0
 11
540.90413
 21
130.791135
 31
0.0
  0
LINE
  5
757
330
686
100
AcDbEntity
  8
0
 62
     0
370
    -2
100
AcDbLine
 10
663.4041299999998
 20
145.105449
 30
0.0
 11
663.4041299999998
 21
130.791135
 31
0.0
  0
LINE
  5
758
330
686
100
AcDbEntity
  8
0
 62
     0
370
    -2
100
AcDbLine
 10
543.40413
 20
132.041135
 30
0.0
 11
660.9041299999999
 21
132.041135
 31
0.0
  0
INSERT
  5
759
330
686
100
AcDbEntity
  8
0
 62
     0
370
    -2
100
AcDbBlockReference
  2
_Open30
 10
540.90413
 20
132.041135
 30
0.0
 41
2.5
 42
2.5
 43
2.5
 50
180.0
  0
INSERT
  5
75A
330
686
100
AcDbEntity
  8
0
 62
     0
370
    -2
100
AcDbBlockReference
  2
_Open30
 10
663.4041299999998
 20
132.041135
 30
0.0
 41
2.5
 42
2.5
 43
2.5
  0
MTEXT
  5
75B
330
686
100
AcDbEntity
  8
0
 62
     4
100
AcDbMText
 10
602.1541299999999
 20
134.166135
 30
0.0
 40
3.0
 41
0.0
 71
     5
 72
     1
  1
175
 73
     1
 44
1.0
1001
ACAD
1000
MTEXTBEGIN
1070
    73
1070
     1
1070
    44
1040
1.0
1070
    74
1070
     0
1000
MTEXTEND
  0
POINT
  5
75C
330
686
100
AcDbEntity
  8
Defpoints
 62
     0
100
AcDbPoint
 10
540.90413
 20
145.355449
 30
0.0
  0
POINT
  5
75D
330
686
100
AcDbEntity
  8
Defpoints
 62
     0
100
AcDbPoint
 10
663.4041299999998
 20
145.355449
 30
0.0
  0
POINT
  5
75E
330
686
100
AcDbEntity
  8
Defpoints
 62
     0
100
AcDbPoint
 10
663.4041299999998
 20
132.041135
 30
0.0
  0
ENDBLK
  5
688
330
686
100
AcDbEntity
  8
0
100
AcDbBlockEnd
  0
BLOCK
  5
694
330
693
100
AcDbEntity
  8
0
100
AcDbBlockBegin
  2
*D2
 70
     1
 10
0.0
 20
0.0
 30
0.0
  3
*D2
  1

  0
LINE
  5
74D
330
693
100
AcDbEntity
  8
0
 62
     0
370
    -2
100
AcDbLine
 10
488.0241299999998
 20
143.185449
 30
0.0
 11
511.7205849999999
 21
143.185449
 31
0.0
  0
LINE
  5
74E
330
693
100
AcDbEntity
  8
0
 62
     0
370
    -2
100
AcDbLine
 10
477.8769299999999
 20
237.685449
 30
0.0
 11
511.7205849999999
 21
237.685449
 31
0.0
  0
LINE
  5
74F
330
693
100
AcDbEntity
  8
0
 62
     0
370
    -2
100
AcDbLine
 10
510.470585
 20
145.685449
 30
0.0
 11
510.470585
 21
235.185449
 31
0.0
  0
INSERT
  5
750
330
693
100
AcDbEntity
  8
0
 62
     0
370
    -2
100
AcDbBlockReference
  2
_Open30
 10
510.470585
 20
143.185449
 30
0.0
 41
2.5
 42
2.5
 43
2.5
 50
270.0
  0
INSERT
  5
751
330
693
100
AcDbEntity
  8
0
 62
     0
370
    -2
100
AcDbBlockReference
  2
_Open30
 10
510.470585
 20
237.685449
 30
0.0
 41
2.5
 42
2.5
 43
2.5
 50
90.0
  0
MTEXT
  5
752
330
693
100
AcDbEntity
  8
0
 62
     4
100
AcDbMText
 10
508.3455849999999
 20
190.4354490000001
 30
0.0
 40
3.0
 41
0.0
 71
     5
 72
     1
  1
135
 11
0.0000000000000001
 21
1.0
 31
0.0
 73
     1
 44
1.0
1001
ACAD
1000
MTEXTBEGIN
1070
    73
1070
     1
1070
    44
1040
1.0
1070
    74
1070
     0
1000
MTEXTEND
  0
POINT
  5
753
330
693
100
AcDbEntity
  8
Defpoints
 62
     0
100
AcDbPoint
 10
487.7741299999998
 20
143.185449
 30
0.0
  0
POINT
  5
754
330
693
100
AcDbEntity
  8
Defpoints
 62
     0
100
AcDbPoint
 10
477.62693
 20
237.685449
 30
0.0
  0
POINT
  5
755
330
693
100
AcDbEntity
  8
Defpoints
 62
     0
100
AcDbPoint
 10
510.470585
 20
237.685449
 30
0.0
  0
ENDBLK
  5
695
330
693
100
AcDbEntity
  8
0
100
AcDbBlockEnd
  0
BLOCK
  5
6A1
330
6A0
100
AcDbEntity
  8
0
100
AcDbBlockBegin
  2
*D3
 70
     1
 10
0.0
 20
0.0
 30
0.0
  3
*D3
  1

  0
LINE
  5
744
330
6A0
100
AcDbEntity
  8
0
 62
     0
370
    -2
100
AcDbLine
 10
443.32693
 20
149.938249
 30
0.0
 11
443.32693
 21
127.46287
 31
0.0
  0
LINE
  5
745
330
6A0
100
AcDbEntity
  8
0
 62
     0
370
    -2
100
AcDbLine
 10
499.32693
 20
149.938249
 30
0.0
 11
499.32693
 21
127.46287
 31
0.0
  0
LINE
  5
746
330
6A0
100
AcDbEntity
  8
0
 62
     0
370
    -2
100
AcDbLine
 10
445.82693
 20
128.71287
 30
0.0
 11
496.82693
 21
128.71287
 31
0.0
  0
INSERT
  5
747
330
6A0
100
AcDbEntity
  8
0
 62
     0
370
    -2
100
AcDbBlockReference
  2
_Open30
 10
443.32693
 20
128.71287
 30
0.0
 41
2.5
 42
2.5
 43
2.5
 50
180.0
  0
INSERT
  5
748
330
6A0
100
AcDbEntity
  8
0
 62
     0
370
    -2
100
AcDbBlockReference
  2
_Open30
 10
499.32693
 20
128.71287
 30
0.0
 41
2.5
 42
2.5
 43
2.5
  0
MTEXT
  5
749
330
6A0
100
AcDbEntity
  8
0
 62
     4
100
AcDbMText
 10
471.32693
 20
130.83787
 30
0.0
 40
3.0
 41
0.0
 71
     5
 72
     1
  1
80
 73
     1
 44
1.0
1001
ACAD
1000
MTEXTBEGIN
1070
    73
1070
     1
1070
    44
1040
1.0
1070
    74
1070
     0
1000
MTEXTEND
  0
POINT
  5
74A
330
6A0
100
AcDbEntity
  8
Defpoints
 62
     0
100
AcDbPoint
 10
443.32693
 20
150.188249
 30
0.0
  0
POINT
  5
74B
330
6A0
100
AcDbEntity
  8
Defpoints
 62
     0
100
AcDbPoint
 10
499.32693
 20
150.188249
 30
0.0
  0
POINT
  5
74C
330
6A0
100
AcDbEntity
  8
Defpoints
 62
     0
100
AcDbPoint
 10
499.32693
 20
128.71287
 30
0.0
  0
ENDBLK
  5
6A2
330
6A0
100
AcDbEntity
  8
0
100
AcDbBlockEnd
  0
ENDSEC
  0
SECTION
  2
ENTITIES
  0
LINE
  5
BB
330
6B
100
AcDbEntity
  8
0
 62
     3
100
AcDbLine
 10
663.4041299999998
 20
145.355449
 30
0.0
 11
663.4041299999998
 21
166.355449
 31
0.0
  0
LINE
  5
BC
330
6B
100
AcDbEntity
  8
0
 62
     3
100
AcDbLine
 10
540.90413
 20
166.355449
 30
0.0
 11
663.4041299999998
 21
166.355449
 31
0.0
  0
LINE
  5
BD
330
6B
100
AcDbEntity
  8
0
 62
     3
100
AcDbLine
 10
540.90413
 20
145.355449
 30
0.0
 11
663.4041299999998
 21
145.355449
 31
0.0
  0
ARC
  5
BE
330
6B
100
AcDbEntity
  8
0
 62
     3
100
AcDbCircle
 10
713.3799299999998
 20
228.199049
 30
0.0
 40
4.9
100
AcDbArc
 50
90.0
 51
180.0
  0
LINE
  5
BF
330
6B
100
AcDbEntity
  8
0
 62
     3
100
AcDbLine
 10
713.3799299999998
 20
233.099049
 30
0.0
 11
759.57993
 21
233.099049
 31
0.0
  0
ARC
  5
C0
330
6B
100
AcDbEntity
  8
0
 62
     3
100
AcDbCircle
 10
759.57993
 20
228.199049
 30
0.0
 40
4.9
100
AcDbArc
 50
0.0
 51
90.0
  0
LINE
  5
C1
330
6B
100
AcDbEntity
  8
0
 62
     3
100
AcDbLine
 10
742.77993
 20
233.099049
 30
0.0
 11
742.77993
 21
235.899049
 31
0.0
  0
LINE
  5
C2
330
6B
100
AcDbEntity
  8
0
 62
     3
100
AcDbLine
 10
730.1799299999998
 20
235.899049
 30
0.0
 11
730.1799299999998
 21
233.099049
 31
0.0
  0
LINE
  5
C3
330
6B
100
AcDbEntity
  8
0
 62
     3
100
AcDbLine
 10
742.77993
 20
235.095449
 30
0.0
 11
742.77993
 21
237.685449
 31
0.0
  0
LINE
  5
C4
330
6B
100
AcDbEntity
  8
0
 62
     3
100
AcDbLine
 10
742.77993
 20
237.685449
 30
0.0
 11
730.1799299999998
 21
237.685449
 31
0.0
  0
LINE
  5
C5
330
6B
100
AcDbEntity
  8
0
 62
     3
100
AcDbLine
 10
730.1799299999998
 20
237.685449
 30
0.0
 11
730.1799299999998
 21
234.815449
 31
0.0
  0
LINE
  5
C6
330
6B
100
AcDbEntity
  8
0
 62
     3
100
AcDbLine
 10
742.77993
 20
233.099049
 30
0.0
 11
742.77993
 21
235.899049
 31
0.0
  0
LINE
  5
C7
330
6B
100
AcDbEntity
  8
0
 62
     3
100
AcDbLine
 10
730.1799299999998
 20
235.899049
 30
0.0
 11
730.1799299999998
 21
233.099049
 31
0.0
  0
LINE
  5
C8
330
6B
100
AcDbEntity
  8
0
 62
     3
100
AcDbLine
 10
742.77993
 20
235.095449
 30
0.0
 11
742.77993
 21
237.685449
 31
0.0
  0
LINE
  5
C9
330
6B
100
AcDbEntity
  8
0
 62
     3
100
AcDbLine
 10
742.77993
 20
237.685449
 30
0.0
 11
730.1799299999998
 21
237.685449
 31
0.0
  0
LINE
  5
CA
330
6B
100
AcDbEntity
  8
0
 62
     3
100
AcDbLine
 10
730.1799299999998
 20
237.685449
 30
0.0
 11
730.1799299999998
 21
234.815449
 31
0.0
  0
LINE
  5
CB
330
6B
100
AcDbEntity
  8
0
 62
     3
100
AcDbLine
 10
708.47993
 20
150.188249
 30
0.0
 11
708.47993
 21
228.199049
 31
0.0
  0
ARC
  5
CC
330
6B
100
AcDbEntity
  8
0
 62
     3
100
AcDbCircle
 10
713.3799299999998
 20
150.188249
 30
0.0
 40
4.9
100
AcDbArc
 50
180.0
 51
270.0
  0
LINE
  5
CD
330
6B
100
AcDbEntity
  8
0
 62
     3
100
AcDbLine
 10
764.4799299999998
 20
228.199049
 30
0.0
 11
764.4799299999998
 21
150.188249
 31
0.0
  0
LINE
  5
CE
330
6B
100
AcDbEntity
  8
0
 62
     3
100
AcDbLine
 10
759.57993
 20
145.288249
 30
0.0
 11
713.3799299999998
 21
145.288249
 31
0.0
  0
ARC
  5
CF
330
6B
100
AcDbEntity
  8
0
 62
     3
100
AcDbCircle
 10
759.57993
 20
150.188249
 30
0.0
 40
4.9
100
AcDbArc
 50
270.0
 51
0.0
  0
LINE
  5
D0
330
6B
100
AcDbEntity
  8
0
 62
     3
100
AcDbLine
 10
657.7817299999998
 20
233.019249
 30
0.0
 11
657.7817299999998
 21
235.119249
 31
0.0
  0
LINE
  5
D1
330
6B
100
AcDbEntity
  8
0
 62
     3
100
AcDbLine
 10
656.3817299999998
 20
236.519249
 30
0.0
 11
639.58173
 21
236.519249
 31
0.0
  0
ARC
  5
D2
330
6B
100
AcDbEntity
  8
0
 62
     3
100
AcDbCircle
 10
656.3817299999998
 20
235.119249
 30
0.0
 40
1.399999999999999
100
AcDbArc
 50
0.0
 51
90.0
  0
LINE
  5
D3
330
6B
100
AcDbEntity
  8
0
 62
     3
100
AcDbLine
 10
657.7817299999998
 20
233.019249
 30
0.0
 11
657.7817299999998
 21
235.119249
 31
0.0
  0
LINE
  5
D4
330
6B
100
AcDbEntity
  8
0
 62
     3
100
AcDbLine
 10
656.3817299999998
 20
236.519249
 30
0.0
 11
639.58173
 21
236.519249
 31
0.0
  0
ARC
  5
D5
330
6B
100
AcDbEntity
  8
0
 62
     3
100
AcDbCircle
 10
656.3817299999998
 20
235.119249
 30
0.0
 40
1.399999999999999
100
AcDbArc
 50
0.0
 51
90.0
  0
LINE
  5
D6
330
6B
100
AcDbEntity
  8
0
 62
     3
100
AcDbLine
 10
663.4041299999998
 20
166.355449
 30
0.0
 11
663.4041299999998
 21
233.026249
 31
0.0
  0
LINE
  5
D7
330
6B
100
AcDbEntity
  8
0
 62
     3
100
AcDbLine
 10
647.6317299999998
 20
236.519249
 30
0.0
 11
647.6317299999998
 21
237.219249
 31
0.0
  0
LINE
  5
D8
330
6B
100
AcDbEntity
  8
0
 62
     3
100
AcDbLine
 10
642.7317299999998
 20
236.519249
 30
0.0
 11
642.7317299999998
 21
237.219249
 31
0.0
  0
ARC
  5
D9
330
6B
100
AcDbEntity
  8
0
 62
     3
100
AcDbCircle
 10
645.18173
 20
234.885449
 30
0.0
 40
3.383799999999998
100
AcDbArc
 50
43.603
 51
136.397
  0
LINE
  5
DA
330
6B
100
AcDbEntity
  8
0
 62
     3
100
AcDbLine
 10
647.6317299999998
 20
236.519249
 30
0.0
 11
647.6317299999998
 21
237.219249
 31
0.0
  0
LINE
  5
DB
330
6B
100
AcDbEntity
  8
0
 62
     3
100
AcDbLine
 10
642.7317299999998
 20
236.519249
 30
0.0
 11
642.7317299999998
 21
237.219249
 31
0.0
  0
ARC
  5
DC
330
6B
100
AcDbEntity
  8
0
 62
     3
100
AcDbCircle
 10
645.18173
 20
234.885449
 30
0.0
 40
3.383799999999998
100
AcDbArc
 50
43.603
 51
136.397
  0
LINE
  5
DD
330
6B
100
AcDbEntity
  8
0
 62
     3
100
AcDbLine
 10
639.58173
 20
235.819249
 30
0.0
 11
639.58173
 21
233.019249
 31
0.0
  0
LINE
  5
DE
330
6B
100
AcDbEntity
  8
0
 62
     3
100
AcDbLine
 10
639.58173
 20
235.819249
 30
0.0
 11
639.58173
 21
233.019249
 31
0.0
  0
LINE
  5
DF
330
6B
100
AcDbEntity
  8
0
 62
     3
100
AcDbLine
 10
663.4041299999998
 20
233.026249
 30
0.0
 11
540.90413
 21
233.026249
 31
0.0
  0
ARC
  5
E0
330
6B
100
AcDbEntity
  8
0
 62
     3
100
AcDbCircle
 10
719.67993
 20
156.220849
 30
0.0
 40
4.9
100
AcDbArc
 50
27.66
 51
152.34
  0
LINE
  5
E1
330
6B
100
AcDbEntity
  8
0
 62
     3
100
AcDbLine
 10
715.33993
 20
158.425849
 30
0.0
 11
715.33993
 21
153.490849
 31
0.0
  0
LINE
  5
E2
330
6B
100
AcDbEntity
  8
0
 62
     3
100
AcDbLine
 10
715.33993
 20
153.490849
 30
0.0
 11
724.0199299999998
 21
153.490849
 31
0.0
  0
LINE
  5
E3
330
6B
100
AcDbEntity
  8
0
 62
     3
100
AcDbLine
 10
724.0199299999998
 20
158.425849
 30
0.0
 11
724.0199299999998
 21
153.490849
 31
0.0
  0
LINE
  5
E4
330
6B
100
AcDbEntity
  8
0
 62
     3
100
AcDbLine
 10
669.00413
 20
155.205849
 30
0.0
 11
666.2041299999998
 21
155.205849
 31
0.0
  0
LINE
  5
E5
330
6B
100
AcDbEntity
  8
0
 62
     3
100
AcDbLine
 10
669.00413
 20
159.405849
 30
0.0
 11
666.2041299999998
 21
159.405849
 31
0.0
  0
LINE
  5
E6
330
6B
100
AcDbEntity
  8
0
 62
     3
100
AcDbLine
 10
681.6041299999998
 20
121.605849
 30
0.0
 11
674.6041299999998
 21
121.605849
 31
0.0
  0
LINE
  5
E7
330
6B
100
AcDbEntity
  8
0
 62
     3
100
AcDbLine
 10
673.55413
 20
109.005849
 30
0.0
 11
674.6041299999998
 21
121.605849
 31
0.0
  0
LINE
  5
E8
330
6B
100
AcDbEntity
  8
0
 62
     3
100
AcDbLine
 10
682.65413
 20
109.005849
 30
0.0
 11
681.6041299999998
 21
121.605849
 31
0.0
  0
LINE
  5
E9
330
6B
100
AcDbEntity
  8
0
 62
     3
100
AcDbLine
 10
688.6041299999998
 20
91.505849
 30
0.0
 11
667.6041299999998
 21
91.505849
 31
0.0
  0
ARC
  5
EA
330
6B
100
AcDbEntity
  8
0
 62
     3
100
AcDbCircle
 10
699.7145299999998
 20
90.34944900000001
 30
0.0
 40
32.13280000000001
100
AcDbArc
 50
144.506
 51
177.937
  0
ARC
  5
EB
330
6B
100
AcDbEntity
  8
0
 62
     3
100
AcDbCircle
 10
656.49233
 20
90.34944900000001
 30
0.0
 40
32.13280000000001
100
AcDbArc
 50
2.063
 51
35.494
  0
LINE
  5
EC
330
6B
100
AcDbEntity
  8
0
 62
     3
100
AcDbLine
 10
673.55413
 20
109.005849
 30
0.0
 11
682.65413
 21
109.005849
 31
0.0
  0
LINE
  5
ED
330
6B
100
AcDbEntity
  8
0
 62
     3
100
AcDbLine
 10
683.70413
 20
79.60584899999997
 30
0.0
 11
683.70413
 21
91.505849
 31
0.0
  0
ARC
  5
EE
330
6B
100
AcDbEntity
  8
0
 62
     3
100
AcDbCircle
 10
685.1041299999998
 20
79.60584899999997
 30
0.0
 40
1.399999999999999
100
AcDbArc
 50
180.0
 51
0.0
  0
LINE
  5
EF
330
6B
100
AcDbEntity
  8
0
 62
     3
100
AcDbLine
 10
686.50413
 20
91.505849
 30
0.0
 11
686.50413
 21
79.60584899999997
 31
0.0
  0
LINE
  5
F0
330
6B
100
AcDbEntity
  8
0
 62
     3
100
AcDbLine
 10
672.50413
 20
79.60584899999997
 30
0.0
 11
672.50413
 21
91.505849
 31
0.0
  0
ARC
  5
F1
330
6B
100
AcDbEntity
  8
0
 62
     3
100
AcDbCircle
 10
671.1041299999997
 20
79.60584899999997
 30
0.0
 40
1.399999999999999
100
AcDbArc
 50
180.0
 51
0.0
  0
LINE
  5
F2
330
6B
100
AcDbEntity
  8
0
 62
     3
100
AcDbLine
 10
669.7041299999998
 20
91.505849
 30
0.0
 11
669.7041299999998
 21
79.60584899999997
 31
0.0
  0
LINE
  5
F3
330
6B
100
AcDbEntity
  8
0
 62
     3
100
AcDbLine
 10
676.00413
 20
135.955849
 30
0.0
 11
676.00413
 21
121.605849
 31
0.0
  0
LINE
  5
F4
330
6B
100
AcDbEntity
  8
0
 62
     3
100
AcDbLine
 10
676.00413
 20
148.205849
 30
0.0
 11
676.00413
 21
138.755849
 31
0.0
  0
LINE
  5
F5
330
6B
100
AcDbEntity
  8
0
 62
     3
100
AcDbLine
 10
680.2041299999999
 20
135.955849
 30
0.0
 11
680.2041299999999
 21
121.605849
 31
0.0
  0
LINE
  5
F6
330
6B
100
AcDbEntity
  8
0
 62
     3
100
AcDbLine
 10
680.2041299999999
 20
148.205849
 30
0.0
 11
680.2041299999999
 21
138.755849
 31
0.0
  0
TEXT
  5
F7
330
6B
100
AcDbEntity
  8
0
 62
     3
100
AcDbText
 10
725.27993
 20
214.488249
 30
0.0
 40
4.9
  1
TRANS PAL
 41
0.5361430000000002
100
AcDbText
  0
TEXT
  5
F8
330
6B
100
AcDbEntity
  8
0
 62
     3
100
AcDbText
 10
730.8799299999998
 20
210.778249
 30
0.0
 40
2.799999999999998
  1
ご使用上の注意
 41
0.7320000000000002
100
AcDbText
  0
LINE
  5
F9
330
6B
100
AcDbEntity
  8
0
 62
     3
100
AcDbLine
 10
546.4817299999999
 20
233.019249
 30
0.0
 11
546.4817299999999
 21
235.119249
 31
0.0
  0
ARC
  5
FA
330
6B
100
AcDbEntity
  8
0
 62
     3
100
AcDbCircle
 10
547.8817299999998
 20
235.119249
 30
0.0
 40
1.399999999999999
100
AcDbArc
 50
90.0
 51
180.0
  0
ARC
  5
FB
330
6B
100
AcDbEntity
  8
0
 62
     3
100
AcDbCircle
 10
494.42693
 20
228.199049
 30
0.0
 40
4.9
100
AcDbArc
 50
0.0
 51
90.0
  0
LINE
  5
FC
330
6B
100
AcDbEntity
  8
0
 62
     3
100
AcDbLine
 10
494.42693
 20
233.099049
 30
0.0
 11
448.2269299999998
 21
233.099049
 31
0.0
  0
ARC
  5
FD
330
6B
100
AcDbEntity
  8
0
 62
     3
100
AcDbCircle
 10
448.2269299999998
 20
228.199049
 30
0.0
 40
4.9
100
AcDbArc
 50
90.0
 51
180.0
  0
LINE
  5
FE
330
6B
100
AcDbEntity
  8
0
 62
     3
100
AcDbLine
 10
499.32693
 20
150.188249
 30
0.0
 11
499.32693
 21
228.199049
 31
0.0
  0
ARC
  5
FF
330
6B
100
AcDbEntity
  8
0
 62
     3
100
AcDbCircle
 10
494.42693
 20
150.188249
 30
0.0
 40
4.9
100
AcDbArc
 50
270.0
 51
0.0
  0
LINE
  5
100
330
6B
100
AcDbEntity
  8
0
 62
     3
100
AcDbLine
 10
443.32693
 20
228.199049
 30
0.0
 11
443.32693
 21
150.188249
 31
0.0
  0
LINE
  5
101
330
6B
100
AcDbEntity
  8
0
 62
     3
100
AcDbLine
 10
448.2269299999998
 20
145.288249
 30
0.0
 11
494.42693
 21
145.288249
 31
0.0
  0
ARC
  5
102
330
6B
100
AcDbEntity
  8
0
 62
     3
100
AcDbCircle
 10
448.2269299999998
 20
150.188249
 30
0.0
 40
4.9
100
AcDbArc
 50
180.0
 51
270.0
  0
ARC
  5
103
330
6B
100
AcDbEntity
  8
0
 62
     3
100
AcDbCircle
 10
482.52693
 20
218.088249
 30
0.0
 40
0.7
100
AcDbArc
 50
90.0
 51
180.0
  0
LINE
  5
104
330
6B
100
AcDbEntity
  8
0
 62
     3
100
AcDbLine
 10
481.8269299999998
 20
218.088249
 30
0.0
 11
481.8269299999998
 21
205.488249
 31
0.0
  0
ARC
  5
105
330
6B
100
AcDbEntity
  8
0
 62
     3
100
AcDbCircle
 10
482.52693
 20
205.488249
 30
0.0
 40
0.7
100
AcDbArc
 50
180.0
 51
270.0
  0
LINE
  5
106
330
6B
100
AcDbEntity
  8
0
 62
     3
100
AcDbLine
 10
482.52693
 20
204.788249
 30
0.0
 11
488.1269299999998
 21
204.788249
 31
0.0
  0
ARC
  5
107
330
6B
100
AcDbEntity
  8
0
 62
     3
100
AcDbCircle
 10
488.1269299999998
 20
205.488249
 30
0.0
 40
0.7
100
AcDbArc
 50
270.0
 51
0.0
  0
LINE
  5
108
330
6B
100
AcDbEntity
  8
0
 62
     3
100
AcDbLine
 10
488.1269299999998
 20
218.788249
 30
0.0
 11
482.52693
 21
218.788249
 31
0.0
  0
LINE
  5
109
330
6B
100
AcDbEntity
  8
0
 62
     3
100
AcDbLine
 10
488.82693
 20
205.488249
 30
0.0
 11
488.82693
 21
218.088249
 31
0.0
  0
ARC
  5
10A
330
6B
100
AcDbEntity
  8
0
 62
     3
100
AcDbCircle
 10
488.1269299999998
 20
218.088249
 30
0.0
 40
0.7
100
AcDbArc
 50
0.0
 51
90.0
  0
TEXT
  5
10B
330
6B
100
AcDbEntity
  8
0
 62
     3
100
AcDbText
 10
454.52693
 20
148.088249
 30
0.0
 40
5.599999999999998
  1
AC100V 1KVA
 41
0.599245
100
AcDbText
  0
LINE
  5
10C
330
6B
100
AcDbEntity
  8
0
 62
     3
100
AcDbLine
 10
546.4817299999999
 20
233.019249
 30
0.0
 11
546.4817299999999
 21
235.119249
 31
0.0
  0
ARC
  5
10D
330
6B
100
AcDbEntity
  8
0
 62
     3
100
AcDbCircle
 10
547.8817299999998
 20
235.119249
 30
0.0
 40
1.399999999999999
100
AcDbArc
 50
90.0
 51
180.0
  0
ARC
  5
10E
330
6B
100
AcDbEntity
  8
0
 62
     3
100
AcDbCircle
 10
465.0269299999997
 20
162.088249
 30
0.0
 40
0.7
100
AcDbArc
 50
270.0
 51
0.0
  0
LINE
  5
10F
330
6B
100
AcDbEntity
  8
0
 62
     3
100
AcDbLine
 10
465.72693
 20
162.088249
 30
0.0
 11
465.72693
 21
177.488249
 31
0.0
  0
ARC
  5
110
330
6B
100
AcDbEntity
  8
0
 62
     3
100
AcDbCircle
 10
465.0269299999997
 20
177.488249
 30
0.0
 40
0.7
100
AcDbArc
 50
0.0
 51
90.0
  0
LINE
  5
111
330
6B
100
AcDbEntity
  8
0
 62
     3
100
AcDbLine
 10
465.0269299999997
 20
178.188249
 30
0.0
 11
449.6269299999998
 21
178.188249
 31
0.0
  0
ARC
  5
112
330
6B
100
AcDbEntity
  8
0
 62
     3
100
AcDbCircle
 10
449.6269299999998
 20
177.488249
 30
0.0
 40
0.7
100
AcDbArc
 50
90.0
 51
180.0
  0
LINE
  5
113
330
6B
100
AcDbEntity
  8
0
 62
     3
100
AcDbLine
 10
449.6269299999998
 20
161.388249
 30
0.0
 11
465.0269299999997
 21
161.388249
 31
0.0
  0
LINE
  5
114
330
6B
100
AcDbEntity
  8
0
 62
     3
100
AcDbLine
 10
448.92693
 20
177.488249
 30
0.0
 11
448.92693
 21
162.088249
 31
0.0
  0
ARC
  5
115
330
6B
100
AcDbEntity
  8
0
 62
     3
100
AcDbCircle
 10
449.6269299999998
 20
162.088249
 30
0.0
 40
0.7
100
AcDbArc
 50
180.0
 51
270.0
  0
LINE
  5
116
330
6B
100
AcDbEntity
  8
0
 62
     3
100
AcDbLine
 10
465.0269299999997
 20
233.099049
 30
0.0
 11
465.0269299999997
 21
235.899049
 31
0.0
  0
LINE
  5
117
330
6B
100
AcDbEntity
  8
0
 62
     3
100
AcDbLine
 10
477.62693
 20
235.899049
 30
0.0
 11
477.62693
 21
233.099049
 31
0.0
  0
ARC
  5
118
330
6B
100
AcDbEntity
  8
0
 62
     3
100
AcDbCircle
 10
476.9269299999998
 20
235.899049
 30
0.0
 40
0.7
100
AcDbArc
 50
0.0
 51
90.0
  0
LINE
  5
119
330
6B
100
AcDbEntity
  8
0
 62
     3
100
AcDbLine
 10
465.0269299999997
 20
235.095449
 30
0.0
 11
465.0269299999997
 21
237.685449
 31
0.0
  0
LINE
  5
11A
330
6B
100
AcDbEntity
  8
0
 62
     3
100
AcDbLine
 10
465.0269299999997
 20
237.685449
 30
0.0
 11
477.62693
 21
237.685449
 31
0.0
  0
LINE
  5
11B
330
6B
100
AcDbEntity
  8
0
 62
     3
100
AcDbLine
 10
477.62693
 20
237.685449
 30
0.0
 11
477.62693
 21
234.815449
 31
0.0
  0
LINE
  5
11C
330
6B
100
AcDbEntity
  8
0
 62
     3
100
AcDbLine
 10
465.0269299999997
 20
233.099049
 30
0.0
 11
465.0269299999997
 21
235.899049
 31
0.0
  0
LINE
  5
11D
330
6B
100
AcDbEntity
  8
0
 62
     3
100
AcDbLine
 10
477.62693
 20
235.899049
 30
0.0
 11
477.62693
 21
233.099049
 31
0.0
  0
LINE
  5
11E
330
6B
100
AcDbEntity
  8
0
 62
     3
100
AcDbLine
 10
465.0269299999997
 20
235.095449
 30
0.0
 11
465.0269299999997
 21
237.685449
 31
0.0
  0
LINE
  5
11F
330
6B
100
AcDbEntity
  8
0
 62
     3
100
AcDbLine
 10
465.0269299999997
 20
237.685449
 30
0.0
 11
477.62693
 21
237.685449
 31
0.0
  0
LINE
  5
120
330
6B
100
AcDbEntity
  8
0
 62
     3
100
AcDbLine
 10
477.62693
 20
237.685449
 30
0.0
 11
477.62693
 21
234.815449
 31
0.0
  0
LINE
  5
121
330
6B
100
AcDbEntity
  8
0
 62
     3
100
AcDbLine
 10
540.90413
 20
233.026249
 30
0.0
 11
540.90413
 21
166.355449
 31
0.0
  0
LINE
  5
122
330
6B
100
AcDbEntity
  8
0
 62
     3
100
AcDbLine
 10
540.90413
 20
166.355449
 30
0.0
 11
540.90413
 21
145.355449
 31
0.0
  0
LINE
  5
123
330
6B
100
AcDbEntity
  8
0
 62
     3
100
AcDbLine
 10
564.68173
 20
235.819249
 30
0.0
 11
564.68173
 21
233.019249
 31
0.0
  0
LINE
  5
124
330
6B
100
AcDbEntity
  8
0
 62
     3
100
AcDbLine
 10
564.68173
 20
235.819249
 30
0.0
 11
564.68173
 21
233.019249
 31
0.0
  0
LINE
  5
125
330
6B
100
AcDbEntity
  8
0
 62
     3
100
AcDbLine
 10
561.5317299999998
 20
236.519249
 30
0.0
 11
561.5317299999998
 21
237.219249
 31
0.0
  0
LINE
  5
126
330
6B
100
AcDbEntity
  8
0
 62
     3
100
AcDbLine
 10
561.5317299999998
 20
236.519249
 30
0.0
 11
561.5317299999998
 21
237.219249
 31
0.0
  0
LINE
  5
127
330
6B
100
AcDbEntity
  8
0
 62
     3
100
AcDbLine
 10
556.6317299999998
 20
236.519249
 30
0.0
 11
556.6317299999998
 21
237.219249
 31
0.0
  0
LINE
  5
128
330
6B
100
AcDbEntity
  8
0
 62
     3
100
AcDbLine
 10
556.6317299999998
 20
236.519249
 30
0.0
 11
556.6317299999998
 21
237.219249
 31
0.0
  0
ARC
  5
129
330
6B
100
AcDbEntity
  8
0
 62
     3
100
AcDbCircle
 10
559.08173
 20
234.885449
 30
0.0
 40
3.383799999999998
100
AcDbArc
 50
43.603
 51
136.397
  0
ARC
  5
12A
330
6B
100
AcDbEntity
  8
0
 62
     3
100
AcDbCircle
 10
559.08173
 20
234.885449
 30
0.0
 40
3.383799999999998
100
AcDbArc
 50
43.603
 51
136.397
  0
LINE
  5
12B
330
6B
100
AcDbEntity
  8
0
 62
     3
100
AcDbLine
 10
547.8817299999998
 20
236.519249
 30
0.0
 11
564.68173
 21
236.519249
 31
0.0
  0
LINE
  5
12C
330
6B
100
AcDbEntity
  8
0
 62
     3
100
AcDbLine
 10
547.8817299999998
 20
236.519249
 30
0.0
 11
564.68173
 21
236.519249
 31
0.0
  0
TEXT
  5
12D
330
6B
100
AcDbEntity
  8
0
 62
     3
100
AcDbText
 10
447.5269299999998
 20
215.988249
 30
0.0
 40
4.9
  1
TRANS PAL
 41
0.669857
100
AcDbText
  0
TEXT
  5
12E
330
6B
100
AcDbEntity
  8
0
 62
     3
100
AcDbText
 10
458.02693
 20
209.688249
 30
0.0
 40
4.9
  1
1000
 41
1.0656
100
AcDbText
  0
TEXT
  5
12F
330
6B
100
AcDbEntity
  8
0
 62
     3
100
AcDbText
 10
481.1269299999998
 20
222.988249
 30
0.0
 40
2.799999999999998
  1
POWER
 41
0.5760000000000001
100
AcDbText
  0
TEXT
  5
130
330
6B
100
AcDbEntity
  8
0
 62
     3
100
AcDbText
 10
452.585671
 20
179.833012
 30
0.0
 40
3.5
  1
OUT PUT
 41
0.492188
100
AcDbText
  0
CIRCLE
  5
131
330
6B
100
AcDbEntity
  8
0
 62
     3
100
AcDbCircle
 10
485.32693
 20
169.788249
 30
0.0
 40
4.2
  0
CIRCLE
  5
132
330
6B
100
AcDbEntity
  8
0
 62
     3
100
AcDbCircle
 10
485.32693
 20
169.788249
 30
0.0
 40
1.268399999999998
  0
TEXT
  5
133
330
6B
100
AcDbEntity
  8
0
 62
     3
100
AcDbText
 10
699.678646
 20
47.65284
 30
0.0
 40
4.5
  1
海外用トランス
  7
高4.5
100
AcDbText
  0
LINE
  5
136
330
6B
100
AcDbEntity
  8
0
 62
     3
100
AcDbLine
 10
767.489123
 20
31.80858
 30
0.0
 11
767.4891230000001
 21
54.80858000000001
 31
0.0
  0
LINE
  5
138
330
6B
100
AcDbEntity
  8
0
 62
     3
100
AcDbLine
 10
714.435514
 20
24.80858
 30
0.0
 11
714.435514
 21
38.80858
 31
0.0
  0
TEXT
  5
13A
330
6B
100
AcDbEntity
  8
0
 62
     3
100
AcDbText
 10
743.499441
 20
51.013696
 30
0.0
 40
2.0
  1
A
 41
0.7
100
AcDbText
  0
TEXT
  5
13B
330
6B
100
AcDbEntity
  8
0
 62
     3
100
AcDbText
 10
746.0347279999998
 20
51.013696
 30
0.0
 40
2.0
  1
P
 41
0.7
100
AcDbText
  0
TEXT
  5
13C
330
6B
100
AcDbEntity
  8
0
 62
     3
100
AcDbText
 10
748.570014
 20
51.013696
 30
0.0
 40
2.0
  1
P
 41
0.7
100
AcDbText
  0
TEXT
  5
13D
330
6B
100
AcDbEntity
  8
0
 62
     3
100
AcDbText
 10
751.1053
 20
51.013696
 30
0.0
 40
2.0
  1
D
 41
0.7
100
AcDbText
  0
TEXT
  5
13E
330
6B
100
AcDbEntity
  8
0
 62
     3
100
AcDbText
 10
756.4739829999998
 20
51.013696
 30
0.0
 40
2.0
  1
C
 41
0.7
100
AcDbText
  0
TEXT
  5
13F
330
6B
100
AcDbEntity
  8
0
 62
     3
100
AcDbText
 10
759.009269
 20
51.013696
 30
0.0
 40
2.0
  1
H
 41
0.7
100
AcDbText
  0
TEXT
  5
140
330
6B
100
AcDbEntity
  8
0
 62
     3
100
AcDbText
 10
761.5445559999998
 20
51.013696
 30
0.0
 40
2.0
  1
C
 41
0.7
100
AcDbText
  0
TEXT
  5
141
330
6B
100
AcDbEntity
  8
0
 62
     3
100
AcDbText
 10
764.079842
 20
51.013696
 30
0.0
 40
2.0
  1
K
 41
0.7
100
AcDbText
  0
TEXT
  5
142
330
6B
100
AcDbEntity
  8
0
 62
     3
100
AcDbText
 10
769.7538080000001
 20
51.013696
 30
0.0
 40
2.0
  1
DESN
 41
1.216762999999998
100
AcDbText
  0
TEXT
  5
143
330
6B
100
AcDbEntity
  8
0
 62
     3
100
AcDbText
 10
684.7474499999998
 20
21.667198
 30
0.0
 40
2.0
  1
NICHIDO IND.CO.LTD
 41
1.274876
100
AcDbText
  0
LINE
  5
144
330
6B
100
AcDbEntity
  8
0
 62
     3
100
AcDbLine
 10
695.130479
 20
54.80858000000001
 30
0.0
 11
695.130479
 21
31.80858
 31
0.0
  0
LINE
  5
145
330
6B
100
AcDbEntity
  8
0
 62
     3
100
AcDbLine
 10
741.4891230000002
 20
54.80858000000001
 30
0.0
 11
741.4891230000002
 21
15.142857
 31
0.0
  0
LINE
  5
14A
330
6B
100
AcDbEntity
  8
0
 62
     3
100
AcDbLine
 10
754.4891230000001
 20
54.80858000000001
 30
0.0
 11
754.4891230000001
 21
24.80858
 31
0.0
  0
TEXT
  5
14B
330
6B
100
AcDbEntity
  8
0
 62
     3
100
AcDbText
 10
742.6015679999998
 20
25.67326700000001
 30
0.0
 40
3.2
  1
作成日
 41
1.017225999999998
100
AcDbText
  0
LINE
  5
14C
330
6B
100
AcDbEntity
  8
0
 62
     3
100
AcDbLine
 10
793.188487
 20
54.80858000000001
 30
0.0
 11
681.885044
 21
54.80858000000001
 31
0.0
  0
LINE
  5
14D
330
6B
100
AcDbEntity
  8
0
 62
     3
100
AcDbLine
 10
780.489123
 20
31.80858
 30
0.0
 11
780.489123
 21
54.80858000000001
 31
0.0
  0
TEXT
  5
14E
330
6B
100
AcDbEntity
  8
0
 62
     3
100
AcDbText
 10
783.8129269999998
 20
51.09951500000001
 30
0.0
 40
1.8
  1
D
 41
0.666667
100
AcDbText
  0
TEXT
  5
14F
330
6B
100
AcDbEntity
  8
0
 62
     3
100
AcDbText
 10
786.629555
 20
51.09951500000001
 30
0.0
 40
1.8
  1
E
 41
0.666667
100
AcDbText
  0
TEXT
  5
150
330
6B
100
AcDbEntity
  8
0
 62
     3
100
AcDbText
 10
789.446183
 20
51.09951500000001
 30
0.0
 40
1.8
  1
F
 41
0.666667
100
AcDbText
  0
TEXT
  5
151
330
6B
100
AcDbEntity
  8
0
 62
     3
100
AcDbText
 10
783.8129269999998
 20
47.10696099999998
 30
0.0
 40
3.2
  1
製図
 41
1.076369
100
AcDbText
  0
LINE
  5
152
330
6B
100
AcDbEntity
  8
0
 62
     3
100
AcDbLine
 10
681.885044
 20
54.80858000000001
 30
0.0
 11
681.885044
 21
15.142857
 31
0.0
  0
TEXT
  5
153
330
6B
100
AcDbEntity
  8
0
 62
     3
100
AcDbText
 10
683.261697
 20
15.475323
 30
0.0
 40
5.0
  1
日動工業株式会社
 41
0.833333
100
AcDbText
  0
LINE
  5
154
330
6B
100
AcDbEntity
  8
0
 62
     3
100
AcDbLine
 10
724.767448
 20
38.80858
 30
0.0
 11
724.767448
 21
15.142857
 31
0.0
  0
LINE
  5
155
330
6B
100
AcDbEntity
  8
0
 62
     3
100
AcDbLine
 10
724.767448
 20
19.975719
 30
0.0
 11
741.4891230000002
 21
19.975719
 31
0.0
  0
TEXT
  5
156
330
6B
100
AcDbEntity
  8
0
 62
     3
100
AcDbText
 10
725.35405
 20
20.792149
 30
0.0
 40
3.2
  1
出図コード
 41
0.8356860000000001
100
AcDbText
  0
LINE
  5
168
330
6B
100
AcDbEntity
  8
0
 62
     3
100
AcDbLine
 10
681.885044
 20
24.80858
 30
0.0
 11
793.188487
 21
24.80858
 31
0.0
  0
LINE
  5
16A
330
6B
100
AcDbEntity
  8
0
 62
     3
100
AcDbLine
 10
681.885044
 20
45.80858
 30
0.0
 11
793.188487
 21
45.80858
 31
0.0
  0
LINE
  5
170
330
6B
100
AcDbEntity
  8
0
 62
     3
100
AcDbLine
 10
681.885044
 20
38.80858
 30
0.0
 11
741.4891230000002
 21
38.80858
 31
0.0
  0
LINE
  5
176
330
6B
100
AcDbEntity
  8
0
 62
     3
100
AcDbLine
 10
681.885044
 20
31.80858
 30
0.0
 11
793.188487
 21
31.80858
 31
0.0
  0
LINE
  5
17A
330
6B
100
AcDbEntity
  8
0
 62
     3
100
AcDbLine
 10
793.188487
 20
289.198219
 30
0.0
 11
793.188487
 21
15.14285699999999
 31
0.0
  0
LINE
  5
17B
330
6B
100
AcDbEntity
  8
0
 62
     3
100
AcDbLine
 10
403.1884869999998
 20
289.198219
 30
0.0
 11
403.1884869999998
 21
15.142857
 31
0.0
  0
LINE
  5
17C
330
6B
100
AcDbEntity
  8
0
 62
     3
100
AcDbLine
 10
793.188487
 20
15.142857
 30
0.0
 11
403.1884869999998
 21
15.142857
 31
0.0
  0
TEXT
  5
17F
330
6B
100
AcDbEntity
  8
0
 62
     3
100
AcDbText
 10
725.221502
 20
15.49059149808204
 30
0.0
 40
3.2
  1
ZK-A3X
 41
0.8112849999999999
100
AcDbText
  0
TEXT
  5
180
330
6B
100
AcDbEntity
  8
0
 62
     3
100
AcDbText
 10
683.702441
 20
50.97810599999998
 30
0.0
 40
2.0
  1
CONPONENTS
 41
0.5331600000000001
100
AcDbText
  0
TEXT
  5
181
330
6B
100
AcDbEntity
  8
0
 62
     3
100
AcDbText
 10
683.352715
 20
32.045929
 30
0.0
 40
3.0
  1
材
 41
0.833333
100
AcDbText
  0
TEXT
  5
182
330
6B
100
AcDbEntity
  8
0
 62
     3
100
AcDbText
 10
690.888357
 20
32.045929
 30
0.0
 40
3.0
  1
質
 41
0.833333
100
AcDbText
  0
TEXT
  5
183
330
6B
100
AcDbEntity
  8
0
 62
     3
100
AcDbText
 10
683.4407849999998
 20
42.67045399999999
 30
0.0
 40
2.0
  1
MODEL
 41
1.031072999999999
100
AcDbText
  0
TEXT
  5
184
330
6B
100
AcDbEntity
  8
0
 62
     3
100
AcDbText
 10
683.352715
 20
35.728237
 30
0.0
 40
2.0
  1
MATERIAL
 41
0.659278
100
AcDbText
  0
TEXT
  5
185
330
6B
100
AcDbEntity
  8
0
 62
     3
100
AcDbText
 10
714.6599949999998
 20
32.045929
 30
0.0
 40
3.0
  1
備
 41
0.833333
100
AcDbText
  0
TEXT
  5
186
330
6B
100
AcDbEntity
  8
0
 62
     3
100
AcDbText
 10
721.3929969999997
 20
32.045929
 30
0.0
 40
3.0
  1
考
 41
0.833333
100
AcDbText
  0
TEXT
  5
187
330
6B
100
AcDbEntity
  8
0
 62
     3
100
AcDbText
 10
714.9979536696867
 20
35.728237
 30
0.0
 40
2.0
  1
REMARKS
 41
0.675794
100
AcDbText
  0
TEXT
  5
188
330
6B
100
AcDbEntity
  8
0
 62
     3
100
AcDbText
 10
684.9424439999998
 20
28.808117
 30
0.0
 40
2.0
  1
3AD
 41
1.42614
100
AcDbText
  0
TEXT
  5
189
330
6B
100
AcDbEntity
  8
0
 62
     3
100
AcDbText
 10
694.2534229999998
 20
28.97385
 30
0.0
 40
2.0
  1
ANGLE
 41
1.669883999999998
100
AcDbText
  0
TEXT
  5
18A
330
6B
100
AcDbEntity
  8
0
 62
     3
100
AcDbText
 10
715.1873099999997
 20
28.597009
 30
0.0
 40
2.0
  1
SCALE
 41
0.7719630000000001
100
AcDbText
  0
TEXT
  5
18B
330
6B
100
AcDbEntity
  8
0
 62
     3
100
AcDbText
 10
684.628573
 20
24.80858
 30
0.0
 40
3.0
  1
第
 41
0.833333
100
AcDbText
  0
TEXT
  5
18C
330
6B
100
AcDbEntity
  8
0
 62
     3
100
AcDbText
 10
692.415423
 20
24.80858
 30
0.0
 40
3.0
  1
三
 41
0.833333
100
AcDbText
  0
TEXT
  5
18D
330
6B
100
AcDbEntity
  8
0
 62
     3
100
AcDbText
 10
700.202273
 20
24.80858
 30
0.0
 40
3.0
  1
角
 41
0.833333
100
AcDbText
  0
TEXT
  5
18E
330
6B
100
AcDbEntity
  8
0
 62
     3
100
AcDbText
 10
707.9891230000002
 20
24.80858
 30
0.0
 40
3.0
  1
法
 41
0.833333
100
AcDbText
  0
TEXT
  5
18F
330
6B
100
AcDbEntity
  8
0
 62
     3
100
AcDbText
 10
715.050515
 20
25.097009
 30
0.0
 40
3.0
  1
尺
 41
0.833333
100
AcDbText
  0
TEXT
  5
190
330
6B
100
AcDbEntity
  8
0
 62
     3
100
AcDbText
 10
721.7835169999998
 20
25.097009
 30
0.0
 40
3.0
  1
度
 41
0.833333
100
AcDbText
  0
TEXT
  5
191
330
6B
100
AcDbEntity
  8
0
 62
     3
100
AcDbText
 10
744.366787
 20
47.26630899999999
 30
0.0
 40
3.0
  1
承認
 41
1.089472999999999
100
AcDbText
  0
TEXT
  5
192
330
6B
100
AcDbEntity
  8
0
 62
     3
100
AcDbText
 10
757.6096679999998
 20
47.20857999999998
 30
0.0
 40
3.0
  1
検図
 41
0.931761
100
AcDbText
  0
TEXT
  5
193
330
6B
100
AcDbEntity
  8
0
 62
     3
100
AcDbText
 10
770.6100639999998
 20
47.20857999999998
 30
0.0
 40
3.0
  1
設
 41
0.833333
100
AcDbText
  0
TEXT
  5
194
330
6B
100
AcDbEntity
  8
0
 62
     3
100
AcDbText
 10
775.0999329999999
 20
47.20857999999998
 30
0.0
 40
3.0
  1
計
 41
0.833333
100
AcDbText
  0
TEXT
  5
195
330
6B
100
AcDbEntity
  8
0
 62
     3
100
AcDbText
 10
683.772548
 20
47.38113199999999
 30
0.0
 40
3.0
  1
品
 41
0.833333
100
AcDbText
  0
TEXT
  5
196
330
6B
100
AcDbEntity
  8
0
 62
     3
100
AcDbText
 10
691.30819
 20
47.38113199999999
 30
0.0
 40
3.0
  1
名
 41
0.833333
100
AcDbText
  0
TEXT
  5
197
330
6B
100
AcDbEntity
  8
0
 62
     3
100
AcDbText
 10
683.4407849999998
 20
39.27985278466746
 30
0.0
 40
3.0
  1
型
 41
0.833333
100
AcDbText
  0
TEXT
  5
198
330
6B
100
AcDbEntity
  8
0
 62
     3
100
AcDbText
 10
690.988876
 20
39.27985278466746
 30
0.0
 40
3.0
  1
式
 41
0.833333
100
AcDbText
  0
LINE
  5
1A0
330
6B
100
AcDbEntity
  8
0
 62
     3
100
AcDbLine
 10
793.188487
 20
289.198219
 30
0.0
 11
403.1884869999998
 21
289.198219
 31
0.0
  0
LINE
  5
1A1
330
6B
100
AcDbEntity
  8
0
 62
     3
100
AcDbLine
 10
767.489123
 20
54.80858000000001
 30
0.0
 11
767.489123
 21
60.80858
 31
0.0
  0
LINE
  5
1A2
330
6B
100
AcDbEntity
  8
0
 62
     3
100
AcDbLine
 10
741.4891230000002
 20
54.80858000000001
 30
0.0
 11
741.4891230000002
 21
60.80858
 31
0.0
  0
LINE
  5
1A3
330
6B
100
AcDbEntity
  8
0
 62
     3
100
AcDbLine
 10
793.188487
 20
60.80858
 30
0.0
 11
741.4891230000002
 21
60.80858
 31
0.0
  0
TEXT
  5
1A4
330
6B
100
AcDbEntity
  8
0
 62
     3
100
AcDbText
 10
747.484721
 20
55.604929
 30
0.0
 40
4.5
  1
コード
  7
高4.5
100
AcDbText
  0
TEXT
  5
1A5
330
6B
100
AcDbEntity
  8
0
 62
     3
100
AcDbText
 10
472.4774947596769
 20
15.642857
 30
0.0
 40
3.2
  1
備　　　　　考　
 41
0.8
  7
高3.2
100
AcDbText
  0
TEXT
  5
1A6
330
6B
100
AcDbEntity
  8
0
 62
     3
100
AcDbText
 10
448.8347946666316
 20
15.642857
 30
0.0
 40
3.2
  1
個数
 41
0.8
  7
高3.2
100
AcDbText
  0
TEXT
  5
1A7
330
6B
100
AcDbEntity
  8
0
 62
     3
100
AcDbText
 10
412.2468135624997
 20
15.642857
 30
0.0
 40
3.2
  1
部　　品　　名
 41
0.8
  7
高3.2
100
AcDbText
  0
TEXT
  5
1A8
330
6B
100
AcDbEntity
  8
0
 62
     3
100
AcDbText
 10
404.688487
 20
15.642857
 30
0.0
 40
3.2
  1
No
 41
0.8
  7
高3.2
100
AcDbText
  0
TEXT
  5
1A9
330
6B
100
AcDbEntity
  8
0
 62
     3
100
AcDbText
 10
457.1763983381894
 20
15.642857
 30
0.0
 40
3.2
  1
材　質
 41
0.8
  7
高3.2
100
AcDbText
  0
LINE
  5
1AA
330
6B
100
AcDbEntity
  8
0
100
AcDbLine
 10
734.3657602824357
 20
129.007066
 30
0.0
 11
771.4834643060774
 21
129.007066
 31
0.0
  0
TEXT
  5
1AB
330
6B
100
AcDbEntity
  8
0
 62
     3
100
AcDbText
 10
735.0608485111063
 20
130.0085480150173
 30
0.0
 40
4.5
  1
主　　仕　　様
  7
高4.5
100
AcDbText
  0
TEXT
  5
1AC
330
6B
100
AcDbEntity
  8
0
 62
     3
100
AcDbText
 10
759.3440769999999
 20
26.108284
 30
0.0
 40
3.2
  1
2006.12.06
  7
高3.2
100
AcDbText
  0
TEXT
  5
1AD
330
6B
100
AcDbEntity
  8
0
 62
     3
100
AcDbText
 10
404.688487
 20
30.64285700000001
 30
0.0
 40
3.2
  1
3
 41
0.8
  7
高3.2
100
AcDbText
  0
TEXT
  5
1AE
330
6B
100
AcDbEntity
  8
0
 62
     3
100
AcDbText
 10
404.688487
 20
35.642857
 30
0.0
 40
3.2
  1
4
 41
0.8
  7
高3.2
100
AcDbText
  0
TEXT
  5
1AF
330
6B
100
AcDbEntity
  8
0
 62
     3
100
AcDbText
 10
404.688487
 20
40.64285700000001
 30
0.0
 40
3.2
  1
5
 41
0.8
  7
高3.2
100
AcDbText
  0
TEXT
  5
1B0
330
6B
100
AcDbEntity
  8
0
 62
     3
100
AcDbText
 10
404.688487
 20
45.64285700000001
 30
0.0
 40
3.2
  1
6
 41
0.8
  7
高3.2
100
AcDbText
  0
TEXT
  5
1B1
330
6B
100
AcDbEntity
  8
0
 62
     3
100
AcDbText
 10
448.8347946666316
 20
30.64285700000001
 30
0.0
 40
3.2
  1
1
 41
0.8
  7
高3.2
100
AcDbText
  0
TEXT
  5
1B2
330
6B
100
AcDbEntity
  8
0
 62
     3
100
AcDbText
 10
404.688487
 20
20.64285700000001
 30
0.0
 40
3.2
  1
1
 41
0.8
  7
高3.2
100
AcDbText
  0
TEXT
  5
1B3
330
6B
100
AcDbEntity
  8
0
 62
     3
100
AcDbText
 10
404.688487
 20
25.64285700000001
 30
0.0
 40
3.2
  1
2
 41
0.8
  7
高3.2
100
AcDbText
  0
TEXT
  5
1B4
330
6B
100
AcDbEntity
  8
0
 62
     3
100
AcDbText
 10
412.2468135624997
 20
20.64285700000001
 30
0.0
 40
3.2
  1
ケース本体
 41
0.8
  7
高3.2
100
AcDbText
  0
TEXT
  5
1B5
330
6B
100
AcDbEntity
  8
0
 62
     3
100
AcDbText
 10
448.8347946666316
 20
35.642857
 30
0.0
 40
3.2
  1
1
 41
0.8
  7
高3.2
100
AcDbText
  0
TEXT
  5
1B6
330
6B
100
AcDbEntity
  8
0
 62
     3
100
AcDbText
 10
448.8347946666316
 20
20.64285700000001
 30
0.0
 40
3.2
  1
1式
 41
0.8
  7
高3.2
100
AcDbText
  0
TEXT
  5
1B7
330
6B
100
AcDbEntity
  8
0
 62
     3
100
AcDbText
 10
727.405534
 20
110.913484
 30
0.0
 40
3.2
  1
周波数
  7
高3.2
100
AcDbText
  0
TEXT
  5
1B8
330
6B
100
AcDbEntity
  8
0
 62
     3
100
AcDbText
 10
727.405534
 20
105.369484
 30
0.0
 40
3.2
  1
1次電圧
  7
高3.2
100
AcDbText
  0
TEXT
  5
1B9
330
6B
100
AcDbEntity
  8
0
 62
     3
100
AcDbText
 10
727.405534
 20
99.825484
 30
0.0
 40
3.2
  1
2次電圧
  7
高3.2
100
AcDbText
  0
TEXT
  5
1BA
330
6B
100
AcDbEntity
  8
0
 62
     3
100
AcDbText
 10
727.405534
 20
94.28148400000001
 30
0.0
 40
3.2
  1
質　量
  7
高3.2
100
AcDbText
  0
TEXT
  5
1BB
330
6B
100
AcDbEntity
  8
0
 62
     3
100
AcDbText
 10
727.405534
 20
122.001484
 30
0.0
 40
3.2
  1
型　式
  7
高3.2
100
AcDbText
  0
TEXT
  5
1BC
330
6B
100
AcDbEntity
  8
0
 62
     3
100
AcDbText
 10
727.405534
 20
116.457484
 30
0.0
 40
3.2
  1
容　量
  7
高3.2
100
AcDbText
  0
TEXT
  5
1BD
330
6B
100
AcDbEntity
  8
0
 62
     3
100
AcDbText
 10
744.1770669999998
 20
110.913484
 30
0.0
 40
3.2
  1
50/ 60Hz
  7
高3.2
100
AcDbText
  0
TEXT
  5
1BE
330
6B
100
AcDbEntity
  8
0
 62
     3
100
AcDbText
 10
457.1763983381894
 20
20.64285700000001
 30
0.0
 40
3.2
  1
-
 41
0.8
  7
高3.2
100
AcDbText
  0
TEXT
  5
1BF
330
6B
100
AcDbEntity
  8
0
 62
     3
100
AcDbText
 10
457.1763983381894
 20
35.642857
 30
0.0
 40
3.2
  1
-
 41
0.8
  7
高3.2
100
AcDbText
  0
TEXT
  5
1C0
330
6B
100
AcDbEntity
  8
0
 62
     3
100
AcDbText
 10
472.4774947596769
 20
25.64285700000001
 30
0.0
 40
3.2
  1
-
 41
0.8
  7
高3.2
100
AcDbText
  0
TEXT
  5
1C1
330
6B
100
AcDbEntity
  8
0
 62
     3
100
AcDbText
 10
457.1763983381894
 20
25.64285700000001
 30
0.0
 40
3.2
  1
-
 41
0.8
  7
高3.2
100
AcDbText
  0
TEXT
  5
1C2
330
6B
100
AcDbEntity
  8
0
 62
     3
100
AcDbText
 10
448.8347946666316
 20
25.64285700000001
 30
0.0
 40
3.2
  1
1
 41
0.8
  7
高3.2
100
AcDbText
  0
LINE
  5
1C3
330
6B
100
AcDbEntity
  8
0
100
AcDbLine
 10
410.7468135625
 20
15.142857
 30
0.0
 11
410.7468135625
 21
55.14285700000001
 31
0.0
  0
TEXT
  5
1C4
330
6B
100
AcDbEntity
  8
0
 62
     3
100
AcDbText
 10
744.1770669999998
 20
99.825484
 30
0.0
 40
3.2
  1
AC100V
  7
高3.2
100
AcDbText
  0
LINE
  5
1C5
330
6B
100
AcDbEntity
  8
0
 62
     3
100
AcDbLine
 10
725.9055339999998
 20
127.045484
 30
0.0
 11
777.1831859343325
 21
127.045484
 31
0.0
  0
LINE
  5
1C6
330
6B
100
AcDbEntity
  8
0
100
AcDbLine
 10
725.9055339999998
 20
115.957484
 30
0.0
 11
777.1831859343325
 21
115.957484
 31
0.0
  0
LINE
  5
1C7
330
6B
100
AcDbEntity
  8
0
100
AcDbLine
 10
725.9055339999998
 20
110.413484
 30
0.0
 11
777.1831859343325
 21
110.413484
 31
0.0
  0
LINE
  5
1C8
330
6B
100
AcDbEntity
  8
0
100
AcDbLine
 10
725.9055339999998
 20
104.869484
 30
0.0
 11
777.1831859343325
 21
104.869484
 31
0.0
  0
LINE
  5
1C9
330
6B
100
AcDbEntity
  8
0
100
AcDbLine
 10
725.9055339999998
 20
99.32548400000001
 30
0.0
 11
777.1831859343325
 21
99.32548400000001
 31
0.0
  0
LINE
  5
1CA
330
6B
100
AcDbEntity
  8
0
100
AcDbLine
 10
725.9055339999998
 20
121.501484
 30
0.0
 11
777.1831859343325
 21
121.501484
 31
0.0
  0
TEXT
  5
1CB
330
6B
100
AcDbEntity
  8
0
 62
     3
100
AcDbText
 10
412.2468135624997
 20
25.64285700000001
 30
0.0
 40
3.2
  1
取手
 41
0.8
  7
高3.2
100
AcDbText
  0
TEXT
  5
1CC
330
6B
100
AcDbEntity
  8
0
 62
     3
100
AcDbText
 10
457.1763983381894
 20
30.64285700000001
 30
0.0
 40
3.2
  1
-
 41
0.8
  7
高3.2
100
AcDbText
  0
TEXT
  5
1CD
330
6B
100
AcDbEntity
  8
0
 62
     3
100
AcDbText
 10
412.2468135624997
 20
30.64285700000001
 30
0.0
 40
3.2
  1
スイッチ
 41
0.8
  7
高3.2
100
AcDbText
  0
TEXT
  5
1CE
330
6B
100
AcDbEntity
  8
0
 62
     3
100
AcDbText
 10
472.4774947596769
 20
30.64285700000001
 30
0.0
 40
3.2
  1
ランプ付き
 41
0.8
  7
高3.2
100
AcDbText
  0
TEXT
  5
1CF
330
6B
100
AcDbEntity
  8
0
 62
     3
100
AcDbText
 10
412.2468135624997
 20
35.642857
 30
0.0
 40
3.2
  1
電線　プラグ付き
 41
0.8
  7
高3.2
100
AcDbText
  0
TEXT
  5
1D0
330
6B
100
AcDbEntity
  8
0
 62
     3
100
AcDbText
 10
472.4774947596769
 20
35.64285700000001
 30
0.0
 40
3.2
  1
1.3m
 41
0.8
  7
高3.2
100
AcDbText
  0
TEXT
  5
1D1
330
6B
100
AcDbEntity
  8
0
 62
     3
100
AcDbText
 10
448.8347946666316
 20
40.64285700000001
 30
0.0
 40
3.2
  1
2
 41
0.8
  7
高3.2
100
AcDbText
  0
TEXT
  5
1D2
330
6B
100
AcDbEntity
  8
0
 62
     3
100
AcDbText
 10
457.1763983381894
 20
40.64285700000001
 30
0.0
 40
3.2
  1
-
 41
0.8
  7
高3.2
100
AcDbText
  0
TEXT
  5
1D3
330
6B
100
AcDbEntity
  8
0
 62
     3
100
AcDbText
 10
472.4774947596769
 20
45.64285700000001
 30
0.0
 40
3.2
  1
-
 41
0.8
  7
高3.2
100
AcDbText
  0
TEXT
  5
1D4
330
6B
100
AcDbEntity
  8
0
 62
     3
100
AcDbText
 10
412.2468135624997
 20
40.64285700000001
 30
0.0
 40
3.2
  1
コンセント
 41
0.8
  7
高3.2
100
AcDbText
  0
TEXT
  5
1D5
330
6B
100
AcDbEntity
  8
0
 62
     3
100
AcDbText
 10
472.4774947596769
 20
40.64285700000001
 30
0.0
 40
3.2
  1
出力　AC100V
 41
0.8
  7
高3.2
100
AcDbText
  0
TEXT
  5
1D6
330
6B
100
AcDbEntity
  8
0
 62
     3
100
AcDbText
 10
412.2468135624997
 20
50.64285700000001
 30
0.0
 40
3.2
  1
ゴム脚
 41
0.8
  7
高3.2
100
AcDbText
  0
TEXT
  5
1D7
330
6B
100
AcDbEntity
  8
0
 62
     3
100
AcDbText
 10
412.2468135624997
 20
45.64285700000001
 30
0.0
 40
3.2
  1
サーキットプロテクター
 41
0.8
  7
高3.2
100
AcDbText
  0
TEXT
  5
1D8
330
6B
100
AcDbEntity
  8
0
 62
     3
100
AcDbText
 10
448.8347946666316
 20
50.64285700000001
 30
0.0
 40
3.2
  1
4
 41
0.8
  7
高3.2
100
AcDbText
  0
TEXT
  5
1D9
330
6B
100
AcDbEntity
  8
0
 62
     3
100
AcDbText
 10
448.8347946666316
 20
45.64285700000001
 30
0.0
 40
3.2
  1
1
 41
0.8
  7
高3.2
100
AcDbText
  0
TEXT
  5
1DA
330
6B
100
AcDbEntity
  8
0
 62
     3
100
AcDbText
 10
457.1763983381894
 20
50.64285700000001
 30
0.0
 40
3.2
  1
合成ゴム
 41
0.8
  7
高3.2
100
AcDbText
  0
TEXT
  5
1DB
330
6B
100
AcDbEntity
  8
0
 62
     3
100
AcDbText
 10
457.1763983381894
 20
45.64285700000001
 30
0.0
 40
3.2
  1
-
 41
0.8
  7
高3.2
100
AcDbText
  0
TEXT
  5
1DC
330
6B
100
AcDbEntity
  8
0
 62
     3
100
AcDbText
 10
472.4774947596769
 20
50.64285700000001
 30
0.0
 40
3.2
  1
-
 41
0.8
  7
高3.2
100
AcDbText
  0
TEXT
  5
1DD
330
6B
100
AcDbEntity
  8
0
 62
     3
100
AcDbText
 10
404.688487
 20
50.64285700000001
 30
0.0
 40
3.2
  1
7
 41
0.8
  7
高3.2
100
AcDbText
  0
LINE
  5
1DE
330
6B
100
AcDbEntity
  8
0
 62
     3
100
AcDbLine
 10
496.2510942681218
 20
15.142857
 30
0.0
 11
496.2510942681218
 21
55.14285700000001
 31
0.0
  0
LINE
  5
1DF
330
6B
100
AcDbEntity
  8
0
100
AcDbLine
 10
455.6763983381896
 20
15.142857
 30
0.0
 11
455.6763983381896
 21
55.14285700000001
 31
0.0
  0
LINE
  5
1E0
330
6B
100
AcDbEntity
  8
0
100
AcDbLine
 10
447.3347946666314
 20
15.142857
 30
0.0
 11
447.3347946666314
 21
55.14285700000001
 31
0.0
  0
LINE
  5
1E1
330
6B
100
AcDbEntity
  8
0
100
AcDbLine
 10
470.9774947596768
 20
15.142857
 30
0.0
 11
470.9774947596768
 21
55.14285700000001
 31
0.0
  0
TEXT
  5
1E2
330
6B
100
AcDbEntity
  8
0
 62
     3
100
AcDbText
 10
727.1058329999998
 20
25.329051
 30
0.0
 40
3.2
  1
FREE
  7
高3.2
100
AcDbText
  0
TEXT
  5
1E3
330
6B
100
AcDbEntity
  8
0
 62
     3
100
AcDbText
 10
472.4774947596769
 20
20.64285700000001
 30
0.0
 40
3.2
  1
-
 41
0.8
  7
高3.2
100
AcDbText
  0
LINE
  5
1EA
330
6B
100
AcDbEntity
  8
0
 62
     3
100
AcDbLine
 10
390.786563
 20
155.642857
 30
0.0
 11
388.188487
 21
154.142857
 31
0.0
  0
LINE
  5
1EB
330
6B
100
AcDbEntity
  8
0
 62
     3
100
AcDbLine
 10
390.786563
 20
155.642857
 30
0.0
 11
388.188487
 21
157.142857
 31
0.0
  0
LINE
  5
1EC
330
6B
100
AcDbEntity
  8
0
 62
     3
100
AcDbLine
 10
388.188487
 20
154.142857
 30
0.0
 11
388.188487
 21
157.142857
 31
0.0
  0
LINE
  5
1F2
330
6B
100
AcDbEntity
  8
0
100
AcDbLine
 10
602.1541299999999
 20
236.519249
 30
0.0
 11
604.3834009999998
 21
251.416444
 31
0.0
  0
CIRCLE
  5
1F3
330
6B
100
AcDbEntity
  8
0
100
AcDbCircle
 10
605.12338
 20
256.361384
 30
0.0
 40
5.0
  0
TEXT
  5
1F4
330
6B
100
AcDbEntity
  8
0
 62
     4
100
AcDbText
 10
602.8955629718525
 20
253.01078770745
 30
0.0
 40
6.299999999999998
  1
2
  7
高6.3
100
AcDbText
  0
LINE
  5
1FA
330
6B
100
AcDbEntity
  8
0
100
AcDbLine
 10
448.92693
 20
171.356619
 30
0.0
 11
434.234904
 21
179.586095
 31
0.0
  0
CIRCLE
  5
1FB
330
6B
100
AcDbEntity
  8
0
100
AcDbCircle
 10
429.87262
 20
182.029551
 30
0.0
 40
5.0
  0
TEXT
  5
1FC
330
6B
100
AcDbEntity
  8
0
 62
     4
100
AcDbText
 10
427.6448029718524
 20
178.67895470745
 30
0.0
 40
6.299999999999998
  1
5
  7
高6.3
100
AcDbText
  0
LINE
  5
202
330
6B
100
AcDbEntity
  8
0
100
AcDbLine
 10
489.209437
 20
163.963635
 30
0.0
 11
506.522654
 21
133.965278
 31
0.0
  0
CIRCLE
  5
203
330
6B
100
AcDbEntity
  8
0
100
AcDbCircle
 10
509.021967
 20
129.634755
 30
0.0
 40
5.0
  0
TEXT
  5
204
330
6B
100
AcDbEntity
  8
0
 62
     4
100
AcDbText
 10
506.7941499718525
 20
126.28415870745
 30
0.0
 40
6.299999999999998
  1
6
  7
高6.3
100
AcDbText
  0
LINE
  5
20A
330
6B
100
AcDbEntity
  8
0
100
AcDbLine
 10
488.1269299999998
 20
213.888249
 30
0.0
 11
498.41199
 21
250.538847
 31
0.0
  0
CIRCLE
  5
20B
330
6B
100
AcDbEntity
  8
0
100
AcDbCircle
 10
499.762928
 20
255.352885
 30
0.0
 40
5.0
  0
TEXT
  5
20C
330
6B
100
AcDbEntity
  8
0
 62
     4
100
AcDbText
 10
497.5351109718524
 20
252.00228870745
 30
0.0
 40
6.299999999999998
  1
3
  7
高6.3
100
AcDbText
  0
LINE
  5
212
330
6B
100
AcDbEntity
  8
0
100
AcDbLine
 10
448.2269299999998
 20
233.099049
 30
0.0
 11
435.8763279999998
 21
248.979397
 31
0.0
  0
CIRCLE
  5
213
330
6B
100
AcDbEntity
  8
0
100
AcDbCircle
 10
432.8067459999998
 20
252.926252
 30
0.0
 40
5.0
  0
TEXT
  5
214
330
6B
100
AcDbEntity
  8
0
 62
     4
100
AcDbText
 10
431.7841186928274
 20
249.750655904643
 30
0.0
 40
6.299999999999998
  1
1
  7
高6.3
100
AcDbText
  0
LINE
  5
21A
330
6B
100
AcDbEntity
  8
0
100
AcDbLine
 10
676.00413
 20
128.780849
 30
0.0
 11
658.7184019999998
 21
115.384426
 31
0.0
  0
CIRCLE
  5
21B
330
6B
100
AcDbEntity
  8
0
100
AcDbCircle
 10
654.766325
 20
112.32157
 30
0.0
 40
5.0
  0
TEXT
  5
21C
330
6B
100
AcDbEntity
  8
0
 62
     4
100
AcDbText
 10
652.5385079718525
 20
108.97097370745
 30
0.0
 40
6.299999999999998
  1
4
  7
高6.3
100
AcDbText
  0
LINE
  5
222
330
6B
100
AcDbEntity
  8
0
100
AcDbLine
 10
753.27993
 20
154.388249
 30
0.0
 11
767.9199449999998
 21
142.662097
 31
0.0
  0
LINE
  5
223
330
6B
100
AcDbEntity
  8
0
100
AcDbLine
 10
767.9199449999998
 20
142.662097
 30
0.0
 11
787.169945
 21
142.662097
 31
0.0
  0
TEXT
  5
224
330
6B
100
AcDbEntity
  8
0
 62
     4
100
AcDbText
 10
770.669945
 20
143.662097
 30
0.0
 40
3.2
  1
アース端子
 41
0.716146
100
AcDbText
  0
LINE
  5
22A
330
6B
100
AcDbEntity
  8
0
100
AcDbLine
 10
756.07993
 20
217.988249
 30
0.0
 11
769.8666919999998
 21
224.550933
 31
0.0
  0
LINE
  5
22B
330
6B
100
AcDbEntity
  8
0
100
AcDbLine
 10
769.8666919999998
 20
224.550933
 30
0.0
 11
791.8666919999998
 21
224.550933
 31
0.0
  0
TEXT
  5
22C
330
6B
100
AcDbEntity
  8
0
 62
     4
100
AcDbText
 10
772.6166919999998
 20
225.550933
 30
0.0
 40
3.2
  1
注意書シール
 41
0.716146
100
AcDbText
  0
TEXT
  5
22D
330
6B
100
AcDbEntity
  8
0
 62
     3
100
AcDbText
 10
475.96373
 20
194.988249
 30
0.0
 40
3.149999999999999
  1
２２０Ｖ～２３０Ｖ
 41
0.5555560000000001
100
AcDbText
  0
CIRCLE
  5
22E
330
6B
100
AcDbEntity
  8
0
100
AcDbCircle
 10
627.00413
 20
190.855449
 30
0.0
 40
14.0
  0
CIRCLE
  5
22F
330
6B
100
AcDbEntity
  8
0
100
AcDbCircle
 10
627.00413
 20
190.855449
 30
0.0
 40
1.399999999999999
  0
CIRCLE
  5
230
330
6B
100
AcDbEntity
  8
0
100
AcDbCircle
 10
620.00413
 20
183.855449
 30
0.0
 40
1.399999999999999
  0
CIRCLE
  5
231
330
6B
100
AcDbEntity
  8
0
100
AcDbCircle
 10
634.00413
 20
183.855449
 30
0.0
 40
1.399999999999999
  0
CIRCLE
  5
232
330
6B
100
AcDbEntity
  8
0
100
AcDbCircle
 10
634.00413
 20
197.855449
 30
0.0
 40
1.399999999999999
  0
CIRCLE
  5
233
330
6B
100
AcDbEntity
  8
0
100
AcDbCircle
 10
620.00413
 20
197.855449
 30
0.0
 40
1.399999999999999
  0
CIRCLE
  5
234
330
6B
100
AcDbEntity
  8
0
100
AcDbCircle
 10
567.50413
 20
215.285449
 30
0.0
 40
1.05
  0
CIRCLE
  5
235
330
6B
100
AcDbEntity
  8
0
100
AcDbCircle
 10
565.40413
 20
213.535449
 30
0.0
 40
1.05
  0
CIRCLE
  5
236
330
6B
100
AcDbEntity
  8
0
100
AcDbCircle
 10
565.40413
 20
210.035449
 30
0.0
 40
1.05
  0
CIRCLE
  5
237
330
6B
100
AcDbEntity
  8
0
100
AcDbCircle
 10
567.50413
 20
211.785449
 30
0.0
 40
1.05
  0
CIRCLE
  5
238
330
6B
100
AcDbEntity
  8
0
100
AcDbCircle
 10
569.6041299999998
 20
213.535449
 30
0.0
 40
1.05
  0
CIRCLE
  5
239
330
6B
100
AcDbEntity
  8
0
100
AcDbCircle
 10
569.6041299999998
 20
210.035449
 30
0.0
 40
1.05
  0
CIRCLE
  5
23A
330
6B
100
AcDbEntity
  8
0
100
AcDbCircle
 10
573.8041299999999
 20
213.535449
 30
0.0
 40
1.05
  0
CIRCLE
  5
23B
330
6B
100
AcDbEntity
  8
0
100
AcDbCircle
 10
573.8041299999999
 20
210.035449
 30
0.0
 40
1.05
  0
CIRCLE
  5
23C
330
6B
100
AcDbEntity
  8
0
100
AcDbCircle
 10
578.00413
 20
213.535449
 30
0.0
 40
1.05
  0
CIRCLE
  5
23D
330
6B
100
AcDbEntity
  8
0
100
AcDbCircle
 10
578.00413
 20
210.035449
 30
0.0
 40
1.05
  0
CIRCLE
  5
23E
330
6B
100
AcDbEntity
  8
0
100
AcDbCircle
 10
582.2041299999998
 20
213.535449
 30
0.0
 40
1.05
  0
CIRCLE
  5
23F
330
6B
100
AcDbEntity
  8
0
100
AcDbCircle
 10
582.2041299999998
 20
210.035449
 30
0.0
 40
1.05
  0
CIRCLE
  5
240
330
6B
100
AcDbEntity
  8
0
100
AcDbCircle
 10
586.40413
 20
213.535449
 30
0.0
 40
1.05
  0
CIRCLE
  5
241
330
6B
100
AcDbEntity
  8
0
100
AcDbCircle
 10
586.40413
 20
210.035449
 30
0.0
 40
1.05
  0
CIRCLE
  5
242
330
6B
100
AcDbEntity
  8
0
100
AcDbCircle
 10
590.6041299999998
 20
213.535449
 30
0.0
 40
1.05
  0
CIRCLE
  5
243
330
6B
100
AcDbEntity
  8
0
100
AcDbCircle
 10
590.6041299999998
 20
210.035449
 30
0.0
 40
1.05
  0
CIRCLE
  5
244
330
6B
100
AcDbEntity
  8
0
100
AcDbCircle
 10
594.8041299999998
 20
213.535449
 30
0.0
 40
1.05
  0
CIRCLE
  5
245
330
6B
100
AcDbEntity
  8
0
100
AcDbCircle
 10
594.8041299999998
 20
210.035449
 30
0.0
 40
1.05
  0
CIRCLE
  5
246
330
6B
100
AcDbEntity
  8
0
100
AcDbCircle
 10
599.00413
 20
213.535449
 30
0.0
 40
1.05
  0
CIRCLE
  5
247
330
6B
100
AcDbEntity
  8
0
100
AcDbCircle
 10
599.00413
 20
210.035449
 30
0.0
 40
1.05
  0
CIRCLE
  5
248
330
6B
100
AcDbEntity
  8
0
100
AcDbCircle
 10
603.2041299999998
 20
213.535449
 30
0.0
 40
1.05
  0
CIRCLE
  5
249
330
6B
100
AcDbEntity
  8
0
100
AcDbCircle
 10
603.2041299999998
 20
210.035449
 30
0.0
 40
1.05
  0
CIRCLE
  5
24A
330
6B
100
AcDbEntity
  8
0
100
AcDbCircle
 10
607.40413
 20
213.535449
 30
0.0
 40
1.05
  0
CIRCLE
  5
24B
330
6B
100
AcDbEntity
  8
0
100
AcDbCircle
 10
607.40413
 20
210.035449
 30
0.0
 40
1.05
  0
CIRCLE
  5
24C
330
6B
100
AcDbEntity
  8
0
100
AcDbCircle
 10
571.7041299999998
 20
215.285449
 30
0.0
 40
1.05
  0
CIRCLE
  5
24D
330
6B
100
AcDbEntity
  8
0
100
AcDbCircle
 10
571.7041299999998
 20
211.785449
 30
0.0
 40
1.05
  0
CIRCLE
  5
24E
330
6B
100
AcDbEntity
  8
0
100
AcDbCircle
 10
575.9041299999998
 20
215.285449
 30
0.0
 40
1.05
  0
CIRCLE
  5
24F
330
6B
100
AcDbEntity
  8
0
100
AcDbCircle
 10
575.9041299999998
 20
211.785449
 30
0.0
 40
1.05
  0
CIRCLE
  5
250
330
6B
100
AcDbEntity
  8
0
100
AcDbCircle
 10
580.1041299999998
 20
215.285449
 30
0.0
 40
1.05
  0
CIRCLE
  5
251
330
6B
100
AcDbEntity
  8
0
100
AcDbCircle
 10
580.1041299999998
 20
211.785449
 30
0.0
 40
1.05
  0
CIRCLE
  5
252
330
6B
100
AcDbEntity
  8
0
100
AcDbCircle
 10
584.30413
 20
215.285449
 30
0.0
 40
1.05
  0
CIRCLE
  5
253
330
6B
100
AcDbEntity
  8
0
100
AcDbCircle
 10
584.30413
 20
211.785449
 30
0.0
 40
1.05
  0
CIRCLE
  5
254
330
6B
100
AcDbEntity
  8
0
100
AcDbCircle
 10
588.50413
 20
215.285449
 30
0.0
 40
1.05
  0
CIRCLE
  5
255
330
6B
100
AcDbEntity
  8
0
100
AcDbCircle
 10
588.50413
 20
211.785449
 30
0.0
 40
1.05
  0
CIRCLE
  5
256
330
6B
100
AcDbEntity
  8
0
100
AcDbCircle
 10
592.7041299999998
 20
215.285449
 30
0.0
 40
1.05
  0
CIRCLE
  5
257
330
6B
100
AcDbEntity
  8
0
100
AcDbCircle
 10
592.7041299999998
 20
211.785449
 30
0.0
 40
1.05
  0
CIRCLE
  5
258
330
6B
100
AcDbEntity
  8
0
100
AcDbCircle
 10
596.9041299999998
 20
215.285449
 30
0.0
 40
1.05
  0
CIRCLE
  5
259
330
6B
100
AcDbEntity
  8
0
100
AcDbCircle
 10
596.9041299999998
 20
211.785449
 30
0.0
 40
1.05
  0
CIRCLE
  5
25A
330
6B
100
AcDbEntity
  8
0
100
AcDbCircle
 10
601.1041299999998
 20
215.285449
 30
0.0
 40
1.05
  0
CIRCLE
  5
25B
330
6B
100
AcDbEntity
  8
0
100
AcDbCircle
 10
601.1041299999998
 20
211.785449
 30
0.0
 40
1.05
  0
CIRCLE
  5
25C
330
6B
100
AcDbEntity
  8
0
100
AcDbCircle
 10
605.30413
 20
215.285449
 30
0.0
 40
1.05
  0
CIRCLE
  5
25D
330
6B
100
AcDbEntity
  8
0
100
AcDbCircle
 10
605.30413
 20
211.785449
 30
0.0
 40
1.05
  0
CIRCLE
  5
25E
330
6B
100
AcDbEntity
  8
0
100
AcDbCircle
 10
567.50413
 20
204.435449
 30
0.0
 40
1.05
  0
CIRCLE
  5
25F
330
6B
100
AcDbEntity
  8
0
100
AcDbCircle
 10
565.40413
 20
202.685449
 30
0.0
 40
1.05
  0
CIRCLE
  5
260
330
6B
100
AcDbEntity
  8
0
100
AcDbCircle
 10
565.40413
 20
199.185449
 30
0.0
 40
1.05
  0
CIRCLE
  5
261
330
6B
100
AcDbEntity
  8
0
100
AcDbCircle
 10
567.50413
 20
200.935449
 30
0.0
 40
1.05
  0
CIRCLE
  5
262
330
6B
100
AcDbEntity
  8
0
100
AcDbCircle
 10
569.6041299999998
 20
202.685449
 30
0.0
 40
1.05
  0
CIRCLE
  5
263
330
6B
100
AcDbEntity
  8
0
100
AcDbCircle
 10
569.6041299999998
 20
199.185449
 30
0.0
 40
1.05
  0
CIRCLE
  5
264
330
6B
100
AcDbEntity
  8
0
100
AcDbCircle
 10
573.8041299999999
 20
202.685449
 30
0.0
 40
1.05
  0
CIRCLE
  5
265
330
6B
100
AcDbEntity
  8
0
100
AcDbCircle
 10
573.8041299999999
 20
199.185449
 30
0.0
 40
1.05
  0
CIRCLE
  5
266
330
6B
100
AcDbEntity
  8
0
100
AcDbCircle
 10
578.00413
 20
202.685449
 30
0.0
 40
1.05
  0
CIRCLE
  5
267
330
6B
100
AcDbEntity
  8
0
100
AcDbCircle
 10
578.00413
 20
199.185449
 30
0.0
 40
1.05
  0
CIRCLE
  5
268
330
6B
100
AcDbEntity
  8
0
100
AcDbCircle
 10
582.2041299999998
 20
202.685449
 30
0.0
 40
1.05
  0
CIRCLE
  5
269
330
6B
100
AcDbEntity
  8
0
100
AcDbCircle
 10
582.2041299999998
 20
199.185449
 30
0.0
 40
1.05
  0
CIRCLE
  5
26A
330
6B
100
AcDbEntity
  8
0
100
AcDbCircle
 10
586.40413
 20
202.685449
 30
0.0
 40
1.05
  0
CIRCLE
  5
26B
330
6B
100
AcDbEntity
  8
0
100
AcDbCircle
 10
586.40413
 20
199.185449
 30
0.0
 40
1.05
  0
CIRCLE
  5
26C
330
6B
100
AcDbEntity
  8
0
100
AcDbCircle
 10
590.6041299999998
 20
202.685449
 30
0.0
 40
1.05
  0
CIRCLE
  5
26D
330
6B
100
AcDbEntity
  8
0
100
AcDbCircle
 10
590.6041299999998
 20
199.185449
 30
0.0
 40
1.05
  0
CIRCLE
  5
26E
330
6B
100
AcDbEntity
  8
0
100
AcDbCircle
 10
594.8041299999998
 20
202.685449
 30
0.0
 40
1.05
  0
CIRCLE
  5
26F
330
6B
100
AcDbEntity
  8
0
100
AcDbCircle
 10
594.8041299999998
 20
199.185449
 30
0.0
 40
1.05
  0
CIRCLE
  5
270
330
6B
100
AcDbEntity
  8
0
100
AcDbCircle
 10
599.00413
 20
202.685449
 30
0.0
 40
1.05
  0
CIRCLE
  5
271
330
6B
100
AcDbEntity
  8
0
100
AcDbCircle
 10
599.00413
 20
199.185449
 30
0.0
 40
1.05
  0
CIRCLE
  5
272
330
6B
100
AcDbEntity
  8
0
100
AcDbCircle
 10
603.2041299999998
 20
202.685449
 30
0.0
 40
1.05
  0
CIRCLE
  5
273
330
6B
100
AcDbEntity
  8
0
100
AcDbCircle
 10
603.2041299999998
 20
199.185449
 30
0.0
 40
1.05
  0
CIRCLE
  5
274
330
6B
100
AcDbEntity
  8
0
100
AcDbCircle
 10
607.40413
 20
202.685449
 30
0.0
 40
1.05
  0
CIRCLE
  5
275
330
6B
100
AcDbEntity
  8
0
100
AcDbCircle
 10
607.40413
 20
199.185449
 30
0.0
 40
1.05
  0
CIRCLE
  5
276
330
6B
100
AcDbEntity
  8
0
100
AcDbCircle
 10
571.7041299999998
 20
204.435449
 30
0.0
 40
1.05
  0
CIRCLE
  5
277
330
6B
100
AcDbEntity
  8
0
100
AcDbCircle
 10
571.7041299999998
 20
200.935449
 30
0.0
 40
1.05
  0
CIRCLE
  5
278
330
6B
100
AcDbEntity
  8
0
100
AcDbCircle
 10
575.9041299999998
 20
204.435449
 30
0.0
 40
1.05
  0
CIRCLE
  5
279
330
6B
100
AcDbEntity
  8
0
100
AcDbCircle
 10
575.9041299999998
 20
200.935449
 30
0.0
 40
1.05
  0
CIRCLE
  5
27A
330
6B
100
AcDbEntity
  8
0
100
AcDbCircle
 10
580.1041299999998
 20
204.435449
 30
0.0
 40
1.05
  0
CIRCLE
  5
27B
330
6B
100
AcDbEntity
  8
0
100
AcDbCircle
 10
580.1041299999998
 20
200.935449
 30
0.0
 40
1.05
  0
CIRCLE
  5
27C
330
6B
100
AcDbEntity
  8
0
100
AcDbCircle
 10
584.30413
 20
204.435449
 30
0.0
 40
1.05
  0
CIRCLE
  5
27D
330
6B
100
AcDbEntity
  8
0
100
AcDbCircle
 10
584.30413
 20
200.935449
 30
0.0
 40
1.05
  0
CIRCLE
  5
27E
330
6B
100
AcDbEntity
  8
0
100
AcDbCircle
 10
588.50413
 20
204.435449
 30
0.0
 40
1.05
  0
CIRCLE
  5
27F
330
6B
100
AcDbEntity
  8
0
100
AcDbCircle
 10
588.50413
 20
200.935449
 30
0.0
 40
1.05
  0
CIRCLE
  5
280
330
6B
100
AcDbEntity
  8
0
100
AcDbCircle
 10
592.7041299999998
 20
204.435449
 30
0.0
 40
1.05
  0
CIRCLE
  5
281
330
6B
100
AcDbEntity
  8
0
100
AcDbCircle
 10
592.7041299999998
 20
200.935449
 30
0.0
 40
1.05
  0
CIRCLE
  5
282
330
6B
100
AcDbEntity
  8
0
100
AcDbCircle
 10
596.9041299999998
 20
204.435449
 30
0.0
 40
1.05
  0
CIRCLE
  5
283
330
6B
100
AcDbEntity
  8
0
100
AcDbCircle
 10
596.9041299999998
 20
200.935449
 30
0.0
 40
1.05
  0
CIRCLE
  5
284
330
6B
100
AcDbEntity
  8
0
100
AcDbCircle
 10
601.1041299999998
 20
204.435449
 30
0.0
 40
1.05
  0
CIRCLE
  5
285
330
6B
100
AcDbEntity
  8
0
100
AcDbCircle
 10
601.1041299999998
 20
200.935449
 30
0.0
 40
1.05
  0
CIRCLE
  5
286
330
6B
100
AcDbEntity
  8
0
100
AcDbCircle
 10
605.30413
 20
204.435449
 30
0.0
 40
1.05
  0
CIRCLE
  5
287
330
6B
100
AcDbEntity
  8
0
100
AcDbCircle
 10
605.30413
 20
200.935449
 30
0.0
 40
1.05
  0
CIRCLE
  5
288
330
6B
100
AcDbEntity
  8
0
100
AcDbCircle
 10
659.90413
 20
215.215449
 30
0.0
 40
2.45
  0
LINE
  5
289
330
6B
100
AcDbEntity
  8
0
100
AcDbLine
 10
658.50413
 20
214.970449
 30
0.0
 11
658.50413
 21
215.460449
 31
0.0
  0
LINE
  5
28A
330
6B
100
AcDbEntity
  8
0
100
AcDbLine
 10
658.50413
 20
215.460449
 30
0.0
 11
659.02913
 21
215.460449
 31
0.0
  0
LINE
  5
28B
330
6B
100
AcDbEntity
  8
0
100
AcDbLine
 10
658.50413
 20
214.970449
 30
0.0
 11
659.02913
 21
214.970449
 31
0.0
  0
LINE
  5
28C
330
6B
100
AcDbEntity
  8
0
100
AcDbLine
 10
660.14913
 20
213.815449
 30
0.0
 11
659.65913
 21
213.815449
 31
0.0
  0
LINE
  5
28D
330
6B
100
AcDbEntity
  8
0
100
AcDbLine
 10
659.65913
 20
213.815449
 30
0.0
 11
659.65913
 21
214.340449
 31
0.0
  0
LINE
  5
28E
330
6B
100
AcDbEntity
  8
0
100
AcDbLine
 10
660.14913
 20
213.815449
 30
0.0
 11
660.14913
 21
214.340449
 31
0.0
  0
LINE
  5
28F
330
6B
100
AcDbEntity
  8
0
100
AcDbLine
 10
661.3041299999999
 20
215.460449
 30
0.0
 11
661.3041299999999
 21
214.970449
 31
0.0
  0
LINE
  5
290
330
6B
100
AcDbEntity
  8
0
100
AcDbLine
 10
661.3041299999999
 20
214.970449
 30
0.0
 11
660.77913
 21
214.970449
 31
0.0
  0
LINE
  5
291
330
6B
100
AcDbEntity
  8
0
100
AcDbLine
 10
661.3041299999999
 20
215.460449
 30
0.0
 11
660.77913
 21
215.460449
 31
0.0
  0
LINE
  5
292
330
6B
100
AcDbEntity
  8
0
100
AcDbLine
 10
659.65913
 20
216.615449
 30
0.0
 11
660.14913
 21
216.615449
 31
0.0
  0
LINE
  5
293
330
6B
100
AcDbEntity
  8
0
100
AcDbLine
 10
660.14913
 20
216.615449
 30
0.0
 11
660.14913
 21
216.090449
 31
0.0
  0
LINE
  5
294
330
6B
100
AcDbEntity
  8
0
100
AcDbLine
 10
659.65913
 20
216.615449
 30
0.0
 11
659.65913
 21
216.090449
 31
0.0
  0
ARC
  5
295
330
6B
100
AcDbEntity
  8
0
100
AcDbCircle
 10
660.77913
 20
214.340449
 30
0.0
 40
0.63
100
AcDbArc
 50
90.0
 51
180.0
  0
ARC
  5
296
330
6B
100
AcDbEntity
  8
0
100
AcDbCircle
 10
660.77913
 20
216.090449
 30
0.0
 40
0.63
100
AcDbArc
 50
180.0
 51
270.0
  0
ARC
  5
297
330
6B
100
AcDbEntity
  8
0
100
AcDbCircle
 10
659.02913
 20
216.090449
 30
0.0
 40
0.63
100
AcDbArc
 50
270.0
 51
0.0
  0
ARC
  5
298
330
6B
100
AcDbEntity
  8
0
100
AcDbCircle
 10
659.02913
 20
214.340449
 30
0.0
 40
0.63
100
AcDbArc
 50
0.0
 51
90.0
  0
CIRCLE
  5
299
330
6B
100
AcDbEntity
  8
0
100
AcDbCircle
 10
659.90413
 20
215.215449
 30
0.0
 40
2.45
  0
LINE
  5
29A
330
6B
100
AcDbEntity
  8
0
100
AcDbLine
 10
658.50413
 20
214.970449
 30
0.0
 11
658.50413
 21
215.460449
 31
0.0
  0
LINE
  5
29B
330
6B
100
AcDbEntity
  8
0
100
AcDbLine
 10
658.50413
 20
215.460449
 30
0.0
 11
659.02913
 21
215.460449
 31
0.0
  0
LINE
  5
29C
330
6B
100
AcDbEntity
  8
0
100
AcDbLine
 10
658.50413
 20
214.970449
 30
0.0
 11
659.02913
 21
214.970449
 31
0.0
  0
LINE
  5
29D
330
6B
100
AcDbEntity
  8
0
100
AcDbLine
 10
660.14913
 20
213.815449
 30
0.0
 11
659.65913
 21
213.815449
 31
0.0
  0
LINE
  5
29E
330
6B
100
AcDbEntity
  8
0
100
AcDbLine
 10
659.65913
 20
213.815449
 30
0.0
 11
659.65913
 21
214.340449
 31
0.0
  0
LINE
  5
29F
330
6B
100
AcDbEntity
  8
0
100
AcDbLine
 10
660.14913
 20
213.815449
 30
0.0
 11
660.14913
 21
214.340449
 31
0.0
  0
LINE
  5
2A0
330
6B
100
AcDbEntity
  8
0
100
AcDbLine
 10
661.3041299999999
 20
215.460449
 30
0.0
 11
661.3041299999999
 21
214.970449
 31
0.0
  0
LINE
  5
2A1
330
6B
100
AcDbEntity
  8
0
100
AcDbLine
 10
661.3041299999999
 20
214.970449
 30
0.0
 11
660.77913
 21
214.970449
 31
0.0
  0
LINE
  5
2A2
330
6B
100
AcDbEntity
  8
0
100
AcDbLine
 10
661.3041299999999
 20
215.460449
 30
0.0
 11
660.77913
 21
215.460449
 31
0.0
  0
LINE
  5
2A3
330
6B
100
AcDbEntity
  8
0
100
AcDbLine
 10
659.65913
 20
216.615449
 30
0.0
 11
660.14913
 21
216.615449
 31
0.0
  0
LINE
  5
2A4
330
6B
100
AcDbEntity
  8
0
100
AcDbLine
 10
660.14913
 20
216.615449
 30
0.0
 11
660.14913
 21
216.090449
 31
0.0
  0
LINE
  5
2A5
330
6B
100
AcDbEntity
  8
0
100
AcDbLine
 10
659.65913
 20
216.615449
 30
0.0
 11
659.65913
 21
216.090449
 31
0.0
  0
ARC
  5
2A6
330
6B
100
AcDbEntity
  8
0
100
AcDbCircle
 10
660.77913
 20
214.340449
 30
0.0
 40
0.63
100
AcDbArc
 50
90.0
 51
180.0
  0
ARC
  5
2A7
330
6B
100
AcDbEntity
  8
0
100
AcDbCircle
 10
660.77913
 20
216.090449
 30
0.0
 40
0.63
100
AcDbArc
 50
180.0
 51
270.0
  0
ARC
  5
2A8
330
6B
100
AcDbEntity
  8
0
100
AcDbCircle
 10
659.02913
 20
216.090449
 30
0.0
 40
0.63
100
AcDbArc
 50
270.0
 51
0.0
  0
ARC
  5
2A9
330
6B
100
AcDbEntity
  8
0
100
AcDbCircle
 10
659.02913
 20
214.340449
 30
0.0
 40
0.63
100
AcDbArc
 50
0.0
 51
90.0
  0
CIRCLE
  5
2AA
330
6B
100
AcDbEntity
  8
0
100
AcDbCircle
 10
659.90413
 20
169.715449
 30
0.0
 40
2.45
  0
LINE
  5
2AB
330
6B
100
AcDbEntity
  8
0
100
AcDbLine
 10
658.50413
 20
169.470449
 30
0.0
 11
658.50413
 21
169.960449
 31
0.0
  0
LINE
  5
2AC
330
6B
100
AcDbEntity
  8
0
100
AcDbLine
 10
658.50413
 20
169.960449
 30
0.0
 11
659.02913
 21
169.960449
 31
0.0
  0
LINE
  5
2AD
330
6B
100
AcDbEntity
  8
0
100
AcDbLine
 10
658.50413
 20
169.470449
 30
0.0
 11
659.02913
 21
169.470449
 31
0.0
  0
LINE
  5
2AE
330
6B
100
AcDbEntity
  8
0
100
AcDbLine
 10
660.14913
 20
168.315449
 30
0.0
 11
659.65913
 21
168.315449
 31
0.0
  0
LINE
  5
2AF
330
6B
100
AcDbEntity
  8
0
100
AcDbLine
 10
659.65913
 20
168.315449
 30
0.0
 11
659.65913
 21
168.840449
 31
0.0
  0
LINE
  5
2B0
330
6B
100
AcDbEntity
  8
0
100
AcDbLine
 10
660.14913
 20
168.315449
 30
0.0
 11
660.14913
 21
168.840449
 31
0.0
  0
LINE
  5
2B1
330
6B
100
AcDbEntity
  8
0
100
AcDbLine
 10
661.3041299999999
 20
169.960449
 30
0.0
 11
661.3041299999999
 21
169.470449
 31
0.0
  0
LINE
  5
2B2
330
6B
100
AcDbEntity
  8
0
100
AcDbLine
 10
661.3041299999999
 20
169.470449
 30
0.0
 11
660.77913
 21
169.470449
 31
0.0
  0
LINE
  5
2B3
330
6B
100
AcDbEntity
  8
0
100
AcDbLine
 10
661.3041299999999
 20
169.960449
 30
0.0
 11
660.77913
 21
169.960449
 31
0.0
  0
LINE
  5
2B4
330
6B
100
AcDbEntity
  8
0
100
AcDbLine
 10
659.65913
 20
171.115449
 30
0.0
 11
660.14913
 21
171.115449
 31
0.0
  0
LINE
  5
2B5
330
6B
100
AcDbEntity
  8
0
100
AcDbLine
 10
660.14913
 20
171.115449
 30
0.0
 11
660.14913
 21
170.590449
 31
0.0
  0
LINE
  5
2B6
330
6B
100
AcDbEntity
  8
0
100
AcDbLine
 10
659.65913
 20
171.115449
 30
0.0
 11
659.65913
 21
170.590449
 31
0.0
  0
ARC
  5
2B7
330
6B
100
AcDbEntity
  8
0
100
AcDbCircle
 10
660.77913
 20
168.840449
 30
0.0
 40
0.63
100
AcDbArc
 50
90.0
 51
180.0
  0
ARC
  5
2B8
330
6B
100
AcDbEntity
  8
0
100
AcDbCircle
 10
660.77913
 20
170.590449
 30
0.0
 40
0.63
100
AcDbArc
 50
180.0
 51
270.0
  0
ARC
  5
2B9
330
6B
100
AcDbEntity
  8
0
100
AcDbCircle
 10
659.02913
 20
170.590449
 30
0.0
 40
0.63
100
AcDbArc
 50
270.0
 51
0.0
  0
ARC
  5
2BA
330
6B
100
AcDbEntity
  8
0
100
AcDbCircle
 10
659.02913
 20
168.840449
 30
0.0
 40
0.63
100
AcDbArc
 50
0.0
 51
90.0
  0
CIRCLE
  5
2BB
330
6B
100
AcDbEntity
  8
0
100
AcDbCircle
 10
659.90413
 20
169.715449
 30
0.0
 40
2.45
  0
LINE
  5
2BC
330
6B
100
AcDbEntity
  8
0
100
AcDbLine
 10
658.50413
 20
169.470449
 30
0.0
 11
658.50413
 21
169.960449
 31
0.0
  0
LINE
  5
2BD
330
6B
100
AcDbEntity
  8
0
100
AcDbLine
 10
658.50413
 20
169.960449
 30
0.0
 11
659.02913
 21
169.960449
 31
0.0
  0
LINE
  5
2BE
330
6B
100
AcDbEntity
  8
0
100
AcDbLine
 10
658.50413
 20
169.470449
 30
0.0
 11
659.02913
 21
169.470449
 31
0.0
  0
LINE
  5
2BF
330
6B
100
AcDbEntity
  8
0
100
AcDbLine
 10
660.14913
 20
168.315449
 30
0.0
 11
659.65913
 21
168.315449
 31
0.0
  0
LINE
  5
2C0
330
6B
100
AcDbEntity
  8
0
100
AcDbLine
 10
659.65913
 20
168.315449
 30
0.0
 11
659.65913
 21
168.840449
 31
0.0
  0
LINE
  5
2C1
330
6B
100
AcDbEntity
  8
0
100
AcDbLine
 10
660.14913
 20
168.315449
 30
0.0
 11
660.14913
 21
168.840449
 31
0.0
  0
LINE
  5
2C2
330
6B
100
AcDbEntity
  8
0
100
AcDbLine
 10
661.3041299999999
 20
169.960449
 30
0.0
 11
661.3041299999999
 21
169.470449
 31
0.0
  0
LINE
  5
2C3
330
6B
100
AcDbEntity
  8
0
100
AcDbLine
 10
661.3041299999999
 20
169.470449
 30
0.0
 11
660.77913
 21
169.470449
 31
0.0
  0
LINE
  5
2C4
330
6B
100
AcDbEntity
  8
0
100
AcDbLine
 10
661.3041299999999
 20
169.960449
 30
0.0
 11
660.77913
 21
169.960449
 31
0.0
  0
LINE
  5
2C5
330
6B
100
AcDbEntity
  8
0
100
AcDbLine
 10
659.65913
 20
171.115449
 30
0.0
 11
660.14913
 21
171.115449
 31
0.0
  0
LINE
  5
2C6
330
6B
100
AcDbEntity
  8
0
100
AcDbLine
 10
660.14913
 20
171.115449
 30
0.0
 11
660.14913
 21
170.590449
 31
0.0
  0
LINE
  5
2C7
330
6B
100
AcDbEntity
  8
0
100
AcDbLine
 10
659.65913
 20
171.115449
 30
0.0
 11
659.65913
 21
170.590449
 31
0.0
  0
ARC
  5
2C8
330
6B
100
AcDbEntity
  8
0
100
AcDbCircle
 10
660.77913
 20
168.840449
 30
0.0
 40
0.63
100
AcDbArc
 50
90.0
 51
180.0
  0
ARC
  5
2C9
330
6B
100
AcDbEntity
  8
0
100
AcDbCircle
 10
660.77913
 20
170.590449
 30
0.0
 40
0.63
100
AcDbArc
 50
180.0
 51
270.0
  0
ARC
  5
2CA
330
6B
100
AcDbEntity
  8
0
100
AcDbCircle
 10
659.02913
 20
170.590449
 30
0.0
 40
0.63
100
AcDbArc
 50
270.0
 51
0.0
  0
ARC
  5
2CB
330
6B
100
AcDbEntity
  8
0
100
AcDbCircle
 10
659.02913
 20
168.840449
 30
0.0
 40
0.63
100
AcDbArc
 50
0.0
 51
90.0
  0
CIRCLE
  5
2CC
330
6B
100
AcDbEntity
  8
0
100
AcDbCircle
 10
659.90413
 20
162.855449
 30
0.0
 40
2.45
  0
LINE
  5
2CD
330
6B
100
AcDbEntity
  8
0
100
AcDbLine
 10
658.50413
 20
162.610449
 30
0.0
 11
658.50413
 21
163.100449
 31
0.0
  0
LINE
  5
2CE
330
6B
100
AcDbEntity
  8
0
100
AcDbLine
 10
658.50413
 20
163.100449
 30
0.0
 11
659.02913
 21
163.100449
 31
0.0
  0
LINE
  5
2CF
330
6B
100
AcDbEntity
  8
0
100
AcDbLine
 10
658.50413
 20
162.610449
 30
0.0
 11
659.02913
 21
162.610449
 31
0.0
  0
LINE
  5
2D0
330
6B
100
AcDbEntity
  8
0
100
AcDbLine
 10
660.14913
 20
161.455449
 30
0.0
 11
659.65913
 21
161.455449
 31
0.0
  0
LINE
  5
2D1
330
6B
100
AcDbEntity
  8
0
100
AcDbLine
 10
659.65913
 20
161.455449
 30
0.0
 11
659.65913
 21
161.980449
 31
0.0
  0
LINE
  5
2D2
330
6B
100
AcDbEntity
  8
0
100
AcDbLine
 10
660.14913
 20
161.455449
 30
0.0
 11
660.14913
 21
161.980449
 31
0.0
  0
LINE
  5
2D3
330
6B
100
AcDbEntity
  8
0
100
AcDbLine
 10
661.3041299999999
 20
163.100449
 30
0.0
 11
661.3041299999999
 21
162.610449
 31
0.0
  0
LINE
  5
2D4
330
6B
100
AcDbEntity
  8
0
100
AcDbLine
 10
661.3041299999999
 20
162.610449
 30
0.0
 11
660.77913
 21
162.610449
 31
0.0
  0
LINE
  5
2D5
330
6B
100
AcDbEntity
  8
0
100
AcDbLine
 10
661.3041299999999
 20
163.100449
 30
0.0
 11
660.77913
 21
163.100449
 31
0.0
  0
LINE
  5
2D6
330
6B
100
AcDbEntity
  8
0
100
AcDbLine
 10
659.65913
 20
164.255449
 30
0.0
 11
660.14913
 21
164.255449
 31
0.0
  0
LINE
  5
2D7
330
6B
100
AcDbEntity
  8
0
100
AcDbLine
 10
660.14913
 20
164.255449
 30
0.0
 11
660.14913
 21
163.730449
 31
0.0
  0
LINE
  5
2D8
330
6B
100
AcDbEntity
  8
0
100
AcDbLine
 10
659.65913
 20
164.255449
 30
0.0
 11
659.65913
 21
163.730449
 31
0.0
  0
ARC
  5
2D9
330
6B
100
AcDbEntity
  8
0
100
AcDbCircle
 10
660.77913
 20
161.980449
 30
0.0
 40
0.63
100
AcDbArc
 50
90.0
 51
180.0
  0
ARC
  5
2DA
330
6B
100
AcDbEntity
  8
0
100
AcDbCircle
 10
660.77913
 20
163.730449
 30
0.0
 40
0.63
100
AcDbArc
 50
180.0
 51
270.0
  0
ARC
  5
2DB
330
6B
100
AcDbEntity
  8
0
100
AcDbCircle
 10
659.02913
 20
163.730449
 30
0.0
 40
0.63
100
AcDbArc
 50
270.0
 51
0.0
  0
ARC
  5
2DC
330
6B
100
AcDbEntity
  8
0
100
AcDbCircle
 10
659.02913
 20
161.980449
 30
0.0
 40
0.63
100
AcDbArc
 50
0.0
 51
90.0
  0
CIRCLE
  5
2DD
330
6B
100
AcDbEntity
  8
0
100
AcDbCircle
 10
659.90413
 20
162.855449
 30
0.0
 40
2.45
  0
LINE
  5
2DE
330
6B
100
AcDbEntity
  8
0
100
AcDbLine
 10
658.50413
 20
162.610449
 30
0.0
 11
658.50413
 21
163.100449
 31
0.0
  0
LINE
  5
2DF
330
6B
100
AcDbEntity
  8
0
100
AcDbLine
 10
658.50413
 20
163.100449
 30
0.0
 11
659.02913
 21
163.100449
 31
0.0
  0
LINE
  5
2E0
330
6B
100
AcDbEntity
  8
0
100
AcDbLine
 10
658.50413
 20
162.610449
 30
0.0
 11
659.02913
 21
162.610449
 31
0.0
  0
LINE
  5
2E1
330
6B
100
AcDbEntity
  8
0
100
AcDbLine
 10
660.14913
 20
161.455449
 30
0.0
 11
659.65913
 21
161.455449
 31
0.0
  0
LINE
  5
2E2
330
6B
100
AcDbEntity
  8
0
100
AcDbLine
 10
659.65913
 20
161.455449
 30
0.0
 11
659.65913
 21
161.980449
 31
0.0
  0
LINE
  5
2E3
330
6B
100
AcDbEntity
  8
0
100
AcDbLine
 10
660.14913
 20
161.455449
 30
0.0
 11
660.14913
 21
161.980449
 31
0.0
  0
LINE
  5
2E4
330
6B
100
AcDbEntity
  8
0
100
AcDbLine
 10
661.3041299999999
 20
163.100449
 30
0.0
 11
661.3041299999999
 21
162.610449
 31
0.0
  0
LINE
  5
2E5
330
6B
100
AcDbEntity
  8
0
100
AcDbLine
 10
661.3041299999999
 20
162.610449
 30
0.0
 11
660.77913
 21
162.610449
 31
0.0
  0
LINE
  5
2E6
330
6B
100
AcDbEntity
  8
0
100
AcDbLine
 10
661.3041299999999
 20
163.100449
 30
0.0
 11
660.77913
 21
163.100449
 31
0.0
  0
LINE
  5
2E7
330
6B
100
AcDbEntity
  8
0
100
AcDbLine
 10
659.65913
 20
164.255449
 30
0.0
 11
660.14913
 21
164.255449
 31
0.0
  0
LINE
  5
2E8
330
6B
100
AcDbEntity
  8
0
100
AcDbLine
 10
660.14913
 20
164.255449
 30
0.0
 11
660.14913
 21
163.730449
 31
0.0
  0
LINE
  5
2E9
330
6B
100
AcDbEntity
  8
0
100
AcDbLine
 10
659.65913
 20
164.255449
 30
0.0
 11
659.65913
 21
163.730449
 31
0.0
  0
ARC
  5
2EA
330
6B
100
AcDbEntity
  8
0
100
AcDbCircle
 10
660.77913
 20
161.980449
 30
0.0
 40
0.63
100
AcDbArc
 50
90.0
 51
180.0
  0
ARC
  5
2EB
330
6B
100
AcDbEntity
  8
0
100
AcDbCircle
 10
660.77913
 20
163.730449
 30
0.0
 40
0.63
100
AcDbArc
 50
180.0
 51
270.0
  0
ARC
  5
2EC
330
6B
100
AcDbEntity
  8
0
100
AcDbCircle
 10
659.02913
 20
163.730449
 30
0.0
 40
0.63
100
AcDbArc
 50
270.0
 51
0.0
  0
ARC
  5
2ED
330
6B
100
AcDbEntity
  8
0
100
AcDbCircle
 10
659.02913
 20
161.980449
 30
0.0
 40
0.63
100
AcDbArc
 50
0.0
 51
90.0
  0
CIRCLE
  5
2EE
330
6B
100
AcDbEntity
  8
0
100
AcDbCircle
 10
544.40413
 20
162.855449
 30
0.0
 40
2.45
  0
LINE
  5
2EF
330
6B
100
AcDbEntity
  8
0
100
AcDbLine
 10
543.00413
 20
162.610449
 30
0.0
 11
543.00413
 21
163.100449
 31
0.0
  0
LINE
  5
2F0
330
6B
100
AcDbEntity
  8
0
100
AcDbLine
 10
543.00413
 20
163.100449
 30
0.0
 11
543.52913
 21
163.100449
 31
0.0
  0
LINE
  5
2F1
330
6B
100
AcDbEntity
  8
0
100
AcDbLine
 10
543.00413
 20
162.610449
 30
0.0
 11
543.52913
 21
162.610449
 31
0.0
  0
LINE
  5
2F2
330
6B
100
AcDbEntity
  8
0
100
AcDbLine
 10
544.6491299999999
 20
161.455449
 30
0.0
 11
544.1591299999998
 21
161.455449
 31
0.0
  0
LINE
  5
2F3
330
6B
100
AcDbEntity
  8
0
100
AcDbLine
 10
544.1591299999998
 20
161.455449
 30
0.0
 11
544.1591299999998
 21
161.980449
 31
0.0
  0
LINE
  5
2F4
330
6B
100
AcDbEntity
  8
0
100
AcDbLine
 10
544.6491299999999
 20
161.455449
 30
0.0
 11
544.6491299999999
 21
161.980449
 31
0.0
  0
LINE
  5
2F5
330
6B
100
AcDbEntity
  8
0
100
AcDbLine
 10
545.8041299999998
 20
163.100449
 30
0.0
 11
545.8041299999998
 21
162.610449
 31
0.0
  0
LINE
  5
2F6
330
6B
100
AcDbEntity
  8
0
100
AcDbLine
 10
545.8041299999998
 20
162.610449
 30
0.0
 11
545.27913
 21
162.610449
 31
0.0
  0
LINE
  5
2F7
330
6B
100
AcDbEntity
  8
0
100
AcDbLine
 10
545.8041299999998
 20
163.100449
 30
0.0
 11
545.27913
 21
163.100449
 31
0.0
  0
LINE
  5
2F8
330
6B
100
AcDbEntity
  8
0
100
AcDbLine
 10
544.1591299999998
 20
164.255449
 30
0.0
 11
544.6491299999999
 21
164.255449
 31
0.0
  0
LINE
  5
2F9
330
6B
100
AcDbEntity
  8
0
100
AcDbLine
 10
544.6491299999999
 20
164.255449
 30
0.0
 11
544.6491299999999
 21
163.730449
 31
0.0
  0
LINE
  5
2FA
330
6B
100
AcDbEntity
  8
0
100
AcDbLine
 10
544.1591299999998
 20
164.255449
 30
0.0
 11
544.1591299999998
 21
163.730449
 31
0.0
  0
ARC
  5
2FB
330
6B
100
AcDbEntity
  8
0
100
AcDbCircle
 10
545.27913
 20
161.980449
 30
0.0
 40
0.63
100
AcDbArc
 50
90.0
 51
180.0
  0
ARC
  5
2FC
330
6B
100
AcDbEntity
  8
0
100
AcDbCircle
 10
545.27913
 20
163.730449
 30
0.0
 40
0.63
100
AcDbArc
 50
180.0
 51
270.0
  0
ARC
  5
2FD
330
6B
100
AcDbEntity
  8
0
100
AcDbCircle
 10
543.52913
 20
163.730449
 30
0.0
 40
0.63
100
AcDbArc
 50
270.0
 51
0.0
  0
ARC
  5
2FE
330
6B
100
AcDbEntity
  8
0
100
AcDbCircle
 10
543.52913
 20
161.980449
 30
0.0
 40
0.63
100
AcDbArc
 50
0.0
 51
90.0
  0
CIRCLE
  5
2FF
330
6B
100
AcDbEntity
  8
0
100
AcDbCircle
 10
544.40413
 20
162.855449
 30
0.0
 40
2.45
  0
LINE
  5
300
330
6B
100
AcDbEntity
  8
0
100
AcDbLine
 10
543.00413
 20
162.610449
 30
0.0
 11
543.00413
 21
163.100449
 31
0.0
  0
LINE
  5
301
330
6B
100
AcDbEntity
  8
0
100
AcDbLine
 10
543.00413
 20
163.100449
 30
0.0
 11
543.52913
 21
163.100449
 31
0.0
  0
LINE
  5
302
330
6B
100
AcDbEntity
  8
0
100
AcDbLine
 10
543.00413
 20
162.610449
 30
0.0
 11
543.52913
 21
162.610449
 31
0.0
  0
LINE
  5
303
330
6B
100
AcDbEntity
  8
0
100
AcDbLine
 10
544.6491299999999
 20
161.455449
 30
0.0
 11
544.1591299999998
 21
161.455449
 31
0.0
  0
LINE
  5
304
330
6B
100
AcDbEntity
  8
0
100
AcDbLine
 10
544.1591299999998
 20
161.455449
 30
0.0
 11
544.1591299999998
 21
161.980449
 31
0.0
  0
LINE
  5
305
330
6B
100
AcDbEntity
  8
0
100
AcDbLine
 10
544.6491299999999
 20
161.455449
 30
0.0
 11
544.6491299999999
 21
161.980449
 31
0.0
  0
LINE
  5
306
330
6B
100
AcDbEntity
  8
0
100
AcDbLine
 10
545.8041299999998
 20
163.100449
 30
0.0
 11
545.8041299999998
 21
162.610449
 31
0.0
  0
LINE
  5
307
330
6B
100
AcDbEntity
  8
0
100
AcDbLine
 10
545.8041299999998
 20
162.610449
 30
0.0
 11
545.27913
 21
162.610449
 31
0.0
  0
LINE
  5
308
330
6B
100
AcDbEntity
  8
0
100
AcDbLine
 10
545.8041299999998
 20
163.100449
 30
0.0
 11
545.27913
 21
163.100449
 31
0.0
  0
LINE
  5
309
330
6B
100
AcDbEntity
  8
0
100
AcDbLine
 10
544.1591299999998
 20
164.255449
 30
0.0
 11
544.6491299999999
 21
164.255449
 31
0.0
  0
LINE
  5
30A
330
6B
100
AcDbEntity
  8
0
100
AcDbLine
 10
544.6491299999999
 20
164.255449
 30
0.0
 11
544.6491299999999
 21
163.730449
 31
0.0
  0
LINE
  5
30B
330
6B
100
AcDbEntity
  8
0
100
AcDbLine
 10
544.1591299999998
 20
164.255449
 30
0.0
 11
544.1591299999998
 21
163.730449
 31
0.0
  0
ARC
  5
30C
330
6B
100
AcDbEntity
  8
0
100
AcDbCircle
 10
545.27913
 20
161.980449
 30
0.0
 40
0.63
100
AcDbArc
 50
90.0
 51
180.0
  0
ARC
  5
30D
330
6B
100
AcDbEntity
  8
0
100
AcDbCircle
 10
545.27913
 20
163.730449
 30
0.0
 40
0.63
100
AcDbArc
 50
180.0
 51
270.0
  0
ARC
  5
30E
330
6B
100
AcDbEntity
  8
0
100
AcDbCircle
 10
543.52913
 20
163.730449
 30
0.0
 40
0.63
100
AcDbArc
 50
270.0
 51
0.0
  0
ARC
  5
30F
330
6B
100
AcDbEntity
  8
0
100
AcDbCircle
 10
543.52913
 20
161.980449
 30
0.0
 40
0.63
100
AcDbArc
 50
0.0
 51
90.0
  0
CIRCLE
  5
310
330
6B
100
AcDbEntity
  8
0
100
AcDbCircle
 10
544.40413
 20
169.715449
 30
0.0
 40
2.45
  0
LINE
  5
311
330
6B
100
AcDbEntity
  8
0
100
AcDbLine
 10
543.00413
 20
169.470449
 30
0.0
 11
543.00413
 21
169.960449
 31
0.0
  0
LINE
  5
312
330
6B
100
AcDbEntity
  8
0
100
AcDbLine
 10
543.00413
 20
169.960449
 30
0.0
 11
543.52913
 21
169.960449
 31
0.0
  0
LINE
  5
313
330
6B
100
AcDbEntity
  8
0
100
AcDbLine
 10
543.00413
 20
169.470449
 30
0.0
 11
543.52913
 21
169.470449
 31
0.0
  0
LINE
  5
314
330
6B
100
AcDbEntity
  8
0
100
AcDbLine
 10
544.6491299999999
 20
168.315449
 30
0.0
 11
544.1591299999998
 21
168.315449
 31
0.0
  0
LINE
  5
315
330
6B
100
AcDbEntity
  8
0
100
AcDbLine
 10
544.1591299999998
 20
168.315449
 30
0.0
 11
544.1591299999998
 21
168.840449
 31
0.0
  0
LINE
  5
316
330
6B
100
AcDbEntity
  8
0
100
AcDbLine
 10
544.6491299999999
 20
168.315449
 30
0.0
 11
544.6491299999999
 21
168.840449
 31
0.0
  0
LINE
  5
317
330
6B
100
AcDbEntity
  8
0
100
AcDbLine
 10
545.8041299999998
 20
169.960449
 30
0.0
 11
545.8041299999998
 21
169.470449
 31
0.0
  0
LINE
  5
318
330
6B
100
AcDbEntity
  8
0
100
AcDbLine
 10
545.8041299999998
 20
169.470449
 30
0.0
 11
545.27913
 21
169.470449
 31
0.0
  0
LINE
  5
319
330
6B
100
AcDbEntity
  8
0
100
AcDbLine
 10
545.8041299999998
 20
169.960449
 30
0.0
 11
545.27913
 21
169.960449
 31
0.0
  0
LINE
  5
31A
330
6B
100
AcDbEntity
  8
0
100
AcDbLine
 10
544.1591299999998
 20
171.115449
 30
0.0
 11
544.6491299999999
 21
171.115449
 31
0.0
  0
LINE
  5
31B
330
6B
100
AcDbEntity
  8
0
100
AcDbLine
 10
544.6491299999999
 20
171.115449
 30
0.0
 11
544.6491299999999
 21
170.590449
 31
0.0
  0
LINE
  5
31C
330
6B
100
AcDbEntity
  8
0
100
AcDbLine
 10
544.1591299999998
 20
171.115449
 30
0.0
 11
544.1591299999998
 21
170.590449
 31
0.0
  0
ARC
  5
31D
330
6B
100
AcDbEntity
  8
0
100
AcDbCircle
 10
545.27913
 20
168.840449
 30
0.0
 40
0.63
100
AcDbArc
 50
90.0
 51
180.0
  0
ARC
  5
31E
330
6B
100
AcDbEntity
  8
0
100
AcDbCircle
 10
545.27913
 20
170.590449
 30
0.0
 40
0.63
100
AcDbArc
 50
180.0
 51
270.0
  0
ARC
  5
31F
330
6B
100
AcDbEntity
  8
0
100
AcDbCircle
 10
543.52913
 20
170.590449
 30
0.0
 40
0.63
100
AcDbArc
 50
270.0
 51
0.0
  0
ARC
  5
320
330
6B
100
AcDbEntity
  8
0
100
AcDbCircle
 10
543.52913
 20
168.840449
 30
0.0
 40
0.63
100
AcDbArc
 50
0.0
 51
90.0
  0
CIRCLE
  5
321
330
6B
100
AcDbEntity
  8
0
100
AcDbCircle
 10
544.40413
 20
169.715449
 30
0.0
 40
2.45
  0
LINE
  5
322
330
6B
100
AcDbEntity
  8
0
100
AcDbLine
 10
543.00413
 20
169.470449
 30
0.0
 11
543.00413
 21
169.960449
 31
0.0
  0
LINE
  5
323
330
6B
100
AcDbEntity
  8
0
100
AcDbLine
 10
543.00413
 20
169.960449
 30
0.0
 11
543.52913
 21
169.960449
 31
0.0
  0
LINE
  5
324
330
6B
100
AcDbEntity
  8
0
100
AcDbLine
 10
543.00413
 20
169.470449
 30
0.0
 11
543.52913
 21
169.470449
 31
0.0
  0
LINE
  5
325
330
6B
100
AcDbEntity
  8
0
100
AcDbLine
 10
544.6491299999999
 20
168.315449
 30
0.0
 11
544.1591299999998
 21
168.315449
 31
0.0
  0
LINE
  5
326
330
6B
100
AcDbEntity
  8
0
100
AcDbLine
 10
544.1591299999998
 20
168.315449
 30
0.0
 11
544.1591299999998
 21
168.840449
 31
0.0
  0
LINE
  5
327
330
6B
100
AcDbEntity
  8
0
100
AcDbLine
 10
544.6491299999999
 20
168.315449
 30
0.0
 11
544.6491299999999
 21
168.840449
 31
0.0
  0
LINE
  5
328
330
6B
100
AcDbEntity
  8
0
100
AcDbLine
 10
545.8041299999998
 20
169.960449
 30
0.0
 11
545.8041299999998
 21
169.470449
 31
0.0
  0
LINE
  5
329
330
6B
100
AcDbEntity
  8
0
100
AcDbLine
 10
545.8041299999998
 20
169.470449
 30
0.0
 11
545.27913
 21
169.470449
 31
0.0
  0
LINE
  5
32A
330
6B
100
AcDbEntity
  8
0
100
AcDbLine
 10
545.8041299999998
 20
169.960449
 30
0.0
 11
545.27913
 21
169.960449
 31
0.0
  0
LINE
  5
32B
330
6B
100
AcDbEntity
  8
0
100
AcDbLine
 10
544.1591299999998
 20
171.115449
 30
0.0
 11
544.6491299999999
 21
171.115449
 31
0.0
  0
LINE
  5
32C
330
6B
100
AcDbEntity
  8
0
100
AcDbLine
 10
544.6491299999999
 20
171.115449
 30
0.0
 11
544.6491299999999
 21
170.590449
 31
0.0
  0
LINE
  5
32D
330
6B
100
AcDbEntity
  8
0
100
AcDbLine
 10
544.1591299999998
 20
171.115449
 30
0.0
 11
544.1591299999998
 21
170.590449
 31
0.0
  0
ARC
  5
32E
330
6B
100
AcDbEntity
  8
0
100
AcDbCircle
 10
545.27913
 20
168.840449
 30
0.0
 40
0.63
100
AcDbArc
 50
90.0
 51
180.0
  0
ARC
  5
32F
330
6B
100
AcDbEntity
  8
0
100
AcDbCircle
 10
545.27913
 20
170.590449
 30
0.0
 40
0.63
100
AcDbArc
 50
180.0
 51
270.0
  0
ARC
  5
330
330
6B
100
AcDbEntity
  8
0
100
AcDbCircle
 10
543.52913
 20
170.590449
 30
0.0
 40
0.63
100
AcDbArc
 50
270.0
 51
0.0
  0
ARC
  5
331
330
6B
100
AcDbEntity
  8
0
100
AcDbCircle
 10
543.52913
 20
168.840449
 30
0.0
 40
0.63
100
AcDbArc
 50
0.0
 51
90.0
  0
CIRCLE
  5
332
330
6B
100
AcDbEntity
  8
0
100
AcDbCircle
 10
544.40413
 20
215.215449
 30
0.0
 40
2.45
  0
LINE
  5
333
330
6B
100
AcDbEntity
  8
0
100
AcDbLine
 10
543.00413
 20
214.970449
 30
0.0
 11
543.00413
 21
215.460449
 31
0.0
  0
LINE
  5
334
330
6B
100
AcDbEntity
  8
0
100
AcDbLine
 10
543.00413
 20
215.460449
 30
0.0
 11
543.52913
 21
215.460449
 31
0.0
  0
LINE
  5
335
330
6B
100
AcDbEntity
  8
0
100
AcDbLine
 10
543.00413
 20
214.970449
 30
0.0
 11
543.52913
 21
214.970449
 31
0.0
  0
LINE
  5
336
330
6B
100
AcDbEntity
  8
0
100
AcDbLine
 10
544.6491299999999
 20
213.815449
 30
0.0
 11
544.1591299999998
 21
213.815449
 31
0.0
  0
LINE
  5
337
330
6B
100
AcDbEntity
  8
0
100
AcDbLine
 10
544.1591299999998
 20
213.815449
 30
0.0
 11
544.1591299999998
 21
214.340449
 31
0.0
  0
LINE
  5
338
330
6B
100
AcDbEntity
  8
0
100
AcDbLine
 10
544.6491299999999
 20
213.815449
 30
0.0
 11
544.6491299999999
 21
214.340449
 31
0.0
  0
LINE
  5
339
330
6B
100
AcDbEntity
  8
0
100
AcDbLine
 10
545.8041299999998
 20
215.460449
 30
0.0
 11
545.8041299999998
 21
214.970449
 31
0.0
  0
LINE
  5
33A
330
6B
100
AcDbEntity
  8
0
100
AcDbLine
 10
545.8041299999998
 20
214.970449
 30
0.0
 11
545.27913
 21
214.970449
 31
0.0
  0
LINE
  5
33B
330
6B
100
AcDbEntity
  8
0
100
AcDbLine
 10
545.8041299999998
 20
215.460449
 30
0.0
 11
545.27913
 21
215.460449
 31
0.0
  0
LINE
  5
33C
330
6B
100
AcDbEntity
  8
0
100
AcDbLine
 10
544.1591299999998
 20
216.615449
 30
0.0
 11
544.6491299999999
 21
216.615449
 31
0.0
  0
LINE
  5
33D
330
6B
100
AcDbEntity
  8
0
100
AcDbLine
 10
544.6491299999999
 20
216.615449
 30
0.0
 11
544.6491299999999
 21
216.090449
 31
0.0
  0
LINE
  5
33E
330
6B
100
AcDbEntity
  8
0
100
AcDbLine
 10
544.1591299999998
 20
216.615449
 30
0.0
 11
544.1591299999998
 21
216.090449
 31
0.0
  0
ARC
  5
33F
330
6B
100
AcDbEntity
  8
0
100
AcDbCircle
 10
545.27913
 20
214.340449
 30
0.0
 40
0.63
100
AcDbArc
 50
90.0
 51
180.0
  0
ARC
  5
340
330
6B
100
AcDbEntity
  8
0
100
AcDbCircle
 10
545.27913
 20
216.090449
 30
0.0
 40
0.63
100
AcDbArc
 50
180.0
 51
270.0
  0
ARC
  5
341
330
6B
100
AcDbEntity
  8
0
100
AcDbCircle
 10
543.52913
 20
216.090449
 30
0.0
 40
0.63
100
AcDbArc
 50
270.0
 51
0.0
  0
ARC
  5
342
330
6B
100
AcDbEntity
  8
0
100
AcDbCircle
 10
543.52913
 20
214.340449
 30
0.0
 40
0.63
100
AcDbArc
 50
0.0
 51
90.0
  0
CIRCLE
  5
343
330
6B
100
AcDbEntity
  8
0
100
AcDbCircle
 10
544.40413
 20
215.215449
 30
0.0
 40
2.45
  0
LINE
  5
344
330
6B
100
AcDbEntity
  8
0
100
AcDbLine
 10
543.00413
 20
214.970449
 30
0.0
 11
543.00413
 21
215.460449
 31
0.0
  0
LINE
  5
345
330
6B
100
AcDbEntity
  8
0
100
AcDbLine
 10
543.00413
 20
215.460449
 30
0.0
 11
543.52913
 21
215.460449
 31
0.0
  0
LINE
  5
346
330
6B
100
AcDbEntity
  8
0
100
AcDbLine
 10
543.00413
 20
214.970449
 30
0.0
 11
543.52913
 21
214.970449
 31
0.0
  0
LINE
  5
347
330
6B
100
AcDbEntity
  8
0
100
AcDbLine
 10
544.6491299999999
 20
213.815449
 30
0.0
 11
544.1591299999998
 21
213.815449
 31
0.0
  0
LINE
  5
348
330
6B
100
AcDbEntity
  8
0
100
AcDbLine
 10
544.1591299999998
 20
213.815449
 30
0.0
 11
544.1591299999998
 21
214.340449
 31
0.0
  0
LINE
  5
349
330
6B
100
AcDbEntity
  8
0
100
AcDbLine
 10
544.6491299999999
 20
213.815449
 30
0.0
 11
544.6491299999999
 21
214.340449
 31
0.0
  0
LINE
  5
34A
330
6B
100
AcDbEntity
  8
0
100
AcDbLine
 10
545.8041299999998
 20
215.460449
 30
0.0
 11
545.8041299999998
 21
214.970449
 31
0.0
  0
LINE
  5
34B
330
6B
100
AcDbEntity
  8
0
100
AcDbLine
 10
545.8041299999998
 20
214.970449
 30
0.0
 11
545.27913
 21
214.970449
 31
0.0
  0
LINE
  5
34C
330
6B
100
AcDbEntity
  8
0
100
AcDbLine
 10
545.8041299999998
 20
215.460449
 30
0.0
 11
545.27913
 21
215.460449
 31
0.0
  0
LINE
  5
34D
330
6B
100
AcDbEntity
  8
0
100
AcDbLine
 10
544.1591299999998
 20
216.615449
 30
0.0
 11
544.6491299999999
 21
216.615449
 31
0.0
  0
LINE
  5
34E
330
6B
100
AcDbEntity
  8
0
100
AcDbLine
 10
544.6491299999999
 20
216.615449
 30
0.0
 11
544.6491299999999
 21
216.090449
 31
0.0
  0
LINE
  5
34F
330
6B
100
AcDbEntity
  8
0
100
AcDbLine
 10
544.1591299999998
 20
216.615449
 30
0.0
 11
544.1591299999998
 21
216.090449
 31
0.0
  0
ARC
  5
350
330
6B
100
AcDbEntity
  8
0
100
AcDbCircle
 10
545.27913
 20
214.340449
 30
0.0
 40
0.63
100
AcDbArc
 50
90.0
 51
180.0
  0
ARC
  5
351
330
6B
100
AcDbEntity
  8
0
100
AcDbCircle
 10
545.27913
 20
216.090449
 30
0.0
 40
0.63
100
AcDbArc
 50
180.0
 51
270.0
  0
ARC
  5
352
330
6B
100
AcDbEntity
  8
0
100
AcDbCircle
 10
543.52913
 20
216.090449
 30
0.0
 40
0.63
100
AcDbArc
 50
270.0
 51
0.0
  0
ARC
  5
353
330
6B
100
AcDbEntity
  8
0
100
AcDbCircle
 10
543.52913
 20
214.340449
 30
0.0
 40
0.63
100
AcDbArc
 50
0.0
 51
90.0
  0
LINE
  5
354
330
6B
100
AcDbEntity
  8
0
100
AcDbLine
 10
539.5769299999998
 20
201.288249
 30
0.0
 11
539.5769299999998
 21
222.288249
 31
0.0
  0
LINE
  5
355
330
6B
100
AcDbEntity
  8
0
100
AcDbLine
 10
540.90413
 20
201.288249
 30
0.0
 11
539.5769299999998
 21
201.288249
 31
0.0
  0
LINE
  5
356
330
6B
100
AcDbEntity
  8
0
100
AcDbLine
 10
539.5769299999998
 20
222.288249
 30
0.0
 11
540.90413
 21
222.288249
 31
0.0
  0
LINE
  5
357
330
6B
100
AcDbEntity
  8
0
100
AcDbLine
 10
539.5769299999998
 20
204.788249
 30
0.0
 11
536.0769299999998
 21
206.538249
 31
0.0
  0
ARC
  5
358
330
6B
100
AcDbEntity
  8
0
100
AcDbCircle
 10
484.6619299999998
 20
230.426449
 30
0.0
 40
56.69299999999999
100
AcDbArc
 50
335.08
 51
345.612
  0
LINE
  5
359
330
6B
100
AcDbEntity
  8
0
100
AcDbLine
 10
538.8769299999998
 20
213.888249
 30
0.0
 11
538.52693
 21
214.238249
 31
0.0
  0
LINE
  5
35A
330
6B
100
AcDbEntity
  8
0
100
AcDbLine
 10
538.52693
 20
214.238249
 30
0.0
 11
539.2269299999997
 21
216.688249
 31
0.0
  0
LINE
  5
35B
330
6B
100
AcDbEntity
  8
0
100
AcDbLine
 10
539.2269299999997
 20
216.688249
 30
0.0
 11
539.5769299999998
 21
216.688249
 31
0.0
  0
LINE
  5
35C
330
6B
100
AcDbEntity
  8
0
100
AcDbLine
 10
539.5769299999998
 20
179.238249
 30
0.0
 11
538.52693
 21
178.188249
 31
0.0
  0
LINE
  5
35D
330
6B
100
AcDbEntity
  8
0
100
AcDbLine
 10
539.5769299999998
 20
179.238249
 30
0.0
 11
540.9769299999998
 21
179.238249
 31
0.0
  0
LINE
  5
35E
330
6B
100
AcDbEntity
  8
0
100
AcDbLine
 10
539.5769299999998
 20
160.338249
 30
0.0
 11
538.52693
 21
161.388249
 31
0.0
  0
LINE
  5
35F
330
6B
100
AcDbEntity
  8
0
100
AcDbLine
 10
539.5769299999998
 20
160.338249
 30
0.0
 11
540.9769299999998
 21
160.338249
 31
0.0
  0
LINE
  5
360
330
6B
100
AcDbEntity
  8
0
100
AcDbLine
 10
536.56413
 20
173.988249
 30
0.0
 11
536.56413
 21
165.588249
 31
0.0
  0
LINE
  5
361
330
6B
100
AcDbEntity
  8
0
100
AcDbLine
 10
536.56413
 20
165.588249
 30
0.0
 11
540.90413
 21
165.588249
 31
0.0
  0
LINE
  5
362
330
6B
100
AcDbEntity
  8
0
100
AcDbLine
 10
536.56413
 20
173.988249
 30
0.0
 11
540.90413
 21
173.988249
 31
0.0
  0
LINE
  5
363
330
6B
100
AcDbEntity
  8
0
100
AcDbLine
 10
538.52693
 20
165.588249
 30
0.0
 11
538.52693
 21
161.388249
 31
0.0
  0
LINE
  5
364
330
6B
100
AcDbEntity
  8
0
100
AcDbLine
 10
538.52693
 20
178.188249
 30
0.0
 11
538.52693
 21
173.988249
 31
0.0
  0
LINE
  5
365
330
6B
100
AcDbEntity
  8
0
100
AcDbLine
 10
636.7817299999998
 20
237.569249
 30
0.0
 11
636.7817299999998
 21
238.269249
 31
0.0
  0
LINE
  5
366
330
6B
100
AcDbEntity
  8
0
100
AcDbLine
 10
636.7817299999998
 20
238.269249
 30
0.0
 11
639.58173
 21
236.519249
 31
0.0
  0
LINE
  5
367
330
6B
100
AcDbEntity
  8
0
100
AcDbLine
 10
639.58173
 20
235.819249
 30
0.0
 11
636.7817299999998
 21
237.569249
 31
0.0
  0
LINE
  5
368
330
6B
100
AcDbEntity
  8
0
100
AcDbLine
 10
636.7817299999998
 20
237.569249
 30
0.0
 11
636.7817299999998
 21
238.269249
 31
0.0
  0
LINE
  5
369
330
6B
100
AcDbEntity
  8
0
100
AcDbLine
 10
636.7817299999998
 20
238.269249
 30
0.0
 11
639.58173
 21
236.519249
 31
0.0
  0
LINE
  5
36A
330
6B
100
AcDbEntity
  8
0
100
AcDbLine
 10
639.58173
 20
235.819249
 30
0.0
 11
636.7817299999998
 21
237.569249
 31
0.0
  0
LINE
  5
36B
330
6B
100
AcDbEntity
  8
0
100
AcDbLine
 10
567.4817299999999
 20
237.569249
 30
0.0
 11
567.4817299999999
 21
238.269249
 31
0.0
  0
LINE
  5
36C
330
6B
100
AcDbEntity
  8
0
100
AcDbLine
 10
567.4817299999999
 20
238.269249
 30
0.0
 11
564.68173
 21
236.519249
 31
0.0
  0
LINE
  5
36D
330
6B
100
AcDbEntity
  8
0
100
AcDbLine
 10
564.68173
 20
235.819249
 30
0.0
 11
567.4817299999999
 21
237.569249
 31
0.0
  0
LINE
  5
36E
330
6B
100
AcDbEntity
  8
0
100
AcDbLine
 10
567.4817299999999
 20
237.569249
 30
0.0
 11
567.4817299999999
 21
238.269249
 31
0.0
  0
LINE
  5
36F
330
6B
100
AcDbEntity
  8
0
100
AcDbLine
 10
567.4817299999999
 20
238.269249
 30
0.0
 11
564.68173
 21
236.519249
 31
0.0
  0
LINE
  5
370
330
6B
100
AcDbEntity
  8
0
100
AcDbLine
 10
564.68173
 20
235.819249
 30
0.0
 11
567.4817299999999
 21
237.569249
 31
0.0
  0
ARC
  5
38B
330
6B
100
AcDbEntity
  8
0
100
AcDbCircle
 10
480.77693
 20
201.988249
 30
0.0
 40
0.7
100
AcDbArc
 50
180.0
 51
270.0
  0
LINE
  5
38C
330
6B
100
AcDbEntity
  8
0
100
AcDbLine
 10
490.57693
 20
221.588249
 30
0.0
 11
490.57693
 21
201.988249
 31
0.0
  0
LINE
  5
38D
330
6B
100
AcDbEntity
  8
0
100
AcDbLine
 10
480.77693
 20
201.288249
 30
0.0
 11
489.8769299999998
 21
201.288249
 31
0.0
  0
ARC
  5
38E
330
6B
100
AcDbEntity
  8
0
100
AcDbCircle
 10
489.8769299999998
 20
201.988249
 30
0.0
 40
0.7
100
AcDbArc
 50
270.0
 51
0.0
  0
LINE
  5
38F
330
6B
100
AcDbEntity
  8
0
100
AcDbLine
 10
480.77693
 20
222.288249
 30
0.0
 11
489.8769299999998
 21
222.288249
 31
0.0
  0
ARC
  5
390
330
6B
100
AcDbEntity
  8
0
100
AcDbCircle
 10
489.8769299999998
 20
221.588249
 30
0.0
 40
0.7
100
AcDbArc
 50
0.0
 51
90.0
  0
LINE
  5
391
330
6B
100
AcDbEntity
  8
0
100
AcDbLine
 10
480.0769299999998
 20
221.588249
 30
0.0
 11
480.0769299999998
 21
201.988249
 31
0.0
  0
ARC
  5
392
330
6B
100
AcDbEntity
  8
0
100
AcDbCircle
 10
480.77693
 20
221.588249
 30
0.0
 40
0.7
100
AcDbArc
 50
90.0
 51
180.0
  0
LINE
  5
393
330
6B
100
AcDbEntity
  8
0
100
AcDbLine
 10
488.1269299999998
 20
213.888249
 30
0.0
 11
488.1269299999998
 21
218.088249
 31
0.0
  0
LINE
  5
394
330
6B
100
AcDbEntity
  8
0
100
AcDbLine
 10
488.1269299999998
 20
218.088249
 30
0.0
 11
482.52693
 21
218.088249
 31
0.0
  0
LINE
  5
395
330
6B
100
AcDbEntity
  8
0
100
AcDbLine
 10
482.52693
 20
213.888249
 30
0.0
 11
488.1269299999998
 21
213.888249
 31
0.0
  0
LINE
  5
396
330
6B
100
AcDbEntity
  8
0
100
AcDbLine
 10
482.52693
 20
218.088249
 30
0.0
 11
482.52693
 21
213.888249
 31
0.0
  0
LINE
  5
397
330
6B
100
AcDbEntity
  8
0
100
AcDbLine
 10
481.8269299999998
 20
207.588249
 30
0.0
 11
488.82693
 21
207.588249
 31
0.0
  0
CIRCLE
  5
398
330
6B
100
AcDbEntity
  8
0
100
AcDbCircle
 10
485.32693
 20
209.688249
 30
0.0
 40
1.399999999999999
  0
ARC
  5
399
330
6B
100
AcDbEntity
  8
0
100
AcDbCircle
 10
454.149554
 20
227.531665
 30
0.0
 40
1.077396
100
AcDbArc
 50
0.350156
 51
38.942337
  0
ARC
  5
39A
330
6B
100
AcDbEntity
  8
0
100
AcDbCircle
 10
453.396181
 20
226.986479
 30
0.0
 40
2.006634
100
AcDbArc
 50
37.529117
 51
63.09109799999998
  0
ARC
  5
39B
330
6B
100
AcDbEntity
  8
0
100
AcDbCircle
 10
452.482798
 20
225.435334
 30
0.0
 40
3.804867999999999
100
AcDbArc
 50
61.39703899999999
 51
77.86979800000001
  0
ARC
  5
39C
330
6B
100
AcDbEntity
  8
0
100
AcDbCircle
 10
452.098191
 20
223.952084
 30
0.0
 40
5.336208
100
AcDbArc
 50
77.178976
 51
90.22829299999999
  0
ARC
  5
39D
330
6B
100
AcDbEntity
  8
0
100
AcDbCircle
 10
452.076946
 20
223.759233
 30
0.0
 40
5.529016999999998
100
AcDbArc
 50
90.00017300000001
 51
102.592558
  0
ARC
  5
39E
330
6B
100
AcDbEntity
  8
0
100
AcDbCircle
 10
451.769846
 20
225.169235
 30
0.0
 40
4.085986
100
AcDbArc
 50
102.700404
 51
118.032758
  0
ARC
  5
39F
330
6B
100
AcDbEntity
  8
0
100
AcDbCircle
 10
450.9257139999998
 20
226.784006
 30
0.0
 40
2.263981999999999
100
AcDbArc
 50
118.382174
 51
140.99761
  0
ARC
  5
3A0
330
6B
100
AcDbEntity
  8
0
100
AcDbCircle
 10
450.0881429999998
 20
227.501736
 30
0.0
 40
1.161787
100
AcDbArc
 50
142.50855
 51
178.198958
  0
ARC
  5
3A1
330
6B
100
AcDbEntity
  8
0
100
AcDbCircle
 10
450.002306
 20
227.545534
 30
0.0
 40
1.075401
100
AcDbArc
 50
180.388101
 51
218.980282
  0
ARC
  5
3A2
330
6B
100
AcDbEntity
  8
0
100
AcDbCircle
 10
450.7607639999998
 20
228.09072
 30
0.0
 40
2.008656
100
AcDbArc
 50
217.459663
 51
243.021644
  0
ARC
  5
3A3
330
6B
100
AcDbEntity
  8
0
100
AcDbCircle
 10
451.666226
 20
229.641865
 30
0.0
 40
3.803169999999998
100
AcDbArc
 50
241.466051
 51
257.93881
  0
ARC
  5
3A4
330
6B
100
AcDbEntity
  8
0
100
AcDbCircle
 10
452.0617879999998
 20
231.125115
 30
0.0
 40
5.336886999999999
100
AcDbArc
 50
257.113239
 51
270.162557
  0
ARC
  5
3A5
330
6B
100
AcDbEntity
  8
0
100
AcDbCircle
 10
452.0705679999998
 20
231.317966
 30
0.0
 40
5.529719999999998
100
AcDbArc
 50
270.06591
 51
282.658294
  0
ARC
  5
3A6
330
6B
100
AcDbEntity
  8
0
100
AcDbCircle
 10
452.389213
 20
229.907964
 30
0.0
 40
4.084162999999998
100
AcDbArc
 50
282.631393
 51
297.963747
  0
ARC
  5
3A7
330
6B
100
AcDbEntity
  8
0
100
AcDbCircle
 10
453.224644
 20
228.293193
 30
0.0
 40
2.266262999999999
100
AcDbArc
 50
298.451628
 51
321.067064
  0
ARC
  5
3A8
330
6B
100
AcDbEntity
  8
0
100
AcDbCircle
 10
454.067891
 20
227.575463
 30
0.0
 40
1.159636
100
AcDbArc
 50
322.470604
 51
358.161013
  0
CIRCLE
  5
3A9
330
6B
100
AcDbEntity
  8
0
100
AcDbCircle
 10
485.32693
 20
169.788249
 30
0.0
 40
7.0
  0
LINE
  5
3AA
330
6B
100
AcDbEntity
  8
0
100
AcDbLine
 10
498.62693
 20
228.199049
 30
0.0
 11
498.62693
 21
150.188249
 31
0.0
  0
ARC
  5
3AB
330
6B
100
AcDbEntity
  8
0
100
AcDbCircle
 10
494.42693
 20
228.199049
 30
0.0
 40
4.2
100
AcDbArc
 50
0.0
 51
90.0
  0
LINE
  5
3AC
330
6B
100
AcDbEntity
  8
0
100
AcDbLine
 10
448.2269299999998
 20
232.399049
 30
0.0
 11
494.42693
 21
232.399049
 31
0.0
  0
ARC
  5
3AD
330
6B
100
AcDbEntity
  8
0
100
AcDbCircle
 10
448.2269299999998
 20
228.199049
 30
0.0
 40
4.2
100
AcDbArc
 50
90.0
 51
180.0
  0
LINE
  5
3AE
330
6B
100
AcDbEntity
  8
0
100
AcDbLine
 10
444.0269299999997
 20
150.188249
 30
0.0
 11
444.0269299999997
 21
228.199049
 31
0.0
  0
ARC
  5
3AF
330
6B
100
AcDbEntity
  8
0
100
AcDbCircle
 10
448.2269299999998
 20
150.188249
 30
0.0
 40
4.2
100
AcDbArc
 50
180.0
 51
270.0
  0
LINE
  5
3B0
330
6B
100
AcDbEntity
  8
0
100
AcDbLine
 10
494.42693
 20
145.988249
 30
0.0
 11
448.2269299999998
 21
145.988249
 31
0.0
  0
ARC
  5
3B1
330
6B
100
AcDbEntity
  8
0
100
AcDbCircle
 10
494.42693
 20
150.188249
 30
0.0
 40
4.2
100
AcDbArc
 50
270.0
 51
0.0
  0
ARC
  5
3B2
330
6B
100
AcDbEntity
  8
0
100
AcDbCircle
 10
476.9269299999998
 20
235.899049
 30
0.0
 40
0.7
100
AcDbArc
 50
0.0
 51
90.0
  0
ARC
  5
3B3
330
6B
100
AcDbEntity
  8
0
100
AcDbCircle
 10
471.32693
 20
234.266649
 30
0.0
 40
3.383799999999998
100
AcDbArc
 50
43.603
 51
136.397
  0
ARC
  5
3B4
330
6B
100
AcDbEntity
  8
0
100
AcDbCircle
 10
465.72693
 20
235.899049
 30
0.0
 40
0.7
100
AcDbArc
 50
90.0
 51
180.0
  0
LINE
  5
3B5
330
6B
100
AcDbEntity
  8
0
100
AcDbLine
 10
465.72693
 20
236.5990490000001
 30
0.0
 11
476.9269299999998
 21
236.5990490000001
 31
0.0
  0
ARC
  5
3B6
330
6B
100
AcDbEntity
  8
0
100
AcDbCircle
 10
471.32693
 20
234.266649
 30
0.0
 40
3.383799999999998
100
AcDbArc
 50
43.603
 51
136.397
  0
ARC
  5
3B7
330
6B
100
AcDbEntity
  8
0
100
AcDbCircle
 10
465.72693
 20
235.899049
 30
0.0
 40
0.7
100
AcDbArc
 50
90.0
 51
180.0
  0
LINE
  5
3B8
330
6B
100
AcDbEntity
  8
0
100
AcDbLine
 10
465.72693
 20
236.5990490000001
 30
0.0
 11
476.9269299999998
 21
236.5990490000001
 31
0.0
  0
LINE
  5
3B9
330
6B
100
AcDbEntity
  8
0
100
AcDbLine
 10
466.7769299999998
 20
178.538249
 30
0.0
 11
466.7769299999998
 21
161.038249
 31
0.0
  0
ARC
  5
3BA
330
6B
100
AcDbEntity
  8
0
100
AcDbCircle
 10
466.07693
 20
178.538249
 30
0.0
 40
0.7
100
AcDbArc
 50
0.0
 51
90.0
  0
LINE
  5
3BB
330
6B
100
AcDbEntity
  8
0
100
AcDbLine
 10
448.57693
 20
179.238249
 30
0.0
 11
466.07693
 21
179.238249
 31
0.0
  0
ARC
  5
3BC
330
6B
100
AcDbEntity
  8
0
100
AcDbCircle
 10
448.57693
 20
178.538249
 30
0.0
 40
0.7
100
AcDbArc
 50
90.0
 51
180.0
  0
LINE
  5
3BD
330
6B
100
AcDbEntity
  8
0
100
AcDbLine
 10
447.8769299999998
 20
161.038249
 30
0.0
 11
447.8769299999998
 21
178.538249
 31
0.0
  0
ARC
  5
3BE
330
6B
100
AcDbEntity
  8
0
100
AcDbCircle
 10
448.57693
 20
161.038249
 30
0.0
 40
0.7
100
AcDbArc
 50
180.0
 51
270.0
  0
LINE
  5
3BF
330
6B
100
AcDbEntity
  8
0
100
AcDbLine
 10
466.07693
 20
160.338249
 30
0.0
 11
448.57693
 21
160.338249
 31
0.0
  0
ARC
  5
3C0
330
6B
100
AcDbEntity
  8
0
100
AcDbCircle
 10
466.07693
 20
161.038249
 30
0.0
 40
0.7
100
AcDbArc
 50
270.0
 51
0.0
  0
LINE
  5
3C1
330
6B
100
AcDbEntity
  8
0
100
AcDbLine
 10
459.77693
 20
162.788249
 30
0.0
 11
459.77693
 21
165.238249
 31
0.0
  0
LINE
  5
3C2
330
6B
100
AcDbEntity
  8
0
100
AcDbLine
 10
454.87693
 20
162.788249
 30
0.0
 11
459.77693
 21
162.788249
 31
0.0
  0
LINE
  5
3C3
330
6B
100
AcDbEntity
  8
0
100
AcDbLine
 10
454.87693
 20
165.238249
 30
0.0
 11
454.87693
 21
162.788249
 31
0.0
  0
LINE
  5
3C4
330
6B
100
AcDbEntity
  8
0
100
AcDbLine
 10
451.7269299999998
 20
176.788249
 30
0.0
 11
454.1769299999998
 21
176.788249
 31
0.0
  0
LINE
  5
3C5
330
6B
100
AcDbEntity
  8
0
100
AcDbLine
 10
451.7269299999998
 20
169.788249
 30
0.0
 11
451.7269299999998
 21
176.788249
 31
0.0
  0
LINE
  5
3C6
330
6B
100
AcDbEntity
  8
0
100
AcDbLine
 10
454.1769299999998
 20
169.788249
 30
0.0
 11
451.7269299999998
 21
169.788249
 31
0.0
  0
LINE
  5
3C7
330
6B
100
AcDbEntity
  8
0
100
AcDbLine
 10
454.1769299999998
 20
169.788249
 30
0.0
 11
454.1769299999998
 21
176.788249
 31
0.0
  0
LINE
  5
3C8
330
6B
100
AcDbEntity
  8
0
100
AcDbLine
 10
460.47693
 20
176.438249
 30
0.0
 11
462.9269299999998
 21
176.438249
 31
0.0
  0
LINE
  5
3C9
330
6B
100
AcDbEntity
  8
0
100
AcDbLine
 10
460.47693
 20
176.438249
 30
0.0
 11
460.47693
 21
170.138249
 31
0.0
  0
LINE
  5
3CA
330
6B
100
AcDbEntity
  8
0
100
AcDbLine
 10
462.9269299999998
 20
176.438249
 30
0.0
 11
462.9269299999998
 21
170.138249
 31
0.0
  0
ARC
  5
3CB
330
6B
100
AcDbEntity
  8
0
100
AcDbCircle
 10
457.3269299999998
 20
165.238249
 30
0.0
 40
2.45
100
AcDbArc
 50
0.0
 51
180.0
  0
LINE
  5
3CC
330
6B
100
AcDbEntity
  8
0
100
AcDbLine
 10
460.47693
 20
170.138249
 30
0.0
 11
462.9269299999998
 21
170.138249
 31
0.0
  0
LINE
  5
3CD
330
6B
100
AcDbEntity
  8
0
100
AcDbLine
 10
487.7741299999998
 20
143.185449
 30
0.0
 11
490.9241299999997
 21
145.285449
 31
0.0
  0
LINE
  5
3CE
330
6B
100
AcDbEntity
  8
0
100
AcDbLine
 10
482.8741299999999
 20
143.185449
 30
0.0
 11
487.7741299999998
 21
143.185449
 31
0.0
  0
LINE
  5
3CF
330
6B
100
AcDbEntity
  8
0
100
AcDbLine
 10
479.72413
 20
145.285449
 30
0.0
 11
482.8741299999999
 21
143.185449
 31
0.0
  0
LINE
  5
3D0
330
6B
100
AcDbEntity
  8
0
100
AcDbLine
 10
462.92973
 20
145.285449
 30
0.0
 11
459.7797299999998
 21
143.185449
 31
0.0
  0
LINE
  5
3D1
330
6B
100
AcDbEntity
  8
0
100
AcDbLine
 10
459.7797299999998
 20
143.185449
 30
0.0
 11
454.87973
 21
143.185449
 31
0.0
  0
LINE
  5
3D2
330
6B
100
AcDbEntity
  8
0
100
AcDbLine
 10
454.87973
 20
143.185449
 30
0.0
 11
451.72973
 21
145.285449
 31
0.0
  0
LINE
  5
3D3
330
6B
100
AcDbEntity
  8
0
100
AcDbLine
 10
557.3541299999998
 20
143.255449
 30
0.0
 11
560.50413
 21
145.355449
 31
0.0
  0
LINE
  5
3D4
330
6B
100
AcDbEntity
  8
0
100
AcDbLine
 10
549.3041299999998
 20
145.355449
 30
0.0
 11
552.45413
 21
143.255449
 31
0.0
  0
LINE
  5
3D5
330
6B
100
AcDbEntity
  8
0
100
AcDbLine
 10
552.45413
 20
143.255449
 30
0.0
 11
557.3541299999998
 21
143.255449
 31
0.0
  0
LINE
  5
3D6
330
6B
100
AcDbEntity
  8
0
100
AcDbLine
 10
655.00413
 20
145.355449
 30
0.0
 11
651.8541299999998
 21
143.255449
 31
0.0
  0
LINE
  5
3D7
330
6B
100
AcDbEntity
  8
0
100
AcDbLine
 10
651.8541299999998
 20
143.255449
 30
0.0
 11
646.9541299999998
 21
143.255449
 31
0.0
  0
LINE
  5
3D8
330
6B
100
AcDbEntity
  8
0
100
AcDbLine
 10
646.9541299999998
 20
143.255449
 30
0.0
 11
643.80413
 21
145.355449
 31
0.0
  0
LINE
  5
3D9
330
6B
100
AcDbEntity
  8
0
100
AcDbLine
 10
666.2041299999998
 20
153.490849
 30
0.0
 11
663.4041299999998
 21
153.490849
 31
0.0
  0
LINE
  5
3DA
330
6B
100
AcDbEntity
  8
0
100
AcDbLine
 10
666.2041299999998
 20
161.120849
 30
0.0
 11
663.4041299999998
 21
161.120849
 31
0.0
  0
LINE
  5
3DB
330
6B
100
AcDbEntity
  8
0
100
AcDbLine
 10
666.2041299999998
 20
153.490849
 30
0.0
 11
666.2041299999998
 21
161.120849
 31
0.0
  0
LINE
  5
3DC
330
6B
100
AcDbEntity
  8
0
100
AcDbLine
 10
757.4799299999998
 20
179.488249
 30
0.0
 11
757.4799299999998
 21
221.488249
 31
0.0
  0
ARC
  5
3DD
330
6B
100
AcDbEntity
  8
0
100
AcDbCircle
 10
753.9799299999998
 20
217.988249
 30
0.0
 40
2.1
100
AcDbArc
 50
0.0
 51
90.0
  0
LINE
  5
3DE
330
6B
100
AcDbEntity
  8
0
100
AcDbLine
 10
756.07993
 20
217.988249
 30
0.0
 11
756.07993
 21
182.988249
 31
0.0
  0
ARC
  5
3DF
330
6B
100
AcDbEntity
  8
0
100
AcDbCircle
 10
753.9799299999998
 20
182.988249
 30
0.0
 40
2.1
100
AcDbArc
 50
270.0
 51
0.0
  0
LINE
  5
3E0
330
6B
100
AcDbEntity
  8
0
100
AcDbLine
 10
715.4799299999998
 20
221.488249
 30
0.0
 11
715.4799299999998
 21
179.488249
 31
0.0
  0
ARC
  5
3E1
330
6B
100
AcDbEntity
  8
0
100
AcDbCircle
 10
718.9799299999998
 20
217.988249
 30
0.0
 40
2.1
100
AcDbArc
 50
90.0
 51
180.0
  0
LINE
  5
3E2
330
6B
100
AcDbEntity
  8
0
100
AcDbLine
 10
716.8799299999998
 20
182.988249
 30
0.0
 11
716.8799299999998
 21
217.988249
 31
0.0
  0
ARC
  5
3E3
330
6B
100
AcDbEntity
  8
0
100
AcDbCircle
 10
718.9799299999998
 20
182.988249
 30
0.0
 40
2.1
100
AcDbArc
 50
180.0
 51
270.0
  0
TEXT
  5
3E4
330
6B
100
AcDbEntity
  8
0
100
AcDbText
 10
719.67993
 20
204.478249
 30
0.0
 40
2.1
  1
　必ず確認して下さい。
 41
0.596
100
AcDbText
  0
TEXT
  5
3E5
330
6B
100
AcDbEntity
  8
0
100
AcDbText
 10
719.67993
 20
200.278249
 30
0.0
 40
2.1
  1
　下さい。
 41
0.596
100
AcDbText
  0
TEXT
  5
3E6
330
6B
100
AcDbEntity
  8
0
100
AcDbText
 10
719.67993
 20
196.078249
 30
0.0
 40
2.1
  1
　て下さい。
 41
0.596
100
AcDbText
  0
LINE
  5
3E7
330
6B
100
AcDbEntity
  8
0
100
AcDbLine
 10
715.4799299999998
 20
179.488249
 30
0.0
 11
757.4799299999998
 21
179.488249
 31
0.0
  0
LINE
  5
3E8
330
6B
100
AcDbEntity
  8
0
100
AcDbLine
 10
757.4799299999998
 20
221.488249
 30
0.0
 11
715.4799299999998
 21
221.488249
 31
0.0
  0
LINE
  5
3E9
330
6B
100
AcDbEntity
  8
0
100
AcDbLine
 10
718.9799299999998
 20
220.088249
 30
0.0
 11
753.9799299999998
 21
220.088249
 31
0.0
  0
LINE
  5
3EA
330
6B
100
AcDbEntity
  8
0
100
AcDbLine
 10
753.9799299999998
 20
180.888249
 30
0.0
 11
718.9799299999998
 21
180.888249
 31
0.0
  0
TEXT
  5
3EB
330
6B
100
AcDbEntity
  8
0
100
AcDbText
 10
719.67993
 20
206.578249
 30
0.0
 40
2.1
  1
●入力電圧がＡＣ２２０Ｖ～２３０Ｖであることを
 41
0.596
100
AcDbText
  0
TEXT
  5
3EC
330
6B
100
AcDbEntity
  8
0
100
AcDbText
 10
719.67993
 20
202.378249
 30
0.0
 40
2.1
  1
●前面パネルに表示されている容量以下でご使用
 41
0.596
100
AcDbText
  0
TEXT
  5
3ED
330
6B
100
AcDbEntity
  8
0
100
AcDbText
 10
719.67993
 20
198.178249
 30
0.0
 40
2.1
  1
●使用後は電源スイッチを切り電源コ－ドを抜い
 41
0.596
100
AcDbText
  0
TEXT
  5
3EE
330
6B
100
AcDbEntity
  8
0
100
AcDbText
 10
719.67993
 20
193.978249
 30
0.0
 40
2.1
  1
●ブレ－カ－がＯＦＦになった場合は、原因を取り
 41
0.596
100
AcDbText
  0
TEXT
  5
3EF
330
6B
100
AcDbEntity
  8
0
100
AcDbText
 10
719.67993
 20
191.878249
 30
0.0
 40
2.1
  1
　除いてから、ブレ－カ－を復帰させて下さい。
 41
0.596
100
AcDbText
  0
TEXT
  5
3F0
330
6B
100
AcDbEntity
  8
0
100
AcDbText
 10
724.5799299999998
 20
182.078249
 30
0.0
 40
2.799999999999998
  1
スワロ－電機株式会社
 41
0.6970000000000001
100
AcDbText
  0
LINE
  5
3F1
330
6B
100
AcDbEntity
  8
0
100
AcDbLine
 10
726.3299299999999
 20
214.488249
 30
0.0
 11
723.52993
 21
209.938249
 31
0.0
  0
LINE
  5
3F2
330
6B
100
AcDbEntity
  8
0
100
AcDbLine
 10
723.52993
 20
209.938249
 30
0.0
 11
729.1299299999998
 21
209.938249
 31
0.0
  0
LINE
  5
3F3
330
6B
100
AcDbEntity
  8
0
100
AcDbLine
 10
726.3299299999999
 20
214.488249
 30
0.0
 11
729.1299299999998
 21
209.938249
 31
0.0
  0
TEXT
  5
3F4
330
6B
100
AcDbEntity
  8
0
100
AcDbText
 10
725.373263
 20
210.708249
 30
0.0
 40
2.87
  1
!
 41
3.600004
100
AcDbText
  0
LINE
  5
3F5
330
6B
100
AcDbEntity
  8
0
100
AcDbLine
 10
755.0985299999998
 20
157.538249
 30
0.0
 11
753.27993
 21
158.588249
 31
0.0
  0
LINE
  5
3F6
330
6B
100
AcDbEntity
  8
0
100
AcDbLine
 10
753.27993
 20
158.588249
 30
0.0
 11
751.4613299999998
 21
157.538249
 31
0.0
  0
LINE
  5
3F7
330
6B
100
AcDbEntity
  8
0
100
AcDbLine
 10
751.4613299999998
 20
157.538249
 30
0.0
 11
751.4613299999998
 21
155.438249
 31
0.0
  0
LINE
  5
3F8
330
6B
100
AcDbEntity
  8
0
100
AcDbLine
 10
751.4613299999998
 20
155.438249
 30
0.0
 11
753.27993
 21
154.388249
 31
0.0
  0
LINE
  5
3F9
330
6B
100
AcDbEntity
  8
0
100
AcDbLine
 10
753.27993
 20
154.388249
 30
0.0
 11
755.0985299999998
 21
155.438249
 31
0.0
  0
LINE
  5
3FA
330
6B
100
AcDbEntity
  8
0
100
AcDbLine
 10
755.0985299999998
 20
155.438249
 30
0.0
 11
755.0985299999998
 21
157.538249
 31
0.0
  0
CIRCLE
  5
3FB
330
6B
100
AcDbEntity
  8
0
100
AcDbCircle
 10
753.27993
 20
156.488249
 30
0.0
 40
1.05
  0
LINE
  5
3FC
330
6B
100
AcDbEntity
  8
0
100
AcDbLine
 10
749.42993
 20
160.688249
 30
0.0
 11
757.1299299999998
 21
160.688249
 31
0.0
  0
LINE
  5
3FD
330
6B
100
AcDbEntity
  8
0
100
AcDbLine
 10
757.1299299999998
 20
160.688249
 30
0.0
 11
757.1299299999998
 21
165.588249
 31
0.0
  0
LINE
  5
3FE
330
6B
100
AcDbEntity
  8
0
100
AcDbLine
 10
757.1299299999998
 20
165.588249
 30
0.0
 11
749.42993
 21
165.588249
 31
0.0
  0
LINE
  5
3FF
330
6B
100
AcDbEntity
  8
0
100
AcDbLine
 10
749.42993
 20
165.588249
 30
0.0
 11
749.42993
 21
160.688249
 31
0.0
  0
LINE
  5
400
330
6B
100
AcDbEntity
  8
0
100
AcDbLine
 10
753.27993
 20
164.888249
 30
0.0
 11
753.27993
 21
163.138249
 31
0.0
  0
LINE
  5
401
330
6B
100
AcDbEntity
  8
0
100
AcDbLine
 10
751.1799299999998
 20
163.138249
 30
0.0
 11
755.3799299999998
 21
163.138249
 31
0.0
  0
LINE
  5
402
330
6B
100
AcDbEntity
  8
0
100
AcDbLine
 10
751.8799299999998
 20
162.438249
 30
0.0
 11
754.6799299999999
 21
162.438249
 31
0.0
  0
LINE
  5
403
330
6B
100
AcDbEntity
  8
0
100
AcDbLine
 10
752.57993
 20
161.738249
 30
0.0
 11
753.9799299999998
 21
161.738249
 31
0.0
  0
ARC
  5
404
330
6B
100
AcDbEntity
  8
0
100
AcDbCircle
 10
759.57993
 20
150.188249
 30
0.0
 40
4.2
100
AcDbArc
 50
270.0
 51
0.0
  0
LINE
  5
405
330
6B
100
AcDbEntity
  8
0
100
AcDbLine
 10
763.77993
 20
228.199049
 30
0.0
 11
763.77993
 21
150.188249
 31
0.0
  0
LINE
  5
406
330
6B
100
AcDbEntity
  8
0
100
AcDbLine
 10
759.57993
 20
145.988249
 30
0.0
 11
713.3799299999998
 21
145.988249
 31
0.0
  0
LINE
  5
407
330
6B
100
AcDbEntity
  8
0
100
AcDbLine
 10
728.0841299999998
 20
145.285449
 30
0.0
 11
724.93413
 21
143.185449
 31
0.0
  0
LINE
  5
408
330
6B
100
AcDbEntity
  8
0
100
AcDbLine
 10
724.93413
 20
143.185449
 30
0.0
 11
720.0341299999998
 21
143.185449
 31
0.0
  0
LINE
  5
409
330
6B
100
AcDbEntity
  8
0
100
AcDbLine
 10
720.0341299999998
 20
143.185449
 30
0.0
 11
716.88413
 21
145.285449
 31
0.0
  0
LINE
  5
40A
330
6B
100
AcDbEntity
  8
0
100
AcDbLine
 10
744.8771299999998
 20
145.285449
 30
0.0
 11
748.0271299999998
 21
143.185449
 31
0.0
  0
LINE
  5
40B
330
6B
100
AcDbEntity
  8
0
100
AcDbLine
 10
748.0271299999998
 20
143.185449
 30
0.0
 11
752.92713
 21
143.185449
 31
0.0
  0
LINE
  5
40C
330
6B
100
AcDbEntity
  8
0
100
AcDbLine
 10
752.92713
 20
143.185449
 30
0.0
 11
756.0771299999998
 21
145.285449
 31
0.0
  0
ARC
  5
40D
330
6B
100
AcDbEntity
  8
0
100
AcDbCircle
 10
713.3799299999998
 20
150.188249
 30
0.0
 40
4.2
100
AcDbArc
 50
180.0
 51
270.0
  0
LINE
  5
40E
330
6B
100
AcDbEntity
  8
0
100
AcDbLine
 10
709.1799299999999
 20
150.188249
 30
0.0
 11
709.1799299999999
 21
228.199049
 31
0.0
  0
ARC
  5
40F
330
6B
100
AcDbEntity
  8
0
100
AcDbCircle
 10
713.3799299999998
 20
228.199049
 30
0.0
 40
4.2
100
AcDbArc
 50
90.0
 51
180.0
  0
LINE
  5
410
330
6B
100
AcDbEntity
  8
0
100
AcDbLine
 10
713.3799299999998
 20
232.399049
 30
0.0
 11
759.57993
 21
232.399049
 31
0.0
  0
ARC
  5
411
330
6B
100
AcDbEntity
  8
0
100
AcDbCircle
 10
759.57993
 20
228.199049
 30
0.0
 40
4.2
100
AcDbArc
 50
0.0
 51
90.0
  0
ARC
  5
412
330
6B
100
AcDbEntity
  8
0
100
AcDbCircle
 10
736.4799299999998
 20
234.266649
 30
0.0
 40
3.383799999999998
100
AcDbArc
 50
43.603
 51
136.397
  0
ARC
  5
413
330
6B
100
AcDbEntity
  8
0
100
AcDbCircle
 10
742.0799299999998
 20
235.899049
 30
0.0
 40
0.7
100
AcDbArc
 50
0.0
 51
90.0
  0
LINE
  5
414
330
6B
100
AcDbEntity
  8
0
100
AcDbLine
 10
742.0799299999998
 20
236.5990490000001
 30
0.0
 11
730.8799299999998
 21
236.5990490000001
 31
0.0
  0
ARC
  5
415
330
6B
100
AcDbEntity
  8
0
100
AcDbCircle
 10
730.8799299999998
 20
235.899049
 30
0.0
 40
0.7
100
AcDbArc
 50
90.0
 51
180.0
  0
ARC
  5
416
330
6B
100
AcDbEntity
  8
0
100
AcDbCircle
 10
736.4799299999998
 20
234.266649
 30
0.0
 40
3.383799999999998
100
AcDbArc
 50
43.603
 51
136.397
  0
ARC
  5
417
330
6B
100
AcDbEntity
  8
0
100
AcDbCircle
 10
742.0799299999998
 20
235.899049
 30
0.0
 40
0.7
100
AcDbArc
 50
0.0
 51
90.0
  0
LINE
  5
418
330
6B
100
AcDbEntity
  8
0
100
AcDbLine
 10
742.0799299999998
 20
236.5990490000001
 30
0.0
 11
730.8799299999998
 21
236.5990490000001
 31
0.0
  0
ARC
  5
419
330
6B
100
AcDbEntity
  8
0
100
AcDbCircle
 10
730.8799299999998
 20
235.899049
 30
0.0
 40
0.7
100
AcDbArc
 50
90.0
 51
180.0
  0
ARC
  5
41A
330
6B
100
AcDbEntity
  8
0
 62
     3
100
AcDbCircle
 10
669.00413
 20
148.205849
 30
0.0
 40
7.0
100
AcDbArc
 50
0.0
 51
90.0
  0
ARC
  5
41B
330
6B
100
AcDbEntity
  8
0
 62
     3
100
AcDbCircle
 10
669.00413
 20
148.205849
 30
0.0
 40
11.2
100
AcDbArc
 50
0.0
 51
90.0
  0
LINE
  5
41C
330
6B
100
AcDbEntity
  8
0
100
AcDbLine
 10
494.42693
 20
148.088249
 30
0.0
 11
448.2269299999998
 21
148.088249
 31
0.0
  0
LINE
  5
41D
330
6B
100
AcDbEntity
  8
0
100
AcDbLine
 10
494.42693
 20
153.688249
 30
0.0
 11
448.2269299999998
 21
153.688249
 31
0.0
  0
LINE
  5
41E
330
6B
100
AcDbEntity
  8
0
100
AcDbLine
 10
494.42693
 20
153.688249
 30
0.0
 11
494.42693
 21
148.088249
 31
0.0
  0
LINE
  5
41F
330
6B
100
AcDbEntity
  8
0
100
AcDbLine
 10
448.2269299999998
 20
148.088249
 30
0.0
 11
448.2269299999998
 21
153.688249
 31
0.0
  0
LINE
  5
420
330
6B
100
AcDbEntity
  8
0
100
AcDbLine
 10
674.25413
 20
135.955849
 30
0.0
 11
681.95413
 21
135.955849
 31
0.0
  0
LINE
  5
421
330
6B
100
AcDbEntity
  8
0
100
AcDbLine
 10
674.25413
 20
138.755849
 30
0.0
 11
681.95413
 21
138.755849
 31
0.0
  0
TEXT
  5
422
330
6B
100
AcDbEntity
  8
0
100
AcDbText
 10
447.5269299999998
 20
206.888249
 30
0.0
 40
2.1
  1
STEP DOWN TRANSFORMER
 41
0.640848
100
AcDbText
  0
TEXT
  5
423
330
6B
100
AcDbEntity
  8
0
 62
     3
100
AcDbText
 10
744.1770669999998
 20
122.001484
 30
0.0
 40
3.2
  1
PAL-1000EP
  7
高3.2
100
AcDbText
  0
TEXT
  5
424
330
6B
100
AcDbEntity
  8
0
 62
     3
100
AcDbText
 10
744.1770669999998
 20
116.457484
 30
0.0
 40
3.2
  1
1KVA
  7
高3.2
100
AcDbText
  0
LINE
  5
425
330
6B
100
AcDbEntity
  8
0
 62
     3
100
AcDbLine
 10
725.9055339999998
 20
93.78148399999998
 30
0.0
 11
777.1831859343325
 21
93.78148399999998
 31
0.0
  0
LINE
  5
426
330
6B
100
AcDbEntity
  8
0
 62
     3
100
AcDbLine
 10
777.1831859343325
 20
127.045484
 30
0.0
 11
777.1831859343325
 21
93.78148399999998
 31
0.0
  0
LINE
  5
427
330
6B
100
AcDbEntity
  8
0
 62
     3
100
AcDbLine
 10
742.6770669999998
 20
127.045484
 30
0.0
 11
742.6770669999998
 21
93.78148399999998
 31
0.0
  0
LINE
  5
428
330
6B
100
AcDbEntity
  8
0
 62
     3
100
AcDbLine
 10
725.9055339999998
 20
127.045484
 30
0.0
 11
725.9055339999998
 21
93.78148399999998
 31
0.0
  0
TEXT
  5
429
330
6B
100
AcDbEntity
  8
0
 62
     3
100
AcDbText
 10
744.1770669999998
 20
94.28148400000001
 30
0.0
 40
3.2
  1
約5.0kg
  7
高3.2
100
AcDbText
  0
TEXT
  5
42A
330
6B
100
AcDbEntity
  8
0
 62
     3
100
AcDbText
 10
744.1770669999998
 20
105.369484
 30
0.0
 40
3.2
  1
AC220-230V
  7
高3.2
100
AcDbText
  0
CIRCLE
  5
42B
330
6B
100
AcDbEntity
  8
0
100
AcDbCircle
 10
495.32693
 20
185.202961
 30
0.0
 40
0.75
  0
CIRCLE
  5
42C
330
6B
100
AcDbEntity
  8
0
100
AcDbCircle
 10
495.32693
 20
187.202961
 30
0.0
 40
0.75
  0
CIRCLE
  5
42D
330
6B
100
AcDbEntity
  8
0
100
AcDbCircle
 10
495.32693
 20
189.202961
 30
0.0
 40
0.75
  0
CIRCLE
  5
42E
330
6B
100
AcDbEntity
  8
0
100
AcDbCircle
 10
495.32693
 20
191.202961
 30
0.0
 40
0.75
  0
CIRCLE
  5
42F
330
6B
100
AcDbEntity
  8
0
100
AcDbCircle
 10
493.32693
 20
185.202961
 30
0.0
 40
0.75
  0
CIRCLE
  5
430
330
6B
100
AcDbEntity
  8
0
100
AcDbCircle
 10
493.32693
 20
187.202961
 30
0.0
 40
0.75
  0
CIRCLE
  5
431
330
6B
100
AcDbEntity
  8
0
100
AcDbCircle
 10
493.32693
 20
189.202961
 30
0.0
 40
0.75
  0
CIRCLE
  5
432
330
6B
100
AcDbEntity
  8
0
100
AcDbCircle
 10
493.32693
 20
191.202961
 30
0.0
 40
0.75
  0
CIRCLE
  5
433
330
6B
100
AcDbEntity
  8
0
100
AcDbCircle
 10
491.32693
 20
185.202961
 30
0.0
 40
0.75
  0
CIRCLE
  5
434
330
6B
100
AcDbEntity
  8
0
100
AcDbCircle
 10
491.32693
 20
187.202961
 30
0.0
 40
0.75
  0
CIRCLE
  5
435
330
6B
100
AcDbEntity
  8
0
100
AcDbCircle
 10
491.32693
 20
189.202961
 30
0.0
 40
0.75
  0
CIRCLE
  5
436
330
6B
100
AcDbEntity
  8
0
100
AcDbCircle
 10
491.32693
 20
191.202961
 30
0.0
 40
0.75
  0
CIRCLE
  5
437
330
6B
100
AcDbEntity
  8
0
100
AcDbCircle
 10
489.32693
 20
185.202961
 30
0.0
 40
0.75
  0
CIRCLE
  5
438
330
6B
100
AcDbEntity
  8
0
100
AcDbCircle
 10
489.32693
 20
187.202961
 30
0.0
 40
0.75
  0
CIRCLE
  5
439
330
6B
100
AcDbEntity
  8
0
100
AcDbCircle
 10
489.32693
 20
189.202961
 30
0.0
 40
0.75
  0
CIRCLE
  5
43A
330
6B
100
AcDbEntity
  8
0
100
AcDbCircle
 10
489.32693
 20
191.202961
 30
0.0
 40
0.75
  0
CIRCLE
  5
43B
330
6B
100
AcDbEntity
  8
0
100
AcDbCircle
 10
487.32693
 20
185.202961
 30
0.0
 40
0.75
  0
CIRCLE
  5
43C
330
6B
100
AcDbEntity
  8
0
100
AcDbCircle
 10
487.32693
 20
187.202961
 30
0.0
 40
0.75
  0
CIRCLE
  5
43D
330
6B
100
AcDbEntity
  8
0
100
AcDbCircle
 10
487.32693
 20
189.202961
 30
0.0
 40
0.75
  0
CIRCLE
  5
43E
330
6B
100
AcDbEntity
  8
0
100
AcDbCircle
 10
487.32693
 20
191.202961
 30
0.0
 40
0.75
  0
CIRCLE
  5
43F
330
6B
100
AcDbEntity
  8
0
100
AcDbCircle
 10
485.32693
 20
185.202961
 30
0.0
 40
0.75
  0
CIRCLE
  5
440
330
6B
100
AcDbEntity
  8
0
100
AcDbCircle
 10
485.32693
 20
187.202961
 30
0.0
 40
0.75
  0
CIRCLE
  5
441
330
6B
100
AcDbEntity
  8
0
100
AcDbCircle
 10
485.32693
 20
189.202961
 30
0.0
 40
0.75
  0
CIRCLE
  5
442
330
6B
100
AcDbEntity
  8
0
100
AcDbCircle
 10
485.32693
 20
191.202961
 30
0.0
 40
0.75
  0
CIRCLE
  5
443
330
6B
100
AcDbEntity
  8
0
100
AcDbCircle
 10
483.32693
 20
185.202961
 30
0.0
 40
0.75
  0
CIRCLE
  5
444
330
6B
100
AcDbEntity
  8
0
100
AcDbCircle
 10
483.32693
 20
187.202961
 30
0.0
 40
0.75
  0
CIRCLE
  5
445
330
6B
100
AcDbEntity
  8
0
100
AcDbCircle
 10
483.32693
 20
189.202961
 30
0.0
 40
0.75
  0
CIRCLE
  5
446
330
6B
100
AcDbEntity
  8
0
100
AcDbCircle
 10
483.32693
 20
191.202961
 30
0.0
 40
0.75
  0
CIRCLE
  5
447
330
6B
100
AcDbEntity
  8
0
100
AcDbCircle
 10
481.3269299999998
 20
185.202961
 30
0.0
 40
0.75
  0
CIRCLE
  5
448
330
6B
100
AcDbEntity
  8
0
100
AcDbCircle
 10
481.3269299999998
 20
187.202961
 30
0.0
 40
0.75
  0
CIRCLE
  5
449
330
6B
100
AcDbEntity
  8
0
100
AcDbCircle
 10
481.3269299999998
 20
189.202961
 30
0.0
 40
0.75
  0
CIRCLE
  5
44A
330
6B
100
AcDbEntity
  8
0
100
AcDbCircle
 10
481.3269299999998
 20
191.202961
 30
0.0
 40
0.75
  0
CIRCLE
  5
44B
330
6B
100
AcDbEntity
  8
0
100
AcDbCircle
 10
479.32693
 20
185.202961
 30
0.0
 40
0.75
  0
CIRCLE
  5
44C
330
6B
100
AcDbEntity
  8
0
100
AcDbCircle
 10
479.32693
 20
187.202961
 30
0.0
 40
0.75
  0
CIRCLE
  5
44D
330
6B
100
AcDbEntity
  8
0
100
AcDbCircle
 10
479.32693
 20
189.202961
 30
0.0
 40
0.75
  0
CIRCLE
  5
44E
330
6B
100
AcDbEntity
  8
0
100
AcDbCircle
 10
479.32693
 20
191.202961
 30
0.0
 40
0.75
  0
CIRCLE
  5
44F
330
6B
100
AcDbEntity
  8
0
100
AcDbCircle
 10
477.3269299999998
 20
185.202961
 30
0.0
 40
0.75
  0
CIRCLE
  5
450
330
6B
100
AcDbEntity
  8
0
100
AcDbCircle
 10
477.3269299999998
 20
187.202961
 30
0.0
 40
0.75
  0
CIRCLE
  5
451
330
6B
100
AcDbEntity
  8
0
100
AcDbCircle
 10
477.3269299999998
 20
189.202961
 30
0.0
 40
0.75
  0
CIRCLE
  5
452
330
6B
100
AcDbEntity
  8
0
100
AcDbCircle
 10
477.3269299999998
 20
191.202961
 30
0.0
 40
0.75
  0
CIRCLE
  5
453
330
6B
100
AcDbEntity
  8
0
100
AcDbCircle
 10
475.32693
 20
185.202961
 30
0.0
 40
0.75
  0
CIRCLE
  5
454
330
6B
100
AcDbEntity
  8
0
100
AcDbCircle
 10
475.32693
 20
187.202961
 30
0.0
 40
0.75
  0
CIRCLE
  5
455
330
6B
100
AcDbEntity
  8
0
100
AcDbCircle
 10
475.32693
 20
189.202961
 30
0.0
 40
0.75
  0
CIRCLE
  5
456
330
6B
100
AcDbEntity
  8
0
100
AcDbCircle
 10
475.32693
 20
191.202961
 30
0.0
 40
0.75
  0
CIRCLE
  5
457
330
6B
100
AcDbEntity
  8
0
100
AcDbCircle
 10
473.3269299999998
 20
185.202961
 30
0.0
 40
0.75
  0
CIRCLE
  5
458
330
6B
100
AcDbEntity
  8
0
100
AcDbCircle
 10
473.3269299999998
 20
187.202961
 30
0.0
 40
0.75
  0
CIRCLE
  5
459
330
6B
100
AcDbEntity
  8
0
100
AcDbCircle
 10
473.3269299999998
 20
189.202961
 30
0.0
 40
0.75
  0
CIRCLE
  5
45A
330
6B
100
AcDbEntity
  8
0
100
AcDbCircle
 10
473.3269299999998
 20
191.202961
 30
0.0
 40
0.75
  0
CIRCLE
  5
45B
330
6B
100
AcDbEntity
  8
0
100
AcDbCircle
 10
471.32693
 20
185.202961
 30
0.0
 40
0.75
  0
CIRCLE
  5
45C
330
6B
100
AcDbEntity
  8
0
100
AcDbCircle
 10
471.32693
 20
187.202961
 30
0.0
 40
0.75
  0
CIRCLE
  5
45D
330
6B
100
AcDbEntity
  8
0
100
AcDbCircle
 10
471.32693
 20
189.202961
 30
0.0
 40
0.75
  0
CIRCLE
  5
45E
330
6B
100
AcDbEntity
  8
0
100
AcDbCircle
 10
471.32693
 20
191.202961
 30
0.0
 40
0.75
  0
CIRCLE
  5
45F
330
6B
100
AcDbEntity
  8
0
100
AcDbCircle
 10
469.3269299999998
 20
185.202961
 30
0.0
 40
0.75
  0
CIRCLE
  5
460
330
6B
100
AcDbEntity
  8
0
100
AcDbCircle
 10
469.3269299999998
 20
187.202961
 30
0.0
 40
0.75
  0
CIRCLE
  5
461
330
6B
100
AcDbEntity
  8
0
100
AcDbCircle
 10
469.3269299999998
 20
189.202961
 30
0.0
 40
0.75
  0
CIRCLE
  5
462
330
6B
100
AcDbEntity
  8
0
100
AcDbCircle
 10
469.3269299999998
 20
191.202961
 30
0.0
 40
0.75
  0
CIRCLE
  5
463
330
6B
100
AcDbEntity
  8
0
100
AcDbCircle
 10
467.32693
 20
185.202961
 30
0.0
 40
0.75
  0
CIRCLE
  5
464
330
6B
100
AcDbEntity
  8
0
100
AcDbCircle
 10
467.32693
 20
187.202961
 30
0.0
 40
0.75
  0
CIRCLE
  5
465
330
6B
100
AcDbEntity
  8
0
100
AcDbCircle
 10
467.32693
 20
189.202961
 30
0.0
 40
0.75
  0
CIRCLE
  5
466
330
6B
100
AcDbEntity
  8
0
100
AcDbCircle
 10
467.32693
 20
191.202961
 30
0.0
 40
0.75
  0
CIRCLE
  5
467
330
6B
100
AcDbEntity
  8
0
100
AcDbCircle
 10
465.3269299999998
 20
185.202961
 30
0.0
 40
0.75
  0
CIRCLE
  5
468
330
6B
100
AcDbEntity
  8
0
100
AcDbCircle
 10
465.3269299999998
 20
187.202961
 30
0.0
 40
0.75
  0
CIRCLE
  5
469
330
6B
100
AcDbEntity
  8
0
100
AcDbCircle
 10
465.3269299999998
 20
189.202961
 30
0.0
 40
0.75
  0
CIRCLE
  5
46A
330
6B
100
AcDbEntity
  8
0
100
AcDbCircle
 10
465.3269299999998
 20
191.202961
 30
0.0
 40
0.75
  0
CIRCLE
  5
46B
330
6B
100
AcDbEntity
  8
0
100
AcDbCircle
 10
463.32693
 20
185.202961
 30
0.0
 40
0.75
  0
CIRCLE
  5
46C
330
6B
100
AcDbEntity
  8
0
100
AcDbCircle
 10
463.32693
 20
187.202961
 30
0.0
 40
0.75
  0
CIRCLE
  5
46D
330
6B
100
AcDbEntity
  8
0
100
AcDbCircle
 10
463.32693
 20
189.202961
 30
0.0
 40
0.75
  0
CIRCLE
  5
46E
330
6B
100
AcDbEntity
  8
0
100
AcDbCircle
 10
463.32693
 20
191.202961
 30
0.0
 40
0.75
  0
CIRCLE
  5
46F
330
6B
100
AcDbEntity
  8
0
100
AcDbCircle
 10
461.3269299999998
 20
185.202961
 30
0.0
 40
0.75
  0
CIRCLE
  5
470
330
6B
100
AcDbEntity
  8
0
100
AcDbCircle
 10
461.3269299999998
 20
187.202961
 30
0.0
 40
0.75
  0
CIRCLE
  5
471
330
6B
100
AcDbEntity
  8
0
100
AcDbCircle
 10
461.3269299999998
 20
189.202961
 30
0.0
 40
0.75
  0
CIRCLE
  5
472
330
6B
100
AcDbEntity
  8
0
100
AcDbCircle
 10
461.3269299999998
 20
191.202961
 30
0.0
 40
0.75
  0
CIRCLE
  5
473
330
6B
100
AcDbEntity
  8
0
100
AcDbCircle
 10
459.32693
 20
185.202961
 30
0.0
 40
0.75
  0
CIRCLE
  5
474
330
6B
100
AcDbEntity
  8
0
100
AcDbCircle
 10
459.32693
 20
187.202961
 30
0.0
 40
0.75
  0
CIRCLE
  5
475
330
6B
100
AcDbEntity
  8
0
100
AcDbCircle
 10
459.32693
 20
189.202961
 30
0.0
 40
0.75
  0
CIRCLE
  5
476
330
6B
100
AcDbEntity
  8
0
100
AcDbCircle
 10
459.32693
 20
191.202961
 30
0.0
 40
0.75
  0
CIRCLE
  5
477
330
6B
100
AcDbEntity
  8
0
100
AcDbCircle
 10
457.3269299999998
 20
185.202961
 30
0.0
 40
0.75
  0
CIRCLE
  5
478
330
6B
100
AcDbEntity
  8
0
100
AcDbCircle
 10
457.3269299999998
 20
187.202961
 30
0.0
 40
0.75
  0
CIRCLE
  5
479
330
6B
100
AcDbEntity
  8
0
100
AcDbCircle
 10
457.3269299999998
 20
189.202961
 30
0.0
 40
0.75
  0
CIRCLE
  5
47A
330
6B
100
AcDbEntity
  8
0
100
AcDbCircle
 10
457.3269299999998
 20
191.202961
 30
0.0
 40
0.75
  0
CIRCLE
  5
47B
330
6B
100
AcDbEntity
  8
0
100
AcDbCircle
 10
455.32693
 20
185.202961
 30
0.0
 40
0.75
  0
CIRCLE
  5
47C
330
6B
100
AcDbEntity
  8
0
100
AcDbCircle
 10
455.32693
 20
187.202961
 30
0.0
 40
0.75
  0
CIRCLE
  5
47D
330
6B
100
AcDbEntity
  8
0
100
AcDbCircle
 10
455.32693
 20
189.202961
 30
0.0
 40
0.75
  0
CIRCLE
  5
47E
330
6B
100
AcDbEntity
  8
0
100
AcDbCircle
 10
455.32693
 20
191.202961
 30
0.0
 40
0.75
  0
CIRCLE
  5
47F
330
6B
100
AcDbEntity
  8
0
100
AcDbCircle
 10
453.3269299999998
 20
185.202961
 30
0.0
 40
0.75
  0
CIRCLE
  5
480
330
6B
100
AcDbEntity
  8
0
100
AcDbCircle
 10
453.3269299999998
 20
187.202961
 30
0.0
 40
0.75
  0
CIRCLE
  5
481
330
6B
100
AcDbEntity
  8
0
100
AcDbCircle
 10
453.3269299999998
 20
189.202961
 30
0.0
 40
0.75
  0
CIRCLE
  5
482
330
6B
100
AcDbEntity
  8
0
100
AcDbCircle
 10
453.3269299999998
 20
191.202961
 30
0.0
 40
0.75
  0
CIRCLE
  5
483
330
6B
100
AcDbEntity
  8
0
100
AcDbCircle
 10
451.32693
 20
185.202961
 30
0.0
 40
0.75
  0
CIRCLE
  5
484
330
6B
100
AcDbEntity
  8
0
100
AcDbCircle
 10
451.32693
 20
187.202961
 30
0.0
 40
0.75
  0
CIRCLE
  5
485
330
6B
100
AcDbEntity
  8
0
100
AcDbCircle
 10
451.32693
 20
189.202961
 30
0.0
 40
0.75
  0
CIRCLE
  5
486
330
6B
100
AcDbEntity
  8
0
100
AcDbCircle
 10
451.32693
 20
191.202961
 30
0.0
 40
0.75
  0
CIRCLE
  5
487
330
6B
100
AcDbEntity
  8
0
100
AcDbCircle
 10
449.32693
 20
185.202961
 30
0.0
 40
0.75
  0
CIRCLE
  5
488
330
6B
100
AcDbEntity
  8
0
100
AcDbCircle
 10
449.32693
 20
187.202961
 30
0.0
 40
0.75
  0
CIRCLE
  5
489
330
6B
100
AcDbEntity
  8
0
100
AcDbCircle
 10
449.32693
 20
189.202961
 30
0.0
 40
0.75
  0
CIRCLE
  5
48A
330
6B
100
AcDbEntity
  8
0
100
AcDbCircle
 10
449.32693
 20
191.202961
 30
0.0
 40
0.75
  0
CIRCLE
  5
48B
330
6B
100
AcDbEntity
  8
0
100
AcDbCircle
 10
447.32693
 20
185.202961
 30
0.0
 40
0.75
  0
CIRCLE
  5
48C
330
6B
100
AcDbEntity
  8
0
100
AcDbCircle
 10
447.32693
 20
187.202961
 30
0.0
 40
0.75
  0
CIRCLE
  5
48D
330
6B
100
AcDbEntity
  8
0
100
AcDbCircle
 10
447.32693
 20
189.202961
 30
0.0
 40
0.75
  0
CIRCLE
  5
48E
330
6B
100
AcDbEntity
  8
0
100
AcDbCircle
 10
447.32693
 20
191.202961
 30
0.0
 40
0.75
  0
TEXT
  5
48F
330
6B
100
AcDbEntity
  8
0
 62
     3
100
AcDbText
 10
697.9486314671977
 20
39.61955800000001
 30
0.0
 40
4.5
  1
PAL-1000EP
  7
高4.5
100
AcDbText
  0
TEXT
  5
490
330
6B
100
AcDbEntity
  8
0
 62
     3
100
AcDbText
 10
744.7835752925621
 20
15.917259
 30
0.0
 40
6.299999999999998
  1
PAL-1000EP
 41
0.8
  7
高6.3
100
AcDbText
  0
TEXT
  5
491
330
6B
100
AcDbEntity
  8
0
 62
     4
100
AcDbText
 10
633.5294448264313
 20
92.39386418972371
 30
0.0
 40
3.2
  1
丸ピン　C2
  7
高3.2
100
AcDbText
  0
TEXT
  5
492
330
6B
100
AcDbEntity
  8
0
 62
     4
100
AcDbText
 10
633.0776088264314
 20
87.87551018972372
 30
0.0
 40
3.2
  1
AC220～230V
  7
高3.2
100
AcDbText
  0
LINE
  5
493
330
6B
100
AcDbEntity
  8
0
100
AcDbLine
 10
403.1884869999998
 20
25.142857
 30
0.0
 11
496.2510942681218
 21
25.142857
 31
0.0
  0
LINE
  5
494
330
6B
100
AcDbEntity
  8
0
100
AcDbLine
 10
403.1884869999998
 20
30.142857
 30
0.0
 11
496.2510942681218
 21
30.142857
 31
0.0
  0
LINE
  5
495
330
6B
100
AcDbEntity
  8
0
100
AcDbLine
 10
403.1884869999998
 20
35.142857
 30
0.0
 11
496.2510942681218
 21
35.142857
 31
0.0
  0
LINE
  5
496
330
6B
100
AcDbEntity
  8
0
100
AcDbLine
 10
403.1884869999998
 20
40.14285700000001
 30
0.0
 11
496.2510942681218
 21
40.14285700000001
 31
0.0
  0
LINE
  5
497
330
6B
100
AcDbEntity
  8
0
100
AcDbLine
 10
403.1884869999998
 20
45.14285700000001
 30
0.0
 11
496.2510942681218
 21
45.14285700000001
 31
0.0
  0
LINE
  5
498
330
6B
100
AcDbEntity
  8
0
 62
     3
100
AcDbLine
 10
403.1884869999998
 20
20.142857
 30
0.0
 11
496.2510942681218
 21
20.142857
 31
0.0
  0
LINE
  5
499
330
6B
100
AcDbEntity
  8
0
 62
     3
100
AcDbLine
 10
403.1884869999998
 20
55.14285700000001
 30
0.0
 11
496.2510942681218
 21
55.14285700000001
 31
0.0
  0
LINE
  5
49A
330
6B
100
AcDbEntity
  8
0
100
AcDbLine
 10
403.1884869999998
 20
50.14285700000001
 30
0.0
 11
496.2510942681218
 21
50.14285700000001
 31
0.0
  0
TEXT
  5
49B
330
6B
100
AcDbEntity
  8
0
 62
     3
100
AcDbText
 10
771.749218071047
 20
55.452717
 30
0.0
 40
4.5
  1
5855
  7
高4.5
100
AcDbText
  0
TEXT
  5
579
330
6B
100
AcDbEntity
  8
0
 62
     3
100
AcDbText
 10
780.688487
 20
279.698219
 30
0.0
 40
3.2
  1
担　当
  7
高3.2
100
AcDbText
  0
TEXT
  5
57A
330
6B
100
AcDbEntity
  8
0
 62
     3
100
AcDbText
 10
736.6884869999998
 20
279.698219
 30
0.0
 40
3.2
  1
変更・追記内容
  7
高3.2
100
AcDbText
  0
TEXT
  5
57B
330
6B
100
AcDbEntity
  8
0
 62
     3
100
AcDbText
 10
711.8020020003392
 20
275.0276804900917
 30
0.0
 40
2.0
  1
1
  7
高2
100
AcDbText
  0
TEXT
  5
57C
330
6B
100
AcDbEntity
  8
0
 62
     3
100
AcDbText
 10
711.4934905235818
 20
269.8578637778188
 30
0.0
 40
2.0
  1
2
  7
高2
100
AcDbText
  0
TEXT
  5
57D
330
6B
100
AcDbEntity
  8
0
 62
     3
100
AcDbText
 10
718.688487
 20
279.698219
 30
0.0
 40
3.2
  1
日　付
  7
高3.2
100
AcDbText
  0
TEXT
  5
57E
330
6B
100
AcDbEntity
  8
0
 62
     3
100
AcDbText
 10
718.688487
 20
284.698219
 30
0.0
 40
3.2
  1
図　　　　面　　　　略　　　　歴
  7
高3.2
100
AcDbText
  0
TEXT
  5
57F
330
6B
100
AcDbEntity
  8
0
 62
     3
100
AcDbText
 10
708.688487
 20
279.698219
 30
0.0
 40
3.2
  1
記号
  7
高3.2
100
AcDbText
  0
LINE
  5
580
330
6B
100
AcDbEntity
  8
0
100
AcDbLine
 10
712.188487
 20
272.9891150000001
 30
0.0
 11
710.2884869999997
 21
269.698219
 31
0.0
  0
LINE
  5
581
330
6B
100
AcDbEntity
  8
0
100
AcDbLine
 10
712.188487
 20
272.9891150000001
 30
0.0
 11
714.0884869999996
 21
269.698219
 31
0.0
  0
LINE
  5
582
330
6B
100
AcDbEntity
  8
0
100
AcDbLine
 10
710.2884869999997
 20
269.698219
 30
0.0
 11
714.0884869999996
 21
269.698219
 31
0.0
  0
LINE
  5
583
330
6B
100
AcDbEntity
  8
0
100
AcDbLine
 10
712.188487
 20
277.9891160000001
 30
0.0
 11
710.2884869999997
 21
274.698219
 31
0.0
  0
LINE
  5
584
330
6B
100
AcDbEntity
  8
0
100
AcDbLine
 10
712.188487
 20
277.9891160000001
 30
0.0
 11
714.0884869999996
 21
274.698219
 31
0.0
  0
LINE
  5
585
330
6B
100
AcDbEntity
  8
0
100
AcDbLine
 10
710.2884869999997
 20
274.698219
 30
0.0
 11
714.0884869999996
 21
274.698219
 31
0.0
  0
LINE
  5
586
330
6B
100
AcDbEntity
  8
0
 62
     3
100
AcDbLine
 10
707.1884869999998
 20
284.198219
 30
0.0
 11
793.188487
 21
284.198219
 31
0.0
  0
LINE
  5
587
330
6B
100
AcDbEntity
  8
0
 62
     3
100
AcDbLine
 10
707.1884869999998
 20
279.198219
 30
0.0
 11
793.188487
 21
279.198219
 31
0.0
  0
LINE
  5
588
330
6B
100
AcDbEntity
  8
0
 62
     7
100
AcDbLine
 10
707.1884869999998
 20
274.198219
 30
0.0
 11
793.188487
 21
274.198219
 31
0.0
  0
LINE
  5
589
330
6B
100
AcDbEntity
  8
0
 62
     3
100
AcDbLine
 10
707.1884869999998
 20
269.198219
 30
0.0
 11
793.188487
 21
269.198219
 31
0.0
  0
LINE
  5
58A
330
6B
100
AcDbEntity
  8
0
 62
     7
100
AcDbLine
 10
779.1884869999996
 20
269.198219
 30
0.0
 11
779.188487
 21
284.198219
 31
0.0
  0
LINE
  5
58B
330
6B
100
AcDbEntity
  8
0
 62
     7
100
AcDbLine
 10
735.188487
 20
269.198219
 30
0.0
 11
735.188487
 21
284.198219
 31
0.0
  0
LINE
  5
58C
330
6B
100
AcDbEntity
  8
0
 62
     7
100
AcDbLine
 10
717.188487
 20
269.198219
 30
0.0
 11
717.188487
 21
284.198219
 31
0.0
  0
LINE
  5
58D
330
6B
100
AcDbEntity
  8
0
 62
     3
100
AcDbLine
 10
707.1884869999998
 20
269.198219
 30
0.0
 11
707.1884869999998
 21
289.198219
 31
0.0
  0
LINE
  5
79F
330
6B
100
AcDbEntity
  8
0
100
AcDbLine
 10
639.58173
 20
233.719249
 30
0.0
 11
632.096213
 21
234.134847
 31
0.0
  0
LINE
  5
7A0
330
6B
100
AcDbEntity
  8
0
100
AcDbLine
 10
632.096213
 20
234.134847
 30
0.0
 11
624.6106949999998
 21
234.516774
 31
0.0
  0
LINE
  5
7A1
330
6B
100
AcDbEntity
  8
0
100
AcDbLine
 10
624.6106949999998
 20
234.516774
 30
0.0
 11
617.125176
 21
234.831361
 31
0.0
  0
LINE
  5
7A2
330
6B
100
AcDbEntity
  8
0
100
AcDbLine
 10
617.125176
 20
234.831361
 30
0.0
 11
609.6396539999998
 21
235.044939
 31
0.0
  0
LINE
  5
7A3
330
6B
100
AcDbEntity
  8
0
100
AcDbLine
 10
609.6396539999998
 20
235.044939
 30
0.0
 11
602.1541299999999
 21
235.123838
 31
0.0
  0
LINE
  5
7A4
330
6B
100
AcDbEntity
  8
0
100
AcDbLine
 10
602.1541299999999
 20
235.123838
 30
0.0
 11
594.659654
 21
235.045422
 31
0.0
  0
LINE
  5
7A5
330
6B
100
AcDbEntity
  8
0
100
AcDbLine
 10
594.659654
 20
235.045422
 30
0.0
 11
587.1651759999998
 21
234.832006
 31
0.0
  0
LINE
  5
7A6
330
6B
100
AcDbEntity
  8
0
100
AcDbLine
 10
587.1651759999998
 20
234.832006
 30
0.0
 11
579.6706949999998
 21
234.517338
 31
0.0
  0
LINE
  5
7A7
330
6B
100
AcDbEntity
  8
0
100
AcDbLine
 10
579.6706949999998
 20
234.517338
 30
0.0
 11
572.176213
 21
234.135169
 31
0.0
  0
LINE
  5
7A8
330
6B
100
AcDbEntity
  8
0
100
AcDbLine
 10
572.176213
 20
234.135169
 30
0.0
 11
564.68173
 21
233.719249
 31
0.0
  0
LINE
  5
7AB
330
6B
100
AcDbEntity
  8
0
100
AcDbLine
 10
639.58173
 20
235.123838
 30
0.0
 11
632.096213
 21
235.53672
 31
0.0
  0
LINE
  5
7AC
330
6B
100
AcDbEntity
  8
0
100
AcDbLine
 10
632.096213
 20
235.53672
 30
0.0
 11
624.6106949999998
 21
235.916152
 31
0.0
  0
LINE
  5
7AD
330
6B
100
AcDbEntity
  8
0
100
AcDbLine
 10
624.6106949999998
 20
235.916152
 30
0.0
 11
617.125176
 21
236.228684
 31
0.0
  0
LINE
  5
7AE
330
6B
100
AcDbEntity
  8
0
100
AcDbLine
 10
617.125176
 20
236.228684
 30
0.0
 11
609.6396539999998
 21
236.440866
 31
0.0
  0
LINE
  5
7AF
330
6B
100
AcDbEntity
  8
0
100
AcDbLine
 10
609.6396539999998
 20
236.440866
 30
0.0
 11
602.1541299999999
 21
236.519249
 31
0.0
  0
LINE
  5
7B0
330
6B
100
AcDbEntity
  8
0
100
AcDbLine
 10
602.1541299999999
 20
236.519249
 30
0.0
 11
594.659654
 21
236.441347
 31
0.0
  0
LINE
  5
7B1
330
6B
100
AcDbEntity
  8
0
100
AcDbLine
 10
594.659654
 20
236.441347
 30
0.0
 11
587.1651759999998
 21
236.229324
 31
0.0
  0
LINE
  5
7B2
330
6B
100
AcDbEntity
  8
0
100
AcDbLine
 10
587.1651759999998
 20
236.229324
 30
0.0
 11
579.6706949999998
 21
235.916712
 31
0.0
  0
LINE
  5
7B3
330
6B
100
AcDbEntity
  8
0
100
AcDbLine
 10
579.6706949999998
 20
235.916712
 30
0.0
 11
572.176213
 21
235.53704
 31
0.0
  0
LINE
  5
7B4
330
6B
100
AcDbEntity
  8
0
100
AcDbLine
 10
572.176213
 20
235.53704
 30
0.0
 11
564.68173
 21
235.123838
 31
0.0
  0
LINE
  5
7B5
330
6B
100
AcDbEntity
  8
0
100
AcDbLine
 10
757.6554439999998
 20
219.331731
 30
0.0
 11
756.07993
 21
217.988249
 31
0.0
  0
LINE
  5
7B6
330
6B
100
AcDbEntity
  8
0
100
AcDbLine
 10
756.07993
 20
217.988249
 30
0.0
 11
758.1161059999998
 21
218.363981
 31
0.0
  0
LINE
  5
7B7
330
6B
100
AcDbEntity
  8
0
100
AcDbLine
 10
755.1759509999998
 20
153.556209
 30
0.0
 11
753.27993
 21
154.388249
 31
0.0
  0
LINE
  5
7B8
330
6B
100
AcDbEntity
  8
0
100
AcDbLine
 10
753.27993
 20
154.388249
 30
0.0
 11
754.5059119999998
 21
152.719671
 31
0.0
  0
LINE
  5
7B9
330
6B
100
AcDbEntity
  8
0
100
AcDbLine
 10
674.7515749999998
 20
127.132125
 30
0.0
 11
676.00413
 21
128.780849
 31
0.0
  0
LINE
  5
7BA
330
6B
100
AcDbEntity
  8
0
100
AcDbLine
 10
676.00413
 20
128.780849
 30
0.0
 11
674.0950230000001
 21
127.979289
 31
0.0
  0
LINE
  5
7BB
330
6B
100
AcDbEntity
  8
0
100
AcDbLine
 10
446.576074
 20
234.348795
 30
0.0
 11
448.2269299999998
 21
233.099049
 31
0.0
  0
LINE
  5
7BC
330
6B
100
AcDbEntity
  8
0
100
AcDbLine
 10
448.2269299999998
 20
233.099049
 30
0.0
 11
447.422119
 21
235.006788
 31
0.0
  0
LINE
  5
7BD
330
6B
100
AcDbEntity
  8
0
100
AcDbLine
 10
488.151338
 20
215.958658
 30
0.0
 11
488.1269299999998
 21
213.888249
 31
0.0
  0
LINE
  5
7BE
330
6B
100
AcDbEntity
  8
0
100
AcDbLine
 10
488.1269299999998
 20
213.888249
 30
0.0
 11
489.183272
 21
215.669072
 31
0.0
  0
LINE
  5
7BF
330
6B
100
AcDbEntity
  8
0
100
AcDbLine
 10
490.6733059999998
 20
162.499301
 30
0.0
 11
489.209437
 21
163.963635
 31
0.0
  0
LINE
  5
7C0
330
6B
100
AcDbEntity
  8
0
100
AcDbLine
 10
489.209437
 20
163.963635
 30
0.0
 11
489.7450179999998
 21
161.96355
 31
0.0
  0
LINE
  5
7C1
330
6B
100
AcDbEntity
  8
0
100
AcDbLine
 10
446.920127
 20
171.866454
 30
0.0
 11
448.92693
 21
171.356619
 31
0.0
  0
LINE
  5
7C2
330
6B
100
AcDbEntity
  8
0
100
AcDbLine
 10
448.92693
 20
171.356619
 30
0.0
 11
447.4439049999999
 21
172.80155
 31
0.0
  0
LINE
  5
7C3
330
6B
100
AcDbEntity
  8
0
100
AcDbLine
 10
601.920124
 20
238.576536
 30
0.0
 11
602.1541299999999
 21
236.519249
 31
0.0
  0
LINE
  5
7C4
330
6B
100
AcDbEntity
  8
0
100
AcDbLine
 10
602.1541299999999
 20
236.519249
 30
0.0
 11
602.9801179999998
 21
238.417915
 31
0.0
  0
LINE
  5
7C5
330
6B
100
AcDbEntity
  8
0
100
AcDbLine
 10
488.0241299999998
 20
143.185449
 30
0.0
 11
511.7205849999999
 21
143.185449
 31
0.0
  0
LINE
  5
7C6
330
6B
100
AcDbEntity
  8
0
100
AcDbLine
 10
477.8769299999999
 20
237.685449
 30
0.0
 11
511.7205849999999
 21
237.685449
 31
0.0
  0
LINE
  5
7C7
330
6B
100
AcDbEntity
  8
0
100
AcDbLine
 10
510.470585
 20
145.685449
 30
0.0
 11
510.470585
 21
235.185449
 31
0.0
  0
LINE
  5
7CB
330
6B
100
AcDbEntity
  8
0
100
AcDbLine
 10
443.32693
 20
149.938249
 30
0.0
 11
443.32693
 21
127.46287
 31
0.0
  0
LINE
  5
7CC
330
6B
100
AcDbEntity
  8
0
100
AcDbLine
 10
499.32693
 20
149.938249
 30
0.0
 11
499.32693
 21
127.46287
 31
0.0
  0
LINE
  5
7CD
330
6B
100
AcDbEntity
  8
0
100
AcDbLine
 10
445.82693
 20
128.71287
 30
0.0
 11
496.82693
 21
128.71287
 31
0.0
  0
LINE
  5
7D1
330
6B
100
AcDbEntity
  8
0
100
AcDbLine
 10
540.90413
 20
145.105449
 30
0.0
 11
540.90413
 21
130.791135
 31
0.0
  0
LINE
  5
7D2
330
6B
100
AcDbEntity
  8
0
100
AcDbLine
 10
663.4041299999998
 20
145.105449
 30
0.0
 11
663.4041299999998
 21
130.791135
 31
0.0
  0
LINE
  5
7D3
330
6B
100
AcDbEntity
  8
0
100
AcDbLine
 10
543.40413
 20
132.041135
 30
0.0
 11
660.9041299999999
 21
132.041135
 31
0.0
  0
TEXT
  5
7D7
330
6B
100
AcDbEntity
  8
0
  6
Continuous
 62
     4
100
AcDbText
 10
509.8455849999999
 20
186.9354490000001
 30
0.0
 40
3.0
  1
135
 50
90.0
100
AcDbText
  0
LINE
  5
7D8
330
6B
100
AcDbEntity
  8
0
  6
ByBlock
 62
     0
370
    -2
100
AcDbLine
 10
509.8007124999999
 20
235.185449
 30
0.0
 11
510.470585
 21
237.685449
 31
0.0
  0
LINE
  5
7D9
330
6B
100
AcDbEntity
  8
0
  6
ByBlock
 62
     0
370
    -2
100
AcDbLine
 10
510.470585
 20
237.685449
 30
0.0
 11
511.1404574999999
 21
235.185449
 31
0.0
  0
LINE
  5
7DA
330
6B
100
AcDbEntity
  8
0
  6
ByBlock
 62
     0
370
    -2
100
AcDbLine
 10
510.470585
 20
237.685449
 30
0.0
 11
510.470585
 21
235.185449
 31
0.0
  0
LINE
  5
7DB
330
6B
100
AcDbEntity
  8
0
  6
ByBlock
 62
     0
370
    -2
100
AcDbLine
 10
511.1404574999999
 20
145.685449
 30
0.0
 11
510.470585
 21
143.185449
 31
0.0
  0
LINE
  5
7DC
330
6B
100
AcDbEntity
  8
0
  6
ByBlock
 62
     0
370
    -2
100
AcDbLine
 10
510.470585
 20
143.185449
 30
0.0
 11
509.8007124999999
 21
145.685449
 31
0.0
  0
LINE
  5
7DD
330
6B
100
AcDbEntity
  8
0
  6
ByBlock
 62
     0
370
    -2
100
AcDbLine
 10
510.470585
 20
143.185449
 30
0.0
 11
510.470585
 21
145.685449
 31
0.0
  0
TEXT
  5
7DE
330
6B
100
AcDbEntity
  8
0
  6
Continuous
 62
     4
100
AcDbText
 10
469.07693
 20
129.33787
 30
0.0
 40
3.0
  1
80
100
AcDbText
  0
LINE
  5
7DF
330
6B
100
AcDbEntity
  8
0
  6
ByBlock
 62
     0
370
    -2
100
AcDbLine
 10
496.82693
 20
129.3827425
 30
0.0
 11
499.32693
 21
128.71287
 31
0.0
  0
LINE
  5
7E0
330
6B
100
AcDbEntity
  8
0
  6
ByBlock
 62
     0
370
    -2
100
AcDbLine
 10
499.32693
 20
128.71287
 30
0.0
 11
496.82693
 21
128.0429975
 31
0.0
  0
LINE
  5
7E1
330
6B
100
AcDbEntity
  8
0
  6
ByBlock
 62
     0
370
    -2
100
AcDbLine
 10
499.32693
 20
128.71287
 30
0.0
 11
496.82693
 21
128.71287
 31
0.0
  0
LINE
  5
7E2
330
6B
100
AcDbEntity
  8
0
  6
ByBlock
 62
     0
370
    -2
100
AcDbLine
 10
445.82693
 20
128.0429975
 30
0.0
 11
443.32693
 21
128.71287
 31
0.0
  0
LINE
  5
7E3
330
6B
100
AcDbEntity
  8
0
  6
ByBlock
 62
     0
370
    -2
100
AcDbLine
 10
443.32693
 20
128.71287
 30
0.0
 11
445.82693
 21
129.3827425
 31
0.0
  0
LINE
  5
7E4
330
6B
100
AcDbEntity
  8
0
  6
ByBlock
 62
     0
370
    -2
100
AcDbLine
 10
443.32693
 20
128.71287
 30
0.0
 11
445.82693
 21
128.71287
 31
0.0
  0
TEXT
  5
7E5
330
6B
100
AcDbEntity
  8
0
  6
Continuous
 62
     4
100
AcDbText
 10
598.6541299999998
 20
132.666135
 30
0.0
 40
3.0
  1
175
100
AcDbText
  0
LINE
  5
7E6
330
6B
100
AcDbEntity
  8
0
  6
ByBlock
 62
     0
370
    -2
100
AcDbLine
 10
660.9041299999999
 20
132.7110075
 30
0.0
 11
663.4041299999998
 21
132.041135
 31
0.0
  0
LINE
  5
7E7
330
6B
100
AcDbEntity
  8
0
  6
ByBlock
 62
     0
370
    -2
100
AcDbLine
 10
663.4041299999998
 20
132.041135
 30
0.0
 11
660.9041299999999
 21
131.3712625
 31
0.0
  0
LINE
  5
7E8
330
6B
100
AcDbEntity
  8
0
  6
ByBlock
 62
     0
370
    -2
100
AcDbLine
 10
663.4041299999998
 20
132.041135
 30
0.0
 11
660.9041299999999
 21
132.041135
 31
0.0
  0
LINE
  5
7E9
330
6B
100
AcDbEntity
  8
0
  6
ByBlock
 62
     0
370
    -2
100
AcDbLine
 10
543.40413
 20
131.3712625
 30
0.0
 11
540.90413
 21
132.041135
 31
0.0
  0
LINE
  5
7EA
330
6B
100
AcDbEntity
  8
0
  6
ByBlock
 62
     0
370
    -2
100
AcDbLine
 10
540.90413
 20
132.041135
 30
0.0
 11
543.40413
 21
132.7110075
 31
0.0
  0
LINE
  5
7EB
330
6B
100
AcDbEntity
  8
0
  6
ByBlock
 62
     0
370
    -2
100
AcDbLine
 10
540.90413
 20
132.041135
 30
0.0
 11
543.40413
 21
132.041135
 31
0.0
  0
ENDSEC
  0
SECTION
  2
OBJECTS
  0
DICTIONARY
  5
C
330
0
100
AcDbDictionary
281
     1
  3
ACAD_2007HEADERVARS_RT
350
7EF
  3
ACAD_COLOR
350
62
  3
ACAD_GROUP
350
D
  3
ACAD_LAYOUT
350
61
  3
ACAD_MATERIAL
350
10
  3
ACAD_MLEADERSTYLE
350
65
  3
ACAD_MLINESTYLE
350
5E
  3
ACAD_PLOTSETTINGS
350
60
  3
ACAD_PLOTSTYLENAME
350
E
  3
ACAD_SCALELIST
350
42
  3
ACAD_TABLESTYLE
350
63
  3
ACAD_VISUALSTYLE
350
29
  3
ACDB_RECOMPOSE_DATA
350
7ED
  3
AcDbVariableDictionary
350
6F3
  3
DWGPROPS
350
7EE
  0
DICTIONARY
  5
544
330
2
100
AcDbDictionary
280
     1
281
     1
  3
ACAD_LAYERSTATES
360
545
  0
DICTIONARY
  5
6F1
330
54
100
AcDbDictionary
280
     1
281
     1
  3
ADSK_XREC_LAYER_RECONCILED
360
6F2
  0
DICTIONARY
  5
7A9
330
6B
100
AcDbDictionary
280
     1
281
     1
  3
ACAD_SORTENTS
360
7AA
  0
DICTIONARY
  5
7EF
102
{ACAD_REACTORS
330
C
102
}
330
C
100
AcDbDictionary
281
     1
  3
DIMARCSYM
350
7F1
  3
DIMFXL
350
7F0
  3
DIMJOGANG
350
7F2
  0
DICTIONARY
  5
62
102
{ACAD_REACTORS
330
C
102
}
330
C
100
AcDbDictionary
281
     1
  0
DICTIONARY
  5
D
102
{ACAD_REACTORS
330
C
102
}
330
C
100
AcDbDictionary
281
     1
  0
DICTIONARY
  5
61
102
{ACAD_REACTORS
330
C
102
}
330
C
100
AcDbDictionary
281
     1
  3
Model
350
6E
  3
レイアウト1
350
6A
  0
DICTIONARY
  5
10
102
{ACAD_REACTORS
330
C
102
}
330
C
100
AcDbDictionary
281
     1
  3
ByBlock
350
19
  3
ByLayer
350
11
  3
Global
350
21
  0
DICTIONARY
  5
65
102
{ACAD_REACTORS
330
C
102
}
330
C
100
AcDbDictionary
281
     1
  3
Standard
350
66
  0
DICTIONARY
  5
5E
102
{ACAD_REACTORS
330
C
102
}
330
C
100
AcDbDictionary
281
     1
  3
Standard
350
5F
  0
DICTIONARY
  5
60
102
{ACAD_REACTORS
330
C
102
}
330
C
100
AcDbDictionary
281
     1
  0
ACDBDICTIONARYWDFLT
  5
E
102
{ACAD_REACTORS
330
C
102
}
330
C
100
AcDbDictionary
281
     1
  3
Normal
350
F
100
AcDbDictionaryWithDefault
340
F
  0
DICTIONARY
  5
42
102
{ACAD_REACTORS
330
C
102
}
330
C
100
AcDbDictionary
281
     1
  3
A0
350
43
  3
A1
350
44
  3
A2
350
45
  3
A3
350
46
  3
A4
350
47
  3
A5
350
48
  3
A6
350
49
  3
A7
350
4A
  3
A8
350
4B
  3
A9
350
4C
  3
B0
350
4D
  3
B1
350
4E
  3
B2
350
4F
  3
B3
350
50
  3
B4
350
51
  3
B5
350
52
  3
B6
350
53
  0
DICTIONARY
  5
63
102
{ACAD_REACTORS
330
C
102
}
330
C
100
AcDbDictionary
281
     1
  3
Standard
350
64
  0
DICTIONARY
  5
29
102
{ACAD_REACTORS
330
C
102
}
330
C
100
AcDbDictionary
281
     1
  3
2dWireframe
350
2F
  3
3dWireframe
350
541
  3
Basic
350
2E
  3
Brighten
350
35
  3
ColorChange
350
39
  3
Conceptual
350
32
  3
Dim
350
34
  3
EdgeColorOff
350
41
  3
Facepattern
350
38
  3
Flat
350
2A
  3
FlatWithEdges
350
2B
  3
Gouraud
350
2C
  3
GouraudWithEdges
350
2D
  3
Hidden
350
31
  3
JitterOff
350
3F
  3
Linepattern
350
37
  3
OverhangOff
350
40
  3
Realistic
350
33
  3
Shaded
350
3E
  3
Shaded with edges
350
3D
  3
Shades of Gray
350
3A
  3
Sketchy
350
3B
  3
Thicken
350
36
  3
Wireframe
350
30
  3
X-Ray
350
3C
  0
XRECORD
  5
7ED
102
{ACAD_REACTORS
330
C
102
}
330
C
100
AcDbXrecord
280
     1
 90
        1
330
64
  0
DICTIONARY
  5
6F3
102
{ACAD_REACTORS
330
C
102
}
330
C
100
AcDbDictionary
281
     1
  3
CANNOSCALE
350
6F6
  3
CMLEADERSTYLE
350
6F5
  3
CTABLESTYLE
350
6F4
  3
DIMASSOC
350
6F9
  3
INDEXCTL
350
6F8
  3
SORTENTS
350
6F7
  3
XCLIPFRAME
350
760
  0
XRECORD
  5
7EE
102
{ACAD_REACTORS
330
C
102
}
330
C
100
AcDbXrecord
280
     1
  1
DWGPROPS COOKIE
  2

  3

  4

  6

  7

  8
imamura
  9

300
=
301
=
302
=
303
=
304
=
305
=
306
=
307
=
308
=
309
=
 40
0.0149384490740741
 41
2456350.813002349
 42
2456868.849625579
  1

 90
        0
  0
DICTIONARY
  5
545
102
{ACAD_REACTORS
330
544
102
}
330
544
100
AcDbDictionary
281
     1
  0
XRECORD
  5
6F2
102
{ACAD_REACTORS
330
6F1
102
}
330
6F1
100
AcDbXrecord
280
     1
290
     1
  0
SORTENTSTABLE
  5
7AA
102
{ACAD_REACTORS
330
7A9
102
}
330
7A9
100
AcDbSortentsTable
330
6B
331
410
  5
45B
331
360
  5
3B1
331
421
  5
46C
331
110
  5
13B
331
21A
  5
257
331
121
  5
150
331
432
  5
47D
331
7DA
  5
E0
331
49B
  5
7D6
331
39B
  5
3E6
331
7AB
  5
3C2
331
22B
  5
262
331
132
  5
182
331
23C
  5
273
331
143
  5
18F
331
7EB
  5
C3
331
43C
  5
487
331
3AC
  5
3F7
331
7BC
  5
251
331
44D
  5
498
331
3BD
  5
408
331
24D
  5
284
331
154
  5
1A3
331
45E
  5
586
331
2DF
  5
316
331
46F
  5
7A8
331
2F0
  5
327
331
257
  5
28E
331
2CE
  5
305
331
480
  5
7BB
331
268
  5
29F
331
301
  5
338
331
279
  5
2B0
331
491
  5
7CC
331
312
  5
349
331
28A
  5
2C1
331
582
  5
7E0
331
D2
  5
F9
331
323
  5
35A
331
29B
  5
2D2
331
334
  5
36B
331
1BB
  5
1E2
331
3CC
  5
417
331
2AC
  5
2E3
331
3EE
  5
439
331
3DD
  5
428
331
2BD
  5
2F4
331
1CC
  5
212
331
3FF
  5
44A
331
34F
  5
3A0
331
EE
  5
115
331
FF
  5
126
331
1AA
  5
1D1
331
C1
  5
E8
331
188
  5
1B6
331
400
  5
44B
331
350
  5
3A1
331
411
  5
45C
331
361
  5
3B2
331
100
  5
127
331
422
  5
46D
331
20A
  5
24D
331
111
  5
13C
331
38B
  5
3D6
331
21B
  5
258
331
122
  5
151
331
433
  5
47E
331
7DB
  5
DB
331
39C
  5
3E7
331
7AC
  5
3C3
331
22C
  5
263
331
133
  5
183
331
23D
  5
274
331
144
  5
190
331
43D
  5
488
331
3AD
  5
3F8
331
7BD
  5
24B
331
44E
  5
499
331
3BE
  5
409
331
24E
  5
285
331
155
  5
1A4
331
45F
  5
587
331
2CF
  5
306
331
470
  5
7AB
331
258
  5
28F
331
2F1
  5
328
331
2E0
  5
317
331
481
  5
7BC
331
302
  5
339
331
189
  5
1B7
331
27A
  5
2B1
331
492
  5
7CD
331
313
  5
34A
331
28B
  5
2C2
331
583
  5
7E1
331
D3
  5
FA
331
324
  5
35B
331
29C
  5
2D3
331
335
  5
36C
331
1BC
  5
1E3
331
3CD
  5
418
331
2AD
  5
2E4
331
3EF
  5
43A
331
3DE
  5
429
331
2BE
  5
2F5
331
1CD
  5
213
331
EF
  5
116
331
1AB
  5
1D2
331
C2
  5
E9
331
269
  5
2A0
331
3F0
  5
43B
331
340
  5
391
331
1D8
  5
22D
331
401
  5
44C
331
351
  5
3A2
331
F0
  5
117
331
412
  5
45D
331
362
  5
3B3
331
1FA
  5
243
331
101
  5
128
331
20B
  5
24E
331
112
  5
13D
331
423
  5
46E
331
7CB
  5
CE
331
38C
  5
3D7
331
21C
  5
259
331
123
  5
152
331
434
  5
47F
331
7DC
  5
DC
331
39D
  5
3E8
331
7AD
  5
3C4
331
23E
  5
275
331
145
  5
191
331
43E
  5
489
331
3AE
  5
3F9
331
7BE
  5
24C
331
44F
  5
49A
331
3BF
  5
40A
331
24F
  5
286
331
156
  5
1A5
331
460
  5
588
331
2D0
  5
307
331
2E1
  5
318
331
471
  5
7AC
331
259
  5
290
331
168
  5
1A6
331
2F2
  5
329
331
482
  5
7BD
331
26A
  5
2A1
331
303
  5
33A
331
18A
  5
1B8
331
493
  5
7CE
331
C3
  5
EA
331
314
  5
34B
331
584
  5
7E2
331
D4
  5
FB
331
325
  5
35C
331
29D
  5
2D4
331
336
  5
36D
331
3CE
  5
419
331
2AE
  5
2E5
331
3DF
  5
42A
331
2BF
  5
2F6
331
1CE
  5
214
331
1BD
  5
1EA
331
1AC
  5
1D3
331
28C
  5
2C3
331
27B
  5
2B2
331
22D
  5
264
331
3E0
  5
42B
331
2C0
  5
2F7
331
3F1
  5
43C
331
341
  5
392
331
1D9
  5
22E
331
E0
  5
107
331
402
  5
44D
331
352
  5
3A3
331
1EA
  5
239
331
F1
  5
118
331
413
  5
45E
331
363
  5
3B4
331
1FB
  5
244
331
102
  5
129
331
20C
  5
24F
331
113
  5
13E
331
424
  5
46F
331
7CC
  5
CF
331
38D
  5
3D8
331
124
  5
153
331
435
  5
480
331
7DD
  5
DD
331
39E
  5
3E9
331
7AE
  5
3C5
331
23F
  5
276
331
450
  5
49B
331
43F
  5
48A
331
3AF
  5
3FA
331
7BF
  5
246
331
461
  5
589
331
2D1
  5
308
331
2E2
  5
319
331
472
  5
7AD
331
2F3
  5
32A
331
17A
  5
1AA
331
25A
  5
291
331
483
  5
7BE
331
26B
  5
2A2
331
304
  5
33B
331
18B
  5
1B9
331
27C
  5
2B3
331
494
  5
7CF
331
315
  5
34C
331
28D
  5
2C4
331
585
  5
7E3
331
D5
  5
FC
331
326
  5
35D
331
1AD
  5
1D4
331
29E
  5
2D5
331
337
  5
36E
331
3CF
  5
41A
331
2AF
  5
2E6
331
1BE
  5
1EB
331
1CF
  5
21A
331
C4
  5
EB
331
22E
  5
265
331
338
  5
36F
331
3D0
  5
41B
331
2B0
  5
2E7
331
3E1
  5
42C
331
2C1
  5
2F8
331
1D0
  5
21B
331
3F2
  5
43D
331
342
  5
393
331
1DA
  5
22F
331
E1
  5
108
331
403
  5
44E
331
353
  5
3A4
331
1EB
  5
23A
331
F2
  5
119
331
414
  5
45F
331
364
  5
3B5
331
1FC
  5
245
331
103
  5
12A
331
114
  5
13F
331
425
  5
470
331
7CD
  5
D0
331
38E
  5
3D9
331
125
  5
154
331
436
  5
481
331
7DE
  5
D7
331
39F
  5
3EA
331
7AF
  5
3C6
331
22F
  5
266
331
451
  5
579
331
440
  5
48B
331
3B0
  5
3FB
331
240
  5
277
331
462
  5
58A
331
2D2
  5
309
331
2E3
  5
31A
331
16A
  5
1A7
331
473
  5
7AE
331
2F4
  5
32B
331
17B
  5
1AB
331
25B
  5
292
331
484
  5
7BF
331
26C
  5
2A3
331
305
  5
33C
331
18C
  5
1BA
331
27D
  5
2B4
331
495
  5
7D0
331
C5
  5
EC
331
316
  5
34D
331
28E
  5
2C5
331
586
  5
7E4
331
327
  5
35E
331
1AE
  5
1D5
331
29F
  5
2D6
331
1BF
  5
1EC
331
D6
  5
FD
331
136
  5
184
331
328
  5
35F
331
3C0
  5
40B
331
2A0
  5
2D7
331
339
  5
370
331
1C0
  5
1F2
331
3D1
  5
41C
331
2B1
  5
2E8
331
3E2
  5
42D
331
2C2
  5
2F9
331
1D1
  5
21C
331
3F3
  5
43E
331
343
  5
394
331
1DB
  5
230
331
E2
  5
109
331
404
  5
44F
331
354
  5
3A5
331
1EC
  5
23B
331
F3
  5
11A
331
415
  5
460
331
365
  5
3B6
331
104
  5
12B
331
426
  5
471
331
115
  5
140
331
38F
  5
3DA
331
79F
  5
3CC
331
126
  5
155
331
437
  5
482
331
7DF
  5
D4
331
3A0
  5
3EB
331
7B0
  5
3C7
331
452
  5
57A
331
441
  5
48C
331
3B1
  5
3FC
331
241
  5
278
331
463
  5
58B
331
2D3
  5
30A
331
474
  5
7AF
331
25C
  5
293
331
2E4
  5
31B
331
2F5
  5
32C
331
17C
  5
1AC
331
485
  5
7C0
331
26D
  5
2A4
331
306
  5
33D
331
18D
  5
1BB
331
27E
  5
2B5
331
496
  5
7D1
331
C6
  5
ED
331
317
  5
34E
331
28F
  5
2C6
331
587
  5
7E5
331
D7
  5
FE
331
1AF
  5
1D6
331
230
  5
267
331
318
  5
34F
331
290
  5
2C7
331
588
  5
7E6
331
D8
  5
FF
331
329
  5
360
331
1B0
  5
1D7
331
3C1
  5
40C
331
2A1
  5
2D8
331
33A
  5
38B
331
1C1
  5
1F3
331
3D2
  5
41D
331
2B2
  5
2E9
331
3E3
  5
42E
331
2C3
  5
2FA
331
1D2
  5
222
331
3F4
  5
43F
331
344
  5
395
331
1DC
  5
231
331
E3
  5
10A
331
405
  5
450
331
355
  5
3A6
331
F4
  5
11B
331
416
  5
461
331
366
  5
3B7
331
105
  5
12C
331
427
  5
472
331
116
  5
141
331
390
  5
3DB
331
7A0
  5
3CD
331
127
  5
156
331
3A1
  5
3EC
331
7B1
  5
3C8
331
231
  5
268
331
138
  5
185
331
7E0
  5
D5
331
453
  5
57B
331
442
  5
48D
331
3B2
  5
3FD
331
464
  5
58C
331
2D4
  5
30B
331
2E5
  5
31C
331
475
  5
7B0
331
25D
  5
294
331
2F6
  5
32D
331
486
  5
7C1
331
26E
  5
2A5
331
307
  5
33E
331
18E
  5
1BC
331
27F
  5
2B6
331
242
  5
279
331
497
  5
7D2
331
C7
  5
EE
331
308
  5
33F
331
280
  5
2B7
331
319
  5
350
331
1A0
  5
1C7
331
C8
  5
EF
331
291
  5
2C8
331
589
  5
7E7
331
D9
  5
100
331
32A
  5
361
331
1B1
  5
1D8
331
3C2
  5
40D
331
2A2
  5
2D9
331
33B
  5
38C
331
1C2
  5
1F4
331
3D3
  5
41E
331
2B3
  5
2EA
331
3E4
  5
42F
331
2C4
  5
2FB
331
1D3
  5
223
331
3F5
  5
440
331
345
  5
396
331
1DD
  5
232
331
E4
  5
10B
331
406
  5
451
331
356
  5
3A7
331
F5
  5
11C
331
417
  5
462
331
367
  5
3B8
331
106
  5
12D
331
428
  5
473
331
117
  5
142
331
391
  5
3DC
331
7A1
  5
3CE
331
3A2
  5
3ED
331
7B2
  5
3C9
331
232
  5
269
331
7E1
  5
D6
331
454
  5
57C
331
443
  5
48E
331
3B3
  5
3FE
331
243
  5
27A
331
465
  5
58D
331
2D5
  5
30C
331
476
  5
7B1
331
25E
  5
295
331
2F7
  5
32E
331
487
  5
7C2
331
26F
  5
2A6
331
18F
  5
1BD
331
2E6
  5
31D
331
14A
  5
192
331
128
  5
168
331
2F8
  5
32F
331
488
  5
7C3
331
270
  5
2A7
331
309
  5
340
331
190
  5
1BE
331
281
  5
2B8
331
579
  5
7D7
331
C9
  5
F0
331
31A
  5
351
331
1A1
  5
1C8
331
292
  5
2C9
331
58A
  5
7E8
331
DA
  5
101
331
32B
  5
362
331
1B2
  5
1D9
331
3C3
  5
40E
331
2A3
  5
2DA
331
33C
  5
38D
331
1C3
  5
1FA
331
3D4
  5
41F
331
2B4
  5
2EB
331
3E5
  5
430
331
2C5
  5
2FC
331
1D4
  5
224
331
3F6
  5
441
331
346
  5
397
331
1DE
  5
233
331
E5
  5
10C
331
407
  5
452
331
357
  5
3A8
331
368
  5
3B9
331
107
  5
12E
331
F6
  5
11D
331
418
  5
463
331
118
  5
143
331
429
  5
474
331
392
  5
3DD
331
7A2
  5
3CF
331
222
  5
25C
331
129
  5
16A
331
3A3
  5
3EE
331
7B3
  5
3CA
331
233
  5
26A
331
13A
  5
186
331
7E2
  5
D1
331
455
  5
57D
331
444
  5
48F
331
3B4
  5
3FF
331
244
  5
27B
331
14B
  5
193
331
466
  5
79F
331
2D6
  5
30D
331
2E7
  5
31E
331
477
  5
7B2
331
25F
  5
296
331
17F
  5
1AD
331
7D1
  5
BB
331
7C0
  5
247
331
2E8
  5
31F
331
478
  5
7B3
331
260
  5
297
331
2F9
  5
330
331
180
  5
1AE
331
489
  5
7C4
331
271
  5
2A8
331
30A
  5
341
331
191
  5
1BF
331
282
  5
2B9
331
57A
  5
7D8
331
CA
  5
F1
331
31B
  5
352
331
1A2
  5
1C9
331
293
  5
2CA
331
58B
  5
7E9
331
DB
  5
102
331
32C
  5
363
331
1B3
  5
1DA
331
3C4
  5
40F
331
2A4
  5
2DB
331
33D
  5
38E
331
1C4
  5
1FB
331
3D5
  5
420
331
2B5
  5
2EC
331
3E6
  5
431
331
2C6
  5
2FD
331
3F7
  5
442
331
347
  5
398
331
1DF
  5
234
331
E6
  5
10D
331
408
  5
453
331
358
  5
3A9
331
369
  5
3BA
331
108
  5
12F
331
F7
  5
11E
331
1D5
  5
22A
331
419
  5
464
331
212
  5
252
331
119
  5
144
331
42A
  5
475
331
393
  5
3DE
331
7A3
  5
3D0
331
223
  5
25D
331
12A
  5
170
331
BB
  5
E2
331
3A4
  5
3EF
331
7B4
  5
3CB
331
234
  5
26B
331
13B
  5
187
331
7E3
  5
D2
331
456
  5
57E
331
445
  5
490
331
3B5
  5
400
331
245
  5
27C
331
14C
  5
194
331
467
  5
7A0
331
2D7
  5
30E
331
7D2
  5
BC
331
7C1
  5
241
331
2D8
  5
30F
331
468
  5
7A1
331
250
  5
287
331
2E9
  5
320
331
170
  5
1A8
331
479
  5
7B4
331
261
  5
298
331
2FA
  5
331
331
181
  5
1AF
331
48A
  5
7C5
331
272
  5
2A9
331
30B
  5
342
331
192
  5
1C0
331
283
  5
2BA
331
57B
  5
7D9
331
CB
  5
F2
331
31C
  5
353
331
1A3
  5
1CA
331
294
  5
2CB
331
58C
  5
7EA
331
DC
  5
103
331
32D
  5
364
331
1B4
  5
1DB
331
3C5
  5
410
331
2A5
  5
2DC
331
33E
  5
38F
331
3D6
  5
421
331
2B6
  5
2ED
331
3E7
  5
432
331
2C7
  5
2FE
331
3F8
  5
443
331
348
  5
399
331
1E0
  5
235
331
E7
  5
10E
331
409
  5
454
331
359
  5
3AA
331
36A
  5
3BB
331
202
  5
248
331
109
  5
130
331
F8
  5
11F
331
1D6
  5
22B
331
1C5
  5
1FC
331
41A
  5
465
331
213
  5
253
331
11A
  5
145
331
42B
  5
476
331
394
  5
3DF
331
7A4
  5
3D1
331
224
  5
25E
331
12B
  5
176
331
BC
  5
E3
331
235
  5
26C
331
13C
  5
188
331
7E4
  5
D3
331
3A5
  5
3F0
331
7B5
  5
25F
331
457
  5
57F
331
446
  5
491
331
3B6
  5
401
331
246
  5
27D
331
14D
  5
195
331
7D3
  5
BD
331
7C2
  5
242
331
458
  5
580
331
2C8
  5
2FF
331
2D9
  5
310
331
469
  5
7A2
331
251
  5
288
331
2EA
  5
321
331
47A
  5
7B5
331
262
  5
299
331
2FB
  5
332
331
182
  5
1B0
331
48B
  5
7C6
331
273
  5
2AA
331
30C
  5
343
331
193
  5
1C1
331
284
  5
2BB
331
57C
  5
7DA
331
CC
  5
F3
331
31D
  5
354
331
1A4
  5
1CB
331
295
  5
2CC
331
58D
  5
7EB
331
DD
  5
104
331
32E
  5
365
331
1B5
  5
1DC
331
3C6
  5
411
331
2A6
  5
2DD
331
33F
  5
390
331
1C6
  5
202
331
3D7
  5
422
331
2B7
  5
2EE
331
3E8
  5
433
331
3F9
  5
444
331
349
  5
39A
331
1E1
  5
236
331
E8
  5
10F
331
40A
  5
455
331
35A
  5
3AB
331
1F2
  5
23E
331
36B
  5
3BC
331
203
  5
249
331
10A
  5
131
331
F9
  5
120
331
1D7
  5
22C
331
41B
  5
466
331
214
  5
254
331
11B
  5
14A
331
42C
  5
477
331
395
  5
3E0
331
7A5
  5
3D2
331
12C
  5
17A
331
BD
  5
E4
331
236
  5
26D
331
13D
  5
189
331
7E5
  5
CD
331
3A6
  5
3F1
331
7B6
  5
260
331
447
  5
492
331
3B7
  5
402
331
247
  5
27E
331
14E
  5
196
331
7C3
  5
23C
331
448
  5
493
331
3B8
  5
403
331
248
  5
27F
331
459
  5
581
331
2C9
  5
300
331
2DA
  5
311
331
46A
  5
7A3
331
252
  5
289
331
2EB
  5
322
331
47B
  5
7B6
331
263
  5
29A
331
2FC
  5
333
331
183
  5
1B1
331
48C
  5
7C7
331
274
  5
2AB
331
30D
  5
344
331
194
  5
1C2
331
285
  5
2BC
331
57D
  5
7DB
331
CD
  5
F4
331
31E
  5
355
331
1A5
  5
1CC
331
296
  5
2CD
331
32F
  5
366
331
1B6
  5
1DD
331
DE
  5
105
331
3C7
  5
412
331
2A7
  5
2DE
331
3E9
  5
434
331
3D8
  5
423
331
2B8
  5
2EF
331
1C7
  5
203
331
3FA
  5
445
331
34A
  5
39B
331
1E2
  5
237
331
E9
  5
110
331
40B
  5
456
331
35B
  5
3AC
331
1F3
  5
23F
331
FA
  5
121
331
36C
  5
3BD
331
204
  5
24A
331
41C
  5
467
331
7C4
  5
23D
331
42D
  5
478
331
11C
  5
14B
331
10B
  5
132
331
396
  5
3E1
331
7A6
  5
3D3
331
BE
  5
E5
331
237
  5
26E
331
13E
  5
18A
331
7E6
  5
C7
331
3A7
  5
3F2
331
14F
  5
197
331
7B7
  5
25A
331
12D
  5
17B
331
238
  5
26F
331
438
  5
483
331
3A8
  5
3F3
331
7B8
  5
25B
331
449
  5
494
331
3B9
  5
404
331
249
  5
280
331
150
  5
198
331
45A
  5
582
331
2CA
  5
301
331
2DB
  5
312
331
46B
  5
7A4
331
253
  5
28A
331
2EC
  5
323
331
47C
  5
7B7
331
264
  5
29B
331
2FD
  5
334
331
184
  5
1B2
331
48D
  5
7C8
331
275
  5
2AC
331
30E
  5
345
331
195
  5
1C3
331
286
  5
2BD
331
57E
  5
7DC
331
CE
  5
F5
331
31F
  5
356
331
1A6
  5
1CD
331
330
  5
367
331
1B7
  5
1DE
331
DF
  5
106
331
3C8
  5
413
331
2A8
  5
2DF
331
3EA
  5
435
331
3D9
  5
424
331
2B9
  5
2F0
331
1C8
  5
204
331
3FB
  5
446
331
34B
  5
39C
331
1E3
  5
238
331
EA
  5
111
331
40C
  5
457
331
35C
  5
3AD
331
1F4
  5
240
331
FB
  5
122
331
36D
  5
3BE
331
41D
  5
468
331
7C5
  5
D8
331
42E
  5
479
331
397
  5
3E2
331
7A7
  5
3D4
331
12E
  5
17C
331
11D
  5
14C
331
10C
  5
133
331
297
  5
2CE
331
13F
  5
18B
331
7E7
  5
C8
331
BF
  5
E6
331
498
  5
7D3
331
398
  5
3E3
331
7A8
  5
3D5
331
239
  5
270
331
140
  5
18C
331
7E8
  5
C9
331
439
  5
484
331
3A9
  5
3F4
331
7B9
  5
255
331
44A
  5
495
331
3BA
  5
405
331
24A
  5
281
331
151
  5
1A0
331
45B
  5
583
331
2CB
  5
302
331
2DC
  5
313
331
46C
  5
7A5
331
254
  5
28B
331
2ED
  5
324
331
47D
  5
7B8
331
265
  5
29C
331
2FE
  5
335
331
185
  5
1B3
331
48E
  5
7C9
331
276
  5
2AD
331
30F
  5
346
331
196
  5
1C4
331
287
  5
2BE
331
57F
  5
7DD
331
320
  5
357
331
1A7
  5
1CE
331
331
  5
368
331
1B8
  5
1DF
331
3C9
  5
414
331
2A9
  5
2E0
331
3EB
  5
436
331
3DA
  5
425
331
2BA
  5
2F1
331
1C9
  5
20A
331
3FC
  5
447
331
34C
  5
39D
331
EB
  5
112
331
40D
  5
458
331
35D
  5
3AE
331
FC
  5
123
331
36E
  5
3BF
331
41E
  5
469
331
7C6
  5
D9
331
42F
  5
47A
331
7D7
  5
E1
331
11E
  5
14D
331
10D
  5
136
331
298
  5
2CF
331
CF
  5
F6
331
12F
  5
17F
331
430
  5
47B
331
7D8
  5
DE
331
499
  5
7D4
331
399
  5
3E4
331
130
  5
180
331
23A
  5
271
331
141
  5
18D
331
7E9
  5
C1
331
43A
  5
485
331
3AA
  5
3F5
331
7BA
  5
256
331
44B
  5
496
331
3BB
  5
406
331
24B
  5
282
331
152
  5
1A1
331
45C
  5
584
331
2CC
  5
303
331
2DD
  5
314
331
46D
  5
7A6
331
255
  5
28C
331
2EE
  5
325
331
47E
  5
7B9
331
266
  5
29D
331
2FF
  5
336
331
186
  5
1B4
331
48F
  5
7CA
331
277
  5
2AE
331
310
  5
347
331
197
  5
1C5
331
580
  5
7DE
331
D0
  5
F7
331
321
  5
358
331
1A8
  5
1CF
331
332
  5
369
331
1B9
  5
1E0
331
3CA
  5
415
331
2AA
  5
2E1
331
3EC
  5
437
331
3DB
  5
426
331
2BB
  5
2F2
331
1CA
  5
20B
331
3FD
  5
448
331
34D
  5
39E
331
EC
  5
113
331
40E
  5
459
331
35E
  5
3AF
331
FD
  5
124
331
36F
  5
3C0
331
41F
  5
46A
331
7C7
  5
DA
331
11F
  5
14E
331
10E
  5
138
331
299
  5
2D0
331
288
  5
2BF
331
420
  5
46B
331
370
  5
3C1
331
120
  5
14F
331
431
  5
47C
331
7D9
  5
DF
331
49A
  5
7D5
331
39A
  5
3E5
331
22A
  5
261
331
131
  5
181
331
23B
  5
272
331
142
  5
18E
331
7EA
  5
C2
331
43B
  5
486
331
3AB
  5
3F6
331
7BB
  5
250
331
44C
  5
497
331
3BC
  5
407
331
24C
  5
283
331
45D
  5
585
331
2CD
  5
304
331
2DE
  5
315
331
46E
  5
7A7
331
2EF
  5
326
331
176
  5
1A9
331
256
  5
28D
331
153
  5
1A2
331
47F
  5
7BA
331
267
  5
29E
331
300
  5
337
331
187
  5
1B5
331
278
  5
2AF
331
490
  5
7CB
331
311
  5
348
331
198
  5
1C6
331
581
  5
7DF
331
D1
  5
F8
331
322
  5
359
331
29A
  5
2D1
331
333
  5
36A
331
1BA
  5
1E1
331
3CB
  5
416
331
2AB
  5
2E2
331
3ED
  5
438
331
3DC
  5
427
331
2BC
  5
2F3
331
3FE
  5
449
331
34E
  5
39F
331
ED
  5
114
331
40F
  5
45A
331
35F
  5
3B0
331
10F
  5
13A
331
FE
  5
125
331
1CB
  5
20C
331
1A9
  5
1D0
331
289
  5
2C0
331
C0
  5
E7
  0
XRECORD
  5
7F1
102
{ACAD_REACTORS
330
7EF
102
}
330
7EF
100
AcDbXrecord
280
     1
 70
     2
  0
XRECORD
  5
7F0
102
{ACAD_REACTORS
330
7EF
102
}
330
7EF
100
AcDbXrecord
280
     1
 40
1.25
  0
XRECORD
  5
7F2
102
{ACAD_REACTORS
330
7EF
102
}
330
7EF
100
AcDbXrecord
280
     1
 40
1.570796326794896
  0
LAYOUT
  5
6E
102
{ACAD_XDICTIONARY
360
826
102
}
102
{ACAD_REACTORS
330
61
102
}
330
61
100
AcDbPlotSettings
  1

  2
FX DP 205
  4

  6

 40
0.0
 41
0.0
 42
0.0
 43
0.0
 44
0.0
 45
0.0
 46
0.0
 47
0.0
 48
0.0
 49
0.0
140
0.0
141
0.0
142
1.0
143
1.0
 70
  1712
 72
     0
 73
     0
 74
     0
  7

 75
     0
147
1.0
148
0.0
149
0.0
100
AcDbLayout
  1
Model
 70
     1
 71
     0
 10
0.0
 20
0.0
 11
12.0
 21
9.0
 12
0.0
 22
0.0
 32
0.0
 14
0.0
 24
0.0
 34
0.0
 15
0.0
 25
0.0
 35
0.0
146
0.0
 13
0.0
 23
0.0
 33
0.0
 16
1.0
 26
0.0
 36
0.0
 17
0.0
 27
1.0
 37
0.0
 76
     0
330
6B
331
8B
  0
LAYOUT
  5
6A
102
{ACAD_XDICTIONARY
360
824
102
}
102
{ACAD_REACTORS
330
61
102
}
330
61
100
AcDbPlotSettings
  1

  2
FX DP 205
  4

  6

 40
0.0
 41
0.0
 42
0.0
 43
0.0
 44
0.0
 45
0.0
 46
0.0
 47
0.0
 48
0.0
 49
0.0
140
0.0
141
0.0
142
1.0
143
1.0
 70
   688
 72
     0
 73
     0
 74
     5
  7

 75
    16
147
1.0
148
0.0
149
0.0
100
AcDbLayout
  1
レイアウト1
 70
     1
 71
     1
 10
0.0
 20
0.0
 11
12.0
 21
9.0
 12
0.0
 22
0.0
 32
0.0
 14
1.000000000000000E+20
 24
1.000000000000000E+20
 34
1.000000000000000E+20
 15
-1.000000000000000E+20
 25
-1.000000000000000E+20
 35
-1.000000000000000E+20
146
0.0
 13
0.0
 23
0.0
 33
0.0
 16
1.0
 26
0.0
 36
0.0
 17
0.0
 27
1.0
 37
0.0
 76
     0
330
67
  0
MATERIAL
  5
19
102
{ACAD_XDICTIONARY
360
1A
102
}
102
{ACAD_REACTORS
330
10
102
}
330
10
100
AcDbMaterial
  1
ByBlock
 72
     0
 43
0.0208333333333333
 43
0.0
 43
0.0
 43
0.0
 43
0.0
 43
0.0208333333333333
 43
0.0
 43
0.0
 43
0.0
 43
0.0
 43
1.0
 43
0.0
 43
0.0
 43
0.0
 43
0.0
 43
1.0
 77
     0
 47
0.0208333333333333
 47
0.0
 47
0.0
 47
0.0
 47
0.0
 47
0.0208333333333333
 47
0.0
 47
0.0
 47
0.0
 47
0.0
 47
1.0
 47
0.0
 47
0.0
 47
0.0
 47
0.0
 47
1.0
171
     0
 49
0.0208333333333333
 49
0.0
 49
0.0
 49
0.0
 49
0.0
 49
0.0208333333333333
 49
0.0
 49
0.0
 49
0.0
 49
0.0
 49
1.0
 49
0.0
 49
0.0
 49
0.0
 49
0.0
 49
1.0
175
     0
142
0.0208333333333333
142
0.0
142
0.0
142
0.0
142
0.0
142
0.0208333333333333
142
0.0
142
0.0
142
0.0
142
0.0
142
1.0
142
0.0
142
0.0
142
0.0
142
0.0
142
1.0
179
     0
144
0.0208333333333333
144
0.0
144
0.0
144
0.0
144
0.0
144
0.0208333333333333
144
0.0
144
0.0
144
0.0
144
0.0
144
1.0
144
0.0
144
0.0
144
0.0
144
0.0
144
1.0
147
0.0208333333333333
147
0.0
147
0.0
147
0.0
147
0.0
147
0.0208333333333333
147
0.0
147
0.0
147
0.0
147
0.0
147
1.0
147
0.0
147
0.0
147
0.0
147
0.0
147
1.0
  0
MATERIAL
  5
11
102
{ACAD_XDICTIONARY
360
12
102
}
102
{ACAD_REACTORS
330
10
102
}
330
10
100
AcDbMaterial
  1
ByLayer
 72
     0
 43
0.0208333333333333
 43
0.0
 43
0.0
 43
0.0
 43
0.0
 43
0.0208333333333333
 43
0.0
 43
0.0
 43
0.0
 43
0.0
 43
1.0
 43
0.0
 43
0.0
 43
0.0
 43
0.0
 43
1.0
 77
     0
 47
0.0208333333333333
 47
0.0
 47
0.0
 47
0.0
 47
0.0
 47
0.0208333333333333
 47
0.0
 47
0.0
 47
0.0
 47
0.0
 47
1.0
 47
0.0
 47
0.0
 47
0.0
 47
0.0
 47
1.0
171
     0
 49
0.0208333333333333
 49
0.0
 49
0.0
 49
0.0
 49
0.0
 49
0.0208333333333333
 49
0.0
 49
0.0
 49
0.0
 49
0.0
 49
1.0
 49
0.0
 49
0.0
 49
0.0
 49
0.0
 49
1.0
175
     0
142
0.0208333333333333
142
0.0
142
0.0
142
0.0
142
0.0
142
0.0208333333333333
142
0.0
142
0.0
142
0.0
142
0.0
142
1.0
142
0.0
142
0.0
142
0.0
142
0.0
142
1.0
179
     0
144
0.0208333333333333
144
0.0
144
0.0
144
0.0
144
0.0
144
0.0208333333333333
144
0.0
144
0.0
144
0.0
144
0.0
144
1.0
144
0.0
144
0.0
144
0.0
144
0.0
144
1.0
147
0.0208333333333333
147
0.0
147
0.0
147
0.0
147
0.0
147
0.0208333333333333
147
0.0
147
0.0
147
0.0
147
0.0
147
1.0
147
0.0
147
0.0
147
0.0
147
0.0
147
1.0
  0
MATERIAL
  5
21
102
{ACAD_XDICTIONARY
360
22
102
}
102
{ACAD_REACTORS
330
10
102
}
330
10
100
AcDbMaterial
  1
Global
 72
     0
 43
0.0208333333333333
 43
0.0
 43
0.0
 43
0.0
 43
0.0
 43
0.0208333333333333
 43
0.0
 43
0.0
 43
0.0
 43
0.0
 43
1.0
 43
0.0
 43
0.0
 43
0.0
 43
0.0
 43
1.0
 77
     0
 47
0.0208333333333333
 47
0.0
 47
0.0
 47
0.0
 47
0.0
 47
0.0208333333333333
 47
0.0
 47
0.0
 47
0.0
 47
0.0
 47
1.0
 47
0.0
 47
0.0
 47
0.0
 47
0.0
 47
1.0
171
     0
 49
0.0208333333333333
 49
0.0
 49
0.0
 49
0.0
 49
0.0
 49
0.0208333333333333
 49
0.0
 49
0.0
 49
0.0
 49
0.0
 49
1.0
 49
0.0
 49
0.0
 49
0.0
 49
0.0
 49
1.0
175
     0
142
0.0208333333333333
142
0.0
142
0.0
142
0.0
142
0.0
142
0.0208333333333333
142
0.0
142
0.0
142
0.0
142
0.0
142
1.0
142
0.0
142
0.0
142
0.0
142
0.0
142
1.0
179
     0
144
0.0208333333333333
144
0.0
144
0.0
144
0.0
144
0.0
144
0.0208333333333333
144
0.0
144
0.0
144
0.0
144
0.0
144
1.0
144
0.0
144
0.0
144
0.0
144
0.0
144
1.0
147
0.0208333333333333
147
0.0
147
0.0
147
0.0
147
0.0
147
0.0208333333333333
147
0.0
147
0.0
147
0.0
147
0.0
147
1.0
147
0.0
147
0.0
147
0.0
147
0.0
147
1.0
  0
MLEADERSTYLE
  5
66
102
{ACAD_REACTORS
330
65
102
}
330
65
100
AcDbMLeaderStyle
170
     2
171
     1
172
     0
 90
        2
 40
0.0
 41
0.0
173
     1
 91
-1056964608
340
5A
 92
       -2
290
     1
 42
0.09
291
     1
 43
0.36
  3
Standard
 44
0.18
300

342
55
174
     1
178
     6
175
     1
176
     0
 93
-1056964608
 45
0.18
292
     0
297
     0
 46
0.18
 94
-1056964608
 47
1.0
 49
1.0
140
1.0
293
     1
141
0.0
294
     1
177
     0
142
1.0
295
     0
296
     0
143
0.125
1001
ACAD_MLEADERVER
1070
     2
  0
MLINESTYLE
  5
5F
102
{ACAD_REACTORS
330
5E
102
}
330
5E
100
AcDbMlineStyle
  2
STANDARD
 70
     0
  3

 62
   256
 51
90.0
 52
90.0
 71
     2
 49
0.5
 62
   256
  6
BYLAYER
 49
-0.5
 62
   256
  6
BYLAYER
  0
ACDBPLACEHOLDER
  5
F
102
{ACAD_REACTORS
330
E
102
}
330
E
  0
SCALE
  5
43
102
{ACAD_REACTORS
330
42
102
}
330
42
100
AcDbScale
 70
     0
300
1:1
140
1.0
141
1.0
290
     1
  0
SCALE
  5
44
102
{ACAD_REACTORS
330
42
102
}
330
42
100
AcDbScale
 70
     0
300
1/128" = 1'-0"
140
0.0078125
141
12.0
290
     0
  0
SCALE
  5
45
102
{ACAD_REACTORS
330
42
102
}
330
42
100
AcDbScale
 70
     0
300
1/64" = 1'-0"
140
0.015625
141
12.0
290
     0
  0
SCALE
  5
46
102
{ACAD_REACTORS
330
42
102
}
330
42
100
AcDbScale
 70
     0
300
1/32" = 1'-0"
140
0.03125
141
12.0
290
     0
  0
SCALE
  5
47
102
{ACAD_REACTORS
330
42
102
}
330
42
100
AcDbScale
 70
     0
300
1/16" = 1'-0"
140
0.0625
141
12.0
290
     0
  0
SCALE
  5
48
102
{ACAD_REACTORS
330
42
102
}
330
42
100
AcDbScale
 70
     0
300
3/32" = 1'-0"
140
0.09375
141
12.0
290
     0
  0
SCALE
  5
49
102
{ACAD_REACTORS
330
42
102
}
330
42
100
AcDbScale
 70
     0
300
1/8" = 1'-0"
140
0.125
141
12.0
290
     0
  0
SCALE
  5
4A
102
{ACAD_REACTORS
330
42
102
}
330
42
100
AcDbScale
 70
     0
300
3/16" = 1'-0"
140
0.1875
141
12.0
290
     0
  0
SCALE
  5
4B
102
{ACAD_REACTORS
330
42
102
}
330
42
100
AcDbScale
 70
     0
300
1/4" = 1'-0"
140
0.25
141
12.0
290
     0
  0
SCALE
  5
4C
102
{ACAD_REACTORS
330
42
102
}
330
42
100
AcDbScale
 70
     0
300
3/8" = 1'-0"
140
0.375
141
12.0
290
     0
  0
SCALE
  5
4D
102
{ACAD_REACTORS
330
42
102
}
330
42
100
AcDbScale
 70
     0
300
1/2" = 1'-0"
140
0.5
141
12.0
290
     0
  0
SCALE
  5
4E
102
{ACAD_REACTORS
330
42
102
}
330
42
100
AcDbScale
 70
     0
300
3/4" = 1'-0"
140
0.75
141
12.0
290
     0
  0
SCALE
  5
4F
102
{ACAD_REACTORS
330
42
102
}
330
42
100
AcDbScale
 70
     0
300
1" = 1'-0"
140
1.0
141
12.0
290
     0
  0
SCALE
  5
50
102
{ACAD_REACTORS
330
42
102
}
330
42
100
AcDbScale
 70
     0
300
1-1/2" = 1'-0"
140
1.5
141
12.0
290
     0
  0
SCALE
  5
51
102
{ACAD_REACTORS
330
42
102
}
330
42
100
AcDbScale
 70
     0
300
3" = 1'-0"
140
3.0
141
12.0
290
     0
  0
SCALE
  5
52
102
{ACAD_REACTORS
330
42
102
}
330
42
100
AcDbScale
 70
     0
300
6" = 1'-0"
140
6.0
141
12.0
290
     0
  0
SCALE
  5
53
102
{ACAD_REACTORS
330
42
102
}
330
42
100
AcDbScale
 70
     0
300
1'-0" = 1'-0"
140
12.0
141
12.0
290
     0
  0
TABLESTYLE
  5
64
102
{ACAD_XDICTIONARY
360
6FB
102
}
102
{ACAD_REACTORS
330
63
102
}
330
63
100
AcDbTableStyle
  3
Standard
 70
     0
 71
     0
 40
0.06
 41
0.06
280
     0
281
     0
  7
STANDARD
140
0.18
170
     2
 62
     0
 63
     7
283
     0
274
    -2
284
     1
 64
     0
275
    -2
285
     1
 65
     0
276
    -2
286
     1
 66
     0
277
    -2
287
     1
 67
     0
278
    -2
288
     1
 68
     0
279
    -2
289
     1
 69
     0
  7
STANDARD
140
0.25
170
     5
 62
     0
 63
     7
283
     0
274
    -2
284
     1
 64
     0
275
    -2
285
     1
 65
     0
276
    -2
286
     1
 66
     0
277
    -2
287
     1
 67
     0
278
    -2
288
     1
 68
     0
279
    -2
289
     1
 69
     0
  7
STANDARD
140
0.18
170
     5
 62
     0
 63
     7
283
     0
274
    -2
284
     1
 64
     0
275
    -2
285
     1
 65
     0
276
    -2
286
     1
 66
     0
277
    -2
287
     1
 67
     0
278
    -2
288
     1
 68
     0
279
    -2
289
     1
 69
     0
  0
VISUALSTYLE
  5
2F
102
{ACAD_XDICTIONARY
360
7FD
102
}
102
{ACAD_REACTORS
330
29
102
}
330
29
100
AcDbVisualStyle
  2

 70
     4
 71
     0
 72
     2
 73
     0
 90
        0
 40
-0.6
 41
-30.0
 62
     5
 63
     7
 74
     1
 91
        4
 64
     7
 65
   257
 75
     1
175
     1
 42
1.0
 92
        0
 66
   257
 43
1.0
 76
     1
 77
     6
 78
     2
 67
     7
 79
     5
170
     0
171
     0
290
     0
174
     0
 93
        1
 44
0.0
173
     0
291
     0
 45
0.0
1001
ACAD
1000
AcDbSavedByObjectVersion
1070
     0
  0
VISUALSTYLE
  5
541
102
{ACAD_XDICTIONARY
360
828
102
}
102
{ACAD_REACTORS
330
29
102
}
330
29
100
AcDbVisualStyle
  2

 70
     5
 71
     0
 72
     2
 73
     1
 90
        0
 40
-0.6
 41
-30.0
 62
     5
 63
     7
 74
     1
 91
        4
 64
     7
 65
   257
 75
     1
175
     1
 42
1.0
 92
        0
 66
   257
 43
1.0
 76
     1
 77
     6
 78
     2
 67
     7
 79
     5
170
     0
171
     0
290
     0
174
     0
 93
        1
 44
0.0
173
     0
291
     0
 45
0.0
1001
ACAD
1000
AcDbSavedByObjectVersion
1070
     0
  0
VISUALSTYLE
  5
2E
102
{ACAD_XDICTIONARY
360
7FB
102
}
102
{ACAD_REACTORS
330
29
102
}
330
29
100
AcDbVisualStyle
  2

 70
     7
 71
     1
 72
     0
 73
     1
 90
        0
 40
-0.6
 41
-30.0
 62
     5
 63
     7
 74
     0
 91
        4
 64
     7
 65
   257
 75
     1
175
     1
 42
1.0
 92
        8
 66
     7
 43
1.0
 76
     1
 77
     6
 78
     2
 67
     7
 79
     5
170
     0
171
     0
290
     0
174
     0
 93
        1
 44
0.0
173
     0
291
     1
 45
0.0
1001
ACAD
1000
AcDbSavedByObjectVersion
1070
     0
  0
VISUALSTYLE
  5
35
102
{ACAD_XDICTIONARY
360
809
102
}
102
{ACAD_REACTORS
330
29
102
}
330
29
100
AcDbVisualStyle
  2

 70
    12
 71
     2
 72
     2
 73
     0
 90
        0
 40
-0.6
 41
-30.0
 62
     5
 63
     7
 74
     1
 91
        4
 64
     7
 65
   257
 75
     1
175
     1
 42
1.0
 92
        8
 66
     7
 43
1.0
 76
     1
 77
     6
 78
     2
 67
     7
 79
     5
170
     0
171
     0
290
     0
174
     0
 93
        1
 44
50.0
173
     0
291
     1
 45
0.0
1001
ACAD
1000
AcDbSavedByObjectVersion
1070
     0
  0
VISUALSTYLE
  5
39
102
{ACAD_XDICTIONARY
360
811
102
}
102
{ACAD_REACTORS
330
29
102
}
330
29
100
AcDbVisualStyle
  2

 70
    16
 71
     2
 72
     2
 73
     3
 90
        0
 40
-0.6
 41
-30.0
 62
     5
 63
     8
 74
     1
 91
        4
 64
     7
 65
   257
 75
     1
175
     1
 42
1.0
 92
        8
 66
     8
 43
1.0
 76
     1
 77
     6
 78
     2
 67
     7
 79
     5
170
     0
171
     0
290
     0
174
     0
 93
        1
 44
0.0
173
     0
291
     1
 45
0.0
1001
ACAD
1000
AcDbSavedByObjectVersion
1070
     0
  0
VISUALSTYLE
  5
32
102
{ACAD_XDICTIONARY
360
803
102
}
102
{ACAD_REACTORS
330
29
102
}
330
29
100
AcDbVisualStyle
  2

 70
     9
 71
     3
 72
     2
 73
     0
 90
        0
 40
-0.6
 41
-30.0
 62
     5
 63
     7
 74
     2
 91
        2
 64
     7
 65
   257
 75
     1
175
     1
 42
179.0
 92
        8
 66
     7
 43
1.0
 76
     1
 77
     6
 78
     2
 67
     7
 79
     3
170
     0
171
     0
290
     0
174
     0
 93
        1
 44
0.0
173
     0
291
     0
 45
0.0
1001
ACAD
1000
AcDbSavedByObjectVersion
1070
     0
  0
VISUALSTYLE
  5
34
102
{ACAD_XDICTIONARY
360
807
102
}
102
{ACAD_REACTORS
330
29
102
}
330
29
100
AcDbVisualStyle
  2

 70
    11
 71
     2
 72
     2
 73
     0
 90
        0
 40
-0.6
 41
-30.0
 62
     5
 63
     7
 74
     1
 91
        4
 64
     7
 65
   257
 75
     1
175
     1
 42
1.0
 92
        8
 66
     7
 43
1.0
 76
     1
 77
     6
 78
     2
 67
     7
 79
     5
170
     0
171
     0
290
     0
174
     0
 93
        1
 44
-50.0
173
     0
291
     1
 45
0.0
1001
ACAD
1000
AcDbSavedByObjectVersion
1070
     0
  0
VISUALSTYLE
  5
41
102
{ACAD_XDICTIONARY
360
821
102
}
102
{ACAD_REACTORS
330
29
102
}
330
29
100
AcDbVisualStyle
  2

 70
    22
 71
     2
 72
     2
 73
     0
 90
        0
 40
-0.6
 41
-30.0
 62
     5
 63
     7
 74
     1
 91
        4
 64
     7
 65
   257
 75
     1
175
     1
 42
1.0
 92
        8
 66
     7
 43
1.0
 76
     1
 77
     6
 78
     2
 67
     7
 79
     5
170
     0
171
     0
290
     0
174
     0
 93
        1
 44
0.0
173
     0
291
     1
 45
0.0
1001
ACAD
1000
AcDbSavedByObjectVersion
1070
     0
  0
VISUALSTYLE
  5
38
102
{ACAD_XDICTIONARY
360
80F
102
}
102
{ACAD_REACTORS
330
29
102
}
330
29
100
AcDbVisualStyle
  2

 70
    15
 71
     2
 72
     2
 73
     0
 90
        0
 40
-0.6
 41
-30.0
 62
     5
 63
     7
 74
     1
 91
        4
 64
     7
 65
   257
 75
     1
175
     1
 42
1.0
 92
        8
 66
     7
 43
1.0
 76
     1
 77
     6
 78
     2
 67
     7
 79
     5
170
     0
171
     0
290
     0
174
     0
 93
        1
 44
0.0
173
     0
291
     1
 45
0.0
1001
ACAD
1000
AcDbSavedByObjectVersion
1070
     0
  0
VISUALSTYLE
  5
2A
102
{ACAD_XDICTIONARY
360
7F3
102
}
102
{ACAD_REACTORS
330
29
102
}
330
29
100
AcDbVisualStyle
  2

 70
     0
 71
     2
 72
     1
 73
     1
 90
        2
 40
-0.6
 41
30.0
 62
     5
 63
     7
 74
     0
 91
        0
 64
     7
 65
   257
 75
     1
175
     1
 42
1.0
 92
        8
 66
     7
 43
1.0
 76
     1
 77
     6
 78
     2
 67
     7
 79
     5
170
     0
171
     0
290
     0
174
     0
 93
       13
 44
0.0
173
     0
291
     1
 45
0.0
1001
ACAD
1000
AcDbSavedByObjectVersion
1070
     0
  0
VISUALSTYLE
  5
2B
102
{ACAD_XDICTIONARY
360
7F5
102
}
102
{ACAD_REACTORS
330
29
102
}
330
29
100
AcDbVisualStyle
  2

 70
     1
 71
     2
 72
     1
 73
     1
 90
        2
 40
-0.6
 41
30.0
 62
     5
 63
     7
 74
     1
 91
        0
 64
     7
 65
   257
 75
     1
175
     1
 42
1.0
 92
        0
 66
   257
 43
1.0
 76
     1
 77
     6
 78
     2
 67
     7
 79
     5
170
     0
171
     0
290
     0
174
     0
 93
       13
 44
0.0
173
     0
291
     1
 45
0.0
1001
ACAD
1000
AcDbSavedByObjectVersion
1070
     0
  0
VISUALSTYLE
  5
2C
102
{ACAD_XDICTIONARY
360
7F7
102
}
102
{ACAD_REACTORS
330
29
102
}
330
29
100
AcDbVisualStyle
  2

 70
     2
 71
     2
 72
     2
 73
     1
 90
        2
 40
-0.6
 41
30.0
 62
     5
 63
     7
 74
     0
 91
        0
 64
     7
 65
   257
 75
     1
175
     1
 42
1.0
 92
        0
 66
     7
 43
1.0
 76
     1
 77
     6
 78
     2
 67
     7
 79
     5
170
     0
171
     0
290
     0
174
     0
 93
       13
 44
0.0
173
     0
291
     1
 45
0.0
1001
ACAD
1000
AcDbSavedByObjectVersion
1070
     0
  0
VISUALSTYLE
  5
2D
102
{ACAD_XDICTIONARY
360
7F9
102
}
102
{ACAD_REACTORS
330
29
102
}
330
29
100
AcDbVisualStyle
  2

 70
     3
 71
     2
 72
     2
 73
     1
 90
        2
 40
-0.6
 41
30.0
 62
     5
 63
     7
 74
     1
 91
        0
 64
     7
 65
   257
 75
     1
175
     1
 42
1.0
 92
        0
 66
   257
 43
1.0
 76
     1
 77
     6
 78
     2
 67
     7
 79
     5
170
     0
171
     0
290
     0
174
     0
 93
       13
 44
0.0
173
     0
291
     1
 45
0.0
1001
ACAD
1000
AcDbSavedByObjectVersion
1070
     0
  0
VISUALSTYLE
  5
31
102
{ACAD_XDICTIONARY
360
801
102
}
102
{ACAD_REACTORS
330
29
102
}
330
29
100
AcDbVisualStyle
  2

 70
     6
 71
     1
 72
     2
 73
     2
 90
        0
 40
-0.6
 41
-30.0
 62
     5
 63
     7
 74
     2
 91
        2
 64
     7
 65
   257
 75
     2
175
     1
 42
40.0
 92
        0
 66
   257
 43
1.0
 76
     1
 77
     6
 78
     2
 67
     7
 79
     3
170
     0
171
     0
290
     0
174
     0
 93
        1
 44
0.0
173
     0
291
     0
 45
0.0
1001
ACAD
1000
AcDbSavedByObjectVersion
1070
     0
  0
VISUALSTYLE
  5
3F
102
{ACAD_XDICTIONARY
360
81D
102
}
102
{ACAD_REACTORS
330
29
102
}
330
29
100
AcDbVisualStyle
  2

 70
    20
 71
     2
 72
     2
 73
     0
 90
        0
 40
-0.6
 41
-30.0
 62
     5
 63
     7
 74
     1
 91
        4
 64
     7
 65
   257
 75
     1
175
     1
 42
1.0
 92
       10
 66
     7
 43
1.0
 76
     1
 77
     6
 78
     2
 67
     7
 79
     5
170
     0
171
     0
290
     0
174
     0
 93
        1
 44
0.0
173
     0
291
     1
 45
0.0
1001
ACAD
1000
AcDbSavedByObjectVersion
1070
     0
  0
VISUALSTYLE
  5
37
102
{ACAD_XDICTIONARY
360
80D
102
}
102
{ACAD_REACTORS
330
29
102
}
330
29
100
AcDbVisualStyle
  2

 70
    14
 71
     2
 72
     2
 73
     0
 90
        0
 40
-0.6
 41
-30.0
 62
     5
 63
     7
 74
     1
 91
        4
 64
     7
 65
   257
 75
     7
175
     7
 42
1.0
 92
        8
 66
     7
 43
1.0
 76
     1
 77
     6
 78
     2
 67
     7
 79
     5
170
     0
171
     0
290
     0
174
     0
 93
        1
 44
0.0
173
     0
291
     1
 45
0.0
1001
ACAD
1000
AcDbSavedByObjectVersion
1070
     0
  0
VISUALSTYLE
  5
40
102
{ACAD_XDICTIONARY
360
81F
102
}
102
{ACAD_REACTORS
330
29
102
}
330
29
100
AcDbVisualStyle
  2

 70
    21
 71
     2
 72
     2
 73
     0
 90
        0
 40
-0.6
 41
-30.0
 62
     5
 63
     7
 74
     1
 91
        4
 64
     7
 65
   257
 75
     1
175
     1
 42
1.0
 92
        9
 66
     7
 43
1.0
 76
     1
 77
     6
 78
     2
 67
     7
 79
     5
170
     0
171
     0
290
     0
174
     0
 93
        1
 44
0.0
173
     0
291
     1
 45
0.0
1001
ACAD
1000
AcDbSavedByObjectVersion
1070
     0
  0
VISUALSTYLE
  5
33
102
{ACAD_XDICTIONARY
360
805
102
}
102
{ACAD_REACTORS
330
29
102
}
330
29
100
AcDbVisualStyle
  2

 70
     8
 71
     2
 72
     3
 73
     0
 90
        2
 40
-0.6
 41
30.0
 62
     5
 63
     7
 74
     0
 91
        0
 64
     7
 65
   257
 75
     1
175
     1
 42
1.0
 92
        8
 66
   257
 43
1.0
 76
     1
 77
     6
 78
     2
 67
     7
 79
     3
170
     0
171
     0
290
     0
174
     0
 93
       13
 44
0.0
173
     0
291
     0
 45
0.0
1001
ACAD
1000
AcDbSavedByObjectVersion
1070
     0
  0
VISUALSTYLE
  5
3E
102
{ACAD_XDICTIONARY
360
81B
102
}
102
{ACAD_REACTORS
330
29
102
}
330
29
100
AcDbVisualStyle
  2

 70
    27
 71
     2
 72
     2
 73
     1
 90
        2
 40
-0.6
 41
30.0
 62
     5
 63
     7
 74
     0
 91
        4
 64
     7
 65
   257
 75
     1
175
     1
 42
1.0
 92
        8
 66
   257
 43
1.0
 76
     1
 77
     6
 78
     2
 67
     8
 79
     3
170
     0
171
     0
290
     0
174
     0
 93
        5
 44
0.0
173
     0
291
     0
 45
0.0
1001
ACAD
1000
AcDbSavedByObjectVersion
1070
     0
  0
VISUALSTYLE
  5
3D
102
{ACAD_XDICTIONARY
360
819
102
}
102
{ACAD_REACTORS
330
29
102
}
330
29
100
AcDbVisualStyle
  2

 70
    26
 71
     2
 72
     2
 73
     1
 90
        2
 40
-0.6
 41
30.0
 62
     5
 63
     7
 74
     1
 91
       10
 64
     7
 65
   257
 75
     2
175
     1
 42
1.0
 92
        8
 66
   257
 43
1.0
 76
     1
 77
     6
 78
     2
 67
     7
 79
     3
170
     0
171
     0
290
     0
174
     0
 93
        5
 44
0.0
173
     0
291
     0
 45
0.0
1001
ACAD
1000
AcDbSavedByObjectVersion
1070
     0
  0
VISUALSTYLE
  5
3A
102
{ACAD_XDICTIONARY
360
813
102
}
102
{ACAD_REACTORS
330
29
102
}
330
29
100
AcDbVisualStyle
  2

 70
    23
 71
     2
 72
     2
 73
     3
 90
        0
 40
-0.6
 41
-30.0
 62
     5
 63
     7
 74
     2
 91
        2
 64
     7
 65
     7
 75
     1
175
     1
 42
40.0
 92
        8
 66
     7
 43
1.0
 76
     1
 77
     6
 78
     2
 67
     7
 79
     3
170
     0
171
     0
290
     0
174
     0
 93
        1
 44
0.0
173
     0
291
     0
 45
0.0
1001
ACAD
1000
AcDbSavedByObjectVersion
1070
     0
  0
VISUALSTYLE
  5
3B
102
{ACAD_XDICTIONARY
360
815
102
}
102
{ACAD_REACTORS
330
29
102
}
330
29
100
AcDbVisualStyle
  2

 70
    24
 71
     1
 72
     2
 73
     2
 90
        0
 40
-0.6
 41
-30.0
 62
     5
 63
     7
 74
     2
 91
        2
 64
     7
 65
     7
 75
     1
175
     1
 42
40.0
 92
       11
 66
     7
 43
1.0
 76
     1
 77
     6
 78
     2
 67
     7
 79
     6
170
     0
171
     0
290
     0
174
     0
 93
        1
 44
0.0
173
     0
291
     0
 45
0.0
1001
ACAD
1000
AcDbSavedByObjectVersion
1070
     0
  0
VISUALSTYLE
  5
36
102
{ACAD_XDICTIONARY
360
80B
102
}
102
{ACAD_REACTORS
330
29
102
}
330
29
100
AcDbVisualStyle
  2

 70
    13
 71
     2
 72
     2
 73
     0
 90
        0
 40
-0.6
 41
-30.0
 62
     5
 63
     7
 74
     1
 91
        4
 64
     7
 65
   257
 75
     1
175
     1
 42
1.0
 92
       12
 66
     7
 43
1.0
 76
     1
 77
     6
 78
     2
 67
     7
 79
     5
170
     0
171
     0
290
     0
174
     0
 93
        1
 44
0.0
173
     0
291
     1
 45
0.0
1001
ACAD
1000
AcDbSavedByObjectVersion
1070
     0
  0
VISUALSTYLE
  5
30
102
{ACAD_XDICTIONARY
360
7FF
102
}
102
{ACAD_REACTORS
330
29
102
}
330
29
100
AcDbVisualStyle
  2

 70
     5
 71
     0
 72
     2
 73
     0
 90
        0
 40
-0.6
 41
-30.0
 62
     5
 63
     7
 74
     1
 91
        4
 64
     7
 65
   257
 75
     1
175
     1
 42
1.0
 92
        0
 66
   257
 43
1.0
 76
     1
 77
     6
 78
     2
 67
     7
 79
     3
170
     0
171
     0
290
     0
174
     0
 93
        1
 44
0.0
173
     0
291
     0
 45
0.0
1001
ACAD
1000
AcDbSavedByObjectVersion
1070
     0
  0
VISUALSTYLE
  5
3C
102
{ACAD_XDICTIONARY
360
817
102
}
102
{ACAD_REACTORS
330
29
102
}
330
29
100
AcDbVisualStyle
  2

 70
    25
 71
     2
 72
     2
 73
     1
 90
        1
 40
0.5
 41
-30.0
 62
     5
 63
     7
 74
     1
 91
        0
 64
     7
 65
   257
 75
     1
175
     1
 42
1.0
 92
        8
 66
     7
 43
1.0
 76
     1
 77
     6
 78
     2
 67
     7
 79
     3
170
     0
171
     0
290
     0
174
     0
 93
       13
 44
0.0
173
     0
291
     0
 45
0.0
1001
ACAD
1000
AcDbSavedByObjectVersion
1070
     0
  0
DICTIONARYVAR
  5
6F6
102
{ACAD_REACTORS
330
6F3
102
}
330
6F3
100
DictionaryVariables
280
     0
  1
1:1
  0
DICTIONARYVAR
  5
6F5
102
{ACAD_REACTORS
330
6F3
102
}
330
6F3
100
DictionaryVariables
280
     0
  1
STANDARD
  0
DICTIONARYVAR
  5
6F4
102
{ACAD_REACTORS
330
6F3
102
}
330
6F3
100
DictionaryVariables
280
     0
  1
STANDARD
  0
DICTIONARYVAR
  5
6F9
102
{ACAD_REACTORS
330
6F3
102
}
330
6F3
100
DictionaryVariables
280
     0
  1
1
  0
DICTIONARYVAR
  5
6F8
102
{ACAD_REACTORS
330
6F3
102
}
330
6F3
100
DictionaryVariables
280
     0
  1
0
  0
DICTIONARYVAR
  5
6F7
102
{ACAD_REACTORS
330
6F3
102
}
330
6F3
100
DictionaryVariables
280
     0
  1
127
  0
DICTIONARYVAR
  5
760
102
{ACAD_REACTORS
330
6F3
102
}
330
6F3
100
DictionaryVariables
280
     0
  1
2
  0
DICTIONARY
  5
826
330
6E
100
AcDbDictionary
280
     1
281
     1
  3
ACAD_XREC_ROUNDTRIP
360
827
  0
DICTIONARY
  5
824
330
6A
100
AcDbDictionary
280
     1
281
     1
  3
ACAD_XREC_ROUNDTRIP
360
825
  0
DICTIONARY
  5
1A
330
19
100
AcDbDictionary
280
     1
281
     1
  3
ACAD_XREC_ROUNDTRIP
360
704
  3
BUMPTILE
360
1C
  3
DIFFUSETILE
360
1B
  3
OPACITYTILE
360
1F
  3
REFLECTIONTILE
360
1E
  3
REFRACTIONTILE
360
20
  3
SPECULARTILE
360
1D
  0
DICTIONARY
  5
12
330
11
100
AcDbDictionary
280
     1
281
     1
  3
ACAD_XREC_ROUNDTRIP
360
703
  3
BUMPTILE
360
14
  3
DIFFUSETILE
360
13
  3
OPACITYTILE
360
17
  3
REFLECTIONTILE
360
16
  3
REFRACTIONTILE
360
18
  3
SPECULARTILE
360
15
  0
DICTIONARY
  5
22
330
21
100
AcDbDictionary
280
     1
281
     1
  3
ACAD_XREC_ROUNDTRIP
360
705
  3
BUMPTILE
360
24
  3
DIFFUSETILE
360
23
  3
OPACITYTILE
360
27
  3
REFLECTIONTILE
360
26
  3
REFRACTIONTILE
360
28
  3
SPECULARTILE
360
25
  0
DICTIONARY
  5
6FB
330
64
100
AcDbDictionary
280
     1
281
     1
  3
ACAD_ROUNDTRIP_2008_TABLESTYLE_CELLSTYLEMAP
360
7EC
  3
ACAD_XREC_ROUNDTRIP
360
823
  0
DICTIONARY
  5
7FD
330
2F
100
AcDbDictionary
280
     1
281
     1
  3
ACAD_XREC_ROUNDTRIP
360
7FE
  0
DICTIONARY
  5
828
330
541
100
AcDbDictionary
280
     1
281
     1
  3
ACAD_XREC_ROUNDTRIP
360
829
  0
DICTIONARY
  5
7FB
330
2E
100
AcDbDictionary
280
     1
281
     1
  3
ACAD_XREC_ROUNDTRIP
360
7FC
  0
DICTIONARY
  5
809
330
35
100
AcDbDictionary
280
     1
281
     1
  3
ACAD_XREC_ROUNDTRIP
360
80A
  0
DICTIONARY
  5
811
330
39
100
AcDbDictionary
280
     1
281
     1
  3
ACAD_XREC_ROUNDTRIP
360
812
  0
DICTIONARY
  5
803
330
32
100
AcDbDictionary
280
     1
281
     1
  3
ACAD_XREC_ROUNDTRIP
360
804
  0
DICTIONARY
  5
807
330
34
100
AcDbDictionary
280
     1
281
     1
  3
ACAD_XREC_ROUNDTRIP
360
808
  0
DICTIONARY
  5
821
330
41
100
AcDbDictionary
280
     1
281
     1
  3
ACAD_XREC_ROUNDTRIP
360
822
  0
DICTIONARY
  5
80F
330
38
100
AcDbDictionary
280
     1
281
     1
  3
ACAD_XREC_ROUNDTRIP
360
810
  0
DICTIONARY
  5
7F3
330
2A
100
AcDbDictionary
280
     1
281
     1
  3
ACAD_XREC_ROUNDTRIP
360
7F4
  0
DICTIONARY
  5
7F5
330
2B
100
AcDbDictionary
280
     1
281
     1
  3
ACAD_XREC_ROUNDTRIP
360
7F6
  0
DICTIONARY
  5
7F7
330
2C
100
AcDbDictionary
280
     1
281
     1
  3
ACAD_XREC_ROUNDTRIP
360
7F8
  0
DICTIONARY
  5
7F9
330
2D
100
AcDbDictionary
280
     1
281
     1
  3
ACAD_XREC_ROUNDTRIP
360
7FA
  0
DICTIONARY
  5
801
330
31
100
AcDbDictionary
280
     1
281
     1
  3
ACAD_XREC_ROUNDTRIP
360
802
  0
DICTIONARY
  5
81D
330
3F
100
AcDbDictionary
280
     1
281
     1
  3
ACAD_XREC_ROUNDTRIP
360
81E
  0
DICTIONARY
  5
80D
330
37
100
AcDbDictionary
280
     1
281
     1
  3
ACAD_XREC_ROUNDTRIP
360
80E
  0
DICTIONARY
  5
81F
330
40
100
AcDbDictionary
280
     1
281
     1
  3
ACAD_XREC_ROUNDTRIP
360
820
  0
DICTIONARY
  5
805
330
33
100
AcDbDictionary
280
     1
281
     1
  3
ACAD_XREC_ROUNDTRIP
360
806
  0
DICTIONARY
  5
81B
330
3E
100
AcDbDictionary
280
     1
281
     1
  3
ACAD_XREC_ROUNDTRIP
360
81C
  0
DICTIONARY
  5
819
330
3D
100
AcDbDictionary
280
     1
281
     1
  3
ACAD_XREC_ROUNDTRIP
360
81A
  0
DICTIONARY
  5
813
330
3A
100
AcDbDictionary
280
     1
281
     1
  3
ACAD_XREC_ROUNDTRIP
360
814
  0
DICTIONARY
  5
815
330
3B
100
AcDbDictionary
280
     1
281
     1
  3
ACAD_XREC_ROUNDTRIP
360
816
  0
DICTIONARY
  5
80B
330
36
100
AcDbDictionary
280
     1
281
     1
  3
ACAD_XREC_ROUNDTRIP
360
80C
  0
DICTIONARY
  5
7FF
330
30
100
AcDbDictionary
280
     1
281
     1
  3
ACAD_XREC_ROUNDTRIP
360
800
  0
DICTIONARY
  5
817
330
3C
100
AcDbDictionary
280
     1
281
     1
  3
ACAD_XREC_ROUNDTRIP
360
818
  0
XRECORD
  5
827
102
{ACAD_REACTORS
330
826
102
}
330
826
100
AcDbXrecord
280
     1
102
SHADEPLOT
 70
     0
102
SHADEPLOTRESLEVEL
 70
     2
102
SHADEPLOTCUSTOMDPI
 70
   300
  0
XRECORD
  5
825
102
{ACAD_REACTORS
330
824
102
}
330
824
100
AcDbXrecord
280
     1
102
SHADEPLOT
 70
     0
102
SHADEPLOTRESLEVEL
 70
     2
102
SHADEPLOTCUSTOMDPI
 70
   300
  0
XRECORD
  5
704
102
{ACAD_REACTORS
330
1A
102
}
330
1A
100
AcDbXrecord
280
     1
102
MATERIAL
148
0.0
149
0.0
149
0.0
 93
        0
 94
      127
282
     0
 72
     0
 77
     0
171
     0
175
     0
179
     0
273
     0
  0
XRECORD
  5
1C
102
{ACAD_REACTORS
330
1A
102
}
330
1A
100
AcDbXrecord
280
     1
270
     1
271
     1
  0
XRECORD
  5
1B
102
{ACAD_REACTORS
330
1A
102
}
330
1A
100
AcDbXrecord
280
     1
270
     1
271
     1
  0
XRECORD
  5
1F
102
{ACAD_REACTORS
330
1A
102
}
330
1A
100
AcDbXrecord
280
     1
270
     1
271
     1
  0
XRECORD
  5
1E
102
{ACAD_REACTORS
330
1A
102
}
330
1A
100
AcDbXrecord
280
     1
270
     1
271
     1
  0
XRECORD
  5
20
102
{ACAD_REACTORS
330
1A
102
}
330
1A
100
AcDbXrecord
280
     1
270
     1
271
     1
  0
XRECORD
  5
1D
102
{ACAD_REACTORS
330
1A
102
}
330
1A
100
AcDbXrecord
280
     1
270
     1
271
     1
  0
XRECORD
  5
703
102
{ACAD_REACTORS
330
12
102
}
330
12
100
AcDbXrecord
280
     1
102
MATERIAL
148
0.0
149
0.0
149
0.0
 93
        0
 94
      127
282
     0
 72
     0
 77
     0
171
     0
175
     0
179
     0
273
     0
  0
XRECORD
  5
14
102
{ACAD_REACTORS
330
12
102
}
330
12
100
AcDbXrecord
280
     1
270
     1
271
     1
  0
XRECORD
  5
13
102
{ACAD_REACTORS
330
12
102
}
330
12
100
AcDbXrecord
280
     1
270
     1
271
     1
  0
XRECORD
  5
17
102
{ACAD_REACTORS
330
12
102
}
330
12
100
AcDbXrecord
280
     1
270
     1
271
     1
  0
XRECORD
  5
16
102
{ACAD_REACTORS
330
12
102
}
330
12
100
AcDbXrecord
280
     1
270
     1
271
     1
  0
XRECORD
  5
18
102
{ACAD_REACTORS
330
12
102
}
330
12
100
AcDbXrecord
280
     1
270
     1
271
     1
  0
XRECORD
  5
15
102
{ACAD_REACTORS
330
12
102
}
330
12
100
AcDbXrecord
280
     1
270
     1
271
     1
  0
XRECORD
  5
705
102
{ACAD_REACTORS
330
22
102
}
330
22
100
AcDbXrecord
280
     1
102
MATERIAL
148
0.0
149
0.0
149
0.0
 93
        0
 94
      127
282
     0
 72
     0
 77
     0
171
     0
175
     0
179
     0
273
     0
  0
XRECORD
  5
24
102
{ACAD_REACTORS
330
22
102
}
330
22
100
AcDbXrecord
280
     1
270
     1
271
     1
  0
XRECORD
  5
23
102
{ACAD_REACTORS
330
22
102
}
330
22
100
AcDbXrecord
280
     1
270
     1
271
     1
  0
XRECORD
  5
27
102
{ACAD_REACTORS
330
22
102
}
330
22
100
AcDbXrecord
280
     1
270
     1
271
     1
  0
XRECORD
  5
26
102
{ACAD_REACTORS
330
22
102
}
330
22
100
AcDbXrecord
280
     1
270
     1
271
     1
  0
XRECORD
  5
28
102
{ACAD_REACTORS
330
22
102
}
330
22
100
AcDbXrecord
280
     1
270
     1
271
     1
  0
XRECORD
  5
25
102
{ACAD_REACTORS
330
22
102
}
330
22
100
AcDbXrecord
280
     1
270
     1
271
     1
  0
CELLSTYLEMAP
  5
7EC
102
{ACAD_REACTORS
330
6FB
102
}
330
6FB
100
AcDbCellStyleMap
 90
        3
300
CELLSTYLE
  1
TABLEFORMAT_BEGIN
 90
        5
170
     1
 91
        0
 92
    32768
 62
   257
 93
        1
300
CONTENTFORMAT
  1
CONTENTFORMAT_BEGIN
 90
        0
 91
        0
 92
      512
 93
        0
300

 40
0.0
140
1.0
 94
        5
 62
     0
340
55
144
0.25
309
CONTENTFORMAT_END
171
     1
301
MARGIN
  1
CELLMARGIN_BEGIN
 40
0.06
 40
0.06
 40
0.06
 40
0.06
 40
0.18
 40
0.18
309
CELLMARGIN_END
 94
        6
 95
        1
302
GRIDFORMAT
  1
GRIDFORMAT_BEGIN
 90
        0
 91
        1
 62
     0
 92
       -2
340
0
 93
        0
 40
0.045
309
GRIDFORMAT_END
 95
        2
302
GRIDFORMAT
  1
GRIDFORMAT_BEGIN
 90
        0
 91
        1
 62
     0
 92
       -2
340
0
 93
        0
 40
0.045
309
GRIDFORMAT_END
 95
        4
302
GRIDFORMAT
  1
GRIDFORMAT_BEGIN
 90
        0
 91
        1
 62
     0
 92
       -2
340
0
 93
        0
 40
0.045
309
GRIDFORMAT_END
 95
        8
302
GRIDFORMAT
  1
GRIDFORMAT_BEGIN
 90
        0
 91
        1
 62
     0
 92
       -2
340
0
 93
        0
 40
0.045
309
GRIDFORMAT_END
 95
       16
302
GRIDFORMAT
  1
GRIDFORMAT_BEGIN
 90
        0
 91
        1
 62
     0
 92
       -2
340
0
 93
        0
 40
0.045
309
GRIDFORMAT_END
 95
       32
302
GRIDFORMAT
  1
GRIDFORMAT_BEGIN
 90
        0
 91
        1
 62
     0
 92
       -2
340
0
 93
        0
 40
0.045
309
GRIDFORMAT_END
309
TABLEFORMAT_END
  1
CELLSTYLE_BEGIN
 90
        1
 91
        1
300
_TITLE
309
CELLSTYLE_END
300
CELLSTYLE
  1
TABLEFORMAT_BEGIN
 90
        5
170
     1
 91
        0
 92
        0
 62
   257
 93
        1
300
CONTENTFORMAT
  1
CONTENTFORMAT_BEGIN
 90
        0
 91
        0
 92
      512
 93
        0
300

 40
0.0
140
1.0
 94
        5
 62
     0
340
55
144
0.18
309
CONTENTFORMAT_END
171
     1
301
MARGIN
  1
CELLMARGIN_BEGIN
 40
0.06
 40
0.06
 40
0.06
 40
0.06
 40
0.18
 40
0.18
309
CELLMARGIN_END
 94
        6
 95
        1
302
GRIDFORMAT
  1
GRIDFORMAT_BEGIN
 90
        0
 91
        1
 62
     0
 92
       -2
340
0
 93
        0
 40
0.045
309
GRIDFORMAT_END
 95
        2
302
GRIDFORMAT
  1
GRIDFORMAT_BEGIN
 90
        0
 91
        1
 62
     0
 92
       -2
340
0
 93
        0
 40
0.045
309
GRIDFORMAT_END
 95
        4
302
GRIDFORMAT
  1
GRIDFORMAT_BEGIN
 90
        0
 91
        1
 62
     0
 92
       -2
340
0
 93
        0
 40
0.045
309
GRIDFORMAT_END
 95
        8
302
GRIDFORMAT
  1
GRIDFORMAT_BEGIN
 90
        0
 91
        1
 62
     0
 92
       -2
340
0
 93
        0
 40
0.045
309
GRIDFORMAT_END
 95
       16
302
GRIDFORMAT
  1
GRIDFORMAT_BEGIN
 90
        0
 91
        1
 62
     0
 92
       -2
340
0
 93
        0
 40
0.045
309
GRIDFORMAT_END
 95
       32
302
GRIDFORMAT
  1
GRIDFORMAT_BEGIN
 90
        0
 91
        1
 62
     0
 92
       -2
340
0
 93
        0
 40
0.045
309
GRIDFORMAT_END
309
TABLEFORMAT_END
  1
CELLSTYLE_BEGIN
 90
        2
 91
        1
300
_HEADER
309
CELLSTYLE_END
300
CELLSTYLE
  1
TABLEFORMAT_BEGIN
 90
        5
170
     1
 91
        0
 92
        0
 62
   257
 93
        1
300
CONTENTFORMAT
  1
CONTENTFORMAT_BEGIN
 90
        0
 91
        0
 92
      512
 93
        0
300

 40
0.0
140
1.0
 94
        2
 62
     0
340
55
144
0.18
309
CONTENTFORMAT_END
171
     1
301
MARGIN
  1
CELLMARGIN_BEGIN
 40
0.06
 40
0.06
 40
0.06
 40
0.06
 40
0.18
 40
0.18
309
CELLMARGIN_END
 94
        6
 95
        1
302
GRIDFORMAT
  1
GRIDFORMAT_BEGIN
 90
        0
 91
        1
 62
     0
 92
       -2
340
0
 93
        0
 40
0.045
309
GRIDFORMAT_END
 95
        2
302
GRIDFORMAT
  1
GRIDFORMAT_BEGIN
 90
        0
 91
        1
 62
     0
 92
       -2
340
0
 93
        0
 40
0.045
309
GRIDFORMAT_END
 95
        4
302
GRIDFORMAT
  1
GRIDFORMAT_BEGIN
 90
        0
 91
        1
 62
     0
 92
       -2
340
0
 93
        0
 40
0.045
309
GRIDFORMAT_END
 95
        8
302
GRIDFORMAT
  1
GRIDFORMAT_BEGIN
 90
        0
 91
        1
 62
     0
 92
       -2
340
0
 93
        0
 40
0.045
309
GRIDFORMAT_END
 95
       16
302
GRIDFORMAT
  1
GRIDFORMAT_BEGIN
 90
        0
 91
        1
 62
     0
 92
       -2
340
0
 93
        0
 40
0.045
309
GRIDFORMAT_END
 95
       32
302
GRIDFORMAT
  1
GRIDFORMAT_BEGIN
 90
        0
 91
        1
 62
     0
 92
       -2
340
0
 93
        0
 40
0.045
309
GRIDFORMAT_END
309
TABLEFORMAT_END
  1
CELLSTYLE_BEGIN
 90
        3
 91
        2
300
_DATA
309
CELLSTYLE_END
  0
XRECORD
  5
823
102
{ACAD_REACTORS
330
6FB
102
}
330
6FB
100
AcDbXrecord
280
     1
102
ACAD_ROUNDTRIP_PRE2007_TABLESTYLE
 90
      512
 91
        0
  1

 92
      512
 93
        0
  2

 94
      512
 95
        0
  3

  0
XRECORD
  5
7FE
102
{ACAD_REACTORS
330
7FD
102
}
330
7FD
100
AcDbXrecord
280
     1
102
RTVSPropertyOp0
 70
     1
102
RTVSPropertyOp1
 70
     1
102
RTVSPropertyOp2
 70
     1
102
RTVSPropertyOp3
 70
     1
102
RTVSPropertyOp4
 70
     1
102
RTVSPropertyOp5
 70
     1
102
RTVSPropertyOp6
 70
     1
102
RTVSPropertyOp7
 70
     1
102
RTVSPropertyOp8
 70
     1
102
RTVSPropertyOp9
 70
     1
102
RTVSPropertyOp10
 70
     1
102
RTVSPropertyOp11
 70
     1
102
RTVSPropertyOp12
 70
     1
102
RTVSPropertyOp13
 70
     1
102
RTVSPropertyOp14
 70
     1
102
RTVSPropertyOp15
 70
     1
102
RTVSPropertyOp16
 70
     1
102
RTVSPropertyOp17
 70
     1
102
RTVSPropertyOp18
 70
     1
102
RTVSPropertyOp19
 70
     1
102
RTVSPropertyOp20
 70
     1
102
RTVSPropertyOp21
 70
     1
102
RTVSPropertyOp22
 70
     1
102
RTVSPropertyOp23
 70
     1
102
RTVSPropertyOp24
 70
     1
102
RTVSPropertyOp25
 70
     1
102
RTVSPropertyOp26
 70
     1
102
RTVSPropertyOp27
 70
     1
102
RTVSPropertyOp28
 70
     1
102
RTVSPropertyOp29
 70
     1
102
RTVSPropertyOp30
 70
     1
102
RTVSPropertyOp31
 70
     1
102
RTVSPropertyOp32
 70
     1
  0
XRECORD
  5
829
102
{ACAD_REACTORS
330
828
102
}
330
828
100
AcDbXrecord
280
     1
102
RTVSPropertyOp0
 70
     1
102
RTVSPropertyOp1
 70
     1
102
RTVSPropertyOp2
 70
     1
102
RTVSPropertyOp3
 70
     1
102
RTVSPropertyOp4
 70
     1
102
RTVSPropertyOp5
 70
     1
102
RTVSPropertyOp6
 70
     1
102
RTVSPropertyOp7
 70
     1
102
RTVSPropertyOp8
 70
     1
102
RTVSPropertyOp9
 70
     1
102
RTVSPropertyOp10
 70
     1
102
RTVSPropertyOp11
 70
     1
102
RTVSPropertyOp12
 70
     1
102
RTVSPropertyOp13
 70
     1
102
RTVSPropertyOp14
 70
     1
102
RTVSPropertyOp15
 70
     1
102
RTVSPropertyOp16
 70
     1
102
RTVSPropertyOp17
 70
     1
102
RTVSPropertyOp18
 70
     1
102
RTVSPropertyOp19
 70
     1
102
RTVSPropertyOp20
 70
     1
102
RTVSPropertyOp21
 70
     1
102
RTVSPropertyOp22
 70
     1
102
RTVSPropertyOp23
 70
     1
102
RTVSPropertyOp24
 70
     1
102
RTVSPropertyOp25
 70
     1
102
RTVSPropertyOp26
 70
     1
102
RTVSPropertyOp27
 70
     1
102
RTVSPropertyOp28
 70
     1
102
RTVSPropertyOp29
 70
     1
102
RTVSPropertyOp30
 70
     1
102
RTVSPropertyOp31
 70
     1
102
RTVSPropertyOp32
 70
     1
  0
XRECORD
  5
7FC
102
{ACAD_REACTORS
330
7FB
102
}
330
7FB
100
AcDbXrecord
280
     1
102
RTVSPropertyOp0
 70
     1
102
RTVSPropertyOp1
 70
     1
102
RTVSPropertyOp2
 70
     1
102
RTVSPropertyOp3
 70
     1
102
RTVSPropertyOp4
 70
     1
102
RTVSPropertyOp5
 70
     1
102
RTVSPropertyOp6
 70
     1
102
RTVSPropertyOp7
 70
     1
102
RTVSPropertyOp8
 70
     1
102
RTVSPropertyOp9
 70
     1
102
RTVSPropertyOp10
 70
     1
102
RTVSPropertyOp11
 70
     1
102
RTVSPropertyOp12
 70
     1
102
RTVSPropertyOp13
 70
     1
102
RTVSPropertyOp14
 70
     1
102
RTVSPropertyOp15
 70
     1
102
RTVSPropertyOp16
 70
     1
102
RTVSPropertyOp17
 70
     1
102
RTVSPropertyOp18
 70
     1
102
RTVSPropertyOp19
 70
     1
102
RTVSPropertyOp20
 70
     1
102
RTVSPropertyOp21
 70
     1
102
RTVSPropertyOp22
 70
     1
102
RTVSPropertyOp23
 70
     1
102
RTVSPropertyOp24
 70
     1
102
RTVSPropertyOp25
 70
     1
102
RTVSPropertyOp26
 70
     1
102
RTVSPropertyOp27
 70
     1
102
RTVSPropertyOp28
 70
     1
102
RTVSPropertyOp29
 70
     1
102
RTVSPropertyOp30
 70
     1
102
RTVSPropertyOp31
 70
     1
102
RTVSPropertyOp32
 70
     1
  0
XRECORD
  5
80A
102
{ACAD_REACTORS
330
809
102
}
330
809
100
AcDbXrecord
280
     1
102
RTVSPropertyOp0
 70
     1
102
RTVSPropertyOp1
 70
     1
102
RTVSPropertyOp2
 70
     1
102
RTVSPropertyOp3
 70
     1
102
RTVSPropertyOp4
 70
     1
102
RTVSPropertyOp5
 70
     1
102
RTVSPropertyOp6
 70
     1
102
RTVSPropertyOp7
 70
     1
102
RTVSPropertyOp8
 70
     1
102
RTVSPropertyOp9
 70
     1
102
RTVSPropertyOp10
 70
     1
102
RTVSPropertyOp11
 70
     1
102
RTVSPropertyOp12
 70
     1
102
RTVSPropertyOp13
 70
     1
102
RTVSPropertyOp14
 70
     1
102
RTVSPropertyOp15
 70
     1
102
RTVSPropertyOp16
 70
     1
102
RTVSPropertyOp17
 70
     1
102
RTVSPropertyOp18
 70
     1
102
RTVSPropertyOp19
 70
     1
102
RTVSPropertyOp20
 70
     1
102
RTVSPropertyOp21
 70
     1
102
RTVSPropertyOp22
 70
     1
102
RTVSPropertyOp23
 70
     1
102
RTVSPropertyOp24
 70
     1
102
RTVSPropertyOp25
 70
     1
102
RTVSPropertyOp26
 70
     1
102
RTVSPropertyOp27
 70
     1
102
RTVSPropertyOp28
 70
     1
102
RTVSPropertyOp29
 70
     1
102
RTVSPropertyOp30
 70
     1
102
RTVSPropertyOp31
 70
     1
102
RTVSPropertyOp32
 70
     1
  0
XRECORD
  5
812
102
{ACAD_REACTORS
330
811
102
}
330
811
100
AcDbXrecord
280
     1
102
RTVSPropertyOp0
 70
     1
102
RTVSPropertyOp1
 70
     1
102
RTVSPropertyOp2
 70
     1
102
RTVSPropertyOp3
 70
     1
102
RTVSPropertyOp4
 70
     1
102
RTVSPropertyOp5
 70
     1
102
RTVSPropertyOp6
 70
     1
102
RTVSPropertyOp7
 70
     1
102
RTVSPropertyOp8
 70
     1
102
RTVSPropertyOp9
 70
     1
102
RTVSPropertyOp10
 70
     1
102
RTVSPropertyOp11
 70
     1
102
RTVSPropertyOp12
 70
     1
102
RTVSPropertyOp13
 70
     1
102
RTVSPropertyOp14
 70
     1
102
RTVSPropertyOp15
 70
     1
102
RTVSPropertyOp16
 70
     1
102
RTVSPropertyOp17
 70
     1
102
RTVSPropertyOp18
 70
     1
102
RTVSPropertyOp19
 70
     1
102
RTVSPropertyOp20
 70
     1
102
RTVSPropertyOp21
 70
     1
102
RTVSPropertyOp22
 70
     1
102
RTVSPropertyOp23
 70
     1
102
RTVSPropertyOp24
 70
     1
102
RTVSPropertyOp25
 70
     1
102
RTVSPropertyOp26
 70
     1
102
RTVSPropertyOp27
 70
     1
102
RTVSPropertyOp28
 70
     1
102
RTVSPropertyOp29
 70
     1
102
RTVSPropertyOp30
 70
     1
102
RTVSPropertyOp31
 70
     1
102
RTVSPropertyOp32
 70
     1
  0
XRECORD
  5
804
102
{ACAD_REACTORS
330
803
102
}
330
803
100
AcDbXrecord
280
     1
102
RTVSPropertyOp0
 70
     1
102
RTVSPropertyOp1
 70
     1
102
RTVSPropertyOp2
 70
     1
102
RTVSPropertyOp3
 70
     1
102
RTVSPropertyOp4
 70
     1
102
RTVSPropertyOp5
 70
     1
102
RTVSPropertyOp6
 70
     1
102
RTVSPropertyOp7
 70
     1
102
RTVSPropertyOp8
 70
     1
102
RTVSPropertyOp9
 70
     1
102
RTVSPropertyOp10
 70
     1
102
RTVSPropertyOp11
 70
     1
102
RTVSPropertyOp12
 70
     1
102
RTVSPropertyOp13
 70
     1
102
RTVSPropertyOp14
 70
     1
102
RTVSPropertyOp15
 70
     1
102
RTVSPropertyOp16
 70
     1
102
RTVSPropertyOp17
 70
     1
102
RTVSPropertyOp18
 70
     1
102
RTVSPropertyOp19
 70
     1
102
RTVSPropertyOp20
 70
     1
102
RTVSPropertyOp21
 70
     1
102
RTVSPropertyOp22
 70
     1
102
RTVSPropertyOp23
 70
     1
102
RTVSPropertyOp24
 70
     1
102
RTVSPropertyOp25
 70
     1
102
RTVSPropertyOp26
 70
     1
102
RTVSPropertyOp27
 70
     1
102
RTVSPropertyOp28
 70
     1
102
RTVSPropertyOp29
 70
     1
102
RTVSPropertyOp30
 70
     1
102
RTVSPropertyOp31
 70
     1
102
RTVSPropertyOp32
 70
     1
  0
XRECORD
  5
808
102
{ACAD_REACTORS
330
807
102
}
330
807
100
AcDbXrecord
280
     1
102
RTVSPropertyOp0
 70
     1
102
RTVSPropertyOp1
 70
     1
102
RTVSPropertyOp2
 70
     1
102
RTVSPropertyOp3
 70
     1
102
RTVSPropertyOp4
 70
     1
102
RTVSPropertyOp5
 70
     1
102
RTVSPropertyOp6
 70
     1
102
RTVSPropertyOp7
 70
     1
102
RTVSPropertyOp8
 70
     1
102
RTVSPropertyOp9
 70
     1
102
RTVSPropertyOp10
 70
     1
102
RTVSPropertyOp11
 70
     1
102
RTVSPropertyOp12
 70
     1
102
RTVSPropertyOp13
 70
     1
102
RTVSPropertyOp14
 70
     1
102
RTVSPropertyOp15
 70
     1
102
RTVSPropertyOp16
 70
     1
102
RTVSPropertyOp17
 70
     1
102
RTVSPropertyOp18
 70
     1
102
RTVSPropertyOp19
 70
     1
102
RTVSPropertyOp20
 70
     1
102
RTVSPropertyOp21
 70
     1
102
RTVSPropertyOp22
 70
     1
102
RTVSPropertyOp23
 70
     1
102
RTVSPropertyOp24
 70
     1
102
RTVSPropertyOp25
 70
     1
102
RTVSPropertyOp26
 70
     1
102
RTVSPropertyOp27
 70
     1
102
RTVSPropertyOp28
 70
     1
102
RTVSPropertyOp29
 70
     1
102
RTVSPropertyOp30
 70
     1
102
RTVSPropertyOp31
 70
     1
102
RTVSPropertyOp32
 70
     1
  0
XRECORD
  5
822
102
{ACAD_REACTORS
330
821
102
}
330
821
100
AcDbXrecord
280
     1
102
RTVSPropertyOp0
 70
     0
102
RTVSPropertyOp1
 70
     0
102
RTVSPropertyOp2
 70
     0
102
RTVSPropertyOp3
 70
     0
102
RTVSPropertyOp4
 70
     0
102
RTVSPropertyOp5
 70
     0
102
RTVSPropertyOp6
 70
     0
102
RTVSPropertyOp7
 70
     0
102
RTVSPropertyOp8
 70
     0
102
RTVSPropertyOp9
 70
     0
102
RTVSPropertyOp10
 70
     0
102
RTVSPropertyOp11
 70
     0
102
RTVSPropertyOp12
 70
     0
102
RTVSPropertyOp13
 70
     0
102
RTVSPropertyOp14
 70
     2
102
RTVSPropertyOp15
 70
     0
102
RTVSPropertyOp16
 70
     0
102
RTVSPropertyOp17
 70
     0
102
RTVSPropertyOp18
 70
     0
102
RTVSPropertyOp19
 70
     0
102
RTVSPropertyOp20
 70
     0
102
RTVSPropertyOp21
 70
     0
102
RTVSPropertyOp22
 70
     0
102
RTVSPropertyOp23
 70
     0
102
RTVSPropertyOp24
 70
     0
102
RTVSPropertyOp25
 70
     0
102
RTVSPropertyOp26
 70
     0
102
RTVSPropertyOp27
 70
     0
102
RTVSPropertyOp28
 70
     0
102
RTVSPropertyOp29
 70
     0
102
RTVSPropertyOp30
 70
     0
102
RTVSPropertyOp31
 70
     0
102
RTVSPropertyOp32
 70
     0
  0
XRECORD
  5
810
102
{ACAD_REACTORS
330
80F
102
}
330
80F
100
AcDbXrecord
280
     1
102
RTVSPropertyOp0
 70
     1
102
RTVSPropertyOp1
 70
     1
102
RTVSPropertyOp2
 70
     1
102
RTVSPropertyOp3
 70
     1
102
RTVSPropertyOp4
 70
     1
102
RTVSPropertyOp5
 70
     1
102
RTVSPropertyOp6
 70
     1
102
RTVSPropertyOp7
 70
     1
102
RTVSPropertyOp8
 70
     1
102
RTVSPropertyOp9
 70
     1
102
RTVSPropertyOp10
 70
     1
102
RTVSPropertyOp11
 70
     1
102
RTVSPropertyOp12
 70
     1
102
RTVSPropertyOp13
 70
     1
102
RTVSPropertyOp14
 70
     1
102
RTVSPropertyOp15
 70
     1
102
RTVSPropertyOp16
 70
     1
102
RTVSPropertyOp17
 70
     1
102
RTVSPropertyOp18
 70
     1
102
RTVSPropertyOp19
 70
     1
102
RTVSPropertyOp20
 70
     1
102
RTVSPropertyOp21
 70
     1
102
RTVSPropertyOp22
 70
     1
102
RTVSPropertyOp23
 70
     1
102
RTVSPropertyOp24
 70
     1
102
RTVSPropertyOp25
 70
     1
102
RTVSPropertyOp26
 70
     1
102
RTVSPropertyOp27
 70
     1
102
RTVSPropertyOp28
 70
     1
102
RTVSPropertyOp29
 70
     1
102
RTVSPropertyOp30
 70
     1
102
RTVSPropertyOp31
 70
     1
102
RTVSPropertyOp32
 70
     1
  0
XRECORD
  5
7F4
102
{ACAD_REACTORS
330
7F3
102
}
330
7F3
100
AcDbXrecord
280
     1
102
RTVSPropertyOp0
 70
     1
102
RTVSPropertyOp1
 70
     1
102
RTVSPropertyOp2
 70
     1
102
RTVSPropertyOp3
 70
     1
102
RTVSPropertyOp4
 70
     1
102
RTVSPropertyOp5
 70
     1
102
RTVSPropertyOp6
 70
     1
102
RTVSPropertyOp7
 70
     1
102
RTVSPropertyOp8
 70
     1
102
RTVSPropertyOp9
 70
     1
102
RTVSPropertyOp10
 70
     1
102
RTVSPropertyOp11
 70
     1
102
RTVSPropertyOp12
 70
     1
102
RTVSPropertyOp13
 70
     1
102
RTVSPropertyOp14
 70
     1
102
RTVSPropertyOp15
 70
     1
102
RTVSPropertyOp16
 70
     1
102
RTVSPropertyOp17
 70
     1
102
RTVSPropertyOp18
 70
     1
102
RTVSPropertyOp19
 70
     1
102
RTVSPropertyOp20
 70
     1
102
RTVSPropertyOp21
 70
     1
102
RTVSPropertyOp22
 70
     1
102
RTVSPropertyOp23
 70
     1
102
RTVSPropertyOp24
 70
     1
102
RTVSPropertyOp25
 70
     1
102
RTVSPropertyOp26
 70
     1
102
RTVSPropertyOp27
 70
     1
102
RTVSPropertyOp28
 70
     1
102
RTVSPropertyOp29
 70
     1
102
RTVSPropertyOp30
 70
     1
102
RTVSPropertyOp31
 70
     1
102
RTVSPropertyOp32
 70
     1
  0
XRECORD
  5
7F6
102
{ACAD_REACTORS
330
7F5
102
}
330
7F5
100
AcDbXrecord
280
     1
102
RTVSPropertyOp0
 70
     1
102
RTVSPropertyOp1
 70
     1
102
RTVSPropertyOp2
 70
     1
102
RTVSPropertyOp3
 70
     1
102
RTVSPropertyOp4
 70
     1
102
RTVSPropertyOp5
 70
     1
102
RTVSPropertyOp6
 70
     1
102
RTVSPropertyOp7
 70
     1
102
RTVSPropertyOp8
 70
     1
102
RTVSPropertyOp9
 70
     1
102
RTVSPropertyOp10
 70
     1
102
RTVSPropertyOp11
 70
     1
102
RTVSPropertyOp12
 70
     1
102
RTVSPropertyOp13
 70
     1
102
RTVSPropertyOp14
 70
     1
102
RTVSPropertyOp15
 70
     1
102
RTVSPropertyOp16
 70
     1
102
RTVSPropertyOp17
 70
     1
102
RTVSPropertyOp18
 70
     1
102
RTVSPropertyOp19
 70
     1
102
RTVSPropertyOp20
 70
     1
102
RTVSPropertyOp21
 70
     1
102
RTVSPropertyOp22
 70
     1
102
RTVSPropertyOp23
 70
     1
102
RTVSPropertyOp24
 70
     1
102
RTVSPropertyOp25
 70
     1
102
RTVSPropertyOp26
 70
     1
102
RTVSPropertyOp27
 70
     1
102
RTVSPropertyOp28
 70
     1
102
RTVSPropertyOp29
 70
     1
102
RTVSPropertyOp30
 70
     1
102
RTVSPropertyOp31
 70
     1
102
RTVSPropertyOp32
 70
     1
  0
XRECORD
  5
7F8
102
{ACAD_REACTORS
330
7F7
102
}
330
7F7
100
AcDbXrecord
280
     1
102
RTVSPropertyOp0
 70
     1
102
RTVSPropertyOp1
 70
     1
102
RTVSPropertyOp2
 70
     1
102
RTVSPropertyOp3
 70
     1
102
RTVSPropertyOp4
 70
     1
102
RTVSPropertyOp5
 70
     1
102
RTVSPropertyOp6
 70
     1
102
RTVSPropertyOp7
 70
     1
102
RTVSPropertyOp8
 70
     1
102
RTVSPropertyOp9
 70
     1
102
RTVSPropertyOp10
 70
     1
102
RTVSPropertyOp11
 70
     1
102
RTVSPropertyOp12
 70
     1
102
RTVSPropertyOp13
 70
     1
102
RTVSPropertyOp14
 70
     1
102
RTVSPropertyOp15
 70
     1
102
RTVSPropertyOp16
 70
     1
102
RTVSPropertyOp17
 70
     1
102
RTVSPropertyOp18
 70
     1
102
RTVSPropertyOp19
 70
     1
102
RTVSPropertyOp20
 70
     1
102
RTVSPropertyOp21
 70
     1
102
RTVSPropertyOp22
 70
     1
102
RTVSPropertyOp23
 70
     1
102
RTVSPropertyOp24
 70
     1
102
RTVSPropertyOp25
 70
     1
102
RTVSPropertyOp26
 70
     1
102
RTVSPropertyOp27
 70
     1
102
RTVSPropertyOp28
 70
     1
102
RTVSPropertyOp29
 70
     1
102
RTVSPropertyOp30
 70
     1
102
RTVSPropertyOp31
 70
     1
102
RTVSPropertyOp32
 70
     1
  0
XRECORD
  5
7FA
102
{ACAD_REACTORS
330
7F9
102
}
330
7F9
100
AcDbXrecord
280
     1
102
RTVSPropertyOp0
 70
     1
102
RTVSPropertyOp1
 70
     1
102
RTVSPropertyOp2
 70
     1
102
RTVSPropertyOp3
 70
     1
102
RTVSPropertyOp4
 70
     1
102
RTVSPropertyOp5
 70
     1
102
RTVSPropertyOp6
 70
     1
102
RTVSPropertyOp7
 70
     1
102
RTVSPropertyOp8
 70
     1
102
RTVSPropertyOp9
 70
     1
102
RTVSPropertyOp10
 70
     1
102
RTVSPropertyOp11
 70
     1
102
RTVSPropertyOp12
 70
     1
102
RTVSPropertyOp13
 70
     1
102
RTVSPropertyOp14
 70
     1
102
RTVSPropertyOp15
 70
     1
102
RTVSPropertyOp16
 70
     1
102
RTVSPropertyOp17
 70
     1
102
RTVSPropertyOp18
 70
     1
102
RTVSPropertyOp19
 70
     1
102
RTVSPropertyOp20
 70
     1
102
RTVSPropertyOp21
 70
     1
102
RTVSPropertyOp22
 70
     1
102
RTVSPropertyOp23
 70
     1
102
RTVSPropertyOp24
 70
     1
102
RTVSPropertyOp25
 70
     1
102
RTVSPropertyOp26
 70
     1
102
RTVSPropertyOp27
 70
     1
102
RTVSPropertyOp28
 70
     1
102
RTVSPropertyOp29
 70
     1
102
RTVSPropertyOp30
 70
     1
102
RTVSPropertyOp31
 70
     1
102
RTVSPropertyOp32
 70
     1
  0
XRECORD
  5
802
102
{ACAD_REACTORS
330
801
102
}
330
801
100
AcDbXrecord
280
     1
102
RTVSPropertyOp0
 70
     1
102
RTVSPropertyOp1
 70
     1
102
RTVSPropertyOp2
 70
     1
102
RTVSPropertyOp3
 70
     1
102
RTVSPropertyOp4
 70
     1
102
RTVSPropertyOp5
 70
     1
102
RTVSPropertyOp6
 70
     1
102
RTVSPropertyOp7
 70
     1
102
RTVSPropertyOp8
 70
     1
102
RTVSPropertyOp9
 70
     1
102
RTVSPropertyOp10
 70
     1
102
RTVSPropertyOp11
 70
     1
102
RTVSPropertyOp12
 70
     1
102
RTVSPropertyOp13
 70
     1
102
RTVSPropertyOp14
 70
     1
102
RTVSPropertyOp15
 70
     1
102
RTVSPropertyOp16
 70
     1
102
RTVSPropertyOp17
 70
     1
102
RTVSPropertyOp18
 70
     1
102
RTVSPropertyOp19
 70
     1
102
RTVSPropertyOp20
 70
     1
102
RTVSPropertyOp21
 70
     1
102
RTVSPropertyOp22
 70
     1
102
RTVSPropertyOp23
 70
     1
102
RTVSPropertyOp24
 70
     1
102
RTVSPropertyOp25
 70
     1
102
RTVSPropertyOp26
 70
     1
102
RTVSPropertyOp27
 70
     1
102
RTVSPropertyOp28
 70
     1
102
RTVSPropertyOp29
 70
     1
102
RTVSPropertyOp30
 70
     1
102
RTVSPropertyOp31
 70
     1
102
RTVSPropertyOp32
 70
     1
  0
XRECORD
  5
81E
102
{ACAD_REACTORS
330
81D
102
}
330
81D
100
AcDbXrecord
280
     1
102
RTVSPropertyOp0
 70
     0
102
RTVSPropertyOp1
 70
     0
102
RTVSPropertyOp2
 70
     0
102
RTVSPropertyOp3
 70
     0
102
RTVSPropertyOp4
 70
     0
102
RTVSPropertyOp5
 70
     0
102
RTVSPropertyOp6
 70
     0
102
RTVSPropertyOp7
 70
     0
102
RTVSPropertyOp8
 70
     0
102
RTVSPropertyOp9
 70
     0
102
RTVSPropertyOp10
 70
     0
102
RTVSPropertyOp11
 70
     0
102
RTVSPropertyOp12
 70
     0
102
RTVSPropertyOp13
 70
     0
102
RTVSPropertyOp14
 70
     2
102
RTVSPropertyOp15
 70
     0
102
RTVSPropertyOp16
 70
     0
102
RTVSPropertyOp17
 70
     0
102
RTVSPropertyOp18
 70
     0
102
RTVSPropertyOp19
 70
     0
102
RTVSPropertyOp20
 70
     0
102
RTVSPropertyOp21
 70
     0
102
RTVSPropertyOp22
 70
     0
102
RTVSPropertyOp23
 70
     0
102
RTVSPropertyOp24
 70
     0
102
RTVSPropertyOp25
 70
     0
102
RTVSPropertyOp26
 70
     0
102
RTVSPropertyOp27
 70
     0
102
RTVSPropertyOp28
 70
     0
102
RTVSPropertyOp29
 70
     0
102
RTVSPropertyOp30
 70
     0
102
RTVSPropertyOp31
 70
     0
102
RTVSPropertyOp32
 70
     0
  0
XRECORD
  5
80E
102
{ACAD_REACTORS
330
80D
102
}
330
80D
100
AcDbXrecord
280
     1
102
RTVSPropertyOp0
 70
     1
102
RTVSPropertyOp1
 70
     1
102
RTVSPropertyOp2
 70
     1
102
RTVSPropertyOp3
 70
     1
102
RTVSPropertyOp4
 70
     1
102
RTVSPropertyOp5
 70
     1
102
RTVSPropertyOp6
 70
     1
102
RTVSPropertyOp7
 70
     1
102
RTVSPropertyOp8
 70
     1
102
RTVSPropertyOp9
 70
     1
102
RTVSPropertyOp10
 70
     1
102
RTVSPropertyOp11
 70
     1
102
RTVSPropertyOp12
 70
     1
102
RTVSPropertyOp13
 70
     1
102
RTVSPropertyOp14
 70
     1
102
RTVSPropertyOp15
 70
     1
102
RTVSPropertyOp16
 70
     1
102
RTVSPropertyOp17
 70
     1
102
RTVSPropertyOp18
 70
     1
102
RTVSPropertyOp19
 70
     1
102
RTVSPropertyOp20
 70
     1
102
RTVSPropertyOp21
 70
     1
102
RTVSPropertyOp22
 70
     1
102
RTVSPropertyOp23
 70
     1
102
RTVSPropertyOp24
 70
     1
102
RTVSPropertyOp25
 70
     1
102
RTVSPropertyOp26
 70
     1
102
RTVSPropertyOp27
 70
     1
102
RTVSPropertyOp28
 70
     1
102
RTVSPropertyOp29
 70
     1
102
RTVSPropertyOp30
 70
     1
102
RTVSPropertyOp31
 70
     1
102
RTVSPropertyOp32
 70
     1
  0
XRECORD
  5
820
102
{ACAD_REACTORS
330
81F
102
}
330
81F
100
AcDbXrecord
280
     1
102
RTVSPropertyOp0
 70
     0
102
RTVSPropertyOp1
 70
     0
102
RTVSPropertyOp2
 70
     0
102
RTVSPropertyOp3
 70
     0
102
RTVSPropertyOp4
 70
     0
102
RTVSPropertyOp5
 70
     0
102
RTVSPropertyOp6
 70
     0
102
RTVSPropertyOp7
 70
     0
102
RTVSPropertyOp8
 70
     0
102
RTVSPropertyOp9
 70
     0
102
RTVSPropertyOp10
 70
     0
102
RTVSPropertyOp11
 70
     0
102
RTVSPropertyOp12
 70
     0
102
RTVSPropertyOp13
 70
     0
102
RTVSPropertyOp14
 70
     2
102
RTVSPropertyOp15
 70
     0
102
RTVSPropertyOp16
 70
     0
102
RTVSPropertyOp17
 70
     0
102
RTVSPropertyOp18
 70
     0
102
RTVSPropertyOp19
 70
     0
102
RTVSPropertyOp20
 70
     0
102
RTVSPropertyOp21
 70
     0
102
RTVSPropertyOp22
 70
     0
102
RTVSPropertyOp23
 70
     0
102
RTVSPropertyOp24
 70
     0
102
RTVSPropertyOp25
 70
     0
102
RTVSPropertyOp26
 70
     0
102
RTVSPropertyOp27
 70
     0
102
RTVSPropertyOp28
 70
     0
102
RTVSPropertyOp29
 70
     0
102
RTVSPropertyOp30
 70
     0
102
RTVSPropertyOp31
 70
     0
102
RTVSPropertyOp32
 70
     0
  0
XRECORD
  5
806
102
{ACAD_REACTORS
330
805
102
}
330
805
100
AcDbXrecord
280
     1
102
RTVSPropertyOp0
 70
     1
102
RTVSPropertyOp1
 70
     1
102
RTVSPropertyOp2
 70
     1
102
RTVSPropertyOp3
 70
     1
102
RTVSPropertyOp4
 70
     1
102
RTVSPropertyOp5
 70
     1
102
RTVSPropertyOp6
 70
     1
102
RTVSPropertyOp7
 70
     1
102
RTVSPropertyOp8
 70
     1
102
RTVSPropertyOp9
 70
     1
102
RTVSPropertyOp10
 70
     1
102
RTVSPropertyOp11
 70
     1
102
RTVSPropertyOp12
 70
     1
102
RTVSPropertyOp13
 70
     1
102
RTVSPropertyOp14
 70
     1
102
RTVSPropertyOp15
 70
     1
102
RTVSPropertyOp16
 70
     1
102
RTVSPropertyOp17
 70
     1
102
RTVSPropertyOp18
 70
     1
102
RTVSPropertyOp19
 70
     1
102
RTVSPropertyOp20
 70
     1
102
RTVSPropertyOp21
 70
     1
102
RTVSPropertyOp22
 70
     1
102
RTVSPropertyOp23
 70
     1
102
RTVSPropertyOp24
 70
     1
102
RTVSPropertyOp25
 70
     1
102
RTVSPropertyOp26
 70
     1
102
RTVSPropertyOp27
 70
     1
102
RTVSPropertyOp28
 70
     1
102
RTVSPropertyOp29
 70
     1
102
RTVSPropertyOp30
 70
     1
102
RTVSPropertyOp31
 70
     1
102
RTVSPropertyOp32
 70
     1
  0
XRECORD
  5
81C
102
{ACAD_REACTORS
330
81B
102
}
330
81B
100
AcDbXrecord
280
     1
102
RTVSPropertyOp0
 70
     1
102
RTVSPropertyOp1
 70
     1
102
RTVSPropertyOp2
 70
     1
102
RTVSPropertyOp3
 70
     1
102
RTVSPropertyOp4
 70
     1
102
RTVSPropertyOp5
 70
     1
102
RTVSPropertyOp6
 70
     1
102
RTVSPropertyOp7
 70
     1
102
RTVSPropertyOp8
 70
     1
102
RTVSPropertyOp9
 70
     1
102
RTVSPropertyOp10
 70
     1
102
RTVSPropertyOp11
 70
     1
102
RTVSPropertyOp12
 70
     1
102
RTVSPropertyOp13
 70
     1
102
RTVSPropertyOp14
 70
     1
102
RTVSPropertyOp15
 70
     1
102
RTVSPropertyOp16
 70
     1
102
RTVSPropertyOp17
 70
     1
102
RTVSPropertyOp18
 70
     1
102
RTVSPropertyOp19
 70
     1
102
RTVSPropertyOp20
 70
     1
102
RTVSPropertyOp21
 70
     1
102
RTVSPropertyOp22
 70
     1
102
RTVSPropertyOp23
 70
     1
102
RTVSPropertyOp24
 70
     1
102
RTVSPropertyOp25
 70
     1
102
RTVSPropertyOp26
 70
     1
102
RTVSPropertyOp27
 70
     1
102
RTVSPropertyOp28
 70
     1
102
RTVSPropertyOp29
 70
     1
102
RTVSPropertyOp30
 70
     1
102
RTVSPropertyOp31
 70
     1
102
RTVSPropertyOp32
 70
     1
  0
XRECORD
  5
81A
102
{ACAD_REACTORS
330
819
102
}
330
819
100
AcDbXrecord
280
     1
102
RTVSPropertyOp0
 70
     1
102
RTVSPropertyOp1
 70
     1
102
RTVSPropertyOp2
 70
     1
102
RTVSPropertyOp3
 70
     1
102
RTVSPropertyOp4
 70
     1
102
RTVSPropertyOp5
 70
     1
102
RTVSPropertyOp6
 70
     1
102
RTVSPropertyOp7
 70
     1
102
RTVSPropertyOp8
 70
     1
102
RTVSPropertyOp9
 70
     1
102
RTVSPropertyOp10
 70
     1
102
RTVSPropertyOp11
 70
     1
102
RTVSPropertyOp12
 70
     1
102
RTVSPropertyOp13
 70
     1
102
RTVSPropertyOp14
 70
     1
102
RTVSPropertyOp15
 70
     1
102
RTVSPropertyOp16
 70
     1
102
RTVSPropertyOp17
 70
     1
102
RTVSPropertyOp18
 70
     1
102
RTVSPropertyOp19
 70
     1
102
RTVSPropertyOp20
 70
     1
102
RTVSPropertyOp21
 70
     1
102
RTVSPropertyOp22
 70
     1
102
RTVSPropertyOp23
 70
     1
102
RTVSPropertyOp24
 70
     1
102
RTVSPropertyOp25
 70
     1
102
RTVSPropertyOp26
 70
     1
102
RTVSPropertyOp27
 70
     1
102
RTVSPropertyOp28
 70
     1
102
RTVSPropertyOp29
 70
     1
102
RTVSPropertyOp30
 70
     1
102
RTVSPropertyOp31
 70
     1
102
RTVSPropertyOp32
 70
     1
  0
XRECORD
  5
814
102
{ACAD_REACTORS
330
813
102
}
330
813
100
AcDbXrecord
280
     1
102
RTVSPropertyOp0
 70
     1
102
RTVSPropertyOp1
 70
     1
102
RTVSPropertyOp2
 70
     1
102
RTVSPropertyOp3
 70
     1
102
RTVSPropertyOp4
 70
     1
102
RTVSPropertyOp5
 70
     1
102
RTVSPropertyOp6
 70
     1
102
RTVSPropertyOp7
 70
     1
102
RTVSPropertyOp8
 70
     1
102
RTVSPropertyOp9
 70
     1
102
RTVSPropertyOp10
 70
     1
102
RTVSPropertyOp11
 70
     1
102
RTVSPropertyOp12
 70
     1
102
RTVSPropertyOp13
 70
     1
102
RTVSPropertyOp14
 70
     1
102
RTVSPropertyOp15
 70
     1
102
RTVSPropertyOp16
 70
     1
102
RTVSPropertyOp17
 70
     1
102
RTVSPropertyOp18
 70
     1
102
RTVSPropertyOp19
 70
     1
102
RTVSPropertyOp20
 70
     1
102
RTVSPropertyOp21
 70
     1
102
RTVSPropertyOp22
 70
     1
102
RTVSPropertyOp23
 70
     1
102
RTVSPropertyOp24
 70
     1
102
RTVSPropertyOp25
 70
     1
102
RTVSPropertyOp26
 70
     1
102
RTVSPropertyOp27
 70
     1
102
RTVSPropertyOp28
 70
     1
102
RTVSPropertyOp29
 70
     1
102
RTVSPropertyOp30
 70
     1
102
RTVSPropertyOp31
 70
     1
102
RTVSPropertyOp32
 70
     1
  0
XRECORD
  5
816
102
{ACAD_REACTORS
330
815
102
}
330
815
100
AcDbXrecord
280
     1
102
RTVSPropertyOp0
 70
     1
102
RTVSPropertyOp1
 70
     1
102
RTVSPropertyOp2
 70
     1
102
RTVSPropertyOp3
 70
     1
102
RTVSPropertyOp4
 70
     1
102
RTVSPropertyOp5
 70
     1
102
RTVSPropertyOp6
 70
     1
102
RTVSPropertyOp7
 70
     1
102
RTVSPropertyOp8
 70
     1
102
RTVSPropertyOp9
 70
     1
102
RTVSPropertyOp10
 70
     1
102
RTVSPropertyOp11
 70
     1
102
RTVSPropertyOp12
 70
     1
102
RTVSPropertyOp13
 70
     1
102
RTVSPropertyOp14
 70
     1
102
RTVSPropertyOp15
 70
     1
102
RTVSPropertyOp16
 70
     1
102
RTVSPropertyOp17
 70
     1
102
RTVSPropertyOp18
 70
     1
102
RTVSPropertyOp19
 70
     1
102
RTVSPropertyOp20
 70
     1
102
RTVSPropertyOp21
 70
     1
102
RTVSPropertyOp22
 70
     1
102
RTVSPropertyOp23
 70
     1
102
RTVSPropertyOp24
 70
     1
102
RTVSPropertyOp25
 70
     1
102
RTVSPropertyOp26
 70
     1
102
RTVSPropertyOp27
 70
     1
102
RTVSPropertyOp28
 70
     1
102
RTVSPropertyOp29
 70
     1
102
RTVSPropertyOp30
 70
     1
102
RTVSPropertyOp31
 70
     1
102
RTVSPropertyOp32
 70
     1
  0
XRECORD
  5
80C
102
{ACAD_REACTORS
330
80B
102
}
330
80B
100
AcDbXrecord
280
     1
102
RTVSPropertyOp0
 70
     1
102
RTVSPropertyOp1
 70
     1
102
RTVSPropertyOp2
 70
     1
102
RTVSPropertyOp3
 70
     1
102
RTVSPropertyOp4
 70
     1
102
RTVSPropertyOp5
 70
     1
102
RTVSPropertyOp6
 70
     1
102
RTVSPropertyOp7
 70
     1
102
RTVSPropertyOp8
 70
     1
102
RTVSPropertyOp9
 70
     1
102
RTVSPropertyOp10
 70
     1
102
RTVSPropertyOp11
 70
     1
102
RTVSPropertyOp12
 70
     1
102
RTVSPropertyOp13
 70
     1
102
RTVSPropertyOp14
 70
     1
102
RTVSPropertyOp15
 70
     1
102
RTVSPropertyOp16
 70
     1
102
RTVSPropertyOp17
 70
     1
102
RTVSPropertyOp18
 70
     1
102
RTVSPropertyOp19
 70
     1
102
RTVSPropertyOp20
 70
     1
102
RTVSPropertyOp21
 70
     1
102
RTVSPropertyOp22
 70
     1
102
RTVSPropertyOp23
 70
     1
102
RTVSPropertyOp24
 70
     1
102
RTVSPropertyOp25
 70
     1
102
RTVSPropertyOp26
 70
     1
102
RTVSPropertyOp27
 70
     1
102
RTVSPropertyOp28
 70
     1
102
RTVSPropertyOp29
 70
     1
102
RTVSPropertyOp30
 70
     1
102
RTVSPropertyOp31
 70
     1
102
RTVSPropertyOp32
 70
     1
  0
XRECORD
  5
800
102
{ACAD_REACTORS
330
7FF
102
}
330
7FF
100
AcDbXrecord
280
     1
102
RTVSPropertyOp0
 70
     1
102
RTVSPropertyOp1
 70
     1
102
RTVSPropertyOp2
 70
     1
102
RTVSPropertyOp3
 70
     1
102
RTVSPropertyOp4
 70
     1
102
RTVSPropertyOp5
 70
     1
102
RTVSPropertyOp6
 70
     1
102
RTVSPropertyOp7
 70
     1
102
RTVSPropertyOp8
 70
     1
102
RTVSPropertyOp9
 70
     1
102
RTVSPropertyOp10
 70
     1
102
RTVSPropertyOp11
 70
     1
102
RTVSPropertyOp12
 70
     1
102
RTVSPropertyOp13
 70
     1
102
RTVSPropertyOp14
 70
     1
102
RTVSPropertyOp15
 70
     1
102
RTVSPropertyOp16
 70
     1
102
RTVSPropertyOp17
 70
     1
102
RTVSPropertyOp18
 70
     1
102
RTVSPropertyOp19
 70
     1
102
RTVSPropertyOp20
 70
     1
102
RTVSPropertyOp21
 70
     1
102
RTVSPropertyOp22
 70
     1
102
RTVSPropertyOp23
 70
     1
102
RTVSPropertyOp24
 70
     1
102
RTVSPropertyOp25
 70
     1
102
RTVSPropertyOp26
 70
     1
102
RTVSPropertyOp27
 70
     1
102
RTVSPropertyOp28
 70
     1
102
RTVSPropertyOp29
 70
     1
102
RTVSPropertyOp30
 70
     1
102
RTVSPropertyOp31
 70
     1
102
RTVSPropertyOp32
 70
     1
  0
XRECORD
  5
818
102
{ACAD_REACTORS
330
817
102
}
330
817
100
AcDbXrecord
280
     1
102
RTVSPropertyOp0
 70
     1
102
RTVSPropertyOp1
 70
     1
102
RTVSPropertyOp2
 70
     1
102
RTVSPropertyOp3
 70
     1
102
RTVSPropertyOp4
 70
     1
102
RTVSPropertyOp5
 70
     1
102
RTVSPropertyOp6
 70
     1
102
RTVSPropertyOp7
 70
     1
102
RTVSPropertyOp8
 70
     1
102
RTVSPropertyOp9
 70
     1
102
RTVSPropertyOp10
 70
     1
102
RTVSPropertyOp11
 70
     1
102
RTVSPropertyOp12
 70
     1
102
RTVSPropertyOp13
 70
     1
102
RTVSPropertyOp14
 70
     1
102
RTVSPropertyOp15
 70
     1
102
RTVSPropertyOp16
 70
     1
102
RTVSPropertyOp17
 70
     1
102
RTVSPropertyOp18
 70
     1
102
RTVSPropertyOp19
 70
     1
102
RTVSPropertyOp20
 70
     1
102
RTVSPropertyOp21
 70
     1
102
RTVSPropertyOp22
 70
     1
102
RTVSPropertyOp23
 70
     1
102
RTVSPropertyOp24
 70
     1
102
RTVSPropertyOp25
 70
     1
102
RTVSPropertyOp26
 70
     1
102
RTVSPropertyOp27
 70
     1
102
RTVSPropertyOp28
 70
     1
102
RTVSPropertyOp29
 70
     1
102
RTVSPropertyOp30
 70
     1
102
RTVSPropertyOp31
 70
     1
102
RTVSPropertyOp32
 70
     1
  0
ENDSEC
  0
EOF
