  0
SECTION
  2
HEADER
  9
$ACADVER
  1
AC1015
  9
$ACADMAINTVER
 70
    20
  9
$DWGCODEPAGE
  3
ANSI_932
  9
$INSBASE
 10
0.0
 20
0.0
 30
0.0
  9
$EXTMIN
 10
-211.812814
 20
-469.207204
 30
0.0
  9
$EXTMAX
 10
193.187186
 20
-195.207204
 30
0.0
  9
$LIMMIN
 10
-211.81382
 20
-469.2082139999998
  9
$LIMMAX
 10
193.214043
 20
-195.15084
  9
$ORTHOMODE
 70
     1
  9
$REGENMODE
 70
     1
  9
$FILLMODE
 70
     1
  9
$QTEXTMODE
 70
     0
  9
$MIRRTEXT
 70
     0
  9
$LTSCALE
 40
6.750430999999997
  9
$ATTMODE
 70
     1
  9
$TEXTSIZE
 40
0.2
  9
$TRACEWID
 40
0.05
  9
$TEXTSTYLE
  7
STANDARD
  9
$CLAYER
  8
0
  9
$CELTYPE
  6
CONTINUOUS
  9
$CECOLOR
 62
   256
  9
$CELTSCALE
 40
1.0
  9
$DISPSILH
 70
     0
  9
$DIMSCALE
 40
1.0
  9
$DIMASZ
 40
0.18
  9
$DIMEXO
 40
0.0625
  9
$DIMDLI
 40
0.38
  9
$DIMRND
 40
0.0
  9
$DIMDLE
 40
0.0
  9
$DIMEXE
 40
0.18
  9
$DIMTP
 40
0.0
  9
$DIMTM
 40
0.0
  9
$DIMTXT
 40
0.18
  9
$DIMCEN
 40
0.09
  9
$DIMTSZ
 40
0.0
  9
$DIMTOL
 70
     0
  9
$DIMLIM
 70
     0
  9
$DIMTIH
 70
     1
  9
$DIMTOH
 70
     1
  9
$DIMSE1
 70
     0
  9
$DIMSE2
 70
     0
  9
$DIMTAD
 70
     0
  9
$DIMZIN
 70
     0
  9
$DIMBLK
  1

  9
$DIMASO
 70
     1
  9
$DIMSHO
 70
     1
  9
$DIMPOST
  1

  9
$DIMAPOST
  1

  9
$DIMALT
 70
     0
  9
$DIMALTD
 70
     2
  9
$DIMALTF
 40
25.4
  9
$DIMLFAC
 40
1.0
  9
$DIMTOFL
 70
     0
  9
$DIMTVP
 40
0.0
  9
$DIMTIX
 70
     0
  9
$DIMSOXD
 70
     0
  9
$DIMSAH
 70
     0
  9
$DIMBLK1
  1

  9
$DIMBLK2
  1

  9
$DIMSTYLE
  2
Standard
  9
$DIMCLRD
 70
     0
  9
$DIMCLRE
 70
     0
  9
$DIMCLRT
 70
     0
  9
$DIMTFAC
 40
1.0
  9
$DIMGAP
 40
0.09
  9
$DIMJUST
 70
     0
  9
$DIMSD1
 70
     0
  9
$DIMSD2
 70
     0
  9
$DIMTOLJ
 70
     1
  9
$DIMTZIN
 70
     0
  9
$DIMALTZ
 70
     0
  9
$DIMALTTZ
 70
     0
  9
$DIMUPT
 70
     0
  9
$DIMDEC
 70
     4
  9
$DIMTDEC
 70
     4
  9
$DIMALTU
 70
     2
  9
$DIMALTTD
 70
     2
  9
$DIMTXSTY
  7
STANDARD
  9
$DIMAUNIT
 70
     0
  9
$DIMADEC
 70
     0
  9
$DIMALTRND
 40
0.0
  9
$DIMAZIN
 70
     0
  9
$DIMDSEP
 70
    46
  9
$DIMATFIT
 70
     3
  9
$DIMFRAC
 70
     0
  9
$DIMLDRBLK
  1

  9
$DIMLUNIT
 70
     2
  9
$DIMLWD
 70
    -2
  9
$DIMLWE
 70
    -2
  9
$DIMTMOVE
 70
     0
  9
$LUNITS
 70
     2
  9
$LUPREC
 70
     4
  9
$SKETCHINC
 40
0.1
  9
$FILLETRAD
 40
0.0
  9
$AUNITS
 70
     0
  9
$AUPREC
 70
     0
  9
$MENU
  1
.
  9
$ELEVATION
 40
0.0
  9
$PELEVATION
 40
0.0
  9
$THICKNESS
 40
0.0
  9
$LIMCHECK
 70
     0
  9
$CHAMFERA
 40
0.0
  9
$CHAMFERB
 40
0.0
  9
$CHAMFERC
 40
0.0
  9
$CHAMFERD
 40
0.0
  9
$SKPOLY
 70
     0
  9
$TDCREATE
 40
2456338.866688773
  9
$TDUCREATE
 40
2456338.491688773
  9
$TDUPDATE
 40
2459858.559467975
  9
$TDUUPDATE
 40
2459858.184467975
  9
$TDINDWG
 40
0.0163008449
  9
$TDUSRTIMER
 40
0.0162731597
  9
$USRTIMER
 70
     1
  9
$ANGBASE
 50
0.0
  9
$ANGDIR
 70
     0
  9
$PDMODE
 70
     0
  9
$PDSIZE
 40
0.0
  9
$PLINEWID
 40
0.0
  9
$SPLFRAME
 70
     0
  9
$SPLINETYPE
 70
     6
  9
$SPLINESEGS
 70
     8
  9
$HANDSEED
  5
8AB
  9
$SURFTAB1
 70
     6
  9
$SURFTAB2
 70
     6
  9
$SURFTYPE
 70
     6
  9
$SURFU
 70
     6
  9
$SURFV
 70
     6
  9
$UCSBASE
  2

  9
$UCSNAME
  2

  9
$UCSORG
 10
0.0
 20
0.0
 30
0.0
  9
$UCSXDIR
 10
1.0
 20
0.0
 30
0.0
  9
$UCSYDIR
 10
0.0
 20
1.0
 30
0.0
  9
$UCSORTHOREF
  2

  9
$UCSORTHOVIEW
 70
     0
  9
$UCSORGTOP
 10
0.0
 20
0.0
 30
0.0
  9
$UCSORGBOTTOM
 10
0.0
 20
0.0
 30
0.0
  9
$UCSORGLEFT
 10
0.0
 20
0.0
 30
0.0
  9
$UCSORGRIGHT
 10
0.0
 20
0.0
 30
0.0
  9
$UCSORGFRONT
 10
0.0
 20
0.0
 30
0.0
  9
$UCSORGBACK
 10
0.0
 20
0.0
 30
0.0
  9
$PUCSBASE
  2

  9
$PUCSNAME
  2

  9
$PUCSORG
 10
0.0
 20
0.0
 30
0.0
  9
$PUCSXDIR
 10
1.0
 20
0.0
 30
0.0
  9
$PUCSYDIR
 10
0.0
 20
1.0
 30
0.0
  9
$PUCSORTHOREF
  2

  9
$PUCSORTHOVIEW
 70
     0
  9
$PUCSORGTOP
 10
0.0
 20
0.0
 30
0.0
  9
$PUCSORGBOTTOM
 10
0.0
 20
0.0
 30
0.0
  9
$PUCSORGLEFT
 10
0.0
 20
0.0
 30
0.0
  9
$PUCSORGRIGHT
 10
0.0
 20
0.0
 30
0.0
  9
$PUCSORGFRONT
 10
0.0
 20
0.0
 30
0.0
  9
$PUCSORGBACK
 10
0.0
 20
0.0
 30
0.0
  9
$USERI1
 70
     0
  9
$USERI2
 70
     0
  9
$USERI3
 70
     0
  9
$USERI4
 70
     0
  9
$USERI5
 70
     0
  9
$USERR1
 40
0.0
  9
$USERR2
 40
0.0
  9
$USERR3
 40
0.0
  9
$USERR4
 40
0.0
  9
$USERR5
 40
0.0
  9
$WORLDVIEW
 70
     1
  9
$SHADEDGE
 70
     3
  9
$SHADEDIF
 70
    70
  9
$TILEMODE
 70
     1
  9
$MAXACTVP
 70
    64
  9
$PINSBASE
 10
0.0
 20
0.0
 30
0.0
  9
$PLIMCHECK
 70
     0
  9
$PEXTMIN
 10
1.000000000000000E+20
 20
1.000000000000000E+20
 30
1.000000000000000E+20
  9
$PEXTMAX
 10
-1.000000000000000E+20
 20
-1.000000000000000E+20
 30
-1.000000000000000E+20
  9
$PLIMMIN
 10
0.0
 20
0.0
  9
$PLIMMAX
 10
12.0
 20
9.0
  9
$UNITMODE
 70
     0
  9
$VISRETAIN
 70
     1
  9
$PLINEGEN
 70
     0
  9
$PSLTSCALE
 70
     1
  9
$TREEDEPTH
 70
  3020
  9
$CMLSTYLE
  2
Standard
  9
$CMLJUST
 70
     0
  9
$CMLSCALE
 40
1.0
  9
$PROXYGRAPHICS
 70
     1
  9
$MEASUREMENT
 70
     0
  9
$CELWEIGHT
370
    -1
  9
$ENDCAPS
280
     0
  9
$JOINSTYLE
280
     0
  9
$LWDISPLAY
290
     0
  9
$INSUNITS
 70
     0
  9
$HYPERLINKBASE
  1

  9
$STYLESHEET
  1

  9
$XEDIT
290
     1
  9
$CEPSNTYPE
380
     0
  9
$PSTYLEMODE
290
     1
  9
$FINGERPRINTGUID
  2
{9E43DE1D-5245-4C65-84BD-BAC878B60400}
  9
$VERSIONGUID
  2
{F3DA5A17-4F7F-4995-97A4-5656E65CB02A}
  9
$EXTNAMES
290
     1
  9
$PSVPSCALE
 40
0.0
  9
$OLESTARTUP
290
     0
  0
ENDSEC
  0
SECTION
  2
CLASSES
  0
CLASS
  1
ACDBDICTIONARYWDFLT
  2
AcDbDictionaryWithDefault
  3
ObjectDBX Classes
 90
        0
280
     0
281
     0
  0
CLASS
  1
MATERIAL
  2
AcDbMaterial
  3
ObjectDBX Classes
 90
     1153
280
     0
281
     0
  0
CLASS
  1
VISUALSTYLE
  2
AcDbVisualStyle
  3
ObjectDBX Classes
 90
     4095
280
     0
281
     0
  0
CLASS
  1
SCALE
  2
AcDbScale
  3
ObjectDBX Classes
 90
     1153
280
     0
281
     0
  0
CLASS
  1
TABLESTYLE
  2
AcDbTableStyle
  3
ObjectDBX Classes
 90
     4095
280
     0
281
     0
  0
CLASS
  1
MLEADERSTYLE
  2
AcDbMLeaderStyle
  3
ACDB_MLEADERSTYLE_CLASS
 90
     4095
280
     0
281
     0
  0
CLASS
  1
SORTENTSTABLE
  2
AcDbSortentsTable
  3
ObjectDBX Classes
 90
        0
280
     0
281
     0
  0
CLASS
  1
DICTIONARYVAR
  2
AcDbDictionaryVar
  3
ObjectDBX Classes
 90
        0
280
     0
281
     0
  0
CLASS
  1
CELLSTYLEMAP
  2
AcDbCellStyleMap
  3
ObjectDBX Classes
 90
     1152
280
     0
281
     0
  0
CLASS
  1
ACDBPLACEHOLDER
  2
AcDbPlaceHolder
  3
ObjectDBX Classes
 90
        0
280
     0
281
     0
  0
CLASS
  1
LAYOUT
  2
AcDbLayout
  3
ObjectDBX Classes
 90
        0
280
     0
281
     0
  0
ENDSEC
  0
SECTION
  2
TABLES
  0
TABLE
  2
VPORT
  5
8
330
0
100
AcDbSymbolTable
 70
     1
  0
VPORT
  5
8B
330
8
100
AcDbSymbolTableRecord
100
AcDbViewportTableRecord
  2
*Active
 70
     0
 10
0.0
 20
0.0
 11
1.0
 21
1.0
 12
-24.70686156157205
 22
-312.9705260840282
 13
0.0
 23
0.0
 14
1.0
 24
1.0
 15
0.0
 25
0.0
 16
0.0
 26
0.0
 36
1.0
 17
0.0
 27
0.0
 37
0.0
 40
620.5356358685819
 41
0.9764542936288089
 42
50.0
 43
0.0
 44
0.0
 50
0.0
 51
0.0
 71
     0
 72
   100
 73
     1
 74
     1
 75
     0
 76
     0
 77
     0
 78
     0
281
     0
 65
     1
110
0.0
120
0.0
130
0.0
111
1.0
121
0.0
131
0.0
112
0.0
122
1.0
132
0.0
 79
     0
146
0.0
  0
ENDTAB
  0
TABLE
  2
LTYPE
  5
5
330
0
100
AcDbSymbolTable
 70
     3
  0
LTYPE
  5
5A
330
5
100
AcDbSymbolTableRecord
100
AcDbLinetypeTableRecord
  2
ByBlock
 70
     0
  3

 72
    65
 73
     0
 40
0.0
  0
LTYPE
  5
5B
330
5
100
AcDbSymbolTableRecord
100
AcDbLinetypeTableRecord
  2
ByLayer
 70
     0
  3

 72
    65
 73
     0
 40
0.0
  0
LTYPE
  5
5C
330
5
100
AcDbSymbolTableRecord
100
AcDbLinetypeTableRecord
  2
CONTINUOUS
 70
     0
  3
Solid-line
 72
    65
 73
     0
 40
0.0
  0
LTYPE
  5
72
330
5
100
AcDbSymbolTableRecord
100
AcDbLinetypeTableRecord
  2
CENTER
 70
     0
  3
CENTER
 72
    65
 73
     4
 40
2.0
 49
1.25
 74
     0
 49
-0.25
 74
     0
 49
0.25
 74
     0
 49
-0.25
 74
     0
  0
ENDTAB
  0
TABLE
  2
LAYER
  5
2
102
{ACAD_XDICTIONARY
360
38C
102
}
330
0
100
AcDbSymbolTable
 70
     2
  0
LAYER
  5
54
102
{ACAD_XDICTIONARY
360
615
102
}
330
2
100
AcDbSymbolTableRecord
100
AcDbLayerTableRecord
  2
0
 70
     0
 62
     7
  6
CONTINUOUS
370
    -3
390
F
  0
LAYER
  5
375
330
2
100
AcDbSymbolTableRecord
100
AcDbLayerTableRecord
  2
Defpoints
 70
     0
 62
     7
  6
CONTINUOUS
290
     0
370
    -3
390
F
  0
ENDTAB
  0
TABLE
  2
STYLE
  5
3
330
0
100
AcDbSymbolTable
 70
     6
  0
STYLE
  5
55
330
3
100
AcDbSymbolTableRecord
100
AcDbTextStyleTableRecord
  2
STANDARD
 70
     0
 40
0.0
 41
1.0
 50
0.0
 71
     0
 42
0.2
  3
TXT
  4
BIGFONT
  0
STYLE
  5
376
330
3
100
AcDbSymbolTableRecord
100
AcDbTextStyleTableRecord
  2
高3.2
 70
     0
 40
3.2
 41
1.0
 50
0.0
 71
     0
 42
3.2
  3
txt.shx
  4
bigfont.shx
  0
STYLE
  5
377
330
3
100
AcDbSymbolTableRecord
100
AcDbTextStyleTableRecord
  2
高6.3
 70
     0
 40
6.299999999999998
 41
1.0
 50
0.0
 71
     0
 42
6.299999999999998
  3
txt.shx
  4
bigfont.shx
  0
STYLE
  5
378
330
3
100
AcDbSymbolTableRecord
100
AcDbTextStyleTableRecord
  2
高2.5
 70
     0
 40
2.5
 41
1.0
 50
0.0
 71
     0
 42
0.2
  3
txt.shx
  4
bigfont.shx
  0
STYLE
  5
379
330
3
100
AcDbSymbolTableRecord
100
AcDbTextStyleTableRecord
  2
高4.5
 70
     0
 40
4.5
 41
1.0
 50
0.0
 71
     0
 42
6.299999999999998
  3
txt.shx
  4
bigfont.shx
  0
STYLE
  5
37A
330
3
100
AcDbSymbolTableRecord
100
AcDbTextStyleTableRecord
  2
高2
 70
     0
 40
2.0
 41
1.0
 50
0.0
 71
     0
 42
2.0
  3
txt.shx
  4
bigfont.shx
  0
ENDTAB
  0
TABLE
  2
VIEW
  5
6
330
0
100
AcDbSymbolTable
 70
     0
  0
ENDTAB
  0
TABLE
  2
UCS
  5
7
330
0
100
AcDbSymbolTable
 70
     0
  0
ENDTAB
  0
TABLE
  2
APPID
  5
9
330
0
100
AcDbSymbolTable
 70
    10
  0
APPID
  5
56
330
9
100
AcDbSymbolTableRecord
100
AcDbRegAppTableRecord
  2
ACAD
 70
     0
  0
APPID
  5
5D
330
9
100
AcDbSymbolTableRecord
100
AcDbRegAppTableRecord
  2
AcadAnnotative
 70
     0
  0
APPID
  5
385
330
9
100
AcDbSymbolTableRecord
100
AcDbRegAppTableRecord
  2
ACAD_DSTYLE_DIMJOGGED_JOGANGLE_SYMBOL
 70
     0
  0
APPID
  5
386
330
9
100
AcDbSymbolTableRecord
100
AcDbRegAppTableRecord
  2
ACAD_DSTYLE_DIMJAG
 70
     0
  0
APPID
  5
387
330
9
100
AcDbSymbolTableRecord
100
AcDbRegAppTableRecord
  2
ACAD_DSTYLE_DIMBREAK
 70
     0
  0
APPID
  5
388
330
9
100
AcDbSymbolTableRecord
100
AcDbRegAppTableRecord
  2
ACAD_DSTYLE_DIMTALN
 70
     0
  0
APPID
  5
4EC
330
9
100
AcDbSymbolTableRecord
100
AcDbRegAppTableRecord
  2
ACAD_EXEMPT_FROM_CAD_STANDARDS
 70
     0
  0
APPID
  5
657
330
9
100
AcDbSymbolTableRecord
100
AcDbRegAppTableRecord
  2
ACAD_MLEADERVER
 70
     0
  0
APPID
  5
65C
330
9
100
AcDbSymbolTableRecord
100
AcDbRegAppTableRecord
  2
ACAD_DSTYLE_DIMARC_LENGTH_SYMBOL
 70
     0
  0
APPID
  5
65D
330
9
100
AcDbSymbolTableRecord
100
AcDbRegAppTableRecord
  2
ACAD_DSTYLE_DIMEXT_LENGTH
 70
     0
  0
ENDTAB
  0
TABLE
  2
DIMSTYLE
  5
A
330
0
100
AcDbSymbolTable
 70
     3
100
AcDbDimStyleTable
 71
     3
340
37B
340
57
340
37C
  0
DIMSTYLE
105
57
330
A
100
AcDbSymbolTableRecord
100
AcDbDimStyleTableRecord
  2
Standard
 70
     0
340
55
  0
DIMSTYLE
105
37B
330
A
100
AcDbSymbolTableRecord
100
AcDbDimStyleTableRecord
  2
1：1
 70
     0
 41
2.5
 42
0.25
 43
0.2
 44
1.25
 73
     0
 74
     0
 77
     3
 78
     8
 79
     2
140
3.0
141
0.0
143
0.03937007874016
147
0.625
171
     3
172
     1
178
     4
179
     1
271
     2
272
     2
274
     3
283
     0
284
     8
288
     1
289
     0
340
55
341
2E5
342
2E5
1001
ACAD_DSTYLE_DIMARC_LENGTH_SYMBOL
1070
   379
1070
     2
1001
ACAD_DSTYLE_DIMEXT_LENGTH
1070
   378
1040
1.25
1001
ACAD_DSTYLE_DIMJOGGED_JOGANGLE_SYMBOL
1070
   384
1040
1.570796326794896
  0
DIMSTYLE
105
37C
330
A
100
AcDbSymbolTableRecord
100
AcDbDimStyleTableRecord
  2
2：1
 70
     0
 41
2.5
 42
0.25
 43
0.2
 44
1.25
 73
     0
 74
     0
 77
     3
 78
     8
 79
     2
140
3.0
141
0.0
143
0.03937007874016
144
0.5
147
0.625
171
     3
172
     1
178
     4
179
     1
271
     2
272
     2
274
     3
283
     0
284
     8
288
     1
289
     0
340
55
341
2E5
342
2E5
1001
ACAD_DSTYLE_DIMARC_LENGTH_SYMBOL
1070
   379
1070
     2
1001
ACAD_DSTYLE_DIMEXT_LENGTH
1070
   378
1040
1.25
1001
ACAD_DSTYLE_DIMJOGGED_JOGANGLE_SYMBOL
1070
   384
1040
1.570796326794896
  0
ENDTAB
  0
TABLE
  2
BLOCK_RECORD
  5
1
330
0
100
AcDbSymbolTable
 70
     9
  0
BLOCK_RECORD
  5
6B
102
{ACAD_XDICTIONARY
360
5BB
102
}
330
1
100
AcDbSymbolTableRecord
100
AcDbBlockTableRecord
  2
*Model_Space
340
6E
  0
BLOCK_RECORD
  5
67
330
1
100
AcDbSymbolTableRecord
100
AcDbBlockTableRecord
  2
*Paper_Space
340
6A
  0
BLOCK_RECORD
  5
2E5
330
1
100
AcDbSymbolTableRecord
100
AcDbBlockTableRecord
  2
_Open30
340
0
102
{BLKREFS
331
75D
331
75E
331
768
331
769
331
771
331
772
331
77A
331
77B
331
783
331
784
331
78E
331
78F
331
797
331
798
331
7A0
331
7A1
102
}
  0
BLOCK_RECORD
  5
4CC
330
1
100
AcDbSymbolTableRecord
100
AcDbBlockTableRecord
  2
*D1
340
0
  0
BLOCK_RECORD
  5
4F9
330
1
100
AcDbSymbolTableRecord
100
AcDbBlockTableRecord
  2
*D2
340
0
  0
BLOCK_RECORD
  5
50E
330
1
100
AcDbSymbolTableRecord
100
AcDbBlockTableRecord
  2
*D3
340
0
  0
BLOCK_RECORD
  5
523
330
1
100
AcDbSymbolTableRecord
100
AcDbBlockTableRecord
  2
*D4
340
0
  0
BLOCK_RECORD
  5
52F
330
1
100
AcDbSymbolTableRecord
100
AcDbBlockTableRecord
  2
*D5
340
0
  0
BLOCK_RECORD
  5
549
330
1
100
AcDbSymbolTableRecord
100
AcDbBlockTableRecord
  2
*D6
340
0
  0
BLOCK_RECORD
  5
568
330
1
100
AcDbSymbolTableRecord
100
AcDbBlockTableRecord
  2
*D7
340
0
  0
BLOCK_RECORD
  5
586
330
1
100
AcDbSymbolTableRecord
100
AcDbBlockTableRecord
  2
*D8
340
0
  0
ENDTAB
  0
ENDSEC
  0
SECTION
  2
BLOCKS
  0
BLOCK
  5
6C
330
6B
100
AcDbEntity
  8
0
100
AcDbBlockBegin
  2
*Model_Space
 70
     0
 10
0.0
 20
0.0
 30
0.0
  3
*Model_Space
  1

  0
ENDBLK
  5
6D
330
6B
100
AcDbEntity
  8
0
100
AcDbBlockEnd
  0
BLOCK
  5
68
330
67
100
AcDbEntity
 67
     1
  8
0
100
AcDbBlockBegin
  2
*Paper_Space
 70
     0
 10
0.0
 20
0.0
 30
0.0
  3
*Paper_Space
  1

  0
ENDBLK
  5
69
330
67
100
AcDbEntity
 67
     1
  8
0
100
AcDbBlockEnd
  0
BLOCK
  5
2E6
330
2E5
100
AcDbEntity
  8
0
100
AcDbBlockBegin
  2
_Open30
 70
     0
 10
0.0
 20
0.0
 30
0.0
  3
_Open30
  1

  0
LINE
  5
2E7
330
2E5
100
AcDbEntity
  8
0
  6
ByBlock
 62
     0
370
    -2
100
AcDbLine
 10
-1.0
 20
0.267949
 30
0.0
 11
0.0
 21
0.0
 31
0.0
  0
LINE
  5
2E8
330
2E5
100
AcDbEntity
  8
0
  6
ByBlock
 62
     0
370
    -2
100
AcDbLine
 10
0.0
 20
0.0
 30
0.0
 11
-1.0
 21
-0.267949
 31
0.0
  0
LINE
  5
2E9
330
2E5
100
AcDbEntity
  8
0
  6
ByBlock
 62
     0
370
    -2
100
AcDbLine
 10
0.0
 20
0.0
 30
0.0
 11
-1.0
 21
0.0
 31
0.0
  0
ENDBLK
  5
2EA
330
2E5
100
AcDbEntity
  8
0
100
AcDbBlockEnd
  0
BLOCK
  5
4CD
330
4CC
100
AcDbEntity
  8
0
100
AcDbBlockBegin
  2
*D1
 70
     1
 10
0.0
 20
0.0
 30
0.0
  3
*D1
  1

  0
LINE
  5
789
330
4CC
100
AcDbEntity
  8
0
 62
     0
370
    -2
100
AcDbLine
 10
49.69312
 20
-228.472832
 30
0.0
 11
49.69312
 21
-218.218982
 31
0.0
  0
LINE
  5
78A
330
4CC
100
AcDbEntity
  8
0
 62
     0
370
    -2
100
AcDbLine
 10
58.49312
 20
-228.472832
 30
0.0
 11
58.49312
 21
-218.218982
 31
0.0
  0
LINE
  5
78B
330
4CC
100
AcDbEntity
  8
0
 62
     0
370
    -2
100
AcDbLine
 10
47.19312
 20
-219.468982
 30
0.0
 11
44.69312
 21
-219.468982
 31
0.0
  0
LINE
  5
78C
330
4CC
100
AcDbEntity
  8
0
 62
     0
370
    -2
100
AcDbLine
 10
60.99312
 20
-219.468982
 30
0.0
 11
70.74312
 21
-219.468982
 31
0.0
  0
LINE
  5
78D
330
4CC
100
AcDbEntity
  8
0
 62
     0
370
    -2
100
AcDbLine
 10
49.69312
 20
-219.468982
 30
0.0
 11
58.49312
 21
-219.468982
 31
0.0
  0
INSERT
  5
78E
330
4CC
100
AcDbEntity
  8
0
 62
     0
370
    -2
100
AcDbBlockReference
  2
_Open30
 10
49.69312
 20
-219.468982
 30
0.0
 41
2.5
 42
2.5
 43
2.5
  0
INSERT
  5
78F
330
4CC
100
AcDbEntity
  8
0
 62
     0
370
    -2
100
AcDbBlockReference
  2
_Open30
 10
58.49312
 20
-219.468982
 30
0.0
 41
2.5
 42
2.5
 43
2.5
 50
180.0
  0
MTEXT
  5
790
330
4CC
100
AcDbEntity
  8
0
 62
     4
100
AcDbMText
 10
67.11812
 20
-217.343982
 30
0.0
 40
3.0
 41
0.0
 71
     5
 72
     1
  1
4.5
 73
     1
 44
1.0
1001
ACAD
1000
MTEXTBEGIN
1070
    73
1070
     1
1070
    44
1040
1.0
1070
    74
1070
     0
1000
MTEXTEND
  0
POINT
  5
791
330
4CC
100
AcDbEntity
  8
Defpoints
 62
     0
100
AcDbPoint
 10
49.69312
 20
-228.722832
 30
0.0
  0
POINT
  5
792
330
4CC
100
AcDbEntity
  8
Defpoints
 62
     0
100
AcDbPoint
 10
58.49312
 20
-228.722832
 30
0.0
  0
POINT
  5
793
330
4CC
100
AcDbEntity
  8
Defpoints
 62
     0
100
AcDbPoint
 10
58.49312
 20
-219.468982
 30
0.0
  0
ENDBLK
  5
4CE
330
4CC
100
AcDbEntity
  8
0
100
AcDbBlockEnd
  0
BLOCK
  5
4FA
330
4F9
100
AcDbEntity
  8
0
100
AcDbBlockBegin
  2
*D2
 70
     1
 10
0.0
 20
0.0
 30
0.0
  3
*D2
  1

  0
LINE
  5
794
330
4F9
100
AcDbEntity
  8
0
 62
     0
370
    -2
100
AcDbLine
 10
43.57566699999998
 20
-240.822832
 30
0.0
 11
37.61972
 21
-240.822832
 31
0.0
  0
LINE
  5
795
330
4F9
100
AcDbEntity
  8
0
 62
     0
370
    -2
100
AcDbLine
 10
47.42286
 20
-228.722832
 30
0.0
 11
37.61972
 21
-228.722832
 31
0.0
  0
LINE
  5
796
330
4F9
100
AcDbEntity
  8
0
 62
     0
370
    -2
100
AcDbLine
 10
38.86972
 20
-238.322832
 30
0.0
 11
38.86972
 21
-231.222832
 31
0.0
  0
INSERT
  5
797
330
4F9
100
AcDbEntity
  8
0
 62
     0
370
    -2
100
AcDbBlockReference
  2
_Open30
 10
38.86972
 20
-240.822832
 30
0.0
 41
2.5
 42
2.5
 43
2.5
 50
270.0
  0
INSERT
  5
798
330
4F9
100
AcDbEntity
  8
0
 62
     0
370
    -2
100
AcDbBlockReference
  2
_Open30
 10
38.86972
 20
-228.722832
 30
0.0
 41
2.5
 42
2.5
 43
2.5
 50
90.0
  0
MTEXT
  5
799
330
4F9
100
AcDbEntity
  8
0
 62
     4
100
AcDbMText
 10
36.74472000000004
 20
-234.772832
 30
0.0
 40
3.0
 41
0.0
 71
     5
 72
     1
  1
6
 11
0.0000000000000001
 21
1.0
 31
0.0
 73
     1
 44
1.0
1001
ACAD
1000
MTEXTBEGIN
1070
    73
1070
     1
1070
    44
1040
1.0
1070
    74
1070
     0
1000
MTEXTEND
  0
POINT
  5
79A
330
4F9
100
AcDbEntity
  8
Defpoints
 62
     0
100
AcDbPoint
 10
43.82566699999999
 20
-240.822832
 30
0.0
  0
POINT
  5
79B
330
4F9
100
AcDbEntity
  8
Defpoints
 62
     0
100
AcDbPoint
 10
47.67286
 20
-228.722832
 30
0.0
  0
POINT
  5
79C
330
4F9
100
AcDbEntity
  8
Defpoints
 62
     0
100
AcDbPoint
 10
38.86972
 20
-228.722832
 30
0.0
  0
ENDBLK
  5
4FB
330
4F9
100
AcDbEntity
  8
0
100
AcDbBlockEnd
  0
BLOCK
  5
50F
330
50E
100
AcDbEntity
  8
0
100
AcDbBlockBegin
  2
*D3
 70
     1
 10
0.0
 20
0.0
 30
0.0
  3
*D3
  1

  0
LINE
  5
79D
330
50E
100
AcDbEntity
  8
0
 62
     0
370
    -2
100
AcDbLine
 10
46.59311999999999
 20
-241.072832
 30
0.0
 11
46.59311999999999
 21
-257.518639
 31
0.0
  0
LINE
  5
79E
330
50E
100
AcDbEntity
  8
0
 62
     0
370
    -2
100
AcDbLine
 10
61.59311999999999
 20
-241.072832
 30
0.0
 11
61.59311999999999
 21
-257.518639
 31
0.0
  0
LINE
  5
79F
330
50E
100
AcDbEntity
  8
0
 62
     0
370
    -2
100
AcDbLine
 10
49.09311999999999
 20
-256.268639
 30
0.0
 11
59.09311999999999
 21
-256.268639
 31
0.0
  0
INSERT
  5
7A0
330
50E
100
AcDbEntity
  8
0
 62
     0
370
    -2
100
AcDbBlockReference
  2
_Open30
 10
46.59311999999999
 20
-256.268639
 30
0.0
 41
2.5
 42
2.5
 43
2.5
 50
180.0
  0
INSERT
  5
7A1
330
50E
100
AcDbEntity
  8
0
 62
     0
370
    -2
100
AcDbBlockReference
  2
_Open30
 10
61.59311999999999
 20
-256.268639
 30
0.0
 41
2.5
 42
2.5
 43
2.5
  0
MTEXT
  5
7A2
330
50E
100
AcDbEntity
  8
0
 62
     4
100
AcDbMText
 10
54.09311999999999
 20
-254.143639
 30
0.0
 40
3.0
 41
0.0
 71
     5
 72
     1
  1
%%C7.5
 73
     1
 44
1.0
1001
ACAD
1000
MTEXTBEGIN
1070
    73
1070
     1
1070
    44
1040
1.0
1070
    74
1070
     0
1000
MTEXTEND
  0
POINT
  5
7A3
330
50E
100
AcDbEntity
  8
Defpoints
 62
     0
100
AcDbPoint
 10
46.59311999999999
 20
-240.822832
 30
0.0
  0
POINT
  5
7A4
330
50E
100
AcDbEntity
  8
Defpoints
 62
     0
100
AcDbPoint
 10
61.59311999999999
 20
-240.822832
 30
0.0
  0
POINT
  5
7A5
330
50E
100
AcDbEntity
  8
Defpoints
 62
     0
100
AcDbPoint
 10
61.59311999999999
 20
-256.268639
 30
0.0
  0
ENDBLK
  5
510
330
50E
100
AcDbEntity
  8
0
100
AcDbBlockEnd
  0
BLOCK
  5
524
330
523
100
AcDbEntity
  8
0
100
AcDbBlockBegin
  2
*D4
 70
     1
 10
0.0
 20
0.0
 30
0.0
  3
*D4
  1

  0
LINE
  5
75A
330
523
100
AcDbEntity
  8
0
 62
     0
370
    -2
100
AcDbLine
 10
-31.728274
 20
-290.044592
 30
0.0
 11
-31.728274
 21
-247.586617
 31
0.0
  0
LINE
  5
75B
330
523
100
AcDbEntity
  8
0
 62
     0
370
    -2
100
AcDbLine
 10
28.271726
 20
-290.044592
 30
0.0
 11
28.27172600000001
 21
-247.586617
 31
0.0
  0
LINE
  5
75C
330
523
100
AcDbEntity
  8
0
 62
     0
370
    -2
100
AcDbLine
 10
-29.228274
 20
-248.836617
 30
0.0
 11
25.77172600000001
 21
-248.836617
 31
0.0
  0
INSERT
  5
75D
330
523
100
AcDbEntity
  8
0
 62
     0
370
    -2
100
AcDbBlockReference
  2
_Open30
 10
-31.728274
 20
-248.836617
 30
0.0
 41
2.5
 42
2.5
 43
2.5
 50
180.0
  0
INSERT
  5
75E
330
523
100
AcDbEntity
  8
0
 62
     0
370
    -2
100
AcDbBlockReference
  2
_Open30
 10
28.27172600000001
 20
-248.836617
 30
0.0
 41
2.5
 42
2.5
 43
2.5
  0
MTEXT
  5
75F
330
523
100
AcDbEntity
  8
0
 62
     4
100
AcDbMText
 10
-1.728273999999995
 20
-246.711617
 30
0.0
 40
3.0
 41
0.0
 71
     5
 72
     1
  1
60
 73
     1
 44
1.0
1001
ACAD
1000
MTEXTBEGIN
1070
    73
1070
     1
1070
    44
1040
1.0
1070
    74
1070
     0
1000
MTEXTEND
  0
POINT
  5
760
330
523
100
AcDbEntity
  8
Defpoints
 62
     0
100
AcDbPoint
 10
-31.728274
 20
-290.294592
 30
0.0
  0
POINT
  5
761
330
523
100
AcDbEntity
  8
Defpoints
 62
     0
100
AcDbPoint
 10
28.271726
 20
-290.294592
 30
0.0
  0
POINT
  5
762
330
523
100
AcDbEntity
  8
Defpoints
 62
     0
100
AcDbPoint
 10
28.27172600000001
 20
-248.836617
 30
0.0
  0
ENDBLK
  5
525
330
523
100
AcDbEntity
  8
0
100
AcDbBlockEnd
  0
BLOCK
  5
530
330
52F
100
AcDbEntity
  8
0
100
AcDbBlockBegin
  2
*D5
 70
     1
 10
0.0
 20
0.0
 30
0.0
  3
*D5
  1

  0
LINE
  5
763
330
52F
100
AcDbEntity
  8
0
 62
     0
370
    -2
100
AcDbLine
 10
-37.19070100000001
 20
-298.544592
 30
0.0
 11
-48.742209
 21
-298.544592
 31
0.0
  0
LINE
  5
764
330
52F
100
AcDbEntity
  8
0
 62
     0
370
    -2
100
AcDbLine
 10
-41.948939
 20
-295.544592
 30
0.0
 11
-48.742209
 21
-295.544592
 31
0.0
  0
LINE
  5
765
330
52F
100
AcDbEntity
  8
0
 62
     0
370
    -2
100
AcDbLine
 10
-47.492209
 20
-301.0445919999999
 30
0.0
 11
-47.492209
 21
-303.544592
 31
0.0
  0
LINE
  5
766
330
52F
100
AcDbEntity
  8
0
 62
     0
370
    -2
100
AcDbLine
 10
-47.492209
 20
-293.044592
 30
0.0
 11
-47.492209
 21
-287.294592
 31
0.0
  0
LINE
  5
767
330
52F
100
AcDbEntity
  8
0
 62
     0
370
    -2
100
AcDbLine
 10
-47.492209
 20
-298.544592
 30
0.0
 11
-47.492209
 21
-295.544592
 31
0.0
  0
INSERT
  5
768
330
52F
100
AcDbEntity
  8
0
 62
     0
370
    -2
100
AcDbBlockReference
  2
_Open30
 10
-47.492209
 20
-298.544592
 30
0.0
 41
2.5
 42
2.5
 43
2.5
 50
90.0
  0
INSERT
  5
769
330
52F
100
AcDbEntity
  8
0
 62
     0
370
    -2
100
AcDbBlockReference
  2
_Open30
 10
-47.492209
 20
-295.544592
 30
0.0
 41
2.5
 42
2.5
 43
2.5
 50
270.0
  0
MTEXT
  5
76A
330
52F
100
AcDbEntity
  8
0
 62
     4
100
AcDbMText
 10
-49.61720899999995
 20
-288.919592
 30
0.0
 40
3.0
 41
0.0
 71
     5
 72
     1
  1
3
 11
0.0000000000000001
 21
1.0
 31
0.0
 73
     1
 44
1.0
1001
ACAD
1000
MTEXTBEGIN
1070
    73
1070
     1
1070
    44
1040
1.0
1070
    74
1070
     0
1000
MTEXTEND
  0
POINT
  5
76B
330
52F
100
AcDbEntity
  8
Defpoints
 62
     0
100
AcDbPoint
 10
-36.94070100000001
 20
-298.544592
 30
0.0
  0
POINT
  5
76C
330
52F
100
AcDbEntity
  8
Defpoints
 62
     0
100
AcDbPoint
 10
-41.698939
 20
-295.544592
 30
0.0
  0
POINT
  5
76D
330
52F
100
AcDbEntity
  8
Defpoints
 62
     0
100
AcDbPoint
 10
-47.492209
 20
-295.544592
 30
0.0
  0
ENDBLK
  5
531
330
52F
100
AcDbEntity
  8
0
100
AcDbBlockEnd
  0
BLOCK
  5
54A
330
549
100
AcDbEntity
  8
0
100
AcDbBlockBegin
  2
*D6
 70
     1
 10
0.0
 20
0.0
 30
0.0
  3
*D6
  1

  0
LINE
  5
76E
330
549
100
AcDbEntity
  8
0
 62
     0
370
    -2
100
AcDbLine
 10
-165.504643
 20
-297.560266
 30
0.0
 11
-165.504643
 21
-241.901984
 31
0.0
  0
LINE
  5
76F
330
549
100
AcDbEntity
  8
0
 62
     0
370
    -2
100
AcDbLine
 10
-90.554673
 20
-296.636911
 30
0.0
 11
-90.554673
 21
-241.901984
 31
0.0
  0
LINE
  5
770
330
549
100
AcDbEntity
  8
0
 62
     0
370
    -2
100
AcDbLine
 10
-163.004643
 20
-243.151984
 30
0.0
 11
-93.054673
 21
-243.151984
 31
0.0
  0
INSERT
  5
771
330
549
100
AcDbEntity
  8
0
 62
     0
370
    -2
100
AcDbBlockReference
  2
_Open30
 10
-165.504643
 20
-243.151984
 30
0.0
 41
2.5
 42
2.5
 43
2.5
 50
180.0
  0
INSERT
  5
772
330
549
100
AcDbEntity
  8
0
 62
     0
370
    -2
100
AcDbBlockReference
  2
_Open30
 10
-90.554673
 20
-243.151984
 30
0.0
 41
2.5
 42
2.5
 43
2.5
  0
MTEXT
  5
773
330
549
100
AcDbEntity
  8
0
 62
     4
100
AcDbMText
 10
-128.029658
 20
-241.026984
 30
0.0
 40
3.0
 41
0.0
 71
     5
 72
     1
  1
%%C76
 73
     1
 44
1.0
1001
ACAD
1000
MTEXTBEGIN
1070
    73
1070
     1
1070
    44
1040
1.0
1070
    74
1070
     0
1000
MTEXTEND
  0
POINT
  5
774
330
549
100
AcDbEntity
  8
Defpoints
 62
     0
100
AcDbPoint
 10
-165.504643
 20
-297.810266
 30
0.0
  0
POINT
  5
775
330
549
100
AcDbEntity
  8
Defpoints
 62
     0
100
AcDbPoint
 10
-90.554673
 20
-296.886911
 30
0.0
  0
POINT
  5
776
330
549
100
AcDbEntity
  8
Defpoints
 62
     0
100
AcDbPoint
 10
-90.554673
 20
-243.151984
 30
0.0
  0
ENDBLK
  5
54B
330
549
100
AcDbEntity
  8
0
100
AcDbBlockEnd
  0
BLOCK
  5
569
330
568
100
AcDbEntity
  8
0
100
AcDbBlockBegin
  2
*D7
 70
     1
 10
0.0
 20
0.0
 30
0.0
  3
*D7
  1

  0
LINE
  5
777
330
568
100
AcDbEntity
  8
0
 62
     0
370
    -2
100
AcDbLine
 10
-150.4720879999999
 20
-263.890984
 30
0.0
 11
-150.4720879999999
 21
-251.706162
 31
0.0
  0
LINE
  5
778
330
568
100
AcDbEntity
  8
0
 62
     0
370
    -2
100
AcDbLine
 10
-105.408974
 20
-263.890984
 30
0.0
 11
-105.408974
 21
-251.706162
 31
0.0
  0
LINE
  5
779
330
568
100
AcDbEntity
  8
0
 62
     0
370
    -2
100
AcDbLine
 10
-147.9720879999999
 20
-252.956162
 30
0.0
 11
-107.908974
 21
-252.956162
 31
0.0
  0
INSERT
  5
77A
330
568
100
AcDbEntity
  8
0
 62
     0
370
    -2
100
AcDbBlockReference
  2
_Open30
 10
-150.4720879999999
 20
-252.956162
 30
0.0
 41
2.5
 42
2.5
 43
2.5
 50
180.0
  0
INSERT
  5
77B
330
568
100
AcDbEntity
  8
0
 62
     0
370
    -2
100
AcDbBlockReference
  2
_Open30
 10
-105.408974
 20
-252.956162
 30
0.0
 41
2.5
 42
2.5
 43
2.5
  0
MTEXT
  5
77C
330
568
100
AcDbEntity
  8
0
 62
     4
100
AcDbMText
 10
-127.9405309999999
 20
-250.831162
 30
0.0
 40
3.0
 41
0.0
 71
     5
 72
     1
  1
%%C45
 73
     1
 44
1.0
1001
ACAD
1000
MTEXTBEGIN
1070
    73
1070
     1
1070
    44
1040
1.0
1070
    74
1070
     0
1000
MTEXTEND
  0
POINT
  5
77D
330
568
100
AcDbEntity
  8
Defpoints
 62
     0
100
AcDbPoint
 10
-150.4720879999999
 20
-264.140984
 30
0.0
  0
POINT
  5
77E
330
568
100
AcDbEntity
  8
Defpoints
 62
     0
100
AcDbPoint
 10
-105.408974
 20
-264.140984
 30
0.0
  0
POINT
  5
77F
330
568
100
AcDbEntity
  8
Defpoints
 62
     0
100
AcDbPoint
 10
-105.408974
 20
-252.956162
 30
0.0
  0
ENDBLK
  5
56A
330
568
100
AcDbEntity
  8
0
100
AcDbBlockEnd
  0
BLOCK
  5
587
330
586
100
AcDbEntity
  8
0
100
AcDbBlockBegin
  2
*D8
 70
     1
 10
0.0
 20
0.0
 30
0.0
  3
*D8
  1

  0
LINE
  5
780
330
586
100
AcDbEntity
  8
0
 62
     0
370
    -2
100
AcDbLine
 10
-163.640127
 20
-335.886911
 30
0.0
 11
-177.992977
 21
-335.886911
 31
0.0
  0
LINE
  5
781
330
586
100
AcDbEntity
  8
0
 62
     0
370
    -2
100
AcDbLine
 10
-137.690531
 20
-260.886911
 30
0.0
 11
-177.992977
 21
-260.886911
 31
0.0
  0
LINE
  5
782
330
586
100
AcDbEntity
  8
0
 62
     0
370
    -2
100
AcDbLine
 10
-176.742977
 20
-333.386911
 30
0.0
 11
-176.742977
 21
-263.386911
 31
0.0
  0
INSERT
  5
783
330
586
100
AcDbEntity
  8
0
 62
     0
370
    -2
100
AcDbBlockReference
  2
_Open30
 10
-176.742977
 20
-335.886911
 30
0.0
 41
2.5
 42
2.5
 43
2.5
 50
270.0
  0
INSERT
  5
784
330
586
100
AcDbEntity
  8
0
 62
     0
370
    -2
100
AcDbBlockReference
  2
_Open30
 10
-176.742977
 20
-260.886911
 30
0.0
 41
2.5
 42
2.5
 43
2.5
 50
90.0
  0
MTEXT
  5
785
330
586
100
AcDbEntity
  8
0
 62
     4
100
AcDbMText
 10
-178.8679769999999
 20
-298.386911
 30
0.0
 40
3.0
 41
0.0
 71
     5
 72
     1
  1
75
 11
0.0000000000000001
 21
1.0
 31
0.0
 73
     1
 44
1.0
1001
ACAD
1000
MTEXTBEGIN
1070
    73
1070
     1
1070
    44
1040
1.0
1070
    74
1070
     0
1000
MTEXTEND
  0
POINT
  5
786
330
586
100
AcDbEntity
  8
Defpoints
 62
     0
100
AcDbPoint
 10
-163.390127
 20
-335.886911
 30
0.0
  0
POINT
  5
787
330
586
100
AcDbEntity
  8
Defpoints
 62
     0
100
AcDbPoint
 10
-137.440531
 20
-260.886911
 30
0.0
  0
POINT
  5
788
330
586
100
AcDbEntity
  8
Defpoints
 62
     0
100
AcDbPoint
 10
-176.742977
 20
-260.886911
 30
0.0
  0
ENDBLK
  5
588
330
586
100
AcDbEntity
  8
0
100
AcDbBlockEnd
  0
ENDSEC
  0
SECTION
  2
ENTITIES
  0
LINE
  5
102
330
6B
100
AcDbEntity
  8
0
 62
     3
100
AcDbLine
 10
167.487823
 20
-452.541482
 30
0.0
 11
167.4878229999999
 21
-429.541482
 31
0.0
  0
LINE
  5
104
330
6B
100
AcDbEntity
  8
0
 62
     3
100
AcDbLine
 10
114.434213
 20
-452.766993
 30
0.0
 11
114.434213
 21
-445.541482
 31
0.0
  0
LINE
  5
106
330
6B
100
AcDbEntity
  8
0
 62
     3
100
AcDbLine
 10
114.434213
 20
-452.541482
 30
0.0
 11
114.434213
 21
-459.541482
 31
0.0
  0
TEXT
  5
107
330
6B
100
AcDbEntity
  8
0
 62
     3
100
AcDbText
 10
143.498141
 20
-433.3363659999998
 30
0.0
 40
2.0
  1
A
 41
0.7
100
AcDbText
  0
TEXT
  5
108
330
6B
100
AcDbEntity
  8
0
 62
     3
100
AcDbText
 10
146.033427
 20
-433.3363659999998
 30
0.0
 40
2.0
  1
P
 41
0.7
100
AcDbText
  0
TEXT
  5
109
330
6B
100
AcDbEntity
  8
0
 62
     3
100
AcDbText
 10
148.568713
 20
-433.3363659999998
 30
0.0
 40
2.0
  1
P
 41
0.7
100
AcDbText
  0
TEXT
  5
10A
330
6B
100
AcDbEntity
  8
0
 62
     3
100
AcDbText
 10
151.103999
 20
-433.3363659999998
 30
0.0
 40
2.0
  1
D
 41
0.7
100
AcDbText
  0
TEXT
  5
10B
330
6B
100
AcDbEntity
  8
0
 62
     3
100
AcDbText
 10
156.472683
 20
-433.3363659999998
 30
0.0
 40
2.0
  1
C
 41
0.7
100
AcDbText
  0
TEXT
  5
10C
330
6B
100
AcDbEntity
  8
0
 62
     3
100
AcDbText
 10
159.007969
 20
-433.3363659999998
 30
0.0
 40
2.0
  1
H
 41
0.7
100
AcDbText
  0
TEXT
  5
10D
330
6B
100
AcDbEntity
  8
0
 62
     3
100
AcDbText
 10
161.543255
 20
-433.3363659999998
 30
0.0
 40
2.0
  1
C
 41
0.7
100
AcDbText
  0
TEXT
  5
10E
330
6B
100
AcDbEntity
  8
0
 62
     3
100
AcDbText
 10
164.078541
 20
-433.3363659999998
 30
0.0
 40
2.0
  1
K
 41
0.7
100
AcDbText
  0
TEXT
  5
10F
330
6B
100
AcDbEntity
  8
0
 62
     3
100
AcDbText
 10
169.752508
 20
-433.3363659999998
 30
0.0
 40
2.0
  1
DESN
 41
1.216762999999998
100
AcDbText
  0
TEXT
  5
110
330
6B
100
AcDbEntity
  8
0
 62
     3
100
AcDbText
 10
84.746149
 20
-462.6828639999998
 30
0.0
 40
2.0
  1
NICHIDO IND.CO.LTD
 41
1.274876
100
AcDbText
  0
LINE
  5
114
330
6B
100
AcDbEntity
  8
0
 62
     3
100
AcDbLine
 10
95.12917799999998
 20
-429.541482
 30
0.0
 11
95.129178
 21
-452.541482
 31
0.0
  0
LINE
  5
115
330
6B
100
AcDbEntity
  8
0
 62
     3
100
AcDbLine
 10
141.487823
 20
-429.541482
 30
0.0
 11
141.487823
 21
-469.207204
 31
0.0
  0
LINE
  5
11A
330
6B
100
AcDbEntity
  8
0
 62
     3
100
AcDbLine
 10
154.487823
 20
-429.5414820000001
 30
0.0
 11
154.487823
 21
-459.541482
 31
0.0
  0
TEXT
  5
11B
330
6B
100
AcDbEntity
  8
0
 62
     3
100
AcDbText
 10
142.766306
 20
-458.76537
 30
0.0
 40
3.2
  1
作成日
 41
1.017225999999997
100
AcDbText
  0
LINE
  5
11C
330
6B
100
AcDbEntity
  8
0
 62
     3
100
AcDbLine
 10
193.187186
 20
-429.541482
 30
0.0
 11
81.88374399999998
 21
-429.541482
 31
0.0
  0
LINE
  5
11D
330
6B
100
AcDbEntity
  8
0
 62
     3
100
AcDbLine
 10
180.487823
 20
-452.541482
 30
0.0
 11
180.487823
 21
-429.541482
 31
0.0
  0
TEXT
  5
11E
330
6B
100
AcDbEntity
  8
0
 62
     3
100
AcDbText
 10
183.8116259999999
 20
-433.250547
 30
0.0
 40
1.8
  1
D
 41
0.666667
100
AcDbText
  0
TEXT
  5
11F
330
6B
100
AcDbEntity
  8
0
 62
     3
100
AcDbText
 10
186.628254
 20
-433.250547
 30
0.0
 40
1.8
  1
E
 41
0.666667
100
AcDbText
  0
TEXT
  5
120
330
6B
100
AcDbEntity
  8
0
 62
     3
100
AcDbText
 10
189.444883
 20
-433.250547
 30
0.0
 40
1.8
  1
F
 41
0.666667
100
AcDbText
  0
TEXT
  5
121
330
6B
100
AcDbEntity
  8
0
 62
     3
100
AcDbText
 10
183.8116259999999
 20
-437.2431009999998
 30
0.0
 40
3.2
  1
製図
 41
1.076369
100
AcDbText
  0
LINE
  5
122
330
6B
100
AcDbEntity
  8
0
 62
     3
100
AcDbLine
 10
81.88374399999998
 20
-429.541482
 30
0.0
 11
81.88374399999998
 21
-469.207204
 31
0.0
  0
TEXT
  5
123
330
6B
100
AcDbEntity
  8
0
 62
     3
100
AcDbText
 10
83.260397
 20
-468.8747389999998
 30
0.0
 40
5.0
  1
日動工業株式会社
 41
0.833333
100
AcDbText
  0
LINE
  5
124
330
6B
100
AcDbEntity
  8
0
 62
     3
100
AcDbLine
 10
124.766148
 20
-445.541482
 30
0.0
 11
124.766148
 21
-469.207204
 31
0.0
  0
LINE
  5
125
330
6B
100
AcDbEntity
  8
0
 62
     3
100
AcDbLine
 10
124.766148
 20
-464.3743429999998
 30
0.0
 11
141.487823
 21
-464.3743429999998
 31
0.0
  0
TEXT
  5
126
330
6B
100
AcDbEntity
  8
0
 62
     3
100
AcDbText
 10
125.35275
 20
-463.5579129999999
 30
0.0
 40
3.2
  1
出図コード
 41
0.8356860000000001
100
AcDbText
  0
TEXT
  5
127
330
6B
100
AcDbEntity
  8
0
 62
     3
100
AcDbText
 10
125.35275
 20
-468.390774
 30
0.0
 40
3.2
  1
HM-A3
 41
0.999426
100
AcDbText
  0
LINE
  5
138
330
6B
100
AcDbEntity
  8
0
 62
     3
100
AcDbLine
 10
81.88374399999998
 20
-459.5414820000001
 30
0.0
 11
193.187186
 21
-459.541482
 31
0.0
  0
LINE
  5
13A
330
6B
100
AcDbEntity
  8
0
 62
     3
100
AcDbLine
 10
81.88374399999998
 20
-438.541482
 30
0.0
 11
193.187186
 21
-438.541482
 31
0.0
  0
LINE
  5
140
330
6B
100
AcDbEntity
  8
0
 62
     3
100
AcDbLine
 10
81.88374399999998
 20
-445.541482
 30
0.0
 11
141.487823
 21
-445.541482
 31
0.0
  0
LINE
  5
146
330
6B
100
AcDbEntity
  8
0
 62
     3
100
AcDbLine
 10
81.88374399999998
 20
-452.541482
 30
0.0
 11
193.187186
 21
-452.541482
 31
0.0
  0
TEXT
  5
14D
330
6B
100
AcDbEntity
  8
0
 62
     3
100
AcDbText
 10
127.905491
 20
-459.074193
 30
0.0
 40
3.2
  1
1/1
  7
高3.2
100
AcDbText
  0
TEXT
  5
14E
330
6B
100
AcDbEntity
  8
0
 62
     3
100
AcDbText
 10
158.071372
 20
-459.074193
 30
0.0
 40
3.2
  1
2008.7.31
  7
高3.2
100
AcDbText
  0
LINE
  5
14F
330
6B
100
AcDbEntity
  8
0
 62
     3
100
AcDbLine
 10
-91.440531
 20
-335.886911
 30
0.0
 11
-164.440531
 21
-335.886911
 31
0.0
  0
LINE
  5
150
330
6B
100
AcDbEntity
  8
0
 62
     3
100
AcDbLine
 10
-137.440531
 20
-260.886911
 30
0.0
 11
-118.440531
 21
-260.886911
 31
0.0
  0
LINE
  5
151
330
6B
100
AcDbEntity
  8
0
 62
     3
100
AcDbLine
 10
-165.940531
 20
-310.886911
 30
0.0
 11
-89.940531
 21
-310.886911
 31
0.0
  0
LINE
  5
152
330
6B
100
AcDbEntity
  8
0
 62
     3
100
AcDbLine
 10
-165.940531
 20
-312.886911
 30
0.0
 11
-89.940531
 21
-312.886911
 31
0.0
  0
LINE
  5
153
330
6B
100
AcDbEntity
  8
0
 62
     3
100
AcDbLine
 10
-106.680414
 20
-262.69616
 30
0.0
 11
-118.440531
 21
-260.886911
 31
0.0
  0
LINE
  5
154
330
6B
100
AcDbEntity
  8
0
 62
     3
100
AcDbLine
 10
-149.200648
 20
-262.69616
 30
0.0
 11
-137.440531
 21
-260.886911
 31
0.0
  0
LINE
  5
155
330
6B
100
AcDbEntity
  8
0
 62
     3
100
AcDbLine
 10
-90.376419
 20
-297.810266
 30
0.0
 11
-89.940531
 21
-310.886911
 31
0.0
  0
LINE
  5
156
330
6B
100
AcDbEntity
  8
0
 62
     3
100
AcDbLine
 10
-165.504643
 20
-297.810266
 30
0.0
 11
-165.940531
 21
-310.886911
 31
0.0
  0
LINE
  5
157
330
6B
100
AcDbEntity
  8
0
 62
     3
100
AcDbLine
 10
-165.940531
 20
-312.886911
 30
0.0
 11
-164.440531
 21
-335.886911
 31
0.0
  0
LINE
  5
158
330
6B
100
AcDbEntity
  8
0
 62
     3
100
AcDbLine
 10
-89.940531
 20
-312.886911
 30
0.0
 11
-91.440531
 21
-335.886911
 31
0.0
  0
LINE
  5
159
330
6B
100
AcDbEntity
  8
0
 62
     3
100
AcDbLine
 10
-105.408974
 20
-264.140984
 30
0.0
 11
-104.761119
 21
-289.886911
 31
0.0
  0
LINE
  5
15A
330
6B
100
AcDbEntity
  8
0
 62
     3
100
AcDbLine
 10
-150.4720879999999
 20
-264.140984
 30
0.0
 11
-151.119944
 21
-289.886911
 31
0.0
  0
LINE
  5
15B
330
6B
100
AcDbEntity
  8
0
 62
     3
100
AcDbLine
 10
-104.761119
 20
-289.886911
 30
0.0
 11
-151.119944
 21
-289.886911
 31
0.0
  0
LINE
  5
15C
330
6B
100
AcDbEntity
  8
0
 62
     3
100
AcDbLine
 10
-92.21546299999999
 20
-295.1432549999999
 30
0.0
 11
-104.761119
 21
-289.886911
 31
0.0
  0
LINE
  5
15D
330
6B
100
AcDbEntity
  8
0
 62
     3
100
AcDbLine
 10
-163.6656
 20
-295.1432549999999
 30
0.0
 11
-151.119944
 21
-289.886911
 31
0.0
  0
ARC
  5
15E
330
6B
100
AcDbEntity
  8
0
 62
     3
100
AcDbCircle
 10
-93.374754
 20
-297.910211
 30
0.0
 40
3.0
100
AcDbArc
 50
1.909151999999999
 51
67.267426
  0
ARC
  5
15F
330
6B
100
AcDbEntity
  8
0
 62
     3
100
AcDbCircle
 10
-162.506308
 20
-297.910211
 30
0.0
 40
3.0
100
AcDbArc
 50
112.732574
 51
178.090848
  0
LINE
  5
160
330
6B
100
AcDbEntity
  8
0
 62
     3
100
AcDbLine
 10
-131.940531
 20
-333.886911
 30
0.0
 11
-123.940531
 21
-333.886911
 31
0.0
  0
ARC
  5
161
330
6B
100
AcDbEntity
  8
0
 62
     3
100
AcDbCircle
 10
-123.940531
 20
-335.886911
 30
0.0
 40
2.0
100
AcDbArc
 50
0.0
 51
90.0
  0
ARC
  5
162
330
6B
100
AcDbEntity
  8
0
 62
     3
100
AcDbCircle
 10
-131.940531
 20
-335.886911
 30
0.0
 40
2.0
100
AcDbArc
 50
90.0
 51
180.0
  0
LINE
  5
163
330
6B
100
AcDbEntity
  8
0
  6
CENTER
100
AcDbLine
 10
-127.940531
 20
-258.868494
 30
0.0
 11
-127.940531
 21
-339.200562
 31
0.0
  0
ARC
  5
164
330
6B
100
AcDbEntity
  8
0
 62
     3
100
AcDbCircle
 10
-106.9085
 20
-264.178717
 30
0.0
 40
1.5
100
AcDbArc
 50
1.441453999999999
 51
81.25383799999999
  0
ARC
  5
165
330
6B
100
AcDbEntity
  8
0
 62
     3
100
AcDbCircle
 10
-148.972563
 20
-264.178717
 30
0.0
 40
1.5
100
AcDbArc
 50
98.746162
 51
178.558546
  0
LINE
  5
166
330
6B
100
AcDbEntity
  8
0
 62
     3
100
AcDbLine
 10
-90.554673
 20
-296.886911
 30
0.0
 11
-165.326389
 21
-296.886911
 31
0.0
  0
ARC
  5
167
330
6B
100
AcDbEntity
  8
0
 62
     3
100
AcDbCircle
 10
-97.94053099999999
 20
-335.886911
 30
0.0
 40
2.0
100
AcDbArc
 50
90.0
 51
180.0
  0
LINE
  5
168
330
6B
100
AcDbEntity
  8
0
 62
     3
100
AcDbLine
 10
-97.94053099999999
 20
-333.886911
 30
0.0
 11
-94.49093600000001
 21
-333.886911
 31
0.0
  0
ARC
  5
169
330
6B
100
AcDbEntity
  8
0
 62
     3
100
AcDbCircle
 10
-94.49093600000001
 20
-335.886911
 30
0.0
 40
2.0
100
AcDbArc
 50
0.0
 51
90.0
  0
ARC
  5
16A
330
6B
100
AcDbEntity
  8
0
 62
     3
100
AcDbCircle
 10
-161.390127
 20
-335.886911
 30
0.0
 40
2.0
100
AcDbArc
 50
90.0
 51
180.0
  0
LINE
  5
16B
330
6B
100
AcDbEntity
  8
0
 62
     3
100
AcDbLine
 10
-157.940531
 20
-333.886911
 30
0.0
 11
-161.390127
 21
-333.886911
 31
0.0
  0
ARC
  5
16C
330
6B
100
AcDbEntity
  8
0
 62
     3
100
AcDbCircle
 10
-157.940531
 20
-335.886911
 30
0.0
 40
2.0
100
AcDbArc
 50
0.0
 51
90.0
  0
ARC
  5
16D
330
6B
100
AcDbEntity
  8
0
 62
     3
100
AcDbCircle
 10
-90.940531
 20
-311.886911
 30
0.0
 40
1.0
100
AcDbArc
 50
270.0
 51
90.0
  0
ARC
  5
16E
330
6B
100
AcDbEntity
  8
0
 62
     3
100
AcDbCircle
 10
-164.940531
 20
-311.886911
 30
0.0
 40
1.0
100
AcDbArc
 50
90.0
 51
270.0
  0
LINE
  5
16F
330
6B
100
AcDbEntity
  8
0
 62
     3
100
AcDbLine
 10
-146.551164
 20
-314.886911
 30
0.0
 11
-109.329899
 21
-314.886911
 31
0.0
  0
LINE
  5
170
330
6B
100
AcDbEntity
  8
0
 62
     3
100
AcDbLine
 10
-144.26545
 20
-330.886911
 30
0.0
 11
-111.615613
 21
-330.886911
 31
0.0
  0
LINE
  5
171
330
6B
100
AcDbEntity
  8
0
 62
     3
100
AcDbLine
 10
-112.940531
 20
-314.886911
 30
0.0
 11
-114.940531
 21
-330.886911
 31
0.0
  0
LINE
  5
172
330
6B
100
AcDbEntity
  8
0
 62
     3
100
AcDbLine
 10
-142.940531
 20
-314.886911
 30
0.0
 11
-140.940531
 21
-330.886911
 31
0.0
  0
LINE
  5
173
330
6B
100
AcDbEntity
  8
0
 62
     3
100
AcDbLine
 10
-134.940531
 20
-326.886911
 30
0.0
 11
-120.940531
 21
-326.886911
 31
0.0
  0
LINE
  5
174
330
6B
100
AcDbEntity
  8
0
 62
     3
100
AcDbLine
 10
-134.940531
 20
-318.886911
 30
0.0
 11
-120.940531
 21
-318.886911
 31
0.0
  0
LINE
  5
175
330
6B
100
AcDbEntity
  8
0
 62
     3
100
AcDbLine
 10
-135.940531
 20
-319.886911
 30
0.0
 11
-135.940531
 21
-325.886911
 31
0.0
  0
LINE
  5
176
330
6B
100
AcDbEntity
  8
0
 62
     3
100
AcDbLine
 10
-119.940531
 20
-325.886911
 30
0.0
 11
-119.940531
 21
-319.886911
 31
0.0
  0
ARC
  5
177
330
6B
100
AcDbEntity
  8
0
 62
     3
100
AcDbCircle
 10
-120.940531
 20
-319.886911
 30
0.0
 40
1.0
100
AcDbArc
 50
0.0
 51
90.0
  0
ARC
  5
178
330
6B
100
AcDbEntity
  8
0
 62
     3
100
AcDbCircle
 10
-120.940531
 20
-325.886911
 30
0.0
 40
1.0
100
AcDbArc
 50
270.0
 51
0.0
  0
ARC
  5
179
330
6B
100
AcDbEntity
  8
0
 62
     3
100
AcDbCircle
 10
-134.940531
 20
-325.886911
 30
0.0
 40
1.0
100
AcDbArc
 50
180.0
 51
270.0
  0
ARC
  5
17A
330
6B
100
AcDbEntity
  8
0
 62
     3
100
AcDbCircle
 10
-134.940531
 20
-319.886911
 30
0.0
 40
1.0
100
AcDbArc
 50
90.0
 51
180.0
  0
CIRCLE
  5
17B
330
6B
100
AcDbEntity
  8
0
100
AcDbCircle
 10
-117.940531
 20
-322.886911
 30
0.0
 40
1.7
  0
CIRCLE
  5
17C
330
6B
100
AcDbEntity
  8
0
100
AcDbCircle
 10
-137.940531
 20
-322.886911
 30
0.0
 40
1.7
  0
LINE
  5
17D
330
6B
100
AcDbEntity
  8
0
100
AcDbLine
 10
-113.565531
 20
-319.886911
 30
0.0
 11
-90.39705299999999
 21
-319.886911
 31
0.0
  0
LINE
  5
17E
330
6B
100
AcDbEntity
  8
0
100
AcDbLine
 10
-114.440531
 20
-326.886911
 30
0.0
 11
-90.853575
 21
-326.886911
 31
0.0
  0
LINE
  5
17F
330
6B
100
AcDbEntity
  8
0
100
AcDbLine
 10
-109.329899
 20
-314.886911
 30
0.0
 11
-111.615613
 21
-330.886911
 31
0.0
  0
LINE
  5
180
330
6B
100
AcDbEntity
  8
0
100
AcDbLine
 10
-165.484009
 20
-319.886911
 30
0.0
 11
-142.315531
 21
-319.886911
 31
0.0
  0
LINE
  5
181
330
6B
100
AcDbEntity
  8
0
100
AcDbLine
 10
-165.0274879999999
 20
-326.886911
 30
0.0
 11
-141.440531
 21
-326.886911
 31
0.0
  0
LINE
  5
182
330
6B
100
AcDbEntity
  8
0
100
AcDbLine
 10
-146.551164
 20
-314.886911
 30
0.0
 11
-144.26545
 21
-330.886911
 31
0.0
  0
LINE
  5
183
330
6B
100
AcDbEntity
  8
0
100
AcDbLine
 10
-97.94053099999999
 20
-333.886911
 30
0.0
 11
-123.940531
 21
-333.886911
 31
0.0
  0
LINE
  5
184
330
6B
100
AcDbEntity
  8
0
100
AcDbLine
 10
-131.940531
 20
-333.886911
 30
0.0
 11
-157.940531
 21
-333.886911
 31
0.0
  0
LINE
  5
185
330
6B
100
AcDbEntity
  8
0
100
AcDbLine
 10
-163.053767
 20
-294.886911
 30
0.0
 11
-92.82729600000001
 21
-294.886911
 31
0.0
  0
LINE
  5
186
330
6B
100
AcDbEntity
  8
0
100
AcDbLine
 10
-104.98759
 20
-280.886911
 30
0.0
 11
-150.893473
 21
-280.886911
 31
0.0
  0
LINE
  5
187
330
6B
100
AcDbEntity
  8
0
100
AcDbLine
 10
-105.21406
 20
-271.886911
 30
0.0
 11
-150.667002
 21
-271.886911
 31
0.0
  0
LINE
  5
188
330
6B
100
AcDbEntity
  8
0
100
AcDbLine
 10
-149.734951
 20
-262.886911
 30
0.0
 11
-106.146111
 21
-262.886911
 31
0.0
  0
CIRCLE
  5
189
330
6B
100
AcDbEntity
  8
0
 62
     3
100
AcDbCircle
 10
-1.728274
 20
-295.544592
 30
0.0
 40
36.5
  0
LINE
  5
18A
330
6B
100
AcDbEntity
  8
0
  6
CENTER
100
AcDbLine
 10
38.24239
 20
-295.544592
 30
0.0
 11
-41.448365
 21
-295.544592
 31
0.0
  0
LINE
  5
18B
330
6B
100
AcDbEntity
  8
0
 62
     3
100
AcDbLine
 10
22.271726
 20
-304.544592
 30
0.0
 11
22.271726
 21
-286.5445919999999
 31
0.0
  0
LINE
  5
18C
330
6B
100
AcDbEntity
  8
0
 62
     3
100
AcDbLine
 10
29.384424
 20
-285.544592
 30
0.0
 11
23.271726
 21
-285.544592
 31
0.0
  0
LINE
  5
18D
330
6B
100
AcDbEntity
  8
0
 62
     3
100
AcDbLine
 10
29.384424
 20
-305.544592
 30
0.0
 11
23.271726
 21
-305.544592
 31
0.0
  0
LINE
  5
18E
330
6B
100
AcDbEntity
  8
0
 62
     3
100
AcDbLine
 10
15.175867
 20
-325.044592
 30
0.0
 11
-18.632416
 21
-325.044592
 31
0.0
  0
LINE
  5
18F
330
6B
100
AcDbEntity
  8
0
 62
     3
100
AcDbLine
 10
-8.228274
 20
-336.445618
 30
0.0
 11
4.771726
 21
-336.445618
 31
0.0
  0
LINE
  5
190
330
6B
100
AcDbEntity
  8
0
 62
     3
100
AcDbLine
 10
30.471726
 20
-292.494592
 30
0.0
 11
30.471726
 21
-295.544592
 31
0.0
  0
LINE
  5
191
330
6B
100
AcDbEntity
  8
0
 62
     3
100
AcDbLine
 10
26.071726
 20
-292.494592
 30
0.0
 11
26.071726
 21
-295.544592
 31
0.0
  0
ARC
  5
192
330
6B
100
AcDbEntity
  8
0
 62
     3
100
AcDbCircle
 10
28.271726
 20
-292.494592
 30
0.0
 40
2.2
100
AcDbArc
 50
0.0
 51
180.0
  0
ARC
  5
193
330
6B
100
AcDbEntity
  8
0
 62
     3
100
AcDbCircle
 10
28.271726
 20
-298.544592
 30
0.0
 40
3.75
100
AcDbArc
 50
125.92082
 51
54.07918000000001
  0
LINE
  5
194
330
6B
100
AcDbEntity
  8
0
  6
CENTER
100
AcDbLine
 10
28.271726
 20
-289.125185
 30
0.0
 11
28.271726
 21
-303.403449
 31
0.0
  0
ARC
  5
195
330
6B
100
AcDbEntity
  8
0
 62
     3
100
AcDbCircle
 10
23.271726
 20
-286.5445919999999
 30
0.0
 40
1.0
100
AcDbArc
 50
90.0
 51
180.0
  0
ARC
  5
196
330
6B
100
AcDbEntity
  8
0
 62
     3
100
AcDbCircle
 10
23.271726
 20
-304.544592
 30
0.0
 40
1.0
100
AcDbArc
 50
180.0
 51
270.0
  0
ARC
  5
197
330
6B
100
AcDbEntity
  8
0
 62
     3
100
AcDbCircle
 10
29.384424
 20
-306.544592
 30
0.0
 40
1.0
100
AcDbArc
 50
340.528779
 51
90.0
  0
ARC
  5
198
330
6B
100
AcDbEntity
  8
0
 62
     3
100
AcDbCircle
 10
29.384424
 20
-284.5445919999999
 30
0.0
 40
1.0
100
AcDbArc
 50
270.0
 51
19.471221
  0
LINE
  5
199
330
6B
100
AcDbEntity
  8
0
 62
     3
100
AcDbLine
 10
-25.728274
 20
-304.544592
 30
0.0
 11
-25.728274
 21
-286.5445919999999
 31
0.0
  0
LINE
  5
19A
330
6B
100
AcDbEntity
  8
0
 62
     3
100
AcDbLine
 10
-32.840973
 20
-285.544592
 30
0.0
 11
-26.728274
 21
-285.544592
 31
0.0
  0
LINE
  5
19B
330
6B
100
AcDbEntity
  8
0
 62
     3
100
AcDbLine
 10
-29.528274
 20
-292.494592
 30
0.0
 11
-29.528274
 21
-295.544592
 31
0.0
  0
ARC
  5
19C
330
6B
100
AcDbEntity
  8
0
 62
     3
100
AcDbCircle
 10
-31.728274
 20
-292.494592
 30
0.0
 40
2.2
100
AcDbArc
 50
0.0
 51
180.0
  0
LINE
  5
19D
330
6B
100
AcDbEntity
  8
0
  6
CENTER
100
AcDbLine
 10
-31.728274
 20
-289.125185
 30
0.0
 11
-31.728274
 21
-303.403449
 31
0.0
  0
ARC
  5
19E
330
6B
100
AcDbEntity
  8
0
 62
     3
100
AcDbCircle
 10
-26.728274
 20
-286.5445919999999
 30
0.0
 40
1.0
100
AcDbArc
 50
0.0
 51
90.0
  0
LINE
  5
19F
330
6B
100
AcDbEntity
  8
0
 62
     3
100
AcDbLine
 10
-32.840973
 20
-305.544592
 30
0.0
 11
-26.728274
 21
-305.544592
 31
0.0
  0
ARC
  5
1A0
330
6B
100
AcDbEntity
  8
0
 62
     3
100
AcDbCircle
 10
-31.728274
 20
-298.544592
 30
0.0
 40
3.75
100
AcDbArc
 50
125.92082
 51
54.07918000000001
  0
ARC
  5
1A1
330
6B
100
AcDbEntity
  8
0
 62
     3
100
AcDbCircle
 10
-26.728274
 20
-304.544592
 30
0.0
 40
1.0
100
AcDbArc
 50
270.0
 51
0.0
  0
LINE
  5
1A2
330
6B
100
AcDbEntity
  8
0
 62
     3
100
AcDbLine
 10
-33.928274
 20
-292.494592
 30
0.0
 11
-33.928274
 21
-295.544592
 31
0.0
  0
ARC
  5
1A3
330
6B
100
AcDbEntity
  8
0
 62
     3
100
AcDbCircle
 10
-32.840973
 20
-284.5445919999999
 30
0.0
 40
1.0
100
AcDbArc
 50
160.528779
 51
270.0
  0
ARC
  5
1A4
330
6B
100
AcDbEntity
  8
0
 62
     3
100
AcDbCircle
 10
-32.840973
 20
-306.544592
 30
0.0
 40
1.0
100
AcDbArc
 50
90.0
 51
199.4712209999999
  0
ARC
  5
1A5
330
6B
100
AcDbEntity
  8
0
 62
     3
100
AcDbCircle
 10
-1.728274
 20
-295.544592
 30
0.0
 40
34.0
100
AcDbArc
 50
19.471221
 51
160.528779
  0
ARC
  5
1A6
330
6B
100
AcDbEntity
  8
0
 62
     3
100
AcDbCircle
 10
-1.728274
 20
-295.544592
 30
0.0
 40
34.0
100
AcDbArc
 50
199.471219
 51
340.528779
  0
CIRCLE
  5
1A7
330
6B
100
AcDbEntity
  8
0
 62
     3
100
AcDbCircle
 10
-1.728274
 20
-295.544592
 30
0.0
 40
22.0
  0
CIRCLE
  5
1A8
330
6B
100
AcDbEntity
  8
0
 62
     3
100
AcDbCircle
 10
-1.728274
 20
-295.544592
 30
0.0
 40
20.0
  0
CIRCLE
  5
1A9
330
6B
100
AcDbEntity
  8
0
 62
     3
100
AcDbCircle
 10
-1.728274
 20
-295.544592
 30
0.0
 40
17.475608
  0
LINE
  5
1AA
330
6B
100
AcDbEntity
  8
0
 62
     3
100
AcDbLine
 10
6.271726
 20
-334.945618
 30
0.0
 11
6.271726
 21
-331.15709
 31
0.0
  0
LINE
  5
1AB
330
6B
100
AcDbEntity
  8
0
 62
     3
100
AcDbLine
 10
-9.728274
 20
-334.945618
 30
0.0
 11
-9.728274
 21
-331.15709
 31
0.0
  0
ARC
  5
1AC
330
6B
100
AcDbEntity
  8
0
 62
     3
100
AcDbCircle
 10
4.771726
 20
-334.945618
 30
0.0
 40
1.5
100
AcDbArc
 50
270.0
 51
0.0
  0
ARC
  5
1AD
330
6B
100
AcDbEntity
  8
0
 62
     3
100
AcDbCircle
 10
-8.228274
 20
-334.945618
 30
0.0
 40
1.5
100
AcDbArc
 50
180.0
 51
270.0
  0
LINE
  5
1AE
330
6B
100
AcDbEntity
  8
0
  6
CENTER
100
AcDbLine
 10
-1.728274
 20
-338.047603
 30
0.0
 11
-1.728274
 21
-255.946
 31
0.0
  0
LINE
  5
1AF
330
6B
100
AcDbEntity
  8
0
 62
     3
100
AcDbLine
 10
-7.728274
 20
-259.54112
 30
0.0
 11
-7.728274
 21
-262.078191
 31
0.0
  0
LINE
  5
1B0
330
6B
100
AcDbEntity
  8
0
 62
     3
100
AcDbLine
 10
4.271726
 20
-259.54112
 30
0.0
 11
4.271726
 21
-262.078191
 31
0.0
  0
LINE
  5
1B1
330
6B
100
AcDbEntity
  8
0
 62
     3
100
AcDbLine
 10
-35.908196
 20
-282.739008
 30
0.0
 11
-33.71102800000001
 21
-284.007544
 31
0.0
  0
LINE
  5
1B2
330
6B
100
AcDbEntity
  8
0
 62
     3
100
AcDbLine
 10
-29.908196
 20
-272.346704
 30
0.0
 11
-27.711028
 21
-273.615239
 31
0.0
  0
LINE
  5
1B3
330
6B
100
AcDbEntity
  8
0
 62
     3
100
AcDbLine
 10
-29.908196
 20
-318.742481
 30
0.0
 11
-27.711028
 21
-317.473945
 31
0.0
  0
LINE
  5
1B4
330
6B
100
AcDbEntity
  8
0
 62
     3
100
AcDbLine
 10
-35.908196
 20
-308.350176
 30
0.0
 11
-33.71102800000001
 21
-307.08164
 31
0.0
  0
LINE
  5
1B5
330
6B
100
AcDbEntity
  8
0
 62
     3
100
AcDbLine
 10
4.271726
 20
-331.548064
 30
0.0
 11
4.271726
 21
-329.010993
 31
0.0
  0
LINE
  5
1B6
330
6B
100
AcDbEntity
  8
0
 62
     3
100
AcDbLine
 10
-7.728274
 20
-331.548064
 30
0.0
 11
-7.728274
 21
-329.010993
 31
0.0
  0
LINE
  5
1B7
330
6B
100
AcDbEntity
  8
0
 62
     3
100
AcDbLine
 10
32.451647
 20
-308.350176
 30
0.0
 11
30.254479
 21
-307.08164
 31
0.0
  0
LINE
  5
1B8
330
6B
100
AcDbEntity
  8
0
 62
     3
100
AcDbLine
 10
26.451647
 20
-318.742481
 30
0.0
 11
24.254479
 21
-317.473945
 31
0.0
  0
LINE
  5
1B9
330
6B
100
AcDbEntity
  8
0
 62
     3
100
AcDbLine
 10
26.451647
 20
-272.346704
 30
0.0
 11
24.254479
 21
-273.615239
 31
0.0
  0
LINE
  5
1BA
330
6B
100
AcDbEntity
  8
0
 62
     3
100
AcDbLine
 10
32.451647
 20
-282.739008
 30
0.0
 11
30.254479
 21
-284.007544
 31
0.0
  0
CIRCLE
  5
1BB
330
6B
100
AcDbEntity
  8
0
 62
     3
100
AcDbCircle
 10
-1.728274
 20
-295.544592
 30
0.0
 40
6.030566
  0
LINE
  5
1BC
330
6B
100
AcDbEntity
  8
0
  6
CENTER
100
AcDbLine
 10
23.137999
 20
-298.544592
 30
0.0
 11
33.484152
 21
-298.544592
 31
0.0
  0
LINE
  5
1BD
330
6B
100
AcDbEntity
  8
0
  6
CENTER
100
AcDbLine
 10
-37.307282
 20
-298.544592
 30
0.0
 11
-26.759507
 21
-298.544592
 31
0.0
  0
ARC
  5
1BE
330
6B
100
AcDbEntity
  8
0
 62
     3
100
AcDbCircle
 10
54.09311999999999
 20
-228.722832
 30
0.0
 40
4.4
100
AcDbArc
 50
0.0
 51
180.0
  0
LINE
  5
1BF
330
6B
100
AcDbEntity
  8
0
  6
CENTER
100
AcDbLine
 10
54.09311999999999
 20
-221.984017
 30
0.0
 11
54.09311999999999
 21
-250.540546
 31
0.0
  0
LINE
  5
1C0
330
6B
100
AcDbEntity
  8
0
 62
     3
100
AcDbLine
 10
49.69312
 20
-228.722832
 30
0.0
 11
49.69312
 21
-234.822832
 31
0.0
  0
ARC
  5
1C1
330
6B
100
AcDbEntity
  8
0
 62
     3
100
AcDbCircle
 10
54.09311999999999
 20
-240.822832
 30
0.0
 40
7.5
100
AcDbArc
 50
125.92082
 51
54.07918000000001
  0
LINE
  5
1C2
330
6B
100
AcDbEntity
  8
0
  6
CENTER
100
AcDbLine
 10
43.82566699999999
 20
-240.822832
 30
0.0
 11
64.517974
 21
-240.822832
 31
0.0
  0
LINE
  5
1C3
330
6B
100
AcDbEntity
  8
0
 62
     3
100
AcDbLine
 10
58.49312
 20
-228.722832
 30
0.0
 11
58.49312
 21
-234.822832
 31
0.0
  0
LINE
  5
1C4
330
6B
100
AcDbEntity
  8
0
  6
CENTER
100
AcDbLine
 10
47.67286
 20
-228.722832
 30
0.0
 11
59.981024
 21
-228.722832
 31
0.0
  0
TEXT
  5
1C5
330
6B
100
AcDbEntity
  8
0
 62
     3
100
AcDbText
 10
-13.162435
 20
-238.249237
 30
0.0
 40
4.5
  1
壁取付け寸法
 41
0.833333
100
AcDbText
  0
TEXT
  5
1C6
330
6B
100
AcDbEntity
  8
0
 62
     3
100
AcDbText
 10
36.999402
 20
-265.663005
 30
0.0
 40
4.5
  1
取付け穴　2/1
 41
0.833333
100
AcDbText
  0
LINE
  5
1C7
330
6B
100
AcDbEntity
  8
0
100
AcDbLine
 10
36.84447273776868
 20
-266.6073795146902
 30
0.0
 11
72.42639048153842
 21
-266.6073795146902
 31
0.0
  0
LINE
  5
1C8
330
6B
100
AcDbEntity
  8
0
100
AcDbLine
 10
-13.162435
 20
-238.249237
 30
0.0
 11
13.337565
 21
-238.249237
 31
0.0
  0
TEXT
  5
1C9
330
6B
100
AcDbEntity
  8
0
100
AcDbText
 10
-120.86053
 20
-318.536881
 30
0.0
 40
2.56
  1
OFF
100
AcDbText
  0
TEXT
  5
1CA
330
6B
100
AcDbEntity
  8
0
100
AcDbText
 10
-141.433419
 20
-318.525705
 30
0.0
 40
2.56
  1
ON
100
AcDbText
  0
TEXT
  5
1CB
330
6B
100
AcDbEntity
  8
0
 62
     3
100
AcDbText
 10
-185.509189
 20
-468.707204
 30
0.0
 40
3.2
  1
部　　品　　名
 41
0.8
  7
高3.2
100
AcDbText
  0
TEXT
  5
1CC
330
6B
100
AcDbEntity
  8
0
 62
     3
100
AcDbText
 10
-158.1850679436706
 20
-468.707204
 30
0.0
 40
3.2
  1
数量
 41
0.8
  7
高3.2
100
AcDbText
  0
TEXT
  5
1CD
330
6B
100
AcDbEntity
  8
0
 62
     3
100
AcDbText
 10
-134.0318229961446
 20
-468.707204
 30
0.0
 40
3.2
  1
備　　　考
 41
0.8
  7
高3.2
100
AcDbText
  0
LINE
  5
1D3
330
6B
100
AcDbEntity
  8
0
100
AcDbLine
 10
-105.299606
 20
-266.007349
 30
0.0
 11
-78.09892099999998
 21
-249.772097
 31
0.0
  0
CIRCLE
  5
1D4
330
6B
100
AcDbEntity
  8
0
100
AcDbCircle
 10
-73.805538
 20
-247.209508
 30
0.0
 40
5.0
  0
TEXT
  5
1D5
330
6B
100
AcDbEntity
  8
0
 62
     4
100
AcDbText
 10
-75.8042735496014
 20
-250.5128113740379
 30
0.0
 40
6.299999999999998
  1
1
  7
高6.3
100
AcDbText
  0
LINE
  5
1DB
330
6B
100
AcDbEntity
  8
0
100
AcDbLine
 10
-111.967658
 20
-279.78119
 30
0.0
 11
-78.263343
 21
-262.659871
 31
0.0
  0
CIRCLE
  5
1DC
330
6B
100
AcDbEntity
  8
0
100
AcDbCircle
 10
-73.805538
 20
-260.395369
 30
0.0
 40
5.0
  0
TEXT
  5
1DD
330
6B
100
AcDbEntity
  8
0
 62
     4
100
AcDbText
 10
-75.8042735496014
 20
-263.6986723740379
 30
0.0
 40
6.299999999999998
  1
2
  7
高6.3
100
AcDbText
  0
LINE
  5
1E3
330
6B
100
AcDbEntity
  8
0
100
AcDbLine
 10
-108.72086
 20
-301.680348
 30
0.0
 11
-77.828513
 21
-278.880529
 31
0.0
  0
CIRCLE
  5
1E4
330
6B
100
AcDbEntity
  8
0
100
AcDbCircle
 10
-73.805538
 20
-275.911409
 30
0.0
 40
5.0
  0
TEXT
  5
1E5
330
6B
100
AcDbEntity
  8
0
 62
     4
100
AcDbText
 10
-75.8042735496014
 20
-279.214712374038
 30
0.0
 40
6.299999999999998
  1
3
  7
高6.3
100
AcDbText
  0
LINE
  5
1EB
330
6B
100
AcDbEntity
  8
0
100
AcDbLine
 10
-122.36342
 20
-322.494526
 30
0.0
 11
-77.912634
 21
-291.631619
 31
0.0
  0
CIRCLE
  5
1EC
330
6B
100
AcDbEntity
  8
0
100
AcDbCircle
 10
-73.805538
 20
-288.7799950000001
 30
0.0
 40
5.0
  0
TEXT
  5
1ED
330
6B
100
AcDbEntity
  8
0
 62
     4
100
AcDbText
 10
-75.8042735496014
 20
-292.083298374038
 30
0.0
 40
6.299999999999998
  1
4
  7
高6.3
100
AcDbText
  0
LINE
  5
1F3
330
6B
100
AcDbEntity
  8
0
100
AcDbLine
 10
-89.955698
 20
-312.060412
 30
0.0
 11
-78.04111500000002
 21
-304.586204
 31
0.0
  0
CIRCLE
  5
1F4
330
6B
100
AcDbEntity
  8
0
100
AcDbCircle
 10
-73.805538
 20
-301.929159
 30
0.0
 40
5.0
  0
TEXT
  5
1F5
330
6B
100
AcDbEntity
  8
0
 62
     4
100
AcDbText
 10
-75.8042735496014
 20
-305.2324623740379
 30
0.0
 40
6.299999999999998
  1
5
  7
高6.3
100
AcDbText
  0
LINE
  5
1FB
330
6B
100
AcDbEntity
  8
0
100
AcDbLine
 10
-95.70902700000001
 20
-323.387763
 30
0.0
 11
-78.395565
 21
-315.908546
 31
0.0
  0
CIRCLE
  5
1FC
330
6B
100
AcDbEntity
  8
0
100
AcDbCircle
 10
-73.805538
 20
-313.925707
 30
0.0
 40
5.0
  0
TEXT
  5
1FD
330
6B
100
AcDbEntity
  8
0
 62
     4
100
AcDbText
 10
-75.8042735496014
 20
-317.229010374038
 30
0.0
 40
6.299999999999998
  1
6
  7
高6.3
100
AcDbText
  0
LINE
  5
203
330
6B
100
AcDbEntity
  8
0
100
AcDbLine
 10
-90.69027400000001
 20
-331.283156
 30
0.0
 11
-78.63802199999998
 21
-328.082367
 31
0.0
  0
CIRCLE
  5
204
330
6B
100
AcDbEntity
  8
0
100
AcDbCircle
 10
-73.805538
 20
-326.798974
 30
0.0
 40
5.0
  0
TEXT
  5
205
330
6B
100
AcDbEntity
  8
0
 62
     4
100
AcDbText
 10
-75.8042735496014
 20
-330.1022783740378
 30
0.0
 40
6.299999999999998
  1
7
  7
高6.3
100
AcDbText
  0
LINE
  5
20B
330
6B
100
AcDbEntity
  8
0
100
AcDbLine
 10
-12.046709
 20
-303.023859
 30
0.0
 11
-34.344187
 21
-325.643765
 31
0.0
  0
CIRCLE
  5
20C
330
6B
100
AcDbEntity
  8
0
100
AcDbCircle
 10
-37.85425200000001
 20
-329.204586
 30
0.0
 40
5.0
  0
TEXT
  5
20D
330
6B
100
AcDbEntity
  8
0
 62
     4
100
AcDbText
 10
-39.85298754960141
 20
-332.5078893740379
 30
0.0
 40
6.299999999999998
  1
8
  7
高6.3
100
AcDbText
  0
TEXT
  5
20E
330
6B
100
AcDbEntity
  8
0
 62
     3
100
AcDbText
 10
97.13182600000001
 20
-437.543166
 30
0.0
 40
4.5
  1
電池式　ニコUFO
 41
0.9
  7
高4.5
100
AcDbText
  0
TEXT
  5
20F
330
6B
100
AcDbEntity
  8
0
 62
     3
100
AcDbText
 10
99.297444
 20
-452.128099
 30
0.0
 40
3.2
  1
別　掲
  7
高3.2
100
AcDbText
  0
TEXT
  5
210
330
6B
100
AcDbEntity
  8
0
 62
     3
100
AcDbText
 10
78.30232636648523
 20
-283.537625
 30
0.0
 40
3.2
  1
定格電圧
  7
高3.2
100
AcDbText
  0
TEXT
  5
211
330
6B
100
AcDbEntity
  8
0
 62
     3
100
AcDbText
 10
77.43003036648525
 20
-290.555364
 30
0.0
 40
3.2
  1
グローブ色
  7
高3.2
100
AcDbText
  0
TEXT
  5
212
330
6B
100
AcDbEntity
  8
0
 62
     3
100
AcDbText
 10
78.30153036648525
 20
-297.213032
 30
0.0
 40
3.2
  1
点灯方式
  7
高3.2
100
AcDbText
  0
TEXT
  5
213
330
6B
100
AcDbEntity
  8
0
 62
     3
100
AcDbText
 10
77.98807736648523
 20
-311.426865
 30
0.0
 40
3.2
  1
点灯動作
  7
高3.2
100
AcDbText
  0
TEXT
  5
214
330
6B
100
AcDbEntity
  8
0
 62
     3
100
AcDbText
 10
77.93003036648525
 20
-339.5787279999999
 30
0.0
 40
3.2
  1
使用温度
  7
高3.2
100
AcDbText
  0
TEXT
  5
215
330
6B
100
AcDbEntity
  8
0
 62
     3
100
AcDbText
 10
77.89852936648525
 20
-346.339705
 30
0.0
 40
3.2
  1
保護特性
  7
高3.2
100
AcDbText
  0
TEXT
  5
216
330
6B
100
AcDbEntity
  8
0
 62
     3
100
AcDbText
 10
78.30232636648523
 20
-276.537625
 30
0.0
 40
3.2
  1
電　　源
  7
高3.2
100
AcDbText
  0
TEXT
  5
217
330
6B
100
AcDbEntity
  8
0
 62
     3
100
AcDbText
 10
77.89852936648525
 20
-353.339705
 30
0.0
 40
3.2
  1
質　　量
  7
高3.2
100
AcDbText
  0
TEXT
  5
218
330
6B
100
AcDbEntity
  8
0
 62
     3
100
AcDbText
 10
65.4113512160502
 20
-427.3881489999998
 30
0.0
 40
4.5
  1
モーターレス回転灯（屋外型）
  7
高4.5
100
AcDbText
  0
TEXT
  5
219
330
6B
100
AcDbEntity
  8
0
 62
     3
100
AcDbText
 10
99.68631330336185
 20
-267.20719
 30
0.0
 40
4.5
  1
主　　仕　　様（屋外型）
  7
高4.5
100
AcDbText
  0
LINE
  5
21A
330
6B
100
AcDbEntity
  8
0
 62
     3
100
AcDbLine
 10
-209.214738
 20
-328.707204
 30
0.0
 11
-211.812814
 21
-330.207204
 31
0.0
  0
LINE
  5
21B
330
6B
100
AcDbEntity
  8
0
 62
     3
100
AcDbLine
 10
-209.214738
 20
-328.707204
 30
0.0
 11
-211.812814
 21
-327.207204
 31
0.0
  0
LINE
  5
21C
330
6B
100
AcDbEntity
  8
0
 62
     3
100
AcDbLine
 10
-211.812814
 20
-330.207204
 30
0.0
 11
-211.812814
 21
-327.207204
 31
0.0
  0
LINE
  5
21D
330
6B
100
AcDbEntity
  8
0
 62
     3
100
AcDbLine
 10
-196.812814
 20
-195.207204
 30
0.0
 11
-196.812814
 21
-469.207204
 31
0.0
  0
LINE
  5
21E
330
6B
100
AcDbEntity
  8
0
 62
     3
100
AcDbLine
 10
193.187186
 20
-469.207204
 30
0.0
 11
193.187186
 21
-195.207204
 31
0.0
  0
LINE
  5
21F
330
6B
100
AcDbEntity
  8
0
 62
     3
100
AcDbLine
 10
-196.812814
 20
-195.207204
 30
0.0
 11
193.187186
 21
-195.207204
 31
0.0
  0
LINE
  5
220
330
6B
100
AcDbEntity
  8
0
 62
     3
100
AcDbLine
 10
-196.812814
 20
-469.207204
 30
0.0
 11
193.187186
 21
-469.207204
 31
0.0
  0
TEXT
  5
221
330
6B
100
AcDbEntity
  8
0
 62
     3
100
AcDbText
 10
83.701141
 20
-433.3719559999998
 30
0.0
 40
2.0
  1
CONPONENTS
 41
0.5331600000000001
100
AcDbText
  0
TEXT
  5
222
330
6B
100
AcDbEntity
  8
0
 62
     3
100
AcDbText
 10
83.35141400000003
 20
-452.304133
 30
0.0
 40
3.0
  1
材
 41
0.833333
100
AcDbText
  0
TEXT
  5
223
330
6B
100
AcDbEntity
  8
0
 62
     3
100
AcDbText
 10
90.887057
 20
-452.304133
 30
0.0
 40
3.0
  1
質
 41
0.833333
100
AcDbText
  0
TEXT
  5
224
330
6B
100
AcDbEntity
  8
0
 62
     3
100
AcDbText
 10
83.43948499999997
 20
-441.679608
 30
0.0
 40
2.0
  1
MODEL
 41
1.031072999999999
100
AcDbText
  0
TEXT
  5
225
330
6B
100
AcDbEntity
  8
0
 62
     3
100
AcDbText
 10
83.35141400000003
 20
-448.621825
 30
0.0
 40
2.0
  1
MATERIAL
 41
0.659278
100
AcDbText
  0
TEXT
  5
226
330
6B
100
AcDbEntity
  8
0
 62
     3
100
AcDbText
 10
114.658694
 20
-452.304133
 30
0.0
 40
3.0
  1
備
 41
0.833333
100
AcDbText
  0
TEXT
  5
227
330
6B
100
AcDbEntity
  8
0
 62
     3
100
AcDbText
 10
121.391696
 20
-452.304133
 30
0.0
 40
3.0
  1
考
 41
0.833333
100
AcDbText
  0
TEXT
  5
228
330
6B
100
AcDbEntity
  8
0
 62
     3
100
AcDbText
 10
114.9516795389595
 20
-448.621825
 30
0.0
 40
2.0
  1
REMARKS
 41
0.675794
100
AcDbText
  0
TEXT
  5
229
330
6B
100
AcDbEntity
  8
0
 62
     3
100
AcDbText
 10
84.94114300000003
 20
-455.541945
 30
0.0
 40
2.0
  1
3AD
 41
1.42614
100
AcDbText
  0
TEXT
  5
22A
330
6B
100
AcDbEntity
  8
0
 62
     3
100
AcDbText
 10
94.252123
 20
-455.376212
 30
0.0
 40
2.0
  1
ANGLE
 41
1.669883999999996
100
AcDbText
  0
TEXT
  5
22B
330
6B
100
AcDbEntity
  8
0
 62
     3
100
AcDbText
 10
115.18601
 20
-455.753053
 30
0.0
 40
2.0
  1
SCALE
 41
0.7719630000000001
100
AcDbText
  0
TEXT
  5
22C
330
6B
100
AcDbEntity
  8
0
 62
     3
100
AcDbText
 10
84.627273
 20
-459.541482
 30
0.0
 40
3.0
  1
第
 41
0.833333
100
AcDbText
  0
TEXT
  5
22D
330
6B
100
AcDbEntity
  8
0
 62
     3
100
AcDbText
 10
92.414123
 20
-459.541482
 30
0.0
 40
3.0
  1
三
 41
0.833333
100
AcDbText
  0
TEXT
  5
22E
330
6B
100
AcDbEntity
  8
0
 62
     3
100
AcDbText
 10
100.200973
 20
-459.541482
 30
0.0
 40
3.0
  1
角
 41
0.833333
100
AcDbText
  0
TEXT
  5
22F
330
6B
100
AcDbEntity
  8
0
 62
     3
100
AcDbText
 10
107.987823
 20
-459.541482
 30
0.0
 40
3.0
  1
法
 41
0.833333
100
AcDbText
  0
TEXT
  5
230
330
6B
100
AcDbEntity
  8
0
 62
     3
100
AcDbText
 10
115.049215
 20
-459.253053
 30
0.0
 40
3.0
  1
尺
 41
0.833333
100
AcDbText
  0
TEXT
  5
231
330
6B
100
AcDbEntity
  8
0
 62
     3
100
AcDbText
 10
121.782217
 20
-459.253053
 30
0.0
 40
3.0
  1
度
 41
0.833333
100
AcDbText
  0
TEXT
  5
232
330
6B
100
AcDbEntity
  8
0
 62
     3
100
AcDbText
 10
144.365487
 20
-437.083753
 30
0.0
 40
3.0
  1
承認
 41
1.089472999999999
100
AcDbText
  0
TEXT
  5
233
330
6B
100
AcDbEntity
  8
0
 62
     3
100
AcDbText
 10
157.608367
 20
-437.141482
 30
0.0
 40
3.0
  1
検図
 41
0.931761
100
AcDbText
  0
TEXT
  5
234
330
6B
100
AcDbEntity
  8
0
 62
     3
100
AcDbText
 10
170.6087639999999
 20
-437.141482
 30
0.0
 40
3.0
  1
設
 41
0.833333
100
AcDbText
  0
TEXT
  5
235
330
6B
100
AcDbEntity
  8
0
 62
     3
100
AcDbText
 10
175.098632
 20
-437.141482
 30
0.0
 40
3.0
  1
計
 41
0.833333
100
AcDbText
  0
TEXT
  5
236
330
6B
100
AcDbEntity
  8
0
 62
     3
100
AcDbText
 10
83.77124700000001
 20
-436.96893
 30
0.0
 40
3.0
  1
品
 41
0.833333
100
AcDbText
  0
TEXT
  5
237
330
6B
100
AcDbEntity
  8
0
 62
     3
100
AcDbText
 10
91.306889
 20
-436.96893
 30
0.0
 40
3.0
  1
名
 41
0.833333
100
AcDbText
  0
TEXT
  5
238
330
6B
100
AcDbEntity
  8
0
 62
     3
100
AcDbText
 10
83.43948499999997
 20
-445.2461781676235
 30
0.0
 40
3.0
  1
型
 41
0.833333
100
AcDbText
  0
TEXT
  5
239
330
6B
100
AcDbEntity
  8
0
 62
     3
100
AcDbText
 10
90.98757500000001
 20
-445.2461781676235
 30
0.0
 40
3.0
  1
式
 41
0.833333
100
AcDbText
  0
LINE
  5
23E
330
6B
100
AcDbEntity
  8
0
100
AcDbLine
 10
99.37331253001005
 20
-268.3615170578835
 30
0.0
 11
161.1460892175491
 21
-268.3615170578835
 31
0.0
  0
LINE
  5
23F
330
6B
100
AcDbEntity
  8
0
100
AcDbLine
 10
65.5482944343753
 20
-427.966828
 30
0.0
 11
137.822604
 21
-427.966828
 31
0.0
  0
TEXT
  5
240
330
6B
100
AcDbEntity
  8
0
 62
     3
100
AcDbText
 10
-158.1850679436706
 20
-463.7072039999998
 30
0.0
 40
3.2
  1
1
 41
0.8
  7
高3.2
100
AcDbText
  0
TEXT
  5
241
330
6B
100
AcDbEntity
  8
0
 62
     3
100
AcDbText
 10
-158.1850679436706
 20
-443.707204
 30
0.0
 40
3.2
  1
1
 41
0.8
  7
高3.2
100
AcDbText
  0
TEXT
  5
242
330
6B
100
AcDbEntity
  8
0
 62
     3
100
AcDbText
 10
-158.1850679436706
 20
-433.7072039999998
 30
0.0
 40
3.2
  1
1
 41
0.8
  7
高3.2
100
AcDbText
  0
TEXT
  5
243
330
6B
100
AcDbEntity
  8
0
 62
     3
100
AcDbText
 10
-158.1850679436706
 20
-428.7072039999998
 30
0.0
 40
3.2
  1
1
 41
0.8
  7
高3.2
100
AcDbText
  0
TEXT
  5
244
330
6B
100
AcDbEntity
  8
0
 62
     3
100
AcDbText
 10
-158.1850679436706
 20
-418.707204
 30
0.0
 40
3.2
  1
1
 41
0.8
  7
高3.2
100
AcDbText
  0
TEXT
  5
245
330
6B
100
AcDbEntity
  8
0
 62
     3
100
AcDbText
 10
-195.312814
 20
-418.707204
 30
0.0
 40
3.2
  1
7
 41
0.8
  7
高3.2
100
AcDbText
  0
TEXT
  5
246
330
6B
100
AcDbEntity
  8
0
 62
     3
100
AcDbText
 10
-195.312814
 20
-423.707204
 30
0.0
 40
3.2
  1
6
 41
0.8
  7
高3.2
100
AcDbText
  0
TEXT
  5
247
330
6B
100
AcDbEntity
  8
0
 62
     3
100
AcDbText
 10
-195.312814
 20
-428.7072039999998
 30
0.0
 40
3.2
  1
5
 41
0.8
  7
高3.2
100
AcDbText
  0
TEXT
  5
248
330
6B
100
AcDbEntity
  8
0
 62
     3
100
AcDbText
 10
-195.312814
 20
-433.7072039999998
 30
0.0
 40
3.2
  1
4
 41
0.8
  7
高3.2
100
AcDbText
  0
TEXT
  5
249
330
6B
100
AcDbEntity
  8
0
 62
     3
100
AcDbText
 10
-195.312814
 20
-438.7072039999998
 30
0.0
 40
3.2
  1
3
 41
0.8
  7
高3.2
100
AcDbText
  0
TEXT
  5
24A
330
6B
100
AcDbEntity
  8
0
 62
     3
100
AcDbText
 10
-158.1850679436706
 20
-413.7072039999996
 30
0.0
 40
3.2
  1
1
 41
0.8
  7
高3.2
100
AcDbText
  0
TEXT
  5
24B
330
6B
100
AcDbEntity
  8
0
 62
     3
100
AcDbText
 10
-195.312814
 20
-413.7072039999996
 30
0.0
 40
3.2
  1
8
 41
0.8
  7
高3.2
100
AcDbText
  0
TEXT
  5
24C
330
6B
100
AcDbEntity
  8
0
 62
     3
100
AcDbText
 10
-185.509189
 20
-443.707204
 30
0.0
 40
3.2
  1
円形プリズム
 41
0.8
  7
高3.2
100
AcDbText
  0
TEXT
  5
24D
330
6B
100
AcDbEntity
  8
0
 62
     3
100
AcDbText
 10
-185.509189
 20
-438.7072039999998
 30
0.0
 40
3.2
  1
LED．回路基板
 41
0.8
  7
高3.2
100
AcDbText
  0
TEXT
  5
24E
330
6B
100
AcDbEntity
  8
0
 62
     3
100
AcDbText
 10
-185.509189
 20
-428.7072039999998
 30
0.0
 40
3.2
  1
Ｏリング
 41
0.8
  7
高3.2
100
AcDbText
  0
TEXT
  5
24F
330
6B
100
AcDbEntity
  8
0
 62
     3
100
AcDbText
 10
-185.509189
 20
-423.707204
 30
0.0
 40
3.2
  1
アルカリ乾電池
 41
0.8
  7
高3.2
100
AcDbText
  0
TEXT
  5
250
330
6B
100
AcDbEntity
  8
0
 62
     3
100
AcDbText
 10
-185.509189
 20
-413.7072039999996
 30
0.0
 40
3.2
  1
マグネット
 41
0.8
  7
高3.2
100
AcDbText
  0
TEXT
  5
251
330
6B
100
AcDbEntity
  8
0
 62
     3
100
AcDbText
 10
-158.1850679436706
 20
-438.7072039999998
 30
0.0
 40
3.2
  1
1式
 41
0.8
  7
高3.2
100
AcDbText
  0
TEXT
  5
252
330
6B
100
AcDbEntity
  8
0
 62
     3
100
AcDbText
 10
-158.1850679436706
 20
-423.707204
 30
0.0
 40
3.2
  1
2
 41
0.8
  7
高3.2
100
AcDbText
  0
TEXT
  5
253
330
6B
100
AcDbEntity
  8
0
 62
     3
100
AcDbText
 10
-185.509189
 20
-418.707204
 30
0.0
 40
3.2
  1
ボディ
 41
0.8
  7
高3.2
100
AcDbText
  0
TEXT
  5
254
330
6B
100
AcDbEntity
  8
0
 62
     3
100
AcDbText
 10
-185.509189
 20
-463.7072039999998
 30
0.0
 40
3.2
  1
ランプグローブ
 41
0.8
  7
高3.2
100
AcDbText
  0
TEXT
  5
255
330
6B
100
AcDbEntity
  8
0
 62
     3
100
AcDbText
 10
-185.509189
 20
-433.7072039999998
 30
0.0
 40
3.2
  1
電源スイッチ
 41
0.8
  7
高3.2
100
AcDbText
  0
TEXT
  5
256
330
6B
100
AcDbEntity
  8
0
 62
     3
100
AcDbText
 10
-149.4265177448411
 20
-428.7072039999998
 30
0.0
 40
3.2
  1
合成ゴム
 41
0.8
  7
高3.2
100
AcDbText
  0
TEXT
  5
257
330
6B
100
AcDbEntity
  8
0
 62
     3
100
AcDbText
 10
-134.0318229961446
 20
-443.707204
 30
0.0
 40
3.2
  1
成形品（透明）（内蔵品）
 41
0.8
  7
高3.2
100
AcDbText
  0
TEXT
  5
258
330
6B
100
AcDbEntity
  8
0
 62
     3
100
AcDbText
 10
-134.0318229961446
 20
-433.7072039999998
 30
0.0
 40
3.2
  1
防水シーソー型
 41
0.8
  7
高3.2
100
AcDbText
  0
TEXT
  5
259
330
6B
100
AcDbEntity
  8
0
 62
     3
100
AcDbText
 10
-134.0318229961446
 20
-423.707204
 30
0.0
 40
3.2
  1
単3 (内蔵品)
 41
0.8
  7
高3.2
100
AcDbText
  0
TEXT
  5
25A
330
6B
100
AcDbEntity
  8
0
 62
     3
100
AcDbText
 10
-134.0318229961446
 20
-413.7072039999996
 30
0.0
 40
3.2
  1
%%C38x6
 41
0.8
  7
高3.2
100
AcDbText
  0
TEXT
  5
25B
330
6B
100
AcDbEntity
  8
0
 62
     3
100
AcDbText
 10
-134.0318229961446
 20
-418.707204
 30
0.0
 40
3.2
  1
成形品（グレー）
 41
0.8
  7
高3.2
100
AcDbText
  0
TEXT
  5
25C
330
6B
100
AcDbEntity
  8
0
 62
     3
100
AcDbText
 10
-134.0318229961446
 20
-428.7072039999998
 30
0.0
 40
3.2
  1
%%C2x%%C70
 41
0.8
  7
高3.2
100
AcDbText
  0
TEXT
  5
25F
330
6B
100
AcDbEntity
  8
0
 62
     3
100
AcDbText
 10
-113.2127239961446
 20
-422.5608079999998
 30
0.0
 40
3.2
  1
（内蔵品）
 41
0.8
  7
高3.2
100
AcDbText
  0
LINE
  5
260
330
6B
100
AcDbEntity
  8
0
 62
     7
100
AcDbLine
 10
193.187186
 20
-423.541482
 30
0.0
 11
141.487823
 21
-423.541482
 31
0.0
  0
TEXT
  5
261
330
6B
100
AcDbEntity
  8
0
 62
     3
100
AcDbText
 10
174.024389
 20
-428.9446709999999
 30
0.0
 40
4.5
  1
コード
  7
高4.5
100
AcDbText
  0
TEXT
  5
262
330
6B
100
AcDbEntity
  8
0
 62
     3
100
AcDbText
 10
148.024389
 20
-428.9446709999999
 30
0.0
 40
4.5
  1
型式
  7
高4.5
100
AcDbText
  0
LINE
  5
263
330
6B
100
AcDbEntity
  8
0
 62
     7
100
AcDbLine
 10
193.187186
 20
-417.5414819999998
 30
0.0
 11
141.487823
 21
-417.5414819999998
 31
0.0
  0
LINE
  5
264
330
6B
100
AcDbEntity
  8
0
 62
     7
100
AcDbLine
 10
193.187186
 20
-411.5414819999998
 30
0.0
 11
141.487823
 21
-411.5414819999998
 31
0.0
  0
LINE
  5
265
330
6B
100
AcDbEntity
  8
0
 62
     7
100
AcDbLine
 10
193.187186
 20
-405.541482
 30
0.0
 11
141.487823
 21
-405.541482
 31
0.0
  0
LINE
  5
266
330
6B
100
AcDbEntity
  8
0
 62
     7
100
AcDbLine
 10
193.187186
 20
-399.541482
 30
0.0
 11
141.487823
 21
-399.541482
 31
0.0
  0
LINE
  5
267
330
6B
100
AcDbEntity
  8
0
 62
     3
100
AcDbLine
 10
141.487823
 20
-429.541482
 30
0.0
 11
141.487823
 21
-372.541482
 31
0.0
  0
TEXT
  5
268
330
6B
100
AcDbEntity
  8
0
 62
     3
100
AcDbText
 10
105.893178
 20
-444.6970859878562
 30
0.0
 40
4.5
  1
NU
  7
高4.5
100
AcDbText
  0
TEXT
  5
269
330
6B
100
AcDbEntity
  8
0
 62
     3
100
AcDbText
 10
146.081149
 20
-467.9529720315461
 30
0.0
 40
6.299999999999998
  1
NU
  7
高6.3
100
AcDbText
  0
TEXT
  5
26A
330
6B
100
AcDbEntity
  8
0
 62
     3
100
AcDbText
 10
97.9257944956212
 20
-367.565778
 30
0.0
 40
3.2
  1
＊□は色コード
  7
高3.2
100
AcDbText
  0
TEXT
  5
26B
330
6B
100
AcDbEntity
  8
0
 62
     3
100
AcDbText
 10
131.7586671259617
 20
-276.757609
 30
0.0
 40
3.2
  1
アルカリ単3電池
  7
高3.2
100
AcDbText
  0
TEXT
  5
26C
330
6B
100
AcDbEntity
  8
0
 62
     3
100
AcDbText
 10
132.5985201259617
 20
-283.37169
 30
0.0
 40
3.2
  1
3V(単3x2)
  7
高3.2
100
AcDbText
  0
TEXT
  5
26D
330
6B
100
AcDbEntity
  8
0
 62
     3
100
AcDbText
 10
114.6406141259617
 20
-332.436052
 30
0.0
 40
3.2
  1
回転318回／分　点滅72回／分
  7
高3.2
100
AcDbText
  0
TEXT
  5
26E
330
6B
100
AcDbEntity
  8
0
 62
     3
100
AcDbText
 10
125.8472252805248
 20
-339.670395
 30
0.0
 40
3.2
  1
-20℃～50℃
  7
高3.2
100
AcDbText
  0
TEXT
  5
26F
330
6B
100
AcDbEntity
  8
0
 62
     3
100
AcDbText
 10
125.6125911259617
 20
-311.448005
 30
0.0
 40
3.2
  1
回転／点滅（切替え式）
  7
高3.2
100
AcDbText
  0
TEXT
  5
270
330
6B
100
AcDbEntity
  8
0
 62
     3
100
AcDbText
 10
133.5152482805248
 20
-346.7831569999999
 30
0.0
 40
3.2
  1
IP55
  7
高3.2
100
AcDbText
  0
LINE
  5
271
330
6B
100
AcDbEntity
  8
0
100
AcDbLine
 10
135.1530354657856
 20
-305.537625
 30
0.0
 11
135.1530354657856
 21
-284.537625
 31
0.0
  0
TEXT
  5
272
330
6B
100
AcDbEntity
  8
0
 62
     3
100
AcDbText
 10
109.1552881259617
 20
-290.711088
 30
0.0
 40
3.2
  1
NU-A□
  7
高3.2
100
AcDbText
  0
TEXT
  5
273
330
6B
100
AcDbEntity
  8
0
 62
     3
100
AcDbText
 10
144.7630129430848
 20
-290.477263
 30
0.0
 40
3.2
  1
NU-B□
  7
高3.2
100
AcDbText
  0
TEXT
  5
274
330
6B
100
AcDbEntity
  8
0
 62
     3
100
AcDbText
 10
107.7561581259617
 20
-297.573717
 30
0.0
 40
3.2
  1
常時点灯
  7
高3.2
100
AcDbText
  0
TEXT
  5
275
330
6B
100
AcDbEntity
  8
0
 62
     3
100
AcDbText
 10
142.7670699430848
 20
-297.573717
 30
0.0
 40
3.2
  1
夜間自動点灯
  7
高3.2
100
AcDbText
  0
TEXT
  5
276
330
6B
100
AcDbEntity
  8
0
 62
     3
100
AcDbText
 10
142.7670699430848
 20
-304.573717
 30
0.0
 40
3.2
  1
点灯感度センサー付
  7
高3.2
100
AcDbText
  0
LINE
  5
277
330
6B
100
AcDbEntity
  8
0
 62
     7
100
AcDbLine
 10
193.187186
 20
-396.541482
 30
0.0
 11
141.487823
 21
-396.541482
 31
0.0
  0
LINE
  5
278
330
6B
100
AcDbEntity
  8
0
 62
     7
100
AcDbLine
 10
193.187186
 20
-390.541482
 30
0.0
 11
141.487823
 21
-390.541482
 31
0.0
  0
LINE
  5
279
330
6B
100
AcDbEntity
  8
0
 62
     7
100
AcDbLine
 10
193.187186
 20
-384.541482
 30
0.0
 11
141.487823
 21
-384.541482
 31
0.0
  0
LINE
  5
27A
330
6B
100
AcDbEntity
  8
0
 62
     7
100
AcDbLine
 10
193.187186
 20
-378.541482
 30
0.0
 11
141.487823
 21
-378.541482
 31
0.0
  0
LINE
  5
27B
330
6B
100
AcDbEntity
  8
0
 62
     3
100
AcDbLine
 10
193.187186
 20
-372.541482
 30
0.0
 11
141.487823
 21
-372.541482
 31
0.0
  0
TEXT
  5
27C
330
6B
100
AcDbEntity
  8
0
 62
     3
100
AcDbText
 10
143.425002
 20
-417.110015
 30
0.0
 40
4.5
  1
NU-BR
 41
0.7
  7
高4.5
100
AcDbText
  0
TEXT
  5
27D
330
6B
100
AcDbEntity
  8
0
 62
     3
100
AcDbText
 10
143.425002
 20
-423.110015
 30
0.0
 40
4.5
  1
NU-BY
 41
0.7
  7
高4.5
100
AcDbText
  0
TEXT
  5
27E
330
6B
100
AcDbEntity
  8
0
 62
     3
100
AcDbText
 10
162.096872
 20
-428.936994
 30
0.0
 40
4.5
  1
色
  7
高4.5
100
AcDbText
  0
TEXT
  5
27F
330
6B
100
AcDbEntity
  8
0
 62
     3
100
AcDbText
 10
-134.0318229961446
 20
-438.7072039999998
 30
0.0
 40
3.2
  1
高輝度LED （内蔵品）
 41
0.8
  7
高3.2
100
AcDbText
  0
TEXT
  5
280
330
6B
100
AcDbEntity
  8
0
 62
     3
100
AcDbText
 10
143.425002
 20
-378.110015
 30
0.0
 40
4.5
  1
NU-AB
 41
0.7
  7
高4.5
100
AcDbText
  0
TEXT
  5
281
330
6B
100
AcDbEntity
  8
0
 62
     3
100
AcDbText
 10
143.425002
 20
-384.110015
 30
0.0
 40
4.5
  1
NU-AG
 41
0.7
  7
高4.5
100
AcDbText
  0
TEXT
  5
282
330
6B
100
AcDbEntity
  8
0
 62
     3
100
AcDbText
 10
143.425002
 20
-390.110015
 30
0.0
 40
4.5
  1
NU-AR
 41
0.7
  7
高4.5
100
AcDbText
  0
TEXT
  5
283
330
6B
100
AcDbEntity
  8
0
 62
     3
100
AcDbText
 10
143.425002
 20
-396.110015
 30
0.0
 40
4.5
  1
NU-AY
 41
0.7
  7
高4.5
100
AcDbText
  0
TEXT
  5
284
330
6B
100
AcDbEntity
  8
0
 62
     3
100
AcDbText
 10
143.425002
 20
-405.1100149999999
 30
0.0
 40
4.5
  1
NU-BB
 41
0.7
  7
高4.5
100
AcDbText
  0
TEXT
  5
285
330
6B
100
AcDbEntity
  8
0
 62
     3
100
AcDbText
 10
143.425002
 20
-411.1100149999998
 30
0.0
 40
4.5
  1
NU-BG
 41
0.7
  7
高4.5
100
AcDbText
  0
TEXT
  5
286
330
6B
100
AcDbEntity
  8
0
 62
     3
100
AcDbText
 10
162.096872
 20
-377.936994
 30
0.0
 40
4.5
  1
青
  7
高4.5
100
AcDbText
  0
TEXT
  5
287
330
6B
100
AcDbEntity
  8
0
 62
     3
100
AcDbText
 10
162.096872
 20
-383.936994
 30
0.0
 40
4.5
  1
緑
  7
高4.5
100
AcDbText
  0
TEXT
  5
288
330
6B
100
AcDbEntity
  8
0
 62
     3
100
AcDbText
 10
162.096872
 20
-389.936994
 30
0.0
 40
4.5
  1
赤
  7
高4.5
100
AcDbText
  0
TEXT
  5
289
330
6B
100
AcDbEntity
  8
0
 62
     3
100
AcDbText
 10
162.096872
 20
-395.936994
 30
0.0
 40
4.5
  1
黄
  7
高4.5
100
AcDbText
  0
LINE
  5
28A
330
6B
100
AcDbEntity
  8
0
100
AcDbLine
 10
167.487823
 20
-429.541482
 30
0.0
 11
167.487823
 21
-372.541482
 31
0.0
  0
TEXT
  5
28B
330
6B
100
AcDbEntity
  8
0
 62
     3
100
AcDbText
 10
162.096872
 20
-404.936994
 30
0.0
 40
4.5
  1
青
  7
高4.5
100
AcDbText
  0
TEXT
  5
28C
330
6B
100
AcDbEntity
  8
0
 62
     3
100
AcDbText
 10
162.096872
 20
-410.9369939999998
 30
0.0
 40
4.5
  1
緑
  7
高4.5
100
AcDbText
  0
TEXT
  5
28D
330
6B
100
AcDbEntity
  8
0
 62
     3
100
AcDbText
 10
162.096872
 20
-416.936994
 30
0.0
 40
4.5
  1
赤
  7
高4.5
100
AcDbText
  0
TEXT
  5
28E
330
6B
100
AcDbEntity
  8
0
 62
     3
100
AcDbText
 10
162.096872
 20
-422.936994
 30
0.0
 40
4.5
  1
黄
  7
高4.5
100
AcDbText
  0
LINE
  5
28F
330
6B
100
AcDbEntity
  8
0
100
AcDbLine
 10
161.133511
 20
-372.541482
 30
0.0
 11
161.133511
 21
-429.541482
 31
0.0
  0
TEXT
  5
290
330
6B
100
AcDbEntity
  8
0
 62
     3
100
AcDbText
 10
169.425002
 20
-378.110015
 30
0.0
 40
4.5
  1
12085
  7
高4.5
100
AcDbText
  0
TEXT
  5
291
330
6B
100
AcDbEntity
  8
0
 62
     3
100
AcDbText
 10
169.425002
 20
-384.110015
 30
0.0
 40
4.5
  1
12084
  7
高4.5
100
AcDbText
  0
TEXT
  5
292
330
6B
100
AcDbEntity
  8
0
 62
     3
100
AcDbText
 10
169.425002
 20
-390.110015
 30
0.0
 40
4.5
  1
12081
  7
高4.5
100
AcDbText
  0
TEXT
  5
293
330
6B
100
AcDbEntity
  8
0
 62
     3
100
AcDbText
 10
169.425002
 20
-396.110015
 30
0.0
 40
4.5
  1
12080
  7
高4.5
100
AcDbText
  0
TEXT
  5
294
330
6B
100
AcDbEntity
  8
0
 62
     3
100
AcDbText
 10
169.425002
 20
-405.1100149999999
 30
0.0
 40
4.5
  1
12087
  7
高4.5
100
AcDbText
  0
TEXT
  5
295
330
6B
100
AcDbEntity
  8
0
 62
     3
100
AcDbText
 10
169.425002
 20
-411.1100149999998
 30
0.0
 40
4.5
  1
12086
  7
高4.5
100
AcDbText
  0
TEXT
  5
296
330
6B
100
AcDbEntity
  8
0
 62
     3
100
AcDbText
 10
169.425002
 20
-417.110015
 30
0.0
 40
4.5
  1
12083
  7
高4.5
100
AcDbText
  0
TEXT
  5
297
330
6B
100
AcDbEntity
  8
0
 62
     3
100
AcDbText
 10
169.425002
 20
-423.110015
 30
0.0
 40
4.5
  1
12082
  7
高4.5
100
AcDbText
  0
TEXT
  5
298
330
6B
100
AcDbEntity
  8
0
 62
     3
100
AcDbText
 10
78.44786936648524
 20
-318.367971
 30
0.0
 40
3.2
  1
点灯時間
  7
高3.2
100
AcDbText
  0
TEXT
  5
299
330
6B
100
AcDbEntity
  8
0
 62
     3
100
AcDbText
 10
99.62381412596172
 20
-323.078318
 30
0.0
 40
2.5
  1
-AR,-AY
  7
高2.5
100
AcDbText
  0
TEXT
  5
29A
330
6B
100
AcDbEntity
  8
0
 62
     3
100
AcDbText
 10
99.72147612596174
 20
-326.008202
 30
0.0
 40
2.5
  1
-BR,-BY
  7
高2.5
100
AcDbText
  0
TEXT
  5
29B
330
6B
100
AcDbEntity
  8
0
 62
     3
100
AcDbText
 10
99.62381412596172
 20
-316.078318
 30
0.0
 40
2.5
  1
-AB,-AG
  7
高2.5
100
AcDbText
  0
TEXT
  5
29C
330
6B
100
AcDbEntity
  8
0
 62
     3
100
AcDbText
 10
99.72147612596174
 20
-319.008202
 30
0.0
 40
2.5
  1
-BB,-BG
  7
高2.5
100
AcDbText
  0
LINE
  5
29D
330
6B
100
AcDbEntity
  8
0
100
AcDbLine
 10
118.7666552805248
 20
-312.537625
 30
0.0
 11
118.7666552805248
 21
-326.537625
 31
0.0
  0
LINE
  5
29E
330
6B
100
AcDbEntity
  8
0
100
AcDbLine
 10
118.7666552805248
 20
-347.537625
 30
0.0
 11
118.7666552805248
 21
-361.537625
 31
0.0
  0
TEXT
  5
29F
330
6B
100
AcDbEntity
  8
0
 62
     3
100
AcDbText
 10
99.72147612596174
 20
-361.008202
 30
0.0
 40
2.5
  1
-BR,-BY
  7
高2.5
100
AcDbText
  0
TEXT
  5
2A0
330
6B
100
AcDbEntity
  8
0
 62
     3
100
AcDbText
 10
99.62381412596172
 20
-358.078318
 30
0.0
 40
2.5
  1
-AR,-AY
  7
高2.5
100
AcDbText
  0
TEXT
  5
2A1
330
6B
100
AcDbEntity
  8
0
 62
     3
100
AcDbText
 10
99.72147612596174
 20
-354.008202
 30
0.0
 40
2.5
  1
-BB,-BG
  7
高2.5
100
AcDbText
  0
TEXT
  5
2A2
330
6B
100
AcDbEntity
  8
0
 62
     3
100
AcDbText
 10
99.62381412596172
 20
-351.078318
 30
0.0
 40
2.5
  1
-AB,-AG
  7
高2.5
100
AcDbText
  0
TEXT
  5
2A3
330
6B
100
AcDbEntity
  8
0
 62
     3
100
AcDbText
 10
120.7277002805248
 20
-360.666382
 30
0.0
 40
3.2
  1
152g(電池別)
  7
高3.2
100
AcDbText
  0
TEXT
  5
2A4
330
6B
100
AcDbEntity
  8
0
 62
     3
100
AcDbText
 10
120.7277002805248
 20
-353.666382
 30
0.0
 40
3.2
  1
160g(電池別)
  7
高3.2
100
AcDbText
  0
LINE
  5
2A5
330
6B
100
AcDbEntity
  8
0
 62
     3
100
AcDbLine
 10
76.76177236648523
 20
-270.537625
 30
0.0
 11
76.76177236648523
 21
-361.537625
 31
0.0
  0
LINE
  5
2A6
330
6B
100
AcDbEntity
  8
0
100
AcDbLine
 10
97.66276912596172
 20
-270.537625
 30
0.0
 11
97.66276912596172
 21
-361.537625
 31
0.0
  0
LINE
  5
2A7
330
6B
100
AcDbEntity
  8
0
 62
     3
100
AcDbLine
 10
180.398947284756
 20
-270.537625
 30
0.0
 11
180.398947284756
 21
-361.537625
 31
0.0
  0
TEXT
  5
2A8
330
6B
100
AcDbEntity
  8
0
 62
     3
100
AcDbText
 10
-195.312814
 20
-468.707204
 30
0.0
 40
3.2
  1
NO
 41
0.8
  7
高3.2
100
AcDbText
  0
TEXT
  5
2A9
330
6B
100
AcDbEntity
  8
0
 62
     3
100
AcDbText
 10
-195.312814
 20
-463.7072039999998
 30
0.0
 40
3.2
  1
1
 41
0.8
  7
高3.2
100
AcDbText
  0
TEXT
  5
2AA
330
6B
100
AcDbEntity
  8
0
 62
     3
100
AcDbText
 10
-195.312814
 20
-443.707204
 30
0.0
 40
3.2
  1
2
 41
0.8
  7
高3.2
100
AcDbText
  0
TEXT
  5
2AB
330
6B
100
AcDbEntity
  8
0
 62
     3
100
AcDbText
 10
-149.4265177448411
 20
-418.707204
 30
0.0
 40
3.2
  1
ABS
 41
0.8
  7
高3.2
100
AcDbText
  0
TEXT
  5
2AC
330
6B
100
AcDbEntity
  8
0
 62
     3
100
AcDbText
 10
-149.4265177448411
 20
-443.707204
 30
0.0
 40
3.2
  1
PMMA
 41
0.8
  7
高3.2
100
AcDbText
  0
TEXT
  5
2AD
330
6B
100
AcDbEntity
  8
0
 62
     3
100
AcDbText
 10
-149.4265177448411
 20
-463.7072039999998
 30
0.0
 40
3.2
  1
PMMA
 41
0.8
  7
高3.2
100
AcDbText
  0
TEXT
  5
2AE
330
6B
100
AcDbEntity
  8
0
 62
     3
100
AcDbText
 10
-149.4265177448411
 20
-433.7072039999998
 30
0.0
 40
3.2
  1
PF
 41
0.8
  7
高3.2
100
AcDbText
  0
TEXT
  5
2AF
330
6B
100
AcDbEntity
  8
0
 62
     3
100
AcDbText
 10
-149.4265177448411
 20
-468.707204
 30
0.0
 40
3.2
  1
材　質
 41
0.8
  7
高3.2
100
AcDbText
  0
TEXT
  5
2B0
330
6B
100
AcDbEntity
  8
0
 62
     3
100
AcDbText
 10
120.7277002805248
 20
-325.666382
 30
0.0
 40
3.2
  1
回転／約400h　点滅／約500h
  7
高3.2
100
AcDbText
  0
TEXT
  5
2B1
330
6B
100
AcDbEntity
  8
0
 62
     3
100
AcDbText
 10
120.7277002805248
 20
-318.666382
 30
0.0
 40
3.2
  1
回転／約150h　点滅／約180h
  7
高3.2
100
AcDbText
  0
TEXT
  5
2B2
330
6B
100
AcDbEntity
  8
0
 62
     3
100
AcDbText
 10
78.11085236648525
 20
-332.351016
 30
0.0
 40
3.2
  1
閃光数
  7
高3.2
100
AcDbText
  0
LINE
  5
2B3
330
6B
100
AcDbEntity
  8
0
 62
     3
100
AcDbLine
 10
180.398947284756
 20
-270.537625
 30
0.0
 11
76.76177236648523
 21
-270.537625
 31
0.0
  0
LINE
  5
2B4
330
6B
100
AcDbEntity
  8
0
100
AcDbLine
 10
180.398947284756
 20
-319.5376249999999
 30
0.0
 11
97.66276912596172
 21
-319.537625
 31
0.0
  0
LINE
  5
2B5
330
6B
100
AcDbEntity
  8
0
100
AcDbLine
 10
180.398947284756
 20
-354.537625
 30
0.0
 11
97.66276912596172
 21
-354.537625
 31
0.0
  0
LINE
  5
2B6
330
6B
100
AcDbEntity
  8
0
 62
     3
100
AcDbLine
 10
180.398947284756
 20
-361.537625
 30
0.0
 11
76.76177236648523
 21
-361.537625
 31
0.0
  0
LINE
  5
2B7
330
6B
100
AcDbEntity
  8
0
100
AcDbLine
 10
180.398947284756
 20
-277.537625
 30
0.0
 11
76.76177236648523
 21
-277.537625
 31
0.0
  0
LINE
  5
2B8
330
6B
100
AcDbEntity
  8
0
100
AcDbLine
 10
180.398947284756
 20
-284.5376249999999
 30
0.0
 11
76.76177236648523
 21
-284.537625
 31
0.0
  0
LINE
  5
2B9
330
6B
100
AcDbEntity
  8
0
100
AcDbLine
 10
180.398947284756
 20
-291.5376249999999
 30
0.0
 11
76.76177236648523
 21
-291.537625
 31
0.0
  0
LINE
  5
2BA
330
6B
100
AcDbEntity
  8
0
100
AcDbLine
 10
180.398947284756
 20
-312.537625
 30
0.0
 11
76.76177236648523
 21
-312.537625
 31
0.0
  0
LINE
  5
2BB
330
6B
100
AcDbEntity
  8
0
100
AcDbLine
 10
180.398947284756
 20
-333.537625
 30
0.0
 11
76.76177236648523
 21
-333.537625
 31
0.0
  0
LINE
  5
2BC
330
6B
100
AcDbEntity
  8
0
100
AcDbLine
 10
180.398947284756
 20
-340.537625
 30
0.0
 11
76.76177236648523
 21
-340.537625
 31
0.0
  0
LINE
  5
2BD
330
6B
100
AcDbEntity
  8
0
100
AcDbLine
 10
180.398947284756
 20
-347.537625
 30
0.0
 11
76.76177236648523
 21
-347.537625
 31
0.0
  0
LINE
  5
2BE
330
6B
100
AcDbEntity
  8
0
100
AcDbLine
 10
180.398947284756
 20
-305.537625
 30
0.0
 11
76.76177236648523
 21
-305.537625
 31
0.0
  0
LINE
  5
2BF
330
6B
100
AcDbEntity
  8
0
100
AcDbLine
 10
180.398947284756
 20
-326.537625
 30
0.0
 11
76.76177236648523
 21
-326.537625
 31
0.0
  0
LINE
  5
2C5
330
6B
100
AcDbEntity
  8
0
100
AcDbLine
 10
32.436011
 20
-293.479249
 30
0.0
 11
36.84447273776868
 21
-266.6073795146902
 31
0.0
  0
TEXT
  5
2C6
330
6B
100
AcDbEntity
  8
0
 62
     3
100
AcDbText
 10
-93.34459876883119
 20
-468.707204
 30
0.0
 40
3.2
  1
コード
 41
0.8
  7
高3.2
100
AcDbText
  0
LINE
  5
2C7
330
6B
100
AcDbEntity
  8
0
 62
     3
100
AcDbLine
 10
-196.812814
 20
-464.207204
 30
0.0
 11
-72.23152420504145
 21
-464.207204
 31
0.0
  0
LINE
  5
2C8
330
6B
100
AcDbEntity
  8
0
 62
     3
100
AcDbLine
 10
-196.812814
 20
-409.2072039999997
 30
0.0
 11
-72.23152420504145
 21
-409.2072039999997
 31
0.0
  0
LINE
  5
2C9
330
6B
100
AcDbEntity
  8
0
100
AcDbLine
 10
-196.812814
 20
-414.207204
 30
0.0
 11
-72.23152420504148
 21
-414.207204
 31
0.0
  0
LINE
  5
2CA
330
6B
100
AcDbEntity
  8
0
100
AcDbLine
 10
-196.812814
 20
-419.207204
 30
0.0
 11
-72.23152420504145
 21
-419.207204
 31
0.0
  0
LINE
  5
2CB
330
6B
100
AcDbEntity
  8
0
100
AcDbLine
 10
-196.812814
 20
-424.207204
 30
0.0
 11
-72.23152420504145
 21
-424.207204
 31
0.0
  0
LINE
  5
2CC
330
6B
100
AcDbEntity
  8
0
100
AcDbLine
 10
-196.812814
 20
-429.2072039999998
 30
0.0
 11
-72.23152420504145
 21
-429.2072039999998
 31
0.0
  0
LINE
  5
2CD
330
6B
100
AcDbEntity
  8
0
100
AcDbLine
 10
-196.812814
 20
-434.2072039999997
 30
0.0
 11
-72.23152420504145
 21
-434.2072039999997
 31
0.0
  0
LINE
  5
2CE
330
6B
100
AcDbEntity
  8
0
100
AcDbLine
 10
-196.812814
 20
-439.207204
 30
0.0
 11
-72.23152420504145
 21
-439.207204
 31
0.0
  0
TEXT
  5
2CF
330
6B
100
AcDbEntity
  8
0
 62
     3
100
AcDbText
 10
-93.34459876883119
 20
-413.7072039999996
 30
0.0
 40
3.2
  1
-
 41
0.8
  7
高3.2
100
AcDbText
  0
TEXT
  5
2D0
330
6B
100
AcDbEntity
  8
0
 62
     3
100
AcDbText
 10
-93.34459876883119
 20
-418.707204
 30
0.0
 40
3.2
  1
-
 41
0.8
  7
高3.2
100
AcDbText
  0
TEXT
  5
2D1
330
6B
100
AcDbEntity
  8
0
 62
     3
100
AcDbText
 10
-93.34459876883119
 20
-423.707204
 30
0.0
 40
3.2
  1
12152
 41
0.8
  7
高3.2
100
AcDbText
  0
TEXT
  5
2D2
330
6B
100
AcDbEntity
  8
0
 62
     3
100
AcDbText
 10
-93.34459876883119
 20
-428.7072039999998
 30
0.0
 40
3.2
  1
53740
 41
0.8
  7
高3.2
100
AcDbText
  0
TEXT
  5
2D3
330
6B
100
AcDbEntity
  8
0
 62
     3
100
AcDbText
 10
-93.34459876883119
 20
-433.7072039999998
 30
0.0
 40
3.2
  1
-
 41
0.8
  7
高3.2
100
AcDbText
  0
TEXT
  5
2D4
330
6B
100
AcDbEntity
  8
0
 62
     3
100
AcDbText
 10
-93.34459876883119
 20
-438.7072039999998
 30
0.0
 40
3.2
  1
-
 41
0.8
  7
高3.2
100
AcDbText
  0
TEXT
  5
2D5
330
6B
100
AcDbEntity
  8
0
 62
     3
100
AcDbText
 10
-93.34459876883119
 20
-443.707204
 30
0.0
 40
3.2
  1
-
 41
0.8
  7
高3.2
100
AcDbText
  0
TEXT
  5
2D6
330
6B
100
AcDbEntity
  8
0
 62
     3
100
AcDbText
 10
-93.34459876883119
 20
-453.7072039999998
 30
0.0
 40
3.2
  1
緑）53739
 41
0.8
  7
高3.2
100
AcDbText
  0
TEXT
  5
2D7
330
6B
100
AcDbEntity
  8
0
 62
     3
100
AcDbText
 10
-93.34459876883119
 20
-448.707204
 30
0.0
 40
3.2
  1
青）53738
 41
0.8
  7
高3.2
100
AcDbText
  0
TEXT
  5
2D8
330
6B
100
AcDbEntity
  8
0
 62
     3
100
AcDbText
 10
-93.34459876883119
 20
-463.7072039999998
 30
0.0
 40
3.2
  1
黄）53737
 41
0.8
  7
高3.2
100
AcDbText
  0
TEXT
  5
2D9
330
6B
100
AcDbEntity
  8
0
 62
     3
100
AcDbText
 10
-93.34459876883119
 20
-458.7072039999998
 30
0.0
 40
3.2
  1
赤）53736
 41
0.8
  7
高3.2
100
AcDbText
  0
LINE
  5
2DA
330
6B
100
AcDbEntity
  8
0
100
AcDbLine
 10
-72.23152420504145
 20
-444.207204
 30
0.0
 11
-196.812814
 21
-444.207204
 31
0.0
  0
LINE
  5
2DB
330
6B
100
AcDbEntity
  8
0
 62
     3
100
AcDbLine
 10
-94.8445987688312
 20
-409.2072039999997
 30
0.0
 11
-94.8445987688312
 21
-469.207204
 31
0.0
  0
LINE
  5
2DC
330
6B
100
AcDbEntity
  8
0
100
AcDbLine
 10
-135.5318229961445
 20
-469.207204
 30
0.0
 11
-135.5318229961445
 21
-409.2072039999997
 31
0.0
  0
LINE
  5
2DD
330
6B
100
AcDbEntity
  8
0
100
AcDbLine
 10
-159.6850679436706
 20
-469.207204
 30
0.0
 11
-159.6850679436706
 21
-409.2072039999997
 31
0.0
  0
LINE
  5
2DE
330
6B
100
AcDbEntity
  8
0
100
AcDbLine
 10
-150.9265177448411
 20
-469.207204
 30
0.0
 11
-150.9265177448411
 21
-409.2072039999997
 31
0.0
  0
LINE
  5
2DF
330
6B
100
AcDbEntity
  8
0
100
AcDbLine
 10
-187.009189
 20
-469.207204
 30
0.0
 11
-187.009189
 21
-409.2072039999997
 31
0.0
  0
LINE
  5
2E0
330
6B
100
AcDbEntity
  8
0
 62
     3
100
AcDbLine
 10
-72.23152420504145
 20
-409.2072039999997
 30
0.0
 11
-72.23152420504145
 21
-469.207204
 31
0.0
  0
LINE
  5
2E1
330
6B
100
AcDbEntity
  8
0
100
AcDbLine
 10
-72.23152420504145
 20
-459.2072039999997
 30
0.0
 11
-135.5318229961445
 21
-459.2072039999997
 31
0.0
  0
LINE
  5
2E2
330
6B
100
AcDbEntity
  8
0
100
AcDbLine
 10
-135.5318229961445
 20
-454.2072039999998
 30
0.0
 11
-72.23152420504145
 21
-454.2072039999998
 31
0.0
  0
LINE
  5
2E3
330
6B
100
AcDbEntity
  8
0
100
AcDbLine
 10
-135.5318229961445
 20
-449.207204
 30
0.0
 11
-72.23152420504145
 21
-449.207204
 31
0.0
  0
TEXT
  5
3C1
330
6B
100
AcDbEntity
  8
0
 62
     3
100
AcDbText
 10
180.687186
 20
-204.707204
 30
0.0
 40
3.2
  1
担　当
  7
高3.2
100
AcDbText
  0
TEXT
  5
3C2
330
6B
100
AcDbEntity
  8
0
 62
     3
100
AcDbText
 10
136.687186
 20
-204.707204
 30
0.0
 40
3.2
  1
変更・追記内容
  7
高3.2
100
AcDbText
  0
TEXT
  5
3C3
330
6B
100
AcDbEntity
  8
0
 62
     3
100
AcDbText
 10
111.8007010003392
 20
-209.3777425099083
 30
0.0
 40
2.0
  1
1
  7
高2
100
AcDbText
  0
TEXT
  5
3C4
330
6B
100
AcDbEntity
  8
0
 62
     3
100
AcDbText
 10
111.4921895235819
 20
-214.5475592221812
 30
0.0
 40
2.0
  1
2
  7
高2
100
AcDbText
  0
TEXT
  5
3C5
330
6B
100
AcDbEntity
  8
0
 62
     3
100
AcDbText
 10
118.687186
 20
-204.707204
 30
0.0
 40
3.2
  1
日　付
  7
高3.2
100
AcDbText
  0
TEXT
  5
3C6
330
6B
100
AcDbEntity
  8
0
 62
     3
100
AcDbText
 10
118.687186
 20
-199.707204
 30
0.0
 40
3.2
  1
図　　　　面　　　　略　　　　歴
  7
高3.2
100
AcDbText
  0
TEXT
  5
3C7
330
6B
100
AcDbEntity
  8
0
 62
     3
100
AcDbText
 10
108.687186
 20
-204.707204
 30
0.0
 40
3.2
  1
記号
  7
高3.2
100
AcDbText
  0
LINE
  5
3C8
330
6B
100
AcDbEntity
  8
0
100
AcDbLine
 10
112.187186
 20
-211.4163079999999
 30
0.0
 11
110.287186
 21
-214.707204
 31
0.0
  0
LINE
  5
3C9
330
6B
100
AcDbEntity
  8
0
100
AcDbLine
 10
112.187186
 20
-211.4163079999999
 30
0.0
 11
114.087186
 21
-214.707204
 31
0.0
  0
LINE
  5
3CA
330
6B
100
AcDbEntity
  8
0
100
AcDbLine
 10
110.287186
 20
-214.707204
 30
0.0
 11
114.087186
 21
-214.707204
 31
0.0
  0
LINE
  5
3CB
330
6B
100
AcDbEntity
  8
0
100
AcDbLine
 10
112.187186
 20
-206.4163069999999
 30
0.0
 11
110.287186
 21
-209.707204
 31
0.0
  0
LINE
  5
3CC
330
6B
100
AcDbEntity
  8
0
100
AcDbLine
 10
112.187186
 20
-206.4163069999999
 30
0.0
 11
114.087186
 21
-209.707204
 31
0.0
  0
LINE
  5
3CD
330
6B
100
AcDbEntity
  8
0
100
AcDbLine
 10
110.287186
 20
-209.707204
 30
0.0
 11
114.087186
 21
-209.707204
 31
0.0
  0
LINE
  5
3CE
330
6B
100
AcDbEntity
  8
0
 62
     3
100
AcDbLine
 10
107.187186
 20
-200.207204
 30
0.0
 11
193.187186
 21
-200.207204
 31
0.0
  0
LINE
  5
3CF
330
6B
100
AcDbEntity
  8
0
 62
     3
100
AcDbLine
 10
107.187186
 20
-205.207204
 30
0.0
 11
193.187186
 21
-205.207204
 31
0.0
  0
LINE
  5
3D0
330
6B
100
AcDbEntity
  8
0
 62
     7
100
AcDbLine
 10
107.187186
 20
-210.207204
 30
0.0
 11
193.187186
 21
-210.207204
 31
0.0
  0
LINE
  5
3D1
330
6B
100
AcDbEntity
  8
0
 62
     3
100
AcDbLine
 10
107.187186
 20
-215.207204
 30
0.0
 11
193.187186
 21
-215.207204
 31
0.0
  0
LINE
  5
3D2
330
6B
100
AcDbEntity
  8
0
 62
     7
100
AcDbLine
 10
179.1871859999999
 20
-215.207204
 30
0.0
 11
179.187186
 21
-200.207204
 31
0.0
  0
LINE
  5
3D3
330
6B
100
AcDbEntity
  8
0
 62
     7
100
AcDbLine
 10
135.187186
 20
-215.207204
 30
0.0
 11
135.187186
 21
-200.207204
 31
0.0
  0
LINE
  5
3D4
330
6B
100
AcDbEntity
  8
0
 62
     7
100
AcDbLine
 10
117.187186
 20
-215.207204
 30
0.0
 11
117.187186
 21
-200.207204
 31
0.0
  0
LINE
  5
3D5
330
6B
100
AcDbEntity
  8
0
 62
     3
100
AcDbLine
 10
107.187186
 20
-215.207204
 30
0.0
 11
107.187186
 21
-195.207204
 31
0.0
  0
TEXT
  5
7A7
330
6B
100
AcDbEntity
  8
0
 62
     3
100
AcDbText
 10
-134.0318229961445
 20
-453.7072039999998
 30
0.0
 40
3.2
  1
A80958
 41
0.8
  7
高3.2
100
AcDbText
  0
TEXT
  5
7A8
330
6B
100
AcDbEntity
  8
0
 62
     3
100
AcDbText
 10
-134.0318229961445
 20
-448.707204
 30
0.0
 40
3.2
  1
A80959
 41
0.8
  7
高3.2
100
AcDbText
  0
TEXT
  5
7A9
330
6B
100
AcDbEntity
  8
0
 62
     3
100
AcDbText
 10
-134.0318229961445
 20
-463.7072039999998
 30
0.0
 40
3.2
  1
A80961
 41
0.8
  7
高3.2
100
AcDbText
  0
TEXT
  5
7AA
330
6B
100
AcDbEntity
  8
0
 62
     3
100
AcDbText
 10
-134.0318229961445
 20
-458.7072039999998
 30
0.0
 40
3.2
  1
A80960
 41
0.8
  7
高3.2
100
AcDbText
  0
LINE
  5
7ED
330
6B
100
AcDbEntity
  8
0
100
AcDbLine
 10
32.230964
 20
-291.418874
 30
0.0
 11
32.436011
 21
-293.479249
 31
0.0
  0
LINE
  5
7EE
330
6B
100
AcDbEntity
  8
0
100
AcDbLine
 10
32.436011
 20
-293.479249
 30
0.0
 11
33.288622
 21
-291.592388
 31
0.0
  0
LINE
  5
7EF
330
6B
100
AcDbEntity
  8
0
100
AcDbLine
 10
-13.069087
 20
-304.824395
 30
0.0
 11
-12.046709
 21
-303.023859
 31
0.0
  0
LINE
  5
7F0
330
6B
100
AcDbEntity
  8
0
100
AcDbLine
 10
-12.046709
 20
-303.023859
 30
0.0
 11
-13.832383
 21
-304.07198
 31
0.0
  0
LINE
  5
7F1
330
6B
100
AcDbEntity
  8
0
100
AcDbLine
 10
-88.89483400000001
 20
-330.251855
 30
0.0
 11
-90.69027400000001
 21
-331.283156
 31
0.0
  0
LINE
  5
7F2
330
6B
100
AcDbEntity
  8
0
100
AcDbLine
 10
-90.69027400000001
 20
-331.283156
 30
0.0
 11
-88.619727
 21
-331.287744
 31
0.0
  0
LINE
  5
7F3
330
6B
100
AcDbEntity
  8
0
100
AcDbLine
 10
-94.085537
 20
-322.10267
 30
0.0
 11
-95.70902700000001
 21
-323.387763
 31
0.0
  0
LINE
  5
7F4
330
6B
100
AcDbEntity
  8
0
100
AcDbLine
 10
-95.70902700000001
 20
-323.387763
 30
0.0
 11
-93.660496
 21
-323.086585
 31
0.0
  0
LINE
  5
7F5
330
6B
100
AcDbEntity
  8
0
100
AcDbLine
 10
-88.54624799999998
 20
-310.543626
 30
0.0
 11
-89.955698
 21
-312.060412
 31
0.0
  0
LINE
  5
7F6
330
6B
100
AcDbEntity
  8
0
100
AcDbLine
 10
-89.955698
 20
-312.060412
 30
0.0
 11
-87.97668599999999
 21
-311.451562
 31
0.0
  0
LINE
  5
7F7
330
6B
100
AcDbEntity
  8
0
100
AcDbLine
 10
-121.026218
 20
-320.91368
 30
0.0
 11
-122.36342
 21
-322.494526
 31
0.0
  0
LINE
  5
7F8
330
6B
100
AcDbEntity
  8
0
100
AcDbLine
 10
-122.36342
 20
-322.494526
 30
0.0
 11
-120.414946
 21
-321.794074
 31
0.0
  0
LINE
  5
7F9
330
6B
100
AcDbEntity
  8
0
100
AcDbLine
 10
-107.4299
 20
-300.061519
 30
0.0
 11
-108.72086
 21
-301.680348
 31
0.0
  0
LINE
  5
7FA
330
6B
100
AcDbEntity
  8
0
100
AcDbLine
 10
-108.72086
 20
-301.680348
 30
0.0
 11
-106.793441
 21
-300.923881
 31
0.0
  0
LINE
  5
7FB
330
6B
100
AcDbEntity
  8
0
100
AcDbLine
 10
-110.427245
 20
-278.397603
 30
0.0
 11
-111.967658
 21
-279.78119
 31
0.0
  0
LINE
  5
7FC
330
6B
100
AcDbEntity
  8
0
100
AcDbLine
 10
-111.967658
 20
-279.78119
 30
0.0
 11
-109.941828
 21
-279.353175
 31
0.0
  0
LINE
  5
7FD
330
6B
100
AcDbEntity
  8
0
100
AcDbLine
 10
-103.85691
 20
-264.5221509999999
 30
0.0
 11
-105.299606
 21
-266.007349
 31
0.0
  0
LINE
  5
7FE
330
6B
100
AcDbEntity
  8
0
100
AcDbLine
 10
-105.299606
 20
-266.007349
 30
0.0
 11
-103.307595
 21
-265.442477
 31
0.0
  0
LINE
  5
7FF
330
6B
100
AcDbEntity
  8
0
100
AcDbLine
 10
43.57566699999998
 20
-240.822832
 30
0.0
 11
37.61972
 21
-240.822832
 31
0.0
  0
LINE
  5
800
330
6B
100
AcDbEntity
  8
0
100
AcDbLine
 10
47.42286
 20
-228.722832
 30
0.0
 11
37.61972
 21
-228.722832
 31
0.0
  0
LINE
  5
801
330
6B
100
AcDbEntity
  8
0
100
AcDbLine
 10
38.86972
 20
-238.322832
 30
0.0
 11
38.86972
 21
-231.222832
 31
0.0
  0
LINE
  5
805
330
6B
100
AcDbEntity
  8
0
100
AcDbLine
 10
46.59311999999999
 20
-241.072832
 30
0.0
 11
46.59311999999999
 21
-257.518639
 31
0.0
  0
LINE
  5
806
330
6B
100
AcDbEntity
  8
0
100
AcDbLine
 10
61.59311999999999
 20
-241.072832
 30
0.0
 11
61.59311999999999
 21
-257.518639
 31
0.0
  0
LINE
  5
807
330
6B
100
AcDbEntity
  8
0
100
AcDbLine
 10
49.09311999999999
 20
-256.268639
 30
0.0
 11
59.09311999999999
 21
-256.268639
 31
0.0
  0
LINE
  5
80B
330
6B
100
AcDbEntity
  8
0
100
AcDbLine
 10
49.69312
 20
-228.472832
 30
0.0
 11
49.69312
 21
-218.218982
 31
0.0
  0
LINE
  5
80C
330
6B
100
AcDbEntity
  8
0
100
AcDbLine
 10
58.49312
 20
-228.472832
 30
0.0
 11
58.49312
 21
-218.218982
 31
0.0
  0
LINE
  5
80D
330
6B
100
AcDbEntity
  8
0
100
AcDbLine
 10
47.19312
 20
-219.468982
 30
0.0
 11
44.69312
 21
-219.468982
 31
0.0
  0
LINE
  5
80E
330
6B
100
AcDbEntity
  8
0
100
AcDbLine
 10
60.99312
 20
-219.468982
 30
0.0
 11
70.74312
 21
-219.468982
 31
0.0
  0
LINE
  5
80F
330
6B
100
AcDbEntity
  8
0
100
AcDbLine
 10
49.69312
 20
-219.468982
 30
0.0
 11
58.49312
 21
-219.468982
 31
0.0
  0
LINE
  5
813
330
6B
100
AcDbEntity
  8
0
100
AcDbLine
 10
-37.19070100000001
 20
-298.544592
 30
0.0
 11
-48.742209
 21
-298.544592
 31
0.0
  0
LINE
  5
814
330
6B
100
AcDbEntity
  8
0
100
AcDbLine
 10
-41.948939
 20
-295.544592
 30
0.0
 11
-48.742209
 21
-295.544592
 31
0.0
  0
LINE
  5
815
330
6B
100
AcDbEntity
  8
0
100
AcDbLine
 10
-47.492209
 20
-301.0445919999999
 30
0.0
 11
-47.492209
 21
-303.544592
 31
0.0
  0
LINE
  5
816
330
6B
100
AcDbEntity
  8
0
100
AcDbLine
 10
-47.492209
 20
-293.044592
 30
0.0
 11
-47.492209
 21
-287.294592
 31
0.0
  0
LINE
  5
817
330
6B
100
AcDbEntity
  8
0
100
AcDbLine
 10
-47.492209
 20
-298.544592
 30
0.0
 11
-47.492209
 21
-295.544592
 31
0.0
  0
LINE
  5
81B
330
6B
100
AcDbEntity
  8
0
100
AcDbLine
 10
-31.728274
 20
-290.044592
 30
0.0
 11
-31.728274
 21
-247.586617
 31
0.0
  0
LINE
  5
81C
330
6B
100
AcDbEntity
  8
0
100
AcDbLine
 10
28.271726
 20
-290.044592
 30
0.0
 11
28.27172600000001
 21
-247.586617
 31
0.0
  0
LINE
  5
81D
330
6B
100
AcDbEntity
  8
0
100
AcDbLine
 10
-29.228274
 20
-248.836617
 30
0.0
 11
25.77172600000001
 21
-248.836617
 31
0.0
  0
LINE
  5
821
330
6B
100
AcDbEntity
  8
0
100
AcDbLine
 10
-150.4720879999999
 20
-263.890984
 30
0.0
 11
-150.4720879999999
 21
-251.706162
 31
0.0
  0
LINE
  5
822
330
6B
100
AcDbEntity
  8
0
100
AcDbLine
 10
-105.408974
 20
-263.890984
 30
0.0
 11
-105.408974
 21
-251.706162
 31
0.0
  0
LINE
  5
823
330
6B
100
AcDbEntity
  8
0
100
AcDbLine
 10
-147.9720879999999
 20
-252.956162
 30
0.0
 11
-107.908974
 21
-252.956162
 31
0.0
  0
LINE
  5
827
330
6B
100
AcDbEntity
  8
0
100
AcDbLine
 10
-165.504643
 20
-297.560266
 30
0.0
 11
-165.504643
 21
-241.901984
 31
0.0
  0
LINE
  5
828
330
6B
100
AcDbEntity
  8
0
100
AcDbLine
 10
-90.554673
 20
-296.636911
 30
0.0
 11
-90.554673
 21
-241.901984
 31
0.0
  0
LINE
  5
829
330
6B
100
AcDbEntity
  8
0
100
AcDbLine
 10
-163.004643
 20
-243.151984
 30
0.0
 11
-93.054673
 21
-243.151984
 31
0.0
  0
LINE
  5
82D
330
6B
100
AcDbEntity
  8
0
100
AcDbLine
 10
-163.640127
 20
-335.886911
 30
0.0
 11
-177.992977
 21
-335.886911
 31
0.0
  0
LINE
  5
82E
330
6B
100
AcDbEntity
  8
0
100
AcDbLine
 10
-137.690531
 20
-260.886911
 30
0.0
 11
-177.992977
 21
-260.886911
 31
0.0
  0
LINE
  5
82F
330
6B
100
AcDbEntity
  8
0
100
AcDbLine
 10
-176.742977
 20
-333.386911
 30
0.0
 11
-176.742977
 21
-263.386911
 31
0.0
  0
TEXT
  5
833
330
6B
100
AcDbEntity
  8
0
  6
Continuous
 62
     4
100
AcDbText
 10
38.24472000000004
 20
-235.772832
 30
0.0
 40
3.0
  1
6
 50
90.0
100
AcDbText
  0
LINE
  5
834
330
6B
100
AcDbEntity
  8
0
  6
ByBlock
 62
     0
370
    -2
100
AcDbLine
 10
38.19984750000001
 20
-231.222832
 30
0.0
 11
38.86972
 21
-228.722832
 31
0.0
  0
LINE
  5
835
330
6B
100
AcDbEntity
  8
0
  6
ByBlock
 62
     0
370
    -2
100
AcDbLine
 10
38.86972
 20
-228.722832
 30
0.0
 11
39.5395925
 21
-231.222832
 31
0.0
  0
LINE
  5
836
330
6B
100
AcDbEntity
  8
0
  6
ByBlock
 62
     0
370
    -2
100
AcDbLine
 10
38.86972
 20
-228.722832
 30
0.0
 11
38.86972
 21
-231.222832
 31
0.0
  0
LINE
  5
837
330
6B
100
AcDbEntity
  8
0
  6
ByBlock
 62
     0
370
    -2
100
AcDbLine
 10
39.5395925
 20
-238.322832
 30
0.0
 11
38.86972
 21
-240.822832
 31
0.0
  0
LINE
  5
838
330
6B
100
AcDbEntity
  8
0
  6
ByBlock
 62
     0
370
    -2
100
AcDbLine
 10
38.86972
 20
-240.822832
 30
0.0
 11
38.1998475
 21
-238.322832
 31
0.0
  0
LINE
  5
839
330
6B
100
AcDbEntity
  8
0
  6
ByBlock
 62
     0
370
    -2
100
AcDbLine
 10
38.86972
 20
-240.822832
 30
0.0
 11
38.86972
 21
-238.322832
 31
0.0
  0
TEXT
  5
83A
330
6B
100
AcDbEntity
  8
0
  6
Continuous
 62
     4
100
AcDbText
 10
49.59311999999999
 20
-255.643639
 30
0.0
 40
3.0
  1
\U+22057.5
100
AcDbText
  0
LINE
  5
83B
330
6B
100
AcDbEntity
  8
0
  6
ByBlock
 62
     0
370
    -2
100
AcDbLine
 10
59.09311999999999
 20
-255.5987665
 30
0.0
 11
61.59311999999999
 21
-256.268639
 31
0.0
  0
LINE
  5
83C
330
6B
100
AcDbEntity
  8
0
  6
ByBlock
 62
     0
370
    -2
100
AcDbLine
 10
61.59311999999999
 20
-256.268639
 30
0.0
 11
59.09311999999999
 21
-256.9385115
 31
0.0
  0
LINE
  5
83D
330
6B
100
AcDbEntity
  8
0
  6
ByBlock
 62
     0
370
    -2
100
AcDbLine
 10
61.59311999999999
 20
-256.268639
 30
0.0
 11
59.09311999999999
 21
-256.268639
 31
0.0
  0
LINE
  5
83E
330
6B
100
AcDbEntity
  8
0
  6
ByBlock
 62
     0
370
    -2
100
AcDbLine
 10
49.09311999999999
 20
-256.9385115
 30
0.0
 11
46.59311999999999
 21
-256.268639
 31
0.0
  0
LINE
  5
83F
330
6B
100
AcDbEntity
  8
0
  6
ByBlock
 62
     0
370
    -2
100
AcDbLine
 10
46.59311999999999
 20
-256.268639
 30
0.0
 11
49.09311999999999
 21
-255.5987665
 31
0.0
  0
LINE
  5
840
330
6B
100
AcDbEntity
  8
0
  6
ByBlock
 62
     0
370
    -2
100
AcDbLine
 10
46.59311999999999
 20
-256.268639
 30
0.0
 11
49.09311999999999
 21
-256.268639
 31
0.0
  0
TEXT
  5
841
330
6B
100
AcDbEntity
  8
0
  6
Continuous
 62
     4
100
AcDbText
 10
64.11812000000001
 20
-218.843982
 30
0.0
 40
3.0
  1
4.5
100
AcDbText
  0
LINE
  5
842
330
6B
100
AcDbEntity
  8
0
  6
ByBlock
 62
     0
370
    -2
100
AcDbLine
 10
60.99312
 20
-220.1388545
 30
0.0
 11
58.49312
 21
-219.468982
 31
0.0
  0
LINE
  5
843
330
6B
100
AcDbEntity
  8
0
  6
ByBlock
 62
     0
370
    -2
100
AcDbLine
 10
58.49312
 20
-219.468982
 30
0.0
 11
60.99312
 21
-218.7991095
 31
0.0
  0
LINE
  5
844
330
6B
100
AcDbEntity
  8
0
  6
ByBlock
 62
     0
370
    -2
100
AcDbLine
 10
58.49312
 20
-219.468982
 30
0.0
 11
60.99312
 21
-219.468982
 31
0.0
  0
LINE
  5
845
330
6B
100
AcDbEntity
  8
0
  6
ByBlock
 62
     0
370
    -2
100
AcDbLine
 10
47.19312
 20
-218.7991095
 30
0.0
 11
49.69312
 21
-219.468982
 31
0.0
  0
LINE
  5
846
330
6B
100
AcDbEntity
  8
0
  6
ByBlock
 62
     0
370
    -2
100
AcDbLine
 10
49.69312
 20
-219.468982
 30
0.0
 11
47.19312
 21
-220.1388545
 31
0.0
  0
LINE
  5
847
330
6B
100
AcDbEntity
  8
0
  6
ByBlock
 62
     0
370
    -2
100
AcDbLine
 10
49.69312
 20
-219.468982
 30
0.0
 11
47.19312
 21
-219.468982
 31
0.0
  0
TEXT
  5
848
330
6B
100
AcDbEntity
  8
0
  6
Continuous
 62
     4
100
AcDbText
 10
-48.11720899999995
 20
-289.919592
 30
0.0
 40
3.0
  1
3
 50
90.0
100
AcDbText
  0
LINE
  5
849
330
6B
100
AcDbEntity
  8
0
  6
ByBlock
 62
     0
370
    -2
100
AcDbLine
 10
-46.82233649999999
 20
-293.044592
 30
0.0
 11
-47.492209
 21
-295.544592
 31
0.0
  0
LINE
  5
84A
330
6B
100
AcDbEntity
  8
0
  6
ByBlock
 62
     0
370
    -2
100
AcDbLine
 10
-47.492209
 20
-295.544592
 30
0.0
 11
-48.1620815
 21
-293.044592
 31
0.0
  0
LINE
  5
84B
330
6B
100
AcDbEntity
  8
0
  6
ByBlock
 62
     0
370
    -2
100
AcDbLine
 10
-47.492209
 20
-295.544592
 30
0.0
 11
-47.492209
 21
-293.044592
 31
0.0
  0
LINE
  5
84C
330
6B
100
AcDbEntity
  8
0
  6
ByBlock
 62
     0
370
    -2
100
AcDbLine
 10
-48.1620815
 20
-301.0445919999999
 30
0.0
 11
-47.492209
 21
-298.544592
 31
0.0
  0
LINE
  5
84D
330
6B
100
AcDbEntity
  8
0
  6
ByBlock
 62
     0
370
    -2
100
AcDbLine
 10
-47.492209
 20
-298.544592
 30
0.0
 11
-46.8223365
 21
-301.0445919999999
 31
0.0
  0
LINE
  5
84E
330
6B
100
AcDbEntity
  8
0
  6
ByBlock
 62
     0
370
    -2
100
AcDbLine
 10
-47.492209
 20
-298.544592
 30
0.0
 11
-47.492209
 21
-301.0445919999999
 31
0.0
  0
TEXT
  5
84F
330
6B
100
AcDbEntity
  8
0
  6
Continuous
 62
     4
100
AcDbText
 10
-3.978273999999995
 20
-248.211617
 30
0.0
 40
3.0
  1
60
100
AcDbText
  0
LINE
  5
850
330
6B
100
AcDbEntity
  8
0
  6
ByBlock
 62
     0
370
    -2
100
AcDbLine
 10
25.77172600000001
 20
-248.1667445
 30
0.0
 11
28.27172600000001
 21
-248.836617
 31
0.0
  0
LINE
  5
851
330
6B
100
AcDbEntity
  8
0
  6
ByBlock
 62
     0
370
    -2
100
AcDbLine
 10
28.27172600000001
 20
-248.836617
 30
0.0
 11
25.77172600000001
 21
-249.5064895
 31
0.0
  0
LINE
  5
852
330
6B
100
AcDbEntity
  8
0
  6
ByBlock
 62
     0
370
    -2
100
AcDbLine
 10
28.27172600000001
 20
-248.836617
 30
0.0
 11
25.77172600000001
 21
-248.836617
 31
0.0
  0
LINE
  5
853
330
6B
100
AcDbEntity
  8
0
  6
ByBlock
 62
     0
370
    -2
100
AcDbLine
 10
-29.228274
 20
-249.5064895
 30
0.0
 11
-31.728274
 21
-248.836617
 31
0.0
  0
LINE
  5
854
330
6B
100
AcDbEntity
  8
0
  6
ByBlock
 62
     0
370
    -2
100
AcDbLine
 10
-31.728274
 20
-248.836617
 30
0.0
 11
-29.228274
 21
-248.1667445
 31
0.0
  0
LINE
  5
855
330
6B
100
AcDbEntity
  8
0
  6
ByBlock
 62
     0
370
    -2
100
AcDbLine
 10
-31.728274
 20
-248.836617
 30
0.0
 11
-29.228274
 21
-248.836617
 31
0.0
  0
TEXT
  5
856
330
6B
100
AcDbEntity
  8
0
  6
Continuous
 62
     4
100
AcDbText
 10
-131.9405309999999
 20
-252.331162
 30
0.0
 40
3.0
  1
\U+220545
100
AcDbText
  0
LINE
  5
857
330
6B
100
AcDbEntity
  8
0
  6
ByBlock
 62
     0
370
    -2
100
AcDbLine
 10
-107.908974
 20
-252.2862895
 30
0.0
 11
-105.408974
 21
-252.956162
 31
0.0
  0
LINE
  5
858
330
6B
100
AcDbEntity
  8
0
  6
ByBlock
 62
     0
370
    -2
100
AcDbLine
 10
-105.408974
 20
-252.956162
 30
0.0
 11
-107.908974
 21
-253.6260345
 31
0.0
  0
LINE
  5
859
330
6B
100
AcDbEntity
  8
0
  6
ByBlock
 62
     0
370
    -2
100
AcDbLine
 10
-105.408974
 20
-252.956162
 30
0.0
 11
-107.908974
 21
-252.956162
 31
0.0
  0
LINE
  5
85A
330
6B
100
AcDbEntity
  8
0
  6
ByBlock
 62
     0
370
    -2
100
AcDbLine
 10
-147.9720879999999
 20
-253.6260345
 30
0.0
 11
-150.4720879999999
 21
-252.956162
 31
0.0
  0
LINE
  5
85B
330
6B
100
AcDbEntity
  8
0
  6
ByBlock
 62
     0
370
    -2
100
AcDbLine
 10
-150.4720879999999
 20
-252.956162
 30
0.0
 11
-147.9720879999999
 21
-252.2862895
 31
0.0
  0
LINE
  5
85C
330
6B
100
AcDbEntity
  8
0
  6
ByBlock
 62
     0
370
    -2
100
AcDbLine
 10
-150.4720879999999
 20
-252.956162
 30
0.0
 11
-147.9720879999999
 21
-252.956162
 31
0.0
  0
TEXT
  5
85D
330
6B
100
AcDbEntity
  8
0
  6
Continuous
 62
     4
100
AcDbText
 10
-132.029658
 20
-242.526984
 30
0.0
 40
3.0
  1
\U+220576
100
AcDbText
  0
LINE
  5
85E
330
6B
100
AcDbEntity
  8
0
  6
ByBlock
 62
     0
370
    -2
100
AcDbLine
 10
-93.054673
 20
-242.4821115
 30
0.0
 11
-90.554673
 21
-243.151984
 31
0.0
  0
LINE
  5
85F
330
6B
100
AcDbEntity
  8
0
  6
ByBlock
 62
     0
370
    -2
100
AcDbLine
 10
-90.554673
 20
-243.151984
 30
0.0
 11
-93.054673
 21
-243.8218565
 31
0.0
  0
LINE
  5
860
330
6B
100
AcDbEntity
  8
0
  6
ByBlock
 62
     0
370
    -2
100
AcDbLine
 10
-90.554673
 20
-243.151984
 30
0.0
 11
-93.054673
 21
-243.151984
 31
0.0
  0
LINE
  5
861
330
6B
100
AcDbEntity
  8
0
  6
ByBlock
 62
     0
370
    -2
100
AcDbLine
 10
-163.004643
 20
-243.8218565
 30
0.0
 11
-165.504643
 21
-243.151984
 31
0.0
  0
LINE
  5
862
330
6B
100
AcDbEntity
  8
0
  6
ByBlock
 62
     0
370
    -2
100
AcDbLine
 10
-165.504643
 20
-243.151984
 30
0.0
 11
-163.004643
 21
-242.4821115
 31
0.0
  0
LINE
  5
863
330
6B
100
AcDbEntity
  8
0
  6
ByBlock
 62
     0
370
    -2
100
AcDbLine
 10
-165.504643
 20
-243.151984
 30
0.0
 11
-163.004643
 21
-243.151984
 31
0.0
  0
TEXT
  5
864
330
6B
100
AcDbEntity
  8
0
  6
Continuous
 62
     4
100
AcDbText
 10
-177.367977
 20
-300.886911
 30
0.0
 40
3.0
  1
75
 50
90.0
100
AcDbText
  0
LINE
  5
865
330
6B
100
AcDbEntity
  8
0
  6
ByBlock
 62
     0
370
    -2
100
AcDbLine
 10
-177.4128495
 20
-263.386911
 30
0.0
 11
-176.742977
 21
-260.886911
 31
0.0
  0
LINE
  5
866
330
6B
100
AcDbEntity
  8
0
  6
ByBlock
 62
     0
370
    -2
100
AcDbLine
 10
-176.742977
 20
-260.886911
 30
0.0
 11
-176.0731045
 21
-263.386911
 31
0.0
  0
LINE
  5
867
330
6B
100
AcDbEntity
  8
0
  6
ByBlock
 62
     0
370
    -2
100
AcDbLine
 10
-176.742977
 20
-260.886911
 30
0.0
 11
-176.742977
 21
-263.386911
 31
0.0
  0
LINE
  5
868
330
6B
100
AcDbEntity
  8
0
  6
ByBlock
 62
     0
370
    -2
100
AcDbLine
 10
-176.0731045
 20
-333.386911
 30
0.0
 11
-176.742977
 21
-335.886911
 31
0.0
  0
LINE
  5
869
330
6B
100
AcDbEntity
  8
0
  6
ByBlock
 62
     0
370
    -2
100
AcDbLine
 10
-176.742977
 20
-335.886911
 30
0.0
 11
-177.4128495
 21
-333.386911
 31
0.0
  0
LINE
  5
86A
330
6B
100
AcDbEntity
  8
0
  6
ByBlock
 62
     0
370
    -2
100
AcDbLine
 10
-176.742977
 20
-335.886911
 30
0.0
 11
-176.742977
 21
-333.386911
 31
0.0
  0
ENDSEC
  0
SECTION
  2
OBJECTS
  0
DICTIONARY
  5
C
330
0
100
AcDbDictionary
281
     1
  3
ACAD_2007HEADERVARS_RT
350
86E
  3
ACAD_COLOR
350
62
  3
ACAD_GROUP
350
D
  3
ACAD_LAYOUT
350
61
  3
ACAD_MATERIAL
350
10
  3
ACAD_MLEADERSTYLE
350
65
  3
ACAD_MLINESTYLE
350
5E
  3
ACAD_PLOTSETTINGS
350
60
  3
ACAD_PLOTSTYLENAME
350
E
  3
ACAD_SCALELIST
350
42
  3
ACAD_TABLESTYLE
350
63
  3
ACAD_VISUALSTYLE
350
29
  3
ACDB_RECOMPOSE_DATA
350
86C
  3
AcDbVariableDictionary
350
617
  3
DWGPROPS
350
86D
  0
DICTIONARY
  5
38C
330
2
100
AcDbDictionary
280
     1
281
     1
  3
ACAD_LAYERSTATES
360
38D
  0
DICTIONARY
  5
615
330
54
100
AcDbDictionary
280
     1
281
     1
  3
ADSK_XREC_LAYER_RECONCILED
360
616
  0
DICTIONARY
  5
5BB
330
6B
100
AcDbDictionary
280
     1
281
     1
  3
ACAD_SORTENTS
360
5BC
  0
DICTIONARY
  5
86E
102
{ACAD_REACTORS
330
C
102
}
330
C
100
AcDbDictionary
281
     1
  3
DIMARCSYM
350
870
  3
DIMFXL
350
86F
  3
DIMJOGANG
350
871
  0
DICTIONARY
  5
62
102
{ACAD_REACTORS
330
C
102
}
330
C
100
AcDbDictionary
281
     1
  0
DICTIONARY
  5
D
102
{ACAD_REACTORS
330
C
102
}
330
C
100
AcDbDictionary
281
     1
  0
DICTIONARY
  5
61
102
{ACAD_REACTORS
330
C
102
}
330
C
100
AcDbDictionary
281
     1
  3
Model
350
6E
  3
レイアウト1
350
6A
  0
DICTIONARY
  5
10
102
{ACAD_REACTORS
330
C
102
}
330
C
100
AcDbDictionary
281
     1
  3
ByBlock
350
19
  3
ByLayer
350
11
  3
Global
350
21
  0
DICTIONARY
  5
65
102
{ACAD_REACTORS
330
C
102
}
330
C
100
AcDbDictionary
281
     1
  3
Standard
350
66
  0
DICTIONARY
  5
5E
102
{ACAD_REACTORS
330
C
102
}
330
C
100
AcDbDictionary
281
     1
  3
Standard
350
5F
  0
DICTIONARY
  5
60
102
{ACAD_REACTORS
330
C
102
}
330
C
100
AcDbDictionary
281
     1
  0
ACDBDICTIONARYWDFLT
  5
E
102
{ACAD_REACTORS
330
C
102
}
330
C
100
AcDbDictionary
281
     1
  3
Normal
350
F
100
AcDbDictionaryWithDefault
340
F
  0
DICTIONARY
  5
42
102
{ACAD_REACTORS
330
C
102
}
330
C
100
AcDbDictionary
281
     1
  3
A0
350
43
  3
A1
350
44
  3
A2
350
45
  3
A3
350
46
  3
A4
350
47
  3
A5
350
48
  3
A6
350
49
  3
A7
350
4A
  3
A8
350
4B
  3
A9
350
4C
  3
B0
350
4D
  3
B1
350
4E
  3
B2
350
4F
  3
B3
350
50
  3
B4
350
51
  3
B5
350
52
  3
B6
350
53
  0
DICTIONARY
  5
63
102
{ACAD_REACTORS
330
C
102
}
330
C
100
AcDbDictionary
281
     1
  3
Standard
350
64
  0
DICTIONARY
  5
29
102
{ACAD_REACTORS
330
C
102
}
330
C
100
AcDbDictionary
281
     1
  3
2dWireframe
350
2F
  3
3D Hidden
350
6F4
  3
3dWireframe
350
389
  3
Basic
350
2E
  3
Brighten
350
35
  3
ColorChange
350
39
  3
Conceptual
350
32
  3
Dim
350
34
  3
EdgeColorOff
350
41
  3
Facepattern
350
38
  3
Flat
350
2A
  3
FlatWithEdges
350
2B
  3
Gouraud
350
2C
  3
GouraudWithEdges
350
2D
  3
Hidden
350
31
  3
JitterOff
350
3F
  3
Linepattern
350
37
  3
OverhangOff
350
40
  3
Realistic
350
33
  3
Shaded
350
3E
  3
Shaded with edges
350
3D
  3
Shades of Gray
350
3A
  3
Sketchy
350
3B
  3
Thicken
350
36
  3
Wireframe
350
30
  3
X-Ray
350
3C
  0
XRECORD
  5
86C
102
{ACAD_REACTORS
330
C
102
}
330
C
100
AcDbXrecord
280
     1
 90
        1
330
64
  0
DICTIONARY
  5
617
102
{ACAD_REACTORS
330
C
102
}
330
C
100
AcDbDictionary
281
     1
  3
CANNOSCALE
350
61A
  3
CMLEADERSTYLE
350
619
  3
CTABLESTYLE
350
618
  3
DIMASSOC
350
61D
  3
INDEXCTL
350
61C
  3
SORTENTS
350
61B
  3
XCLIPFRAME
350
7AC
  0
XRECORD
  5
86D
102
{ACAD_REACTORS
330
C
102
}
330
C
100
AcDbXrecord
280
     1
  1
DWGPROPS COOKIE
  2

  3

  4

  6

  7

  8
imamura
  9

300
=
301
=
302
=
303
=
304
=
305
=
306
=
307
=
308
=
309
=
 40
0.0163007407407408
 41
2456338.866688773
 42
2459858.559467975
  1

 90
        0
  0
DICTIONARY
  5
38D
102
{ACAD_REACTORS
330
38C
102
}
330
38C
100
AcDbDictionary
281
     1
  0
XRECORD
  5
616
102
{ACAD_REACTORS
330
615
102
}
330
615
100
AcDbXrecord
280
     1
290
     1
  0
SORTENTSTABLE
  5
5BC
102
{ACAD_REACTORS
330
5BB
102
}
330
5BB
100
AcDbSortentsTable
330
6B
331
3D5
  5
866
331
3D1
  5
862
331
805
  5
184
331
801
  5
190
331
7FD
  5
268
331
7F9
  5
272
331
86A
  5
10C
331
2AE
  5
81F
331
866
  5
114
331
2AA
  5
81B
331
862
  5
125
331
234
  5
2B6
331
1BE
  5
256
331
3C5
  5
856
331
2A6
  5
817
331
26F
  5
3CD
331
230
  5
2B2
331
1BA
  5
252
331
3C1
  5
852
331
2A2
  5
813
331
26B
  5
3C9
331
22C
  5
2AE
331
1F5
  5
280
331
1B6
  5
24E
331
17F
  5
213
331
140
  5
1B7
331
228
  5
2AA
331
1B2
  5
24A
331
17B
  5
20F
331
138
  5
1B5
331
3CD
  5
85E
331
3C9
  5
85A
331
7F5
  5
27C
331
2E0
  5
84E
331
7F1
  5
286
331
7ED
  5
831
331
828
  5
11F
331
85E
  5
127
331
85A
  5
155
331
2DD
  5
84B
331
856
  5
161
331
29E
  5
80F
331
267
  5
3C5
331
2D9
  5
847
331
852
  5
16A
331
29A
  5
80B
331
263
  5
3C1
331
224
  5
2A6
331
1ED
  5
27B
331
1AE
  5
246
331
177
  5
20B
331
2D5
  5
843
331
296
  5
807
331
25F
  5
2E0
331
220
  5
2A2
331
1AA
  5
242
331
173
  5
1FD
331
124
  5
1B1
331
2D1
  5
83F
331
292
  5
803
331
25B
  5
2DE
331
21C
  5
29E
331
1E5
  5
276
331
1A6
  5
23E
331
16F
  5
1F4
331
120
  5
1AD
331
218
  5
29A
331
1A2
  5
236
331
16B
  5
1EB
331
11C
  5
1A9
331
7AA
  5
86A
331
81C
  5
163
331
84E
  5
173
331
84A
  5
175
331
2CD
  5
83B
331
846
  5
17E
331
28E
  5
7FF
331
257
  5
2DA
331
2C9
  5
837
331
842
  5
180
331
28A
  5
7FB
331
253
  5
2D6
331
214
  5
296
331
1DD
  5
271
331
19E
  5
232
331
167
  5
1DD
331
2C5
  5
833
331
286
  5
7F7
331
24F
  5
2D2
331
210
  5
292
331
19A
  5
22E
331
163
  5
1D4
331
114
  5
1A5
331
282
  5
7F3
331
24B
  5
2CE
331
20C
  5
28E
331
1D5
  5
26C
331
196
  5
22A
331
15F
  5
1CB
331
110
  5
1A4
331
192
  5
226
331
15B
  5
1C7
331
10C
  5
1A0
331
108
  5
19C
331
814
  5
16D
331
80C
  5
179
331
83E
  5
187
331
83A
  5
18D
331
2BD
  5
82E
331
836
  5
196
331
27E
  5
7EF
331
247
  5
2CA
331
2B9
  5
82A
331
27A
  5
7A9
331
243
  5
2C6
331
204
  5
289
331
1CD
  5
267
331
18E
  5
222
331
157
  5
1C3
331
2B5
  5
826
331
276
  5
3D4
331
23F
  5
2BD
331
1C9
  5
263
331
18A
  5
21E
331
153
  5
1BF
331
2B1
  5
822
331
272
  5
3D0
331
1FC
  5
284
331
1C5
  5
25F
331
186
  5
21A
331
14F
  5
1BB
331
1C1
  5
259
331
182
  5
216
331
104
  5
199
331
3D4
  5
865
331
3D0
  5
861
331
800
  5
18F
331
7FC
  5
26E
331
7F8
  5
278
331
869
  5
10B
331
2AD
  5
81E
331
865
  5
110
331
237
  5
2B9
331
2A9
  5
81A
331
861
  5
124
331
233
  5
2B5
331
1BD
  5
255
331
3C4
  5
855
331
2A5
  5
816
331
26E
  5
3CC
331
22F
  5
2B1
331
1B9
  5
251
331
2A1
  5
812
331
26A
  5
3C8
331
22B
  5
2AD
331
1F4
  5
27F
331
1B5
  5
24D
331
17E
  5
212
331
1B1
  5
249
331
17A
  5
20E
331
3CC
  5
85D
331
3C8
  5
859
331
2E3
  5
851
331
7F4
  5
282
331
7F0
  5
28C
331
82F
  5
106
331
85D
  5
14E
331
859
  5
160
331
2DC
  5
84A
331
855
  5
167
331
29D
  5
80E
331
266
  5
3C4
331
227
  5
2A9
331
2D8
  5
846
331
851
  5
169
331
299
  5
80A
331
262
  5
2E3
331
223
  5
2A5
331
1EC
  5
27A
331
1AD
  5
245
331
176
  5
205
331
127
  5
1B4
331
2D4
  5
842
331
295
  5
806
331
21F
  5
2A1
331
1A9
  5
241
331
172
  5
1FC
331
123
  5
1B0
331
2D0
  5
83E
331
291
  5
802
331
25A
  5
2DD
331
21B
  5
29D
331
1E4
  5
275
331
1A5
  5
239
331
16E
  5
1F3
331
11F
  5
1AC
331
1A1
  5
235
331
16A
  5
1E5
331
11B
  5
1A8
331
827
  5
11E
331
7A9
  5
869
331
823
  5
154
331
81B
  5
162
331
84D
  5
172
331
849
  5
174
331
2CC
  5
83A
331
845
  5
17D
331
28D
  5
7FE
331
256
  5
2D9
331
217
  5
299
331
2C8
  5
836
331
841
  5
183
331
289
  5
7FA
331
252
  5
2D5
331
213
  5
295
331
1DC
  5
270
331
19D
  5
231
331
166
  5
1DC
331
285
  5
7F6
331
24E
  5
2D1
331
20F
  5
291
331
199
  5
22D
331
162
  5
1D3
331
281
  5
7F2
331
24A
  5
2CD
331
20B
  5
28D
331
1D4
  5
26B
331
195
  5
229
331
15E
  5
1CA
331
10F
  5
1A3
331
191
  5
225
331
15A
  5
1C6
331
10B
  5
19F
331
817
  5
170
331
813
  5
16C
331
80F
  5
17C
331
80B
  5
178
331
83D
  5
18C
331
839
  5
193
331
2BC
  5
82D
331
835
  5
195
331
27D
  5
7EE
331
246
  5
2C9
331
2B8
  5
829
331
279
  5
7A8
331
242
  5
2C5
331
203
  5
288
331
1CC
  5
266
331
18D
  5
221
331
156
  5
1C2
331
2B4
  5
825
331
275
  5
3D3
331
23E
  5
2BC
331
1C8
  5
262
331
189
  5
21D
331
152
  5
1BE
331
2B0
  5
821
331
271
  5
3CF
331
1FB
  5
283
331
1C4
  5
25C
331
185
  5
219
331
14E
  5
1BA
331
107
  5
19B
331
1C0
  5
258
331
181
  5
215
331
3D3
  5
864
331
807
  5
186
331
7FF
  5
18E
331
7FB
  5
26D
331
868
  5
10A
331
2AC
  5
81D
331
864
  5
11D
331
236
  5
2B8
331
3C7
  5
858
331
860
  5
14D
331
2A8
  5
819
331
232
  5
2B4
331
1BC
  5
254
331
146
  5
1B8
331
3C3
  5
854
331
2A4
  5
815
331
26D
  5
3CB
331
22E
  5
2B0
331
1B8
  5
250
331
2A0
  5
811
331
269
  5
3C7
331
22A
  5
2AC
331
1F3
  5
27E
331
1B4
  5
24C
331
17D
  5
211
331
1B0
  5
248
331
179
  5
20D
331
13A
  5
1B6
331
3CF
  5
860
331
3CB
  5
85C
331
7F7
  5
277
331
2E2
  5
850
331
7F3
  5
281
331
7EF
  5
28B
331
82E
  5
104
331
85C
  5
15A
331
2DF
  5
84D
331
858
  5
15C
331
2DB
  5
849
331
854
  5
166
331
29C
  5
80D
331
265
  5
3C3
331
226
  5
2A8
331
2D7
  5
845
331
850
  5
168
331
298
  5
809
331
261
  5
2E2
331
222
  5
2A4
331
1EB
  5
279
331
1AC
  5
244
331
175
  5
204
331
126
  5
1B3
331
2D3
  5
841
331
294
  5
805
331
21E
  5
2A0
331
1A8
  5
240
331
171
  5
1FB
331
122
  5
1AF
331
290
  5
801
331
259
  5
2DC
331
21A
  5
29C
331
1E3
  5
274
331
1A4
  5
238
331
16D
  5
1ED
331
11E
  5
1AB
331
1A0
  5
234
331
169
  5
1E4
331
11A
  5
1A7
331
7A8
  5
868
331
822
  5
150
331
84C
  5
171
331
2CF
  5
83D
331
848
  5
177
331
2CB
  5
839
331
844
  5
182
331
28C
  5
7FD
331
255
  5
2D8
331
216
  5
298
331
2C7
  5
835
331
840
  5
189
331
288
  5
7F9
331
251
  5
2D4
331
212
  5
294
331
1DB
  5
26F
331
19C
  5
230
331
165
  5
1DB
331
284
  5
7F5
331
24D
  5
2D0
331
20E
  5
290
331
198
  5
22C
331
161
  5
1CD
331
280
  5
7F1
331
249
  5
2CC
331
1D3
  5
26A
331
194
  5
228
331
15D
  5
1C9
331
10E
  5
1A2
331
190
  5
224
331
159
  5
1C5
331
10A
  5
19E
331
816
  5
16F
331
80E
  5
17B
331
83C
  5
18B
331
2BF
  5
830
331
838
  5
192
331
2BB
  5
82C
331
834
  5
194
331
27C
  5
7ED
331
245
  5
2C8
331
2B7
  5
828
331
278
  5
7A7
331
241
  5
2BF
331
1CB
  5
265
331
18C
  5
220
331
155
  5
1C1
331
2B3
  5
824
331
274
  5
3D2
331
1C7
  5
261
331
188
  5
21C
331
151
  5
1BD
331
270
  5
3CE
331
239
  5
2BB
331
1C3
  5
25B
331
184
  5
218
331
14D
  5
1B9
331
106
  5
19A
331
180
  5
214
331
102
  5
198
331
3D2
  5
863
331
806
  5
185
331
7FE
  5
269
331
7FA
  5
273
331
2AF
  5
820
331
867
  5
115
331
2AB
  5
81C
331
863
  5
126
331
235
  5
2B7
331
1BF
  5
257
331
3C6
  5
857
331
2A7
  5
818
331
231
  5
2B3
331
1BB
  5
253
331
3C2
  5
853
331
2A3
  5
814
331
26C
  5
3CA
331
22D
  5
2AF
331
1B7
  5
24F
331
268
  5
3C6
331
229
  5
2AB
331
1B3
  5
24B
331
17C
  5
210
331
178
  5
20C
331
3CE
  5
85F
331
3CA
  5
85B
331
7F6
  5
27D
331
2E1
  5
84F
331
7F2
  5
287
331
7EE
  5
832
331
82D
  5
102
331
829
  5
123
331
85F
  5
146
331
85B
  5
156
331
2DE
  5
84C
331
857
  5
15B
331
29F
  5
810
331
2DA
  5
848
331
853
  5
165
331
29B
  5
80C
331
264
  5
3C2
331
225
  5
2A7
331
1AF
  5
247
331
2D6
  5
844
331
297
  5
808
331
260
  5
2E1
331
221
  5
2A3
331
1AB
  5
243
331
174
  5
203
331
125
  5
1B2
331
2D2
  5
840
331
293
  5
804
331
25C
  5
2DF
331
21D
  5
29F
331
1A7
  5
23F
331
170
  5
1F5
331
121
  5
1AE
331
258
  5
2DB
331
219
  5
29B
331
1A3
  5
237
331
16C
  5
1EC
331
11D
  5
1AA
331
168
  5
1E3
331
821
  5
14F
331
81D
  5
164
331
84F
  5
16B
331
84B
  5
176
331
2CE
  5
83C
331
847
  5
17F
331
28F
  5
800
331
2CA
  5
838
331
843
  5
181
331
28B
  5
7FC
331
254
  5
2D7
331
215
  5
297
331
19F
  5
233
331
2C6
  5
834
331
287
  5
7F8
331
250
  5
2D3
331
211
  5
293
331
19B
  5
22F
331
164
  5
1D5
331
115
  5
1A6
331
283
  5
7F4
331
24C
  5
2CF
331
20D
  5
28F
331
197
  5
22B
331
160
  5
1CC
331
248
  5
2CB
331
193
  5
227
331
15C
  5
1C8
331
10D
  5
1A1
331
158
  5
1C4
331
109
  5
19D
331
7A7
  5
867
331
815
  5
16E
331
80D
  5
17A
331
83F
  5
188
331
83B
  5
18A
331
2BE
  5
82F
331
837
  5
191
331
27F
  5
7F0
331
2BA
  5
82B
331
833
  5
197
331
27B
  5
7AA
331
244
  5
2C7
331
205
  5
28A
331
18F
  5
223
331
2B6
  5
827
331
277
  5
3D5
331
240
  5
2BE
331
1CA
  5
264
331
18B
  5
21F
331
154
  5
1C0
331
2B2
  5
823
331
273
  5
3D1
331
1FD
  5
285
331
1C6
  5
260
331
187
  5
21B
331
150
  5
1BC
331
238
  5
2BA
331
1C2
  5
25A
331
183
  5
217
  0
XRECORD
  5
870
102
{ACAD_REACTORS
330
86E
102
}
330
86E
100
AcDbXrecord
280
     1
 70
     2
  0
XRECORD
  5
86F
102
{ACAD_REACTORS
330
86E
102
}
330
86E
100
AcDbXrecord
280
     1
 40
1.25
  0
XRECORD
  5
871
102
{ACAD_REACTORS
330
86E
102
}
330
86E
100
AcDbXrecord
280
     1
 40
1.570796326794896
  0
LAYOUT
  5
6E
102
{ACAD_XDICTIONARY
360
8A5
102
}
102
{ACAD_REACTORS
330
61
102
}
330
61
100
AcDbPlotSettings
  1

  2
FX DP 205
  4

  6

 40
0.0
 41
0.0
 42
0.0
 43
0.0
 44
0.0
 45
0.0
 46
0.0
 47
0.0
 48
0.0
 49
0.0
140
0.0
141
0.0
142
1.0
143
1.0
 70
  1712
 72
     0
 73
     0
 74
     0
  7

 75
     0
147
1.0
148
0.0
149
0.0
100
AcDbLayout
  1
Model
 70
     1
 71
     0
 10
0.0
 20
0.0
 11
12.0
 21
9.0
 12
0.0
 22
0.0
 32
0.0
 14
0.0
 24
0.0
 34
0.0
 15
0.0
 25
0.0
 35
0.0
146
0.0
 13
0.0
 23
0.0
 33
0.0
 16
1.0
 26
0.0
 36
0.0
 17
0.0
 27
1.0
 37
0.0
 76
     0
330
6B
331
8B
  0
LAYOUT
  5
6A
102
{ACAD_XDICTIONARY
360
8A3
102
}
102
{ACAD_REACTORS
330
61
102
}
330
61
100
AcDbPlotSettings
  1

  2
FX DP 205
  4

  6

 40
0.0
 41
0.0
 42
0.0
 43
0.0
 44
0.0
 45
0.0
 46
0.0
 47
0.0
 48
0.0
 49
0.0
140
0.0
141
0.0
142
1.0
143
1.0
 70
   688
 72
     0
 73
     0
 74
     5
  7

 75
    16
147
1.0
148
0.0
149
0.0
100
AcDbLayout
  1
レイアウト1
 70
     1
 71
     1
 10
0.0
 20
0.0
 11
12.0
 21
9.0
 12
0.0
 22
0.0
 32
0.0
 14
1.000000000000000E+20
 24
1.000000000000000E+20
 34
1.000000000000000E+20
 15
-1.000000000000000E+20
 25
-1.000000000000000E+20
 35
-1.000000000000000E+20
146
0.0
 13
0.0
 23
0.0
 33
0.0
 16
1.0
 26
0.0
 36
0.0
 17
0.0
 27
1.0
 37
0.0
 76
     0
330
67
  0
MATERIAL
  5
19
102
{ACAD_XDICTIONARY
360
1A
102
}
102
{ACAD_REACTORS
330
10
102
}
330
10
100
AcDbMaterial
  1
ByBlock
 72
     0
 43
0.0208333333333333
 43
0.0
 43
0.0
 43
0.0
 43
0.0
 43
0.0208333333333333
 43
0.0
 43
0.0
 43
0.0
 43
0.0
 43
1.0
 43
0.0
 43
0.0
 43
0.0
 43
0.0
 43
1.0
 77
     0
 47
0.0208333333333333
 47
0.0
 47
0.0
 47
0.0
 47
0.0
 47
0.0208333333333333
 47
0.0
 47
0.0
 47
0.0
 47
0.0
 47
1.0
 47
0.0
 47
0.0
 47
0.0
 47
0.0
 47
1.0
171
     0
 49
0.0208333333333333
 49
0.0
 49
0.0
 49
0.0
 49
0.0
 49
0.0208333333333333
 49
0.0
 49
0.0
 49
0.0
 49
0.0
 49
1.0
 49
0.0
 49
0.0
 49
0.0
 49
0.0
 49
1.0
175
     0
142
0.0208333333333333
142
0.0
142
0.0
142
0.0
142
0.0
142
0.0208333333333333
142
0.0
142
0.0
142
0.0
142
0.0
142
1.0
142
0.0
142
0.0
142
0.0
142
0.0
142
1.0
179
     0
144
0.0208333333333333
144
0.0
144
0.0
144
0.0
144
0.0
144
0.0208333333333333
144
0.0
144
0.0
144
0.0
144
0.0
144
1.0
144
0.0
144
0.0
144
0.0
144
0.0
144
1.0
147
0.0208333333333333
147
0.0
147
0.0
147
0.0
147
0.0
147
0.0208333333333333
147
0.0
147
0.0
147
0.0
147
0.0
147
1.0
147
0.0
147
0.0
147
0.0
147
0.0
147
1.0
  0
MATERIAL
  5
11
102
{ACAD_XDICTIONARY
360
12
102
}
102
{ACAD_REACTORS
330
10
102
}
330
10
100
AcDbMaterial
  1
ByLayer
 72
     0
 43
0.0208333333333333
 43
0.0
 43
0.0
 43
0.0
 43
0.0
 43
0.0208333333333333
 43
0.0
 43
0.0
 43
0.0
 43
0.0
 43
1.0
 43
0.0
 43
0.0
 43
0.0
 43
0.0
 43
1.0
 77
     0
 47
0.0208333333333333
 47
0.0
 47
0.0
 47
0.0
 47
0.0
 47
0.0208333333333333
 47
0.0
 47
0.0
 47
0.0
 47
0.0
 47
1.0
 47
0.0
 47
0.0
 47
0.0
 47
0.0
 47
1.0
171
     0
 49
0.0208333333333333
 49
0.0
 49
0.0
 49
0.0
 49
0.0
 49
0.0208333333333333
 49
0.0
 49
0.0
 49
0.0
 49
0.0
 49
1.0
 49
0.0
 49
0.0
 49
0.0
 49
0.0
 49
1.0
175
     0
142
0.0208333333333333
142
0.0
142
0.0
142
0.0
142
0.0
142
0.0208333333333333
142
0.0
142
0.0
142
0.0
142
0.0
142
1.0
142
0.0
142
0.0
142
0.0
142
0.0
142
1.0
179
     0
144
0.0208333333333333
144
0.0
144
0.0
144
0.0
144
0.0
144
0.0208333333333333
144
0.0
144
0.0
144
0.0
144
0.0
144
1.0
144
0.0
144
0.0
144
0.0
144
0.0
144
1.0
147
0.0208333333333333
147
0.0
147
0.0
147
0.0
147
0.0
147
0.0208333333333333
147
0.0
147
0.0
147
0.0
147
0.0
147
1.0
147
0.0
147
0.0
147
0.0
147
0.0
147
1.0
  0
MATERIAL
  5
21
102
{ACAD_XDICTIONARY
360
22
102
}
102
{ACAD_REACTORS
330
10
102
}
330
10
100
AcDbMaterial
  1
Global
 72
     0
 43
0.0208333333333333
 43
0.0
 43
0.0
 43
0.0
 43
0.0
 43
0.0208333333333333
 43
0.0
 43
0.0
 43
0.0
 43
0.0
 43
1.0
 43
0.0
 43
0.0
 43
0.0
 43
0.0
 43
1.0
 77
     0
 47
0.0208333333333333
 47
0.0
 47
0.0
 47
0.0
 47
0.0
 47
0.0208333333333333
 47
0.0
 47
0.0
 47
0.0
 47
0.0
 47
1.0
 47
0.0
 47
0.0
 47
0.0
 47
0.0
 47
1.0
171
     0
 49
0.0208333333333333
 49
0.0
 49
0.0
 49
0.0
 49
0.0
 49
0.0208333333333333
 49
0.0
 49
0.0
 49
0.0
 49
0.0
 49
1.0
 49
0.0
 49
0.0
 49
0.0
 49
0.0
 49
1.0
175
     0
142
0.0208333333333333
142
0.0
142
0.0
142
0.0
142
0.0
142
0.0208333333333333
142
0.0
142
0.0
142
0.0
142
0.0
142
1.0
142
0.0
142
0.0
142
0.0
142
0.0
142
1.0
179
     0
144
0.0208333333333333
144
0.0
144
0.0
144
0.0
144
0.0
144
0.0208333333333333
144
0.0
144
0.0
144
0.0
144
0.0
144
1.0
144
0.0
144
0.0
144
0.0
144
0.0
144
1.0
147
0.0208333333333333
147
0.0
147
0.0
147
0.0
147
0.0
147
0.0208333333333333
147
0.0
147
0.0
147
0.0
147
0.0
147
1.0
147
0.0
147
0.0
147
0.0
147
0.0
147
1.0
  0
MLEADERSTYLE
  5
66
102
{ACAD_REACTORS
330
65
102
}
330
65
100
AcDbMLeaderStyle
170
     2
171
     1
172
     0
 90
        2
 40
0.0
 41
0.0
173
     1
 91
-1056964608
340
5A
 92
       -2
290
     1
 42
0.09
291
     1
 43
0.36
  3
Standard
 44
0.18
300

342
55
174
     1
178
     6
175
     1
176
     0
 93
-1056964608
 45
0.18
292
     0
297
     0
 46
0.18
 94
-1056964608
 47
1.0
 49
1.0
140
1.0
293
     1
141
0.0
294
     1
177
     0
142
1.0
295
     0
296
     0
143
0.125
1001
ACAD
1000
AcRTDxfName
1000
MLEADERSTYLE
1001
ACAD_MLEADERVER
1070
     2
  0
MLINESTYLE
  5
5F
102
{ACAD_REACTORS
330
5E
102
}
330
5E
100
AcDbMlineStyle
  2
STANDARD
 70
     0
  3

 62
   256
 51
90.0
 52
90.0
 71
     2
 49
0.5
 62
   256
  6
BYLAYER
 49
-0.5
 62
   256
  6
BYLAYER
  0
ACDBPLACEHOLDER
  5
F
102
{ACAD_REACTORS
330
E
102
}
330
E
  0
SCALE
  5
43
102
{ACAD_REACTORS
330
42
102
}
330
42
100
AcDbScale
 70
     0
300
1:1
140
1.0
141
1.0
290
     1
1001
ACAD
1000
AcRTDxfName
1000
SCALE
  0
SCALE
  5
44
102
{ACAD_REACTORS
330
42
102
}
330
42
100
AcDbScale
 70
     0
300
1/128" = 1'-0"
140
0.0078125
141
12.0
290
     0
1001
ACAD
1000
AcRTDxfName
1000
SCALE
  0
SCALE
  5
45
102
{ACAD_REACTORS
330
42
102
}
330
42
100
AcDbScale
 70
     0
300
1/64" = 1'-0"
140
0.015625
141
12.0
290
     0
1001
ACAD
1000
AcRTDxfName
1000
SCALE
  0
SCALE
  5
46
102
{ACAD_REACTORS
330
42
102
}
330
42
100
AcDbScale
 70
     0
300
1/32" = 1'-0"
140
0.03125
141
12.0
290
     0
1001
ACAD
1000
AcRTDxfName
1000
SCALE
  0
SCALE
  5
47
102
{ACAD_REACTORS
330
42
102
}
330
42
100
AcDbScale
 70
     0
300
1/16" = 1'-0"
140
0.0625
141
12.0
290
     0
1001
ACAD
1000
AcRTDxfName
1000
SCALE
  0
SCALE
  5
48
102
{ACAD_REACTORS
330
42
102
}
330
42
100
AcDbScale
 70
     0
300
3/32" = 1'-0"
140
0.09375
141
12.0
290
     0
1001
ACAD
1000
AcRTDxfName
1000
SCALE
  0
SCALE
  5
49
102
{ACAD_REACTORS
330
42
102
}
330
42
100
AcDbScale
 70
     0
300
1/8" = 1'-0"
140
0.125
141
12.0
290
     0
1001
ACAD
1000
AcRTDxfName
1000
SCALE
  0
SCALE
  5
4A
102
{ACAD_REACTORS
330
42
102
}
330
42
100
AcDbScale
 70
     0
300
3/16" = 1'-0"
140
0.1875
141
12.0
290
     0
1001
ACAD
1000
AcRTDxfName
1000
SCALE
  0
SCALE
  5
4B
102
{ACAD_REACTORS
330
42
102
}
330
42
100
AcDbScale
 70
     0
300
1/4" = 1'-0"
140
0.25
141
12.0
290
     0
1001
ACAD
1000
AcRTDxfName
1000
SCALE
  0
SCALE
  5
4C
102
{ACAD_REACTORS
330
42
102
}
330
42
100
AcDbScale
 70
     0
300
3/8" = 1'-0"
140
0.375
141
12.0
290
     0
1001
ACAD
1000
AcRTDxfName
1000
SCALE
  0
SCALE
  5
4D
102
{ACAD_REACTORS
330
42
102
}
330
42
100
AcDbScale
 70
     0
300
1/2" = 1'-0"
140
0.5
141
12.0
290
     0
1001
ACAD
1000
AcRTDxfName
1000
SCALE
  0
SCALE
  5
4E
102
{ACAD_REACTORS
330
42
102
}
330
42
100
AcDbScale
 70
     0
300
3/4" = 1'-0"
140
0.75
141
12.0
290
     0
1001
ACAD
1000
AcRTDxfName
1000
SCALE
  0
SCALE
  5
4F
102
{ACAD_REACTORS
330
42
102
}
330
42
100
AcDbScale
 70
     0
300
1" = 1'-0"
140
1.0
141
12.0
290
     0
1001
ACAD
1000
AcRTDxfName
1000
SCALE
  0
SCALE
  5
50
102
{ACAD_REACTORS
330
42
102
}
330
42
100
AcDbScale
 70
     0
300
1-1/2" = 1'-0"
140
1.5
141
12.0
290
     0
1001
ACAD
1000
AcRTDxfName
1000
SCALE
  0
SCALE
  5
51
102
{ACAD_REACTORS
330
42
102
}
330
42
100
AcDbScale
 70
     0
300
3" = 1'-0"
140
3.0
141
12.0
290
     0
1001
ACAD
1000
AcRTDxfName
1000
SCALE
  0
SCALE
  5
52
102
{ACAD_REACTORS
330
42
102
}
330
42
100
AcDbScale
 70
     0
300
6" = 1'-0"
140
6.0
141
12.0
290
     0
1001
ACAD
1000
AcRTDxfName
1000
SCALE
  0
SCALE
  5
53
102
{ACAD_REACTORS
330
42
102
}
330
42
100
AcDbScale
 70
     0
300
1'-0" = 1'-0"
140
12.0
141
12.0
290
     0
1001
ACAD
1000
AcRTDxfName
1000
SCALE
  0
TABLESTYLE
  5
64
102
{ACAD_XDICTIONARY
360
61F
102
}
102
{ACAD_REACTORS
330
63
102
}
330
63
100
AcDbTableStyle
  3
Standard
 70
     0
 71
     0
 40
0.06
 41
0.06
280
     0
281
     0
  7
STANDARD
140
0.18
170
     2
 62
     0
 63
     7
283
     0
274
    -2
284
     1
 64
     0
275
    -2
285
     1
 65
     0
276
    -2
286
     1
 66
     0
277
    -2
287
     1
 67
     0
278
    -2
288
     1
 68
     0
279
    -2
289
     1
 69
     0
  7
STANDARD
140
0.25
170
     5
 62
     0
 63
     7
283
     0
274
    -2
284
     1
 64
     0
275
    -2
285
     1
 65
     0
276
    -2
286
     1
 66
     0
277
    -2
287
     1
 67
     0
278
    -2
288
     1
 68
     0
279
    -2
289
     1
 69
     0
  7
STANDARD
140
0.18
170
     5
 62
     0
 63
     7
283
     0
274
    -2
284
     1
 64
     0
275
    -2
285
     1
 65
     0
276
    -2
286
     1
 66
     0
277
    -2
287
     1
 67
     0
278
    -2
288
     1
 68
     0
279
    -2
289
     1
 69
     0
  0
VISUALSTYLE
  5
2F
102
{ACAD_XDICTIONARY
360
87C
102
}
102
{ACAD_REACTORS
330
29
102
}
330
29
100
AcDbVisualStyle
  2

 70
     4
 71
     0
 72
     2
 73
     0
 90
        0
 40
-0.6
 41
-30.0
 62
     5
 63
     7
 74
     1
 91
        4
 64
     7
 65
   257
 75
     1
175
     1
 42
1.0
 92
        0
 66
   257
 43
1.0
 76
     1
 77
     6
 78
     2
 67
     7
 79
     5
170
     0
171
     0
290
     0
174
     0
 93
        1
 44
0.0
173
     0
291
     0
 45
0.0
1001
ACAD
1000
AcDbSavedByObjectVersion
1070
     0
  0
VISUALSTYLE
  5
6F4
102
{ACAD_XDICTIONARY
360
8A9
102
}
102
{ACAD_REACTORS
330
29
102
}
330
29
100
AcDbVisualStyle
  2

 70
     6
 71
     1
 72
     2
 73
     2
 90
        0
 40
-0.6
 41
-30.0
 62
     5
 63
     7
 74
     2
 91
        2
 64
     7
 65
   257
 75
     2
175
     1
 42
40.0
 92
        0
 66
   257
 43
1.0
 76
     1
 77
     6
 78
     2
 67
     7
 79
     3
170
     0
171
     0
290
     0
174
     0
 93
        1
 44
0.0
173
     0
291
     0
 45
0.0
1001
ACAD
1000
AcDbSavedByObjectVersion
1070
     0
  0
VISUALSTYLE
  5
389
102
{ACAD_XDICTIONARY
360
8A7
102
}
102
{ACAD_REACTORS
330
29
102
}
330
29
100
AcDbVisualStyle
  2

 70
     5
 71
     0
 72
     2
 73
     1
 90
        0
 40
-0.6
 41
-30.0
 62
     5
 63
     7
 74
     1
 91
        4
 64
     7
 65
   257
 75
     1
175
     1
 42
1.0
 92
        0
 66
   257
 43
1.0
 76
     1
 77
     6
 78
     2
 67
     7
 79
     5
170
     0
171
     0
290
     0
174
     0
 93
        1
 44
0.0
173
     0
291
     0
 45
0.0
1001
ACAD
1000
AcDbSavedByObjectVersion
1070
     0
  0
VISUALSTYLE
  5
2E
102
{ACAD_XDICTIONARY
360
87A
102
}
102
{ACAD_REACTORS
330
29
102
}
330
29
100
AcDbVisualStyle
  2

 70
     7
 71
     1
 72
     0
 73
     1
 90
        0
 40
-0.6
 41
-30.0
 62
     5
 63
     7
 74
     0
 91
        4
 64
     7
 65
   257
 75
     1
175
     1
 42
1.0
 92
        8
 66
     7
 43
1.0
 76
     1
 77
     6
 78
     2
 67
     7
 79
     5
170
     0
171
     0
290
     0
174
     0
 93
        1
 44
0.0
173
     0
291
     1
 45
0.0
1001
ACAD
1000
AcDbSavedByObjectVersion
1070
     0
  0
VISUALSTYLE
  5
35
102
{ACAD_XDICTIONARY
360
888
102
}
102
{ACAD_REACTORS
330
29
102
}
330
29
100
AcDbVisualStyle
  2

 70
    12
 71
     2
 72
     2
 73
     0
 90
        0
 40
-0.6
 41
-30.0
 62
     5
 63
     7
 74
     1
 91
        4
 64
     7
 65
   257
 75
     1
175
     1
 42
1.0
 92
        8
 66
     7
 43
1.0
 76
     1
 77
     6
 78
     2
 67
     7
 79
     5
170
     0
171
     0
290
     0
174
     0
 93
        1
 44
50.0
173
     0
291
     1
 45
0.0
1001
ACAD
1000
AcDbSavedByObjectVersion
1070
     0
  0
VISUALSTYLE
  5
39
102
{ACAD_XDICTIONARY
360
890
102
}
102
{ACAD_REACTORS
330
29
102
}
330
29
100
AcDbVisualStyle
  2

 70
    16
 71
     2
 72
     2
 73
     3
 90
        0
 40
-0.6
 41
-30.0
 62
     5
 63
     8
 74
     1
 91
        4
 64
     7
 65
   257
 75
     1
175
     1
 42
1.0
 92
        8
 66
     8
 43
1.0
 76
     1
 77
     6
 78
     2
 67
     7
 79
     5
170
     0
171
     0
290
     0
174
     0
 93
        1
 44
0.0
173
     0
291
     1
 45
0.0
1001
ACAD
1000
AcDbSavedByObjectVersion
1070
     0
  0
VISUALSTYLE
  5
32
102
{ACAD_XDICTIONARY
360
882
102
}
102
{ACAD_REACTORS
330
29
102
}
330
29
100
AcDbVisualStyle
  2

 70
     9
 71
     3
 72
     2
 73
     0
 90
        0
 40
-0.6
 41
-30.0
 62
     5
 63
     7
 74
     2
 91
        2
 64
     7
 65
   257
 75
     1
175
     1
 42
179.0
 92
        8
 66
     7
 43
1.0
 76
     1
 77
     6
 78
     2
 67
     7
 79
     3
170
     0
171
     0
290
     0
174
     0
 93
        1
 44
0.0
173
     0
291
     0
 45
0.0
1001
ACAD
1000
AcDbSavedByObjectVersion
1070
     0
  0
VISUALSTYLE
  5
34
102
{ACAD_XDICTIONARY
360
886
102
}
102
{ACAD_REACTORS
330
29
102
}
330
29
100
AcDbVisualStyle
  2

 70
    11
 71
     2
 72
     2
 73
     0
 90
        0
 40
-0.6
 41
-30.0
 62
     5
 63
     7
 74
     1
 91
        4
 64
     7
 65
   257
 75
     1
175
     1
 42
1.0
 92
        8
 66
     7
 43
1.0
 76
     1
 77
     6
 78
     2
 67
     7
 79
     5
170
     0
171
     0
290
     0
174
     0
 93
        1
 44
-50.0
173
     0
291
     1
 45
0.0
1001
ACAD
1000
AcDbSavedByObjectVersion
1070
     0
  0
VISUALSTYLE
  5
41
102
{ACAD_XDICTIONARY
360
8A0
102
}
102
{ACAD_REACTORS
330
29
102
}
330
29
100
AcDbVisualStyle
  2

 70
    22
 71
     2
 72
     2
 73
     0
 90
        0
 40
-0.6
 41
-30.0
 62
     5
 63
     7
 74
     1
 91
        4
 64
     7
 65
   257
 75
     1
175
     1
 42
1.0
 92
        8
 66
     7
 43
1.0
 76
     1
 77
     6
 78
     2
 67
     7
 79
     5
170
     0
171
     0
290
     0
174
     0
 93
        1
 44
0.0
173
     0
291
     1
 45
0.0
1001
ACAD
1000
AcDbSavedByObjectVersion
1070
     0
  0
VISUALSTYLE
  5
38
102
{ACAD_XDICTIONARY
360
88E
102
}
102
{ACAD_REACTORS
330
29
102
}
330
29
100
AcDbVisualStyle
  2

 70
    15
 71
     2
 72
     2
 73
     0
 90
        0
 40
-0.6
 41
-30.0
 62
     5
 63
     7
 74
     1
 91
        4
 64
     7
 65
   257
 75
     1
175
     1
 42
1.0
 92
        8
 66
     7
 43
1.0
 76
     1
 77
     6
 78
     2
 67
     7
 79
     5
170
     0
171
     0
290
     0
174
     0
 93
        1
 44
0.0
173
     0
291
     1
 45
0.0
1001
ACAD
1000
AcDbSavedByObjectVersion
1070
     0
  0
VISUALSTYLE
  5
2A
102
{ACAD_XDICTIONARY
360
872
102
}
102
{ACAD_REACTORS
330
29
102
}
330
29
100
AcDbVisualStyle
  2

 70
     0
 71
     2
 72
     1
 73
     1
 90
        2
 40
-0.6
 41
30.0
 62
     5
 63
     7
 74
     0
 91
        0
 64
     7
 65
   257
 75
     1
175
     1
 42
1.0
 92
        8
 66
     7
 43
1.0
 76
     1
 77
     6
 78
     2
 67
     7
 79
     5
170
     0
171
     0
290
     0
174
     0
 93
       13
 44
0.0
173
     0
291
     1
 45
0.0
1001
ACAD
1000
AcDbSavedByObjectVersion
1070
     0
  0
VISUALSTYLE
  5
2B
102
{ACAD_XDICTIONARY
360
874
102
}
102
{ACAD_REACTORS
330
29
102
}
330
29
100
AcDbVisualStyle
  2

 70
     1
 71
     2
 72
     1
 73
     1
 90
        2
 40
-0.6
 41
30.0
 62
     5
 63
     7
 74
     1
 91
        0
 64
     7
 65
   257
 75
     1
175
     1
 42
1.0
 92
        0
 66
   257
 43
1.0
 76
     1
 77
     6
 78
     2
 67
     7
 79
     5
170
     0
171
     0
290
     0
174
     0
 93
       13
 44
0.0
173
     0
291
     1
 45
0.0
1001
ACAD
1000
AcDbSavedByObjectVersion
1070
     0
  0
VISUALSTYLE
  5
2C
102
{ACAD_XDICTIONARY
360
876
102
}
102
{ACAD_REACTORS
330
29
102
}
330
29
100
AcDbVisualStyle
  2

 70
     2
 71
     2
 72
     2
 73
     1
 90
        2
 40
-0.6
 41
30.0
 62
     5
 63
     7
 74
     0
 91
        0
 64
     7
 65
   257
 75
     1
175
     1
 42
1.0
 92
        0
 66
     7
 43
1.0
 76
     1
 77
     6
 78
     2
 67
     7
 79
     5
170
     0
171
     0
290
     0
174
     0
 93
       13
 44
0.0
173
     0
291
     1
 45
0.0
1001
ACAD
1000
AcDbSavedByObjectVersion
1070
     0
  0
VISUALSTYLE
  5
2D
102
{ACAD_XDICTIONARY
360
878
102
}
102
{ACAD_REACTORS
330
29
102
}
330
29
100
AcDbVisualStyle
  2

 70
     3
 71
     2
 72
     2
 73
     1
 90
        2
 40
-0.6
 41
30.0
 62
     5
 63
     7
 74
     1
 91
        0
 64
     7
 65
   257
 75
     1
175
     1
 42
1.0
 92
        0
 66
   257
 43
1.0
 76
     1
 77
     6
 78
     2
 67
     7
 79
     5
170
     0
171
     0
290
     0
174
     0
 93
       13
 44
0.0
173
     0
291
     1
 45
0.0
1001
ACAD
1000
AcDbSavedByObjectVersion
1070
     0
  0
VISUALSTYLE
  5
31
102
{ACAD_XDICTIONARY
360
880
102
}
102
{ACAD_REACTORS
330
29
102
}
330
29
100
AcDbVisualStyle
  2

 70
     6
 71
     1
 72
     2
 73
     2
 90
        0
 40
-0.6
 41
-30.0
 62
     5
 63
     7
 74
     2
 91
        2
 64
     7
 65
   257
 75
     2
175
     1
 42
40.0
 92
        0
 66
   257
 43
1.0
 76
     1
 77
     6
 78
     2
 67
     7
 79
     3
170
     0
171
     0
290
     0
174
     0
 93
        1
 44
0.0
173
     0
291
     0
 45
0.0
1001
ACAD
1000
AcDbSavedByObjectVersion
1070
     0
  0
VISUALSTYLE
  5
3F
102
{ACAD_XDICTIONARY
360
89C
102
}
102
{ACAD_REACTORS
330
29
102
}
330
29
100
AcDbVisualStyle
  2

 70
    20
 71
     2
 72
     2
 73
     0
 90
        0
 40
-0.6
 41
-30.0
 62
     5
 63
     7
 74
     1
 91
        4
 64
     7
 65
   257
 75
     1
175
     1
 42
1.0
 92
       10
 66
     7
 43
1.0
 76
     1
 77
     6
 78
     2
 67
     7
 79
     5
170
     0
171
     0
290
     0
174
     0
 93
        1
 44
0.0
173
     0
291
     1
 45
0.0
1001
ACAD
1000
AcDbSavedByObjectVersion
1070
     0
  0
VISUALSTYLE
  5
37
102
{ACAD_XDICTIONARY
360
88C
102
}
102
{ACAD_REACTORS
330
29
102
}
330
29
100
AcDbVisualStyle
  2

 70
    14
 71
     2
 72
     2
 73
     0
 90
        0
 40
-0.6
 41
-30.0
 62
     5
 63
     7
 74
     1
 91
        4
 64
     7
 65
   257
 75
     7
175
     7
 42
1.0
 92
        8
 66
     7
 43
1.0
 76
     1
 77
     6
 78
     2
 67
     7
 79
     5
170
     0
171
     0
290
     0
174
     0
 93
        1
 44
0.0
173
     0
291
     1
 45
0.0
1001
ACAD
1000
AcDbSavedByObjectVersion
1070
     0
  0
VISUALSTYLE
  5
40
102
{ACAD_XDICTIONARY
360
89E
102
}
102
{ACAD_REACTORS
330
29
102
}
330
29
100
AcDbVisualStyle
  2

 70
    21
 71
     2
 72
     2
 73
     0
 90
        0
 40
-0.6
 41
-30.0
 62
     5
 63
     7
 74
     1
 91
        4
 64
     7
 65
   257
 75
     1
175
     1
 42
1.0
 92
        9
 66
     7
 43
1.0
 76
     1
 77
     6
 78
     2
 67
     7
 79
     5
170
     0
171
     0
290
     0
174
     0
 93
        1
 44
0.0
173
     0
291
     1
 45
0.0
1001
ACAD
1000
AcDbSavedByObjectVersion
1070
     0
  0
VISUALSTYLE
  5
33
102
{ACAD_XDICTIONARY
360
884
102
}
102
{ACAD_REACTORS
330
29
102
}
330
29
100
AcDbVisualStyle
  2

 70
     8
 71
     2
 72
     3
 73
     0
 90
        2
 40
-0.6
 41
30.0
 62
     5
 63
     7
 74
     0
 91
        0
 64
     7
 65
   257
 75
     1
175
     1
 42
1.0
 92
        8
 66
   257
 43
1.0
 76
     1
 77
     6
 78
     2
 67
     7
 79
     3
170
     0
171
     0
290
     0
174
     0
 93
       13
 44
0.0
173
     0
291
     0
 45
0.0
1001
ACAD
1000
AcDbSavedByObjectVersion
1070
     0
  0
VISUALSTYLE
  5
3E
102
{ACAD_XDICTIONARY
360
89A
102
}
102
{ACAD_REACTORS
330
29
102
}
330
29
100
AcDbVisualStyle
  2

 70
    27
 71
     2
 72
     2
 73
     1
 90
        2
 40
-0.6
 41
30.0
 62
     5
 63
     7
 74
     0
 91
        4
 64
     7
 65
   257
 75
     1
175
     1
 42
1.0
 92
        8
 66
   257
 43
1.0
 76
     1
 77
     6
 78
     2
 67
     8
 79
     3
170
     0
171
     0
290
     0
174
     0
 93
        5
 44
0.0
173
     0
291
     0
 45
0.0
1001
ACAD
1000
AcDbSavedByObjectVersion
1070
     0
  0
VISUALSTYLE
  5
3D
102
{ACAD_XDICTIONARY
360
898
102
}
102
{ACAD_REACTORS
330
29
102
}
330
29
100
AcDbVisualStyle
  2

 70
    26
 71
     2
 72
     2
 73
     1
 90
        2
 40
-0.6
 41
30.0
 62
     5
 63
     7
 74
     1
 91
       10
 64
     7
 65
   257
 75
     2
175
     1
 42
1.0
 92
        8
 66
   257
 43
1.0
 76
     1
 77
     6
 78
     2
 67
     7
 79
     3
170
     0
171
     0
290
     0
174
     0
 93
        5
 44
0.0
173
     0
291
     0
 45
0.0
1001
ACAD
1000
AcDbSavedByObjectVersion
1070
     0
  0
VISUALSTYLE
  5
3A
102
{ACAD_XDICTIONARY
360
892
102
}
102
{ACAD_REACTORS
330
29
102
}
330
29
100
AcDbVisualStyle
  2

 70
    23
 71
     2
 72
     2
 73
     3
 90
        0
 40
-0.6
 41
-30.0
 62
     5
 63
     7
 74
     2
 91
        2
 64
     7
 65
     7
 75
     1
175
     1
 42
40.0
 92
        8
 66
     7
 43
1.0
 76
     1
 77
     6
 78
     2
 67
     7
 79
     3
170
     0
171
     0
290
     0
174
     0
 93
        1
 44
0.0
173
     0
291
     0
 45
0.0
1001
ACAD
1000
AcDbSavedByObjectVersion
1070
     0
  0
VISUALSTYLE
  5
3B
102
{ACAD_XDICTIONARY
360
894
102
}
102
{ACAD_REACTORS
330
29
102
}
330
29
100
AcDbVisualStyle
  2

 70
    24
 71
     1
 72
     2
 73
     2
 90
        0
 40
-0.6
 41
-30.0
 62
     5
 63
     7
 74
     2
 91
        2
 64
     7
 65
     7
 75
     1
175
     1
 42
40.0
 92
       11
 66
     7
 43
1.0
 76
     1
 77
     6
 78
     2
 67
     7
 79
     6
170
     0
171
     0
290
     0
174
     0
 93
        1
 44
0.0
173
     0
291
     0
 45
0.0
1001
ACAD
1000
AcDbSavedByObjectVersion
1070
     0
  0
VISUALSTYLE
  5
36
102
{ACAD_XDICTIONARY
360
88A
102
}
102
{ACAD_REACTORS
330
29
102
}
330
29
100
AcDbVisualStyle
  2

 70
    13
 71
     2
 72
     2
 73
     0
 90
        0
 40
-0.6
 41
-30.0
 62
     5
 63
     7
 74
     1
 91
        4
 64
     7
 65
   257
 75
     1
175
     1
 42
1.0
 92
       12
 66
     7
 43
1.0
 76
     1
 77
     6
 78
     2
 67
     7
 79
     5
170
     0
171
     0
290
     0
174
     0
 93
        1
 44
0.0
173
     0
291
     1
 45
0.0
1001
ACAD
1000
AcDbSavedByObjectVersion
1070
     0
  0
VISUALSTYLE
  5
30
102
{ACAD_XDICTIONARY
360
87E
102
}
102
{ACAD_REACTORS
330
29
102
}
330
29
100
AcDbVisualStyle
  2

 70
     5
 71
     0
 72
     2
 73
     0
 90
        0
 40
-0.6
 41
-30.0
 62
     5
 63
     7
 74
     1
 91
        4
 64
     7
 65
   257
 75
     1
175
     1
 42
1.0
 92
        0
 66
   257
 43
1.0
 76
     1
 77
     6
 78
     2
 67
     7
 79
     3
170
     0
171
     0
290
     0
174
     0
 93
        1
 44
0.0
173
     0
291
     0
 45
0.0
1001
ACAD
1000
AcDbSavedByObjectVersion
1070
     0
  0
VISUALSTYLE
  5
3C
102
{ACAD_XDICTIONARY
360
896
102
}
102
{ACAD_REACTORS
330
29
102
}
330
29
100
AcDbVisualStyle
  2

 70
    25
 71
     2
 72
     2
 73
     1
 90
        1
 40
0.5
 41
-30.0
 62
     5
 63
     7
 74
     1
 91
        0
 64
     7
 65
   257
 75
     1
175
     1
 42
1.0
 92
        8
 66
     7
 43
1.0
 76
     1
 77
     6
 78
     2
 67
     7
 79
     3
170
     0
171
     0
290
     0
174
     0
 93
       13
 44
0.0
173
     0
291
     0
 45
0.0
1001
ACAD
1000
AcDbSavedByObjectVersion
1070
     0
  0
DICTIONARYVAR
  5
61A
102
{ACAD_REACTORS
330
617
102
}
330
617
100
DictionaryVariables
280
     0
  1
1:1
  0
DICTIONARYVAR
  5
619
102
{ACAD_REACTORS
330
617
102
}
330
617
100
DictionaryVariables
280
     0
  1
STANDARD
  0
DICTIONARYVAR
  5
618
102
{ACAD_REACTORS
330
617
102
}
330
617
100
DictionaryVariables
280
     0
  1
STANDARD
  0
DICTIONARYVAR
  5
61D
102
{ACAD_REACTORS
330
617
102
}
330
617
100
DictionaryVariables
280
     0
  1
1
  0
DICTIONARYVAR
  5
61C
102
{ACAD_REACTORS
330
617
102
}
330
617
100
DictionaryVariables
280
     0
  1
0
  0
DICTIONARYVAR
  5
61B
102
{ACAD_REACTORS
330
617
102
}
330
617
100
DictionaryVariables
280
     0
  1
127
  0
DICTIONARYVAR
  5
7AC
102
{ACAD_REACTORS
330
617
102
}
330
617
100
DictionaryVariables
280
     0
  1
2
  0
DICTIONARY
  5
8A5
330
6E
100
AcDbDictionary
280
     1
281
     1
  3
ACAD_XREC_ROUNDTRIP
360
8A6
  0
DICTIONARY
  5
8A3
330
6A
100
AcDbDictionary
280
     1
281
     1
  3
ACAD_XREC_ROUNDTRIP
360
8A4
  0
DICTIONARY
  5
1A
330
19
100
AcDbDictionary
280
     1
281
     1
  3
ACAD_XREC_ROUNDTRIP
360
624
  3
BUMPTILE
360
1C
  3
DIFFUSETILE
360
1B
  3
OPACITYTILE
360
1F
  3
REFLECTIONTILE
360
1E
  3
REFRACTIONTILE
360
20
  3
SPECULARTILE
360
1D
  0
DICTIONARY
  5
12
330
11
100
AcDbDictionary
280
     1
281
     1
  3
ACAD_XREC_ROUNDTRIP
360
623
  3
BUMPTILE
360
14
  3
DIFFUSETILE
360
13
  3
OPACITYTILE
360
17
  3
REFLECTIONTILE
360
16
  3
REFRACTIONTILE
360
18
  3
SPECULARTILE
360
15
  0
DICTIONARY
  5
22
330
21
100
AcDbDictionary
280
     1
281
     1
  3
ACAD_XREC_ROUNDTRIP
360
625
  3
BUMPTILE
360
24
  3
DIFFUSETILE
360
23
  3
OPACITYTILE
360
27
  3
REFLECTIONTILE
360
26
  3
REFRACTIONTILE
360
28
  3
SPECULARTILE
360
25
  0
DICTIONARY
  5
61F
330
64
100
AcDbDictionary
280
     1
281
     1
  3
ACAD_ROUNDTRIP_2008_TABLESTYLE_CELLSTYLEMAP
360
86B
  3
ACAD_XREC_ROUNDTRIP
360
8A2
  0
DICTIONARY
  5
87C
330
2F
100
AcDbDictionary
280
     1
281
     1
  3
ACAD_XREC_ROUNDTRIP
360
87D
  0
DICTIONARY
  5
8A9
330
6F4
100
AcDbDictionary
280
     1
281
     1
  3
ACAD_XREC_ROUNDTRIP
360
8AA
  0
DICTIONARY
  5
8A7
330
389
100
AcDbDictionary
280
     1
281
     1
  3
ACAD_XREC_ROUNDTRIP
360
8A8
  0
DICTIONARY
  5
87A
330
2E
100
AcDbDictionary
280
     1
281
     1
  3
ACAD_XREC_ROUNDTRIP
360
87B
  0
DICTIONARY
  5
888
330
35
100
AcDbDictionary
280
     1
281
     1
  3
ACAD_XREC_ROUNDTRIP
360
889
  0
DICTIONARY
  5
890
330
39
100
AcDbDictionary
280
     1
281
     1
  3
ACAD_XREC_ROUNDTRIP
360
891
  0
DICTIONARY
  5
882
330
32
100
AcDbDictionary
280
     1
281
     1
  3
ACAD_XREC_ROUNDTRIP
360
883
  0
DICTIONARY
  5
886
330
34
100
AcDbDictionary
280
     1
281
     1
  3
ACAD_XREC_ROUNDTRIP
360
887
  0
DICTIONARY
  5
8A0
330
41
100
AcDbDictionary
280
     1
281
     1
  3
ACAD_XREC_ROUNDTRIP
360
8A1
  0
DICTIONARY
  5
88E
330
38
100
AcDbDictionary
280
     1
281
     1
  3
ACAD_XREC_ROUNDTRIP
360
88F
  0
DICTIONARY
  5
872
330
2A
100
AcDbDictionary
280
     1
281
     1
  3
ACAD_XREC_ROUNDTRIP
360
873
  0
DICTIONARY
  5
874
330
2B
100
AcDbDictionary
280
     1
281
     1
  3
ACAD_XREC_ROUNDTRIP
360
875
  0
DICTIONARY
  5
876
330
2C
100
AcDbDictionary
280
     1
281
     1
  3
ACAD_XREC_ROUNDTRIP
360
877
  0
DICTIONARY
  5
878
330
2D
100
AcDbDictionary
280
     1
281
     1
  3
ACAD_XREC_ROUNDTRIP
360
879
  0
DICTIONARY
  5
880
330
31
100
AcDbDictionary
280
     1
281
     1
  3
ACAD_XREC_ROUNDTRIP
360
881
  0
DICTIONARY
  5
89C
330
3F
100
AcDbDictionary
280
     1
281
     1
  3
ACAD_XREC_ROUNDTRIP
360
89D
  0
DICTIONARY
  5
88C
330
37
100
AcDbDictionary
280
     1
281
     1
  3
ACAD_XREC_ROUNDTRIP
360
88D
  0
DICTIONARY
  5
89E
330
40
100
AcDbDictionary
280
     1
281
     1
  3
ACAD_XREC_ROUNDTRIP
360
89F
  0
DICTIONARY
  5
884
330
33
100
AcDbDictionary
280
     1
281
     1
  3
ACAD_XREC_ROUNDTRIP
360
885
  0
DICTIONARY
  5
89A
330
3E
100
AcDbDictionary
280
     1
281
     1
  3
ACAD_XREC_ROUNDTRIP
360
89B
  0
DICTIONARY
  5
898
330
3D
100
AcDbDictionary
280
     1
281
     1
  3
ACAD_XREC_ROUNDTRIP
360
899
  0
DICTIONARY
  5
892
330
3A
100
AcDbDictionary
280
     1
281
     1
  3
ACAD_XREC_ROUNDTRIP
360
893
  0
DICTIONARY
  5
894
330
3B
100
AcDbDictionary
280
     1
281
     1
  3
ACAD_XREC_ROUNDTRIP
360
895
  0
DICTIONARY
  5
88A
330
36
100
AcDbDictionary
280
     1
281
     1
  3
ACAD_XREC_ROUNDTRIP
360
88B
  0
DICTIONARY
  5
87E
330
30
100
AcDbDictionary
280
     1
281
     1
  3
ACAD_XREC_ROUNDTRIP
360
87F
  0
DICTIONARY
  5
896
330
3C
100
AcDbDictionary
280
     1
281
     1
  3
ACAD_XREC_ROUNDTRIP
360
897
  0
XRECORD
  5
8A6
102
{ACAD_REACTORS
330
8A5
102
}
330
8A5
100
AcDbXrecord
280
     1
102
SHADEPLOT
 70
     0
102
SHADEPLOTRESLEVEL
 70
     2
102
SHADEPLOTCUSTOMDPI
 70
   300
  0
XRECORD
  5
8A4
102
{ACAD_REACTORS
330
8A3
102
}
330
8A3
100
AcDbXrecord
280
     1
102
SHADEPLOT
 70
     0
102
SHADEPLOTRESLEVEL
 70
     2
102
SHADEPLOTCUSTOMDPI
 70
   300
  0
XRECORD
  5
624
102
{ACAD_REACTORS
330
1A
102
}
330
1A
100
AcDbXrecord
280
     1
102
MATERIAL
148
0.0
149
0.0
149
0.0
 93
        0
 94
      127
282
     0
 72
     0
 77
     0
171
     0
175
     0
179
     0
273
     0
  0
XRECORD
  5
1C
102
{ACAD_REACTORS
330
1A
102
}
330
1A
100
AcDbXrecord
280
     1
270
     1
271
     1
  0
XRECORD
  5
1B
102
{ACAD_REACTORS
330
1A
102
}
330
1A
100
AcDbXrecord
280
     1
270
     1
271
     1
  0
XRECORD
  5
1F
102
{ACAD_REACTORS
330
1A
102
}
330
1A
100
AcDbXrecord
280
     1
270
     1
271
     1
  0
XRECORD
  5
1E
102
{ACAD_REACTORS
330
1A
102
}
330
1A
100
AcDbXrecord
280
     1
270
     1
271
     1
  0
XRECORD
  5
20
102
{ACAD_REACTORS
330
1A
102
}
330
1A
100
AcDbXrecord
280
     1
270
     1
271
     1
  0
XRECORD
  5
1D
102
{ACAD_REACTORS
330
1A
102
}
330
1A
100
AcDbXrecord
280
     1
270
     1
271
     1
  0
XRECORD
  5
623
102
{ACAD_REACTORS
330
12
102
}
330
12
100
AcDbXrecord
280
     1
102
MATERIAL
148
0.0
149
0.0
149
0.0
 93
        0
 94
      127
282
     0
 72
     0
 77
     0
171
     0
175
     0
179
     0
273
     0
  0
XRECORD
  5
14
102
{ACAD_REACTORS
330
12
102
}
330
12
100
AcDbXrecord
280
     1
270
     1
271
     1
  0
XRECORD
  5
13
102
{ACAD_REACTORS
330
12
102
}
330
12
100
AcDbXrecord
280
     1
270
     1
271
     1
  0
XRECORD
  5
17
102
{ACAD_REACTORS
330
12
102
}
330
12
100
AcDbXrecord
280
     1
270
     1
271
     1
  0
XRECORD
  5
16
102
{ACAD_REACTORS
330
12
102
}
330
12
100
AcDbXrecord
280
     1
270
     1
271
     1
  0
XRECORD
  5
18
102
{ACAD_REACTORS
330
12
102
}
330
12
100
AcDbXrecord
280
     1
270
     1
271
     1
  0
XRECORD
  5
15
102
{ACAD_REACTORS
330
12
102
}
330
12
100
AcDbXrecord
280
     1
270
     1
271
     1
  0
XRECORD
  5
625
102
{ACAD_REACTORS
330
22
102
}
330
22
100
AcDbXrecord
280
     1
102
MATERIAL
148
0.0
149
0.0
149
0.0
 93
        0
 94
      127
282
     0
 72
     0
 77
     0
171
     0
175
     0
179
     0
273
     0
  0
XRECORD
  5
24
102
{ACAD_REACTORS
330
22
102
}
330
22
100
AcDbXrecord
280
     1
270
     1
271
     1
  0
XRECORD
  5
23
102
{ACAD_REACTORS
330
22
102
}
330
22
100
AcDbXrecord
280
     1
270
     1
271
     1
  0
XRECORD
  5
27
102
{ACAD_REACTORS
330
22
102
}
330
22
100
AcDbXrecord
280
     1
270
     1
271
     1
  0
XRECORD
  5
26
102
{ACAD_REACTORS
330
22
102
}
330
22
100
AcDbXrecord
280
     1
270
     1
271
     1
  0
XRECORD
  5
28
102
{ACAD_REACTORS
330
22
102
}
330
22
100
AcDbXrecord
280
     1
270
     1
271
     1
  0
XRECORD
  5
25
102
{ACAD_REACTORS
330
22
102
}
330
22
100
AcDbXrecord
280
     1
270
     1
271
     1
  0
CELLSTYLEMAP
  5
86B
102
{ACAD_REACTORS
330
61F
102
}
330
61F
100
AcDbCellStyleMap
 90
        3
300
CELLSTYLE
  1
TABLEFORMAT_BEGIN
 90
        5
170
     1
 91
        0
 92
    32768
 62
   257
 93
        1
300
CONTENTFORMAT
  1
CONTENTFORMAT_BEGIN
 90
        0
 91
        0
 92
      512
 93
        0
300

 40
0.0
140
1.0
 94
        5
 62
     0
340
55
144
0.25
309
CONTENTFORMAT_END
171
     1
301
MARGIN
  1
CELLMARGIN_BEGIN
 40
0.06
 40
0.06
 40
0.06
 40
0.06
 40
0.18
 40
0.18
309
CELLMARGIN_END
 94
        6
 95
        1
302
GRIDFORMAT
  1
GRIDFORMAT_BEGIN
 90
        0
 91
        1
 62
     0
 92
       -2
340
0
 93
        0
 40
0.045
309
GRIDFORMAT_END
 95
        2
302
GRIDFORMAT
  1
GRIDFORMAT_BEGIN
 90
        0
 91
        1
 62
     0
 92
       -2
340
0
 93
        0
 40
0.045
309
GRIDFORMAT_END
 95
        4
302
GRIDFORMAT
  1
GRIDFORMAT_BEGIN
 90
        0
 91
        1
 62
     0
 92
       -2
340
0
 93
        0
 40
0.045
309
GRIDFORMAT_END
 95
        8
302
GRIDFORMAT
  1
GRIDFORMAT_BEGIN
 90
        0
 91
        1
 62
     0
 92
       -2
340
0
 93
        0
 40
0.045
309
GRIDFORMAT_END
 95
       16
302
GRIDFORMAT
  1
GRIDFORMAT_BEGIN
 90
        0
 91
        1
 62
     0
 92
       -2
340
0
 93
        0
 40
0.045
309
GRIDFORMAT_END
 95
       32
302
GRIDFORMAT
  1
GRIDFORMAT_BEGIN
 90
        0
 91
        1
 62
     0
 92
       -2
340
0
 93
        0
 40
0.045
309
GRIDFORMAT_END
309
TABLEFORMAT_END
  1
CELLSTYLE_BEGIN
 90
        1
 91
        1
300
_TITLE
309
CELLSTYLE_END
300
CELLSTYLE
  1
TABLEFORMAT_BEGIN
 90
        5
170
     1
 91
        0
 92
        0
 62
   257
 93
        1
300
CONTENTFORMAT
  1
CONTENTFORMAT_BEGIN
 90
        0
 91
        0
 92
      512
 93
        0
300

 40
0.0
140
1.0
 94
        5
 62
     0
340
55
144
0.18
309
CONTENTFORMAT_END
171
     1
301
MARGIN
  1
CELLMARGIN_BEGIN
 40
0.06
 40
0.06
 40
0.06
 40
0.06
 40
0.18
 40
0.18
309
CELLMARGIN_END
 94
        6
 95
        1
302
GRIDFORMAT
  1
GRIDFORMAT_BEGIN
 90
        0
 91
        1
 62
     0
 92
       -2
340
0
 93
        0
 40
0.045
309
GRIDFORMAT_END
 95
        2
302
GRIDFORMAT
  1
GRIDFORMAT_BEGIN
 90
        0
 91
        1
 62
     0
 92
       -2
340
0
 93
        0
 40
0.045
309
GRIDFORMAT_END
 95
        4
302
GRIDFORMAT
  1
GRIDFORMAT_BEGIN
 90
        0
 91
        1
 62
     0
 92
       -2
340
0
 93
        0
 40
0.045
309
GRIDFORMAT_END
 95
        8
302
GRIDFORMAT
  1
GRIDFORMAT_BEGIN
 90
        0
 91
        1
 62
     0
 92
       -2
340
0
 93
        0
 40
0.045
309
GRIDFORMAT_END
 95
       16
302
GRIDFORMAT
  1
GRIDFORMAT_BEGIN
 90
        0
 91
        1
 62
     0
 92
       -2
340
0
 93
        0
 40
0.045
309
GRIDFORMAT_END
 95
       32
302
GRIDFORMAT
  1
GRIDFORMAT_BEGIN
 90
        0
 91
        1
 62
     0
 92
       -2
340
0
 93
        0
 40
0.045
309
GRIDFORMAT_END
309
TABLEFORMAT_END
  1
CELLSTYLE_BEGIN
 90
        2
 91
        1
300
_HEADER
309
CELLSTYLE_END
300
CELLSTYLE
  1
TABLEFORMAT_BEGIN
 90
        5
170
     1
 91
        0
 92
        0
 62
   257
 93
        1
300
CONTENTFORMAT
  1
CONTENTFORMAT_BEGIN
 90
        0
 91
        0
 92
      512
 93
        0
300

 40
0.0
140
1.0
 94
        2
 62
     0
340
55
144
0.18
309
CONTENTFORMAT_END
171
     1
301
MARGIN
  1
CELLMARGIN_BEGIN
 40
0.06
 40
0.06
 40
0.06
 40
0.06
 40
0.18
 40
0.18
309
CELLMARGIN_END
 94
        6
 95
        1
302
GRIDFORMAT
  1
GRIDFORMAT_BEGIN
 90
        0
 91
        1
 62
     0
 92
       -2
340
0
 93
        0
 40
0.045
309
GRIDFORMAT_END
 95
        2
302
GRIDFORMAT
  1
GRIDFORMAT_BEGIN
 90
        0
 91
        1
 62
     0
 92
       -2
340
0
 93
        0
 40
0.045
309
GRIDFORMAT_END
 95
        4
302
GRIDFORMAT
  1
GRIDFORMAT_BEGIN
 90
        0
 91
        1
 62
     0
 92
       -2
340
0
 93
        0
 40
0.045
309
GRIDFORMAT_END
 95
        8
302
GRIDFORMAT
  1
GRIDFORMAT_BEGIN
 90
        0
 91
        1
 62
     0
 92
       -2
340
0
 93
        0
 40
0.045
309
GRIDFORMAT_END
 95
       16
302
GRIDFORMAT
  1
GRIDFORMAT_BEGIN
 90
        0
 91
        1
 62
     0
 92
       -2
340
0
 93
        0
 40
0.045
309
GRIDFORMAT_END
 95
       32
302
GRIDFORMAT
  1
GRIDFORMAT_BEGIN
 90
        0
 91
        1
 62
     0
 92
       -2
340
0
 93
        0
 40
0.045
309
GRIDFORMAT_END
309
TABLEFORMAT_END
  1
CELLSTYLE_BEGIN
 90
        3
 91
        2
300
_DATA
309
CELLSTYLE_END
  0
XRECORD
  5
8A2
102
{ACAD_REACTORS
330
61F
102
}
330
61F
100
AcDbXrecord
280
     1
102
ACAD_ROUNDTRIP_PRE2007_TABLESTYLE
 90
      512
 91
        0
  1

 92
      512
 93
        0
  2

 94
      512
 95
        0
  3

  0
XRECORD
  5
87D
102
{ACAD_REACTORS
330
87C
102
}
330
87C
100
AcDbXrecord
280
     1
102
RTVSPropertyOp0
 70
     1
102
RTVSPropertyOp1
 70
     1
102
RTVSPropertyOp2
 70
     1
102
RTVSPropertyOp3
 70
     1
102
RTVSPropertyOp4
 70
     1
102
RTVSPropertyOp5
 70
     1
102
RTVSPropertyOp6
 70
     1
102
RTVSPropertyOp7
 70
     1
102
RTVSPropertyOp8
 70
     1
102
RTVSPropertyOp9
 70
     1
102
RTVSPropertyOp10
 70
     1
102
RTVSPropertyOp11
 70
     1
102
RTVSPropertyOp12
 70
     1
102
RTVSPropertyOp13
 70
     1
102
RTVSPropertyOp14
 70
     1
102
RTVSPropertyOp15
 70
     1
102
RTVSPropertyOp16
 70
     1
102
RTVSPropertyOp17
 70
     1
102
RTVSPropertyOp18
 70
     1
102
RTVSPropertyOp19
 70
     1
102
RTVSPropertyOp20
 70
     1
102
RTVSPropertyOp21
 70
     1
102
RTVSPropertyOp22
 70
     1
102
RTVSPropertyOp23
 70
     1
102
RTVSPropertyOp24
 70
     1
102
RTVSPropertyOp25
 70
     1
102
RTVSPropertyOp26
 70
     1
102
RTVSPropertyOp27
 70
     1
102
RTVSPropertyOp28
 70
     1
102
RTVSPropertyOp29
 70
     1
102
RTVSPropertyOp30
 70
     1
102
RTVSPropertyOp31
 70
     1
102
RTVSPropertyOp32
 70
     1
  0
XRECORD
  5
8AA
102
{ACAD_REACTORS
330
8A9
102
}
330
8A9
100
AcDbXrecord
280
     1
102
RTVSPropertyOp0
 70
     1
102
RTVSPropertyOp1
 70
     1
102
RTVSPropertyOp2
 70
     1
102
RTVSPropertyOp3
 70
     1
102
RTVSPropertyOp4
 70
     1
102
RTVSPropertyOp5
 70
     1
102
RTVSPropertyOp6
 70
     1
102
RTVSPropertyOp7
 70
     1
102
RTVSPropertyOp8
 70
     1
102
RTVSPropertyOp9
 70
     1
102
RTVSPropertyOp10
 70
     1
102
RTVSPropertyOp11
 70
     1
102
RTVSPropertyOp12
 70
     1
102
RTVSPropertyOp13
 70
     1
102
RTVSPropertyOp14
 70
     1
102
RTVSPropertyOp15
 70
     1
102
RTVSPropertyOp16
 70
     1
102
RTVSPropertyOp17
 70
     1
102
RTVSPropertyOp18
 70
     1
102
RTVSPropertyOp19
 70
     1
102
RTVSPropertyOp20
 70
     1
102
RTVSPropertyOp21
 70
     1
102
RTVSPropertyOp22
 70
     1
102
RTVSPropertyOp23
 70
     1
102
RTVSPropertyOp24
 70
     1
102
RTVSPropertyOp25
 70
     1
102
RTVSPropertyOp26
 70
     1
102
RTVSPropertyOp27
 70
     1
102
RTVSPropertyOp28
 70
     1
102
RTVSPropertyOp29
 70
     1
102
RTVSPropertyOp30
 70
     1
102
RTVSPropertyOp31
 70
     1
102
RTVSPropertyOp32
 70
     1
  0
XRECORD
  5
8A8
102
{ACAD_REACTORS
330
8A7
102
}
330
8A7
100
AcDbXrecord
280
     1
102
RTVSPropertyOp0
 70
     1
102
RTVSPropertyOp1
 70
     1
102
RTVSPropertyOp2
 70
     1
102
RTVSPropertyOp3
 70
     1
102
RTVSPropertyOp4
 70
     1
102
RTVSPropertyOp5
 70
     1
102
RTVSPropertyOp6
 70
     1
102
RTVSPropertyOp7
 70
     1
102
RTVSPropertyOp8
 70
     1
102
RTVSPropertyOp9
 70
     1
102
RTVSPropertyOp10
 70
     1
102
RTVSPropertyOp11
 70
     1
102
RTVSPropertyOp12
 70
     1
102
RTVSPropertyOp13
 70
     1
102
RTVSPropertyOp14
 70
     1
102
RTVSPropertyOp15
 70
     1
102
RTVSPropertyOp16
 70
     1
102
RTVSPropertyOp17
 70
     1
102
RTVSPropertyOp18
 70
     1
102
RTVSPropertyOp19
 70
     1
102
RTVSPropertyOp20
 70
     1
102
RTVSPropertyOp21
 70
     1
102
RTVSPropertyOp22
 70
     1
102
RTVSPropertyOp23
 70
     1
102
RTVSPropertyOp24
 70
     1
102
RTVSPropertyOp25
 70
     1
102
RTVSPropertyOp26
 70
     1
102
RTVSPropertyOp27
 70
     1
102
RTVSPropertyOp28
 70
     1
102
RTVSPropertyOp29
 70
     1
102
RTVSPropertyOp30
 70
     1
102
RTVSPropertyOp31
 70
     1
102
RTVSPropertyOp32
 70
     1
  0
XRECORD
  5
87B
102
{ACAD_REACTORS
330
87A
102
}
330
87A
100
AcDbXrecord
280
     1
102
RTVSPropertyOp0
 70
     1
102
RTVSPropertyOp1
 70
     1
102
RTVSPropertyOp2
 70
     1
102
RTVSPropertyOp3
 70
     1
102
RTVSPropertyOp4
 70
     1
102
RTVSPropertyOp5
 70
     1
102
RTVSPropertyOp6
 70
     1
102
RTVSPropertyOp7
 70
     1
102
RTVSPropertyOp8
 70
     1
102
RTVSPropertyOp9
 70
     1
102
RTVSPropertyOp10
 70
     1
102
RTVSPropertyOp11
 70
     1
102
RTVSPropertyOp12
 70
     1
102
RTVSPropertyOp13
 70
     1
102
RTVSPropertyOp14
 70
     1
102
RTVSPropertyOp15
 70
     1
102
RTVSPropertyOp16
 70
     1
102
RTVSPropertyOp17
 70
     1
102
RTVSPropertyOp18
 70
     1
102
RTVSPropertyOp19
 70
     1
102
RTVSPropertyOp20
 70
     1
102
RTVSPropertyOp21
 70
     1
102
RTVSPropertyOp22
 70
     1
102
RTVSPropertyOp23
 70
     1
102
RTVSPropertyOp24
 70
     1
102
RTVSPropertyOp25
 70
     1
102
RTVSPropertyOp26
 70
     1
102
RTVSPropertyOp27
 70
     1
102
RTVSPropertyOp28
 70
     1
102
RTVSPropertyOp29
 70
     1
102
RTVSPropertyOp30
 70
     1
102
RTVSPropertyOp31
 70
     1
102
RTVSPropertyOp32
 70
     1
  0
XRECORD
  5
889
102
{ACAD_REACTORS
330
888
102
}
330
888
100
AcDbXrecord
280
     1
102
RTVSPropertyOp0
 70
     1
102
RTVSPropertyOp1
 70
     1
102
RTVSPropertyOp2
 70
     1
102
RTVSPropertyOp3
 70
     1
102
RTVSPropertyOp4
 70
     1
102
RTVSPropertyOp5
 70
     1
102
RTVSPropertyOp6
 70
     1
102
RTVSPropertyOp7
 70
     1
102
RTVSPropertyOp8
 70
     1
102
RTVSPropertyOp9
 70
     1
102
RTVSPropertyOp10
 70
     1
102
RTVSPropertyOp11
 70
     1
102
RTVSPropertyOp12
 70
     1
102
RTVSPropertyOp13
 70
     1
102
RTVSPropertyOp14
 70
     1
102
RTVSPropertyOp15
 70
     1
102
RTVSPropertyOp16
 70
     1
102
RTVSPropertyOp17
 70
     1
102
RTVSPropertyOp18
 70
     1
102
RTVSPropertyOp19
 70
     1
102
RTVSPropertyOp20
 70
     1
102
RTVSPropertyOp21
 70
     1
102
RTVSPropertyOp22
 70
     1
102
RTVSPropertyOp23
 70
     1
102
RTVSPropertyOp24
 70
     1
102
RTVSPropertyOp25
 70
     1
102
RTVSPropertyOp26
 70
     1
102
RTVSPropertyOp27
 70
     1
102
RTVSPropertyOp28
 70
     1
102
RTVSPropertyOp29
 70
     1
102
RTVSPropertyOp30
 70
     1
102
RTVSPropertyOp31
 70
     1
102
RTVSPropertyOp32
 70
     1
  0
XRECORD
  5
891
102
{ACAD_REACTORS
330
890
102
}
330
890
100
AcDbXrecord
280
     1
102
RTVSPropertyOp0
 70
     1
102
RTVSPropertyOp1
 70
     1
102
RTVSPropertyOp2
 70
     1
102
RTVSPropertyOp3
 70
     1
102
RTVSPropertyOp4
 70
     1
102
RTVSPropertyOp5
 70
     1
102
RTVSPropertyOp6
 70
     1
102
RTVSPropertyOp7
 70
     1
102
RTVSPropertyOp8
 70
     1
102
RTVSPropertyOp9
 70
     1
102
RTVSPropertyOp10
 70
     1
102
RTVSPropertyOp11
 70
     1
102
RTVSPropertyOp12
 70
     1
102
RTVSPropertyOp13
 70
     1
102
RTVSPropertyOp14
 70
     1
102
RTVSPropertyOp15
 70
     1
102
RTVSPropertyOp16
 70
     1
102
RTVSPropertyOp17
 70
     1
102
RTVSPropertyOp18
 70
     1
102
RTVSPropertyOp19
 70
     1
102
RTVSPropertyOp20
 70
     1
102
RTVSPropertyOp21
 70
     1
102
RTVSPropertyOp22
 70
     1
102
RTVSPropertyOp23
 70
     1
102
RTVSPropertyOp24
 70
     1
102
RTVSPropertyOp25
 70
     1
102
RTVSPropertyOp26
 70
     1
102
RTVSPropertyOp27
 70
     1
102
RTVSPropertyOp28
 70
     1
102
RTVSPropertyOp29
 70
     1
102
RTVSPropertyOp30
 70
     1
102
RTVSPropertyOp31
 70
     1
102
RTVSPropertyOp32
 70
     1
  0
XRECORD
  5
883
102
{ACAD_REACTORS
330
882
102
}
330
882
100
AcDbXrecord
280
     1
102
RTVSPropertyOp0
 70
     1
102
RTVSPropertyOp1
 70
     1
102
RTVSPropertyOp2
 70
     1
102
RTVSPropertyOp3
 70
     1
102
RTVSPropertyOp4
 70
     1
102
RTVSPropertyOp5
 70
     1
102
RTVSPropertyOp6
 70
     1
102
RTVSPropertyOp7
 70
     1
102
RTVSPropertyOp8
 70
     1
102
RTVSPropertyOp9
 70
     1
102
RTVSPropertyOp10
 70
     1
102
RTVSPropertyOp11
 70
     1
102
RTVSPropertyOp12
 70
     1
102
RTVSPropertyOp13
 70
     1
102
RTVSPropertyOp14
 70
     1
102
RTVSPropertyOp15
 70
     1
102
RTVSPropertyOp16
 70
     1
102
RTVSPropertyOp17
 70
     1
102
RTVSPropertyOp18
 70
     1
102
RTVSPropertyOp19
 70
     1
102
RTVSPropertyOp20
 70
     1
102
RTVSPropertyOp21
 70
     1
102
RTVSPropertyOp22
 70
     1
102
RTVSPropertyOp23
 70
     1
102
RTVSPropertyOp24
 70
     1
102
RTVSPropertyOp25
 70
     1
102
RTVSPropertyOp26
 70
     1
102
RTVSPropertyOp27
 70
     1
102
RTVSPropertyOp28
 70
     1
102
RTVSPropertyOp29
 70
     1
102
RTVSPropertyOp30
 70
     1
102
RTVSPropertyOp31
 70
     1
102
RTVSPropertyOp32
 70
     1
  0
XRECORD
  5
887
102
{ACAD_REACTORS
330
886
102
}
330
886
100
AcDbXrecord
280
     1
102
RTVSPropertyOp0
 70
     1
102
RTVSPropertyOp1
 70
     1
102
RTVSPropertyOp2
 70
     1
102
RTVSPropertyOp3
 70
     1
102
RTVSPropertyOp4
 70
     1
102
RTVSPropertyOp5
 70
     1
102
RTVSPropertyOp6
 70
     1
102
RTVSPropertyOp7
 70
     1
102
RTVSPropertyOp8
 70
     1
102
RTVSPropertyOp9
 70
     1
102
RTVSPropertyOp10
 70
     1
102
RTVSPropertyOp11
 70
     1
102
RTVSPropertyOp12
 70
     1
102
RTVSPropertyOp13
 70
     1
102
RTVSPropertyOp14
 70
     1
102
RTVSPropertyOp15
 70
     1
102
RTVSPropertyOp16
 70
     1
102
RTVSPropertyOp17
 70
     1
102
RTVSPropertyOp18
 70
     1
102
RTVSPropertyOp19
 70
     1
102
RTVSPropertyOp20
 70
     1
102
RTVSPropertyOp21
 70
     1
102
RTVSPropertyOp22
 70
     1
102
RTVSPropertyOp23
 70
     1
102
RTVSPropertyOp24
 70
     1
102
RTVSPropertyOp25
 70
     1
102
RTVSPropertyOp26
 70
     1
102
RTVSPropertyOp27
 70
     1
102
RTVSPropertyOp28
 70
     1
102
RTVSPropertyOp29
 70
     1
102
RTVSPropertyOp30
 70
     1
102
RTVSPropertyOp31
 70
     1
102
RTVSPropertyOp32
 70
     1
  0
XRECORD
  5
8A1
102
{ACAD_REACTORS
330
8A0
102
}
330
8A0
100
AcDbXrecord
280
     1
102
RTVSPropertyOp0
 70
     0
102
RTVSPropertyOp1
 70
     0
102
RTVSPropertyOp2
 70
     0
102
RTVSPropertyOp3
 70
     0
102
RTVSPropertyOp4
 70
     0
102
RTVSPropertyOp5
 70
     0
102
RTVSPropertyOp6
 70
     0
102
RTVSPropertyOp7
 70
     0
102
RTVSPropertyOp8
 70
     0
102
RTVSPropertyOp9
 70
     0
102
RTVSPropertyOp10
 70
     0
102
RTVSPropertyOp11
 70
     0
102
RTVSPropertyOp12
 70
     0
102
RTVSPropertyOp13
 70
     0
102
RTVSPropertyOp14
 70
     2
102
RTVSPropertyOp15
 70
     0
102
RTVSPropertyOp16
 70
     0
102
RTVSPropertyOp17
 70
     0
102
RTVSPropertyOp18
 70
     0
102
RTVSPropertyOp19
 70
     0
102
RTVSPropertyOp20
 70
     0
102
RTVSPropertyOp21
 70
     0
102
RTVSPropertyOp22
 70
     0
102
RTVSPropertyOp23
 70
     0
102
RTVSPropertyOp24
 70
     0
102
RTVSPropertyOp25
 70
     0
102
RTVSPropertyOp26
 70
     0
102
RTVSPropertyOp27
 70
     0
102
RTVSPropertyOp28
 70
     0
102
RTVSPropertyOp29
 70
     0
102
RTVSPropertyOp30
 70
     0
102
RTVSPropertyOp31
 70
     0
102
RTVSPropertyOp32
 70
     0
  0
XRECORD
  5
88F
102
{ACAD_REACTORS
330
88E
102
}
330
88E
100
AcDbXrecord
280
     1
102
RTVSPropertyOp0
 70
     1
102
RTVSPropertyOp1
 70
     1
102
RTVSPropertyOp2
 70
     1
102
RTVSPropertyOp3
 70
     1
102
RTVSPropertyOp4
 70
     1
102
RTVSPropertyOp5
 70
     1
102
RTVSPropertyOp6
 70
     1
102
RTVSPropertyOp7
 70
     1
102
RTVSPropertyOp8
 70
     1
102
RTVSPropertyOp9
 70
     1
102
RTVSPropertyOp10
 70
     1
102
RTVSPropertyOp11
 70
     1
102
RTVSPropertyOp12
 70
     1
102
RTVSPropertyOp13
 70
     1
102
RTVSPropertyOp14
 70
     1
102
RTVSPropertyOp15
 70
     1
102
RTVSPropertyOp16
 70
     1
102
RTVSPropertyOp17
 70
     1
102
RTVSPropertyOp18
 70
     1
102
RTVSPropertyOp19
 70
     1
102
RTVSPropertyOp20
 70
     1
102
RTVSPropertyOp21
 70
     1
102
RTVSPropertyOp22
 70
     1
102
RTVSPropertyOp23
 70
     1
102
RTVSPropertyOp24
 70
     1
102
RTVSPropertyOp25
 70
     1
102
RTVSPropertyOp26
 70
     1
102
RTVSPropertyOp27
 70
     1
102
RTVSPropertyOp28
 70
     1
102
RTVSPropertyOp29
 70
     1
102
RTVSPropertyOp30
 70
     1
102
RTVSPropertyOp31
 70
     1
102
RTVSPropertyOp32
 70
     1
  0
XRECORD
  5
873
102
{ACAD_REACTORS
330
872
102
}
330
872
100
AcDbXrecord
280
     1
102
RTVSPropertyOp0
 70
     1
102
RTVSPropertyOp1
 70
     1
102
RTVSPropertyOp2
 70
     1
102
RTVSPropertyOp3
 70
     1
102
RTVSPropertyOp4
 70
     1
102
RTVSPropertyOp5
 70
     1
102
RTVSPropertyOp6
 70
     1
102
RTVSPropertyOp7
 70
     1
102
RTVSPropertyOp8
 70
     1
102
RTVSPropertyOp9
 70
     1
102
RTVSPropertyOp10
 70
     1
102
RTVSPropertyOp11
 70
     1
102
RTVSPropertyOp12
 70
     1
102
RTVSPropertyOp13
 70
     1
102
RTVSPropertyOp14
 70
     1
102
RTVSPropertyOp15
 70
     1
102
RTVSPropertyOp16
 70
     1
102
RTVSPropertyOp17
 70
     1
102
RTVSPropertyOp18
 70
     1
102
RTVSPropertyOp19
 70
     1
102
RTVSPropertyOp20
 70
     1
102
RTVSPropertyOp21
 70
     1
102
RTVSPropertyOp22
 70
     1
102
RTVSPropertyOp23
 70
     1
102
RTVSPropertyOp24
 70
     1
102
RTVSPropertyOp25
 70
     1
102
RTVSPropertyOp26
 70
     1
102
RTVSPropertyOp27
 70
     1
102
RTVSPropertyOp28
 70
     1
102
RTVSPropertyOp29
 70
     1
102
RTVSPropertyOp30
 70
     1
102
RTVSPropertyOp31
 70
     1
102
RTVSPropertyOp32
 70
     1
  0
XRECORD
  5
875
102
{ACAD_REACTORS
330
874
102
}
330
874
100
AcDbXrecord
280
     1
102
RTVSPropertyOp0
 70
     1
102
RTVSPropertyOp1
 70
     1
102
RTVSPropertyOp2
 70
     1
102
RTVSPropertyOp3
 70
     1
102
RTVSPropertyOp4
 70
     1
102
RTVSPropertyOp5
 70
     1
102
RTVSPropertyOp6
 70
     1
102
RTVSPropertyOp7
 70
     1
102
RTVSPropertyOp8
 70
     1
102
RTVSPropertyOp9
 70
     1
102
RTVSPropertyOp10
 70
     1
102
RTVSPropertyOp11
 70
     1
102
RTVSPropertyOp12
 70
     1
102
RTVSPropertyOp13
 70
     1
102
RTVSPropertyOp14
 70
     1
102
RTVSPropertyOp15
 70
     1
102
RTVSPropertyOp16
 70
     1
102
RTVSPropertyOp17
 70
     1
102
RTVSPropertyOp18
 70
     1
102
RTVSPropertyOp19
 70
     1
102
RTVSPropertyOp20
 70
     1
102
RTVSPropertyOp21
 70
     1
102
RTVSPropertyOp22
 70
     1
102
RTVSPropertyOp23
 70
     1
102
RTVSPropertyOp24
 70
     1
102
RTVSPropertyOp25
 70
     1
102
RTVSPropertyOp26
 70
     1
102
RTVSPropertyOp27
 70
     1
102
RTVSPropertyOp28
 70
     1
102
RTVSPropertyOp29
 70
     1
102
RTVSPropertyOp30
 70
     1
102
RTVSPropertyOp31
 70
     1
102
RTVSPropertyOp32
 70
     1
  0
XRECORD
  5
877
102
{ACAD_REACTORS
330
876
102
}
330
876
100
AcDbXrecord
280
     1
102
RTVSPropertyOp0
 70
     1
102
RTVSPropertyOp1
 70
     1
102
RTVSPropertyOp2
 70
     1
102
RTVSPropertyOp3
 70
     1
102
RTVSPropertyOp4
 70
     1
102
RTVSPropertyOp5
 70
     1
102
RTVSPropertyOp6
 70
     1
102
RTVSPropertyOp7
 70
     1
102
RTVSPropertyOp8
 70
     1
102
RTVSPropertyOp9
 70
     1
102
RTVSPropertyOp10
 70
     1
102
RTVSPropertyOp11
 70
     1
102
RTVSPropertyOp12
 70
     1
102
RTVSPropertyOp13
 70
     1
102
RTVSPropertyOp14
 70
     1
102
RTVSPropertyOp15
 70
     1
102
RTVSPropertyOp16
 70
     1
102
RTVSPropertyOp17
 70
     1
102
RTVSPropertyOp18
 70
     1
102
RTVSPropertyOp19
 70
     1
102
RTVSPropertyOp20
 70
     1
102
RTVSPropertyOp21
 70
     1
102
RTVSPropertyOp22
 70
     1
102
RTVSPropertyOp23
 70
     1
102
RTVSPropertyOp24
 70
     1
102
RTVSPropertyOp25
 70
     1
102
RTVSPropertyOp26
 70
     1
102
RTVSPropertyOp27
 70
     1
102
RTVSPropertyOp28
 70
     1
102
RTVSPropertyOp29
 70
     1
102
RTVSPropertyOp30
 70
     1
102
RTVSPropertyOp31
 70
     1
102
RTVSPropertyOp32
 70
     1
  0
XRECORD
  5
879
102
{ACAD_REACTORS
330
878
102
}
330
878
100
AcDbXrecord
280
     1
102
RTVSPropertyOp0
 70
     1
102
RTVSPropertyOp1
 70
     1
102
RTVSPropertyOp2
 70
     1
102
RTVSPropertyOp3
 70
     1
102
RTVSPropertyOp4
 70
     1
102
RTVSPropertyOp5
 70
     1
102
RTVSPropertyOp6
 70
     1
102
RTVSPropertyOp7
 70
     1
102
RTVSPropertyOp8
 70
     1
102
RTVSPropertyOp9
 70
     1
102
RTVSPropertyOp10
 70
     1
102
RTVSPropertyOp11
 70
     1
102
RTVSPropertyOp12
 70
     1
102
RTVSPropertyOp13
 70
     1
102
RTVSPropertyOp14
 70
     1
102
RTVSPropertyOp15
 70
     1
102
RTVSPropertyOp16
 70
     1
102
RTVSPropertyOp17
 70
     1
102
RTVSPropertyOp18
 70
     1
102
RTVSPropertyOp19
 70
     1
102
RTVSPropertyOp20
 70
     1
102
RTVSPropertyOp21
 70
     1
102
RTVSPropertyOp22
 70
     1
102
RTVSPropertyOp23
 70
     1
102
RTVSPropertyOp24
 70
     1
102
RTVSPropertyOp25
 70
     1
102
RTVSPropertyOp26
 70
     1
102
RTVSPropertyOp27
 70
     1
102
RTVSPropertyOp28
 70
     1
102
RTVSPropertyOp29
 70
     1
102
RTVSPropertyOp30
 70
     1
102
RTVSPropertyOp31
 70
     1
102
RTVSPropertyOp32
 70
     1
  0
XRECORD
  5
881
102
{ACAD_REACTORS
330
880
102
}
330
880
100
AcDbXrecord
280
     1
102
RTVSPropertyOp0
 70
     1
102
RTVSPropertyOp1
 70
     1
102
RTVSPropertyOp2
 70
     1
102
RTVSPropertyOp3
 70
     1
102
RTVSPropertyOp4
 70
     1
102
RTVSPropertyOp5
 70
     1
102
RTVSPropertyOp6
 70
     1
102
RTVSPropertyOp7
 70
     1
102
RTVSPropertyOp8
 70
     1
102
RTVSPropertyOp9
 70
     1
102
RTVSPropertyOp10
 70
     1
102
RTVSPropertyOp11
 70
     1
102
RTVSPropertyOp12
 70
     1
102
RTVSPropertyOp13
 70
     1
102
RTVSPropertyOp14
 70
     1
102
RTVSPropertyOp15
 70
     1
102
RTVSPropertyOp16
 70
     1
102
RTVSPropertyOp17
 70
     1
102
RTVSPropertyOp18
 70
     1
102
RTVSPropertyOp19
 70
     1
102
RTVSPropertyOp20
 70
     1
102
RTVSPropertyOp21
 70
     1
102
RTVSPropertyOp22
 70
     1
102
RTVSPropertyOp23
 70
     1
102
RTVSPropertyOp24
 70
     1
102
RTVSPropertyOp25
 70
     1
102
RTVSPropertyOp26
 70
     1
102
RTVSPropertyOp27
 70
     1
102
RTVSPropertyOp28
 70
     1
102
RTVSPropertyOp29
 70
     1
102
RTVSPropertyOp30
 70
     1
102
RTVSPropertyOp31
 70
     1
102
RTVSPropertyOp32
 70
     1
  0
XRECORD
  5
89D
102
{ACAD_REACTORS
330
89C
102
}
330
89C
100
AcDbXrecord
280
     1
102
RTVSPropertyOp0
 70
     0
102
RTVSPropertyOp1
 70
     0
102
RTVSPropertyOp2
 70
     0
102
RTVSPropertyOp3
 70
     0
102
RTVSPropertyOp4
 70
     0
102
RTVSPropertyOp5
 70
     0
102
RTVSPropertyOp6
 70
     0
102
RTVSPropertyOp7
 70
     0
102
RTVSPropertyOp8
 70
     0
102
RTVSPropertyOp9
 70
     0
102
RTVSPropertyOp10
 70
     0
102
RTVSPropertyOp11
 70
     0
102
RTVSPropertyOp12
 70
     0
102
RTVSPropertyOp13
 70
     0
102
RTVSPropertyOp14
 70
     2
102
RTVSPropertyOp15
 70
     0
102
RTVSPropertyOp16
 70
     0
102
RTVSPropertyOp17
 70
     0
102
RTVSPropertyOp18
 70
     0
102
RTVSPropertyOp19
 70
     0
102
RTVSPropertyOp20
 70
     0
102
RTVSPropertyOp21
 70
     0
102
RTVSPropertyOp22
 70
     0
102
RTVSPropertyOp23
 70
     0
102
RTVSPropertyOp24
 70
     0
102
RTVSPropertyOp25
 70
     0
102
RTVSPropertyOp26
 70
     0
102
RTVSPropertyOp27
 70
     0
102
RTVSPropertyOp28
 70
     0
102
RTVSPropertyOp29
 70
     0
102
RTVSPropertyOp30
 70
     0
102
RTVSPropertyOp31
 70
     0
102
RTVSPropertyOp32
 70
     0
  0
XRECORD
  5
88D
102
{ACAD_REACTORS
330
88C
102
}
330
88C
100
AcDbXrecord
280
     1
102
RTVSPropertyOp0
 70
     1
102
RTVSPropertyOp1
 70
     1
102
RTVSPropertyOp2
 70
     1
102
RTVSPropertyOp3
 70
     1
102
RTVSPropertyOp4
 70
     1
102
RTVSPropertyOp5
 70
     1
102
RTVSPropertyOp6
 70
     1
102
RTVSPropertyOp7
 70
     1
102
RTVSPropertyOp8
 70
     1
102
RTVSPropertyOp9
 70
     1
102
RTVSPropertyOp10
 70
     1
102
RTVSPropertyOp11
 70
     1
102
RTVSPropertyOp12
 70
     1
102
RTVSPropertyOp13
 70
     1
102
RTVSPropertyOp14
 70
     1
102
RTVSPropertyOp15
 70
     1
102
RTVSPropertyOp16
 70
     1
102
RTVSPropertyOp17
 70
     1
102
RTVSPropertyOp18
 70
     1
102
RTVSPropertyOp19
 70
     1
102
RTVSPropertyOp20
 70
     1
102
RTVSPropertyOp21
 70
     1
102
RTVSPropertyOp22
 70
     1
102
RTVSPropertyOp23
 70
     1
102
RTVSPropertyOp24
 70
     1
102
RTVSPropertyOp25
 70
     1
102
RTVSPropertyOp26
 70
     1
102
RTVSPropertyOp27
 70
     1
102
RTVSPropertyOp28
 70
     1
102
RTVSPropertyOp29
 70
     1
102
RTVSPropertyOp30
 70
     1
102
RTVSPropertyOp31
 70
     1
102
RTVSPropertyOp32
 70
     1
  0
XRECORD
  5
89F
102
{ACAD_REACTORS
330
89E
102
}
330
89E
100
AcDbXrecord
280
     1
102
RTVSPropertyOp0
 70
     0
102
RTVSPropertyOp1
 70
     0
102
RTVSPropertyOp2
 70
     0
102
RTVSPropertyOp3
 70
     0
102
RTVSPropertyOp4
 70
     0
102
RTVSPropertyOp5
 70
     0
102
RTVSPropertyOp6
 70
     0
102
RTVSPropertyOp7
 70
     0
102
RTVSPropertyOp8
 70
     0
102
RTVSPropertyOp9
 70
     0
102
RTVSPropertyOp10
 70
     0
102
RTVSPropertyOp11
 70
     0
102
RTVSPropertyOp12
 70
     0
102
RTVSPropertyOp13
 70
     0
102
RTVSPropertyOp14
 70
     2
102
RTVSPropertyOp15
 70
     0
102
RTVSPropertyOp16
 70
     0
102
RTVSPropertyOp17
 70
     0
102
RTVSPropertyOp18
 70
     0
102
RTVSPropertyOp19
 70
     0
102
RTVSPropertyOp20
 70
     0
102
RTVSPropertyOp21
 70
     0
102
RTVSPropertyOp22
 70
     0
102
RTVSPropertyOp23
 70
     0
102
RTVSPropertyOp24
 70
     0
102
RTVSPropertyOp25
 70
     0
102
RTVSPropertyOp26
 70
     0
102
RTVSPropertyOp27
 70
     0
102
RTVSPropertyOp28
 70
     0
102
RTVSPropertyOp29
 70
     0
102
RTVSPropertyOp30
 70
     0
102
RTVSPropertyOp31
 70
     0
102
RTVSPropertyOp32
 70
     0
  0
XRECORD
  5
885
102
{ACAD_REACTORS
330
884
102
}
330
884
100
AcDbXrecord
280
     1
102
RTVSPropertyOp0
 70
     1
102
RTVSPropertyOp1
 70
     1
102
RTVSPropertyOp2
 70
     1
102
RTVSPropertyOp3
 70
     1
102
RTVSPropertyOp4
 70
     1
102
RTVSPropertyOp5
 70
     1
102
RTVSPropertyOp6
 70
     1
102
RTVSPropertyOp7
 70
     1
102
RTVSPropertyOp8
 70
     1
102
RTVSPropertyOp9
 70
     1
102
RTVSPropertyOp10
 70
     1
102
RTVSPropertyOp11
 70
     1
102
RTVSPropertyOp12
 70
     1
102
RTVSPropertyOp13
 70
     1
102
RTVSPropertyOp14
 70
     1
102
RTVSPropertyOp15
 70
     1
102
RTVSPropertyOp16
 70
     1
102
RTVSPropertyOp17
 70
     1
102
RTVSPropertyOp18
 70
     1
102
RTVSPropertyOp19
 70
     1
102
RTVSPropertyOp20
 70
     1
102
RTVSPropertyOp21
 70
     1
102
RTVSPropertyOp22
 70
     1
102
RTVSPropertyOp23
 70
     1
102
RTVSPropertyOp24
 70
     1
102
RTVSPropertyOp25
 70
     1
102
RTVSPropertyOp26
 70
     1
102
RTVSPropertyOp27
 70
     1
102
RTVSPropertyOp28
 70
     1
102
RTVSPropertyOp29
 70
     1
102
RTVSPropertyOp30
 70
     1
102
RTVSPropertyOp31
 70
     1
102
RTVSPropertyOp32
 70
     1
  0
XRECORD
  5
89B
102
{ACAD_REACTORS
330
89A
102
}
330
89A
100
AcDbXrecord
280
     1
102
RTVSPropertyOp0
 70
     1
102
RTVSPropertyOp1
 70
     1
102
RTVSPropertyOp2
 70
     1
102
RTVSPropertyOp3
 70
     1
102
RTVSPropertyOp4
 70
     1
102
RTVSPropertyOp5
 70
     1
102
RTVSPropertyOp6
 70
     1
102
RTVSPropertyOp7
 70
     1
102
RTVSPropertyOp8
 70
     1
102
RTVSPropertyOp9
 70
     1
102
RTVSPropertyOp10
 70
     1
102
RTVSPropertyOp11
 70
     1
102
RTVSPropertyOp12
 70
     1
102
RTVSPropertyOp13
 70
     1
102
RTVSPropertyOp14
 70
     1
102
RTVSPropertyOp15
 70
     1
102
RTVSPropertyOp16
 70
     1
102
RTVSPropertyOp17
 70
     1
102
RTVSPropertyOp18
 70
     1
102
RTVSPropertyOp19
 70
     1
102
RTVSPropertyOp20
 70
     1
102
RTVSPropertyOp21
 70
     1
102
RTVSPropertyOp22
 70
     1
102
RTVSPropertyOp23
 70
     1
102
RTVSPropertyOp24
 70
     1
102
RTVSPropertyOp25
 70
     1
102
RTVSPropertyOp26
 70
     1
102
RTVSPropertyOp27
 70
     1
102
RTVSPropertyOp28
 70
     1
102
RTVSPropertyOp29
 70
     1
102
RTVSPropertyOp30
 70
     1
102
RTVSPropertyOp31
 70
     1
102
RTVSPropertyOp32
 70
     1
  0
XRECORD
  5
899
102
{ACAD_REACTORS
330
898
102
}
330
898
100
AcDbXrecord
280
     1
102
RTVSPropertyOp0
 70
     1
102
RTVSPropertyOp1
 70
     1
102
RTVSPropertyOp2
 70
     1
102
RTVSPropertyOp3
 70
     1
102
RTVSPropertyOp4
 70
     1
102
RTVSPropertyOp5
 70
     1
102
RTVSPropertyOp6
 70
     1
102
RTVSPropertyOp7
 70
     1
102
RTVSPropertyOp8
 70
     1
102
RTVSPropertyOp9
 70
     1
102
RTVSPropertyOp10
 70
     1
102
RTVSPropertyOp11
 70
     1
102
RTVSPropertyOp12
 70
     1
102
RTVSPropertyOp13
 70
     1
102
RTVSPropertyOp14
 70
     1
102
RTVSPropertyOp15
 70
     1
102
RTVSPropertyOp16
 70
     1
102
RTVSPropertyOp17
 70
     1
102
RTVSPropertyOp18
 70
     1
102
RTVSPropertyOp19
 70
     1
102
RTVSPropertyOp20
 70
     1
102
RTVSPropertyOp21
 70
     1
102
RTVSPropertyOp22
 70
     1
102
RTVSPropertyOp23
 70
     1
102
RTVSPropertyOp24
 70
     1
102
RTVSPropertyOp25
 70
     1
102
RTVSPropertyOp26
 70
     1
102
RTVSPropertyOp27
 70
     1
102
RTVSPropertyOp28
 70
     1
102
RTVSPropertyOp29
 70
     1
102
RTVSPropertyOp30
 70
     1
102
RTVSPropertyOp31
 70
     1
102
RTVSPropertyOp32
 70
     1
  0
XRECORD
  5
893
102
{ACAD_REACTORS
330
892
102
}
330
892
100
AcDbXrecord
280
     1
102
RTVSPropertyOp0
 70
     1
102
RTVSPropertyOp1
 70
     1
102
RTVSPropertyOp2
 70
     1
102
RTVSPropertyOp3
 70
     1
102
RTVSPropertyOp4
 70
     1
102
RTVSPropertyOp5
 70
     1
102
RTVSPropertyOp6
 70
     1
102
RTVSPropertyOp7
 70
     1
102
RTVSPropertyOp8
 70
     1
102
RTVSPropertyOp9
 70
     1
102
RTVSPropertyOp10
 70
     1
102
RTVSPropertyOp11
 70
     1
102
RTVSPropertyOp12
 70
     1
102
RTVSPropertyOp13
 70
     1
102
RTVSPropertyOp14
 70
     1
102
RTVSPropertyOp15
 70
     1
102
RTVSPropertyOp16
 70
     1
102
RTVSPropertyOp17
 70
     1
102
RTVSPropertyOp18
 70
     1
102
RTVSPropertyOp19
 70
     1
102
RTVSPropertyOp20
 70
     1
102
RTVSPropertyOp21
 70
     1
102
RTVSPropertyOp22
 70
     1
102
RTVSPropertyOp23
 70
     1
102
RTVSPropertyOp24
 70
     1
102
RTVSPropertyOp25
 70
     1
102
RTVSPropertyOp26
 70
     1
102
RTVSPropertyOp27
 70
     1
102
RTVSPropertyOp28
 70
     1
102
RTVSPropertyOp29
 70
     1
102
RTVSPropertyOp30
 70
     1
102
RTVSPropertyOp31
 70
     1
102
RTVSPropertyOp32
 70
     1
  0
XRECORD
  5
895
102
{ACAD_REACTORS
330
894
102
}
330
894
100
AcDbXrecord
280
     1
102
RTVSPropertyOp0
 70
     1
102
RTVSPropertyOp1
 70
     1
102
RTVSPropertyOp2
 70
     1
102
RTVSPropertyOp3
 70
     1
102
RTVSPropertyOp4
 70
     1
102
RTVSPropertyOp5
 70
     1
102
RTVSPropertyOp6
 70
     1
102
RTVSPropertyOp7
 70
     1
102
RTVSPropertyOp8
 70
     1
102
RTVSPropertyOp9
 70
     1
102
RTVSPropertyOp10
 70
     1
102
RTVSPropertyOp11
 70
     1
102
RTVSPropertyOp12
 70
     1
102
RTVSPropertyOp13
 70
     1
102
RTVSPropertyOp14
 70
     1
102
RTVSPropertyOp15
 70
     1
102
RTVSPropertyOp16
 70
     1
102
RTVSPropertyOp17
 70
     1
102
RTVSPropertyOp18
 70
     1
102
RTVSPropertyOp19
 70
     1
102
RTVSPropertyOp20
 70
     1
102
RTVSPropertyOp21
 70
     1
102
RTVSPropertyOp22
 70
     1
102
RTVSPropertyOp23
 70
     1
102
RTVSPropertyOp24
 70
     1
102
RTVSPropertyOp25
 70
     1
102
RTVSPropertyOp26
 70
     1
102
RTVSPropertyOp27
 70
     1
102
RTVSPropertyOp28
 70
     1
102
RTVSPropertyOp29
 70
     1
102
RTVSPropertyOp30
 70
     1
102
RTVSPropertyOp31
 70
     1
102
RTVSPropertyOp32
 70
     1
  0
XRECORD
  5
88B
102
{ACAD_REACTORS
330
88A
102
}
330
88A
100
AcDbXrecord
280
     1
102
RTVSPropertyOp0
 70
     1
102
RTVSPropertyOp1
 70
     1
102
RTVSPropertyOp2
 70
     1
102
RTVSPropertyOp3
 70
     1
102
RTVSPropertyOp4
 70
     1
102
RTVSPropertyOp5
 70
     1
102
RTVSPropertyOp6
 70
     1
102
RTVSPropertyOp7
 70
     1
102
RTVSPropertyOp8
 70
     1
102
RTVSPropertyOp9
 70
     1
102
RTVSPropertyOp10
 70
     1
102
RTVSPropertyOp11
 70
     1
102
RTVSPropertyOp12
 70
     1
102
RTVSPropertyOp13
 70
     1
102
RTVSPropertyOp14
 70
     1
102
RTVSPropertyOp15
 70
     1
102
RTVSPropertyOp16
 70
     1
102
RTVSPropertyOp17
 70
     1
102
RTVSPropertyOp18
 70
     1
102
RTVSPropertyOp19
 70
     1
102
RTVSPropertyOp20
 70
     1
102
RTVSPropertyOp21
 70
     1
102
RTVSPropertyOp22
 70
     1
102
RTVSPropertyOp23
 70
     1
102
RTVSPropertyOp24
 70
     1
102
RTVSPropertyOp25
 70
     1
102
RTVSPropertyOp26
 70
     1
102
RTVSPropertyOp27
 70
     1
102
RTVSPropertyOp28
 70
     1
102
RTVSPropertyOp29
 70
     1
102
RTVSPropertyOp30
 70
     1
102
RTVSPropertyOp31
 70
     1
102
RTVSPropertyOp32
 70
     1
  0
XRECORD
  5
87F
102
{ACAD_REACTORS
330
87E
102
}
330
87E
100
AcDbXrecord
280
     1
102
RTVSPropertyOp0
 70
     1
102
RTVSPropertyOp1
 70
     1
102
RTVSPropertyOp2
 70
     1
102
RTVSPropertyOp3
 70
     1
102
RTVSPropertyOp4
 70
     1
102
RTVSPropertyOp5
 70
     1
102
RTVSPropertyOp6
 70
     1
102
RTVSPropertyOp7
 70
     1
102
RTVSPropertyOp8
 70
     1
102
RTVSPropertyOp9
 70
     1
102
RTVSPropertyOp10
 70
     1
102
RTVSPropertyOp11
 70
     1
102
RTVSPropertyOp12
 70
     1
102
RTVSPropertyOp13
 70
     1
102
RTVSPropertyOp14
 70
     1
102
RTVSPropertyOp15
 70
     1
102
RTVSPropertyOp16
 70
     1
102
RTVSPropertyOp17
 70
     1
102
RTVSPropertyOp18
 70
     1
102
RTVSPropertyOp19
 70
     1
102
RTVSPropertyOp20
 70
     1
102
RTVSPropertyOp21
 70
     1
102
RTVSPropertyOp22
 70
     1
102
RTVSPropertyOp23
 70
     1
102
RTVSPropertyOp24
 70
     1
102
RTVSPropertyOp25
 70
     1
102
RTVSPropertyOp26
 70
     1
102
RTVSPropertyOp27
 70
     1
102
RTVSPropertyOp28
 70
     1
102
RTVSPropertyOp29
 70
     1
102
RTVSPropertyOp30
 70
     1
102
RTVSPropertyOp31
 70
     1
102
RTVSPropertyOp32
 70
     1
  0
XRECORD
  5
897
102
{ACAD_REACTORS
330
896
102
}
330
896
100
AcDbXrecord
280
     1
102
RTVSPropertyOp0
 70
     1
102
RTVSPropertyOp1
 70
     1
102
RTVSPropertyOp2
 70
     1
102
RTVSPropertyOp3
 70
     1
102
RTVSPropertyOp4
 70
     1
102
RTVSPropertyOp5
 70
     1
102
RTVSPropertyOp6
 70
     1
102
RTVSPropertyOp7
 70
     1
102
RTVSPropertyOp8
 70
     1
102
RTVSPropertyOp9
 70
     1
102
RTVSPropertyOp10
 70
     1
102
RTVSPropertyOp11
 70
     1
102
RTVSPropertyOp12
 70
     1
102
RTVSPropertyOp13
 70
     1
102
RTVSPropertyOp14
 70
     1
102
RTVSPropertyOp15
 70
     1
102
RTVSPropertyOp16
 70
     1
102
RTVSPropertyOp17
 70
     1
102
RTVSPropertyOp18
 70
     1
102
RTVSPropertyOp19
 70
     1
102
RTVSPropertyOp20
 70
     1
102
RTVSPropertyOp21
 70
     1
102
RTVSPropertyOp22
 70
     1
102
RTVSPropertyOp23
 70
     1
102
RTVSPropertyOp24
 70
     1
102
RTVSPropertyOp25
 70
     1
102
RTVSPropertyOp26
 70
     1
102
RTVSPropertyOp27
 70
     1
102
RTVSPropertyOp28
 70
     1
102
RTVSPropertyOp29
 70
     1
102
RTVSPropertyOp30
 70
     1
102
RTVSPropertyOp31
 70
     1
102
RTVSPropertyOp32
 70
     1
  0
ENDSEC
  0
EOF
