  0
SECTION
  2
HEADER
  9
$ACADVER
  1
AC1015
  9
$ACADMAINTVER
 70
    20
  9
$DWGCODEPAGE
  3
ANSI_932
  9
$INSBASE
 10
0.0
 20
0.0
 30
0.0
  9
$EXTMIN
 10
45.88537181928589
 20
4.654235011129088
 30
0.0
  9
$EXTMAX
 10
905.8859059681518
 20
289.1534090087523
 30
0.0
  9
$LIMMIN
 10
0.0
 20
0.0
  9
$LIMMAX
 10
12.0
 20
9.0
  9
$ORTHOMODE
 70
     1
  9
$REGENMODE
 70
     1
  9
$FILLMODE
 70
     1
  9
$QTEXTMODE
 70
     0
  9
$MIRRTEXT
 70
     0
  9
$LTSCALE
 40
1.0
  9
$ATTMODE
 70
     1
  9
$TEXTSIZE
 40
3.2
  9
$TRACEWID
 40
0.05
  9
$TEXTSTYLE
  7
高3.2
  9
$CLAYER
  8
0
  9
$CELTYPE
  6
ByLayer
  9
$CECOLOR
 62
   256
  9
$CELTSCALE
 40
1.0
  9
$DISPSILH
 70
     0
  9
$DIMSCALE
 40
1.0
  9
$DIMASZ
 40
2.5
  9
$DIMEXO
 40
0.25
  9
$DIMDLI
 40
0.2
  9
$DIMRND
 40
0.0
  9
$DIMDLE
 40
0.0
  9
$DIMEXE
 40
1.25
  9
$DIMTP
 40
0.0
  9
$DIMTM
 40
0.0
  9
$DIMTXT
 40
3.0
  9
$DIMCEN
 40
0.0
  9
$DIMTSZ
 40
0.0
  9
$DIMTOL
 70
     0
  9
$DIMLIM
 70
     0
  9
$DIMTIH
 70
     0
  9
$DIMTOH
 70
     0
  9
$DIMSE1
 70
     0
  9
$DIMSE2
 70
     0
  9
$DIMTAD
 70
     3
  9
$DIMZIN
 70
     8
  9
$DIMBLK
  1
Open30
  9
$DIMASO
 70
     1
  9
$DIMSHO
 70
     1
  9
$DIMPOST
  1

  9
$DIMAPOST
  1

  9
$DIMALT
 70
     0
  9
$DIMALTD
 70
     3
  9
$DIMALTF
 40
0.03937007874016
  9
$DIMLFAC
 40
1.0
  9
$DIMTOFL
 70
     1
  9
$DIMTVP
 40
0.0
  9
$DIMTIX
 70
     0
  9
$DIMSOXD
 70
     0
  9
$DIMSAH
 70
     0
  9
$DIMBLK1
  1

  9
$DIMBLK2
  1

  9
$DIMSTYLE
  2
FREE
  9
$DIMCLRD
 70
     0
  9
$DIMCLRE
 70
     0
  9
$DIMCLRT
 70
     4
  9
$DIMTFAC
 40
1.0
  9
$DIMGAP
 40
0.625
  9
$DIMJUST
 70
     0
  9
$DIMSD1
 70
     0
  9
$DIMSD2
 70
     0
  9
$DIMTOLJ
 70
     0
  9
$DIMTZIN
 70
     8
  9
$DIMALTZ
 70
     0
  9
$DIMALTTZ
 70
     0
  9
$DIMUPT
 70
     1
  9
$DIMDEC
 70
     2
  9
$DIMTDEC
 70
     2
  9
$DIMALTU
 70
     2
  9
$DIMALTTD
 70
     3
  9
$DIMTXSTY
  7
Standard
  9
$DIMAUNIT
 70
     0
  9
$DIMADEC
 70
     1
  9
$DIMALTRND
 40
0.0
  9
$DIMAZIN
 70
     2
  9
$DIMDSEP
 70
    46
  9
$DIMATFIT
 70
     0
  9
$DIMFRAC
 70
     0
  9
$DIMLDRBLK
  1
Open30
  9
$DIMLUNIT
 70
     2
  9
$DIMLWD
 70
    -2
  9
$DIMLWE
 70
    -2
  9
$DIMTMOVE
 70
     0
  9
$LUNITS
 70
     2
  9
$LUPREC
 70
     4
  9
$SKETCHINC
 40
0.1
  9
$FILLETRAD
 40
0.0
  9
$AUNITS
 70
     0
  9
$AUPREC
 70
     0
  9
$MENU
  1
.
  9
$ELEVATION
 40
0.0
  9
$PELEVATION
 40
0.0
  9
$THICKNESS
 40
0.0
  9
$LIMCHECK
 70
     0
  9
$CHAMFERA
 40
0.0
  9
$CHAMFERB
 40
0.0
  9
$CHAMFERC
 40
0.0
  9
$CHAMFERD
 40
0.0
  9
$SKPOLY
 70
     0
  9
$TDCREATE
 40
2455517.646036782
  9
$TDUCREATE
 40
2455517.271036782
  9
$TDUPDATE
 40
2457373.395712685
  9
$TDUUPDATE
 40
2457373.020712685
  9
$TDINDWG
 40
0.0345489120
  9
$TDUSRTIMER
 40
0.0345485532
  9
$USRTIMER
 70
     1
  9
$ANGBASE
 50
0.0
  9
$ANGDIR
 70
     0
  9
$PDMODE
 70
     0
  9
$PDSIZE
 40
0.0
  9
$PLINEWID
 40
0.0
  9
$SPLFRAME
 70
     0
  9
$SPLINETYPE
 70
     6
  9
$SPLINESEGS
 70
     8
  9
$HANDSEED
  5
149B
  9
$SURFTAB1
 70
     6
  9
$SURFTAB2
 70
     6
  9
$SURFTYPE
 70
     6
  9
$SURFU
 70
     6
  9
$SURFV
 70
     6
  9
$UCSBASE
  2

  9
$UCSNAME
  2

  9
$UCSORG
 10
0.0
 20
0.0
 30
0.0
  9
$UCSXDIR
 10
1.0
 20
0.0
 30
0.0
  9
$UCSYDIR
 10
0.0
 20
1.0
 30
0.0
  9
$UCSORTHOREF
  2

  9
$UCSORTHOVIEW
 70
     0
  9
$UCSORGTOP
 10
0.0
 20
0.0
 30
0.0
  9
$UCSORGBOTTOM
 10
0.0
 20
0.0
 30
0.0
  9
$UCSORGLEFT
 10
0.0
 20
0.0
 30
0.0
  9
$UCSORGRIGHT
 10
0.0
 20
0.0
 30
0.0
  9
$UCSORGFRONT
 10
0.0
 20
0.0
 30
0.0
  9
$UCSORGBACK
 10
0.0
 20
0.0
 30
0.0
  9
$PUCSBASE
  2

  9
$PUCSNAME
  2

  9
$PUCSORG
 10
0.0
 20
0.0
 30
0.0
  9
$PUCSXDIR
 10
1.0
 20
0.0
 30
0.0
  9
$PUCSYDIR
 10
0.0
 20
1.0
 30
0.0
  9
$PUCSORTHOREF
  2

  9
$PUCSORTHOVIEW
 70
     0
  9
$PUCSORGTOP
 10
0.0
 20
0.0
 30
0.0
  9
$PUCSORGBOTTOM
 10
0.0
 20
0.0
 30
0.0
  9
$PUCSORGLEFT
 10
0.0
 20
0.0
 30
0.0
  9
$PUCSORGRIGHT
 10
0.0
 20
0.0
 30
0.0
  9
$PUCSORGFRONT
 10
0.0
 20
0.0
 30
0.0
  9
$PUCSORGBACK
 10
0.0
 20
0.0
 30
0.0
  9
$USERI1
 70
     0
  9
$USERI2
 70
     0
  9
$USERI3
 70
     0
  9
$USERI4
 70
     0
  9
$USERI5
 70
     0
  9
$USERR1
 40
0.0
  9
$USERR2
 40
0.0
  9
$USERR3
 40
0.0
  9
$USERR4
 40
0.0
  9
$USERR5
 40
0.0
  9
$WORLDVIEW
 70
     1
  9
$SHADEDGE
 70
     3
  9
$SHADEDIF
 70
    70
  9
$TILEMODE
 70
     1
  9
$MAXACTVP
 70
    64
  9
$PINSBASE
 10
0.0
 20
0.0
 30
0.0
  9
$PLIMCHECK
 70
     0
  9
$PEXTMIN
 10
0.0
 20
0.0
 30
0.0
  9
$PEXTMAX
 10
0.0
 20
0.0
 30
0.0
  9
$PLIMMIN
 10
0.0
 20
0.0
  9
$PLIMMAX
 10
12.0
 20
9.0
  9
$UNITMODE
 70
     0
  9
$VISRETAIN
 70
     1
  9
$PLINEGEN
 70
     0
  9
$PSLTSCALE
 70
     1
  9
$TREEDEPTH
 70
  3020
  9
$CMLSTYLE
  2
Standard
  9
$CMLJUST
 70
     0
  9
$CMLSCALE
 40
1.0
  9
$PROXYGRAPHICS
 70
     1
  9
$MEASUREMENT
 70
     1
  9
$CELWEIGHT
370
    -1
  9
$ENDCAPS
280
     0
  9
$JOINSTYLE
280
     0
  9
$LWDISPLAY
290
     0
  9
$INSUNITS
 70
     1
  9
$HYPERLINKBASE
  1

  9
$STYLESHEET
  1

  9
$XEDIT
290
     1
  9
$CEPSNTYPE
380
     0
  9
$PSTYLEMODE
290
     1
  9
$FINGERPRINTGUID
  2
{D7039B94-3801-4BC0-9635-702783D1751A}
  9
$VERSIONGUID
  2
{5FBEB7E5-43E6-4FFC-9989-6CE6EE1F3D68}
  9
$EXTNAMES
290
     1
  9
$PSVPSCALE
 40
0.0
  9
$OLESTARTUP
290
     0
  0
ENDSEC
  0
SECTION
  2
CLASSES
  0
CLASS
  1
ACDBDICTIONARYWDFLT
  2
AcDbDictionaryWithDefault
  3
ObjectDBX Classes
 90
        0
280
     0
281
     0
  0
CLASS
  1
ACDBPLACEHOLDER
  2
AcDbPlaceHolder
  3
ObjectDBX Classes
 90
        0
280
     0
281
     0
  0
CLASS
  1
LAYOUT
  2
AcDbLayout
  3
ObjectDBX Classes
 90
        0
280
     0
281
     0
  0
CLASS
  1
DICTIONARYVAR
  2
AcDbDictionaryVar
  3
ObjectDBX Classes
 90
        0
280
     0
281
     0
  0
CLASS
  1
TABLESTYLE
  2
AcDbTableStyle
  3
ObjectDBX Classes
 90
     4095
280
     0
281
     0
  0
CLASS
  1
MATERIAL
  2
AcDbMaterial
  3
ObjectDBX Classes
 90
     1153
280
     0
281
     0
  0
CLASS
  1
VISUALSTYLE
  2
AcDbVisualStyle
  3
ObjectDBX Classes
 90
     4095
280
     0
281
     0
  0
CLASS
  1
SORTENTSTABLE
  2
AcDbSortentsTable
  3
ObjectDBX Classes
 90
        0
280
     0
281
     0
  0
CLASS
  1
DIMASSOC
  2
AcDbDimAssoc
  3
"AcDbDimAssoc|Product Desc:     AcDim ARX App For Dimension|Company:          Autodesk, Inc.|WEB Address:      www.autodesk.com"
 90
        0
280
     0
281
     0
  0
CLASS
  1
SCALE
  2
AcDbScale
  3
ObjectDBX Classes
 90
     1153
280
     0
281
     0
  0
CLASS
  1
MLEADERSTYLE
  2
AcDbMLeaderStyle
  3
ACDB_MLEADERSTYLE_CLASS
 90
     4095
280
     0
281
     0
  0
CLASS
  1
CELLSTYLEMAP
  2
AcDbCellStyleMap
  3
ObjectDBX Classes
 90
     1152
280
     0
281
     0
  0
CLASS
  1
AEC_REFEDIT_STATUS_TRACKER
  2
AecDbRefEditStatusTracker
  3
AecArchBase60|Product Desc: Autodesk Architectural Desktop 2007 |Company: Autodesk,Inc. |WEB Address: www.autodesk.com
 90
      129
280
     0
281
     0
  0
CLASS
  1
NPOCOLLECTION
  2
AcDbImpNonPersistentObjectsCollection
  3
ObjectDBX Classes
 90
     1153
280
     0
281
     0
  0
ENDSEC
  0
SECTION
  2
TABLES
  0
TABLE
  2
VPORT
  5
8
330
0
100
AcDbSymbolTable
 70
     1
  0
VPORT
  5
94
330
8
100
AcDbSymbolTableRecord
100
AcDbViewportTableRecord
  2
*Active
 70
     0
 10
0.0
 20
0.0
 11
1.0
 21
1.0
 12
279.0341246002789
 22
94.44788160812743
 13
0.0
 23
0.0
 14
0.5
 24
0.5
 15
0.5
 25
0.5
 16
0.0
 26
0.0
 36
1.0
 17
0.0
 27
0.0
 37
0.0
 40
515.7401467151173
 41
1.722139673105497
 42
50.0
 43
0.0
 44
0.0
 50
0.0
 51
0.0
 71
     0
 72
  1000
 73
     1
 74
     2
 75
     0
 76
     0
 77
     0
 78
     0
281
     0
 65
     1
110
0.0
120
0.0
130
0.0
111
1.0
121
0.0
131
0.0
112
0.0
122
1.0
132
0.0
 79
     0
146
0.0
  0
ENDTAB
  0
TABLE
  2
LTYPE
  5
5
330
0
100
AcDbSymbolTable
 70
     4
  0
LTYPE
  5
14
330
5
100
AcDbSymbolTableRecord
100
AcDbLinetypeTableRecord
  2
ByBlock
 70
     0
  3

 72
    65
 73
     0
 40
0.0
  0
LTYPE
  5
15
330
5
100
AcDbSymbolTableRecord
100
AcDbLinetypeTableRecord
  2
ByLayer
 70
     0
  3

 72
    65
 73
     0
 40
0.0
  0
LTYPE
  5
16
330
5
100
AcDbSymbolTableRecord
100
AcDbLinetypeTableRecord
  2
Continuous
 70
     0
  3
Solid line
 72
    65
 73
     0
 40
0.0
  0
LTYPE
  5
148
330
5
100
AcDbSymbolTableRecord
100
AcDbLinetypeTableRecord
  2
CENTER
 70
     0
  3
Center ____ _ ____ _ ____ _ ____ _ ____ _ ____
 72
    65
 73
     4
 40
50.8
 49
31.75
 74
     0
 49
-6.349999999999997
 74
     0
 49
6.349999999999997
 74
     0
 49
-6.349999999999997
 74
     0
  0
LTYPE
  5
181
330
5
100
AcDbSymbolTableRecord
100
AcDbLinetypeTableRecord
  2
DASHED
 70
     0
  3
DASHED
 72
    65
 73
     2
 40
0.75
 49
0.5
 74
     0
 49
-0.25
 74
     0
  0
ENDTAB
  0
TABLE
  2
LAYER
  5
2
102
{ACAD_XDICTIONARY
360
DD
102
}
330
0
100
AcDbSymbolTable
 70
     2
  0
LAYER
  5
10
102
{ACAD_XDICTIONARY
360
AF3
102
}
330
2
100
AcDbSymbolTableRecord
100
AcDbLayerTableRecord
  2
0
 70
     0
 62
     7
  6
Continuous
370
    -3
390
F
  0
LAYER
  5
D8
330
2
100
AcDbSymbolTableRecord
100
AcDbLayerTableRecord
  2
Defpoints
 70
     0
 62
     7
  6
Continuous
290
     0
370
    -3
390
F
  0
ENDTAB
  0
TABLE
  2
STYLE
  5
3
330
0
100
AcDbSymbolTable
 70
     6
  0
STYLE
  5
11
330
3
100
AcDbSymbolTableRecord
100
AcDbTextStyleTableRecord
  2
Standard
 70
     0
 40
0.0
 41
1.0
 50
0.0
 71
     0
 42
0.2
  3
txt.shx
  4
bigfont.shx
  0
STYLE
  5
11D
330
3
100
AcDbSymbolTableRecord
100
AcDbTextStyleTableRecord
  2
高3.2
 70
     0
 40
3.2
 41
1.0
 50
0.0
 71
     0
 42
3.2
  3
txt.shx
  4
bigfont.shx
  0
STYLE
  5
11E
330
3
100
AcDbSymbolTableRecord
100
AcDbTextStyleTableRecord
  2
高6.3
 70
     0
 40
6.299999999999998
 41
1.0
 50
0.0
 71
     0
 42
6.299999999999998
  3
txt.shx
  4
bigfont.shx
  0
STYLE
  5
11F
330
3
100
AcDbSymbolTableRecord
100
AcDbTextStyleTableRecord
  2
高2.5
 70
     0
 40
2.5
 41
1.0
 50
0.0
 71
     0
 42
0.2
  3
txt.shx
  4
bigfont.shx
  0
STYLE
  5
146
330
3
100
AcDbSymbolTableRecord
100
AcDbTextStyleTableRecord
  2
高4.5
 70
     0
 40
4.5
 41
1.0
 50
0.0
 71
     0
 42
6.299999999999998
  3
txt.shx
  4
bigfont.shx
  0
STYLE
  5
798
330
3
100
AcDbSymbolTableRecord
100
AcDbTextStyleTableRecord
  2
高2
 70
     0
 40
2.0
 41
1.0
 50
0.0
 71
     0
 42
2.0
  3
txt.shx
  4
bigfont.shx
  0
ENDTAB
  0
TABLE
  2
VIEW
  5
6
330
0
100
AcDbSymbolTable
 70
     0
  0
ENDTAB
  0
TABLE
  2
UCS
  5
7
330
0
100
AcDbSymbolTable
 70
     0
  0
ENDTAB
  0
TABLE
  2
APPID
  5
9
330
0
100
AcDbSymbolTable
 70
     9
  0
APPID
  5
12
330
9
100
AcDbSymbolTableRecord
100
AcDbRegAppTableRecord
  2
ACAD
 70
     0
  0
APPID
  5
DC
330
9
100
AcDbSymbolTableRecord
100
AcDbRegAppTableRecord
  2
ACAD_DSTYLE_DIMJOGGED_JOGANGLE_SYMBOL
 70
     0
  0
APPID
  5
6A0
330
9
100
AcDbSymbolTableRecord
100
AcDbRegAppTableRecord
  2
ACAD_DSTYLE_DIMARC_LENGTH_SYMBOL
 70
     0
  0
APPID
  5
6A1
330
9
100
AcDbSymbolTableRecord
100
AcDbRegAppTableRecord
  2
ACAD_DSTYLE_DIMEXT_LENGTH
 70
     0
  0
APPID
  5
79C
330
9
100
AcDbSymbolTableRecord
100
AcDbRegAppTableRecord
  2
ACAD_DSTYLE_DIMJAG
 70
     0
  0
APPID
  5
79D
330
9
100
AcDbSymbolTableRecord
100
AcDbRegAppTableRecord
  2
ACAD_DSTYLE_DIMBREAK
 70
     0
  0
APPID
  5
79E
330
9
100
AcDbSymbolTableRecord
100
AcDbRegAppTableRecord
  2
ACAD_DSTYLE_DIMTALN
 70
     0
  0
APPID
  5
8DF
330
9
100
AcDbSymbolTableRecord
100
AcDbRegAppTableRecord
  2
ACAD_EXEMPT_FROM_CAD_STANDARDS
 70
     0
  0
APPID
  5
B3B
330
9
100
AcDbSymbolTableRecord
100
AcDbRegAppTableRecord
  2
ACAD_MLEADERVER
 70
     0
  0
ENDTAB
  0
TABLE
  2
DIMSTYLE
  5
A
330
0
100
AcDbSymbolTable
 70
    11
100
AcDbDimStyleTable
 71
     2
340
997
340
D9
  0
DIMSTYLE
105
D9
330
A
100
AcDbSymbolTableRecord
100
AcDbDimStyleTableRecord
  2
1：1
 70
     0
 41
2.5
 42
0.25
 43
0.2
 44
1.25
 73
     0
 74
     0
 77
     3
 78
     8
 79
     2
140
3.0
141
0.0
143
0.03937007874016
147
0.625
171
     3
172
     1
178
     4
179
     1
271
     2
272
     2
274
     3
283
     0
284
     8
288
     1
289
     0
340
11
341
C6
342
C6
1001
ACAD_DSTYLE_DIMARC_LENGTH_SYMBOL
1070
   379
1070
     2
1001
ACAD_DSTYLE_DIMEXT_LENGTH
1070
   378
1040
1.25
1001
ACAD_DSTYLE_DIMJOGGED_JOGANGLE_SYMBOL
1070
   384
1040
1.570796326794896
  0
DIMSTYLE
105
997
330
A
100
AcDbSymbolTableRecord
100
AcDbDimStyleTableRecord
  2
FREE
 70
     0
 41
2.5
 42
0.25
 43
0.2
 44
1.25
 73
     0
 74
     0
 77
     3
 78
     8
 79
     2
140
3.0
141
0.0
143
0.03937007874016
147
0.625
171
     3
172
     1
178
     4
179
     1
271
     2
272
     2
274
     3
283
     0
284
     8
288
     1
289
     0
340
11
341
C6
342
C6
1001
ACAD_DSTYLE_DIMBREAK
1070
   391
1040
3.75
1001
ACAD_DSTYLE_DIMJAG
1070
   388
1040
1.5
1001
ACAD_DSTYLE_DIMTALN
1070
   392
1070
     0
1001
ACAD_DSTYLE_DIMARC_LENGTH_SYMBOL
1070
   379
1070
     2
1001
ACAD_DSTYLE_DIMEXT_LENGTH
1070
   378
1040
1.25
1001
ACAD_DSTYLE_DIMJOGGED_JOGANGLE_SYMBOL
1070
   384
1040
1.570796326794896
  0
DIMSTYLE
105
C20
102
{ACAD_REACTORS
330
E65
102
}
330
A
100
AcDbSymbolTableRecord
100
AcDbDimStyleTableRecord
  2
8：10
 70
     0
 41
2.5
 42
0.25
 43
0.2
 44
1.25
 73
     0
 74
     0
 77
     3
 78
     8
 79
     2
140
3.0
141
0.0
143
0.03937007874016
144
1.25
147
0.625
171
     3
172
     1
178
     4
179
     1
271
     2
272
     2
274
     3
283
     0
284
     8
288
     1
289
     0
340
11
341
C6
342
C6
1001
ACAD_DSTYLE_DIMBREAK
1070
   391
1040
3.75
1001
ACAD_DSTYLE_DIMJAG
1070
   388
1040
1.5
1001
ACAD_DSTYLE_DIMTALN
1070
   392
1070
     0
1001
ACAD_DSTYLE_DIMARC_LENGTH_SYMBOL
1070
   379
1070
     2
1001
ACAD_DSTYLE_DIMEXT_LENGTH
1070
   378
1040
1.25
1001
ACAD_DSTYLE_DIMJOGGED_JOGANGLE_SYMBOL
1070
   384
1040
1.570796326794896
  0
DIMSTYLE
105
120A
102
{ACAD_REACTORS
330
121A
102
}
330
A
100
AcDbSymbolTableRecord
100
AcDbDimStyleTableRecord
  2
2：1
 70
     0
 41
2.5
 42
0.25
 43
0.2
 44
1.25
 73
     0
 74
     0
 77
     3
 78
     8
 79
     2
140
3.0
141
0.0
143
0.03937007874016
144
0.5
147
0.625
171
     3
172
     1
178
     4
179
     1
271
     2
272
     2
274
     3
283
     0
284
     8
288
     1
289
     0
340
11
341
C6
342
C6
1001
ACAD_DSTYLE_DIMARC_LENGTH_SYMBOL
1070
   379
1070
     2
1001
ACAD_DSTYLE_DIMEXT_LENGTH
1070
   378
1040
1.25
1001
ACAD_DSTYLE_DIMJOGGED_JOGANGLE_SYMBOL
1070
   384
1040
1.570796326794896
  0
DIMSTYLE
105
120B
102
{ACAD_REACTORS
330
121B
102
}
330
A
100
AcDbSymbolTableRecord
100
AcDbDimStyleTableRecord
  2
5：1
 70
     0
 41
2.5
 42
0.25
 43
0.2
 44
1.25
 73
     0
 74
     0
 77
     3
 78
     8
 79
     2
140
3.0
141
0.0
143
0.03937007874016
144
0.2
147
0.625
171
     3
172
     1
178
     4
179
     1
271
     2
272
     2
274
     3
283
     0
284
     8
288
     1
289
     0
340
11
341
C6
342
C6
1001
ACAD_DSTYLE_DIMARC_LENGTH_SYMBOL
1070
   379
1070
     2
1001
ACAD_DSTYLE_DIMEXT_LENGTH
1070
   378
1040
1.25
1001
ACAD_DSTYLE_DIMJOGGED_JOGANGLE_SYMBOL
1070
   384
1040
1.570796326794896
  0
DIMSTYLE
105
120C
102
{ACAD_REACTORS
330
1219
102
}
330
A
100
AcDbSymbolTableRecord
100
AcDbDimStyleTableRecord
  2
10：1
 70
     0
 41
2.5
 42
0.25
 43
0.2
 44
1.25
 73
     0
 74
     0
 77
     3
 78
     8
 79
     2
140
3.0
141
0.0
143
0.03937007874016
144
0.1
147
0.625
171
     3
172
     1
178
     4
179
     1
271
     2
272
     2
274
     3
283
     0
284
     8
288
     1
289
     0
340
11
341
C6
342
C6
1001
ACAD_DSTYLE_DIMARC_LENGTH_SYMBOL
1070
   379
1070
     2
1001
ACAD_DSTYLE_DIMEXT_LENGTH
1070
   378
1040
1.25
1001
ACAD_DSTYLE_DIMJOGGED_JOGANGLE_SYMBOL
1070
   384
1040
1.570796326794896
  0
DIMSTYLE
105
120D
102
{ACAD_REACTORS
330
1217
102
}
330
A
100
AcDbSymbolTableRecord
100
AcDbDimStyleTableRecord
  2
1／2
 70
     0
 41
2.5
 42
0.25
 43
0.2
 44
1.25
 73
     0
 74
     0
 77
     3
 78
     8
 79
     2
140
3.0
141
0.0
143
0.03937007874016
144
2.0
147
0.625
171
     3
172
     1
178
     4
179
     1
271
     2
272
     2
274
     3
283
     0
284
     8
288
     1
289
     0
340
11
341
C6
342
C6
1001
ACAD_DSTYLE_DIMARC_LENGTH_SYMBOL
1070
   379
1070
     2
1001
ACAD_DSTYLE_DIMEXT_LENGTH
1070
   378
1040
1.25
1001
ACAD_DSTYLE_DIMJOGGED_JOGANGLE_SYMBOL
1070
   384
1040
1.570796326794896
  0
DIMSTYLE
105
120E
102
{ACAD_REACTORS
330
1216
102
}
330
A
100
AcDbSymbolTableRecord
100
AcDbDimStyleTableRecord
  2
1／5
 70
     0
 41
2.5
 42
0.25
 43
0.2
 44
1.25
 73
     0
 74
     0
 77
     3
 78
     8
 79
     2
140
3.0
141
0.0
143
0.03937007874016
144
5.0
147
0.625
171
     3
172
     1
178
     4
179
     1
271
     2
272
     2
274
     3
283
     0
284
     8
288
     1
289
     0
340
11
341
C6
342
C6
1001
ACAD_DSTYLE_DIMARC_LENGTH_SYMBOL
1070
   379
1070
     2
1001
ACAD_DSTYLE_DIMEXT_LENGTH
1070
   378
1040
1.25
1001
ACAD_DSTYLE_DIMJOGGED_JOGANGLE_SYMBOL
1070
   384
1040
1.570796326794896
  0
DIMSTYLE
105
120F
102
{ACAD_REACTORS
330
1218
102
}
330
A
100
AcDbSymbolTableRecord
100
AcDbDimStyleTableRecord
  2
1／10
 70
     0
 41
2.5
 42
0.25
 43
0.2
 44
1.25
 73
     0
 74
     0
 77
     3
 78
     8
 79
     2
140
3.0
141
0.0
143
0.03937007874016
144
10.0
147
0.625
171
     3
172
     1
178
     4
179
     1
271
     2
272
     2
274
     3
283
     0
284
     8
288
     1
289
     0
340
11
341
C6
342
C6
1001
ACAD_DSTYLE_DIMARC_LENGTH_SYMBOL
1070
   379
1070
     2
1001
ACAD_DSTYLE_DIMEXT_LENGTH
1070
   378
1040
1.25
1001
ACAD_DSTYLE_DIMJOGGED_JOGANGLE_SYMBOL
1070
   384
1040
1.570796326794896
  0
DIMSTYLE
105
1210
102
{ACAD_REACTORS
330
121C
102
}
330
A
100
AcDbSymbolTableRecord
100
AcDbDimStyleTableRecord
  2
1／4
 70
     0
 41
2.5
 42
0.25
 43
0.2
 44
1.25
 73
     0
 74
     0
 77
     3
 78
     8
 79
     2
140
3.0
141
0.0
143
0.03937007874016
144
4.0
147
0.625
171
     3
172
     1
178
     4
179
     1
271
     2
272
     2
274
     3
283
     0
284
     8
288
     1
289
     0
340
11
341
C6
342
C6
1001
ACAD_DSTYLE_DIMARC_LENGTH_SYMBOL
1070
   379
1070
     2
1001
ACAD_DSTYLE_DIMEXT_LENGTH
1070
   378
1040
1.25
1001
ACAD_DSTYLE_DIMJOGGED_JOGANGLE_SYMBOL
1070
   384
1040
1.570796326794896
  0
DIMSTYLE
105
1211
102
{ACAD_REACTORS
330
121D
102
}
330
A
100
AcDbSymbolTableRecord
100
AcDbDimStyleTableRecord
  2
1／3
 70
     0
 41
2.5
 42
0.25
 43
0.2
 44
1.25
 73
     0
 74
     0
 77
     3
 78
     8
 79
     2
140
3.0
141
0.0
143
0.03937007874016
144
3.0
147
0.625
171
     3
172
     1
178
     4
179
     1
271
     2
272
     2
274
     3
283
     0
284
     8
288
     1
289
     0
340
11
341
C6
342
C6
1001
ACAD_DSTYLE_DIMARC_LENGTH_SYMBOL
1070
   379
1070
     2
1001
ACAD_DSTYLE_DIMEXT_LENGTH
1070
   378
1040
1.25
1001
ACAD_DSTYLE_DIMJOGGED_JOGANGLE_SYMBOL
1070
   384
1040
1.570796326794896
  0
ENDTAB
  0
TABLE
  2
BLOCK_RECORD
  5
1
330
0
100
AcDbSymbolTable
 70
    39
  0
BLOCK_RECORD
  5
1F
102
{ACAD_XDICTIONARY
360
1130
102
}
330
1
100
AcDbSymbolTableRecord
100
AcDbBlockTableRecord
  2
*Model_Space
340
22
  0
BLOCK_RECORD
  5
58
330
1
100
AcDbSymbolTableRecord
100
AcDbBlockTableRecord
  2
*Paper_Space
340
59
  0
BLOCK_RECORD
  5
5D
330
1
100
AcDbSymbolTableRecord
100
AcDbBlockTableRecord
  2
*Paper_Space0
340
5E
  0
BLOCK_RECORD
  5
C6
330
1
100
AcDbSymbolTableRecord
100
AcDbBlockTableRecord
  2
_Open30
340
0
102
{BLKREFS
331
BC2
331
BC3
331
BCB
331
BCC
331
BD4
331
BD5
331
BDD
331
BDE
331
BE9
331
BEA
331
BF5
331
BF6
331
C01
331
C02
331
C0D
331
C0E
331
C19
331
C1A
331
10E9
331
10EA
331
10F2
331
10F3
331
10FB
331
10FC
331
1104
331
1105
331
1110
331
1111
331
1129
331
112A
331
1187
331
1188
331
1195
331
1196
331
11A3
331
11A4
331
11B1
331
11B2
331
11BF
331
11C0
331
11CD
331
11CE
331
11DB
331
11DC
331
11E9
331
11EA
331
11F7
331
11F8
331
1203
331
1204
331
12BD
331
12BE
331
12C8
331
12C9
331
12D3
331
12D4
331
12DE
331
12DF
331
12E9
331
12EA
331
12F4
331
12F5
331
12FF
331
1300
331
130A
331
130B
331
1315
331
1316
331
131E
331
131F
102
}
  0
BLOCK_RECORD
  5
637
330
1
100
AcDbSymbolTableRecord
100
AcDbBlockTableRecord
  2
*D2
340
0
  0
BLOCK_RECORD
  5
643
330
1
100
AcDbSymbolTableRecord
100
AcDbBlockTableRecord
  2
*D3
340
0
  0
BLOCK_RECORD
  5
64F
330
1
100
AcDbSymbolTableRecord
100
AcDbBlockTableRecord
  2
*D4
340
0
  0
BLOCK_RECORD
  5
65B
330
1
100
AcDbSymbolTableRecord
100
AcDbBlockTableRecord
  2
*D5
340
0
  0
BLOCK_RECORD
  5
BE4
330
1
100
AcDbSymbolTableRecord
100
AcDbBlockTableRecord
  2
*D6
340
0
  0
BLOCK_RECORD
  5
BF0
330
1
100
AcDbSymbolTableRecord
100
AcDbBlockTableRecord
  2
*D7
340
0
  0
BLOCK_RECORD
  5
BFC
330
1
100
AcDbSymbolTableRecord
100
AcDbBlockTableRecord
  2
*D8
340
0
  0
BLOCK_RECORD
  5
C08
330
1
100
AcDbSymbolTableRecord
100
AcDbBlockTableRecord
  2
*D9
340
0
  0
BLOCK_RECORD
  5
C14
330
1
100
AcDbSymbolTableRecord
100
AcDbBlockTableRecord
  2
*D10
340
0
  0
BLOCK_RECORD
  5
10B6
330
1
100
AcDbSymbolTableRecord
100
AcDbBlockTableRecord
  2
*D12
340
0
  0
BLOCK_RECORD
  5
10C2
330
1
100
AcDbSymbolTableRecord
100
AcDbBlockTableRecord
  2
*D13
340
0
  0
BLOCK_RECORD
  5
10CE
330
1
100
AcDbSymbolTableRecord
100
AcDbBlockTableRecord
  2
*D14
340
0
  0
BLOCK_RECORD
  5
10DA
330
1
100
AcDbSymbolTableRecord
100
AcDbBlockTableRecord
  2
*D15
340
0
  0
BLOCK_RECORD
  5
110A
330
1
100
AcDbSymbolTableRecord
100
AcDbBlockTableRecord
  2
*D16
340
0
  0
BLOCK_RECORD
  5
111A
330
1
100
AcDbSymbolTableRecord
100
AcDbBlockTableRecord
  2
*D17
340
0
  0
BLOCK_RECORD
  5
1180
330
1
100
AcDbSymbolTableRecord
100
AcDbBlockTableRecord
  2
*D18
340
0
  0
BLOCK_RECORD
  5
118E
330
1
100
AcDbSymbolTableRecord
100
AcDbBlockTableRecord
  2
*D19
340
0
  0
BLOCK_RECORD
  5
119C
330
1
100
AcDbSymbolTableRecord
100
AcDbBlockTableRecord
  2
*D20
340
0
  0
BLOCK_RECORD
  5
11AA
330
1
100
AcDbSymbolTableRecord
100
AcDbBlockTableRecord
  2
*D21
340
0
  0
BLOCK_RECORD
  5
11B8
330
1
100
AcDbSymbolTableRecord
100
AcDbBlockTableRecord
  2
*D22
340
0
  0
BLOCK_RECORD
  5
11C6
330
1
100
AcDbSymbolTableRecord
100
AcDbBlockTableRecord
  2
*D23
340
0
  0
BLOCK_RECORD
  5
11D4
330
1
100
AcDbSymbolTableRecord
100
AcDbBlockTableRecord
  2
*D24
340
0
  0
BLOCK_RECORD
  5
11E2
330
1
100
AcDbSymbolTableRecord
100
AcDbBlockTableRecord
  2
*D25
340
0
  0
BLOCK_RECORD
  5
11F0
330
1
100
AcDbSymbolTableRecord
100
AcDbBlockTableRecord
  2
*D26
340
0
  0
BLOCK_RECORD
  5
11FE
330
1
100
AcDbSymbolTableRecord
100
AcDbBlockTableRecord
  2
*D27
340
0
  0
BLOCK_RECORD
  5
122E
330
1
100
AcDbSymbolTableRecord
100
AcDbBlockTableRecord
  2
*D29
340
0
  0
BLOCK_RECORD
  5
123C
330
1
100
AcDbSymbolTableRecord
100
AcDbBlockTableRecord
  2
*D30
340
0
  0
BLOCK_RECORD
  5
124A
330
1
100
AcDbSymbolTableRecord
100
AcDbBlockTableRecord
  2
*D31
340
0
  0
BLOCK_RECORD
  5
1258
330
1
100
AcDbSymbolTableRecord
100
AcDbBlockTableRecord
  2
*D32
340
0
  0
BLOCK_RECORD
  5
1266
330
1
100
AcDbSymbolTableRecord
100
AcDbBlockTableRecord
  2
*D33
340
0
  0
BLOCK_RECORD
  5
1274
330
1
100
AcDbSymbolTableRecord
100
AcDbBlockTableRecord
  2
*D34
340
0
  0
BLOCK_RECORD
  5
1282
330
1
100
AcDbSymbolTableRecord
100
AcDbBlockTableRecord
  2
*D35
340
0
  0
BLOCK_RECORD
  5
1290
330
1
100
AcDbSymbolTableRecord
100
AcDbBlockTableRecord
  2
*D36
340
0
  0
BLOCK_RECORD
  5
129E
330
1
100
AcDbSymbolTableRecord
100
AcDbBlockTableRecord
  2
*D37
340
0
  0
BLOCK_RECORD
  5
12AC
330
1
100
AcDbSymbolTableRecord
100
AcDbBlockTableRecord
  2
*D38
340
0
  0
ENDTAB
  0
ENDSEC
  0
SECTION
  2
BLOCKS
  0
BLOCK
  5
20
330
1F
100
AcDbEntity
  8
0
100
AcDbBlockBegin
  2
*Model_Space
 70
     0
 10
0.0
 20
0.0
 30
0.0
  3
*Model_Space
  1

  0
ENDBLK
  5
21
330
1F
100
AcDbEntity
  8
0
100
AcDbBlockEnd
  0
BLOCK
  5
5A
330
58
100
AcDbEntity
 67
     1
  8
0
100
AcDbBlockBegin
  2
*Paper_Space
 70
     0
 10
0.0
 20
0.0
 30
0.0
  3
*Paper_Space
  1

  0
ENDBLK
  5
5B
330
58
100
AcDbEntity
 67
     1
  8
0
100
AcDbBlockEnd
  0
BLOCK
  5
5F
330
5D
100
AcDbEntity
 67
     1
  8
0
100
AcDbBlockBegin
  2
*Paper_Space0
 70
     0
 10
0.0
 20
0.0
 30
0.0
  3
*Paper_Space0
  1

  0
ENDBLK
  5
60
330
5D
100
AcDbEntity
 67
     1
  8
0
100
AcDbBlockEnd
  0
BLOCK
  5
C7
330
C6
100
AcDbEntity
  8
0
100
AcDbBlockBegin
  2
_Open30
 70
     0
 10
0.0
 20
0.0
 30
0.0
  3
_Open30
  1

  0
LINE
  5
C8
330
C6
100
AcDbEntity
  8
0
  6
ByBlock
 62
     0
370
    -2
100
AcDbLine
 10
-1.0
 20
0.267949
 30
0.0
 11
0.0
 21
0.0
 31
0.0
  0
LINE
  5
C9
330
C6
100
AcDbEntity
  8
0
  6
ByBlock
 62
     0
370
    -2
100
AcDbLine
 10
0.0
 20
0.0
 30
0.0
 11
-1.0
 21
-0.267949
 31
0.0
  0
LINE
  5
CA
330
C6
100
AcDbEntity
  8
0
  6
ByBlock
 62
     0
370
    -2
100
AcDbLine
 10
0.0
 20
0.0
 30
0.0
 11
-1.0
 21
0.0
 31
0.0
  0
ENDBLK
  5
CB
330
C6
100
AcDbEntity
  8
0
100
AcDbBlockEnd
  0
BLOCK
  5
641
330
637
100
AcDbEntity
  8
0
100
AcDbBlockBegin
  2
*D2
 70
     1
 10
0.0
 20
0.0
 30
0.0
  3
*D2
  1

  0
LINE
  5
BBF
330
637
100
AcDbEntity
  8
0
  6
Continuous
 62
     0
370
    -2
100
AcDbLine
 10
196.5126762812056
 20
157.4917301197614
 30
0.0
 11
196.5126762812056
 21
173.5512474307035
 31
0.0
  0
LINE
  5
BC0
330
637
100
AcDbEntity
  8
0
  6
Continuous
 62
     0
370
    -2
100
AcDbLine
 10
272.5126762812056
 20
157.4917301197614
 30
0.0
 11
272.5126762812056
 21
173.5512474307035
 31
0.0
  0
LINE
  5
BC1
330
637
100
AcDbEntity
  8
0
  6
Continuous
 62
     0
370
    -2
100
AcDbLine
 10
199.0126762812056
 20
172.3012474307035
 30
0.0
 11
270.0126762812056
 21
172.3012474307035
 31
0.0
  0
INSERT
  5
BC2
330
637
100
AcDbEntity
  8
0
  6
Continuous
 62
     0
370
    -2
100
AcDbBlockReference
  2
_Open30
 10
196.5126762812056
 20
172.3012474307035
 30
0.0
 41
2.5
 42
2.5
 43
2.5
 50
180.0
  0
INSERT
  5
BC3
330
637
100
AcDbEntity
  8
0
  6
Continuous
 62
     0
370
    -2
100
AcDbBlockReference
  2
_Open30
 10
272.5126762812056
 20
172.3012474307035
 30
0.0
 41
2.5
 42
2.5
 43
2.5
  0
MTEXT
  5
BC4
330
637
100
AcDbEntity
  8
0
  6
Continuous
 62
     4
100
AcDbMText
 10
234.914110418192
 20
174.4262474307035
 30
0.0
 40
3.0
 41
0.0
 71
     5
 72
     1
  1
%%C95
 73
     1
 44
1.0
1001
ACAD
1000
MTEXTBEGIN
1070
    73
1070
     1
1070
    44
1040
1.0
1070
    74
1070
     0
1000
MTEXTEND
  0
POINT
  5
BC5
330
637
100
AcDbEntity
  8
Defpoints
  6
Continuous
 62
     0
100
AcDbPoint
 10
196.5126762812056
 20
157.2417301197614
 30
0.0
  0
POINT
  5
BC6
330
637
100
AcDbEntity
  8
Defpoints
  6
Continuous
 62
     0
100
AcDbPoint
 10
272.5126762812056
 20
157.2417301197614
 30
0.0
  0
POINT
  5
BC7
330
637
100
AcDbEntity
  8
Defpoints
  6
Continuous
 62
     0
100
AcDbPoint
 10
272.5126762812056
 20
172.3012474307035
 30
0.0
  0
ENDBLK
  5
642
330
637
100
AcDbEntity
  8
0
100
AcDbBlockEnd
  0
BLOCK
  5
64D
330
643
100
AcDbEntity
  8
0
100
AcDbBlockBegin
  2
*D3
 70
     1
 10
0.0
 20
0.0
 30
0.0
  3
*D3
  1

  0
LINE
  5
BD1
330
643
100
AcDbEntity
  8
0
  6
Continuous
 62
     0
370
    -2
100
AcDbLine
 10
199.4626762812055
 20
160.4417301197614
 30
0.0
 11
171.1359733630731
 21
160.4417301197614
 31
0.0
  0
LINE
  5
BD2
330
643
100
AcDbEntity
  8
0
  6
Continuous
 62
     0
370
    -2
100
AcDbLine
 10
192.2626762812056
 20
85.24173011976136
 30
0.0
 11
171.1359733630731
 21
85.24173011976136
 31
0.0
  0
LINE
  5
BD3
330
643
100
AcDbEntity
  8
0
  6
Continuous
 62
     0
370
    -2
100
AcDbLine
 10
172.3859733630731
 20
157.9417301197614
 30
0.0
 11
172.3859733630731
 21
87.74173011976136
 31
0.0
  0
INSERT
  5
BD4
330
643
100
AcDbEntity
  8
0
  6
Continuous
 62
     0
370
    -2
100
AcDbBlockReference
  2
_Open30
 10
172.3859733630731
 20
160.4417301197614
 30
0.0
 41
2.5
 42
2.5
 43
2.5
 50
90.0
  0
INSERT
  5
BD5
330
643
100
AcDbEntity
  8
0
  6
Continuous
 62
     0
370
    -2
100
AcDbBlockReference
  2
_Open30
 10
172.3859733630731
 20
85.24173011976136
 30
0.0
 41
2.5
 42
2.5
 43
2.5
 50
270.0
  0
MTEXT
  5
BD6
330
643
100
AcDbEntity
  8
0
  6
Continuous
 62
     4
100
AcDbMText
 10
170.2609733630731
 20
122.0643142208447
 30
0.0
 40
3.0
 41
0.0
 71
     5
 72
     1
  1
98
 11
0.0000000000000001
 21
1.0
 31
0.0
 73
     1
 44
1.0
1001
ACAD
1000
MTEXTBEGIN
1070
    73
1070
     1
1070
    44
1040
1.0
1070
    74
1070
     0
1000
MTEXTEND
  0
POINT
  5
BD7
330
643
100
AcDbEntity
  8
Defpoints
  6
Continuous
 62
     0
100
AcDbPoint
 10
199.7126762812055
 20
160.4417301197614
 30
0.0
  0
POINT
  5
BD8
330
643
100
AcDbEntity
  8
Defpoints
  6
Continuous
 62
     0
100
AcDbPoint
 10
192.5126762812056
 20
85.24173011976136
 30
0.0
  0
POINT
  5
BD9
330
643
100
AcDbEntity
  8
Defpoints
  6
Continuous
 62
     0
100
AcDbPoint
 10
172.3859733630731
 20
85.24173011976136
 30
0.0
  0
ENDBLK
  5
64E
330
643
100
AcDbEntity
  8
0
100
AcDbBlockEnd
  0
BLOCK
  5
659
330
64F
100
AcDbEntity
  8
0
100
AcDbBlockBegin
  2
*D4
 70
     1
 10
0.0
 20
0.0
 30
0.0
  3
*D4
  1

  0
LINE
  5
BC8
330
64F
100
AcDbEntity
  8
0
  6
Continuous
 62
     0
370
    -2
100
AcDbLine
 10
196.2626762812055
 20
147.6417301197614
 30
0.0
 11
180.875558038475
 21
147.6417301197614
 31
0.0
  0
LINE
  5
BC9
330
64F
100
AcDbEntity
  8
0
  6
Continuous
 62
     0
370
    -2
100
AcDbLine
 10
197.8626762812055
 20
121.2417301197618
 30
0.0
 11
180.875558038475
 21
121.2417301197618
 31
0.0
  0
LINE
  5
BCA
330
64F
100
AcDbEntity
  8
0
  6
Continuous
 62
     0
370
    -2
100
AcDbLine
 10
182.125558038475
 20
145.1417301197614
 30
0.0
 11
182.125558038475
 21
123.7417301197618
 31
0.0
  0
INSERT
  5
BCB
330
64F
100
AcDbEntity
  8
0
  6
Continuous
 62
     0
370
    -2
100
AcDbBlockReference
  2
_Open30
 10
182.125558038475
 20
147.6417301197614
 30
0.0
 41
2.5
 42
2.5
 43
2.5
 50
90.0
  0
INSERT
  5
BCC
330
64F
100
AcDbEntity
  8
0
  6
Continuous
 62
     0
370
    -2
100
AcDbBlockReference
  2
_Open30
 10
182.125558038475
 20
121.2417301197618
 30
0.0
 41
2.5
 42
2.5
 43
2.5
 50
270.0
  0
MTEXT
  5
BCD
330
64F
100
AcDbEntity
  8
0
  6
Continuous
 62
     4
100
AcDbMText
 10
180.000558038475
 20
134.331472163558
 30
0.0
 40
3.0
 41
0.0
 71
     5
 72
     1
  1
33
 11
0.0000000000000001
 21
1.0
 31
0.0
 73
     1
 44
1.0
1001
ACAD
1000
MTEXTBEGIN
1070
    73
1070
     1
1070
    44
1040
1.0
1070
    74
1070
     0
1000
MTEXTEND
  0
POINT
  5
BCE
330
64F
100
AcDbEntity
  8
Defpoints
  6
Continuous
 62
     0
100
AcDbPoint
 10
196.5126762812055
 20
147.6417301197614
 30
0.0
  0
POINT
  5
BCF
330
64F
100
AcDbEntity
  8
Defpoints
  6
Continuous
 62
     0
100
AcDbPoint
 10
198.1126762812055
 20
121.2417301197618
 30
0.0
  0
POINT
  5
BD0
330
64F
100
AcDbEntity
  8
Defpoints
  6
Continuous
 62
     0
100
AcDbPoint
 10
182.125558038475
 20
121.2417301197618
 30
0.0
  0
ENDBLK
  5
65A
330
64F
100
AcDbEntity
  8
0
100
AcDbBlockEnd
  0
BLOCK
  5
665
330
65B
100
AcDbEntity
  8
0
100
AcDbBlockBegin
  2
*D5
 70
     1
 10
0.0
 20
0.0
 30
0.0
  3
*D5
  1

  0
LINE
  5
BDA
330
65B
100
AcDbEntity
  8
0
  6
Continuous
 62
     0
370
    -2
100
AcDbLine
 10
81.25558072301421
 20
179.9226236396325
 30
0.0
 11
81.25558072301421
 21
137.4950207029005
 31
0.0
  0
LINE
  5
BDB
330
65B
100
AcDbEntity
  8
0
  6
Continuous
 62
     0
370
    -2
100
AcDbLine
 10
138.1735661307375
 20
177.7622214372362
 30
0.0
 11
138.1735661307375
 21
137.4950207029005
 31
0.0
  0
LINE
  5
BDC
330
65B
100
AcDbEntity
  8
0
  6
Continuous
 62
     0
370
    -2
100
AcDbLine
 10
83.75558072301421
 20
138.7450207029005
 30
0.0
 11
135.6735661307375
 21
138.7450207029005
 31
0.0
  0
INSERT
  5
BDD
330
65B
100
AcDbEntity
  8
0
  6
Continuous
 62
     0
370
    -2
100
AcDbBlockReference
  2
_Open30
 10
81.25558072301421
 20
138.7450207029005
 30
0.0
 41
2.5
 42
2.5
 43
2.5
 50
180.0
  0
INSERT
  5
BDE
330
65B
100
AcDbEntity
  8
0
  6
Continuous
 62
     0
370
    -2
100
AcDbBlockReference
  2
_Open30
 10
138.1735661307375
 20
138.7450207029005
 30
0.0
 41
2.5
 42
2.5
 43
2.5
  0
MTEXT
  5
BDF
330
65B
100
AcDbEntity
  8
0
  6
Continuous
 62
     4
100
AcDbMText
 10
109.8029319878466
 20
140.8700207029005
 30
0.0
 40
3.0
 41
0.0
 71
     5
 72
     1
  1
取付ピッチ95
 73
     1
 44
1.0
1001
ACAD
1000
MTEXTBEGIN
1070
    73
1070
     1
1070
    44
1040
1.0
1070
    74
1070
     0
1000
MTEXTEND
  0
POINT
  5
BE0
330
65B
100
AcDbEntity
  8
Defpoints
  6
Continuous
 62
     0
100
AcDbPoint
 10
81.25558072301421
 20
180.1726236396325
 30
0.0
  0
POINT
  5
BE1
330
65B
100
AcDbEntity
  8
Defpoints
  6
Continuous
 62
     0
100
AcDbPoint
 10
138.1735661307375
 20
178.0122214372362
 30
0.0
  0
POINT
  5
BE2
330
65B
100
AcDbEntity
  8
Defpoints
  6
Continuous
 62
     0
100
AcDbPoint
 10
138.1735661307375
 20
138.7450207029005
 30
0.0
  0
ENDBLK
  5
666
330
65B
100
AcDbEntity
  8
0
100
AcDbBlockEnd
  0
BLOCK
  5
BE5
330
BE4
100
AcDbEntity
  8
0
100
AcDbBlockBegin
  2
*D6
 70
     1
 10
0.0
 20
0.0
 30
0.0
  3
*D6
  1

  0
LINE
  5
BE6
330
BE4
100
AcDbEntity
  8
0
  6
Continuous
 62
     0
370
    -2
100
AcDbLine
 10
206.8949763191673
 20
161.7860660003302
 30
0.0
 11
206.8949763191673
 21
177.8455833112723
 31
0.0
  0
LINE
  5
BE7
330
BE4
100
AcDbEntity
  8
0
  6
Continuous
 62
     0
370
    -2
100
AcDbLine
 10
282.8949763191673
 20
161.7860660003302
 30
0.0
 11
282.8949763191673
 21
177.8455833112723
 31
0.0
  0
LINE
  5
BE8
330
BE4
100
AcDbEntity
  8
0
  6
Continuous
 62
     0
370
    -2
100
AcDbLine
 10
209.3949763191673
 20
176.5955833112723
 30
0.0
 11
280.3949763191673
 21
176.5955833112723
 31
0.0
  0
INSERT
  5
BE9
330
BE4
100
AcDbEntity
  8
0
  6
Continuous
 62
     0
370
    -2
100
AcDbBlockReference
  2
_Open30
 10
206.8949763191673
 20
176.5955833112723
 30
0.0
 41
2.5
 42
2.5
 43
2.5
 50
180.0
  0
INSERT
  5
BEA
330
BE4
100
AcDbEntity
  8
0
  6
Continuous
 62
     0
370
    -2
100
AcDbBlockReference
  2
_Open30
 10
282.8949763191673
 20
176.5955833112723
 30
0.0
 41
2.5
 42
2.5
 43
2.5
  0
MTEXT
  5
BEB
330
BE4
100
AcDbEntity
  8
0
  6
Continuous
 62
     4
100
AcDbMText
 10
245.2964104561537
 20
178.7205833112723
 30
0.0
 40
3.0
 41
0.0
 71
     5
 72
     1
  1
%%C95
 73
     1
 44
1.0
1001
ACAD
1000
MTEXTBEGIN
1070
    73
1070
     1
1070
    44
1040
1.0
1070
    74
1070
     0
1000
MTEXTEND
  0
POINT
  5
BEC
330
BE4
100
AcDbEntity
  8
Defpoints
  6
Continuous
 62
     0
100
AcDbPoint
 10
206.8949763191673
 20
161.5360660003302
 30
0.0
  0
POINT
  5
BED
330
BE4
100
AcDbEntity
  8
Defpoints
  6
Continuous
 62
     0
100
AcDbPoint
 10
282.8949763191673
 20
161.5360660003302
 30
0.0
  0
POINT
  5
BEE
330
BE4
100
AcDbEntity
  8
Defpoints
  6
Continuous
 62
     0
100
AcDbPoint
 10
282.8949763191673
 20
176.5955833112723
 30
0.0
  0
ENDBLK
  5
BEF
330
BE4
100
AcDbEntity
  8
0
100
AcDbBlockEnd
  0
BLOCK
  5
BF1
330
BF0
100
AcDbEntity
  8
0
100
AcDbBlockBegin
  2
*D7
 70
     1
 10
0.0
 20
0.0
 30
0.0
  3
*D7
  1

  0
LINE
  5
BF2
330
BF0
100
AcDbEntity
  8
0
  6
Continuous
 62
     0
370
    -2
100
AcDbLine
 10
209.8449763191673
 20
164.7360660003301
 30
0.0
 11
181.5182734010348
 21
164.7360660003301
 31
0.0
  0
LINE
  5
BF3
330
BF0
100
AcDbEntity
  8
0
  6
Continuous
 62
     0
370
    -2
100
AcDbLine
 10
202.6449763191673
 20
89.53606600033017
 30
0.0
 11
181.5182734010348
 21
89.53606600033017
 31
0.0
  0
LINE
  5
BF4
330
BF0
100
AcDbEntity
  8
0
  6
Continuous
 62
     0
370
    -2
100
AcDbLine
 10
182.7682734010348
 20
162.2360660003301
 30
0.0
 11
182.7682734010348
 21
92.03606600033017
 31
0.0
  0
INSERT
  5
BF5
330
BF0
100
AcDbEntity
  8
0
  6
Continuous
 62
     0
370
    -2
100
AcDbBlockReference
  2
_Open30
 10
182.7682734010348
 20
164.7360660003301
 30
0.0
 41
2.5
 42
2.5
 43
2.5
 50
90.0
  0
INSERT
  5
BF6
330
BF0
100
AcDbEntity
  8
0
  6
Continuous
 62
     0
370
    -2
100
AcDbBlockReference
  2
_Open30
 10
182.7682734010348
 20
89.53606600033017
 30
0.0
 41
2.5
 42
2.5
 43
2.5
 50
270.0
  0
MTEXT
  5
BF7
330
BF0
100
AcDbEntity
  8
0
  6
Continuous
 62
     4
100
AcDbMText
 10
180.6432734010348
 20
126.3586501014135
 30
0.0
 40
3.0
 41
0.0
 71
     5
 72
     1
  1
98
 11
0.0000000000000001
 21
1.0
 31
0.0
 73
     1
 44
1.0
1001
ACAD
1000
MTEXTBEGIN
1070
    73
1070
     1
1070
    44
1040
1.0
1070
    74
1070
     0
1000
MTEXTEND
  0
POINT
  5
BF8
330
BF0
100
AcDbEntity
  8
Defpoints
  6
Continuous
 62
     0
100
AcDbPoint
 10
210.0949763191673
 20
164.7360660003301
 30
0.0
  0
POINT
  5
BF9
330
BF0
100
AcDbEntity
  8
Defpoints
  6
Continuous
 62
     0
100
AcDbPoint
 10
202.8949763191673
 20
89.53606600033017
 30
0.0
  0
POINT
  5
BFA
330
BF0
100
AcDbEntity
  8
Defpoints
  6
Continuous
 62
     0
100
AcDbPoint
 10
182.7682734010348
 20
89.53606600033017
 30
0.0
  0
ENDBLK
  5
BFB
330
BF0
100
AcDbEntity
  8
0
100
AcDbBlockEnd
  0
BLOCK
  5
BFD
330
BFC
100
AcDbEntity
  8
0
100
AcDbBlockBegin
  2
*D8
 70
     1
 10
0.0
 20
0.0
 30
0.0
  3
*D8
  1

  0
LINE
  5
BFE
330
BFC
100
AcDbEntity
  8
0
  6
Continuous
 62
     0
370
    -2
100
AcDbLine
 10
206.6449763191672
 20
151.9360660003302
 30
0.0
 11
191.2578580764367
 21
151.9360660003302
 31
0.0
  0
LINE
  5
BFF
330
BFC
100
AcDbEntity
  8
0
  6
Continuous
 62
     0
370
    -2
100
AcDbLine
 10
208.2449763191672
 20
125.5360660003307
 30
0.0
 11
191.2578580764367
 21
125.5360660003307
 31
0.0
  0
LINE
  5
C00
330
BFC
100
AcDbEntity
  8
0
  6
Continuous
 62
     0
370
    -2
100
AcDbLine
 10
192.5078580764367
 20
149.4360660003302
 30
0.0
 11
192.5078580764367
 21
128.0360660003306
 31
0.0
  0
INSERT
  5
C01
330
BFC
100
AcDbEntity
  8
0
  6
Continuous
 62
     0
370
    -2
100
AcDbBlockReference
  2
_Open30
 10
192.5078580764367
 20
151.9360660003302
 30
0.0
 41
2.5
 42
2.5
 43
2.5
 50
90.0
  0
INSERT
  5
C02
330
BFC
100
AcDbEntity
  8
0
  6
Continuous
 62
     0
370
    -2
100
AcDbBlockReference
  2
_Open30
 10
192.5078580764367
 20
125.5360660003307
 30
0.0
 41
2.5
 42
2.5
 43
2.5
 50
270.0
  0
MTEXT
  5
C03
330
BFC
100
AcDbEntity
  8
0
  6
Continuous
 62
     4
100
AcDbMText
 10
190.3828580764367
 20
138.6258080441269
 30
0.0
 40
3.0
 41
0.0
 71
     5
 72
     1
  1
33
 11
0.0000000000000001
 21
1.0
 31
0.0
 73
     1
 44
1.0
1001
ACAD
1000
MTEXTBEGIN
1070
    73
1070
     1
1070
    44
1040
1.0
1070
    74
1070
     0
1000
MTEXTEND
  0
POINT
  5
C04
330
BFC
100
AcDbEntity
  8
Defpoints
  6
Continuous
 62
     0
100
AcDbPoint
 10
206.8949763191672
 20
151.9360660003302
 30
0.0
  0
POINT
  5
C05
330
BFC
100
AcDbEntity
  8
Defpoints
  6
Continuous
 62
     0
100
AcDbPoint
 10
208.4949763191672
 20
125.5360660003307
 30
0.0
  0
POINT
  5
C06
330
BFC
100
AcDbEntity
  8
Defpoints
  6
Continuous
 62
     0
100
AcDbPoint
 10
192.5078580764367
 20
125.5360660003307
 30
0.0
  0
ENDBLK
  5
C07
330
BFC
100
AcDbEntity
  8
0
100
AcDbBlockEnd
  0
BLOCK
  5
C09
330
C08
100
AcDbEntity
  8
0
100
AcDbBlockBegin
  2
*D9
 70
     1
 10
0.0
 20
0.0
 30
0.0
  3
*D9
  1

  0
LINE
  5
C0A
330
C08
100
AcDbEntity
  8
0
  6
Continuous
 62
     0
370
    -2
100
AcDbLine
 10
91.63788076097594
 20
184.2169595202013
 30
0.0
 11
91.63788076097594
 21
141.7893565834694
 31
0.0
  0
LINE
  5
C0B
330
C08
100
AcDbEntity
  8
0
  6
Continuous
 62
     0
370
    -2
100
AcDbLine
 10
148.301379760976
 20
184.2420153290487
 30
0.0
 11
148.301379760976
 21
141.7893565834694
 31
0.0
  0
LINE
  5
C0C
330
C08
100
AcDbEntity
  8
0
  6
Continuous
 62
     0
370
    -2
100
AcDbLine
 10
94.13788076097594
 20
143.0393565834694
 30
0.0
 11
145.801379760976
 21
143.0393565834694
 31
0.0
  0
INSERT
  5
C0D
330
C08
100
AcDbEntity
  8
0
  6
Continuous
 62
     0
370
    -2
100
AcDbBlockReference
  2
_Open30
 10
91.63788076097594
 20
143.0393565834694
 30
0.0
 41
2.5
 42
2.5
 43
2.5
 50
180.0
  0
INSERT
  5
C0E
330
C08
100
AcDbEntity
  8
0
  6
Continuous
 62
     0
370
    -2
100
AcDbBlockReference
  2
_Open30
 10
148.301379760976
 20
143.0393565834694
 30
0.0
 41
2.5
 42
2.5
 43
2.5
  0
MTEXT
  5
C0F
330
C08
100
AcDbEntity
  8
0
  6
Continuous
 62
     4
100
AcDbMText
 10
120.1852320258083
 20
145.1643565834694
 30
0.0
 40
3.0
 41
0.0
 71
     5
 72
     1
  1
取付ピッチ95
 73
     1
 44
1.0
1001
ACAD
1000
MTEXTBEGIN
1070
    73
1070
     1
1070
    44
1040
1.0
1070
    74
1070
     0
1000
MTEXTEND
  0
POINT
  5
C10
330
C08
100
AcDbEntity
  8
Defpoints
  6
Continuous
 62
     0
100
AcDbPoint
 10
91.63788076097594
 20
184.4669595202013
 30
0.0
  0
POINT
  5
C11
330
C08
100
AcDbEntity
  8
Defpoints
  6
Continuous
 62
     0
100
AcDbPoint
 10
148.301379760976
 20
184.4920153290487
 30
0.0
  0
POINT
  5
C12
330
C08
100
AcDbEntity
  8
Defpoints
  6
Continuous
 62
     0
100
AcDbPoint
 10
148.301379760976
 20
143.0393565834694
 30
0.0
  0
ENDBLK
  5
C13
330
C08
100
AcDbEntity
  8
0
100
AcDbBlockEnd
  0
BLOCK
  5
C15
330
C14
100
AcDbEntity
  8
0
100
AcDbBlockBegin
  2
*D10
 70
     1
 10
0.0
 20
0.0
 30
0.0
  3
*D10
  1

  0
LINE
  5
C16
330
C14
100
AcDbEntity
  8
0
 62
     0
370
    -2
100
AcDbLine
 10
202.8949763191673
 20
89.28606600033019
 30
0.0
 11
202.8949763191673
 21
79.20854275836768
 31
0.0
  0
LINE
  5
C17
330
C14
100
AcDbEntity
  8
0
 62
     0
370
    -2
100
AcDbLine
 10
286.8949763191673
 20
89.28606600033019
 30
0.0
 11
286.8949763191673
 21
79.20854275836768
 31
0.0
  0
LINE
  5
C18
330
C14
100
AcDbEntity
  8
0
 62
     0
370
    -2
100
AcDbLine
 10
205.3949763191674
 20
80.45854275836768
 30
0.0
 11
284.3949763191673
 21
80.45854275836768
 31
0.0
  0
INSERT
  5
C19
330
C14
100
AcDbEntity
  8
0
 62
     0
370
    -2
100
AcDbBlockReference
  2
_Open30
 10
202.8949763191673
 20
80.45854275836768
 30
0.0
 41
2.5
 42
2.5
 43
2.5
 50
180.0
  0
INSERT
  5
C1A
330
C14
100
AcDbEntity
  8
0
 62
     0
370
    -2
100
AcDbBlockReference
  2
_Open30
 10
286.8949763191673
 20
80.45854275836768
 30
0.0
 41
2.5
 42
2.5
 43
2.5
  0
MTEXT
  5
C1B
330
C14
100
AcDbEntity
  8
0
 62
     4
100
AcDbMText
 10
244.7324978374304
 20
82.58354275836769
 30
0.0
 40
3.0
 41
0.0
 71
     5
 72
     1
  1
%%C105
 73
     1
 44
1.0
1001
ACAD
1000
MTEXTBEGIN
1070
    73
1070
     1
1070
    44
1040
1.0
1070
    74
1070
     0
1000
MTEXTEND
  0
POINT
  5
C1C
330
C14
100
AcDbEntity
  8
Defpoints
 62
     0
100
AcDbPoint
 10
202.8949763191673
 20
89.53606600033017
 30
0.0
  0
POINT
  5
C1D
330
C14
100
AcDbEntity
  8
Defpoints
 62
     0
100
AcDbPoint
 10
286.8949763191673
 20
89.53606600033017
 30
0.0
  0
POINT
  5
C1E
330
C14
100
AcDbEntity
  8
Defpoints
 62
     0
100
AcDbPoint
 10
286.8949763191673
 20
80.45854275836768
 30
0.0
  0
ENDBLK
  5
C1F
330
C14
100
AcDbEntity
  8
0
100
AcDbBlockEnd
  0
BLOCK
  5
10B7
330
10B6
100
AcDbEntity
  8
0
100
AcDbBlockBegin
  2
*D12
 70
     1
 10
0.0
 20
0.0
 30
0.0
  3
*D12
  1

  0
LINE
  5
10E6
330
10B6
100
AcDbEntity
  8
0
  6
Continuous
 62
     0
370
    -2
100
AcDbLine
 10
651.5132104300718
 20
152.8231831221381
 30
0.0
 11
651.5132104300718
 21
168.8827004330802
 31
0.0
  0
LINE
  5
10E7
330
10B6
100
AcDbEntity
  8
0
  6
Continuous
 62
     0
370
    -2
100
AcDbLine
 10
727.5132104300718
 20
152.8231831221381
 30
0.0
 11
727.5132104300718
 21
168.8827004330802
 31
0.0
  0
LINE
  5
10E8
330
10B6
100
AcDbEntity
  8
0
  6
Continuous
 62
     0
370
    -2
100
AcDbLine
 10
654.0132104300718
 20
167.6327004330802
 30
0.0
 11
725.0132104300718
 21
167.6327004330802
 31
0.0
  0
INSERT
  5
10E9
330
10B6
100
AcDbEntity
  8
0
  6
Continuous
 62
     0
370
    -2
100
AcDbBlockReference
  2
_Open30
 10
651.5132104300718
 20
167.6327004330802
 30
0.0
 41
2.5
 42
2.5
 43
2.5
 50
180.0
  0
INSERT
  5
10EA
330
10B6
100
AcDbEntity
  8
0
  6
Continuous
 62
     0
370
    -2
100
AcDbBlockReference
  2
_Open30
 10
727.5132104300718
 20
167.6327004330802
 30
0.0
 41
2.5
 42
2.5
 43
2.5
  0
MTEXT
  5
10EB
330
10B6
100
AcDbEntity
  8
0
  6
Continuous
 62
     4
100
AcDbMText
 10
689.9146445670582
 20
169.7577004330802
 30
0.0
 40
3.0
 41
0.0
 71
     5
 72
     1
  1
%%C95
 73
     1
 44
1.0
1001
ACAD
1000
MTEXTBEGIN
1070
    73
1070
     1
1070
    44
1040
1.0
1070
    74
1070
     0
1000
MTEXTEND
  0
POINT
  5
10EC
330
10B6
100
AcDbEntity
  8
Defpoints
  6
Continuous
 62
     0
100
AcDbPoint
 10
651.5132104300718
 20
152.5731831221381
 30
0.0
  0
POINT
  5
10ED
330
10B6
100
AcDbEntity
  8
Defpoints
  6
Continuous
 62
     0
100
AcDbPoint
 10
727.5132104300718
 20
152.5731831221381
 30
0.0
  0
POINT
  5
10EE
330
10B6
100
AcDbEntity
  8
Defpoints
  6
Continuous
 62
     0
100
AcDbPoint
 10
727.5132104300718
 20
167.6327004330802
 30
0.0
  0
ENDBLK
  5
10B8
330
10B6
100
AcDbEntity
  8
0
100
AcDbBlockEnd
  0
BLOCK
  5
10C3
330
10C2
100
AcDbEntity
  8
0
100
AcDbBlockBegin
  2
*D13
 70
     1
 10
0.0
 20
0.0
 30
0.0
  3
*D13
  1

  0
LINE
  5
10EF
330
10C2
100
AcDbEntity
  8
0
  6
Continuous
 62
     0
370
    -2
100
AcDbLine
 10
654.4632104300718
 20
155.773183122138
 30
0.0
 11
626.1365075119392
 21
155.773183122138
 31
0.0
  0
LINE
  5
10F0
330
10C2
100
AcDbEntity
  8
0
  6
Continuous
 62
     0
370
    -2
100
AcDbLine
 10
647.2632104300718
 20
80.57318312213809
 30
0.0
 11
626.1365075119392
 21
80.57318312213809
 31
0.0
  0
LINE
  5
10F1
330
10C2
100
AcDbEntity
  8
0
  6
Continuous
 62
     0
370
    -2
100
AcDbLine
 10
627.3865075119393
 20
153.273183122138
 30
0.0
 11
627.3865075119393
 21
83.07318312213809
 31
0.0
  0
INSERT
  5
10F2
330
10C2
100
AcDbEntity
  8
0
  6
Continuous
 62
     0
370
    -2
100
AcDbBlockReference
  2
_Open30
 10
627.3865075119393
 20
155.773183122138
 30
0.0
 41
2.5
 42
2.5
 43
2.5
 50
90.0
  0
INSERT
  5
10F3
330
10C2
100
AcDbEntity
  8
0
  6
Continuous
 62
     0
370
    -2
100
AcDbBlockReference
  2
_Open30
 10
627.3865075119393
 20
80.57318312213809
 30
0.0
 41
2.5
 42
2.5
 43
2.5
 50
270.0
  0
MTEXT
  5
10F4
330
10C2
100
AcDbEntity
  8
0
  6
Continuous
 62
     4
100
AcDbMText
 10
625.2615075119392
 20
117.3957672232214
 30
0.0
 40
3.0
 41
0.0
 71
     5
 72
     1
  1
98
 11
0.0000000000000001
 21
1.0
 31
0.0
 73
     1
 44
1.0
1001
ACAD
1000
MTEXTBEGIN
1070
    73
1070
     1
1070
    44
1040
1.0
1070
    74
1070
     0
1000
MTEXTEND
  0
POINT
  5
10F5
330
10C2
100
AcDbEntity
  8
Defpoints
  6
Continuous
 62
     0
100
AcDbPoint
 10
654.7132104300718
 20
155.773183122138
 30
0.0
  0
POINT
  5
10F6
330
10C2
100
AcDbEntity
  8
Defpoints
  6
Continuous
 62
     0
100
AcDbPoint
 10
647.5132104300718
 20
80.57318312213809
 30
0.0
  0
POINT
  5
10F7
330
10C2
100
AcDbEntity
  8
Defpoints
  6
Continuous
 62
     0
100
AcDbPoint
 10
627.3865075119393
 20
80.57318312213809
 30
0.0
  0
ENDBLK
  5
10C4
330
10C2
100
AcDbEntity
  8
0
100
AcDbBlockEnd
  0
BLOCK
  5
10CF
330
10CE
100
AcDbEntity
  8
0
100
AcDbBlockBegin
  2
*D14
 70
     1
 10
0.0
 20
0.0
 30
0.0
  3
*D14
  1

  0
LINE
  5
10F8
330
10CE
100
AcDbEntity
  8
0
  6
Continuous
 62
     0
370
    -2
100
AcDbLine
 10
651.2632104300717
 20
142.9731831221381
 30
0.0
 11
635.8760921873412
 21
142.9731831221381
 31
0.0
  0
LINE
  5
10F9
330
10CE
100
AcDbEntity
  8
0
  6
Continuous
 62
     0
370
    -2
100
AcDbLine
 10
652.8632104300716
 20
116.5731831221386
 30
0.0
 11
635.8760921873412
 21
116.5731831221386
 31
0.0
  0
LINE
  5
10FA
330
10CE
100
AcDbEntity
  8
0
  6
Continuous
 62
     0
370
    -2
100
AcDbLine
 10
637.1260921873412
 20
140.4731831221381
 30
0.0
 11
637.1260921873412
 21
119.0731831221386
 31
0.0
  0
INSERT
  5
10FB
330
10CE
100
AcDbEntity
  8
0
  6
Continuous
 62
     0
370
    -2
100
AcDbBlockReference
  2
_Open30
 10
637.1260921873412
 20
142.9731831221381
 30
0.0
 41
2.5
 42
2.5
 43
2.5
 50
90.0
  0
INSERT
  5
10FC
330
10CE
100
AcDbEntity
  8
0
  6
Continuous
 62
     0
370
    -2
100
AcDbBlockReference
  2
_Open30
 10
637.1260921873412
 20
116.5731831221386
 30
0.0
 41
2.5
 42
2.5
 43
2.5
 50
270.0
  0
MTEXT
  5
10FD
330
10CE
100
AcDbEntity
  8
0
  6
Continuous
 62
     4
100
AcDbMText
 10
635.0010921873412
 20
129.6629251659348
 30
0.0
 40
3.0
 41
0.0
 71
     5
 72
     1
  1
33
 11
0.0000000000000001
 21
1.0
 31
0.0
 73
     1
 44
1.0
1001
ACAD
1000
MTEXTBEGIN
1070
    73
1070
     1
1070
    44
1040
1.0
1070
    74
1070
     0
1000
MTEXTEND
  0
POINT
  5
10FE
330
10CE
100
AcDbEntity
  8
Defpoints
  6
Continuous
 62
     0
100
AcDbPoint
 10
651.5132104300716
 20
142.9731831221381
 30
0.0
  0
POINT
  5
10FF
330
10CE
100
AcDbEntity
  8
Defpoints
  6
Continuous
 62
     0
100
AcDbPoint
 10
653.1132104300716
 20
116.5731831221386
 30
0.0
  0
POINT
  5
1100
330
10CE
100
AcDbEntity
  8
Defpoints
  6
Continuous
 62
     0
100
AcDbPoint
 10
637.1260921873412
 20
116.5731831221386
 30
0.0
  0
ENDBLK
  5
10D0
330
10CE
100
AcDbEntity
  8
0
100
AcDbBlockEnd
  0
BLOCK
  5
10DB
330
10DA
100
AcDbEntity
  8
0
100
AcDbBlockBegin
  2
*D15
 70
     1
 10
0.0
 20
0.0
 30
0.0
  3
*D15
  1

  0
LINE
  5
1101
330
10DA
100
AcDbEntity
  8
0
  6
Continuous
 62
     0
370
    -2
100
AcDbLine
 10
536.2561148718803
 20
175.2540766420092
 30
0.0
 11
536.2561148718803
 21
132.8264737052773
 31
0.0
  0
LINE
  5
1102
330
10DA
100
AcDbEntity
  8
0
  6
Continuous
 62
     0
370
    -2
100
AcDbLine
 10
592.9196138718805
 20
175.2791324508566
 30
0.0
 11
592.9196138718805
 21
132.8264737052773
 31
0.0
  0
LINE
  5
1103
330
10DA
100
AcDbEntity
  8
0
  6
Continuous
 62
     0
370
    -2
100
AcDbLine
 10
538.7561148718804
 20
134.0764737052773
 30
0.0
 11
590.4196138718805
 21
134.0764737052773
 31
0.0
  0
INSERT
  5
1104
330
10DA
100
AcDbEntity
  8
0
  6
Continuous
 62
     0
370
    -2
100
AcDbBlockReference
  2
_Open30
 10
536.2561148718803
 20
134.0764737052773
 30
0.0
 41
2.5
 42
2.5
 43
2.5
 50
180.0
  0
INSERT
  5
1105
330
10DA
100
AcDbEntity
  8
0
  6
Continuous
 62
     0
370
    -2
100
AcDbBlockReference
  2
_Open30
 10
592.9196138718805
 20
134.0764737052773
 30
0.0
 41
2.5
 42
2.5
 43
2.5
  0
MTEXT
  5
1106
330
10DA
100
AcDbEntity
  8
0
  6
Continuous
 62
     4
100
AcDbMText
 10
564.8034661367128
 20
136.2014737052773
 30
0.0
 40
3.0
 41
0.0
 71
     5
 72
     1
  1
取付ピッチ95
 73
     1
 44
1.0
1001
ACAD
1000
MTEXTBEGIN
1070
    73
1070
     1
1070
    44
1040
1.0
1070
    74
1070
     0
1000
MTEXTEND
  0
POINT
  5
1107
330
10DA
100
AcDbEntity
  8
Defpoints
  6
Continuous
 62
     0
100
AcDbPoint
 10
536.2561148718803
 20
175.5040766420092
 30
0.0
  0
POINT
  5
1108
330
10DA
100
AcDbEntity
  8
Defpoints
  6
Continuous
 62
     0
100
AcDbPoint
 10
592.9196138718805
 20
175.5291324508566
 30
0.0
  0
POINT
  5
1109
330
10DA
100
AcDbEntity
  8
Defpoints
  6
Continuous
 62
     0
100
AcDbPoint
 10
592.9196138718805
 20
134.0764737052773
 30
0.0
  0
ENDBLK
  5
10DC
330
10DA
100
AcDbEntity
  8
0
100
AcDbBlockEnd
  0
BLOCK
  5
110B
330
110A
100
AcDbEntity
  8
0
100
AcDbBlockBegin
  2
*D16
 70
     1
 10
0.0
 20
0.0
 30
0.0
  3
*D16
  1

  0
LINE
  5
110D
330
110A
100
AcDbEntity
  8
0
 62
     0
370
    -2
100
AcDbLine
 10
647.5132104300718
 20
80.32318312213808
 30
0.0
 11
647.5132104300718
 21
70.2456598801756
 31
0.0
  0
LINE
  5
110E
330
110A
100
AcDbEntity
  8
0
 62
     0
370
    -2
100
AcDbLine
 10
731.5132104300718
 20
80.32318312213808
 30
0.0
 11
731.5132104300718
 21
70.2456598801756
 31
0.0
  0
LINE
  5
110F
330
110A
100
AcDbEntity
  8
0
 62
     0
370
    -2
100
AcDbLine
 10
650.0132104300718
 20
71.4956598801756
 30
0.0
 11
729.0132104300718
 21
71.4956598801756
 31
0.0
  0
INSERT
  5
1110
330
110A
100
AcDbEntity
  8
0
 62
     0
370
    -2
100
AcDbBlockReference
  2
_Open30
 10
647.5132104300718
 20
71.4956598801756
 30
0.0
 41
2.5
 42
2.5
 43
2.5
 50
180.0
  0
INSERT
  5
1111
330
110A
100
AcDbEntity
  8
0
 62
     0
370
    -2
100
AcDbBlockReference
  2
_Open30
 10
731.5132104300718
 20
71.4956598801756
 30
0.0
 41
2.5
 42
2.5
 43
2.5
  0
MTEXT
  5
1112
330
110A
100
AcDbEntity
  8
0
 62
     4
100
AcDbMText
 10
689.3507319483348
 20
73.62065988017559
 30
0.0
 40
3.0
 41
0.0
 71
     5
 72
     1
  1
%%C105
 73
     1
 44
1.0
1001
ACAD
1000
MTEXTBEGIN
1070
    73
1070
     1
1070
    44
1040
1.0
1070
    74
1070
     0
1000
MTEXTEND
  0
POINT
  5
1113
330
110A
100
AcDbEntity
  8
Defpoints
 62
     0
100
AcDbPoint
 10
647.5132104300718
 20
80.57318312213809
 30
0.0
  0
POINT
  5
1114
330
110A
100
AcDbEntity
  8
Defpoints
 62
     0
100
AcDbPoint
 10
731.5132104300718
 20
80.57318312213809
 30
0.0
  0
POINT
  5
1115
330
110A
100
AcDbEntity
  8
Defpoints
 62
     0
100
AcDbPoint
 10
731.5132104300718
 20
71.4956598801756
 30
0.0
  0
ENDBLK
  5
110C
330
110A
100
AcDbEntity
  8
0
100
AcDbBlockEnd
  0
BLOCK
  5
111B
330
111A
100
AcDbEntity
  8
0
100
AcDbBlockBegin
  2
*D17
 70
     1
 10
0.0
 20
0.0
 30
0.0
  3
*D17
  1

  0
LINE
  5
1126
330
111A
100
AcDbEntity
  8
0
 62
     0
370
    -2
100
AcDbLine
 10
192.5126762812056
 20
84.99173011976136
 30
0.0
 11
192.5126762812056
 21
74.91420687779886
 31
0.0
  0
LINE
  5
1127
330
111A
100
AcDbEntity
  8
0
 62
     0
370
    -2
100
AcDbLine
 10
276.5126762812056
 20
84.99173011976136
 30
0.0
 11
276.5126762812056
 21
74.91420687779886
 31
0.0
  0
LINE
  5
1128
330
111A
100
AcDbEntity
  8
0
 62
     0
370
    -2
100
AcDbLine
 10
195.0126762812056
 20
76.16420687779886
 30
0.0
 11
274.0126762812056
 21
76.16420687779886
 31
0.0
  0
INSERT
  5
1129
330
111A
100
AcDbEntity
  8
0
 62
     0
370
    -2
100
AcDbBlockReference
  2
_Open30
 10
192.5126762812056
 20
76.16420687779886
 30
0.0
 41
2.5
 42
2.5
 43
2.5
 50
180.0
  0
INSERT
  5
112A
330
111A
100
AcDbEntity
  8
0
 62
     0
370
    -2
100
AcDbBlockReference
  2
_Open30
 10
276.5126762812056
 20
76.16420687779886
 30
0.0
 41
2.5
 42
2.5
 43
2.5
  0
MTEXT
  5
112B
330
111A
100
AcDbEntity
  8
0
 62
     4
100
AcDbMText
 10
234.3501977994687
 20
78.28920687779886
 30
0.0
 40
3.0
 41
0.0
 71
     5
 72
     1
  1
%%C105
 73
     1
 44
1.0
1001
ACAD
1000
MTEXTBEGIN
1070
    73
1070
     1
1070
    44
1040
1.0
1070
    74
1070
     0
1000
MTEXTEND
  0
POINT
  5
112C
330
111A
100
AcDbEntity
  8
Defpoints
 62
     0
100
AcDbPoint
 10
192.5126762812056
 20
85.24173011976136
 30
0.0
  0
POINT
  5
112D
330
111A
100
AcDbEntity
  8
Defpoints
 62
     0
100
AcDbPoint
 10
276.5126762812056
 20
85.24173011976136
 30
0.0
  0
POINT
  5
112E
330
111A
100
AcDbEntity
  8
Defpoints
 62
     0
100
AcDbPoint
 10
276.5126762812056
 20
76.16420687779886
 30
0.0
  0
ENDBLK
  5
111C
330
111A
100
AcDbEntity
  8
0
100
AcDbBlockEnd
  0
BLOCK
  5
1181
330
1180
100
AcDbEntity
  8
0
100
AcDbBlockBegin
  2
*D18
 70
     1
 10
0.0
 20
0.0
 30
0.0
  3
*D18
  1

  0
LINE
  5
1182
330
1180
100
AcDbEntity
  8
0
 62
     0
370
    -2
100
AcDbLine
 10
-178.2339678749101
 20
-812.0370112307897
 30
0.0
 11
-178.2339678749101
 21
-814.9466426527986
 31
0.0
  0
LINE
  5
1183
330
1180
100
AcDbEntity
  8
0
 62
     0
370
    -2
100
AcDbLine
 10
-180.6911549290304
 20
-812.0370112307897
 30
0.0
 11
-180.6911549290304
 21
-814.9466426527986
 31
0.0
  0
LINE
  5
1184
330
1180
100
AcDbEntity
  8
0
 62
     0
370
    -2
100
AcDbLine
 10
-175.7339678749101
 20
-813.6966426527985
 30
0.0
 11
-173.2339678749101
 21
-813.6966426527985
 31
0.0
  0
LINE
  5
1185
330
1180
100
AcDbEntity
  8
0
 62
     0
370
    -2
100
AcDbLine
 10
-183.1911549290304
 20
-813.6966426527985
 30
0.0
 11
-195.9411549290304
 21
-813.6966426527985
 31
0.0
  0
LINE
  5
1186
330
1180
100
AcDbEntity
  8
0
 62
     0
370
    -2
100
AcDbLine
 10
-178.2339678749101
 20
-813.6966426527985
 30
0.0
 11
-180.6911549290304
 21
-813.6966426527985
 31
0.0
  0
INSERT
  5
1187
330
1180
100
AcDbEntity
  8
0
 62
     0
370
    -2
100
AcDbBlockReference
  2
_Open30
 10
-178.2339678749101
 20
-813.6966426527985
 30
0.0
 41
2.5
 42
2.5
 43
2.5
 50
180.0
  0
INSERT
  5
1188
330
1180
100
AcDbEntity
  8
0
 62
     0
370
    -2
100
AcDbBlockReference
  2
_Open30
 10
-180.6911549290304
 20
-813.6966426527985
 30
0.0
 41
2.5
 42
2.5
 43
2.5
  0
MTEXT
  5
1189
330
1180
100
AcDbEntity
  8
0
 62
     4
100
AcDbMText
 10
-190.8161549290304
 20
-811.5716426527985
 30
0.0
 40
3.0
 41
0.0
 71
     5
 72
     1
  1
2.46
 73
     1
 44
1.0
1001
ACAD
1000
MTEXTBEGIN
1070
    73
1070
     1
1070
    44
1040
1.0
1070
    74
1070
     0
1000
MTEXTEND
  0
POINT
  5
118A
330
1180
100
AcDbEntity
  8
Defpoints
 62
     0
100
AcDbPoint
 10
-178.2339678749101
 20
-811.7870112307898
 30
0.0
  0
POINT
  5
118B
330
1180
100
AcDbEntity
  8
Defpoints
 62
     0
100
AcDbPoint
 10
-180.6911549290304
 20
-811.7870112307898
 30
0.0
  0
POINT
  5
118C
330
1180
100
AcDbEntity
  8
Defpoints
 62
     0
100
AcDbPoint
 10
-180.6911549290304
 20
-813.6966426527985
 30
0.0
  0
ENDBLK
  5
118D
330
1180
100
AcDbEntity
  8
0
100
AcDbBlockEnd
  0
BLOCK
  5
118F
330
118E
100
AcDbEntity
  8
0
100
AcDbBlockBegin
  2
*D19
 70
     1
 10
0.0
 20
0.0
 30
0.0
  3
*D19
  1

  0
LINE
  5
1190
330
118E
100
AcDbEntity
  8
0
 62
     0
370
    -2
100
AcDbLine
 10
-176.5958429688369
 20
-817.4931008035521
 30
0.0
 11
-176.5958429688369
 21
-820.0389928730155
 31
0.0
  0
LINE
  5
1191
330
118E
100
AcDbEntity
  8
0
 62
     0
370
    -2
100
AcDbLine
 10
-179.6900787669798
 20
-817.4931008035521
 30
0.0
 11
-179.6900787669798
 21
-820.0389928730155
 31
0.0
  0
LINE
  5
1192
330
118E
100
AcDbEntity
  8
0
 62
     0
370
    -2
100
AcDbLine
 10
-174.0958429688369
 20
-818.7889928730154
 30
0.0
 11
-171.5958429688369
 21
-818.7889928730154
 31
0.0
  0
LINE
  5
1193
330
118E
100
AcDbEntity
  8
0
 62
     0
370
    -2
100
AcDbLine
 10
-182.1900787669798
 20
-818.7889928730154
 30
0.0
 11
-196.0234121003131
 21
-818.7889928730154
 31
0.0
  0
LINE
  5
1194
330
118E
100
AcDbEntity
  8
0
 62
     0
370
    -2
100
AcDbLine
 10
-176.5958429688369
 20
-818.7889928730154
 30
0.0
 11
-179.6900787669798
 21
-818.7889928730154
 31
0.0
  0
INSERT
  5
1195
330
118E
100
AcDbEntity
  8
0
 62
     0
370
    -2
100
AcDbBlockReference
  2
_Open30
 10
-176.5958429688369
 20
-818.7889928730154
 30
0.0
 41
2.5
 42
2.5
 43
2.5
 50
180.0
  0
INSERT
  5
1196
330
118E
100
AcDbEntity
  8
0
 62
     0
370
    -2
100
AcDbBlockReference
  2
_Open30
 10
-179.6900787669798
 20
-818.7889928730154
 30
0.0
 41
2.5
 42
2.5
 43
2.5
  0
MTEXT
  5
1197
330
118E
100
AcDbEntity
  8
0
 62
     4
100
AcDbMText
 10
-190.8150787669798
 20
-816.9139928730155
 30
0.0
 40
2.5
 41
0.0
 71
     5
 72
     1
  1
15.47
  7
高2.5
 73
     1
 44
1.0
1001
ACAD
1000
MTEXTBEGIN
1070
    73
1070
     1
1070
    44
1040
1.0
1070
    74
1070
     0
1000
MTEXTEND
  0
POINT
  5
1198
330
118E
100
AcDbEntity
  8
Defpoints
 62
     0
100
AcDbPoint
 10
-176.5958429688369
 20
-817.2431008035522
 30
0.0
  0
POINT
  5
1199
330
118E
100
AcDbEntity
  8
Defpoints
 62
     0
100
AcDbPoint
 10
-179.6900787669798
 20
-817.2431008035522
 30
0.0
  0
POINT
  5
119A
330
118E
100
AcDbEntity
  8
Defpoints
 62
     0
100
AcDbPoint
 10
-179.6900787669798
 20
-818.7889928730154
 30
0.0
  0
ENDBLK
  5
119B
330
118E
100
AcDbEntity
  8
0
100
AcDbBlockEnd
  0
BLOCK
  5
119D
330
119C
100
AcDbEntity
  8
0
100
AcDbBlockBegin
  2
*D20
 70
     1
 10
0.0
 20
0.0
 30
0.0
  3
*D20
  1

  0
LINE
  5
119E
330
119C
100
AcDbEntity
  8
0
 62
     0
370
    -2
100
AcDbLine
 10
-174.8667113607514
 20
-822.9491905193986
 30
0.0
 11
-174.8667113607514
 21
-825.2222781817659
 31
0.0
  0
LINE
  5
119F
330
119C
100
AcDbEntity
  8
0
 62
     0
370
    -2
100
AcDbLine
 10
-178.8710163139432
 20
-822.9491905193986
 30
0.0
 11
-178.8710163139432
 21
-825.2222781817659
 31
0.0
  0
LINE
  5
11A0
330
119C
100
AcDbEntity
  8
0
 62
     0
370
    -2
100
AcDbLine
 10
-172.3667113607514
 20
-823.9722781817658
 30
0.0
 11
-169.8667113607514
 21
-823.9722781817658
 31
0.0
  0
LINE
  5
11A1
330
119C
100
AcDbEntity
  8
0
 62
     0
370
    -2
100
AcDbLine
 10
-181.3710163139432
 20
-823.9722781817658
 30
0.0
 11
-193.1210163139432
 21
-823.9722781817658
 31
0.0
  0
LINE
  5
11A2
330
119C
100
AcDbEntity
  8
0
 62
     0
370
    -2
100
AcDbLine
 10
-174.8667113607514
 20
-823.9722781817658
 30
0.0
 11
-178.8710163139432
 21
-823.9722781817658
 31
0.0
  0
INSERT
  5
11A3
330
119C
100
AcDbEntity
  8
0
 62
     0
370
    -2
100
AcDbBlockReference
  2
_Open30
 10
-174.8667113607514
 20
-823.9722781817658
 30
0.0
 41
2.5
 42
2.5
 43
2.5
 50
180.0
  0
INSERT
  5
11A4
330
119C
100
AcDbEntity
  8
0
 62
     0
370
    -2
100
AcDbBlockReference
  2
_Open30
 10
-178.8710163139432
 20
-823.9722781817658
 30
0.0
 41
2.5
 42
2.5
 43
2.5
  0
MTEXT
  5
11A5
330
119C
100
AcDbEntity
  8
0
 62
     4
100
AcDbMText
 10
-188.4960163139432
 20
-821.7472781817658
 30
0.0
 40
3.2
 41
0.0
 71
     5
 72
     1
  1
8.01
  7
高3.2
 73
     1
 44
1.0
1001
ACAD
1000
MTEXTBEGIN
1070
    73
1070
     1
1070
    44
1040
1.0
1070
    74
1070
     0
1000
MTEXTEND
  0
POINT
  5
11A6
330
119C
100
AcDbEntity
  8
Defpoints
 62
     0
100
AcDbPoint
 10
-174.8667113607514
 20
-822.6991905193985
 30
0.0
  0
POINT
  5
11A7
330
119C
100
AcDbEntity
  8
Defpoints
 62
     0
100
AcDbPoint
 10
-178.8710163139432
 20
-822.6991905193985
 30
0.0
  0
POINT
  5
11A8
330
119C
100
AcDbEntity
  8
Defpoints
 62
     0
100
AcDbPoint
 10
-178.8710163139432
 20
-823.9722781817658
 30
0.0
  0
ENDBLK
  5
11A9
330
119C
100
AcDbEntity
  8
0
100
AcDbBlockEnd
  0
BLOCK
  5
11AB
330
11AA
100
AcDbEntity
  8
0
100
AcDbBlockBegin
  2
*D21
 70
     1
 10
0.0
 20
0.0
 30
0.0
  3
*D21
  1

  0
LINE
  5
11AC
330
11AA
100
AcDbEntity
  8
0
 62
     0
370
    -2
100
AcDbLine
 10
-174.9577180627637
 20
-828.2234104874302
 30
0.0
 11
-174.9577180627637
 21
-830.0418239948866
 31
0.0
  0
LINE
  5
11AD
330
11AA
100
AcDbEntity
  8
0
 62
     0
370
    -2
100
AcDbLine
 10
-179.6900787669798
 20
-828.2234104874302
 30
0.0
 11
-179.6900787669798
 21
-830.0418239948866
 31
0.0
  0
LINE
  5
11AE
330
11AA
100
AcDbEntity
  8
0
 62
     0
370
    -2
100
AcDbLine
 10
-172.4577180627637
 20
-828.7918239948865
 30
0.0
 11
-169.9577180627637
 21
-828.7918239948865
 31
0.0
  0
LINE
  5
11AF
330
11AA
100
AcDbEntity
  8
0
 62
     0
370
    -2
100
AcDbLine
 10
-182.1900787669798
 20
-828.7918239948865
 30
0.0
 11
-203.9400787669798
 21
-828.7918239948865
 31
0.0
  0
LINE
  5
11B0
330
11AA
100
AcDbEntity
  8
0
 62
     0
370
    -2
100
AcDbLine
 10
-174.9577180627637
 20
-828.7918239948865
 30
0.0
 11
-179.6900787669798
 21
-828.7918239948865
 31
0.0
  0
INSERT
  5
11B1
330
11AA
100
AcDbEntity
  8
0
 62
     0
370
    -2
100
AcDbBlockReference
  2
_Open30
 10
-174.9577180627637
 20
-828.7918239948865
 30
0.0
 41
2.5
 42
2.5
 43
2.5
 50
180.0
  0
INSERT
  5
11B2
330
11AA
100
AcDbEntity
  8
0
 62
     0
370
    -2
100
AcDbBlockReference
  2
_Open30
 10
-179.6900787669798
 20
-828.7918239948865
 30
0.0
 41
2.5
 42
2.5
 43
2.5
  0
MTEXT
  5
11B3
330
11AA
100
AcDbEntity
  8
0
 62
     4
100
AcDbMText
 10
-194.3150787669798
 20
-825.9168239948866
 30
0.0
 40
4.5
 41
0.0
 71
     5
 72
     1
  1
47.32
  7
高4.5
 73
     1
 44
1.0
1001
ACAD
1000
MTEXTBEGIN
1070
    73
1070
     1
1070
    44
1040
1.0
1070
    74
1070
     0
1000
MTEXTEND
  0
POINT
  5
11B4
330
11AA
100
AcDbEntity
  8
Defpoints
 62
     0
100
AcDbPoint
 10
-174.9577180627637
 20
-827.9734104874302
 30
0.0
  0
POINT
  5
11B5
330
11AA
100
AcDbEntity
  8
Defpoints
 62
     0
100
AcDbPoint
 10
-179.6900787669798
 20
-827.9734104874302
 30
0.0
  0
POINT
  5
11B6
330
11AA
100
AcDbEntity
  8
Defpoints
 62
     0
100
AcDbPoint
 10
-179.6900787669798
 20
-828.7918239948865
 30
0.0
  0
ENDBLK
  5
11B7
330
11AA
100
AcDbEntity
  8
0
100
AcDbBlockEnd
  0
BLOCK
  5
11B9
330
11B8
100
AcDbEntity
  8
0
100
AcDbBlockBegin
  2
*D22
 70
     1
 10
0.0
 20
0.0
 30
0.0
  3
*D22
  1

  0
LINE
  5
11BA
330
11B8
100
AcDbEntity
  8
0
 62
     0
370
    -2
100
AcDbLine
 10
-153.4800817947562
 20
-812.0370112307897
 30
0.0
 11
-153.4800817947562
 21
-814.9466426527986
 31
0.0
  0
LINE
  5
11BB
330
11B8
100
AcDbEntity
  8
0
 62
     0
370
    -2
100
AcDbLine
 10
-155.9372688488765
 20
-812.0370112307897
 30
0.0
 11
-155.9372688488765
 21
-814.9466426527986
 31
0.0
  0
LINE
  5
11BC
330
11B8
100
AcDbEntity
  8
0
 62
     0
370
    -2
100
AcDbLine
 10
-150.9800817947562
 20
-813.6966426527985
 30
0.0
 11
-148.4800817947562
 21
-813.6966426527985
 31
0.0
  0
LINE
  5
11BD
330
11B8
100
AcDbEntity
  8
0
 62
     0
370
    -2
100
AcDbLine
 10
-158.4372688488765
 20
-813.6966426527985
 30
0.0
 11
-180.0372688488765
 21
-813.6966426527985
 31
0.0
  0
LINE
  5
11BE
330
11B8
100
AcDbEntity
  8
0
 62
     0
370
    -2
100
AcDbLine
 10
-153.4800817947562
 20
-813.6966426527985
 30
0.0
 11
-155.9372688488765
 21
-813.6966426527985
 31
0.0
  0
INSERT
  5
11BF
330
11B8
100
AcDbEntity
  8
0
 62
     0
370
    -2
100
AcDbBlockReference
  2
_Open30
 10
-153.4800817947562
 20
-813.6966426527985
 30
0.0
 41
2.5
 42
2.5
 43
2.5
 50
180.0
  0
INSERT
  5
11C0
330
11B8
100
AcDbEntity
  8
0
 62
     0
370
    -2
100
AcDbBlockReference
  2
_Open30
 10
-155.9372688488765
 20
-813.6966426527985
 30
0.0
 41
2.5
 42
2.5
 43
2.5
  0
MTEXT
  5
11C1
330
11B8
100
AcDbEntity
  8
0
 62
     4
100
AcDbMText
 10
-170.4872688488765
 20
-809.9216426527986
 30
0.0
 40
6.299999999999999
 41
0.0
 71
     5
 72
     1
  1
0.25
  7
高6.3
 73
     1
 44
1.0
1001
ACAD
1000
MTEXTBEGIN
1070
    73
1070
     1
1070
    44
1040
1.0
1070
    74
1070
     0
1000
MTEXTEND
  0
POINT
  5
11C2
330
11B8
100
AcDbEntity
  8
Defpoints
 62
     0
100
AcDbPoint
 10
-153.4800817947562
 20
-811.7870112307898
 30
0.0
  0
POINT
  5
11C3
330
11B8
100
AcDbEntity
  8
Defpoints
 62
     0
100
AcDbPoint
 10
-155.9372688488765
 20
-811.7870112307898
 30
0.0
  0
POINT
  5
11C4
330
11B8
100
AcDbEntity
  8
Defpoints
 62
     0
100
AcDbPoint
 10
-155.9372688488765
 20
-813.6966426527985
 30
0.0
  0
ENDBLK
  5
11C5
330
11B8
100
AcDbEntity
  8
0
100
AcDbBlockEnd
  0
BLOCK
  5
11C7
330
11C6
100
AcDbEntity
  8
0
100
AcDbBlockBegin
  2
*D23
 70
     1
 10
0.0
 20
0.0
 30
0.0
  3
*D23
  1

  0
LINE
  5
11C8
330
11C6
100
AcDbEntity
  8
0
 62
     0
370
    -2
100
AcDbLine
 10
-151.841956888683
 20
-817.4931008035521
 30
0.0
 11
-151.841956888683
 21
-820.0389928730155
 31
0.0
  0
LINE
  5
11C9
330
11C6
100
AcDbEntity
  8
0
 62
     0
370
    -2
100
AcDbLine
 10
-154.9361926868259
 20
-817.4931008035521
 30
0.0
 11
-154.9361926868259
 21
-820.0389928730155
 31
0.0
  0
LINE
  5
11CA
330
11C6
100
AcDbEntity
  8
0
 62
     0
370
    -2
100
AcDbLine
 10
-149.341956888683
 20
-818.7889928730154
 30
0.0
 11
-146.841956888683
 21
-818.7889928730154
 31
0.0
  0
LINE
  5
11CB
330
11C6
100
AcDbEntity
  8
0
 62
     0
370
    -2
100
AcDbLine
 10
-157.4361926868259
 20
-818.7889928730154
 30
0.0
 11
-169.4361926868259
 21
-818.7889928730154
 31
0.0
  0
LINE
  5
11CC
330
11C6
100
AcDbEntity
  8
0
 62
     0
370
    -2
100
AcDbLine
 10
-151.841956888683
 20
-818.7889928730154
 30
0.0
 11
-154.9361926868259
 21
-818.7889928730154
 31
0.0
  0
INSERT
  5
11CD
330
11C6
100
AcDbEntity
  8
0
 62
     0
370
    -2
100
AcDbBlockReference
  2
_Open30
 10
-151.841956888683
 20
-818.7889928730154
 30
0.0
 41
2.5
 42
2.5
 43
2.5
 50
180.0
  0
INSERT
  5
11CE
330
11C6
100
AcDbEntity
  8
0
 62
     0
370
    -2
100
AcDbBlockReference
  2
_Open30
 10
-154.9361926868259
 20
-818.7889928730154
 30
0.0
 41
2.5
 42
2.5
 43
2.5
  0
MTEXT
  5
11CF
330
11C6
100
AcDbEntity
  8
0
 62
     4
100
AcDbMText
 10
-164.8111926868259
 20
-816.6639928730154
 30
0.0
 40
3.0
 41
0.0
 71
     5
 72
     1
  1
1.55
 73
     1
 44
1.0
1001
ACAD
1000
MTEXTBEGIN
1070
    73
1070
     1
1070
    44
1040
1.0
1070
    74
1070
     0
1000
MTEXTEND
  0
POINT
  5
11D0
330
11C6
100
AcDbEntity
  8
Defpoints
 62
     0
100
AcDbPoint
 10
-151.841956888683
 20
-817.2431008035522
 30
0.0
  0
POINT
  5
11D1
330
11C6
100
AcDbEntity
  8
Defpoints
 62
     0
100
AcDbPoint
 10
-154.9361926868259
 20
-817.2431008035522
 30
0.0
  0
POINT
  5
11D2
330
11C6
100
AcDbEntity
  8
Defpoints
 62
     0
100
AcDbPoint
 10
-154.9361926868259
 20
-818.7889928730154
 30
0.0
  0
ENDBLK
  5
11D3
330
11C6
100
AcDbEntity
  8
0
100
AcDbBlockEnd
  0
BLOCK
  5
11D5
330
11D4
100
AcDbEntity
  8
0
100
AcDbBlockBegin
  2
*D24
 70
     1
 10
0.0
 20
0.0
 30
0.0
  3
*D24
  1

  0
LINE
  5
11D6
330
11D4
100
AcDbEntity
  8
0
 62
     0
370
    -2
100
AcDbLine
 10
-150.1128252805975
 20
-822.9491905193986
 30
0.0
 11
-150.1128252805975
 21
-825.2222781817659
 31
0.0
  0
LINE
  5
11D7
330
11D4
100
AcDbEntity
  8
0
 62
     0
370
    -2
100
AcDbLine
 10
-154.1171302337894
 20
-822.9491905193986
 30
0.0
 11
-154.1171302337894
 21
-825.2222781817659
 31
0.0
  0
LINE
  5
11D8
330
11D4
100
AcDbEntity
  8
0
 62
     0
370
    -2
100
AcDbLine
 10
-147.6128252805976
 20
-823.9722781817658
 30
0.0
 11
-145.1128252805975
 21
-823.9722781817658
 31
0.0
  0
LINE
  5
11D9
330
11D4
100
AcDbEntity
  8
0
 62
     0
370
    -2
100
AcDbLine
 10
-156.6171302337894
 20
-823.9722781817658
 30
0.0
 11
-164.9504635671227
 21
-823.9722781817658
 31
0.0
  0
LINE
  5
11DA
330
11D4
100
AcDbEntity
  8
0
 62
     0
370
    -2
100
AcDbLine
 10
-150.1128252805975
 20
-823.9722781817658
 30
0.0
 11
-154.1171302337894
 21
-823.9722781817658
 31
0.0
  0
INSERT
  5
11DB
330
11D4
100
AcDbEntity
  8
0
 62
     0
370
    -2
100
AcDbBlockReference
  2
_Open30
 10
-150.1128252805975
 20
-823.9722781817658
 30
0.0
 41
2.5
 42
2.5
 43
2.5
 50
180.0
  0
INSERT
  5
11DC
330
11D4
100
AcDbEntity
  8
0
 62
     0
370
    -2
100
AcDbBlockReference
  2
_Open30
 10
-154.1171302337894
 20
-823.9722781817658
 30
0.0
 41
2.5
 42
2.5
 43
2.5
  0
MTEXT
  5
11DD
330
11D4
100
AcDbEntity
  8
0
 62
     4
100
AcDbMText
 10
-162.4921302337894
 20
-822.3472781817658
 30
0.0
 40
2.0
 41
0.0
 71
     5
 72
     1
  1
0.8
  7
高2
 73
     1
 44
1.0
1001
ACAD
1000
MTEXTBEGIN
1070
    73
1070
     1
1070
    44
1040
1.0
1070
    74
1070
     0
1000
MTEXTEND
  0
POINT
  5
11DE
330
11D4
100
AcDbEntity
  8
Defpoints
 62
     0
100
AcDbPoint
 10
-150.1128252805975
 20
-822.6991905193985
 30
0.0
  0
POINT
  5
11DF
330
11D4
100
AcDbEntity
  8
Defpoints
 62
     0
100
AcDbPoint
 10
-154.1171302337894
 20
-822.6991905193985
 30
0.0
  0
POINT
  5
11E0
330
11D4
100
AcDbEntity
  8
Defpoints
 62
     0
100
AcDbPoint
 10
-154.1171302337894
 20
-823.9722781817658
 30
0.0
  0
ENDBLK
  5
11E1
330
11D4
100
AcDbEntity
  8
0
100
AcDbBlockEnd
  0
BLOCK
  5
11E3
330
11E2
100
AcDbEntity
  8
0
100
AcDbBlockBegin
  2
*D25
 70
     1
 10
0.0
 20
0.0
 30
0.0
  3
*D25
  1

  0
LINE
  5
11E4
330
11E2
100
AcDbEntity
  8
0
 62
     0
370
    -2
100
AcDbLine
 10
-150.2038319826098
 20
-828.2234104874302
 30
0.0
 11
-150.2038319826098
 21
-830.0418239948866
 31
0.0
  0
LINE
  5
11E5
330
11E2
100
AcDbEntity
  8
0
 62
     0
370
    -2
100
AcDbLine
 10
-154.9361926868259
 20
-828.2234104874302
 30
0.0
 11
-154.9361926868259
 21
-830.0418239948866
 31
0.0
  0
LINE
  5
11E6
330
11E2
100
AcDbEntity
  8
0
 62
     0
370
    -2
100
AcDbLine
 10
-147.7038319826099
 20
-828.7918239948865
 30
0.0
 11
-145.2038319826098
 21
-828.7918239948865
 31
0.0
  0
LINE
  5
11E7
330
11E2
100
AcDbEntity
  8
0
 62
     0
370
    -2
100
AcDbLine
 10
-157.4361926868259
 20
-828.7918239948865
 30
0.0
 11
-172.1861926868259
 21
-828.7918239948865
 31
0.0
  0
LINE
  5
11E8
330
11E2
100
AcDbEntity
  8
0
 62
     0
370
    -2
100
AcDbLine
 10
-150.2038319826098
 20
-828.7918239948865
 30
0.0
 11
-154.9361926868259
 21
-828.7918239948865
 31
0.0
  0
INSERT
  5
11E9
330
11E2
100
AcDbEntity
  8
0
 62
     0
370
    -2
100
AcDbBlockReference
  2
_Open30
 10
-150.2038319826098
 20
-828.7918239948865
 30
0.0
 41
2.5
 42
2.5
 43
2.5
 50
180.0
  0
INSERT
  5
11EA
330
11E2
100
AcDbEntity
  8
0
 62
     0
370
    -2
100
AcDbBlockReference
  2
_Open30
 10
-154.9361926868259
 20
-828.7918239948865
 30
0.0
 41
2.5
 42
2.5
 43
2.5
  0
MTEXT
  5
11EB
330
11E2
100
AcDbEntity
  8
0
 62
     4
100
AcDbMText
 10
-166.0611926868259
 20
-826.6668239948867
 30
0.0
 40
3.0
 41
0.0
 71
     5
 72
     1
  1
18.93
 73
     1
 44
1.0
1001
ACAD
1000
MTEXTBEGIN
1070
    73
1070
     1
1070
    44
1040
1.0
1070
    74
1070
     0
1000
MTEXTEND
  0
POINT
  5
11EC
330
11E2
100
AcDbEntity
  8
Defpoints
 62
     0
100
AcDbPoint
 10
-150.2038319826098
 20
-827.9734104874302
 30
0.0
  0
POINT
  5
11ED
330
11E2
100
AcDbEntity
  8
Defpoints
 62
     0
100
AcDbPoint
 10
-154.9361926868259
 20
-827.9734104874302
 30
0.0
  0
POINT
  5
11EE
330
11E2
100
AcDbEntity
  8
Defpoints
 62
     0
100
AcDbPoint
 10
-154.9361926868259
 20
-828.7918239948865
 30
0.0
  0
ENDBLK
  5
11EF
330
11E2
100
AcDbEntity
  8
0
100
AcDbBlockEnd
  0
BLOCK
  5
11F1
330
11F0
100
AcDbEntity
  8
0
100
AcDbBlockBegin
  2
*D26
 70
     1
 10
0.0
 20
0.0
 30
0.0
  3
*D26
  1

  0
LINE
  5
11F2
330
11F0
100
AcDbEntity
  8
0
 62
     0
370
    -2
100
AcDbLine
 10
-153.0082588337482
 20
-833.2792506940199
 30
0.0
 11
-153.0082588337482
 21
-835.5891717708955
 31
0.0
  0
LINE
  5
11F3
330
11F0
100
AcDbEntity
  8
0
 62
     0
370
    -2
100
AcDbLine
 10
-157.5969340358961
 20
-833.2792506940199
 30
0.0
 11
-157.5969340358961
 21
-835.5891717708955
 31
0.0
  0
LINE
  5
11F4
330
11F0
100
AcDbEntity
  8
0
 62
     0
370
    -2
100
AcDbLine
 10
-150.5082588337482
 20
-834.3391717708955
 30
0.0
 11
-148.0082588337482
 21
-834.3391717708955
 31
0.0
  0
LINE
  5
11F5
330
11F0
100
AcDbEntity
  8
0
 62
     0
370
    -2
100
AcDbLine
 10
-160.0969340358961
 20
-834.3391717708955
 30
0.0
 11
-174.8469340358961
 21
-834.3391717708955
 31
0.0
  0
LINE
  5
11F6
330
11F0
100
AcDbEntity
  8
0
 62
     0
370
    -2
100
AcDbLine
 10
-153.0082588337482
 20
-834.3391717708955
 30
0.0
 11
-157.5969340358961
 21
-834.3391717708955
 31
0.0
  0
INSERT
  5
11F7
330
11F0
100
AcDbEntity
  8
0
 62
     0
370
    -2
100
AcDbBlockReference
  2
_Open30
 10
-153.0082588337482
 20
-834.3391717708955
 30
0.0
 41
2.5
 42
2.5
 43
2.5
 50
180.0
  0
INSERT
  5
11F8
330
11F0
100
AcDbEntity
  8
0
 62
     0
370
    -2
100
AcDbBlockReference
  2
_Open30
 10
-157.5969340358961
 20
-834.3391717708955
 30
0.0
 41
2.5
 42
2.5
 43
2.5
  0
MTEXT
  5
11F9
330
11F0
100
AcDbEntity
  8
0
 62
     4
100
AcDbMText
 10
-168.7219340358961
 20
-832.2141717708955
 30
0.0
 40
3.0
 41
0.0
 71
     5
 72
     1
  1
13.77
 73
     1
 44
1.0
1001
ACAD
1000
MTEXTBEGIN
1070
    73
1070
     1
1070
    44
1040
1.0
1070
    74
1070
     0
1000
MTEXTEND
  0
POINT
  5
11FA
330
11F0
100
AcDbEntity
  8
Defpoints
 62
     0
100
AcDbPoint
 10
-153.0082588337482
 20
-833.02925069402
 30
0.0
  0
POINT
  5
11FB
330
11F0
100
AcDbEntity
  8
Defpoints
 62
     0
100
AcDbPoint
 10
-157.5969340358961
 20
-833.02925069402
 30
0.0
  0
POINT
  5
11FC
330
11F0
100
AcDbEntity
  8
Defpoints
 62
     0
100
AcDbPoint
 10
-157.5969340358961
 20
-834.3391717708955
 30
0.0
  0
ENDBLK
  5
11FD
330
11F0
100
AcDbEntity
  8
0
100
AcDbBlockEnd
  0
BLOCK
  5
11FF
330
11FE
100
AcDbEntity
  8
0
100
AcDbBlockBegin
  2
*D27
 70
     1
 10
0.0
 20
0.0
 30
0.0
  3
*D27
  1

  0
LINE
  5
1200
330
11FE
100
AcDbEntity
  8
0
 62
     0
370
    -2
100
AcDbLine
 10
-160.1045416668985
 20
-802.3497593757456
 30
0.0
 11
-160.1045416668985
 21
-794.9532258978079
 31
0.0
  0
LINE
  5
1201
330
11FE
100
AcDbEntity
  8
0
 62
     0
370
    -2
100
AcDbLine
 10
-170.0430160363885
 20
-802.3497593757456
 30
0.0
 11
-170.0430160363885
 21
-794.9532258978079
 31
0.0
  0
LINE
  5
1202
330
11FE
100
AcDbEntity
  8
0
 62
     0
370
    -2
100
AcDbLine
 10
-162.6045416668985
 20
-796.2032258978078
 30
0.0
 11
-167.5430160363885
 21
-796.2032258978078
 31
0.0
  0
INSERT
  5
1203
330
11FE
100
AcDbEntity
  8
0
 62
     0
370
    -2
100
AcDbBlockReference
  2
_Open30
 10
-160.1045416668985
 20
-796.2032258978078
 30
0.0
 41
2.5
 42
2.5
 43
2.5
  0
INSERT
  5
1204
330
11FE
100
AcDbEntity
  8
0
 62
     0
370
    -2
100
AcDbBlockReference
  2
_Open30
 10
-170.0430160363885
 20
-796.2032258978078
 30
0.0
 41
2.5
 42
2.5
 43
2.5
 50
180.0
  0
MTEXT
  5
1205
330
11FE
100
AcDbEntity
  8
0
 62
     4
100
AcDbMText
 10
-165.0737788516435
 20
-793.1282258978078
 30
0.0
 40
3.0
 41
0.0
 71
     5
 72
     1
  1
9.94\H0.7X;\S+0^ -0.02;
 73
     1
 44
1.0
1001
ACAD
1000
MTEXTBEGIN
1070
    73
1070
     1
1070
    44
1040
1.0
1070
    74
1070
     0
1000
MTEXTEND
  0
POINT
  5
1206
330
11FE
100
AcDbEntity
  8
Defpoints
 62
     0
100
AcDbPoint
 10
-160.1045416668985
 20
-802.5997593757455
 30
0.0
  0
POINT
  5
1207
330
11FE
100
AcDbEntity
  8
Defpoints
 62
     0
100
AcDbPoint
 10
-170.0430160363885
 20
-802.5997593757455
 30
0.0
  0
POINT
  5
1208
330
11FE
100
AcDbEntity
  8
Defpoints
 62
     0
100
AcDbPoint
 10
-170.0430160363885
 20
-796.2032258978078
 30
0.0
  0
ENDBLK
  5
1209
330
11FE
100
AcDbEntity
  8
0
100
AcDbBlockEnd
  0
BLOCK
  5
122F
330
122E
100
AcDbEntity
  8
0
100
AcDbBlockBegin
  2
*D29
 70
     1
 10
0.0
 20
0.0
 30
0.0
  3
*D29
  1

  0
LINE
  5
12B8
330
122E
100
AcDbEntity
  8
0
 62
     0
370
    -2
100
AcDbLine
 10
560.0909957325516
 20
87.01627818029294
 30
0.0
 11
560.0909957325516
 21
84.10664675828412
 31
0.0
  0
LINE
  5
12B9
330
122E
100
AcDbEntity
  8
0
 62
     0
370
    -2
100
AcDbLine
 10
557.6338086784313
 20
87.01627818029294
 30
0.0
 11
557.6338086784313
 21
84.10664675828412
 31
0.0
  0
LINE
  5
12BA
330
122E
100
AcDbEntity
  8
0
 62
     0
370
    -2
100
AcDbLine
 10
562.5909957325516
 20
85.35664675828412
 30
0.0
 11
565.0909957325516
 21
85.35664675828412
 31
0.0
  0
LINE
  5
12BB
330
122E
100
AcDbEntity
  8
0
 62
     0
370
    -2
100
AcDbLine
 10
555.1338086784313
 20
85.35664675828412
 30
0.0
 11
542.3838086784313
 21
85.35664675828412
 31
0.0
  0
LINE
  5
12BC
330
122E
100
AcDbEntity
  8
0
 62
     0
370
    -2
100
AcDbLine
 10
560.0909957325516
 20
85.35664675828412
 30
0.0
 11
557.6338086784313
 21
85.35664675828412
 31
0.0
  0
INSERT
  5
12BD
330
122E
100
AcDbEntity
  8
0
 62
     0
370
    -2
100
AcDbBlockReference
  2
_Open30
 10
560.0909957325516
 20
85.35664675828412
 30
0.0
 41
2.5
 42
2.5
 43
2.5
 50
180.0
  0
INSERT
  5
12BE
330
122E
100
AcDbEntity
  8
0
 62
     0
370
    -2
100
AcDbBlockReference
  2
_Open30
 10
557.6338086784313
 20
85.35664675828412
 30
0.0
 41
2.5
 42
2.5
 43
2.5
  0
MTEXT
  5
12BF
330
122E
100
AcDbEntity
  8
0
 62
     4
100
AcDbMText
 10
547.5088086784313
 20
87.48164675828411
 30
0.0
 40
3.0
 41
0.0
 71
     5
 72
     1
  1
2.46
 73
     1
 44
1.0
1001
ACAD
1000
MTEXTBEGIN
1070
    73
1070
     1
1070
    44
1040
1.0
1070
    74
1070
     0
1000
MTEXTEND
  0
POINT
  5
12C0
330
122E
100
AcDbEntity
  8
Defpoints
 62
     0
100
AcDbPoint
 10
560.0909957325516
 20
87.26627818029294
 30
0.0
  0
POINT
  5
12C1
330
122E
100
AcDbEntity
  8
Defpoints
 62
     0
100
AcDbPoint
 10
557.6338086784313
 20
87.26627818029294
 30
0.0
  0
POINT
  5
12C2
330
122E
100
AcDbEntity
  8
Defpoints
 62
     0
100
AcDbPoint
 10
557.6338086784313
 20
85.35664675828412
 30
0.0
  0
ENDBLK
  5
1230
330
122E
100
AcDbEntity
  8
0
100
AcDbBlockEnd
  0
BLOCK
  5
123D
330
123C
100
AcDbEntity
  8
0
100
AcDbBlockBegin
  2
*D30
 70
     1
 10
0.0
 20
0.0
 30
0.0
  3
*D30
  1

  0
LINE
  5
12C3
330
123C
100
AcDbEntity
  8
0
 62
     0
370
    -2
100
AcDbLine
 10
561.7291206386248
 20
81.56018860753055
 30
0.0
 11
561.7291206386248
 21
79.01429653806724
 31
0.0
  0
LINE
  5
12C4
330
123C
100
AcDbEntity
  8
0
 62
     0
370
    -2
100
AcDbLine
 10
558.6348848404819
 20
81.56018860753055
 30
0.0
 11
558.6348848404819
 21
79.01429653806724
 31
0.0
  0
LINE
  5
12C5
330
123C
100
AcDbEntity
  8
0
 62
     0
370
    -2
100
AcDbLine
 10
564.2291206386248
 20
80.26429653806724
 30
0.0
 11
566.7291206386249
 21
80.26429653806724
 31
0.0
  0
LINE
  5
12C6
330
123C
100
AcDbEntity
  8
0
 62
     0
370
    -2
100
AcDbLine
 10
556.1348848404819
 20
80.26429653806724
 30
0.0
 11
542.3015515071487
 21
80.26429653806724
 31
0.0
  0
LINE
  5
12C7
330
123C
100
AcDbEntity
  8
0
 62
     0
370
    -2
100
AcDbLine
 10
561.7291206386248
 20
80.26429653806724
 30
0.0
 11
558.6348848404819
 21
80.26429653806724
 31
0.0
  0
INSERT
  5
12C8
330
123C
100
AcDbEntity
  8
0
 62
     0
370
    -2
100
AcDbBlockReference
  2
_Open30
 10
561.7291206386248
 20
80.26429653806724
 30
0.0
 41
2.5
 42
2.5
 43
2.5
 50
180.0
  0
INSERT
  5
12C9
330
123C
100
AcDbEntity
  8
0
 62
     0
370
    -2
100
AcDbBlockReference
  2
_Open30
 10
558.6348848404819
 20
80.26429653806724
 30
0.0
 41
2.5
 42
2.5
 43
2.5
  0
MTEXT
  5
12CA
330
123C
100
AcDbEntity
  8
0
 62
     4
100
AcDbMText
 10
547.5098848404819
 20
82.13929653806724
 30
0.0
 40
2.5
 41
0.0
 71
     5
 72
     1
  1
15.47
  7
高2.5
 73
     1
 44
1.0
1001
ACAD
1000
MTEXTBEGIN
1070
    73
1070
     1
1070
    44
1040
1.0
1070
    74
1070
     0
1000
MTEXTEND
  0
POINT
  5
12CB
330
123C
100
AcDbEntity
  8
Defpoints
 62
     0
100
AcDbPoint
 10
561.7291206386248
 20
81.81018860753056
 30
0.0
  0
POINT
  5
12CC
330
123C
100
AcDbEntity
  8
Defpoints
 62
     0
100
AcDbPoint
 10
558.6348848404819
 20
81.81018860753056
 30
0.0
  0
POINT
  5
12CD
330
123C
100
AcDbEntity
  8
Defpoints
 62
     0
100
AcDbPoint
 10
558.6348848404819
 20
80.26429653806724
 30
0.0
  0
ENDBLK
  5
123E
330
123C
100
AcDbEntity
  8
0
100
AcDbBlockEnd
  0
BLOCK
  5
124B
330
124A
100
AcDbEntity
  8
0
100
AcDbBlockBegin
  2
*D31
 70
     1
 10
0.0
 20
0.0
 30
0.0
  3
*D31
  1

  0
LINE
  5
12CE
330
124A
100
AcDbEntity
  8
0
 62
     0
370
    -2
100
AcDbLine
 10
563.4582522467103
 20
76.10409889168408
 30
0.0
 11
563.4582522467103
 21
73.8310112293168
 31
0.0
  0
LINE
  5
12CF
330
124A
100
AcDbEntity
  8
0
 62
     0
370
    -2
100
AcDbLine
 10
559.4539472935184
 20
76.10409889168408
 30
0.0
 11
559.4539472935184
 21
73.8310112293168
 31
0.0
  0
LINE
  5
12D0
330
124A
100
AcDbEntity
  8
0
 62
     0
370
    -2
100
AcDbLine
 10
565.9582522467103
 20
75.0810112293168
 30
0.0
 11
568.4582522467103
 21
75.0810112293168
 31
0.0
  0
LINE
  5
12D1
330
124A
100
AcDbEntity
  8
0
 62
     0
370
    -2
100
AcDbLine
 10
556.9539472935185
 20
75.0810112293168
 30
0.0
 11
545.2039472935184
 21
75.0810112293168
 31
0.0
  0
LINE
  5
12D2
330
124A
100
AcDbEntity
  8
0
 62
     0
370
    -2
100
AcDbLine
 10
563.4582522467103
 20
75.0810112293168
 30
0.0
 11
559.4539472935184
 21
75.0810112293168
 31
0.0
  0
INSERT
  5
12D3
330
124A
100
AcDbEntity
  8
0
 62
     0
370
    -2
100
AcDbBlockReference
  2
_Open30
 10
563.4582522467103
 20
75.0810112293168
 30
0.0
 41
2.5
 42
2.5
 43
2.5
 50
180.0
  0
INSERT
  5
12D4
330
124A
100
AcDbEntity
  8
0
 62
     0
370
    -2
100
AcDbBlockReference
  2
_Open30
 10
559.4539472935184
 20
75.0810112293168
 30
0.0
 41
2.5
 42
2.5
 43
2.5
  0
MTEXT
  5
12D5
330
124A
100
AcDbEntity
  8
0
 62
     4
100
AcDbMText
 10
549.8289472935184
 20
77.3060112293168
 30
0.0
 40
3.2
 41
0.0
 71
     5
 72
     1
  1
8.01
  7
高3.2
 73
     1
 44
1.0
1001
ACAD
1000
MTEXTBEGIN
1070
    73
1070
     1
1070
    44
1040
1.0
1070
    74
1070
     0
1000
MTEXTEND
  0
POINT
  5
12D6
330
124A
100
AcDbEntity
  8
Defpoints
 62
     0
100
AcDbPoint
 10
563.4582522467103
 20
76.35409889168409
 30
0.0
  0
POINT
  5
12D7
330
124A
100
AcDbEntity
  8
Defpoints
 62
     0
100
AcDbPoint
 10
559.4539472935184
 20
76.35409889168409
 30
0.0
  0
POINT
  5
12D8
330
124A
100
AcDbEntity
  8
Defpoints
 62
     0
100
AcDbPoint
 10
559.4539472935184
 20
75.0810112293168
 30
0.0
  0
ENDBLK
  5
124C
330
124A
100
AcDbEntity
  8
0
100
AcDbBlockEnd
  0
BLOCK
  5
1259
330
1258
100
AcDbEntity
  8
0
100
AcDbBlockBegin
  2
*D32
 70
     1
 10
0.0
 20
0.0
 30
0.0
  3
*D32
  1

  0
LINE
  5
12D9
330
1258
100
AcDbEntity
  8
0
 62
     0
370
    -2
100
AcDbLine
 10
563.3672455446981
 20
70.82987892365247
 30
0.0
 11
563.3672455446981
 21
69.01146541619607
 31
0.0
  0
LINE
  5
12DA
330
1258
100
AcDbEntity
  8
0
 62
     0
370
    -2
100
AcDbLine
 10
558.6348848404819
 20
70.82987892365247
 30
0.0
 11
558.6348848404819
 21
69.01146541619607
 31
0.0
  0
LINE
  5
12DB
330
1258
100
AcDbEntity
  8
0
 62
     0
370
    -2
100
AcDbLine
 10
565.8672455446981
 20
70.26146541619607
 30
0.0
 11
568.3672455446981
 21
70.26146541619607
 31
0.0
  0
LINE
  5
12DC
330
1258
100
AcDbEntity
  8
0
 62
     0
370
    -2
100
AcDbLine
 10
556.1348848404819
 20
70.26146541619607
 30
0.0
 11
534.3848848404819
 21
70.26146541619607
 31
0.0
  0
LINE
  5
12DD
330
1258
100
AcDbEntity
  8
0
 62
     0
370
    -2
100
AcDbLine
 10
563.3672455446981
 20
70.26146541619607
 30
0.0
 11
558.6348848404819
 21
70.26146541619607
 31
0.0
  0
INSERT
  5
12DE
330
1258
100
AcDbEntity
  8
0
 62
     0
370
    -2
100
AcDbBlockReference
  2
_Open30
 10
563.3672455446981
 20
70.26146541619607
 30
0.0
 41
2.5
 42
2.5
 43
2.5
 50
180.0
  0
INSERT
  5
12DF
330
1258
100
AcDbEntity
  8
0
 62
     0
370
    -2
100
AcDbBlockReference
  2
_Open30
 10
558.6348848404819
 20
70.26146541619607
 30
0.0
 41
2.5
 42
2.5
 43
2.5
  0
MTEXT
  5
12E0
330
1258
100
AcDbEntity
  8
0
 62
     4
100
AcDbMText
 10
544.009884840482
 20
73.13646541619608
 30
0.0
 40
4.5
 41
0.0
 71
     5
 72
     1
  1
47.32
  7
高4.5
 73
     1
 44
1.0
1001
ACAD
1000
MTEXTBEGIN
1070
    73
1070
     1
1070
    44
1040
1.0
1070
    74
1070
     0
1000
MTEXTEND
  0
POINT
  5
12E1
330
1258
100
AcDbEntity
  8
Defpoints
 62
     0
100
AcDbPoint
 10
563.3672455446981
 20
71.07987892365247
 30
0.0
  0
POINT
  5
12E2
330
1258
100
AcDbEntity
  8
Defpoints
 62
     0
100
AcDbPoint
 10
558.6348848404819
 20
71.07987892365247
 30
0.0
  0
POINT
  5
12E3
330
1258
100
AcDbEntity
  8
Defpoints
 62
     0
100
AcDbPoint
 10
558.6348848404819
 20
70.26146541619607
 30
0.0
  0
ENDBLK
  5
125A
330
1258
100
AcDbEntity
  8
0
100
AcDbBlockEnd
  0
BLOCK
  5
1267
330
1266
100
AcDbEntity
  8
0
100
AcDbBlockBegin
  2
*D33
 70
     1
 10
0.0
 20
0.0
 30
0.0
  3
*D33
  1

  0
LINE
  5
12E4
330
1266
100
AcDbEntity
  8
0
 62
     0
370
    -2
100
AcDbLine
 10
584.8448818127056
 20
87.01627818029294
 30
0.0
 11
584.8448818127056
 21
84.10664675828412
 31
0.0
  0
LINE
  5
12E5
330
1266
100
AcDbEntity
  8
0
 62
     0
370
    -2
100
AcDbLine
 10
582.3876947585851
 20
87.01627818029294
 30
0.0
 11
582.3876947585851
 21
84.10664675828412
 31
0.0
  0
LINE
  5
12E6
330
1266
100
AcDbEntity
  8
0
 62
     0
370
    -2
100
AcDbLine
 10
587.3448818127055
 20
85.35664675828412
 30
0.0
 11
589.8448818127056
 21
85.35664675828412
 31
0.0
  0
LINE
  5
12E7
330
1266
100
AcDbEntity
  8
0
 62
     0
370
    -2
100
AcDbLine
 10
579.8876947585852
 20
85.35664675828412
 30
0.0
 11
558.2876947585852
 21
85.35664675828412
 31
0.0
  0
LINE
  5
12E8
330
1266
100
AcDbEntity
  8
0
 62
     0
370
    -2
100
AcDbLine
 10
584.8448818127056
 20
85.35664675828412
 30
0.0
 11
582.3876947585851
 21
85.35664675828412
 31
0.0
  0
INSERT
  5
12E9
330
1266
100
AcDbEntity
  8
0
 62
     0
370
    -2
100
AcDbBlockReference
  2
_Open30
 10
584.8448818127056
 20
85.35664675828412
 30
0.0
 41
2.5
 42
2.5
 43
2.5
 50
180.0
  0
INSERT
  5
12EA
330
1266
100
AcDbEntity
  8
0
 62
     0
370
    -2
100
AcDbBlockReference
  2
_Open30
 10
582.3876947585851
 20
85.35664675828412
 30
0.0
 41
2.5
 42
2.5
 43
2.5
  0
MTEXT
  5
12EB
330
1266
100
AcDbEntity
  8
0
 62
     4
100
AcDbMText
 10
567.8376947585852
 20
89.13164675828411
 30
0.0
 40
6.299999999999998
 41
0.0
 71
     5
 72
     1
  1
0.25
  7
高6.3
 73
     1
 44
1.0
1001
ACAD
1000
MTEXTBEGIN
1070
    73
1070
     1
1070
    44
1040
1.0
1070
    74
1070
     0
1000
MTEXTEND
  0
POINT
  5
12EC
330
1266
100
AcDbEntity
  8
Defpoints
 62
     0
100
AcDbPoint
 10
584.8448818127056
 20
87.26627818029294
 30
0.0
  0
POINT
  5
12ED
330
1266
100
AcDbEntity
  8
Defpoints
 62
     0
100
AcDbPoint
 10
582.3876947585851
 20
87.26627818029294
 30
0.0
  0
POINT
  5
12EE
330
1266
100
AcDbEntity
  8
Defpoints
 62
     0
100
AcDbPoint
 10
582.3876947585851
 20
85.35664675828412
 30
0.0
  0
ENDBLK
  5
1268
330
1266
100
AcDbEntity
  8
0
100
AcDbBlockEnd
  0
BLOCK
  5
1275
330
1274
100
AcDbEntity
  8
0
100
AcDbBlockBegin
  2
*D34
 70
     1
 10
0.0
 20
0.0
 30
0.0
  3
*D34
  1

  0
LINE
  5
12EF
330
1274
100
AcDbEntity
  8
0
 62
     0
370
    -2
100
AcDbLine
 10
586.4830067187787
 20
81.56018860753055
 30
0.0
 11
586.4830067187787
 21
79.01429653806724
 31
0.0
  0
LINE
  5
12F0
330
1274
100
AcDbEntity
  8
0
 62
     0
370
    -2
100
AcDbLine
 10
583.3887709206358
 20
81.56018860753055
 30
0.0
 11
583.3887709206358
 21
79.01429653806724
 31
0.0
  0
LINE
  5
12F1
330
1274
100
AcDbEntity
  8
0
 62
     0
370
    -2
100
AcDbLine
 10
588.9830067187786
 20
80.26429653806724
 30
0.0
 11
591.4830067187787
 21
80.26429653806724
 31
0.0
  0
LINE
  5
12F2
330
1274
100
AcDbEntity
  8
0
 62
     0
370
    -2
100
AcDbLine
 10
580.8887709206357
 20
80.26429653806724
 30
0.0
 11
568.8887709206357
 21
80.26429653806724
 31
0.0
  0
LINE
  5
12F3
330
1274
100
AcDbEntity
  8
0
 62
     0
370
    -2
100
AcDbLine
 10
586.4830067187787
 20
80.26429653806724
 30
0.0
 11
583.3887709206358
 21
80.26429653806724
 31
0.0
  0
INSERT
  5
12F4
330
1274
100
AcDbEntity
  8
0
 62
     0
370
    -2
100
AcDbBlockReference
  2
_Open30
 10
586.4830067187787
 20
80.26429653806724
 30
0.0
 41
2.5
 42
2.5
 43
2.5
 50
180.0
  0
INSERT
  5
12F5
330
1274
100
AcDbEntity
  8
0
 62
     0
370
    -2
100
AcDbBlockReference
  2
_Open30
 10
583.3887709206358
 20
80.26429653806724
 30
0.0
 41
2.5
 42
2.5
 43
2.5
  0
MTEXT
  5
12F6
330
1274
100
AcDbEntity
  8
0
 62
     4
100
AcDbMText
 10
573.5137709206358
 20
82.38929653806724
 30
0.0
 40
3.0
 41
0.0
 71
     5
 72
     1
  1
1.55
 73
     1
 44
1.0
1001
ACAD
1000
MTEXTBEGIN
1070
    73
1070
     1
1070
    44
1040
1.0
1070
    74
1070
     0
1000
MTEXTEND
  0
POINT
  5
12F7
330
1274
100
AcDbEntity
  8
Defpoints
 62
     0
100
AcDbPoint
 10
586.4830067187787
 20
81.81018860753056
 30
0.0
  0
POINT
  5
12F8
330
1274
100
AcDbEntity
  8
Defpoints
 62
     0
100
AcDbPoint
 10
583.3887709206358
 20
81.81018860753056
 30
0.0
  0
POINT
  5
12F9
330
1274
100
AcDbEntity
  8
Defpoints
 62
     0
100
AcDbPoint
 10
583.3887709206358
 20
80.26429653806724
 30
0.0
  0
ENDBLK
  5
1276
330
1274
100
AcDbEntity
  8
0
100
AcDbBlockEnd
  0
BLOCK
  5
1283
330
1282
100
AcDbEntity
  8
0
100
AcDbBlockBegin
  2
*D35
 70
     1
 10
0.0
 20
0.0
 30
0.0
  3
*D35
  1

  0
LINE
  5
12FA
330
1282
100
AcDbEntity
  8
0
 62
     0
370
    -2
100
AcDbLine
 10
588.2121383268642
 20
76.10409889168408
 30
0.0
 11
588.2121383268642
 21
73.8310112293168
 31
0.0
  0
LINE
  5
12FB
330
1282
100
AcDbEntity
  8
0
 62
     0
370
    -2
100
AcDbLine
 10
584.2078333736724
 20
76.10409889168408
 30
0.0
 11
584.2078333736724
 21
73.8310112293168
 31
0.0
  0
LINE
  5
12FC
330
1282
100
AcDbEntity
  8
0
 62
     0
370
    -2
100
AcDbLine
 10
590.7121383268641
 20
75.0810112293168
 30
0.0
 11
593.2121383268642
 21
75.0810112293168
 31
0.0
  0
LINE
  5
12FD
330
1282
100
AcDbEntity
  8
0
 62
     0
370
    -2
100
AcDbLine
 10
581.7078333736724
 20
75.0810112293168
 30
0.0
 11
573.3745000403391
 21
75.0810112293168
 31
0.0
  0
LINE
  5
12FE
330
1282
100
AcDbEntity
  8
0
 62
     0
370
    -2
100
AcDbLine
 10
588.2121383268642
 20
75.0810112293168
 30
0.0
 11
584.2078333736724
 21
75.0810112293168
 31
0.0
  0
INSERT
  5
12FF
330
1282
100
AcDbEntity
  8
0
 62
     0
370
    -2
100
AcDbBlockReference
  2
_Open30
 10
588.2121383268642
 20
75.0810112293168
 30
0.0
 41
2.5
 42
2.5
 43
2.5
 50
180.0
  0
INSERT
  5
1300
330
1282
100
AcDbEntity
  8
0
 62
     0
370
    -2
100
AcDbBlockReference
  2
_Open30
 10
584.2078333736724
 20
75.0810112293168
 30
0.0
 41
2.5
 42
2.5
 43
2.5
  0
MTEXT
  5
1301
330
1282
100
AcDbEntity
  8
0
 62
     4
100
AcDbMText
 10
575.8328333736724
 20
76.7060112293168
 30
0.0
 40
2.0
 41
0.0
 71
     5
 72
     1
  1
0.8
  7
高2
 73
     1
 44
1.0
1001
ACAD
1000
MTEXTBEGIN
1070
    73
1070
     1
1070
    44
1040
1.0
1070
    74
1070
     0
1000
MTEXTEND
  0
POINT
  5
1302
330
1282
100
AcDbEntity
  8
Defpoints
 62
     0
100
AcDbPoint
 10
588.2121383268642
 20
76.35409889168409
 30
0.0
  0
POINT
  5
1303
330
1282
100
AcDbEntity
  8
Defpoints
 62
     0
100
AcDbPoint
 10
584.2078333736724
 20
76.35409889168409
 30
0.0
  0
POINT
  5
1304
330
1282
100
AcDbEntity
  8
Defpoints
 62
     0
100
AcDbPoint
 10
584.2078333736724
 20
75.0810112293168
 30
0.0
  0
ENDBLK
  5
1284
330
1282
100
AcDbEntity
  8
0
100
AcDbBlockEnd
  0
BLOCK
  5
1291
330
1290
100
AcDbEntity
  8
0
100
AcDbBlockBegin
  2
*D36
 70
     1
 10
0.0
 20
0.0
 30
0.0
  3
*D36
  1

  0
LINE
  5
1305
330
1290
100
AcDbEntity
  8
0
 62
     0
370
    -2
100
AcDbLine
 10
588.1211316248518
 20
70.82987892365247
 30
0.0
 11
588.1211316248518
 21
69.01146541619607
 31
0.0
  0
LINE
  5
1306
330
1290
100
AcDbEntity
  8
0
 62
     0
370
    -2
100
AcDbLine
 10
583.3887709206358
 20
70.82987892365247
 30
0.0
 11
583.3887709206358
 21
69.01146541619607
 31
0.0
  0
LINE
  5
1307
330
1290
100
AcDbEntity
  8
0
 62
     0
370
    -2
100
AcDbLine
 10
590.6211316248518
 20
70.26146541619607
 30
0.0
 11
593.1211316248518
 21
70.26146541619607
 31
0.0
  0
LINE
  5
1308
330
1290
100
AcDbEntity
  8
0
 62
     0
370
    -2
100
AcDbLine
 10
580.8887709206357
 20
70.26146541619607
 30
0.0
 11
566.1387709206358
 21
70.26146541619607
 31
0.0
  0
LINE
  5
1309
330
1290
100
AcDbEntity
  8
0
 62
     0
370
    -2
100
AcDbLine
 10
588.1211316248518
 20
70.26146541619607
 30
0.0
 11
583.3887709206358
 21
70.26146541619607
 31
0.0
  0
INSERT
  5
130A
330
1290
100
AcDbEntity
  8
0
 62
     0
370
    -2
100
AcDbBlockReference
  2
_Open30
 10
588.1211316248518
 20
70.26146541619607
 30
0.0
 41
2.5
 42
2.5
 43
2.5
 50
180.0
  0
INSERT
  5
130B
330
1290
100
AcDbEntity
  8
0
 62
     0
370
    -2
100
AcDbBlockReference
  2
_Open30
 10
583.3887709206358
 20
70.26146541619607
 30
0.0
 41
2.5
 42
2.5
 43
2.5
  0
MTEXT
  5
130C
330
1290
100
AcDbEntity
  8
0
 62
     4
100
AcDbMText
 10
572.2637709206358
 20
72.38646541619607
 30
0.0
 40
3.0
 41
0.0
 71
     5
 72
     1
  1
18.93
 73
     1
 44
1.0
1001
ACAD
1000
MTEXTBEGIN
1070
    73
1070
     1
1070
    44
1040
1.0
1070
    74
1070
     0
1000
MTEXTEND
  0
POINT
  5
130D
330
1290
100
AcDbEntity
  8
Defpoints
 62
     0
100
AcDbPoint
 10
588.1211316248518
 20
71.07987892365247
 30
0.0
  0
POINT
  5
130E
330
1290
100
AcDbEntity
  8
Defpoints
 62
     0
100
AcDbPoint
 10
583.3887709206358
 20
71.07987892365247
 30
0.0
  0
POINT
  5
130F
330
1290
100
AcDbEntity
  8
Defpoints
 62
     0
100
AcDbPoint
 10
583.3887709206358
 20
70.26146541619607
 30
0.0
  0
ENDBLK
  5
1292
330
1290
100
AcDbEntity
  8
0
100
AcDbBlockEnd
  0
BLOCK
  5
129F
330
129E
100
AcDbEntity
  8
0
100
AcDbBlockBegin
  2
*D37
 70
     1
 10
0.0
 20
0.0
 30
0.0
  3
*D37
  1

  0
LINE
  5
1310
330
129E
100
AcDbEntity
  8
0
 62
     0
370
    -2
100
AcDbLine
 10
585.3167047737136
 20
65.7740387170627
 30
0.0
 11
585.3167047737136
 21
63.46411764018717
 31
0.0
  0
LINE
  5
1311
330
129E
100
AcDbEntity
  8
0
 62
     0
370
    -2
100
AcDbLine
 10
580.7280295715656
 20
65.7740387170627
 30
0.0
 11
580.7280295715656
 21
63.46411764018717
 31
0.0
  0
LINE
  5
1312
330
129E
100
AcDbEntity
  8
0
 62
     0
370
    -2
100
AcDbLine
 10
587.8167047737135
 20
64.71411764018717
 30
0.0
 11
590.3167047737135
 21
64.71411764018717
 31
0.0
  0
LINE
  5
1313
330
129E
100
AcDbEntity
  8
0
 62
     0
370
    -2
100
AcDbLine
 10
578.2280295715657
 20
64.71411764018717
 30
0.0
 11
563.4780295715656
 21
64.71411764018717
 31
0.0
  0
LINE
  5
1314
330
129E
100
AcDbEntity
  8
0
 62
     0
370
    -2
100
AcDbLine
 10
585.3167047737136
 20
64.71411764018717
 30
0.0
 11
580.7280295715656
 21
64.71411764018717
 31
0.0
  0
INSERT
  5
1315
330
129E
100
AcDbEntity
  8
0
 62
     0
370
    -2
100
AcDbBlockReference
  2
_Open30
 10
585.3167047737136
 20
64.71411764018717
 30
0.0
 41
2.5
 42
2.5
 43
2.5
 50
180.0
  0
INSERT
  5
1316
330
129E
100
AcDbEntity
  8
0
 62
     0
370
    -2
100
AcDbBlockReference
  2
_Open30
 10
580.7280295715656
 20
64.71411764018717
 30
0.0
 41
2.5
 42
2.5
 43
2.5
  0
MTEXT
  5
1317
330
129E
100
AcDbEntity
  8
0
 62
     4
100
AcDbMText
 10
569.6030295715656
 20
66.83911764018716
 30
0.0
 40
3.0
 41
0.0
 71
     5
 72
     1
  1
13.77
 73
     1
 44
1.0
1001
ACAD
1000
MTEXTBEGIN
1070
    73
1070
     1
1070
    44
1040
1.0
1070
    74
1070
     0
1000
MTEXTEND
  0
POINT
  5
1318
330
129E
100
AcDbEntity
  8
Defpoints
 62
     0
100
AcDbPoint
 10
585.3167047737136
 20
66.02403871706269
 30
0.0
  0
POINT
  5
1319
330
129E
100
AcDbEntity
  8
Defpoints
 62
     0
100
AcDbPoint
 10
580.7280295715656
 20
66.02403871706269
 30
0.0
  0
POINT
  5
131A
330
129E
100
AcDbEntity
  8
Defpoints
 62
     0
100
AcDbPoint
 10
580.7280295715656
 20
64.71411764018717
 30
0.0
  0
ENDBLK
  5
12A0
330
129E
100
AcDbEntity
  8
0
100
AcDbBlockEnd
  0
BLOCK
  5
12AD
330
12AC
100
AcDbEntity
  8
0
100
AcDbBlockBegin
  2
*D38
 70
     1
 10
0.0
 20
0.0
 30
0.0
  3
*D38
  1

  0
LINE
  5
131B
330
12AC
100
AcDbEntity
  8
0
 62
     0
370
    -2
100
AcDbLine
 10
578.2204219405632
 20
96.70353003533705
 30
0.0
 11
578.2204219405632
 21
104.1000635132748
 31
0.0
  0
LINE
  5
131C
330
12AC
100
AcDbEntity
  8
0
 62
     0
370
    -2
100
AcDbLine
 10
568.2819475710732
 20
96.70353003533705
 30
0.0
 11
568.2819475710732
 21
104.1000635132748
 31
0.0
  0
LINE
  5
131D
330
12AC
100
AcDbEntity
  8
0
 62
     0
370
    -2
100
AcDbLine
 10
575.7204219405632
 20
102.8500635132748
 30
0.0
 11
570.7819475710732
 21
102.8500635132748
 31
0.0
  0
INSERT
  5
131E
330
12AC
100
AcDbEntity
  8
0
 62
     0
370
    -2
100
AcDbBlockReference
  2
_Open30
 10
578.2204219405632
 20
102.8500635132748
 30
0.0
 41
2.5
 42
2.5
 43
2.5
  0
INSERT
  5
131F
330
12AC
100
AcDbEntity
  8
0
 62
     0
370
    -2
100
AcDbBlockReference
  2
_Open30
 10
568.2819475710732
 20
102.8500635132748
 30
0.0
 41
2.5
 42
2.5
 43
2.5
 50
180.0
  0
MTEXT
  5
1320
330
12AC
100
AcDbEntity
  8
0
 62
     4
100
AcDbMText
 10
573.2511847558182
 20
105.9250635132748
 30
0.0
 40
3.0
 41
0.0
 71
     5
 72
     1
  1
9.94\H0.7X;\S+0^ -0.02;
 73
     1
 44
1.0
1001
ACAD
1000
MTEXTBEGIN
1070
    73
1070
     1
1070
    44
1040
1.0
1070
    74
1070
     0
1000
MTEXTEND
  0
POINT
  5
1321
330
12AC
100
AcDbEntity
  8
Defpoints
 62
     0
100
AcDbPoint
 10
578.2204219405632
 20
96.45353003533706
 30
0.0
  0
POINT
  5
1322
330
12AC
100
AcDbEntity
  8
Defpoints
 62
     0
100
AcDbPoint
 10
568.2819475710732
 20
96.45353003533706
 30
0.0
  0
POINT
  5
1323
330
12AC
100
AcDbEntity
  8
Defpoints
 62
     0
100
AcDbPoint
 10
568.2819475710732
 20
102.8500635132748
 30
0.0
  0
ENDBLK
  5
12AE
330
12AC
100
AcDbEntity
  8
0
100
AcDbBlockEnd
  0
ENDSEC
  0
SECTION
  2
ENTITIES
  0
LINE
  5
3E2
330
1F
100
AcDbEntity
  8
0
 62
     3
100
AcDbLine
 10
425.1860088192858
 20
25.98850500875236
 30
0.0
 11
425.1860088192856
 21
48.98850500875235
 31
0.0
  0
LINE
  5
3E4
330
1F
100
AcDbEntity
  8
0
 62
     3
100
AcDbLine
 10
372.1323988192859
 20
18.98850500875235
 30
0.0
 11
372.1323988192859
 21
32.98850500875236
 31
0.0
  0
TEXT
  5
3E6
330
1F
100
AcDbEntity
  8
0
 62
     3
100
AcDbText
 10
401.1963268192856
 20
45.1936210087523
 30
0.0
 40
2.0
  1
A
 41
0.7
100
AcDbText
  0
TEXT
  5
3E7
330
1F
100
AcDbEntity
  8
0
 62
     3
100
AcDbText
 10
403.7316128192858
 20
45.1936210087523
 30
0.0
 40
2.0
  1
P
 41
0.7
100
AcDbText
  0
TEXT
  5
3E8
330
1F
100
AcDbEntity
  8
0
 62
     3
100
AcDbText
 10
406.2668988192858
 20
45.1936210087523
 30
0.0
 40
2.0
  1
P
 41
0.7
100
AcDbText
  0
TEXT
  5
3E9
330
1F
100
AcDbEntity
  8
0
 62
     3
100
AcDbText
 10
408.8021848192859
 20
45.1936210087523
 30
0.0
 40
2.0
  1
D
 41
0.7
100
AcDbText
  0
TEXT
  5
3EA
330
1F
100
AcDbEntity
  8
0
 62
     3
100
AcDbText
 10
414.1708678192858
 20
45.1936210087523
 30
0.0
 40
2.0
  1
C
 41
0.7
100
AcDbText
  0
TEXT
  5
3EB
330
1F
100
AcDbEntity
  8
0
 62
     3
100
AcDbText
 10
416.7061548192858
 20
45.1936210087523
 30
0.0
 40
2.0
  1
H
 41
0.7
100
AcDbText
  0
TEXT
  5
3EC
330
1F
100
AcDbEntity
  8
0
 62
     3
100
AcDbText
 10
419.2414408192858
 20
45.1936210087523
 30
0.0
 40
2.0
  1
C
 41
0.7
100
AcDbText
  0
TEXT
  5
3ED
330
1F
100
AcDbEntity
  8
0
 62
     3
100
AcDbText
 10
421.7767268192856
 20
45.1936210087523
 30
0.0
 40
2.0
  1
K
 41
0.7
100
AcDbText
  0
TEXT
  5
3EE
330
1F
100
AcDbEntity
  8
0
 62
     3
100
AcDbText
 10
427.4506938192859
 20
45.1936210087523
 30
0.0
 40
2.0
  1
DESN
 41
1.216762999999998
100
AcDbText
  0
TEXT
  5
3EF
330
1F
100
AcDbEntity
  8
0
 62
     3
100
AcDbText
 10
342.4443348192858
 20
15.84712300875233
 30
0.0
 40
2.0
  1
NICHIDO IND.CO.LTD
 41
1.274876
100
AcDbText
  0
LINE
  5
3F0
330
1F
100
AcDbEntity
  8
0
 62
     3
100
AcDbLine
 10
352.8273638192859
 20
48.98850500875234
 30
0.0
 11
352.8273638192859
 21
25.98850500875236
 31
0.0
  0
LINE
  5
3F1
330
1F
100
AcDbEntity
  8
0
 62
     3
100
AcDbLine
 10
399.186008819286
 20
48.98850500875235
 30
0.0
 11
399.1860088192859
 21
9.322782008752339
 31
0.0
  0
LINE
  5
3F6
330
1F
100
AcDbEntity
  8
0
 62
     3
100
AcDbLine
 10
412.1860088192859
 20
48.98850500875235
 30
0.0
 11
412.1860088192859
 21
18.98850500875235
 31
0.0
  0
TEXT
  5
3F7
330
1F
100
AcDbEntity
  8
0
 62
     3
100
AcDbText
 10
400.2984528192857
 20
19.85319100875236
 30
0.0
 40
3.2
  1
作成日
 41
1.017225999999997
100
AcDbText
  0
LINE
  5
3F8
330
1F
100
AcDbEntity
  8
0
 62
     3
100
AcDbLine
 10
450.8853718192859
 20
48.98850500875235
 30
0.0
 11
339.5819298192858
 21
48.98850500875235
 31
0.0
  0
LINE
  5
3F9
330
1F
100
AcDbEntity
  8
0
 62
     3
100
AcDbLine
 10
438.1860088192856
 20
25.98850500875236
 30
0.0
 11
438.1860088192856
 21
48.98850500875235
 31
0.0
  0
TEXT
  5
3FA
330
1F
100
AcDbEntity
  8
0
 62
     3
100
AcDbText
 10
441.5098118192859
 20
45.27943900875235
 30
0.0
 40
1.8
  1
D
 41
0.666667
100
AcDbText
  0
TEXT
  5
3FB
330
1F
100
AcDbEntity
  8
0
 62
     3
100
AcDbText
 10
444.3264398192858
 20
45.27943900875235
 30
0.0
 40
1.8
  1
E
 41
0.666667
100
AcDbText
  0
TEXT
  5
3FC
330
1F
100
AcDbEntity
  8
0
 62
     3
100
AcDbText
 10
447.1430678192858
 20
45.27943900875235
 30
0.0
 40
1.8
  1
F
 41
0.666667
100
AcDbText
  0
TEXT
  5
3FD
330
1F
100
AcDbEntity
  8
0
 62
     3
100
AcDbText
 10
441.5098118192859
 20
41.28688600875236
 30
0.0
 40
3.2
  1
製図
 41
1.076369
100
AcDbText
  0
LINE
  5
3FE
330
1F
100
AcDbEntity
  8
0
 62
     3
100
AcDbLine
 10
339.5819298192858
 20
48.98850500875235
 30
0.0
 11
339.5819298192858
 21
9.322782008752339
 31
0.0
  0
TEXT
  5
3FF
330
1F
100
AcDbEntity
  8
0
 62
     3
100
AcDbText
 10
340.9585818192859
 20
9.655247008752297
 30
0.0
 40
5.0
  1
日動工業株式会社
 41
0.833333
100
AcDbText
  0
LINE
  5
400
330
1F
100
AcDbEntity
  8
0
 62
     3
100
AcDbLine
 10
382.4643328192859
 20
32.98850500875236
 30
0.0
 11
382.4643328192859
 21
9.322782008752339
 31
0.0
  0
LINE
  5
401
330
1F
100
AcDbEntity
  8
0
 62
     3
100
AcDbLine
 10
382.4643328192859
 20
14.15564300875232
 30
0.0
 11
399.1860088192859
 21
14.15564300875232
 31
0.0
  0
TEXT
  5
402
330
1F
100
AcDbEntity
  8
0
 62
     3
100
AcDbText
 10
383.0509348192859
 20
14.97207400875234
 30
0.0
 40
3.2
  1
出図コード
 41
0.8356860000000001
100
AcDbText
  0
LINE
  5
41A
330
1F
100
AcDbEntity
  8
0
 62
     3
100
AcDbLine
 10
339.5819298192858
 20
18.98850500875235
 30
0.0
 11
450.8853718192859
 21
18.98850500875235
 31
0.0
  0
LINE
  5
41C
330
1F
100
AcDbEntity
  8
0
 62
     3
100
AcDbLine
 10
339.5819298192858
 20
39.98850500875235
 30
0.0
 11
450.8853718192859
 21
39.98850500875235
 31
0.0
  0
LINE
  5
422
330
1F
100
AcDbEntity
  8
0
 62
     3
100
AcDbLine
 10
339.5819298192858
 20
32.98850500875236
 30
0.0
 11
399.1860088192859
 21
32.98850500875236
 31
0.0
  0
LINE
  5
428
330
1F
100
AcDbEntity
  8
0
 62
     3
100
AcDbLine
 10
339.5819298192858
 20
25.98850500875236
 30
0.0
 11
450.8853718192859
 21
25.98850500875236
 31
0.0
  0
LINE
  5
42C
330
1F
100
AcDbEntity
  8
0
 62
     3
100
AcDbLine
 10
450.8853718192859
 20
283.3781430087523
 30
0.0
 11
450.8853718192859
 21
9.322782008752312
 31
0.0
  0
LINE
  5
42D
330
1F
100
AcDbEntity
  8
0
 62
     3
100
AcDbLine
 10
60.8853718192859
 20
283.3781430087523
 30
0.0
 11
60.8853718192859
 21
9.322782008752339
 31
0.0
  0
LINE
  5
42E
330
1F
100
AcDbEntity
  8
0
 62
     3
100
AcDbLine
 10
450.8853718192859
 20
9.322782008752339
 30
0.0
 11
60.8853718192859
 21
9.322782008752339
 31
0.0
  0
TEXT
  5
431
330
1F
100
AcDbEntity
  8
0
 62
     3
100
AcDbText
 10
382.9183868192857
 20
9.629109523093577
 30
0.0
 40
3.2
  1
ZK-A3X
 41
0.8112849999999999
100
AcDbText
  0
LINE
  5
432
330
1F
100
AcDbEntity
  8
0
 62
     2
100
AcDbLine
 10
238.6602608192859
 20
285.8181450087524
 30
0.0
 11
239.2827578192859
 21
285.4931910087523
 31
0.0
  0
LINE
  5
433
330
1F
100
AcDbEntity
  8
0
 62
     2
100
AcDbLine
 10
238.6602608192859
 20
280.4886730087524
 30
0.0
 11
239.2827578192859
 21
280.8136280087524
 31
0.0
  0
LINE
  5
434
330
1F
100
AcDbEntity
  8
0
 62
     2
100
AcDbLine
 10
239.2827578192859
 20
285.4931910087523
 30
0.0
 11
239.2827578192859
 21
280.8136280087524
 31
0.0
  0
LINE
  5
435
330
1F
100
AcDbEntity
  8
0
 62
     2
100
AcDbLine
 10
240.8592118192859
 20
280.4886730087524
 30
0.0
 11
240.2367148192859
 21
280.8136280087524
 31
0.0
  0
LINE
  5
436
330
1F
100
AcDbEntity
  8
0
 62
     2
100
AcDbLine
 10
240.2367148192859
 20
283.6662830087523
 30
0.0
 11
240.2367148192859
 21
280.8136280087524
 31
0.0
  0
LINE
  5
437
330
1F
100
AcDbEntity
  8
0
 62
     2
100
AcDbLine
 10
244.4904438192859
 20
285.8181450087524
 30
0.0
 11
243.8679468192859
 21
285.4931910087523
 31
0.0
  0
LINE
  5
438
330
1F
100
AcDbEntity
  8
0
 62
     2
100
AcDbLine
 10
242.2914938192859
 20
285.8181450087524
 30
0.0
 11
242.9139908192858
 21
285.4931910087523
 31
0.0
  0
LINE
  5
439
330
1F
100
AcDbEntity
  8
0
 62
     2
100
AcDbLine
 10
242.9139908192858
 20
285.4931910087523
 30
0.0
 11
242.9139908192858
 21
283.4327090087523
 31
0.0
  0
LINE
  5
43A
330
1F
100
AcDbEntity
  8
0
 62
     2
100
AcDbLine
 10
243.8679468192859
 20
285.4931910087523
 30
0.0
 11
243.8679468192859
 21
280.1864430087523
 31
0.0
  0
LINE
  5
43B
330
1F
100
AcDbEntity
  8
0
 62
     2
100
AcDbLine
 10
244.7980118192859
 20
285.8181410087524
 30
0.0
 11
245.4205068192859
 21
285.4931830087523
 31
0.0
  0
LINE
  5
43C
330
1F
100
AcDbEntity
  8
0
 62
     2
100
AcDbLine
 10
244.7979008192858
 20
280.4887440087524
 30
0.0
 11
245.4204088192859
 21
280.8136770087524
 31
0.0
  0
LINE
  5
43D
330
1F
100
AcDbEntity
  8
0
 62
     2
100
AcDbLine
 10
245.4205068192859
 20
285.4931830087523
 30
0.0
 11
245.4205068192859
 21
280.8136770087524
 31
0.0
  0
LINE
  5
43E
330
1F
100
AcDbEntity
  8
0
 62
     2
100
AcDbLine
 10
247.5544918192859
 20
285.8181080087523
 30
0.0
 11
246.9319908192859
 21
285.4931620087524
 31
0.0
  0
LINE
  5
43F
330
1F
100
AcDbEntity
  8
0
 62
     2
100
AcDbLine
 10
246.9319908192859
 20
285.4931620087524
 30
0.0
 11
246.9319908192859
 21
280.8136560087523
 31
0.0
  0
LINE
  5
440
330
1F
100
AcDbEntity
  8
0
 62
     2
100
AcDbLine
 10
247.5544918192859
 20
280.4887110087524
 30
0.0
 11
246.9319908192859
 21
280.8136560087523
 31
0.0
  0
LINE
  5
441
330
1F
100
AcDbEntity
  8
0
 62
     2
100
AcDbLine
 10
252.8262828192859
 20
285.8180490087524
 30
0.0
 11
253.4487788192859
 21
285.4930920087523
 31
0.0
  0
LINE
  5
442
330
1F
100
AcDbEntity
  8
0
 62
     2
100
AcDbLine
 10
253.4487788192859
 20
285.4930920087523
 30
0.0
 11
253.4486968192859
 21
280.8135870087524
 31
0.0
  0
LINE
  5
443
330
1F
100
AcDbEntity
  8
0
 62
     2
100
AcDbLine
 10
252.8261898192859
 20
280.4886520087523
 30
0.0
 11
253.4486968192859
 21
280.8135870087524
 31
0.0
  0
LINE
  5
444
330
1F
100
AcDbEntity
  8
0
 62
     2
100
AcDbLine
 10
255.6152268192859
 20
285.8180490087524
 30
0.0
 11
254.9927308192859
 21
285.4930920087523
 31
0.0
  0
LINE
  5
445
330
1F
100
AcDbEntity
  8
0
 62
     2
100
AcDbLine
 10
255.6153198192859
 20
280.4886520087523
 30
0.0
 11
254.9928128192859
 21
280.8135870087524
 31
0.0
  0
LINE
  5
446
330
1F
100
AcDbEntity
  8
0
 62
     2
100
AcDbLine
 10
255.9062668192859
 20
285.8180490087524
 30
0.0
 11
256.5287628192859
 21
285.4930920087523
 31
0.0
  0
LINE
  5
447
330
1F
100
AcDbEntity
  8
0
 62
     2
100
AcDbLine
 10
255.9061738192859
 20
280.4886520087523
 30
0.0
 11
256.5286808192859
 21
280.8135870087524
 31
0.0
  0
LINE
  5
448
330
1F
100
AcDbEntity
  8
0
 62
     2
100
AcDbLine
 10
258.6952108192859
 20
285.8180490087524
 30
0.0
 11
258.0727148192859
 21
285.4930920087523
 31
0.0
  0
LINE
  5
449
330
1F
100
AcDbEntity
  8
0
 62
     2
100
AcDbLine
 10
258.0727148192859
 20
285.4930920087523
 30
0.0
 11
258.0727968192858
 21
280.8135870087524
 31
0.0
  0
LINE
  5
44A
330
1F
100
AcDbEntity
  8
0
 62
     2
100
AcDbLine
 10
258.6953038192859
 20
280.4886520087523
 30
0.0
 11
258.0727968192858
 21
280.8135870087524
 31
0.0
  0
LINE
  5
44B
330
1F
100
AcDbEntity
  8
0
 62
     2
100
AcDbLine
 10
256.5287268192859
 20
283.4543310087523
 30
0.0
 11
254.9927668192859
 21
283.4543310087523
 31
0.0
  0
LINE
  5
44C
330
1F
100
AcDbEntity
  8
0
 62
     2
100
AcDbLine
 10
256.5287168192858
 20
282.8524870087523
 30
0.0
 11
254.9927778192859
 21
282.8524870087523
 31
0.0
  0
LINE
  5
44D
330
1F
100
AcDbEntity
  8
0
 62
     2
100
AcDbLine
 10
256.5287628192859
 20
285.4930920087523
 30
0.0
 11
256.5287268192859
 21
283.4543310087523
 31
0.0
  0
LINE
  5
44E
330
1F
100
AcDbEntity
  8
0
 62
     2
100
AcDbLine
 10
256.5287168192858
 20
282.8524870087523
 30
0.0
 11
256.5286808192859
 21
280.8135870087524
 31
0.0
  0
LINE
  5
44F
330
1F
100
AcDbEntity
  8
0
 62
     2
100
AcDbLine
 10
254.9927308192859
 20
285.4930920087523
 30
0.0
 11
254.9927668192859
 21
283.4543310087523
 31
0.0
  0
LINE
  5
450
330
1F
100
AcDbEntity
  8
0
 62
     2
100
AcDbLine
 10
254.9927778192859
 20
282.8524870087523
 30
0.0
 11
254.9928128192859
 21
280.8135870087524
 31
0.0
  0
LINE
  5
451
330
1F
100
AcDbEntity
  8
0
 62
     2
100
AcDbLine
 10
258.9908668192859
 20
285.8180490087524
 30
0.0
 11
259.6133628192859
 21
285.4930920087523
 31
0.0
  0
LINE
  5
452
330
1F
100
AcDbEntity
  8
0
 62
     2
100
AcDbLine
 10
259.6133628192859
 20
285.4930920087523
 30
0.0
 11
259.6132808192858
 21
280.8135870087524
 31
0.0
  0
LINE
  5
453
330
1F
100
AcDbEntity
  8
0
 62
     2
100
AcDbLine
 10
258.9907738192859
 20
280.4886520087523
 30
0.0
 11
259.6132808192858
 21
280.8135870087524
 31
0.0
  0
LINE
  5
454
330
1F
100
AcDbEntity
  8
0
 62
     2
100
AcDbLine
 10
261.7473108192859
 20
285.8180490087524
 30
0.0
 11
261.1248148192858
 21
285.4930920087523
 31
0.0
  0
LINE
  5
455
330
1F
100
AcDbEntity
  8
0
 62
     2
100
AcDbLine
 10
261.1248148192858
 20
285.4930920087523
 30
0.0
 11
261.1248958192858
 21
280.8135870087524
 31
0.0
  0
LINE
  5
456
330
1F
100
AcDbEntity
  8
0
 62
     2
100
AcDbLine
 10
261.7474038192859
 20
280.4886520087523
 30
0.0
 11
261.1248958192858
 21
280.8135870087524
 31
0.0
  0
LINE
  5
457
330
1F
100
AcDbEntity
  8
0
 62
     2
100
AcDbLine
 10
262.0535378192859
 20
285.8180490087524
 30
0.0
 11
262.6760338192859
 21
285.4930920087523
 31
0.0
  0
LINE
  5
458
330
1F
100
AcDbEntity
  8
0
 62
     2
100
AcDbLine
 10
262.6760338192859
 20
285.4930920087523
 30
0.0
 11
262.6759528192859
 21
280.8135870087524
 31
0.0
  0
LINE
  5
459
330
1F
100
AcDbEntity
  8
0
 62
     2
100
AcDbLine
 10
262.0534448192859
 20
280.4886520087523
 30
0.0
 11
262.6759528192859
 21
280.8135870087524
 31
0.0
  0
ARC
  5
45A
330
1F
100
AcDbEntity
  8
0
 62
     2
100
AcDbCircle
 10
250.8378378192858
 20
283.1668230087523
 30
0.0
 40
2.980408
100
AcDbArc
 50
97.70152399999965
 51
270.0
  0
ARC
  5
45B
330
1F
100
AcDbEntity
  8
0
 62
     2
100
AcDbCircle
 10
269.2386968192859
 20
283.1368850087523
 30
0.0
 40
3.012775999999998
100
AcDbArc
 50
0.3142500000008352
 51
69.00558200000107
  0
ARC
  5
45C
330
1F
100
AcDbEntity
  8
0
 62
     2
100
AcDbCircle
 10
269.8968038192859
 20
283.1368850087523
 30
0.0
 40
3.012775999999998
100
AcDbArc
 50
110.9944179999989
 51
148.1166109999989
  0
ARC
  5
45D
330
1F
100
AcDbEntity
  8
0
 62
     2
100
AcDbCircle
 10
269.2386968192859
 20
283.1699330087523
 30
0.0
 40
3.012775999999998
100
AcDbArc
 50
290.9944179999989
 51
359.6857499999992
  0
ARC
  5
45E
330
1F
100
AcDbEntity
  8
0
 62
     2
100
AcDbCircle
 10
269.8968038192859
 20
283.1699330087523
 30
0.0
 40
3.012775999999998
100
AcDbArc
 50
211.883389000001
 51
249.005581999998
  0
ARC
  5
45F
330
1F
100
AcDbEntity
  8
0
 62
     2
100
AcDbCircle
 10
269.5677508192858
 20
284.3859880087523
 30
0.0
 40
1.734386999999999
100
AcDbArc
 50
64.3651719999999
 51
115.6348280000001
  0
ARC
  5
460
330
1F
100
AcDbEntity
  8
0
 62
     2
100
AcDbCircle
 10
269.5677508192858
 20
281.9208300087523
 30
0.0
 40
1.734386999999999
100
AcDbArc
 50
244.3651719999999
 51
295.6348280000002
  0
ARC
  5
461
330
1F
100
AcDbEntity
  8
0
 62
     2
100
AcDbCircle
 10
269.5677508192858
 20
284.4189340087524
 30
0.0
 40
0.8512219999999999
100
AcDbArc
 50
19.48660600000247
 51
160.5133939999975
  0
ARC
  5
462
330
1F
100
AcDbEntity
  8
0
 62
     2
100
AcDbCircle
 10
269.5677508192858
 20
281.8878850087524
 30
0.0
 40
0.8512219999999999
100
AcDbArc
 50
199.4866060000024
 51
340.5133939999975
  0
ARC
  5
463
330
1F
100
AcDbEntity
  8
0
 62
     3
100
AcDbCircle
 10
262.7927898192859
 20
251.3990380087523
 30
0.0
 40
37.20000000000001
100
AcDbArc
 50
69.50571499999981
 51
81.68998799999817
  0
ARC
  5
464
330
1F
100
AcDbEntity
  8
0
 62
     3
100
AcDbCircle
 10
262.7927898192859
 20
314.9077800087523
 30
0.0
 40
37.20000000000001
100
AcDbArc
 50
278.3100120000014
 51
290.4942850000002
  0
ARC
  5
465
330
1F
100
AcDbEntity
  8
0
 62
     3
100
AcDbCircle
 10
274.6616528192859
 20
283.1534090087523
 30
0.0
 40
3.299999999999998
100
AcDbArc
 50
290.4942850000002
 51
69.50571499999981
  0
ARC
  5
466
330
1F
100
AcDbEntity
  8
0
 62
     3
100
AcDbCircle
 10
235.6616528192859
 20
283.1534090087523
 30
0.0
 40
3.299999999999998
100
AcDbArc
 50
110.4942850000002
 51
249.5057149999998
  0
ARC
  5
467
330
1F
100
AcDbEntity
  8
0
 62
     3
100
AcDbCircle
 10
247.5305158192858
 20
251.3990380087523
 30
0.0
 40
37.20000000000001
100
AcDbArc
 50
98.3100120000018
 51
110.4942850000002
  0
ARC
  5
468
330
1F
100
AcDbEntity
  8
0
 62
     3
100
AcDbCircle
 10
247.5305158192858
 20
314.9077800087523
 30
0.0
 40
37.20000000000001
100
AcDbArc
 50
249.5057149999998
 51
261.6899879999981
  0
ARC
  5
469
330
1F
100
AcDbEntity
  8
0
 62
     3
100
AcDbCircle
 10
255.1616528192859
 20
199.1534090087523
 30
0.0
 40
90.0
100
AcDbArc
 50
81.68998799999817
 51
98.3100120000018
  0
ARC
  5
46A
330
1F
100
AcDbEntity
  8
0
 62
     3
100
AcDbCircle
 10
255.1616528192859
 20
367.1534090087523
 30
0.0
 40
90.0
100
AcDbArc
 50
261.6899879999981
 51
278.3100120000014
  0
ARC
  5
46B
330
1F
100
AcDbEntity
  8
0
 62
     3
100
AcDbCircle
 10
255.1616528192859
 20
199.1534090087523
 30
0.0
 40
89.1
100
AcDbArc
 50
81.68998799999817
 51
98.3100120000018
  0
ARC
  5
46C
330
1F
100
AcDbEntity
  8
0
 62
     3
100
AcDbCircle
 10
255.1616528192859
 20
367.1534090087523
 30
0.0
 40
89.1
100
AcDbArc
 50
261.6899879999981
 51
278.3100120000014
  0
ARC
  5
46D
330
1F
100
AcDbEntity
  8
0
 62
     3
100
AcDbCircle
 10
262.7927898192859
 20
314.9077800087523
 30
0.0
 40
36.3
100
AcDbArc
 50
278.3100120000014
 51
290.4942850000002
  0
ARC
  5
46E
330
1F
100
AcDbEntity
  8
0
 62
     3
100
AcDbCircle
 10
262.7927898192859
 20
251.3990380087523
 30
0.0
 40
36.3
100
AcDbArc
 50
69.50571499999981
 51
81.68998799999817
  0
ARC
  5
46F
330
1F
100
AcDbEntity
  8
0
 62
     3
100
AcDbCircle
 10
274.6616528192859
 20
283.1534090087523
 30
0.0
 40
2.399999999999999
100
AcDbArc
 50
290.4942850000002
 51
69.50571499999981
  0
ARC
  5
470
330
1F
100
AcDbEntity
  8
0
 62
     3
100
AcDbCircle
 10
235.6616528192859
 20
283.1534090087523
 30
0.0
 40
2.399999999999999
100
AcDbArc
 50
110.4942850000002
 51
249.5057149999998
  0
ARC
  5
471
330
1F
100
AcDbEntity
  8
0
 62
     3
100
AcDbCircle
 10
247.5305158192858
 20
251.3990380087523
 30
0.0
 40
36.3
100
AcDbArc
 50
98.3100120000018
 51
110.4942850000002
  0
ARC
  5
472
330
1F
100
AcDbEntity
  8
0
 62
     3
100
AcDbCircle
 10
247.5305158192858
 20
314.9077800087523
 30
0.0
 40
36.3
100
AcDbArc
 50
249.5057149999998
 51
261.6899879999981
  0
LINE
  5
473
330
1F
100
AcDbEntity
  8
0
 62
     2
100
AcDbLine
 10
261.7473118192858
 20
280.1864430087523
 30
0.0
 11
258.9908658192859
 21
280.1864430087523
 31
0.0
  0
LINE
  5
474
330
1F
100
AcDbEntity
  8
0
 62
     2
100
AcDbLine
 10
261.7473118192858
 20
280.4886730087524
 30
0.0
 11
261.7473118192858
 21
280.1864430087523
 31
0.0
  0
LINE
  5
475
330
1F
100
AcDbEntity
  8
0
 62
     2
100
AcDbLine
 10
258.6952128192859
 20
286.1202340087524
 30
0.0
 11
255.9062658192859
 21
286.1202340087524
 31
0.0
  0
LINE
  5
476
330
1F
100
AcDbEntity
  8
0
 62
     2
100
AcDbLine
 10
258.6952128192859
 20
286.1202340087524
 30
0.0
 11
258.6952128192859
 21
285.8181450087524
 31
0.0
  0
LINE
  5
477
330
1F
100
AcDbEntity
  8
0
 62
     2
100
AcDbLine
 10
258.6952128192859
 20
280.4886730087524
 30
0.0
 11
258.6952128192859
 21
280.1863020087523
 31
0.0
  0
LINE
  5
478
330
1F
100
AcDbEntity
  8
0
 62
     2
100
AcDbLine
 10
258.6952128192859
 20
280.1863020087523
 30
0.0
 11
255.9062658192859
 21
280.1863020087523
 31
0.0
  0
LINE
  5
479
330
1F
100
AcDbEntity
  8
0
 62
     2
100
AcDbLine
 10
261.7473118192858
 20
286.1203750087524
 30
0.0
 11
261.7473118192858
 21
285.8181450087524
 31
0.0
  0
LINE
  5
47A
330
1F
100
AcDbEntity
  8
0
 62
     2
100
AcDbLine
 10
261.7473118192858
 20
286.1203750087524
 30
0.0
 11
258.9908658192859
 21
286.1203750087524
 31
0.0
  0
LINE
  5
47B
330
1F
100
AcDbEntity
  8
0
 62
     2
100
AcDbLine
 10
258.9908658192859
 20
286.1203750087524
 30
0.0
 11
258.9908658192859
 21
285.8181450087524
 31
0.0
  0
LINE
  5
47C
330
1F
100
AcDbEntity
  8
0
 62
     2
100
AcDbLine
 10
262.0535368192859
 20
280.4886730087524
 30
0.0
 11
262.0535368192859
 21
280.1864430087523
 31
0.0
  0
LINE
  5
47D
330
1F
100
AcDbEntity
  8
0
 62
     2
100
AcDbLine
 10
264.8882518192859
 20
280.1864430087523
 30
0.0
 11
262.0535368192859
 21
280.1864430087523
 31
0.0
  0
LINE
  5
47E
330
1F
100
AcDbEntity
  8
0
 62
     2
100
AcDbLine
 10
264.1874858192858
 20
285.1664190087523
 30
0.0
 11
264.1874858192858
 21
281.1403990087523
 31
0.0
  0
LINE
  5
47F
330
1F
100
AcDbEntity
  8
0
 62
     2
100
AcDbLine
 10
264.1874858192858
 20
281.1403990087523
 30
0.0
 11
264.4589838192859
 21
281.1403990087523
 31
0.0
  0
ARC
  5
480
330
1F
100
AcDbEntity
  8
0
 62
     2
100
AcDbCircle
 10
263.0707188192858
 20
283.1534090087523
 30
0.0
 40
2.445299
100
AcDbArc
 50
304.591955000001
 51
55.40804499999904
  0
LINE
  5
481
330
1F
100
AcDbEntity
  8
0
 62
     2
100
AcDbLine
 10
264.8882518192859
 20
286.1203750087524
 30
0.0
 11
262.0535368192859
 21
286.1203750087524
 31
0.0
  0
LINE
  5
482
330
1F
100
AcDbEntity
  8
0
 62
     2
100
AcDbLine
 10
262.0535368192859
 20
286.1203750087524
 30
0.0
 11
262.0535368192859
 21
285.8181450087524
 31
0.0
  0
LINE
  5
483
330
1F
100
AcDbEntity
  8
0
 62
     2
100
AcDbLine
 10
258.9908658192859
 20
280.4886730087524
 30
0.0
 11
258.9908658192859
 21
280.1864430087523
 31
0.0
  0
LINE
  5
484
330
1F
100
AcDbEntity
  8
0
 62
     2
100
AcDbLine
 10
264.1874858192858
 20
285.1664190087523
 30
0.0
 11
264.4589838192859
 21
285.1664190087523
 31
0.0
  0
LINE
  5
485
330
1F
100
AcDbEntity
  8
0
 62
     2
100
AcDbLine
 10
247.5544008192859
 20
280.4886730087524
 30
0.0
 11
247.5543948192859
 21
280.1864150087524
 31
0.0
  0
LINE
  5
486
330
1F
100
AcDbEntity
  8
0
 62
     2
100
AcDbLine
 10
244.7979498192858
 20
280.1864710087524
 30
0.0
 11
247.5543948192859
 21
280.1864230087524
 31
0.0
  0
LINE
  5
487
330
1F
100
AcDbEntity
  8
0
 62
     2
100
AcDbLine
 10
238.6602608192859
 20
280.1864430087523
 30
0.0
 11
240.8592118192859
 21
280.1864430087523
 31
0.0
  0
ARC
  5
488
330
1F
100
AcDbEntity
  8
0
 62
     2
100
AcDbCircle
 10
231.5431998192859
 20
283.2232760087523
 30
0.0
 40
21.019379
100
AcDbArc
 50
353.8660059999982
 51
357.6940340000005
  0
LINE
  5
489
330
1F
100
AcDbEntity
  8
0
 62
     2
100
AcDbLine
 10
251.1383148192859
 20
282.3827510087524
 30
0.0
 11
252.5455588192858
 21
282.3775440087524
 31
0.0
  0
LINE
  5
48B
330
1F
100
AcDbEntity
  8
0
 62
     2
100
AcDbLine
 10
251.1439978192859
 20
283.9187720087523
 30
0.0
 11
252.5512418192859
 21
283.9135650087523
 31
0.0
  0
ARC
  5
48C
330
1F
100
AcDbEntity
  8
0
 62
     2
100
AcDbCircle
 10
231.5431998192859
 20
283.2232760087523
 30
0.0
 40
21.019379
100
AcDbArc
 50
1.881966000002122
 51
5.709993999999738
  0
LINE
  5
48D
330
1F
100
AcDbEntity
  8
0
 62
     2
100
AcDbLine
 10
247.5544988192859
 20
286.1203470087523
 30
0.0
 11
247.5544938192859
 21
285.8181450087524
 31
0.0
  0
LINE
  5
48E
330
1F
100
AcDbEntity
  8
0
 62
     2
100
AcDbLine
 10
244.7980528192859
 20
286.1204040087523
 30
0.0
 11
247.5544988192859
 21
286.1203560087523
 31
0.0
  0
LINE
  5
48F
330
1F
100
AcDbEntity
  8
0
 62
     2
100
AcDbLine
 10
244.7979548192859
 20
280.4886730087524
 30
0.0
 11
244.7979498192858
 21
280.1864710087524
 31
0.0
  0
LINE
  5
490
330
1F
100
AcDbEntity
  8
0
 62
     2
100
AcDbLine
 10
244.7980528192859
 20
286.1204040087523
 30
0.0
 11
244.7980478192859
 21
285.8181450087524
 31
0.0
  0
LINE
  5
491
330
1F
100
AcDbEntity
  8
0
 62
     2
100
AcDbLine
 10
240.8592118192859
 20
280.4886730087524
 30
0.0
 11
240.8592118192859
 21
280.1864430087523
 31
0.0
  0
LINE
  5
492
330
1F
100
AcDbEntity
  8
0
 62
     2
100
AcDbLine
 10
240.2367148192859
 20
283.6662830087523
 30
0.0
 11
242.4116148192859
 21
280.1864430087523
 31
0.0
  0
LINE
  5
493
330
1F
100
AcDbEntity
  8
0
 62
     2
100
AcDbLine
 10
242.4116148192859
 20
280.1864430087523
 30
0.0
 11
243.8679468192859
 21
280.1864430087523
 31
0.0
  0
LINE
  5
494
330
1F
100
AcDbEntity
  8
0
 62
     2
100
AcDbLine
 10
244.4904438192859
 20
286.1203750087524
 30
0.0
 11
244.4904438192859
 21
285.8181450087524
 31
0.0
  0
LINE
  5
495
330
1F
100
AcDbEntity
  8
0
 62
     2
100
AcDbLine
 10
242.2914938192859
 20
286.1203750087524
 30
0.0
 11
244.4904438192859
 21
286.1203750087524
 31
0.0
  0
LINE
  5
496
330
1F
100
AcDbEntity
  8
0
 62
     2
100
AcDbLine
 10
242.2914938192859
 20
286.1203750087524
 30
0.0
 11
242.2914938192859
 21
285.8181450087524
 31
0.0
  0
LINE
  5
497
330
1F
100
AcDbEntity
  8
0
 62
     2
100
AcDbLine
 10
242.9139908192858
 20
283.4327090087523
 30
0.0
 11
241.150209819286
 21
286.1203750087524
 31
0.0
  0
LINE
  5
498
330
1F
100
AcDbEntity
  8
0
 62
     2
100
AcDbLine
 10
238.6602608192859
 20
286.1203750087524
 30
0.0
 11
241.150209819286
 21
286.1203750087524
 31
0.0
  0
LINE
  5
499
330
1F
100
AcDbEntity
  8
0
 62
     2
100
AcDbLine
 10
252.8262818192859
 20
286.1202340087524
 30
0.0
 11
255.6152278192859
 21
286.1202340087524
 31
0.0
  0
LINE
  5
49A
330
1F
100
AcDbEntity
  8
0
 62
     2
100
AcDbLine
 10
252.8262818192859
 20
285.8181450087524
 30
0.0
 11
252.8262818192859
 21
286.1202340087524
 31
0.0
  0
LINE
  5
49B
330
1F
100
AcDbEntity
  8
0
 62
     2
100
AcDbLine
 10
252.8262818192859
 20
280.1863020087523
 30
0.0
 11
252.8262818192859
 21
280.4886730087524
 31
0.0
  0
LINE
  5
49C
330
1F
100
AcDbEntity
  8
0
 62
     2
100
AcDbLine
 10
252.8262818192859
 20
280.1863020087523
 30
0.0
 11
255.6152278192859
 21
280.1863020087523
 31
0.0
  0
LINE
  5
49D
330
1F
100
AcDbEntity
  8
0
 62
     2
100
AcDbLine
 10
255.9062658192859
 20
280.4886730087524
 30
0.0
 11
255.9062658192859
 21
280.1863020087523
 31
0.0
  0
LINE
  5
49E
330
1F
100
AcDbEntity
  8
0
 62
     2
100
AcDbLine
 10
255.6152278192859
 20
280.4886730087524
 30
0.0
 11
255.6152278192859
 21
280.1863020087523
 31
0.0
  0
LINE
  5
49F
330
1F
100
AcDbEntity
  8
0
 62
     2
100
AcDbLine
 10
255.6152278192859
 20
285.8181450087524
 30
0.0
 11
255.6152278192859
 21
286.1202340087524
 31
0.0
  0
LINE
  5
4A0
330
1F
100
AcDbEntity
  8
0
 62
     2
100
AcDbLine
 10
255.9062658192859
 20
285.8181450087524
 30
0.0
 11
255.9062658192859
 21
286.1202340087524
 31
0.0
  0
LINE
  5
4A1
330
1F
100
AcDbEntity
  8
0
 62
     2
100
AcDbLine
 10
238.6602608192859
 20
280.4886730087524
 30
0.0
 11
238.6602608192859
 21
280.1864430087523
 31
0.0
  0
LINE
  5
4A2
330
1F
100
AcDbEntity
  8
0
 62
     2
100
AcDbLine
 10
238.6602608192859
 20
286.1203750087524
 30
0.0
 11
238.6602608192859
 21
285.8181450087524
 31
0.0
  0
ARC
  5
4A3
330
1F
100
AcDbEntity
  8
0
 62
     2
100
AcDbCircle
 10
265.1882518192858
 20
283.7759060087524
 30
0.0
 40
2.344468999999999
100
AcDbArc
 50
17.30874900000199
 51
23.76507099999937
  0
ARC
  5
4A4
330
1F
100
AcDbEntity
  8
0
 62
     2
100
AcDbCircle
 10
263.1907188192859
 20
283.1534090087523
 30
0.0
 40
4.436751
100
AcDbArc
 50
342.691250999998
 51
17.30856599999883
  0
ARC
  5
4A5
330
1F
100
AcDbEntity
  8
0
 62
     2
100
AcDbCircle
 10
265.1882518192858
 20
282.5309120087524
 30
0.0
 40
2.344468999999999
100
AcDbArc
 50
336.2349290000007
 51
342.691250999998
  0
ARC
  5
4A6
330
1F
100
AcDbEntity
  8
0
 62
     2
100
AcDbCircle
 10
264.8882518192859
 20
283.7759060087524
 30
0.0
 40
2.344468999999999
100
AcDbArc
 50
17.30874900000199
 51
90.0
  0
ARC
  5
4A7
330
1F
100
AcDbEntity
  8
0
 62
     2
100
AcDbCircle
 10
262.8907188192859
 20
283.1534090087523
 30
0.0
 40
4.436751
100
AcDbArc
 50
342.691250999998
 51
17.30856599999883
  0
ARC
  5
4A8
330
1F
100
AcDbEntity
  8
0
 62
     2
100
AcDbCircle
 10
264.8882518192859
 20
282.5309120087524
 30
0.0
 40
2.344468999999999
100
AcDbArc
 50
270.0
 51
342.691250999998
  0
ARC
  5
4A9
330
1F
100
AcDbEntity
  8
0
 62
     2
100
AcDbCircle
 10
250.4254798192859
 20
283.1534090087523
 30
0.0
 40
2.966965999999997
100
AcDbArc
 50
46.75287999999857
 51
89.74999799999961
  0
ARC
  5
4AA
330
1F
100
AcDbEntity
  8
0
 62
     2
100
AcDbCircle
 10
250.4254798192859
 20
283.1534090087523
 30
0.0
 40
2.966965999999997
100
AcDbArc
 50
273.9763329999983
 51
312.82312
  0
ARC
  5
4AB
330
1F
100
AcDbEntity
  8
0
 62
     2
100
AcDbCircle
 10
266.7709198192858
 20
283.1076070087523
 30
0.0
 40
3.936983999999998
100
AcDbArc
 50
0.6665839999989796
 51
23.90392800000248
  0
ARC
  5
4AC
330
1F
100
AcDbEntity
  8
0
 62
     2
100
AcDbCircle
 10
272.3645808192858
 20
283.1076070087523
 30
0.0
 40
3.936983999999998
100
AcDbArc
 50
156.0960719999975
 51
179.333416000001
  0
ARC
  5
4AD
330
1F
100
AcDbEntity
  8
0
 62
     2
100
AcDbCircle
 10
266.7709198192858
 20
283.1992110087524
 30
0.0
 40
3.936983999999998
100
AcDbArc
 50
336.0960719999975
 51
359.3334159999978
  0
ARC
  5
4AE
330
1F
100
AcDbEntity
  8
0
 62
     2
100
AcDbCircle
 10
272.3645808192858
 20
283.1992110087524
 30
0.0
 40
3.936983999999998
100
AcDbArc
 50
180.666583999999
 51
203.9039280000025
  0
LINE
  5
4AF
330
1F
100
AcDbEntity
  8
0
 62
     3
100
AcDbLine
 10
279.5420968192859
 20
283.3781430087523
 30
0.0
 11
450.8853718192859
 21
283.3781430087523
 31
0.0
  0
LINE
  5
4B0
330
1F
100
AcDbEntity
  8
0
 62
     3
100
AcDbLine
 10
230.988062819286
 20
283.3781430087523
 30
0.0
 11
60.8853718192859
 21
283.3781430087523
 31
0.0
  0
LINE
  5
4B1
330
1F
100
AcDbEntity
  8
0
 62
     3
100
AcDbLine
 10
48.48344781928588
 20
149.8227820087523
 30
0.0
 11
45.88537181928589
 21
148.3227820087523
 31
0.0
  0
LINE
  5
4B2
330
1F
100
AcDbEntity
  8
0
 62
     3
100
AcDbLine
 10
48.48344781928588
 20
149.8227820087523
 30
0.0
 11
45.88537181928589
 21
151.3227820087523
 31
0.0
  0
LINE
  5
4B3
330
1F
100
AcDbEntity
  8
0
 62
     3
100
AcDbLine
 10
45.88537181928589
 20
148.3227820087523
 30
0.0
 11
45.88537181928589
 21
151.3227820087523
 31
0.0
  0
TEXT
  5
4B4
330
1F
100
AcDbEntity
  8
0
 62
     3
100
AcDbText
 10
341.3993258192859
 20
45.15803000875232
 30
0.0
 40
2.0
  1
CONPONENTS
 41
0.5331600000000001
100
AcDbText
  0
TEXT
  5
4B5
330
1F
100
AcDbEntity
  8
0
 62
     3
100
AcDbText
 10
341.0495998192859
 20
26.22585400875235
 30
0.0
 40
3.0
  1
材
 41
0.833333
100
AcDbText
  0
TEXT
  5
4B6
330
1F
100
AcDbEntity
  8
0
 62
     3
100
AcDbText
 10
348.5852418192858
 20
26.22585400875235
 30
0.0
 40
3.0
  1
質
 41
0.833333
100
AcDbText
  0
TEXT
  5
4B7
330
1F
100
AcDbEntity
  8
0
 62
     3
100
AcDbText
 10
341.1376698192859
 20
36.85037800875236
 30
0.0
 40
2.0
  1
MODEL
 41
1.031072999999999
100
AcDbText
  0
TEXT
  5
4B8
330
1F
100
AcDbEntity
  8
0
 62
     3
100
AcDbText
 10
341.0495998192859
 20
29.90816200875233
 30
0.0
 40
2.0
  1
MATERIAL
 41
0.659278
100
AcDbText
  0
TEXT
  5
4B9
330
1F
100
AcDbEntity
  8
0
 62
     3
100
AcDbText
 10
372.356879819286
 20
26.22585400875235
 30
0.0
 40
3.0
  1
備
 41
0.833333
100
AcDbText
  0
TEXT
  5
4BA
330
1F
100
AcDbEntity
  8
0
 62
     3
100
AcDbText
 10
379.0898818192859
 20
26.22585400875235
 30
0.0
 40
3.0
  1
考
 41
0.833333
100
AcDbText
  0
TEXT
  5
4BB
330
1F
100
AcDbEntity
  8
0
 62
     3
100
AcDbText
 10
372.7130163910967
 20
29.90816200875233
 30
0.0
 40
2.0
  1
REMARKS
 41
0.675794
100
AcDbText
  0
TEXT
  5
4BC
330
1F
100
AcDbEntity
  8
0
 62
     3
100
AcDbText
 10
342.6393288192859
 20
22.98804100875234
 30
0.0
 40
2.0
  1
3AD
 41
1.42614
100
AcDbText
  0
TEXT
  5
4BD
330
1F
100
AcDbEntity
  8
0
 62
     3
100
AcDbText
 10
351.9503088192859
 20
23.15377500875232
 30
0.0
 40
2.0
  1
ANGLE
 41
1.669883999999995
100
AcDbText
  0
TEXT
  5
4BE
330
1F
100
AcDbEntity
  8
0
 62
     3
100
AcDbText
 10
372.8841958192859
 20
22.77693400875236
 30
0.0
 40
2.0
  1
SCALE
 41
0.7719630000000001
100
AcDbText
  0
TEXT
  5
4BF
330
1F
100
AcDbEntity
  8
0
 62
     3
100
AcDbText
 10
342.3254588192858
 20
18.98850500875235
 30
0.0
 40
3.0
  1
第
 41
0.833333
100
AcDbText
  0
TEXT
  5
4C0
330
1F
100
AcDbEntity
  8
0
 62
     3
100
AcDbText
 10
350.1123088192859
 20
18.98850500875235
 30
0.0
 40
3.0
  1
三
 41
0.833333
100
AcDbText
  0
TEXT
  5
4C1
330
1F
100
AcDbEntity
  8
0
 62
     3
100
AcDbText
 10
357.8991588192859
 20
18.98850500875235
 30
0.0
 40
3.0
  1
角
 41
0.833333
100
AcDbText
  0
TEXT
  5
4C2
330
1F
100
AcDbEntity
  8
0
 62
     3
100
AcDbText
 10
365.6860088192859
 20
18.98850500875235
 30
0.0
 40
3.0
  1
法
 41
0.833333
100
AcDbText
  0
TEXT
  5
4C3
330
1F
100
AcDbEntity
  8
0
 62
     3
100
AcDbText
 10
372.7474008192859
 20
19.27693400875236
 30
0.0
 40
3.0
  1
尺
 41
0.833333
100
AcDbText
  0
TEXT
  5
4C4
330
1F
100
AcDbEntity
  8
0
 62
     3
100
AcDbText
 10
379.4804018192858
 20
19.27693400875236
 30
0.0
 40
3.0
  1
度
 41
0.833333
100
AcDbText
  0
TEXT
  5
4C5
330
1F
100
AcDbEntity
  8
0
 62
     3
100
AcDbText
 10
402.0636728192859
 20
41.44623300875233
 30
0.0
 40
3.0
  1
承認
 41
1.089472999999999
100
AcDbText
  0
TEXT
  5
4C6
330
1F
100
AcDbEntity
  8
0
 62
     3
100
AcDbText
 10
415.3065528192859
 20
41.38850500875232
 30
0.0
 40
3.0
  1
検図
 41
0.931761
100
AcDbText
  0
TEXT
  5
4C7
330
1F
100
AcDbEntity
  8
0
 62
     3
100
AcDbText
 10
428.3069498192856
 20
41.38850500875232
 30
0.0
 40
3.0
  1
設
 41
0.833333
100
AcDbText
  0
TEXT
  5
4C8
330
1F
100
AcDbEntity
  8
0
 62
     3
100
AcDbText
 10
432.7968178192858
 20
41.38850500875232
 30
0.0
 40
3.0
  1
計
 41
0.833333
100
AcDbText
  0
TEXT
  5
4C9
330
1F
100
AcDbEntity
  8
0
 62
     3
100
AcDbText
 10
341.4694328192859
 20
41.56105700875232
 30
0.0
 40
3.0
  1
品
 41
0.833333
100
AcDbText
  0
TEXT
  5
4CA
330
1F
100
AcDbEntity
  8
0
 62
     3
100
AcDbText
 10
349.0050748192859
 20
41.56105700875232
 30
0.0
 40
3.0
  1
名
 41
0.833333
100
AcDbText
  0
TEXT
  5
4CB
330
1F
100
AcDbEntity
  8
0
 62
     3
100
AcDbText
 10
341.1376698192859
 20
33.38254218431352
 30
0.0
 40
3.0
  1
型
 41
0.833333
100
AcDbText
  0
TEXT
  5
4CC
330
1F
100
AcDbEntity
  8
0
 62
     3
100
AcDbText
 10
348.6857608192859
 20
33.38254218431352
 30
0.0
 40
3.0
  1
式
 41
0.833333
100
AcDbText
  0
TEXT
  5
4D4
330
1F
100
AcDbEntity
  8
0
 62
     3
100
AcDbText
 10
415.8694528192858
 20
19.62420500875234
 30
0.0
 40
3.2
  1
2010.8.5
  7
高3.2
100
AcDbText
  0
TEXT
  5
4D5
330
1F
100
AcDbEntity
  8
0
 62
     3
100
AcDbText
 10
358.9921935848435
 20
41.63293944603378
 30
0.0
 40
4.5
  1
ニコソーラー
  7
高4.5
100
AcDbText
  0
LINE
  5
4D6
330
1F
100
AcDbEntity
  8
0
 62
     3
100
AcDbLine
 10
269.3126762812056
 20
160.4417301197614
 30
0.0
 11
199.7126762812055
 21
160.4417301197614
 31
0.0
  0
LINE
  5
4D7
330
1F
100
AcDbEntity
  8
0
 62
     3
100
AcDbLine
 10
272.5126762812056
 20
147.6417301197614
 30
0.0
 11
196.5126762812056
 21
147.6417301197614
 31
0.0
  0
LINE
  5
4D8
330
1F
100
AcDbEntity
  8
0
 62
     3
100
AcDbLine
 10
270.9126762812056
 20
121.2417301197614
 30
0.0
 11
198.1126762812055
 21
121.2417301197614
 31
0.0
  0
LINE
  5
4D9
330
1F
100
AcDbEntity
  8
0
 62
     3
100
AcDbLine
 10
276.5126762812056
 20
85.24173011976136
 30
0.0
 11
192.5126762812056
 21
85.24173011976136
 31
0.0
  0
LINE
  5
4DA
330
1F
100
AcDbEntity
  8
0
 62
     3
100
AcDbLine
 10
272.5126762812056
 20
157.2417301197614
 30
0.0
 11
272.5126762812056
 21
147.6417301197614
 31
0.0
  0
ARC
  5
4DB
330
1F
100
AcDbEntity
  8
0
 62
     3
100
AcDbCircle
 10
53.9126762812056
 20
147.6417301197614
 30
0.0
 40
218.6
100
AcDbArc
 50
353.0635410000012
 51
0.0
  0
ARC
  5
4DC
330
1F
100
AcDbEntity
  8
0
 62
     3
100
AcDbCircle
 10
157.9983906812056
 20
85.24173011976136
 30
0.0
 40
118.5142856
100
AcDbArc
 50
0.0
 51
17.68362899999907
  0
ARC
  5
4DD
330
1F
100
AcDbEntity
  8
0
 62
     3
100
AcDbCircle
 10
269.3126762812056
 20
157.2417301197614
 30
0.0
 40
3.2
100
AcDbArc
 50
0.0
 51
90.0
  0
ARC
  5
4DE
330
1F
100
AcDbEntity
  8
0
 62
     3
100
AcDbCircle
 10
199.7126762812055
 20
157.2417301197614
 30
0.0
 40
3.2
100
AcDbArc
 50
90.0
 51
180.0
  0
LINE
  5
4DF
330
1F
100
AcDbEntity
  8
0
 62
     3
100
AcDbLine
 10
196.5126762812056
 20
157.2417301197614
 30
0.0
 11
196.5126762812056
 21
147.6417301197614
 31
0.0
  0
ARC
  5
4E0
330
1F
100
AcDbEntity
  8
0
 62
     3
100
AcDbCircle
 10
415.1126762812054
 20
147.6417301197614
 30
0.0
 40
218.6
100
AcDbArc
 50
180.0
 51
186.9364589999988
  0
ARC
  5
4E1
330
1F
100
AcDbEntity
  8
0
 62
     3
100
AcDbCircle
 10
311.0269618812056
 20
85.24173011976136
 30
0.0
 40
118.5142856
100
AcDbArc
 50
162.3163710000009
 51
180.0
  0
ARC
  5
4E2
330
1F
100
AcDbEntity
  8
0
100
AcDbCircle
 10
-26.74258371879452
 20
89.12450931976144
 30
0.0
 40
293.4958088
100
AcDbArc
 50
359.2419879999995
 51
6.282454000000121
  0
LINE
  5
4E3
330
1F
100
AcDbEntity
  8
0
100
AcDbLine
 10
235.3297266812056
 20
85.24173011976136
 30
0.0
 11
235.3297266812056
 21
121.2417301197614
 31
0.0
  0
LINE
  5
4E4
330
1F
100
AcDbEntity
  8
0
100
AcDbLine
 10
233.6956258812056
 20
85.24173011976136
 30
0.0
 11
233.6956258812056
 21
121.2417301197614
 31
0.0
  0
ARC
  5
4E5
330
1F
100
AcDbEntity
  8
0
100
AcDbCircle
 10
495.7679362812053
 20
89.12450931976144
 30
0.0
 40
293.4958088
100
AcDbArc
 50
173.7175459999999
 51
180.7580120000006
  0
LINE
  5
4E6
330
1F
100
AcDbEntity
  8
0
 62
     3
100
AcDbLine
 10
272.5126762812056
 20
149.4665581197614
 30
0.0
 11
196.5126762812056
 21
149.4665581197614
 31
0.0
  0
LINE
  5
4E7
330
1F
100
AcDbEntity
  8
0
100
AcDbLine
 10
238.4027042812057
 20
157.2417301197614
 30
0.0
 11
238.4027042812057
 21
149.4665581197614
 31
0.0
  0
LINE
  5
4E8
330
1F
100
AcDbEntity
  8
0
100
AcDbLine
 10
245.8847370812055
 20
157.2417301197614
 30
0.0
 11
245.8847370812055
 21
149.4665581197614
 31
0.0
  0
LINE
  5
4E9
330
1F
100
AcDbEntity
  8
0
100
AcDbLine
 10
253.3667690812056
 20
157.2417301197614
 30
0.0
 11
253.3667690812056
 21
149.4665581197614
 31
0.0
  0
LINE
  5
4EA
330
1F
100
AcDbEntity
  8
0
100
AcDbLine
 10
259.6463314812056
 20
157.2417301197614
 30
0.0
 11
259.6463314812056
 21
149.4665581197614
 31
0.0
  0
LINE
  5
4EB
330
1F
100
AcDbEntity
  8
0
100
AcDbLine
 10
264.4562098812055
 20
157.2417301197614
 30
0.0
 11
264.4562098812055
 21
149.4665581197614
 31
0.0
  0
LINE
  5
4EC
330
1F
100
AcDbEntity
  8
0
100
AcDbLine
 10
268.3308338812055
 20
157.2417301197614
 30
0.0
 11
268.3308338812055
 21
149.4665581197614
 31
0.0
  0
LINE
  5
4ED
330
1F
100
AcDbEntity
  8
0
100
AcDbLine
 10
270.4685570812054
 20
157.2417301197614
 30
0.0
 11
270.4685570812054
 21
149.4665581197614
 31
0.0
  0
LINE
  5
4EE
330
1F
100
AcDbEntity
  8
0
100
AcDbLine
 10
196.5126762812056
 20
157.2417301197614
 30
0.0
 11
272.5126762812056
 21
157.2417301197614
 31
0.0
  0
LINE
  5
4EF
330
1F
100
AcDbEntity
  8
0
100
AcDbLine
 10
230.6226482812056
 20
157.2417301197614
 30
0.0
 11
230.6226482812056
 21
149.4665581197614
 31
0.0
  0
LINE
  5
4F0
330
1F
100
AcDbEntity
  8
0
100
AcDbLine
 10
223.1406162812056
 20
157.2417301197614
 30
0.0
 11
223.1406162812056
 21
149.4665581197614
 31
0.0
  0
LINE
  5
4F1
330
1F
100
AcDbEntity
  8
0
100
AcDbLine
 10
215.6585834812056
 20
157.2417301197614
 30
0.0
 11
215.6585834812056
 21
149.4665581197614
 31
0.0
  0
LINE
  5
4F2
330
1F
100
AcDbEntity
  8
0
100
AcDbLine
 10
209.3790210812056
 20
157.2417301197614
 30
0.0
 11
209.3790210812056
 21
149.4665581197614
 31
0.0
  0
LINE
  5
4F3
330
1F
100
AcDbEntity
  8
0
100
AcDbLine
 10
204.5691434812055
 20
157.2417301197614
 30
0.0
 11
204.5691434812055
 21
149.4665581197614
 31
0.0
  0
LINE
  5
4F4
330
1F
100
AcDbEntity
  8
0
100
AcDbLine
 10
200.6945194812056
 20
157.2417301197614
 30
0.0
 11
200.6945194812056
 21
149.4665581197614
 31
0.0
  0
LINE
  5
4F5
330
1F
100
AcDbEntity
  8
0
100
AcDbLine
 10
198.5567962812055
 20
157.2417301197614
 30
0.0
 11
198.5567962812055
 21
149.4665581197614
 31
0.0
  0
LINE
  5
4F6
330
1F
100
AcDbEntity
  8
0
100
AcDbLine
 10
246.0088010812056
 20
139.3655493197614
 30
0.0
 11
246.0088010812056
 21
131.5405445197614
 31
0.0
  0
LINE
  5
4F7
330
1F
100
AcDbEntity
  8
0
100
AcDbLine
 10
244.9399394812056
 20
139.9716053197614
 30
0.0
 11
244.9399394812056
 21
131.0336621197614
 31
0.0
  0
LINE
  5
4F8
330
1F
100
AcDbEntity
  8
0
100
AcDbLine
 10
243.8710778812056
 20
140.5776605197614
 30
0.0
 11
243.8710778812056
 21
130.5267789197614
 31
0.0
  0
LINE
  5
4F9
330
1F
100
AcDbEntity
  8
0
100
AcDbLine
 10
241.7333538812056
 20
141.7897717197614
 30
0.0
 11
241.7333538812056
 21
129.5130133197614
 31
0.0
  0
LINE
  5
4FA
330
1F
100
AcDbEntity
  8
0
100
AcDbLine
 10
242.8022162812056
 20
141.1837165197614
 30
0.0
 11
242.8022162812056
 21
130.0198957197614
 31
0.0
  0
LINE
  5
4FB
330
1F
100
AcDbEntity
  8
0
100
AcDbLine
 10
237.4579074812056
 20
144.2139941197614
 30
0.0
 11
237.4579074812056
 21
127.4854813197614
 31
0.0
  0
LINE
  5
4FC
330
1F
100
AcDbEntity
  8
0
100
AcDbLine
 10
238.5267690812056
 20
143.6079389197614
 30
0.0
 11
238.5267690812056
 21
127.9923645197614
 31
0.0
  0
LINE
  5
4FD
330
1F
100
AcDbEntity
  8
0
100
AcDbLine
 10
239.5956306812056
 20
143.0018829197614
 30
0.0
 11
239.5956306812056
 21
128.4992477197614
 31
0.0
  0
LINE
  5
4FE
330
1F
100
AcDbEntity
  8
0
100
AcDbLine
 10
240.6644922812056
 20
142.3958277197614
 30
0.0
 11
240.6644922812056
 21
129.0061301197614
 31
0.0
  0
LINE
  5
4FF
330
1F
100
AcDbEntity
  8
0
100
AcDbLine
 10
256.1343578812055
 20
139.3655493197614
 30
0.0
 11
256.1343578812055
 21
131.5405445197614
 31
0.0
  0
LINE
  5
500
330
1F
100
AcDbEntity
  8
0
100
AcDbLine
 10
257.2032194812056
 20
139.9716053197614
 30
0.0
 11
257.2032194812056
 21
131.0336621197614
 31
0.0
  0
LINE
  5
501
330
1F
100
AcDbEntity
  8
0
100
AcDbLine
 10
258.2720810812055
 20
140.5776605197614
 30
0.0
 11
258.2720810812055
 21
130.5267789197614
 31
0.0
  0
LINE
  5
502
330
1F
100
AcDbEntity
  8
0
100
AcDbLine
 10
260.4098042812055
 20
141.7897717197614
 30
0.0
 11
260.4098042812055
 21
129.5130133197614
 31
0.0
  0
LINE
  5
503
330
1F
100
AcDbEntity
  8
0
100
AcDbLine
 10
259.3409426812055
 20
141.1837165197614
 30
0.0
 11
259.3409426812055
 21
130.0198957197614
 31
0.0
  0
LINE
  5
504
330
1F
100
AcDbEntity
  8
0
100
AcDbLine
 10
264.6852514812056
 20
144.2139941197614
 30
0.0
 11
264.6852514812056
 21
127.4854813197614
 31
0.0
  0
LINE
  5
505
330
1F
100
AcDbEntity
  8
0
100
AcDbLine
 10
263.6163898812056
 20
143.6079389197614
 30
0.0
 11
263.6163898812056
 21
127.9923645197614
 31
0.0
  0
LINE
  5
506
330
1F
100
AcDbEntity
  8
0
100
AcDbLine
 10
262.5475282812056
 20
143.0018829197614
 30
0.0
 11
262.5475282812056
 21
128.4992477197614
 31
0.0
  0
LINE
  5
507
330
1F
100
AcDbEntity
  8
0
100
AcDbLine
 10
261.4786658812055
 20
142.3958277197614
 30
0.0
 11
261.4786658812055
 21
129.0061301197614
 31
0.0
  0
LINE
  5
508
330
1F
100
AcDbEntity
  8
0
100
AcDbLine
 10
223.0165514812056
 20
139.3655493197614
 30
0.0
 11
223.0165514812056
 21
131.5405445197614
 31
0.0
  0
LINE
  5
509
330
1F
100
AcDbEntity
  8
0
100
AcDbLine
 10
224.0854138812056
 20
139.9716053197614
 30
0.0
 11
224.0854138812056
 21
131.0336621197614
 31
0.0
  0
LINE
  5
50A
330
1F
100
AcDbEntity
  8
0
100
AcDbLine
 10
225.1542754812056
 20
140.5776605197614
 30
0.0
 11
225.1542754812056
 21
130.5267789197614
 31
0.0
  0
LINE
  5
50B
330
1F
100
AcDbEntity
  8
0
100
AcDbLine
 10
227.2919986812055
 20
141.7897717197614
 30
0.0
 11
227.2919986812055
 21
129.5130133197614
 31
0.0
  0
LINE
  5
50C
330
1F
100
AcDbEntity
  8
0
100
AcDbLine
 10
226.2231370812056
 20
141.1837165197614
 30
0.0
 11
226.2231370812056
 21
130.0198957197614
 31
0.0
  0
LINE
  5
50D
330
1F
100
AcDbEntity
  8
0
100
AcDbLine
 10
231.5674458812055
 20
144.2139941197614
 30
0.0
 11
231.5674458812055
 21
127.4854813197614
 31
0.0
  0
LINE
  5
50E
330
1F
100
AcDbEntity
  8
0
100
AcDbLine
 10
230.4985842812055
 20
143.6079389197614
 30
0.0
 11
230.4985842812055
 21
127.9923645197614
 31
0.0
  0
LINE
  5
50F
330
1F
100
AcDbEntity
  8
0
100
AcDbLine
 10
229.4297218812055
 20
143.0018829197614
 30
0.0
 11
229.4297218812055
 21
128.4992477197614
 31
0.0
  0
LINE
  5
510
330
1F
100
AcDbEntity
  8
0
100
AcDbLine
 10
228.3608602812055
 20
142.3958277197614
 30
0.0
 11
228.3608602812055
 21
129.0061301197614
 31
0.0
  0
LINE
  5
511
330
1F
100
AcDbEntity
  8
0
100
AcDbLine
 10
212.8909954812056
 20
139.3655493197614
 30
0.0
 11
212.8909954812056
 21
131.5405445197614
 31
0.0
  0
LINE
  5
512
330
1F
100
AcDbEntity
  8
0
100
AcDbLine
 10
211.8221338812055
 20
139.9716053197614
 30
0.0
 11
211.8221338812055
 21
131.0336621197614
 31
0.0
  0
LINE
  5
513
330
1F
100
AcDbEntity
  8
0
100
AcDbLine
 10
210.7532722812055
 20
140.5776605197614
 30
0.0
 11
210.7532722812055
 21
130.5267789197614
 31
0.0
  0
LINE
  5
514
330
1F
100
AcDbEntity
  8
0
100
AcDbLine
 10
208.6155482812055
 20
141.7897717197614
 30
0.0
 11
208.6155482812055
 21
129.5130133197614
 31
0.0
  0
LINE
  5
515
330
1F
100
AcDbEntity
  8
0
100
AcDbLine
 10
209.6844098812055
 20
141.1837165197614
 30
0.0
 11
209.6844098812055
 21
130.0198957197614
 31
0.0
  0
LINE
  5
516
330
1F
100
AcDbEntity
  8
0
100
AcDbLine
 10
204.3401010812056
 20
144.2139941197614
 30
0.0
 11
204.3401010812056
 21
127.4854813197614
 31
0.0
  0
LINE
  5
517
330
1F
100
AcDbEntity
  8
0
100
AcDbLine
 10
205.4089634812056
 20
143.6079389197614
 30
0.0
 11
205.4089634812056
 21
127.9923645197614
 31
0.0
  0
LINE
  5
518
330
1F
100
AcDbEntity
  8
0
100
AcDbLine
 10
206.4778250812056
 20
143.0018829197614
 30
0.0
 11
206.4778250812056
 21
128.4992477197614
 31
0.0
  0
LINE
  5
519
330
1F
100
AcDbEntity
  8
0
100
AcDbLine
 10
207.5466866812055
 20
142.3958277197614
 30
0.0
 11
207.5466866812055
 21
129.0061301197614
 31
0.0
  0
CIRCLE
  5
51A
330
1F
100
AcDbEntity
  8
0
 62
     3
100
AcDbCircle
 10
234.7805154812057
 20
218.4865933197614
 30
0.0
 40
38.0
  0
CIRCLE
  5
51B
330
1F
100
AcDbEntity
  8
0
 62
     3
100
AcDbCircle
 10
234.7805154812057
 20
218.4865933197614
 30
0.0
 40
31.2
  0
LINE
  5
51C
330
1F
100
AcDbEntity
  8
0
100
AcDbLine
 10
256.6501594812055
 20
219.2100573197614
 30
0.0
 11
234.7805154812057
 21
219.2100573197614
 31
0.0
  0
LINE
  5
51D
330
1F
100
AcDbEntity
  8
0
100
AcDbLine
 10
256.6501594812055
 20
217.7631293197614
 30
0.0
 11
234.7805154812057
 21
217.7631293197614
 31
0.0
  0
LINE
  5
51E
330
1F
100
AcDbEntity
  8
0
100
AcDbLine
 10
256.6501594812055
 20
219.2100573197614
 30
0.0
 11
258.9722154812055
 21
218.7595093197614
 31
0.0
  0
LINE
  5
51F
330
1F
100
AcDbEntity
  8
0
100
AcDbLine
 10
256.6501594812055
 20
217.7631293197614
 30
0.0
 11
258.9722154812055
 21
218.2136773197614
 31
0.0
  0
LINE
  5
520
330
1F
100
AcDbEntity
  8
0
100
AcDbLine
 10
258.8491058812055
 20
218.4865933197614
 30
0.0
 11
262.5806082812054
 21
218.4865933197614
 31
0.0
  0
LINE
  5
521
330
1F
100
AcDbEntity
  8
0
100
AcDbLine
 10
212.9108714812055
 20
219.2100573197614
 30
0.0
 11
234.7805154812057
 21
219.2100573197614
 31
0.0
  0
LINE
  5
522
330
1F
100
AcDbEntity
  8
0
100
AcDbLine
 10
212.9108714812055
 20
217.7631293197614
 30
0.0
 11
234.7805154812057
 21
217.7631293197614
 31
0.0
  0
LINE
  5
523
330
1F
100
AcDbEntity
  8
0
100
AcDbLine
 10
212.9108714812055
 20
219.2100573197614
 30
0.0
 11
210.5888154812056
 21
218.7595093197614
 31
0.0
  0
LINE
  5
524
330
1F
100
AcDbEntity
  8
0
100
AcDbLine
 10
212.9108714812055
 20
217.7631293197614
 30
0.0
 11
210.5888154812056
 21
218.2136773197614
 31
0.0
  0
LINE
  5
525
330
1F
100
AcDbEntity
  8
0
100
AcDbLine
 10
210.7119250812056
 20
218.4865933197614
 30
0.0
 11
206.9804226812055
 21
218.4865933197614
 31
0.0
  0
LINE
  5
526
330
1F
100
AcDbEntity
  8
0
100
AcDbLine
 10
235.9805154812056
 20
239.3431493197614
 30
0.0
 11
235.9805154812056
 21
219.2100573197614
 31
0.0
  0
LINE
  5
527
330
1F
100
AcDbEntity
  8
0
100
AcDbLine
 10
238.3805154812055
 20
239.3431493197614
 30
0.0
 11
238.3805154812055
 21
219.2100573197614
 31
0.0
  0
LINE
  5
528
330
1F
100
AcDbEntity
  8
0
100
AcDbLine
 10
240.7805154812056
 20
239.3431493197614
 30
0.0
 11
240.7805154812056
 21
219.2100573197614
 31
0.0
  0
LINE
  5
529
330
1F
100
AcDbEntity
  8
0
100
AcDbLine
 10
243.1805154812055
 20
239.3431493197614
 30
0.0
 11
243.1805154812055
 21
219.2100573197614
 31
0.0
  0
LINE
  5
52A
330
1F
100
AcDbEntity
  8
0
100
AcDbLine
 10
245.5805154812056
 20
239.3431493197614
 30
0.0
 11
245.5805154812056
 21
219.2100573197614
 31
0.0
  0
LINE
  5
52B
330
1F
100
AcDbEntity
  8
0
100
AcDbLine
 10
247.9805154812056
 20
239.3431493197614
 30
0.0
 11
247.9805154812056
 21
219.2100573197614
 31
0.0
  0
LINE
  5
52C
330
1F
100
AcDbEntity
  8
0
100
AcDbLine
 10
250.3805154812055
 20
239.3431493197614
 30
0.0
 11
250.3805154812055
 21
219.2100573197614
 31
0.0
  0
LINE
  5
52D
330
1F
100
AcDbEntity
  8
0
100
AcDbLine
 10
252.7805154812056
 20
239.3431493197614
 30
0.0
 11
252.7805154812056
 21
219.2100573197614
 31
0.0
  0
LINE
  5
52E
330
1F
100
AcDbEntity
  8
0
100
AcDbLine
 10
255.1805154812055
 20
239.3431493197614
 30
0.0
 11
255.1805154812055
 21
219.2100573197614
 31
0.0
  0
LINE
  5
52F
330
1F
100
AcDbEntity
  8
0
100
AcDbLine
 10
235.9805154812056
 20
197.6300373197614
 30
0.0
 11
235.9805154812056
 21
217.7631293197614
 31
0.0
  0
LINE
  5
530
330
1F
100
AcDbEntity
  8
0
100
AcDbLine
 10
238.3805154812055
 20
197.6300373197614
 30
0.0
 11
238.3805154812055
 21
217.7631293197614
 31
0.0
  0
LINE
  5
531
330
1F
100
AcDbEntity
  8
0
100
AcDbLine
 10
240.7805154812056
 20
197.6300373197614
 30
0.0
 11
240.7805154812056
 21
217.7631293197614
 31
0.0
  0
LINE
  5
532
330
1F
100
AcDbEntity
  8
0
100
AcDbLine
 10
243.1805154812055
 20
197.6300373197614
 30
0.0
 11
243.1805154812055
 21
217.7631293197614
 31
0.0
  0
LINE
  5
533
330
1F
100
AcDbEntity
  8
0
100
AcDbLine
 10
245.5805154812056
 20
197.6300373197614
 30
0.0
 11
245.5805154812056
 21
217.7631293197614
 31
0.0
  0
LINE
  5
534
330
1F
100
AcDbEntity
  8
0
100
AcDbLine
 10
247.9805154812056
 20
197.6300373197614
 30
0.0
 11
247.9805154812056
 21
217.7631293197614
 31
0.0
  0
LINE
  5
535
330
1F
100
AcDbEntity
  8
0
100
AcDbLine
 10
250.3805154812055
 20
197.6300373197614
 30
0.0
 11
250.3805154812055
 21
217.7631293197614
 31
0.0
  0
LINE
  5
536
330
1F
100
AcDbEntity
  8
0
100
AcDbLine
 10
252.7805154812056
 20
197.6300373197614
 30
0.0
 11
252.7805154812056
 21
217.7631293197614
 31
0.0
  0
LINE
  5
537
330
1F
100
AcDbEntity
  8
0
100
AcDbLine
 10
255.1805154812055
 20
197.6300373197614
 30
0.0
 11
255.1805154812055
 21
217.7631293197614
 31
0.0
  0
LINE
  5
538
330
1F
100
AcDbEntity
  8
0
100
AcDbLine
 10
233.5805154812056
 20
197.6300373197614
 30
0.0
 11
233.5805154812056
 21
217.7631293197614
 31
0.0
  0
LINE
  5
539
330
1F
100
AcDbEntity
  8
0
100
AcDbLine
 10
231.1805154812055
 20
197.6300373197614
 30
0.0
 11
231.1805154812055
 21
217.7631293197614
 31
0.0
  0
LINE
  5
53A
330
1F
100
AcDbEntity
  8
0
100
AcDbLine
 10
228.7805154812057
 20
197.6300373197614
 30
0.0
 11
228.7805154812057
 21
217.7631293197614
 31
0.0
  0
LINE
  5
53B
330
1F
100
AcDbEntity
  8
0
100
AcDbLine
 10
226.3805154812056
 20
197.6300373197614
 30
0.0
 11
226.3805154812056
 21
217.7631293197614
 31
0.0
  0
LINE
  5
53C
330
1F
100
AcDbEntity
  8
0
100
AcDbLine
 10
223.9805154812056
 20
197.6300373197614
 30
0.0
 11
223.9805154812056
 21
217.7631293197614
 31
0.0
  0
LINE
  5
53D
330
1F
100
AcDbEntity
  8
0
100
AcDbLine
 10
221.5805154812056
 20
197.6300373197614
 30
0.0
 11
221.5805154812056
 21
217.7631293197614
 31
0.0
  0
LINE
  5
53E
330
1F
100
AcDbEntity
  8
0
100
AcDbLine
 10
219.1805154812055
 20
197.6300373197614
 30
0.0
 11
219.1805154812055
 21
217.7631293197614
 31
0.0
  0
LINE
  5
53F
330
1F
100
AcDbEntity
  8
0
100
AcDbLine
 10
216.7805154812056
 20
197.6300373197614
 30
0.0
 11
216.7805154812056
 21
217.7631293197614
 31
0.0
  0
LINE
  5
540
330
1F
100
AcDbEntity
  8
0
100
AcDbLine
 10
214.3805154812056
 20
197.6300373197614
 30
0.0
 11
214.3805154812056
 21
217.7631293197614
 31
0.0
  0
LINE
  5
541
330
1F
100
AcDbEntity
  8
0
100
AcDbLine
 10
233.5805154812056
 20
239.3431493197614
 30
0.0
 11
233.5805154812056
 21
219.2100573197614
 31
0.0
  0
LINE
  5
542
330
1F
100
AcDbEntity
  8
0
100
AcDbLine
 10
231.1805154812055
 20
239.3431493197614
 30
0.0
 11
231.1805154812055
 21
219.2100573197614
 31
0.0
  0
LINE
  5
543
330
1F
100
AcDbEntity
  8
0
100
AcDbLine
 10
228.7805154812057
 20
239.3431493197614
 30
0.0
 11
228.7805154812057
 21
219.2100573197614
 31
0.0
  0
LINE
  5
544
330
1F
100
AcDbEntity
  8
0
100
AcDbLine
 10
226.3805154812056
 20
239.3431493197614
 30
0.0
 11
226.3805154812056
 21
219.2100573197614
 31
0.0
  0
LINE
  5
545
330
1F
100
AcDbEntity
  8
0
100
AcDbLine
 10
223.9805154812056
 20
237.3455717197614
 30
0.0
 11
223.9805154812056
 21
219.2100573197614
 31
0.0
  0
LINE
  5
546
330
1F
100
AcDbEntity
  8
0
100
AcDbLine
 10
221.5805154812056
 20
235.3479949197614
 30
0.0
 11
221.5805154812056
 21
219.2100573197614
 31
0.0
  0
LINE
  5
547
330
1F
100
AcDbEntity
  8
0
100
AcDbLine
 10
219.1805154812055
 20
233.3504173197614
 30
0.0
 11
219.1805154812055
 21
219.2100573197614
 31
0.0
  0
LINE
  5
548
330
1F
100
AcDbEntity
  8
0
100
AcDbLine
 10
216.7805154812056
 20
231.3528405197614
 30
0.0
 11
216.7805154812056
 21
219.2100573197614
 31
0.0
  0
LINE
  5
549
330
1F
100
AcDbEntity
  8
0
100
AcDbLine
 10
214.3805154812056
 20
229.3552629197614
 30
0.0
 11
214.3805154812056
 21
219.2100573197614
 31
0.0
  0
LINE
  5
54A
330
1F
100
AcDbEntity
  8
0
 62
     3
100
AcDbLine
 10
141.1755947230141
 20
177.9294354484799
 30
0.0
 11
138.1735657230141
 21
178.0122214484799
 31
0.0
  0
LINE
  5
54B
330
1F
100
AcDbEntity
  8
0
 62
     3
100
AcDbLine
 10
141.1829007230143
 20
182.3113964484799
 30
0.0
 11
138.1697047230143
 21
182.3835844484799
 31
0.0
  0
ARC
  5
54C
330
1F
100
AcDbEntity
  8
0
 62
     3
100
AcDbCircle
 10
109.7555807230142
 20
180.1728044484799
 30
0.0
 40
31.5
100
AcDbArc
 50
3.892908999999267
 51
355.916049
  0
CIRCLE
  5
54D
330
1F
100
AcDbEntity
  8
0
 62
     3
100
AcDbCircle
 10
109.7555807230142
 20
180.1728044484799
 30
0.0
 40
15.0
  0
CIRCLE
  5
54E
330
1F
100
AcDbEntity
  8
0
 62
     3
100
AcDbCircle
 10
109.7555807230142
 20
180.1728044484799
 30
0.0
 40
16.2
  0
CIRCLE
  5
54F
330
1F
100
AcDbEntity
  8
0
 62
     3
100
AcDbCircle
 10
109.7555807230142
 20
180.1728044484799
 30
0.0
 40
23.413358
  0
CIRCLE
  5
550
330
1F
100
AcDbEntity
  8
0
100
AcDbCircle
 10
109.7555807230142
 20
180.1728044484799
 30
0.0
 40
22.8
  0
LINE
  5
551
330
1F
100
AcDbEntity
  8
0
 62
     3
100
AcDbLine
 10
139.8357277230143
 20
183.8162574484799
 30
0.0
 11
132.8836067230143
 21
183.8169464484799
 31
0.0
  0
LINE
  5
552
330
1F
100
AcDbEntity
  8
0
 62
     3
100
AcDbLine
 10
86.62827772301429
 20
183.8215284484799
 30
0.0
 11
79.67615572301432
 21
183.8222164484799
 31
0.0
  0
LINE
  5
553
330
1F
100
AcDbEntity
  8
0
 62
     3
100
AcDbLine
 10
139.8357737230142
 20
176.5297334484799
 30
0.0
 11
132.8836527230142
 21
176.5289564484799
 31
0.0
  0
LINE
  5
554
330
1F
100
AcDbEntity
  8
0
 62
     3
100
AcDbLine
 10
86.62832372301428
 20
176.5237874484799
 30
0.0
 11
79.67620272301431
 21
176.5230104484799
 31
0.0
  0
ARC
  5
555
330
1F
100
AcDbEntity
  8
0
 62
     3
100
AcDbCircle
 10
109.7555807230142
 20
180.1728044484799
 30
0.0
 40
30.3
100
AcDbArc
 50
186.9183780000002
 51
353.0944290000026
  0
ARC
  5
556
330
1F
100
AcDbEntity
  8
0
 62
     3
100
AcDbCircle
 10
109.7555807230142
 20
180.1728044484799
 30
0.0
 40
30.3
100
AcDbArc
 50
6.906299000000187
 51
173.0823499999993
  0
ARC
  5
557
330
1F
100
AcDbEntity
  8
0
 62
     3
100
AcDbCircle
 10
137.9190797230143
 20
180.1976794484799
 30
0.0
 40
2.200225
100
AcDbArc
 50
83.45931899999945
 51
276.6418939999983
  0
CIRCLE
  5
558
330
1F
100
AcDbEntity
  8
0
 62
     3
100
AcDbCircle
 10
81.25558072301421
 20
180.1726234484799
 30
0.0
 40
1.867745999999995
  0
LINE
  5
559
330
1F
100
AcDbEntity
  8
0
  6
CENTER
100
AcDbLine
 10
84.0750647230142
 20
180.1726414484799
 30
0.0
 11
77.42565472301433
 21
180.1725994484799
 31
0.0
  0
LINE
  5
55A
330
1F
100
AcDbEntity
  8
0
  6
CENTER
100
AcDbLine
 10
134.3868687230142
 20
180.1729604484799
 30
0.0
 11
142.384473723014
 21
180.1730114484799
 31
0.0
  0
LINE
  5
55B
330
1F
100
AcDbEntity
  8
0
100
AcDbLine
 10
132.7792377230143
 20
184.4268114484799
 30
0.0
 11
139.7559037230143
 21
184.4237574484799
 31
0.0
  0
LINE
  5
55C
330
1F
100
AcDbEntity
  8
0
100
AcDbLine
 10
132.7792917230141
 20
175.9190904484799
 30
0.0
 11
139.7559577230143
 21
175.9222324484799
 31
0.0
  0
LINE
  5
55D
330
1F
100
AcDbEntity
  8
0
100
AcDbLine
 10
79.7589907230142
 20
184.4500204484799
 30
0.0
 11
86.73565672301419
 21
184.4469664484799
 31
0.0
  0
LINE
  5
55E
330
1F
100
AcDbEntity
  8
0
100
AcDbLine
 10
79.75904472301434
 20
175.8952074484799
 30
0.0
 11
86.73571172301429
 21
175.8983504484799
 31
0.0
  0
CIRCLE
  5
55F
330
1F
100
AcDbEntity
  8
0
 62
     3
100
AcDbCircle
 10
109.7555807230142
 20
180.1728044484799
 30
0.0
 40
1.363469
  0
CIRCLE
  5
560
330
1F
100
AcDbEntity
  8
0
 62
     3
100
AcDbCircle
 10
127.0591417230141
 20
190.1630274484799
 30
0.0
 40
1.519262
  0
CIRCLE
  5
561
330
1F
100
AcDbEntity
  8
0
 62
     3
100
AcDbCircle
 10
92.45199472301434
 20
190.1630274484799
 30
0.0
 40
1.519262
  0
CIRCLE
  5
562
330
1F
100
AcDbEntity
  8
0
 62
     3
100
AcDbCircle
 10
109.7555677230143
 20
160.1923594484799
 30
0.0
 40
1.519262
  0
LINE
  5
563
330
1F
100
AcDbEntity
  8
0
 62
     3
100
AcDbLine
 10
130.9056937230141
 20
170.1299924484799
 30
0.0
 11
137.1266397230141
 21
167.1760694484799
 31
0.0
  0
LINE
  5
564
330
1F
100
AcDbEntity
  8
0
 62
     3
100
AcDbLine
 10
109.7555677230143
 20
203.5861634484799
 30
0.0
 11
109.7555677230143
 21
210.4728044484799
 31
0.0
  0
LINE
  5
565
330
1F
100
AcDbEntity
  8
0
 62
     3
100
AcDbLine
 10
90.48319372301424
 20
166.8776754484799
 30
0.0
 11
84.81454872301418
 21
162.9671394484799
 31
0.0
  0
LINE
  5
566
330
1F
100
AcDbEntity
  8
0
 62
     3
100
AcDbLine
 10
123.7851797230142
 20
188.2728044484799
 30
0.0
 11
125.7434227230143
 21
189.4033974484799
 31
0.0
  0
LINE
  5
567
330
1F
100
AcDbEntity
  8
0
 62
     3
100
AcDbLine
 10
128.3748607230143
 20
190.9226584484799
 30
0.0
 11
135.9961377230143
 21
195.3228044484799
 31
0.0
  0
LINE
  5
568
330
1F
100
AcDbEntity
  8
0
 62
     3
100
AcDbLine
 10
109.7555677230143
 20
163.9728044484799
 30
0.0
 11
109.7555677230143
 21
161.7116204484799
 31
0.0
  0
LINE
  5
569
330
1F
100
AcDbEntity
  8
0
 62
     3
100
AcDbLine
 10
109.7555677230143
 20
158.6730974484799
 30
0.0
 11
109.7555677230143
 21
149.8728044484799
 31
0.0
  0
LINE
  5
56A
330
1F
100
AcDbEntity
  8
0
 62
     3
100
AcDbLine
 10
95.72595672301432
 20
188.2728044484799
 30
0.0
 11
93.76771372301428
 21
189.4033974484799
 31
0.0
  0
LINE
  5
56B
330
1F
100
AcDbEntity
  8
0
 62
     3
100
AcDbLine
 10
91.13627572301416
 20
190.9226584484799
 30
0.0
 11
83.51499872301431
 21
195.3228044484799
 31
0.0
  0
TEXT
  5
56C
330
1F
100
AcDbEntity
  8
0
 62
     3
100
AcDbText
 10
96.57197372301428
 20
126.6397854484799
 30
0.0
 40
4.5
  1
下　面　図
 41
0.833333
100
AcDbText
  0
LINE
  5
56D
330
1F
100
AcDbEntity
  8
0
 62
     7
100
AcDbLine
 10
96.57197372301428
 20
125.8494477050065
 30
0.0
 11
120.7804537230143
 21
125.8494477050065
 31
0.0
  0
LINE
  5
56E
330
1F
100
AcDbEntity
  8
0
  6
CENTER
100
AcDbLine
 10
138.1735657230141
 20
178.0122214484799
 30
0.0
 11
138.1735657230141
 21
183.1854284484799
 31
0.0
  0
LINE
  5
56F
330
1F
100
AcDbEntity
  8
0
  6
CENTER
100
AcDbLine
 10
81.25558072301421
 20
178.3048774484799
 30
0.0
 11
81.25558072301421
 21
183.0358244484799
 31
0.0
  0
LINE
  5
570
330
1F
100
AcDbEntity
  8
0
100
AcDbLine
 10
305.2920405805509
 20
139.2158050945388
 30
0.0
 11
288.1045405805508
 21
139.2158050945388
 31
0.0
  0
TEXT
  5
571
330
1F
100
AcDbEntity
  8
0
 62
     4
100
AcDbText
 10
291.5420405805509
 20
140.4658050945388
 30
0.0
 40
3.2
  1
発光部
  7
高3.2
100
AcDbText
  0
TEXT
  5
572
330
1F
100
AcDbEntity
  8
0
 62
     4
100
AcDbText
 10
150.3732058767939
 20
195.1720594184869
 30
0.0
 40
3.2
  1
M5取付け穴～2
  7
高3.2
100
AcDbText
  0
TEXT
  5
573
330
1F
100
AcDbEntity
  8
0
 62
     3
100
AcDbText
 10
384.6614288192859
 20
19.76950700875235
 30
0.0
 40
3.2
  1
FREE
  7
高3.2
100
AcDbText
  0
LINE
  5
574
330
1F
100
AcDbEntity
  8
0
  6
CENTER
100
AcDbLine
 10
272.5126762812056
 20
90.87408851976141
 30
0.0
 11
272.5126762812056
 21
82.70081171976139
 31
0.0
  0
LINE
  5
575
330
1F
100
AcDbEntity
  8
0
  6
DASHED
100
AcDbLine
 10
276.4883730812055
 20
87.64173011976138
 30
0.0
 11
269.5313794812055
 21
87.64173011976138
 31
0.0
  0
LINE
  5
576
330
1F
100
AcDbEntity
  8
0
  6
DASHED
100
AcDbLine
 10
270.9126762812056
 20
121.2417301197614
 30
0.0
 11
269.5647370812054
 21
87.64173011976138
 31
0.0
  0
LINE
  5
577
330
1F
100
AcDbEntity
  8
0
  6
DASHED
100
AcDbLine
 10
198.1126762812055
 20
121.2417301197614
 30
0.0
 11
199.4606154812055
 21
87.64173011976138
 31
0.0
  0
LINE
  5
578
330
1F
100
AcDbEntity
  8
0
  6
DASHED
100
AcDbLine
 10
192.5369794812056
 20
87.64173011976138
 30
0.0
 11
199.4939730812055
 21
87.64173011976138
 31
0.0
  0
LINE
  5
579
330
1F
100
AcDbEntity
  8
0
  6
CENTER
100
AcDbLine
 10
196.5126762812056
 20
90.87408851976141
 30
0.0
 11
196.5126762812056
 21
82.70081171976139
 31
0.0
  0
CIRCLE
  5
57A
330
1F
100
AcDbEntity
  8
0
100
AcDbCircle
 10
263.6443546812055
 20
202.1275765197614
 30
0.0
 40
1.6
  0
CIRCLE
  5
57B
330
1F
100
AcDbEntity
  8
0
100
AcDbCircle
 10
234.6517874812055
 20
251.5184949197614
 30
0.0
 40
1.6
  0
CIRCLE
  5
57C
330
1F
100
AcDbEntity
  8
0
100
AcDbCircle
 10
205.5666970812056
 20
202.0833261197614
 30
0.0
 40
1.6
  0
TEXT
  5
582
330
1F
100
AcDbEntity
  8
0
 62
     4
100
AcDbText
 10
295.0173728439944
 20
245.7201081751832
 30
0.0
 40
6.299999999999998
  1
1
  7
高6.3
100
AcDbText
  0
CIRCLE
  5
583
330
1F
100
AcDbEntity
  8
0
100
AcDbCircle
 10
296.1006045444879
 20
248.5927070412763
 30
0.0
 40
5.0
  0
TEXT
  5
584
330
1F
100
AcDbEntity
  8
0
 62
     4
100
AcDbText
 10
294.2010432449141
 20
167.6222505157656
 30
0.0
 40
6.299999999999998
  1
2
  7
高6.3
100
AcDbText
  0
TEXT
  5
585
330
1F
100
AcDbEntity
  8
0
 62
     4
100
AcDbText
 10
293.9936418362659
 20
154.7195459546948
 30
0.0
 40
6.299999999999998
  1
3
  7
高6.3
100
AcDbText
  0
TEXT
  5
586
330
1F
100
AcDbEntity
  8
0
 62
     4
100
AcDbText
 10
293.9011799624763
 20
113.2927342884777
 30
0.0
 40
6.299999999999998
  1
4
  7
高6.3
100
AcDbText
  0
CIRCLE
  5
587
330
1F
100
AcDbEntity
  8
0
100
AcDbCircle
 10
296.4045563278346
 20
170.5068848601041
 30
0.0
 40
5.0
  0
CIRCLE
  5
588
330
1F
100
AcDbEntity
  8
0
100
AcDbCircle
 10
296.1006035730079
 20
157.7457774695652
 30
0.0
 40
5.0
  0
CIRCLE
  5
589
330
1F
100
AcDbEntity
  8
0
100
AcDbCircle
 10
296.1006035730079
 20
116.5760146042796
 30
0.0
 40
5.0
  0
TEXT
  5
58F
330
1F
100
AcDbEntity
  8
0
 62
     3
100
AcDbText
 10
356.6282446136215
 20
27.16868061063141
 30
0.0
 40
3.2
  1
別掲
  7
高3.2
100
AcDbText
  0
TEXT
  5
591
330
1F
100
AcDbEntity
  8
0
 62
     4
100
AcDbText
 10
144.4506344388602
 20
218.8426825720349
 30
0.0
 40
6.299999999999998
  1
5
  7
高6.3
100
AcDbText
  0
CIRCLE
  5
592
330
1F
100
AcDbEntity
  8
0
100
AcDbCircle
 10
146.3577419074787
 20
221.9152053803686
 30
0.0
 40
5.0
  0
LINE
  5
59A
330
1F
100
AcDbEntity
  8
0
  6
Continuous
 62
     3
100
AcDbLine
 10
425.1860088192857
 20
114.9885050087523
 30
0.0
 11
425.1860088192858
 21
48.98850500875235
 31
0.0
  0
LINE
  5
59B
330
1F
100
AcDbEntity
  8
0
  6
Continuous
 62
     3
100
AcDbLine
 10
352.8273638192858
 20
114.9885050087523
 30
0.0
 11
352.8273638192859
 21
48.98850500875235
 31
0.0
  0
TEXT
  5
59C
330
1F
100
AcDbEntity
  8
0
 62
     3
100
AcDbText
 10
354.8273638192859
 20
103.4885050087523
 30
0.0
 40
3.2
  1
NS-CY-N
  7
高3.2
100
AcDbText
  0
TEXT
  5
59D
330
1F
100
AcDbEntity
  8
0
 62
     3
100
AcDbText
 10
354.8273638192859
 20
97.48850500875235
 30
0.0
 40
3.2
  1
NS-CR-N
  7
高3.2
100
AcDbText
  0
TEXT
  5
59E
330
1F
100
AcDbEntity
  8
0
 62
     3
100
AcDbText
 10
354.8273638192859
 20
91.48850500875235
 30
0.0
 40
3.2
  1
NS-CB-N
  7
高3.2
100
AcDbText
  0
TEXT
  5
59F
330
1F
100
AcDbEntity
  8
0
 62
     3
100
AcDbText
 10
354.8273638192859
 20
85.48850500875236
 30
0.0
 40
3.2
  1
NS-CG-N
  7
高3.2
100
AcDbText
  0
TEXT
  5
5A0
330
1F
100
AcDbEntity
  8
0
 62
     3
100
AcDbText
 10
354.8273638192859
 20
79.48850500875235
 30
0.0
 40
3.2
  1
NS-CW-N
  7
高3.2
100
AcDbText
  0
TEXT
  5
5A1
330
1F
100
AcDbEntity
  8
0
 62
     3
100
AcDbText
 10
401.1860088192859
 20
103.4885050087523
 30
0.0
 40
3.2
  1
黄
  7
高3.2
100
AcDbText
  0
TEXT
  5
5A2
330
1F
100
AcDbEntity
  8
0
 62
     3
100
AcDbText
 10
401.1860088192859
 20
97.48850500875235
 30
0.0
 40
3.2
  1
赤
  7
高3.2
100
AcDbText
  0
TEXT
  5
5A3
330
1F
100
AcDbEntity
  8
0
 62
     3
100
AcDbText
 10
401.1860088192859
 20
91.48850500875235
 30
0.0
 40
3.2
  1
青
  7
高3.2
100
AcDbText
  0
TEXT
  5
5A4
330
1F
100
AcDbEntity
  8
0
 62
     3
100
AcDbText
 10
401.1860088192859
 20
85.48850500875236
 30
0.0
 40
3.2
  1
緑
  7
高3.2
100
AcDbText
  0
TEXT
  5
5A5
330
1F
100
AcDbEntity
  8
0
 62
     3
100
AcDbText
 10
401.1860088192859
 20
79.48850500875235
 30
0.0
 40
3.2
  1
白
  7
高3.2
100
AcDbText
  0
TEXT
  5
5A6
330
1F
100
AcDbEntity
  8
0
 62
     3
100
AcDbText
 10
427.1860088192858
 20
103.4885050087523
 30
0.0
 40
3.2
  1
12210
  7
高3.2
100
AcDbText
  0
TEXT
  5
5A7
330
1F
100
AcDbEntity
  8
0
 62
     3
100
AcDbText
 10
427.1860088192858
 20
97.48850500875235
 30
0.0
 40
3.2
  1
12211
  7
高3.2
100
AcDbText
  0
TEXT
  5
5A8
330
1F
100
AcDbEntity
  8
0
 62
     3
100
AcDbText
 10
427.1860088192858
 20
91.48850500875235
 30
0.0
 40
3.2
  1
12212
  7
高3.2
100
AcDbText
  0
TEXT
  5
5A9
330
1F
100
AcDbEntity
  8
0
 62
     3
100
AcDbText
 10
427.1860088192858
 20
85.48850500875236
 30
0.0
 40
3.2
  1
12213
  7
高3.2
100
AcDbText
  0
TEXT
  5
5AA
330
1F
100
AcDbEntity
  8
0
 62
     3
100
AcDbText
 10
427.1860088192858
 20
79.48850500875235
 30
0.0
 40
3.2
  1
12226
  7
高3.2
100
AcDbText
  0
TEXT
  5
5AB
330
1F
100
AcDbEntity
  8
0
 62
     3
100
AcDbText
 10
427.1860088192858
 20
109.4885050087523
 30
0.0
 40
3.2
  1
コード
  7
高3.2
100
AcDbText
  0
LINE
  5
5AC
330
1F
100
AcDbEntity
  8
0
  6
Continuous
 62
     3
100
AcDbLine
 10
399.1860088192859
 20
114.9885050087523
 30
0.0
 11
399.1860088192859
 21
48.98850500875235
 31
0.0
  0
TEXT
  5
5AD
330
1F
100
AcDbEntity
  8
0
 62
     3
100
AcDbText
 10
354.8273638192859
 20
109.4885050087523
 30
0.0
 40
3.2
  1
型　　式
  7
高3.2
100
AcDbText
  0
TEXT
  5
5AE
330
1F
100
AcDbEntity
  8
0
 62
     3
100
AcDbText
 10
401.1860088192859
 20
109.4885050087523
 30
0.0
 40
3.2
  1
色
  7
高3.2
100
AcDbText
  0
TEXT
  5
5AF
330
1F
100
AcDbEntity
  8
0
 62
     3
100
AcDbText
 10
414.1860088192859
 20
103.4885050087523
 30
0.0
 40
3.2
  1
無
  7
高3.2
100
AcDbText
  0
TEXT
  5
5B0
330
1F
100
AcDbEntity
  8
0
 62
     3
100
AcDbText
 10
414.1860088192859
 20
97.48850500875235
 30
0.0
 40
3.2
  1
無
  7
高3.2
100
AcDbText
  0
LINE
  5
5B1
330
1F
100
AcDbEntity
  8
0
  6
Continuous
 62
     3
100
AcDbLine
 10
412.1860088192859
 20
114.9885050087523
 30
0.0
 11
412.1860088192859
 21
48.98850500875235
 31
0.0
  0
TEXT
  5
5B3
330
1F
100
AcDbEntity
  8
0
 62
     3
100
AcDbText
 10
414.1860088192859
 20
91.48850500875235
 30
0.0
 40
3.2
  1
無
  7
高3.2
100
AcDbText
  0
TEXT
  5
5B4
330
1F
100
AcDbEntity
  8
0
 62
     3
100
AcDbText
 10
414.1860088192859
 20
85.48850500875236
 30
0.0
 40
3.2
  1
無
  7
高3.2
100
AcDbText
  0
TEXT
  5
5B5
330
1F
100
AcDbEntity
  8
0
 62
     3
100
AcDbText
 10
414.1860088192859
 20
79.48850500875235
 30
0.0
 40
3.2
  1
無
  7
高3.2
100
AcDbText
  0
TEXT
  5
5BA
330
1F
100
AcDbEntity
  8
0
 62
     3
100
AcDbText
 10
354.8273638192859
 20
73.48850500875236
 30
0.0
 40
3.2
  1
NS-CY-M
  7
高3.2
100
AcDbText
  0
TEXT
  5
5BB
330
1F
100
AcDbEntity
  8
0
 62
     3
100
AcDbText
 10
354.8273638192859
 20
67.48850500875235
 30
0.0
 40
3.2
  1
NS-CR-M
  7
高3.2
100
AcDbText
  0
TEXT
  5
5BC
330
1F
100
AcDbEntity
  8
0
 62
     3
100
AcDbText
 10
354.8273638192859
 20
61.48850500875235
 30
0.0
 40
3.2
  1
NS-CB-M
  7
高3.2
100
AcDbText
  0
TEXT
  5
5BD
330
1F
100
AcDbEntity
  8
0
 62
     3
100
AcDbText
 10
354.8273638192859
 20
55.48850500875236
 30
0.0
 40
3.2
  1
NS-CG-M
  7
高3.2
100
AcDbText
  0
TEXT
  5
5BE
330
1F
100
AcDbEntity
  8
0
 62
     3
100
AcDbText
 10
354.8273638192859
 20
49.48850500875235
 30
0.0
 40
3.2
  1
NS-CW-M
  7
高3.2
100
AcDbText
  0
TEXT
  5
5BF
330
1F
100
AcDbEntity
  8
0
 62
     3
100
AcDbText
 10
401.1860088192859
 20
73.48850500875236
 30
0.0
 40
3.2
  1
黄
  7
高3.2
100
AcDbText
  0
TEXT
  5
5C0
330
1F
100
AcDbEntity
  8
0
 62
     3
100
AcDbText
 10
401.1860088192859
 20
67.48850500875235
 30
0.0
 40
3.2
  1
赤
  7
高3.2
100
AcDbText
  0
TEXT
  5
5C1
330
1F
100
AcDbEntity
  8
0
 62
     3
100
AcDbText
 10
401.1860088192859
 20
61.48850500875235
 30
0.0
 40
3.2
  1
青
  7
高3.2
100
AcDbText
  0
TEXT
  5
5C2
330
1F
100
AcDbEntity
  8
0
 62
     3
100
AcDbText
 10
401.1860088192859
 20
55.48850500875236
 30
0.0
 40
3.2
  1
緑
  7
高3.2
100
AcDbText
  0
TEXT
  5
5C3
330
1F
100
AcDbEntity
  8
0
 62
     3
100
AcDbText
 10
401.1860088192859
 20
49.48850500875235
 30
0.0
 40
3.2
  1
白
  7
高3.2
100
AcDbText
  0
TEXT
  5
5C4
330
1F
100
AcDbEntity
  8
0
 62
     3
100
AcDbText
 10
427.1860088192858
 20
73.48850500875236
 30
0.0
 40
3.2
  1
12214
  7
高3.2
100
AcDbText
  0
TEXT
  5
5C5
330
1F
100
AcDbEntity
  8
0
 62
     3
100
AcDbText
 10
427.1860088192858
 20
67.48850500875235
 30
0.0
 40
3.2
  1
12215
  7
高3.2
100
AcDbText
  0
TEXT
  5
5C6
330
1F
100
AcDbEntity
  8
0
 62
     3
100
AcDbText
 10
427.1860088192858
 20
61.48850500875235
 30
0.0
 40
3.2
  1
12216
  7
高3.2
100
AcDbText
  0
TEXT
  5
5C7
330
1F
100
AcDbEntity
  8
0
 62
     3
100
AcDbText
 10
427.1860088192858
 20
55.48850500875236
 30
0.0
 40
3.2
  1
12217
  7
高3.2
100
AcDbText
  0
TEXT
  5
5C8
330
1F
100
AcDbEntity
  8
0
 62
     3
100
AcDbText
 10
427.1860088192856
 20
49.48850500875235
 30
0.0
 40
3.2
  1
12227
  7
高3.2
100
AcDbText
  0
TEXT
  5
5C9
330
1F
100
AcDbEntity
  8
0
 62
     3
100
AcDbText
 10
414.1860088192859
 20
73.48850500875236
 30
0.0
 40
3.2
  1
有
  7
高3.2
100
AcDbText
  0
TEXT
  5
5CA
330
1F
100
AcDbEntity
  8
0
 62
     3
100
AcDbText
 10
414.1860088192859
 20
67.48850500875235
 30
0.0
 40
3.2
  1
有
  7
高3.2
100
AcDbText
  0
TEXT
  5
5CB
330
1F
100
AcDbEntity
  8
0
 62
     3
100
AcDbText
 10
414.1860088192859
 20
61.48850500875235
 30
0.0
 40
3.2
  1
有
  7
高3.2
100
AcDbText
  0
TEXT
  5
5CC
330
1F
100
AcDbEntity
  8
0
 62
     3
100
AcDbText
 10
414.1860088192859
 20
55.48850500875236
 30
0.0
 40
3.2
  1
有
  7
高3.2
100
AcDbText
  0
TEXT
  5
5CD
330
1F
100
AcDbEntity
  8
0
 62
     3
100
AcDbText
 10
414.1860088192859
 20
49.48850500875235
 30
0.0
 40
3.2
  1
有
  7
高3.2
100
AcDbText
  0
LINE
  5
5F6
330
1F
100
AcDbEntity
  8
0
100
AcDbLine
 10
302.4222464227277
 20
43.55230593365521
 30
0.0
 11
302.4222464227277
 21
39.05230593365522
 31
0.0
  0
LINE
  5
5F7
330
1F
100
AcDbEntity
  8
0
100
AcDbLine
 10
302.4222464227277
 20
39.05230593365522
 30
0.0
 11
305.6200894812203
 21
39.05230593365522
 31
0.0
  0
LINE
  5
5F8
330
1F
100
AcDbEntity
  8
0
100
AcDbLine
 10
302.4222464227277
 20
43.55230593365521
 30
0.0
 11
305.6200894812203
 21
43.55230593365521
 31
0.0
  0
LINE
  5
5F9
330
1F
100
AcDbEntity
  8
0
100
AcDbLine
 10
305.6200894812203
 20
43.55230593365521
 30
0.0
 11
305.6200894812203
 21
39.05230593365522
 31
0.0
  0
TEXT
  5
5FA
330
1F
100
AcDbEntity
  8
0
 62
     3
100
AcDbText
 10
250.0644628399602
 20
39.09071698538426
 30
0.0
 40
4.5
  1
＊型式表示　NS-C  -
  7
高4.5
100
AcDbText
  0
LINE
  5
5FB
330
1F
100
AcDbEntity
  8
0
100
AcDbLine
 10
321.3127650251515
 20
38.00747531418861
 30
0.0
 11
260.5417430251515
 21
38.00747531418861
 31
0.0
  0
TEXT
  5
5FC
330
1F
100
AcDbEntity
  8
0
 62
     3
100
AcDbText
 10
314.0030999901691
 20
30.46215231418861
 30
0.0
 40
3.2
  1
取付タイプ
  7
高3.2
100
AcDbText
  0
TEXT
  5
5FD
330
1F
100
AcDbEntity
  8
0
 62
     3
100
AcDbText
 10
307.3367342214916
 20
24.99200031418869
 30
0.0
 40
3.2
  1
色記号
  7
高3.2
100
AcDbText
  0
TEXT
  5
5FE
330
1F
100
AcDbEntity
  8
0
 62
     3
100
AcDbText
 10
300.6919820681499
 20
19.27890208729175
 30
0.0
 40
3.2
  1
キャパシタ式
  7
高3.2
100
AcDbText
  0
LINE
  5
5FF
330
1F
100
AcDbEntity
  8
0
 62
     3
100
AcDbLine
 10
304.3166192214916
 20
36.82006131418862
 30
0.0
 11
304.3166192214916
 21
26.82843931418863
 31
0.0
  0
LINE
  5
600
330
1F
100
AcDbEntity
  8
0
 62
     3
100
AcDbLine
 10
311.3615869901691
 20
36.57636331418864
 30
0.0
 11
311.3615869901691
 21
32.06794831418861
 31
0.0
  0
LINE
  5
601
330
1F
100
AcDbEntity
  8
0
 62
     3
100
AcDbLine
 10
297.6544600681499
 20
36.94191031418862
 30
0.0
 11
297.6544600681499
 21
21.58533008729179
 31
0.0
  0
LINE
  5
602
330
1F
100
AcDbEntity
  8
0
 62
     3
100
AcDbLine
 10
311.3615869901691
 20
32.06794831418861
 30
0.0
 11
313.5167089901691
 21
32.06794831418861
 31
0.0
  0
LINE
  5
603
330
1F
100
AcDbEntity
  8
0
 62
     3
100
AcDbLine
 10
304.3166192214916
 20
26.82843931418863
 30
0.0
 11
306.5560542214917
 21
26.82843931418863
 31
0.0
  0
LINE
  5
604
330
1F
100
AcDbEntity
  8
0
 62
     3
100
AcDbLine
 10
297.6544600681499
 20
21.58533008729179
 30
0.0
 11
300.1263680681499
 21
21.58533008729179
 31
0.0
  0
LINE
  5
605
330
1F
100
AcDbEntity
  8
0
100
AcDbLine
 10
309.4967016310869
 20
43.55230593365521
 30
0.0
 11
309.4967016310869
 21
39.05230593365522
 31
0.0
  0
LINE
  5
606
330
1F
100
AcDbEntity
  8
0
100
AcDbLine
 10
309.4967016310869
 20
39.05230593365522
 30
0.0
 11
312.6945446895794
 21
39.05230593365522
 31
0.0
  0
LINE
  5
607
330
1F
100
AcDbEntity
  8
0
100
AcDbLine
 10
309.4967016310869
 20
43.55230593365521
 30
0.0
 11
312.6945446895794
 21
43.55230593365521
 31
0.0
  0
LINE
  5
608
330
1F
100
AcDbEntity
  8
0
100
AcDbLine
 10
312.6945446895794
 20
43.55230593365521
 30
0.0
 11
312.6945446895794
 21
39.05230593365522
 31
0.0
  0
TEXT
  5
609
330
1F
100
AcDbEntity
  8
0
 62
     3
100
AcDbText
 10
160.0813893561659
 20
9.822782008752339
 30
0.0
 40
3.2
  1
個数
 41
0.8
  7
高3.2
100
AcDbText
  0
TEXT
  5
60A
330
1F
100
AcDbEntity
  8
0
 62
     3
100
AcDbText
 10
130.0877486945633
 20
9.822782008752339
 30
0.0
 40
3.2
  1
備　　　　考
 41
0.8
  7
高3.2
100
AcDbText
  0
TEXT
  5
60B
330
1F
100
AcDbEntity
  8
0
 62
     3
100
AcDbText
 10
103.4279518033826
 20
9.822782008752339
 30
0.0
 40
3.2
  1
材　質
 41
0.8
  7
高3.2
100
AcDbText
  0
TEXT
  5
60C
330
1F
100
AcDbEntity
  8
0
 62
     3
100
AcDbText
 10
70.69695161517325
 20
9.822782008752339
 30
0.0
 40
3.2
  1
部　品　名
 41
0.8
  7
高3.2
100
AcDbText
  0
TEXT
  5
60D
330
1F
100
AcDbEntity
  8
0
 62
     3
100
AcDbText
 10
62.3853718192859
 20
9.822782008752339
 30
0.0
 40
3.2
  1
No
 41
0.8
  7
高3.2
100
AcDbText
  0
TEXT
  5
60E
330
1F
100
AcDbEntity
  8
0
 62
     3
100
AcDbText
 10
62.48598161517296
 20
14.62939448927894
 30
0.0
 40
3.2
  1
1
 41
0.8
  7
高3.2
100
AcDbText
  0
TEXT
  5
60F
330
1F
100
AcDbEntity
  8
0
 62
     3
100
AcDbText
 10
62.48598161517296
 20
19.62939448927894
 30
0.0
 40
3.2
  1
2
 41
0.8
  7
高3.2
100
AcDbText
  0
TEXT
  5
610
330
1F
100
AcDbEntity
  8
0
 62
     3
100
AcDbText
 10
62.48598161517296
 20
29.62939448927894
 30
0.0
 40
3.2
  1
4
 41
0.8
  7
高3.2
100
AcDbText
  0
TEXT
  5
611
330
1F
100
AcDbEntity
  8
0
 62
     3
100
AcDbText
 10
160.0813893561659
 20
29.62939448927894
 30
0.0
 40
3.2
  1
1
 41
0.8
  7
高3.2
100
AcDbText
  0
TEXT
  5
612
330
1F
100
AcDbEntity
  8
0
 62
     3
100
AcDbText
 10
160.0813893561659
 20
24.62939448927894
 30
0.0
 40
3.2
  1
1
 41
0.8
  7
高3.2
100
AcDbText
  0
TEXT
  5
613
330
1F
100
AcDbEntity
  8
0
 62
     3
100
AcDbText
 10
160.0813893561659
 20
19.62939448927894
 30
0.0
 40
3.2
  1
1
 41
0.8
  7
高3.2
100
AcDbText
  0
TEXT
  5
614
330
1F
100
AcDbEntity
  8
0
 62
     3
100
AcDbText
 10
160.0813893561659
 20
14.62939448927894
 30
0.0
 40
3.2
  1
1
 41
0.8
  7
高3.2
100
AcDbText
  0
TEXT
  5
615
330
1F
100
AcDbEntity
  8
0
 62
     3
100
AcDbText
 10
70.69695161517322
 20
14.62939448927894
 30
0.0
 40
3.2
  1
ソーラーパネル
 41
0.8
  7
高3.2
100
AcDbText
  0
TEXT
  5
616
330
1F
100
AcDbEntity
  8
0
 62
     3
100
AcDbText
 10
103.4279518033826
 20
19.62939448927894
 30
0.0
 40
3.2
  1
ポリカーボネート
 41
0.8
  7
高3.2
100
AcDbText
  0
TEXT
  5
617
330
1F
100
AcDbEntity
  8
0
 62
     3
100
AcDbText
 10
70.69695161517319
 20
24.62939448927894
 30
0.0
 40
3.2
  1
パッキン
 41
0.8
  7
高3.2
100
AcDbText
  0
TEXT
  5
618
330
1F
100
AcDbEntity
  8
0
 62
     3
100
AcDbText
 10
70.69695161517316
 20
29.62939448927894
 30
0.0
 40
3.2
  1
本体ボディ
 41
0.8
  7
高3.2
100
AcDbText
  0
TEXT
  5
619
330
1F
100
AcDbEntity
  8
0
 62
     3
100
AcDbText
 10
103.4279518033826
 20
24.62939448927894
 30
0.0
 40
3.2
  1
ニトリルゴム
 41
0.8
  7
高3.2
100
AcDbText
  0
TEXT
  5
61A
330
1F
100
AcDbEntity
  8
0
 62
     3
100
AcDbText
 10
70.69695161517319
 20
19.62939448927894
 30
0.0
 40
3.2
  1
キャップ
 41
0.8
  7
高3.2
100
AcDbText
  0
TEXT
  5
61B
330
1F
100
AcDbEntity
  8
0
 62
     3
100
AcDbText
 10
62.48598161517296
 20
24.62939448927894
 30
0.0
 40
3.2
  1
3
 41
0.8
  7
高3.2
100
AcDbText
  0
LINE
  5
61C
330
1F
100
AcDbEntity
  8
0
 62
     3
100
AcDbLine
 10
166.913609886549
 20
14.12939448927894
 30
0.0
 11
60.98598161517298
 21
14.12939448927894
 31
0.0
  0
LINE
  5
61D
330
1F
100
AcDbEntity
  8
0
 62
     7
100
AcDbLine
 10
166.913609886549
 20
19.12939448927894
 30
0.0
 11
60.98598161517298
 21
19.12939448927894
 31
0.0
  0
LINE
  5
61E
330
1F
100
AcDbEntity
  8
0
 62
     7
100
AcDbLine
 10
166.913609886549
 20
24.12939448927895
 30
0.0
 11
60.98598161517298
 21
24.12939448927895
 31
0.0
  0
LINE
  5
61F
330
1F
100
AcDbEntity
  8
0
 62
     7
100
AcDbLine
 10
166.913609886549
 20
29.12939448927894
 30
0.0
 11
60.98598161517298
 21
29.12939448927894
 31
0.0
  0
LINE
  5
620
330
1F
100
AcDbEntity
  8
0
100
AcDbLine
 10
166.913609886549
 20
34.12939448927895
 30
0.0
 11
60.98598161517298
 21
34.12939448927895
 31
0.0
  0
LINE
  5
621
330
1F
100
AcDbEntity
  8
0
100
AcDbLine
 10
69.19695161517324
 20
9.322782008752339
 30
0.0
 11
69.19695161517309
 21
44.1293944892789
 31
0.0
  0
LINE
  5
622
330
1F
100
AcDbEntity
  8
0
100
AcDbLine
 10
158.5813893561659
 20
9.322782008752339
 30
0.0
 11
158.5813893561659
 21
44.1293944892789
 31
0.0
  0
LINE
  5
623
330
1F
100
AcDbEntity
  8
0
100
AcDbLine
 10
128.5877486945633
 20
9.322782008752339
 30
0.0
 11
128.5877486945633
 21
44.1293944892789
 31
0.0
  0
LINE
  5
624
330
1F
100
AcDbEntity
  8
0
100
AcDbLine
 10
101.9279518033826
 20
44.1293944892789
 30
0.0
 11
101.9279518033826
 21
9.322782008752339
 31
0.0
  0
LINE
  5
625
330
1F
100
AcDbEntity
  8
0
 62
     3
100
AcDbLine
 10
166.913609886549
 20
9.322782008752339
 30
0.0
 11
166.913609886549
 21
44.1293944892789
 31
0.0
  0
TEXT
  5
626
330
1F
100
AcDbEntity
  8
0
 62
     3
100
AcDbText
 10
103.4279518033826
 20
29.62939448927894
 30
0.0
 40
3.2
  1
ポリカーボネート
 41
0.8
  7
高3.2
100
AcDbText
  0
TEXT
  5
627
330
1F
100
AcDbEntity
  8
0
 62
     3
100
AcDbText
 10
130.0877486945633
 20
19.62939448927894
 30
0.0
 40
3.2
  1
発光色と同色
 41
0.8
  7
高3.2
100
AcDbText
  0
TEXT
  5
628
330
1F
100
AcDbEntity
  8
0
 62
     3
100
AcDbText
 10
130.0877486945633
 20
29.62939448927894
 30
0.0
 40
3.2
  1
発光色と同色
 41
0.8
  7
高3.2
100
AcDbText
  0
TEXT
  5
629
330
1F
100
AcDbEntity
  8
0
 62
     3
100
AcDbText
 10
130.0877486945633
 20
24.62939448927894
 30
0.0
 40
3.2
  1
Ｏリング
 41
0.8
  7
高3.2
100
AcDbText
  0
TEXT
  5
62A
330
1F
100
AcDbEntity
  8
0
 62
     3
100
AcDbText
 10
62.48598161517296
 20
34.62939448927894
 30
0.0
 40
3.2
  1
5
 41
0.8
  7
高3.2
100
AcDbText
  0
TEXT
  5
62B
330
1F
100
AcDbEntity
  8
0
 62
     3
100
AcDbText
 10
160.0813893561659
 20
34.62939448927894
 30
0.0
 40
3.2
  1
1
 41
0.8
  7
高3.2
100
AcDbText
  0
TEXT
  5
62C
330
1F
100
AcDbEntity
  8
0
 62
     3
100
AcDbText
 10
70.69695161517312
 20
34.62939448927894
 30
0.0
 40
3.2
  1
マグネット
 41
0.8
  7
高3.2
100
AcDbText
  0
TEXT
  5
62D
330
1F
100
AcDbEntity
  8
0
 62
     3
100
AcDbText
 10
103.4279518033826
 20
34.62939448927894
 30
0.0
 40
3.2
  1
－
 41
0.8
  7
高3.2
100
AcDbText
  0
TEXT
  5
62E
330
1F
100
AcDbEntity
  8
0
 62
     3
100
AcDbText
 10
130.0877486945633
 20
34.62939448927894
 30
0.0
 40
3.2
  1
取付タイプがMのみ
 41
0.8
  7
高3.2
100
AcDbText
  0
LINE
  5
62F
330
1F
100
AcDbEntity
  8
0
100
AcDbLine
 10
166.913609886549
 20
39.12939448927894
 30
0.0
 11
60.98598161517298
 21
39.12939448927894
 31
0.0
  0
LINE
  5
630
330
1F
100
AcDbEntity
  8
0
 62
     3
100
AcDbLine
 10
166.913609886549
 20
44.1293944892789
 30
0.0
 11
60.98598161517299
 21
44.1293944892789
 31
0.0
  0
TEXT
  5
631
330
1F
100
AcDbEntity
  8
0
 62
     3
100
AcDbText
 10
70.69695161517312
 20
39.62939448927894
 30
0.0
 40
3.2
  1
壁面取付けブラケット
 41
0.8
  7
高3.2
100
AcDbText
  0
TEXT
  5
632
330
1F
100
AcDbEntity
  8
0
 62
     3
100
AcDbText
 10
62.48598161517296
 20
39.62939448927894
 30
0.0
 40
3.2
  1
OP
 41
0.8
  7
高3.2
100
AcDbText
  0
TEXT
  5
633
330
1F
100
AcDbEntity
  8
0
 62
     3
100
AcDbText
 10
160.0813893561659
 20
39.62939448927894
 30
0.0
 40
3.2
  1
1
 41
0.8
  7
高3.2
100
AcDbText
  0
TEXT
  5
634
330
1F
100
AcDbEntity
  8
0
 62
     3
100
AcDbText
 10
358.3138238192859
 20
36.84956120378573
 30
0.0
 40
2.5
  1
NS-CO-N
  7
高2.5
100
AcDbText
  0
TEXT
  5
635
330
1F
100
AcDbEntity
  8
0
 62
     3
100
AcDbText
 10
408.0547784544719
 20
10.26735732059674
 30
0.0
 40
6.299999999999998
  1
NS-C
  7
高6.3
100
AcDbText
  0
TEXT
  5
636
330
1F
100
AcDbEntity
  8
0
 62
     3
100
AcDbText
 10
358.3138238192859
 20
33.50434512131622
 30
0.0
 40
2.5
  1
NS-CO-M
  7
高2.5
100
AcDbText
  0
TEXT
  5
7D4
330
1F
100
AcDbEntity
  8
0
 62
     3
100
AcDbText
 10
438.3853718192859
 20
273.8781430087523
 30
0.0
 40
3.2
  1
担　当
  7
高3.2
100
AcDbText
  0
TEXT
  5
7D5
330
1F
100
AcDbEntity
  8
0
 62
     3
100
AcDbText
 10
394.3853718192859
 20
273.8781430087523
 30
0.0
 40
3.2
  1
変更・追記内容
  7
高3.2
100
AcDbText
  0
TEXT
  5
7D6
330
1F
100
AcDbEntity
  8
0
 62
     3
100
AcDbText
 10
369.4988868196251
 20
269.207604498844
 30
0.0
 40
2.0
  1
1
  7
高2
100
AcDbText
  0
TEXT
  5
7D7
330
1F
100
AcDbEntity
  8
0
 62
     3
100
AcDbText
 10
369.1903753428678
 20
264.0377877865711
 30
0.0
 40
2.0
  1
2
  7
高2
100
AcDbText
  0
TEXT
  5
7D8
330
1F
100
AcDbEntity
  8
0
 62
     3
100
AcDbText
 10
376.3853718192859
 20
273.8781430087523
 30
0.0
 40
3.2
  1
日　付
  7
高3.2
100
AcDbText
  0
TEXT
  5
7D9
330
1F
100
AcDbEntity
  8
0
 62
     3
100
AcDbText
 10
376.3853718192859
 20
278.8781430087523
 30
0.0
 40
3.2
  1
図　　　　面　　　　略　　　　歴
  7
高3.2
100
AcDbText
  0
TEXT
  5
7DA
330
1F
100
AcDbEntity
  8
0
 62
     3
100
AcDbText
 10
366.3853718192858
 20
273.8781430087523
 30
0.0
 40
3.2
  1
記号
  7
高3.2
100
AcDbText
  0
LINE
  5
7DB
330
1F
100
AcDbEntity
  8
0
100
AcDbLine
 10
369.8853718192859
 20
267.1690390087524
 30
0.0
 11
367.9853718192859
 21
263.8781430087523
 31
0.0
  0
LINE
  5
7DC
330
1F
100
AcDbEntity
  8
0
100
AcDbLine
 10
369.8853718192859
 20
267.1690390087524
 30
0.0
 11
371.7853718192858
 21
263.8781430087523
 31
0.0
  0
LINE
  5
7DD
330
1F
100
AcDbEntity
  8
0
100
AcDbLine
 10
367.9853718192859
 20
263.8781430087523
 30
0.0
 11
371.7853718192858
 21
263.8781430087523
 31
0.0
  0
LINE
  5
7DE
330
1F
100
AcDbEntity
  8
0
100
AcDbLine
 10
369.8853718192859
 20
272.1690400087524
 30
0.0
 11
367.9853718192859
 21
268.8781430087523
 31
0.0
  0
LINE
  5
7DF
330
1F
100
AcDbEntity
  8
0
100
AcDbLine
 10
369.8853718192859
 20
272.1690400087524
 30
0.0
 11
371.7853718192858
 21
268.8781430087523
 31
0.0
  0
LINE
  5
7E0
330
1F
100
AcDbEntity
  8
0
100
AcDbLine
 10
367.9853718192859
 20
268.8781430087523
 30
0.0
 11
371.7853718192858
 21
268.8781430087523
 31
0.0
  0
LINE
  5
7E1
330
1F
100
AcDbEntity
  8
0
 62
     3
100
AcDbLine
 10
364.8853718192859
 20
278.3781430087523
 30
0.0
 11
450.8853718192859
 21
278.3781430087523
 31
0.0
  0
LINE
  5
7E2
330
1F
100
AcDbEntity
  8
0
 62
     3
100
AcDbLine
 10
364.8853718192859
 20
273.3781430087523
 30
0.0
 11
450.8853718192859
 21
273.3781430087523
 31
0.0
  0
LINE
  5
7E3
330
1F
100
AcDbEntity
  8
0
 62
     7
100
AcDbLine
 10
364.8853718192859
 20
268.3781430087523
 30
0.0
 11
450.8853718192859
 21
268.3781430087523
 31
0.0
  0
LINE
  5
7E4
330
1F
100
AcDbEntity
  8
0
 62
     3
100
AcDbLine
 10
364.8853718192859
 20
263.3781430087523
 30
0.0
 11
450.8853718192859
 21
263.3781430087523
 31
0.0
  0
LINE
  5
7E5
330
1F
100
AcDbEntity
  8
0
 62
     7
100
AcDbLine
 10
436.8853718192858
 20
263.3781430087523
 30
0.0
 11
436.8853718192858
 21
278.3781430087523
 31
0.0
  0
LINE
  5
7E6
330
1F
100
AcDbEntity
  8
0
 62
     7
100
AcDbLine
 10
392.8853718192859
 20
263.3781430087523
 30
0.0
 11
392.8853718192859
 21
278.3781430087523
 31
0.0
  0
LINE
  5
7E7
330
1F
100
AcDbEntity
  8
0
 62
     7
100
AcDbLine
 10
374.8853718192858
 20
263.3781430087523
 30
0.0
 11
374.8853718192858
 21
278.3781430087523
 31
0.0
  0
LINE
  5
7E8
330
1F
100
AcDbEntity
  8
0
 62
     3
100
AcDbLine
 10
364.8853718192859
 20
263.3781430087523
 30
0.0
 11
364.8853718192859
 21
283.3781430087523
 31
0.0
  0
TEXT
  5
8E7
330
1F
100
AcDbEntity
  8
0
 62
     3
100
AcDbText
 10
414.1860088192859
 20
109.4885050087523
 30
0.0
 40
3.2
  1
マグネット
 41
0.55
  7
高3.2
100
AcDbText
  0
LINE
  5
107E
330
1F
100
AcDbEntity
  8
0
 62
     3
100
AcDbLine
 10
345.7040257855581
 20
148.2837917893231
 30
0.0
 11
436.4528252805708
 21
148.2837917893231
 31
0.0
  0
LINE
  5
107F
330
1F
100
AcDbEntity
  8
0
100
AcDbLine
 10
345.7040257855581
 20
155.2837917893231
 30
0.0
 11
436.4528252805708
 21
155.2837917893231
 31
0.0
  0
LINE
  5
1080
330
1F
100
AcDbEntity
  8
0
100
AcDbLine
 10
345.7040257855581
 20
162.2837917893231
 30
0.0
 11
436.4528252805708
 21
162.2837917893231
 31
0.0
  0
LINE
  5
1081
330
1F
100
AcDbEntity
  8
0
100
AcDbLine
 10
345.7040257855581
 20
169.2837917893231
 30
0.0
 11
436.4528252805708
 21
169.2837917893231
 31
0.0
  0
LINE
  5
1082
330
1F
100
AcDbEntity
  8
0
100
AcDbLine
 10
345.7040257855581
 20
176.2837917893231
 30
0.0
 11
436.4528252805708
 21
176.2837917893231
 31
0.0
  0
LINE
  5
1083
330
1F
100
AcDbEntity
  8
0
100
AcDbLine
 10
345.7040257855581
 20
183.2837917893231
 30
0.0
 11
436.4528252805708
 21
183.2837917893231
 31
0.0
  0
LINE
  5
1084
330
1F
100
AcDbEntity
  8
0
100
AcDbLine
 10
345.7040257855581
 20
190.2837917893231
 30
0.0
 11
436.4528252805708
 21
190.2837917893231
 31
0.0
  0
LINE
  5
1085
330
1F
100
AcDbEntity
  8
0
100
AcDbLine
 10
345.7040257855581
 20
197.2837917893231
 30
0.0
 11
436.4528252805708
 21
197.2837917893231
 31
0.0
  0
LINE
  5
1086
330
1F
100
AcDbEntity
  8
0
100
AcDbLine
 10
345.7040257855581
 20
218.2837917893231
 30
0.0
 11
436.4528252805708
 21
218.2837917893231
 31
0.0
  0
LINE
  5
1087
330
1F
100
AcDbEntity
  8
0
100
AcDbLine
 10
345.7040257855581
 20
225.2837917893231
 30
0.0
 11
436.4528252805708
 21
225.2837917893231
 31
0.0
  0
LINE
  5
1088
330
1F
100
AcDbEntity
  8
0
100
AcDbLine
 10
345.7040257855581
 20
232.2837917893231
 30
0.0
 11
436.4528252805708
 21
232.2837917893231
 31
0.0
  0
TEXT
  5
1089
330
1F
100
AcDbEntity
  8
0
 62
     3
100
AcDbText
 10
347.7040257855581
 20
184.7837917893231
 30
0.0
 40
3.2
  1
充電時間
  7
高3.2
100
AcDbText
  0
TEXT
  5
108A
330
1F
100
AcDbEntity
  8
0
 62
     3
100
AcDbText
 10
347.7040257855581
 20
163.7837917893231
 30
0.0
 40
3.2
  1
防水規格
  7
高3.2
100
AcDbText
  0
TEXT
  5
108B
330
1F
100
AcDbEntity
  8
0
 62
     3
100
AcDbText
 10
347.7040257855581
 20
149.7837917893231
 30
0.0
 40
3.2
  1
質　　量
  7
高3.2
100
AcDbText
  0
TEXT
  5
108C
330
1F
100
AcDbEntity
  8
0
 62
     3
100
AcDbText
 10
347.7040257855581
 20
170.7837917893231
 30
0.0
 40
3.2
  1
適応温度
  7
高3.2
100
AcDbText
  0
TEXT
  5
108D
330
1F
100
AcDbEntity
  8
0
 62
     3
100
AcDbText
 10
347.7040257855581
 20
156.7837917893231
 30
0.0
 40
3.2
  1
設置方向
  7
高3.2
100
AcDbText
  0
TEXT
  5
108E
330
1F
100
AcDbEntity
  8
0
 62
     3
100
AcDbText
 10
347.7040257855581
 20
198.783791789323
 30
0.0
 40
3.2
  1
点灯・消灯
  7
高3.2
100
AcDbText
  0
TEXT
  5
108F
330
1F
100
AcDbEntity
  8
0
 62
     3
100
AcDbText
 10
374.6759681023384
 20
198.783791789323
 30
0.0
 40
3.2
  1
日没時自動点灯・日照時自動消灯
  7
高3.2
100
AcDbText
  0
LINE
  5
1090
330
1F
100
AcDbEntity
  8
0
 62
     3
100
AcDbLine
 10
436.452825280571
 20
239.2837917893231
 30
0.0
 11
436.4528252805708
 21
148.2837917893231
 31
0.0
  0
LINE
  5
1091
330
1F
100
AcDbEntity
  8
0
 62
     3
100
AcDbLine
 10
345.7040257855581
 20
239.2837917893231
 30
0.0
 11
345.7040257855581
 21
148.2837917893231
 31
0.0
  0
LINE
  5
1092
330
1F
100
AcDbEntity
  8
0
100
AcDbLine
 10
372.6759681023384
 20
239.2837917893231
 30
0.0
 11
372.6759681023384
 21
148.2837917893231
 31
0.0
  0
TEXT
  5
1093
330
1F
100
AcDbEntity
  8
0
 62
     3
100
AcDbText
 10
347.7040257855581
 20
191.7837917893231
 30
0.0
 40
3.2
  1
点灯サイクル
  7
高3.2
100
AcDbText
  0
TEXT
  5
1094
330
1F
100
AcDbEntity
  8
0
 62
     3
100
AcDbText
 10
374.6759681023384
 20
233.7837917893231
 30
0.0
 40
3.2
  1
太陽電池式
  7
高3.2
100
AcDbText
  0
TEXT
  5
1095
330
1F
100
AcDbEntity
  8
0
 62
     3
100
AcDbText
 10
347.7040257855581
 20
226.7837917893231
 30
0.0
 40
3.2
  1
蓄　電　池
  7
高3.2
100
AcDbText
  0
TEXT
  5
1096
330
1F
100
AcDbEntity
  8
0
 62
     3
100
AcDbText
 10
374.6759681023384
 20
184.7837917893231
 30
0.0
 40
3.2
  1
約5～7時間（晴天時）
  7
高3.2
100
AcDbText
  0
TEXT
  5
1097
330
1F
100
AcDbEntity
  8
0
 62
     3
100
AcDbText
 10
347.7040257855581
 20
177.7837917893231
 30
0.0
 40
3.2
  1
作動時間
  7
高3.2
100
AcDbText
  0
TEXT
  5
1098
330
1F
100
AcDbEntity
  8
0
 62
     3
100
AcDbText
 10
374.6759681023384
 20
163.7837917893231
 30
0.0
 40
3.2
  1
IP55
  7
高3.2
100
AcDbText
  0
TEXT
  5
1099
330
1F
100
AcDbEntity
  8
0
 62
     3
100
AcDbText
 10
374.6759681023384
 20
149.7837917893231
 30
0.0
 40
3.2
  1
N:312g　M:372g
  7
高3.2
100
AcDbText
  0
TEXT
  5
109A
330
1F
100
AcDbEntity
  8
0
 62
     3
100
AcDbText
 10
374.6759681023384
 20
177.7837917893231
 30
0.0
 40
3.2
  1
10～13時間（回転・点滅）
  7
高3.2
100
AcDbText
  0
TEXT
  5
109B
330
1F
100
AcDbEntity
  8
0
 62
     3
100
AcDbText
 10
374.6759681023384
 20
170.7837917893231
 30
0.0
 40
3.2
  1
－10～50℃
  7
高3.2
100
AcDbText
  0
TEXT
  5
109C
330
1F
100
AcDbEntity
  8
0
 62
     3
100
AcDbText
 10
374.6759681023384
 20
191.7837917893231
 30
0.0
 40
3.2
  1
回転／点滅（切替え式）
  7
高3.2
100
AcDbText
  0
TEXT
  5
109D
330
1F
100
AcDbEntity
  8
0
 62
     3
100
AcDbText
 10
370.326626030758
 20
242.6349453292124
 30
0.0
 40
4.5
  1
主　　仕　　様
  7
高4.5
100
AcDbText
  0
TEXT
  5
109E
330
1F
100
AcDbEntity
  8
0
 62
     3
100
AcDbText
 10
374.6759681023384
 20
156.7837917893231
 30
0.0
 40
3.2
  1
上向き／横向き
  7
高3.2
100
AcDbText
  0
TEXT
  5
109F
330
1F
100
AcDbEntity
  8
0
 62
     3
100
AcDbText
 10
347.7040257855581
 20
233.7837917893231
 30
0.0
 40
3.2
  1
電　　源
  7
高3.2
100
AcDbText
  0
TEXT
  5
10A0
330
1F
100
AcDbEntity
  8
0
 62
     3
100
AcDbText
 10
374.6759681023384
 20
226.7837917893231
 30
0.0
 40
3.2
  1
キャパシタ式(120Fx3)
  7
高3.2
100
AcDbText
  0
LINE
  5
10A1
330
1F
100
AcDbEntity
  8
0
  6
Continuous
100
AcDbLine
 10
369.3388631876333
 20
241.777851407555
 30
0.0
 11
407.4441774730704
 21
241.777851407555
 31
0.0
  0
TEXT
  5
10A2
330
1F
100
AcDbEntity
  8
0
 62
     3
100
AcDbText
 10
347.7040257855581
 20
219.7837917893231
 30
0.0
 40
3.2
  1
電池　寿命
  7
高3.2
100
AcDbText
  0
TEXT
  5
10A3
330
1F
100
AcDbEntity
  8
0
 62
     3
100
AcDbText
 10
374.6759681023384
 20
219.7837917893231
 30
0.0
 40
3.2
  1
約10年　(約10万回充放電)
  7
高3.2
100
AcDbText
  0
LINE
  5
10A4
330
1F
100
AcDbEntity
  8
0
 62
     3
100
AcDbLine
 10
345.7040257855581
 20
239.2837917893231
 30
0.0
 11
436.4528252805708
 21
239.2837917893231
 31
0.0
  0
LINE
  5
10A5
330
1F
100
AcDbEntity
  8
0
100
AcDbLine
 10
345.7040257855581
 20
211.2837917893231
 30
0.0
 11
436.4528252805708
 21
211.2837917893231
 31
0.0
  0
TEXT
  5
10A6
330
1F
100
AcDbEntity
  8
0
 62
     3
100
AcDbText
 10
347.7040257855581
 20
212.7837917893231
 30
0.0
 40
3.2
  1
グローブ色
  7
高3.2
100
AcDbText
  0
TEXT
  5
10A7
330
1F
100
AcDbEntity
  8
0
 62
     3
100
AcDbText
 10
374.6759681023384
 20
212.7837917893231
 30
0.0
 40
3.2
  1
赤／黄／緑／青／白
  7
高3.2
100
AcDbText
  0
LINE
  5
10A8
330
1F
100
AcDbEntity
  8
0
100
AcDbLine
 10
345.7040257855581
 20
204.2837917893231
 30
0.0
 11
436.4528252805708
 21
204.2837917893231
 31
0.0
  0
TEXT
  5
10A9
330
1F
100
AcDbEntity
  8
0
 62
     3
100
AcDbText
 10
347.7040257855581
 20
205.7837917893231
 30
0.0
 40
3.2
  1
光　　度
  7
高3.2
100
AcDbText
  0
TEXT
  5
10AA
330
1F
100
AcDbEntity
  8
0
 62
     3
100
AcDbText
 10
374.6759681023384
 20
205.7837917893231
 30
0.0
 40
3.2
  1
赤:2.50cd　黄:2.49cd　緑:3.12cd　青:0.75cd　白:4.58cd
 41
0.5
  7
高3.2
100
AcDbText
  0
TEXT
  5
10AB
330
1F
100
AcDbEntity
  8
0
100
AcDbText
 10
345.8488601940786
 20
142.4200231299087
 30
0.0
 40
2.5
  1
注１．雨や曇りが続いても約6日間動作可能です。
 41
0.8
  7
高2.5
100
AcDbText
  0
TEXT
  5
10AC
330
1F
100
AcDbEntity
  8
0
100
AcDbText
 10
345.8488601940786
 20
139.4200231299087
 30
0.0
 40
2.5
  1
　　　ただし、天候や季節、地域などにより動作時間は大きく変わりますので、目安
 41
0.8
  7
高2.5
100
AcDbText
  0
TEXT
  5
10AD
330
1F
100
AcDbEntity
  8
0
100
AcDbText
 10
345.8488601940786
 20
133.4200231299087
 30
0.0
 40
2.5
  1
注２．電池寿命とは充電素子の充放電可能な寿命であって、LED、ソーラーパネル等
 41
0.8
  7
高2.5
100
AcDbText
  0
TEXT
  5
10AE
330
1F
100
AcDbEntity
  8
0
100
AcDbText
 10
345.8488601940786
 20
127.4200231299087
 30
0.0
 40
2.5
  1
　　　過酷な条件下ではソーラーパネル等は電池寿命以下で劣化する場合があります。
 41
0.8
  7
高2.5
100
AcDbText
  0
TEXT
  5
10AF
330
1F
100
AcDbEntity
  8
0
100
AcDbText
 10
345.8488601940786
 20
124.4200231299087
 30
0.0
 40
2.5
  1
注３．室内照明では充電が不十分なため使用出来ません。
 41
0.8
  7
高2.5
100
AcDbText
  0
TEXT
  5
10B0
330
1F
100
AcDbEntity
  8
0
100
AcDbText
 10
345.8488601940786
 20
121.4200231299087
 30
0.0
 40
2.5
  1
注４．内部の電源スイッチをOFFにしても充電動作は行います。
 41
0.8
  7
高2.5
100
AcDbText
  0
TEXT
  5
10B1
330
1F
100
AcDbEntity
  8
0
100
AcDbText
 10
345.8488601940786
 20
130.4200231299087
 30
0.0
 40
2.5
  1
　　　の製品寿命を示すものではありません。
 41
0.8
  7
高2.5
100
AcDbText
  0
TEXT
  5
10B2
330
1F
100
AcDbEntity
  8
0
100
AcDbText
 10
345.8488601940786
 20
136.4200231299087
 30
0.0
 40
2.5
  1
　　　としてください。
 41
0.8
  7
高2.5
100
AcDbText
  0
LINE
  5
112F
330
1F
100
AcDbEntity
  8
0
 62
     7
100
AcDbLine
 10
450.8853718192859
 20
54.98850500875235
 30
0.0
 11
352.8273638192859
 21
54.98850500875236
 31
0.0
  0
LINE
  5
1132
330
1F
100
AcDbEntity
  8
0
 62
     7
100
AcDbLine
 10
450.8853718192859
 20
60.98850500875236
 30
0.0
 11
352.8273638192859
 21
60.98850500875236
 31
0.0
  0
LINE
  5
1133
330
1F
100
AcDbEntity
  8
0
 62
     7
100
AcDbLine
 10
450.8853718192859
 20
66.98850500875235
 30
0.0
 11
352.8273638192859
 21
66.98850500875235
 31
0.0
  0
LINE
  5
1134
330
1F
100
AcDbEntity
  8
0
 62
     7
100
AcDbLine
 10
450.8853718192859
 20
72.98850500875236
 30
0.0
 11
352.8273638192859
 21
72.98850500875236
 31
0.0
  0
LINE
  5
1135
330
1F
100
AcDbEntity
  8
0
 62
     3
100
AcDbLine
 10
450.8853718192859
 20
78.98850500875235
 30
0.0
 11
352.8273638192859
 21
78.98850500875235
 31
0.0
  0
LINE
  5
1136
330
1F
100
AcDbEntity
  8
0
 62
     7
100
AcDbLine
 10
450.8853718192859
 20
84.98850500875235
 30
0.0
 11
352.8273638192859
 21
84.98850500875235
 31
0.0
  0
LINE
  5
1137
330
1F
100
AcDbEntity
  8
0
 62
     7
100
AcDbLine
 10
450.8853718192859
 20
90.98850500875235
 30
0.0
 11
352.8273638192859
 21
90.98850500875235
 31
0.0
  0
LINE
  5
1138
330
1F
100
AcDbEntity
  8
0
 62
     7
100
AcDbLine
 10
450.8853718192859
 20
96.98850500875236
 30
0.0
 11
352.8273638192859
 21
96.98850500875236
 31
0.0
  0
LINE
  5
1139
330
1F
100
AcDbEntity
  8
0
 62
     7
100
AcDbLine
 10
450.8853718192859
 20
102.9885050087523
 30
0.0
 11
352.8273638192859
 21
102.9885050087523
 31
0.0
  0
LINE
  5
113A
330
1F
100
AcDbEntity
  8
0
 62
     3
100
AcDbLine
 10
450.8853718192859
 20
108.9885050087523
 30
0.0
 11
352.8273638192859
 21
108.9885050087523
 31
0.0
  0
LINE
  5
113B
330
1F
100
AcDbEntity
  8
0
 62
     3
100
AcDbLine
 10
450.8853718192859
 20
114.9885050087523
 30
0.0
 11
352.8273638192858
 21
114.9885050087523
 31
0.0
  0
LINE
  5
13AC
330
1F
100
AcDbEntity
  8
0
100
AcDbLine
 10
192.5126762812056
 20
84.99173011976136
 30
0.0
 11
192.5126762812056
 21
74.91420687779886
 31
0.0
  0
LINE
  5
13AD
330
1F
100
AcDbEntity
  8
0
100
AcDbLine
 10
276.5126762812056
 20
84.99173011976136
 30
0.0
 11
276.5126762812056
 21
74.91420687779886
 31
0.0
  0
LINE
  5
13AE
330
1F
100
AcDbEntity
  8
0
100
AcDbLine
 10
195.0126762812056
 20
76.16420687779886
 30
0.0
 11
274.0126762812056
 21
76.16420687779886
 31
0.0
  0
LINE
  5
13C0
330
1F
100
AcDbEntity
  8
0
  6
Continuous
100
AcDbLine
 10
81.25558072301421
 20
179.9226236396325
 30
0.0
 11
81.25558072301421
 21
137.4950207029005
 31
0.0
  0
LINE
  5
13C1
330
1F
100
AcDbEntity
  8
0
  6
Continuous
100
AcDbLine
 10
138.1735661307375
 20
177.7622214372362
 30
0.0
 11
138.1735661307375
 21
137.4950207029005
 31
0.0
  0
LINE
  5
13C2
330
1F
100
AcDbEntity
  8
0
  6
Continuous
100
AcDbLine
 10
83.75558072301421
 20
138.7450207029005
 30
0.0
 11
135.6735661307375
 21
138.7450207029005
 31
0.0
  0
LINE
  5
13C6
330
1F
100
AcDbEntity
  8
0
  6
Continuous
100
AcDbLine
 10
196.2626762812055
 20
147.6417301197614
 30
0.0
 11
180.875558038475
 21
147.6417301197614
 31
0.0
  0
LINE
  5
13C7
330
1F
100
AcDbEntity
  8
0
  6
Continuous
100
AcDbLine
 10
197.8626762812055
 20
121.2417301197618
 30
0.0
 11
180.875558038475
 21
121.2417301197618
 31
0.0
  0
LINE
  5
13C8
330
1F
100
AcDbEntity
  8
0
  6
Continuous
100
AcDbLine
 10
182.125558038475
 20
145.1417301197614
 30
0.0
 11
182.125558038475
 21
123.7417301197618
 31
0.0
  0
LINE
  5
13CC
330
1F
100
AcDbEntity
  8
0
  6
Continuous
100
AcDbLine
 10
199.4626762812055
 20
160.4417301197614
 30
0.0
 11
171.1359733630731
 21
160.4417301197614
 31
0.0
  0
LINE
  5
13CD
330
1F
100
AcDbEntity
  8
0
  6
Continuous
100
AcDbLine
 10
192.2626762812056
 20
85.24173011976136
 30
0.0
 11
171.1359733630731
 21
85.24173011976136
 31
0.0
  0
LINE
  5
13CE
330
1F
100
AcDbEntity
  8
0
  6
Continuous
100
AcDbLine
 10
172.3859733630731
 20
157.9417301197614
 30
0.0
 11
172.3859733630731
 21
87.74173011976136
 31
0.0
  0
LINE
  5
13D2
330
1F
100
AcDbEntity
  8
0
  6
Continuous
100
AcDbLine
 10
196.5126762812056
 20
157.4917301197614
 30
0.0
 11
196.5126762812056
 21
173.5512474307035
 31
0.0
  0
LINE
  5
13D3
330
1F
100
AcDbEntity
  8
0
  6
Continuous
100
AcDbLine
 10
272.5126762812056
 20
157.4917301197614
 30
0.0
 11
272.5126762812056
 21
173.5512474307035
 31
0.0
  0
LINE
  5
13D4
330
1F
100
AcDbEntity
  8
0
  6
Continuous
100
AcDbLine
 10
199.0126762812056
 20
172.3012474307035
 30
0.0
 11
270.0126762812056
 21
172.3012474307035
 31
0.0
  0
LINE
  5
13D8
330
1F
100
AcDbEntity
  8
0
 62
     2
100
AcDbLine
 10
251.1439978192859
 20
283.9187720087523
 30
0.0
 11
251.1173868192859
 21
284.0891540087523
 31
0.0
  0
LINE
  5
13D9
330
1F
100
AcDbEntity
  8
0
 62
     2
100
AcDbLine
 10
251.1173868192859
 20
284.0891540087523
 30
0.0
 11
251.0854278192859
 21
284.2523040087524
 31
0.0
  0
LINE
  5
13DA
330
1F
100
AcDbEntity
  8
0
 62
     2
100
AcDbLine
 10
251.0854278192859
 20
284.2523040087524
 30
0.0
 11
251.0483688192859
 21
284.4069600087523
 31
0.0
  0
LINE
  5
13DB
330
1F
100
AcDbEntity
  8
0
 62
     2
100
AcDbLine
 10
251.0483688192859
 20
284.4069600087523
 30
0.0
 11
251.0064938192859
 21
284.5519260087524
 31
0.0
  0
LINE
  5
13DC
330
1F
100
AcDbEntity
  8
0
 62
     2
100
AcDbLine
 10
251.0064938192859
 20
284.5519260087524
 30
0.0
 11
250.9601288192859
 21
284.6860830087523
 31
0.0
  0
LINE
  5
13DD
330
1F
100
AcDbEntity
  8
0
 62
     2
100
AcDbLine
 10
250.9601288192859
 20
284.6860830087523
 30
0.0
 11
250.9096308192859
 21
284.8083930087523
 31
0.0
  0
LINE
  5
13DE
330
1F
100
AcDbEntity
  8
0
 62
     2
100
AcDbLine
 10
250.9096308192859
 20
284.8083930087523
 30
0.0
 11
250.8553898192859
 21
284.9179100087523
 31
0.0
  0
LINE
  5
13DF
330
1F
100
AcDbEntity
  8
0
 62
     2
100
AcDbLine
 10
250.8553898192859
 20
284.9179100087523
 30
0.0
 11
250.7978268192859
 21
285.0137890087524
 31
0.0
  0
LINE
  5
13E0
330
1F
100
AcDbEntity
  8
0
 62
     2
100
AcDbLine
 10
250.7978268192859
 20
285.0137890087524
 30
0.0
 11
250.737385819286
 21
285.0952890087524
 31
0.0
  0
LINE
  5
13E1
330
1F
100
AcDbEntity
  8
0
 62
     2
100
AcDbLine
 10
250.737385819286
 20
285.0952890087524
 30
0.0
 11
250.6745338192859
 21
285.1617780087523
 31
0.0
  0
LINE
  5
13E2
330
1F
100
AcDbEntity
  8
0
 62
     2
100
AcDbLine
 10
250.6745338192859
 20
285.1617780087523
 30
0.0
 11
250.6097568192859
 21
285.2127440087524
 31
0.0
  0
LINE
  5
13E3
330
1F
100
AcDbEntity
  8
0
 62
     2
100
AcDbLine
 10
250.6097568192859
 20
285.2127440087524
 30
0.0
 11
250.5435548192859
 21
285.2477920087523
 31
0.0
  0
LINE
  5
13E4
330
1F
100
AcDbEntity
  8
0
 62
     2
100
AcDbLine
 10
250.5435548192859
 20
285.2477920087523
 30
0.0
 11
250.476440819286
 21
285.2666520087523
 31
0.0
  0
LINE
  5
13E5
330
1F
100
AcDbEntity
  8
0
 62
     2
100
AcDbLine
 10
250.476440819286
 20
285.2666520087523
 30
0.0
 11
250.4089328192859
 21
285.2691780087523
 31
0.0
  0
LINE
  5
13E6
330
1F
100
AcDbEntity
  8
0
 62
     2
100
AcDbLine
 10
250.4089328192859
 20
285.2691780087523
 30
0.0
 11
250.3415528192859
 21
285.2553490087523
 31
0.0
  0
LINE
  5
13E7
330
1F
100
AcDbEntity
  8
0
 62
     2
100
AcDbLine
 10
250.3415528192859
 20
285.2553490087523
 30
0.0
 11
250.2748208192859
 21
285.2252740087523
 31
0.0
  0
LINE
  5
13E8
330
1F
100
AcDbEntity
  8
0
 62
     2
100
AcDbLine
 10
250.2748208192859
 20
285.2252740087523
 30
0.0
 11
250.2092538192859
 21
285.1791850087524
 31
0.0
  0
LINE
  5
13E9
330
1F
100
AcDbEntity
  8
0
 62
     2
100
AcDbLine
 10
250.2092538192859
 20
285.1791850087524
 30
0.0
 11
250.1453588192859
 21
285.1174370087523
 31
0.0
  0
LINE
  5
13EA
330
1F
100
AcDbEntity
  8
0
 62
     2
100
AcDbLine
 10
250.1453588192859
 20
285.1174370087523
 30
0.0
 11
250.0836278192859
 21
285.0405080087524
 31
0.0
  0
LINE
  5
13EB
330
1F
100
AcDbEntity
  8
0
 62
     2
100
AcDbLine
 10
250.0836278192859
 20
285.0405080087524
 30
0.0
 11
250.0245398192859
 21
284.9489930087524
 31
0.0
  0
LINE
  5
13EC
330
1F
100
AcDbEntity
  8
0
 62
     2
100
AcDbLine
 10
250.0245398192859
 20
284.9489930087524
 30
0.0
 11
249.9685508192859
 21
284.8435990087523
 31
0.0
  0
LINE
  5
13ED
330
1F
100
AcDbEntity
  8
0
 62
     2
100
AcDbLine
 10
249.9685508192859
 20
284.8435990087523
 30
0.0
 11
249.9160938192859
 21
284.7251400087523
 31
0.0
  0
LINE
  5
13EE
330
1F
100
AcDbEntity
  8
0
 62
     2
100
AcDbLine
 10
249.9160938192859
 20
284.7251400087523
 30
0.0
 11
249.8675738192859
 21
284.5945330087523
 31
0.0
  0
LINE
  5
13EF
330
1F
100
AcDbEntity
  8
0
 62
     2
100
AcDbLine
 10
249.8675738192859
 20
284.5945330087523
 30
0.0
 11
249.8233658192859
 21
284.4527870087524
 31
0.0
  0
LINE
  5
13F0
330
1F
100
AcDbEntity
  8
0
 62
     2
100
AcDbLine
 10
249.8233658192859
 20
284.4527870087524
 30
0.0
 11
249.783812819286
 21
284.3009980087524
 31
0.0
  0
LINE
  5
13F1
330
1F
100
AcDbEntity
  8
0
 62
     2
100
AcDbLine
 10
249.783812819286
 20
284.3009980087524
 30
0.0
 11
249.7492188192858
 21
284.1403380087523
 31
0.0
  0
LINE
  5
13F2
330
1F
100
AcDbEntity
  8
0
 62
     2
100
AcDbLine
 10
249.7492188192858
 20
284.1403380087523
 30
0.0
 11
249.7198518192859
 21
283.9720490087524
 31
0.0
  0
LINE
  5
13F3
330
1F
100
AcDbEntity
  8
0
 62
     2
100
AcDbLine
 10
249.7198518192859
 20
283.9720490087524
 30
0.0
 11
249.6959398192859
 21
283.7974330087524
 31
0.0
  0
LINE
  5
13F4
330
1F
100
AcDbEntity
  8
0
 62
     2
100
AcDbLine
 10
249.6959398192859
 20
283.7974330087524
 30
0.0
 11
249.6776658192858
 21
283.6178390087523
 31
0.0
  0
LINE
  5
13F5
330
1F
100
AcDbEntity
  8
0
 62
     2
100
AcDbLine
 10
249.6776658192858
 20
283.6178390087523
 30
0.0
 11
249.6651728192859
 21
283.4346550087523
 31
0.0
  0
LINE
  5
13F6
330
1F
100
AcDbEntity
  8
0
 62
     2
100
AcDbLine
 10
249.6651728192859
 20
283.4346550087523
 30
0.0
 11
249.6585568192859
 21
283.2492980087524
 31
0.0
  0
LINE
  5
13F7
330
1F
100
AcDbEntity
  8
0
 62
     2
100
AcDbLine
 10
249.6585568192859
 20
283.2492980087524
 30
0.0
 11
249.657867819286
 21
283.0631990087523
 31
0.0
  0
LINE
  5
13F8
330
1F
100
AcDbEntity
  8
0
 62
     2
100
AcDbLine
 10
249.657867819286
 20
283.0631990087523
 30
0.0
 11
249.6631128192859
 21
282.8777970087523
 31
0.0
  0
LINE
  5
13F9
330
1F
100
AcDbEntity
  8
0
 62
     2
100
AcDbLine
 10
249.6631128192859
 20
282.8777970087523
 30
0.0
 11
249.674249819286
 21
282.6945260087523
 31
0.0
  0
LINE
  5
13FA
330
1F
100
AcDbEntity
  8
0
 62
     2
100
AcDbLine
 10
249.674249819286
 20
282.6945260087523
 30
0.0
 11
249.6911938192859
 21
282.5148010087523
 31
0.0
  0
LINE
  5
13FB
330
1F
100
AcDbEntity
  8
0
 62
     2
100
AcDbLine
 10
249.6911938192859
 20
282.5148010087523
 30
0.0
 11
249.7138138192859
 21
282.3400130087524
 31
0.0
  0
LINE
  5
13FC
330
1F
100
AcDbEntity
  8
0
 62
     2
100
AcDbLine
 10
249.7138138192859
 20
282.3400130087524
 30
0.0
 11
249.7419338192858
 21
282.1715120087524
 31
0.0
  0
LINE
  5
13FD
330
1F
100
AcDbEntity
  8
0
 62
     2
100
AcDbLine
 10
249.7419338192858
 20
282.1715120087524
 30
0.0
 11
249.7753378192859
 21
282.0106010087524
 31
0.0
  0
LINE
  5
13FE
330
1F
100
AcDbEntity
  8
0
 62
     2
100
AcDbLine
 10
249.7753378192859
 20
282.0106010087524
 30
0.0
 11
249.8137668192859
 21
281.8585220087523
 31
0.0
  0
LINE
  5
13FF
330
1F
100
AcDbEntity
  8
0
 62
     2
100
AcDbLine
 10
249.8137668192859
 20
281.8585220087523
 30
0.0
 11
249.8569248192858
 21
281.7164530087524
 31
0.0
  0
LINE
  5
1400
330
1F
100
AcDbEntity
  8
0
 62
     2
100
AcDbLine
 10
249.8569248192858
 20
281.7164530087524
 30
0.0
 11
249.9044768192859
 21
281.5854900087524
 31
0.0
  0
LINE
  5
1401
330
1F
100
AcDbEntity
  8
0
 62
     2
100
AcDbLine
 10
249.9044768192859
 20
281.5854900087524
 30
0.0
 11
249.9560558192859
 21
281.4666470087524
 31
0.0
  0
LINE
  5
1402
330
1F
100
AcDbEntity
  8
0
 62
     2
100
AcDbLine
 10
249.9560558192859
 20
281.4666470087524
 30
0.0
 11
250.0112638192859
 21
281.3608420087523
 31
0.0
  0
LINE
  5
1403
330
1F
100
AcDbEntity
  8
0
 62
     2
100
AcDbLine
 10
250.0112638192859
 20
281.3608420087523
 30
0.0
 11
250.0696728192859
 21
281.2688920087524
 31
0.0
  0
LINE
  5
1404
330
1F
100
AcDbEntity
  8
0
 62
     2
100
AcDbLine
 10
250.0696728192859
 20
281.2688920087524
 30
0.0
 11
250.1308318192859
 21
281.1915080087524
 31
0.0
  0
LINE
  5
1405
330
1F
100
AcDbEntity
  8
0
 62
     2
100
AcDbLine
 10
250.1308318192859
 20
281.1915080087524
 30
0.0
 11
250.1942688192859
 21
281.1292890087524
 31
0.0
  0
LINE
  5
1406
330
1F
100
AcDbEntity
  8
0
 62
     2
100
AcDbLine
 10
250.1942688192859
 20
281.1292890087524
 30
0.0
 11
250.259492819286
 21
281.0827160087524
 31
0.0
  0
LINE
  5
1407
330
1F
100
AcDbEntity
  8
0
 62
     2
100
AcDbLine
 10
250.259492819286
 20
281.0827160087524
 30
0.0
 11
250.3259998192859
 21
281.0521480087524
 31
0.0
  0
LINE
  5
1408
330
1F
100
AcDbEntity
  8
0
 62
     2
100
AcDbLine
 10
250.3259998192859
 20
281.0521480087524
 30
0.0
 11
250.3932758192859
 21
281.0378210087523
 31
0.0
  0
LINE
  5
1409
330
1F
100
AcDbEntity
  8
0
 62
     2
100
AcDbLine
 10
250.3932758192859
 20
281.0378210087523
 30
0.0
 11
250.4608008192859
 21
281.0398470087523
 31
0.0
  0
LINE
  5
140A
330
1F
100
AcDbEntity
  8
0
 62
     2
100
AcDbLine
 10
250.4608008192859
 20
281.0398470087523
 30
0.0
 11
250.5280528192859
 21
281.0582090087523
 31
0.0
  0
LINE
  5
140B
330
1F
100
AcDbEntity
  8
0
 62
     2
100
AcDbLine
 10
250.5280528192859
 20
281.0582090087523
 30
0.0
 11
250.5945118192858
 21
281.0927670087524
 31
0.0
  0
LINE
  5
140C
330
1F
100
AcDbEntity
  8
0
 62
     2
100
AcDbLine
 10
250.5945118192858
 20
281.0927670087524
 30
0.0
 11
250.6596648192858
 21
281.1432520087524
 31
0.0
  0
LINE
  5
140D
330
1F
100
AcDbEntity
  8
0
 62
     2
100
AcDbLine
 10
250.6596648192858
 20
281.1432520087524
 30
0.0
 11
250.7230068192859
 21
281.2092750087523
 31
0.0
  0
LINE
  5
140E
330
1F
100
AcDbEntity
  8
0
 62
     2
100
AcDbLine
 10
250.7230068192859
 20
281.2092750087523
 30
0.0
 11
250.7840498192859
 21
281.2903240087522
 31
0.0
  0
LINE
  5
140F
330
1F
100
AcDbEntity
  8
0
 62
     2
100
AcDbLine
 10
250.7840498192859
 20
281.2903240087522
 30
0.0
 11
250.8423208192859
 21
281.3857750087524
 31
0.0
  0
LINE
  5
1410
330
1F
100
AcDbEntity
  8
0
 62
     2
100
AcDbLine
 10
250.8423208192859
 20
281.3857750087524
 30
0.0
 11
250.8973698192858
 21
281.4948880087523
 31
0.0
  0
LINE
  5
1411
330
1F
100
AcDbEntity
  8
0
 62
     2
100
AcDbLine
 10
250.8973698192858
 20
281.4948880087523
 30
0.0
 11
250.9487718192859
 21
281.6168210087523
 31
0.0
  0
LINE
  5
1412
330
1F
100
AcDbEntity
  8
0
 62
     2
100
AcDbLine
 10
250.9487718192859
 20
281.6168210087523
 30
0.0
 11
250.9961288192859
 21
281.7506310087523
 31
0.0
  0
LINE
  5
1413
330
1F
100
AcDbEntity
  8
0
 62
     2
100
AcDbLine
 10
250.9961288192859
 20
281.7506310087523
 30
0.0
 11
251.0390748192858
 21
281.8952840087523
 31
0.0
  0
LINE
  5
1414
330
1F
100
AcDbEntity
  8
0
 62
     2
100
AcDbLine
 10
251.0390748192858
 20
281.8952840087523
 30
0.0
 11
251.0772778192859
 21
282.0496610087523
 31
0.0
  0
LINE
  5
1415
330
1F
100
AcDbEntity
  8
0
 62
     2
100
AcDbLine
 10
251.0772778192859
 20
282.0496610087523
 30
0.0
 11
251.1104438192858
 21
282.2125700087523
 31
0.0
  0
LINE
  5
1416
330
1F
100
AcDbEntity
  8
0
 62
     2
100
AcDbLine
 10
251.1104438192858
 20
282.2125700087523
 30
0.0
 11
251.1383148192859
 21
282.3827510087524
 31
0.0
  0
TEXT
  5
1417
330
1F
100
AcDbEntity
  8
0
 62
     4
100
AcDbText
 10
229.6001977994687
 20
76.78920687779886
 30
0.0
 40
3.0
  1
\U+2205105
100
AcDbText
  0
LINE
  5
1418
330
1F
100
AcDbEntity
  8
0
  6
ByBlock
 62
     0
370
    -2
100
AcDbLine
 10
274.0126762812056
 20
76.83407937779886
 30
0.0
 11
276.5126762812056
 21
76.16420687779886
 31
0.0
  0
LINE
  5
1419
330
1F
100
AcDbEntity
  8
0
  6
ByBlock
 62
     0
370
    -2
100
AcDbLine
 10
276.5126762812056
 20
76.16420687779886
 30
0.0
 11
274.0126762812056
 21
75.49433437779886
 31
0.0
  0
LINE
  5
141A
330
1F
100
AcDbEntity
  8
0
  6
ByBlock
 62
     0
370
    -2
100
AcDbLine
 10
276.5126762812056
 20
76.16420687779886
 30
0.0
 11
274.0126762812056
 21
76.16420687779886
 31
0.0
  0
LINE
  5
141B
330
1F
100
AcDbEntity
  8
0
  6
ByBlock
 62
     0
370
    -2
100
AcDbLine
 10
195.0126762812056
 20
75.49433437779886
 30
0.0
 11
192.5126762812056
 21
76.16420687779886
 31
0.0
  0
LINE
  5
141C
330
1F
100
AcDbEntity
  8
0
  6
ByBlock
 62
     0
370
    -2
100
AcDbLine
 10
192.5126762812056
 20
76.16420687779886
 30
0.0
 11
195.0126762812056
 21
76.83407937779886
 31
0.0
  0
LINE
  5
141D
330
1F
100
AcDbEntity
  8
0
  6
ByBlock
 62
     0
370
    -2
100
AcDbLine
 10
192.5126762812056
 20
76.16420687779886
 30
0.0
 11
195.0126762812056
 21
76.16420687779886
 31
0.0
  0
LINE
  5
141E
330
1F
100
AcDbEntity
  8
0
  6
Continuous
100
AcDbLine
 10
117.4757861769344
 20
191.3884012809496
 30
0.0
 11
142.9214130496796
 21
218.2831750967589
 31
0.0
1001
ACAD
1000
DSTYLE
1002
{
1070
   147
1040
0.625
1070
    77
1070
     0
1002
}
  0
LINE
  5
141F
330
1F
100
AcDbEntity
  8
0
  6
ByBlock
 62
     0
370
    -2
100
AcDbLine
 10
117.9623856181658
 20
190.9280208403904
 30
0.0
 11
115.7576217480349
 21
189.5723861391448
 31
0.0
  0
LINE
  5
1420
330
1F
100
AcDbEntity
  8
0
  6
ByBlock
 62
     0
370
    -2
100
AcDbLine
 10
115.7576217480349
 20
189.5723861391448
 30
0.0
 11
116.9891867357029
 21
191.8487817215088
 31
0.0
  0
LINE
  5
1421
330
1F
100
AcDbEntity
  8
0
  6
ByBlock
 62
     0
370
    -2
100
AcDbLine
 10
115.7576217480349
 20
189.5723861391448
 30
0.0
 11
117.4757861769344
 21
191.3884012809496
 31
0.0
  0
LINE
  5
1422
330
1F
100
AcDbEntity
  8
0
  6
Continuous
100
AcDbLine
 10
274.5068494699382
 20
135.1359648136005
 30
0.0
 11
288.1045405805508
 21
139.2158050945388
 31
0.0
1001
ACAD
1000
DSTYLE
1002
{
1070
   147
1040
0.625
1070
    77
1070
     0
1002
}
  0
LINE
  5
1423
330
1F
100
AcDbEntity
  8
0
  6
ByBlock
 62
     0
370
    -2
100
AcDbLine
 10
274.6993589873284
 20
134.4943502470807
 30
0.0
 11
272.1123095891405
 21
134.4175089977917
 31
0.0
  0
LINE
  5
1424
330
1F
100
AcDbEntity
  8
0
  6
ByBlock
 62
     0
370
    -2
100
AcDbLine
 10
272.1123095891405
 20
134.4175089977917
 30
0.0
 11
274.3143399525481
 21
135.7775793801204
 31
0.0
  0
LINE
  5
1425
330
1F
100
AcDbEntity
  8
0
  6
ByBlock
 62
     0
370
    -2
100
AcDbLine
 10
272.1123095891405
 20
134.4175089977917
 30
0.0
 11
274.5068494699382
 21
135.1359648136005
 31
0.0
  0
LINE
  5
1426
330
1F
100
AcDbEntity
  8
0
  6
Continuous
100
AcDbLine
 10
276.6916509940146
 20
108.5748231174477
 30
0.0
 11
291.4779907643914
 21
114.670378012058
 31
0.0
1001
ACAD
1000
DSTYLE
1002
{
1070
   147
1040
0.625
1070
    77
1070
     0
1002
}
  0
LINE
  5
1427
330
1F
100
AcDbEntity
  8
0
  6
ByBlock
 62
     0
370
    -2
100
AcDbLine
 10
276.9469577036391
 20
107.9555108777197
 30
0.0
 11
274.3803445897063
 21
107.6220048213369
 31
0.0
  0
LINE
  5
1428
330
1F
100
AcDbEntity
  8
0
  6
ByBlock
 62
     0
370
    -2
100
AcDbLine
 10
274.3803445897063
 20
107.6220048213369
 30
0.0
 11
276.43634428439
 21
109.1941353571757
 31
0.0
  0
LINE
  5
1429
330
1F
100
AcDbEntity
  8
0
  6
ByBlock
 62
     0
370
    -2
100
AcDbLine
 10
274.3803445897063
 20
107.6220048213369
 30
0.0
 11
276.6916509940146
 21
108.5748231174477
 31
0.0
  0
LINE
  5
142A
330
1F
100
AcDbEntity
  8
0
  6
Continuous
100
AcDbLine
 10
274.8107174601083
 20
148.6261115194574
 30
0.0
 11
291.5045212152024
 21
155.7770146701732
 31
0.0
1001
ACAD
1000
DSTYLE
1002
{
1070
   147
1040
0.625
1070
    77
1070
     0
1002
}
  0
LINE
  5
142B
330
1F
100
AcDbEntity
  8
0
  6
ByBlock
 62
     0
370
    -2
100
AcDbLine
 10
275.0744814717754
 20
148.0103536836116
 30
0.0
 11
272.5126762812056
 21
147.6417301197614
 31
0.0
  0
LINE
  5
142C
330
1F
100
AcDbEntity
  8
0
  6
ByBlock
 62
     0
370
    -2
100
AcDbLine
 10
272.5126762812056
 20
147.6417301197614
 30
0.0
 11
274.5469534484412
 21
149.2418693553032
 31
0.0
  0
LINE
  5
142D
330
1F
100
AcDbEntity
  8
0
  6
ByBlock
 62
     0
370
    -2
100
AcDbLine
 10
272.5126762812056
 20
147.6417301197614
 30
0.0
 11
274.8107174601083
 21
148.6261115194574
 31
0.0
  0
LINE
  5
142E
330
1F
100
AcDbEntity
  8
0
  6
Continuous
100
AcDbLine
 10
273.8610646866532
 20
160.5172991182366
 30
0.0
 11
291.8332629165332
 21
168.4812302627475
 31
0.0
1001
ACAD
1000
DSTYLE
1002
{
1070
   147
1040
0.625
1070
    77
1070
     0
1002
}
  0
LINE
  5
142F
330
1F
100
AcDbEntity
  8
0
  6
ByBlock
 62
     0
370
    -2
100
AcDbLine
 10
274.1324507485067
 20
159.9048623691042
 30
0.0
 11
271.5754179810025
 21
159.5044718195583
 31
0.0
  0
LINE
  5
1430
330
1F
100
AcDbEntity
  8
0
  6
ByBlock
 62
     0
370
    -2
100
AcDbLine
 10
271.5754179810025
 20
159.5044718195583
 30
0.0
 11
273.5896786247997
 21
161.129735867369
 31
0.0
  0
LINE
  5
1431
330
1F
100
AcDbEntity
  8
0
  6
ByBlock
 62
     0
370
    -2
100
AcDbLine
 10
271.5754179810025
 20
159.5044718195583
 30
0.0
 11
273.8610646866532
 21
160.5172991182366
 31
0.0
  0
LINE
  5
1432
330
1F
100
AcDbEntity
  8
0
  6
Continuous
100
AcDbLine
 10
257.441292197629
 20
230.3437905753436
 30
0.0
 11
291.5790511116406
 21
246.458332530112
 31
0.0
1001
ACAD
1000
DSTYLE
1002
{
1070
   147
1040
0.625
1070
    77
1070
     0
1002
}
  0
LINE
  5
1433
330
1F
100
AcDbEntity
  8
0
  6
ByBlock
 62
     0
370
    -2
100
AcDbLine
 10
257.727243955575
 20
229.7380177149546
 30
0.0
 11
255.1805154812055
 21
229.2766033197614
 31
0.0
  0
LINE
  5
1434
330
1F
100
AcDbEntity
  8
0
  6
ByBlock
 62
     0
370
    -2
100
AcDbLine
 10
255.1805154812055
 20
229.2766033197614
 30
0.0
 11
257.155340439683
 21
230.9495634357326
 31
0.0
  0
LINE
  5
1435
330
1F
100
AcDbEntity
  8
0
  6
ByBlock
 62
     0
370
    -2
100
AcDbLine
 10
255.1805154812055
 20
229.2766033197614
 30
0.0
 11
257.441292197629
 21
230.3437905753436
 31
0.0
  0
LINE
  5
1436
330
1F
100
AcDbEntity
  8
0
  6
Continuous
100
AcDbLine
 10
139.8939742789533
 20
182.1667316422544
 30
0.0
 11
148.9515534920184
 21
194.1394644965444
 31
0.0
1001
ACAD
1000
DSTYLE
1002
{
1070
   147
1040
0.625
1070
    77
1070
     0
1002
}
  0
LINE
  5
1437
330
1F
100
AcDbEntity
  8
0
  6
Continuous
100
AcDbLine
 10
148.9515534920184
 20
194.1394644965444
 30
0.0
 11
180.287699415369
 21
194.1394644965444
 31
0.0
1001
ACAD
1000
DSTYLE
1002
{
1070
   147
1040
0.625
1070
    77
1070
     0
1002
}
  0
LINE
  5
1438
330
1F
100
AcDbEntity
  8
0
  6
ByBlock
 62
     0
370
    -2
100
AcDbLine
 10
140.4281964438545
 20
181.7625833467185
 30
0.0
 11
138.3856712230141
 21
180.1729859484799
 31
0.0
  0
LINE
  5
1439
330
1F
100
AcDbEntity
  8
0
  6
ByBlock
 62
     0
370
    -2
100
AcDbLine
 10
138.3856712230141
 20
180.1729859484799
 30
0.0
 11
139.3597521140521
 21
182.5708799377902
 31
0.0
  0
LINE
  5
143A
330
1F
100
AcDbEntity
  8
0
  6
ByBlock
 62
     0
370
    -2
100
AcDbLine
 10
138.3856712230141
 20
180.1729859484799
 30
0.0
 11
139.8939742789533
 21
182.1667316422544
 31
0.0
  0
TEXT
  5
143B
330
1F
100
AcDbEntity
  8
0
 62
     4
100
AcDbText
 10
98.30293198784659
 20
139.3700207029005
 30
0.0
 40
3.0
  1
取付ピッチ95
100
AcDbText
  0
LINE
  5
143C
330
1F
100
AcDbEntity
  8
0
  6
ByBlock
 62
     0
370
    -2
100
AcDbLine
 10
135.6735661307375
 20
139.4148932029005
 30
0.0
 11
138.1735661307375
 21
138.7450207029005
 31
0.0
  0
LINE
  5
143D
330
1F
100
AcDbEntity
  8
0
  6
ByBlock
 62
     0
370
    -2
100
AcDbLine
 10
138.1735661307375
 20
138.7450207029005
 30
0.0
 11
135.6735661307375
 21
138.0751482029005
 31
0.0
  0
LINE
  5
143E
330
1F
100
AcDbEntity
  8
0
  6
ByBlock
 62
     0
370
    -2
100
AcDbLine
 10
138.1735661307375
 20
138.7450207029005
 30
0.0
 11
135.6735661307375
 21
138.7450207029005
 31
0.0
  0
LINE
  5
143F
330
1F
100
AcDbEntity
  8
0
  6
ByBlock
 62
     0
370
    -2
100
AcDbLine
 10
83.75558072301421
 20
138.0751482029005
 30
0.0
 11
81.25558072301421
 21
138.7450207029005
 31
0.0
  0
LINE
  5
1440
330
1F
100
AcDbEntity
  8
0
  6
ByBlock
 62
     0
370
    -2
100
AcDbLine
 10
81.25558072301421
 20
138.7450207029005
 30
0.0
 11
83.75558072301421
 21
139.4148932029005
 31
0.0
  0
LINE
  5
1441
330
1F
100
AcDbEntity
  8
0
  6
ByBlock
 62
     0
370
    -2
100
AcDbLine
 10
81.25558072301421
 20
138.7450207029005
 30
0.0
 11
83.75558072301421
 21
138.7450207029005
 31
0.0
  0
TEXT
  5
1442
330
1F
100
AcDbEntity
  8
0
 62
     4
100
AcDbText
 10
181.500558038475
 20
131.831472163558
 30
0.0
 40
3.0
  1
33
 50
90.0
100
AcDbText
  0
LINE
  5
1443
330
1F
100
AcDbEntity
  8
0
  6
ByBlock
 62
     0
370
    -2
100
AcDbLine
 10
182.795430538475
 20
123.7417301197618
 30
0.0
 11
182.125558038475
 21
121.2417301197618
 31
0.0
  0
LINE
  5
1444
330
1F
100
AcDbEntity
  8
0
  6
ByBlock
 62
     0
370
    -2
100
AcDbLine
 10
182.125558038475
 20
121.2417301197618
 30
0.0
 11
181.455685538475
 21
123.7417301197618
 31
0.0
  0
LINE
  5
1445
330
1F
100
AcDbEntity
  8
0
  6
ByBlock
 62
     0
370
    -2
100
AcDbLine
 10
182.125558038475
 20
121.2417301197618
 30
0.0
 11
182.125558038475
 21
123.7417301197618
 31
0.0
  0
LINE
  5
1446
330
1F
100
AcDbEntity
  8
0
  6
ByBlock
 62
     0
370
    -2
100
AcDbLine
 10
181.455685538475
 20
145.1417301197614
 30
0.0
 11
182.125558038475
 21
147.6417301197614
 31
0.0
  0
LINE
  5
1447
330
1F
100
AcDbEntity
  8
0
  6
ByBlock
 62
     0
370
    -2
100
AcDbLine
 10
182.125558038475
 20
147.6417301197614
 30
0.0
 11
182.795430538475
 21
145.1417301197614
 31
0.0
  0
LINE
  5
1448
330
1F
100
AcDbEntity
  8
0
  6
ByBlock
 62
     0
370
    -2
100
AcDbLine
 10
182.125558038475
 20
147.6417301197614
 30
0.0
 11
182.125558038475
 21
145.1417301197614
 31
0.0
  0
TEXT
  5
1449
330
1F
100
AcDbEntity
  8
0
 62
     4
100
AcDbText
 10
171.760973363073
 20
119.5643142208447
 30
0.0
 40
3.0
  1
98
 50
90.0
100
AcDbText
  0
LINE
  5
144A
330
1F
100
AcDbEntity
  8
0
  6
ByBlock
 62
     0
370
    -2
100
AcDbLine
 10
173.0558458630731
 20
87.74173011976136
 30
0.0
 11
172.3859733630731
 21
85.24173011976136
 31
0.0
  0
LINE
  5
144B
330
1F
100
AcDbEntity
  8
0
  6
ByBlock
 62
     0
370
    -2
100
AcDbLine
 10
172.3859733630731
 20
85.24173011976136
 30
0.0
 11
171.7161008630731
 21
87.74173011976136
 31
0.0
  0
LINE
  5
144C
330
1F
100
AcDbEntity
  8
0
  6
ByBlock
 62
     0
370
    -2
100
AcDbLine
 10
172.3859733630731
 20
85.24173011976136
 30
0.0
 11
172.3859733630731
 21
87.74173011976136
 31
0.0
  0
LINE
  5
144D
330
1F
100
AcDbEntity
  8
0
  6
ByBlock
 62
     0
370
    -2
100
AcDbLine
 10
171.7161008630731
 20
157.9417301197614
 30
0.0
 11
172.3859733630731
 21
160.4417301197614
 31
0.0
  0
LINE
  5
144E
330
1F
100
AcDbEntity
  8
0
  6
ByBlock
 62
     0
370
    -2
100
AcDbLine
 10
172.3859733630731
 20
160.4417301197614
 30
0.0
 11
173.0558458630731
 21
157.9417301197614
 31
0.0
  0
LINE
  5
144F
330
1F
100
AcDbEntity
  8
0
  6
ByBlock
 62
     0
370
    -2
100
AcDbLine
 10
172.3859733630731
 20
160.4417301197614
 30
0.0
 11
172.3859733630731
 21
157.9417301197614
 31
0.0
  0
TEXT
  5
1450
330
1F
100
AcDbEntity
  8
0
 62
     4
100
AcDbText
 10
230.914110418192
 20
172.9262474307035
 30
0.0
 40
3.0
  1
\U+220595
100
AcDbText
  0
LINE
  5
1451
330
1F
100
AcDbEntity
  8
0
  6
ByBlock
 62
     0
370
    -2
100
AcDbLine
 10
270.0126762812056
 20
172.9711199307035
 30
0.0
 11
272.5126762812056
 21
172.3012474307035
 31
0.0
  0
LINE
  5
1452
330
1F
100
AcDbEntity
  8
0
  6
ByBlock
 62
     0
370
    -2
100
AcDbLine
 10
272.5126762812056
 20
172.3012474307035
 30
0.0
 11
270.0126762812056
 21
171.6313749307035
 31
0.0
  0
LINE
  5
1453
330
1F
100
AcDbEntity
  8
0
  6
ByBlock
 62
     0
370
    -2
100
AcDbLine
 10
272.5126762812056
 20
172.3012474307035
 30
0.0
 11
270.0126762812056
 21
172.3012474307035
 31
0.0
  0
LINE
  5
1454
330
1F
100
AcDbEntity
  8
0
  6
ByBlock
 62
     0
370
    -2
100
AcDbLine
 10
199.0126762812056
 20
171.6313749307035
 30
0.0
 11
196.5126762812056
 21
172.3012474307035
 31
0.0
  0
LINE
  5
1455
330
1F
100
AcDbEntity
  8
0
  6
ByBlock
 62
     0
370
    -2
100
AcDbLine
 10
196.5126762812056
 20
172.3012474307035
 30
0.0
 11
199.0126762812056
 21
172.9711199307035
 31
0.0
  0
LINE
  5
1456
330
1F
100
AcDbEntity
  8
0
  6
ByBlock
 62
     0
370
    -2
100
AcDbLine
 10
196.5126762812056
 20
172.3012474307035
 30
0.0
 11
199.0126762812056
 21
172.3012474307035
 31
0.0
  0
ENDSEC
  0
SECTION
  2
OBJECTS
  0
DICTIONARY
  5
C
330
0
100
AcDbDictionary
281
     1
  3
ACAD_2007HEADERVARS_RT
350
145B
  3
ACAD_COLOR
350
73
  3
ACAD_GROUP
350
D
  3
ACAD_LAYOUT
350
1A
  3
ACAD_MATERIAL
350
72
  3
ACAD_MLEADERSTYLE
350
6C2
  3
ACAD_MLINESTYLE
350
17
  3
ACAD_PLOTSETTINGS
350
19
  3
ACAD_PLOTSTYLENAME
350
E
  3
ACAD_SCALELIST
350
6B0
  3
ACAD_TABLESTYLE
350
86
  3
ACAD_VISUALSTYLE
350
99
  3
ACDB_RECOMPOSE_DATA
350
1459
  3
AcDbVariableDictionary
350
66
  3
AEC_PROPERTY_SET_DEFS
350
E6C
  3
DWGPROPS
350
145A
  0
DICTIONARY
  5
DD
330
2
100
AcDbDictionary
280
     1
281
     1
  3
ACAD_LAYERSTATES
360
DE
  0
DICTIONARY
  5
AF3
330
10
100
AcDbDictionary
280
     1
281
     1
  3
ADSK_XREC_LAYER_RECONCILED
360
AF4
  0
DICTIONARY
  5
1130
330
1F
100
AcDbDictionary
280
     1
281
     1
  3
ACAD_SORTENTS
360
1131
  0
DICTIONARY
  5
145B
102
{ACAD_REACTORS
330
C
102
}
330
C
100
AcDbDictionary
281
     1
  3
DIMARCSYM
350
145D
  3
DIMFXL
350
145C
  3
DIMJOGANG
350
145E
  0
DICTIONARY
  5
73
102
{ACAD_REACTORS
330
C
102
}
330
C
100
AcDbDictionary
281
     1
  0
DICTIONARY
  5
D
102
{ACAD_REACTORS
330
C
102
}
330
C
100
AcDbDictionary
281
     1
  0
DICTIONARY
  5
1A
102
{ACAD_REACTORS
330
C
102
}
330
C
100
AcDbDictionary
281
     1
  3
Model
350
22
  3
レイアウト1
350
59
  3
レイアウト2
350
5E
  0
DICTIONARY
  5
72
102
{ACAD_REACTORS
330
C
102
}
330
C
100
AcDbDictionary
281
     1
  3
ByBlock
350
97
  3
ByLayer
350
96
  3
Global
350
98
  0
DICTIONARY
  5
6C2
102
{ACAD_REACTORS
330
C
102
}
330
C
100
AcDbDictionary
281
     1
  3
Standard
350
6C3
  0
DICTIONARY
  5
17
102
{ACAD_REACTORS
330
C
102
}
330
C
100
AcDbDictionary
281
     1
  3
Standard
350
18
  0
DICTIONARY
  5
19
102
{ACAD_REACTORS
330
C
102
}
330
C
100
AcDbDictionary
281
     1
  0
ACDBDICTIONARYWDFLT
  5
E
102
{ACAD_REACTORS
330
C
102
}
330
C
100
AcDbDictionary
281
     1
  3
Normal
350
F
100
AcDbDictionaryWithDefault
340
F
  0
DICTIONARY
  5
6B0
102
{ACAD_REACTORS
330
C
102
}
330
C
100
AcDbDictionary
281
     1
  3
A0
350
6B1
  3
A1
350
6B2
  3
A2
350
6B3
  3
A3
350
6B4
  3
A4
350
6B5
  3
A5
350
6B6
  3
A6
350
6B7
  3
A7
350
6B8
  3
A8
350
6B9
  3
A9
350
6BA
  3
B0
350
6BB
  3
B1
350
6BC
  3
B2
350
6BD
  3
B3
350
6BE
  3
B4
350
6BF
  3
B5
350
6C0
  3
B6
350
6C1
  0
DICTIONARY
  5
86
102
{ACAD_REACTORS
330
C
102
}
330
C
100
AcDbDictionary
281
     1
  3
Standard
350
87
  3
部品表
350
1212
  0
DICTIONARY
  5
99
102
{ACAD_REACTORS
330
C
102
}
330
C
100
AcDbDictionary
281
     1
  3
2dWireframe
350
9F
  3
3D Hidden
350
A1
  3
3dWireframe
350
A0
  3
Basic
350
9E
  3
Brighten
350
A5
  3
ColorChange
350
A9
  3
Conceptual
350
A2
  3
Dim
350
A4
  3
EdgeColorOff
350
6AF
  3
Facepattern
350
A8
  3
Flat
350
9A
  3
FlatWithEdges
350
9B
  3
Gouraud
350
9C
  3
GouraudWithEdges
350
9D
  3
Hidden
350
6A7
  3
JitterOff
350
6AD
  3
Linepattern
350
A7
  3
OverhangOff
350
6AE
  3
Realistic
350
A3
  3
Shaded
350
6AC
  3
Shaded with edges
350
6AB
  3
Shades of Gray
350
6A8
  3
Sketchy
350
6A9
  3
Thicken
350
A6
  3
Wireframe
350
6A6
  3
X-Ray
350
6AA
  0
XRECORD
  5
1459
102
{ACAD_REACTORS
330
C
102
}
330
C
100
AcDbXrecord
280
     1
 90
        1
330
87
330
1212
  0
DICTIONARY
  5
66
102
{ACAD_REACTORS
330
C
102
}
330
C
100
AcDbDictionary
281
     1
  3
CANNOSCALE
350
AF6
  3
CMLEADERSTYLE
350
AF5
  3
CTABLESTYLE
350
89
  3
DIMASSOC
350
67
  3
HIDETEXT
350
6B
  3
INDEXCTL
350
68C
  3
SORTENTS
350
68B
  3
XCLIPFRAME
350
113D
  0
DICTIONARY
  5
E6C
102
{ACAD_REACTORS
330
C
102
}
330
C
100
AcDbDictionary
281
     1
  0
XRECORD
  5
145A
102
{ACAD_REACTORS
330
C
102
}
330
C
100
AcDbXrecord
280
     1
  1
DWGPROPS COOKIE
  2

  3

  4

  6

  7

  8
imamura
  9

300
=
301
=
302
=
303
=
304
=
305
=
306
=
307
=
308
=
309
=
 40
0.0345486805555556
 41
2455517.646036782
 42
2457373.395712685
  1

 90
        0
  0
DICTIONARY
  5
DE
102
{ACAD_REACTORS
330
DD
102
}
330
DD
100
AcDbDictionary
281
     1
  0
XRECORD
  5
AF4
102
{ACAD_REACTORS
330
AF3
102
}
330
AF3
100
AcDbXrecord
280
     1
290
     1
  0
SORTENTSTABLE
  5
1131
102
{ACAD_REACTORS
330
1130
102
}
330
1130
100
AcDbSortentsTable
330
1F
331
1448
  5
7D7
331
618
  5
13E0
331
538
  5
583
331
1400
  5
4BF
331
480
  5
48C
331
491
  5
4E3
331
629
  5
13F1
331
1422
  5
109A
331
7DA
  5
1405
331
542
  5
592
331
4A2
  5
4F4
331
1411
  5
4D7
331
1433
  5
E79
331
553
  5
5B0
331
4B3
  5
505
331
1444
  5
7D9
331
7E4
  5
140F
331
564
  5
5C6
331
4C4
  5
516
331
575
  5
5D8
331
5A7
  5
10AF
331
587
  5
E76
331
400
  5
433
331
432
  5
43E
331
633
  5
13FB
331
1095
  5
142F
331
505
  5
550
331
4F4
  5
53F
331
4E3
  5
52E
331
443
  5
44F
331
1138
  5
400
331
10A6
  5
1440
331
5F6
  5
13BE
331
516
  5
561
331
13DE
  5
49D
331
45E
  5
46A
331
607
  5
13CF
331
527
  5
572
331
13EF
  5
4AE
331
46F
  5
47B
331
3EF
  5
3EF
331
608
  5
13D0
331
1449
  5
628
331
528
  5
573
331
13F0
  5
4AF
331
470
  5
47C
331
619
  5
13E1
331
539
  5
584
331
1401
  5
4C0
331
481
  5
48D
331
492
  5
4E4
331
62A
  5
13F2
331
1423
  5
1097
331
7DB
  5
1406
331
543
  5
59A
331
4A3
  5
4F5
331
1412
  5
4D8
331
1434
  5
E7A
331
554
  5
5B1
331
4B4
  5
506
331
1445
  5
7DA
331
7E5
  5
1410
331
565
  5
5C7
331
4C5
  5
517
331
576
  5
5D9
331
5A8
  5
10B0
331
401
  5
434
331
422
  5
438
331
433
  5
43F
331
1139
  5
401
331
634
  5
13FC
331
1096
  5
1430
331
506
  5
551
331
4F5
  5
540
331
4E4
  5
52F
331
444
  5
450
331
10A7
  5
1441
331
5F7
  5
13BF
331
517
  5
562
331
13DF
  5
49E
331
45F
  5
46B
331
3F0
  5
3F0
331
10A8
  5
1442
331
5F8
  5
13C0
331
518
  5
563
331
13E0
  5
49F
331
460
  5
46C
331
609
  5
13D1
331
144A
  5
625
331
529
  5
574
331
13F1
  5
4B0
331
471
  5
47D
331
61A
  5
13E2
331
53A
  5
585
331
1402
  5
4C1
331
482
  5
48E
331
493
  5
4E5
331
62B
  5
13F3
331
1424
  5
1098
331
7DC
  5
1407
331
544
  5
59B
331
4A4
  5
4F6
331
1413
  5
4D9
331
1435
  5
E7B
331
555
  5
5B3
331
4B5
  5
507
331
1446
  5
7D5
331
7E6
  5
1411
331
566
  5
5C8
331
4C6
  5
518
331
8E7
  5
1417
331
577
  5
5DA
331
5A9
  5
10B1
331
5BA
  5
1139
331
402
  5
435
331
4D4
  5
51F
331
434
  5
440
331
113A
  5
402
331
635
  5
13FD
331
1097
  5
1431
331
507
  5
552
331
4F6
  5
541
331
4E5
  5
530
331
445
  5
451
331
3F1
  5
3F1
331
1098
  5
1432
331
508
  5
553
331
450
  5
45C
331
10A9
  5
1443
331
5F9
  5
13C1
331
519
  5
564
331
13E1
  5
4A0
331
461
  5
46D
331
60A
  5
13D2
331
144B
  5
626
331
52A
  5
575
331
13F2
  5
4B1
331
472
  5
47E
331
61B
  5
13E3
331
53B
  5
586
331
1403
  5
4C2
331
483
  5
48F
331
494
  5
4E6
331
62C
  5
13F4
331
1425
  5
1099
331
7DD
  5
1408
331
545
  5
59C
331
4A5
  5
4F7
331
1414
  5
4DA
331
1436
  5
8E7
331
556
  5
5B4
331
4B6
  5
508
331
1447
  5
7D6
331
7E7
  5
1412
331
5BB
  5
113A
331
5AA
  5
10B2
331
588
  5
E77
331
567
  5
5C9
331
4D5
  5
520
331
435
  5
441
331
636
  5
13FE
331
13C6
  5
633
331
4F7
  5
542
331
4E6
  5
531
331
446
  5
452
331
113B
  5
41A
331
4C7
  5
519
331
1088
  5
1422
331
4F8
  5
543
331
1099
  5
1433
331
509
  5
554
331
451
  5
45D
331
10AA
  5
1444
331
5FA
  5
13C2
331
51A
  5
565
331
13E2
  5
4A1
331
462
  5
46E
331
60B
  5
13D3
331
144C
  5
627
331
52B
  5
576
331
13F3
  5
4B2
331
473
  5
47F
331
61C
  5
13E4
331
53C
  5
587
331
1404
  5
4C3
331
484
  5
490
331
495
  5
4E7
331
62D
  5
13F5
331
1426
  5
1096
331
7DE
  5
1409
331
546
  5
5A2
331
4A6
  5
4F8
331
1415
  5
4DB
331
1437
  5
E70
331
7E8
  5
1413
331
589
  5
E78
331
568
  5
5CA
331
557
  5
5B5
331
4B7
  5
509
331
5BC
  5
13AC
331
5AB
  5
10B3
331
59A
  5
10A2
331
4D6
  5
521
331
436
  5
442
331
13C7
  5
636
331
4E7
  5
532
331
447
  5
453
331
3E2
  5
3E2
331
13C8
  5
7D4
331
5C8
  5
13B8
331
4E8
  5
533
331
448
  5
454
331
1089
  5
1423
331
4F9
  5
544
331
13D2
  5
607
331
109A
  5
1434
331
50A
  5
555
331
452
  5
45E
331
10AB
  5
1445
331
5FB
  5
13C3
331
51B
  5
566
331
13E3
  5
4A2
331
463
  5
46F
331
60C
  5
13D4
331
144D
  5
622
331
52C
  5
577
331
13F4
  5
4B3
331
474
  5
480
331
61D
  5
13E5
331
53D
  5
588
331
1405
  5
4C4
331
62E
  5
13F6
331
1427
  5
1093
331
7DF
  5
140A
331
547
  5
5A4
331
4A7
  5
4F9
331
1416
  5
4DC
331
496
  5
4E8
331
485
  5
491
331
1438
  5
7E6
331
5BD
  5
13AD
331
5AC
  5
1117
331
59B
  5
10A3
331
569
  5
5CB
331
558
  5
5BA
331
4D7
  5
522
331
437
  5
443
331
4B8
  5
50A
331
4D8
  5
523
331
438
  5
444
331
5C9
  5
13B9
331
4E9
  5
534
331
449
  5
455
331
108A
  5
1424
331
4FA
  5
545
331
13D3
  5
608
331
109B
  5
1435
331
50B
  5
556
331
453
  5
45F
331
10AC
  5
1446
331
5FC
  5
13C4
331
51C
  5
567
331
13E4
  5
4A3
331
464
  5
470
331
60D
  5
13D5
331
144E
  5
623
331
52D
  5
578
331
13F5
  5
4B4
331
475
  5
481
331
61E
  5
13E6
331
53E
  5
58E
331
1406
  5
4C5
331
1417
  5
1456
331
62F
  5
13F7
331
1428
  5
1094
331
548
  5
5A5
331
4A8
  5
4FA
331
497
  5
4E9
331
1439
  5
7E7
331
56A
  5
5CC
331
559
  5
5BB
331
4B9
  5
50B
331
486
  5
492
331
5BE
  5
13AE
331
5AD
  5
112F
331
59C
  5
10A4
331
3E4
  5
3E4
331
4C8
  5
51A
331
428
  5
439
331
4D9
  5
524
331
439
  5
445
331
5CA
  5
13BA
331
4EA
  5
535
331
44A
  5
456
331
108B
  5
1425
331
4FB
  5
546
331
13D4
  5
609
331
109C
  5
1436
331
50C
  5
557
331
454
  5
460
331
10AD
  5
1447
331
5FD
  5
13C5
331
51D
  5
568
331
13E5
  5
4A4
331
465
  5
471
331
60E
  5
13D6
331
144F
  5
624
331
52E
  5
579
331
13F6
  5
4B5
331
61F
  5
13E7
331
53F
  5
58F
331
1407
  5
4C6
331
1418
  5
1453
331
1429
  5
1095
331
549
  5
5A6
331
4A9
  5
4FB
331
498
  5
4EA
331
143A
  5
7E8
331
59D
  5
10A5
331
56B
  5
5CD
331
55A
  5
5BC
331
4BA
  5
50C
331
487
  5
493
331
476
  5
482
331
107E
  5
1418
331
5AE
  5
1132
331
5BF
  5
13AF
331
3F6
  5
3F6
331
5C0
  5
13B0
331
4C9
  5
51B
331
4DA
  5
525
331
43A
  5
446
331
5CB
  5
13BB
331
4EB
  5
536
331
44B
  5
457
331
108C
  5
1426
331
4FC
  5
547
331
109D
  5
1437
331
50D
  5
558
331
455
  5
461
331
10AE
  5
1448
331
5FE
  5
13C6
331
51E
  5
569
331
13E6
  5
4A5
331
466
  5
472
331
60F
  5
13D7
331
1450
  5
619
331
52F
  5
57A
331
13F7
  5
4B6
331
620
  5
13E8
331
1408
  5
4C7
331
1419
  5
1454
331
142A
  5
1092
331
54A
  5
5A7
331
4AA
  5
4FC
331
499
  5
4EB
331
143B
  5
7E5
331
56C
  5
5CF
331
55B
  5
5BD
331
4BB
  5
50D
331
488
  5
494
331
477
  5
483
331
59E
  5
10A6
331
107F
  5
1419
331
5AF
  5
1133
331
112F
  5
3F9
331
3F7
  5
3F7
331
3E6
  5
3E6
331
1080
  5
141A
331
5B0
  5
1134
331
5C1
  5
13B1
331
4CA
  5
51C
331
4DB
  5
526
331
43B
  5
447
331
13CC
  5
61A
331
5CC
  5
13BC
331
4EC
  5
537
331
44C
  5
458
331
108D
  5
1427
331
4FD
  5
548
331
109E
  5
1438
331
50E
  5
559
331
456
  5
462
331
10AF
  5
1449
331
5FF
  5
13C7
331
51F
  5
56A
331
13E7
  5
4A6
331
467
  5
473
331
610
  5
13D8
331
1451
  5
613
331
530
  5
57B
331
13F8
  5
4B7
331
621
  5
13E9
331
1409
  5
4C8
331
141A
  5
1455
331
142B
  5
108F
331
54B
  5
5A8
331
4AB
  5
4FD
331
49A
  5
4EC
331
143C
  5
7E2
331
56D
  5
5D0
331
55C
  5
5BE
331
4BC
  5
50E
331
489
  5
495
331
478
  5
484
331
3F8
  5
3F8
331
59F
  5
10A7
331
3E7
  5
3E7
331
5A0
  5
10A8
331
1081
  5
141B
331
5B1
  5
1135
331
3F9
  5
422
331
5C2
  5
13B2
331
4CB
  5
51D
331
41A
  5
436
331
4DC
  5
527
331
43C
  5
448
331
13CD
  5
61B
331
5CD
  5
13BD
331
4ED
  5
538
331
44D
  5
459
331
108E
  5
1428
331
4FE
  5
549
331
109F
  5
1439
331
50F
  5
55A
331
10B0
  5
144A
331
600
  5
13C8
331
520
  5
56B
331
13E8
  5
4A7
331
468
  5
474
331
611
  5
13D9
331
1452
  5
614
331
531
  5
57C
331
13F9
  5
4B8
331
622
  5
13EA
331
141B
  5
1450
331
142C
  5
1090
331
54C
  5
5A9
331
4AC
  5
4FE
331
49B
  5
4ED
331
143D
  5
7E3
331
58F
  5
109B
331
56E
  5
5D1
331
55D
  5
5BF
331
4BD
  5
50F
331
140A
  5
4C9
331
479
  5
485
331
457
  5
463
331
3E8
  5
3E8
331
5A1
  5
10A9
331
1082
  5
141C
331
3FA
  5
428
331
5C3
  5
13B3
331
13AC
  5
144D
331
4CC
  5
51E
331
42C
  5
43A
331
4DD
  5
528
331
43D
  5
449
331
13CE
  5
621
331
108F
  5
1429
331
4FF
  5
54A
331
4EE
  5
539
331
44E
  5
45A
331
1132
  5
3FA
331
10A0
  5
143A
331
510
  5
55B
331
13D8
  5
497
331
10B1
  5
144B
331
601
  5
13C9
331
521
  5
56C
331
13E9
  5
4A8
331
612
  5
13DA
331
1453
  5
615
331
532
  5
57D
331
13FA
  5
4B9
331
623
  5
13EB
331
141C
  5
1451
331
7D4
  5
13FF
331
49C
  5
4EE
331
140B
  5
4CA
331
142D
  5
1091
331
54D
  5
5AA
331
4AD
  5
4FF
331
143E
  5
7E4
331
56F
  5
5D2
331
55E
  5
5C0
331
4BE
  5
510
331
48B
  5
4DD
331
47A
  5
486
331
469
  5
475
331
458
  5
464
331
3E9
  5
3E9
331
578
  5
602
331
591
  5
10A0
331
570
  5
5D3
331
5A2
  5
10AA
331
582
  5
E71
331
1083
  5
141D
331
5B3
  5
1136
331
3FB
  5
42C
331
5C4
  5
13B4
331
41C
  5
437
331
13AD
  5
144E
331
42D
  5
43B
331
4DE
  5
529
331
43E
  5
44A
331
1090
  5
142A
331
500
  5
54B
331
4EF
  5
53A
331
44F
  5
45B
331
1133
  5
3FB
331
10A1
  5
143B
331
511
  5
55C
331
13D9
  5
498
331
10B2
  5
144C
331
602
  5
13CA
331
522
  5
56D
331
13EA
  5
4A9
331
613
  5
13DB
331
1454
  5
60D
331
533
  5
57E
331
13FB
  5
4BA
331
624
  5
13EC
331
141D
  5
1452
331
7D5
  5
1400
331
49D
  5
4EF
331
140C
  5
4CB
331
142E
  5
108E
331
54E
  5
5AB
331
4AE
  5
500
331
143F
  5
7DF
331
55F
  5
5C1
331
4BF
  5
511
331
48C
  5
4DE
331
47B
  5
487
331
46A
  5
476
331
459
  5
465
331
3EA
  5
3EA
331
1440
  5
7E0
331
7E0
  5
140B
331
560
  5
5C2
331
4C0
  5
512
331
579
  5
603
331
592
  5
10A1
331
571
  5
5D4
331
5A3
  5
10AB
331
583
  5
E72
331
1084
  5
141E
331
5B4
  5
1137
331
3FC
  5
42D
331
5C5
  5
13B5
331
13AE
  5
144F
331
42E
  5
43C
331
1091
  5
142B
331
501
  5
54C
331
4F0
  5
53B
331
4DF
  5
52A
331
43F
  5
44B
331
1134
  5
3FC
331
10A2
  5
143C
331
512
  5
55D
331
13DA
  5
499
331
603
  5
13CB
331
523
  5
56E
331
13EB
  5
4AA
331
614
  5
13DC
331
1455
  5
60E
331
534
  5
57F
331
13FC
  5
4BB
331
48D
  5
4DF
331
625
  5
13ED
331
7D6
  5
1401
331
141E
  5
109F
331
49E
  5
4F0
331
142F
  5
108B
331
54F
  5
5AC
331
4AF
  5
501
331
140D
  5
4CC
331
47C
  5
488
331
46B
  5
477
331
45A
  5
466
331
3EB
  5
3EB
331
1430
  5
108C
331
550
  5
5AD
331
4B0
  5
502
331
1441
  5
7E1
331
7E1
  5
140C
331
561
  5
5C3
331
4C1
  5
513
331
57A
  5
604
331
572
  5
5D5
331
5A4
  5
10AC
331
584
  5
E73
331
1085
  5
141F
331
5B5
  5
1138
331
3FD
  5
42E
331
5C6
  5
13B6
331
630
  5
13F8
331
13C0
  5
7DC
331
1092
  5
142C
331
502
  5
54D
331
4F1
  5
53C
331
4E0
  5
52B
331
440
  5
44C
331
1135
  5
3FD
331
10A3
  5
143D
331
513
  5
55E
331
13DB
  5
49A
331
604
  5
13CC
331
524
  5
56F
331
13EC
  5
4AB
331
46C
  5
478
331
615
  5
13DD
331
1456
  5
60F
331
535
  5
580
331
13FD
  5
4BC
331
48E
  5
4E0
331
626
  5
13EE
331
7D7
  5
1402
331
141F
  5
109C
331
49F
  5
4F1
331
140E
  5
4D4
331
47D
  5
489
331
45B
  5
467
331
3EC
  5
3EC
331
1420
  5
109D
331
7D8
  5
1403
331
540
  5
590
331
4A0
  5
4F2
331
1431
  5
108D
331
551
  5
5AE
331
4B1
  5
503
331
1442
  5
7DB
331
7E2
  5
140D
331
562
  5
5C4
331
4C2
  5
514
331
57B
  5
605
331
573
  5
5D6
331
5A5
  5
10AD
331
585
  5
E74
331
1086
  5
1420
331
3FE
  5
431
331
5C7
  5
13B7
331
631
  5
13F9
331
13C1
  5
7DD
331
1093
  5
142D
331
503
  5
54E
331
4F2
  5
53D
331
4E1
  5
52C
331
441
  5
44D
331
1136
  5
3FE
331
10A4
  5
143E
331
514
  5
55F
331
13DC
  5
49B
331
605
  5
13CD
331
525
  5
570
331
13ED
  5
4AC
331
46D
  5
479
331
616
  5
13DE
331
536
  5
581
331
13FE
  5
4BD
331
48F
  5
4E1
331
627
  5
13EF
331
140F
  5
4D5
331
47E
  5
48A
331
45C
  5
468
331
3ED
  5
3ED
331
490
  5
4E2
331
628
  5
13F0
331
1410
  5
4D6
331
1421
  5
109E
331
7D9
  5
1404
331
541
  5
591
331
4A1
  5
4F3
331
1432
  5
108A
331
552
  5
5AF
331
4B2
  5
504
331
1443
  5
7D8
331
7E3
  5
140E
331
563
  5
5C5
331
4C3
  5
515
331
57C
  5
606
331
574
  5
5D7
331
5A6
  5
10AE
331
586
  5
E75
331
1087
  5
1421
331
3FF
  5
432
331
431
  5
43D
331
632
  5
13FA
331
13C2
  5
7DE
331
1094
  5
142E
331
504
  5
54F
331
4F3
  5
53E
331
4E2
  5
52D
331
442
  5
44E
331
1137
  5
3FF
331
10A5
  5
143F
331
515
  5
560
331
13DD
  5
49C
331
606
  5
13CE
331
526
  5
571
331
13EE
  5
4AD
331
617
  5
13DF
331
537
  5
582
331
13FF
  5
4BE
331
47F
  5
48B
331
46E
  5
47A
331
45D
  5
469
331
3EE
  5
3EE
  0
XRECORD
  5
145D
102
{ACAD_REACTORS
330
145B
102
}
330
145B
100
AcDbXrecord
280
     1
 70
     2
  0
XRECORD
  5
145C
102
{ACAD_REACTORS
330
145B
102
}
330
145B
100
AcDbXrecord
280
     1
 40
1.25
  0
XRECORD
  5
145E
102
{ACAD_REACTORS
330
145B
102
}
330
145B
100
AcDbXrecord
280
     1
 40
1.570796326794896
  0
LAYOUT
  5
22
102
{ACAD_XDICTIONARY
360
145F
102
}
102
{ACAD_REACTORS
330
1A
102
}
330
1A
100
AcDbPlotSettings
  1

  2
none_device
  4
ANSI_A_(8.50_x_11.00_Inches)
  6

 40
6.349999904632567
 41
19.04999923706055
 42
6.350006103515625
 43
19.04998779296875
 44
215.8999938964844
 45
279.3999938964844
 46
0.0
 47
0.0
 48
0.0
 49
0.0
140
0.0
141
0.0
142
1.0
143
2.584895464708373
 70
 11952
 72
     0
 73
     1
 74
     0
  7

 75
     0
147
0.3868628397755418
148
0.0
149
0.0
100
AcDbLayout
  1
Model
 70
     1
 71
     0
 10
0.0
 20
0.0
 11
12.0
 21
9.0
 12
0.0
 22
0.0
 32
0.0
 14
0.0
 24
0.0
 34
0.0
 15
0.0
 25
0.0
 35
0.0
146
0.0
 13
0.0
 23
0.0
 33
0.0
 16
1.0
 26
0.0
 36
0.0
 17
0.0
 27
1.0
 37
0.0
 76
     0
330
1F
331
94
  0
LAYOUT
  5
59
102
{ACAD_XDICTIONARY
360
1461
102
}
102
{ACAD_REACTORS
330
1A
102
}
330
1A
100
AcDbPlotSettings
  1

  2
None
  4

  6

 40
0.0
 41
0.0
 42
0.0
 43
0.0
 44
0.0
 45
0.0
 46
0.0
 47
0.0
 48
0.0
 49
0.0
140
0.0
141
0.0
142
1.0
143
1.0
 70
   688
 72
     0
 73
     0
 74
     5
  7

 75
    16
147
1.0
148
0.0
149
0.0
100
AcDbLayout
  1
レイアウト1
 70
     1
 71
     1
 10
0.0
 20
0.0
 11
12.0
 21
9.0
 12
0.0
 22
0.0
 32
0.0
 14
0.0
 24
0.0
 34
0.0
 15
0.0
 25
0.0
 35
0.0
146
0.0
 13
0.0
 23
0.0
 33
0.0
 16
1.0
 26
0.0
 36
0.0
 17
0.0
 27
1.0
 37
0.0
 76
     0
330
58
  0
LAYOUT
  5
5E
102
{ACAD_XDICTIONARY
360
1463
102
}
102
{ACAD_REACTORS
330
1A
102
}
330
1A
100
AcDbPlotSettings
  1

  2
None
  4

  6

 40
0.0
 41
0.0
 42
0.0
 43
0.0
 44
0.0
 45
0.0
 46
0.0
 47
0.0
 48
0.0
 49
0.0
140
0.0
141
0.0
142
1.0
143
1.0
 70
   688
 72
     0
 73
     0
 74
     5
  7

 75
    16
147
1.0
148
0.0
149
0.0
100
AcDbLayout
  1
レイアウト2
 70
     1
 71
     2
 10
0.0
 20
0.0
 11
12.0
 21
9.0
 12
0.0
 22
0.0
 32
0.0
 14
0.0
 24
0.0
 34
0.0
 15
0.0
 25
0.0
 35
0.0
146
0.0
 13
0.0
 23
0.0
 33
0.0
 16
1.0
 26
0.0
 36
0.0
 17
0.0
 27
1.0
 37
0.0
 76
     0
330
5D
  0
MATERIAL
  5
97
102
{ACAD_XDICTIONARY
360
69C
102
}
102
{ACAD_REACTORS
330
72
102
}
330
72
100
AcDbMaterial
  1
ByBlock
  0
MATERIAL
  5
96
102
{ACAD_XDICTIONARY
360
69A
102
}
102
{ACAD_REACTORS
330
72
102
}
330
72
100
AcDbMaterial
  1
ByLayer
  0
MATERIAL
  5
98
102
{ACAD_XDICTIONARY
360
69E
102
}
102
{ACAD_REACTORS
330
72
102
}
330
72
100
AcDbMaterial
  1
Global
  0
MLEADERSTYLE
  5
6C3
102
{ACAD_REACTORS
330
6C2
102
}
330
6C2
100
AcDbMLeaderStyle
170
     2
171
     1
172
     0
 90
        2
 40
0.0
 41
0.0
173
     1
 91
-1056964608
340
14
 92
       -2
290
     1
 42
2.0
291
     1
 43
0.36
  3
Standard
 44
4.0
300

342
11
174
     1
178
     6
175
     1
176
     0
 93
-1056964608
 45
4.0
292
     0
297
     0
 46
4.0
 94
-1056964608
 47
1.0
 49
1.0
140
1.0
293
     1
141
0.0
294
     1
177
     0
142
1.0
295
     0
296
     0
143
0.125
1001
ACAD_MLEADERVER
1070
     2
  0
MLINESTYLE
  5
18
102
{ACAD_REACTORS
330
17
102
}
330
17
100
AcDbMlineStyle
  2
STANDARD
 70
     0
  3

 62
   256
 51
90.0
 52
90.0
 71
     2
 49
0.5
 62
   256
  6
BYLAYER
 49
-0.5
 62
   256
  6
BYLAYER
  0
ACDBPLACEHOLDER
  5
F
102
{ACAD_REACTORS
330
E
102
}
330
E
  0
SCALE
  5
6B1
102
{ACAD_REACTORS
330
6B0
102
}
330
6B0
100
AcDbScale
 70
     0
300
1:1
140
1.0
141
1.0
290
     1
  0
SCALE
  5
6B2
102
{ACAD_REACTORS
330
6B0
102
}
330
6B0
100
AcDbScale
 70
     0
300
1:2
140
1.0
141
2.0
290
     0
  0
SCALE
  5
6B3
102
{ACAD_REACTORS
330
6B0
102
}
330
6B0
100
AcDbScale
 70
     0
300
1:4
140
1.0
141
4.0
290
     0
  0
SCALE
  5
6B4
102
{ACAD_REACTORS
330
6B0
102
}
330
6B0
100
AcDbScale
 70
     0
300
1:5
140
1.0
141
5.0
290
     0
  0
SCALE
  5
6B5
102
{ACAD_REACTORS
330
6B0
102
}
330
6B0
100
AcDbScale
 70
     0
300
1:8
140
1.0
141
8.0
290
     0
  0
SCALE
  5
6B6
102
{ACAD_REACTORS
330
6B0
102
}
330
6B0
100
AcDbScale
 70
     0
300
1:10
140
1.0
141
10.0
290
     0
  0
SCALE
  5
6B7
102
{ACAD_REACTORS
330
6B0
102
}
330
6B0
100
AcDbScale
 70
     0
300
1:16
140
1.0
141
16.0
290
     0
  0
SCALE
  5
6B8
102
{ACAD_REACTORS
330
6B0
102
}
330
6B0
100
AcDbScale
 70
     0
300
1:20
140
1.0
141
20.0
290
     0
  0
SCALE
  5
6B9
102
{ACAD_REACTORS
330
6B0
102
}
330
6B0
100
AcDbScale
 70
     0
300
1:30
140
1.0
141
30.0
290
     0
  0
SCALE
  5
6BA
102
{ACAD_REACTORS
330
6B0
102
}
330
6B0
100
AcDbScale
 70
     0
300
1:40
140
1.0
141
40.0
290
     0
  0
SCALE
  5
6BB
102
{ACAD_REACTORS
330
6B0
102
}
330
6B0
100
AcDbScale
 70
     0
300
1:50
140
1.0
141
50.0
290
     0
  0
SCALE
  5
6BC
102
{ACAD_REACTORS
330
6B0
102
}
330
6B0
100
AcDbScale
 70
     0
300
1:100
140
1.0
141
100.0
290
     0
  0
SCALE
  5
6BD
102
{ACAD_REACTORS
330
6B0
102
}
330
6B0
100
AcDbScale
 70
     0
300
2:1
140
2.0
141
1.0
290
     0
  0
SCALE
  5
6BE
102
{ACAD_REACTORS
330
6B0
102
}
330
6B0
100
AcDbScale
 70
     0
300
4:1
140
4.0
141
1.0
290
     0
  0
SCALE
  5
6BF
102
{ACAD_REACTORS
330
6B0
102
}
330
6B0
100
AcDbScale
 70
     0
300
8:1
140
8.0
141
1.0
290
     0
  0
SCALE
  5
6C0
102
{ACAD_REACTORS
330
6B0
102
}
330
6B0
100
AcDbScale
 70
     0
300
10:1
140
10.0
141
1.0
290
     0
  0
SCALE
  5
6C1
102
{ACAD_REACTORS
330
6B0
102
}
330
6B0
100
AcDbScale
 70
     0
300
100:1
140
100.0
141
1.0
290
     0
  0
TABLESTYLE
  5
87
102
{ACAD_XDICTIONARY
360
AF8
102
}
102
{ACAD_REACTORS
330
86
102
}
330
86
100
AcDbTableStyle
  3
Standard
 70
     0
 71
     0
 40
0.06
 41
0.06
280
     0
281
     0
  7
Standard
140
0.18
170
     2
 62
     0
 63
     7
283
     0
274
    -2
284
     1
 64
     0
275
    -2
285
     1
 65
     0
276
    -2
286
     1
 66
     0
277
    -2
287
     1
 67
     0
278
    -2
288
     1
 68
     0
279
    -2
289
     1
 69
     0
  7
Standard
140
0.25
170
     5
 62
     0
 63
     7
283
     0
274
    -2
284
     1
 64
     0
275
    -2
285
     1
 65
     0
276
    -2
286
     1
 66
     0
277
    -2
287
     1
 67
     0
278
    -2
288
     1
 68
     0
279
    -2
289
     1
 69
     0
  7
Standard
140
0.18
170
     5
 62
     0
 63
     7
283
     0
274
    -2
284
     1
 64
     0
275
    -2
285
     1
 65
     0
276
    -2
286
     1
 66
     0
277
    -2
287
     1
 67
     0
278
    -2
288
     1
 68
     0
279
    -2
289
     1
 69
     0
  0
TABLESTYLE
  5
1212
102
{ACAD_XDICTIONARY
360
1213
102
}
102
{ACAD_REACTORS
330
86
102
}
330
86
100
AcDbTableStyle
  3
Standard
 70
     1
 71
     0
 40
1.5
 41
0.5
280
     0
281
     0
  7
高3.2
140
0.18
170
     7
 62
     3
 63
     7
283
     0
274
    -2
284
     1
 64
     3
275
    -2
285
     1
 65
     7
276
    -2
286
     1
 66
     3
277
    -2
287
     1
 67
     3
278
    -2
288
     1
 68
     7
279
    -2
289
     1
 69
     3
  7
高3.2
140
0.25
170
     8
 62
     3
 63
     7
283
     0
274
    -2
284
     1
 64
     0
275
    -2
285
     1
 65
     0
276
    -2
286
     1
 66
     0
277
    -2
287
     1
 67
     0
278
    -2
288
     1
 68
     0
279
    -2
289
     1
 69
     0
  7
高3.2
140
0.18
170
     7
 62
     3
 63
     7
283
     0
274
    -2
284
     1
 64
     3
275
    -2
285
     1
 65
     7
276
    -2
286
     1
 66
     3
277
    -2
287
     1
 67
     3
278
    -2
288
     1
 68
     7
279
    -2
289
     1
 69
     3
  0
VISUALSTYLE
  5
9F
102
{ACAD_XDICTIONARY
360
1470
102
}
102
{ACAD_REACTORS
330
99
102
}
330
99
100
AcDbVisualStyle
  2

 70
     4
 71
     0
 72
     2
 73
     1
 90
        0
 40
-0.6
 41
-30.0
 62
     5
 63
     7
 74
     1
 91
        4
 64
     7
 65
   257
 75
     1
175
     1
 42
1.0
 92
        0
 66
   257
 43
1.0
 76
     1
 77
     6
 78
     2
 67
     7
 79
     5
170
     0
171
     0
290
     0
174
     0
 93
        1
 44
0.0
173
     0
291
     0
 45
0.0
1001
ACAD
1000
AcDbSavedByObjectVersion
1070
     0
  0
VISUALSTYLE
  5
A1
102
{ACAD_XDICTIONARY
360
1474
102
}
102
{ACAD_REACTORS
330
99
102
}
330
99
100
AcDbVisualStyle
  2

 70
     6
 71
     1
 72
     2
 73
     2
 90
        0
 40
-0.6
 41
-30.0
 62
     5
 63
     7
 74
     2
 91
        2
 64
     7
 65
   257
 75
     2
175
     1
 42
40.0
 92
        0
 66
   257
 43
1.0
 76
     1
 77
     6
 78
     2
 67
     7
 79
     3
170
     0
171
     0
290
     0
174
     0
 93
        1
 44
0.0
173
     0
291
     0
 45
0.0
1001
ACAD
1000
AcDbSavedByObjectVersion
1070
     0
  0
VISUALSTYLE
  5
A0
102
{ACAD_XDICTIONARY
360
1472
102
}
102
{ACAD_REACTORS
330
99
102
}
330
99
100
AcDbVisualStyle
  2

 70
     5
 71
     0
 72
     2
 73
     1
 90
        0
 40
-0.6
 41
-30.0
 62
     5
 63
     7
 74
     1
 91
        4
 64
     7
 65
   257
 75
     1
175
     1
 42
1.0
 92
        0
 66
   257
 43
1.0
 76
     1
 77
     6
 78
     2
 67
     7
 79
     5
170
     0
171
     0
290
     0
174
     0
 93
        1
 44
0.0
173
     0
291
     0
 45
0.0
1001
ACAD
1000
AcDbSavedByObjectVersion
1070
     0
  0
VISUALSTYLE
  5
9E
102
{ACAD_XDICTIONARY
360
146E
102
}
102
{ACAD_REACTORS
330
99
102
}
330
99
100
AcDbVisualStyle
  2

 70
     7
 71
     1
 72
     0
 73
     1
 90
        0
 40
-0.6
 41
-30.0
 62
     5
 63
     7
 74
     0
 91
        4
 64
     7
 65
   257
 75
     1
175
     1
 42
1.0
 92
        8
 66
     7
 43
1.0
 76
     1
 77
     6
 78
     2
 67
     7
 79
     5
170
     0
171
     0
290
     0
174
     0
 93
        1
 44
0.0
173
     0
291
     1
 45
0.0
1001
ACAD
1000
AcDbSavedByObjectVersion
1070
     0
  0
VISUALSTYLE
  5
A5
102
{ACAD_XDICTIONARY
360
147C
102
}
102
{ACAD_REACTORS
330
99
102
}
330
99
100
AcDbVisualStyle
  2

 70
    12
 71
     2
 72
     2
 73
     1
 90
        0
 40
-0.6
 41
-30.0
 62
     5
 63
     7
 74
     1
 91
        4
 64
     7
 65
   257
 75
     1
175
     1
 42
1.0
 92
        8
 66
     7
 43
1.0
 76
     1
 77
     6
 78
     2
 67
     7
 79
     5
170
     0
171
     0
290
     0
174
     0
 93
        1
 44
50.0
173
     0
291
     1
 45
0.0
1001
ACAD
1000
AcDbSavedByObjectVersion
1070
     0
  0
VISUALSTYLE
  5
A9
102
{ACAD_XDICTIONARY
360
1484
102
}
102
{ACAD_REACTORS
330
99
102
}
330
99
100
AcDbVisualStyle
  2

 70
    16
 71
     2
 72
     2
 73
     3
 90
        0
 40
-0.6
 41
-30.0
 62
     5
 63
     8
 74
     1
 91
        4
 64
     7
 65
   257
 75
     1
175
     1
 42
1.0
 92
        8
 66
     8
 43
1.0
 76
     1
 77
     6
 78
     2
 67
     7
 79
     5
170
     0
171
     0
290
     0
174
     0
 93
        1
 44
0.0
173
     0
291
     1
 45
0.0
1001
ACAD
1000
AcDbSavedByObjectVersion
1070
     0
  0
VISUALSTYLE
  5
A2
102
{ACAD_XDICTIONARY
360
1476
102
}
102
{ACAD_REACTORS
330
99
102
}
330
99
100
AcDbVisualStyle
  2

 70
     9
 71
     3
 72
     2
 73
     1
 90
        0
 40
-0.6
 41
-30.0
 62
     5
 63
     7
 74
     2
 91
        2
 64
     7
 65
   257
 75
     1
175
     1
 42
40.0
 92
        8
 66
     7
 43
1.0
 76
     1
 77
     6
 78
     2
 67
     7
 79
     3
170
     0
171
     0
290
     0
174
     0
 93
        1
 44
0.0
173
     0
291
     0
 45
0.0
1001
ACAD
1000
AcDbSavedByObjectVersion
1070
     0
  0
VISUALSTYLE
  5
A4
102
{ACAD_XDICTIONARY
360
147A
102
}
102
{ACAD_REACTORS
330
99
102
}
330
99
100
AcDbVisualStyle
  2

 70
    11
 71
     2
 72
     2
 73
     1
 90
        0
 40
-0.6
 41
-30.0
 62
     5
 63
     7
 74
     1
 91
        4
 64
     7
 65
   257
 75
     1
175
     1
 42
1.0
 92
        8
 66
     7
 43
1.0
 76
     1
 77
     6
 78
     2
 67
     7
 79
     5
170
     0
171
     0
290
     0
174
     0
 93
        1
 44
-50.0
173
     0
291
     1
 45
0.0
1001
ACAD
1000
AcDbSavedByObjectVersion
1070
     0
  0
VISUALSTYLE
  5
6AF
102
{ACAD_XDICTIONARY
360
1498
102
}
102
{ACAD_REACTORS
330
99
102
}
330
99
100
AcDbVisualStyle
  2

 70
    22
 71
     2
 72
     2
 73
     0
 90
        0
 40
-0.6
 41
-30.0
 62
     5
 63
     7
 74
     1
 91
        4
 64
     7
 65
   257
 75
     1
175
     1
 42
1.0
 92
        8
 66
     7
 43
1.0
 76
     1
 77
     6
 78
     2
 67
     7
 79
     5
170
     0
171
     0
290
     0
174
     0
 93
        1
 44
0.0
173
     0
291
     1
 45
0.0
1001
ACAD
1000
AcDbSavedByObjectVersion
1070
     0
  0
VISUALSTYLE
  5
A8
102
{ACAD_XDICTIONARY
360
1482
102
}
102
{ACAD_REACTORS
330
99
102
}
330
99
100
AcDbVisualStyle
  2

 70
    15
 71
     2
 72
     2
 73
     1
 90
        0
 40
-0.6
 41
-30.0
 62
     5
 63
     7
 74
     1
 91
        4
 64
     7
 65
   257
 75
     1
175
     1
 42
1.0
 92
        8
 66
     7
 43
1.0
 76
     1
 77
     6
 78
     2
 67
     7
 79
     5
170
     0
171
     0
290
     0
174
     0
 93
        1
 44
0.0
173
     0
291
     1
 45
0.0
1001
ACAD
1000
AcDbSavedByObjectVersion
1070
     0
  0
VISUALSTYLE
  5
9A
102
{ACAD_XDICTIONARY
360
1466
102
}
102
{ACAD_REACTORS
330
99
102
}
330
99
100
AcDbVisualStyle
  2

 70
     0
 71
     2
 72
     1
 73
     1
 90
        2
 40
-0.6
 41
30.0
 62
     5
 63
     7
 74
     0
 91
        4
 64
     7
 65
   257
 75
     1
175
     1
 42
1.0
 92
        8
 66
     7
 43
1.0
 76
     1
 77
     6
 78
     2
 67
     7
 79
     5
170
     0
171
     0
290
     0
174
     0
 93
        1
 44
0.0
173
     0
291
     1
 45
0.0
1001
ACAD
1000
AcDbSavedByObjectVersion
1070
     0
  0
VISUALSTYLE
  5
9B
102
{ACAD_XDICTIONARY
360
1468
102
}
102
{ACAD_REACTORS
330
99
102
}
330
99
100
AcDbVisualStyle
  2

 70
     1
 71
     2
 72
     1
 73
     1
 90
        2
 40
-0.6
 41
30.0
 62
     5
 63
     7
 74
     1
 91
        4
 64
     7
 65
   257
 75
     1
175
     1
 42
1.0
 92
        0
 66
   257
 43
1.0
 76
     1
 77
     6
 78
     2
 67
     7
 79
     5
170
     0
171
     0
290
     0
174
     0
 93
        1
 44
0.0
173
     0
291
     1
 45
0.0
1001
ACAD
1000
AcDbSavedByObjectVersion
1070
     0
  0
VISUALSTYLE
  5
9C
102
{ACAD_XDICTIONARY
360
146A
102
}
102
{ACAD_REACTORS
330
99
102
}
330
99
100
AcDbVisualStyle
  2

 70
     2
 71
     2
 72
     2
 73
     1
 90
        2
 40
-0.6
 41
30.0
 62
     5
 63
     7
 74
     0
 91
        4
 64
     7
 65
   257
 75
     1
175
     1
 42
1.0
 92
        0
 66
     7
 43
1.0
 76
     1
 77
     6
 78
     2
 67
     7
 79
     5
170
     0
171
     0
290
     0
174
     0
 93
        1
 44
0.0
173
     0
291
     1
 45
0.0
1001
ACAD
1000
AcDbSavedByObjectVersion
1070
     0
  0
VISUALSTYLE
  5
9D
102
{ACAD_XDICTIONARY
360
146C
102
}
102
{ACAD_REACTORS
330
99
102
}
330
99
100
AcDbVisualStyle
  2

 70
     3
 71
     2
 72
     2
 73
     1
 90
        2
 40
-0.6
 41
30.0
 62
     5
 63
     7
 74
     1
 91
        4
 64
     7
 65
   257
 75
     1
175
     1
 42
1.0
 92
        0
 66
   257
 43
1.0
 76
     1
 77
     6
 78
     2
 67
     7
 79
     5
170
     0
171
     0
290
     0
174
     0
 93
        1
 44
0.0
173
     0
291
     1
 45
0.0
1001
ACAD
1000
AcDbSavedByObjectVersion
1070
     0
  0
VISUALSTYLE
  5
6A7
102
{ACAD_XDICTIONARY
360
1488
102
}
102
{ACAD_REACTORS
330
99
102
}
330
99
100
AcDbVisualStyle
  2

 70
     6
 71
     1
 72
     2
 73
     2
 90
        0
 40
-0.6
 41
-30.0
 62
     5
 63
     7
 74
     2
 91
        2
 64
     7
 65
   257
 75
     2
175
     1
 42
40.0
 92
        0
 66
   257
 43
1.0
 76
     1
 77
     6
 78
     2
 67
     7
 79
     3
170
     0
171
     0
290
     0
174
     0
 93
        1
 44
0.0
173
     0
291
     0
 45
0.0
1001
ACAD
1000
AcDbSavedByObjectVersion
1070
     0
  0
VISUALSTYLE
  5
6AD
102
{ACAD_XDICTIONARY
360
1494
102
}
102
{ACAD_REACTORS
330
99
102
}
330
99
100
AcDbVisualStyle
  2

 70
    20
 71
     2
 72
     2
 73
     0
 90
        0
 40
-0.6
 41
-30.0
 62
     5
 63
     7
 74
     1
 91
        4
 64
     7
 65
   257
 75
     1
175
     1
 42
1.0
 92
       10
 66
     7
 43
1.0
 76
     1
 77
     6
 78
     2
 67
     7
 79
     5
170
     0
171
     0
290
     0
174
     0
 93
        1
 44
0.0
173
     0
291
     1
 45
0.0
1001
ACAD
1000
AcDbSavedByObjectVersion
1070
     0
  0
VISUALSTYLE
  5
A7
102
{ACAD_XDICTIONARY
360
1480
102
}
102
{ACAD_REACTORS
330
99
102
}
330
99
100
AcDbVisualStyle
  2

 70
    14
 71
     2
 72
     2
 73
     1
 90
        0
 40
-0.6
 41
-30.0
 62
     5
 63
     7
 74
     1
 91
        4
 64
     7
 65
   257
 75
     7
175
     7
 42
1.0
 92
        8
 66
     7
 43
1.0
 76
     1
 77
     6
 78
     2
 67
     7
 79
     5
170
     0
171
     0
290
     0
174
     0
 93
        1
 44
0.0
173
     0
291
     1
 45
0.0
1001
ACAD
1000
AcDbSavedByObjectVersion
1070
     0
  0
VISUALSTYLE
  5
6AE
102
{ACAD_XDICTIONARY
360
1496
102
}
102
{ACAD_REACTORS
330
99
102
}
330
99
100
AcDbVisualStyle
  2

 70
    21
 71
     2
 72
     2
 73
     0
 90
        0
 40
-0.6
 41
-30.0
 62
     5
 63
     7
 74
     1
 91
        4
 64
     7
 65
   257
 75
     1
175
     1
 42
1.0
 92
        9
 66
     7
 43
1.0
 76
     1
 77
     6
 78
     2
 67
     7
 79
     5
170
     0
171
     0
290
     0
174
     0
 93
        1
 44
0.0
173
     0
291
     1
 45
0.0
1001
ACAD
1000
AcDbSavedByObjectVersion
1070
     0
  0
VISUALSTYLE
  5
A3
102
{ACAD_XDICTIONARY
360
1478
102
}
102
{ACAD_REACTORS
330
99
102
}
330
99
100
AcDbVisualStyle
  2

 70
     8
 71
     2
 72
     2
 73
     1
 90
        0
 40
-0.6
 41
-30.0
 62
     5
 63
     7
 74
     1
 91
        0
 64
     7
 65
   257
 75
     1
175
     1
 42
1.0
 92
        8
 66
     8
 43
1.0
 76
     1
 77
     6
 78
     2
 67
     7
 79
     5
170
     0
171
     0
290
     0
174
     0
 93
       13
 44
0.0
173
     0
291
     0
 45
0.0
1001
ACAD
1000
AcDbSavedByObjectVersion
1070
     0
  0
VISUALSTYLE
  5
6AC
102
{ACAD_XDICTIONARY
360
1492
102
}
102
{ACAD_REACTORS
330
99
102
}
330
99
100
AcDbVisualStyle
  2

 70
    27
 71
     2
 72
     2
 73
     1
 90
        2
 40
-0.6
 41
30.0
 62
     5
 63
     7
 74
     0
 91
        4
 64
     7
 65
   257
 75
     1
175
     1
 42
1.0
 92
        8
 66
   257
 43
1.0
 76
     1
 77
     6
 78
     2
 67
     8
 79
     3
170
     0
171
     0
290
     0
174
     0
 93
        5
 44
0.0
173
     0
291
     0
 45
0.0
1001
ACAD
1000
AcDbSavedByObjectVersion
1070
     0
  0
VISUALSTYLE
  5
6AB
102
{ACAD_XDICTIONARY
360
1490
102
}
102
{ACAD_REACTORS
330
99
102
}
330
99
100
AcDbVisualStyle
  2

 70
    26
 71
     2
 72
     2
 73
     1
 90
        2
 40
-0.6
 41
30.0
 62
     5
 63
     7
 74
     1
 91
       10
 64
     7
 65
   257
 75
     2
175
     1
 42
1.0
 92
        8
 66
   257
 43
1.0
 76
     1
 77
     6
 78
     2
 67
     7
 79
     3
170
     0
171
     0
290
     0
174
     0
 93
        5
 44
0.0
173
     0
291
     0
 45
0.0
1001
ACAD
1000
AcDbSavedByObjectVersion
1070
     0
  0
VISUALSTYLE
  5
6A8
102
{ACAD_XDICTIONARY
360
148A
102
}
102
{ACAD_REACTORS
330
99
102
}
330
99
100
AcDbVisualStyle
  2

 70
    23
 71
     2
 72
     2
 73
     3
 90
        0
 40
-0.6
 41
-30.0
 62
     5
 63
     7
 74
     2
 91
        2
 64
     7
 65
     7
 75
     1
175
     1
 42
40.0
 92
        8
 66
     7
 43
1.0
 76
     1
 77
     6
 78
     2
 67
     7
 79
     3
170
     0
171
     0
290
     0
174
     0
 93
        1
 44
0.0
173
     0
291
     0
 45
0.0
1001
ACAD
1000
AcDbSavedByObjectVersion
1070
     0
  0
VISUALSTYLE
  5
6A9
102
{ACAD_XDICTIONARY
360
148C
102
}
102
{ACAD_REACTORS
330
99
102
}
330
99
100
AcDbVisualStyle
  2

 70
    24
 71
     1
 72
     2
 73
     2
 90
        0
 40
-0.6
 41
-30.0
 62
     5
 63
     7
 74
     2
 91
        2
 64
     7
 65
     7
 75
     1
175
     1
 42
40.0
 92
       11
 66
     7
 43
1.0
 76
     1
 77
     6
 78
     2
 67
     7
 79
     6
170
     0
171
     0
290
     0
174
     0
 93
        1
 44
0.0
173
     0
291
     0
 45
0.0
1001
ACAD
1000
AcDbSavedByObjectVersion
1070
     0
  0
VISUALSTYLE
  5
A6
102
{ACAD_XDICTIONARY
360
147E
102
}
102
{ACAD_REACTORS
330
99
102
}
330
99
100
AcDbVisualStyle
  2

 70
    13
 71
     2
 72
     2
 73
     1
 90
        0
 40
-0.6
 41
-30.0
 62
     5
 63
     7
 74
     1
 91
        4
 64
     7
 65
   257
 75
     1
175
     1
 42
1.0
 92
       12
 66
     7
 43
1.0
 76
     1
 77
     6
 78
     2
 67
     7
 79
     5
170
     0
171
     0
290
     0
174
     0
 93
        1
 44
0.0
173
     0
291
     1
 45
0.0
1001
ACAD
1000
AcDbSavedByObjectVersion
1070
     0
  0
VISUALSTYLE
  5
6A6
102
{ACAD_XDICTIONARY
360
1486
102
}
102
{ACAD_REACTORS
330
99
102
}
330
99
100
AcDbVisualStyle
  2

 70
     5
 71
     0
 72
     2
 73
     0
 90
        0
 40
-0.6
 41
-30.0
 62
     5
 63
     7
 74
     1
 91
        4
 64
     7
 65
   257
 75
     1
175
     1
 42
1.0
 92
        0
 66
   257
 43
1.0
 76
     1
 77
     6
 78
     2
 67
     7
 79
     3
170
     0
171
     0
290
     0
174
     0
 93
        1
 44
0.0
173
     0
291
     0
 45
0.0
1001
ACAD
1000
AcDbSavedByObjectVersion
1070
     0
  0
VISUALSTYLE
  5
6AA
102
{ACAD_XDICTIONARY
360
148E
102
}
102
{ACAD_REACTORS
330
99
102
}
330
99
100
AcDbVisualStyle
  2

 70
    25
 71
     2
 72
     2
 73
     1
 90
        1
 40
0.5
 41
-30.0
 62
     5
 63
     7
 74
     1
 91
        0
 64
     7
 65
   257
 75
     1
175
     1
 42
1.0
 92
        8
 66
     7
 43
1.0
 76
     1
 77
     6
 78
     2
 67
     7
 79
     3
170
     0
171
     0
290
     0
174
     0
 93
       13
 44
0.0
173
     0
291
     0
 45
0.0
1001
ACAD
1000
AcDbSavedByObjectVersion
1070
     0
  0
DICTIONARYVAR
  5
AF6
102
{ACAD_REACTORS
330
66
102
}
330
66
100
DictionaryVariables
280
     0
  1
1:1
  0
DICTIONARYVAR
  5
AF5
102
{ACAD_REACTORS
330
66
102
}
330
66
100
DictionaryVariables
280
     0
  1
STANDARD
  0
DICTIONARYVAR
  5
89
102
{ACAD_REACTORS
330
66
102
}
330
66
100
DictionaryVariables
280
     0
  1
STANDARD
  0
DICTIONARYVAR
  5
67
102
{ACAD_REACTORS
330
66
102
}
330
66
100
DictionaryVariables
280
     0
  1
2
  0
DICTIONARYVAR
  5
6B
102
{ACAD_REACTORS
330
66
102
}
330
66
100
DictionaryVariables
280
     0
  1
1
  0
DICTIONARYVAR
  5
68C
102
{ACAD_REACTORS
330
66
102
}
330
66
100
DictionaryVariables
280
     0
  1
0
  0
DICTIONARYVAR
  5
68B
102
{ACAD_REACTORS
330
66
102
}
330
66
100
DictionaryVariables
280
     0
  1
127
  0
DICTIONARYVAR
  5
113D
102
{ACAD_REACTORS
330
66
102
}
330
66
100
DictionaryVariables
280
     0
  1
2
  0
DICTIONARY
  5
145F
330
22
100
AcDbDictionary
280
     1
281
     1
  3
ACAD_XREC_ROUNDTRIP
360
1460
  0
DICTIONARY
  5
1461
330
59
100
AcDbDictionary
280
     1
281
     1
  3
ACAD_XREC_ROUNDTRIP
360
1462
  0
DICTIONARY
  5
1463
330
5E
100
AcDbDictionary
280
     1
281
     1
  3
ACAD_XREC_ROUNDTRIP
360
1464
  0
DICTIONARY
  5
69C
330
97
100
AcDbDictionary
280
     1
281
     1
  3
ACAD_XREC_ROUNDTRIP
360
69D
  0
DICTIONARY
  5
69A
330
96
100
AcDbDictionary
280
     1
281
     1
  3
ACAD_XREC_ROUNDTRIP
360
69B
  0
DICTIONARY
  5
69E
330
98
100
AcDbDictionary
280
     1
281
     1
  3
ACAD_XREC_ROUNDTRIP
360
69F
  0
DICTIONARY
  5
AF8
330
87
100
AcDbDictionary
280
     1
281
     1
  3
ACAD_ROUNDTRIP_2008_TABLESTYLE_CELLSTYLEMAP
360
1457
  3
ACAD_XREC_ROUNDTRIP
360
1465
  0
DICTIONARY
  5
1213
330
1212
100
AcDbDictionary
280
     1
281
     1
  3
ACAD_ROUNDTRIP_2008_TABLESTYLE_CELLSTYLEMAP
360
1458
  3
ACAD_XREC_ROUNDTRIP
360
149A
  0
DICTIONARY
  5
1470
330
9F
100
AcDbDictionary
280
     1
281
     1
  3
ACAD_XREC_ROUNDTRIP
360
1471
  0
DICTIONARY
  5
1474
330
A1
100
AcDbDictionary
280
     1
281
     1
  3
ACAD_XREC_ROUNDTRIP
360
1475
  0
DICTIONARY
  5
1472
330
A0
100
AcDbDictionary
280
     1
281
     1
  3
ACAD_XREC_ROUNDTRIP
360
1473
  0
DICTIONARY
  5
146E
330
9E
100
AcDbDictionary
280
     1
281
     1
  3
ACAD_XREC_ROUNDTRIP
360
146F
  0
DICTIONARY
  5
147C
330
A5
100
AcDbDictionary
280
     1
281
     1
  3
ACAD_XREC_ROUNDTRIP
360
147D
  0
DICTIONARY
  5
1484
330
A9
100
AcDbDictionary
280
     1
281
     1
  3
ACAD_XREC_ROUNDTRIP
360
1485
  0
DICTIONARY
  5
1476
330
A2
100
AcDbDictionary
280
     1
281
     1
  3
ACAD_XREC_ROUNDTRIP
360
1477
  0
DICTIONARY
  5
147A
330
A4
100
AcDbDictionary
280
     1
281
     1
  3
ACAD_XREC_ROUNDTRIP
360
147B
  0
DICTIONARY
  5
1498
330
6AF
100
AcDbDictionary
280
     1
281
     1
  3
ACAD_XREC_ROUNDTRIP
360
1499
  0
DICTIONARY
  5
1482
330
A8
100
AcDbDictionary
280
     1
281
     1
  3
ACAD_XREC_ROUNDTRIP
360
1483
  0
DICTIONARY
  5
1466
330
9A
100
AcDbDictionary
280
     1
281
     1
  3
ACAD_XREC_ROUNDTRIP
360
1467
  0
DICTIONARY
  5
1468
330
9B
100
AcDbDictionary
280
     1
281
     1
  3
ACAD_XREC_ROUNDTRIP
360
1469
  0
DICTIONARY
  5
146A
330
9C
100
AcDbDictionary
280
     1
281
     1
  3
ACAD_XREC_ROUNDTRIP
360
146B
  0
DICTIONARY
  5
146C
330
9D
100
AcDbDictionary
280
     1
281
     1
  3
ACAD_XREC_ROUNDTRIP
360
146D
  0
DICTIONARY
  5
1488
330
6A7
100
AcDbDictionary
280
     1
281
     1
  3
ACAD_XREC_ROUNDTRIP
360
1489
  0
DICTIONARY
  5
1494
330
6AD
100
AcDbDictionary
280
     1
281
     1
  3
ACAD_XREC_ROUNDTRIP
360
1495
  0
DICTIONARY
  5
1480
330
A7
100
AcDbDictionary
280
     1
281
     1
  3
ACAD_XREC_ROUNDTRIP
360
1481
  0
DICTIONARY
  5
1496
330
6AE
100
AcDbDictionary
280
     1
281
     1
  3
ACAD_XREC_ROUNDTRIP
360
1497
  0
DICTIONARY
  5
1478
330
A3
100
AcDbDictionary
280
     1
281
     1
  3
ACAD_XREC_ROUNDTRIP
360
1479
  0
DICTIONARY
  5
1492
330
6AC
100
AcDbDictionary
280
     1
281
     1
  3
ACAD_XREC_ROUNDTRIP
360
1493
  0
DICTIONARY
  5
1490
330
6AB
100
AcDbDictionary
280
     1
281
     1
  3
ACAD_XREC_ROUNDTRIP
360
1491
  0
DICTIONARY
  5
148A
330
6A8
100
AcDbDictionary
280
     1
281
     1
  3
ACAD_XREC_ROUNDTRIP
360
148B
  0
DICTIONARY
  5
148C
330
6A9
100
AcDbDictionary
280
     1
281
     1
  3
ACAD_XREC_ROUNDTRIP
360
148D
  0
DICTIONARY
  5
147E
330
A6
100
AcDbDictionary
280
     1
281
     1
  3
ACAD_XREC_ROUNDTRIP
360
147F
  0
DICTIONARY
  5
1486
330
6A6
100
AcDbDictionary
280
     1
281
     1
  3
ACAD_XREC_ROUNDTRIP
360
1487
  0
DICTIONARY
  5
148E
330
6AA
100
AcDbDictionary
280
     1
281
     1
  3
ACAD_XREC_ROUNDTRIP
360
148F
  0
XRECORD
  5
1460
102
{ACAD_REACTORS
330
145F
102
}
330
145F
100
AcDbXrecord
280
     1
102
SHADEPLOT
 70
     0
102
SHADEPLOTRESLEVEL
 70
     2
102
SHADEPLOTCUSTOMDPI
 70
   300
  0
XRECORD
  5
1462
102
{ACAD_REACTORS
330
1461
102
}
330
1461
100
AcDbXrecord
280
     1
102
SHADEPLOT
 70
     0
102
SHADEPLOTRESLEVEL
 70
     2
102
SHADEPLOTCUSTOMDPI
 70
   300
  0
XRECORD
  5
1464
102
{ACAD_REACTORS
330
1463
102
}
330
1463
100
AcDbXrecord
280
     1
102
SHADEPLOT
 70
     0
102
SHADEPLOTRESLEVEL
 70
     2
102
SHADEPLOTCUSTOMDPI
 70
   300
  0
XRECORD
  5
69D
102
{ACAD_REACTORS
330
69C
102
}
330
69C
100
AcDbXrecord
280
     1
102
MATERIAL
148
0.0
149
0.0
149
0.0
 93
        0
 94
      127
282
     0
 72
     1
 77
     1
171
     1
175
     1
179
     1
273
     0
  0
XRECORD
  5
69B
102
{ACAD_REACTORS
330
69A
102
}
330
69A
100
AcDbXrecord
280
     1
102
MATERIAL
148
0.0
149
0.0
149
0.0
 93
        0
 94
      127
282
     0
 72
     1
 77
     1
171
     1
175
     1
179
     1
273
     0
  0
XRECORD
  5
69F
102
{ACAD_REACTORS
330
69E
102
}
330
69E
100
AcDbXrecord
280
     1
102
MATERIAL
148
0.0
149
0.0
149
0.0
 93
        0
 94
      127
282
     0
 72
     1
 77
     1
171
     1
175
     1
179
     1
273
     0
  0
CELLSTYLEMAP
  5
1457
102
{ACAD_REACTORS
330
AF8
102
}
330
AF8
100
AcDbCellStyleMap
 90
        3
300
CELLSTYLE
  1
TABLEFORMAT_BEGIN
 90
        5
170
     1
 91
        0
 92
    32768
 62
   257
 93
        1
300
CONTENTFORMAT
  1
CONTENTFORMAT_BEGIN
 90
        0
 91
        0
 92
      512
 93
        0
300

 40
0.0
140
1.0
 94
        5
 62
     0
340
11
144
0.25
309
CONTENTFORMAT_END
171
     1
301
MARGIN
  1
CELLMARGIN_BEGIN
 40
0.06
 40
0.06
 40
0.06
 40
0.06
 40
0.18
 40
0.18
309
CELLMARGIN_END
 94
        6
 95
        1
302
GRIDFORMAT
  1
GRIDFORMAT_BEGIN
 90
        0
 91
        1
 62
     0
 92
       -2
340
0
 93
        0
 40
0.045
309
GRIDFORMAT_END
 95
        2
302
GRIDFORMAT
  1
GRIDFORMAT_BEGIN
 90
        0
 91
        1
 62
     0
 92
       -2
340
0
 93
        0
 40
0.045
309
GRIDFORMAT_END
 95
        4
302
GRIDFORMAT
  1
GRIDFORMAT_BEGIN
 90
        0
 91
        1
 62
     0
 92
       -2
340
0
 93
        0
 40
0.045
309
GRIDFORMAT_END
 95
        8
302
GRIDFORMAT
  1
GRIDFORMAT_BEGIN
 90
        0
 91
        1
 62
     0
 92
       -2
340
0
 93
        0
 40
0.045
309
GRIDFORMAT_END
 95
       16
302
GRIDFORMAT
  1
GRIDFORMAT_BEGIN
 90
        0
 91
        1
 62
     0
 92
       -2
340
0
 93
        0
 40
0.045
309
GRIDFORMAT_END
 95
       32
302
GRIDFORMAT
  1
GRIDFORMAT_BEGIN
 90
        0
 91
        1
 62
     0
 92
       -2
340
0
 93
        0
 40
0.045
309
GRIDFORMAT_END
309
TABLEFORMAT_END
  1
CELLSTYLE_BEGIN
 90
        1
 91
        1
300
_TITLE
309
CELLSTYLE_END
300
CELLSTYLE
  1
TABLEFORMAT_BEGIN
 90
        5
170
     1
 91
        0
 92
        0
 62
   257
 93
        1
300
CONTENTFORMAT
  1
CONTENTFORMAT_BEGIN
 90
        0
 91
        0
 92
      512
 93
        0
300

 40
0.0
140
1.0
 94
        5
 62
     0
340
11
144
0.18
309
CONTENTFORMAT_END
171
     1
301
MARGIN
  1
CELLMARGIN_BEGIN
 40
0.06
 40
0.06
 40
0.06
 40
0.06
 40
0.18
 40
0.18
309
CELLMARGIN_END
 94
        6
 95
        1
302
GRIDFORMAT
  1
GRIDFORMAT_BEGIN
 90
        0
 91
        1
 62
     0
 92
       -2
340
0
 93
        0
 40
0.045
309
GRIDFORMAT_END
 95
        2
302
GRIDFORMAT
  1
GRIDFORMAT_BEGIN
 90
        0
 91
        1
 62
     0
 92
       -2
340
0
 93
        0
 40
0.045
309
GRIDFORMAT_END
 95
        4
302
GRIDFORMAT
  1
GRIDFORMAT_BEGIN
 90
        0
 91
        1
 62
     0
 92
       -2
340
0
 93
        0
 40
0.045
309
GRIDFORMAT_END
 95
        8
302
GRIDFORMAT
  1
GRIDFORMAT_BEGIN
 90
        0
 91
        1
 62
     0
 92
       -2
340
0
 93
        0
 40
0.045
309
GRIDFORMAT_END
 95
       16
302
GRIDFORMAT
  1
GRIDFORMAT_BEGIN
 90
        0
 91
        1
 62
     0
 92
       -2
340
0
 93
        0
 40
0.045
309
GRIDFORMAT_END
 95
       32
302
GRIDFORMAT
  1
GRIDFORMAT_BEGIN
 90
        0
 91
        1
 62
     0
 92
       -2
340
0
 93
        0
 40
0.045
309
GRIDFORMAT_END
309
TABLEFORMAT_END
  1
CELLSTYLE_BEGIN
 90
        2
 91
        1
300
_HEADER
309
CELLSTYLE_END
300
CELLSTYLE
  1
TABLEFORMAT_BEGIN
 90
        5
170
     1
 91
        0
 92
        0
 62
   257
 93
        1
300
CONTENTFORMAT
  1
CONTENTFORMAT_BEGIN
 90
        0
 91
        0
 92
      512
 93
        0
300

 40
0.0
140
1.0
 94
        2
 62
     0
340
11
144
0.18
309
CONTENTFORMAT_END
171
     1
301
MARGIN
  1
CELLMARGIN_BEGIN
 40
0.06
 40
0.06
 40
0.06
 40
0.06
 40
0.18
 40
0.18
309
CELLMARGIN_END
 94
        6
 95
        1
302
GRIDFORMAT
  1
GRIDFORMAT_BEGIN
 90
        0
 91
        1
 62
     0
 92
       -2
340
0
 93
        0
 40
0.045
309
GRIDFORMAT_END
 95
        2
302
GRIDFORMAT
  1
GRIDFORMAT_BEGIN
 90
        0
 91
        1
 62
     0
 92
       -2
340
0
 93
        0
 40
0.045
309
GRIDFORMAT_END
 95
        4
302
GRIDFORMAT
  1
GRIDFORMAT_BEGIN
 90
        0
 91
        1
 62
     0
 92
       -2
340
0
 93
        0
 40
0.045
309
GRIDFORMAT_END
 95
        8
302
GRIDFORMAT
  1
GRIDFORMAT_BEGIN
 90
        0
 91
        1
 62
     0
 92
       -2
340
0
 93
        0
 40
0.045
309
GRIDFORMAT_END
 95
       16
302
GRIDFORMAT
  1
GRIDFORMAT_BEGIN
 90
        0
 91
        1
 62
     0
 92
       -2
340
0
 93
        0
 40
0.045
309
GRIDFORMAT_END
 95
       32
302
GRIDFORMAT
  1
GRIDFORMAT_BEGIN
 90
        0
 91
        1
 62
     0
 92
       -2
340
0
 93
        0
 40
0.045
309
GRIDFORMAT_END
309
TABLEFORMAT_END
  1
CELLSTYLE_BEGIN
 90
        3
 91
        2
300
_DATA
309
CELLSTYLE_END
  0
XRECORD
  5
1465
102
{ACAD_REACTORS
330
AF8
102
}
330
AF8
100
AcDbXrecord
280
     1
102
ACAD_ROUNDTRIP_PRE2007_TABLESTYLE
 90
      512
 91
        0
  1

 92
      512
 93
        0
  2

 94
      512
 95
        0
  3

  0
CELLSTYLEMAP
  5
1458
102
{ACAD_REACTORS
330
1213
102
}
330
1213
100
AcDbCellStyleMap
 90
        3
300
CELLSTYLE
  1
TABLEFORMAT_BEGIN
 90
        5
170
     1
 91
        0
 92
    32768
 62
   257
 93
        1
300
CONTENTFORMAT
  1
CONTENTFORMAT_BEGIN
 90
        0
 91
        0
 92
      512
 93
        0
300

 40
0.0
140
1.0
 94
        8
 62
     3
340
11D
144
0.25
309
CONTENTFORMAT_END
171
     1
301
MARGIN
  1
CELLMARGIN_BEGIN
 40
0.5
 40
10.0
 40
0.06
 40
0.06
 40
0.18
 40
0.18
309
CELLMARGIN_END
 94
        6
 95
        1
302
GRIDFORMAT
  1
GRIDFORMAT_BEGIN
 90
        0
 91
        1
 62
     0
 92
       -2
340
0
 93
        0
 40
0.045
309
GRIDFORMAT_END
 95
        2
302
GRIDFORMAT
  1
GRIDFORMAT_BEGIN
 90
        0
 91
        1
 62
     0
 92
       -2
340
0
 93
        0
 40
0.045
309
GRIDFORMAT_END
 95
        4
302
GRIDFORMAT
  1
GRIDFORMAT_BEGIN
 90
        0
 91
        1
 62
     0
 92
       -2
340
0
 93
        0
 40
0.045
309
GRIDFORMAT_END
 95
        8
302
GRIDFORMAT
  1
GRIDFORMAT_BEGIN
 90
        0
 91
        1
 62
     0
 92
       -2
340
0
 93
        0
 40
0.045
309
GRIDFORMAT_END
 95
       16
302
GRIDFORMAT
  1
GRIDFORMAT_BEGIN
 90
        0
 91
        1
 62
     0
 92
       -2
340
0
 93
        0
 40
0.045
309
GRIDFORMAT_END
 95
       32
302
GRIDFORMAT
  1
GRIDFORMAT_BEGIN
 90
        0
 91
        1
 62
     0
 92
       -2
340
0
 93
        0
 40
0.045
309
GRIDFORMAT_END
309
TABLEFORMAT_END
  1
CELLSTYLE_BEGIN
 90
        1
 91
        1
300
_TITLE
309
CELLSTYLE_END
300
CELLSTYLE
  1
TABLEFORMAT_BEGIN
 90
        5
170
     1
 91
        0
 92
        0
 62
   257
 93
        1
300
CONTENTFORMAT
  1
CONTENTFORMAT_BEGIN
 90
        0
 91
        0
 92
      512
 93
        0
300

 40
0.0
140
1.0
 94
        7
 62
     3
340
11D
144
0.18
309
CONTENTFORMAT_END
171
     1
301
MARGIN
  1
CELLMARGIN_BEGIN
 40
0.5
 40
1.5
 40
0.06
 40
0.06
 40
0.18
 40
0.18
309
CELLMARGIN_END
 94
        6
 95
        1
302
GRIDFORMAT
  1
GRIDFORMAT_BEGIN
 90
        0
 91
        1
 62
     3
 92
       -2
340
14
 93
        0
 40
0.045
309
GRIDFORMAT_END
 95
        2
302
GRIDFORMAT
  1
GRIDFORMAT_BEGIN
 90
        0
 91
        1
 62
     7
 92
       -2
340
14
 93
        0
 40
0.045
309
GRIDFORMAT_END
 95
        4
302
GRIDFORMAT
  1
GRIDFORMAT_BEGIN
 90
        0
 91
        1
 62
     3
 92
       -2
340
14
 93
        0
 40
0.045
309
GRIDFORMAT_END
 95
        8
302
GRIDFORMAT
  1
GRIDFORMAT_BEGIN
 90
        0
 91
        1
 62
     3
 92
       -2
340
14
 93
        0
 40
0.045
309
GRIDFORMAT_END
 95
       16
302
GRIDFORMAT
  1
GRIDFORMAT_BEGIN
 90
        0
 91
        1
 62
     7
 92
       -2
340
14
 93
        0
 40
0.045
309
GRIDFORMAT_END
 95
       32
302
GRIDFORMAT
  1
GRIDFORMAT_BEGIN
 90
        0
 91
        1
 62
     3
 92
       -2
340
14
 93
        0
 40
0.045
309
GRIDFORMAT_END
309
TABLEFORMAT_END
  1
CELLSTYLE_BEGIN
 90
        2
 91
        1
300
_HEADER
309
CELLSTYLE_END
300
CELLSTYLE
  1
TABLEFORMAT_BEGIN
 90
        5
170
     1
 91
        0
 92
        0
 62
   257
 93
        1
300
CONTENTFORMAT
  1
CONTENTFORMAT_BEGIN
 90
        0
 91
        0
 92
      512
 93
        0
300

 40
0.0
140
1.0
 94
        7
 62
     3
340
11D
144
0.18
309
CONTENTFORMAT_END
171
     1
301
MARGIN
  1
CELLMARGIN_BEGIN
 40
0.5
 40
1.5
 40
0.06
 40
0.06
 40
0.18
 40
0.18
309
CELLMARGIN_END
 94
        6
 95
        1
302
GRIDFORMAT
  1
GRIDFORMAT_BEGIN
 90
        0
 91
        1
 62
     3
 92
       -2
340
14
 93
        0
 40
0.045
309
GRIDFORMAT_END
 95
        2
302
GRIDFORMAT
  1
GRIDFORMAT_BEGIN
 90
        0
 91
        1
 62
     7
 92
       -2
340
14
 93
        0
 40
0.045
309
GRIDFORMAT_END
 95
        4
302
GRIDFORMAT
  1
GRIDFORMAT_BEGIN
 90
        0
 91
        1
 62
     3
 92
       -2
340
14
 93
        0
 40
0.045
309
GRIDFORMAT_END
 95
        8
302
GRIDFORMAT
  1
GRIDFORMAT_BEGIN
 90
        0
 91
        1
 62
     3
 92
       -2
340
14
 93
        0
 40
0.045
309
GRIDFORMAT_END
 95
       16
302
GRIDFORMAT
  1
GRIDFORMAT_BEGIN
 90
        0
 91
        1
 62
     7
 92
       -2
340
14
 93
        0
 40
0.045
309
GRIDFORMAT_END
 95
       32
302
GRIDFORMAT
  1
GRIDFORMAT_BEGIN
 90
        0
 91
        1
 62
     3
 92
       -2
340
14
 93
        0
 40
0.045
309
GRIDFORMAT_END
309
TABLEFORMAT_END
  1
CELLSTYLE_BEGIN
 90
        3
 91
        2
300
_DATA
309
CELLSTYLE_END
  0
XRECORD
  5
149A
102
{ACAD_REACTORS
330
1213
102
}
330
1213
100
AcDbXrecord
280
     1
102
ACAD_ROUNDTRIP_PRE2007_TABLESTYLE
 90
      512
 91
        0
  1

 92
      512
 93
        0
  2

 94
      512
 95
        0
  3

  0
XRECORD
  5
1471
102
{ACAD_REACTORS
330
1470
102
}
330
1470
100
AcDbXrecord
280
     1
102
RTVSPropertyOp0
 70
     1
102
RTVSPropertyOp1
 70
     1
102
RTVSPropertyOp2
 70
     1
102
RTVSPropertyOp3
 70
     1
102
RTVSPropertyOp4
 70
     1
102
RTVSPropertyOp5
 70
     1
102
RTVSPropertyOp6
 70
     1
102
RTVSPropertyOp7
 70
     1
102
RTVSPropertyOp8
 70
     1
102
RTVSPropertyOp9
 70
     1
102
RTVSPropertyOp10
 70
     1
102
RTVSPropertyOp11
 70
     1
102
RTVSPropertyOp12
 70
     1
102
RTVSPropertyOp13
 70
     1
102
RTVSPropertyOp14
 70
     1
102
RTVSPropertyOp15
 70
     1
102
RTVSPropertyOp16
 70
     1
102
RTVSPropertyOp17
 70
     1
102
RTVSPropertyOp18
 70
     1
102
RTVSPropertyOp19
 70
     1
102
RTVSPropertyOp20
 70
     1
102
RTVSPropertyOp21
 70
     1
102
RTVSPropertyOp22
 70
     1
102
RTVSPropertyOp23
 70
     1
102
RTVSPropertyOp24
 70
     1
102
RTVSPropertyOp25
 70
     1
102
RTVSPropertyOp26
 70
     1
102
RTVSPropertyOp27
 70
     1
102
RTVSPropertyOp28
 70
     1
102
RTVSPropertyOp29
 70
     1
102
RTVSPropertyOp30
 70
     1
102
RTVSPropertyOp31
 70
     1
102
RTVSPropertyOp32
 70
     1
  0
XRECORD
  5
1475
102
{ACAD_REACTORS
330
1474
102
}
330
1474
100
AcDbXrecord
280
     1
102
RTVSPropertyOp0
 70
     1
102
RTVSPropertyOp1
 70
     1
102
RTVSPropertyOp2
 70
     1
102
RTVSPropertyOp3
 70
     1
102
RTVSPropertyOp4
 70
     1
102
RTVSPropertyOp5
 70
     1
102
RTVSPropertyOp6
 70
     1
102
RTVSPropertyOp7
 70
     1
102
RTVSPropertyOp8
 70
     1
102
RTVSPropertyOp9
 70
     1
102
RTVSPropertyOp10
 70
     1
102
RTVSPropertyOp11
 70
     1
102
RTVSPropertyOp12
 70
     1
102
RTVSPropertyOp13
 70
     1
102
RTVSPropertyOp14
 70
     1
102
RTVSPropertyOp15
 70
     1
102
RTVSPropertyOp16
 70
     1
102
RTVSPropertyOp17
 70
     1
102
RTVSPropertyOp18
 70
     1
102
RTVSPropertyOp19
 70
     1
102
RTVSPropertyOp20
 70
     1
102
RTVSPropertyOp21
 70
     1
102
RTVSPropertyOp22
 70
     1
102
RTVSPropertyOp23
 70
     1
102
RTVSPropertyOp24
 70
     1
102
RTVSPropertyOp25
 70
     1
102
RTVSPropertyOp26
 70
     1
102
RTVSPropertyOp27
 70
     1
102
RTVSPropertyOp28
 70
     1
102
RTVSPropertyOp29
 70
     1
102
RTVSPropertyOp30
 70
     1
102
RTVSPropertyOp31
 70
     1
102
RTVSPropertyOp32
 70
     1
  0
XRECORD
  5
1473
102
{ACAD_REACTORS
330
1472
102
}
330
1472
100
AcDbXrecord
280
     1
102
RTVSPropertyOp0
 70
     1
102
RTVSPropertyOp1
 70
     1
102
RTVSPropertyOp2
 70
     1
102
RTVSPropertyOp3
 70
     1
102
RTVSPropertyOp4
 70
     1
102
RTVSPropertyOp5
 70
     1
102
RTVSPropertyOp6
 70
     1
102
RTVSPropertyOp7
 70
     1
102
RTVSPropertyOp8
 70
     1
102
RTVSPropertyOp9
 70
     1
102
RTVSPropertyOp10
 70
     1
102
RTVSPropertyOp11
 70
     1
102
RTVSPropertyOp12
 70
     1
102
RTVSPropertyOp13
 70
     1
102
RTVSPropertyOp14
 70
     1
102
RTVSPropertyOp15
 70
     1
102
RTVSPropertyOp16
 70
     1
102
RTVSPropertyOp17
 70
     1
102
RTVSPropertyOp18
 70
     1
102
RTVSPropertyOp19
 70
     1
102
RTVSPropertyOp20
 70
     1
102
RTVSPropertyOp21
 70
     1
102
RTVSPropertyOp22
 70
     1
102
RTVSPropertyOp23
 70
     1
102
RTVSPropertyOp24
 70
     1
102
RTVSPropertyOp25
 70
     1
102
RTVSPropertyOp26
 70
     1
102
RTVSPropertyOp27
 70
     1
102
RTVSPropertyOp28
 70
     1
102
RTVSPropertyOp29
 70
     1
102
RTVSPropertyOp30
 70
     1
102
RTVSPropertyOp31
 70
     1
102
RTVSPropertyOp32
 70
     1
  0
XRECORD
  5
146F
102
{ACAD_REACTORS
330
146E
102
}
330
146E
100
AcDbXrecord
280
     1
102
RTVSPropertyOp0
 70
     1
102
RTVSPropertyOp1
 70
     1
102
RTVSPropertyOp2
 70
     1
102
RTVSPropertyOp3
 70
     1
102
RTVSPropertyOp4
 70
     1
102
RTVSPropertyOp5
 70
     1
102
RTVSPropertyOp6
 70
     1
102
RTVSPropertyOp7
 70
     1
102
RTVSPropertyOp8
 70
     1
102
RTVSPropertyOp9
 70
     1
102
RTVSPropertyOp10
 70
     1
102
RTVSPropertyOp11
 70
     1
102
RTVSPropertyOp12
 70
     1
102
RTVSPropertyOp13
 70
     1
102
RTVSPropertyOp14
 70
     1
102
RTVSPropertyOp15
 70
     1
102
RTVSPropertyOp16
 70
     1
102
RTVSPropertyOp17
 70
     1
102
RTVSPropertyOp18
 70
     1
102
RTVSPropertyOp19
 70
     1
102
RTVSPropertyOp20
 70
     1
102
RTVSPropertyOp21
 70
     1
102
RTVSPropertyOp22
 70
     1
102
RTVSPropertyOp23
 70
     1
102
RTVSPropertyOp24
 70
     1
102
RTVSPropertyOp25
 70
     1
102
RTVSPropertyOp26
 70
     1
102
RTVSPropertyOp27
 70
     1
102
RTVSPropertyOp28
 70
     1
102
RTVSPropertyOp29
 70
     1
102
RTVSPropertyOp30
 70
     1
102
RTVSPropertyOp31
 70
     1
102
RTVSPropertyOp32
 70
     1
  0
XRECORD
  5
147D
102
{ACAD_REACTORS
330
147C
102
}
330
147C
100
AcDbXrecord
280
     1
102
RTVSPropertyOp0
 70
     1
102
RTVSPropertyOp1
 70
     1
102
RTVSPropertyOp2
 70
     1
102
RTVSPropertyOp3
 70
     1
102
RTVSPropertyOp4
 70
     1
102
RTVSPropertyOp5
 70
     1
102
RTVSPropertyOp6
 70
     1
102
RTVSPropertyOp7
 70
     1
102
RTVSPropertyOp8
 70
     1
102
RTVSPropertyOp9
 70
     1
102
RTVSPropertyOp10
 70
     1
102
RTVSPropertyOp11
 70
     1
102
RTVSPropertyOp12
 70
     1
102
RTVSPropertyOp13
 70
     1
102
RTVSPropertyOp14
 70
     1
102
RTVSPropertyOp15
 70
     1
102
RTVSPropertyOp16
 70
     1
102
RTVSPropertyOp17
 70
     1
102
RTVSPropertyOp18
 70
     1
102
RTVSPropertyOp19
 70
     1
102
RTVSPropertyOp20
 70
     1
102
RTVSPropertyOp21
 70
     1
102
RTVSPropertyOp22
 70
     1
102
RTVSPropertyOp23
 70
     1
102
RTVSPropertyOp24
 70
     1
102
RTVSPropertyOp25
 70
     1
102
RTVSPropertyOp26
 70
     1
102
RTVSPropertyOp27
 70
     1
102
RTVSPropertyOp28
 70
     1
102
RTVSPropertyOp29
 70
     1
102
RTVSPropertyOp30
 70
     1
102
RTVSPropertyOp31
 70
     1
102
RTVSPropertyOp32
 70
     1
  0
XRECORD
  5
1485
102
{ACAD_REACTORS
330
1484
102
}
330
1484
100
AcDbXrecord
280
     1
102
RTVSPropertyOp0
 70
     1
102
RTVSPropertyOp1
 70
     1
102
RTVSPropertyOp2
 70
     1
102
RTVSPropertyOp3
 70
     1
102
RTVSPropertyOp4
 70
     1
102
RTVSPropertyOp5
 70
     1
102
RTVSPropertyOp6
 70
     1
102
RTVSPropertyOp7
 70
     1
102
RTVSPropertyOp8
 70
     1
102
RTVSPropertyOp9
 70
     1
102
RTVSPropertyOp10
 70
     1
102
RTVSPropertyOp11
 70
     1
102
RTVSPropertyOp12
 70
     1
102
RTVSPropertyOp13
 70
     1
102
RTVSPropertyOp14
 70
     1
102
RTVSPropertyOp15
 70
     1
102
RTVSPropertyOp16
 70
     1
102
RTVSPropertyOp17
 70
     1
102
RTVSPropertyOp18
 70
     1
102
RTVSPropertyOp19
 70
     1
102
RTVSPropertyOp20
 70
     1
102
RTVSPropertyOp21
 70
     1
102
RTVSPropertyOp22
 70
     1
102
RTVSPropertyOp23
 70
     1
102
RTVSPropertyOp24
 70
     1
102
RTVSPropertyOp25
 70
     1
102
RTVSPropertyOp26
 70
     1
102
RTVSPropertyOp27
 70
     1
102
RTVSPropertyOp28
 70
     1
102
RTVSPropertyOp29
 70
     1
102
RTVSPropertyOp30
 70
     1
102
RTVSPropertyOp31
 70
     1
102
RTVSPropertyOp32
 70
     1
  0
XRECORD
  5
1477
102
{ACAD_REACTORS
330
1476
102
}
330
1476
100
AcDbXrecord
280
     1
102
RTVSPropertyOp0
 70
     1
102
RTVSPropertyOp1
 70
     1
102
RTVSPropertyOp2
 70
     1
102
RTVSPropertyOp3
 70
     1
102
RTVSPropertyOp4
 70
     1
102
RTVSPropertyOp5
 70
     1
102
RTVSPropertyOp6
 70
     1
102
RTVSPropertyOp7
 70
     1
102
RTVSPropertyOp8
 70
     1
102
RTVSPropertyOp9
 70
     1
102
RTVSPropertyOp10
 70
     1
102
RTVSPropertyOp11
 70
     1
102
RTVSPropertyOp12
 70
     1
102
RTVSPropertyOp13
 70
     1
102
RTVSPropertyOp14
 70
     1
102
RTVSPropertyOp15
 70
     1
102
RTVSPropertyOp16
 70
     1
102
RTVSPropertyOp17
 70
     1
102
RTVSPropertyOp18
 70
     1
102
RTVSPropertyOp19
 70
     1
102
RTVSPropertyOp20
 70
     1
102
RTVSPropertyOp21
 70
     1
102
RTVSPropertyOp22
 70
     1
102
RTVSPropertyOp23
 70
     1
102
RTVSPropertyOp24
 70
     1
102
RTVSPropertyOp25
 70
     1
102
RTVSPropertyOp26
 70
     1
102
RTVSPropertyOp27
 70
     1
102
RTVSPropertyOp28
 70
     1
102
RTVSPropertyOp29
 70
     1
102
RTVSPropertyOp30
 70
     1
102
RTVSPropertyOp31
 70
     1
102
RTVSPropertyOp32
 70
     1
  0
XRECORD
  5
147B
102
{ACAD_REACTORS
330
147A
102
}
330
147A
100
AcDbXrecord
280
     1
102
RTVSPropertyOp0
 70
     1
102
RTVSPropertyOp1
 70
     1
102
RTVSPropertyOp2
 70
     1
102
RTVSPropertyOp3
 70
     1
102
RTVSPropertyOp4
 70
     1
102
RTVSPropertyOp5
 70
     1
102
RTVSPropertyOp6
 70
     1
102
RTVSPropertyOp7
 70
     1
102
RTVSPropertyOp8
 70
     1
102
RTVSPropertyOp9
 70
     1
102
RTVSPropertyOp10
 70
     1
102
RTVSPropertyOp11
 70
     1
102
RTVSPropertyOp12
 70
     1
102
RTVSPropertyOp13
 70
     1
102
RTVSPropertyOp14
 70
     1
102
RTVSPropertyOp15
 70
     1
102
RTVSPropertyOp16
 70
     1
102
RTVSPropertyOp17
 70
     1
102
RTVSPropertyOp18
 70
     1
102
RTVSPropertyOp19
 70
     1
102
RTVSPropertyOp20
 70
     1
102
RTVSPropertyOp21
 70
     1
102
RTVSPropertyOp22
 70
     1
102
RTVSPropertyOp23
 70
     1
102
RTVSPropertyOp24
 70
     1
102
RTVSPropertyOp25
 70
     1
102
RTVSPropertyOp26
 70
     1
102
RTVSPropertyOp27
 70
     1
102
RTVSPropertyOp28
 70
     1
102
RTVSPropertyOp29
 70
     1
102
RTVSPropertyOp30
 70
     1
102
RTVSPropertyOp31
 70
     1
102
RTVSPropertyOp32
 70
     1
  0
XRECORD
  5
1499
102
{ACAD_REACTORS
330
1498
102
}
330
1498
100
AcDbXrecord
280
     1
102
RTVSPropertyOp0
 70
     0
102
RTVSPropertyOp1
 70
     0
102
RTVSPropertyOp2
 70
     0
102
RTVSPropertyOp3
 70
     0
102
RTVSPropertyOp4
 70
     0
102
RTVSPropertyOp5
 70
     0
102
RTVSPropertyOp6
 70
     0
102
RTVSPropertyOp7
 70
     0
102
RTVSPropertyOp8
 70
     0
102
RTVSPropertyOp9
 70
     0
102
RTVSPropertyOp10
 70
     0
102
RTVSPropertyOp11
 70
     0
102
RTVSPropertyOp12
 70
     0
102
RTVSPropertyOp13
 70
     0
102
RTVSPropertyOp14
 70
     2
102
RTVSPropertyOp15
 70
     0
102
RTVSPropertyOp16
 70
     0
102
RTVSPropertyOp17
 70
     0
102
RTVSPropertyOp18
 70
     0
102
RTVSPropertyOp19
 70
     0
102
RTVSPropertyOp20
 70
     0
102
RTVSPropertyOp21
 70
     0
102
RTVSPropertyOp22
 70
     0
102
RTVSPropertyOp23
 70
     0
102
RTVSPropertyOp24
 70
     0
102
RTVSPropertyOp25
 70
     0
102
RTVSPropertyOp26
 70
     0
102
RTVSPropertyOp27
 70
     0
102
RTVSPropertyOp28
 70
     0
102
RTVSPropertyOp29
 70
     0
102
RTVSPropertyOp30
 70
     0
102
RTVSPropertyOp31
 70
     0
102
RTVSPropertyOp32
 70
     0
  0
XRECORD
  5
1483
102
{ACAD_REACTORS
330
1482
102
}
330
1482
100
AcDbXrecord
280
     1
102
RTVSPropertyOp0
 70
     1
102
RTVSPropertyOp1
 70
     1
102
RTVSPropertyOp2
 70
     1
102
RTVSPropertyOp3
 70
     1
102
RTVSPropertyOp4
 70
     1
102
RTVSPropertyOp5
 70
     1
102
RTVSPropertyOp6
 70
     1
102
RTVSPropertyOp7
 70
     1
102
RTVSPropertyOp8
 70
     1
102
RTVSPropertyOp9
 70
     1
102
RTVSPropertyOp10
 70
     1
102
RTVSPropertyOp11
 70
     1
102
RTVSPropertyOp12
 70
     1
102
RTVSPropertyOp13
 70
     1
102
RTVSPropertyOp14
 70
     1
102
RTVSPropertyOp15
 70
     1
102
RTVSPropertyOp16
 70
     1
102
RTVSPropertyOp17
 70
     1
102
RTVSPropertyOp18
 70
     1
102
RTVSPropertyOp19
 70
     1
102
RTVSPropertyOp20
 70
     1
102
RTVSPropertyOp21
 70
     1
102
RTVSPropertyOp22
 70
     1
102
RTVSPropertyOp23
 70
     1
102
RTVSPropertyOp24
 70
     1
102
RTVSPropertyOp25
 70
     1
102
RTVSPropertyOp26
 70
     1
102
RTVSPropertyOp27
 70
     1
102
RTVSPropertyOp28
 70
     1
102
RTVSPropertyOp29
 70
     1
102
RTVSPropertyOp30
 70
     1
102
RTVSPropertyOp31
 70
     1
102
RTVSPropertyOp32
 70
     1
  0
XRECORD
  5
1467
102
{ACAD_REACTORS
330
1466
102
}
330
1466
100
AcDbXrecord
280
     1
102
RTVSPropertyOp0
 70
     1
102
RTVSPropertyOp1
 70
     1
102
RTVSPropertyOp2
 70
     1
102
RTVSPropertyOp3
 70
     1
102
RTVSPropertyOp4
 70
     1
102
RTVSPropertyOp5
 70
     1
102
RTVSPropertyOp6
 70
     1
102
RTVSPropertyOp7
 70
     1
102
RTVSPropertyOp8
 70
     1
102
RTVSPropertyOp9
 70
     1
102
RTVSPropertyOp10
 70
     1
102
RTVSPropertyOp11
 70
     1
102
RTVSPropertyOp12
 70
     1
102
RTVSPropertyOp13
 70
     1
102
RTVSPropertyOp14
 70
     1
102
RTVSPropertyOp15
 70
     1
102
RTVSPropertyOp16
 70
     1
102
RTVSPropertyOp17
 70
     1
102
RTVSPropertyOp18
 70
     1
102
RTVSPropertyOp19
 70
     1
102
RTVSPropertyOp20
 70
     1
102
RTVSPropertyOp21
 70
     1
102
RTVSPropertyOp22
 70
     1
102
RTVSPropertyOp23
 70
     1
102
RTVSPropertyOp24
 70
     1
102
RTVSPropertyOp25
 70
     1
102
RTVSPropertyOp26
 70
     1
102
RTVSPropertyOp27
 70
     1
102
RTVSPropertyOp28
 70
     1
102
RTVSPropertyOp29
 70
     1
102
RTVSPropertyOp30
 70
     1
102
RTVSPropertyOp31
 70
     1
102
RTVSPropertyOp32
 70
     1
  0
XRECORD
  5
1469
102
{ACAD_REACTORS
330
1468
102
}
330
1468
100
AcDbXrecord
280
     1
102
RTVSPropertyOp0
 70
     1
102
RTVSPropertyOp1
 70
     1
102
RTVSPropertyOp2
 70
     1
102
RTVSPropertyOp3
 70
     1
102
RTVSPropertyOp4
 70
     1
102
RTVSPropertyOp5
 70
     1
102
RTVSPropertyOp6
 70
     1
102
RTVSPropertyOp7
 70
     1
102
RTVSPropertyOp8
 70
     1
102
RTVSPropertyOp9
 70
     1
102
RTVSPropertyOp10
 70
     1
102
RTVSPropertyOp11
 70
     1
102
RTVSPropertyOp12
 70
     1
102
RTVSPropertyOp13
 70
     1
102
RTVSPropertyOp14
 70
     1
102
RTVSPropertyOp15
 70
     1
102
RTVSPropertyOp16
 70
     1
102
RTVSPropertyOp17
 70
     1
102
RTVSPropertyOp18
 70
     1
102
RTVSPropertyOp19
 70
     1
102
RTVSPropertyOp20
 70
     1
102
RTVSPropertyOp21
 70
     1
102
RTVSPropertyOp22
 70
     1
102
RTVSPropertyOp23
 70
     1
102
RTVSPropertyOp24
 70
     1
102
RTVSPropertyOp25
 70
     1
102
RTVSPropertyOp26
 70
     1
102
RTVSPropertyOp27
 70
     1
102
RTVSPropertyOp28
 70
     1
102
RTVSPropertyOp29
 70
     1
102
RTVSPropertyOp30
 70
     1
102
RTVSPropertyOp31
 70
     1
102
RTVSPropertyOp32
 70
     1
  0
XRECORD
  5
146B
102
{ACAD_REACTORS
330
146A
102
}
330
146A
100
AcDbXrecord
280
     1
102
RTVSPropertyOp0
 70
     1
102
RTVSPropertyOp1
 70
     1
102
RTVSPropertyOp2
 70
     1
102
RTVSPropertyOp3
 70
     1
102
RTVSPropertyOp4
 70
     1
102
RTVSPropertyOp5
 70
     1
102
RTVSPropertyOp6
 70
     1
102
RTVSPropertyOp7
 70
     1
102
RTVSPropertyOp8
 70
     1
102
RTVSPropertyOp9
 70
     1
102
RTVSPropertyOp10
 70
     1
102
RTVSPropertyOp11
 70
     1
102
RTVSPropertyOp12
 70
     1
102
RTVSPropertyOp13
 70
     1
102
RTVSPropertyOp14
 70
     1
102
RTVSPropertyOp15
 70
     1
102
RTVSPropertyOp16
 70
     1
102
RTVSPropertyOp17
 70
     1
102
RTVSPropertyOp18
 70
     1
102
RTVSPropertyOp19
 70
     1
102
RTVSPropertyOp20
 70
     1
102
RTVSPropertyOp21
 70
     1
102
RTVSPropertyOp22
 70
     1
102
RTVSPropertyOp23
 70
     1
102
RTVSPropertyOp24
 70
     1
102
RTVSPropertyOp25
 70
     1
102
RTVSPropertyOp26
 70
     1
102
RTVSPropertyOp27
 70
     1
102
RTVSPropertyOp28
 70
     1
102
RTVSPropertyOp29
 70
     1
102
RTVSPropertyOp30
 70
     1
102
RTVSPropertyOp31
 70
     1
102
RTVSPropertyOp32
 70
     1
  0
XRECORD
  5
146D
102
{ACAD_REACTORS
330
146C
102
}
330
146C
100
AcDbXrecord
280
     1
102
RTVSPropertyOp0
 70
     1
102
RTVSPropertyOp1
 70
     1
102
RTVSPropertyOp2
 70
     1
102
RTVSPropertyOp3
 70
     1
102
RTVSPropertyOp4
 70
     1
102
RTVSPropertyOp5
 70
     1
102
RTVSPropertyOp6
 70
     1
102
RTVSPropertyOp7
 70
     1
102
RTVSPropertyOp8
 70
     1
102
RTVSPropertyOp9
 70
     1
102
RTVSPropertyOp10
 70
     1
102
RTVSPropertyOp11
 70
     1
102
RTVSPropertyOp12
 70
     1
102
RTVSPropertyOp13
 70
     1
102
RTVSPropertyOp14
 70
     1
102
RTVSPropertyOp15
 70
     1
102
RTVSPropertyOp16
 70
     1
102
RTVSPropertyOp17
 70
     1
102
RTVSPropertyOp18
 70
     1
102
RTVSPropertyOp19
 70
     1
102
RTVSPropertyOp20
 70
     1
102
RTVSPropertyOp21
 70
     1
102
RTVSPropertyOp22
 70
     1
102
RTVSPropertyOp23
 70
     1
102
RTVSPropertyOp24
 70
     1
102
RTVSPropertyOp25
 70
     1
102
RTVSPropertyOp26
 70
     1
102
RTVSPropertyOp27
 70
     1
102
RTVSPropertyOp28
 70
     1
102
RTVSPropertyOp29
 70
     1
102
RTVSPropertyOp30
 70
     1
102
RTVSPropertyOp31
 70
     1
102
RTVSPropertyOp32
 70
     1
  0
XRECORD
  5
1489
102
{ACAD_REACTORS
330
1488
102
}
330
1488
100
AcDbXrecord
280
     1
102
RTVSPropertyOp0
 70
     1
102
RTVSPropertyOp1
 70
     1
102
RTVSPropertyOp2
 70
     1
102
RTVSPropertyOp3
 70
     1
102
RTVSPropertyOp4
 70
     1
102
RTVSPropertyOp5
 70
     1
102
RTVSPropertyOp6
 70
     1
102
RTVSPropertyOp7
 70
     1
102
RTVSPropertyOp8
 70
     1
102
RTVSPropertyOp9
 70
     1
102
RTVSPropertyOp10
 70
     1
102
RTVSPropertyOp11
 70
     1
102
RTVSPropertyOp12
 70
     1
102
RTVSPropertyOp13
 70
     1
102
RTVSPropertyOp14
 70
     1
102
RTVSPropertyOp15
 70
     1
102
RTVSPropertyOp16
 70
     1
102
RTVSPropertyOp17
 70
     1
102
RTVSPropertyOp18
 70
     1
102
RTVSPropertyOp19
 70
     1
102
RTVSPropertyOp20
 70
     1
102
RTVSPropertyOp21
 70
     1
102
RTVSPropertyOp22
 70
     1
102
RTVSPropertyOp23
 70
     1
102
RTVSPropertyOp24
 70
     1
102
RTVSPropertyOp25
 70
     1
102
RTVSPropertyOp26
 70
     1
102
RTVSPropertyOp27
 70
     1
102
RTVSPropertyOp28
 70
     1
102
RTVSPropertyOp29
 70
     1
102
RTVSPropertyOp30
 70
     1
102
RTVSPropertyOp31
 70
     1
102
RTVSPropertyOp32
 70
     1
  0
XRECORD
  5
1495
102
{ACAD_REACTORS
330
1494
102
}
330
1494
100
AcDbXrecord
280
     1
102
RTVSPropertyOp0
 70
     0
102
RTVSPropertyOp1
 70
     0
102
RTVSPropertyOp2
 70
     0
102
RTVSPropertyOp3
 70
     0
102
RTVSPropertyOp4
 70
     0
102
RTVSPropertyOp5
 70
     0
102
RTVSPropertyOp6
 70
     0
102
RTVSPropertyOp7
 70
     0
102
RTVSPropertyOp8
 70
     0
102
RTVSPropertyOp9
 70
     0
102
RTVSPropertyOp10
 70
     0
102
RTVSPropertyOp11
 70
     0
102
RTVSPropertyOp12
 70
     0
102
RTVSPropertyOp13
 70
     0
102
RTVSPropertyOp14
 70
     2
102
RTVSPropertyOp15
 70
     0
102
RTVSPropertyOp16
 70
     0
102
RTVSPropertyOp17
 70
     0
102
RTVSPropertyOp18
 70
     0
102
RTVSPropertyOp19
 70
     0
102
RTVSPropertyOp20
 70
     0
102
RTVSPropertyOp21
 70
     0
102
RTVSPropertyOp22
 70
     0
102
RTVSPropertyOp23
 70
     0
102
RTVSPropertyOp24
 70
     0
102
RTVSPropertyOp25
 70
     0
102
RTVSPropertyOp26
 70
     0
102
RTVSPropertyOp27
 70
     0
102
RTVSPropertyOp28
 70
     0
102
RTVSPropertyOp29
 70
     0
102
RTVSPropertyOp30
 70
     0
102
RTVSPropertyOp31
 70
     0
102
RTVSPropertyOp32
 70
     0
  0
XRECORD
  5
1481
102
{ACAD_REACTORS
330
1480
102
}
330
1480
100
AcDbXrecord
280
     1
102
RTVSPropertyOp0
 70
     1
102
RTVSPropertyOp1
 70
     1
102
RTVSPropertyOp2
 70
     1
102
RTVSPropertyOp3
 70
     1
102
RTVSPropertyOp4
 70
     1
102
RTVSPropertyOp5
 70
     1
102
RTVSPropertyOp6
 70
     1
102
RTVSPropertyOp7
 70
     1
102
RTVSPropertyOp8
 70
     1
102
RTVSPropertyOp9
 70
     1
102
RTVSPropertyOp10
 70
     1
102
RTVSPropertyOp11
 70
     1
102
RTVSPropertyOp12
 70
     1
102
RTVSPropertyOp13
 70
     1
102
RTVSPropertyOp14
 70
     1
102
RTVSPropertyOp15
 70
     1
102
RTVSPropertyOp16
 70
     1
102
RTVSPropertyOp17
 70
     1
102
RTVSPropertyOp18
 70
     1
102
RTVSPropertyOp19
 70
     1
102
RTVSPropertyOp20
 70
     1
102
RTVSPropertyOp21
 70
     1
102
RTVSPropertyOp22
 70
     1
102
RTVSPropertyOp23
 70
     1
102
RTVSPropertyOp24
 70
     1
102
RTVSPropertyOp25
 70
     1
102
RTVSPropertyOp26
 70
     1
102
RTVSPropertyOp27
 70
     1
102
RTVSPropertyOp28
 70
     1
102
RTVSPropertyOp29
 70
     1
102
RTVSPropertyOp30
 70
     1
102
RTVSPropertyOp31
 70
     1
102
RTVSPropertyOp32
 70
     1
  0
XRECORD
  5
1497
102
{ACAD_REACTORS
330
1496
102
}
330
1496
100
AcDbXrecord
280
     1
102
RTVSPropertyOp0
 70
     0
102
RTVSPropertyOp1
 70
     0
102
RTVSPropertyOp2
 70
     0
102
RTVSPropertyOp3
 70
     0
102
RTVSPropertyOp4
 70
     0
102
RTVSPropertyOp5
 70
     0
102
RTVSPropertyOp6
 70
     0
102
RTVSPropertyOp7
 70
     0
102
RTVSPropertyOp8
 70
     0
102
RTVSPropertyOp9
 70
     0
102
RTVSPropertyOp10
 70
     0
102
RTVSPropertyOp11
 70
     0
102
RTVSPropertyOp12
 70
     0
102
RTVSPropertyOp13
 70
     0
102
RTVSPropertyOp14
 70
     2
102
RTVSPropertyOp15
 70
     0
102
RTVSPropertyOp16
 70
     0
102
RTVSPropertyOp17
 70
     0
102
RTVSPropertyOp18
 70
     0
102
RTVSPropertyOp19
 70
     0
102
RTVSPropertyOp20
 70
     0
102
RTVSPropertyOp21
 70
     0
102
RTVSPropertyOp22
 70
     0
102
RTVSPropertyOp23
 70
     0
102
RTVSPropertyOp24
 70
     0
102
RTVSPropertyOp25
 70
     0
102
RTVSPropertyOp26
 70
     0
102
RTVSPropertyOp27
 70
     0
102
RTVSPropertyOp28
 70
     0
102
RTVSPropertyOp29
 70
     0
102
RTVSPropertyOp30
 70
     0
102
RTVSPropertyOp31
 70
     0
102
RTVSPropertyOp32
 70
     0
  0
XRECORD
  5
1479
102
{ACAD_REACTORS
330
1478
102
}
330
1478
100
AcDbXrecord
280
     1
102
RTVSPropertyOp0
 70
     1
102
RTVSPropertyOp1
 70
     1
102
RTVSPropertyOp2
 70
     1
102
RTVSPropertyOp3
 70
     1
102
RTVSPropertyOp4
 70
     1
102
RTVSPropertyOp5
 70
     1
102
RTVSPropertyOp6
 70
     1
102
RTVSPropertyOp7
 70
     1
102
RTVSPropertyOp8
 70
     1
102
RTVSPropertyOp9
 70
     1
102
RTVSPropertyOp10
 70
     1
102
RTVSPropertyOp11
 70
     1
102
RTVSPropertyOp12
 70
     1
102
RTVSPropertyOp13
 70
     1
102
RTVSPropertyOp14
 70
     1
102
RTVSPropertyOp15
 70
     1
102
RTVSPropertyOp16
 70
     1
102
RTVSPropertyOp17
 70
     1
102
RTVSPropertyOp18
 70
     1
102
RTVSPropertyOp19
 70
     1
102
RTVSPropertyOp20
 70
     1
102
RTVSPropertyOp21
 70
     1
102
RTVSPropertyOp22
 70
     1
102
RTVSPropertyOp23
 70
     1
102
RTVSPropertyOp24
 70
     1
102
RTVSPropertyOp25
 70
     1
102
RTVSPropertyOp26
 70
     1
102
RTVSPropertyOp27
 70
     1
102
RTVSPropertyOp28
 70
     1
102
RTVSPropertyOp29
 70
     1
102
RTVSPropertyOp30
 70
     1
102
RTVSPropertyOp31
 70
     1
102
RTVSPropertyOp32
 70
     1
  0
XRECORD
  5
1493
102
{ACAD_REACTORS
330
1492
102
}
330
1492
100
AcDbXrecord
280
     1
102
RTVSPropertyOp0
 70
     1
102
RTVSPropertyOp1
 70
     1
102
RTVSPropertyOp2
 70
     1
102
RTVSPropertyOp3
 70
     1
102
RTVSPropertyOp4
 70
     1
102
RTVSPropertyOp5
 70
     1
102
RTVSPropertyOp6
 70
     1
102
RTVSPropertyOp7
 70
     1
102
RTVSPropertyOp8
 70
     1
102
RTVSPropertyOp9
 70
     1
102
RTVSPropertyOp10
 70
     1
102
RTVSPropertyOp11
 70
     1
102
RTVSPropertyOp12
 70
     1
102
RTVSPropertyOp13
 70
     1
102
RTVSPropertyOp14
 70
     1
102
RTVSPropertyOp15
 70
     1
102
RTVSPropertyOp16
 70
     1
102
RTVSPropertyOp17
 70
     1
102
RTVSPropertyOp18
 70
     1
102
RTVSPropertyOp19
 70
     1
102
RTVSPropertyOp20
 70
     1
102
RTVSPropertyOp21
 70
     1
102
RTVSPropertyOp22
 70
     1
102
RTVSPropertyOp23
 70
     1
102
RTVSPropertyOp24
 70
     1
102
RTVSPropertyOp25
 70
     1
102
RTVSPropertyOp26
 70
     1
102
RTVSPropertyOp27
 70
     1
102
RTVSPropertyOp28
 70
     1
102
RTVSPropertyOp29
 70
     1
102
RTVSPropertyOp30
 70
     1
102
RTVSPropertyOp31
 70
     1
102
RTVSPropertyOp32
 70
     1
  0
XRECORD
  5
1491
102
{ACAD_REACTORS
330
1490
102
}
330
1490
100
AcDbXrecord
280
     1
102
RTVSPropertyOp0
 70
     1
102
RTVSPropertyOp1
 70
     1
102
RTVSPropertyOp2
 70
     1
102
RTVSPropertyOp3
 70
     1
102
RTVSPropertyOp4
 70
     1
102
RTVSPropertyOp5
 70
     1
102
RTVSPropertyOp6
 70
     1
102
RTVSPropertyOp7
 70
     1
102
RTVSPropertyOp8
 70
     1
102
RTVSPropertyOp9
 70
     1
102
RTVSPropertyOp10
 70
     1
102
RTVSPropertyOp11
 70
     1
102
RTVSPropertyOp12
 70
     1
102
RTVSPropertyOp13
 70
     1
102
RTVSPropertyOp14
 70
     1
102
RTVSPropertyOp15
 70
     1
102
RTVSPropertyOp16
 70
     1
102
RTVSPropertyOp17
 70
     1
102
RTVSPropertyOp18
 70
     1
102
RTVSPropertyOp19
 70
     1
102
RTVSPropertyOp20
 70
     1
102
RTVSPropertyOp21
 70
     1
102
RTVSPropertyOp22
 70
     1
102
RTVSPropertyOp23
 70
     1
102
RTVSPropertyOp24
 70
     1
102
RTVSPropertyOp25
 70
     1
102
RTVSPropertyOp26
 70
     1
102
RTVSPropertyOp27
 70
     1
102
RTVSPropertyOp28
 70
     1
102
RTVSPropertyOp29
 70
     1
102
RTVSPropertyOp30
 70
     1
102
RTVSPropertyOp31
 70
     1
102
RTVSPropertyOp32
 70
     1
  0
XRECORD
  5
148B
102
{ACAD_REACTORS
330
148A
102
}
330
148A
100
AcDbXrecord
280
     1
102
RTVSPropertyOp0
 70
     1
102
RTVSPropertyOp1
 70
     1
102
RTVSPropertyOp2
 70
     1
102
RTVSPropertyOp3
 70
     1
102
RTVSPropertyOp4
 70
     1
102
RTVSPropertyOp5
 70
     1
102
RTVSPropertyOp6
 70
     1
102
RTVSPropertyOp7
 70
     1
102
RTVSPropertyOp8
 70
     1
102
RTVSPropertyOp9
 70
     1
102
RTVSPropertyOp10
 70
     1
102
RTVSPropertyOp11
 70
     1
102
RTVSPropertyOp12
 70
     1
102
RTVSPropertyOp13
 70
     1
102
RTVSPropertyOp14
 70
     1
102
RTVSPropertyOp15
 70
     1
102
RTVSPropertyOp16
 70
     1
102
RTVSPropertyOp17
 70
     1
102
RTVSPropertyOp18
 70
     1
102
RTVSPropertyOp19
 70
     1
102
RTVSPropertyOp20
 70
     1
102
RTVSPropertyOp21
 70
     1
102
RTVSPropertyOp22
 70
     1
102
RTVSPropertyOp23
 70
     1
102
RTVSPropertyOp24
 70
     1
102
RTVSPropertyOp25
 70
     1
102
RTVSPropertyOp26
 70
     1
102
RTVSPropertyOp27
 70
     1
102
RTVSPropertyOp28
 70
     1
102
RTVSPropertyOp29
 70
     1
102
RTVSPropertyOp30
 70
     1
102
RTVSPropertyOp31
 70
     1
102
RTVSPropertyOp32
 70
     1
  0
XRECORD
  5
148D
102
{ACAD_REACTORS
330
148C
102
}
330
148C
100
AcDbXrecord
280
     1
102
RTVSPropertyOp0
 70
     1
102
RTVSPropertyOp1
 70
     1
102
RTVSPropertyOp2
 70
     1
102
RTVSPropertyOp3
 70
     1
102
RTVSPropertyOp4
 70
     1
102
RTVSPropertyOp5
 70
     1
102
RTVSPropertyOp6
 70
     1
102
RTVSPropertyOp7
 70
     1
102
RTVSPropertyOp8
 70
     1
102
RTVSPropertyOp9
 70
     1
102
RTVSPropertyOp10
 70
     1
102
RTVSPropertyOp11
 70
     1
102
RTVSPropertyOp12
 70
     1
102
RTVSPropertyOp13
 70
     1
102
RTVSPropertyOp14
 70
     1
102
RTVSPropertyOp15
 70
     1
102
RTVSPropertyOp16
 70
     1
102
RTVSPropertyOp17
 70
     1
102
RTVSPropertyOp18
 70
     1
102
RTVSPropertyOp19
 70
     1
102
RTVSPropertyOp20
 70
     1
102
RTVSPropertyOp21
 70
     1
102
RTVSPropertyOp22
 70
     1
102
RTVSPropertyOp23
 70
     1
102
RTVSPropertyOp24
 70
     1
102
RTVSPropertyOp25
 70
     1
102
RTVSPropertyOp26
 70
     1
102
RTVSPropertyOp27
 70
     1
102
RTVSPropertyOp28
 70
     1
102
RTVSPropertyOp29
 70
     1
102
RTVSPropertyOp30
 70
     1
102
RTVSPropertyOp31
 70
     1
102
RTVSPropertyOp32
 70
     1
  0
XRECORD
  5
147F
102
{ACAD_REACTORS
330
147E
102
}
330
147E
100
AcDbXrecord
280
     1
102
RTVSPropertyOp0
 70
     1
102
RTVSPropertyOp1
 70
     1
102
RTVSPropertyOp2
 70
     1
102
RTVSPropertyOp3
 70
     1
102
RTVSPropertyOp4
 70
     1
102
RTVSPropertyOp5
 70
     1
102
RTVSPropertyOp6
 70
     1
102
RTVSPropertyOp7
 70
     1
102
RTVSPropertyOp8
 70
     1
102
RTVSPropertyOp9
 70
     1
102
RTVSPropertyOp10
 70
     1
102
RTVSPropertyOp11
 70
     1
102
RTVSPropertyOp12
 70
     1
102
RTVSPropertyOp13
 70
     1
102
RTVSPropertyOp14
 70
     1
102
RTVSPropertyOp15
 70
     1
102
RTVSPropertyOp16
 70
     1
102
RTVSPropertyOp17
 70
     1
102
RTVSPropertyOp18
 70
     1
102
RTVSPropertyOp19
 70
     1
102
RTVSPropertyOp20
 70
     1
102
RTVSPropertyOp21
 70
     1
102
RTVSPropertyOp22
 70
     1
102
RTVSPropertyOp23
 70
     1
102
RTVSPropertyOp24
 70
     1
102
RTVSPropertyOp25
 70
     1
102
RTVSPropertyOp26
 70
     1
102
RTVSPropertyOp27
 70
     1
102
RTVSPropertyOp28
 70
     1
102
RTVSPropertyOp29
 70
     1
102
RTVSPropertyOp30
 70
     1
102
RTVSPropertyOp31
 70
     1
102
RTVSPropertyOp32
 70
     1
  0
XRECORD
  5
1487
102
{ACAD_REACTORS
330
1486
102
}
330
1486
100
AcDbXrecord
280
     1
102
RTVSPropertyOp0
 70
     1
102
RTVSPropertyOp1
 70
     1
102
RTVSPropertyOp2
 70
     1
102
RTVSPropertyOp3
 70
     1
102
RTVSPropertyOp4
 70
     1
102
RTVSPropertyOp5
 70
     1
102
RTVSPropertyOp6
 70
     1
102
RTVSPropertyOp7
 70
     1
102
RTVSPropertyOp8
 70
     1
102
RTVSPropertyOp9
 70
     1
102
RTVSPropertyOp10
 70
     1
102
RTVSPropertyOp11
 70
     1
102
RTVSPropertyOp12
 70
     1
102
RTVSPropertyOp13
 70
     1
102
RTVSPropertyOp14
 70
     1
102
RTVSPropertyOp15
 70
     1
102
RTVSPropertyOp16
 70
     1
102
RTVSPropertyOp17
 70
     1
102
RTVSPropertyOp18
 70
     1
102
RTVSPropertyOp19
 70
     1
102
RTVSPropertyOp20
 70
     1
102
RTVSPropertyOp21
 70
     1
102
RTVSPropertyOp22
 70
     1
102
RTVSPropertyOp23
 70
     1
102
RTVSPropertyOp24
 70
     1
102
RTVSPropertyOp25
 70
     1
102
RTVSPropertyOp26
 70
     1
102
RTVSPropertyOp27
 70
     1
102
RTVSPropertyOp28
 70
     1
102
RTVSPropertyOp29
 70
     1
102
RTVSPropertyOp30
 70
     1
102
RTVSPropertyOp31
 70
     1
102
RTVSPropertyOp32
 70
     1
  0
XRECORD
  5
148F
102
{ACAD_REACTORS
330
148E
102
}
330
148E
100
AcDbXrecord
280
     1
102
RTVSPropertyOp0
 70
     1
102
RTVSPropertyOp1
 70
     1
102
RTVSPropertyOp2
 70
     1
102
RTVSPropertyOp3
 70
     1
102
RTVSPropertyOp4
 70
     1
102
RTVSPropertyOp5
 70
     1
102
RTVSPropertyOp6
 70
     1
102
RTVSPropertyOp7
 70
     1
102
RTVSPropertyOp8
 70
     1
102
RTVSPropertyOp9
 70
     1
102
RTVSPropertyOp10
 70
     1
102
RTVSPropertyOp11
 70
     1
102
RTVSPropertyOp12
 70
     1
102
RTVSPropertyOp13
 70
     1
102
RTVSPropertyOp14
 70
     1
102
RTVSPropertyOp15
 70
     1
102
RTVSPropertyOp16
 70
     1
102
RTVSPropertyOp17
 70
     1
102
RTVSPropertyOp18
 70
     1
102
RTVSPropertyOp19
 70
     1
102
RTVSPropertyOp20
 70
     1
102
RTVSPropertyOp21
 70
     1
102
RTVSPropertyOp22
 70
     1
102
RTVSPropertyOp23
 70
     1
102
RTVSPropertyOp24
 70
     1
102
RTVSPropertyOp25
 70
     1
102
RTVSPropertyOp26
 70
     1
102
RTVSPropertyOp27
 70
     1
102
RTVSPropertyOp28
 70
     1
102
RTVSPropertyOp29
 70
     1
102
RTVSPropertyOp30
 70
     1
102
RTVSPropertyOp31
 70
     1
102
RTVSPropertyOp32
 70
     1
  0
ENDSEC
  0
EOF
