  0
SECTION
  2
HEADER
  9
$ACADVER
  1
AC1015
  9
$ACADMAINTVER
 70
    20
  9
$DWGCODEPAGE
  3
ANSI_932
  9
$INSBASE
 10
0.0
 20
0.0
 30
0.0
  9
$EXTMIN
 10
56.26767185724762
 20
13.61711788932118
 30
0.0
  9
$EXTMAX
 10
692.3082425666356
 20
293.4477448893211
 30
0.0
  9
$LIMMIN
 10
0.0
 20
0.0
  9
$LIMMAX
 10
12.0
 20
9.0
  9
$ORTHOMODE
 70
     1
  9
$REGENMODE
 70
     1
  9
$FILLMODE
 70
     1
  9
$QTEXTMODE
 70
     0
  9
$MIRRTEXT
 70
     0
  9
$LTSCALE
 40
1.0
  9
$ATTMODE
 70
     1
  9
$TEXTSIZE
 40
3.2
  9
$TRACEWID
 40
0.05
  9
$TEXTSTYLE
  7
高3.2
  9
$CLAYER
  8
0
  9
$CELTYPE
  6
ByLayer
  9
$CECOLOR
 62
   256
  9
$CELTSCALE
 40
1.0
  9
$DISPSILH
 70
     0
  9
$DIMSCALE
 40
1.0
  9
$DIMASZ
 40
2.5
  9
$DIMEXO
 40
0.25
  9
$DIMDLI
 40
0.2
  9
$DIMRND
 40
0.0
  9
$DIMDLE
 40
0.0
  9
$DIMEXE
 40
1.25
  9
$DIMTP
 40
0.0
  9
$DIMTM
 40
0.0
  9
$DIMTXT
 40
3.0
  9
$DIMCEN
 40
0.0
  9
$DIMTSZ
 40
0.0
  9
$DIMTOL
 70
     0
  9
$DIMLIM
 70
     0
  9
$DIMTIH
 70
     0
  9
$DIMTOH
 70
     0
  9
$DIMSE1
 70
     0
  9
$DIMSE2
 70
     0
  9
$DIMTAD
 70
     3
  9
$DIMZIN
 70
     8
  9
$DIMBLK
  1
Open30
  9
$DIMASO
 70
     1
  9
$DIMSHO
 70
     1
  9
$DIMPOST
  1

  9
$DIMAPOST
  1

  9
$DIMALT
 70
     0
  9
$DIMALTD
 70
     3
  9
$DIMALTF
 40
0.03937007874016
  9
$DIMLFAC
 40
1.0
  9
$DIMTOFL
 70
     1
  9
$DIMTVP
 40
0.0
  9
$DIMTIX
 70
     0
  9
$DIMSOXD
 70
     0
  9
$DIMSAH
 70
     0
  9
$DIMBLK1
  1

  9
$DIMBLK2
  1

  9
$DIMSTYLE
  2
FREE
  9
$DIMCLRD
 70
     0
  9
$DIMCLRE
 70
     0
  9
$DIMCLRT
 70
     4
  9
$DIMTFAC
 40
1.0
  9
$DIMGAP
 40
0.625
  9
$DIMJUST
 70
     0
  9
$DIMSD1
 70
     0
  9
$DIMSD2
 70
     0
  9
$DIMTOLJ
 70
     0
  9
$DIMTZIN
 70
     8
  9
$DIMALTZ
 70
     0
  9
$DIMALTTZ
 70
     0
  9
$DIMUPT
 70
     1
  9
$DIMDEC
 70
     2
  9
$DIMTDEC
 70
     2
  9
$DIMALTU
 70
     2
  9
$DIMALTTD
 70
     3
  9
$DIMTXSTY
  7
Standard
  9
$DIMAUNIT
 70
     0
  9
$DIMADEC
 70
     1
  9
$DIMALTRND
 40
0.0
  9
$DIMAZIN
 70
     2
  9
$DIMDSEP
 70
    46
  9
$DIMATFIT
 70
     0
  9
$DIMFRAC
 70
     0
  9
$DIMLDRBLK
  1
Open30
  9
$DIMLUNIT
 70
     2
  9
$DIMLWD
 70
    -2
  9
$DIMLWE
 70
    -2
  9
$DIMTMOVE
 70
     0
  9
$LUNITS
 70
     2
  9
$LUPREC
 70
     4
  9
$SKETCHINC
 40
0.1
  9
$FILLETRAD
 40
0.0
  9
$AUNITS
 70
     0
  9
$AUPREC
 70
     0
  9
$MENU
  1
.
  9
$ELEVATION
 40
0.0
  9
$PELEVATION
 40
0.0
  9
$THICKNESS
 40
0.0
  9
$LIMCHECK
 70
     0
  9
$CHAMFERA
 40
0.0
  9
$CHAMFERB
 40
0.0
  9
$CHAMFERC
 40
0.0
  9
$CHAMFERD
 40
0.0
  9
$SKPOLY
 70
     0
  9
$TDCREATE
 40
2455517.644491818
  9
$TDUCREATE
 40
2455517.269491818
  9
$TDUPDATE
 40
2457373.396106678
  9
$TDUUPDATE
 40
2457373.021106678
  9
$TDINDWG
 40
0.0426454514
  9
$TDUSRTIMER
 40
0.0426451852
  9
$USRTIMER
 70
     1
  9
$ANGBASE
 50
0.0
  9
$ANGDIR
 70
     0
  9
$PDMODE
 70
     0
  9
$PDSIZE
 40
0.0
  9
$PLINEWID
 40
0.0
  9
$SPLFRAME
 70
     0
  9
$SPLINETYPE
 70
     6
  9
$SPLINESEGS
 70
     8
  9
$HANDSEED
  5
EF0
  9
$SURFTAB1
 70
     6
  9
$SURFTAB2
 70
     6
  9
$SURFTYPE
 70
     6
  9
$SURFU
 70
     6
  9
$SURFV
 70
     6
  9
$UCSBASE
  2

  9
$UCSNAME
  2

  9
$UCSORG
 10
0.0
 20
0.0
 30
0.0
  9
$UCSXDIR
 10
1.0
 20
0.0
 30
0.0
  9
$UCSYDIR
 10
0.0
 20
1.0
 30
0.0
  9
$UCSORTHOREF
  2

  9
$UCSORTHOVIEW
 70
     0
  9
$UCSORGTOP
 10
0.0
 20
0.0
 30
0.0
  9
$UCSORGBOTTOM
 10
0.0
 20
0.0
 30
0.0
  9
$UCSORGLEFT
 10
0.0
 20
0.0
 30
0.0
  9
$UCSORGRIGHT
 10
0.0
 20
0.0
 30
0.0
  9
$UCSORGFRONT
 10
0.0
 20
0.0
 30
0.0
  9
$UCSORGBACK
 10
0.0
 20
0.0
 30
0.0
  9
$PUCSBASE
  2

  9
$PUCSNAME
  2

  9
$PUCSORG
 10
0.0
 20
0.0
 30
0.0
  9
$PUCSXDIR
 10
1.0
 20
0.0
 30
0.0
  9
$PUCSYDIR
 10
0.0
 20
1.0
 30
0.0
  9
$PUCSORTHOREF
  2

  9
$PUCSORTHOVIEW
 70
     0
  9
$PUCSORGTOP
 10
0.0
 20
0.0
 30
0.0
  9
$PUCSORGBOTTOM
 10
0.0
 20
0.0
 30
0.0
  9
$PUCSORGLEFT
 10
0.0
 20
0.0
 30
0.0
  9
$PUCSORGRIGHT
 10
0.0
 20
0.0
 30
0.0
  9
$PUCSORGFRONT
 10
0.0
 20
0.0
 30
0.0
  9
$PUCSORGBACK
 10
0.0
 20
0.0
 30
0.0
  9
$USERI1
 70
     0
  9
$USERI2
 70
     0
  9
$USERI3
 70
     0
  9
$USERI4
 70
     0
  9
$USERI5
 70
     0
  9
$USERR1
 40
0.0
  9
$USERR2
 40
0.0
  9
$USERR3
 40
0.0
  9
$USERR4
 40
0.0
  9
$USERR5
 40
0.0
  9
$WORLDVIEW
 70
     1
  9
$SHADEDGE
 70
     3
  9
$SHADEDIF
 70
    70
  9
$TILEMODE
 70
     1
  9
$MAXACTVP
 70
    64
  9
$PINSBASE
 10
0.0
 20
0.0
 30
0.0
  9
$PLIMCHECK
 70
     0
  9
$PEXTMIN
 10
0.0
 20
0.0
 30
0.0
  9
$PEXTMAX
 10
0.0
 20
0.0
 30
0.0
  9
$PLIMMIN
 10
0.0
 20
0.0
  9
$PLIMMAX
 10
12.0
 20
9.0
  9
$UNITMODE
 70
     0
  9
$VISRETAIN
 70
     1
  9
$PLINEGEN
 70
     0
  9
$PSLTSCALE
 70
     1
  9
$TREEDEPTH
 70
  3020
  9
$CMLSTYLE
  2
Standard
  9
$CMLJUST
 70
     0
  9
$CMLSCALE
 40
1.0
  9
$PROXYGRAPHICS
 70
     1
  9
$MEASUREMENT
 70
     1
  9
$CELWEIGHT
370
    -1
  9
$ENDCAPS
280
     0
  9
$JOINSTYLE
280
     0
  9
$LWDISPLAY
290
     0
  9
$INSUNITS
 70
     1
  9
$HYPERLINKBASE
  1

  9
$STYLESHEET
  1

  9
$XEDIT
290
     1
  9
$CEPSNTYPE
380
     0
  9
$PSTYLEMODE
290
     1
  9
$FINGERPRINTGUID
  2
{ACFFCBE7-9AEC-47A7-9827-33E82064A24E}
  9
$VERSIONGUID
  2
{6002913B-38FE-4436-966A-8BD9473EDCCF}
  9
$EXTNAMES
290
     1
  9
$PSVPSCALE
 40
0.0
  9
$OLESTARTUP
290
     0
  0
ENDSEC
  0
SECTION
  2
CLASSES
  0
CLASS
  1
ACDBDICTIONARYWDFLT
  2
AcDbDictionaryWithDefault
  3
ObjectDBX Classes
 90
        0
280
     0
281
     0
  0
CLASS
  1
ACDBPLACEHOLDER
  2
AcDbPlaceHolder
  3
ObjectDBX Classes
 90
        0
280
     0
281
     0
  0
CLASS
  1
LAYOUT
  2
AcDbLayout
  3
ObjectDBX Classes
 90
        0
280
     0
281
     0
  0
CLASS
  1
DICTIONARYVAR
  2
AcDbDictionaryVar
  3
ObjectDBX Classes
 90
        0
280
     0
281
     0
  0
CLASS
  1
TABLESTYLE
  2
AcDbTableStyle
  3
ObjectDBX Classes
 90
     4095
280
     0
281
     0
  0
CLASS
  1
MATERIAL
  2
AcDbMaterial
  3
ObjectDBX Classes
 90
     1153
280
     0
281
     0
  0
CLASS
  1
VISUALSTYLE
  2
AcDbVisualStyle
  3
ObjectDBX Classes
 90
     4095
280
     0
281
     0
  0
CLASS
  1
SORTENTSTABLE
  2
AcDbSortentsTable
  3
ObjectDBX Classes
 90
        0
280
     0
281
     0
  0
CLASS
  1
DIMASSOC
  2
AcDbDimAssoc
  3
"AcDbDimAssoc|Product Desc:     AcDim ARX App For Dimension|Company:          Autodesk, Inc.|WEB Address:      www.autodesk.com"
 90
        0
280
     0
281
     0
  0
CLASS
  1
SCALE
  2
AcDbScale
  3
ObjectDBX Classes
 90
     1153
280
     0
281
     0
  0
CLASS
  1
MLEADERSTYLE
  2
AcDbMLeaderStyle
  3
ACDB_MLEADERSTYLE_CLASS
 90
     4095
280
     0
281
     0
  0
CLASS
  1
CELLSTYLEMAP
  2
AcDbCellStyleMap
  3
ObjectDBX Classes
 90
     1152
280
     0
281
     0
  0
CLASS
  1
AEC_REFEDIT_STATUS_TRACKER
  2
AecDbRefEditStatusTracker
  3
AecArchBase60|Product Desc: Autodesk Architectural Desktop 2007 |Company: Autodesk,Inc. |WEB Address: www.autodesk.com
 90
      129
280
     0
281
     0
  0
CLASS
  1
NPOCOLLECTION
  2
AcDbImpNonPersistentObjectsCollection
  3
ObjectDBX Classes
 90
     1153
280
     0
281
     0
  0
ENDSEC
  0
SECTION
  2
TABLES
  0
TABLE
  2
VPORT
  5
8
330
0
100
AcDbSymbolTable
 70
     1
  0
VPORT
  5
94
330
8
100
AcDbSymbolTableRecord
100
AcDbViewportTableRecord
  2
*Active
 70
     0
 10
0.0
 20
0.0
 11
1.0
 21
1.0
 12
429.9011880864388
 22
87.08536011542197
 13
0.0
 23
0.0
 14
0.5
 24
0.5
 15
0.5
 25
0.5
 16
0.0
 26
0.0
 36
1.0
 17
0.0
 27
0.0
 37
0.0
 40
654.9903156565096
 41
2.425036390101892
 42
50.0
 43
0.0
 44
0.0
 50
0.0
 51
0.0
 71
     0
 72
  1000
 73
     1
 74
     2
 75
     0
 76
     0
 77
     0
 78
     0
281
     0
 65
     1
110
0.0
120
0.0
130
0.0
111
1.0
121
0.0
131
0.0
112
0.0
122
1.0
132
0.0
 79
     0
146
0.0
  0
ENDTAB
  0
TABLE
  2
LTYPE
  5
5
330
0
100
AcDbSymbolTable
 70
     4
  0
LTYPE
  5
14
330
5
100
AcDbSymbolTableRecord
100
AcDbLinetypeTableRecord
  2
ByBlock
 70
     0
  3

 72
    65
 73
     0
 40
0.0
  0
LTYPE
  5
15
330
5
100
AcDbSymbolTableRecord
100
AcDbLinetypeTableRecord
  2
ByLayer
 70
     0
  3

 72
    65
 73
     0
 40
0.0
  0
LTYPE
  5
16
330
5
100
AcDbSymbolTableRecord
100
AcDbLinetypeTableRecord
  2
Continuous
 70
     0
  3
Solid line
 72
    65
 73
     0
 40
0.0
  0
LTYPE
  5
148
330
5
100
AcDbSymbolTableRecord
100
AcDbLinetypeTableRecord
  2
CENTER
 70
     0
  3
Center ____ _ ____ _ ____ _ ____ _ ____ _ ____
 72
    65
 73
     4
 40
50.8
 49
31.75
 74
     0
 49
-6.349999999999997
 74
     0
 49
6.349999999999997
 74
     0
 49
-6.349999999999997
 74
     0
  0
LTYPE
  5
181
330
5
100
AcDbSymbolTableRecord
100
AcDbLinetypeTableRecord
  2
DASHED
 70
     0
  3
DASHED
 72
    65
 73
     2
 40
0.75
 49
0.5
 74
     0
 49
-0.25
 74
     0
  0
ENDTAB
  0
TABLE
  2
LAYER
  5
2
102
{ACAD_XDICTIONARY
360
DD
102
}
330
0
100
AcDbSymbolTable
 70
     2
  0
LAYER
  5
10
102
{ACAD_XDICTIONARY
360
8F8
102
}
330
2
100
AcDbSymbolTableRecord
100
AcDbLayerTableRecord
  2
0
 70
     0
 62
     7
  6
Continuous
370
    -3
390
F
  0
LAYER
  5
D8
330
2
100
AcDbSymbolTableRecord
100
AcDbLayerTableRecord
  2
Defpoints
 70
     0
 62
     7
  6
Continuous
290
     0
370
    -3
390
F
  0
ENDTAB
  0
TABLE
  2
STYLE
  5
3
330
0
100
AcDbSymbolTable
 70
     6
  0
STYLE
  5
11
330
3
100
AcDbSymbolTableRecord
100
AcDbTextStyleTableRecord
  2
Standard
 70
     0
 40
0.0
 41
1.0
 50
0.0
 71
     0
 42
0.2
  3
txt.shx
  4
bigfont.shx
  0
STYLE
  5
11D
330
3
100
AcDbSymbolTableRecord
100
AcDbTextStyleTableRecord
  2
高3.2
 70
     0
 40
3.2
 41
1.0
 50
0.0
 71
     0
 42
3.2
  3
txt.shx
  4
bigfont.shx
  0
STYLE
  5
11E
330
3
100
AcDbSymbolTableRecord
100
AcDbTextStyleTableRecord
  2
高6.3
 70
     0
 40
6.299999999999998
 41
1.0
 50
0.0
 71
     0
 42
6.299999999999998
  3
txt.shx
  4
bigfont.shx
  0
STYLE
  5
11F
330
3
100
AcDbSymbolTableRecord
100
AcDbTextStyleTableRecord
  2
高2.5
 70
     0
 40
2.5
 41
1.0
 50
0.0
 71
     0
 42
0.2
  3
txt.shx
  4
bigfont.shx
  0
STYLE
  5
146
330
3
100
AcDbSymbolTableRecord
100
AcDbTextStyleTableRecord
  2
高4.5
 70
     0
 40
4.5
 41
1.0
 50
0.0
 71
     0
 42
6.299999999999998
  3
txt.shx
  4
bigfont.shx
  0
STYLE
  5
798
330
3
100
AcDbSymbolTableRecord
100
AcDbTextStyleTableRecord
  2
高2
 70
     0
 40
2.0
 41
1.0
 50
0.0
 71
     0
 42
2.0
  3
txt.shx
  4
bigfont.shx
  0
ENDTAB
  0
TABLE
  2
VIEW
  5
6
330
0
100
AcDbSymbolTable
 70
     0
  0
ENDTAB
  0
TABLE
  2
UCS
  5
7
330
0
100
AcDbSymbolTable
 70
     0
  0
ENDTAB
  0
TABLE
  2
APPID
  5
9
330
0
100
AcDbSymbolTable
 70
     9
  0
APPID
  5
12
330
9
100
AcDbSymbolTableRecord
100
AcDbRegAppTableRecord
  2
ACAD
 70
     0
  0
APPID
  5
DC
330
9
100
AcDbSymbolTableRecord
100
AcDbRegAppTableRecord
  2
ACAD_DSTYLE_DIMJOGGED_JOGANGLE_SYMBOL
 70
     0
  0
APPID
  5
6A0
330
9
100
AcDbSymbolTableRecord
100
AcDbRegAppTableRecord
  2
ACAD_DSTYLE_DIMARC_LENGTH_SYMBOL
 70
     0
  0
APPID
  5
6A1
330
9
100
AcDbSymbolTableRecord
100
AcDbRegAppTableRecord
  2
ACAD_DSTYLE_DIMEXT_LENGTH
 70
     0
  0
APPID
  5
79C
330
9
100
AcDbSymbolTableRecord
100
AcDbRegAppTableRecord
  2
ACAD_DSTYLE_DIMJAG
 70
     0
  0
APPID
  5
79D
330
9
100
AcDbSymbolTableRecord
100
AcDbRegAppTableRecord
  2
ACAD_DSTYLE_DIMBREAK
 70
     0
  0
APPID
  5
79E
330
9
100
AcDbSymbolTableRecord
100
AcDbRegAppTableRecord
  2
ACAD_DSTYLE_DIMTALN
 70
     0
  0
APPID
  5
8DF
330
9
100
AcDbSymbolTableRecord
100
AcDbRegAppTableRecord
  2
ACAD_EXEMPT_FROM_CAD_STANDARDS
 70
     0
  0
APPID
  5
940
330
9
100
AcDbSymbolTableRecord
100
AcDbRegAppTableRecord
  2
ACAD_MLEADERVER
 70
     0
  0
ENDTAB
  0
TABLE
  2
DIMSTYLE
  5
A
330
0
100
AcDbSymbolTable
 70
    11
100
AcDbDimStyleTable
 71
     2
340
A1F
340
D9
  0
DIMSTYLE
105
D9
330
A
100
AcDbSymbolTableRecord
100
AcDbDimStyleTableRecord
  2
1：1
 70
     0
 41
2.5
 42
0.25
 43
0.2
 44
1.25
 73
     0
 74
     0
 77
     3
 78
     8
 79
     2
140
3.0
141
0.0
143
0.03937007874016
147
0.625
171
     3
172
     1
178
     4
179
     1
271
     2
272
     2
274
     3
283
     0
284
     8
288
     1
289
     0
340
11
341
C6
342
C6
1001
ACAD_DSTYLE_DIMARC_LENGTH_SYMBOL
1070
   379
1070
     2
1001
ACAD_DSTYLE_DIMEXT_LENGTH
1070
   378
1040
1.25
1001
ACAD_DSTYLE_DIMJOGGED_JOGANGLE_SYMBOL
1070
   384
1040
1.570796326794896
  0
DIMSTYLE
105
A1F
330
A
100
AcDbSymbolTableRecord
100
AcDbDimStyleTableRecord
  2
8：10
 70
     0
 41
2.5
 42
0.25
 43
0.2
 44
1.25
 73
     0
 74
     0
 77
     3
 78
     8
 79
     2
140
3.0
141
0.0
143
0.03937007874016
144
1.25
147
0.625
171
     3
172
     1
178
     4
179
     1
271
     2
272
     2
274
     3
283
     0
284
     8
288
     1
289
     0
340
11
341
C6
342
C6
1001
ACAD_DSTYLE_DIMBREAK
1070
   391
1040
3.75
1001
ACAD_DSTYLE_DIMJAG
1070
   388
1040
1.5
1001
ACAD_DSTYLE_DIMTALN
1070
   392
1070
     0
1001
ACAD_DSTYLE_DIMARC_LENGTH_SYMBOL
1070
   379
1070
     2
1001
ACAD_DSTYLE_DIMEXT_LENGTH
1070
   378
1040
1.25
1001
ACAD_DSTYLE_DIMJOGGED_JOGANGLE_SYMBOL
1070
   384
1040
1.570796326794896
  0
DIMSTYLE
105
C5E
102
{ACAD_REACTORS
330
C6F
102
}
330
A
100
AcDbSymbolTableRecord
100
AcDbDimStyleTableRecord
  2
2：1
 70
     0
 41
2.5
 42
0.25
 43
0.2
 44
1.25
 73
     0
 74
     0
 77
     3
 78
     8
 79
     2
140
3.0
141
0.0
143
0.03937007874016
144
0.5
147
0.625
171
     3
172
     1
178
     4
179
     1
271
     2
272
     2
274
     3
283
     0
284
     8
288
     1
289
     0
340
11
341
C6
342
C6
1001
ACAD_DSTYLE_DIMARC_LENGTH_SYMBOL
1070
   379
1070
     2
1001
ACAD_DSTYLE_DIMEXT_LENGTH
1070
   378
1040
1.25
1001
ACAD_DSTYLE_DIMJOGGED_JOGANGLE_SYMBOL
1070
   384
1040
1.570796326794896
  0
DIMSTYLE
105
C5F
102
{ACAD_REACTORS
330
C70
102
}
330
A
100
AcDbSymbolTableRecord
100
AcDbDimStyleTableRecord
  2
5：1
 70
     0
 41
2.5
 42
0.25
 43
0.2
 44
1.25
 73
     0
 74
     0
 77
     3
 78
     8
 79
     2
140
3.0
141
0.0
143
0.03937007874016
144
0.2
147
0.625
171
     3
172
     1
178
     4
179
     1
271
     2
272
     2
274
     3
283
     0
284
     8
288
     1
289
     0
340
11
341
C6
342
C6
1001
ACAD_DSTYLE_DIMARC_LENGTH_SYMBOL
1070
   379
1070
     2
1001
ACAD_DSTYLE_DIMEXT_LENGTH
1070
   378
1040
1.25
1001
ACAD_DSTYLE_DIMJOGGED_JOGANGLE_SYMBOL
1070
   384
1040
1.570796326794896
  0
DIMSTYLE
105
C60
102
{ACAD_REACTORS
330
C6E
102
}
330
A
100
AcDbSymbolTableRecord
100
AcDbDimStyleTableRecord
  2
10：1
 70
     0
 41
2.5
 42
0.25
 43
0.2
 44
1.25
 73
     0
 74
     0
 77
     3
 78
     8
 79
     2
140
3.0
141
0.0
143
0.03937007874016
144
0.1
147
0.625
171
     3
172
     1
178
     4
179
     1
271
     2
272
     2
274
     3
283
     0
284
     8
288
     1
289
     0
340
11
341
C6
342
C6
1001
ACAD_DSTYLE_DIMARC_LENGTH_SYMBOL
1070
   379
1070
     2
1001
ACAD_DSTYLE_DIMEXT_LENGTH
1070
   378
1040
1.25
1001
ACAD_DSTYLE_DIMJOGGED_JOGANGLE_SYMBOL
1070
   384
1040
1.570796326794896
  0
DIMSTYLE
105
C61
102
{ACAD_REACTORS
330
C6C
102
}
330
A
100
AcDbSymbolTableRecord
100
AcDbDimStyleTableRecord
  2
1／2
 70
     0
 41
2.5
 42
0.25
 43
0.2
 44
1.25
 73
     0
 74
     0
 77
     3
 78
     8
 79
     2
140
3.0
141
0.0
143
0.03937007874016
144
2.0
147
0.625
171
     3
172
     1
178
     4
179
     1
271
     2
272
     2
274
     3
283
     0
284
     8
288
     1
289
     0
340
11
341
C6
342
C6
1001
ACAD_DSTYLE_DIMARC_LENGTH_SYMBOL
1070
   379
1070
     2
1001
ACAD_DSTYLE_DIMEXT_LENGTH
1070
   378
1040
1.25
1001
ACAD_DSTYLE_DIMJOGGED_JOGANGLE_SYMBOL
1070
   384
1040
1.570796326794896
  0
DIMSTYLE
105
C62
102
{ACAD_REACTORS
330
C6B
102
}
330
A
100
AcDbSymbolTableRecord
100
AcDbDimStyleTableRecord
  2
1／5
 70
     0
 41
2.5
 42
0.25
 43
0.2
 44
1.25
 73
     0
 74
     0
 77
     3
 78
     8
 79
     2
140
3.0
141
0.0
143
0.03937007874016
144
5.0
147
0.625
171
     3
172
     1
178
     4
179
     1
271
     2
272
     2
274
     3
283
     0
284
     8
288
     1
289
     0
340
11
341
C6
342
C6
1001
ACAD_DSTYLE_DIMARC_LENGTH_SYMBOL
1070
   379
1070
     2
1001
ACAD_DSTYLE_DIMEXT_LENGTH
1070
   378
1040
1.25
1001
ACAD_DSTYLE_DIMJOGGED_JOGANGLE_SYMBOL
1070
   384
1040
1.570796326794896
  0
DIMSTYLE
105
C63
102
{ACAD_REACTORS
330
C6D
102
}
330
A
100
AcDbSymbolTableRecord
100
AcDbDimStyleTableRecord
  2
1／10
 70
     0
 41
2.5
 42
0.25
 43
0.2
 44
1.25
 73
     0
 74
     0
 77
     3
 78
     8
 79
     2
140
3.0
141
0.0
143
0.03937007874016
144
10.0
147
0.625
171
     3
172
     1
178
     4
179
     1
271
     2
272
     2
274
     3
283
     0
284
     8
288
     1
289
     0
340
11
341
C6
342
C6
1001
ACAD_DSTYLE_DIMARC_LENGTH_SYMBOL
1070
   379
1070
     2
1001
ACAD_DSTYLE_DIMEXT_LENGTH
1070
   378
1040
1.25
1001
ACAD_DSTYLE_DIMJOGGED_JOGANGLE_SYMBOL
1070
   384
1040
1.570796326794896
  0
DIMSTYLE
105
C64
102
{ACAD_REACTORS
330
C71
102
}
330
A
100
AcDbSymbolTableRecord
100
AcDbDimStyleTableRecord
  2
1／4
 70
     0
 41
2.5
 42
0.25
 43
0.2
 44
1.25
 73
     0
 74
     0
 77
     3
 78
     8
 79
     2
140
3.0
141
0.0
143
0.03937007874016
144
4.0
147
0.625
171
     3
172
     1
178
     4
179
     1
271
     2
272
     2
274
     3
283
     0
284
     8
288
     1
289
     0
340
11
341
C6
342
C6
1001
ACAD_DSTYLE_DIMARC_LENGTH_SYMBOL
1070
   379
1070
     2
1001
ACAD_DSTYLE_DIMEXT_LENGTH
1070
   378
1040
1.25
1001
ACAD_DSTYLE_DIMJOGGED_JOGANGLE_SYMBOL
1070
   384
1040
1.570796326794896
  0
DIMSTYLE
105
C65
102
{ACAD_REACTORS
330
C72
102
}
330
A
100
AcDbSymbolTableRecord
100
AcDbDimStyleTableRecord
  2
1／3
 70
     0
 41
2.5
 42
0.25
 43
0.2
 44
1.25
 73
     0
 74
     0
 77
     3
 78
     8
 79
     2
140
3.0
141
0.0
143
0.03937007874016
144
3.0
147
0.625
171
     3
172
     1
178
     4
179
     1
271
     2
272
     2
274
     3
283
     0
284
     8
288
     1
289
     0
340
11
341
C6
342
C6
1001
ACAD_DSTYLE_DIMARC_LENGTH_SYMBOL
1070
   379
1070
     2
1001
ACAD_DSTYLE_DIMEXT_LENGTH
1070
   378
1040
1.25
1001
ACAD_DSTYLE_DIMJOGGED_JOGANGLE_SYMBOL
1070
   384
1040
1.570796326794896
  0
DIMSTYLE
105
C66
102
{ACAD_REACTORS
330
C73
102
}
330
A
100
AcDbSymbolTableRecord
100
AcDbDimStyleTableRecord
  2
FREE
 70
     0
 41
2.5
 42
0.25
 43
0.2
 44
1.25
 73
     0
 74
     0
 77
     3
 78
     8
 79
     2
140
3.0
141
0.0
143
0.03937007874016
147
0.625
171
     3
172
     1
178
     4
179
     1
271
     2
272
     2
274
     3
283
     0
284
     8
288
     1
289
     0
340
11
341
C6
342
C6
1001
ACAD_DSTYLE_DIMBREAK
1070
   391
1040
3.75
1001
ACAD_DSTYLE_DIMJAG
1070
   388
1040
1.5
1001
ACAD_DSTYLE_DIMTALN
1070
   392
1070
     0
1001
ACAD_DSTYLE_DIMARC_LENGTH_SYMBOL
1070
   379
1070
     2
1001
ACAD_DSTYLE_DIMEXT_LENGTH
1070
   378
1040
1.25
1001
ACAD_DSTYLE_DIMJOGGED_JOGANGLE_SYMBOL
1070
   384
1040
1.570796326794896
  0
ENDTAB
  0
TABLE
  2
BLOCK_RECORD
  5
1
330
0
100
AcDbSymbolTable
 70
    29
  0
BLOCK_RECORD
  5
1F
102
{ACAD_XDICTIONARY
360
8EA
102
}
330
1
100
AcDbSymbolTableRecord
100
AcDbBlockTableRecord
  2
*Model_Space
340
22
  0
BLOCK_RECORD
  5
58
330
1
100
AcDbSymbolTableRecord
100
AcDbBlockTableRecord
  2
*Paper_Space
340
59
  0
BLOCK_RECORD
  5
5D
330
1
100
AcDbSymbolTableRecord
100
AcDbBlockTableRecord
  2
*Paper_Space0
340
5E
  0
BLOCK_RECORD
  5
C6
330
1
100
AcDbSymbolTableRecord
100
AcDbBlockTableRecord
  2
_Open30
340
0
102
{BLKREFS
331
9FD
331
9FE
331
A06
331
A07
331
A0F
331
A10
331
A18
331
A19
331
AC5
331
AC6
331
BDB
331
BDC
331
BE9
331
BEA
331
BF7
331
BF8
331
C05
331
C06
331
C13
331
C14
331
C21
331
C22
331
C2F
331
C30
331
C3D
331
C3E
331
C4B
331
C4C
331
C57
331
C58
331
D12
331
D13
331
D1D
331
D1E
331
D28
331
D29
331
D33
331
D34
331
D3E
331
D3F
331
D49
331
D4A
331
D54
331
D55
331
D5F
331
D60
331
D6A
331
D6B
331
D73
331
D74
102
}
  0
BLOCK_RECORD
  5
637
330
1
100
AcDbSymbolTableRecord
100
AcDbBlockTableRecord
  2
*D2
340
0
  0
BLOCK_RECORD
  5
643
330
1
100
AcDbSymbolTableRecord
100
AcDbBlockTableRecord
  2
*D3
340
0
  0
BLOCK_RECORD
  5
64F
330
1
100
AcDbSymbolTableRecord
100
AcDbBlockTableRecord
  2
*D4
340
0
  0
BLOCK_RECORD
  5
65B
330
1
100
AcDbSymbolTableRecord
100
AcDbBlockTableRecord
  2
*D5
340
0
  0
BLOCK_RECORD
  5
AAB
330
1
100
AcDbSymbolTableRecord
100
AcDbBlockTableRecord
  2
*D7
340
0
  0
BLOCK_RECORD
  5
BD4
330
1
100
AcDbSymbolTableRecord
100
AcDbBlockTableRecord
  2
*D8
340
0
  0
BLOCK_RECORD
  5
BE2
330
1
100
AcDbSymbolTableRecord
100
AcDbBlockTableRecord
  2
*D9
340
0
  0
BLOCK_RECORD
  5
BF0
330
1
100
AcDbSymbolTableRecord
100
AcDbBlockTableRecord
  2
*D10
340
0
  0
BLOCK_RECORD
  5
BFE
330
1
100
AcDbSymbolTableRecord
100
AcDbBlockTableRecord
  2
*D11
340
0
  0
BLOCK_RECORD
  5
C0C
330
1
100
AcDbSymbolTableRecord
100
AcDbBlockTableRecord
  2
*D12
340
0
  0
BLOCK_RECORD
  5
C1A
330
1
100
AcDbSymbolTableRecord
100
AcDbBlockTableRecord
  2
*D13
340
0
  0
BLOCK_RECORD
  5
C28
330
1
100
AcDbSymbolTableRecord
100
AcDbBlockTableRecord
  2
*D14
340
0
  0
BLOCK_RECORD
  5
C36
330
1
100
AcDbSymbolTableRecord
100
AcDbBlockTableRecord
  2
*D15
340
0
  0
BLOCK_RECORD
  5
C44
330
1
100
AcDbSymbolTableRecord
100
AcDbBlockTableRecord
  2
*D16
340
0
  0
BLOCK_RECORD
  5
C52
330
1
100
AcDbSymbolTableRecord
100
AcDbBlockTableRecord
  2
*D17
340
0
  0
BLOCK_RECORD
  5
C83
330
1
100
AcDbSymbolTableRecord
100
AcDbBlockTableRecord
  2
*D19
340
0
  0
BLOCK_RECORD
  5
C91
330
1
100
AcDbSymbolTableRecord
100
AcDbBlockTableRecord
  2
*D20
340
0
  0
BLOCK_RECORD
  5
C9F
330
1
100
AcDbSymbolTableRecord
100
AcDbBlockTableRecord
  2
*D21
340
0
  0
BLOCK_RECORD
  5
CAD
330
1
100
AcDbSymbolTableRecord
100
AcDbBlockTableRecord
  2
*D22
340
0
  0
BLOCK_RECORD
  5
CBB
330
1
100
AcDbSymbolTableRecord
100
AcDbBlockTableRecord
  2
*D23
340
0
  0
BLOCK_RECORD
  5
CC9
330
1
100
AcDbSymbolTableRecord
100
AcDbBlockTableRecord
  2
*D24
340
0
  0
BLOCK_RECORD
  5
CD7
330
1
100
AcDbSymbolTableRecord
100
AcDbBlockTableRecord
  2
*D25
340
0
  0
BLOCK_RECORD
  5
CE5
330
1
100
AcDbSymbolTableRecord
100
AcDbBlockTableRecord
  2
*D26
340
0
  0
BLOCK_RECORD
  5
CF3
330
1
100
AcDbSymbolTableRecord
100
AcDbBlockTableRecord
  2
*D27
340
0
  0
BLOCK_RECORD
  5
D01
330
1
100
AcDbSymbolTableRecord
100
AcDbBlockTableRecord
  2
*D28
340
0
  0
ENDTAB
  0
ENDSEC
  0
SECTION
  2
BLOCKS
  0
BLOCK
  5
20
330
1F
100
AcDbEntity
  8
0
100
AcDbBlockBegin
  2
*Model_Space
 70
     0
 10
0.0
 20
0.0
 30
0.0
  3
*Model_Space
  1

  0
ENDBLK
  5
21
330
1F
100
AcDbEntity
  8
0
100
AcDbBlockEnd
  0
BLOCK
  5
5A
330
58
100
AcDbEntity
 67
     1
  8
0
100
AcDbBlockBegin
  2
*Paper_Space
 70
     0
 10
0.0
 20
0.0
 30
0.0
  3
*Paper_Space
  1

  0
ENDBLK
  5
5B
330
58
100
AcDbEntity
 67
     1
  8
0
100
AcDbBlockEnd
  0
BLOCK
  5
5F
330
5D
100
AcDbEntity
 67
     1
  8
0
100
AcDbBlockBegin
  2
*Paper_Space0
 70
     0
 10
0.0
 20
0.0
 30
0.0
  3
*Paper_Space0
  1

  0
ENDBLK
  5
60
330
5D
100
AcDbEntity
 67
     1
  8
0
100
AcDbBlockEnd
  0
BLOCK
  5
C7
330
C6
100
AcDbEntity
  8
0
100
AcDbBlockBegin
  2
_Open30
 70
     0
 10
0.0
 20
0.0
 30
0.0
  3
_Open30
  1

  0
LINE
  5
C8
330
C6
100
AcDbEntity
  8
0
  6
ByBlock
 62
     0
370
    -2
100
AcDbLine
 10
-1.0
 20
0.267949
 30
0.0
 11
0.0
 21
0.0
 31
0.0
  0
LINE
  5
C9
330
C6
100
AcDbEntity
  8
0
  6
ByBlock
 62
     0
370
    -2
100
AcDbLine
 10
0.0
 20
0.0
 30
0.0
 11
-1.0
 21
-0.267949
 31
0.0
  0
LINE
  5
CA
330
C6
100
AcDbEntity
  8
0
  6
ByBlock
 62
     0
370
    -2
100
AcDbLine
 10
0.0
 20
0.0
 30
0.0
 11
-1.0
 21
0.0
 31
0.0
  0
ENDBLK
  5
CB
330
C6
100
AcDbEntity
  8
0
100
AcDbBlockEnd
  0
BLOCK
  5
641
330
637
100
AcDbEntity
  8
0
100
AcDbBlockBegin
  2
*D2
 70
     1
 10
0.0
 20
0.0
 30
0.0
  3
*D2
  1

  0
LINE
  5
9FA
330
637
100
AcDbEntity
  8
0
  6
Continuous
 62
     0
370
    -2
100
AcDbLine
 10
206.8949763191673
 20
161.7860660003302
 30
0.0
 11
206.8949763191673
 21
177.8455833112723
 31
0.0
  0
LINE
  5
9FB
330
637
100
AcDbEntity
  8
0
  6
Continuous
 62
     0
370
    -2
100
AcDbLine
 10
282.8949763191673
 20
161.7860660003302
 30
0.0
 11
282.8949763191673
 21
177.8455833112723
 31
0.0
  0
LINE
  5
9FC
330
637
100
AcDbEntity
  8
0
  6
Continuous
 62
     0
370
    -2
100
AcDbLine
 10
209.3949763191673
 20
176.5955833112723
 30
0.0
 11
280.3949763191673
 21
176.5955833112723
 31
0.0
  0
INSERT
  5
9FD
330
637
100
AcDbEntity
  8
0
  6
Continuous
 62
     0
370
    -2
100
AcDbBlockReference
  2
_Open30
 10
206.8949763191673
 20
176.5955833112723
 30
0.0
 41
2.5
 42
2.5
 43
2.5
 50
180.0
  0
INSERT
  5
9FE
330
637
100
AcDbEntity
  8
0
  6
Continuous
 62
     0
370
    -2
100
AcDbBlockReference
  2
_Open30
 10
282.8949763191673
 20
176.5955833112723
 30
0.0
 41
2.5
 42
2.5
 43
2.5
  0
MTEXT
  5
9FF
330
637
100
AcDbEntity
  8
0
  6
Continuous
 62
     4
100
AcDbMText
 10
245.2964104561537
 20
178.7205833112723
 30
0.0
 40
3.0
 41
0.0
 71
     5
 72
     1
  1
%%C95
 73
     1
 44
1.0
1001
ACAD
1000
MTEXTBEGIN
1070
    73
1070
     1
1070
    44
1040
1.0
1070
    74
1070
     0
1000
MTEXTEND
  0
POINT
  5
A00
330
637
100
AcDbEntity
  8
Defpoints
  6
Continuous
 62
     0
100
AcDbPoint
 10
206.8949763191673
 20
161.5360660003302
 30
0.0
  0
POINT
  5
A01
330
637
100
AcDbEntity
  8
Defpoints
  6
Continuous
 62
     0
100
AcDbPoint
 10
282.8949763191673
 20
161.5360660003302
 30
0.0
  0
POINT
  5
A02
330
637
100
AcDbEntity
  8
Defpoints
  6
Continuous
 62
     0
100
AcDbPoint
 10
282.8949763191673
 20
176.5955833112723
 30
0.0
  0
ENDBLK
  5
642
330
637
100
AcDbEntity
  8
0
100
AcDbBlockEnd
  0
BLOCK
  5
64D
330
643
100
AcDbEntity
  8
0
100
AcDbBlockBegin
  2
*D3
 70
     1
 10
0.0
 20
0.0
 30
0.0
  3
*D3
  1

  0
LINE
  5
A03
330
643
100
AcDbEntity
  8
0
  6
Continuous
 62
     0
370
    -2
100
AcDbLine
 10
209.8449763191673
 20
164.7360660003301
 30
0.0
 11
181.5182734010348
 21
164.7360660003301
 31
0.0
  0
LINE
  5
A04
330
643
100
AcDbEntity
  8
0
  6
Continuous
 62
     0
370
    -2
100
AcDbLine
 10
202.6449763191673
 20
89.53606600033017
 30
0.0
 11
181.5182734010348
 21
89.53606600033017
 31
0.0
  0
LINE
  5
A05
330
643
100
AcDbEntity
  8
0
  6
Continuous
 62
     0
370
    -2
100
AcDbLine
 10
182.7682734010348
 20
162.2360660003301
 30
0.0
 11
182.7682734010348
 21
92.03606600033017
 31
0.0
  0
INSERT
  5
A06
330
643
100
AcDbEntity
  8
0
  6
Continuous
 62
     0
370
    -2
100
AcDbBlockReference
  2
_Open30
 10
182.7682734010348
 20
164.7360660003301
 30
0.0
 41
2.5
 42
2.5
 43
2.5
 50
90.0
  0
INSERT
  5
A07
330
643
100
AcDbEntity
  8
0
  6
Continuous
 62
     0
370
    -2
100
AcDbBlockReference
  2
_Open30
 10
182.7682734010348
 20
89.53606600033017
 30
0.0
 41
2.5
 42
2.5
 43
2.5
 50
270.0
  0
MTEXT
  5
A08
330
643
100
AcDbEntity
  8
0
  6
Continuous
 62
     4
100
AcDbMText
 10
180.6432734010348
 20
126.3586501014135
 30
0.0
 40
3.0
 41
0.0
 71
     5
 72
     1
  1
98
 11
0.0000000000000001
 21
1.0
 31
0.0
 73
     1
 44
1.0
1001
ACAD
1000
MTEXTBEGIN
1070
    73
1070
     1
1070
    44
1040
1.0
1070
    74
1070
     0
1000
MTEXTEND
  0
POINT
  5
A09
330
643
100
AcDbEntity
  8
Defpoints
  6
Continuous
 62
     0
100
AcDbPoint
 10
210.0949763191673
 20
164.7360660003301
 30
0.0
  0
POINT
  5
A0A
330
643
100
AcDbEntity
  8
Defpoints
  6
Continuous
 62
     0
100
AcDbPoint
 10
202.8949763191673
 20
89.53606600033017
 30
0.0
  0
POINT
  5
A0B
330
643
100
AcDbEntity
  8
Defpoints
  6
Continuous
 62
     0
100
AcDbPoint
 10
182.7682734010348
 20
89.53606600033017
 30
0.0
  0
ENDBLK
  5
64E
330
643
100
AcDbEntity
  8
0
100
AcDbBlockEnd
  0
BLOCK
  5
659
330
64F
100
AcDbEntity
  8
0
100
AcDbBlockBegin
  2
*D4
 70
     1
 10
0.0
 20
0.0
 30
0.0
  3
*D4
  1

  0
LINE
  5
A0C
330
64F
100
AcDbEntity
  8
0
  6
Continuous
 62
     0
370
    -2
100
AcDbLine
 10
206.6449763191672
 20
151.9360660003302
 30
0.0
 11
191.2578580764367
 21
151.9360660003302
 31
0.0
  0
LINE
  5
A0D
330
64F
100
AcDbEntity
  8
0
  6
Continuous
 62
     0
370
    -2
100
AcDbLine
 10
208.2449763191672
 20
125.5360660003307
 30
0.0
 11
191.2578580764367
 21
125.5360660003307
 31
0.0
  0
LINE
  5
A0E
330
64F
100
AcDbEntity
  8
0
  6
Continuous
 62
     0
370
    -2
100
AcDbLine
 10
192.5078580764367
 20
149.4360660003302
 30
0.0
 11
192.5078580764367
 21
128.0360660003306
 31
0.0
  0
INSERT
  5
A0F
330
64F
100
AcDbEntity
  8
0
  6
Continuous
 62
     0
370
    -2
100
AcDbBlockReference
  2
_Open30
 10
192.5078580764367
 20
151.9360660003302
 30
0.0
 41
2.5
 42
2.5
 43
2.5
 50
90.0
  0
INSERT
  5
A10
330
64F
100
AcDbEntity
  8
0
  6
Continuous
 62
     0
370
    -2
100
AcDbBlockReference
  2
_Open30
 10
192.5078580764367
 20
125.5360660003307
 30
0.0
 41
2.5
 42
2.5
 43
2.5
 50
270.0
  0
MTEXT
  5
A11
330
64F
100
AcDbEntity
  8
0
  6
Continuous
 62
     4
100
AcDbMText
 10
190.3828580764367
 20
138.6258080441269
 30
0.0
 40
3.0
 41
0.0
 71
     5
 72
     1
  1
33
 11
0.0000000000000001
 21
1.0
 31
0.0
 73
     1
 44
1.0
1001
ACAD
1000
MTEXTBEGIN
1070
    73
1070
     1
1070
    44
1040
1.0
1070
    74
1070
     0
1000
MTEXTEND
  0
POINT
  5
A12
330
64F
100
AcDbEntity
  8
Defpoints
  6
Continuous
 62
     0
100
AcDbPoint
 10
206.8949763191672
 20
151.9360660003302
 30
0.0
  0
POINT
  5
A13
330
64F
100
AcDbEntity
  8
Defpoints
  6
Continuous
 62
     0
100
AcDbPoint
 10
208.4949763191672
 20
125.5360660003307
 30
0.0
  0
POINT
  5
A14
330
64F
100
AcDbEntity
  8
Defpoints
  6
Continuous
 62
     0
100
AcDbPoint
 10
192.5078580764367
 20
125.5360660003307
 30
0.0
  0
ENDBLK
  5
65A
330
64F
100
AcDbEntity
  8
0
100
AcDbBlockEnd
  0
BLOCK
  5
665
330
65B
100
AcDbEntity
  8
0
100
AcDbBlockBegin
  2
*D5
 70
     1
 10
0.0
 20
0.0
 30
0.0
  3
*D5
  1

  0
LINE
  5
A15
330
65B
100
AcDbEntity
  8
0
  6
Continuous
 62
     0
370
    -2
100
AcDbLine
 10
91.63788076097594
 20
184.2169595202013
 30
0.0
 11
91.63788076097594
 21
141.7893565834694
 31
0.0
  0
LINE
  5
A16
330
65B
100
AcDbEntity
  8
0
  6
Continuous
 62
     0
370
    -2
100
AcDbLine
 10
148.301379760976
 20
184.2420153290487
 30
0.0
 11
148.301379760976
 21
141.7893565834694
 31
0.0
  0
LINE
  5
A17
330
65B
100
AcDbEntity
  8
0
  6
Continuous
 62
     0
370
    -2
100
AcDbLine
 10
94.13788076097594
 20
143.0393565834694
 30
0.0
 11
145.801379760976
 21
143.0393565834694
 31
0.0
  0
INSERT
  5
A18
330
65B
100
AcDbEntity
  8
0
  6
Continuous
 62
     0
370
    -2
100
AcDbBlockReference
  2
_Open30
 10
91.63788076097594
 20
143.0393565834694
 30
0.0
 41
2.5
 42
2.5
 43
2.5
 50
180.0
  0
INSERT
  5
A19
330
65B
100
AcDbEntity
  8
0
  6
Continuous
 62
     0
370
    -2
100
AcDbBlockReference
  2
_Open30
 10
148.301379760976
 20
143.0393565834694
 30
0.0
 41
2.5
 42
2.5
 43
2.5
  0
MTEXT
  5
A1A
330
65B
100
AcDbEntity
  8
0
  6
Continuous
 62
     4
100
AcDbMText
 10
120.1852320258083
 20
145.1643565834694
 30
0.0
 40
3.0
 41
0.0
 71
     5
 72
     1
  1
取付ピッチ95
 73
     1
 44
1.0
1001
ACAD
1000
MTEXTBEGIN
1070
    73
1070
     1
1070
    44
1040
1.0
1070
    74
1070
     0
1000
MTEXTEND
  0
POINT
  5
A1B
330
65B
100
AcDbEntity
  8
Defpoints
  6
Continuous
 62
     0
100
AcDbPoint
 10
91.63788076097594
 20
184.4669595202013
 30
0.0
  0
POINT
  5
A1C
330
65B
100
AcDbEntity
  8
Defpoints
  6
Continuous
 62
     0
100
AcDbPoint
 10
148.301379760976
 20
184.4920153290487
 30
0.0
  0
POINT
  5
A1D
330
65B
100
AcDbEntity
  8
Defpoints
  6
Continuous
 62
     0
100
AcDbPoint
 10
148.301379760976
 20
143.0393565834694
 30
0.0
  0
ENDBLK
  5
666
330
65B
100
AcDbEntity
  8
0
100
AcDbBlockEnd
  0
BLOCK
  5
AAC
330
AAB
100
AcDbEntity
  8
0
100
AcDbBlockBegin
  2
*D7
 70
     1
 10
0.0
 20
0.0
 30
0.0
  3
*D7
  1

  0
LINE
  5
AC2
330
AAB
100
AcDbEntity
  8
0
 62
     0
370
    -2
100
AcDbLine
 10
202.8949763191673
 20
89.28606600033019
 30
0.0
 11
202.8949763191673
 21
79.20854275836768
 31
0.0
  0
LINE
  5
AC3
330
AAB
100
AcDbEntity
  8
0
 62
     0
370
    -2
100
AcDbLine
 10
286.8949763191673
 20
89.28606600033019
 30
0.0
 11
286.8949763191673
 21
79.20854275836768
 31
0.0
  0
LINE
  5
AC4
330
AAB
100
AcDbEntity
  8
0
 62
     0
370
    -2
100
AcDbLine
 10
205.3949763191674
 20
80.45854275836768
 30
0.0
 11
284.3949763191673
 21
80.45854275836768
 31
0.0
  0
INSERT
  5
AC5
330
AAB
100
AcDbEntity
  8
0
 62
     0
370
    -2
100
AcDbBlockReference
  2
_Open30
 10
202.8949763191673
 20
80.45854275836768
 30
0.0
 41
2.5
 42
2.5
 43
2.5
 50
180.0
  0
INSERT
  5
AC6
330
AAB
100
AcDbEntity
  8
0
 62
     0
370
    -2
100
AcDbBlockReference
  2
_Open30
 10
286.8949763191673
 20
80.45854275836768
 30
0.0
 41
2.5
 42
2.5
 43
2.5
  0
MTEXT
  5
AC7
330
AAB
100
AcDbEntity
  8
0
 62
     4
100
AcDbMText
 10
244.7324978374304
 20
82.58354275836769
 30
0.0
 40
3.0
 41
0.0
 71
     5
 72
     1
  1
%%C105
 73
     1
 44
1.0
1001
ACAD
1000
MTEXTBEGIN
1070
    73
1070
     1
1070
    44
1040
1.0
1070
    74
1070
     0
1000
MTEXTEND
  0
POINT
  5
AC8
330
AAB
100
AcDbEntity
  8
Defpoints
 62
     0
100
AcDbPoint
 10
202.8949763191673
 20
89.53606600033017
 30
0.0
  0
POINT
  5
AC9
330
AAB
100
AcDbEntity
  8
Defpoints
 62
     0
100
AcDbPoint
 10
286.8949763191673
 20
89.53606600033017
 30
0.0
  0
POINT
  5
ACA
330
AAB
100
AcDbEntity
  8
Defpoints
 62
     0
100
AcDbPoint
 10
286.8949763191673
 20
80.45854275836768
 30
0.0
  0
ENDBLK
  5
AAD
330
AAB
100
AcDbEntity
  8
0
100
AcDbBlockEnd
  0
BLOCK
  5
BD5
330
BD4
100
AcDbEntity
  8
0
100
AcDbBlockBegin
  2
*D8
 70
     1
 10
0.0
 20
0.0
 30
0.0
  3
*D8
  1

  0
LINE
  5
BD6
330
BD4
100
AcDbEntity
  8
0
 62
     0
370
    -2
100
AcDbLine
 10
-178.2339678749101
 20
-812.0370112307897
 30
0.0
 11
-178.2339678749101
 21
-814.9466426527986
 31
0.0
  0
LINE
  5
BD7
330
BD4
100
AcDbEntity
  8
0
 62
     0
370
    -2
100
AcDbLine
 10
-180.6911549290304
 20
-812.0370112307897
 30
0.0
 11
-180.6911549290304
 21
-814.9466426527986
 31
0.0
  0
LINE
  5
BD8
330
BD4
100
AcDbEntity
  8
0
 62
     0
370
    -2
100
AcDbLine
 10
-175.7339678749101
 20
-813.6966426527985
 30
0.0
 11
-173.2339678749101
 21
-813.6966426527985
 31
0.0
  0
LINE
  5
BD9
330
BD4
100
AcDbEntity
  8
0
 62
     0
370
    -2
100
AcDbLine
 10
-183.1911549290304
 20
-813.6966426527985
 30
0.0
 11
-195.9411549290304
 21
-813.6966426527985
 31
0.0
  0
LINE
  5
BDA
330
BD4
100
AcDbEntity
  8
0
 62
     0
370
    -2
100
AcDbLine
 10
-178.2339678749101
 20
-813.6966426527985
 30
0.0
 11
-180.6911549290304
 21
-813.6966426527985
 31
0.0
  0
INSERT
  5
BDB
330
BD4
100
AcDbEntity
  8
0
 62
     0
370
    -2
100
AcDbBlockReference
  2
_Open30
 10
-178.2339678749101
 20
-813.6966426527985
 30
0.0
 41
2.5
 42
2.5
 43
2.5
 50
180.0
  0
INSERT
  5
BDC
330
BD4
100
AcDbEntity
  8
0
 62
     0
370
    -2
100
AcDbBlockReference
  2
_Open30
 10
-180.6911549290304
 20
-813.6966426527985
 30
0.0
 41
2.5
 42
2.5
 43
2.5
  0
MTEXT
  5
BDD
330
BD4
100
AcDbEntity
  8
0
 62
     4
100
AcDbMText
 10
-190.8161549290304
 20
-811.5716426527985
 30
0.0
 40
3.0
 41
0.0
 71
     5
 72
     1
  1
2.46
 73
     1
 44
1.0
1001
ACAD
1000
MTEXTBEGIN
1070
    73
1070
     1
1070
    44
1040
1.0
1070
    74
1070
     0
1000
MTEXTEND
  0
POINT
  5
BDE
330
BD4
100
AcDbEntity
  8
Defpoints
 62
     0
100
AcDbPoint
 10
-178.2339678749101
 20
-811.7870112307898
 30
0.0
  0
POINT
  5
BDF
330
BD4
100
AcDbEntity
  8
Defpoints
 62
     0
100
AcDbPoint
 10
-180.6911549290304
 20
-811.7870112307898
 30
0.0
  0
POINT
  5
BE0
330
BD4
100
AcDbEntity
  8
Defpoints
 62
     0
100
AcDbPoint
 10
-180.6911549290304
 20
-813.6966426527985
 30
0.0
  0
ENDBLK
  5
BE1
330
BD4
100
AcDbEntity
  8
0
100
AcDbBlockEnd
  0
BLOCK
  5
BE3
330
BE2
100
AcDbEntity
  8
0
100
AcDbBlockBegin
  2
*D9
 70
     1
 10
0.0
 20
0.0
 30
0.0
  3
*D9
  1

  0
LINE
  5
BE4
330
BE2
100
AcDbEntity
  8
0
 62
     0
370
    -2
100
AcDbLine
 10
-176.5958429688369
 20
-817.4931008035521
 30
0.0
 11
-176.5958429688369
 21
-820.0389928730155
 31
0.0
  0
LINE
  5
BE5
330
BE2
100
AcDbEntity
  8
0
 62
     0
370
    -2
100
AcDbLine
 10
-179.6900787669798
 20
-817.4931008035521
 30
0.0
 11
-179.6900787669798
 21
-820.0389928730155
 31
0.0
  0
LINE
  5
BE6
330
BE2
100
AcDbEntity
  8
0
 62
     0
370
    -2
100
AcDbLine
 10
-174.0958429688369
 20
-818.7889928730154
 30
0.0
 11
-171.5958429688369
 21
-818.7889928730154
 31
0.0
  0
LINE
  5
BE7
330
BE2
100
AcDbEntity
  8
0
 62
     0
370
    -2
100
AcDbLine
 10
-182.1900787669798
 20
-818.7889928730154
 30
0.0
 11
-196.0234121003131
 21
-818.7889928730154
 31
0.0
  0
LINE
  5
BE8
330
BE2
100
AcDbEntity
  8
0
 62
     0
370
    -2
100
AcDbLine
 10
-176.5958429688369
 20
-818.7889928730154
 30
0.0
 11
-179.6900787669798
 21
-818.7889928730154
 31
0.0
  0
INSERT
  5
BE9
330
BE2
100
AcDbEntity
  8
0
 62
     0
370
    -2
100
AcDbBlockReference
  2
_Open30
 10
-176.5958429688369
 20
-818.7889928730154
 30
0.0
 41
2.5
 42
2.5
 43
2.5
 50
180.0
  0
INSERT
  5
BEA
330
BE2
100
AcDbEntity
  8
0
 62
     0
370
    -2
100
AcDbBlockReference
  2
_Open30
 10
-179.6900787669798
 20
-818.7889928730154
 30
0.0
 41
2.5
 42
2.5
 43
2.5
  0
MTEXT
  5
BEB
330
BE2
100
AcDbEntity
  8
0
 62
     4
100
AcDbMText
 10
-190.8150787669798
 20
-816.9139928730155
 30
0.0
 40
2.5
 41
0.0
 71
     5
 72
     1
  1
15.47
  7
高2.5
 73
     1
 44
1.0
1001
ACAD
1000
MTEXTBEGIN
1070
    73
1070
     1
1070
    44
1040
1.0
1070
    74
1070
     0
1000
MTEXTEND
  0
POINT
  5
BEC
330
BE2
100
AcDbEntity
  8
Defpoints
 62
     0
100
AcDbPoint
 10
-176.5958429688369
 20
-817.2431008035522
 30
0.0
  0
POINT
  5
BED
330
BE2
100
AcDbEntity
  8
Defpoints
 62
     0
100
AcDbPoint
 10
-179.6900787669798
 20
-817.2431008035522
 30
0.0
  0
POINT
  5
BEE
330
BE2
100
AcDbEntity
  8
Defpoints
 62
     0
100
AcDbPoint
 10
-179.6900787669798
 20
-818.7889928730154
 30
0.0
  0
ENDBLK
  5
BEF
330
BE2
100
AcDbEntity
  8
0
100
AcDbBlockEnd
  0
BLOCK
  5
BF1
330
BF0
100
AcDbEntity
  8
0
100
AcDbBlockBegin
  2
*D10
 70
     1
 10
0.0
 20
0.0
 30
0.0
  3
*D10
  1

  0
LINE
  5
BF2
330
BF0
100
AcDbEntity
  8
0
 62
     0
370
    -2
100
AcDbLine
 10
-174.8667113607514
 20
-822.9491905193986
 30
0.0
 11
-174.8667113607514
 21
-825.2222781817659
 31
0.0
  0
LINE
  5
BF3
330
BF0
100
AcDbEntity
  8
0
 62
     0
370
    -2
100
AcDbLine
 10
-178.8710163139432
 20
-822.9491905193986
 30
0.0
 11
-178.8710163139432
 21
-825.2222781817659
 31
0.0
  0
LINE
  5
BF4
330
BF0
100
AcDbEntity
  8
0
 62
     0
370
    -2
100
AcDbLine
 10
-172.3667113607514
 20
-823.9722781817658
 30
0.0
 11
-169.8667113607514
 21
-823.9722781817658
 31
0.0
  0
LINE
  5
BF5
330
BF0
100
AcDbEntity
  8
0
 62
     0
370
    -2
100
AcDbLine
 10
-181.3710163139432
 20
-823.9722781817658
 30
0.0
 11
-193.1210163139432
 21
-823.9722781817658
 31
0.0
  0
LINE
  5
BF6
330
BF0
100
AcDbEntity
  8
0
 62
     0
370
    -2
100
AcDbLine
 10
-174.8667113607514
 20
-823.9722781817658
 30
0.0
 11
-178.8710163139432
 21
-823.9722781817658
 31
0.0
  0
INSERT
  5
BF7
330
BF0
100
AcDbEntity
  8
0
 62
     0
370
    -2
100
AcDbBlockReference
  2
_Open30
 10
-174.8667113607514
 20
-823.9722781817658
 30
0.0
 41
2.5
 42
2.5
 43
2.5
 50
180.0
  0
INSERT
  5
BF8
330
BF0
100
AcDbEntity
  8
0
 62
     0
370
    -2
100
AcDbBlockReference
  2
_Open30
 10
-178.8710163139432
 20
-823.9722781817658
 30
0.0
 41
2.5
 42
2.5
 43
2.5
  0
MTEXT
  5
BF9
330
BF0
100
AcDbEntity
  8
0
 62
     4
100
AcDbMText
 10
-188.4960163139432
 20
-821.7472781817658
 30
0.0
 40
3.2
 41
0.0
 71
     5
 72
     1
  1
8.01
  7
高3.2
 73
     1
 44
1.0
1001
ACAD
1000
MTEXTBEGIN
1070
    73
1070
     1
1070
    44
1040
1.0
1070
    74
1070
     0
1000
MTEXTEND
  0
POINT
  5
BFA
330
BF0
100
AcDbEntity
  8
Defpoints
 62
     0
100
AcDbPoint
 10
-174.8667113607514
 20
-822.6991905193985
 30
0.0
  0
POINT
  5
BFB
330
BF0
100
AcDbEntity
  8
Defpoints
 62
     0
100
AcDbPoint
 10
-178.8710163139432
 20
-822.6991905193985
 30
0.0
  0
POINT
  5
BFC
330
BF0
100
AcDbEntity
  8
Defpoints
 62
     0
100
AcDbPoint
 10
-178.8710163139432
 20
-823.9722781817658
 30
0.0
  0
ENDBLK
  5
BFD
330
BF0
100
AcDbEntity
  8
0
100
AcDbBlockEnd
  0
BLOCK
  5
BFF
330
BFE
100
AcDbEntity
  8
0
100
AcDbBlockBegin
  2
*D11
 70
     1
 10
0.0
 20
0.0
 30
0.0
  3
*D11
  1

  0
LINE
  5
C00
330
BFE
100
AcDbEntity
  8
0
 62
     0
370
    -2
100
AcDbLine
 10
-174.9577180627637
 20
-828.2234104874302
 30
0.0
 11
-174.9577180627637
 21
-830.0418239948866
 31
0.0
  0
LINE
  5
C01
330
BFE
100
AcDbEntity
  8
0
 62
     0
370
    -2
100
AcDbLine
 10
-179.6900787669798
 20
-828.2234104874302
 30
0.0
 11
-179.6900787669798
 21
-830.0418239948866
 31
0.0
  0
LINE
  5
C02
330
BFE
100
AcDbEntity
  8
0
 62
     0
370
    -2
100
AcDbLine
 10
-172.4577180627637
 20
-828.7918239948865
 30
0.0
 11
-169.9577180627637
 21
-828.7918239948865
 31
0.0
  0
LINE
  5
C03
330
BFE
100
AcDbEntity
  8
0
 62
     0
370
    -2
100
AcDbLine
 10
-182.1900787669798
 20
-828.7918239948865
 30
0.0
 11
-203.9400787669798
 21
-828.7918239948865
 31
0.0
  0
LINE
  5
C04
330
BFE
100
AcDbEntity
  8
0
 62
     0
370
    -2
100
AcDbLine
 10
-174.9577180627637
 20
-828.7918239948865
 30
0.0
 11
-179.6900787669798
 21
-828.7918239948865
 31
0.0
  0
INSERT
  5
C05
330
BFE
100
AcDbEntity
  8
0
 62
     0
370
    -2
100
AcDbBlockReference
  2
_Open30
 10
-174.9577180627637
 20
-828.7918239948865
 30
0.0
 41
2.5
 42
2.5
 43
2.5
 50
180.0
  0
INSERT
  5
C06
330
BFE
100
AcDbEntity
  8
0
 62
     0
370
    -2
100
AcDbBlockReference
  2
_Open30
 10
-179.6900787669798
 20
-828.7918239948865
 30
0.0
 41
2.5
 42
2.5
 43
2.5
  0
MTEXT
  5
C07
330
BFE
100
AcDbEntity
  8
0
 62
     4
100
AcDbMText
 10
-194.3150787669798
 20
-825.9168239948866
 30
0.0
 40
4.5
 41
0.0
 71
     5
 72
     1
  1
47.32
  7
高4.5
 73
     1
 44
1.0
1001
ACAD
1000
MTEXTBEGIN
1070
    73
1070
     1
1070
    44
1040
1.0
1070
    74
1070
     0
1000
MTEXTEND
  0
POINT
  5
C08
330
BFE
100
AcDbEntity
  8
Defpoints
 62
     0
100
AcDbPoint
 10
-174.9577180627637
 20
-827.9734104874302
 30
0.0
  0
POINT
  5
C09
330
BFE
100
AcDbEntity
  8
Defpoints
 62
     0
100
AcDbPoint
 10
-179.6900787669798
 20
-827.9734104874302
 30
0.0
  0
POINT
  5
C0A
330
BFE
100
AcDbEntity
  8
Defpoints
 62
     0
100
AcDbPoint
 10
-179.6900787669798
 20
-828.7918239948865
 30
0.0
  0
ENDBLK
  5
C0B
330
BFE
100
AcDbEntity
  8
0
100
AcDbBlockEnd
  0
BLOCK
  5
C0D
330
C0C
100
AcDbEntity
  8
0
100
AcDbBlockBegin
  2
*D12
 70
     1
 10
0.0
 20
0.0
 30
0.0
  3
*D12
  1

  0
LINE
  5
C0E
330
C0C
100
AcDbEntity
  8
0
 62
     0
370
    -2
100
AcDbLine
 10
-153.4800817947562
 20
-812.0370112307897
 30
0.0
 11
-153.4800817947562
 21
-814.9466426527986
 31
0.0
  0
LINE
  5
C0F
330
C0C
100
AcDbEntity
  8
0
 62
     0
370
    -2
100
AcDbLine
 10
-155.9372688488765
 20
-812.0370112307897
 30
0.0
 11
-155.9372688488765
 21
-814.9466426527986
 31
0.0
  0
LINE
  5
C10
330
C0C
100
AcDbEntity
  8
0
 62
     0
370
    -2
100
AcDbLine
 10
-150.9800817947562
 20
-813.6966426527985
 30
0.0
 11
-148.4800817947562
 21
-813.6966426527985
 31
0.0
  0
LINE
  5
C11
330
C0C
100
AcDbEntity
  8
0
 62
     0
370
    -2
100
AcDbLine
 10
-158.4372688488765
 20
-813.6966426527985
 30
0.0
 11
-180.0372688488765
 21
-813.6966426527985
 31
0.0
  0
LINE
  5
C12
330
C0C
100
AcDbEntity
  8
0
 62
     0
370
    -2
100
AcDbLine
 10
-153.4800817947562
 20
-813.6966426527985
 30
0.0
 11
-155.9372688488765
 21
-813.6966426527985
 31
0.0
  0
INSERT
  5
C13
330
C0C
100
AcDbEntity
  8
0
 62
     0
370
    -2
100
AcDbBlockReference
  2
_Open30
 10
-153.4800817947562
 20
-813.6966426527985
 30
0.0
 41
2.5
 42
2.5
 43
2.5
 50
180.0
  0
INSERT
  5
C14
330
C0C
100
AcDbEntity
  8
0
 62
     0
370
    -2
100
AcDbBlockReference
  2
_Open30
 10
-155.9372688488765
 20
-813.6966426527985
 30
0.0
 41
2.5
 42
2.5
 43
2.5
  0
MTEXT
  5
C15
330
C0C
100
AcDbEntity
  8
0
 62
     4
100
AcDbMText
 10
-170.4872688488765
 20
-809.9216426527986
 30
0.0
 40
6.299999999999999
 41
0.0
 71
     5
 72
     1
  1
0.25
  7
高6.3
 73
     1
 44
1.0
1001
ACAD
1000
MTEXTBEGIN
1070
    73
1070
     1
1070
    44
1040
1.0
1070
    74
1070
     0
1000
MTEXTEND
  0
POINT
  5
C16
330
C0C
100
AcDbEntity
  8
Defpoints
 62
     0
100
AcDbPoint
 10
-153.4800817947562
 20
-811.7870112307898
 30
0.0
  0
POINT
  5
C17
330
C0C
100
AcDbEntity
  8
Defpoints
 62
     0
100
AcDbPoint
 10
-155.9372688488765
 20
-811.7870112307898
 30
0.0
  0
POINT
  5
C18
330
C0C
100
AcDbEntity
  8
Defpoints
 62
     0
100
AcDbPoint
 10
-155.9372688488765
 20
-813.6966426527985
 30
0.0
  0
ENDBLK
  5
C19
330
C0C
100
AcDbEntity
  8
0
100
AcDbBlockEnd
  0
BLOCK
  5
C1B
330
C1A
100
AcDbEntity
  8
0
100
AcDbBlockBegin
  2
*D13
 70
     1
 10
0.0
 20
0.0
 30
0.0
  3
*D13
  1

  0
LINE
  5
C1C
330
C1A
100
AcDbEntity
  8
0
 62
     0
370
    -2
100
AcDbLine
 10
-151.841956888683
 20
-817.4931008035521
 30
0.0
 11
-151.841956888683
 21
-820.0389928730155
 31
0.0
  0
LINE
  5
C1D
330
C1A
100
AcDbEntity
  8
0
 62
     0
370
    -2
100
AcDbLine
 10
-154.9361926868259
 20
-817.4931008035521
 30
0.0
 11
-154.9361926868259
 21
-820.0389928730155
 31
0.0
  0
LINE
  5
C1E
330
C1A
100
AcDbEntity
  8
0
 62
     0
370
    -2
100
AcDbLine
 10
-149.341956888683
 20
-818.7889928730154
 30
0.0
 11
-146.841956888683
 21
-818.7889928730154
 31
0.0
  0
LINE
  5
C1F
330
C1A
100
AcDbEntity
  8
0
 62
     0
370
    -2
100
AcDbLine
 10
-157.4361926868259
 20
-818.7889928730154
 30
0.0
 11
-169.4361926868259
 21
-818.7889928730154
 31
0.0
  0
LINE
  5
C20
330
C1A
100
AcDbEntity
  8
0
 62
     0
370
    -2
100
AcDbLine
 10
-151.841956888683
 20
-818.7889928730154
 30
0.0
 11
-154.9361926868259
 21
-818.7889928730154
 31
0.0
  0
INSERT
  5
C21
330
C1A
100
AcDbEntity
  8
0
 62
     0
370
    -2
100
AcDbBlockReference
  2
_Open30
 10
-151.841956888683
 20
-818.7889928730154
 30
0.0
 41
2.5
 42
2.5
 43
2.5
 50
180.0
  0
INSERT
  5
C22
330
C1A
100
AcDbEntity
  8
0
 62
     0
370
    -2
100
AcDbBlockReference
  2
_Open30
 10
-154.9361926868259
 20
-818.7889928730154
 30
0.0
 41
2.5
 42
2.5
 43
2.5
  0
MTEXT
  5
C23
330
C1A
100
AcDbEntity
  8
0
 62
     4
100
AcDbMText
 10
-164.8111926868259
 20
-816.6639928730154
 30
0.0
 40
3.0
 41
0.0
 71
     5
 72
     1
  1
1.55
 73
     1
 44
1.0
1001
ACAD
1000
MTEXTBEGIN
1070
    73
1070
     1
1070
    44
1040
1.0
1070
    74
1070
     0
1000
MTEXTEND
  0
POINT
  5
C24
330
C1A
100
AcDbEntity
  8
Defpoints
 62
     0
100
AcDbPoint
 10
-151.841956888683
 20
-817.2431008035522
 30
0.0
  0
POINT
  5
C25
330
C1A
100
AcDbEntity
  8
Defpoints
 62
     0
100
AcDbPoint
 10
-154.9361926868259
 20
-817.2431008035522
 30
0.0
  0
POINT
  5
C26
330
C1A
100
AcDbEntity
  8
Defpoints
 62
     0
100
AcDbPoint
 10
-154.9361926868259
 20
-818.7889928730154
 30
0.0
  0
ENDBLK
  5
C27
330
C1A
100
AcDbEntity
  8
0
100
AcDbBlockEnd
  0
BLOCK
  5
C29
330
C28
100
AcDbEntity
  8
0
100
AcDbBlockBegin
  2
*D14
 70
     1
 10
0.0
 20
0.0
 30
0.0
  3
*D14
  1

  0
LINE
  5
C2A
330
C28
100
AcDbEntity
  8
0
 62
     0
370
    -2
100
AcDbLine
 10
-150.1128252805975
 20
-822.9491905193986
 30
0.0
 11
-150.1128252805975
 21
-825.2222781817659
 31
0.0
  0
LINE
  5
C2B
330
C28
100
AcDbEntity
  8
0
 62
     0
370
    -2
100
AcDbLine
 10
-154.1171302337894
 20
-822.9491905193986
 30
0.0
 11
-154.1171302337894
 21
-825.2222781817659
 31
0.0
  0
LINE
  5
C2C
330
C28
100
AcDbEntity
  8
0
 62
     0
370
    -2
100
AcDbLine
 10
-147.6128252805976
 20
-823.9722781817658
 30
0.0
 11
-145.1128252805975
 21
-823.9722781817658
 31
0.0
  0
LINE
  5
C2D
330
C28
100
AcDbEntity
  8
0
 62
     0
370
    -2
100
AcDbLine
 10
-156.6171302337894
 20
-823.9722781817658
 30
0.0
 11
-164.9504635671227
 21
-823.9722781817658
 31
0.0
  0
LINE
  5
C2E
330
C28
100
AcDbEntity
  8
0
 62
     0
370
    -2
100
AcDbLine
 10
-150.1128252805975
 20
-823.9722781817658
 30
0.0
 11
-154.1171302337894
 21
-823.9722781817658
 31
0.0
  0
INSERT
  5
C2F
330
C28
100
AcDbEntity
  8
0
 62
     0
370
    -2
100
AcDbBlockReference
  2
_Open30
 10
-150.1128252805975
 20
-823.9722781817658
 30
0.0
 41
2.5
 42
2.5
 43
2.5
 50
180.0
  0
INSERT
  5
C30
330
C28
100
AcDbEntity
  8
0
 62
     0
370
    -2
100
AcDbBlockReference
  2
_Open30
 10
-154.1171302337894
 20
-823.9722781817658
 30
0.0
 41
2.5
 42
2.5
 43
2.5
  0
MTEXT
  5
C31
330
C28
100
AcDbEntity
  8
0
 62
     4
100
AcDbMText
 10
-162.4921302337894
 20
-822.3472781817658
 30
0.0
 40
2.0
 41
0.0
 71
     5
 72
     1
  1
0.8
  7
高2
 73
     1
 44
1.0
1001
ACAD
1000
MTEXTBEGIN
1070
    73
1070
     1
1070
    44
1040
1.0
1070
    74
1070
     0
1000
MTEXTEND
  0
POINT
  5
C32
330
C28
100
AcDbEntity
  8
Defpoints
 62
     0
100
AcDbPoint
 10
-150.1128252805975
 20
-822.6991905193985
 30
0.0
  0
POINT
  5
C33
330
C28
100
AcDbEntity
  8
Defpoints
 62
     0
100
AcDbPoint
 10
-154.1171302337894
 20
-822.6991905193985
 30
0.0
  0
POINT
  5
C34
330
C28
100
AcDbEntity
  8
Defpoints
 62
     0
100
AcDbPoint
 10
-154.1171302337894
 20
-823.9722781817658
 30
0.0
  0
ENDBLK
  5
C35
330
C28
100
AcDbEntity
  8
0
100
AcDbBlockEnd
  0
BLOCK
  5
C37
330
C36
100
AcDbEntity
  8
0
100
AcDbBlockBegin
  2
*D15
 70
     1
 10
0.0
 20
0.0
 30
0.0
  3
*D15
  1

  0
LINE
  5
C38
330
C36
100
AcDbEntity
  8
0
 62
     0
370
    -2
100
AcDbLine
 10
-150.2038319826098
 20
-828.2234104874302
 30
0.0
 11
-150.2038319826098
 21
-830.0418239948866
 31
0.0
  0
LINE
  5
C39
330
C36
100
AcDbEntity
  8
0
 62
     0
370
    -2
100
AcDbLine
 10
-154.9361926868259
 20
-828.2234104874302
 30
0.0
 11
-154.9361926868259
 21
-830.0418239948866
 31
0.0
  0
LINE
  5
C3A
330
C36
100
AcDbEntity
  8
0
 62
     0
370
    -2
100
AcDbLine
 10
-147.7038319826099
 20
-828.7918239948865
 30
0.0
 11
-145.2038319826098
 21
-828.7918239948865
 31
0.0
  0
LINE
  5
C3B
330
C36
100
AcDbEntity
  8
0
 62
     0
370
    -2
100
AcDbLine
 10
-157.4361926868259
 20
-828.7918239948865
 30
0.0
 11
-172.1861926868259
 21
-828.7918239948865
 31
0.0
  0
LINE
  5
C3C
330
C36
100
AcDbEntity
  8
0
 62
     0
370
    -2
100
AcDbLine
 10
-150.2038319826098
 20
-828.7918239948865
 30
0.0
 11
-154.9361926868259
 21
-828.7918239948865
 31
0.0
  0
INSERT
  5
C3D
330
C36
100
AcDbEntity
  8
0
 62
     0
370
    -2
100
AcDbBlockReference
  2
_Open30
 10
-150.2038319826098
 20
-828.7918239948865
 30
0.0
 41
2.5
 42
2.5
 43
2.5
 50
180.0
  0
INSERT
  5
C3E
330
C36
100
AcDbEntity
  8
0
 62
     0
370
    -2
100
AcDbBlockReference
  2
_Open30
 10
-154.9361926868259
 20
-828.7918239948865
 30
0.0
 41
2.5
 42
2.5
 43
2.5
  0
MTEXT
  5
C3F
330
C36
100
AcDbEntity
  8
0
 62
     4
100
AcDbMText
 10
-166.0611926868259
 20
-826.6668239948867
 30
0.0
 40
3.0
 41
0.0
 71
     5
 72
     1
  1
18.93
 73
     1
 44
1.0
1001
ACAD
1000
MTEXTBEGIN
1070
    73
1070
     1
1070
    44
1040
1.0
1070
    74
1070
     0
1000
MTEXTEND
  0
POINT
  5
C40
330
C36
100
AcDbEntity
  8
Defpoints
 62
     0
100
AcDbPoint
 10
-150.2038319826098
 20
-827.9734104874302
 30
0.0
  0
POINT
  5
C41
330
C36
100
AcDbEntity
  8
Defpoints
 62
     0
100
AcDbPoint
 10
-154.9361926868259
 20
-827.9734104874302
 30
0.0
  0
POINT
  5
C42
330
C36
100
AcDbEntity
  8
Defpoints
 62
     0
100
AcDbPoint
 10
-154.9361926868259
 20
-828.7918239948865
 30
0.0
  0
ENDBLK
  5
C43
330
C36
100
AcDbEntity
  8
0
100
AcDbBlockEnd
  0
BLOCK
  5
C45
330
C44
100
AcDbEntity
  8
0
100
AcDbBlockBegin
  2
*D16
 70
     1
 10
0.0
 20
0.0
 30
0.0
  3
*D16
  1

  0
LINE
  5
C46
330
C44
100
AcDbEntity
  8
0
 62
     0
370
    -2
100
AcDbLine
 10
-153.0082588337482
 20
-833.2792506940199
 30
0.0
 11
-153.0082588337482
 21
-835.5891717708955
 31
0.0
  0
LINE
  5
C47
330
C44
100
AcDbEntity
  8
0
 62
     0
370
    -2
100
AcDbLine
 10
-157.5969340358961
 20
-833.2792506940199
 30
0.0
 11
-157.5969340358961
 21
-835.5891717708955
 31
0.0
  0
LINE
  5
C48
330
C44
100
AcDbEntity
  8
0
 62
     0
370
    -2
100
AcDbLine
 10
-150.5082588337482
 20
-834.3391717708955
 30
0.0
 11
-148.0082588337482
 21
-834.3391717708955
 31
0.0
  0
LINE
  5
C49
330
C44
100
AcDbEntity
  8
0
 62
     0
370
    -2
100
AcDbLine
 10
-160.0969340358961
 20
-834.3391717708955
 30
0.0
 11
-174.8469340358961
 21
-834.3391717708955
 31
0.0
  0
LINE
  5
C4A
330
C44
100
AcDbEntity
  8
0
 62
     0
370
    -2
100
AcDbLine
 10
-153.0082588337482
 20
-834.3391717708955
 30
0.0
 11
-157.5969340358961
 21
-834.3391717708955
 31
0.0
  0
INSERT
  5
C4B
330
C44
100
AcDbEntity
  8
0
 62
     0
370
    -2
100
AcDbBlockReference
  2
_Open30
 10
-153.0082588337482
 20
-834.3391717708955
 30
0.0
 41
2.5
 42
2.5
 43
2.5
 50
180.0
  0
INSERT
  5
C4C
330
C44
100
AcDbEntity
  8
0
 62
     0
370
    -2
100
AcDbBlockReference
  2
_Open30
 10
-157.5969340358961
 20
-834.3391717708955
 30
0.0
 41
2.5
 42
2.5
 43
2.5
  0
MTEXT
  5
C4D
330
C44
100
AcDbEntity
  8
0
 62
     4
100
AcDbMText
 10
-168.7219340358961
 20
-832.2141717708955
 30
0.0
 40
3.0
 41
0.0
 71
     5
 72
     1
  1
13.77
 73
     1
 44
1.0
1001
ACAD
1000
MTEXTBEGIN
1070
    73
1070
     1
1070
    44
1040
1.0
1070
    74
1070
     0
1000
MTEXTEND
  0
POINT
  5
C4E
330
C44
100
AcDbEntity
  8
Defpoints
 62
     0
100
AcDbPoint
 10
-153.0082588337482
 20
-833.02925069402
 30
0.0
  0
POINT
  5
C4F
330
C44
100
AcDbEntity
  8
Defpoints
 62
     0
100
AcDbPoint
 10
-157.5969340358961
 20
-833.02925069402
 30
0.0
  0
POINT
  5
C50
330
C44
100
AcDbEntity
  8
Defpoints
 62
     0
100
AcDbPoint
 10
-157.5969340358961
 20
-834.3391717708955
 30
0.0
  0
ENDBLK
  5
C51
330
C44
100
AcDbEntity
  8
0
100
AcDbBlockEnd
  0
BLOCK
  5
C53
330
C52
100
AcDbEntity
  8
0
100
AcDbBlockBegin
  2
*D17
 70
     1
 10
0.0
 20
0.0
 30
0.0
  3
*D17
  1

  0
LINE
  5
C54
330
C52
100
AcDbEntity
  8
0
 62
     0
370
    -2
100
AcDbLine
 10
-160.1045416668985
 20
-802.3497593757456
 30
0.0
 11
-160.1045416668985
 21
-794.9532258978079
 31
0.0
  0
LINE
  5
C55
330
C52
100
AcDbEntity
  8
0
 62
     0
370
    -2
100
AcDbLine
 10
-170.0430160363885
 20
-802.3497593757456
 30
0.0
 11
-170.0430160363885
 21
-794.9532258978079
 31
0.0
  0
LINE
  5
C56
330
C52
100
AcDbEntity
  8
0
 62
     0
370
    -2
100
AcDbLine
 10
-162.6045416668985
 20
-796.2032258978078
 30
0.0
 11
-167.5430160363885
 21
-796.2032258978078
 31
0.0
  0
INSERT
  5
C57
330
C52
100
AcDbEntity
  8
0
 62
     0
370
    -2
100
AcDbBlockReference
  2
_Open30
 10
-160.1045416668985
 20
-796.2032258978078
 30
0.0
 41
2.5
 42
2.5
 43
2.5
  0
INSERT
  5
C58
330
C52
100
AcDbEntity
  8
0
 62
     0
370
    -2
100
AcDbBlockReference
  2
_Open30
 10
-170.0430160363885
 20
-796.2032258978078
 30
0.0
 41
2.5
 42
2.5
 43
2.5
 50
180.0
  0
MTEXT
  5
C59
330
C52
100
AcDbEntity
  8
0
 62
     4
100
AcDbMText
 10
-165.0737788516435
 20
-793.1282258978078
 30
0.0
 40
3.0
 41
0.0
 71
     5
 72
     1
  1
9.94\H0.7X;\S+0^ -0.02;
 73
     1
 44
1.0
1001
ACAD
1000
MTEXTBEGIN
1070
    73
1070
     1
1070
    44
1040
1.0
1070
    74
1070
     0
1000
MTEXTEND
  0
POINT
  5
C5A
330
C52
100
AcDbEntity
  8
Defpoints
 62
     0
100
AcDbPoint
 10
-160.1045416668985
 20
-802.5997593757455
 30
0.0
  0
POINT
  5
C5B
330
C52
100
AcDbEntity
  8
Defpoints
 62
     0
100
AcDbPoint
 10
-170.0430160363885
 20
-802.5997593757455
 30
0.0
  0
POINT
  5
C5C
330
C52
100
AcDbEntity
  8
Defpoints
 62
     0
100
AcDbPoint
 10
-170.0430160363885
 20
-796.2032258978078
 30
0.0
  0
ENDBLK
  5
C5D
330
C52
100
AcDbEntity
  8
0
100
AcDbBlockEnd
  0
BLOCK
  5
C84
330
C83
100
AcDbEntity
  8
0
100
AcDbBlockBegin
  2
*D19
 70
     1
 10
0.0
 20
0.0
 30
0.0
  3
*D19
  1

  0
LINE
  5
D0D
330
C83
100
AcDbEntity
  8
0
 62
     0
370
    -2
100
AcDbLine
 10
659.187099972323
 20
141.874141013736
 30
0.0
 11
659.187099972323
 21
138.9645095917271
 31
0.0
  0
LINE
  5
D0E
330
C83
100
AcDbEntity
  8
0
 62
     0
370
    -2
100
AcDbLine
 10
656.7299129182027
 20
141.874141013736
 30
0.0
 11
656.7299129182027
 21
138.9645095917271
 31
0.0
  0
LINE
  5
D0F
330
C83
100
AcDbEntity
  8
0
 62
     0
370
    -2
100
AcDbLine
 10
661.687099972323
 20
140.2145095917271
 30
0.0
 11
664.187099972323
 21
140.2145095917271
 31
0.0
  0
LINE
  5
D10
330
C83
100
AcDbEntity
  8
0
 62
     0
370
    -2
100
AcDbLine
 10
654.2299129182027
 20
140.2145095917271
 30
0.0
 11
641.4799129182028
 21
140.2145095917271
 31
0.0
  0
LINE
  5
D11
330
C83
100
AcDbEntity
  8
0
 62
     0
370
    -2
100
AcDbLine
 10
659.187099972323
 20
140.2145095917271
 30
0.0
 11
656.7299129182027
 21
140.2145095917271
 31
0.0
  0
INSERT
  5
D12
330
C83
100
AcDbEntity
  8
0
 62
     0
370
    -2
100
AcDbBlockReference
  2
_Open30
 10
659.187099972323
 20
140.2145095917271
 30
0.0
 41
2.5
 42
2.5
 43
2.5
 50
180.0
  0
INSERT
  5
D13
330
C83
100
AcDbEntity
  8
0
 62
     0
370
    -2
100
AcDbBlockReference
  2
_Open30
 10
656.7299129182027
 20
140.2145095917271
 30
0.0
 41
2.5
 42
2.5
 43
2.5
  0
MTEXT
  5
D14
330
C83
100
AcDbEntity
  8
0
 62
     4
100
AcDbMText
 10
646.6049129182027
 20
142.3395095917271
 30
0.0
 40
3.0
 41
0.0
 71
     5
 72
     1
  1
2.46
 73
     1
 44
1.0
1001
ACAD
1000
MTEXTBEGIN
1070
    73
1070
     1
1070
    44
1040
1.0
1070
    74
1070
     0
1000
MTEXTEND
  0
POINT
  5
D15
330
C83
100
AcDbEntity
  8
Defpoints
 62
     0
100
AcDbPoint
 10
659.187099972323
 20
142.124141013736
 30
0.0
  0
POINT
  5
D16
330
C83
100
AcDbEntity
  8
Defpoints
 62
     0
100
AcDbPoint
 10
656.7299129182027
 20
142.124141013736
 30
0.0
  0
POINT
  5
D17
330
C83
100
AcDbEntity
  8
Defpoints
 62
     0
100
AcDbPoint
 10
656.7299129182027
 20
140.2145095917271
 30
0.0
  0
ENDBLK
  5
C85
330
C83
100
AcDbEntity
  8
0
100
AcDbBlockEnd
  0
BLOCK
  5
C92
330
C91
100
AcDbEntity
  8
0
100
AcDbBlockBegin
  2
*D20
 70
     1
 10
0.0
 20
0.0
 30
0.0
  3
*D20
  1

  0
LINE
  5
D18
330
C91
100
AcDbEntity
  8
0
 62
     0
370
    -2
100
AcDbLine
 10
660.8252248783962
 20
136.4180514409736
 30
0.0
 11
660.8252248783962
 21
133.8721593715103
 31
0.0
  0
LINE
  5
D19
330
C91
100
AcDbEntity
  8
0
 62
     0
370
    -2
100
AcDbLine
 10
657.7309890802533
 20
136.4180514409736
 30
0.0
 11
657.7309890802533
 21
133.8721593715103
 31
0.0
  0
LINE
  5
D1A
330
C91
100
AcDbEntity
  8
0
 62
     0
370
    -2
100
AcDbLine
 10
663.3252248783962
 20
135.1221593715103
 30
0.0
 11
665.8252248783963
 21
135.1221593715103
 31
0.0
  0
LINE
  5
D1B
330
C91
100
AcDbEntity
  8
0
 62
     0
370
    -2
100
AcDbLine
 10
655.2309890802534
 20
135.1221593715103
 30
0.0
 11
641.3976557469201
 21
135.1221593715103
 31
0.0
  0
LINE
  5
D1C
330
C91
100
AcDbEntity
  8
0
 62
     0
370
    -2
100
AcDbLine
 10
660.8252248783962
 20
135.1221593715103
 30
0.0
 11
657.7309890802533
 21
135.1221593715103
 31
0.0
  0
INSERT
  5
D1D
330
C91
100
AcDbEntity
  8
0
 62
     0
370
    -2
100
AcDbBlockReference
  2
_Open30
 10
660.8252248783962
 20
135.1221593715103
 30
0.0
 41
2.5
 42
2.5
 43
2.5
 50
180.0
  0
INSERT
  5
D1E
330
C91
100
AcDbEntity
  8
0
 62
     0
370
    -2
100
AcDbBlockReference
  2
_Open30
 10
657.7309890802533
 20
135.1221593715103
 30
0.0
 41
2.5
 42
2.5
 43
2.5
  0
MTEXT
  5
D1F
330
C91
100
AcDbEntity
  8
0
 62
     4
100
AcDbMText
 10
646.6059890802533
 20
136.9971593715103
 30
0.0
 40
2.5
 41
0.0
 71
     5
 72
     1
  1
15.47
  7
高2.5
 73
     1
 44
1.0
1001
ACAD
1000
MTEXTBEGIN
1070
    73
1070
     1
1070
    44
1040
1.0
1070
    74
1070
     0
1000
MTEXTEND
  0
POINT
  5
D20
330
C91
100
AcDbEntity
  8
Defpoints
 62
     0
100
AcDbPoint
 10
660.8252248783962
 20
136.6680514409736
 30
0.0
  0
POINT
  5
D21
330
C91
100
AcDbEntity
  8
Defpoints
 62
     0
100
AcDbPoint
 10
657.7309890802533
 20
136.6680514409736
 30
0.0
  0
POINT
  5
D22
330
C91
100
AcDbEntity
  8
Defpoints
 62
     0
100
AcDbPoint
 10
657.7309890802533
 20
135.1221593715103
 30
0.0
  0
ENDBLK
  5
C93
330
C91
100
AcDbEntity
  8
0
100
AcDbBlockEnd
  0
BLOCK
  5
CA0
330
C9F
100
AcDbEntity
  8
0
100
AcDbBlockBegin
  2
*D21
 70
     1
 10
0.0
 20
0.0
 30
0.0
  3
*D21
  1

  0
LINE
  5
D23
330
C9F
100
AcDbEntity
  8
0
 62
     0
370
    -2
100
AcDbLine
 10
662.5543564864817
 20
130.9619617251271
 30
0.0
 11
662.5543564864817
 21
128.6888740627598
 31
0.0
  0
LINE
  5
D24
330
C9F
100
AcDbEntity
  8
0
 62
     0
370
    -2
100
AcDbLine
 10
658.5500515332898
 20
130.9619617251271
 30
0.0
 11
658.5500515332898
 21
128.6888740627598
 31
0.0
  0
LINE
  5
D25
330
C9F
100
AcDbEntity
  8
0
 62
     0
370
    -2
100
AcDbLine
 10
665.0543564864817
 20
129.9388740627598
 30
0.0
 11
667.5543564864817
 21
129.9388740627598
 31
0.0
  0
LINE
  5
D26
330
C9F
100
AcDbEntity
  8
0
 62
     0
370
    -2
100
AcDbLine
 10
656.0500515332899
 20
129.9388740627598
 30
0.0
 11
644.3000515332898
 21
129.9388740627598
 31
0.0
  0
LINE
  5
D27
330
C9F
100
AcDbEntity
  8
0
 62
     0
370
    -2
100
AcDbLine
 10
662.5543564864817
 20
129.9388740627598
 30
0.0
 11
658.5500515332898
 21
129.9388740627598
 31
0.0
  0
INSERT
  5
D28
330
C9F
100
AcDbEntity
  8
0
 62
     0
370
    -2
100
AcDbBlockReference
  2
_Open30
 10
662.5543564864817
 20
129.9388740627598
 30
0.0
 41
2.5
 42
2.5
 43
2.5
 50
180.0
  0
INSERT
  5
D29
330
C9F
100
AcDbEntity
  8
0
 62
     0
370
    -2
100
AcDbBlockReference
  2
_Open30
 10
658.5500515332898
 20
129.9388740627598
 30
0.0
 41
2.5
 42
2.5
 43
2.5
  0
MTEXT
  5
D2A
330
C9F
100
AcDbEntity
  8
0
 62
     4
100
AcDbMText
 10
648.9250515332899
 20
132.1638740627598
 30
0.0
 40
3.2
 41
0.0
 71
     5
 72
     1
  1
8.01
  7
高3.2
 73
     1
 44
1.0
1001
ACAD
1000
MTEXTBEGIN
1070
    73
1070
     1
1070
    44
1040
1.0
1070
    74
1070
     0
1000
MTEXTEND
  0
POINT
  5
D2B
330
C9F
100
AcDbEntity
  8
Defpoints
 62
     0
100
AcDbPoint
 10
662.5543564864817
 20
131.2119617251271
 30
0.0
  0
POINT
  5
D2C
330
C9F
100
AcDbEntity
  8
Defpoints
 62
     0
100
AcDbPoint
 10
658.5500515332898
 20
131.2119617251271
 30
0.0
  0
POINT
  5
D2D
330
C9F
100
AcDbEntity
  8
Defpoints
 62
     0
100
AcDbPoint
 10
658.5500515332898
 20
129.9388740627598
 30
0.0
  0
ENDBLK
  5
CA1
330
C9F
100
AcDbEntity
  8
0
100
AcDbBlockEnd
  0
BLOCK
  5
CAE
330
CAD
100
AcDbEntity
  8
0
100
AcDbBlockBegin
  2
*D22
 70
     1
 10
0.0
 20
0.0
 30
0.0
  3
*D22
  1

  0
LINE
  5
D2E
330
CAD
100
AcDbEntity
  8
0
 62
     0
370
    -2
100
AcDbLine
 10
662.4633497844695
 20
125.6877417570955
 30
0.0
 11
662.4633497844695
 21
123.8693282496391
 31
0.0
  0
LINE
  5
D2F
330
CAD
100
AcDbEntity
  8
0
 62
     0
370
    -2
100
AcDbLine
 10
657.7309890802533
 20
125.6877417570955
 30
0.0
 11
657.7309890802533
 21
123.8693282496391
 31
0.0
  0
LINE
  5
D30
330
CAD
100
AcDbEntity
  8
0
 62
     0
370
    -2
100
AcDbLine
 10
664.9633497844695
 20
125.1193282496391
 30
0.0
 11
667.4633497844695
 21
125.1193282496391
 31
0.0
  0
LINE
  5
D31
330
CAD
100
AcDbEntity
  8
0
 62
     0
370
    -2
100
AcDbLine
 10
655.2309890802534
 20
125.1193282496391
 30
0.0
 11
633.4809890802533
 21
125.1193282496391
 31
0.0
  0
LINE
  5
D32
330
CAD
100
AcDbEntity
  8
0
 62
     0
370
    -2
100
AcDbLine
 10
662.4633497844695
 20
125.1193282496391
 30
0.0
 11
657.7309890802533
 21
125.1193282496391
 31
0.0
  0
INSERT
  5
D33
330
CAD
100
AcDbEntity
  8
0
 62
     0
370
    -2
100
AcDbBlockReference
  2
_Open30
 10
662.4633497844695
 20
125.1193282496391
 30
0.0
 41
2.5
 42
2.5
 43
2.5
 50
180.0
  0
INSERT
  5
D34
330
CAD
100
AcDbEntity
  8
0
 62
     0
370
    -2
100
AcDbBlockReference
  2
_Open30
 10
657.7309890802533
 20
125.1193282496391
 30
0.0
 41
2.5
 42
2.5
 43
2.5
  0
MTEXT
  5
D35
330
CAD
100
AcDbEntity
  8
0
 62
     4
100
AcDbMText
 10
643.1059890802534
 20
127.9943282496391
 30
0.0
 40
4.5
 41
0.0
 71
     5
 72
     1
  1
47.32
  7
高4.5
 73
     1
 44
1.0
1001
ACAD
1000
MTEXTBEGIN
1070
    73
1070
     1
1070
    44
1040
1.0
1070
    74
1070
     0
1000
MTEXTEND
  0
POINT
  5
D36
330
CAD
100
AcDbEntity
  8
Defpoints
 62
     0
100
AcDbPoint
 10
662.4633497844695
 20
125.9377417570955
 30
0.0
  0
POINT
  5
D37
330
CAD
100
AcDbEntity
  8
Defpoints
 62
     0
100
AcDbPoint
 10
657.7309890802533
 20
125.9377417570955
 30
0.0
  0
POINT
  5
D38
330
CAD
100
AcDbEntity
  8
Defpoints
 62
     0
100
AcDbPoint
 10
657.7309890802533
 20
125.1193282496391
 30
0.0
  0
ENDBLK
  5
CAF
330
CAD
100
AcDbEntity
  8
0
100
AcDbBlockEnd
  0
BLOCK
  5
CBC
330
CBB
100
AcDbEntity
  8
0
100
AcDbBlockBegin
  2
*D23
 70
     1
 10
0.0
 20
0.0
 30
0.0
  3
*D23
  1

  0
LINE
  5
D39
330
CBB
100
AcDbEntity
  8
0
 62
     0
370
    -2
100
AcDbLine
 10
683.940986052477
 20
141.874141013736
 30
0.0
 11
683.940986052477
 21
138.9645095917271
 31
0.0
  0
LINE
  5
D3A
330
CBB
100
AcDbEntity
  8
0
 62
     0
370
    -2
100
AcDbLine
 10
681.4837989983566
 20
141.874141013736
 30
0.0
 11
681.4837989983566
 21
138.9645095917271
 31
0.0
  0
LINE
  5
D3B
330
CBB
100
AcDbEntity
  8
0
 62
     0
370
    -2
100
AcDbLine
 10
686.4409860524769
 20
140.2145095917271
 30
0.0
 11
688.940986052477
 21
140.2145095917271
 31
0.0
  0
LINE
  5
D3C
330
CBB
100
AcDbEntity
  8
0
 62
     0
370
    -2
100
AcDbLine
 10
678.9837989983566
 20
140.2145095917271
 30
0.0
 11
657.3837989983566
 21
140.2145095917271
 31
0.0
  0
LINE
  5
D3D
330
CBB
100
AcDbEntity
  8
0
 62
     0
370
    -2
100
AcDbLine
 10
683.940986052477
 20
140.2145095917271
 30
0.0
 11
681.4837989983566
 21
140.2145095917271
 31
0.0
  0
INSERT
  5
D3E
330
CBB
100
AcDbEntity
  8
0
 62
     0
370
    -2
100
AcDbBlockReference
  2
_Open30
 10
683.940986052477
 20
140.2145095917271
 30
0.0
 41
2.5
 42
2.5
 43
2.5
 50
180.0
  0
INSERT
  5
D3F
330
CBB
100
AcDbEntity
  8
0
 62
     0
370
    -2
100
AcDbBlockReference
  2
_Open30
 10
681.4837989983566
 20
140.2145095917271
 30
0.0
 41
2.5
 42
2.5
 43
2.5
  0
MTEXT
  5
D40
330
CBB
100
AcDbEntity
  8
0
 62
     4
100
AcDbMText
 10
666.9337989983566
 20
143.9895095917272
 30
0.0
 40
6.299999999999998
 41
0.0
 71
     5
 72
     1
  1
0.25
  7
高6.3
 73
     1
 44
1.0
1001
ACAD
1000
MTEXTBEGIN
1070
    73
1070
     1
1070
    44
1040
1.0
1070
    74
1070
     0
1000
MTEXTEND
  0
POINT
  5
D41
330
CBB
100
AcDbEntity
  8
Defpoints
 62
     0
100
AcDbPoint
 10
683.940986052477
 20
142.124141013736
 30
0.0
  0
POINT
  5
D42
330
CBB
100
AcDbEntity
  8
Defpoints
 62
     0
100
AcDbPoint
 10
681.4837989983566
 20
142.124141013736
 30
0.0
  0
POINT
  5
D43
330
CBB
100
AcDbEntity
  8
Defpoints
 62
     0
100
AcDbPoint
 10
681.4837989983566
 20
140.2145095917271
 30
0.0
  0
ENDBLK
  5
CBD
330
CBB
100
AcDbEntity
  8
0
100
AcDbBlockEnd
  0
BLOCK
  5
CCA
330
CC9
100
AcDbEntity
  8
0
100
AcDbBlockBegin
  2
*D24
 70
     1
 10
0.0
 20
0.0
 30
0.0
  3
*D24
  1

  0
LINE
  5
D44
330
CC9
100
AcDbEntity
  8
0
 62
     0
370
    -2
100
AcDbLine
 10
685.5791109585501
 20
136.4180514409736
 30
0.0
 11
685.5791109585501
 21
133.8721593715103
 31
0.0
  0
LINE
  5
D45
330
CC9
100
AcDbEntity
  8
0
 62
     0
370
    -2
100
AcDbLine
 10
682.4848751604072
 20
136.4180514409736
 30
0.0
 11
682.4848751604072
 21
133.8721593715103
 31
0.0
  0
LINE
  5
D46
330
CC9
100
AcDbEntity
  8
0
 62
     0
370
    -2
100
AcDbLine
 10
688.0791109585501
 20
135.1221593715103
 30
0.0
 11
690.5791109585501
 21
135.1221593715103
 31
0.0
  0
LINE
  5
D47
330
CC9
100
AcDbEntity
  8
0
 62
     0
370
    -2
100
AcDbLine
 10
679.9848751604072
 20
135.1221593715103
 30
0.0
 11
667.9848751604072
 21
135.1221593715103
 31
0.0
  0
LINE
  5
D48
330
CC9
100
AcDbEntity
  8
0
 62
     0
370
    -2
100
AcDbLine
 10
685.5791109585501
 20
135.1221593715103
 30
0.0
 11
682.4848751604072
 21
135.1221593715103
 31
0.0
  0
INSERT
  5
D49
330
CC9
100
AcDbEntity
  8
0
 62
     0
370
    -2
100
AcDbBlockReference
  2
_Open30
 10
685.5791109585501
 20
135.1221593715103
 30
0.0
 41
2.5
 42
2.5
 43
2.5
 50
180.0
  0
INSERT
  5
D4A
330
CC9
100
AcDbEntity
  8
0
 62
     0
370
    -2
100
AcDbBlockReference
  2
_Open30
 10
682.4848751604072
 20
135.1221593715103
 30
0.0
 41
2.5
 42
2.5
 43
2.5
  0
MTEXT
  5
D4B
330
CC9
100
AcDbEntity
  8
0
 62
     4
100
AcDbMText
 10
672.6098751604072
 20
137.2471593715103
 30
0.0
 40
3.0
 41
0.0
 71
     5
 72
     1
  1
1.55
 73
     1
 44
1.0
1001
ACAD
1000
MTEXTBEGIN
1070
    73
1070
     1
1070
    44
1040
1.0
1070
    74
1070
     0
1000
MTEXTEND
  0
POINT
  5
D4C
330
CC9
100
AcDbEntity
  8
Defpoints
 62
     0
100
AcDbPoint
 10
685.5791109585501
 20
136.6680514409736
 30
0.0
  0
POINT
  5
D4D
330
CC9
100
AcDbEntity
  8
Defpoints
 62
     0
100
AcDbPoint
 10
682.4848751604072
 20
136.6680514409736
 30
0.0
  0
POINT
  5
D4E
330
CC9
100
AcDbEntity
  8
Defpoints
 62
     0
100
AcDbPoint
 10
682.4848751604072
 20
135.1221593715103
 30
0.0
  0
ENDBLK
  5
CCB
330
CC9
100
AcDbEntity
  8
0
100
AcDbBlockEnd
  0
BLOCK
  5
CD8
330
CD7
100
AcDbEntity
  8
0
100
AcDbBlockBegin
  2
*D25
 70
     1
 10
0.0
 20
0.0
 30
0.0
  3
*D25
  1

  0
LINE
  5
D4F
330
CD7
100
AcDbEntity
  8
0
 62
     0
370
    -2
100
AcDbLine
 10
687.3082425666356
 20
130.9619617251271
 30
0.0
 11
687.3082425666356
 21
128.6888740627598
 31
0.0
  0
LINE
  5
D50
330
CD7
100
AcDbEntity
  8
0
 62
     0
370
    -2
100
AcDbLine
 10
683.3039376134438
 20
130.9619617251271
 30
0.0
 11
683.3039376134438
 21
128.6888740627598
 31
0.0
  0
LINE
  5
D51
330
CD7
100
AcDbEntity
  8
0
 62
     0
370
    -2
100
AcDbLine
 10
689.8082425666355
 20
129.9388740627598
 30
0.0
 11
692.3082425666356
 21
129.9388740627598
 31
0.0
  0
LINE
  5
D52
330
CD7
100
AcDbEntity
  8
0
 62
     0
370
    -2
100
AcDbLine
 10
680.8039376134438
 20
129.9388740627598
 30
0.0
 11
672.4706042801106
 21
129.9388740627598
 31
0.0
  0
LINE
  5
D53
330
CD7
100
AcDbEntity
  8
0
 62
     0
370
    -2
100
AcDbLine
 10
687.3082425666356
 20
129.9388740627598
 30
0.0
 11
683.3039376134438
 21
129.9388740627598
 31
0.0
  0
INSERT
  5
D54
330
CD7
100
AcDbEntity
  8
0
 62
     0
370
    -2
100
AcDbBlockReference
  2
_Open30
 10
687.3082425666356
 20
129.9388740627598
 30
0.0
 41
2.5
 42
2.5
 43
2.5
 50
180.0
  0
INSERT
  5
D55
330
CD7
100
AcDbEntity
  8
0
 62
     0
370
    -2
100
AcDbBlockReference
  2
_Open30
 10
683.3039376134438
 20
129.9388740627598
 30
0.0
 41
2.5
 42
2.5
 43
2.5
  0
MTEXT
  5
D56
330
CD7
100
AcDbEntity
  8
0
 62
     4
100
AcDbMText
 10
674.9289376134438
 20
131.5638740627598
 30
0.0
 40
2.0
 41
0.0
 71
     5
 72
     1
  1
0.8
  7
高2
 73
     1
 44
1.0
1001
ACAD
1000
MTEXTBEGIN
1070
    73
1070
     1
1070
    44
1040
1.0
1070
    74
1070
     0
1000
MTEXTEND
  0
POINT
  5
D57
330
CD7
100
AcDbEntity
  8
Defpoints
 62
     0
100
AcDbPoint
 10
687.3082425666356
 20
131.2119617251271
 30
0.0
  0
POINT
  5
D58
330
CD7
100
AcDbEntity
  8
Defpoints
 62
     0
100
AcDbPoint
 10
683.3039376134438
 20
131.2119617251271
 30
0.0
  0
POINT
  5
D59
330
CD7
100
AcDbEntity
  8
Defpoints
 62
     0
100
AcDbPoint
 10
683.3039376134438
 20
129.9388740627598
 30
0.0
  0
ENDBLK
  5
CD9
330
CD7
100
AcDbEntity
  8
0
100
AcDbBlockEnd
  0
BLOCK
  5
CE6
330
CE5
100
AcDbEntity
  8
0
100
AcDbBlockBegin
  2
*D26
 70
     1
 10
0.0
 20
0.0
 30
0.0
  3
*D26
  1

  0
LINE
  5
D5A
330
CE5
100
AcDbEntity
  8
0
 62
     0
370
    -2
100
AcDbLine
 10
687.2172358646232
 20
125.6877417570955
 30
0.0
 11
687.2172358646232
 21
123.8693282496391
 31
0.0
  0
LINE
  5
D5B
330
CE5
100
AcDbEntity
  8
0
 62
     0
370
    -2
100
AcDbLine
 10
682.4848751604072
 20
125.6877417570955
 30
0.0
 11
682.4848751604072
 21
123.8693282496391
 31
0.0
  0
LINE
  5
D5C
330
CE5
100
AcDbEntity
  8
0
 62
     0
370
    -2
100
AcDbLine
 10
689.7172358646233
 20
125.1193282496391
 30
0.0
 11
692.2172358646232
 21
125.1193282496391
 31
0.0
  0
LINE
  5
D5D
330
CE5
100
AcDbEntity
  8
0
 62
     0
370
    -2
100
AcDbLine
 10
679.9848751604072
 20
125.1193282496391
 30
0.0
 11
665.2348751604072
 21
125.1193282496391
 31
0.0
  0
LINE
  5
D5E
330
CE5
100
AcDbEntity
  8
0
 62
     0
370
    -2
100
AcDbLine
 10
687.2172358646232
 20
125.1193282496391
 30
0.0
 11
682.4848751604072
 21
125.1193282496391
 31
0.0
  0
INSERT
  5
D5F
330
CE5
100
AcDbEntity
  8
0
 62
     0
370
    -2
100
AcDbBlockReference
  2
_Open30
 10
687.2172358646232
 20
125.1193282496391
 30
0.0
 41
2.5
 42
2.5
 43
2.5
 50
180.0
  0
INSERT
  5
D60
330
CE5
100
AcDbEntity
  8
0
 62
     0
370
    -2
100
AcDbBlockReference
  2
_Open30
 10
682.4848751604072
 20
125.1193282496391
 30
0.0
 41
2.5
 42
2.5
 43
2.5
  0
MTEXT
  5
D61
330
CE5
100
AcDbEntity
  8
0
 62
     4
100
AcDbMText
 10
671.3598751604072
 20
127.2443282496391
 30
0.0
 40
3.0
 41
0.0
 71
     5
 72
     1
  1
18.93
 73
     1
 44
1.0
1001
ACAD
1000
MTEXTBEGIN
1070
    73
1070
     1
1070
    44
1040
1.0
1070
    74
1070
     0
1000
MTEXTEND
  0
POINT
  5
D62
330
CE5
100
AcDbEntity
  8
Defpoints
 62
     0
100
AcDbPoint
 10
687.2172358646232
 20
125.9377417570955
 30
0.0
  0
POINT
  5
D63
330
CE5
100
AcDbEntity
  8
Defpoints
 62
     0
100
AcDbPoint
 10
682.4848751604072
 20
125.9377417570955
 30
0.0
  0
POINT
  5
D64
330
CE5
100
AcDbEntity
  8
Defpoints
 62
     0
100
AcDbPoint
 10
682.4848751604072
 20
125.1193282496391
 30
0.0
  0
ENDBLK
  5
CE7
330
CE5
100
AcDbEntity
  8
0
100
AcDbBlockEnd
  0
BLOCK
  5
CF4
330
CF3
100
AcDbEntity
  8
0
100
AcDbBlockBegin
  2
*D27
 70
     1
 10
0.0
 20
0.0
 30
0.0
  3
*D27
  1

  0
LINE
  5
D65
330
CF3
100
AcDbEntity
  8
0
 62
     0
370
    -2
100
AcDbLine
 10
684.412809013485
 20
120.6319015505057
 30
0.0
 11
684.412809013485
 21
118.3219804736302
 31
0.0
  0
LINE
  5
D66
330
CF3
100
AcDbEntity
  8
0
 62
     0
370
    -2
100
AcDbLine
 10
679.8241338113371
 20
120.6319015505057
 30
0.0
 11
679.8241338113371
 21
118.3219804736302
 31
0.0
  0
LINE
  5
D67
330
CF3
100
AcDbEntity
  8
0
 62
     0
370
    -2
100
AcDbLine
 10
686.912809013485
 20
119.5719804736302
 30
0.0
 11
689.412809013485
 21
119.5719804736302
 31
0.0
  0
LINE
  5
D68
330
CF3
100
AcDbEntity
  8
0
 62
     0
370
    -2
100
AcDbLine
 10
677.3241338113371
 20
119.5719804736302
 30
0.0
 11
662.5741338113371
 21
119.5719804736302
 31
0.0
  0
LINE
  5
D69
330
CF3
100
AcDbEntity
  8
0
 62
     0
370
    -2
100
AcDbLine
 10
684.412809013485
 20
119.5719804736302
 30
0.0
 11
679.8241338113371
 21
119.5719804736302
 31
0.0
  0
INSERT
  5
D6A
330
CF3
100
AcDbEntity
  8
0
 62
     0
370
    -2
100
AcDbBlockReference
  2
_Open30
 10
684.412809013485
 20
119.5719804736302
 30
0.0
 41
2.5
 42
2.5
 43
2.5
 50
180.0
  0
INSERT
  5
D6B
330
CF3
100
AcDbEntity
  8
0
 62
     0
370
    -2
100
AcDbBlockReference
  2
_Open30
 10
679.8241338113371
 20
119.5719804736302
 30
0.0
 41
2.5
 42
2.5
 43
2.5
  0
MTEXT
  5
D6C
330
CF3
100
AcDbEntity
  8
0
 62
     4
100
AcDbMText
 10
668.699133811337
 20
121.6969804736302
 30
0.0
 40
3.0
 41
0.0
 71
     5
 72
     1
  1
13.77
 73
     1
 44
1.0
1001
ACAD
1000
MTEXTBEGIN
1070
    73
1070
     1
1070
    44
1040
1.0
1070
    74
1070
     0
1000
MTEXTEND
  0
POINT
  5
D6D
330
CF3
100
AcDbEntity
  8
Defpoints
 62
     0
100
AcDbPoint
 10
684.412809013485
 20
120.8819015505057
 30
0.0
  0
POINT
  5
D6E
330
CF3
100
AcDbEntity
  8
Defpoints
 62
     0
100
AcDbPoint
 10
679.8241338113371
 20
120.8819015505057
 30
0.0
  0
POINT
  5
D6F
330
CF3
100
AcDbEntity
  8
Defpoints
 62
     0
100
AcDbPoint
 10
679.8241338113371
 20
119.5719804736302
 30
0.0
  0
ENDBLK
  5
CF5
330
CF3
100
AcDbEntity
  8
0
100
AcDbBlockEnd
  0
BLOCK
  5
D02
330
D01
100
AcDbEntity
  8
0
100
AcDbBlockBegin
  2
*D28
 70
     1
 10
0.0
 20
0.0
 30
0.0
  3
*D28
  1

  0
LINE
  5
D70
330
D01
100
AcDbEntity
  8
0
 62
     0
370
    -2
100
AcDbLine
 10
677.3165261803346
 20
151.5613928687801
 30
0.0
 11
677.3165261803346
 21
158.9579263467178
 31
0.0
  0
LINE
  5
D71
330
D01
100
AcDbEntity
  8
0
 62
     0
370
    -2
100
AcDbLine
 10
667.3780518108446
 20
151.5613928687801
 30
0.0
 11
667.3780518108446
 21
158.9579263467178
 31
0.0
  0
LINE
  5
D72
330
D01
100
AcDbEntity
  8
0
 62
     0
370
    -2
100
AcDbLine
 10
674.8165261803347
 20
157.7079263467178
 30
0.0
 11
669.8780518108446
 21
157.7079263467178
 31
0.0
  0
INSERT
  5
D73
330
D01
100
AcDbEntity
  8
0
 62
     0
370
    -2
100
AcDbBlockReference
  2
_Open30
 10
677.3165261803346
 20
157.7079263467178
 30
0.0
 41
2.5
 42
2.5
 43
2.5
  0
INSERT
  5
D74
330
D01
100
AcDbEntity
  8
0
 62
     0
370
    -2
100
AcDbBlockReference
  2
_Open30
 10
667.3780518108446
 20
157.7079263467178
 30
0.0
 41
2.5
 42
2.5
 43
2.5
 50
180.0
  0
MTEXT
  5
D75
330
D01
100
AcDbEntity
  8
0
 62
     4
100
AcDbMText
 10
672.3472889955896
 20
160.7829263467178
 30
0.0
 40
3.0
 41
0.0
 71
     5
 72
     1
  1
9.94\H0.7X;\S+0^ -0.02;
 73
     1
 44
1.0
1001
ACAD
1000
MTEXTBEGIN
1070
    73
1070
     1
1070
    44
1040
1.0
1070
    74
1070
     0
1000
MTEXTEND
  0
POINT
  5
D76
330
D01
100
AcDbEntity
  8
Defpoints
 62
     0
100
AcDbPoint
 10
677.3165261803346
 20
151.3113928687801
 30
0.0
  0
POINT
  5
D77
330
D01
100
AcDbEntity
  8
Defpoints
 62
     0
100
AcDbPoint
 10
667.3780518108446
 20
151.3113928687801
 30
0.0
  0
POINT
  5
D78
330
D01
100
AcDbEntity
  8
Defpoints
 62
     0
100
AcDbPoint
 10
667.3780518108446
 20
157.7079263467178
 30
0.0
  0
ENDBLK
  5
D03
330
D01
100
AcDbEntity
  8
0
100
AcDbBlockEnd
  0
ENDSEC
  0
SECTION
  2
ENTITIES
  0
LINE
  5
3E2
330
1F
100
AcDbEntity
  8
0
 62
     3
100
AcDbLine
 10
435.5683088572476
 20
30.28284088932118
 30
0.0
 11
435.5683088572474
 21
53.28284088932118
 31
0.0
  0
LINE
  5
3E4
330
1F
100
AcDbEntity
  8
0
 62
     3
100
AcDbLine
 10
382.5146988572476
 20
23.28284088932118
 30
0.0
 11
382.5146988572476
 21
37.28284088932118
 31
0.0
  0
TEXT
  5
3E6
330
1F
100
AcDbEntity
  8
0
 62
     3
100
AcDbText
 10
411.5786268572476
 20
49.48795688932118
 30
0.0
 40
2.0
  1
A
 41
0.7
100
AcDbText
  0
TEXT
  5
3E7
330
1F
100
AcDbEntity
  8
0
 62
     3
100
AcDbText
 10
414.1139128572474
 20
49.48795688932118
 30
0.0
 40
2.0
  1
P
 41
0.7
100
AcDbText
  0
TEXT
  5
3E8
330
1F
100
AcDbEntity
  8
0
 62
     3
100
AcDbText
 10
416.6491988572476
 20
49.48795688932118
 30
0.0
 40
2.0
  1
P
 41
0.7
100
AcDbText
  0
TEXT
  5
3E9
330
1F
100
AcDbEntity
  8
0
 62
     3
100
AcDbText
 10
419.1844848572476
 20
49.48795688932118
 30
0.0
 40
2.0
  1
D
 41
0.7
100
AcDbText
  0
TEXT
  5
3EA
330
1F
100
AcDbEntity
  8
0
 62
     3
100
AcDbText
 10
424.5531678572474
 20
49.48795688932118
 30
0.0
 40
2.0
  1
C
 41
0.7
100
AcDbText
  0
TEXT
  5
3EB
330
1F
100
AcDbEntity
  8
0
 62
     3
100
AcDbText
 10
427.0884548572476
 20
49.48795688932118
 30
0.0
 40
2.0
  1
H
 41
0.7
100
AcDbText
  0
TEXT
  5
3EC
330
1F
100
AcDbEntity
  8
0
 62
     3
100
AcDbText
 10
429.6237408572476
 20
49.48795688932118
 30
0.0
 40
2.0
  1
C
 41
0.7
100
AcDbText
  0
TEXT
  5
3ED
330
1F
100
AcDbEntity
  8
0
 62
     3
100
AcDbText
 10
432.1590268572474
 20
49.48795688932118
 30
0.0
 40
2.0
  1
K
 41
0.7
100
AcDbText
  0
TEXT
  5
3EE
330
1F
100
AcDbEntity
  8
0
 62
     3
100
AcDbText
 10
437.8329938572476
 20
49.48795688932118
 30
0.0
 40
2.0
  1
DESN
 41
1.216762999999998
100
AcDbText
  0
TEXT
  5
3EF
330
1F
100
AcDbEntity
  8
0
 62
     3
100
AcDbText
 10
352.8266348572477
 20
20.14145888932117
 30
0.0
 40
2.0
  1
NICHIDO IND.CO.LTD
 41
1.274876
100
AcDbText
  0
LINE
  5
3F0
330
1F
100
AcDbEntity
  8
0
 62
     3
100
AcDbLine
 10
363.2096638572476
 20
53.28284088932118
 30
0.0
 11
363.2096638572476
 21
30.28284088932118
 31
0.0
  0
LINE
  5
3F1
330
1F
100
AcDbEntity
  8
0
 62
     3
100
AcDbLine
 10
409.5683088572476
 20
53.28284088932118
 30
0.0
 11
409.5683088572476
 21
13.61711788932118
 31
0.0
  0
LINE
  5
3F6
330
1F
100
AcDbEntity
  8
0
 62
     3
100
AcDbLine
 10
422.5683088572474
 20
53.28284088932118
 30
0.0
 11
422.5683088572476
 21
23.28284088932118
 31
0.0
  0
TEXT
  5
3F7
330
1F
100
AcDbEntity
  8
0
 62
     3
100
AcDbText
 10
410.6807528572476
 20
24.14752688932118
 30
0.0
 40
3.2
  1
作成日
 41
1.017225999999997
100
AcDbText
  0
LINE
  5
3F8
330
1F
100
AcDbEntity
  8
0
 62
     3
100
AcDbLine
 10
461.2676718572473
 20
53.28284088932118
 30
0.0
 11
349.9642298572476
 21
53.28284088932118
 31
0.0
  0
LINE
  5
3FA
330
1F
100
AcDbEntity
  8
0
 62
     3
100
AcDbLine
 10
448.5683088572476
 20
30.28284088932118
 30
0.0
 11
448.5683088572476
 21
53.28284088932118
 31
0.0
  0
TEXT
  5
3FB
330
1F
100
AcDbEntity
  8
0
 62
     3
100
AcDbText
 10
451.8921118572476
 20
49.57377488932118
 30
0.0
 40
1.8
  1
D
 41
0.666667
100
AcDbText
  0
TEXT
  5
3FC
330
1F
100
AcDbEntity
  8
0
 62
     3
100
AcDbText
 10
454.7087398572474
 20
49.57377488932118
 30
0.0
 40
1.8
  1
E
 41
0.666667
100
AcDbText
  0
TEXT
  5
3FD
330
1F
100
AcDbEntity
  8
0
 62
     3
100
AcDbText
 10
457.5253678572476
 20
49.57377488932118
 30
0.0
 40
1.8
  1
F
 41
0.666667
100
AcDbText
  0
TEXT
  5
3FE
330
1F
100
AcDbEntity
  8
0
 62
     3
100
AcDbText
 10
451.8921118572476
 20
45.58122188932118
 30
0.0
 40
3.2
  1
製図
 41
1.076369
100
AcDbText
  0
LINE
  5
3FF
330
1F
100
AcDbEntity
  8
0
 62
     3
100
AcDbLine
 10
349.9642298572476
 20
53.28284088932118
 30
0.0
 11
349.9642298572476
 21
13.61711788932118
 31
0.0
  0
TEXT
  5
400
330
1F
100
AcDbEntity
  8
0
 62
     3
100
AcDbText
 10
351.3408818572476
 20
13.94958288932116
 30
0.0
 40
5.0
  1
日動工業株式会社
 41
0.833333
100
AcDbText
  0
LINE
  5
401
330
1F
100
AcDbEntity
  8
0
 62
     3
100
AcDbLine
 10
392.8466328572477
 20
37.28284088932118
 30
0.0
 11
392.8466328572477
 21
13.61711788932118
 31
0.0
  0
LINE
  5
402
330
1F
100
AcDbEntity
  8
0
 62
     3
100
AcDbLine
 10
392.8466328572477
 20
18.44997888932119
 30
0.0
 11
409.5683088572476
 21
18.44997888932119
 31
0.0
  0
TEXT
  5
403
330
1F
100
AcDbEntity
  8
0
 62
     3
100
AcDbText
 10
393.4332348572476
 20
19.26640988932118
 30
0.0
 40
3.2
  1
出図コード
 41
0.8356860000000001
100
AcDbText
  0
LINE
  5
41B
330
1F
100
AcDbEntity
  8
0
 62
     3
100
AcDbLine
 10
349.9642298572476
 20
23.28284088932118
 30
0.0
 11
461.2676718572473
 21
23.28284088932118
 31
0.0
  0
LINE
  5
41D
330
1F
100
AcDbEntity
  8
0
 62
     3
100
AcDbLine
 10
349.9642298572476
 20
44.28284088932119
 30
0.0
 11
461.2676718572473
 21
44.28284088932119
 31
0.0
  0
LINE
  5
423
330
1F
100
AcDbEntity
  8
0
 62
     3
100
AcDbLine
 10
349.9642298572476
 20
37.28284088932118
 30
0.0
 11
409.5683088572476
 21
37.28284088932118
 31
0.0
  0
LINE
  5
429
330
1F
100
AcDbEntity
  8
0
 62
     3
100
AcDbLine
 10
349.9642298572476
 20
30.28284088932118
 30
0.0
 11
461.2676718572473
 21
30.28284088932118
 31
0.0
  0
LINE
  5
42D
330
1F
100
AcDbEntity
  8
0
 62
     3
100
AcDbLine
 10
461.2676718572473
 20
287.6724788893211
 30
0.0
 11
461.2676718572473
 21
13.61711788932121
 31
0.0
  0
LINE
  5
42E
330
1F
100
AcDbEntity
  8
0
 62
     3
100
AcDbLine
 10
71.26767185724763
 20
287.6724788893211
 30
0.0
 11
71.26767185724763
 21
13.61711788932118
 31
0.0
  0
LINE
  5
42F
330
1F
100
AcDbEntity
  8
0
 62
     3
100
AcDbLine
 10
461.2676718572473
 20
13.61711788932118
 30
0.0
 11
71.26767185724763
 21
13.61711788932118
 31
0.0
  0
TEXT
  5
432
330
1F
100
AcDbEntity
  8
0
 62
     3
100
AcDbText
 10
393.6406426200802
 20
13.95692685643178
 30
0.0
 40
3.2
  1
ZK-A3X
 41
0.8112849999999999
100
AcDbText
  0
LINE
  5
433
330
1F
100
AcDbEntity
  8
0
 62
     2
100
AcDbLine
 10
249.0425608572476
 20
290.1124808893211
 30
0.0
 11
249.6650578572476
 21
289.7875268893212
 31
0.0
  0
LINE
  5
434
330
1F
100
AcDbEntity
  8
0
 62
     2
100
AcDbLine
 10
249.0425608572476
 20
284.7830088893212
 30
0.0
 11
249.6650578572476
 21
285.1079638893212
 31
0.0
  0
LINE
  5
435
330
1F
100
AcDbEntity
  8
0
 62
     2
100
AcDbLine
 10
249.6650578572476
 20
289.7875268893212
 30
0.0
 11
249.6650578572476
 21
285.1079638893212
 31
0.0
  0
LINE
  5
436
330
1F
100
AcDbEntity
  8
0
 62
     2
100
AcDbLine
 10
251.2415118572476
 20
284.7830088893212
 30
0.0
 11
250.6190148572476
 21
285.1079638893212
 31
0.0
  0
LINE
  5
437
330
1F
100
AcDbEntity
  8
0
 62
     2
100
AcDbLine
 10
250.6190148572476
 20
287.9606188893212
 30
0.0
 11
250.6190148572476
 21
285.1079638893212
 31
0.0
  0
LINE
  5
438
330
1F
100
AcDbEntity
  8
0
 62
     2
100
AcDbLine
 10
254.8727438572476
 20
290.1124808893211
 30
0.0
 11
254.2502468572476
 21
289.7875268893212
 31
0.0
  0
LINE
  5
439
330
1F
100
AcDbEntity
  8
0
 62
     2
100
AcDbLine
 10
252.6737938572476
 20
290.1124808893211
 30
0.0
 11
253.2962908572476
 21
289.7875268893212
 31
0.0
  0
LINE
  5
43A
330
1F
100
AcDbEntity
  8
0
 62
     2
100
AcDbLine
 10
253.2962908572476
 20
289.7875268893212
 30
0.0
 11
253.2962908572476
 21
287.7270448893212
 31
0.0
  0
LINE
  5
43B
330
1F
100
AcDbEntity
  8
0
 62
     2
100
AcDbLine
 10
254.2502468572476
 20
289.7875268893212
 30
0.0
 11
254.2502468572476
 21
284.4807788893212
 31
0.0
  0
LINE
  5
43C
330
1F
100
AcDbEntity
  8
0
 62
     2
100
AcDbLine
 10
255.1803118572476
 20
290.1124768893211
 30
0.0
 11
255.8028068572476
 21
289.7875188893212
 31
0.0
  0
LINE
  5
43D
330
1F
100
AcDbEntity
  8
0
 62
     2
100
AcDbLine
 10
255.1802008572476
 20
284.7830798893213
 30
0.0
 11
255.8027088572476
 21
285.1080128893212
 31
0.0
  0
LINE
  5
43E
330
1F
100
AcDbEntity
  8
0
 62
     2
100
AcDbLine
 10
255.8028068572476
 20
289.7875188893212
 30
0.0
 11
255.8028068572476
 21
285.1080128893212
 31
0.0
  0
LINE
  5
43F
330
1F
100
AcDbEntity
  8
0
 62
     2
100
AcDbLine
 10
257.9367918572476
 20
290.1124438893212
 30
0.0
 11
257.3142908572476
 21
289.7874978893213
 31
0.0
  0
LINE
  5
440
330
1F
100
AcDbEntity
  8
0
 62
     2
100
AcDbLine
 10
257.3142908572476
 20
289.7874978893213
 30
0.0
 11
257.3142908572476
 21
285.1079918893212
 31
0.0
  0
LINE
  5
441
330
1F
100
AcDbEntity
  8
0
 62
     2
100
AcDbLine
 10
257.9367918572476
 20
284.7830468893211
 30
0.0
 11
257.3142908572476
 21
285.1079918893212
 31
0.0
  0
LINE
  5
442
330
1F
100
AcDbEntity
  8
0
 62
     2
100
AcDbLine
 10
263.2085828572475
 20
290.1123848893212
 30
0.0
 11
263.8310788572476
 21
289.7874278893212
 31
0.0
  0
LINE
  5
443
330
1F
100
AcDbEntity
  8
0
 62
     2
100
AcDbLine
 10
263.8310788572476
 20
289.7874278893212
 30
0.0
 11
263.8309968572476
 21
285.1079228893212
 31
0.0
  0
LINE
  5
444
330
1F
100
AcDbEntity
  8
0
 62
     2
100
AcDbLine
 10
263.2084898572476
 20
284.7829878893211
 30
0.0
 11
263.8309968572476
 21
285.1079228893212
 31
0.0
  0
LINE
  5
445
330
1F
100
AcDbEntity
  8
0
 62
     2
100
AcDbLine
 10
265.9975268572476
 20
290.1123848893212
 30
0.0
 11
265.3750308572476
 21
289.7874278893212
 31
0.0
  0
LINE
  5
446
330
1F
100
AcDbEntity
  8
0
 62
     2
100
AcDbLine
 10
265.9976198572476
 20
284.7829878893211
 30
0.0
 11
265.3751128572476
 21
285.1079228893212
 31
0.0
  0
LINE
  5
447
330
1F
100
AcDbEntity
  8
0
 62
     2
100
AcDbLine
 10
266.2885668572476
 20
290.1123848893212
 30
0.0
 11
266.9110628572477
 21
289.7874278893212
 31
0.0
  0
LINE
  5
448
330
1F
100
AcDbEntity
  8
0
 62
     2
100
AcDbLine
 10
266.2884738572476
 20
284.7829878893211
 30
0.0
 11
266.9109808572476
 21
285.1079228893212
 31
0.0
  0
LINE
  5
449
330
1F
100
AcDbEntity
  8
0
 62
     2
100
AcDbLine
 10
269.0775108572476
 20
290.1123848893212
 30
0.0
 11
268.4550148572476
 21
289.7874278893212
 31
0.0
  0
LINE
  5
44A
330
1F
100
AcDbEntity
  8
0
 62
     2
100
AcDbLine
 10
268.4550148572476
 20
289.7874278893212
 30
0.0
 11
268.4550968572476
 21
285.1079228893212
 31
0.0
  0
LINE
  5
44B
330
1F
100
AcDbEntity
  8
0
 62
     2
100
AcDbLine
 10
269.0776038572476
 20
284.7829878893211
 30
0.0
 11
268.4550968572476
 21
285.1079228893212
 31
0.0
  0
LINE
  5
44C
330
1F
100
AcDbEntity
  8
0
 62
     2
100
AcDbLine
 10
266.9110268572477
 20
287.7486668893212
 30
0.0
 11
265.3750668572476
 21
287.7486668893212
 31
0.0
  0
LINE
  5
44D
330
1F
100
AcDbEntity
  8
0
 62
     2
100
AcDbLine
 10
266.9110168572477
 20
287.1468228893212
 30
0.0
 11
265.3750778572476
 21
287.1468228893212
 31
0.0
  0
LINE
  5
44E
330
1F
100
AcDbEntity
  8
0
 62
     2
100
AcDbLine
 10
266.9110628572477
 20
289.7874278893212
 30
0.0
 11
266.9110268572477
 21
287.7486668893212
 31
0.0
  0
LINE
  5
44F
330
1F
100
AcDbEntity
  8
0
 62
     2
100
AcDbLine
 10
266.9110168572477
 20
287.1468228893212
 30
0.0
 11
266.9109808572476
 21
285.1079228893212
 31
0.0
  0
LINE
  5
450
330
1F
100
AcDbEntity
  8
0
 62
     2
100
AcDbLine
 10
265.3750308572476
 20
289.7874278893212
 30
0.0
 11
265.3750668572476
 21
287.7486668893212
 31
0.0
  0
LINE
  5
451
330
1F
100
AcDbEntity
  8
0
 62
     2
100
AcDbLine
 10
265.3750778572476
 20
287.1468228893212
 30
0.0
 11
265.3751128572476
 21
285.1079228893212
 31
0.0
  0
LINE
  5
452
330
1F
100
AcDbEntity
  8
0
 62
     2
100
AcDbLine
 10
269.3731668572476
 20
290.1123848893212
 30
0.0
 11
269.9956628572476
 21
289.7874278893212
 31
0.0
  0
LINE
  5
453
330
1F
100
AcDbEntity
  8
0
 62
     2
100
AcDbLine
 10
269.9956628572476
 20
289.7874278893212
 30
0.0
 11
269.9955808572477
 21
285.1079228893212
 31
0.0
  0
LINE
  5
454
330
1F
100
AcDbEntity
  8
0
 62
     2
100
AcDbLine
 10
269.3730738572476
 20
284.7829878893211
 30
0.0
 11
269.9955808572477
 21
285.1079228893212
 31
0.0
  0
LINE
  5
455
330
1F
100
AcDbEntity
  8
0
 62
     2
100
AcDbLine
 10
272.1296108572476
 20
290.1123848893212
 30
0.0
 11
271.5071148572477
 21
289.7874278893212
 31
0.0
  0
LINE
  5
456
330
1F
100
AcDbEntity
  8
0
 62
     2
100
AcDbLine
 10
271.5071148572477
 20
289.7874278893212
 30
0.0
 11
271.5071958572476
 21
285.1079228893212
 31
0.0
  0
LINE
  5
457
330
1F
100
AcDbEntity
  8
0
 62
     2
100
AcDbLine
 10
272.1297038572476
 20
284.7829878893211
 30
0.0
 11
271.5071958572476
 21
285.1079228893212
 31
0.0
  0
LINE
  5
458
330
1F
100
AcDbEntity
  8
0
 62
     2
100
AcDbLine
 10
272.4358378572476
 20
290.1123848893212
 30
0.0
 11
273.0583338572476
 21
289.7874278893212
 31
0.0
  0
LINE
  5
459
330
1F
100
AcDbEntity
  8
0
 62
     2
100
AcDbLine
 10
273.0583338572476
 20
289.7874278893212
 30
0.0
 11
273.0582528572476
 21
285.1079228893212
 31
0.0
  0
LINE
  5
45A
330
1F
100
AcDbEntity
  8
0
 62
     2
100
AcDbLine
 10
272.4357448572476
 20
284.7829878893211
 30
0.0
 11
273.0582528572476
 21
285.1079228893212
 31
0.0
  0
ARC
  5
45B
330
1F
100
AcDbEntity
  8
0
 62
     2
100
AcDbCircle
 10
261.2201378572476
 20
287.4611588893212
 30
0.0
 40
2.980408
100
AcDbArc
 50
97.70152399999965
 51
270.0
  0
ARC
  5
45C
330
1F
100
AcDbEntity
  8
0
 62
     2
100
AcDbCircle
 10
279.6209968572476
 20
287.4312208893211
 30
0.0
 40
3.012775999999998
100
AcDbArc
 50
0.3142499999992068
 51
69.00558199999934
  0
ARC
  5
45D
330
1F
100
AcDbEntity
  8
0
 62
     2
100
AcDbCircle
 10
280.2791038572476
 20
287.4312208893211
 30
0.0
 40
3.012775999999998
100
AcDbArc
 50
110.9944180000006
 51
148.1166109999993
  0
ARC
  5
45E
330
1F
100
AcDbEntity
  8
0
 62
     2
100
AcDbCircle
 10
279.6209968572476
 20
287.4642688893212
 30
0.0
 40
3.012775999999998
100
AcDbArc
 50
290.9944180000007
 51
359.6857500000007
  0
ARC
  5
45F
330
1F
100
AcDbEntity
  8
0
 62
     2
100
AcDbCircle
 10
280.2791038572476
 20
287.4642688893212
 30
0.0
 40
3.012775999999998
100
AcDbArc
 50
211.8833890000007
 51
249.0055819999994
  0
ARC
  5
460
330
1F
100
AcDbEntity
  8
0
 62
     2
100
AcDbCircle
 10
279.9500508572476
 20
288.6803238893212
 30
0.0
 40
1.734386999999999
100
AcDbArc
 50
64.3651719999999
 51
115.6348280000001
  0
ARC
  5
461
330
1F
100
AcDbEntity
  8
0
 62
     2
100
AcDbCircle
 10
279.9500508572476
 20
286.2151658893211
 30
0.0
 40
1.734386999999999
100
AcDbArc
 50
244.3651719999999
 51
295.6348280000002
  0
ARC
  5
462
330
1F
100
AcDbEntity
  8
0
 62
     2
100
AcDbCircle
 10
279.9500508572476
 20
288.7132698893212
 30
0.0
 40
0.8512219999999999
100
AcDbArc
 50
19.48660600000057
 51
160.5133939999994
  0
ARC
  5
463
330
1F
100
AcDbEntity
  8
0
 62
     2
100
AcDbCircle
 10
279.9500508572476
 20
286.1822208893212
 30
0.0
 40
0.8512219999999999
100
AcDbArc
 50
199.4866060000006
 51
340.5133939999993
  0
ARC
  5
464
330
1F
100
AcDbEntity
  8
0
 62
     3
100
AcDbCircle
 10
273.1750898572476
 20
255.6933738893212
 30
0.0
 40
37.20000000000001
100
AcDbArc
 50
69.50571499999935
 51
81.68998799999981
  0
ARC
  5
465
330
1F
100
AcDbEntity
  8
0
 62
     3
100
AcDbCircle
 10
273.1750898572476
 20
319.2021158893211
 30
0.0
 40
37.20000000000001
100
AcDbArc
 50
278.3100120000002
 51
290.4942850000006
  0
ARC
  5
466
330
1F
100
AcDbEntity
  8
0
 62
     3
100
AcDbCircle
 10
285.0439528572476
 20
287.4477448893212
 30
0.0
 40
3.299999999999998
100
AcDbArc
 50
290.4942850000006
 51
69.50571499999935
  0
ARC
  5
467
330
1F
100
AcDbEntity
  8
0
 62
     3
100
AcDbCircle
 10
246.0439528572476
 20
287.4477448893212
 30
0.0
 40
3.299999999999998
100
AcDbArc
 50
110.4942850000006
 51
249.5057149999993
  0
ARC
  5
468
330
1F
100
AcDbEntity
  8
0
 62
     3
100
AcDbCircle
 10
257.9128158572476
 20
255.6933738893212
 30
0.0
 40
37.20000000000001
100
AcDbArc
 50
98.31001200000018
 51
110.4942850000006
  0
ARC
  5
469
330
1F
100
AcDbEntity
  8
0
 62
     3
100
AcDbCircle
 10
257.9128158572476
 20
319.2021158893211
 30
0.0
 40
37.20000000000001
100
AcDbArc
 50
249.5057149999993
 51
261.6899879999994
  0
ARC
  5
46A
330
1F
100
AcDbEntity
  8
0
 62
     3
100
AcDbCircle
 10
265.5439528572476
 20
203.4477448893212
 30
0.0
 40
90.0
100
AcDbArc
 50
81.68998799999981
 51
98.31001200000018
  0
ARC
  5
46B
330
1F
100
AcDbEntity
  8
0
 62
     3
100
AcDbCircle
 10
265.5439528572476
 20
371.4477448893211
 30
0.0
 40
90.0
100
AcDbArc
 50
261.6899879999994
 51
278.3100120000002
  0
ARC
  5
46C
330
1F
100
AcDbEntity
  8
0
 62
     3
100
AcDbCircle
 10
265.5439528572476
 20
203.4477448893212
 30
0.0
 40
89.1
100
AcDbArc
 50
81.68998799999981
 51
98.31001200000018
  0
ARC
  5
46D
330
1F
100
AcDbEntity
  8
0
 62
     3
100
AcDbCircle
 10
265.5439528572476
 20
371.4477448893211
 30
0.0
 40
89.1
100
AcDbArc
 50
261.6899879999994
 51
278.3100120000002
  0
ARC
  5
46E
330
1F
100
AcDbEntity
  8
0
 62
     3
100
AcDbCircle
 10
273.1750898572476
 20
319.2021158893211
 30
0.0
 40
36.3
100
AcDbArc
 50
278.3100120000002
 51
290.4942850000006
  0
ARC
  5
46F
330
1F
100
AcDbEntity
  8
0
 62
     3
100
AcDbCircle
 10
273.1750898572476
 20
255.6933738893212
 30
0.0
 40
36.3
100
AcDbArc
 50
69.50571499999935
 51
81.68998799999981
  0
ARC
  5
470
330
1F
100
AcDbEntity
  8
0
 62
     3
100
AcDbCircle
 10
285.0439528572476
 20
287.4477448893212
 30
0.0
 40
2.399999999999999
100
AcDbArc
 50
290.4942850000006
 51
69.50571499999935
  0
ARC
  5
471
330
1F
100
AcDbEntity
  8
0
 62
     3
100
AcDbCircle
 10
246.0439528572476
 20
287.4477448893212
 30
0.0
 40
2.399999999999999
100
AcDbArc
 50
110.4942850000006
 51
249.5057149999993
  0
ARC
  5
472
330
1F
100
AcDbEntity
  8
0
 62
     3
100
AcDbCircle
 10
257.9128158572476
 20
255.6933738893212
 30
0.0
 40
36.3
100
AcDbArc
 50
98.31001200000018
 51
110.4942850000006
  0
ARC
  5
473
330
1F
100
AcDbEntity
  8
0
 62
     3
100
AcDbCircle
 10
257.9128158572476
 20
319.2021158893211
 30
0.0
 40
36.3
100
AcDbArc
 50
249.5057149999993
 51
261.6899879999994
  0
LINE
  5
474
330
1F
100
AcDbEntity
  8
0
 62
     2
100
AcDbLine
 10
272.1296118572476
 20
284.4807788893212
 30
0.0
 11
269.3731658572476
 21
284.4807788893212
 31
0.0
  0
LINE
  5
475
330
1F
100
AcDbEntity
  8
0
 62
     2
100
AcDbLine
 10
272.1296118572476
 20
284.7830088893212
 30
0.0
 11
272.1296118572476
 21
284.4807788893212
 31
0.0
  0
LINE
  5
476
330
1F
100
AcDbEntity
  8
0
 62
     2
100
AcDbLine
 10
269.0775128572476
 20
290.4145698893212
 30
0.0
 11
266.2885658572476
 21
290.4145698893212
 31
0.0
  0
LINE
  5
477
330
1F
100
AcDbEntity
  8
0
 62
     2
100
AcDbLine
 10
269.0775128572476
 20
290.4145698893212
 30
0.0
 11
269.0775128572476
 21
290.1124808893211
 31
0.0
  0
LINE
  5
478
330
1F
100
AcDbEntity
  8
0
 62
     2
100
AcDbLine
 10
269.0775128572476
 20
284.7830088893212
 30
0.0
 11
269.0775128572476
 21
284.4806378893212
 31
0.0
  0
LINE
  5
479
330
1F
100
AcDbEntity
  8
0
 62
     2
100
AcDbLine
 10
269.0775128572476
 20
284.4806378893212
 30
0.0
 11
266.2885658572476
 21
284.4806378893212
 31
0.0
  0
LINE
  5
47A
330
1F
100
AcDbEntity
  8
0
 62
     2
100
AcDbLine
 10
272.1296118572476
 20
290.4147108893212
 30
0.0
 11
272.1296118572476
 21
290.1124808893211
 31
0.0
  0
LINE
  5
47B
330
1F
100
AcDbEntity
  8
0
 62
     2
100
AcDbLine
 10
272.1296118572476
 20
290.4147108893212
 30
0.0
 11
269.3731658572476
 21
290.4147108893212
 31
0.0
  0
LINE
  5
47C
330
1F
100
AcDbEntity
  8
0
 62
     2
100
AcDbLine
 10
269.3731658572476
 20
290.4147108893212
 30
0.0
 11
269.3731658572476
 21
290.1124808893211
 31
0.0
  0
LINE
  5
47D
330
1F
100
AcDbEntity
  8
0
 62
     2
100
AcDbLine
 10
272.4358368572477
 20
284.7830088893212
 30
0.0
 11
272.4358368572477
 21
284.4807788893212
 31
0.0
  0
LINE
  5
47E
330
1F
100
AcDbEntity
  8
0
 62
     2
100
AcDbLine
 10
275.2705518572476
 20
284.4807788893212
 30
0.0
 11
272.4358368572477
 21
284.4807788893212
 31
0.0
  0
LINE
  5
47F
330
1F
100
AcDbEntity
  8
0
 62
     2
100
AcDbLine
 10
274.5697858572476
 20
289.4607548893212
 30
0.0
 11
274.5697858572476
 21
285.4347348893211
 31
0.0
  0
LINE
  5
480
330
1F
100
AcDbEntity
  8
0
 62
     2
100
AcDbLine
 10
274.5697858572476
 20
285.4347348893211
 30
0.0
 11
274.8412838572475
 21
285.4347348893211
 31
0.0
  0
ARC
  5
481
330
1F
100
AcDbEntity
  8
0
 62
     2
100
AcDbCircle
 10
273.4530188572476
 20
287.4477448893212
 30
0.0
 40
2.445299
100
AcDbArc
 50
304.591955000001
 51
55.40804499999911
  0
LINE
  5
482
330
1F
100
AcDbEntity
  8
0
 62
     2
100
AcDbLine
 10
275.2705518572476
 20
290.4147108893212
 30
0.0
 11
272.4358368572477
 21
290.4147108893212
 31
0.0
  0
LINE
  5
483
330
1F
100
AcDbEntity
  8
0
 62
     2
100
AcDbLine
 10
272.4358368572477
 20
290.4147108893212
 30
0.0
 11
272.4358368572477
 21
290.1124808893211
 31
0.0
  0
LINE
  5
484
330
1F
100
AcDbEntity
  8
0
 62
     2
100
AcDbLine
 10
269.3731658572476
 20
284.7830088893212
 30
0.0
 11
269.3731658572476
 21
284.4807788893212
 31
0.0
  0
LINE
  5
485
330
1F
100
AcDbEntity
  8
0
 62
     2
100
AcDbLine
 10
274.5697858572476
 20
289.4607548893212
 30
0.0
 11
274.8412838572475
 21
289.4607548893212
 31
0.0
  0
LINE
  5
486
330
1F
100
AcDbEntity
  8
0
 62
     2
100
AcDbLine
 10
257.9367008572476
 20
284.7830088893212
 30
0.0
 11
257.9366948572476
 21
284.4807508893213
 31
0.0
  0
LINE
  5
487
330
1F
100
AcDbEntity
  8
0
 62
     2
100
AcDbLine
 10
255.1802498572476
 20
284.4808068893213
 30
0.0
 11
257.9366948572476
 21
284.4807588893212
 31
0.0
  0
LINE
  5
488
330
1F
100
AcDbEntity
  8
0
 62
     2
100
AcDbLine
 10
249.0425608572476
 20
284.4807788893212
 30
0.0
 11
251.2415118572476
 21
284.4807788893212
 31
0.0
  0
ARC
  5
489
330
1F
100
AcDbEntity
  8
0
 62
     2
100
AcDbCircle
 10
241.9254998572476
 20
287.5176118893212
 30
0.0
 40
21.019379
100
AcDbArc
 50
353.8660059999997
 51
357.6940340000005
  0
LINE
  5
48A
330
1F
100
AcDbEntity
  8
0
 62
     2
100
AcDbLine
 10
261.5206148572476
 20
286.6770868893212
 30
0.0
 11
262.9278588572477
 21
286.6718798893212
 31
0.0
  0
LINE
  5
48C
330
1F
100
AcDbEntity
  8
0
 62
     2
100
AcDbLine
 10
261.5262978572476
 20
288.2131078893213
 30
0.0
 11
262.9335418572476
 21
288.2079008893212
 31
0.0
  0
ARC
  5
48D
330
1F
100
AcDbEntity
  8
0
 62
     2
100
AcDbCircle
 10
241.9254998572476
 20
287.5176118893212
 30
0.0
 40
21.019379
100
AcDbArc
 50
1.881966000000494
 51
5.709993999999738
  0
LINE
  5
48E
330
1F
100
AcDbEntity
  8
0
 62
     2
100
AcDbLine
 10
257.9367988572476
 20
290.4146828893212
 30
0.0
 11
257.9367938572476
 21
290.1124808893211
 31
0.0
  0
LINE
  5
48F
330
1F
100
AcDbEntity
  8
0
 62
     2
100
AcDbLine
 10
255.1803528572476
 20
290.4147398893211
 30
0.0
 11
257.9367988572476
 21
290.4146918893212
 31
0.0
  0
LINE
  5
490
330
1F
100
AcDbEntity
  8
0
 62
     2
100
AcDbLine
 10
255.1802548572476
 20
284.7830088893212
 30
0.0
 11
255.1802498572476
 21
284.4808068893213
 31
0.0
  0
LINE
  5
491
330
1F
100
AcDbEntity
  8
0
 62
     2
100
AcDbLine
 10
255.1803528572476
 20
290.4147398893211
 30
0.0
 11
255.1803478572476
 21
290.1124808893211
 31
0.0
  0
LINE
  5
492
330
1F
100
AcDbEntity
  8
0
 62
     2
100
AcDbLine
 10
251.2415118572476
 20
284.7830088893212
 30
0.0
 11
251.2415118572476
 21
284.4807788893212
 31
0.0
  0
LINE
  5
493
330
1F
100
AcDbEntity
  8
0
 62
     2
100
AcDbLine
 10
250.6190148572476
 20
287.9606188893212
 30
0.0
 11
252.7939148572476
 21
284.4807788893212
 31
0.0
  0
LINE
  5
494
330
1F
100
AcDbEntity
  8
0
 62
     2
100
AcDbLine
 10
252.7939148572476
 20
284.4807788893212
 30
0.0
 11
254.2502468572476
 21
284.4807788893212
 31
0.0
  0
LINE
  5
495
330
1F
100
AcDbEntity
  8
0
 62
     2
100
AcDbLine
 10
254.8727438572476
 20
290.4147108893212
 30
0.0
 11
254.8727438572476
 21
290.1124808893211
 31
0.0
  0
LINE
  5
496
330
1F
100
AcDbEntity
  8
0
 62
     2
100
AcDbLine
 10
252.6737938572476
 20
290.4147108893212
 30
0.0
 11
254.8727438572476
 21
290.4147108893212
 31
0.0
  0
LINE
  5
497
330
1F
100
AcDbEntity
  8
0
 62
     2
100
AcDbLine
 10
252.6737938572476
 20
290.4147108893212
 30
0.0
 11
252.6737938572476
 21
290.1124808893211
 31
0.0
  0
LINE
  5
498
330
1F
100
AcDbEntity
  8
0
 62
     2
100
AcDbLine
 10
253.2962908572476
 20
287.7270448893212
 30
0.0
 11
251.5325098572476
 21
290.4147108893212
 31
0.0
  0
LINE
  5
499
330
1F
100
AcDbEntity
  8
0
 62
     2
100
AcDbLine
 10
249.0425608572476
 20
290.4147108893212
 30
0.0
 11
251.5325098572476
 21
290.4147108893212
 31
0.0
  0
LINE
  5
49A
330
1F
100
AcDbEntity
  8
0
 62
     2
100
AcDbLine
 10
263.2085818572476
 20
290.4145698893212
 30
0.0
 11
265.9975278572476
 21
290.4145698893212
 31
0.0
  0
LINE
  5
49B
330
1F
100
AcDbEntity
  8
0
 62
     2
100
AcDbLine
 10
263.2085818572476
 20
290.1124808893211
 30
0.0
 11
263.2085818572476
 21
290.4145698893212
 31
0.0
  0
LINE
  5
49C
330
1F
100
AcDbEntity
  8
0
 62
     2
100
AcDbLine
 10
263.2085818572476
 20
284.4806378893212
 30
0.0
 11
263.2085818572476
 21
284.7830088893212
 31
0.0
  0
LINE
  5
49D
330
1F
100
AcDbEntity
  8
0
 62
     2
100
AcDbLine
 10
263.2085818572476
 20
284.4806378893212
 30
0.0
 11
265.9975278572476
 21
284.4806378893212
 31
0.0
  0
LINE
  5
49E
330
1F
100
AcDbEntity
  8
0
 62
     2
100
AcDbLine
 10
266.2885658572476
 20
284.7830088893212
 30
0.0
 11
266.2885658572476
 21
284.4806378893212
 31
0.0
  0
LINE
  5
49F
330
1F
100
AcDbEntity
  8
0
 62
     2
100
AcDbLine
 10
265.9975278572476
 20
284.7830088893212
 30
0.0
 11
265.9975278572476
 21
284.4806378893212
 31
0.0
  0
LINE
  5
4A0
330
1F
100
AcDbEntity
  8
0
 62
     2
100
AcDbLine
 10
265.9975278572476
 20
290.1124808893211
 30
0.0
 11
265.9975278572476
 21
290.4145698893212
 31
0.0
  0
LINE
  5
4A1
330
1F
100
AcDbEntity
  8
0
 62
     2
100
AcDbLine
 10
266.2885658572476
 20
290.1124808893211
 30
0.0
 11
266.2885658572476
 21
290.4145698893212
 31
0.0
  0
LINE
  5
4A2
330
1F
100
AcDbEntity
  8
0
 62
     2
100
AcDbLine
 10
249.0425608572476
 20
284.7830088893212
 30
0.0
 11
249.0425608572476
 21
284.4807788893212
 31
0.0
  0
LINE
  5
4A3
330
1F
100
AcDbEntity
  8
0
 62
     2
100
AcDbLine
 10
249.0425608572476
 20
290.4147108893212
 30
0.0
 11
249.0425608572476
 21
290.1124808893211
 31
0.0
  0
ARC
  5
4A4
330
1F
100
AcDbEntity
  8
0
 62
     2
100
AcDbCircle
 10
275.5705518572476
 20
288.0702418893211
 30
0.0
 40
2.344468999999999
100
AcDbArc
 50
17.30874900000031
 51
23.76507099999965
  0
ARC
  5
4A5
330
1F
100
AcDbEntity
  8
0
 62
     2
100
AcDbCircle
 10
273.5730188572476
 20
287.4477448893212
 30
0.0
 40
4.436751
100
AcDbArc
 50
342.6912509999996
 51
17.30856600000053
  0
ARC
  5
4A6
330
1F
100
AcDbEntity
  8
0
 62
     2
100
AcDbCircle
 10
275.5705518572476
 20
286.8252478893212
 30
0.0
 40
2.344468999999999
100
AcDbArc
 50
336.2349290000003
 51
342.6912509999996
  0
ARC
  5
4A7
330
1F
100
AcDbEntity
  8
0
 62
     2
100
AcDbCircle
 10
275.2705518572476
 20
288.0702418893211
 30
0.0
 40
2.344468999999999
100
AcDbArc
 50
17.30874900000031
 51
90.0
  0
ARC
  5
4A8
330
1F
100
AcDbEntity
  8
0
 62
     2
100
AcDbCircle
 10
273.2730188572475
 20
287.4477448893212
 30
0.0
 40
4.436751
100
AcDbArc
 50
342.6912509999996
 51
17.30856600000053
  0
ARC
  5
4A9
330
1F
100
AcDbEntity
  8
0
 62
     2
100
AcDbCircle
 10
275.2705518572476
 20
286.8252478893212
 30
0.0
 40
2.344468999999999
100
AcDbArc
 50
270.0
 51
342.6912509999996
  0
ARC
  5
4AA
330
1F
100
AcDbEntity
  8
0
 62
     2
100
AcDbCircle
 10
260.8077798572476
 20
287.4477448893212
 30
0.0
 40
2.966965999999997
100
AcDbArc
 50
46.75287999999957
 51
89.74999799999961
  0
ARC
  5
4AB
330
1F
100
AcDbEntity
  8
0
 62
     2
100
AcDbCircle
 10
260.8077798572476
 20
287.4477448893212
 30
0.0
 40
2.966965999999997
100
AcDbArc
 50
273.976333
 51
312.8231200000003
  0
ARC
  5
4AC
330
1F
100
AcDbEntity
  8
0
 62
     2
100
AcDbCircle
 10
277.1532198572476
 20
287.4019428893212
 30
0.0
 40
3.936983999999998
100
AcDbArc
 50
0.6665840000006078
 51
23.90392800000092
  0
ARC
  5
4AD
330
1F
100
AcDbEntity
  8
0
 62
     2
100
AcDbCircle
 10
282.7468808572476
 20
287.4019428893212
 30
0.0
 40
3.936983999999998
100
AcDbArc
 50
156.0960719999991
 51
179.3334159999994
  0
ARC
  5
4AE
330
1F
100
AcDbEntity
  8
0
 62
     2
100
AcDbCircle
 10
277.1532198572476
 20
287.4935468893212
 30
0.0
 40
3.936983999999998
100
AcDbArc
 50
336.0960719999992
 51
359.3334159999994
  0
ARC
  5
4AF
330
1F
100
AcDbEntity
  8
0
 62
     2
100
AcDbCircle
 10
282.7468808572476
 20
287.4935468893212
 30
0.0
 40
3.936983999999998
100
AcDbArc
 50
180.6665840000006
 51
203.9039280000008
  0
LINE
  5
4B0
330
1F
100
AcDbEntity
  8
0
 62
     3
100
AcDbLine
 10
289.9243968572477
 20
287.6724788893211
 30
0.0
 11
461.2676718572473
 21
287.6724788893211
 31
0.0
  0
LINE
  5
4B1
330
1F
100
AcDbEntity
  8
0
 62
     3
100
AcDbLine
 10
241.3703628572476
 20
287.6724788893211
 30
0.0
 11
71.26767185724763
 21
287.6724788893211
 31
0.0
  0
LINE
  5
4B2
330
1F
100
AcDbEntity
  8
0
 62
     3
100
AcDbLine
 10
58.86574785724761
 20
154.1171178893212
 30
0.0
 11
56.26767185724762
 21
152.6171178893211
 31
0.0
  0
LINE
  5
4B3
330
1F
100
AcDbEntity
  8
0
 62
     3
100
AcDbLine
 10
58.86574785724761
 20
154.1171178893212
 30
0.0
 11
56.26767185724762
 21
155.6171178893212
 31
0.0
  0
LINE
  5
4B4
330
1F
100
AcDbEntity
  8
0
 62
     3
100
AcDbLine
 10
56.26767185724762
 20
152.6171178893211
 30
0.0
 11
56.26767185724762
 21
155.6171178893212
 31
0.0
  0
TEXT
  5
4B5
330
1F
100
AcDbEntity
  8
0
 62
     3
100
AcDbText
 10
351.7816258572476
 20
49.45236588932118
 30
0.0
 40
2.0
  1
CONPONENTS
 41
0.5331600000000001
100
AcDbText
  0
TEXT
  5
4B6
330
1F
100
AcDbEntity
  8
0
 62
     3
100
AcDbText
 10
351.4318998572476
 20
30.52018988932117
 30
0.0
 40
3.0
  1
材
 41
0.833333
100
AcDbText
  0
TEXT
  5
4B7
330
1F
100
AcDbEntity
  8
0
 62
     3
100
AcDbText
 10
358.9675418572476
 20
30.52018988932117
 30
0.0
 40
3.0
  1
質
 41
0.833333
100
AcDbText
  0
TEXT
  5
4B8
330
1F
100
AcDbEntity
  8
0
 62
     3
100
AcDbText
 10
351.5199698572477
 20
41.14471388932118
 30
0.0
 40
2.0
  1
MODEL
 41
1.031072999999999
100
AcDbText
  0
TEXT
  5
4B9
330
1F
100
AcDbEntity
  8
0
 62
     3
100
AcDbText
 10
351.4318998572476
 20
34.20249788932118
 30
0.0
 40
2.0
  1
MATERIAL
 41
0.659278
100
AcDbText
  0
TEXT
  5
4BA
330
1F
100
AcDbEntity
  8
0
 62
     3
100
AcDbText
 10
382.7391798572477
 20
30.52018988932117
 30
0.0
 40
3.0
  1
備
 41
0.833333
100
AcDbText
  0
TEXT
  5
4BB
330
1F
100
AcDbEntity
  8
0
 62
     3
100
AcDbText
 10
389.4721818572476
 20
30.52018988932117
 30
0.0
 40
3.0
  1
考
 41
0.833333
100
AcDbText
  0
TEXT
  5
4BC
330
1F
100
AcDbEntity
  8
0
 62
     3
100
AcDbText
 10
383.0595361562824
 20
34.20249788932118
 30
0.0
 40
2.0
  1
REMARKS
 41
0.675794
100
AcDbText
  0
TEXT
  5
4BD
330
1F
100
AcDbEntity
  8
0
 62
     3
100
AcDbText
 10
353.0216288572476
 20
27.28237688932118
 30
0.0
 40
2.0
  1
3AD
 41
1.42614
100
AcDbText
  0
TEXT
  5
4BE
330
1F
100
AcDbEntity
  8
0
 62
     3
100
AcDbText
 10
362.3326088572476
 20
27.44811088932117
 30
0.0
 40
2.0
  1
ANGLE
 41
1.669883999999995
100
AcDbText
  0
TEXT
  5
4BF
330
1F
100
AcDbEntity
  8
0
 62
     3
100
AcDbText
 10
383.2664958572476
 20
27.07126988932119
 30
0.0
 40
2.0
  1
SCALE
 41
0.7719630000000001
100
AcDbText
  0
TEXT
  5
4C0
330
1F
100
AcDbEntity
  8
0
 62
     3
100
AcDbText
 10
352.7077588572477
 20
23.28284088932118
 30
0.0
 40
3.0
  1
第
 41
0.833333
100
AcDbText
  0
TEXT
  5
4C1
330
1F
100
AcDbEntity
  8
0
 62
     3
100
AcDbText
 10
360.4946088572476
 20
23.28284088932118
 30
0.0
 40
3.0
  1
三
 41
0.833333
100
AcDbText
  0
TEXT
  5
4C2
330
1F
100
AcDbEntity
  8
0
 62
     3
100
AcDbText
 10
368.2814588572477
 20
23.28284088932118
 30
0.0
 40
3.0
  1
角
 41
0.833333
100
AcDbText
  0
TEXT
  5
4C3
330
1F
100
AcDbEntity
  8
0
 62
     3
100
AcDbText
 10
376.0683088572477
 20
23.28284088932118
 30
0.0
 40
3.0
  1
法
 41
0.833333
100
AcDbText
  0
TEXT
  5
4C4
330
1F
100
AcDbEntity
  8
0
 62
     3
100
AcDbText
 10
383.1297008572476
 20
23.57126988932119
 30
0.0
 40
3.0
  1
尺
 41
0.833333
100
AcDbText
  0
TEXT
  5
4C5
330
1F
100
AcDbEntity
  8
0
 62
     3
100
AcDbText
 10
389.8627018572477
 20
23.57126988932119
 30
0.0
 40
3.0
  1
度
 41
0.833333
100
AcDbText
  0
TEXT
  5
4C6
330
1F
100
AcDbEntity
  8
0
 62
     3
100
AcDbText
 10
412.4459728572476
 20
45.74056888932118
 30
0.0
 40
3.0
  1
承認
 41
1.089472999999999
100
AcDbText
  0
TEXT
  5
4C7
330
1F
100
AcDbEntity
  8
0
 62
     3
100
AcDbText
 10
425.6888528572476
 20
45.68284088932117
 30
0.0
 40
3.0
  1
検図
 41
0.931761
100
AcDbText
  0
TEXT
  5
4C8
330
1F
100
AcDbEntity
  8
0
 62
     3
100
AcDbText
 10
438.6892498572477
 20
45.68284088932117
 30
0.0
 40
3.0
  1
設
 41
0.833333
100
AcDbText
  0
TEXT
  5
4C9
330
1F
100
AcDbEntity
  8
0
 62
     3
100
AcDbText
 10
443.1791178572473
 20
45.68284088932117
 30
0.0
 40
3.0
  1
計
 41
0.833333
100
AcDbText
  0
TEXT
  5
4CA
330
1F
100
AcDbEntity
  8
0
 62
     3
100
AcDbText
 10
351.8517328572476
 20
45.85539288932118
 30
0.0
 40
3.0
  1
品
 41
0.833333
100
AcDbText
  0
TEXT
  5
4CB
330
1F
100
AcDbEntity
  8
0
 62
     3
100
AcDbText
 10
359.3873748572477
 20
45.85539288932118
 30
0.0
 40
3.0
  1
名
 41
0.833333
100
AcDbText
  0
TEXT
  5
4CC
330
1F
100
AcDbEntity
  8
0
 62
     3
100
AcDbText
 10
351.5199698572477
 20
37.52633858905904
 30
0.0
 40
3.0
  1
型
 41
0.833333
100
AcDbText
  0
TEXT
  5
4CD
330
1F
100
AcDbEntity
  8
0
 62
     3
100
AcDbText
 10
359.0680608572477
 20
37.52633858905904
 30
0.0
 40
3.0
  1
式
 41
0.833333
100
AcDbText
  0
TEXT
  5
4D5
330
1F
100
AcDbEntity
  8
0
 62
     3
100
AcDbText
 10
368.6961238572477
 20
41.14389708435456
 30
0.0
 40
2.5
  1
NS-BO-N
  7
高2.5
100
AcDbText
  0
TEXT
  5
4D6
330
1F
100
AcDbEntity
  8
0
 62
     3
100
AcDbText
 10
426.2517528572476
 20
23.91854088932118
 30
0.0
 40
3.2
  1
2010.8.5
  7
高3.2
100
AcDbText
  0
TEXT
  5
4D7
330
1F
100
AcDbEntity
  8
0
 62
     3
100
AcDbText
 10
419.2376716115822
 20
14.56169320116558
 30
0.0
 40
6.299999999999998
  1
NS-B
  7
高6.3
100
AcDbText
  0
TEXT
  5
4D8
330
1F
100
AcDbEntity
  8
0
 62
     3
100
AcDbText
 10
370.6166027315232
 20
45.92727532660267
 30
0.0
 40
4.5
  1
ニコソーラー
  7
高4.5
100
AcDbText
  0
LINE
  5
4D9
330
1F
100
AcDbEntity
  8
0
100
AcDbLine
 10
308.1671816496883
 20
54.62917750850547
 30
0.0
 11
308.1671816496883
 21
50.12917750850546
 31
0.0
  0
LINE
  5
4DA
330
1F
100
AcDbEntity
  8
0
100
AcDbLine
 10
308.1671816496883
 20
50.12917750850546
 30
0.0
 11
311.3650247081809
 21
50.12917750850546
 31
0.0
  0
LINE
  5
4DB
330
1F
100
AcDbEntity
  8
0
100
AcDbLine
 10
308.1671816496883
 20
54.62917750850547
 30
0.0
 11
311.3650247081809
 21
54.62917750850547
 31
0.0
  0
LINE
  5
4DC
330
1F
100
AcDbEntity
  8
0
100
AcDbLine
 10
311.3650247081809
 20
54.62917750850547
 30
0.0
 11
311.3650247081809
 21
50.12917750850546
 31
0.0
  0
TEXT
  5
4FC
330
1F
100
AcDbEntity
  8
0
 62
     3
100
AcDbText
 10
255.8362473790712
 20
49.97057350850544
 30
0.0
 40
4.5
  1
＊型式表示　NS-B  -
  7
高4.5
100
AcDbText
  0
LINE
  5
4FD
330
1F
100
AcDbEntity
  8
0
100
AcDbLine
 10
319.2048798226253
 20
49.13564419611393
 30
0.0
 11
259.6308889403599
 21
49.13564419611393
 31
0.0
  0
TEXT
  5
4FE
330
1F
100
AcDbEntity
  8
0
 62
     3
100
AcDbText
 10
319.7480352171298
 20
42.17957250850547
 30
0.0
 40
4.5
  1
取付タイプ
 41
0.833333
100
AcDbText
  0
TEXT
  5
4FF
330
1F
100
AcDbEntity
  8
0
 62
     3
100
AcDbText
 10
313.0816694484522
 20
36.70942050850553
 30
0.0
 40
4.5
  1
色記号
 41
0.833333
100
AcDbText
  0
TEXT
  5
500
330
1F
100
AcDbEntity
  8
0
 62
     3
100
AcDbText
 10
306.6140845937352
 20
30.67132450991835
 30
0.0
 40
4.5
  1
充電池式
 41
0.833333
100
AcDbText
  0
LINE
  5
501
330
1F
100
AcDbEntity
  8
0
 62
     3
100
AcDbLine
 10
310.0615544484522
 20
48.53748150850546
 30
0.0
 11
310.0615544484522
 21
38.54585950850546
 31
0.0
  0
LINE
  5
502
330
1F
100
AcDbEntity
  8
0
 62
     3
100
AcDbLine
 10
317.1065222171297
 20
48.29378350850547
 30
0.0
 11
317.1065222171297
 21
43.78536850850544
 31
0.0
  0
LINE
  5
503
330
1F
100
AcDbEntity
  8
0
 62
     3
100
AcDbLine
 10
303.5765625937352
 20
48.65933050850546
 30
0.0
 11
303.5765625937352
 21
32.97775250991835
 31
0.0
  0
LINE
  5
504
330
1F
100
AcDbEntity
  8
0
 62
     3
100
AcDbLine
 10
317.1065222171297
 20
43.78536850850544
 30
0.0
 11
319.2616442171297
 21
43.78536850850544
 31
0.0
  0
LINE
  5
505
330
1F
100
AcDbEntity
  8
0
 62
     3
100
AcDbLine
 10
310.0615544484522
 20
38.54585950850546
 30
0.0
 11
312.3009894484523
 21
38.54585950850546
 31
0.0
  0
LINE
  5
506
330
1F
100
AcDbEntity
  8
0
 62
     3
100
AcDbLine
 10
303.5765625937352
 20
32.97775250991835
 30
0.0
 11
306.0484705937351
 21
32.97775250991835
 31
0.0
  0
TEXT
  5
50A
330
1F
100
AcDbEntity
  8
0
 62
     3
100
AcDbText
 10
395.0437288572477
 20
24.06384288932118
 30
0.0
 40
3.2
  1
FREE
  7
高3.2
100
AcDbText
  0
TEXT
  5
50B
330
1F
100
AcDbEntity
  8
0
 62
     3
100
AcDbText
 10
172.581150569889
 20
14.11711788932118
 30
0.0
 40
3.2
  1
個数
 41
0.8
  7
高3.2
100
AcDbText
  0
TEXT
  5
50C
330
1F
100
AcDbEntity
  8
0
 62
     3
100
AcDbText
 10
141.732101620949
 20
14.11711788932118
 30
0.0
 40
3.2
  1
備　　　　考
 41
0.8
  7
高3.2
100
AcDbText
  0
TEXT
  5
50D
330
1F
100
AcDbEntity
  8
0
 62
     3
100
AcDbText
 10
113.7213580584284
 20
14.11711788932118
 30
0.0
 40
3.2
  1
材　質
 41
0.8
  7
高3.2
100
AcDbText
  0
TEXT
  5
50E
330
1F
100
AcDbEntity
  8
0
 62
     3
100
AcDbText
 10
80.29141819969536
 20
14.11711788932118
 30
0.0
 40
3.2
  1
部　品　名
 41
0.8
  7
高3.2
100
AcDbText
  0
TEXT
  5
50F
330
1F
100
AcDbEntity
  8
0
 62
     3
100
AcDbText
 10
72.76767185724763
 20
14.11711788932118
 30
0.0
 40
3.2
  1
No
 41
0.8
  7
高3.2
100
AcDbText
  0
TEXT
  5
510
330
1F
100
AcDbEntity
  8
0
 62
     3
100
AcDbText
 10
72.76767185724763
 20
19.11711788932118
 30
0.0
 40
3.2
  1
1
 41
0.8
  7
高3.2
100
AcDbText
  0
TEXT
  5
511
330
1F
100
AcDbEntity
  8
0
 62
     3
100
AcDbText
 10
72.76767185724763
 20
24.11711788932118
 30
0.0
 40
3.2
  1
2
 41
0.8
  7
高3.2
100
AcDbText
  0
TEXT
  5
512
330
1F
100
AcDbEntity
  8
0
 62
     3
100
AcDbText
 10
72.76767185724763
 20
34.11711788932118
 30
0.0
 40
3.2
  1
4
 41
0.8
  7
高3.2
100
AcDbText
  0
TEXT
  5
513
330
1F
100
AcDbEntity
  8
0
 62
     3
100
AcDbText
 10
172.581150569889
 20
34.11711788932118
 30
0.0
 40
3.2
  1
1
 41
0.8
  7
高3.2
100
AcDbText
  0
TEXT
  5
514
330
1F
100
AcDbEntity
  8
0
 62
     3
100
AcDbText
 10
172.581150569889
 20
29.11711788932118
 30
0.0
 40
3.2
  1
1
 41
0.8
  7
高3.2
100
AcDbText
  0
TEXT
  5
515
330
1F
100
AcDbEntity
  8
0
 62
     3
100
AcDbText
 10
172.581150569889
 20
24.11711788932118
 30
0.0
 40
3.2
  1
1
 41
0.8
  7
高3.2
100
AcDbText
  0
TEXT
  5
516
330
1F
100
AcDbEntity
  8
0
 62
     3
100
AcDbText
 10
172.581150569889
 20
19.11711788932118
 30
0.0
 40
3.2
  1
1
 41
0.8
  7
高3.2
100
AcDbText
  0
TEXT
  5
517
330
1F
100
AcDbEntity
  8
0
 62
     3
100
AcDbText
 10
80.29141819969536
 20
19.11711788932118
 30
0.0
 40
3.2
  1
ソーラーパネル
 41
0.8
  7
高3.2
100
AcDbText
  0
TEXT
  5
518
330
1F
100
AcDbEntity
  8
0
 62
     3
100
AcDbText
 10
113.7213580584284
 20
24.11711788932118
 30
0.0
 40
3.2
  1
ポリカーボネート
 41
0.8
  7
高3.2
100
AcDbText
  0
TEXT
  5
519
330
1F
100
AcDbEntity
  8
0
 62
     3
100
AcDbText
 10
80.29141819969531
 20
29.11711788932118
 30
0.0
 40
3.2
  1
パッキン
 41
0.8
  7
高3.2
100
AcDbText
  0
TEXT
  5
51A
330
1F
100
AcDbEntity
  8
0
 62
     3
100
AcDbText
 10
80.29141819969529
 20
34.11711788932118
 30
0.0
 40
3.2
  1
本体ボディ
 41
0.8
  7
高3.2
100
AcDbText
  0
TEXT
  5
51B
330
1F
100
AcDbEntity
  8
0
 62
     3
100
AcDbText
 10
113.7213580584284
 20
29.11711788932118
 30
0.0
 40
3.2
  1
ニトリルゴム
 41
0.8
  7
高3.2
100
AcDbText
  0
TEXT
  5
51C
330
1F
100
AcDbEntity
  8
0
 62
     3
100
AcDbText
 10
80.29141819969535
 20
24.11711788932118
 30
0.0
 40
3.2
  1
キャップ
 41
0.8
  7
高3.2
100
AcDbText
  0
TEXT
  5
51D
330
1F
100
AcDbEntity
  8
0
 62
     3
100
AcDbText
 10
72.76767185724763
 20
29.11711788932118
 30
0.0
 40
3.2
  1
3
 41
0.8
  7
高3.2
100
AcDbText
  0
LINE
  5
51E
330
1F
100
AcDbEntity
  8
0
 62
     3
100
AcDbLine
 10
179.8113028812839
 20
18.61711788932118
 30
0.0
 11
71.26767185724763
 21
18.61711788932118
 31
0.0
  0
LINE
  5
51F
330
1F
100
AcDbEntity
  8
0
 62
     7
100
AcDbLine
 10
179.8113028812839
 20
23.61711788932118
 30
0.0
 11
71.26767185724763
 21
23.61711788932118
 31
0.0
  0
LINE
  5
520
330
1F
100
AcDbEntity
  8
0
 62
     7
100
AcDbLine
 10
179.8113028812839
 20
28.61711788932118
 30
0.0
 11
71.26767185724763
 21
28.61711788932118
 31
0.0
  0
LINE
  5
521
330
1F
100
AcDbEntity
  8
0
 62
     7
100
AcDbLine
 10
179.8113028812839
 20
33.61711788932118
 30
0.0
 11
71.26767185724763
 21
33.61711788932118
 31
0.0
  0
LINE
  5
522
330
1F
100
AcDbEntity
  8
0
100
AcDbLine
 10
179.8113028812839
 20
38.61711788932118
 30
0.0
 11
71.26767185724763
 21
38.61711788932118
 31
0.0
  0
LINE
  5
523
330
1F
100
AcDbEntity
  8
0
100
AcDbLine
 10
78.79141819969539
 20
13.61711788932118
 30
0.0
 11
78.79141819969523
 21
48.61711788932117
 31
0.0
  0
LINE
  5
524
330
1F
100
AcDbEntity
  8
0
100
AcDbLine
 10
171.0811505698891
 20
13.61711788932118
 30
0.0
 11
171.081150569889
 21
48.61711788932117
 31
0.0
  0
LINE
  5
525
330
1F
100
AcDbEntity
  8
0
100
AcDbLine
 10
140.232101620949
 20
13.61711788932118
 30
0.0
 11
140.232101620949
 21
48.61711788932117
 31
0.0
  0
LINE
  5
526
330
1F
100
AcDbEntity
  8
0
100
AcDbLine
 10
112.2213580584284
 20
48.61711788932117
 30
0.0
 11
112.2213580584284
 21
13.61711788932118
 31
0.0
  0
LINE
  5
527
330
1F
100
AcDbEntity
  8
0
 62
     3
100
AcDbLine
 10
179.8113028812839
 20
13.61711788932118
 30
0.0
 11
179.8113028812838
 21
48.61711788932117
 31
0.0
  0
TEXT
  5
528
330
1F
100
AcDbEntity
  8
0
 62
     3
100
AcDbText
 10
113.7213580584284
 20
34.11711788932118
 30
0.0
 40
3.2
  1
ポリカーボネート
 41
0.8
  7
高3.2
100
AcDbText
  0
TEXT
  5
52B
330
1F
100
AcDbEntity
  8
0
 62
     3
100
AcDbText
 10
141.732101620949
 20
24.11711788932118
 30
0.0
 40
3.2
  1
発光色と同色
 41
0.8
  7
高3.2
100
AcDbText
  0
TEXT
  5
52C
330
1F
100
AcDbEntity
  8
0
 62
     3
100
AcDbText
 10
141.732101620949
 20
34.11711788932118
 30
0.0
 40
3.2
  1
発光色と同色
 41
0.8
  7
高3.2
100
AcDbText
  0
TEXT
  5
52D
330
1F
100
AcDbEntity
  8
0
 62
     3
100
AcDbText
 10
141.732101620949
 20
29.11711788932118
 30
0.0
 40
3.2
  1
Ｏリング
 41
0.8
  7
高3.2
100
AcDbText
  0
TEXT
  5
52E
330
1F
100
AcDbEntity
  8
0
 62
     3
100
AcDbText
 10
367.0105446515833
 20
31.46301649120028
 30
0.0
 40
3.2
  1
別掲
  7
高3.2
100
AcDbText
  0
LINE
  5
535
330
1F
100
AcDbEntity
  8
0
  6
Continuous
 62
     3
100
AcDbLine
 10
435.5683088572476
 20
119.2828408893212
 30
0.0
 11
435.5683088572476
 21
53.28284088932118
 31
0.0
  0
LINE
  5
536
330
1F
100
AcDbEntity
  8
0
  6
Continuous
 62
     3
100
AcDbLine
 10
363.2096638572476
 20
119.2828408893212
 30
0.0
 11
363.2096638572476
 21
53.28284088932118
 31
0.0
  0
TEXT
  5
537
330
1F
100
AcDbEntity
  8
0
 62
     3
100
AcDbText
 10
365.2096638572476
 20
107.7828408893212
 30
0.0
 40
3.2
  1
NS-BY-N
  7
高3.2
100
AcDbText
  0
TEXT
  5
538
330
1F
100
AcDbEntity
  8
0
 62
     3
100
AcDbText
 10
365.2096638572476
 20
101.7828408893212
 30
0.0
 40
3.2
  1
NS-BR-N
  7
高3.2
100
AcDbText
  0
TEXT
  5
539
330
1F
100
AcDbEntity
  8
0
 62
     3
100
AcDbText
 10
365.2096638572476
 20
95.7828408893212
 30
0.0
 40
3.2
  1
NS-BB-N
  7
高3.2
100
AcDbText
  0
TEXT
  5
53A
330
1F
100
AcDbEntity
  8
0
 62
     3
100
AcDbText
 10
365.2096638572476
 20
89.78284088932118
 30
0.0
 40
3.2
  1
NS-BG-N
  7
高3.2
100
AcDbText
  0
TEXT
  5
53B
330
1F
100
AcDbEntity
  8
0
 62
     3
100
AcDbText
 10
365.2096638572476
 20
83.78284088932119
 30
0.0
 40
3.2
  1
NS-BW-N
  7
高3.2
100
AcDbText
  0
TEXT
  5
53C
330
1F
100
AcDbEntity
  8
0
 62
     3
100
AcDbText
 10
411.5683088572476
 20
107.7828408893212
 30
0.0
 40
3.2
  1
黄
  7
高3.2
100
AcDbText
  0
TEXT
  5
53D
330
1F
100
AcDbEntity
  8
0
 62
     3
100
AcDbText
 10
411.5683088572476
 20
101.7828408893212
 30
0.0
 40
3.2
  1
赤
  7
高3.2
100
AcDbText
  0
TEXT
  5
53E
330
1F
100
AcDbEntity
  8
0
 62
     3
100
AcDbText
 10
411.5683088572476
 20
95.7828408893212
 30
0.0
 40
3.2
  1
青
  7
高3.2
100
AcDbText
  0
TEXT
  5
53F
330
1F
100
AcDbEntity
  8
0
 62
     3
100
AcDbText
 10
411.5683088572476
 20
89.78284088932118
 30
0.0
 40
3.2
  1
緑
  7
高3.2
100
AcDbText
  0
TEXT
  5
540
330
1F
100
AcDbEntity
  8
0
 62
     3
100
AcDbText
 10
411.5683088572476
 20
83.78284088932119
 30
0.0
 40
3.2
  1
白
  7
高3.2
100
AcDbText
  0
TEXT
  5
542
330
1F
100
AcDbEntity
  8
0
 62
     3
100
AcDbText
 10
437.5683088572476
 20
107.7828408893212
 30
0.0
 40
3.2
  1
12218
  7
高3.2
100
AcDbText
  0
TEXT
  5
543
330
1F
100
AcDbEntity
  8
0
 62
     3
100
AcDbText
 10
437.5683088572476
 20
101.7828408893212
 30
0.0
 40
3.2
  1
12219
  7
高3.2
100
AcDbText
  0
TEXT
  5
544
330
1F
100
AcDbEntity
  8
0
 62
     3
100
AcDbText
 10
437.5683088572476
 20
95.7828408893212
 30
0.0
 40
3.2
  1
12220
  7
高3.2
100
AcDbText
  0
TEXT
  5
545
330
1F
100
AcDbEntity
  8
0
 62
     3
100
AcDbText
 10
437.5683088572476
 20
89.78284088932118
 30
0.0
 40
3.2
  1
12221
  7
高3.2
100
AcDbText
  0
TEXT
  5
546
330
1F
100
AcDbEntity
  8
0
 62
     3
100
AcDbText
 10
437.5683088572476
 20
83.78284088932119
 30
0.0
 40
3.2
  1
12228
  7
高3.2
100
AcDbText
  0
TEXT
  5
547
330
1F
100
AcDbEntity
  8
0
 62
     3
100
AcDbText
 10
437.5683088572476
 20
113.7828408893212
 30
0.0
 40
3.2
  1
商品コード
  7
高3.2
100
AcDbText
  0
TEXT
  5
548
330
1F
100
AcDbEntity
  8
0
 62
     3
100
AcDbText
 10
368.6961238572477
 20
37.79868100188507
 30
0.0
 40
2.5
  1
NS-BO-M
  7
高2.5
100
AcDbText
  0
LINE
  5
549
330
1F
100
AcDbEntity
  8
0
100
AcDbLine
 10
315.2416368580473
 20
54.62917750850547
 30
0.0
 11
315.2416368580473
 21
50.12917750850546
 31
0.0
  0
LINE
  5
54A
330
1F
100
AcDbEntity
  8
0
100
AcDbLine
 10
315.2416368580473
 20
50.12917750850546
 30
0.0
 11
318.43947991654
 21
50.12917750850546
 31
0.0
  0
LINE
  5
54B
330
1F
100
AcDbEntity
  8
0
100
AcDbLine
 10
315.2416368580473
 20
54.62917750850547
 30
0.0
 11
318.43947991654
 21
54.62917750850547
 31
0.0
  0
LINE
  5
54C
330
1F
100
AcDbEntity
  8
0
100
AcDbLine
 10
318.43947991654
 20
54.62917750850547
 30
0.0
 11
318.43947991654
 21
50.12917750850546
 31
0.0
  0
TEXT
  5
54D
330
1F
100
AcDbEntity
  8
0
 62
     3
100
AcDbText
 10
72.76767185724763
 20
39.11711788932118
 30
0.0
 40
3.2
  1
5
 41
0.8
  7
高3.2
100
AcDbText
  0
TEXT
  5
54E
330
1F
100
AcDbEntity
  8
0
 62
     3
100
AcDbText
 10
172.581150569889
 20
39.11711788932118
 30
0.0
 40
3.2
  1
1
 41
0.8
  7
高3.2
100
AcDbText
  0
TEXT
  5
54F
330
1F
100
AcDbEntity
  8
0
 62
     3
100
AcDbText
 10
80.29141819969526
 20
39.11711788932118
 30
0.0
 40
3.2
  1
マグネット
 41
0.8
  7
高3.2
100
AcDbText
  0
TEXT
  5
550
330
1F
100
AcDbEntity
  8
0
 62
     3
100
AcDbText
 10
113.7213580584284
 20
39.11711788932118
 30
0.0
 40
3.2
  1
－
 41
0.8
  7
高3.2
100
AcDbText
  0
TEXT
  5
551
330
1F
100
AcDbEntity
  8
0
 62
     3
100
AcDbText
 10
141.732101620949
 20
39.11711788932118
 30
0.0
 40
3.2
  1
取付タイプがMのみ
 41
0.8
  7
高3.2
100
AcDbText
  0
LINE
  5
554
330
1F
100
AcDbEntity
  8
0
  6
Continuous
 62
     3
100
AcDbLine
 10
409.5683088572476
 20
119.2828408893212
 30
0.0
 11
409.5683088572476
 21
53.28284088932118
 31
0.0
  0
TEXT
  5
555
330
1F
100
AcDbEntity
  8
0
 62
     3
100
AcDbText
 10
365.2096638572476
 20
113.7828408893212
 30
0.0
 40
3.2
  1
型　　式
  7
高3.2
100
AcDbText
  0
TEXT
  5
556
330
1F
100
AcDbEntity
  8
0
 62
     3
100
AcDbText
 10
411.5683088572476
 20
113.7828408893212
 30
0.0
 40
3.2
  1
色
  7
高3.2
100
AcDbText
  0
TEXT
  5
557
330
1F
100
AcDbEntity
  8
0
 62
     3
100
AcDbText
 10
424.5683088572476
 20
107.7828408893212
 30
0.0
 40
3.2
  1
無
  7
高3.2
100
AcDbText
  0
TEXT
  5
558
330
1F
100
AcDbEntity
  8
0
 62
     3
100
AcDbText
 10
424.5683088572476
 20
101.7828408893212
 30
0.0
 40
3.2
  1
無
  7
高3.2
100
AcDbText
  0
LINE
  5
559
330
1F
100
AcDbEntity
  8
0
  6
Continuous
 62
     3
100
AcDbLine
 10
422.5683088572477
 20
119.2828408893212
 30
0.0
 11
422.5683088572476
 21
53.28284088932118
 31
0.0
  0
TEXT
  5
55B
330
1F
100
AcDbEntity
  8
0
 62
     3
100
AcDbText
 10
424.5683088572476
 20
95.7828408893212
 30
0.0
 40
3.2
  1
無
  7
高3.2
100
AcDbText
  0
TEXT
  5
55C
330
1F
100
AcDbEntity
  8
0
 62
     3
100
AcDbText
 10
424.5683088572476
 20
89.78284088932118
 30
0.0
 40
3.2
  1
無
  7
高3.2
100
AcDbText
  0
TEXT
  5
55D
330
1F
100
AcDbEntity
  8
0
 62
     3
100
AcDbText
 10
424.5683088572476
 20
83.78284088932119
 30
0.0
 40
3.2
  1
無
  7
高3.2
100
AcDbText
  0
TEXT
  5
562
330
1F
100
AcDbEntity
  8
0
 62
     3
100
AcDbText
 10
365.2096638572476
 20
77.78284088932119
 30
0.0
 40
3.2
  1
NS-BY-M
  7
高3.2
100
AcDbText
  0
TEXT
  5
563
330
1F
100
AcDbEntity
  8
0
 62
     3
100
AcDbText
 10
365.2096638572476
 20
71.78284088932119
 30
0.0
 40
3.2
  1
NS-BR-M
  7
高3.2
100
AcDbText
  0
TEXT
  5
564
330
1F
100
AcDbEntity
  8
0
 62
     3
100
AcDbText
 10
365.2096638572476
 20
65.78284088932119
 30
0.0
 40
3.2
  1
NS-BB-M
  7
高3.2
100
AcDbText
  0
TEXT
  5
565
330
1F
100
AcDbEntity
  8
0
 62
     3
100
AcDbText
 10
365.2096638572476
 20
59.78284088932119
 30
0.0
 40
3.2
  1
NS-BG-M
  7
高3.2
100
AcDbText
  0
TEXT
  5
566
330
1F
100
AcDbEntity
  8
0
 62
     3
100
AcDbText
 10
365.2096638572476
 20
53.78284088932119
 30
0.0
 40
3.2
  1
NS-BW-M
  7
高3.2
100
AcDbText
  0
TEXT
  5
567
330
1F
100
AcDbEntity
  8
0
 62
     3
100
AcDbText
 10
411.5683088572476
 20
77.78284088932119
 30
0.0
 40
3.2
  1
黄
  7
高3.2
100
AcDbText
  0
TEXT
  5
568
330
1F
100
AcDbEntity
  8
0
 62
     3
100
AcDbText
 10
411.5683088572476
 20
71.78284088932119
 30
0.0
 40
3.2
  1
赤
  7
高3.2
100
AcDbText
  0
TEXT
  5
569
330
1F
100
AcDbEntity
  8
0
 62
     3
100
AcDbText
 10
411.5683088572476
 20
65.78284088932119
 30
0.0
 40
3.2
  1
青
  7
高3.2
100
AcDbText
  0
TEXT
  5
56A
330
1F
100
AcDbEntity
  8
0
 62
     3
100
AcDbText
 10
411.5683088572476
 20
59.78284088932119
 30
0.0
 40
3.2
  1
緑
  7
高3.2
100
AcDbText
  0
TEXT
  5
56B
330
1F
100
AcDbEntity
  8
0
 62
     3
100
AcDbText
 10
411.5683088572476
 20
53.78284088932119
 30
0.0
 40
3.2
  1
白
  7
高3.2
100
AcDbText
  0
TEXT
  5
56C
330
1F
100
AcDbEntity
  8
0
 62
     3
100
AcDbText
 10
437.5683088572476
 20
77.78284088932119
 30
0.0
 40
3.2
  1
12222
  7
高3.2
100
AcDbText
  0
TEXT
  5
56D
330
1F
100
AcDbEntity
  8
0
 62
     3
100
AcDbText
 10
437.5683088572476
 20
71.78284088932119
 30
0.0
 40
3.2
  1
12223
  7
高3.2
100
AcDbText
  0
TEXT
  5
56E
330
1F
100
AcDbEntity
  8
0
 62
     3
100
AcDbText
 10
437.5683088572476
 20
65.78284088932119
 30
0.0
 40
3.2
  1
12224
  7
高3.2
100
AcDbText
  0
TEXT
  5
56F
330
1F
100
AcDbEntity
  8
0
 62
     3
100
AcDbText
 10
437.5683088572476
 20
59.78284088932119
 30
0.0
 40
3.2
  1
12225
  7
高3.2
100
AcDbText
  0
TEXT
  5
570
330
1F
100
AcDbEntity
  8
0
 62
     3
100
AcDbText
 10
437.5683088572475
 20
53.78284088932119
 30
0.0
 40
3.2
  1
12229
  7
高3.2
100
AcDbText
  0
TEXT
  5
571
330
1F
100
AcDbEntity
  8
0
 62
     3
100
AcDbText
 10
424.5683088572476
 20
77.78284088932119
 30
0.0
 40
3.2
  1
有
  7
高3.2
100
AcDbText
  0
TEXT
  5
572
330
1F
100
AcDbEntity
  8
0
 62
     3
100
AcDbText
 10
424.5683088572476
 20
71.78284088932119
 30
0.0
 40
3.2
  1
有
  7
高3.2
100
AcDbText
  0
TEXT
  5
573
330
1F
100
AcDbEntity
  8
0
 62
     3
100
AcDbText
 10
424.5683088572476
 20
65.78284088932119
 30
0.0
 40
3.2
  1
有
  7
高3.2
100
AcDbText
  0
TEXT
  5
574
330
1F
100
AcDbEntity
  8
0
 62
     3
100
AcDbText
 10
424.5683088572476
 20
59.78284088932119
 30
0.0
 40
3.2
  1
有
  7
高3.2
100
AcDbText
  0
TEXT
  5
575
330
1F
100
AcDbEntity
  8
0
 62
     3
100
AcDbText
 10
424.5683088572476
 20
53.78284088932119
 30
0.0
 40
3.2
  1
有
  7
高3.2
100
AcDbText
  0
LINE
  5
577
330
1F
100
AcDbEntity
  8
0
100
AcDbLine
 10
179.8113028812839
 20
43.61711788932118
 30
0.0
 11
71.26767185724763
 21
43.61711788932118
 31
0.0
  0
LINE
  5
578
330
1F
100
AcDbEntity
  8
0
 62
     3
100
AcDbLine
 10
179.8113028812839
 20
48.61711788932119
 30
0.0
 11
71.26767185724766
 21
48.61711788932119
 31
0.0
  0
TEXT
  5
579
330
1F
100
AcDbEntity
  8
0
 62
     3
100
AcDbText
 10
80.29141819969522
 20
44.11711788932119
 30
0.0
 40
3.2
  1
壁面取付けブラケット
 41
0.8
  7
高3.2
100
AcDbText
  0
TEXT
  5
57A
330
1F
100
AcDbEntity
  8
0
 62
     3
100
AcDbText
 10
72.76767185724763
 20
44.11711788932119
 30
0.0
 40
3.2
  1
OP
 41
0.8
  7
高3.2
100
AcDbText
  0
TEXT
  5
57B
330
1F
100
AcDbEntity
  8
0
 62
     3
100
AcDbText
 10
172.581150569889
 20
44.11711788932119
 30
0.0
 40
3.2
  1
1
 41
0.8
  7
高3.2
100
AcDbText
  0
LINE
  5
57C
330
1F
100
AcDbEntity
  8
0
 62
     3
100
AcDbLine
 10
279.6949763191673
 20
164.7360660003301
 30
0.0
 11
210.0949763191673
 21
164.7360660003301
 31
0.0
  0
LINE
  5
57D
330
1F
100
AcDbEntity
  8
0
 62
     3
100
AcDbLine
 10
282.8949763191673
 20
151.9360660003302
 30
0.0
 11
206.8949763191673
 21
151.9360660003302
 31
0.0
  0
LINE
  5
57E
330
1F
100
AcDbEntity
  8
0
 62
     3
100
AcDbLine
 10
281.2949763191674
 20
125.5360660003302
 30
0.0
 11
208.4949763191672
 21
125.5360660003302
 31
0.0
  0
LINE
  5
57F
330
1F
100
AcDbEntity
  8
0
 62
     3
100
AcDbLine
 10
286.8949763191673
 20
89.53606600033017
 30
0.0
 11
202.8949763191673
 21
89.53606600033017
 31
0.0
  0
LINE
  5
580
330
1F
100
AcDbEntity
  8
0
 62
     3
100
AcDbLine
 10
282.8949763191673
 20
161.5360660003302
 30
0.0
 11
282.8949763191673
 21
151.9360660003302
 31
0.0
  0
ARC
  5
581
330
1F
100
AcDbEntity
  8
0
 62
     3
100
AcDbCircle
 10
64.2949763191673
 20
151.9360660003302
 30
0.0
 40
218.6
100
AcDbArc
 50
353.0635410000012
 51
0.0
  0
ARC
  5
582
330
1F
100
AcDbEntity
  8
0
 62
     3
100
AcDbCircle
 10
168.3806907191673
 20
89.53606600033017
 30
0.0
 40
118.5142856
100
AcDbArc
 50
0.0
 51
17.68362899999907
  0
ARC
  5
583
330
1F
100
AcDbEntity
  8
0
 62
     3
100
AcDbCircle
 10
279.6949763191673
 20
161.5360660003302
 30
0.0
 40
3.2
100
AcDbArc
 50
0.0
 51
90.0
  0
ARC
  5
584
330
1F
100
AcDbEntity
  8
0
 62
     3
100
AcDbCircle
 10
210.0949763191673
 20
161.5360660003302
 30
0.0
 40
3.2
100
AcDbArc
 50
90.0
 51
180.0
  0
LINE
  5
585
330
1F
100
AcDbEntity
  8
0
 62
     3
100
AcDbLine
 10
206.8949763191673
 20
161.5360660003302
 30
0.0
 11
206.8949763191673
 21
151.9360660003302
 31
0.0
  0
ARC
  5
586
330
1F
100
AcDbEntity
  8
0
 62
     3
100
AcDbCircle
 10
425.4949763191671
 20
151.9360660003302
 30
0.0
 40
218.6
100
AcDbArc
 50
180.0
 51
186.9364589999988
  0
ARC
  5
587
330
1F
100
AcDbEntity
  8
0
 62
     3
100
AcDbCircle
 10
321.4092619191673
 20
89.53606600033017
 30
0.0
 40
118.5142856
100
AcDbArc
 50
162.3163710000009
 51
180.0
  0
ARC
  5
588
330
1F
100
AcDbEntity
  8
0
100
AcDbCircle
 10
-16.36028368083279
 20
93.41884520033024
 30
0.0
 40
293.4958088
100
AcDbArc
 50
359.2419879999995
 51
6.282454000000121
  0
LINE
  5
589
330
1F
100
AcDbEntity
  8
0
100
AcDbLine
 10
245.7120267191673
 20
89.53606600033017
 30
0.0
 11
245.7120267191673
 21
125.5360660003302
 31
0.0
  0
LINE
  5
58A
330
1F
100
AcDbEntity
  8
0
100
AcDbLine
 10
244.0779259191674
 20
89.53606600033017
 30
0.0
 11
244.0779259191674
 21
125.5360660003302
 31
0.0
  0
ARC
  5
58B
330
1F
100
AcDbEntity
  8
0
100
AcDbCircle
 10
506.1502363191671
 20
93.41884520033024
 30
0.0
 40
293.4958088
100
AcDbArc
 50
173.7175459999999
 51
180.7580120000006
  0
LINE
  5
58C
330
1F
100
AcDbEntity
  8
0
 62
     3
100
AcDbLine
 10
282.8949763191673
 20
153.7608940003302
 30
0.0
 11
206.8949763191673
 21
153.7608940003302
 31
0.0
  0
LINE
  5
58D
330
1F
100
AcDbEntity
  8
0
100
AcDbLine
 10
248.7850043191674
 20
161.5360660003302
 30
0.0
 11
248.7850043191674
 21
153.7608940003302
 31
0.0
  0
LINE
  5
58E
330
1F
100
AcDbEntity
  8
0
100
AcDbLine
 10
256.2670371191672
 20
161.5360660003302
 30
0.0
 11
256.2670371191672
 21
153.7608940003302
 31
0.0
  0
LINE
  5
58F
330
1F
100
AcDbEntity
  8
0
100
AcDbLine
 10
263.7490691191673
 20
161.5360660003302
 30
0.0
 11
263.7490691191673
 21
153.7608940003302
 31
0.0
  0
LINE
  5
590
330
1F
100
AcDbEntity
  8
0
100
AcDbLine
 10
270.0286315191673
 20
161.5360660003302
 30
0.0
 11
270.0286315191673
 21
153.7608940003302
 31
0.0
  0
LINE
  5
591
330
1F
100
AcDbEntity
  8
0
100
AcDbLine
 10
274.8385099191672
 20
161.5360660003302
 30
0.0
 11
274.8385099191672
 21
153.7608940003302
 31
0.0
  0
LINE
  5
592
330
1F
100
AcDbEntity
  8
0
100
AcDbLine
 10
278.7131339191672
 20
161.5360660003302
 30
0.0
 11
278.7131339191672
 21
153.7608940003302
 31
0.0
  0
LINE
  5
593
330
1F
100
AcDbEntity
  8
0
100
AcDbLine
 10
280.8508571191672
 20
161.5360660003302
 30
0.0
 11
280.8508571191672
 21
153.7608940003302
 31
0.0
  0
LINE
  5
594
330
1F
100
AcDbEntity
  8
0
100
AcDbLine
 10
206.8949763191673
 20
161.5360660003302
 30
0.0
 11
282.8949763191673
 21
161.5360660003302
 31
0.0
  0
LINE
  5
595
330
1F
100
AcDbEntity
  8
0
100
AcDbLine
 10
241.0049483191674
 20
161.5360660003302
 30
0.0
 11
241.0049483191674
 21
153.7608940003302
 31
0.0
  0
LINE
  5
596
330
1F
100
AcDbEntity
  8
0
100
AcDbLine
 10
233.5229163191673
 20
161.5360660003302
 30
0.0
 11
233.5229163191673
 21
153.7608940003302
 31
0.0
  0
LINE
  5
597
330
1F
100
AcDbEntity
  8
0
100
AcDbLine
 10
226.0408835191674
 20
161.5360660003302
 30
0.0
 11
226.0408835191674
 21
153.7608940003302
 31
0.0
  0
LINE
  5
598
330
1F
100
AcDbEntity
  8
0
100
AcDbLine
 10
219.7613211191673
 20
161.5360660003302
 30
0.0
 11
219.7613211191673
 21
153.7608940003302
 31
0.0
  0
LINE
  5
599
330
1F
100
AcDbEntity
  8
0
100
AcDbLine
 10
214.9514435191673
 20
161.5360660003302
 30
0.0
 11
214.9514435191673
 21
153.7608940003302
 31
0.0
  0
LINE
  5
59A
330
1F
100
AcDbEntity
  8
0
100
AcDbLine
 10
211.0768195191674
 20
161.5360660003302
 30
0.0
 11
211.0768195191674
 21
153.7608940003302
 31
0.0
  0
LINE
  5
59B
330
1F
100
AcDbEntity
  8
0
100
AcDbLine
 10
208.9390963191672
 20
161.5360660003302
 30
0.0
 11
208.9390963191672
 21
153.7608940003302
 31
0.0
  0
LINE
  5
59C
330
1F
100
AcDbEntity
  8
0
100
AcDbLine
 10
256.3911011191673
 20
143.6598852003302
 30
0.0
 11
256.3911011191673
 21
135.8348804003302
 31
0.0
  0
LINE
  5
59D
330
1F
100
AcDbEntity
  8
0
100
AcDbLine
 10
255.3222395191673
 20
144.2659412003302
 30
0.0
 11
255.3222395191673
 21
135.3279980003302
 31
0.0
  0
LINE
  5
59E
330
1F
100
AcDbEntity
  8
0
100
AcDbLine
 10
254.2533779191673
 20
144.8719964003301
 30
0.0
 11
254.2533779191673
 21
134.8211148003302
 31
0.0
  0
LINE
  5
59F
330
1F
100
AcDbEntity
  8
0
100
AcDbLine
 10
252.1156539191673
 20
146.0841076003302
 30
0.0
 11
252.1156539191673
 21
133.8073492003302
 31
0.0
  0
LINE
  5
5A0
330
1F
100
AcDbEntity
  8
0
100
AcDbLine
 10
253.1845163191673
 20
145.4780524003302
 30
0.0
 11
253.1845163191673
 21
134.3142316003302
 31
0.0
  0
LINE
  5
5A1
330
1F
100
AcDbEntity
  8
0
100
AcDbLine
 10
247.8402075191673
 20
148.5083300003301
 30
0.0
 11
247.8402075191673
 21
131.7798172003302
 31
0.0
  0
LINE
  5
5A2
330
1F
100
AcDbEntity
  8
0
100
AcDbLine
 10
248.9090691191673
 20
147.9022748003302
 30
0.0
 11
248.9090691191673
 21
132.2867004003302
 31
0.0
  0
LINE
  5
5A3
330
1F
100
AcDbEntity
  8
0
100
AcDbLine
 10
249.9779307191673
 20
147.2962188003302
 30
0.0
 11
249.9779307191673
 21
132.7935836003302
 31
0.0
  0
LINE
  5
5A4
330
1F
100
AcDbEntity
  8
0
100
AcDbLine
 10
251.0467923191674
 20
146.6901636003302
 30
0.0
 11
251.0467923191674
 21
133.3004660003302
 31
0.0
  0
LINE
  5
5A5
330
1F
100
AcDbEntity
  8
0
100
AcDbLine
 10
266.5166579191672
 20
143.6598852003302
 30
0.0
 11
266.5166579191672
 21
135.8348804003302
 31
0.0
  0
LINE
  5
5A6
330
1F
100
AcDbEntity
  8
0
100
AcDbLine
 10
267.5855195191673
 20
144.2659412003302
 30
0.0
 11
267.5855195191673
 21
135.3279980003302
 31
0.0
  0
LINE
  5
5A7
330
1F
100
AcDbEntity
  8
0
100
AcDbLine
 10
268.6543811191673
 20
144.8719964003301
 30
0.0
 11
268.6543811191673
 21
134.8211148003302
 31
0.0
  0
LINE
  5
5A8
330
1F
100
AcDbEntity
  8
0
100
AcDbLine
 10
270.7921043191673
 20
146.0841076003302
 30
0.0
 11
270.7921043191673
 21
133.8073492003302
 31
0.0
  0
LINE
  5
5A9
330
1F
100
AcDbEntity
  8
0
100
AcDbLine
 10
269.7232427191673
 20
145.4780524003302
 30
0.0
 11
269.7232427191673
 21
134.3142316003302
 31
0.0
  0
LINE
  5
5AA
330
1F
100
AcDbEntity
  8
0
100
AcDbLine
 10
275.0675515191673
 20
148.5083300003301
 30
0.0
 11
275.0675515191673
 21
131.7798172003302
 31
0.0
  0
LINE
  5
5AB
330
1F
100
AcDbEntity
  8
0
100
AcDbLine
 10
273.9986899191673
 20
147.9022748003302
 30
0.0
 11
273.9986899191673
 21
132.2867004003302
 31
0.0
  0
LINE
  5
5AC
330
1F
100
AcDbEntity
  8
0
100
AcDbLine
 10
272.9298283191673
 20
147.2962188003302
 30
0.0
 11
272.9298283191673
 21
132.7935836003302
 31
0.0
  0
LINE
  5
5AD
330
1F
100
AcDbEntity
  8
0
100
AcDbLine
 10
271.8609659191673
 20
146.6901636003302
 30
0.0
 11
271.8609659191673
 21
133.3004660003302
 31
0.0
  0
LINE
  5
5AE
330
1F
100
AcDbEntity
  8
0
100
AcDbLine
 10
233.3988515191673
 20
143.6598852003302
 30
0.0
 11
233.3988515191673
 21
135.8348804003302
 31
0.0
  0
LINE
  5
5AF
330
1F
100
AcDbEntity
  8
0
100
AcDbLine
 10
234.4677139191673
 20
144.2659412003302
 30
0.0
 11
234.4677139191673
 21
135.3279980003302
 31
0.0
  0
LINE
  5
5B0
330
1F
100
AcDbEntity
  8
0
100
AcDbLine
 10
235.5365755191673
 20
144.8719964003301
 30
0.0
 11
235.5365755191673
 21
134.8211148003302
 31
0.0
  0
LINE
  5
5B1
330
1F
100
AcDbEntity
  8
0
100
AcDbLine
 10
237.6742987191673
 20
146.0841076003302
 30
0.0
 11
237.6742987191673
 21
133.8073492003302
 31
0.0
  0
LINE
  5
5B2
330
1F
100
AcDbEntity
  8
0
100
AcDbLine
 10
236.6054371191673
 20
145.4780524003302
 30
0.0
 11
236.6054371191673
 21
134.3142316003302
 31
0.0
  0
LINE
  5
5B3
330
1F
100
AcDbEntity
  8
0
100
AcDbLine
 10
241.9497459191672
 20
148.5083300003301
 30
0.0
 11
241.9497459191672
 21
131.7798172003302
 31
0.0
  0
LINE
  5
5B4
330
1F
100
AcDbEntity
  8
0
100
AcDbLine
 10
240.8808843191672
 20
147.9022748003302
 30
0.0
 11
240.8808843191672
 21
132.2867004003302
 31
0.0
  0
LINE
  5
5B5
330
1F
100
AcDbEntity
  8
0
100
AcDbLine
 10
239.8120219191673
 20
147.2962188003302
 30
0.0
 11
239.8120219191673
 21
132.7935836003302
 31
0.0
  0
LINE
  5
5B6
330
1F
100
AcDbEntity
  8
0
100
AcDbLine
 10
238.7431603191673
 20
146.6901636003302
 30
0.0
 11
238.7431603191673
 21
133.3004660003302
 31
0.0
  0
LINE
  5
5B7
330
1F
100
AcDbEntity
  8
0
100
AcDbLine
 10
223.2732955191673
 20
143.6598852003302
 30
0.0
 11
223.2732955191673
 21
135.8348804003302
 31
0.0
  0
LINE
  5
5B8
330
1F
100
AcDbEntity
  8
0
100
AcDbLine
 10
222.2044339191672
 20
144.2659412003302
 30
0.0
 11
222.2044339191672
 21
135.3279980003302
 31
0.0
  0
LINE
  5
5B9
330
1F
100
AcDbEntity
  8
0
100
AcDbLine
 10
221.1355723191672
 20
144.8719964003301
 30
0.0
 11
221.1355723191672
 21
134.8211148003302
 31
0.0
  0
LINE
  5
5BA
330
1F
100
AcDbEntity
  8
0
100
AcDbLine
 10
218.9978483191673
 20
146.0841076003302
 30
0.0
 11
218.9978483191673
 21
133.8073492003302
 31
0.0
  0
LINE
  5
5BB
330
1F
100
AcDbEntity
  8
0
100
AcDbLine
 10
220.0667099191673
 20
145.4780524003302
 30
0.0
 11
220.0667099191673
 21
134.3142316003302
 31
0.0
  0
LINE
  5
5BC
330
1F
100
AcDbEntity
  8
0
100
AcDbLine
 10
214.7224011191674
 20
148.5083300003301
 30
0.0
 11
214.7224011191674
 21
131.7798172003302
 31
0.0
  0
LINE
  5
5BD
330
1F
100
AcDbEntity
  8
0
100
AcDbLine
 10
215.7912635191673
 20
147.9022748003302
 30
0.0
 11
215.7912635191673
 21
132.2867004003302
 31
0.0
  0
LINE
  5
5BE
330
1F
100
AcDbEntity
  8
0
100
AcDbLine
 10
216.8601251191673
 20
147.2962188003302
 30
0.0
 11
216.8601251191673
 21
132.7935836003302
 31
0.0
  0
LINE
  5
5BF
330
1F
100
AcDbEntity
  8
0
100
AcDbLine
 10
217.9289867191673
 20
146.6901636003302
 30
0.0
 11
217.9289867191673
 21
133.3004660003302
 31
0.0
  0
CIRCLE
  5
5C0
330
1F
100
AcDbEntity
  8
0
 62
     3
100
AcDbCircle
 10
245.1628155191674
 20
222.7809292003303
 30
0.0
 40
38.0
  0
CIRCLE
  5
5C1
330
1F
100
AcDbEntity
  8
0
 62
     3
100
AcDbCircle
 10
245.1628155191674
 20
222.7809292003303
 30
0.0
 40
31.2
  0
LINE
  5
5C2
330
1F
100
AcDbEntity
  8
0
100
AcDbLine
 10
267.0324595191672
 20
223.5043932003303
 30
0.0
 11
245.1628155191674
 21
223.5043932003303
 31
0.0
  0
LINE
  5
5C3
330
1F
100
AcDbEntity
  8
0
100
AcDbLine
 10
267.0324595191672
 20
222.0574652003302
 30
0.0
 11
245.1628155191674
 21
222.0574652003302
 31
0.0
  0
LINE
  5
5C4
330
1F
100
AcDbEntity
  8
0
100
AcDbLine
 10
267.0324595191672
 20
223.5043932003303
 30
0.0
 11
269.3545155191672
 21
223.0538452003302
 31
0.0
  0
LINE
  5
5C5
330
1F
100
AcDbEntity
  8
0
100
AcDbLine
 10
267.0324595191672
 20
222.0574652003302
 30
0.0
 11
269.3545155191672
 21
222.5080132003302
 31
0.0
  0
LINE
  5
5C6
330
1F
100
AcDbEntity
  8
0
100
AcDbLine
 10
269.2314059191673
 20
222.7809292003303
 30
0.0
 11
272.9629083191672
 21
222.7809292003303
 31
0.0
  0
LINE
  5
5C7
330
1F
100
AcDbEntity
  8
0
100
AcDbLine
 10
223.2931715191673
 20
223.5043932003303
 30
0.0
 11
245.1628155191674
 21
223.5043932003303
 31
0.0
  0
LINE
  5
5C8
330
1F
100
AcDbEntity
  8
0
100
AcDbLine
 10
223.2931715191673
 20
222.0574652003302
 30
0.0
 11
245.1628155191674
 21
222.0574652003302
 31
0.0
  0
LINE
  5
5C9
330
1F
100
AcDbEntity
  8
0
100
AcDbLine
 10
223.2931715191673
 20
223.5043932003303
 30
0.0
 11
220.9711155191673
 21
223.0538452003302
 31
0.0
  0
LINE
  5
5CA
330
1F
100
AcDbEntity
  8
0
100
AcDbLine
 10
223.2931715191673
 20
222.0574652003302
 30
0.0
 11
220.9711155191673
 21
222.5080132003302
 31
0.0
  0
LINE
  5
5CB
330
1F
100
AcDbEntity
  8
0
100
AcDbLine
 10
221.0942251191673
 20
222.7809292003303
 30
0.0
 11
217.3627227191672
 21
222.7809292003303
 31
0.0
  0
LINE
  5
5CC
330
1F
100
AcDbEntity
  8
0
100
AcDbLine
 10
246.3628155191673
 20
243.6374852003302
 30
0.0
 11
246.3628155191673
 21
223.5043932003303
 31
0.0
  0
LINE
  5
5CD
330
1F
100
AcDbEntity
  8
0
100
AcDbLine
 10
248.7628155191673
 20
243.6374852003302
 30
0.0
 11
248.7628155191673
 21
223.5043932003303
 31
0.0
  0
LINE
  5
5CE
330
1F
100
AcDbEntity
  8
0
100
AcDbLine
 10
251.1628155191674
 20
243.6374852003302
 30
0.0
 11
251.1628155191674
 21
223.5043932003303
 31
0.0
  0
LINE
  5
5CF
330
1F
100
AcDbEntity
  8
0
100
AcDbLine
 10
253.5628155191672
 20
243.6374852003302
 30
0.0
 11
253.5628155191672
 21
223.5043932003303
 31
0.0
  0
LINE
  5
5D0
330
1F
100
AcDbEntity
  8
0
100
AcDbLine
 10
255.9628155191673
 20
243.6374852003302
 30
0.0
 11
255.9628155191673
 21
223.5043932003303
 31
0.0
  0
LINE
  5
5D1
330
1F
100
AcDbEntity
  8
0
100
AcDbLine
 10
258.3628155191673
 20
243.6374852003302
 30
0.0
 11
258.3628155191673
 21
223.5043932003303
 31
0.0
  0
LINE
  5
5D2
330
1F
100
AcDbEntity
  8
0
100
AcDbLine
 10
260.7628155191672
 20
243.6374852003302
 30
0.0
 11
260.7628155191672
 21
223.5043932003303
 31
0.0
  0
LINE
  5
5D3
330
1F
100
AcDbEntity
  8
0
100
AcDbLine
 10
263.1628155191673
 20
243.6374852003302
 30
0.0
 11
263.1628155191673
 21
223.5043932003303
 31
0.0
  0
LINE
  5
5D4
330
1F
100
AcDbEntity
  8
0
100
AcDbLine
 10
265.5628155191672
 20
243.6374852003302
 30
0.0
 11
265.5628155191672
 21
223.5043932003303
 31
0.0
  0
LINE
  5
5D5
330
1F
100
AcDbEntity
  8
0
100
AcDbLine
 10
246.3628155191673
 20
201.9243732003303
 30
0.0
 11
246.3628155191673
 21
222.0574652003302
 31
0.0
  0
LINE
  5
5D6
330
1F
100
AcDbEntity
  8
0
100
AcDbLine
 10
248.7628155191673
 20
201.9243732003303
 30
0.0
 11
248.7628155191673
 21
222.0574652003302
 31
0.0
  0
LINE
  5
5D7
330
1F
100
AcDbEntity
  8
0
100
AcDbLine
 10
251.1628155191674
 20
201.9243732003303
 30
0.0
 11
251.1628155191674
 21
222.0574652003302
 31
0.0
  0
LINE
  5
5D8
330
1F
100
AcDbEntity
  8
0
100
AcDbLine
 10
253.5628155191672
 20
201.9243732003303
 30
0.0
 11
253.5628155191672
 21
222.0574652003302
 31
0.0
  0
LINE
  5
5D9
330
1F
100
AcDbEntity
  8
0
100
AcDbLine
 10
255.9628155191673
 20
201.9243732003303
 30
0.0
 11
255.9628155191673
 21
222.0574652003302
 31
0.0
  0
LINE
  5
5DA
330
1F
100
AcDbEntity
  8
0
100
AcDbLine
 10
258.3628155191673
 20
201.9243732003303
 30
0.0
 11
258.3628155191673
 21
222.0574652003302
 31
0.0
  0
LINE
  5
5DB
330
1F
100
AcDbEntity
  8
0
100
AcDbLine
 10
260.7628155191672
 20
201.9243732003303
 30
0.0
 11
260.7628155191672
 21
222.0574652003302
 31
0.0
  0
LINE
  5
5DC
330
1F
100
AcDbEntity
  8
0
100
AcDbLine
 10
263.1628155191673
 20
201.9243732003303
 30
0.0
 11
263.1628155191673
 21
222.0574652003302
 31
0.0
  0
LINE
  5
5DD
330
1F
100
AcDbEntity
  8
0
100
AcDbLine
 10
265.5628155191672
 20
201.9243732003303
 30
0.0
 11
265.5628155191672
 21
222.0574652003302
 31
0.0
  0
LINE
  5
5DE
330
1F
100
AcDbEntity
  8
0
100
AcDbLine
 10
243.9628155191673
 20
201.9243732003303
 30
0.0
 11
243.9628155191673
 21
222.0574652003302
 31
0.0
  0
LINE
  5
5DF
330
1F
100
AcDbEntity
  8
0
100
AcDbLine
 10
241.5628155191672
 20
201.9243732003303
 30
0.0
 11
241.5628155191672
 21
222.0574652003302
 31
0.0
  0
LINE
  5
5E0
330
1F
100
AcDbEntity
  8
0
100
AcDbLine
 10
239.1628155191674
 20
201.9243732003303
 30
0.0
 11
239.1628155191674
 21
222.0574652003302
 31
0.0
  0
LINE
  5
5E1
330
1F
100
AcDbEntity
  8
0
100
AcDbLine
 10
236.7628155191674
 20
201.9243732003303
 30
0.0
 11
236.7628155191674
 21
222.0574652003302
 31
0.0
  0
LINE
  5
5E2
330
1F
100
AcDbEntity
  8
0
100
AcDbLine
 10
234.3628155191673
 20
201.9243732003303
 30
0.0
 11
234.3628155191673
 21
222.0574652003302
 31
0.0
  0
LINE
  5
5E3
330
1F
100
AcDbEntity
  8
0
100
AcDbLine
 10
231.9628155191673
 20
201.9243732003303
 30
0.0
 11
231.9628155191673
 21
222.0574652003302
 31
0.0
  0
LINE
  5
5E4
330
1F
100
AcDbEntity
  8
0
100
AcDbLine
 10
229.5628155191672
 20
201.9243732003303
 30
0.0
 11
229.5628155191672
 21
222.0574652003302
 31
0.0
  0
LINE
  5
5E5
330
1F
100
AcDbEntity
  8
0
100
AcDbLine
 10
227.1628155191674
 20
201.9243732003303
 30
0.0
 11
227.1628155191674
 21
222.0574652003302
 31
0.0
  0
LINE
  5
5E6
330
1F
100
AcDbEntity
  8
0
100
AcDbLine
 10
224.7628155191673
 20
201.9243732003303
 30
0.0
 11
224.7628155191673
 21
222.0574652003302
 31
0.0
  0
LINE
  5
5E7
330
1F
100
AcDbEntity
  8
0
100
AcDbLine
 10
243.9628155191673
 20
243.6374852003302
 30
0.0
 11
243.9628155191673
 21
223.5043932003303
 31
0.0
  0
LINE
  5
5E8
330
1F
100
AcDbEntity
  8
0
100
AcDbLine
 10
241.5628155191672
 20
243.6374852003302
 30
0.0
 11
241.5628155191672
 21
223.5043932003303
 31
0.0
  0
LINE
  5
5E9
330
1F
100
AcDbEntity
  8
0
100
AcDbLine
 10
239.1628155191674
 20
243.6374852003302
 30
0.0
 11
239.1628155191674
 21
223.5043932003303
 31
0.0
  0
LINE
  5
5EA
330
1F
100
AcDbEntity
  8
0
100
AcDbLine
 10
236.7628155191674
 20
243.6374852003302
 30
0.0
 11
236.7628155191674
 21
223.5043932003303
 31
0.0
  0
LINE
  5
5EB
330
1F
100
AcDbEntity
  8
0
100
AcDbLine
 10
234.3628155191673
 20
241.6399076003302
 30
0.0
 11
234.3628155191673
 21
223.5043932003303
 31
0.0
  0
LINE
  5
5EC
330
1F
100
AcDbEntity
  8
0
100
AcDbLine
 10
231.9628155191673
 20
239.6423308003303
 30
0.0
 11
231.9628155191673
 21
223.5043932003303
 31
0.0
  0
LINE
  5
5ED
330
1F
100
AcDbEntity
  8
0
100
AcDbLine
 10
229.5628155191672
 20
237.6447532003302
 30
0.0
 11
229.5628155191672
 21
223.5043932003303
 31
0.0
  0
LINE
  5
5EE
330
1F
100
AcDbEntity
  8
0
100
AcDbLine
 10
227.1628155191674
 20
235.6471764003302
 30
0.0
 11
227.1628155191674
 21
223.5043932003303
 31
0.0
  0
LINE
  5
5EF
330
1F
100
AcDbEntity
  8
0
100
AcDbLine
 10
224.7628155191673
 20
233.6495988003302
 30
0.0
 11
224.7628155191673
 21
223.5043932003303
 31
0.0
  0
LINE
  5
5F0
330
1F
100
AcDbEntity
  8
0
 62
     3
100
AcDbLine
 10
151.557894760976
 20
182.2237713290487
 30
0.0
 11
148.5558657609758
 21
182.3065573290487
 31
0.0
  0
LINE
  5
5F1
330
1F
100
AcDbEntity
  8
0
 62
     3
100
AcDbLine
 10
151.5652007609761
 20
186.6057323290488
 30
0.0
 11
148.552004760976
 21
186.6779203290487
 31
0.0
  0
ARC
  5
5F2
330
1F
100
AcDbEntity
  8
0
 62
     3
100
AcDbCircle
 10
120.1378807609759
 20
184.4671403290487
 30
0.0
 40
31.5
100
AcDbArc
 50
3.892908999999267
 51
355.916049
  0
CIRCLE
  5
5F3
330
1F
100
AcDbEntity
  8
0
 62
     3
100
AcDbCircle
 10
120.1378807609759
 20
184.4671403290487
 30
0.0
 40
15.0
  0
CIRCLE
  5
5F4
330
1F
100
AcDbEntity
  8
0
 62
     3
100
AcDbCircle
 10
120.1378807609759
 20
184.4671403290487
 30
0.0
 40
16.2
  0
CIRCLE
  5
5F5
330
1F
100
AcDbEntity
  8
0
 62
     3
100
AcDbCircle
 10
120.1378807609759
 20
184.4671403290487
 30
0.0
 40
23.413358
  0
CIRCLE
  5
5F6
330
1F
100
AcDbEntity
  8
0
100
AcDbCircle
 10
120.1378807609759
 20
184.4671403290487
 30
0.0
 40
22.8
  0
LINE
  5
5F7
330
1F
100
AcDbEntity
  8
0
 62
     3
100
AcDbLine
 10
150.2180277609761
 20
188.1105933290488
 30
0.0
 11
143.265906760976
 21
188.1112823290488
 31
0.0
  0
LINE
  5
5F8
330
1F
100
AcDbEntity
  8
0
 62
     3
100
AcDbLine
 10
97.010577760976
 20
188.1158643290488
 30
0.0
 11
90.05845576097604
 21
188.1165523290487
 31
0.0
  0
LINE
  5
5F9
330
1F
100
AcDbEntity
  8
0
 62
     3
100
AcDbLine
 10
150.2180737609759
 20
180.8240693290487
 30
0.0
 11
143.2659527609759
 21
180.8232923290487
 31
0.0
  0
LINE
  5
5FA
330
1F
100
AcDbEntity
  8
0
 62
     3
100
AcDbLine
 10
97.01062376097604
 20
180.8181233290488
 30
0.0
 11
90.05850276097605
 21
180.8173463290487
 31
0.0
  0
ARC
  5
5FB
330
1F
100
AcDbEntity
  8
0
 62
     3
100
AcDbCircle
 10
120.1378807609759
 20
184.4671403290487
 30
0.0
 40
30.3
100
AcDbArc
 50
186.9183780000002
 51
353.0944290000026
  0
ARC
  5
5FC
330
1F
100
AcDbEntity
  8
0
 62
     3
100
AcDbCircle
 10
120.1378807609759
 20
184.4671403290487
 30
0.0
 40
30.3
100
AcDbArc
 50
6.906299000000187
 51
173.0823499999993
  0
ARC
  5
5FD
330
1F
100
AcDbEntity
  8
0
 62
     3
100
AcDbCircle
 10
148.301379760976
 20
184.4920153290487
 30
0.0
 40
2.200225
100
AcDbArc
 50
83.45931899999945
 51
276.6418939999983
  0
CIRCLE
  5
5FE
330
1F
100
AcDbEntity
  8
0
 62
     3
100
AcDbCircle
 10
91.63788076097594
 20
184.4669593290488
 30
0.0
 40
1.867745999999995
  0
LINE
  5
5FF
330
1F
100
AcDbEntity
  8
0
  6
CENTER
100
AcDbLine
 10
94.45736476097591
 20
184.4669773290488
 30
0.0
 11
87.80795476097607
 21
184.4669353290487
 31
0.0
  0
LINE
  5
600
330
1F
100
AcDbEntity
  8
0
  6
CENTER
100
AcDbLine
 10
144.769168760976
 20
184.4672963290485
 30
0.0
 11
152.7667737609759
 21
184.4673473290488
 31
0.0
  0
LINE
  5
601
330
1F
100
AcDbEntity
  8
0
100
AcDbLine
 10
143.161537760976
 20
188.7211473290487
 30
0.0
 11
150.138203760976
 21
188.7180933290487
 31
0.0
  0
LINE
  5
602
330
1F
100
AcDbEntity
  8
0
100
AcDbLine
 10
143.1615917609759
 20
180.2134263290487
 30
0.0
 11
150.138257760976
 21
180.2165683290487
 31
0.0
  0
LINE
  5
603
330
1F
100
AcDbEntity
  8
0
100
AcDbLine
 10
90.14129076097592
 20
188.7443563290488
 30
0.0
 11
97.11795676097594
 21
188.7413023290487
 31
0.0
  0
LINE
  5
604
330
1F
100
AcDbEntity
  8
0
100
AcDbLine
 10
90.14134476097607
 20
180.1895433290487
 30
0.0
 11
97.11801176097605
 21
180.1926863290487
 31
0.0
  0
CIRCLE
  5
605
330
1F
100
AcDbEntity
  8
0
 62
     3
100
AcDbCircle
 10
120.1378807609759
 20
184.4671403290487
 30
0.0
 40
1.363469
  0
CIRCLE
  5
606
330
1F
100
AcDbEntity
  8
0
 62
     3
100
AcDbCircle
 10
137.4414417609759
 20
194.4573633290487
 30
0.0
 40
1.519262
  0
CIRCLE
  5
607
330
1F
100
AcDbEntity
  8
0
 62
     3
100
AcDbCircle
 10
102.834294760976
 20
194.4573633290487
 30
0.0
 40
1.519262
  0
CIRCLE
  5
608
330
1F
100
AcDbEntity
  8
0
 62
     3
100
AcDbCircle
 10
120.1378677609761
 20
164.4866953290487
 30
0.0
 40
1.519262
  0
LINE
  5
609
330
1F
100
AcDbEntity
  8
0
 62
     3
100
AcDbLine
 10
141.2879937609758
 20
174.4243283290487
 30
0.0
 11
147.5089397609759
 21
171.4704053290487
 31
0.0
  0
LINE
  5
60A
330
1F
100
AcDbEntity
  8
0
 62
     3
100
AcDbLine
 10
120.1378677609761
 20
207.8804993290488
 30
0.0
 11
120.1378677609761
 21
214.7671403290488
 31
0.0
  0
LINE
  5
60B
330
1F
100
AcDbEntity
  8
0
 62
     3
100
AcDbLine
 10
100.8654937609759
 20
171.1720113290487
 30
0.0
 11
95.19684876097594
 21
167.2614753290487
 31
0.0
  0
LINE
  5
60C
330
1F
100
AcDbEntity
  8
0
 62
     3
100
AcDbLine
 10
134.1674797609759
 20
192.5671403290487
 30
0.0
 11
136.125722760976
 21
193.6977333290487
 31
0.0
  0
LINE
  5
60D
330
1F
100
AcDbEntity
  8
0
 62
     3
100
AcDbLine
 10
138.757160760976
 20
195.2169943290487
 30
0.0
 11
146.378437760976
 21
199.6171403290487
 31
0.0
  0
LINE
  5
60E
330
1F
100
AcDbEntity
  8
0
 62
     3
100
AcDbLine
 10
120.1378677609761
 20
168.2671403290487
 30
0.0
 11
120.1378677609761
 21
166.0059563290487
 31
0.0
  0
LINE
  5
60F
330
1F
100
AcDbEntity
  8
0
 62
     3
100
AcDbLine
 10
120.1378677609761
 20
162.9674333290487
 30
0.0
 11
120.1378677609761
 21
154.1671403290488
 31
0.0
  0
LINE
  5
610
330
1F
100
AcDbEntity
  8
0
 62
     3
100
AcDbLine
 10
106.108256760976
 20
192.5671403290487
 30
0.0
 11
104.150013760976
 21
193.6977333290487
 31
0.0
  0
LINE
  5
611
330
1F
100
AcDbEntity
  8
0
 62
     3
100
AcDbLine
 10
101.5185757609759
 20
195.2169943290487
 30
0.0
 11
93.89729876097604
 21
199.6171403290487
 31
0.0
  0
TEXT
  5
612
330
1F
100
AcDbEntity
  8
0
 62
     3
100
AcDbText
 10
106.954273760976
 20
130.9341213290487
 30
0.0
 40
4.5
  1
下　面　図
 41
0.833333
100
AcDbText
  0
LINE
  5
613
330
1F
100
AcDbEntity
  8
0
 62
     7
100
AcDbLine
 10
106.954273760976
 20
129.722519691363
 30
0.0
 11
131.162753760976
 21
129.722519691363
 31
0.0
  0
LINE
  5
614
330
1F
100
AcDbEntity
  8
0
  6
CENTER
100
AcDbLine
 10
148.5558657609758
 20
182.3065573290487
 30
0.0
 11
148.5558657609758
 21
187.4797643290488
 31
0.0
  0
LINE
  5
615
330
1F
100
AcDbEntity
  8
0
  6
CENTER
100
AcDbLine
 10
91.63788076097594
 20
182.5992133290487
 30
0.0
 11
91.63788076097594
 21
187.3301603290487
 31
0.0
  0
LINE
  5
616
330
1F
100
AcDbEntity
  8
0
100
AcDbLine
 10
315.6743406185126
 20
143.5101409751076
 30
0.0
 11
298.4868406185126
 21
143.5101409751076
 31
0.0
  0
TEXT
  5
617
330
1F
100
AcDbEntity
  8
0
 62
     4
100
AcDbText
 10
301.9243406185126
 20
144.7601409751076
 30
0.0
 40
3.2
  1
発光部
  7
高3.2
100
AcDbText
  0
TEXT
  5
618
330
1F
100
AcDbEntity
  8
0
 62
     4
100
AcDbText
 10
160.7555059147555
 20
199.4663952990556
 30
0.0
 40
3.2
  1
M5取付け穴～2
  7
高3.2
100
AcDbText
  0
LINE
  5
619
330
1F
100
AcDbEntity
  8
0
  6
CENTER
100
AcDbLine
 10
282.8949763191673
 20
95.16842440033022
 30
0.0
 11
282.8949763191673
 21
86.99514760033023
 31
0.0
  0
LINE
  5
61A
330
1F
100
AcDbEntity
  8
0
  6
DASHED
100
AcDbLine
 10
286.8706731191672
 20
91.93606600033019
 30
0.0
 11
279.9136795191672
 21
91.93606600033019
 31
0.0
  0
LINE
  5
61B
330
1F
100
AcDbEntity
  8
0
  6
DASHED
100
AcDbLine
 10
281.2949763191674
 20
125.5360660003302
 30
0.0
 11
279.9470371191672
 21
91.93606600033019
 31
0.0
  0
LINE
  5
61C
330
1F
100
AcDbEntity
  8
0
  6
DASHED
100
AcDbLine
 10
208.4949763191672
 20
125.5360660003302
 30
0.0
 11
209.8429155191673
 21
91.93606600033019
 31
0.0
  0
LINE
  5
61D
330
1F
100
AcDbEntity
  8
0
  6
DASHED
100
AcDbLine
 10
202.9192795191673
 20
91.93606600033019
 30
0.0
 11
209.8762731191672
 21
91.93606600033019
 31
0.0
  0
LINE
  5
61E
330
1F
100
AcDbEntity
  8
0
  6
CENTER
100
AcDbLine
 10
206.8949763191673
 20
95.16842440033022
 30
0.0
 11
206.8949763191673
 21
86.99514760033023
 31
0.0
  0
CIRCLE
  5
61F
330
1F
100
AcDbEntity
  8
0
100
AcDbCircle
 10
274.0266547191672
 20
206.4219124003302
 30
0.0
 40
1.6
  0
CIRCLE
  5
620
330
1F
100
AcDbEntity
  8
0
100
AcDbCircle
 10
245.0340875191672
 20
255.8128308003302
 30
0.0
 40
1.6
  0
CIRCLE
  5
621
330
1F
100
AcDbEntity
  8
0
100
AcDbCircle
 10
215.9489971191673
 20
206.3776620003302
 30
0.0
 40
1.6
  0
TEXT
  5
627
330
1F
100
AcDbEntity
  8
0
 62
     4
100
AcDbText
 10
305.3996728819561
 20
250.0144440557521
 30
0.0
 40
6.299999999999998
  1
1
  7
高6.3
100
AcDbText
  0
CIRCLE
  5
628
330
1F
100
AcDbEntity
  8
0
100
AcDbCircle
 10
306.4829045824496
 20
252.8870429218452
 30
0.0
 40
5.0
  0
TEXT
  5
629
330
1F
100
AcDbEntity
  8
0
 62
     4
100
AcDbText
 10
304.5833432828758
 20
171.9165863963344
 30
0.0
 40
6.299999999999998
  1
2
  7
高6.3
100
AcDbText
  0
TEXT
  5
62A
330
1F
100
AcDbEntity
  8
0
 62
     4
100
AcDbText
 10
304.3759418742277
 20
159.0138818352636
 30
0.0
 40
6.299999999999998
  1
3
  7
高6.3
100
AcDbText
  0
TEXT
  5
62B
330
1F
100
AcDbEntity
  8
0
 62
     4
100
AcDbText
 10
304.283480000438
 20
117.5870701690465
 30
0.0
 40
6.299999999999998
  1
4
  7
高6.3
100
AcDbText
  0
CIRCLE
  5
62C
330
1F
100
AcDbEntity
  8
0
100
AcDbCircle
 10
306.7868563657963
 20
174.801220740673
 30
0.0
 40
5.0
  0
CIRCLE
  5
62D
330
1F
100
AcDbEntity
  8
0
100
AcDbCircle
 10
306.4829036109696
 20
162.0401133501341
 30
0.0
 40
5.0
  0
CIRCLE
  5
62E
330
1F
100
AcDbEntity
  8
0
100
AcDbCircle
 10
306.4829036109696
 20
120.8703504848484
 30
0.0
 40
5.0
  0
TEXT
  5
635
330
1F
100
AcDbEntity
  8
0
 62
     4
100
AcDbText
 10
154.8329344768219
 20
223.1370184526037
 30
0.0
 40
6.299999999999998
  1
5
  7
高6.3
100
AcDbText
  0
CIRCLE
  5
636
330
1F
100
AcDbEntity
  8
0
100
AcDbCircle
 10
156.7400419454405
 20
226.2095412609374
 30
0.0
 40
5.0
  0
TEXT
  5
7D4
330
1F
100
AcDbEntity
  8
0
 62
     3
100
AcDbText
 10
448.7676718572473
 20
278.1724788893212
 30
0.0
 40
3.2
  1
担　当
  7
高3.2
100
AcDbText
  0
TEXT
  5
7D5
330
1F
100
AcDbEntity
  8
0
 62
     3
100
AcDbText
 10
404.7676718572473
 20
278.1724788893212
 30
0.0
 40
3.2
  1
変更・追記内容
  7
高3.2
100
AcDbText
  0
TEXT
  5
7D6
330
1F
100
AcDbEntity
  8
0
 62
     3
100
AcDbText
 10
379.8811868575867
 20
273.5019403794129
 30
0.0
 40
2.0
  1
1
  7
高2
100
AcDbText
  0
TEXT
  5
7D7
330
1F
100
AcDbEntity
  8
0
 62
     3
100
AcDbText
 10
379.5726753808294
 20
268.33212366714
 30
0.0
 40
2.0
  1
2
  7
高2
100
AcDbText
  0
TEXT
  5
7D8
330
1F
100
AcDbEntity
  8
0
 62
     3
100
AcDbText
 10
386.7676718572474
 20
278.1724788893212
 30
0.0
 40
3.2
  1
日　付
  7
高3.2
100
AcDbText
  0
TEXT
  5
7D9
330
1F
100
AcDbEntity
  8
0
 62
     3
100
AcDbText
 10
386.7676718572474
 20
283.1724788893211
 30
0.0
 40
3.2
  1
図　　　　面　　　　略　　　　歴
  7
高3.2
100
AcDbText
  0
TEXT
  5
7DA
330
1F
100
AcDbEntity
  8
0
 62
     3
100
AcDbText
 10
376.7676718572474
 20
278.1724788893212
 30
0.0
 40
3.2
  1
記号
  7
高3.2
100
AcDbText
  0
LINE
  5
7DB
330
1F
100
AcDbEntity
  8
0
100
AcDbLine
 10
380.2676718572474
 20
271.4633748893212
 30
0.0
 11
378.3676718572475
 21
268.1724788893212
 31
0.0
  0
LINE
  5
7DC
330
1F
100
AcDbEntity
  8
0
100
AcDbLine
 10
380.2676718572474
 20
271.4633748893212
 30
0.0
 11
382.1676718572474
 21
268.1724788893212
 31
0.0
  0
LINE
  5
7DD
330
1F
100
AcDbEntity
  8
0
100
AcDbLine
 10
378.3676718572475
 20
268.1724788893212
 30
0.0
 11
382.1676718572474
 21
268.1724788893212
 31
0.0
  0
LINE
  5
7DE
330
1F
100
AcDbEntity
  8
0
100
AcDbLine
 10
380.2676718572474
 20
276.4633758893213
 30
0.0
 11
378.3676718572475
 21
273.1724788893211
 31
0.0
  0
LINE
  5
7DF
330
1F
100
AcDbEntity
  8
0
100
AcDbLine
 10
380.2676718572474
 20
276.4633758893213
 30
0.0
 11
382.1676718572474
 21
273.1724788893211
 31
0.0
  0
LINE
  5
7E0
330
1F
100
AcDbEntity
  8
0
100
AcDbLine
 10
378.3676718572475
 20
273.1724788893211
 30
0.0
 11
382.1676718572474
 21
273.1724788893211
 31
0.0
  0
LINE
  5
7E1
330
1F
100
AcDbEntity
  8
0
 62
     3
100
AcDbLine
 10
375.2676718572474
 20
282.6724788893212
 30
0.0
 11
461.2676718572473
 21
282.6724788893212
 31
0.0
  0
LINE
  5
7E2
330
1F
100
AcDbEntity
  8
0
 62
     3
100
AcDbLine
 10
375.2676718572474
 20
277.6724788893211
 30
0.0
 11
461.2676718572473
 21
277.6724788893211
 31
0.0
  0
LINE
  5
7E3
330
1F
100
AcDbEntity
  8
0
 62
     7
100
AcDbLine
 10
375.2676718572474
 20
272.6724788893212
 30
0.0
 11
461.2676718572473
 21
272.6724788893212
 31
0.0
  0
LINE
  5
7E4
330
1F
100
AcDbEntity
  8
0
 62
     3
100
AcDbLine
 10
375.2676718572474
 20
267.6724788893212
 30
0.0
 11
461.2676718572473
 21
267.6724788893212
 31
0.0
  0
LINE
  5
7E5
330
1F
100
AcDbEntity
  8
0
 62
     7
100
AcDbLine
 10
447.2676718572473
 20
267.6724788893212
 30
0.0
 11
447.2676718572473
 21
282.6724788893212
 31
0.0
  0
LINE
  5
7E6
330
1F
100
AcDbEntity
  8
0
 62
     7
100
AcDbLine
 10
403.2676718572473
 20
267.6724788893212
 30
0.0
 11
403.2676718572473
 21
282.6724788893212
 31
0.0
  0
LINE
  5
7E7
330
1F
100
AcDbEntity
  8
0
 62
     7
100
AcDbLine
 10
385.2676718572474
 20
267.6724788893212
 30
0.0
 11
385.2676718572474
 21
282.6724788893212
 31
0.0
  0
LINE
  5
7E8
330
1F
100
AcDbEntity
  8
0
 62
     3
100
AcDbLine
 10
375.2676718572474
 20
267.6724788893212
 30
0.0
 11
375.2676718572474
 21
287.6724788893211
 31
0.0
  0
TEXT
  5
8E6
330
1F
100
AcDbEntity
  8
0
 62
     3
100
AcDbText
 10
424.5683088572476
 20
113.7828408893212
 30
0.0
 40
3.2
  1
マグネット
 41
0.55
  7
高3.2
100
AcDbText
  0
LINE
  5
A61
330
1F
100
AcDbEntity
  8
0
 62
     3
100
AcDbLine
 10
356.0863258235195
 20
152.5781276698919
 30
0.0
 11
446.8351253185322
 21
152.5781276698919
 31
0.0
  0
LINE
  5
A62
330
1F
100
AcDbEntity
  8
0
100
AcDbLine
 10
356.0863258235195
 20
159.5781276698919
 30
0.0
 11
446.8351253185322
 21
159.5781276698919
 31
0.0
  0
LINE
  5
A63
330
1F
100
AcDbEntity
  8
0
100
AcDbLine
 10
356.0863258235195
 20
166.5781276698919
 30
0.0
 11
446.8351253185322
 21
166.5781276698919
 31
0.0
  0
LINE
  5
A64
330
1F
100
AcDbEntity
  8
0
100
AcDbLine
 10
356.0863258235195
 20
173.5781276698919
 30
0.0
 11
446.8351253185322
 21
173.5781276698919
 31
0.0
  0
LINE
  5
A65
330
1F
100
AcDbEntity
  8
0
100
AcDbLine
 10
356.0863258235195
 20
180.5781276698919
 30
0.0
 11
446.8351253185322
 21
180.5781276698919
 31
0.0
  0
LINE
  5
A66
330
1F
100
AcDbEntity
  8
0
100
AcDbLine
 10
356.0863258235195
 20
187.5781276698919
 30
0.0
 11
446.8351253185322
 21
187.5781276698919
 31
0.0
  0
LINE
  5
A67
330
1F
100
AcDbEntity
  8
0
100
AcDbLine
 10
356.0863258235195
 20
194.5781276698919
 30
0.0
 11
446.8351253185322
 21
194.5781276698919
 31
0.0
  0
LINE
  5
A68
330
1F
100
AcDbEntity
  8
0
100
AcDbLine
 10
356.0863258235195
 20
201.5781276698919
 30
0.0
 11
446.8351253185322
 21
201.5781276698919
 31
0.0
  0
LINE
  5
A69
330
1F
100
AcDbEntity
  8
0
100
AcDbLine
 10
356.0863258235195
 20
222.5781276698919
 30
0.0
 11
446.8351253185322
 21
222.5781276698919
 31
0.0
  0
LINE
  5
A6A
330
1F
100
AcDbEntity
  8
0
100
AcDbLine
 10
356.0863258235195
 20
229.5781276698919
 30
0.0
 11
446.8351253185322
 21
229.5781276698919
 31
0.0
  0
LINE
  5
A6B
330
1F
100
AcDbEntity
  8
0
100
AcDbLine
 10
356.0863258235195
 20
236.5781276698919
 30
0.0
 11
446.8351253185322
 21
236.5781276698919
 31
0.0
  0
TEXT
  5
A6D
330
1F
100
AcDbEntity
  8
0
 62
     3
100
AcDbText
 10
358.0863258235195
 20
189.0781276698919
 30
0.0
 40
3.2
  1
充電時間
  7
高3.2
100
AcDbText
  0
TEXT
  5
A6E
330
1F
100
AcDbEntity
  8
0
 62
     3
100
AcDbText
 10
358.0863258235195
 20
168.0781276698919
 30
0.0
 40
3.2
  1
防水規格
  7
高3.2
100
AcDbText
  0
TEXT
  5
A6F
330
1F
100
AcDbEntity
  8
0
 62
     3
100
AcDbText
 10
358.0863258235195
 20
154.0781276698919
 30
0.0
 40
3.2
  1
質　　量
  7
高3.2
100
AcDbText
  0
TEXT
  5
A70
330
1F
100
AcDbEntity
  8
0
 62
     3
100
AcDbText
 10
358.0863258235195
 20
175.0781276698919
 30
0.0
 40
3.2
  1
適応温度
  7
高3.2
100
AcDbText
  0
TEXT
  5
A71
330
1F
100
AcDbEntity
  8
0
 62
     3
100
AcDbText
 10
358.0863258235195
 20
161.0781276698919
 30
0.0
 40
3.2
  1
設置方向
  7
高3.2
100
AcDbText
  0
TEXT
  5
A72
330
1F
100
AcDbEntity
  8
0
 62
     3
100
AcDbText
 10
358.0863258235195
 20
203.0781276698919
 30
0.0
 40
3.2
  1
点灯・消灯
  7
高3.2
100
AcDbText
  0
TEXT
  5
A73
330
1F
100
AcDbEntity
  8
0
 62
     3
100
AcDbText
 10
385.0582681402999
 20
203.0781276698919
 30
0.0
 40
3.2
  1
日没時自動点灯・日照時自動消灯
  7
高3.2
100
AcDbText
  0
LINE
  5
A74
330
1F
100
AcDbEntity
  8
0
 62
     3
100
AcDbLine
 10
446.8351253185324
 20
243.578127669892
 30
0.0
 11
446.8351253185322
 21
152.5781276698919
 31
0.0
  0
LINE
  5
A75
330
1F
100
AcDbEntity
  8
0
 62
     3
100
AcDbLine
 10
356.0863258235195
 20
243.578127669892
 30
0.0
 11
356.0863258235195
 21
152.5781276698919
 31
0.0
  0
LINE
  5
A76
330
1F
100
AcDbEntity
  8
0
100
AcDbLine
 10
383.0582681402999
 20
243.578127669892
 30
0.0
 11
383.0582681402999
 21
152.5781276698919
 31
0.0
  0
TEXT
  5
A77
330
1F
100
AcDbEntity
  8
0
 62
     3
100
AcDbText
 10
358.0863258235195
 20
196.0781276698919
 30
0.0
 40
3.2
  1
点灯サイクル
  7
高3.2
100
AcDbText
  0
TEXT
  5
A78
330
1F
100
AcDbEntity
  8
0
 62
     3
100
AcDbText
 10
385.0582681402999
 20
238.0781276698919
 30
0.0
 40
3.2
  1
太陽電池式
  7
高3.2
100
AcDbText
  0
TEXT
  5
A79
330
1F
100
AcDbEntity
  8
0
 62
     3
100
AcDbText
 10
358.0863258235195
 20
231.0781276698919
 30
0.0
 40
3.2
  1
蓄　電　池
  7
高3.2
100
AcDbText
  0
TEXT
  5
A7A
330
1F
100
AcDbEntity
  8
0
 62
     3
100
AcDbText
 10
385.0582681402999
 20
189.0781276698919
 30
0.0
 40
3.2
  1
約5～7時間（晴天時）
  7
高3.2
100
AcDbText
  0
TEXT
  5
A7B
330
1F
100
AcDbEntity
  8
0
 62
     3
100
AcDbText
 10
358.0863258235195
 20
182.0781276698919
 30
0.0
 40
3.2
  1
作動時間
  7
高3.2
100
AcDbText
  0
TEXT
  5
A7C
330
1F
100
AcDbEntity
  8
0
 62
     3
100
AcDbText
 10
385.0582681402999
 20
168.0781276698919
 30
0.0
 40
3.2
  1
IP55
  7
高3.2
100
AcDbText
  0
TEXT
  5
A7D
330
1F
100
AcDbEntity
  8
0
 62
     3
100
AcDbText
 10
385.0582681402999
 20
154.0781276698919
 30
0.0
 40
3.2
  1
N:327g　M:387g
  7
高3.2
100
AcDbText
  0
TEXT
  5
A7E
330
1F
100
AcDbEntity
  8
0
 62
     3
100
AcDbText
 10
385.0582681402999
 20
182.0781276698919
 30
0.0
 40
3.2
  1
10～13時間（回転・点滅）
  7
高3.2
100
AcDbText
  0
TEXT
  5
A7F
330
1F
100
AcDbEntity
  8
0
 62
     3
100
AcDbText
 10
385.0582681402999
 20
175.0781276698919
 30
0.0
 40
3.2
  1
－10～50℃
  7
高3.2
100
AcDbText
  0
TEXT
  5
A80
330
1F
100
AcDbEntity
  8
0
 62
     3
100
AcDbText
 10
385.0582681402999
 20
196.0781276698919
 30
0.0
 40
3.2
  1
回転／点滅（切替え式）
  7
高3.2
100
AcDbText
  0
TEXT
  5
A81
330
1F
100
AcDbEntity
  8
0
 62
     3
100
AcDbText
 10
380.7089260687193
 20
246.9292812097812
 30
0.0
 40
4.5
  1
主　　仕　　様
  7
高4.5
100
AcDbText
  0
TEXT
  5
A82
330
1F
100
AcDbEntity
  8
0
 62
     3
100
AcDbText
 10
385.0582681402999
 20
161.0781276698919
 30
0.0
 40
3.2
  1
上向き／横向き
  7
高3.2
100
AcDbText
  0
TEXT
  5
A83
330
1F
100
AcDbEntity
  8
0
 62
     3
100
AcDbText
 10
358.0863258235195
 20
238.0781276698919
 30
0.0
 40
3.2
  1
電　　源
  7
高3.2
100
AcDbText
  0
TEXT
  5
A84
330
1F
100
AcDbEntity
  8
0
 62
     3
100
AcDbText
 10
385.0582681402999
 20
231.0781276698919
 30
0.0
 40
3.2
  1
ニッケル電池式2.4V(1.2Vx2)
  7
高3.2
100
AcDbText
  0
LINE
  5
A85
330
1F
100
AcDbEntity
  8
0
  6
Continuous
100
AcDbLine
 10
379.7211632255946
 20
246.0721872881238
 30
0.0
 11
417.8264775110318
 21
246.0721872881238
 31
0.0
  0
TEXT
  5
A86
330
1F
100
AcDbEntity
  8
0
 62
     3
100
AcDbText
 10
358.0863258235195
 20
224.0781276698919
 30
0.0
 40
3.2
  1
電池　寿命
  7
高3.2
100
AcDbText
  0
TEXT
  5
A87
330
1F
100
AcDbEntity
  8
0
 62
     3
100
AcDbText
 10
385.0582681402998
 20
224.0781276698919
 30
0.0
 40
3.2
  1
約3年　(約1000回充放電)
  7
高3.2
100
AcDbText
  0
LINE
  5
A88
330
1F
100
AcDbEntity
  8
0
 62
     3
100
AcDbLine
 10
356.0863258235195
 20
243.5781276698919
 30
0.0
 11
446.8351253185322
 21
243.5781276698919
 31
0.0
  0
LINE
  5
A8B
330
1F
100
AcDbEntity
  8
0
100
AcDbLine
 10
356.0863258235195
 20
215.5781276698919
 30
0.0
 11
446.8351253185322
 21
215.5781276698919
 31
0.0
  0
TEXT
  5
A8C
330
1F
100
AcDbEntity
  8
0
 62
     3
100
AcDbText
 10
358.0863258235195
 20
217.0781276698919
 30
0.0
 40
3.2
  1
グローブ色
  7
高3.2
100
AcDbText
  0
TEXT
  5
A8D
330
1F
100
AcDbEntity
  8
0
 62
     3
100
AcDbText
 10
385.0582681402998
 20
217.0781276698919
 30
0.0
 40
3.2
  1
赤／黄／緑／青／白
  7
高3.2
100
AcDbText
  0
LINE
  5
A8E
330
1F
100
AcDbEntity
  8
0
100
AcDbLine
 10
356.0863258235195
 20
208.5781276698919
 30
0.0
 11
446.8351253185322
 21
208.5781276698919
 31
0.0
  0
TEXT
  5
A8F
330
1F
100
AcDbEntity
  8
0
 62
     3
100
AcDbText
 10
358.0863258235195
 20
210.0781276698919
 30
0.0
 40
3.2
  1
光　　度
  7
高3.2
100
AcDbText
  0
TEXT
  5
A90
330
1F
100
AcDbEntity
  8
0
 62
     3
100
AcDbText
 10
385.0582681402998
 20
210.0781276698919
 30
0.0
 40
3.2
  1
赤:2.50cd　黄:2.49cd　緑:3.12cd　青:0.75cd　白:4.58cd
 41
0.5
  7
高3.2
100
AcDbText
  0
TEXT
  5
A91
330
1F
100
AcDbEntity
  8
0
100
AcDbText
 10
356.23116023204
 20
146.7143590104775
 30
0.0
 40
2.5
  1
注１．雨や曇りが続いても約6日間動作可能です。
 41
0.8
  7
高2.5
100
AcDbText
  0
TEXT
  5
A92
330
1F
100
AcDbEntity
  8
0
100
AcDbText
 10
356.23116023204
 20
143.7143590104775
 30
0.0
 40
2.5
  1
　　　ただし、天候や季節、地域などにより動作時間は大きく変わりますので、目安
 41
0.8
  7
高2.5
100
AcDbText
  0
TEXT
  5
A93
330
1F
100
AcDbEntity
  8
0
100
AcDbText
 10
356.23116023204
 20
137.7143590104775
 30
0.0
 40
2.5
  1
注２．電池寿命とは充電素子の充放電可能な寿命であって、LED、ソーラーパネル等
 41
0.8
  7
高2.5
100
AcDbText
  0
TEXT
  5
A94
330
1F
100
AcDbEntity
  8
0
100
AcDbText
 10
356.23116023204
 20
131.7143590104775
 30
0.0
 40
2.5
  1
　　　過酷な条件下ではソーラーパネル等は電池寿命以下で劣化する場合があります。
 41
0.8
  7
高2.5
100
AcDbText
  0
TEXT
  5
A95
330
1F
100
AcDbEntity
  8
0
100
AcDbText
 10
356.23116023204
 20
128.7143590104775
 30
0.0
 40
2.5
  1
注３．室内照明では充電が不十分なため使用出来ません。
 41
0.8
  7
高2.5
100
AcDbText
  0
TEXT
  5
A96
330
1F
100
AcDbEntity
  8
0
100
AcDbText
 10
356.23116023204
 20
125.7143590104775
 30
0.0
 40
2.5
  1
注４．内部の電源スイッチをOFFにしても充電動作は行います。
 41
0.8
  7
高2.5
100
AcDbText
  0
TEXT
  5
A97
330
1F
100
AcDbEntity
  8
0
100
AcDbText
 10
356.23116023204
 20
134.7143590104775
 30
0.0
 40
2.5
  1
　　　の製品寿命を示すものではありません。
 41
0.8
  7
高2.5
100
AcDbText
  0
TEXT
  5
A98
330
1F
100
AcDbEntity
  8
0
100
AcDbText
 10
356.23116023204
 20
140.7143590104775
 30
0.0
 40
2.5
  1
　　　としてください。
 41
0.8
  7
高2.5
100
AcDbText
  0
LINE
  5
A99
330
1F
100
AcDbEntity
  8
0
 62
     7
100
AcDbLine
 10
461.2676718572473
 20
59.28284088932119
 30
0.0
 11
363.2096638572476
 21
59.28284088932119
 31
0.0
  0
LINE
  5
A9A
330
1F
100
AcDbEntity
  8
0
 62
     7
100
AcDbLine
 10
461.2676718572473
 20
65.28284088932119
 30
0.0
 11
363.2096638572476
 21
65.28284088932119
 31
0.0
  0
LINE
  5
A9B
330
1F
100
AcDbEntity
  8
0
 62
     7
100
AcDbLine
 10
461.2676718572473
 20
71.28284088932119
 30
0.0
 11
363.2096638572476
 21
71.28284088932119
 31
0.0
  0
LINE
  5
A9C
330
1F
100
AcDbEntity
  8
0
 62
     7
100
AcDbLine
 10
461.2676718572473
 20
77.28284088932119
 30
0.0
 11
363.2096638572476
 21
77.28284088932119
 31
0.0
  0
LINE
  5
A9D
330
1F
100
AcDbEntity
  8
0
 62
     3
100
AcDbLine
 10
461.2676718572473
 20
83.2828408893212
 30
0.0
 11
363.2096638572476
 21
83.2828408893212
 31
0.0
  0
LINE
  5
A9E
330
1F
100
AcDbEntity
  8
0
 62
     7
100
AcDbLine
 10
461.2676718572473
 20
89.28284088932119
 30
0.0
 11
363.2096638572476
 21
89.28284088932119
 31
0.0
  0
LINE
  5
A9F
330
1F
100
AcDbEntity
  8
0
 62
     7
100
AcDbLine
 10
461.2676718572473
 20
95.28284088932119
 30
0.0
 11
363.2096638572476
 21
95.28284088932119
 31
0.0
  0
LINE
  5
AA0
330
1F
100
AcDbEntity
  8
0
 62
     7
100
AcDbLine
 10
461.2676718572473
 20
101.2828408893212
 30
0.0
 11
363.2096638572476
 21
101.2828408893212
 31
0.0
  0
LINE
  5
AA1
330
1F
100
AcDbEntity
  8
0
 62
     7
100
AcDbLine
 10
461.2676718572473
 20
107.2828408893212
 30
0.0
 11
363.2096638572476
 21
107.2828408893212
 31
0.0
  0
LINE
  5
AA2
330
1F
100
AcDbEntity
  8
0
 62
     3
100
AcDbLine
 10
461.2676718572473
 20
113.2828408893212
 30
0.0
 11
363.2096638572476
 21
113.2828408893212
 31
0.0
  0
LINE
  5
AA3
330
1F
100
AcDbEntity
  8
0
 62
     3
100
AcDbLine
 10
461.2676718572473
 20
119.2828408893212
 30
0.0
 11
363.2096638572476
 21
119.2828408893212
 31
0.0
  0
LINE
  5
E01
330
1F
100
AcDbEntity
  8
0
100
AcDbLine
 10
202.8949763191673
 20
89.28606600033019
 30
0.0
 11
202.8949763191673
 21
79.20854275836768
 31
0.0
  0
LINE
  5
E02
330
1F
100
AcDbEntity
  8
0
100
AcDbLine
 10
286.8949763191673
 20
89.28606600033019
 30
0.0
 11
286.8949763191673
 21
79.20854275836768
 31
0.0
  0
LINE
  5
E03
330
1F
100
AcDbEntity
  8
0
100
AcDbLine
 10
205.3949763191674
 20
80.45854275836768
 30
0.0
 11
284.3949763191673
 21
80.45854275836768
 31
0.0
  0
LINE
  5
E15
330
1F
100
AcDbEntity
  8
0
  6
Continuous
100
AcDbLine
 10
91.63788076097594
 20
184.2169595202013
 30
0.0
 11
91.63788076097594
 21
141.7893565834694
 31
0.0
  0
LINE
  5
E16
330
1F
100
AcDbEntity
  8
0
  6
Continuous
100
AcDbLine
 10
148.301379760976
 20
184.2420153290487
 30
0.0
 11
148.301379760976
 21
141.7893565834694
 31
0.0
  0
LINE
  5
E17
330
1F
100
AcDbEntity
  8
0
  6
Continuous
100
AcDbLine
 10
94.13788076097594
 20
143.0393565834694
 30
0.0
 11
145.801379760976
 21
143.0393565834694
 31
0.0
  0
LINE
  5
E1B
330
1F
100
AcDbEntity
  8
0
  6
Continuous
100
AcDbLine
 10
206.6449763191672
 20
151.9360660003302
 30
0.0
 11
191.2578580764367
 21
151.9360660003302
 31
0.0
  0
LINE
  5
E1C
330
1F
100
AcDbEntity
  8
0
  6
Continuous
100
AcDbLine
 10
208.2449763191672
 20
125.5360660003307
 30
0.0
 11
191.2578580764367
 21
125.5360660003307
 31
0.0
  0
LINE
  5
E1D
330
1F
100
AcDbEntity
  8
0
  6
Continuous
100
AcDbLine
 10
192.5078580764367
 20
149.4360660003302
 30
0.0
 11
192.5078580764367
 21
128.0360660003306
 31
0.0
  0
LINE
  5
E21
330
1F
100
AcDbEntity
  8
0
  6
Continuous
100
AcDbLine
 10
209.8449763191673
 20
164.7360660003301
 30
0.0
 11
181.5182734010348
 21
164.7360660003301
 31
0.0
  0
LINE
  5
E22
330
1F
100
AcDbEntity
  8
0
  6
Continuous
100
AcDbLine
 10
202.6449763191673
 20
89.53606600033017
 30
0.0
 11
181.5182734010348
 21
89.53606600033017
 31
0.0
  0
LINE
  5
E23
330
1F
100
AcDbEntity
  8
0
  6
Continuous
100
AcDbLine
 10
182.7682734010348
 20
162.2360660003301
 30
0.0
 11
182.7682734010348
 21
92.03606600033017
 31
0.0
  0
LINE
  5
E27
330
1F
100
AcDbEntity
  8
0
  6
Continuous
100
AcDbLine
 10
206.8949763191673
 20
161.7860660003302
 30
0.0
 11
206.8949763191673
 21
177.8455833112723
 31
0.0
  0
LINE
  5
E28
330
1F
100
AcDbEntity
  8
0
  6
Continuous
100
AcDbLine
 10
282.8949763191673
 20
161.7860660003302
 30
0.0
 11
282.8949763191673
 21
177.8455833112723
 31
0.0
  0
LINE
  5
E29
330
1F
100
AcDbEntity
  8
0
  6
Continuous
100
AcDbLine
 10
209.3949763191673
 20
176.5955833112723
 30
0.0
 11
280.3949763191673
 21
176.5955833112723
 31
0.0
  0
LINE
  5
E2D
330
1F
100
AcDbEntity
  8
0
 62
     2
100
AcDbLine
 10
261.5262978572476
 20
288.2131078893213
 30
0.0
 11
261.4996868572476
 21
288.3834898893212
 31
0.0
  0
LINE
  5
E2E
330
1F
100
AcDbEntity
  8
0
 62
     2
100
AcDbLine
 10
261.4996868572476
 20
288.3834898893212
 30
0.0
 11
261.4677278572476
 21
288.5466398893212
 31
0.0
  0
LINE
  5
E2F
330
1F
100
AcDbEntity
  8
0
 62
     2
100
AcDbLine
 10
261.4677278572476
 20
288.5466398893212
 30
0.0
 11
261.4306688572475
 21
288.7012958893212
 31
0.0
  0
LINE
  5
E30
330
1F
100
AcDbEntity
  8
0
 62
     2
100
AcDbLine
 10
261.4306688572475
 20
288.7012958893212
 30
0.0
 11
261.3887938572476
 21
288.8462618893212
 31
0.0
  0
LINE
  5
E31
330
1F
100
AcDbEntity
  8
0
 62
     2
100
AcDbLine
 10
261.3887938572476
 20
288.8462618893212
 30
0.0
 11
261.3424288572476
 21
288.9804188893212
 31
0.0
  0
LINE
  5
E32
330
1F
100
AcDbEntity
  8
0
 62
     2
100
AcDbLine
 10
261.3424288572476
 20
288.9804188893212
 30
0.0
 11
261.2919308572476
 21
289.1027288893212
 31
0.0
  0
LINE
  5
E33
330
1F
100
AcDbEntity
  8
0
 62
     2
100
AcDbLine
 10
261.2919308572476
 20
289.1027288893212
 30
0.0
 11
261.2376898572476
 21
289.2122458893212
 31
0.0
  0
LINE
  5
E34
330
1F
100
AcDbEntity
  8
0
 62
     2
100
AcDbLine
 10
261.2376898572476
 20
289.2122458893212
 30
0.0
 11
261.1801268572476
 21
289.3081248893212
 31
0.0
  0
LINE
  5
E35
330
1F
100
AcDbEntity
  8
0
 62
     2
100
AcDbLine
 10
261.1801268572476
 20
289.3081248893212
 30
0.0
 11
261.1196858572476
 21
289.3896248893213
 31
0.0
  0
LINE
  5
E36
330
1F
100
AcDbEntity
  8
0
 62
     2
100
AcDbLine
 10
261.1196858572476
 20
289.3896248893213
 30
0.0
 11
261.0568338572476
 21
289.4561138893211
 31
0.0
  0
LINE
  5
E37
330
1F
100
AcDbEntity
  8
0
 62
     2
100
AcDbLine
 10
261.0568338572476
 20
289.4561138893211
 30
0.0
 11
260.9920568572476
 21
289.5070798893211
 31
0.0
  0
LINE
  5
E38
330
1F
100
AcDbEntity
  8
0
 62
     2
100
AcDbLine
 10
260.9920568572476
 20
289.5070798893211
 30
0.0
 11
260.9258548572476
 21
289.5421278893213
 31
0.0
  0
LINE
  5
E39
330
1F
100
AcDbEntity
  8
0
 62
     2
100
AcDbLine
 10
260.9258548572476
 20
289.5421278893213
 30
0.0
 11
260.8587408572477
 21
289.5609878893211
 31
0.0
  0
LINE
  5
E3A
330
1F
100
AcDbEntity
  8
0
 62
     2
100
AcDbLine
 10
260.8587408572477
 20
289.5609878893211
 30
0.0
 11
260.7912328572476
 21
289.5635138893212
 31
0.0
  0
LINE
  5
E3B
330
1F
100
AcDbEntity
  8
0
 62
     2
100
AcDbLine
 10
260.7912328572476
 20
289.5635138893212
 30
0.0
 11
260.7238528572476
 21
289.5496848893212
 31
0.0
  0
LINE
  5
E3C
330
1F
100
AcDbEntity
  8
0
 62
     2
100
AcDbLine
 10
260.7238528572476
 20
289.5496848893212
 30
0.0
 11
260.6571208572476
 21
289.5196098893212
 31
0.0
  0
LINE
  5
E3D
330
1F
100
AcDbEntity
  8
0
 62
     2
100
AcDbLine
 10
260.6571208572476
 20
289.5196098893212
 30
0.0
 11
260.5915538572475
 21
289.4735208893211
 31
0.0
  0
LINE
  5
E3E
330
1F
100
AcDbEntity
  8
0
 62
     2
100
AcDbLine
 10
260.5915538572475
 20
289.4735208893211
 30
0.0
 11
260.5276588572476
 21
289.4117728893212
 31
0.0
  0
LINE
  5
E3F
330
1F
100
AcDbEntity
  8
0
 62
     2
100
AcDbLine
 10
260.5276588572476
 20
289.4117728893212
 30
0.0
 11
260.4659278572476
 21
289.3348438893212
 31
0.0
  0
LINE
  5
E40
330
1F
100
AcDbEntity
  8
0
 62
     2
100
AcDbLine
 10
260.4659278572476
 20
289.3348438893212
 30
0.0
 11
260.4068398572476
 21
289.2433288893212
 31
0.0
  0
LINE
  5
E41
330
1F
100
AcDbEntity
  8
0
 62
     2
100
AcDbLine
 10
260.4068398572476
 20
289.2433288893212
 30
0.0
 11
260.3508508572476
 21
289.1379348893212
 31
0.0
  0
LINE
  5
E42
330
1F
100
AcDbEntity
  8
0
 62
     2
100
AcDbLine
 10
260.3508508572476
 20
289.1379348893212
 30
0.0
 11
260.2983938572476
 21
289.0194758893212
 31
0.0
  0
LINE
  5
E43
330
1F
100
AcDbEntity
  8
0
 62
     2
100
AcDbLine
 10
260.2983938572476
 20
289.0194758893212
 30
0.0
 11
260.2498738572476
 21
288.8888688893212
 31
0.0
  0
LINE
  5
E44
330
1F
100
AcDbEntity
  8
0
 62
     2
100
AcDbLine
 10
260.2498738572476
 20
288.8888688893212
 30
0.0
 11
260.2056658572476
 21
288.7471228893212
 31
0.0
  0
LINE
  5
E45
330
1F
100
AcDbEntity
  8
0
 62
     2
100
AcDbLine
 10
260.2056658572476
 20
288.7471228893212
 30
0.0
 11
260.1661128572477
 21
288.5953338893212
 31
0.0
  0
LINE
  5
E46
330
1F
100
AcDbEntity
  8
0
 62
     2
100
AcDbLine
 10
260.1661128572477
 20
288.5953338893212
 30
0.0
 11
260.1315188572475
 21
288.4346738893212
 31
0.0
  0
LINE
  5
E47
330
1F
100
AcDbEntity
  8
0
 62
     2
100
AcDbLine
 10
260.1315188572475
 20
288.4346738893212
 30
0.0
 11
260.1021518572476
 21
288.2663848893212
 31
0.0
  0
LINE
  5
E48
330
1F
100
AcDbEntity
  8
0
 62
     2
100
AcDbLine
 10
260.1021518572476
 20
288.2663848893212
 30
0.0
 11
260.0782398572476
 21
288.0917688893212
 31
0.0
  0
LINE
  5
E49
330
1F
100
AcDbEntity
  8
0
 62
     2
100
AcDbLine
 10
260.0782398572476
 20
288.0917688893212
 30
0.0
 11
260.0599658572475
 21
287.9121748893212
 31
0.0
  0
LINE
  5
E4A
330
1F
100
AcDbEntity
  8
0
 62
     2
100
AcDbLine
 10
260.0599658572475
 20
287.9121748893212
 30
0.0
 11
260.0474728572475
 21
287.7289908893212
 31
0.0
  0
LINE
  5
E4B
330
1F
100
AcDbEntity
  8
0
 62
     2
100
AcDbLine
 10
260.0474728572475
 20
287.7289908893212
 30
0.0
 11
260.0408568572476
 21
287.5436338893212
 31
0.0
  0
LINE
  5
E4C
330
1F
100
AcDbEntity
  8
0
 62
     2
100
AcDbLine
 10
260.0408568572476
 20
287.5436338893212
 30
0.0
 11
260.0401678572477
 21
287.3575348893212
 31
0.0
  0
LINE
  5
E4D
330
1F
100
AcDbEntity
  8
0
 62
     2
100
AcDbLine
 10
260.0401678572477
 20
287.3575348893212
 30
0.0
 11
260.0454128572476
 21
287.1721328893212
 31
0.0
  0
LINE
  5
E4E
330
1F
100
AcDbEntity
  8
0
 62
     2
100
AcDbLine
 10
260.0454128572476
 20
287.1721328893212
 30
0.0
 11
260.0565498572477
 21
286.9888618893213
 31
0.0
  0
LINE
  5
E4F
330
1F
100
AcDbEntity
  8
0
 62
     2
100
AcDbLine
 10
260.0565498572477
 20
286.9888618893213
 30
0.0
 11
260.0734938572476
 21
286.8091368893212
 31
0.0
  0
LINE
  5
E50
330
1F
100
AcDbEntity
  8
0
 62
     2
100
AcDbLine
 10
260.0734938572476
 20
286.8091368893212
 30
0.0
 11
260.0961138572476
 21
286.6343488893213
 31
0.0
  0
LINE
  5
E51
330
1F
100
AcDbEntity
  8
0
 62
     2
100
AcDbLine
 10
260.0961138572476
 20
286.6343488893213
 30
0.0
 11
260.1242338572476
 21
286.4658478893213
 31
0.0
  0
LINE
  5
E52
330
1F
100
AcDbEntity
  8
0
 62
     2
100
AcDbLine
 10
260.1242338572476
 20
286.4658478893213
 30
0.0
 11
260.1576378572477
 21
286.3049368893212
 31
0.0
  0
LINE
  5
E53
330
1F
100
AcDbEntity
  8
0
 62
     2
100
AcDbLine
 10
260.1576378572477
 20
286.3049368893212
 30
0.0
 11
260.1960668572476
 21
286.1528578893212
 31
0.0
  0
LINE
  5
E54
330
1F
100
AcDbEntity
  8
0
 62
     2
100
AcDbLine
 10
260.1960668572476
 20
286.1528578893212
 30
0.0
 11
260.2392248572475
 21
286.0107888893211
 31
0.0
  0
LINE
  5
E55
330
1F
100
AcDbEntity
  8
0
 62
     2
100
AcDbLine
 10
260.2392248572475
 20
286.0107888893211
 30
0.0
 11
260.2867768572476
 21
285.8798258893212
 31
0.0
  0
LINE
  5
E56
330
1F
100
AcDbEntity
  8
0
 62
     2
100
AcDbLine
 10
260.2867768572476
 20
285.8798258893212
 30
0.0
 11
260.3383558572476
 21
285.7609828893211
 31
0.0
  0
LINE
  5
E57
330
1F
100
AcDbEntity
  8
0
 62
     2
100
AcDbLine
 10
260.3383558572476
 20
285.7609828893211
 30
0.0
 11
260.3935638572476
 21
285.6551778893212
 31
0.0
  0
LINE
  5
E58
330
1F
100
AcDbEntity
  8
0
 62
     2
100
AcDbLine
 10
260.3935638572476
 20
285.6551778893212
 30
0.0
 11
260.4519728572476
 21
285.5632278893212
 31
0.0
  0
LINE
  5
E59
330
1F
100
AcDbEntity
  8
0
 62
     2
100
AcDbLine
 10
260.4519728572476
 20
285.5632278893212
 30
0.0
 11
260.5131318572476
 21
285.4858438893213
 31
0.0
  0
LINE
  5
E5A
330
1F
100
AcDbEntity
  8
0
 62
     2
100
AcDbLine
 10
260.5131318572476
 20
285.4858438893213
 30
0.0
 11
260.5765688572476
 21
285.4236248893212
 31
0.0
  0
LINE
  5
E5B
330
1F
100
AcDbEntity
  8
0
 62
     2
100
AcDbLine
 10
260.5765688572476
 20
285.4236248893212
 30
0.0
 11
260.6417928572477
 21
285.3770518893213
 31
0.0
  0
LINE
  5
E5C
330
1F
100
AcDbEntity
  8
0
 62
     2
100
AcDbLine
 10
260.6417928572477
 20
285.3770518893213
 30
0.0
 11
260.7082998572476
 21
285.3464838893212
 31
0.0
  0
LINE
  5
E5D
330
1F
100
AcDbEntity
  8
0
 62
     2
100
AcDbLine
 10
260.7082998572476
 20
285.3464838893212
 30
0.0
 11
260.7755758572476
 21
285.3321568893211
 31
0.0
  0
LINE
  5
E5E
330
1F
100
AcDbEntity
  8
0
 62
     2
100
AcDbLine
 10
260.7755758572476
 20
285.3321568893211
 30
0.0
 11
260.8431008572476
 21
285.3341828893211
 31
0.0
  0
LINE
  5
E5F
330
1F
100
AcDbEntity
  8
0
 62
     2
100
AcDbLine
 10
260.8431008572476
 20
285.3341828893211
 30
0.0
 11
260.9103528572476
 21
285.3525448893212
 31
0.0
  0
LINE
  5
E60
330
1F
100
AcDbEntity
  8
0
 62
     2
100
AcDbLine
 10
260.9103528572476
 20
285.3525448893212
 30
0.0
 11
260.9768118572477
 21
285.3871028893212
 31
0.0
  0
LINE
  5
E61
330
1F
100
AcDbEntity
  8
0
 62
     2
100
AcDbLine
 10
260.9768118572477
 20
285.3871028893212
 30
0.0
 11
261.0419648572476
 21
285.4375878893212
 31
0.0
  0
LINE
  5
E62
330
1F
100
AcDbEntity
  8
0
 62
     2
100
AcDbLine
 10
261.0419648572476
 20
285.4375878893212
 30
0.0
 11
261.1053068572476
 21
285.5036108893212
 31
0.0
  0
LINE
  5
E63
330
1F
100
AcDbEntity
  8
0
 62
     2
100
AcDbLine
 10
261.1053068572476
 20
285.5036108893212
 30
0.0
 11
261.1663498572475
 21
285.5846598893212
 31
0.0
  0
LINE
  5
E64
330
1F
100
AcDbEntity
  8
0
 62
     2
100
AcDbLine
 10
261.1663498572475
 20
285.5846598893212
 30
0.0
 11
261.2246208572476
 21
285.6801108893212
 31
0.0
  0
LINE
  5
E65
330
1F
100
AcDbEntity
  8
0
 62
     2
100
AcDbLine
 10
261.2246208572476
 20
285.6801108893212
 30
0.0
 11
261.2796698572477
 21
285.7892238893212
 31
0.0
  0
LINE
  5
E66
330
1F
100
AcDbEntity
  8
0
 62
     2
100
AcDbLine
 10
261.2796698572477
 20
285.7892238893212
 30
0.0
 11
261.3310718572476
 21
285.9111568893212
 31
0.0
  0
LINE
  5
E67
330
1F
100
AcDbEntity
  8
0
 62
     2
100
AcDbLine
 10
261.3310718572476
 20
285.9111568893212
 30
0.0
 11
261.3784288572476
 21
286.0449668893212
 31
0.0
  0
LINE
  5
E68
330
1F
100
AcDbEntity
  8
0
 62
     2
100
AcDbLine
 10
261.3784288572476
 20
286.0449668893212
 30
0.0
 11
261.4213748572477
 21
286.1896198893212
 31
0.0
  0
LINE
  5
E69
330
1F
100
AcDbEntity
  8
0
 62
     2
100
AcDbLine
 10
261.4213748572477
 20
286.1896198893212
 30
0.0
 11
261.4595778572476
 21
286.3439968893212
 31
0.0
  0
LINE
  5
E6A
330
1F
100
AcDbEntity
  8
0
 62
     2
100
AcDbLine
 10
261.4595778572476
 20
286.3439968893212
 30
0.0
 11
261.4927438572477
 21
286.5069058893212
 31
0.0
  0
LINE
  5
E6B
330
1F
100
AcDbEntity
  8
0
 62
     2
100
AcDbLine
 10
261.4927438572477
 20
286.5069058893212
 30
0.0
 11
261.5206148572476
 21
286.6770868893212
 31
0.0
  0
TEXT
  5
E6C
330
1F
100
AcDbEntity
  8
0
 62
     4
100
AcDbText
 10
239.9824978374304
 20
81.08354275836768
 30
0.0
 40
3.0
  1
\U+2205105
100
AcDbText
  0
LINE
  5
E6D
330
1F
100
AcDbEntity
  8
0
  6
ByBlock
 62
     0
370
    -2
100
AcDbLine
 10
284.3949763191673
 20
81.12841525836769
 30
0.0
 11
286.8949763191673
 21
80.45854275836768
 31
0.0
  0
LINE
  5
E6E
330
1F
100
AcDbEntity
  8
0
  6
ByBlock
 62
     0
370
    -2
100
AcDbLine
 10
286.8949763191673
 20
80.45854275836768
 30
0.0
 11
284.3949763191673
 21
79.78867025836769
 31
0.0
  0
LINE
  5
E6F
330
1F
100
AcDbEntity
  8
0
  6
ByBlock
 62
     0
370
    -2
100
AcDbLine
 10
286.8949763191673
 20
80.45854275836768
 30
0.0
 11
284.3949763191673
 21
80.45854275836768
 31
0.0
  0
LINE
  5
E70
330
1F
100
AcDbEntity
  8
0
  6
ByBlock
 62
     0
370
    -2
100
AcDbLine
 10
205.3949763191674
 20
79.78867025836769
 30
0.0
 11
202.8949763191673
 21
80.45854275836768
 31
0.0
  0
LINE
  5
E71
330
1F
100
AcDbEntity
  8
0
  6
ByBlock
 62
     0
370
    -2
100
AcDbLine
 10
202.8949763191673
 20
80.45854275836768
 30
0.0
 11
205.3949763191674
 21
81.12841525836769
 31
0.0
  0
LINE
  5
E72
330
1F
100
AcDbEntity
  8
0
  6
ByBlock
 62
     0
370
    -2
100
AcDbLine
 10
202.8949763191673
 20
80.45854275836768
 30
0.0
 11
205.3949763191674
 21
80.45854275836768
 31
0.0
  0
LINE
  5
E73
330
1F
100
AcDbEntity
  8
0
  6
Continuous
100
AcDbLine
 10
127.8580862148962
 20
195.6827371615185
 30
0.0
 11
153.3037130876414
 21
222.5775109773277
 31
0.0
1001
ACAD
1000
DSTYLE
1002
{
1070
   147
1040
0.625
1070
    77
1070
     0
1002
}
  0
LINE
  5
E74
330
1F
100
AcDbEntity
  8
0
  6
ByBlock
 62
     0
370
    -2
100
AcDbLine
 10
128.3446856561276
 20
195.2223567209593
 30
0.0
 11
126.1399217859967
 21
193.8667220197137
 31
0.0
  0
LINE
  5
E75
330
1F
100
AcDbEntity
  8
0
  6
ByBlock
 62
     0
370
    -2
100
AcDbLine
 10
126.1399217859967
 20
193.8667220197137
 30
0.0
 11
127.3714867736647
 21
196.1431176020777
 31
0.0
  0
LINE
  5
E76
330
1F
100
AcDbEntity
  8
0
  6
ByBlock
 62
     0
370
    -2
100
AcDbLine
 10
126.1399217859967
 20
193.8667220197137
 30
0.0
 11
127.8580862148962
 21
195.6827371615185
 31
0.0
  0
LINE
  5
E77
330
1F
100
AcDbEntity
  8
0
  6
Continuous
100
AcDbLine
 10
284.8891495078998
 20
139.4303006941693
 30
0.0
 11
298.4868406185126
 21
143.5101409751076
 31
0.0
1001
ACAD
1000
DSTYLE
1002
{
1070
   147
1040
0.625
1070
    77
1070
     0
1002
}
  0
LINE
  5
E78
330
1F
100
AcDbEntity
  8
0
  6
ByBlock
 62
     0
370
    -2
100
AcDbLine
 10
285.08165902529
 20
138.7886861276494
 30
0.0
 11
282.4946096271022
 21
138.7118448783605
 31
0.0
  0
LINE
  5
E79
330
1F
100
AcDbEntity
  8
0
  6
ByBlock
 62
     0
370
    -2
100
AcDbLine
 10
282.4946096271022
 20
138.7118448783605
 30
0.0
 11
284.6966399905097
 21
140.0719152606891
 31
0.0
  0
LINE
  5
E7A
330
1F
100
AcDbEntity
  8
0
  6
ByBlock
 62
     0
370
    -2
100
AcDbLine
 10
282.4946096271022
 20
138.7118448783605
 30
0.0
 11
284.8891495078998
 21
139.4303006941693
 31
0.0
  0
LINE
  5
E7B
330
1F
100
AcDbEntity
  8
0
  6
Continuous
100
AcDbLine
 10
287.0739510319763
 20
112.8691589980165
 30
0.0
 11
301.860290802353
 21
118.9647138926268
 31
0.0
1001
ACAD
1000
DSTYLE
1002
{
1070
   147
1040
0.625
1070
    77
1070
     0
1002
}
  0
LINE
  5
E7C
330
1F
100
AcDbEntity
  8
0
  6
ByBlock
 62
     0
370
    -2
100
AcDbLine
 10
287.3292577416009
 20
112.2498467582885
 30
0.0
 11
284.762644627668
 21
111.9163407019057
 31
0.0
  0
LINE
  5
E7D
330
1F
100
AcDbEntity
  8
0
  6
ByBlock
 62
     0
370
    -2
100
AcDbLine
 10
284.762644627668
 20
111.9163407019057
 30
0.0
 11
286.8186443223517
 21
113.4884712377445
 31
0.0
  0
LINE
  5
E7E
330
1F
100
AcDbEntity
  8
0
  6
ByBlock
 62
     0
370
    -2
100
AcDbLine
 10
284.762644627668
 20
111.9163407019057
 30
0.0
 11
287.0739510319763
 21
112.8691589980165
 31
0.0
  0
LINE
  5
E7F
330
1F
100
AcDbEntity
  8
0
  6
Continuous
100
AcDbLine
 10
285.19301749807
 20
152.9204474000262
 30
0.0
 11
301.8868212531641
 21
160.0713505507421
 31
0.0
1001
ACAD
1000
DSTYLE
1002
{
1070
   147
1040
0.625
1070
    77
1070
     0
1002
}
  0
LINE
  5
E80
330
1F
100
AcDbEntity
  8
0
  6
ByBlock
 62
     0
370
    -2
100
AcDbLine
 10
285.4567815097372
 20
152.3046895641804
 30
0.0
 11
282.8949763191673
 21
151.9360660003302
 31
0.0
  0
LINE
  5
E81
330
1F
100
AcDbEntity
  8
0
  6
ByBlock
 62
     0
370
    -2
100
AcDbLine
 10
282.8949763191673
 20
151.9360660003302
 30
0.0
 11
284.9292534864028
 21
153.536205235872
 31
0.0
  0
LINE
  5
E82
330
1F
100
AcDbEntity
  8
0
  6
ByBlock
 62
     0
370
    -2
100
AcDbLine
 10
282.8949763191673
 20
151.9360660003302
 30
0.0
 11
285.19301749807
 21
152.9204474000262
 31
0.0
  0
LINE
  5
E83
330
1F
100
AcDbEntity
  8
0
  6
Continuous
100
AcDbLine
 10
284.2433647246149
 20
164.8116349988055
 30
0.0
 11
302.2155629544949
 21
172.7755661433163
 31
0.0
1001
ACAD
1000
DSTYLE
1002
{
1070
   147
1040
0.625
1070
    77
1070
     0
1002
}
  0
LINE
  5
E84
330
1F
100
AcDbEntity
  8
0
  6
ByBlock
 62
     0
370
    -2
100
AcDbLine
 10
284.5147507864685
 20
164.1991982496731
 30
0.0
 11
281.9577180189642
 21
163.7988077001272
 31
0.0
  0
LINE
  5
E85
330
1F
100
AcDbEntity
  8
0
  6
ByBlock
 62
     0
370
    -2
100
AcDbLine
 10
281.9577180189642
 20
163.7988077001272
 30
0.0
 11
283.9719786627614
 21
165.4240717479379
 31
0.0
  0
LINE
  5
E86
330
1F
100
AcDbEntity
  8
0
  6
ByBlock
 62
     0
370
    -2
100
AcDbLine
 10
281.9577180189642
 20
163.7988077001272
 30
0.0
 11
284.2433647246149
 21
164.8116349988055
 31
0.0
  0
LINE
  5
E87
330
1F
100
AcDbEntity
  8
0
  6
Continuous
100
AcDbLine
 10
267.8235922355908
 20
234.6381264559124
 30
0.0
 11
301.9613511496024
 21
250.7526684106808
 31
0.0
1001
ACAD
1000
DSTYLE
1002
{
1070
   147
1040
0.625
1070
    77
1070
     0
1002
}
  0
LINE
  5
E88
330
1F
100
AcDbEntity
  8
0
  6
ByBlock
 62
     0
370
    -2
100
AcDbLine
 10
268.1095439935368
 20
234.0323535955235
 30
0.0
 11
265.5628155191672
 21
233.5709392003302
 31
0.0
  0
LINE
  5
E89
330
1F
100
AcDbEntity
  8
0
  6
ByBlock
 62
     0
370
    -2
100
AcDbLine
 10
265.5628155191672
 20
233.5709392003302
 30
0.0
 11
267.5376404776447
 21
235.2438993163014
 31
0.0
  0
LINE
  5
E8A
330
1F
100
AcDbEntity
  8
0
  6
ByBlock
 62
     0
370
    -2
100
AcDbLine
 10
265.5628155191672
 20
233.5709392003302
 30
0.0
 11
267.8235922355908
 21
234.6381264559124
 31
0.0
  0
LINE
  5
E8B
330
1F
100
AcDbEntity
  8
0
  6
Continuous
100
AcDbLine
 10
150.2762743169151
 20
186.4610675228232
 30
0.0
 11
159.3338535299802
 21
198.4338003771132
 31
0.0
1001
ACAD
1000
DSTYLE
1002
{
1070
   147
1040
0.625
1070
    77
1070
     0
1002
}
  0
LINE
  5
E8C
330
1F
100
AcDbEntity
  8
0
  6
Continuous
100
AcDbLine
 10
159.3338535299802
 20
198.4338003771132
 30
0.0
 11
189.0826705863714
 21
198.4338003771132
 31
0.0
1001
ACAD
1000
DSTYLE
1002
{
1070
   147
1040
0.625
1070
    77
1070
     0
1002
}
  0
LINE
  5
E8D
330
1F
100
AcDbEntity
  8
0
  6
ByBlock
 62
     0
370
    -2
100
AcDbLine
 10
150.8104964818163
 20
186.0569192272873
 30
0.0
 11
148.7679712609759
 21
184.4673218290487
 31
0.0
  0
LINE
  5
E8E
330
1F
100
AcDbEntity
  8
0
  6
ByBlock
 62
     0
370
    -2
100
AcDbLine
 10
148.7679712609759
 20
184.4673218290487
 30
0.0
 11
149.7420521520139
 21
186.865215818359
 31
0.0
  0
LINE
  5
E8F
330
1F
100
AcDbEntity
  8
0
  6
ByBlock
 62
     0
370
    -2
100
AcDbLine
 10
148.7679712609759
 20
184.4673218290487
 30
0.0
 11
150.2762743169151
 21
186.4610675228232
 31
0.0
  0
TEXT
  5
E90
330
1F
100
AcDbEntity
  8
0
 62
     4
100
AcDbText
 10
108.6852320258083
 20
143.6643565834694
 30
0.0
 40
3.0
  1
取付ピッチ95
100
AcDbText
  0
LINE
  5
E91
330
1F
100
AcDbEntity
  8
0
  6
ByBlock
 62
     0
370
    -2
100
AcDbLine
 10
145.801379760976
 20
143.7092290834694
 30
0.0
 11
148.301379760976
 21
143.0393565834694
 31
0.0
  0
LINE
  5
E92
330
1F
100
AcDbEntity
  8
0
  6
ByBlock
 62
     0
370
    -2
100
AcDbLine
 10
148.301379760976
 20
143.0393565834694
 30
0.0
 11
145.801379760976
 21
142.3694840834694
 31
0.0
  0
LINE
  5
E93
330
1F
100
AcDbEntity
  8
0
  6
ByBlock
 62
     0
370
    -2
100
AcDbLine
 10
148.301379760976
 20
143.0393565834694
 30
0.0
 11
145.801379760976
 21
143.0393565834694
 31
0.0
  0
LINE
  5
E94
330
1F
100
AcDbEntity
  8
0
  6
ByBlock
 62
     0
370
    -2
100
AcDbLine
 10
94.13788076097594
 20
142.3694840834694
 30
0.0
 11
91.63788076097594
 21
143.0393565834694
 31
0.0
  0
LINE
  5
E95
330
1F
100
AcDbEntity
  8
0
  6
ByBlock
 62
     0
370
    -2
100
AcDbLine
 10
91.63788076097594
 20
143.0393565834694
 30
0.0
 11
94.13788076097594
 21
143.7092290834694
 31
0.0
  0
LINE
  5
E96
330
1F
100
AcDbEntity
  8
0
  6
ByBlock
 62
     0
370
    -2
100
AcDbLine
 10
91.63788076097594
 20
143.0393565834694
 30
0.0
 11
94.13788076097594
 21
143.0393565834694
 31
0.0
  0
TEXT
  5
E97
330
1F
100
AcDbEntity
  8
0
 62
     4
100
AcDbText
 10
191.8828580764367
 20
136.1258080441269
 30
0.0
 40
3.0
  1
33
 50
90.0
100
AcDbText
  0
LINE
  5
E98
330
1F
100
AcDbEntity
  8
0
  6
ByBlock
 62
     0
370
    -2
100
AcDbLine
 10
193.1777305764367
 20
128.0360660003307
 30
0.0
 11
192.5078580764367
 21
125.5360660003307
 31
0.0
  0
LINE
  5
E99
330
1F
100
AcDbEntity
  8
0
  6
ByBlock
 62
     0
370
    -2
100
AcDbLine
 10
192.5078580764367
 20
125.5360660003307
 30
0.0
 11
191.8379855764367
 21
128.0360660003307
 31
0.0
  0
LINE
  5
E9A
330
1F
100
AcDbEntity
  8
0
  6
ByBlock
 62
     0
370
    -2
100
AcDbLine
 10
192.5078580764367
 20
125.5360660003307
 30
0.0
 11
192.5078580764367
 21
128.0360660003307
 31
0.0
  0
LINE
  5
E9B
330
1F
100
AcDbEntity
  8
0
  6
ByBlock
 62
     0
370
    -2
100
AcDbLine
 10
191.8379855764367
 20
149.4360660003302
 30
0.0
 11
192.5078580764367
 21
151.9360660003302
 31
0.0
  0
LINE
  5
E9C
330
1F
100
AcDbEntity
  8
0
  6
ByBlock
 62
     0
370
    -2
100
AcDbLine
 10
192.5078580764367
 20
151.9360660003302
 30
0.0
 11
193.1777305764367
 21
149.4360660003302
 31
0.0
  0
LINE
  5
E9D
330
1F
100
AcDbEntity
  8
0
  6
ByBlock
 62
     0
370
    -2
100
AcDbLine
 10
192.5078580764367
 20
151.9360660003302
 30
0.0
 11
192.5078580764367
 21
149.4360660003302
 31
0.0
  0
TEXT
  5
E9E
330
1F
100
AcDbEntity
  8
0
 62
     4
100
AcDbText
 10
182.1432734010348
 20
123.8586501014135
 30
0.0
 40
3.0
  1
98
 50
90.0
100
AcDbText
  0
LINE
  5
E9F
330
1F
100
AcDbEntity
  8
0
  6
ByBlock
 62
     0
370
    -2
100
AcDbLine
 10
183.4381459010348
 20
92.03606600033017
 30
0.0
 11
182.7682734010348
 21
89.53606600033017
 31
0.0
  0
LINE
  5
EA0
330
1F
100
AcDbEntity
  8
0
  6
ByBlock
 62
     0
370
    -2
100
AcDbLine
 10
182.7682734010348
 20
89.53606600033017
 30
0.0
 11
182.0984009010348
 21
92.03606600033017
 31
0.0
  0
LINE
  5
EA1
330
1F
100
AcDbEntity
  8
0
  6
ByBlock
 62
     0
370
    -2
100
AcDbLine
 10
182.7682734010348
 20
89.53606600033017
 30
0.0
 11
182.7682734010348
 21
92.03606600033017
 31
0.0
  0
LINE
  5
EA2
330
1F
100
AcDbEntity
  8
0
  6
ByBlock
 62
     0
370
    -2
100
AcDbLine
 10
182.0984009010348
 20
162.2360660003301
 30
0.0
 11
182.7682734010348
 21
164.7360660003301
 31
0.0
  0
LINE
  5
EA3
330
1F
100
AcDbEntity
  8
0
  6
ByBlock
 62
     0
370
    -2
100
AcDbLine
 10
182.7682734010348
 20
164.7360660003301
 30
0.0
 11
183.4381459010348
 21
162.2360660003301
 31
0.0
  0
LINE
  5
EA4
330
1F
100
AcDbEntity
  8
0
  6
ByBlock
 62
     0
370
    -2
100
AcDbLine
 10
182.7682734010348
 20
164.7360660003301
 30
0.0
 11
182.7682734010348
 21
162.2360660003301
 31
0.0
  0
TEXT
  5
EA5
330
1F
100
AcDbEntity
  8
0
 62
     4
100
AcDbText
 10
241.2964104561537
 20
177.2205833112723
 30
0.0
 40
3.0
  1
\U+220595
100
AcDbText
  0
LINE
  5
EA6
330
1F
100
AcDbEntity
  8
0
  6
ByBlock
 62
     0
370
    -2
100
AcDbLine
 10
280.3949763191673
 20
177.2654558112723
 30
0.0
 11
282.8949763191673
 21
176.5955833112723
 31
0.0
  0
LINE
  5
EA7
330
1F
100
AcDbEntity
  8
0
  6
ByBlock
 62
     0
370
    -2
100
AcDbLine
 10
282.8949763191673
 20
176.5955833112723
 30
0.0
 11
280.3949763191673
 21
175.9257108112723
 31
0.0
  0
LINE
  5
EA8
330
1F
100
AcDbEntity
  8
0
  6
ByBlock
 62
     0
370
    -2
100
AcDbLine
 10
282.8949763191673
 20
176.5955833112723
 30
0.0
 11
280.3949763191673
 21
176.5955833112723
 31
0.0
  0
LINE
  5
EA9
330
1F
100
AcDbEntity
  8
0
  6
ByBlock
 62
     0
370
    -2
100
AcDbLine
 10
209.3949763191673
 20
175.9257108112723
 30
0.0
 11
206.8949763191673
 21
176.5955833112723
 31
0.0
  0
LINE
  5
EAA
330
1F
100
AcDbEntity
  8
0
  6
ByBlock
 62
     0
370
    -2
100
AcDbLine
 10
206.8949763191673
 20
176.5955833112723
 30
0.0
 11
209.3949763191673
 21
177.2654558112723
 31
0.0
  0
LINE
  5
EAB
330
1F
100
AcDbEntity
  8
0
  6
ByBlock
 62
     0
370
    -2
100
AcDbLine
 10
206.8949763191673
 20
176.5955833112723
 30
0.0
 11
209.3949763191673
 21
176.5955833112723
 31
0.0
  0
ENDSEC
  0
SECTION
  2
OBJECTS
  0
DICTIONARY
  5
C
330
0
100
AcDbDictionary
281
     1
  3
ACAD_2007HEADERVARS_RT
350
EB0
  3
ACAD_COLOR
350
73
  3
ACAD_GROUP
350
D
  3
ACAD_LAYOUT
350
1A
  3
ACAD_MATERIAL
350
72
  3
ACAD_MLEADERSTYLE
350
6C2
  3
ACAD_MLINESTYLE
350
17
  3
ACAD_PLOTSETTINGS
350
19
  3
ACAD_PLOTSTYLENAME
350
E
  3
ACAD_SCALELIST
350
6B0
  3
ACAD_TABLESTYLE
350
86
  3
ACAD_VISUALSTYLE
350
99
  3
ACDB_RECOMPOSE_DATA
350
EAE
  3
AcDbVariableDictionary
350
66
  3
AEC_PROPERTY_SET_DEFS
350
A5D
  3
DWGPROPS
350
EAF
  0
DICTIONARY
  5
DD
330
2
100
AcDbDictionary
280
     1
281
     1
  3
ACAD_LAYERSTATES
360
DE
  0
DICTIONARY
  5
8F8
330
10
100
AcDbDictionary
280
     1
281
     1
  3
ADSK_XREC_LAYER_RECONCILED
360
8F9
  0
DICTIONARY
  5
8EA
330
1F
100
AcDbDictionary
280
     1
281
     1
  3
ACAD_SORTENTS
360
8EB
  0
DICTIONARY
  5
EB0
102
{ACAD_REACTORS
330
C
102
}
330
C
100
AcDbDictionary
281
     1
  3
DIMARCSYM
350
EB2
  3
DIMFXL
350
EB1
  3
DIMJOGANG
350
EB3
  0
DICTIONARY
  5
73
102
{ACAD_REACTORS
330
C
102
}
330
C
100
AcDbDictionary
281
     1
  0
DICTIONARY
  5
D
102
{ACAD_REACTORS
330
C
102
}
330
C
100
AcDbDictionary
281
     1
  0
DICTIONARY
  5
1A
102
{ACAD_REACTORS
330
C
102
}
330
C
100
AcDbDictionary
281
     1
  3
Model
350
22
  3
レイアウト1
350
59
  3
レイアウト2
350
5E
  0
DICTIONARY
  5
72
102
{ACAD_REACTORS
330
C
102
}
330
C
100
AcDbDictionary
281
     1
  3
ByBlock
350
97
  3
ByLayer
350
96
  3
Global
350
98
  0
DICTIONARY
  5
6C2
102
{ACAD_REACTORS
330
C
102
}
330
C
100
AcDbDictionary
281
     1
  3
Standard
350
6C3
  0
DICTIONARY
  5
17
102
{ACAD_REACTORS
330
C
102
}
330
C
100
AcDbDictionary
281
     1
  3
Standard
350
18
  0
DICTIONARY
  5
19
102
{ACAD_REACTORS
330
C
102
}
330
C
100
AcDbDictionary
281
     1
  0
ACDBDICTIONARYWDFLT
  5
E
102
{ACAD_REACTORS
330
C
102
}
330
C
100
AcDbDictionary
281
     1
  3
Normal
350
F
100
AcDbDictionaryWithDefault
340
F
  0
DICTIONARY
  5
6B0
102
{ACAD_REACTORS
330
C
102
}
330
C
100
AcDbDictionary
281
     1
  3
A0
350
6B1
  3
A1
350
6B2
  3
A2
350
6B3
  3
A3
350
6B4
  3
A4
350
6B5
  3
A5
350
6B6
  3
A6
350
6B7
  3
A7
350
6B8
  3
A8
350
6B9
  3
A9
350
6BA
  3
B0
350
6BB
  3
B1
350
6BC
  3
B2
350
6BD
  3
B3
350
6BE
  3
B4
350
6BF
  3
B5
350
6C0
  3
B6
350
6C1
  0
DICTIONARY
  5
86
102
{ACAD_REACTORS
330
C
102
}
330
C
100
AcDbDictionary
281
     1
  3
Standard
350
87
  3
部品表
350
C67
  0
DICTIONARY
  5
99
102
{ACAD_REACTORS
330
C
102
}
330
C
100
AcDbDictionary
281
     1
  3
2dWireframe
350
9F
  3
3D Hidden
350
A1
  3
3dWireframe
350
A0
  3
Basic
350
9E
  3
Brighten
350
A5
  3
ColorChange
350
A9
  3
Conceptual
350
A2
  3
Dim
350
A4
  3
EdgeColorOff
350
6AF
  3
Facepattern
350
A8
  3
Flat
350
9A
  3
FlatWithEdges
350
9B
  3
Gouraud
350
9C
  3
GouraudWithEdges
350
9D
  3
Hidden
350
6A7
  3
JitterOff
350
6AD
  3
Linepattern
350
A7
  3
OverhangOff
350
6AE
  3
Realistic
350
A3
  3
Shaded
350
6AC
  3
Shaded with edges
350
6AB
  3
Shades of Gray
350
6A8
  3
Sketchy
350
6A9
  3
Thicken
350
A6
  3
Wireframe
350
6A6
  3
X-Ray
350
6AA
  0
XRECORD
  5
EAE
102
{ACAD_REACTORS
330
C
102
}
330
C
100
AcDbXrecord
280
     1
 90
        1
330
87
330
C67
  0
DICTIONARY
  5
66
102
{ACAD_REACTORS
330
C
102
}
330
C
100
AcDbDictionary
281
     1
  3
CANNOSCALE
350
8FB
  3
CMLEADERSTYLE
350
8FA
  3
CTABLESTYLE
350
89
  3
DIMASSOC
350
67
  3
HIDETEXT
350
6B
  3
INDEXCTL
350
68C
  3
SORTENTS
350
68B
  3
XCLIPFRAME
350
ACB
  0
DICTIONARY
  5
A5D
102
{ACAD_REACTORS
330
C
102
}
330
C
100
AcDbDictionary
281
     1
  0
XRECORD
  5
EAF
102
{ACAD_REACTORS
330
C
102
}
330
C
100
AcDbXrecord
280
     1
  1
DWGPROPS COOKIE
  2

  3

  4

  6

  7

  8
imamura
  9

300
=
301
=
302
=
303
=
304
=
305
=
306
=
307
=
308
=
309
=
 40
0.0426452777777778
 41
2455517.644491818
 42
2457373.396106678
  1

 90
        0
  0
DICTIONARY
  5
DE
102
{ACAD_REACTORS
330
DD
102
}
330
DD
100
AcDbDictionary
281
     1
  0
XRECORD
  5
8F9
102
{ACAD_REACTORS
330
8F8
102
}
330
8F8
100
AcDbXrecord
280
     1
290
     1
  0
SORTENTSTABLE
  5
8EB
102
{ACAD_REACTORS
330
8EA
102
}
330
8EA
100
AcDbSortentsTable
330
1F
331
E77
  5
E4D
331
E73
  5
E51
331
E6F
  5
EAA
331
E34
  5
49F
331
EAA
  5
A94
331
E6B
  5
4DD
331
E30
  5
49B
331
495
  5
4E7
331
41B
  5
437
331
491
  5
4E3
331
456
  5
462
331
452
  5
45E
331
4CC
  5
548
331
48D
  5
4DF
331
403
  5
436
331
4C8
  5
544
331
50F
  5
566
331
489
  5
495
331
585
  5
5D0
331
50B
  5
562
331
5FF
  5
A69
331
581
  5
5CC
331
546
  5
599
331
542
  5
595
331
5BC
  5
607
331
503
  5
55B
331
5FB
  5
A65
331
57D
  5
5C8
331
5B8
  5
603
331
7DE
  5
E5E
331
579
  5
5C4
331
5F7
  5
A61
331
7DA
  5
E5A
331
A7C
  5
E87
331
5F3
  5
7E6
331
A78
  5
E83
331
EA6
  5
A9B
331
E67
  5
4D9
331
EA2
  5
E06
331
E28
  5
A8E
331
E63
  5
4D5
331
E9E
  5
E0C
331
E5F
  5
4CA
331
44E
  5
45A
331
3FF
  5
432
331
E9A
  5
E21
331
620
  5
A8B
331
E5B
  5
4C6
331
44A
  5
456
331
4C4
  5
53A
331
3FB
  5
429
331
485
  5
491
331
446
  5
452
331
4C0
  5
534
331
481
  5
48D
331
3F7
  5
3F7
331
4BC
  5
530
331
442
  5
44E
331
47D
  5
489
331
4B8
  5
52C
331
53E
  5
592
331
4FF
  5
556
331
479
  5
485
331
5B4
  5
5FF
331
53A
  5
58E
331
575
  5
5C1
331
5B0
  5
5FB
331
536
  5
58A
331
7D6
  5
E56
331
571
  5
5BD
331
5EF
  5
7E2
331
5AC
  5
5F7
331
A74
  5
E7F
331
5EB
  5
7DE
331
56D
  5
5B9
331
5A8
  5
5F3
331
62E
  5
E39
331
569
  5
5B5
331
A70
  5
E7B
331
5E7
  5
7D4
331
62A
  5
E35
331
5E3
  5
633
331
A68
  5
E74
331
AA0
  5
400
331
A9C
  5
3FC
331
A98
  5
EA1
331
E96
  5
E28
331
E1C
  5
E1A
331
E57
  5
4C2
331
E92
  5
E2A
331
E53
  5
4BE
331
E8E
  5
E2E
331
E4F
  5
4BA
331
43E
  5
44A
331
3EF
  5
3EF
331
E8A
  5
E3C
331
636
  5
E53
331
E4B
  5
4B6
331
43A
  5
446
331
4B4
  5
528
331
475
  5
481
331
3EB
  5
3EB
331
436
  5
442
331
4B0
  5
524
331
471
  5
47D
331
3E7
  5
3E7
331
4AC
  5
520
331
432
  5
43E
331
46D
  5
479
331
4A8
  5
51C
331
52E
  5
588
331
469
  5
475
331
5A4
  5
5EF
331
565
  5
5B1
331
61E
  5
A89
331
5A0
  5
5EB
331
526
  5
582
331
5DF
  5
62A
331
59C
  5
5E7
331
522
  5
57E
331
61A
  5
A85
331
55D
  5
5AD
331
A64
  5
E70
331
5DB
  5
626
331
598
  5
5E3
331
616
  5
A81
331
559
  5
5AA
331
5D7
  5
622
331
612
  5
A7D
331
5D3
  5
61E
331
A94
  5
E9D
331
A90
  5
E99
331
A8C
  5
E95
331
A88
  5
E93
331
E86
  5
E40
331
E47
  5
4B2
331
E82
  5
E44
331
E43
  5
4AE
331
E7E
  5
E48
331
E3F
  5
4AA
331
42E
  5
43C
331
E7A
  5
E4C
331
4A4
  5
518
331
E3B
  5
4A6
331
465
  5
471
331
4A0
  5
511
331
461
  5
46D
331
49C
  5
50D
331
45D
  5
469
331
498
  5
509
331
51E
  5
57A
331
459
  5
465
331
51A
  5
575
331
594
  5
5DF
331
4DB
  5
551
331
555
  5
5A6
331
516
  5
571
331
590
  5
5DB
331
4D7
  5
54C
331
60E
  5
A79
331
551
  5
5A4
331
5CF
  5
61A
331
58C
  5
5D7
331
512
  5
569
331
60A
  5
A74
331
54D
  5
5A0
331
5CB
  5
616
331
588
  5
5D3
331
606
  5
A70
331
549
  5
59C
331
5C7
  5
612
331
602
  5
A6C
331
7E5
  5
E65
331
5C3
  5
60E
331
7E1
  5
E61
331
A84
  5
E8F
331
A80
  5
E8B
331
E76
  5
E50
331
E72
  5
EA7
331
E37
  5
4A2
331
E6E
  5
EA9
331
E33
  5
49E
331
EA9
  5
A93
331
494
  5
4E6
331
E6A
  5
4DC
331
490
  5
4E2
331
455
  5
461
331
451
  5
45D
331
4CB
  5
547
331
48C
  5
4DE
331
402
  5
435
331
50E
  5
565
331
488
  5
494
331
584
  5
5CF
331
50A
  5
561
331
545
  5
598
331
5BF
  5
60A
331
506
  5
55E
331
5FE
  5
A68
331
580
  5
5CB
331
5BB
  5
606
331
502
  5
559
331
5FA
  5
A64
331
57C
  5
5C7
331
7DD
  5
E5D
331
578
  5
5C3
331
A7F
  5
E8A
331
5F6
  5
8E6
331
7D9
  5
E59
331
A7B
  5
E86
331
5F2
  5
7E5
331
E2F
  5
49A
331
EA5
  5
AA1
331
E66
  5
4D8
331
EA1
  5
E0B
331
E27
  5
A8D
331
627
  5
E32
331
E62
  5
4CD
331
E9D
  5
E1E
331
E23
  5
E05
331
E5E
  5
4C9
331
44D
  5
459
331
4C7
  5
543
331
3FE
  5
42F
331
E99
  5
E20
331
E5A
  5
4C5
331
449
  5
455
331
4C3
  5
539
331
3FA
  5
423
331
484
  5
490
331
445
  5
451
331
4BF
  5
533
331
480
  5
48C
331
3F6
  5
3F6
331
4BB
  5
52F
331
441
  5
44D
331
47C
  5
488
331
53D
  5
591
331
5B7
  5
602
331
4FE
  5
555
331
478
  5
484
331
5B3
  5
5FE
331
539
  5
58D
331
574
  5
5C0
331
5AF
  5
5FA
331
535
  5
589
331
7D5
  5
E55
331
570
  5
5BC
331
A77
  5
E82
331
5EE
  5
7E1
331
5AB
  5
5F6
331
A73
  5
E7E
331
5EA
  5
7D7
331
56C
  5
5B8
331
62D
  5
E38
331
568
  5
5B4
331
A6F
  5
E7A
331
5E6
  5
636
331
629
  5
E34
331
A6B
  5
E77
331
5E2
  5
62D
331
AA3
  5
403
331
A9F
  5
3FF
331
A9B
  5
3FB
331
E95
  5
E27
331
E1B
  5
E19
331
E56
  5
4C1
331
E91
  5
E29
331
E17
  5
E25
331
E52
  5
4BD
331
E8D
  5
E2D
331
E4E
  5
4B9
331
43D
  5
449
331
4B7
  5
52B
331
3EE
  5
3EE
331
E89
  5
E3B
331
635
  5
E52
331
E4A
  5
4B5
331
439
  5
445
331
4B3
  5
527
331
474
  5
480
331
3EA
  5
3EA
331
435
  5
441
331
4AF
  5
523
331
470
  5
47C
331
3E6
  5
3E6
331
4AB
  5
51F
331
46C
  5
478
331
3E2
  5
3E2
331
5A7
  5
5F2
331
52D
  5
587
331
468
  5
474
331
5A3
  5
5EE
331
564
  5
5B0
331
61D
  5
A88
331
59F
  5
5EA
331
525
  5
581
331
A67
  5
E73
331
5DE
  5
629
331
59B
  5
5E6
331
521
  5
57D
331
619
  5
A84
331
55C
  5
5AC
331
A63
  5
E6F
331
5DA
  5
625
331
615
  5
A80
331
558
  5
5A9
331
5D6
  5
621
331
611
  5
A7C
331
5D2
  5
61D
331
A97
  5
EA0
331
A93
  5
E9C
331
A8F
  5
E98
331
A8B
  5
E94
331
E85
  5
E3F
331
E46
  5
4B1
331
E81
  5
E43
331
E42
  5
4AD
331
E03
  5
EA4
331
E7D
  5
E47
331
E3E
  5
4A9
331
4A7
  5
51B
331
42D
  5
43B
331
E79
  5
E4B
331
E3A
  5
4A5
331
4A3
  5
517
331
429
  5
43A
331
464
  5
470
331
49F
  5
510
331
460
  5
46C
331
49B
  5
50C
331
45C
  5
468
331
597
  5
5E2
331
51D
  5
579
331
458
  5
464
331
519
  5
574
331
593
  5
5DE
331
4DA
  5
550
331
554
  5
5A5
331
515
  5
570
331
58F
  5
5DA
331
4D6
  5
54B
331
60D
  5
A77
331
550
  5
5A3
331
5CE
  5
619
331
58B
  5
5D6
331
511
  5
568
331
609
  5
A73
331
54C
  5
59F
331
5CA
  5
615
331
605
  5
A6F
331
548
  5
59B
331
7E8
  5
E68
331
5C6
  5
611
331
601
  5
A6B
331
7E4
  5
E64
331
5C2
  5
60D
331
7E0
  5
E60
331
A87
  5
E92
331
A83
  5
E8E
331
E75
  5
E4F
331
E71
  5
EA6
331
E36
  5
4A1
331
E6D
  5
EA8
331
E32
  5
49D
331
497
  5
508
331
41D
  5
438
331
EA8
  5
A9D
331
493
  5
4E5
331
E69
  5
4DB
331
48F
  5
4E1
331
454
  5
460
331
450
  5
45C
331
4CA
  5
546
331
401
  5
434
331
587
  5
5D2
331
50D
  5
564
331
583
  5
5CE
331
544
  5
597
331
5BE
  5
609
331
505
  5
55D
331
5FD
  5
A67
331
57F
  5
5CA
331
540
  5
594
331
5BA
  5
605
331
501
  5
558
331
5F9
  5
A63
331
57B
  5
5C6
331
7DC
  5
E5C
331
A7E
  5
E89
331
5F5
  5
7E8
331
7D8
  5
E58
331
A7A
  5
E85
331
5F1
  5
7E4
331
E2E
  5
499
331
EA4
  5
E08
331
E65
  5
4D7
331
EA0
  5
E0A
331
E61
  5
4CC
331
E9C
  5
E1D
331
E22
  5
AA3
331
E5D
  5
4C8
331
44C
  5
458
331
4C6
  5
542
331
3FD
  5
42E
331
487
  5
493
331
E98
  5
E1F
331
E59
  5
4C4
331
4C2
  5
538
331
448
  5
454
331
483
  5
48F
331
4BE
  5
532
331
444
  5
450
331
47F
  5
48B
331
440
  5
44C
331
4BA
  5
52E
331
47B
  5
487
331
3F1
  5
3F1
331
53C
  5
590
331
5B6
  5
601
331
4FD
  5
554
331
577
  5
5C2
331
5B2
  5
5FD
331
538
  5
58C
331
573
  5
5BF
331
5AE
  5
5F9
331
7D4
  5
E54
331
56F
  5
5BB
331
A76
  5
E81
331
5ED
  5
7E0
331
5AA
  5
5F5
331
A72
  5
E7D
331
5E9
  5
7D6
331
56B
  5
5B7
331
62C
  5
E37
331
A6E
  5
E79
331
5E5
  5
635
331
628
  5
E33
331
A6A
  5
E76
331
5E1
  5
62C
331
AA2
  5
402
331
A9E
  5
3FE
331
A9A
  5
3FA
331
E94
  5
E26
331
E55
  5
4C0
331
E90
  5
E2C
331
E16
  5
E24
331
E51
  5
4BC
331
E8C
  5
E31
331
E4D
  5
4B8
331
43C
  5
448
331
4B6
  5
52A
331
477
  5
483
331
3ED
  5
3ED
331
E88
  5
E3A
331
E49
  5
4B4
331
438
  5
444
331
4B2
  5
526
331
473
  5
47F
331
3E9
  5
3E9
331
4AE
  5
522
331
434
  5
440
331
46F
  5
47B
331
4AA
  5
51E
331
46B
  5
477
331
5A6
  5
5F1
331
52C
  5
586
331
567
  5
5B3
331
5A2
  5
5ED
331
528
  5
584
331
563
  5
5AF
331
61C
  5
A87
331
59E
  5
5E9
331
524
  5
580
331
A66
  5
E72
331
5DD
  5
628
331
59A
  5
5E5
331
520
  5
57C
331
618
  5
A83
331
55B
  5
5AB
331
A62
  5
E6E
331
5D9
  5
624
331
614
  5
A7F
331
5D5
  5
620
331
610
  5
A7B
331
5D1
  5
61C
331
A96
  5
E9F
331
A92
  5
E9B
331
A8E
  5
E97
331
E84
  5
E3E
331
E45
  5
4B0
331
E80
  5
E42
331
E41
  5
4AC
331
E02
  5
EA3
331
E7C
  5
E46
331
4A6
  5
51A
331
E3D
  5
4A8
331
467
  5
473
331
E78
  5
E4A
331
4A2
  5
516
331
E39
  5
4A4
331
463
  5
46F
331
49E
  5
50F
331
45F
  5
46B
331
49A
  5
50B
331
45B
  5
467
331
596
  5
5E1
331
51C
  5
578
331
557
  5
5A8
331
518
  5
573
331
592
  5
5DD
331
4D9
  5
54F
331
514
  5
56F
331
58E
  5
5D9
331
4D5
  5
54A
331
60C
  5
A76
331
54F
  5
5A2
331
5CD
  5
618
331
58A
  5
5D5
331
510
  5
567
331
608
  5
A72
331
54B
  5
59E
331
5C9
  5
614
331
604
  5
A6E
331
7E7
  5
E67
331
5C5
  5
610
331
600
  5
A6A
331
7E3
  5
E63
331
5C1
  5
60C
331
A86
  5
E91
331
A82
  5
E8D
331
E74
  5
E4E
331
E70
  5
EA5
331
E35
  5
4A0
331
E6C
  5
EAB
331
EAB
  5
A97
331
496
  5
4E8
331
E31
  5
49C
331
E68
  5
4DA
331
492
  5
4E4
331
457
  5
463
331
4CD
  5
549
331
48E
  5
4E0
331
453
  5
45F
331
4C9
  5
545
331
400
  5
433
331
48A
  5
496
331
586
  5
5D1
331
50C
  5
563
331
582
  5
5CD
331
547
  5
59A
331
543
  5
596
331
5BD
  5
608
331
504
  5
55C
331
5FC
  5
A66
331
57E
  5
5C9
331
5B9
  5
604
331
500
  5
557
331
7DF
  5
E5F
331
57A
  5
5C5
331
5F8
  5
A62
331
7DB
  5
E5B
331
A7D
  5
E88
331
5F4
  5
7E7
331
A79
  5
E84
331
5F0
  5
7E3
331
EA7
  5
A9C
331
E2D
  5
498
331
EA3
  5
E07
331
E29
  5
A8F
331
E64
  5
4D6
331
E9F
  5
E09
331
E60
  5
4CB
331
44F
  5
45B
331
E9B
  5
E1C
331
E21
  5
AA2
331
621
  5
A8C
331
E5C
  5
4C7
331
44B
  5
457
331
4C5
  5
541
331
3FC
  5
42D
331
486
  5
492
331
E58
  5
4C3
331
447
  5
453
331
4C1
  5
537
331
482
  5
48E
331
3F8
  5
3F8
331
4BD
  5
531
331
443
  5
44F
331
47E
  5
48A
331
4B9
  5
52D
331
53F
  5
593
331
47A
  5
486
331
3F0
  5
3F0
331
53B
  5
58F
331
5B5
  5
600
331
4FC
  5
553
331
5B1
  5
5FC
331
537
  5
58B
331
7D7
  5
E57
331
572
  5
5BE
331
5AD
  5
5F8
331
A75
  5
E80
331
5EC
  5
7DF
331
56E
  5
5BA
331
5A9
  5
5F4
331
A71
  5
E7C
331
5E8
  5
7D5
331
56A
  5
5B6
331
62B
  5
E36
331
A6D
  5
E78
331
5E4
  5
634
331
A69
  5
E75
331
5E0
  5
62B
331
AA1
  5
401
331
A9D
  5
3FD
331
A99
  5
3F9
331
E97
  5
E22
331
E1D
  5
E1B
331
E93
  5
E2B
331
E54
  5
4BF
331
E8F
  5
E2F
331
E15
  5
E23
331
E50
  5
4BB
331
43F
  5
44B
331
E8B
  5
E30
331
E4C
  5
4B7
331
43B
  5
447
331
4B5
  5
529
331
476
  5
482
331
3EC
  5
3EC
331
E48
  5
4B3
331
437
  5
443
331
4B1
  5
525
331
472
  5
47E
331
3E8
  5
3E8
331
433
  5
43F
331
4AD
  5
521
331
46E
  5
47A
331
3E4
  5
3E4
331
4A9
  5
51D
331
46A
  5
476
331
5A5
  5
5F0
331
52B
  5
585
331
566
  5
5B2
331
5A1
  5
5EC
331
527
  5
583
331
61F
  5
A8A
331
562
  5
5AE
331
61B
  5
A86
331
59D
  5
5E8
331
523
  5
57F
331
A65
  5
E71
331
5DC
  5
627
331
617
  5
A82
331
599
  5
5E4
331
A61
  5
E6D
331
5D8
  5
623
331
613
  5
A7E
331
8E6
  5
E6C
331
5D4
  5
61F
331
5D0
  5
61B
331
A95
  5
E9E
331
A91
  5
E9A
331
A8D
  5
E96
331
E87
  5
E3D
331
E83
  5
E41
331
E44
  5
4AF
331
E7F
  5
E45
331
E40
  5
4AB
331
42F
  5
43D
331
E01
  5
EA2
331
E7B
  5
E49
331
4A5
  5
519
331
E3C
  5
4A7
331
466
  5
472
331
4A1
  5
512
331
E38
  5
4A3
331
462
  5
46E
331
49D
  5
50E
331
423
  5
439
331
45E
  5
46A
331
499
  5
50A
331
51F
  5
57B
331
45A
  5
466
331
51B
  5
577
331
595
  5
5E0
331
4DC
  5
552
331
556
  5
5A7
331
517
  5
572
331
60F
  5
A7A
331
591
  5
5DC
331
4D8
  5
54E
331
58D
  5
5D8
331
513
  5
56E
331
60B
  5
A75
331
54E
  5
5A1
331
5CC
  5
617
331
589
  5
5D4
331
607
  5
A71
331
54A
  5
59D
331
5C8
  5
613
331
603
  5
A6D
331
7E6
  5
E66
331
5C4
  5
60F
331
7E2
  5
E62
331
5C0
  5
60B
331
A85
  5
E90
331
A81
  5
E8C
  0
XRECORD
  5
EB2
102
{ACAD_REACTORS
330
EB0
102
}
330
EB0
100
AcDbXrecord
280
     1
 70
     2
  0
XRECORD
  5
EB1
102
{ACAD_REACTORS
330
EB0
102
}
330
EB0
100
AcDbXrecord
280
     1
 40
1.25
  0
XRECORD
  5
EB3
102
{ACAD_REACTORS
330
EB0
102
}
330
EB0
100
AcDbXrecord
280
     1
 40
1.570796326794896
  0
LAYOUT
  5
22
102
{ACAD_XDICTIONARY
360
EB4
102
}
102
{ACAD_REACTORS
330
1A
102
}
330
1A
100
AcDbPlotSettings
  1

  2
none_device
  4
ANSI_A_(8.50_x_11.00_Inches)
  6

 40
6.349999904632567
 41
19.04999923706055
 42
6.350006103515625
 43
19.04998779296875
 44
215.8999938964844
 45
279.3999938964844
 46
0.0
 47
0.0
 48
0.0
 49
0.0
140
0.0
141
0.0
142
1.0
143
2.584895464708373
 70
 11952
 72
     0
 73
     1
 74
     0
  7

 75
     0
147
0.3868628397755418
148
0.0
149
0.0
100
AcDbLayout
  1
Model
 70
     1
 71
     0
 10
0.0
 20
0.0
 11
12.0
 21
9.0
 12
0.0
 22
0.0
 32
0.0
 14
0.0
 24
0.0
 34
0.0
 15
0.0
 25
0.0
 35
0.0
146
0.0
 13
0.0
 23
0.0
 33
0.0
 16
1.0
 26
0.0
 36
0.0
 17
0.0
 27
1.0
 37
0.0
 76
     0
330
1F
331
94
  0
LAYOUT
  5
59
102
{ACAD_XDICTIONARY
360
EB6
102
}
102
{ACAD_REACTORS
330
1A
102
}
330
1A
100
AcDbPlotSettings
  1

  2
None
  4

  6

 40
0.0
 41
0.0
 42
0.0
 43
0.0
 44
0.0
 45
0.0
 46
0.0
 47
0.0
 48
0.0
 49
0.0
140
0.0
141
0.0
142
1.0
143
1.0
 70
   688
 72
     0
 73
     0
 74
     5
  7

 75
    16
147
1.0
148
0.0
149
0.0
100
AcDbLayout
  1
レイアウト1
 70
     1
 71
     1
 10
0.0
 20
0.0
 11
12.0
 21
9.0
 12
0.0
 22
0.0
 32
0.0
 14
0.0
 24
0.0
 34
0.0
 15
0.0
 25
0.0
 35
0.0
146
0.0
 13
0.0
 23
0.0
 33
0.0
 16
1.0
 26
0.0
 36
0.0
 17
0.0
 27
1.0
 37
0.0
 76
     0
330
58
  0
LAYOUT
  5
5E
102
{ACAD_XDICTIONARY
360
EB8
102
}
102
{ACAD_REACTORS
330
1A
102
}
330
1A
100
AcDbPlotSettings
  1

  2
None
  4

  6

 40
0.0
 41
0.0
 42
0.0
 43
0.0
 44
0.0
 45
0.0
 46
0.0
 47
0.0
 48
0.0
 49
0.0
140
0.0
141
0.0
142
1.0
143
1.0
 70
   688
 72
     0
 73
     0
 74
     5
  7

 75
    16
147
1.0
148
0.0
149
0.0
100
AcDbLayout
  1
レイアウト2
 70
     1
 71
     2
 10
0.0
 20
0.0
 11
12.0
 21
9.0
 12
0.0
 22
0.0
 32
0.0
 14
0.0
 24
0.0
 34
0.0
 15
0.0
 25
0.0
 35
0.0
146
0.0
 13
0.0
 23
0.0
 33
0.0
 16
1.0
 26
0.0
 36
0.0
 17
0.0
 27
1.0
 37
0.0
 76
     0
330
5D
  0
MATERIAL
  5
97
102
{ACAD_XDICTIONARY
360
69C
102
}
102
{ACAD_REACTORS
330
72
102
}
330
72
100
AcDbMaterial
  1
ByBlock
  0
MATERIAL
  5
96
102
{ACAD_XDICTIONARY
360
69A
102
}
102
{ACAD_REACTORS
330
72
102
}
330
72
100
AcDbMaterial
  1
ByLayer
  0
MATERIAL
  5
98
102
{ACAD_XDICTIONARY
360
69E
102
}
102
{ACAD_REACTORS
330
72
102
}
330
72
100
AcDbMaterial
  1
Global
  0
MLEADERSTYLE
  5
6C3
102
{ACAD_REACTORS
330
6C2
102
}
330
6C2
100
AcDbMLeaderStyle
170
     2
171
     1
172
     0
 90
        2
 40
0.0
 41
0.0
173
     1
 91
-1056964608
340
14
 92
       -2
290
     1
 42
2.0
291
     1
 43
0.36
  3
Standard
 44
4.0
300

342
11
174
     1
178
     6
175
     1
176
     0
 93
-1056964608
 45
4.0
292
     0
297
     0
 46
4.0
 94
-1056964608
 47
1.0
 49
1.0
140
1.0
293
     1
141
0.0
294
     1
177
     0
142
1.0
295
     0
296
     0
143
0.125
1001
ACAD_MLEADERVER
1070
     2
  0
MLINESTYLE
  5
18
102
{ACAD_REACTORS
330
17
102
}
330
17
100
AcDbMlineStyle
  2
STANDARD
 70
     0
  3

 62
   256
 51
90.0
 52
90.0
 71
     2
 49
0.5
 62
   256
  6
BYLAYER
 49
-0.5
 62
   256
  6
BYLAYER
  0
ACDBPLACEHOLDER
  5
F
102
{ACAD_REACTORS
330
E
102
}
330
E
  0
SCALE
  5
6B1
102
{ACAD_REACTORS
330
6B0
102
}
330
6B0
100
AcDbScale
 70
     0
300
1:1
140
1.0
141
1.0
290
     1
  0
SCALE
  5
6B2
102
{ACAD_REACTORS
330
6B0
102
}
330
6B0
100
AcDbScale
 70
     0
300
1:2
140
1.0
141
2.0
290
     0
  0
SCALE
  5
6B3
102
{ACAD_REACTORS
330
6B0
102
}
330
6B0
100
AcDbScale
 70
     0
300
1:4
140
1.0
141
4.0
290
     0
  0
SCALE
  5
6B4
102
{ACAD_REACTORS
330
6B0
102
}
330
6B0
100
AcDbScale
 70
     0
300
1:5
140
1.0
141
5.0
290
     0
  0
SCALE
  5
6B5
102
{ACAD_REACTORS
330
6B0
102
}
330
6B0
100
AcDbScale
 70
     0
300
1:8
140
1.0
141
8.0
290
     0
  0
SCALE
  5
6B6
102
{ACAD_REACTORS
330
6B0
102
}
330
6B0
100
AcDbScale
 70
     0
300
1:10
140
1.0
141
10.0
290
     0
  0
SCALE
  5
6B7
102
{ACAD_REACTORS
330
6B0
102
}
330
6B0
100
AcDbScale
 70
     0
300
1:16
140
1.0
141
16.0
290
     0
  0
SCALE
  5
6B8
102
{ACAD_REACTORS
330
6B0
102
}
330
6B0
100
AcDbScale
 70
     0
300
1:20
140
1.0
141
20.0
290
     0
  0
SCALE
  5
6B9
102
{ACAD_REACTORS
330
6B0
102
}
330
6B0
100
AcDbScale
 70
     0
300
1:30
140
1.0
141
30.0
290
     0
  0
SCALE
  5
6BA
102
{ACAD_REACTORS
330
6B0
102
}
330
6B0
100
AcDbScale
 70
     0
300
1:40
140
1.0
141
40.0
290
     0
  0
SCALE
  5
6BB
102
{ACAD_REACTORS
330
6B0
102
}
330
6B0
100
AcDbScale
 70
     0
300
1:50
140
1.0
141
50.0
290
     0
  0
SCALE
  5
6BC
102
{ACAD_REACTORS
330
6B0
102
}
330
6B0
100
AcDbScale
 70
     0
300
1:100
140
1.0
141
100.0
290
     0
  0
SCALE
  5
6BD
102
{ACAD_REACTORS
330
6B0
102
}
330
6B0
100
AcDbScale
 70
     0
300
2:1
140
2.0
141
1.0
290
     0
  0
SCALE
  5
6BE
102
{ACAD_REACTORS
330
6B0
102
}
330
6B0
100
AcDbScale
 70
     0
300
4:1
140
4.0
141
1.0
290
     0
  0
SCALE
  5
6BF
102
{ACAD_REACTORS
330
6B0
102
}
330
6B0
100
AcDbScale
 70
     0
300
8:1
140
8.0
141
1.0
290
     0
  0
SCALE
  5
6C0
102
{ACAD_REACTORS
330
6B0
102
}
330
6B0
100
AcDbScale
 70
     0
300
10:1
140
10.0
141
1.0
290
     0
  0
SCALE
  5
6C1
102
{ACAD_REACTORS
330
6B0
102
}
330
6B0
100
AcDbScale
 70
     0
300
100:1
140
100.0
141
1.0
290
     0
  0
TABLESTYLE
  5
87
102
{ACAD_XDICTIONARY
360
8FD
102
}
102
{ACAD_REACTORS
330
86
102
}
330
86
100
AcDbTableStyle
  3
Standard
 70
     0
 71
     0
 40
0.06
 41
0.06
280
     0
281
     0
  7
Standard
140
0.18
170
     2
 62
     0
 63
     7
283
     0
274
    -2
284
     1
 64
     0
275
    -2
285
     1
 65
     0
276
    -2
286
     1
 66
     0
277
    -2
287
     1
 67
     0
278
    -2
288
     1
 68
     0
279
    -2
289
     1
 69
     0
  7
Standard
140
0.25
170
     5
 62
     0
 63
     7
283
     0
274
    -2
284
     1
 64
     0
275
    -2
285
     1
 65
     0
276
    -2
286
     1
 66
     0
277
    -2
287
     1
 67
     0
278
    -2
288
     1
 68
     0
279
    -2
289
     1
 69
     0
  7
Standard
140
0.18
170
     5
 62
     0
 63
     7
283
     0
274
    -2
284
     1
 64
     0
275
    -2
285
     1
 65
     0
276
    -2
286
     1
 66
     0
277
    -2
287
     1
 67
     0
278
    -2
288
     1
 68
     0
279
    -2
289
     1
 69
     0
  0
TABLESTYLE
  5
C67
102
{ACAD_XDICTIONARY
360
C68
102
}
102
{ACAD_REACTORS
330
86
102
}
330
86
100
AcDbTableStyle
  3
Standard
 70
     1
 71
     0
 40
1.5
 41
0.5
280
     0
281
     0
  7
高3.2
140
0.18
170
     7
 62
     3
 63
     7
283
     0
274
    -2
284
     1
 64
     3
275
    -2
285
     1
 65
     7
276
    -2
286
     1
 66
     3
277
    -2
287
     1
 67
     3
278
    -2
288
     1
 68
     7
279
    -2
289
     1
 69
     3
  7
高3.2
140
0.25
170
     8
 62
     3
 63
     7
283
     0
274
    -2
284
     1
 64
     0
275
    -2
285
     1
 65
     0
276
    -2
286
     1
 66
     0
277
    -2
287
     1
 67
     0
278
    -2
288
     1
 68
     0
279
    -2
289
     1
 69
     0
  7
高3.2
140
0.18
170
     7
 62
     3
 63
     7
283
     0
274
    -2
284
     1
 64
     3
275
    -2
285
     1
 65
     7
276
    -2
286
     1
 66
     3
277
    -2
287
     1
 67
     3
278
    -2
288
     1
 68
     7
279
    -2
289
     1
 69
     3
  0
VISUALSTYLE
  5
9F
102
{ACAD_XDICTIONARY
360
EC5
102
}
102
{ACAD_REACTORS
330
99
102
}
330
99
100
AcDbVisualStyle
  2

 70
     4
 71
     0
 72
     2
 73
     1
 90
        0
 40
-0.6
 41
-30.0
 62
     5
 63
     7
 74
     1
 91
        4
 64
     7
 65
   257
 75
     1
175
     1
 42
1.0
 92
        0
 66
   257
 43
1.0
 76
     1
 77
     6
 78
     2
 67
     7
 79
     5
170
     0
171
     0
290
     0
174
     0
 93
        1
 44
0.0
173
     0
291
     0
 45
0.0
1001
ACAD
1000
AcDbSavedByObjectVersion
1070
     0
  0
VISUALSTYLE
  5
A1
102
{ACAD_XDICTIONARY
360
EC9
102
}
102
{ACAD_REACTORS
330
99
102
}
330
99
100
AcDbVisualStyle
  2

 70
     6
 71
     1
 72
     2
 73
     2
 90
        0
 40
-0.6
 41
-30.0
 62
     5
 63
     7
 74
     2
 91
        2
 64
     7
 65
   257
 75
     2
175
     1
 42
40.0
 92
        0
 66
   257
 43
1.0
 76
     1
 77
     6
 78
     2
 67
     7
 79
     3
170
     0
171
     0
290
     0
174
     0
 93
        1
 44
0.0
173
     0
291
     0
 45
0.0
1001
ACAD
1000
AcDbSavedByObjectVersion
1070
     0
  0
VISUALSTYLE
  5
A0
102
{ACAD_XDICTIONARY
360
EC7
102
}
102
{ACAD_REACTORS
330
99
102
}
330
99
100
AcDbVisualStyle
  2

 70
     5
 71
     0
 72
     2
 73
     1
 90
        0
 40
-0.6
 41
-30.0
 62
     5
 63
     7
 74
     1
 91
        4
 64
     7
 65
   257
 75
     1
175
     1
 42
1.0
 92
        0
 66
   257
 43
1.0
 76
     1
 77
     6
 78
     2
 67
     7
 79
     5
170
     0
171
     0
290
     0
174
     0
 93
        1
 44
0.0
173
     0
291
     0
 45
0.0
1001
ACAD
1000
AcDbSavedByObjectVersion
1070
     0
  0
VISUALSTYLE
  5
9E
102
{ACAD_XDICTIONARY
360
EC3
102
}
102
{ACAD_REACTORS
330
99
102
}
330
99
100
AcDbVisualStyle
  2

 70
     7
 71
     1
 72
     0
 73
     1
 90
        0
 40
-0.6
 41
-30.0
 62
     5
 63
     7
 74
     0
 91
        4
 64
     7
 65
   257
 75
     1
175
     1
 42
1.0
 92
        8
 66
     7
 43
1.0
 76
     1
 77
     6
 78
     2
 67
     7
 79
     5
170
     0
171
     0
290
     0
174
     0
 93
        1
 44
0.0
173
     0
291
     1
 45
0.0
1001
ACAD
1000
AcDbSavedByObjectVersion
1070
     0
  0
VISUALSTYLE
  5
A5
102
{ACAD_XDICTIONARY
360
ED1
102
}
102
{ACAD_REACTORS
330
99
102
}
330
99
100
AcDbVisualStyle
  2

 70
    12
 71
     2
 72
     2
 73
     1
 90
        0
 40
-0.6
 41
-30.0
 62
     5
 63
     7
 74
     1
 91
        4
 64
     7
 65
   257
 75
     1
175
     1
 42
1.0
 92
        8
 66
     7
 43
1.0
 76
     1
 77
     6
 78
     2
 67
     7
 79
     5
170
     0
171
     0
290
     0
174
     0
 93
        1
 44
50.0
173
     0
291
     1
 45
0.0
1001
ACAD
1000
AcDbSavedByObjectVersion
1070
     0
  0
VISUALSTYLE
  5
A9
102
{ACAD_XDICTIONARY
360
ED9
102
}
102
{ACAD_REACTORS
330
99
102
}
330
99
100
AcDbVisualStyle
  2

 70
    16
 71
     2
 72
     2
 73
     3
 90
        0
 40
-0.6
 41
-30.0
 62
     5
 63
     8
 74
     1
 91
        4
 64
     7
 65
   257
 75
     1
175
     1
 42
1.0
 92
        8
 66
     8
 43
1.0
 76
     1
 77
     6
 78
     2
 67
     7
 79
     5
170
     0
171
     0
290
     0
174
     0
 93
        1
 44
0.0
173
     0
291
     1
 45
0.0
1001
ACAD
1000
AcDbSavedByObjectVersion
1070
     0
  0
VISUALSTYLE
  5
A2
102
{ACAD_XDICTIONARY
360
ECB
102
}
102
{ACAD_REACTORS
330
99
102
}
330
99
100
AcDbVisualStyle
  2

 70
     9
 71
     3
 72
     2
 73
     1
 90
        0
 40
-0.6
 41
-30.0
 62
     5
 63
     7
 74
     2
 91
        2
 64
     7
 65
   257
 75
     1
175
     1
 42
40.0
 92
        8
 66
     7
 43
1.0
 76
     1
 77
     6
 78
     2
 67
     7
 79
     3
170
     0
171
     0
290
     0
174
     0
 93
        1
 44
0.0
173
     0
291
     0
 45
0.0
1001
ACAD
1000
AcDbSavedByObjectVersion
1070
     0
  0
VISUALSTYLE
  5
A4
102
{ACAD_XDICTIONARY
360
ECF
102
}
102
{ACAD_REACTORS
330
99
102
}
330
99
100
AcDbVisualStyle
  2

 70
    11
 71
     2
 72
     2
 73
     1
 90
        0
 40
-0.6
 41
-30.0
 62
     5
 63
     7
 74
     1
 91
        4
 64
     7
 65
   257
 75
     1
175
     1
 42
1.0
 92
        8
 66
     7
 43
1.0
 76
     1
 77
     6
 78
     2
 67
     7
 79
     5
170
     0
171
     0
290
     0
174
     0
 93
        1
 44
-50.0
173
     0
291
     1
 45
0.0
1001
ACAD
1000
AcDbSavedByObjectVersion
1070
     0
  0
VISUALSTYLE
  5
6AF
102
{ACAD_XDICTIONARY
360
EED
102
}
102
{ACAD_REACTORS
330
99
102
}
330
99
100
AcDbVisualStyle
  2

 70
    22
 71
     2
 72
     2
 73
     0
 90
        0
 40
-0.6
 41
-30.0
 62
     5
 63
     7
 74
     1
 91
        4
 64
     7
 65
   257
 75
     1
175
     1
 42
1.0
 92
        8
 66
     7
 43
1.0
 76
     1
 77
     6
 78
     2
 67
     7
 79
     5
170
     0
171
     0
290
     0
174
     0
 93
        1
 44
0.0
173
     0
291
     1
 45
0.0
1001
ACAD
1000
AcDbSavedByObjectVersion
1070
     0
  0
VISUALSTYLE
  5
A8
102
{ACAD_XDICTIONARY
360
ED7
102
}
102
{ACAD_REACTORS
330
99
102
}
330
99
100
AcDbVisualStyle
  2

 70
    15
 71
     2
 72
     2
 73
     1
 90
        0
 40
-0.6
 41
-30.0
 62
     5
 63
     7
 74
     1
 91
        4
 64
     7
 65
   257
 75
     1
175
     1
 42
1.0
 92
        8
 66
     7
 43
1.0
 76
     1
 77
     6
 78
     2
 67
     7
 79
     5
170
     0
171
     0
290
     0
174
     0
 93
        1
 44
0.0
173
     0
291
     1
 45
0.0
1001
ACAD
1000
AcDbSavedByObjectVersion
1070
     0
  0
VISUALSTYLE
  5
9A
102
{ACAD_XDICTIONARY
360
EBB
102
}
102
{ACAD_REACTORS
330
99
102
}
330
99
100
AcDbVisualStyle
  2

 70
     0
 71
     2
 72
     1
 73
     1
 90
        2
 40
-0.6
 41
30.0
 62
     5
 63
     7
 74
     0
 91
        4
 64
     7
 65
   257
 75
     1
175
     1
 42
1.0
 92
        8
 66
     7
 43
1.0
 76
     1
 77
     6
 78
     2
 67
     7
 79
     5
170
     0
171
     0
290
     0
174
     0
 93
        1
 44
0.0
173
     0
291
     1
 45
0.0
1001
ACAD
1000
AcDbSavedByObjectVersion
1070
     0
  0
VISUALSTYLE
  5
9B
102
{ACAD_XDICTIONARY
360
EBD
102
}
102
{ACAD_REACTORS
330
99
102
}
330
99
100
AcDbVisualStyle
  2

 70
     1
 71
     2
 72
     1
 73
     1
 90
        2
 40
-0.6
 41
30.0
 62
     5
 63
     7
 74
     1
 91
        4
 64
     7
 65
   257
 75
     1
175
     1
 42
1.0
 92
        0
 66
   257
 43
1.0
 76
     1
 77
     6
 78
     2
 67
     7
 79
     5
170
     0
171
     0
290
     0
174
     0
 93
        1
 44
0.0
173
     0
291
     1
 45
0.0
1001
ACAD
1000
AcDbSavedByObjectVersion
1070
     0
  0
VISUALSTYLE
  5
9C
102
{ACAD_XDICTIONARY
360
EBF
102
}
102
{ACAD_REACTORS
330
99
102
}
330
99
100
AcDbVisualStyle
  2

 70
     2
 71
     2
 72
     2
 73
     1
 90
        2
 40
-0.6
 41
30.0
 62
     5
 63
     7
 74
     0
 91
        4
 64
     7
 65
   257
 75
     1
175
     1
 42
1.0
 92
        0
 66
     7
 43
1.0
 76
     1
 77
     6
 78
     2
 67
     7
 79
     5
170
     0
171
     0
290
     0
174
     0
 93
        1
 44
0.0
173
     0
291
     1
 45
0.0
1001
ACAD
1000
AcDbSavedByObjectVersion
1070
     0
  0
VISUALSTYLE
  5
9D
102
{ACAD_XDICTIONARY
360
EC1
102
}
102
{ACAD_REACTORS
330
99
102
}
330
99
100
AcDbVisualStyle
  2

 70
     3
 71
     2
 72
     2
 73
     1
 90
        2
 40
-0.6
 41
30.0
 62
     5
 63
     7
 74
     1
 91
        4
 64
     7
 65
   257
 75
     1
175
     1
 42
1.0
 92
        0
 66
   257
 43
1.0
 76
     1
 77
     6
 78
     2
 67
     7
 79
     5
170
     0
171
     0
290
     0
174
     0
 93
        1
 44
0.0
173
     0
291
     1
 45
0.0
1001
ACAD
1000
AcDbSavedByObjectVersion
1070
     0
  0
VISUALSTYLE
  5
6A7
102
{ACAD_XDICTIONARY
360
EDD
102
}
102
{ACAD_REACTORS
330
99
102
}
330
99
100
AcDbVisualStyle
  2

 70
     6
 71
     1
 72
     2
 73
     2
 90
        0
 40
-0.6
 41
-30.0
 62
     5
 63
     7
 74
     2
 91
        2
 64
     7
 65
   257
 75
     2
175
     1
 42
40.0
 92
        0
 66
   257
 43
1.0
 76
     1
 77
     6
 78
     2
 67
     7
 79
     3
170
     0
171
     0
290
     0
174
     0
 93
        1
 44
0.0
173
     0
291
     0
 45
0.0
1001
ACAD
1000
AcDbSavedByObjectVersion
1070
     0
  0
VISUALSTYLE
  5
6AD
102
{ACAD_XDICTIONARY
360
EE9
102
}
102
{ACAD_REACTORS
330
99
102
}
330
99
100
AcDbVisualStyle
  2

 70
    20
 71
     2
 72
     2
 73
     0
 90
        0
 40
-0.6
 41
-30.0
 62
     5
 63
     7
 74
     1
 91
        4
 64
     7
 65
   257
 75
     1
175
     1
 42
1.0
 92
       10
 66
     7
 43
1.0
 76
     1
 77
     6
 78
     2
 67
     7
 79
     5
170
     0
171
     0
290
     0
174
     0
 93
        1
 44
0.0
173
     0
291
     1
 45
0.0
1001
ACAD
1000
AcDbSavedByObjectVersion
1070
     0
  0
VISUALSTYLE
  5
A7
102
{ACAD_XDICTIONARY
360
ED5
102
}
102
{ACAD_REACTORS
330
99
102
}
330
99
100
AcDbVisualStyle
  2

 70
    14
 71
     2
 72
     2
 73
     1
 90
        0
 40
-0.6
 41
-30.0
 62
     5
 63
     7
 74
     1
 91
        4
 64
     7
 65
   257
 75
     7
175
     7
 42
1.0
 92
        8
 66
     7
 43
1.0
 76
     1
 77
     6
 78
     2
 67
     7
 79
     5
170
     0
171
     0
290
     0
174
     0
 93
        1
 44
0.0
173
     0
291
     1
 45
0.0
1001
ACAD
1000
AcDbSavedByObjectVersion
1070
     0
  0
VISUALSTYLE
  5
6AE
102
{ACAD_XDICTIONARY
360
EEB
102
}
102
{ACAD_REACTORS
330
99
102
}
330
99
100
AcDbVisualStyle
  2

 70
    21
 71
     2
 72
     2
 73
     0
 90
        0
 40
-0.6
 41
-30.0
 62
     5
 63
     7
 74
     1
 91
        4
 64
     7
 65
   257
 75
     1
175
     1
 42
1.0
 92
        9
 66
     7
 43
1.0
 76
     1
 77
     6
 78
     2
 67
     7
 79
     5
170
     0
171
     0
290
     0
174
     0
 93
        1
 44
0.0
173
     0
291
     1
 45
0.0
1001
ACAD
1000
AcDbSavedByObjectVersion
1070
     0
  0
VISUALSTYLE
  5
A3
102
{ACAD_XDICTIONARY
360
ECD
102
}
102
{ACAD_REACTORS
330
99
102
}
330
99
100
AcDbVisualStyle
  2

 70
     8
 71
     2
 72
     2
 73
     1
 90
        0
 40
-0.6
 41
-30.0
 62
     5
 63
     7
 74
     1
 91
        0
 64
     7
 65
   257
 75
     1
175
     1
 42
1.0
 92
        8
 66
     8
 43
1.0
 76
     1
 77
     6
 78
     2
 67
     7
 79
     5
170
     0
171
     0
290
     0
174
     0
 93
       13
 44
0.0
173
     0
291
     0
 45
0.0
1001
ACAD
1000
AcDbSavedByObjectVersion
1070
     0
  0
VISUALSTYLE
  5
6AC
102
{ACAD_XDICTIONARY
360
EE7
102
}
102
{ACAD_REACTORS
330
99
102
}
330
99
100
AcDbVisualStyle
  2

 70
    27
 71
     2
 72
     2
 73
     1
 90
        2
 40
-0.6
 41
30.0
 62
     5
 63
     7
 74
     0
 91
        4
 64
     7
 65
   257
 75
     1
175
     1
 42
1.0
 92
        8
 66
   257
 43
1.0
 76
     1
 77
     6
 78
     2
 67
     8
 79
     3
170
     0
171
     0
290
     0
174
     0
 93
        5
 44
0.0
173
     0
291
     0
 45
0.0
1001
ACAD
1000
AcDbSavedByObjectVersion
1070
     0
  0
VISUALSTYLE
  5
6AB
102
{ACAD_XDICTIONARY
360
EE5
102
}
102
{ACAD_REACTORS
330
99
102
}
330
99
100
AcDbVisualStyle
  2

 70
    26
 71
     2
 72
     2
 73
     1
 90
        2
 40
-0.6
 41
30.0
 62
     5
 63
     7
 74
     1
 91
       10
 64
     7
 65
   257
 75
     2
175
     1
 42
1.0
 92
        8
 66
   257
 43
1.0
 76
     1
 77
     6
 78
     2
 67
     7
 79
     3
170
     0
171
     0
290
     0
174
     0
 93
        5
 44
0.0
173
     0
291
     0
 45
0.0
1001
ACAD
1000
AcDbSavedByObjectVersion
1070
     0
  0
VISUALSTYLE
  5
6A8
102
{ACAD_XDICTIONARY
360
EDF
102
}
102
{ACAD_REACTORS
330
99
102
}
330
99
100
AcDbVisualStyle
  2

 70
    23
 71
     2
 72
     2
 73
     3
 90
        0
 40
-0.6
 41
-30.0
 62
     5
 63
     7
 74
     2
 91
        2
 64
     7
 65
     7
 75
     1
175
     1
 42
40.0
 92
        8
 66
     7
 43
1.0
 76
     1
 77
     6
 78
     2
 67
     7
 79
     3
170
     0
171
     0
290
     0
174
     0
 93
        1
 44
0.0
173
     0
291
     0
 45
0.0
1001
ACAD
1000
AcDbSavedByObjectVersion
1070
     0
  0
VISUALSTYLE
  5
6A9
102
{ACAD_XDICTIONARY
360
EE1
102
}
102
{ACAD_REACTORS
330
99
102
}
330
99
100
AcDbVisualStyle
  2

 70
    24
 71
     1
 72
     2
 73
     2
 90
        0
 40
-0.6
 41
-30.0
 62
     5
 63
     7
 74
     2
 91
        2
 64
     7
 65
     7
 75
     1
175
     1
 42
40.0
 92
       11
 66
     7
 43
1.0
 76
     1
 77
     6
 78
     2
 67
     7
 79
     6
170
     0
171
     0
290
     0
174
     0
 93
        1
 44
0.0
173
     0
291
     0
 45
0.0
1001
ACAD
1000
AcDbSavedByObjectVersion
1070
     0
  0
VISUALSTYLE
  5
A6
102
{ACAD_XDICTIONARY
360
ED3
102
}
102
{ACAD_REACTORS
330
99
102
}
330
99
100
AcDbVisualStyle
  2

 70
    13
 71
     2
 72
     2
 73
     1
 90
        0
 40
-0.6
 41
-30.0
 62
     5
 63
     7
 74
     1
 91
        4
 64
     7
 65
   257
 75
     1
175
     1
 42
1.0
 92
       12
 66
     7
 43
1.0
 76
     1
 77
     6
 78
     2
 67
     7
 79
     5
170
     0
171
     0
290
     0
174
     0
 93
        1
 44
0.0
173
     0
291
     1
 45
0.0
1001
ACAD
1000
AcDbSavedByObjectVersion
1070
     0
  0
VISUALSTYLE
  5
6A6
102
{ACAD_XDICTIONARY
360
EDB
102
}
102
{ACAD_REACTORS
330
99
102
}
330
99
100
AcDbVisualStyle
  2

 70
     5
 71
     0
 72
     2
 73
     0
 90
        0
 40
-0.6
 41
-30.0
 62
     5
 63
     7
 74
     1
 91
        4
 64
     7
 65
   257
 75
     1
175
     1
 42
1.0
 92
        0
 66
   257
 43
1.0
 76
     1
 77
     6
 78
     2
 67
     7
 79
     3
170
     0
171
     0
290
     0
174
     0
 93
        1
 44
0.0
173
     0
291
     0
 45
0.0
1001
ACAD
1000
AcDbSavedByObjectVersion
1070
     0
  0
VISUALSTYLE
  5
6AA
102
{ACAD_XDICTIONARY
360
EE3
102
}
102
{ACAD_REACTORS
330
99
102
}
330
99
100
AcDbVisualStyle
  2

 70
    25
 71
     2
 72
     2
 73
     1
 90
        1
 40
0.5
 41
-30.0
 62
     5
 63
     7
 74
     1
 91
        0
 64
     7
 65
   257
 75
     1
175
     1
 42
1.0
 92
        8
 66
     7
 43
1.0
 76
     1
 77
     6
 78
     2
 67
     7
 79
     3
170
     0
171
     0
290
     0
174
     0
 93
       13
 44
0.0
173
     0
291
     0
 45
0.0
1001
ACAD
1000
AcDbSavedByObjectVersion
1070
     0
  0
DICTIONARYVAR
  5
8FB
102
{ACAD_REACTORS
330
66
102
}
330
66
100
DictionaryVariables
280
     0
  1
1:1
  0
DICTIONARYVAR
  5
8FA
102
{ACAD_REACTORS
330
66
102
}
330
66
100
DictionaryVariables
280
     0
  1
STANDARD
  0
DICTIONARYVAR
  5
89
102
{ACAD_REACTORS
330
66
102
}
330
66
100
DictionaryVariables
280
     0
  1
STANDARD
  0
DICTIONARYVAR
  5
67
102
{ACAD_REACTORS
330
66
102
}
330
66
100
DictionaryVariables
280
     0
  1
2
  0
DICTIONARYVAR
  5
6B
102
{ACAD_REACTORS
330
66
102
}
330
66
100
DictionaryVariables
280
     0
  1
1
  0
DICTIONARYVAR
  5
68C
102
{ACAD_REACTORS
330
66
102
}
330
66
100
DictionaryVariables
280
     0
  1
0
  0
DICTIONARYVAR
  5
68B
102
{ACAD_REACTORS
330
66
102
}
330
66
100
DictionaryVariables
280
     0
  1
127
  0
DICTIONARYVAR
  5
ACB
102
{ACAD_REACTORS
330
66
102
}
330
66
100
DictionaryVariables
280
     0
  1
2
  0
DICTIONARY
  5
EB4
330
22
100
AcDbDictionary
280
     1
281
     1
  3
ACAD_XREC_ROUNDTRIP
360
EB5
  0
DICTIONARY
  5
EB6
330
59
100
AcDbDictionary
280
     1
281
     1
  3
ACAD_XREC_ROUNDTRIP
360
EB7
  0
DICTIONARY
  5
EB8
330
5E
100
AcDbDictionary
280
     1
281
     1
  3
ACAD_XREC_ROUNDTRIP
360
EB9
  0
DICTIONARY
  5
69C
330
97
100
AcDbDictionary
280
     1
281
     1
  3
ACAD_XREC_ROUNDTRIP
360
69D
  0
DICTIONARY
  5
69A
330
96
100
AcDbDictionary
280
     1
281
     1
  3
ACAD_XREC_ROUNDTRIP
360
69B
  0
DICTIONARY
  5
69E
330
98
100
AcDbDictionary
280
     1
281
     1
  3
ACAD_XREC_ROUNDTRIP
360
69F
  0
DICTIONARY
  5
8FD
330
87
100
AcDbDictionary
280
     1
281
     1
  3
ACAD_ROUNDTRIP_2008_TABLESTYLE_CELLSTYLEMAP
360
EAC
  3
ACAD_XREC_ROUNDTRIP
360
EBA
  0
DICTIONARY
  5
C68
330
C67
100
AcDbDictionary
280
     1
281
     1
  3
ACAD_ROUNDTRIP_2008_TABLESTYLE_CELLSTYLEMAP
360
EAD
  3
ACAD_XREC_ROUNDTRIP
360
EEF
  0
DICTIONARY
  5
EC5
330
9F
100
AcDbDictionary
280
     1
281
     1
  3
ACAD_XREC_ROUNDTRIP
360
EC6
  0
DICTIONARY
  5
EC9
330
A1
100
AcDbDictionary
280
     1
281
     1
  3
ACAD_XREC_ROUNDTRIP
360
ECA
  0
DICTIONARY
  5
EC7
330
A0
100
AcDbDictionary
280
     1
281
     1
  3
ACAD_XREC_ROUNDTRIP
360
EC8
  0
DICTIONARY
  5
EC3
330
9E
100
AcDbDictionary
280
     1
281
     1
  3
ACAD_XREC_ROUNDTRIP
360
EC4
  0
DICTIONARY
  5
ED1
330
A5
100
AcDbDictionary
280
     1
281
     1
  3
ACAD_XREC_ROUNDTRIP
360
ED2
  0
DICTIONARY
  5
ED9
330
A9
100
AcDbDictionary
280
     1
281
     1
  3
ACAD_XREC_ROUNDTRIP
360
EDA
  0
DICTIONARY
  5
ECB
330
A2
100
AcDbDictionary
280
     1
281
     1
  3
ACAD_XREC_ROUNDTRIP
360
ECC
  0
DICTIONARY
  5
ECF
330
A4
100
AcDbDictionary
280
     1
281
     1
  3
ACAD_XREC_ROUNDTRIP
360
ED0
  0
DICTIONARY
  5
EED
330
6AF
100
AcDbDictionary
280
     1
281
     1
  3
ACAD_XREC_ROUNDTRIP
360
EEE
  0
DICTIONARY
  5
ED7
330
A8
100
AcDbDictionary
280
     1
281
     1
  3
ACAD_XREC_ROUNDTRIP
360
ED8
  0
DICTIONARY
  5
EBB
330
9A
100
AcDbDictionary
280
     1
281
     1
  3
ACAD_XREC_ROUNDTRIP
360
EBC
  0
DICTIONARY
  5
EBD
330
9B
100
AcDbDictionary
280
     1
281
     1
  3
ACAD_XREC_ROUNDTRIP
360
EBE
  0
DICTIONARY
  5
EBF
330
9C
100
AcDbDictionary
280
     1
281
     1
  3
ACAD_XREC_ROUNDTRIP
360
EC0
  0
DICTIONARY
  5
EC1
330
9D
100
AcDbDictionary
280
     1
281
     1
  3
ACAD_XREC_ROUNDTRIP
360
EC2
  0
DICTIONARY
  5
EDD
330
6A7
100
AcDbDictionary
280
     1
281
     1
  3
ACAD_XREC_ROUNDTRIP
360
EDE
  0
DICTIONARY
  5
EE9
330
6AD
100
AcDbDictionary
280
     1
281
     1
  3
ACAD_XREC_ROUNDTRIP
360
EEA
  0
DICTIONARY
  5
ED5
330
A7
100
AcDbDictionary
280
     1
281
     1
  3
ACAD_XREC_ROUNDTRIP
360
ED6
  0
DICTIONARY
  5
EEB
330
6AE
100
AcDbDictionary
280
     1
281
     1
  3
ACAD_XREC_ROUNDTRIP
360
EEC
  0
DICTIONARY
  5
ECD
330
A3
100
AcDbDictionary
280
     1
281
     1
  3
ACAD_XREC_ROUNDTRIP
360
ECE
  0
DICTIONARY
  5
EE7
330
6AC
100
AcDbDictionary
280
     1
281
     1
  3
ACAD_XREC_ROUNDTRIP
360
EE8
  0
DICTIONARY
  5
EE5
330
6AB
100
AcDbDictionary
280
     1
281
     1
  3
ACAD_XREC_ROUNDTRIP
360
EE6
  0
DICTIONARY
  5
EDF
330
6A8
100
AcDbDictionary
280
     1
281
     1
  3
ACAD_XREC_ROUNDTRIP
360
EE0
  0
DICTIONARY
  5
EE1
330
6A9
100
AcDbDictionary
280
     1
281
     1
  3
ACAD_XREC_ROUNDTRIP
360
EE2
  0
DICTIONARY
  5
ED3
330
A6
100
AcDbDictionary
280
     1
281
     1
  3
ACAD_XREC_ROUNDTRIP
360
ED4
  0
DICTIONARY
  5
EDB
330
6A6
100
AcDbDictionary
280
     1
281
     1
  3
ACAD_XREC_ROUNDTRIP
360
EDC
  0
DICTIONARY
  5
EE3
330
6AA
100
AcDbDictionary
280
     1
281
     1
  3
ACAD_XREC_ROUNDTRIP
360
EE4
  0
XRECORD
  5
EB5
102
{ACAD_REACTORS
330
EB4
102
}
330
EB4
100
AcDbXrecord
280
     1
102
SHADEPLOT
 70
     0
102
SHADEPLOTRESLEVEL
 70
     2
102
SHADEPLOTCUSTOMDPI
 70
   300
  0
XRECORD
  5
EB7
102
{ACAD_REACTORS
330
EB6
102
}
330
EB6
100
AcDbXrecord
280
     1
102
SHADEPLOT
 70
     0
102
SHADEPLOTRESLEVEL
 70
     2
102
SHADEPLOTCUSTOMDPI
 70
   300
  0
XRECORD
  5
EB9
102
{ACAD_REACTORS
330
EB8
102
}
330
EB8
100
AcDbXrecord
280
     1
102
SHADEPLOT
 70
     0
102
SHADEPLOTRESLEVEL
 70
     2
102
SHADEPLOTCUSTOMDPI
 70
   300
  0
XRECORD
  5
69D
102
{ACAD_REACTORS
330
69C
102
}
330
69C
100
AcDbXrecord
280
     1
102
MATERIAL
148
0.0
149
0.0
149
0.0
 93
        0
 94
      127
282
     0
 72
     1
 77
     1
171
     1
175
     1
179
     1
273
     0
  0
XRECORD
  5
69B
102
{ACAD_REACTORS
330
69A
102
}
330
69A
100
AcDbXrecord
280
     1
102
MATERIAL
148
0.0
149
0.0
149
0.0
 93
        0
 94
      127
282
     0
 72
     1
 77
     1
171
     1
175
     1
179
     1
273
     0
  0
XRECORD
  5
69F
102
{ACAD_REACTORS
330
69E
102
}
330
69E
100
AcDbXrecord
280
     1
102
MATERIAL
148
0.0
149
0.0
149
0.0
 93
        0
 94
      127
282
     0
 72
     1
 77
     1
171
     1
175
     1
179
     1
273
     0
  0
CELLSTYLEMAP
  5
EAC
102
{ACAD_REACTORS
330
8FD
102
}
330
8FD
100
AcDbCellStyleMap
 90
        3
300
CELLSTYLE
  1
TABLEFORMAT_BEGIN
 90
        5
170
     1
 91
        0
 92
    32768
 62
   257
 93
        1
300
CONTENTFORMAT
  1
CONTENTFORMAT_BEGIN
 90
        0
 91
        0
 92
      512
 93
        0
300

 40
0.0
140
1.0
 94
        5
 62
     0
340
11
144
0.25
309
CONTENTFORMAT_END
171
     1
301
MARGIN
  1
CELLMARGIN_BEGIN
 40
0.06
 40
0.06
 40
0.06
 40
0.06
 40
0.18
 40
0.18
309
CELLMARGIN_END
 94
        6
 95
        1
302
GRIDFORMAT
  1
GRIDFORMAT_BEGIN
 90
        0
 91
        1
 62
     0
 92
       -2
340
0
 93
        0
 40
0.045
309
GRIDFORMAT_END
 95
        2
302
GRIDFORMAT
  1
GRIDFORMAT_BEGIN
 90
        0
 91
        1
 62
     0
 92
       -2
340
0
 93
        0
 40
0.045
309
GRIDFORMAT_END
 95
        4
302
GRIDFORMAT
  1
GRIDFORMAT_BEGIN
 90
        0
 91
        1
 62
     0
 92
       -2
340
0
 93
        0
 40
0.045
309
GRIDFORMAT_END
 95
        8
302
GRIDFORMAT
  1
GRIDFORMAT_BEGIN
 90
        0
 91
        1
 62
     0
 92
       -2
340
0
 93
        0
 40
0.045
309
GRIDFORMAT_END
 95
       16
302
GRIDFORMAT
  1
GRIDFORMAT_BEGIN
 90
        0
 91
        1
 62
     0
 92
       -2
340
0
 93
        0
 40
0.045
309
GRIDFORMAT_END
 95
       32
302
GRIDFORMAT
  1
GRIDFORMAT_BEGIN
 90
        0
 91
        1
 62
     0
 92
       -2
340
0
 93
        0
 40
0.045
309
GRIDFORMAT_END
309
TABLEFORMAT_END
  1
CELLSTYLE_BEGIN
 90
        1
 91
        1
300
_TITLE
309
CELLSTYLE_END
300
CELLSTYLE
  1
TABLEFORMAT_BEGIN
 90
        5
170
     1
 91
        0
 92
        0
 62
   257
 93
        1
300
CONTENTFORMAT
  1
CONTENTFORMAT_BEGIN
 90
        0
 91
        0
 92
      512
 93
        0
300

 40
0.0
140
1.0
 94
        5
 62
     0
340
11
144
0.18
309
CONTENTFORMAT_END
171
     1
301
MARGIN
  1
CELLMARGIN_BEGIN
 40
0.06
 40
0.06
 40
0.06
 40
0.06
 40
0.18
 40
0.18
309
CELLMARGIN_END
 94
        6
 95
        1
302
GRIDFORMAT
  1
GRIDFORMAT_BEGIN
 90
        0
 91
        1
 62
     0
 92
       -2
340
0
 93
        0
 40
0.045
309
GRIDFORMAT_END
 95
        2
302
GRIDFORMAT
  1
GRIDFORMAT_BEGIN
 90
        0
 91
        1
 62
     0
 92
       -2
340
0
 93
        0
 40
0.045
309
GRIDFORMAT_END
 95
        4
302
GRIDFORMAT
  1
GRIDFORMAT_BEGIN
 90
        0
 91
        1
 62
     0
 92
       -2
340
0
 93
        0
 40
0.045
309
GRIDFORMAT_END
 95
        8
302
GRIDFORMAT
  1
GRIDFORMAT_BEGIN
 90
        0
 91
        1
 62
     0
 92
       -2
340
0
 93
        0
 40
0.045
309
GRIDFORMAT_END
 95
       16
302
GRIDFORMAT
  1
GRIDFORMAT_BEGIN
 90
        0
 91
        1
 62
     0
 92
       -2
340
0
 93
        0
 40
0.045
309
GRIDFORMAT_END
 95
       32
302
GRIDFORMAT
  1
GRIDFORMAT_BEGIN
 90
        0
 91
        1
 62
     0
 92
       -2
340
0
 93
        0
 40
0.045
309
GRIDFORMAT_END
309
TABLEFORMAT_END
  1
CELLSTYLE_BEGIN
 90
        2
 91
        1
300
_HEADER
309
CELLSTYLE_END
300
CELLSTYLE
  1
TABLEFORMAT_BEGIN
 90
        5
170
     1
 91
        0
 92
        0
 62
   257
 93
        1
300
CONTENTFORMAT
  1
CONTENTFORMAT_BEGIN
 90
        0
 91
        0
 92
      512
 93
        0
300

 40
0.0
140
1.0
 94
        2
 62
     0
340
11
144
0.18
309
CONTENTFORMAT_END
171
     1
301
MARGIN
  1
CELLMARGIN_BEGIN
 40
0.06
 40
0.06
 40
0.06
 40
0.06
 40
0.18
 40
0.18
309
CELLMARGIN_END
 94
        6
 95
        1
302
GRIDFORMAT
  1
GRIDFORMAT_BEGIN
 90
        0
 91
        1
 62
     0
 92
       -2
340
0
 93
        0
 40
0.045
309
GRIDFORMAT_END
 95
        2
302
GRIDFORMAT
  1
GRIDFORMAT_BEGIN
 90
        0
 91
        1
 62
     0
 92
       -2
340
0
 93
        0
 40
0.045
309
GRIDFORMAT_END
 95
        4
302
GRIDFORMAT
  1
GRIDFORMAT_BEGIN
 90
        0
 91
        1
 62
     0
 92
       -2
340
0
 93
        0
 40
0.045
309
GRIDFORMAT_END
 95
        8
302
GRIDFORMAT
  1
GRIDFORMAT_BEGIN
 90
        0
 91
        1
 62
     0
 92
       -2
340
0
 93
        0
 40
0.045
309
GRIDFORMAT_END
 95
       16
302
GRIDFORMAT
  1
GRIDFORMAT_BEGIN
 90
        0
 91
        1
 62
     0
 92
       -2
340
0
 93
        0
 40
0.045
309
GRIDFORMAT_END
 95
       32
302
GRIDFORMAT
  1
GRIDFORMAT_BEGIN
 90
        0
 91
        1
 62
     0
 92
       -2
340
0
 93
        0
 40
0.045
309
GRIDFORMAT_END
309
TABLEFORMAT_END
  1
CELLSTYLE_BEGIN
 90
        3
 91
        2
300
_DATA
309
CELLSTYLE_END
  0
XRECORD
  5
EBA
102
{ACAD_REACTORS
330
8FD
102
}
330
8FD
100
AcDbXrecord
280
     1
102
ACAD_ROUNDTRIP_PRE2007_TABLESTYLE
 90
      512
 91
        0
  1

 92
      512
 93
        0
  2

 94
      512
 95
        0
  3

  0
CELLSTYLEMAP
  5
EAD
102
{ACAD_REACTORS
330
C68
102
}
330
C68
100
AcDbCellStyleMap
 90
        3
300
CELLSTYLE
  1
TABLEFORMAT_BEGIN
 90
        5
170
     1
 91
        0
 92
    32768
 62
   257
 93
        1
300
CONTENTFORMAT
  1
CONTENTFORMAT_BEGIN
 90
        0
 91
        0
 92
      512
 93
        0
300

 40
0.0
140
1.0
 94
        8
 62
     3
340
11D
144
0.25
309
CONTENTFORMAT_END
171
     1
301
MARGIN
  1
CELLMARGIN_BEGIN
 40
0.5
 40
10.0
 40
0.06
 40
0.06
 40
0.18
 40
0.18
309
CELLMARGIN_END
 94
        6
 95
        1
302
GRIDFORMAT
  1
GRIDFORMAT_BEGIN
 90
        0
 91
        1
 62
     0
 92
       -2
340
0
 93
        0
 40
0.045
309
GRIDFORMAT_END
 95
        2
302
GRIDFORMAT
  1
GRIDFORMAT_BEGIN
 90
        0
 91
        1
 62
     0
 92
       -2
340
0
 93
        0
 40
0.045
309
GRIDFORMAT_END
 95
        4
302
GRIDFORMAT
  1
GRIDFORMAT_BEGIN
 90
        0
 91
        1
 62
     0
 92
       -2
340
0
 93
        0
 40
0.045
309
GRIDFORMAT_END
 95
        8
302
GRIDFORMAT
  1
GRIDFORMAT_BEGIN
 90
        0
 91
        1
 62
     0
 92
       -2
340
0
 93
        0
 40
0.045
309
GRIDFORMAT_END
 95
       16
302
GRIDFORMAT
  1
GRIDFORMAT_BEGIN
 90
        0
 91
        1
 62
     0
 92
       -2
340
0
 93
        0
 40
0.045
309
GRIDFORMAT_END
 95
       32
302
GRIDFORMAT
  1
GRIDFORMAT_BEGIN
 90
        0
 91
        1
 62
     0
 92
       -2
340
0
 93
        0
 40
0.045
309
GRIDFORMAT_END
309
TABLEFORMAT_END
  1
CELLSTYLE_BEGIN
 90
        1
 91
        1
300
_TITLE
309
CELLSTYLE_END
300
CELLSTYLE
  1
TABLEFORMAT_BEGIN
 90
        5
170
     1
 91
        0
 92
        0
 62
   257
 93
        1
300
CONTENTFORMAT
  1
CONTENTFORMAT_BEGIN
 90
        0
 91
        0
 92
      512
 93
        0
300

 40
0.0
140
1.0
 94
        7
 62
     3
340
11D
144
0.18
309
CONTENTFORMAT_END
171
     1
301
MARGIN
  1
CELLMARGIN_BEGIN
 40
0.5
 40
1.5
 40
0.06
 40
0.06
 40
0.18
 40
0.18
309
CELLMARGIN_END
 94
        6
 95
        1
302
GRIDFORMAT
  1
GRIDFORMAT_BEGIN
 90
        0
 91
        1
 62
     3
 92
       -2
340
14
 93
        0
 40
0.045
309
GRIDFORMAT_END
 95
        2
302
GRIDFORMAT
  1
GRIDFORMAT_BEGIN
 90
        0
 91
        1
 62
     7
 92
       -2
340
14
 93
        0
 40
0.045
309
GRIDFORMAT_END
 95
        4
302
GRIDFORMAT
  1
GRIDFORMAT_BEGIN
 90
        0
 91
        1
 62
     3
 92
       -2
340
14
 93
        0
 40
0.045
309
GRIDFORMAT_END
 95
        8
302
GRIDFORMAT
  1
GRIDFORMAT_BEGIN
 90
        0
 91
        1
 62
     3
 92
       -2
340
14
 93
        0
 40
0.045
309
GRIDFORMAT_END
 95
       16
302
GRIDFORMAT
  1
GRIDFORMAT_BEGIN
 90
        0
 91
        1
 62
     7
 92
       -2
340
14
 93
        0
 40
0.045
309
GRIDFORMAT_END
 95
       32
302
GRIDFORMAT
  1
GRIDFORMAT_BEGIN
 90
        0
 91
        1
 62
     3
 92
       -2
340
14
 93
        0
 40
0.045
309
GRIDFORMAT_END
309
TABLEFORMAT_END
  1
CELLSTYLE_BEGIN
 90
        2
 91
        1
300
_HEADER
309
CELLSTYLE_END
300
CELLSTYLE
  1
TABLEFORMAT_BEGIN
 90
        5
170
     1
 91
        0
 92
        0
 62
   257
 93
        1
300
CONTENTFORMAT
  1
CONTENTFORMAT_BEGIN
 90
        0
 91
        0
 92
      512
 93
        0
300

 40
0.0
140
1.0
 94
        7
 62
     3
340
11D
144
0.18
309
CONTENTFORMAT_END
171
     1
301
MARGIN
  1
CELLMARGIN_BEGIN
 40
0.5
 40
1.5
 40
0.06
 40
0.06
 40
0.18
 40
0.18
309
CELLMARGIN_END
 94
        6
 95
        1
302
GRIDFORMAT
  1
GRIDFORMAT_BEGIN
 90
        0
 91
        1
 62
     3
 92
       -2
340
14
 93
        0
 40
0.045
309
GRIDFORMAT_END
 95
        2
302
GRIDFORMAT
  1
GRIDFORMAT_BEGIN
 90
        0
 91
        1
 62
     7
 92
       -2
340
14
 93
        0
 40
0.045
309
GRIDFORMAT_END
 95
        4
302
GRIDFORMAT
  1
GRIDFORMAT_BEGIN
 90
        0
 91
        1
 62
     3
 92
       -2
340
14
 93
        0
 40
0.045
309
GRIDFORMAT_END
 95
        8
302
GRIDFORMAT
  1
GRIDFORMAT_BEGIN
 90
        0
 91
        1
 62
     3
 92
       -2
340
14
 93
        0
 40
0.045
309
GRIDFORMAT_END
 95
       16
302
GRIDFORMAT
  1
GRIDFORMAT_BEGIN
 90
        0
 91
        1
 62
     7
 92
       -2
340
14
 93
        0
 40
0.045
309
GRIDFORMAT_END
 95
       32
302
GRIDFORMAT
  1
GRIDFORMAT_BEGIN
 90
        0
 91
        1
 62
     3
 92
       -2
340
14
 93
        0
 40
0.045
309
GRIDFORMAT_END
309
TABLEFORMAT_END
  1
CELLSTYLE_BEGIN
 90
        3
 91
        2
300
_DATA
309
CELLSTYLE_END
  0
XRECORD
  5
EEF
102
{ACAD_REACTORS
330
C68
102
}
330
C68
100
AcDbXrecord
280
     1
102
ACAD_ROUNDTRIP_PRE2007_TABLESTYLE
 90
      512
 91
        0
  1

 92
      512
 93
        0
  2

 94
      512
 95
        0
  3

  0
XRECORD
  5
EC6
102
{ACAD_REACTORS
330
EC5
102
}
330
EC5
100
AcDbXrecord
280
     1
102
RTVSPropertyOp0
 70
     1
102
RTVSPropertyOp1
 70
     1
102
RTVSPropertyOp2
 70
     1
102
RTVSPropertyOp3
 70
     1
102
RTVSPropertyOp4
 70
     1
102
RTVSPropertyOp5
 70
     1
102
RTVSPropertyOp6
 70
     1
102
RTVSPropertyOp7
 70
     1
102
RTVSPropertyOp8
 70
     1
102
RTVSPropertyOp9
 70
     1
102
RTVSPropertyOp10
 70
     1
102
RTVSPropertyOp11
 70
     1
102
RTVSPropertyOp12
 70
     1
102
RTVSPropertyOp13
 70
     1
102
RTVSPropertyOp14
 70
     1
102
RTVSPropertyOp15
 70
     1
102
RTVSPropertyOp16
 70
     1
102
RTVSPropertyOp17
 70
     1
102
RTVSPropertyOp18
 70
     1
102
RTVSPropertyOp19
 70
     1
102
RTVSPropertyOp20
 70
     1
102
RTVSPropertyOp21
 70
     1
102
RTVSPropertyOp22
 70
     1
102
RTVSPropertyOp23
 70
     1
102
RTVSPropertyOp24
 70
     1
102
RTVSPropertyOp25
 70
     1
102
RTVSPropertyOp26
 70
     1
102
RTVSPropertyOp27
 70
     1
102
RTVSPropertyOp28
 70
     1
102
RTVSPropertyOp29
 70
     1
102
RTVSPropertyOp30
 70
     1
102
RTVSPropertyOp31
 70
     1
102
RTVSPropertyOp32
 70
     1
  0
XRECORD
  5
ECA
102
{ACAD_REACTORS
330
EC9
102
}
330
EC9
100
AcDbXrecord
280
     1
102
RTVSPropertyOp0
 70
     1
102
RTVSPropertyOp1
 70
     1
102
RTVSPropertyOp2
 70
     1
102
RTVSPropertyOp3
 70
     1
102
RTVSPropertyOp4
 70
     1
102
RTVSPropertyOp5
 70
     1
102
RTVSPropertyOp6
 70
     1
102
RTVSPropertyOp7
 70
     1
102
RTVSPropertyOp8
 70
     1
102
RTVSPropertyOp9
 70
     1
102
RTVSPropertyOp10
 70
     1
102
RTVSPropertyOp11
 70
     1
102
RTVSPropertyOp12
 70
     1
102
RTVSPropertyOp13
 70
     1
102
RTVSPropertyOp14
 70
     1
102
RTVSPropertyOp15
 70
     1
102
RTVSPropertyOp16
 70
     1
102
RTVSPropertyOp17
 70
     1
102
RTVSPropertyOp18
 70
     1
102
RTVSPropertyOp19
 70
     1
102
RTVSPropertyOp20
 70
     1
102
RTVSPropertyOp21
 70
     1
102
RTVSPropertyOp22
 70
     1
102
RTVSPropertyOp23
 70
     1
102
RTVSPropertyOp24
 70
     1
102
RTVSPropertyOp25
 70
     1
102
RTVSPropertyOp26
 70
     1
102
RTVSPropertyOp27
 70
     1
102
RTVSPropertyOp28
 70
     1
102
RTVSPropertyOp29
 70
     1
102
RTVSPropertyOp30
 70
     1
102
RTVSPropertyOp31
 70
     1
102
RTVSPropertyOp32
 70
     1
  0
XRECORD
  5
EC8
102
{ACAD_REACTORS
330
EC7
102
}
330
EC7
100
AcDbXrecord
280
     1
102
RTVSPropertyOp0
 70
     1
102
RTVSPropertyOp1
 70
     1
102
RTVSPropertyOp2
 70
     1
102
RTVSPropertyOp3
 70
     1
102
RTVSPropertyOp4
 70
     1
102
RTVSPropertyOp5
 70
     1
102
RTVSPropertyOp6
 70
     1
102
RTVSPropertyOp7
 70
     1
102
RTVSPropertyOp8
 70
     1
102
RTVSPropertyOp9
 70
     1
102
RTVSPropertyOp10
 70
     1
102
RTVSPropertyOp11
 70
     1
102
RTVSPropertyOp12
 70
     1
102
RTVSPropertyOp13
 70
     1
102
RTVSPropertyOp14
 70
     1
102
RTVSPropertyOp15
 70
     1
102
RTVSPropertyOp16
 70
     1
102
RTVSPropertyOp17
 70
     1
102
RTVSPropertyOp18
 70
     1
102
RTVSPropertyOp19
 70
     1
102
RTVSPropertyOp20
 70
     1
102
RTVSPropertyOp21
 70
     1
102
RTVSPropertyOp22
 70
     1
102
RTVSPropertyOp23
 70
     1
102
RTVSPropertyOp24
 70
     1
102
RTVSPropertyOp25
 70
     1
102
RTVSPropertyOp26
 70
     1
102
RTVSPropertyOp27
 70
     1
102
RTVSPropertyOp28
 70
     1
102
RTVSPropertyOp29
 70
     1
102
RTVSPropertyOp30
 70
     1
102
RTVSPropertyOp31
 70
     1
102
RTVSPropertyOp32
 70
     1
  0
XRECORD
  5
EC4
102
{ACAD_REACTORS
330
EC3
102
}
330
EC3
100
AcDbXrecord
280
     1
102
RTVSPropertyOp0
 70
     1
102
RTVSPropertyOp1
 70
     1
102
RTVSPropertyOp2
 70
     1
102
RTVSPropertyOp3
 70
     1
102
RTVSPropertyOp4
 70
     1
102
RTVSPropertyOp5
 70
     1
102
RTVSPropertyOp6
 70
     1
102
RTVSPropertyOp7
 70
     1
102
RTVSPropertyOp8
 70
     1
102
RTVSPropertyOp9
 70
     1
102
RTVSPropertyOp10
 70
     1
102
RTVSPropertyOp11
 70
     1
102
RTVSPropertyOp12
 70
     1
102
RTVSPropertyOp13
 70
     1
102
RTVSPropertyOp14
 70
     1
102
RTVSPropertyOp15
 70
     1
102
RTVSPropertyOp16
 70
     1
102
RTVSPropertyOp17
 70
     1
102
RTVSPropertyOp18
 70
     1
102
RTVSPropertyOp19
 70
     1
102
RTVSPropertyOp20
 70
     1
102
RTVSPropertyOp21
 70
     1
102
RTVSPropertyOp22
 70
     1
102
RTVSPropertyOp23
 70
     1
102
RTVSPropertyOp24
 70
     1
102
RTVSPropertyOp25
 70
     1
102
RTVSPropertyOp26
 70
     1
102
RTVSPropertyOp27
 70
     1
102
RTVSPropertyOp28
 70
     1
102
RTVSPropertyOp29
 70
     1
102
RTVSPropertyOp30
 70
     1
102
RTVSPropertyOp31
 70
     1
102
RTVSPropertyOp32
 70
     1
  0
XRECORD
  5
ED2
102
{ACAD_REACTORS
330
ED1
102
}
330
ED1
100
AcDbXrecord
280
     1
102
RTVSPropertyOp0
 70
     1
102
RTVSPropertyOp1
 70
     1
102
RTVSPropertyOp2
 70
     1
102
RTVSPropertyOp3
 70
     1
102
RTVSPropertyOp4
 70
     1
102
RTVSPropertyOp5
 70
     1
102
RTVSPropertyOp6
 70
     1
102
RTVSPropertyOp7
 70
     1
102
RTVSPropertyOp8
 70
     1
102
RTVSPropertyOp9
 70
     1
102
RTVSPropertyOp10
 70
     1
102
RTVSPropertyOp11
 70
     1
102
RTVSPropertyOp12
 70
     1
102
RTVSPropertyOp13
 70
     1
102
RTVSPropertyOp14
 70
     1
102
RTVSPropertyOp15
 70
     1
102
RTVSPropertyOp16
 70
     1
102
RTVSPropertyOp17
 70
     1
102
RTVSPropertyOp18
 70
     1
102
RTVSPropertyOp19
 70
     1
102
RTVSPropertyOp20
 70
     1
102
RTVSPropertyOp21
 70
     1
102
RTVSPropertyOp22
 70
     1
102
RTVSPropertyOp23
 70
     1
102
RTVSPropertyOp24
 70
     1
102
RTVSPropertyOp25
 70
     1
102
RTVSPropertyOp26
 70
     1
102
RTVSPropertyOp27
 70
     1
102
RTVSPropertyOp28
 70
     1
102
RTVSPropertyOp29
 70
     1
102
RTVSPropertyOp30
 70
     1
102
RTVSPropertyOp31
 70
     1
102
RTVSPropertyOp32
 70
     1
  0
XRECORD
  5
EDA
102
{ACAD_REACTORS
330
ED9
102
}
330
ED9
100
AcDbXrecord
280
     1
102
RTVSPropertyOp0
 70
     1
102
RTVSPropertyOp1
 70
     1
102
RTVSPropertyOp2
 70
     1
102
RTVSPropertyOp3
 70
     1
102
RTVSPropertyOp4
 70
     1
102
RTVSPropertyOp5
 70
     1
102
RTVSPropertyOp6
 70
     1
102
RTVSPropertyOp7
 70
     1
102
RTVSPropertyOp8
 70
     1
102
RTVSPropertyOp9
 70
     1
102
RTVSPropertyOp10
 70
     1
102
RTVSPropertyOp11
 70
     1
102
RTVSPropertyOp12
 70
     1
102
RTVSPropertyOp13
 70
     1
102
RTVSPropertyOp14
 70
     1
102
RTVSPropertyOp15
 70
     1
102
RTVSPropertyOp16
 70
     1
102
RTVSPropertyOp17
 70
     1
102
RTVSPropertyOp18
 70
     1
102
RTVSPropertyOp19
 70
     1
102
RTVSPropertyOp20
 70
     1
102
RTVSPropertyOp21
 70
     1
102
RTVSPropertyOp22
 70
     1
102
RTVSPropertyOp23
 70
     1
102
RTVSPropertyOp24
 70
     1
102
RTVSPropertyOp25
 70
     1
102
RTVSPropertyOp26
 70
     1
102
RTVSPropertyOp27
 70
     1
102
RTVSPropertyOp28
 70
     1
102
RTVSPropertyOp29
 70
     1
102
RTVSPropertyOp30
 70
     1
102
RTVSPropertyOp31
 70
     1
102
RTVSPropertyOp32
 70
     1
  0
XRECORD
  5
ECC
102
{ACAD_REACTORS
330
ECB
102
}
330
ECB
100
AcDbXrecord
280
     1
102
RTVSPropertyOp0
 70
     1
102
RTVSPropertyOp1
 70
     1
102
RTVSPropertyOp2
 70
     1
102
RTVSPropertyOp3
 70
     1
102
RTVSPropertyOp4
 70
     1
102
RTVSPropertyOp5
 70
     1
102
RTVSPropertyOp6
 70
     1
102
RTVSPropertyOp7
 70
     1
102
RTVSPropertyOp8
 70
     1
102
RTVSPropertyOp9
 70
     1
102
RTVSPropertyOp10
 70
     1
102
RTVSPropertyOp11
 70
     1
102
RTVSPropertyOp12
 70
     1
102
RTVSPropertyOp13
 70
     1
102
RTVSPropertyOp14
 70
     1
102
RTVSPropertyOp15
 70
     1
102
RTVSPropertyOp16
 70
     1
102
RTVSPropertyOp17
 70
     1
102
RTVSPropertyOp18
 70
     1
102
RTVSPropertyOp19
 70
     1
102
RTVSPropertyOp20
 70
     1
102
RTVSPropertyOp21
 70
     1
102
RTVSPropertyOp22
 70
     1
102
RTVSPropertyOp23
 70
     1
102
RTVSPropertyOp24
 70
     1
102
RTVSPropertyOp25
 70
     1
102
RTVSPropertyOp26
 70
     1
102
RTVSPropertyOp27
 70
     1
102
RTVSPropertyOp28
 70
     1
102
RTVSPropertyOp29
 70
     1
102
RTVSPropertyOp30
 70
     1
102
RTVSPropertyOp31
 70
     1
102
RTVSPropertyOp32
 70
     1
  0
XRECORD
  5
ED0
102
{ACAD_REACTORS
330
ECF
102
}
330
ECF
100
AcDbXrecord
280
     1
102
RTVSPropertyOp0
 70
     1
102
RTVSPropertyOp1
 70
     1
102
RTVSPropertyOp2
 70
     1
102
RTVSPropertyOp3
 70
     1
102
RTVSPropertyOp4
 70
     1
102
RTVSPropertyOp5
 70
     1
102
RTVSPropertyOp6
 70
     1
102
RTVSPropertyOp7
 70
     1
102
RTVSPropertyOp8
 70
     1
102
RTVSPropertyOp9
 70
     1
102
RTVSPropertyOp10
 70
     1
102
RTVSPropertyOp11
 70
     1
102
RTVSPropertyOp12
 70
     1
102
RTVSPropertyOp13
 70
     1
102
RTVSPropertyOp14
 70
     1
102
RTVSPropertyOp15
 70
     1
102
RTVSPropertyOp16
 70
     1
102
RTVSPropertyOp17
 70
     1
102
RTVSPropertyOp18
 70
     1
102
RTVSPropertyOp19
 70
     1
102
RTVSPropertyOp20
 70
     1
102
RTVSPropertyOp21
 70
     1
102
RTVSPropertyOp22
 70
     1
102
RTVSPropertyOp23
 70
     1
102
RTVSPropertyOp24
 70
     1
102
RTVSPropertyOp25
 70
     1
102
RTVSPropertyOp26
 70
     1
102
RTVSPropertyOp27
 70
     1
102
RTVSPropertyOp28
 70
     1
102
RTVSPropertyOp29
 70
     1
102
RTVSPropertyOp30
 70
     1
102
RTVSPropertyOp31
 70
     1
102
RTVSPropertyOp32
 70
     1
  0
XRECORD
  5
EEE
102
{ACAD_REACTORS
330
EED
102
}
330
EED
100
AcDbXrecord
280
     1
102
RTVSPropertyOp0
 70
     0
102
RTVSPropertyOp1
 70
     0
102
RTVSPropertyOp2
 70
     0
102
RTVSPropertyOp3
 70
     0
102
RTVSPropertyOp4
 70
     0
102
RTVSPropertyOp5
 70
     0
102
RTVSPropertyOp6
 70
     0
102
RTVSPropertyOp7
 70
     0
102
RTVSPropertyOp8
 70
     0
102
RTVSPropertyOp9
 70
     0
102
RTVSPropertyOp10
 70
     0
102
RTVSPropertyOp11
 70
     0
102
RTVSPropertyOp12
 70
     0
102
RTVSPropertyOp13
 70
     0
102
RTVSPropertyOp14
 70
     2
102
RTVSPropertyOp15
 70
     0
102
RTVSPropertyOp16
 70
     0
102
RTVSPropertyOp17
 70
     0
102
RTVSPropertyOp18
 70
     0
102
RTVSPropertyOp19
 70
     0
102
RTVSPropertyOp20
 70
     0
102
RTVSPropertyOp21
 70
     0
102
RTVSPropertyOp22
 70
     0
102
RTVSPropertyOp23
 70
     0
102
RTVSPropertyOp24
 70
     0
102
RTVSPropertyOp25
 70
     0
102
RTVSPropertyOp26
 70
     0
102
RTVSPropertyOp27
 70
     0
102
RTVSPropertyOp28
 70
     0
102
RTVSPropertyOp29
 70
     0
102
RTVSPropertyOp30
 70
     0
102
RTVSPropertyOp31
 70
     0
102
RTVSPropertyOp32
 70
     0
  0
XRECORD
  5
ED8
102
{ACAD_REACTORS
330
ED7
102
}
330
ED7
100
AcDbXrecord
280
     1
102
RTVSPropertyOp0
 70
     1
102
RTVSPropertyOp1
 70
     1
102
RTVSPropertyOp2
 70
     1
102
RTVSPropertyOp3
 70
     1
102
RTVSPropertyOp4
 70
     1
102
RTVSPropertyOp5
 70
     1
102
RTVSPropertyOp6
 70
     1
102
RTVSPropertyOp7
 70
     1
102
RTVSPropertyOp8
 70
     1
102
RTVSPropertyOp9
 70
     1
102
RTVSPropertyOp10
 70
     1
102
RTVSPropertyOp11
 70
     1
102
RTVSPropertyOp12
 70
     1
102
RTVSPropertyOp13
 70
     1
102
RTVSPropertyOp14
 70
     1
102
RTVSPropertyOp15
 70
     1
102
RTVSPropertyOp16
 70
     1
102
RTVSPropertyOp17
 70
     1
102
RTVSPropertyOp18
 70
     1
102
RTVSPropertyOp19
 70
     1
102
RTVSPropertyOp20
 70
     1
102
RTVSPropertyOp21
 70
     1
102
RTVSPropertyOp22
 70
     1
102
RTVSPropertyOp23
 70
     1
102
RTVSPropertyOp24
 70
     1
102
RTVSPropertyOp25
 70
     1
102
RTVSPropertyOp26
 70
     1
102
RTVSPropertyOp27
 70
     1
102
RTVSPropertyOp28
 70
     1
102
RTVSPropertyOp29
 70
     1
102
RTVSPropertyOp30
 70
     1
102
RTVSPropertyOp31
 70
     1
102
RTVSPropertyOp32
 70
     1
  0
XRECORD
  5
EBC
102
{ACAD_REACTORS
330
EBB
102
}
330
EBB
100
AcDbXrecord
280
     1
102
RTVSPropertyOp0
 70
     1
102
RTVSPropertyOp1
 70
     1
102
RTVSPropertyOp2
 70
     1
102
RTVSPropertyOp3
 70
     1
102
RTVSPropertyOp4
 70
     1
102
RTVSPropertyOp5
 70
     1
102
RTVSPropertyOp6
 70
     1
102
RTVSPropertyOp7
 70
     1
102
RTVSPropertyOp8
 70
     1
102
RTVSPropertyOp9
 70
     1
102
RTVSPropertyOp10
 70
     1
102
RTVSPropertyOp11
 70
     1
102
RTVSPropertyOp12
 70
     1
102
RTVSPropertyOp13
 70
     1
102
RTVSPropertyOp14
 70
     1
102
RTVSPropertyOp15
 70
     1
102
RTVSPropertyOp16
 70
     1
102
RTVSPropertyOp17
 70
     1
102
RTVSPropertyOp18
 70
     1
102
RTVSPropertyOp19
 70
     1
102
RTVSPropertyOp20
 70
     1
102
RTVSPropertyOp21
 70
     1
102
RTVSPropertyOp22
 70
     1
102
RTVSPropertyOp23
 70
     1
102
RTVSPropertyOp24
 70
     1
102
RTVSPropertyOp25
 70
     1
102
RTVSPropertyOp26
 70
     1
102
RTVSPropertyOp27
 70
     1
102
RTVSPropertyOp28
 70
     1
102
RTVSPropertyOp29
 70
     1
102
RTVSPropertyOp30
 70
     1
102
RTVSPropertyOp31
 70
     1
102
RTVSPropertyOp32
 70
     1
  0
XRECORD
  5
EBE
102
{ACAD_REACTORS
330
EBD
102
}
330
EBD
100
AcDbXrecord
280
     1
102
RTVSPropertyOp0
 70
     1
102
RTVSPropertyOp1
 70
     1
102
RTVSPropertyOp2
 70
     1
102
RTVSPropertyOp3
 70
     1
102
RTVSPropertyOp4
 70
     1
102
RTVSPropertyOp5
 70
     1
102
RTVSPropertyOp6
 70
     1
102
RTVSPropertyOp7
 70
     1
102
RTVSPropertyOp8
 70
     1
102
RTVSPropertyOp9
 70
     1
102
RTVSPropertyOp10
 70
     1
102
RTVSPropertyOp11
 70
     1
102
RTVSPropertyOp12
 70
     1
102
RTVSPropertyOp13
 70
     1
102
RTVSPropertyOp14
 70
     1
102
RTVSPropertyOp15
 70
     1
102
RTVSPropertyOp16
 70
     1
102
RTVSPropertyOp17
 70
     1
102
RTVSPropertyOp18
 70
     1
102
RTVSPropertyOp19
 70
     1
102
RTVSPropertyOp20
 70
     1
102
RTVSPropertyOp21
 70
     1
102
RTVSPropertyOp22
 70
     1
102
RTVSPropertyOp23
 70
     1
102
RTVSPropertyOp24
 70
     1
102
RTVSPropertyOp25
 70
     1
102
RTVSPropertyOp26
 70
     1
102
RTVSPropertyOp27
 70
     1
102
RTVSPropertyOp28
 70
     1
102
RTVSPropertyOp29
 70
     1
102
RTVSPropertyOp30
 70
     1
102
RTVSPropertyOp31
 70
     1
102
RTVSPropertyOp32
 70
     1
  0
XRECORD
  5
EC0
102
{ACAD_REACTORS
330
EBF
102
}
330
EBF
100
AcDbXrecord
280
     1
102
RTVSPropertyOp0
 70
     1
102
RTVSPropertyOp1
 70
     1
102
RTVSPropertyOp2
 70
     1
102
RTVSPropertyOp3
 70
     1
102
RTVSPropertyOp4
 70
     1
102
RTVSPropertyOp5
 70
     1
102
RTVSPropertyOp6
 70
     1
102
RTVSPropertyOp7
 70
     1
102
RTVSPropertyOp8
 70
     1
102
RTVSPropertyOp9
 70
     1
102
RTVSPropertyOp10
 70
     1
102
RTVSPropertyOp11
 70
     1
102
RTVSPropertyOp12
 70
     1
102
RTVSPropertyOp13
 70
     1
102
RTVSPropertyOp14
 70
     1
102
RTVSPropertyOp15
 70
     1
102
RTVSPropertyOp16
 70
     1
102
RTVSPropertyOp17
 70
     1
102
RTVSPropertyOp18
 70
     1
102
RTVSPropertyOp19
 70
     1
102
RTVSPropertyOp20
 70
     1
102
RTVSPropertyOp21
 70
     1
102
RTVSPropertyOp22
 70
     1
102
RTVSPropertyOp23
 70
     1
102
RTVSPropertyOp24
 70
     1
102
RTVSPropertyOp25
 70
     1
102
RTVSPropertyOp26
 70
     1
102
RTVSPropertyOp27
 70
     1
102
RTVSPropertyOp28
 70
     1
102
RTVSPropertyOp29
 70
     1
102
RTVSPropertyOp30
 70
     1
102
RTVSPropertyOp31
 70
     1
102
RTVSPropertyOp32
 70
     1
  0
XRECORD
  5
EC2
102
{ACAD_REACTORS
330
EC1
102
}
330
EC1
100
AcDbXrecord
280
     1
102
RTVSPropertyOp0
 70
     1
102
RTVSPropertyOp1
 70
     1
102
RTVSPropertyOp2
 70
     1
102
RTVSPropertyOp3
 70
     1
102
RTVSPropertyOp4
 70
     1
102
RTVSPropertyOp5
 70
     1
102
RTVSPropertyOp6
 70
     1
102
RTVSPropertyOp7
 70
     1
102
RTVSPropertyOp8
 70
     1
102
RTVSPropertyOp9
 70
     1
102
RTVSPropertyOp10
 70
     1
102
RTVSPropertyOp11
 70
     1
102
RTVSPropertyOp12
 70
     1
102
RTVSPropertyOp13
 70
     1
102
RTVSPropertyOp14
 70
     1
102
RTVSPropertyOp15
 70
     1
102
RTVSPropertyOp16
 70
     1
102
RTVSPropertyOp17
 70
     1
102
RTVSPropertyOp18
 70
     1
102
RTVSPropertyOp19
 70
     1
102
RTVSPropertyOp20
 70
     1
102
RTVSPropertyOp21
 70
     1
102
RTVSPropertyOp22
 70
     1
102
RTVSPropertyOp23
 70
     1
102
RTVSPropertyOp24
 70
     1
102
RTVSPropertyOp25
 70
     1
102
RTVSPropertyOp26
 70
     1
102
RTVSPropertyOp27
 70
     1
102
RTVSPropertyOp28
 70
     1
102
RTVSPropertyOp29
 70
     1
102
RTVSPropertyOp30
 70
     1
102
RTVSPropertyOp31
 70
     1
102
RTVSPropertyOp32
 70
     1
  0
XRECORD
  5
EDE
102
{ACAD_REACTORS
330
EDD
102
}
330
EDD
100
AcDbXrecord
280
     1
102
RTVSPropertyOp0
 70
     1
102
RTVSPropertyOp1
 70
     1
102
RTVSPropertyOp2
 70
     1
102
RTVSPropertyOp3
 70
     1
102
RTVSPropertyOp4
 70
     1
102
RTVSPropertyOp5
 70
     1
102
RTVSPropertyOp6
 70
     1
102
RTVSPropertyOp7
 70
     1
102
RTVSPropertyOp8
 70
     1
102
RTVSPropertyOp9
 70
     1
102
RTVSPropertyOp10
 70
     1
102
RTVSPropertyOp11
 70
     1
102
RTVSPropertyOp12
 70
     1
102
RTVSPropertyOp13
 70
     1
102
RTVSPropertyOp14
 70
     1
102
RTVSPropertyOp15
 70
     1
102
RTVSPropertyOp16
 70
     1
102
RTVSPropertyOp17
 70
     1
102
RTVSPropertyOp18
 70
     1
102
RTVSPropertyOp19
 70
     1
102
RTVSPropertyOp20
 70
     1
102
RTVSPropertyOp21
 70
     1
102
RTVSPropertyOp22
 70
     1
102
RTVSPropertyOp23
 70
     1
102
RTVSPropertyOp24
 70
     1
102
RTVSPropertyOp25
 70
     1
102
RTVSPropertyOp26
 70
     1
102
RTVSPropertyOp27
 70
     1
102
RTVSPropertyOp28
 70
     1
102
RTVSPropertyOp29
 70
     1
102
RTVSPropertyOp30
 70
     1
102
RTVSPropertyOp31
 70
     1
102
RTVSPropertyOp32
 70
     1
  0
XRECORD
  5
EEA
102
{ACAD_REACTORS
330
EE9
102
}
330
EE9
100
AcDbXrecord
280
     1
102
RTVSPropertyOp0
 70
     0
102
RTVSPropertyOp1
 70
     0
102
RTVSPropertyOp2
 70
     0
102
RTVSPropertyOp3
 70
     0
102
RTVSPropertyOp4
 70
     0
102
RTVSPropertyOp5
 70
     0
102
RTVSPropertyOp6
 70
     0
102
RTVSPropertyOp7
 70
     0
102
RTVSPropertyOp8
 70
     0
102
RTVSPropertyOp9
 70
     0
102
RTVSPropertyOp10
 70
     0
102
RTVSPropertyOp11
 70
     0
102
RTVSPropertyOp12
 70
     0
102
RTVSPropertyOp13
 70
     0
102
RTVSPropertyOp14
 70
     2
102
RTVSPropertyOp15
 70
     0
102
RTVSPropertyOp16
 70
     0
102
RTVSPropertyOp17
 70
     0
102
RTVSPropertyOp18
 70
     0
102
RTVSPropertyOp19
 70
     0
102
RTVSPropertyOp20
 70
     0
102
RTVSPropertyOp21
 70
     0
102
RTVSPropertyOp22
 70
     0
102
RTVSPropertyOp23
 70
     0
102
RTVSPropertyOp24
 70
     0
102
RTVSPropertyOp25
 70
     0
102
RTVSPropertyOp26
 70
     0
102
RTVSPropertyOp27
 70
     0
102
RTVSPropertyOp28
 70
     0
102
RTVSPropertyOp29
 70
     0
102
RTVSPropertyOp30
 70
     0
102
RTVSPropertyOp31
 70
     0
102
RTVSPropertyOp32
 70
     0
  0
XRECORD
  5
ED6
102
{ACAD_REACTORS
330
ED5
102
}
330
ED5
100
AcDbXrecord
280
     1
102
RTVSPropertyOp0
 70
     1
102
RTVSPropertyOp1
 70
     1
102
RTVSPropertyOp2
 70
     1
102
RTVSPropertyOp3
 70
     1
102
RTVSPropertyOp4
 70
     1
102
RTVSPropertyOp5
 70
     1
102
RTVSPropertyOp6
 70
     1
102
RTVSPropertyOp7
 70
     1
102
RTVSPropertyOp8
 70
     1
102
RTVSPropertyOp9
 70
     1
102
RTVSPropertyOp10
 70
     1
102
RTVSPropertyOp11
 70
     1
102
RTVSPropertyOp12
 70
     1
102
RTVSPropertyOp13
 70
     1
102
RTVSPropertyOp14
 70
     1
102
RTVSPropertyOp15
 70
     1
102
RTVSPropertyOp16
 70
     1
102
RTVSPropertyOp17
 70
     1
102
RTVSPropertyOp18
 70
     1
102
RTVSPropertyOp19
 70
     1
102
RTVSPropertyOp20
 70
     1
102
RTVSPropertyOp21
 70
     1
102
RTVSPropertyOp22
 70
     1
102
RTVSPropertyOp23
 70
     1
102
RTVSPropertyOp24
 70
     1
102
RTVSPropertyOp25
 70
     1
102
RTVSPropertyOp26
 70
     1
102
RTVSPropertyOp27
 70
     1
102
RTVSPropertyOp28
 70
     1
102
RTVSPropertyOp29
 70
     1
102
RTVSPropertyOp30
 70
     1
102
RTVSPropertyOp31
 70
     1
102
RTVSPropertyOp32
 70
     1
  0
XRECORD
  5
EEC
102
{ACAD_REACTORS
330
EEB
102
}
330
EEB
100
AcDbXrecord
280
     1
102
RTVSPropertyOp0
 70
     0
102
RTVSPropertyOp1
 70
     0
102
RTVSPropertyOp2
 70
     0
102
RTVSPropertyOp3
 70
     0
102
RTVSPropertyOp4
 70
     0
102
RTVSPropertyOp5
 70
     0
102
RTVSPropertyOp6
 70
     0
102
RTVSPropertyOp7
 70
     0
102
RTVSPropertyOp8
 70
     0
102
RTVSPropertyOp9
 70
     0
102
RTVSPropertyOp10
 70
     0
102
RTVSPropertyOp11
 70
     0
102
RTVSPropertyOp12
 70
     0
102
RTVSPropertyOp13
 70
     0
102
RTVSPropertyOp14
 70
     2
102
RTVSPropertyOp15
 70
     0
102
RTVSPropertyOp16
 70
     0
102
RTVSPropertyOp17
 70
     0
102
RTVSPropertyOp18
 70
     0
102
RTVSPropertyOp19
 70
     0
102
RTVSPropertyOp20
 70
     0
102
RTVSPropertyOp21
 70
     0
102
RTVSPropertyOp22
 70
     0
102
RTVSPropertyOp23
 70
     0
102
RTVSPropertyOp24
 70
     0
102
RTVSPropertyOp25
 70
     0
102
RTVSPropertyOp26
 70
     0
102
RTVSPropertyOp27
 70
     0
102
RTVSPropertyOp28
 70
     0
102
RTVSPropertyOp29
 70
     0
102
RTVSPropertyOp30
 70
     0
102
RTVSPropertyOp31
 70
     0
102
RTVSPropertyOp32
 70
     0
  0
XRECORD
  5
ECE
102
{ACAD_REACTORS
330
ECD
102
}
330
ECD
100
AcDbXrecord
280
     1
102
RTVSPropertyOp0
 70
     1
102
RTVSPropertyOp1
 70
     1
102
RTVSPropertyOp2
 70
     1
102
RTVSPropertyOp3
 70
     1
102
RTVSPropertyOp4
 70
     1
102
RTVSPropertyOp5
 70
     1
102
RTVSPropertyOp6
 70
     1
102
RTVSPropertyOp7
 70
     1
102
RTVSPropertyOp8
 70
     1
102
RTVSPropertyOp9
 70
     1
102
RTVSPropertyOp10
 70
     1
102
RTVSPropertyOp11
 70
     1
102
RTVSPropertyOp12
 70
     1
102
RTVSPropertyOp13
 70
     1
102
RTVSPropertyOp14
 70
     1
102
RTVSPropertyOp15
 70
     1
102
RTVSPropertyOp16
 70
     1
102
RTVSPropertyOp17
 70
     1
102
RTVSPropertyOp18
 70
     1
102
RTVSPropertyOp19
 70
     1
102
RTVSPropertyOp20
 70
     1
102
RTVSPropertyOp21
 70
     1
102
RTVSPropertyOp22
 70
     1
102
RTVSPropertyOp23
 70
     1
102
RTVSPropertyOp24
 70
     1
102
RTVSPropertyOp25
 70
     1
102
RTVSPropertyOp26
 70
     1
102
RTVSPropertyOp27
 70
     1
102
RTVSPropertyOp28
 70
     1
102
RTVSPropertyOp29
 70
     1
102
RTVSPropertyOp30
 70
     1
102
RTVSPropertyOp31
 70
     1
102
RTVSPropertyOp32
 70
     1
  0
XRECORD
  5
EE8
102
{ACAD_REACTORS
330
EE7
102
}
330
EE7
100
AcDbXrecord
280
     1
102
RTVSPropertyOp0
 70
     1
102
RTVSPropertyOp1
 70
     1
102
RTVSPropertyOp2
 70
     1
102
RTVSPropertyOp3
 70
     1
102
RTVSPropertyOp4
 70
     1
102
RTVSPropertyOp5
 70
     1
102
RTVSPropertyOp6
 70
     1
102
RTVSPropertyOp7
 70
     1
102
RTVSPropertyOp8
 70
     1
102
RTVSPropertyOp9
 70
     1
102
RTVSPropertyOp10
 70
     1
102
RTVSPropertyOp11
 70
     1
102
RTVSPropertyOp12
 70
     1
102
RTVSPropertyOp13
 70
     1
102
RTVSPropertyOp14
 70
     1
102
RTVSPropertyOp15
 70
     1
102
RTVSPropertyOp16
 70
     1
102
RTVSPropertyOp17
 70
     1
102
RTVSPropertyOp18
 70
     1
102
RTVSPropertyOp19
 70
     1
102
RTVSPropertyOp20
 70
     1
102
RTVSPropertyOp21
 70
     1
102
RTVSPropertyOp22
 70
     1
102
RTVSPropertyOp23
 70
     1
102
RTVSPropertyOp24
 70
     1
102
RTVSPropertyOp25
 70
     1
102
RTVSPropertyOp26
 70
     1
102
RTVSPropertyOp27
 70
     1
102
RTVSPropertyOp28
 70
     1
102
RTVSPropertyOp29
 70
     1
102
RTVSPropertyOp30
 70
     1
102
RTVSPropertyOp31
 70
     1
102
RTVSPropertyOp32
 70
     1
  0
XRECORD
  5
EE6
102
{ACAD_REACTORS
330
EE5
102
}
330
EE5
100
AcDbXrecord
280
     1
102
RTVSPropertyOp0
 70
     1
102
RTVSPropertyOp1
 70
     1
102
RTVSPropertyOp2
 70
     1
102
RTVSPropertyOp3
 70
     1
102
RTVSPropertyOp4
 70
     1
102
RTVSPropertyOp5
 70
     1
102
RTVSPropertyOp6
 70
     1
102
RTVSPropertyOp7
 70
     1
102
RTVSPropertyOp8
 70
     1
102
RTVSPropertyOp9
 70
     1
102
RTVSPropertyOp10
 70
     1
102
RTVSPropertyOp11
 70
     1
102
RTVSPropertyOp12
 70
     1
102
RTVSPropertyOp13
 70
     1
102
RTVSPropertyOp14
 70
     1
102
RTVSPropertyOp15
 70
     1
102
RTVSPropertyOp16
 70
     1
102
RTVSPropertyOp17
 70
     1
102
RTVSPropertyOp18
 70
     1
102
RTVSPropertyOp19
 70
     1
102
RTVSPropertyOp20
 70
     1
102
RTVSPropertyOp21
 70
     1
102
RTVSPropertyOp22
 70
     1
102
RTVSPropertyOp23
 70
     1
102
RTVSPropertyOp24
 70
     1
102
RTVSPropertyOp25
 70
     1
102
RTVSPropertyOp26
 70
     1
102
RTVSPropertyOp27
 70
     1
102
RTVSPropertyOp28
 70
     1
102
RTVSPropertyOp29
 70
     1
102
RTVSPropertyOp30
 70
     1
102
RTVSPropertyOp31
 70
     1
102
RTVSPropertyOp32
 70
     1
  0
XRECORD
  5
EE0
102
{ACAD_REACTORS
330
EDF
102
}
330
EDF
100
AcDbXrecord
280
     1
102
RTVSPropertyOp0
 70
     1
102
RTVSPropertyOp1
 70
     1
102
RTVSPropertyOp2
 70
     1
102
RTVSPropertyOp3
 70
     1
102
RTVSPropertyOp4
 70
     1
102
RTVSPropertyOp5
 70
     1
102
RTVSPropertyOp6
 70
     1
102
RTVSPropertyOp7
 70
     1
102
RTVSPropertyOp8
 70
     1
102
RTVSPropertyOp9
 70
     1
102
RTVSPropertyOp10
 70
     1
102
RTVSPropertyOp11
 70
     1
102
RTVSPropertyOp12
 70
     1
102
RTVSPropertyOp13
 70
     1
102
RTVSPropertyOp14
 70
     1
102
RTVSPropertyOp15
 70
     1
102
RTVSPropertyOp16
 70
     1
102
RTVSPropertyOp17
 70
     1
102
RTVSPropertyOp18
 70
     1
102
RTVSPropertyOp19
 70
     1
102
RTVSPropertyOp20
 70
     1
102
RTVSPropertyOp21
 70
     1
102
RTVSPropertyOp22
 70
     1
102
RTVSPropertyOp23
 70
     1
102
RTVSPropertyOp24
 70
     1
102
RTVSPropertyOp25
 70
     1
102
RTVSPropertyOp26
 70
     1
102
RTVSPropertyOp27
 70
     1
102
RTVSPropertyOp28
 70
     1
102
RTVSPropertyOp29
 70
     1
102
RTVSPropertyOp30
 70
     1
102
RTVSPropertyOp31
 70
     1
102
RTVSPropertyOp32
 70
     1
  0
XRECORD
  5
EE2
102
{ACAD_REACTORS
330
EE1
102
}
330
EE1
100
AcDbXrecord
280
     1
102
RTVSPropertyOp0
 70
     1
102
RTVSPropertyOp1
 70
     1
102
RTVSPropertyOp2
 70
     1
102
RTVSPropertyOp3
 70
     1
102
RTVSPropertyOp4
 70
     1
102
RTVSPropertyOp5
 70
     1
102
RTVSPropertyOp6
 70
     1
102
RTVSPropertyOp7
 70
     1
102
RTVSPropertyOp8
 70
     1
102
RTVSPropertyOp9
 70
     1
102
RTVSPropertyOp10
 70
     1
102
RTVSPropertyOp11
 70
     1
102
RTVSPropertyOp12
 70
     1
102
RTVSPropertyOp13
 70
     1
102
RTVSPropertyOp14
 70
     1
102
RTVSPropertyOp15
 70
     1
102
RTVSPropertyOp16
 70
     1
102
RTVSPropertyOp17
 70
     1
102
RTVSPropertyOp18
 70
     1
102
RTVSPropertyOp19
 70
     1
102
RTVSPropertyOp20
 70
     1
102
RTVSPropertyOp21
 70
     1
102
RTVSPropertyOp22
 70
     1
102
RTVSPropertyOp23
 70
     1
102
RTVSPropertyOp24
 70
     1
102
RTVSPropertyOp25
 70
     1
102
RTVSPropertyOp26
 70
     1
102
RTVSPropertyOp27
 70
     1
102
RTVSPropertyOp28
 70
     1
102
RTVSPropertyOp29
 70
     1
102
RTVSPropertyOp30
 70
     1
102
RTVSPropertyOp31
 70
     1
102
RTVSPropertyOp32
 70
     1
  0
XRECORD
  5
ED4
102
{ACAD_REACTORS
330
ED3
102
}
330
ED3
100
AcDbXrecord
280
     1
102
RTVSPropertyOp0
 70
     1
102
RTVSPropertyOp1
 70
     1
102
RTVSPropertyOp2
 70
     1
102
RTVSPropertyOp3
 70
     1
102
RTVSPropertyOp4
 70
     1
102
RTVSPropertyOp5
 70
     1
102
RTVSPropertyOp6
 70
     1
102
RTVSPropertyOp7
 70
     1
102
RTVSPropertyOp8
 70
     1
102
RTVSPropertyOp9
 70
     1
102
RTVSPropertyOp10
 70
     1
102
RTVSPropertyOp11
 70
     1
102
RTVSPropertyOp12
 70
     1
102
RTVSPropertyOp13
 70
     1
102
RTVSPropertyOp14
 70
     1
102
RTVSPropertyOp15
 70
     1
102
RTVSPropertyOp16
 70
     1
102
RTVSPropertyOp17
 70
     1
102
RTVSPropertyOp18
 70
     1
102
RTVSPropertyOp19
 70
     1
102
RTVSPropertyOp20
 70
     1
102
RTVSPropertyOp21
 70
     1
102
RTVSPropertyOp22
 70
     1
102
RTVSPropertyOp23
 70
     1
102
RTVSPropertyOp24
 70
     1
102
RTVSPropertyOp25
 70
     1
102
RTVSPropertyOp26
 70
     1
102
RTVSPropertyOp27
 70
     1
102
RTVSPropertyOp28
 70
     1
102
RTVSPropertyOp29
 70
     1
102
RTVSPropertyOp30
 70
     1
102
RTVSPropertyOp31
 70
     1
102
RTVSPropertyOp32
 70
     1
  0
XRECORD
  5
EDC
102
{ACAD_REACTORS
330
EDB
102
}
330
EDB
100
AcDbXrecord
280
     1
102
RTVSPropertyOp0
 70
     1
102
RTVSPropertyOp1
 70
     1
102
RTVSPropertyOp2
 70
     1
102
RTVSPropertyOp3
 70
     1
102
RTVSPropertyOp4
 70
     1
102
RTVSPropertyOp5
 70
     1
102
RTVSPropertyOp6
 70
     1
102
RTVSPropertyOp7
 70
     1
102
RTVSPropertyOp8
 70
     1
102
RTVSPropertyOp9
 70
     1
102
RTVSPropertyOp10
 70
     1
102
RTVSPropertyOp11
 70
     1
102
RTVSPropertyOp12
 70
     1
102
RTVSPropertyOp13
 70
     1
102
RTVSPropertyOp14
 70
     1
102
RTVSPropertyOp15
 70
     1
102
RTVSPropertyOp16
 70
     1
102
RTVSPropertyOp17
 70
     1
102
RTVSPropertyOp18
 70
     1
102
RTVSPropertyOp19
 70
     1
102
RTVSPropertyOp20
 70
     1
102
RTVSPropertyOp21
 70
     1
102
RTVSPropertyOp22
 70
     1
102
RTVSPropertyOp23
 70
     1
102
RTVSPropertyOp24
 70
     1
102
RTVSPropertyOp25
 70
     1
102
RTVSPropertyOp26
 70
     1
102
RTVSPropertyOp27
 70
     1
102
RTVSPropertyOp28
 70
     1
102
RTVSPropertyOp29
 70
     1
102
RTVSPropertyOp30
 70
     1
102
RTVSPropertyOp31
 70
     1
102
RTVSPropertyOp32
 70
     1
  0
XRECORD
  5
EE4
102
{ACAD_REACTORS
330
EE3
102
}
330
EE3
100
AcDbXrecord
280
     1
102
RTVSPropertyOp0
 70
     1
102
RTVSPropertyOp1
 70
     1
102
RTVSPropertyOp2
 70
     1
102
RTVSPropertyOp3
 70
     1
102
RTVSPropertyOp4
 70
     1
102
RTVSPropertyOp5
 70
     1
102
RTVSPropertyOp6
 70
     1
102
RTVSPropertyOp7
 70
     1
102
RTVSPropertyOp8
 70
     1
102
RTVSPropertyOp9
 70
     1
102
RTVSPropertyOp10
 70
     1
102
RTVSPropertyOp11
 70
     1
102
RTVSPropertyOp12
 70
     1
102
RTVSPropertyOp13
 70
     1
102
RTVSPropertyOp14
 70
     1
102
RTVSPropertyOp15
 70
     1
102
RTVSPropertyOp16
 70
     1
102
RTVSPropertyOp17
 70
     1
102
RTVSPropertyOp18
 70
     1
102
RTVSPropertyOp19
 70
     1
102
RTVSPropertyOp20
 70
     1
102
RTVSPropertyOp21
 70
     1
102
RTVSPropertyOp22
 70
     1
102
RTVSPropertyOp23
 70
     1
102
RTVSPropertyOp24
 70
     1
102
RTVSPropertyOp25
 70
     1
102
RTVSPropertyOp26
 70
     1
102
RTVSPropertyOp27
 70
     1
102
RTVSPropertyOp28
 70
     1
102
RTVSPropertyOp29
 70
     1
102
RTVSPropertyOp30
 70
     1
102
RTVSPropertyOp31
 70
     1
102
RTVSPropertyOp32
 70
     1
  0
ENDSEC
  0
EOF
