  0
SECTION
  2
HEADER
  9
$ACADVER
  1
AC1015
  9
$ACADMAINTVER
 70
    20
  9
$DWGCODEPAGE
  3
ANSI_932
  9
$INSBASE
 10
0.0
 20
0.0
 30
0.0
  9
$EXTMIN
 10
854.1259380000001
 20
555.7128699231269
 30
0.0
  9
$EXTMAX
 10
1131.306120888382
 20
838.6107877299998
 30
0.0
  9
$LIMMIN
 10
854.1249159999999
 20
557.4876469999998
  9
$LIMMAX
 10
1046.126977
 20
838.611779
  9
$ORTHOMODE
 70
     1
  9
$REGENMODE
 70
     1
  9
$FILLMODE
 70
     1
  9
$QTEXTMODE
 70
     0
  9
$MIRRTEXT
 70
     0
  9
$LTSCALE
 40
4.685369
  9
$ATTMODE
 70
     1
  9
$TEXTSIZE
 40
3.2
  9
$TRACEWID
 40
0.05
  9
$TEXTSTYLE
  7
高3.2
  9
$CLAYER
  8
0
  9
$CELTYPE
  6
CONTINUOUS
  9
$CECOLOR
 62
   256
  9
$CELTSCALE
 40
1.0
  9
$DISPSILH
 70
     0
  9
$DIMSCALE
 40
1.0
  9
$DIMASZ
 40
2.5
  9
$DIMEXO
 40
0.25
  9
$DIMDLI
 40
0.2
  9
$DIMRND
 40
0.0
  9
$DIMDLE
 40
0.0
  9
$DIMEXE
 40
1.25
  9
$DIMTP
 40
0.0
  9
$DIMTM
 40
0.0
  9
$DIMTXT
 40
3.0
  9
$DIMCEN
 40
0.0
  9
$DIMTSZ
 40
0.0
  9
$DIMTOL
 70
     0
  9
$DIMLIM
 70
     0
  9
$DIMTIH
 70
     0
  9
$DIMTOH
 70
     0
  9
$DIMSE1
 70
     0
  9
$DIMSE2
 70
     0
  9
$DIMTAD
 70
     3
  9
$DIMZIN
 70
     8
  9
$DIMBLK
  1
Open30
  9
$DIMASO
 70
     1
  9
$DIMSHO
 70
     1
  9
$DIMPOST
  1

  9
$DIMAPOST
  1

  9
$DIMALT
 70
     0
  9
$DIMALTD
 70
     3
  9
$DIMALTF
 40
0.03937007874016
  9
$DIMLFAC
 40
2.0
  9
$DIMTOFL
 70
     1
  9
$DIMTVP
 40
0.0
  9
$DIMTIX
 70
     0
  9
$DIMSOXD
 70
     0
  9
$DIMSAH
 70
     0
  9
$DIMBLK1
  1

  9
$DIMBLK2
  1

  9
$DIMSTYLE
  2
1／2
  9
$DIMCLRD
 70
     0
  9
$DIMCLRE
 70
     0
  9
$DIMCLRT
 70
     4
  9
$DIMTFAC
 40
1.0
  9
$DIMGAP
 40
0.625
  9
$DIMJUST
 70
     0
  9
$DIMSD1
 70
     0
  9
$DIMSD2
 70
     0
  9
$DIMTOLJ
 70
     0
  9
$DIMTZIN
 70
     8
  9
$DIMALTZ
 70
     0
  9
$DIMALTTZ
 70
     0
  9
$DIMUPT
 70
     1
  9
$DIMDEC
 70
     2
  9
$DIMTDEC
 70
     2
  9
$DIMALTU
 70
     2
  9
$DIMALTTD
 70
     3
  9
$DIMTXSTY
  7
STANDARD
  9
$DIMAUNIT
 70
     0
  9
$DIMADEC
 70
     1
  9
$DIMALTRND
 40
0.0
  9
$DIMAZIN
 70
     2
  9
$DIMDSEP
 70
    46
  9
$DIMATFIT
 70
     0
  9
$DIMFRAC
 70
     0
  9
$DIMLDRBLK
  1
Open30
  9
$DIMLUNIT
 70
     2
  9
$DIMLWD
 70
    -2
  9
$DIMLWE
 70
    -2
  9
$DIMTMOVE
 70
     0
  9
$LUNITS
 70
     2
  9
$LUPREC
 70
     4
  9
$SKETCHINC
 40
0.1
  9
$FILLETRAD
 40
0.0
  9
$AUNITS
 70
     0
  9
$AUPREC
 70
     0
  9
$MENU
  1
.
  9
$ELEVATION
 40
0.0
  9
$PELEVATION
 40
0.0
  9
$THICKNESS
 40
0.0
  9
$LIMCHECK
 70
     0
  9
$CHAMFERA
 40
0.0
  9
$CHAMFERB
 40
0.0
  9
$CHAMFERC
 40
0.0
  9
$CHAMFERD
 40
0.0
  9
$SKPOLY
 70
     0
  9
$TDCREATE
 40
2456071.812274363
  9
$TDUCREATE
 40
2456071.437274363
  9
$TDUPDATE
 40
2457351.760913183
  9
$TDUUPDATE
 40
2457351.385913183
  9
$TDINDWG
 40
0.0275451273
  9
$TDUSRTIMER
 40
0.0275450694
  9
$USRTIMER
 70
     1
  9
$ANGBASE
 50
0.0
  9
$ANGDIR
 70
     0
  9
$PDMODE
 70
     0
  9
$PDSIZE
 40
0.0
  9
$PLINEWID
 40
0.0
  9
$SPLFRAME
 70
     0
  9
$SPLINETYPE
 70
     6
  9
$SPLINESEGS
 70
     8
  9
$HANDSEED
  5
9FC
  9
$SURFTAB1
 70
     6
  9
$SURFTAB2
 70
     6
  9
$SURFTYPE
 70
     6
  9
$SURFU
 70
     6
  9
$SURFV
 70
     6
  9
$UCSBASE
  2

  9
$UCSNAME
  2

  9
$UCSORG
 10
0.0
 20
0.0
 30
0.0
  9
$UCSXDIR
 10
1.0
 20
0.0
 30
0.0
  9
$UCSYDIR
 10
0.0
 20
1.0
 30
0.0
  9
$UCSORTHOREF
  2

  9
$UCSORTHOVIEW
 70
     0
  9
$UCSORGTOP
 10
0.0
 20
0.0
 30
0.0
  9
$UCSORGBOTTOM
 10
0.0
 20
0.0
 30
0.0
  9
$UCSORGLEFT
 10
0.0
 20
0.0
 30
0.0
  9
$UCSORGRIGHT
 10
0.0
 20
0.0
 30
0.0
  9
$UCSORGFRONT
 10
0.0
 20
0.0
 30
0.0
  9
$UCSORGBACK
 10
0.0
 20
0.0
 30
0.0
  9
$PUCSBASE
  2

  9
$PUCSNAME
  2

  9
$PUCSORG
 10
0.0
 20
0.0
 30
0.0
  9
$PUCSXDIR
 10
1.0
 20
0.0
 30
0.0
  9
$PUCSYDIR
 10
0.0
 20
1.0
 30
0.0
  9
$PUCSORTHOREF
  2

  9
$PUCSORTHOVIEW
 70
     0
  9
$PUCSORGTOP
 10
0.0
 20
0.0
 30
0.0
  9
$PUCSORGBOTTOM
 10
0.0
 20
0.0
 30
0.0
  9
$PUCSORGLEFT
 10
0.0
 20
0.0
 30
0.0
  9
$PUCSORGRIGHT
 10
0.0
 20
0.0
 30
0.0
  9
$PUCSORGFRONT
 10
0.0
 20
0.0
 30
0.0
  9
$PUCSORGBACK
 10
0.0
 20
0.0
 30
0.0
  9
$USERI1
 70
     0
  9
$USERI2
 70
     0
  9
$USERI3
 70
     0
  9
$USERI4
 70
     0
  9
$USERI5
 70
     0
  9
$USERR1
 40
0.0
  9
$USERR2
 40
0.0
  9
$USERR3
 40
0.0
  9
$USERR4
 40
0.0
  9
$USERR5
 40
0.0
  9
$WORLDVIEW
 70
     1
  9
$SHADEDGE
 70
     3
  9
$SHADEDIF
 70
    70
  9
$TILEMODE
 70
     1
  9
$MAXACTVP
 70
    64
  9
$PINSBASE
 10
0.0
 20
0.0
 30
0.0
  9
$PLIMCHECK
 70
     0
  9
$PEXTMIN
 10
1.000000000000000E+20
 20
1.000000000000000E+20
 30
1.000000000000000E+20
  9
$PEXTMAX
 10
-1.000000000000000E+20
 20
-1.000000000000000E+20
 30
-1.000000000000000E+20
  9
$PLIMMIN
 10
0.0
 20
0.0
  9
$PLIMMAX
 10
12.0
 20
9.0
  9
$UNITMODE
 70
     0
  9
$VISRETAIN
 70
     1
  9
$PLINEGEN
 70
     0
  9
$PSLTSCALE
 70
     1
  9
$TREEDEPTH
 70
  3020
  9
$CMLSTYLE
  2
Standard
  9
$CMLJUST
 70
     0
  9
$CMLSCALE
 40
1.0
  9
$PROXYGRAPHICS
 70
     1
  9
$MEASUREMENT
 70
     0
  9
$CELWEIGHT
370
    -1
  9
$ENDCAPS
280
     0
  9
$JOINSTYLE
280
     0
  9
$LWDISPLAY
290
     0
  9
$INSUNITS
 70
     0
  9
$HYPERLINKBASE
  1

  9
$STYLESHEET
  1

  9
$XEDIT
290
     1
  9
$CEPSNTYPE
380
     0
  9
$PSTYLEMODE
290
     1
  9
$FINGERPRINTGUID
  2
{DE14608E-EC84-4321-B691-FF616E160EE9}
  9
$VERSIONGUID
  2
{92818A05-9571-4406-B7B8-8459CD48D00E}
  9
$EXTNAMES
290
     1
  9
$PSVPSCALE
 40
0.0
  9
$OLESTARTUP
290
     0
  0
ENDSEC
  0
SECTION
  2
CLASSES
  0
CLASS
  1
ACDBDICTIONARYWDFLT
  2
AcDbDictionaryWithDefault
  3
ObjectDBX Classes
 90
        0
280
     0
281
     0
  0
CLASS
  1
MATERIAL
  2
AcDbMaterial
  3
ObjectDBX Classes
 90
     1153
280
     0
281
     0
  0
CLASS
  1
VISUALSTYLE
  2
AcDbVisualStyle
  3
ObjectDBX Classes
 90
     4095
280
     0
281
     0
  0
CLASS
  1
SCALE
  2
AcDbScale
  3
ObjectDBX Classes
 90
     1153
280
     0
281
     0
  0
CLASS
  1
TABLESTYLE
  2
AcDbTableStyle
  3
ObjectDBX Classes
 90
     4095
280
     0
281
     0
  0
CLASS
  1
MLEADERSTYLE
  2
AcDbMLeaderStyle
  3
ACDB_MLEADERSTYLE_CLASS
 90
     4095
280
     0
281
     0
  0
CLASS
  1
SORTENTSTABLE
  2
AcDbSortentsTable
  3
ObjectDBX Classes
 90
        0
280
     0
281
     0
  0
CLASS
  1
DICTIONARYVAR
  2
AcDbDictionaryVar
  3
ObjectDBX Classes
 90
        0
280
     0
281
     0
  0
CLASS
  1
CELLSTYLEMAP
  2
AcDbCellStyleMap
  3
ObjectDBX Classes
 90
     1152
280
     0
281
     0
  0
CLASS
  1
ACDBPLACEHOLDER
  2
AcDbPlaceHolder
  3
ObjectDBX Classes
 90
        0
280
     0
281
     0
  0
CLASS
  1
LAYOUT
  2
AcDbLayout
  3
ObjectDBX Classes
 90
        0
280
     0
281
     0
  0
CLASS
  1
AEC_REFEDIT_STATUS_TRACKER
  2
AecDbRefEditStatusTracker
  3
AecArchBase60|Product Desc: Autodesk Architectural Desktop 2007 |Company: Autodesk,Inc. |WEB Address: www.autodesk.com
 90
      129
280
     0
281
     0
  0
CLASS
  1
NPOCOLLECTION
  2
AcDbImpNonPersistentObjectsCollection
  3
ObjectDBX Classes
 90
     1153
280
     0
281
     0
  0
ENDSEC
  0
SECTION
  2
TABLES
  0
TABLE
  2
VPORT
  5
8
330
0
100
AcDbSymbolTable
 70
     1
  0
VPORT
  5
8B
330
8
100
AcDbSymbolTableRecord
100
AcDbViewportTableRecord
  2
*Active
 70
     0
 10
0.0
 20
0.0
 11
1.0
 21
1.0
 12
1030.95991825824
 22
675.3307017610352
 13
0.0
 23
0.0
 14
1.0
 24
1.0
 15
0.0
 25
0.0
 16
0.0
 26
0.0
 36
1.0
 17
0.0
 27
0.0
 37
0.0
 40
451.132242848481
 41
2.018281535648994
 42
50.0
 43
0.0
 44
0.0
 50
0.0
 51
0.0
 71
     0
 72
   100
 73
     1
 74
     1
 75
     0
 76
     0
 77
     0
 78
     0
281
     0
 65
     1
110
0.0
120
0.0
130
0.0
111
1.0
121
0.0
131
0.0
112
0.0
122
1.0
132
0.0
 79
     0
146
0.0
  0
ENDTAB
  0
TABLE
  2
LTYPE
  5
5
330
0
100
AcDbSymbolTable
 70
     2
  0
LTYPE
  5
5A
330
5
100
AcDbSymbolTableRecord
100
AcDbLinetypeTableRecord
  2
ByBlock
 70
     0
  3

 72
    65
 73
     0
 40
0.0
  0
LTYPE
  5
5B
330
5
100
AcDbSymbolTableRecord
100
AcDbLinetypeTableRecord
  2
ByLayer
 70
     0
  3

 72
    65
 73
     0
 40
0.0
  0
LTYPE
  5
5C
330
5
100
AcDbSymbolTableRecord
100
AcDbLinetypeTableRecord
  2
CONTINUOUS
 70
     0
  3
Solid-line
 72
    65
 73
     0
 40
0.0
  0
ENDTAB
  0
TABLE
  2
LAYER
  5
2
102
{ACAD_XDICTIONARY
360
2E4
102
}
330
0
100
AcDbSymbolTable
 70
     2
  0
LAYER
  5
54
102
{ACAD_XDICTIONARY
360
43E
102
}
330
2
100
AcDbSymbolTableRecord
100
AcDbLayerTableRecord
  2
0
 70
     0
 62
     7
  6
CONTINUOUS
370
    -3
390
F
  0
LAYER
  5
2CF
330
2
100
AcDbSymbolTableRecord
100
AcDbLayerTableRecord
  2
Defpoints
 70
     0
 62
     7
  6
CONTINUOUS
290
     0
370
    -3
390
F
  0
ENDTAB
  0
TABLE
  2
STYLE
  5
3
330
0
100
AcDbSymbolTable
 70
     6
  0
STYLE
  5
55
330
3
100
AcDbSymbolTableRecord
100
AcDbTextStyleTableRecord
  2
STANDARD
 70
     0
 40
0.0
 41
1.0
 50
0.0
 71
     0
 42
0.2
  3
TXT
  4
BIGFONT
  0
STYLE
  5
2D0
330
3
100
AcDbSymbolTableRecord
100
AcDbTextStyleTableRecord
  2
高3.2
 70
     0
 40
3.2
 41
1.0
 50
0.0
 71
     0
 42
3.2
  3
txt.shx
  4
bigfont.shx
  0
STYLE
  5
2D1
330
3
100
AcDbSymbolTableRecord
100
AcDbTextStyleTableRecord
  2
高6.3
 70
     0
 40
6.299999999999998
 41
1.0
 50
0.0
 71
     0
 42
6.299999999999998
  3
txt.shx
  4
bigfont.shx
  0
STYLE
  5
2D2
330
3
100
AcDbSymbolTableRecord
100
AcDbTextStyleTableRecord
  2
高2.5
 70
     0
 40
2.5
 41
1.0
 50
0.0
 71
     0
 42
0.2
  3
txt.shx
  4
bigfont.shx
  0
STYLE
  5
2D3
330
3
100
AcDbSymbolTableRecord
100
AcDbTextStyleTableRecord
  2
高4.5
 70
     0
 40
4.5
 41
1.0
 50
0.0
 71
     0
 42
6.299999999999998
  3
txt.shx
  4
bigfont.shx
  0
STYLE
  5
2D4
330
3
100
AcDbSymbolTableRecord
100
AcDbTextStyleTableRecord
  2
高2
 70
     0
 40
2.0
 41
1.0
 50
0.0
 71
     0
 42
2.0
  3
txt.shx
  4
bigfont.shx
  0
ENDTAB
  0
TABLE
  2
VIEW
  5
6
330
0
100
AcDbSymbolTable
 70
     0
  0
ENDTAB
  0
TABLE
  2
UCS
  5
7
330
0
100
AcDbSymbolTable
 70
     0
  0
ENDTAB
  0
TABLE
  2
APPID
  5
9
330
0
100
AcDbSymbolTable
 70
    10
  0
APPID
  5
56
330
9
100
AcDbSymbolTableRecord
100
AcDbRegAppTableRecord
  2
ACAD
 70
     0
  0
APPID
  5
5D
330
9
100
AcDbSymbolTableRecord
100
AcDbRegAppTableRecord
  2
AcadAnnotative
 70
     0
  0
APPID
  5
2DF
330
9
100
AcDbSymbolTableRecord
100
AcDbRegAppTableRecord
  2
ACAD_DSTYLE_DIMJOGGED_JOGANGLE_SYMBOL
 70
     0
  0
APPID
  5
2E0
330
9
100
AcDbSymbolTableRecord
100
AcDbRegAppTableRecord
  2
ACAD_DSTYLE_DIMJAG
 70
     0
  0
APPID
  5
2E1
330
9
100
AcDbSymbolTableRecord
100
AcDbRegAppTableRecord
  2
ACAD_DSTYLE_DIMBREAK
 70
     0
  0
APPID
  5
2E2
330
9
100
AcDbSymbolTableRecord
100
AcDbRegAppTableRecord
  2
ACAD_DSTYLE_DIMTALN
 70
     0
  0
APPID
  5
424
330
9
100
AcDbSymbolTableRecord
100
AcDbRegAppTableRecord
  2
ACAD_EXEMPT_FROM_CAD_STANDARDS
 70
     0
  0
APPID
  5
486
330
9
100
AcDbSymbolTableRecord
100
AcDbRegAppTableRecord
  2
ACAD_MLEADERVER
 70
     0
  0
APPID
  5
48B
330
9
100
AcDbSymbolTableRecord
100
AcDbRegAppTableRecord
  2
ACAD_DSTYLE_DIMARC_LENGTH_SYMBOL
 70
     0
  0
APPID
  5
48C
330
9
100
AcDbSymbolTableRecord
100
AcDbRegAppTableRecord
  2
ACAD_DSTYLE_DIMEXT_LENGTH
 70
     0
  0
ENDTAB
  0
TABLE
  2
DIMSTYLE
  5
A
330
0
100
AcDbSymbolTable
 70
    11
100
AcDbDimStyleTable
 71
     1
340
2D9
  0
DIMSTYLE
105
57
330
A
100
AcDbSymbolTableRecord
100
AcDbDimStyleTableRecord
  2
Standard
 70
     0
340
55
  0
DIMSTYLE
105
2D9
330
A
100
AcDbSymbolTableRecord
100
AcDbDimStyleTableRecord
  2
1／2
 70
     0
 41
2.5
 42
0.25
 43
0.2
 44
1.25
 73
     0
 74
     0
 77
     3
 78
     8
 79
     2
140
3.0
141
0.0
143
0.03937007874016
144
2.0
147
0.625
171
     3
172
     1
178
     4
179
     1
271
     2
272
     2
274
     3
283
     0
284
     8
288
     1
289
     0
340
55
341
23F
342
23F
1001
ACAD_DSTYLE_DIMARC_LENGTH_SYMBOL
1070
   379
1070
     2
1001
ACAD_DSTYLE_DIMEXT_LENGTH
1070
   378
1040
1.25
1001
ACAD_DSTYLE_DIMJOGGED_JOGANGLE_SYMBOL
1070
   384
1040
1.570796326794896
  0
DIMSTYLE
105
542
330
A
100
AcDbSymbolTableRecord
100
AcDbDimStyleTableRecord
  2
1：1
 70
     0
 41
2.5
 42
0.25
 43
0.2
 44
1.25
 73
     0
 74
     0
 77
     3
 78
     8
 79
     2
140
3.0
141
0.0
143
0.03937007874016
147
0.625
171
     3
172
     1
178
     4
179
     1
271
     2
272
     2
274
     3
283
     0
284
     8
288
     1
289
     0
340
55
341
23F
342
23F
1001
ACAD_DSTYLE_DIMARC_LENGTH_SYMBOL
1070
   379
1070
     2
1001
ACAD_DSTYLE_DIMEXT_LENGTH
1070
   378
1040
1.25
1001
ACAD_DSTYLE_DIMJOGGED_JOGANGLE_SYMBOL
1070
   384
1040
1.570796326794896
  0
DIMSTYLE
105
543
330
A
100
AcDbSymbolTableRecord
100
AcDbDimStyleTableRecord
  2
2：1
 70
     0
 41
2.5
 42
0.25
 43
0.2
 44
1.25
 73
     0
 74
     0
 77
     3
 78
     8
 79
     2
140
3.0
141
0.0
143
0.03937007874016
144
0.5
147
0.625
171
     3
172
     1
178
     4
179
     1
271
     2
272
     2
274
     3
283
     0
284
     8
288
     1
289
     0
340
55
341
23F
342
23F
1001
ACAD_DSTYLE_DIMARC_LENGTH_SYMBOL
1070
   379
1070
     2
1001
ACAD_DSTYLE_DIMEXT_LENGTH
1070
   378
1040
1.25
1001
ACAD_DSTYLE_DIMJOGGED_JOGANGLE_SYMBOL
1070
   384
1040
1.570796326794896
  0
DIMSTYLE
105
544
330
A
100
AcDbSymbolTableRecord
100
AcDbDimStyleTableRecord
  2
5：1
 70
     0
 41
2.5
 42
0.25
 43
0.2
 44
1.25
 73
     0
 74
     0
 77
     3
 78
     8
 79
     2
140
3.0
141
0.0
143
0.03937007874016
144
0.2
147
0.625
171
     3
172
     1
178
     4
179
     1
271
     2
272
     2
274
     3
283
     0
284
     8
288
     1
289
     0
340
55
341
23F
342
23F
1001
ACAD_DSTYLE_DIMARC_LENGTH_SYMBOL
1070
   379
1070
     2
1001
ACAD_DSTYLE_DIMEXT_LENGTH
1070
   378
1040
1.25
1001
ACAD_DSTYLE_DIMJOGGED_JOGANGLE_SYMBOL
1070
   384
1040
1.570796326794896
  0
DIMSTYLE
105
545
330
A
100
AcDbSymbolTableRecord
100
AcDbDimStyleTableRecord
  2
10：1
 70
     0
 41
2.5
 42
0.25
 43
0.2
 44
1.25
 73
     0
 74
     0
 77
     3
 78
     8
 79
     2
140
3.0
141
0.0
143
0.03937007874016
144
0.1
147
0.625
171
     3
172
     1
178
     4
179
     1
271
     2
272
     2
274
     3
283
     0
284
     8
288
     1
289
     0
340
55
341
23F
342
23F
1001
ACAD_DSTYLE_DIMARC_LENGTH_SYMBOL
1070
   379
1070
     2
1001
ACAD_DSTYLE_DIMEXT_LENGTH
1070
   378
1040
1.25
1001
ACAD_DSTYLE_DIMJOGGED_JOGANGLE_SYMBOL
1070
   384
1040
1.570796326794896
  0
DIMSTYLE
105
546
330
A
100
AcDbSymbolTableRecord
100
AcDbDimStyleTableRecord
  2
1／5
 70
     0
 41
2.5
 42
0.25
 43
0.2
 44
1.25
 73
     0
 74
     0
 77
     3
 78
     8
 79
     2
140
3.0
141
0.0
143
0.03937007874016
144
5.0
147
0.625
171
     3
172
     1
178
     4
179
     1
271
     2
272
     2
274
     3
283
     0
284
     8
288
     1
289
     0
340
55
341
23F
342
23F
1001
ACAD_DSTYLE_DIMARC_LENGTH_SYMBOL
1070
   379
1070
     2
1001
ACAD_DSTYLE_DIMEXT_LENGTH
1070
   378
1040
1.25
1001
ACAD_DSTYLE_DIMJOGGED_JOGANGLE_SYMBOL
1070
   384
1040
1.570796326794896
  0
DIMSTYLE
105
547
330
A
100
AcDbSymbolTableRecord
100
AcDbDimStyleTableRecord
  2
1／10
 70
     0
 41
2.5
 42
0.25
 43
0.2
 44
1.25
 73
     0
 74
     0
 77
     3
 78
     8
 79
     2
140
3.0
141
0.0
143
0.03937007874016
144
10.0
147
0.625
171
     3
172
     1
178
     4
179
     1
271
     2
272
     2
274
     3
283
     0
284
     8
288
     1
289
     0
340
55
341
23F
342
23F
1001
ACAD_DSTYLE_DIMARC_LENGTH_SYMBOL
1070
   379
1070
     2
1001
ACAD_DSTYLE_DIMEXT_LENGTH
1070
   378
1040
1.25
1001
ACAD_DSTYLE_DIMJOGGED_JOGANGLE_SYMBOL
1070
   384
1040
1.570796326794896
  0
DIMSTYLE
105
548
330
A
100
AcDbSymbolTableRecord
100
AcDbDimStyleTableRecord
  2
1／4
 70
     0
 41
2.5
 42
0.25
 43
0.2
 44
1.25
 73
     0
 74
     0
 77
     3
 78
     8
 79
     2
140
3.0
141
0.0
143
0.03937007874016
144
4.0
147
0.625
171
     3
172
     1
178
     4
179
     1
271
     2
272
     2
274
     3
283
     0
284
     8
288
     1
289
     0
340
55
341
23F
342
23F
1001
ACAD_DSTYLE_DIMARC_LENGTH_SYMBOL
1070
   379
1070
     2
1001
ACAD_DSTYLE_DIMEXT_LENGTH
1070
   378
1040
1.25
1001
ACAD_DSTYLE_DIMJOGGED_JOGANGLE_SYMBOL
1070
   384
1040
1.570796326794896
  0
DIMSTYLE
105
549
330
A
100
AcDbSymbolTableRecord
100
AcDbDimStyleTableRecord
  2
1／3
 70
     0
 41
2.5
 42
0.25
 43
0.2
 44
1.25
 73
     0
 74
     0
 77
     3
 78
     8
 79
     2
140
3.0
141
0.0
143
0.03937007874016
144
3.0
147
0.625
171
     3
172
     1
178
     4
179
     1
271
     2
272
     2
274
     3
283
     0
284
     8
288
     1
289
     0
340
55
341
23F
342
23F
1001
ACAD_DSTYLE_DIMARC_LENGTH_SYMBOL
1070
   379
1070
     2
1001
ACAD_DSTYLE_DIMEXT_LENGTH
1070
   378
1040
1.25
1001
ACAD_DSTYLE_DIMJOGGED_JOGANGLE_SYMBOL
1070
   384
1040
1.570796326794896
  0
DIMSTYLE
105
54A
330
A
100
AcDbSymbolTableRecord
100
AcDbDimStyleTableRecord
  2
FREE
 70
     0
 41
2.5
 42
0.25
 43
0.2
 44
1.25
 73
     0
 74
     0
 77
     3
 78
     8
 79
     2
140
3.0
141
0.0
143
0.03937007874016
147
0.625
171
     3
172
     1
178
     4
179
     1
271
     2
272
     2
274
     3
283
     0
284
     8
288
     1
289
     0
340
55
341
23F
342
23F
1001
ACAD_DSTYLE_DIMBREAK
1070
   391
1040
3.75
1001
ACAD_DSTYLE_DIMJAG
1070
   388
1040
1.5
1001
ACAD_DSTYLE_DIMTALN
1070
   392
1070
     0
1001
ACAD_DSTYLE_DIMARC_LENGTH_SYMBOL
1070
   379
1070
     2
1001
ACAD_DSTYLE_DIMEXT_LENGTH
1070
   378
1040
1.25
1001
ACAD_DSTYLE_DIMJOGGED_JOGANGLE_SYMBOL
1070
   384
1040
1.570796326794896
  0
ENDTAB
  0
TABLE
  2
BLOCK_RECORD
  5
1
330
0
100
AcDbSymbolTable
 70
    15
  0
BLOCK_RECORD
  5
6B
102
{ACAD_XDICTIONARY
360
995
102
}
330
1
100
AcDbSymbolTableRecord
100
AcDbBlockTableRecord
  2
*Model_Space
340
6E
  0
BLOCK_RECORD
  5
67
330
1
100
AcDbSymbolTableRecord
100
AcDbBlockTableRecord
  2
*Paper_Space
340
6A
  0
BLOCK_RECORD
  5
23F
330
1
100
AcDbSymbolTableRecord
100
AcDbBlockTableRecord
  2
_Open30
340
0
102
{BLKREFS
331
750
331
751
331
75B
331
75C
331
766
331
767
331
771
331
772
331
77C
331
77D
331
787
331
788
331
792
331
793
331
79D
331
79E
331
7A8
331
7A9
331
7B1
331
7B2
331
877
331
878
331
880
331
881
331
892
331
893
102
}
  0
BLOCK_RECORD
  5
3F6
330
1
100
AcDbSymbolTableRecord
100
AcDbBlockTableRecord
  2
*D1
340
0
  0
BLOCK_RECORD
  5
402
330
1
100
AcDbSymbolTableRecord
100
AcDbBlockTableRecord
  2
*D2
340
0
  0
BLOCK_RECORD
  5
40F
330
1
100
AcDbSymbolTableRecord
100
AcDbBlockTableRecord
  2
*D3
340
0
  0
BLOCK_RECORD
  5
6C1
330
1
100
AcDbSymbolTableRecord
100
AcDbBlockTableRecord
  2
*D4
340
0
  0
BLOCK_RECORD
  5
6CF
330
1
100
AcDbSymbolTableRecord
100
AcDbBlockTableRecord
  2
*D5
340
0
  0
BLOCK_RECORD
  5
6DD
330
1
100
AcDbSymbolTableRecord
100
AcDbBlockTableRecord
  2
*D6
340
0
  0
BLOCK_RECORD
  5
6EB
330
1
100
AcDbSymbolTableRecord
100
AcDbBlockTableRecord
  2
*D7
340
0
  0
BLOCK_RECORD
  5
6F9
330
1
100
AcDbSymbolTableRecord
100
AcDbBlockTableRecord
  2
*D8
340
0
  0
BLOCK_RECORD
  5
707
330
1
100
AcDbSymbolTableRecord
100
AcDbBlockTableRecord
  2
*D9
340
0
  0
BLOCK_RECORD
  5
715
330
1
100
AcDbSymbolTableRecord
100
AcDbBlockTableRecord
  2
*D10
340
0
  0
BLOCK_RECORD
  5
723
330
1
100
AcDbSymbolTableRecord
100
AcDbBlockTableRecord
  2
*D11
340
0
  0
BLOCK_RECORD
  5
731
330
1
100
AcDbSymbolTableRecord
100
AcDbBlockTableRecord
  2
*D12
340
0
  0
BLOCK_RECORD
  5
73F
330
1
100
AcDbSymbolTableRecord
100
AcDbBlockTableRecord
  2
*D13
340
0
  0
ENDTAB
  0
ENDSEC
  0
SECTION
  2
BLOCKS
  0
BLOCK
  5
6C
330
6B
100
AcDbEntity
  8
0
100
AcDbBlockBegin
  2
*Model_Space
 70
     0
 10
0.0
 20
0.0
 30
0.0
  3
*Model_Space
  1

  0
ENDBLK
  5
6D
330
6B
100
AcDbEntity
  8
0
100
AcDbBlockEnd
  0
BLOCK
  5
68
330
67
100
AcDbEntity
 67
     1
  8
0
100
AcDbBlockBegin
  2
*Paper_Space
 70
     0
 10
0.0
 20
0.0
 30
0.0
  3
*Paper_Space
  1

  0
ENDBLK
  5
69
330
67
100
AcDbEntity
 67
     1
  8
0
100
AcDbBlockEnd
  0
BLOCK
  5
240
330
23F
100
AcDbEntity
  8
0
100
AcDbBlockBegin
  2
_Open30
 70
     0
 10
0.0
 20
0.0
 30
0.0
  3
_Open30
  1

  0
LINE
  5
241
330
23F
100
AcDbEntity
  8
0
  6
ByBlock
 62
     0
370
    -2
100
AcDbLine
 10
-1.0
 20
0.267949
 30
0.0
 11
0.0
 21
0.0
 31
0.0
  0
LINE
  5
242
330
23F
100
AcDbEntity
  8
0
  6
ByBlock
 62
     0
370
    -2
100
AcDbLine
 10
0.0
 20
0.0
 30
0.0
 11
-1.0
 21
-0.267949
 31
0.0
  0
LINE
  5
243
330
23F
100
AcDbEntity
  8
0
  6
ByBlock
 62
     0
370
    -2
100
AcDbLine
 10
0.0
 20
0.0
 30
0.0
 11
-1.0
 21
0.0
 31
0.0
  0
ENDBLK
  5
244
330
23F
100
AcDbEntity
  8
0
100
AcDbBlockEnd
  0
BLOCK
  5
3F7
330
3F6
100
AcDbEntity
  8
0
100
AcDbBlockBegin
  2
*D1
 70
     1
 10
0.0
 20
0.0
 30
0.0
  3
*D1
  1

  0
LINE
  5
874
330
3F6
100
AcDbEntity
  8
0
 62
     0
370
    -2
100
AcDbLine
 10
912.1749409999999
 20
730.0758689999999
 30
0.0
 11
912.1749409999999
 21
776.7441589999998
 31
0.0
  0
LINE
  5
875
330
3F6
100
AcDbEntity
  8
0
 62
     0
370
    -2
100
AcDbLine
 10
992.174941
 20
730.0758689999999
 30
0.0
 11
992.174941
 21
776.7441589999998
 31
0.0
  0
LINE
  5
876
330
3F6
100
AcDbEntity
  8
0
 62
     0
370
    -2
100
AcDbLine
 10
914.6749409999999
 20
775.4941589999997
 30
0.0
 11
989.6749409999999
 21
775.4941589999997
 31
0.0
  0
INSERT
  5
877
330
3F6
100
AcDbEntity
  8
0
 62
     0
370
    -2
100
AcDbBlockReference
  2
_Open30
 10
912.1749409999999
 20
775.4941589999997
 30
0.0
 41
2.5
 42
2.5
 43
2.5
 50
180.0
  0
INSERT
  5
878
330
3F6
100
AcDbEntity
  8
0
 62
     0
370
    -2
100
AcDbBlockReference
  2
_Open30
 10
992.174941
 20
775.4941589999997
 30
0.0
 41
2.5
 42
2.5
 43
2.5
  0
MTEXT
  5
879
330
3F6
100
AcDbEntity
  8
0
 62
     4
100
AcDbMText
 10
952.1749409999999
 20
777.6191589999997
 30
0.0
 40
3.0
 41
0.0
 71
     5
 72
     1
  1
160
 73
     1
 44
1.0
1001
ACAD
1000
MTEXTBEGIN
1070
    73
1070
     1
1070
    44
1040
1.0
1070
    74
1070
     0
1000
MTEXTEND
  0
POINT
  5
87A
330
3F6
100
AcDbEntity
  8
Defpoints
 62
     0
100
AcDbPoint
 10
912.1749409999999
 20
729.8258689999999
 30
0.0
  0
POINT
  5
87B
330
3F6
100
AcDbEntity
  8
Defpoints
 62
     0
100
AcDbPoint
 10
992.174941
 20
729.8258689999999
 30
0.0
  0
POINT
  5
87C
330
3F6
100
AcDbEntity
  8
Defpoints
 62
     0
100
AcDbPoint
 10
992.174941
 20
775.4941589999997
 30
0.0
  0
ENDBLK
  5
3F8
330
3F6
100
AcDbEntity
  8
0
100
AcDbBlockEnd
  0
BLOCK
  5
403
330
402
100
AcDbEntity
  8
0
100
AcDbBlockBegin
  2
*D2
 70
     1
 10
0.0
 20
0.0
 30
0.0
  3
*D2
  1

  0
LINE
  5
87D
330
402
100
AcDbEntity
  8
0
 62
     0
370
    -2
100
AcDbLine
 10
951.924941
 20
643.751342
 30
0.0
 11
900.8638900000001
 21
643.751342
 31
0.0
  0
LINE
  5
87E
330
402
100
AcDbEntity
  8
0
 62
     0
370
    -2
100
AcDbLine
 10
951.924941
 20
762.751342
 30
0.0
 11
900.8638900000001
 21
762.751342
 31
0.0
  0
LINE
  5
87F
330
402
100
AcDbEntity
  8
0
 62
     0
370
    -2
100
AcDbLine
 10
902.11389
 20
646.251342
 30
0.0
 11
902.11389
 21
760.251342
 31
0.0
  0
INSERT
  5
880
330
402
100
AcDbEntity
  8
0
 62
     0
370
    -2
100
AcDbBlockReference
  2
_Open30
 10
902.11389
 20
643.751342
 30
0.0
 41
2.5
 42
2.5
 43
2.5
 50
270.0
  0
INSERT
  5
881
330
402
100
AcDbEntity
  8
0
 62
     0
370
    -2
100
AcDbBlockReference
  2
_Open30
 10
902.11389
 20
762.751342
 30
0.0
 41
2.5
 42
2.5
 43
2.5
 50
90.0
  0
MTEXT
  5
882
330
402
100
AcDbEntity
  8
0
 62
     4
100
AcDbMText
 10
899.98889
 20
703.2513420000002
 30
0.0
 40
3.0
 41
0.0
 71
     5
 72
     1
  1
238
 11
0.0000000000000001
 21
1.0
 31
0.0
 73
     1
 44
1.0
1001
ACAD
1000
MTEXTBEGIN
1070
    73
1070
     1
1070
    44
1040
1.0
1070
    74
1070
     0
1000
MTEXTEND
  0
POINT
  5
883
330
402
100
AcDbEntity
  8
Defpoints
 62
     0
100
AcDbPoint
 10
952.1749409999999
 20
643.751342
 30
0.0
  0
POINT
  5
884
330
402
100
AcDbEntity
  8
Defpoints
 62
     0
100
AcDbPoint
 10
952.1749409999999
 20
762.751342
 30
0.0
  0
POINT
  5
885
330
402
100
AcDbEntity
  8
Defpoints
 62
     0
100
AcDbPoint
 10
902.11389
 20
762.751342
 30
0.0
  0
ENDBLK
  5
404
330
402
100
AcDbEntity
  8
0
100
AcDbBlockEnd
  0
BLOCK
  5
410
330
40F
100
AcDbEntity
  8
0
100
AcDbBlockBegin
  2
*D3
 70
     1
 10
0.0
 20
0.0
 30
0.0
  3
*D3
  1

  0
LINE
  5
88F
330
40F
100
AcDbEntity
  8
0
  6
Continuous
 62
     0
370
    -2
100
AcDbLine
 10
942.4331107280648
 20
649.326200130278
 30
0.0
 11
942.4331107280648
 21
626.1109904795696
 31
0.0
  0
LINE
  5
890
330
40F
100
AcDbEntity
  8
0
  6
Continuous
 62
     0
370
    -2
100
AcDbLine
 10
961.9200752719352
 20
650.9970578697217
 30
0.0
 11
961.9200752719352
 21
626.1109904795696
 31
0.0
  0
LINE
  5
891
330
40F
100
AcDbEntity
  8
0
  6
Continuous
 62
     0
370
    -2
100
AcDbLine
 10
944.9331107280647
 20
627.3609904795696
 30
0.0
 11
959.4200752719352
 21
627.3609904795696
 31
0.0
  0
INSERT
  5
892
330
40F
100
AcDbEntity
  8
0
  6
Continuous
 62
     0
370
    -2
100
AcDbBlockReference
  2
_Open30
 10
942.4331107280648
 20
627.3609904795696
 30
0.0
 41
2.5
 42
2.5
 43
2.5
 50
180.0
  0
INSERT
  5
893
330
40F
100
AcDbEntity
  8
0
  6
Continuous
 62
     0
370
    -2
100
AcDbBlockReference
  2
_Open30
 10
961.9200752719352
 20
627.3609904795696
 30
0.0
 41
2.5
 42
2.5
 43
2.5
  0
MTEXT
  5
894
330
40F
100
AcDbEntity
  8
0
  6
Continuous
 62
     4
100
AcDbMText
 10
952.176593
 20
629.4859904795696
 30
0.0
 40
3.0
 41
0.0
 71
     5
 72
     1
  1
E39
 73
     1
 44
1.0
1001
ACAD
1000
MTEXTBEGIN
1070
    73
1070
     1
1070
    44
1040
1.0
1070
    74
1070
     0
1000
MTEXTEND
  0
POINT
  5
895
330
40F
100
AcDbEntity
  8
Defpoints
  6
Continuous
 62
     0
100
AcDbPoint
 10
942.4331107280648
 20
649.576200130278
 30
0.0
  0
POINT
  5
896
330
40F
100
AcDbEntity
  8
Defpoints
  6
Continuous
 62
     0
100
AcDbPoint
 10
961.9200752719352
 20
651.2470578697217
 30
0.0
  0
POINT
  5
897
330
40F
100
AcDbEntity
  8
Defpoints
  6
Continuous
 62
     0
100
AcDbPoint
 10
961.9200752719352
 20
627.3609904795696
 30
0.0
  0
ENDBLK
  5
411
330
40F
100
AcDbEntity
  8
0
100
AcDbBlockEnd
  0
BLOCK
  5
6C2
330
6C1
100
AcDbEntity
  8
0
100
AcDbBlockBegin
  2
*D4
 70
     1
 10
0.0
 20
0.0
 30
0.0
  3
*D4
  1

  0
LINE
  5
74B
330
6C1
100
AcDbEntity
  8
0
 62
     0
370
    -2
100
AcDbLine
 10
1398.090415604116
 20
815.8490178077979
 30
0.0
 11
1398.090415604116
 21
812.939386385789
 31
0.0
  0
LINE
  5
74C
330
6C1
100
AcDbEntity
  8
0
 62
     0
370
    -2
100
AcDbLine
 10
1395.633228549996
 20
815.8490178077979
 30
0.0
 11
1395.633228549996
 21
812.939386385789
 31
0.0
  0
LINE
  5
74D
330
6C1
100
AcDbEntity
  8
0
 62
     0
370
    -2
100
AcDbLine
 10
1400.590415604115
 20
814.1893863857889
 30
0.0
 11
1403.090415604116
 21
814.1893863857889
 31
0.0
  0
LINE
  5
74E
330
6C1
100
AcDbEntity
  8
0
 62
     0
370
    -2
100
AcDbLine
 10
1393.133228549996
 20
814.1893863857889
 30
0.0
 11
1380.383228549996
 21
814.1893863857889
 31
0.0
  0
LINE
  5
74F
330
6C1
100
AcDbEntity
  8
0
 62
     0
370
    -2
100
AcDbLine
 10
1398.090415604116
 20
814.1893863857889
 30
0.0
 11
1395.633228549996
 21
814.1893863857889
 31
0.0
  0
INSERT
  5
750
330
6C1
100
AcDbEntity
  8
0
 62
     0
370
    -2
100
AcDbBlockReference
  2
_Open30
 10
1398.090415604116
 20
814.1893863857889
 30
0.0
 41
2.5
 42
2.5
 43
2.5
 50
180.0
  0
INSERT
  5
751
330
6C1
100
AcDbEntity
  8
0
 62
     0
370
    -2
100
AcDbBlockReference
  2
_Open30
 10
1395.633228549996
 20
814.1893863857889
 30
0.0
 41
2.5
 42
2.5
 43
2.5
  0
MTEXT
  5
752
330
6C1
100
AcDbEntity
  8
0
 62
     4
100
AcDbMText
 10
1385.508228549996
 20
816.3143863857889
 30
0.0
 40
3.0
 41
0.0
 71
     5
 72
     1
  1
2.46
 73
     1
 44
1.0
1001
ACAD
1000
MTEXTBEGIN
1070
    73
1070
     1
1070
    44
1040
1.0
1070
    74
1070
     0
1000
MTEXTEND
  0
POINT
  5
753
330
6C1
100
AcDbEntity
  8
Defpoints
 62
     0
100
AcDbPoint
 10
1398.090415604116
 20
816.0990178077977
 30
0.0
  0
POINT
  5
754
330
6C1
100
AcDbEntity
  8
Defpoints
 62
     0
100
AcDbPoint
 10
1395.633228549996
 20
816.0990178077977
 30
0.0
  0
POINT
  5
755
330
6C1
100
AcDbEntity
  8
Defpoints
 62
     0
100
AcDbPoint
 10
1395.633228549996
 20
814.1893863857889
 30
0.0
  0
ENDBLK
  5
6C3
330
6C1
100
AcDbEntity
  8
0
100
AcDbBlockEnd
  0
BLOCK
  5
6D0
330
6CF
100
AcDbEntity
  8
0
100
AcDbBlockBegin
  2
*D5
 70
     1
 10
0.0
 20
0.0
 30
0.0
  3
*D5
  1

  0
LINE
  5
756
330
6CF
100
AcDbEntity
  8
0
 62
     0
370
    -2
100
AcDbLine
 10
1399.728540510189
 20
810.3929282350355
 30
0.0
 11
1399.728540510189
 21
807.8470361655719
 31
0.0
  0
LINE
  5
757
330
6CF
100
AcDbEntity
  8
0
 62
     0
370
    -2
100
AcDbLine
 10
1396.634304712047
 20
810.3929282350355
 30
0.0
 11
1396.634304712047
 21
807.8470361655719
 31
0.0
  0
LINE
  5
758
330
6CF
100
AcDbEntity
  8
0
 62
     0
370
    -2
100
AcDbLine
 10
1402.228540510189
 20
809.097036165572
 30
0.0
 11
1404.728540510189
 21
809.097036165572
 31
0.0
  0
LINE
  5
759
330
6CF
100
AcDbEntity
  8
0
 62
     0
370
    -2
100
AcDbLine
 10
1394.134304712047
 20
809.097036165572
 30
0.0
 11
1380.300971378713
 21
809.097036165572
 31
0.0
  0
LINE
  5
75A
330
6CF
100
AcDbEntity
  8
0
 62
     0
370
    -2
100
AcDbLine
 10
1399.728540510189
 20
809.097036165572
 30
0.0
 11
1396.634304712047
 21
809.097036165572
 31
0.0
  0
INSERT
  5
75B
330
6CF
100
AcDbEntity
  8
0
 62
     0
370
    -2
100
AcDbBlockReference
  2
_Open30
 10
1399.728540510189
 20
809.097036165572
 30
0.0
 41
2.5
 42
2.5
 43
2.5
 50
180.0
  0
INSERT
  5
75C
330
6CF
100
AcDbEntity
  8
0
 62
     0
370
    -2
100
AcDbBlockReference
  2
_Open30
 10
1396.634304712047
 20
809.097036165572
 30
0.0
 41
2.5
 42
2.5
 43
2.5
  0
MTEXT
  5
75D
330
6CF
100
AcDbEntity
  8
0
 62
     4
100
AcDbMText
 10
1385.509304712047
 20
810.9720361655719
 30
0.0
 40
2.5
 41
0.0
 71
     5
 72
     1
  1
15.47
  7
高2.5
 73
     1
 44
1.0
1001
ACAD
1000
MTEXTBEGIN
1070
    73
1070
     1
1070
    44
1040
1.0
1070
    74
1070
     0
1000
MTEXTEND
  0
POINT
  5
75E
330
6CF
100
AcDbEntity
  8
Defpoints
 62
     0
100
AcDbPoint
 10
1399.728540510189
 20
810.6429282350353
 30
0.0
  0
POINT
  5
75F
330
6CF
100
AcDbEntity
  8
Defpoints
 62
     0
100
AcDbPoint
 10
1396.634304712047
 20
810.6429282350353
 30
0.0
  0
POINT
  5
760
330
6CF
100
AcDbEntity
  8
Defpoints
 62
     0
100
AcDbPoint
 10
1396.634304712047
 20
809.097036165572
 30
0.0
  0
ENDBLK
  5
6D1
330
6CF
100
AcDbEntity
  8
0
100
AcDbBlockEnd
  0
BLOCK
  5
6DE
330
6DD
100
AcDbEntity
  8
0
100
AcDbBlockBegin
  2
*D6
 70
     1
 10
0.0
 20
0.0
 30
0.0
  3
*D6
  1

  0
LINE
  5
761
330
6DD
100
AcDbEntity
  8
0
 62
     0
370
    -2
100
AcDbLine
 10
1401.457672118275
 20
804.936838519189
 30
0.0
 11
1401.457672118275
 21
802.6637508568217
 31
0.0
  0
LINE
  5
762
330
6DD
100
AcDbEntity
  8
0
 62
     0
370
    -2
100
AcDbLine
 10
1397.453367165083
 20
804.936838519189
 30
0.0
 11
1397.453367165083
 21
802.6637508568217
 31
0.0
  0
LINE
  5
763
330
6DD
100
AcDbEntity
  8
0
 62
     0
370
    -2
100
AcDbLine
 10
1403.957672118275
 20
803.9137508568217
 30
0.0
 11
1406.457672118275
 21
803.9137508568217
 31
0.0
  0
LINE
  5
764
330
6DD
100
AcDbEntity
  8
0
 62
     0
370
    -2
100
AcDbLine
 10
1394.953367165083
 20
803.9137508568217
 30
0.0
 11
1383.203367165083
 21
803.9137508568217
 31
0.0
  0
LINE
  5
765
330
6DD
100
AcDbEntity
  8
0
 62
     0
370
    -2
100
AcDbLine
 10
1401.457672118275
 20
803.9137508568217
 30
0.0
 11
1397.453367165083
 21
803.9137508568217
 31
0.0
  0
INSERT
  5
766
330
6DD
100
AcDbEntity
  8
0
 62
     0
370
    -2
100
AcDbBlockReference
  2
_Open30
 10
1401.457672118275
 20
803.9137508568217
 30
0.0
 41
2.5
 42
2.5
 43
2.5
 50
180.0
  0
INSERT
  5
767
330
6DD
100
AcDbEntity
  8
0
 62
     0
370
    -2
100
AcDbBlockReference
  2
_Open30
 10
1397.453367165083
 20
803.9137508568217
 30
0.0
 41
2.5
 42
2.5
 43
2.5
  0
MTEXT
  5
768
330
6DD
100
AcDbEntity
  8
0
 62
     4
100
AcDbMText
 10
1387.828367165083
 20
806.1387508568216
 30
0.0
 40
3.2
 41
0.0
 71
     5
 72
     1
  1
8.01
  7
高3.2
 73
     1
 44
1.0
1001
ACAD
1000
MTEXTBEGIN
1070
    73
1070
     1
1070
    44
1040
1.0
1070
    74
1070
     0
1000
MTEXTEND
  0
POINT
  5
769
330
6DD
100
AcDbEntity
  8
Defpoints
 62
     0
100
AcDbPoint
 10
1401.457672118275
 20
805.1868385191889
 30
0.0
  0
POINT
  5
76A
330
6DD
100
AcDbEntity
  8
Defpoints
 62
     0
100
AcDbPoint
 10
1397.453367165083
 20
805.1868385191889
 30
0.0
  0
POINT
  5
76B
330
6DD
100
AcDbEntity
  8
Defpoints
 62
     0
100
AcDbPoint
 10
1397.453367165083
 20
803.9137508568217
 30
0.0
  0
ENDBLK
  5
6DF
330
6DD
100
AcDbEntity
  8
0
100
AcDbBlockEnd
  0
BLOCK
  5
6EC
330
6EB
100
AcDbEntity
  8
0
100
AcDbBlockBegin
  2
*D7
 70
     1
 10
0.0
 20
0.0
 30
0.0
  3
*D7
  1

  0
LINE
  5
76C
330
6EB
100
AcDbEntity
  8
0
 62
     0
370
    -2
100
AcDbLine
 10
1401.366665416263
 20
799.6626185511574
 30
0.0
 11
1401.366665416263
 21
797.844205043701
 31
0.0
  0
LINE
  5
76D
330
6EB
100
AcDbEntity
  8
0
 62
     0
370
    -2
100
AcDbLine
 10
1396.634304712047
 20
799.6626185511574
 30
0.0
 11
1396.634304712047
 21
797.844205043701
 31
0.0
  0
LINE
  5
76E
330
6EB
100
AcDbEntity
  8
0
 62
     0
370
    -2
100
AcDbLine
 10
1403.866665416263
 20
799.0942050437007
 30
0.0
 11
1406.366665416262
 21
799.0942050437007
 31
0.0
  0
LINE
  5
76F
330
6EB
100
AcDbEntity
  8
0
 62
     0
370
    -2
100
AcDbLine
 10
1394.134304712047
 20
799.0942050437007
 30
0.0
 11
1372.384304712047
 21
799.0942050437007
 31
0.0
  0
LINE
  5
770
330
6EB
100
AcDbEntity
  8
0
 62
     0
370
    -2
100
AcDbLine
 10
1401.366665416263
 20
799.0942050437007
 30
0.0
 11
1396.634304712047
 21
799.0942050437007
 31
0.0
  0
INSERT
  5
771
330
6EB
100
AcDbEntity
  8
0
 62
     0
370
    -2
100
AcDbBlockReference
  2
_Open30
 10
1401.366665416263
 20
799.0942050437007
 30
0.0
 41
2.5
 42
2.5
 43
2.5
 50
180.0
  0
INSERT
  5
772
330
6EB
100
AcDbEntity
  8
0
 62
     0
370
    -2
100
AcDbBlockReference
  2
_Open30
 10
1396.634304712047
 20
799.0942050437007
 30
0.0
 41
2.5
 42
2.5
 43
2.5
  0
MTEXT
  5
773
330
6EB
100
AcDbEntity
  8
0
 62
     4
100
AcDbMText
 10
1382.009304712046
 20
801.969205043701
 30
0.0
 40
4.5
 41
0.0
 71
     5
 72
     1
  1
47.32
  7
高4.5
 73
     1
 44
1.0
1001
ACAD
1000
MTEXTBEGIN
1070
    73
1070
     1
1070
    44
1040
1.0
1070
    74
1070
     0
1000
MTEXTEND
  0
POINT
  5
774
330
6EB
100
AcDbEntity
  8
Defpoints
 62
     0
100
AcDbPoint
 10
1401.366665416263
 20
799.9126185511572
 30
0.0
  0
POINT
  5
775
330
6EB
100
AcDbEntity
  8
Defpoints
 62
     0
100
AcDbPoint
 10
1396.634304712047
 20
799.9126185511572
 30
0.0
  0
POINT
  5
776
330
6EB
100
AcDbEntity
  8
Defpoints
 62
     0
100
AcDbPoint
 10
1396.634304712047
 20
799.0942050437007
 30
0.0
  0
ENDBLK
  5
6ED
330
6EB
100
AcDbEntity
  8
0
100
AcDbBlockEnd
  0
BLOCK
  5
6FA
330
6F9
100
AcDbEntity
  8
0
100
AcDbBlockBegin
  2
*D8
 70
     1
 10
0.0
 20
0.0
 30
0.0
  3
*D8
  1

  0
LINE
  5
777
330
6F9
100
AcDbEntity
  8
0
 62
     0
370
    -2
100
AcDbLine
 10
1422.84430168427
 20
815.8490178077979
 30
0.0
 11
1422.84430168427
 21
812.939386385789
 31
0.0
  0
LINE
  5
778
330
6F9
100
AcDbEntity
  8
0
 62
     0
370
    -2
100
AcDbLine
 10
1420.38711463015
 20
815.8490178077979
 30
0.0
 11
1420.38711463015
 21
812.939386385789
 31
0.0
  0
LINE
  5
779
330
6F9
100
AcDbEntity
  8
0
 62
     0
370
    -2
100
AcDbLine
 10
1425.34430168427
 20
814.1893863857889
 30
0.0
 11
1427.84430168427
 21
814.1893863857889
 31
0.0
  0
LINE
  5
77A
330
6F9
100
AcDbEntity
  8
0
 62
     0
370
    -2
100
AcDbLine
 10
1417.88711463015
 20
814.1893863857889
 30
0.0
 11
1396.28711463015
 21
814.1893863857889
 31
0.0
  0
LINE
  5
77B
330
6F9
100
AcDbEntity
  8
0
 62
     0
370
    -2
100
AcDbLine
 10
1422.84430168427
 20
814.1893863857889
 30
0.0
 11
1420.38711463015
 21
814.1893863857889
 31
0.0
  0
INSERT
  5
77C
330
6F9
100
AcDbEntity
  8
0
 62
     0
370
    -2
100
AcDbBlockReference
  2
_Open30
 10
1422.84430168427
 20
814.1893863857889
 30
0.0
 41
2.5
 42
2.5
 43
2.5
 50
180.0
  0
INSERT
  5
77D
330
6F9
100
AcDbEntity
  8
0
 62
     0
370
    -2
100
AcDbBlockReference
  2
_Open30
 10
1420.38711463015
 20
814.1893863857889
 30
0.0
 41
2.5
 42
2.5
 43
2.5
  0
MTEXT
  5
77E
330
6F9
100
AcDbEntity
  8
0
 62
     4
100
AcDbMText
 10
1405.83711463015
 20
817.964386385789
 30
0.0
 40
6.299999999999998
 41
0.0
 71
     5
 72
     1
  1
0.25
  7
高6.3
 73
     1
 44
1.0
1001
ACAD
1000
MTEXTBEGIN
1070
    73
1070
     1
1070
    44
1040
1.0
1070
    74
1070
     0
1000
MTEXTEND
  0
POINT
  5
77F
330
6F9
100
AcDbEntity
  8
Defpoints
 62
     0
100
AcDbPoint
 10
1422.84430168427
 20
816.0990178077977
 30
0.0
  0
POINT
  5
780
330
6F9
100
AcDbEntity
  8
Defpoints
 62
     0
100
AcDbPoint
 10
1420.38711463015
 20
816.0990178077977
 30
0.0
  0
POINT
  5
781
330
6F9
100
AcDbEntity
  8
Defpoints
 62
     0
100
AcDbPoint
 10
1420.38711463015
 20
814.1893863857889
 30
0.0
  0
ENDBLK
  5
6FB
330
6F9
100
AcDbEntity
  8
0
100
AcDbBlockEnd
  0
BLOCK
  5
708
330
707
100
AcDbEntity
  8
0
100
AcDbBlockBegin
  2
*D9
 70
     1
 10
0.0
 20
0.0
 30
0.0
  3
*D9
  1

  0
LINE
  5
782
330
707
100
AcDbEntity
  8
0
 62
     0
370
    -2
100
AcDbLine
 10
1424.482426590343
 20
810.3929282350355
 30
0.0
 11
1424.482426590343
 21
807.8470361655719
 31
0.0
  0
LINE
  5
783
330
707
100
AcDbEntity
  8
0
 62
     0
370
    -2
100
AcDbLine
 10
1421.3881907922
 20
810.3929282350355
 30
0.0
 11
1421.3881907922
 21
807.8470361655719
 31
0.0
  0
LINE
  5
784
330
707
100
AcDbEntity
  8
0
 62
     0
370
    -2
100
AcDbLine
 10
1426.982426590343
 20
809.097036165572
 30
0.0
 11
1429.482426590343
 21
809.097036165572
 31
0.0
  0
LINE
  5
785
330
707
100
AcDbEntity
  8
0
 62
     0
370
    -2
100
AcDbLine
 10
1418.8881907922
 20
809.097036165572
 30
0.0
 11
1406.8881907922
 21
809.097036165572
 31
0.0
  0
LINE
  5
786
330
707
100
AcDbEntity
  8
0
 62
     0
370
    -2
100
AcDbLine
 10
1424.482426590343
 20
809.097036165572
 30
0.0
 11
1421.3881907922
 21
809.097036165572
 31
0.0
  0
INSERT
  5
787
330
707
100
AcDbEntity
  8
0
 62
     0
370
    -2
100
AcDbBlockReference
  2
_Open30
 10
1424.482426590343
 20
809.097036165572
 30
0.0
 41
2.5
 42
2.5
 43
2.5
 50
180.0
  0
INSERT
  5
788
330
707
100
AcDbEntity
  8
0
 62
     0
370
    -2
100
AcDbBlockReference
  2
_Open30
 10
1421.3881907922
 20
809.097036165572
 30
0.0
 41
2.5
 42
2.5
 43
2.5
  0
MTEXT
  5
789
330
707
100
AcDbEntity
  8
0
 62
     4
100
AcDbMText
 10
1411.5131907922
 20
811.2220361655721
 30
0.0
 40
3.0
 41
0.0
 71
     5
 72
     1
  1
1.55
 73
     1
 44
1.0
1001
ACAD
1000
MTEXTBEGIN
1070
    73
1070
     1
1070
    44
1040
1.0
1070
    74
1070
     0
1000
MTEXTEND
  0
POINT
  5
78A
330
707
100
AcDbEntity
  8
Defpoints
 62
     0
100
AcDbPoint
 10
1424.482426590343
 20
810.6429282350353
 30
0.0
  0
POINT
  5
78B
330
707
100
AcDbEntity
  8
Defpoints
 62
     0
100
AcDbPoint
 10
1421.3881907922
 20
810.6429282350353
 30
0.0
  0
POINT
  5
78C
330
707
100
AcDbEntity
  8
Defpoints
 62
     0
100
AcDbPoint
 10
1421.3881907922
 20
809.097036165572
 30
0.0
  0
ENDBLK
  5
709
330
707
100
AcDbEntity
  8
0
100
AcDbBlockEnd
  0
BLOCK
  5
716
330
715
100
AcDbEntity
  8
0
100
AcDbBlockBegin
  2
*D10
 70
     1
 10
0.0
 20
0.0
 30
0.0
  3
*D10
  1

  0
LINE
  5
78D
330
715
100
AcDbEntity
  8
0
 62
     0
370
    -2
100
AcDbLine
 10
1426.211558198429
 20
804.936838519189
 30
0.0
 11
1426.211558198429
 21
802.6637508568217
 31
0.0
  0
LINE
  5
78E
330
715
100
AcDbEntity
  8
0
 62
     0
370
    -2
100
AcDbLine
 10
1422.207253245237
 20
804.936838519189
 30
0.0
 11
1422.207253245237
 21
802.6637508568217
 31
0.0
  0
LINE
  5
78F
330
715
100
AcDbEntity
  8
0
 62
     0
370
    -2
100
AcDbLine
 10
1428.711558198429
 20
803.9137508568217
 30
0.0
 11
1431.211558198429
 21
803.9137508568217
 31
0.0
  0
LINE
  5
790
330
715
100
AcDbEntity
  8
0
 62
     0
370
    -2
100
AcDbLine
 10
1419.707253245237
 20
803.9137508568217
 30
0.0
 11
1411.373919911904
 21
803.9137508568217
 31
0.0
  0
LINE
  5
791
330
715
100
AcDbEntity
  8
0
 62
     0
370
    -2
100
AcDbLine
 10
1426.211558198429
 20
803.9137508568217
 30
0.0
 11
1422.207253245237
 21
803.9137508568217
 31
0.0
  0
INSERT
  5
792
330
715
100
AcDbEntity
  8
0
 62
     0
370
    -2
100
AcDbBlockReference
  2
_Open30
 10
1426.211558198429
 20
803.9137508568217
 30
0.0
 41
2.5
 42
2.5
 43
2.5
 50
180.0
  0
INSERT
  5
793
330
715
100
AcDbEntity
  8
0
 62
     0
370
    -2
100
AcDbBlockReference
  2
_Open30
 10
1422.207253245237
 20
803.9137508568217
 30
0.0
 41
2.5
 42
2.5
 43
2.5
  0
MTEXT
  5
794
330
715
100
AcDbEntity
  8
0
 62
     4
100
AcDbMText
 10
1413.832253245237
 20
805.5387508568216
 30
0.0
 40
2.0
 41
0.0
 71
     5
 72
     1
  1
0.8
  7
高2
 73
     1
 44
1.0
1001
ACAD
1000
MTEXTBEGIN
1070
    73
1070
     1
1070
    44
1040
1.0
1070
    74
1070
     0
1000
MTEXTEND
  0
POINT
  5
795
330
715
100
AcDbEntity
  8
Defpoints
 62
     0
100
AcDbPoint
 10
1426.211558198429
 20
805.1868385191889
 30
0.0
  0
POINT
  5
796
330
715
100
AcDbEntity
  8
Defpoints
 62
     0
100
AcDbPoint
 10
1422.207253245237
 20
805.1868385191889
 30
0.0
  0
POINT
  5
797
330
715
100
AcDbEntity
  8
Defpoints
 62
     0
100
AcDbPoint
 10
1422.207253245237
 20
803.9137508568217
 30
0.0
  0
ENDBLK
  5
717
330
715
100
AcDbEntity
  8
0
100
AcDbBlockEnd
  0
BLOCK
  5
724
330
723
100
AcDbEntity
  8
0
100
AcDbBlockBegin
  2
*D11
 70
     1
 10
0.0
 20
0.0
 30
0.0
  3
*D11
  1

  0
LINE
  5
798
330
723
100
AcDbEntity
  8
0
 62
     0
370
    -2
100
AcDbLine
 10
1426.120551496416
 20
799.6626185511574
 30
0.0
 11
1426.120551496416
 21
797.844205043701
 31
0.0
  0
LINE
  5
799
330
723
100
AcDbEntity
  8
0
 62
     0
370
    -2
100
AcDbLine
 10
1421.3881907922
 20
799.6626185511574
 30
0.0
 11
1421.3881907922
 21
797.844205043701
 31
0.0
  0
LINE
  5
79A
330
723
100
AcDbEntity
  8
0
 62
     0
370
    -2
100
AcDbLine
 10
1428.620551496416
 20
799.0942050437007
 30
0.0
 11
1431.120551496416
 21
799.0942050437007
 31
0.0
  0
LINE
  5
79B
330
723
100
AcDbEntity
  8
0
 62
     0
370
    -2
100
AcDbLine
 10
1418.8881907922
 20
799.0942050437007
 30
0.0
 11
1404.1381907922
 21
799.0942050437007
 31
0.0
  0
LINE
  5
79C
330
723
100
AcDbEntity
  8
0
 62
     0
370
    -2
100
AcDbLine
 10
1426.120551496416
 20
799.0942050437007
 30
0.0
 11
1421.3881907922
 21
799.0942050437007
 31
0.0
  0
INSERT
  5
79D
330
723
100
AcDbEntity
  8
0
 62
     0
370
    -2
100
AcDbBlockReference
  2
_Open30
 10
1426.120551496416
 20
799.0942050437007
 30
0.0
 41
2.5
 42
2.5
 43
2.5
 50
180.0
  0
INSERT
  5
79E
330
723
100
AcDbEntity
  8
0
 62
     0
370
    -2
100
AcDbBlockReference
  2
_Open30
 10
1421.3881907922
 20
799.0942050437007
 30
0.0
 41
2.5
 42
2.5
 43
2.5
  0
MTEXT
  5
79F
330
723
100
AcDbEntity
  8
0
 62
     4
100
AcDbMText
 10
1410.2631907922
 20
801.2192050437008
 30
0.0
 40
3.0
 41
0.0
 71
     5
 72
     1
  1
18.93
 73
     1
 44
1.0
1001
ACAD
1000
MTEXTBEGIN
1070
    73
1070
     1
1070
    44
1040
1.0
1070
    74
1070
     0
1000
MTEXTEND
  0
POINT
  5
7A0
330
723
100
AcDbEntity
  8
Defpoints
 62
     0
100
AcDbPoint
 10
1426.120551496416
 20
799.9126185511572
 30
0.0
  0
POINT
  5
7A1
330
723
100
AcDbEntity
  8
Defpoints
 62
     0
100
AcDbPoint
 10
1421.3881907922
 20
799.9126185511572
 30
0.0
  0
POINT
  5
7A2
330
723
100
AcDbEntity
  8
Defpoints
 62
     0
100
AcDbPoint
 10
1421.3881907922
 20
799.0942050437007
 30
0.0
  0
ENDBLK
  5
725
330
723
100
AcDbEntity
  8
0
100
AcDbBlockEnd
  0
BLOCK
  5
732
330
731
100
AcDbEntity
  8
0
100
AcDbBlockBegin
  2
*D12
 70
     1
 10
0.0
 20
0.0
 30
0.0
  3
*D12
  1

  0
LINE
  5
7A3
330
731
100
AcDbEntity
  8
0
 62
     0
370
    -2
100
AcDbLine
 10
1423.316124645278
 20
794.6067783445676
 30
0.0
 11
1423.316124645278
 21
792.2968572676921
 31
0.0
  0
LINE
  5
7A4
330
731
100
AcDbEntity
  8
0
 62
     0
370
    -2
100
AcDbLine
 10
1418.72744944313
 20
794.6067783445676
 30
0.0
 11
1418.72744944313
 21
792.2968572676921
 31
0.0
  0
LINE
  5
7A5
330
731
100
AcDbEntity
  8
0
 62
     0
370
    -2
100
AcDbLine
 10
1425.816124645278
 20
793.5468572676921
 30
0.0
 11
1428.316124645278
 21
793.5468572676921
 31
0.0
  0
LINE
  5
7A6
330
731
100
AcDbEntity
  8
0
 62
     0
370
    -2
100
AcDbLine
 10
1416.22744944313
 20
793.5468572676921
 30
0.0
 11
1401.47744944313
 21
793.5468572676921
 31
0.0
  0
LINE
  5
7A7
330
731
100
AcDbEntity
  8
0
 62
     0
370
    -2
100
AcDbLine
 10
1423.316124645278
 20
793.5468572676921
 30
0.0
 11
1418.72744944313
 21
793.5468572676921
 31
0.0
  0
INSERT
  5
7A8
330
731
100
AcDbEntity
  8
0
 62
     0
370
    -2
100
AcDbBlockReference
  2
_Open30
 10
1423.316124645278
 20
793.5468572676921
 30
0.0
 41
2.5
 42
2.5
 43
2.5
 50
180.0
  0
INSERT
  5
7A9
330
731
100
AcDbEntity
  8
0
 62
     0
370
    -2
100
AcDbBlockReference
  2
_Open30
 10
1418.72744944313
 20
793.5468572676921
 30
0.0
 41
2.5
 42
2.5
 43
2.5
  0
MTEXT
  5
7AA
330
731
100
AcDbEntity
  8
0
 62
     4
100
AcDbMText
 10
1407.60244944313
 20
795.6718572676918
 30
0.0
 40
3.0
 41
0.0
 71
     5
 72
     1
  1
13.77
 73
     1
 44
1.0
1001
ACAD
1000
MTEXTBEGIN
1070
    73
1070
     1
1070
    44
1040
1.0
1070
    74
1070
     0
1000
MTEXTEND
  0
POINT
  5
7AB
330
731
100
AcDbEntity
  8
Defpoints
 62
     0
100
AcDbPoint
 10
1423.316124645278
 20
794.8567783445676
 30
0.0
  0
POINT
  5
7AC
330
731
100
AcDbEntity
  8
Defpoints
 62
     0
100
AcDbPoint
 10
1418.72744944313
 20
794.8567783445676
 30
0.0
  0
POINT
  5
7AD
330
731
100
AcDbEntity
  8
Defpoints
 62
     0
100
AcDbPoint
 10
1418.72744944313
 20
793.5468572676921
 30
0.0
  0
ENDBLK
  5
733
330
731
100
AcDbEntity
  8
0
100
AcDbBlockEnd
  0
BLOCK
  5
740
330
73F
100
AcDbEntity
  8
0
100
AcDbBlockBegin
  2
*D13
 70
     1
 10
0.0
 20
0.0
 30
0.0
  3
*D13
  1

  0
LINE
  5
7AE
330
73F
100
AcDbEntity
  8
0
 62
     0
370
    -2
100
AcDbLine
 10
1416.219841812128
 20
825.536269662842
 30
0.0
 11
1416.219841812128
 21
832.9328031407797
 31
0.0
  0
LINE
  5
7AF
330
73F
100
AcDbEntity
  8
0
 62
     0
370
    -2
100
AcDbLine
 10
1406.281367442638
 20
825.536269662842
 30
0.0
 11
1406.281367442638
 21
832.9328031407797
 31
0.0
  0
LINE
  5
7B0
330
73F
100
AcDbEntity
  8
0
 62
     0
370
    -2
100
AcDbLine
 10
1413.719841812128
 20
831.6828031407796
 30
0.0
 11
1408.781367442638
 21
831.6828031407796
 31
0.0
  0
INSERT
  5
7B1
330
73F
100
AcDbEntity
  8
0
 62
     0
370
    -2
100
AcDbBlockReference
  2
_Open30
 10
1416.219841812128
 20
831.6828031407796
 30
0.0
 41
2.5
 42
2.5
 43
2.5
  0
INSERT
  5
7B2
330
73F
100
AcDbEntity
  8
0
 62
     0
370
    -2
100
AcDbBlockReference
  2
_Open30
 10
1406.281367442638
 20
831.6828031407796
 30
0.0
 41
2.5
 42
2.5
 43
2.5
 50
180.0
  0
MTEXT
  5
7B3
330
73F
100
AcDbEntity
  8
0
 62
     4
100
AcDbMText
 10
1411.250604627383
 20
834.7578031407797
 30
0.0
 40
3.0
 41
0.0
 71
     5
 72
     1
  1
9.94\H0.7X;\S+0^ -0.02;
 73
     1
 44
1.0
1001
ACAD
1000
MTEXTBEGIN
1070
    73
1070
     1
1070
    44
1040
1.0
1070
    74
1070
     0
1000
MTEXTEND
  0
POINT
  5
7B4
330
73F
100
AcDbEntity
  8
Defpoints
 62
     0
100
AcDbPoint
 10
1416.219841812128
 20
825.2862696628419
 30
0.0
  0
POINT
  5
7B5
330
73F
100
AcDbEntity
  8
Defpoints
 62
     0
100
AcDbPoint
 10
1406.281367442638
 20
825.2862696628419
 30
0.0
  0
POINT
  5
7B6
330
73F
100
AcDbEntity
  8
Defpoints
 62
     0
100
AcDbPoint
 10
1406.281367442638
 20
831.6828031407796
 30
0.0
  0
ENDBLK
  5
741
330
73F
100
AcDbEntity
  8
0
100
AcDbBlockEnd
  0
ENDSEC
  0
SECTION
  2
ENTITIES
  0
LINE
  5
AE
330
6B
100
AcDbEntity
  8
0
 62
     3
100
AcDbLine
 10
964.424941
 20
680.6203059999997
 30
0.0
 11
964.424941
 21
672.4116289999997
 31
0.0
  0
LINE
  5
AF
330
6B
100
AcDbEntity
  8
0
 62
     3
100
AcDbLine
 10
939.9249409999999
 20
680.6203059999997
 30
0.0
 11
939.9249409999999
 21
672.4116289999997
 31
0.0
  0
ARC
  5
B0
330
6B
100
AcDbEntity
  8
0
 62
     3
100
AcDbCircle
 10
952.1749409999999
 20
729.8258689999999
 30
0.0
 40
40.0
100
AcDbArc
 50
168.303417
 51
238.842573
  0
ARC
  5
B1
330
6B
100
AcDbEntity
  8
0
 62
     3
100
AcDbCircle
 10
952.1749409999999
 20
713.2238039999997
 30
0.0
 40
49.52753799999999
100
AcDbArc
 50
53.211816
 51
126.788184
  0
ARC
  5
B2
330
6B
100
AcDbEntity
  8
0
 62
     3
100
AcDbCircle
 10
966.8634649999999
 20
732.866803
 30
0.0
 40
25.0
100
AcDbArc
 50
11.696583
 51
53.211816
  0
ARC
  5
B3
330
6B
100
AcDbEntity
  8
0
 62
     3
100
AcDbCircle
 10
937.4864179999999
 20
732.866803
 30
0.0
 40
25.0
100
AcDbArc
 50
126.788184
 51
168.303417
  0
ARC
  5
B4
330
6B
100
AcDbEntity
  8
0
 62
     3
100
AcDbCircle
 10
952.1749409999999
 20
729.8258689999999
 30
0.0
 40
40.0
100
AcDbArc
 50
301.157427
 51
11.696583
  0
ARC
  5
B5
330
6B
100
AcDbEntity
  8
0
 62
     3
100
AcDbCircle
 10
981.9249409999999
 20
680.6203059999997
 30
0.0
 40
17.5
100
AcDbArc
 50
121.157427
 51
180.0
  0
ARC
  5
B6
330
6B
100
AcDbEntity
  8
0
 62
     3
100
AcDbCircle
 10
922.424941
 20
680.6203059999997
 30
0.0
 40
17.5
100
AcDbArc
 50
0.0
 51
58.842573
  0
ARC
  5
B7
330
6B
100
AcDbEntity
  8
0
 62
     3
100
AcDbCircle
 10
952.1749409999999
 20
672.4116289999997
 30
0.0
 40
12.25
100
AcDbArc
 50
180.0
 51
226.06216
  0
ARC
  5
B8
330
6B
100
AcDbEntity
  8
0
 62
     3
100
AcDbCircle
 10
952.1749409999999
 20
672.4116289999997
 30
0.0
 40
12.25
100
AcDbArc
 50
313.93784
 51
0.0
  0
LINE
  5
B9
330
6B
100
AcDbEntity
  8
0
 62
     3
100
AcDbLine
 10
943.674941
 20
663.5904889999998
 30
0.0
 11
960.674941
 21
663.5904889999998
 31
0.0
  0
LINE
  5
BA
330
6B
100
AcDbEntity
  8
0
 62
     3
100
AcDbLine
 10
992.149533
 20
731.251342
 30
0.0
 11
912.200349
 21
731.251342
 31
0.0
  0
LINE
  5
BB
330
6B
100
AcDbEntity
  8
0
 62
     7
100
AcDbLine
 10
949.424941
 20
644.251342
 30
0.0
 11
954.9249409999999
 21
644.251342
 31
0.0
  0
ARC
  5
BC
330
6B
100
AcDbEntity
  8
0
 62
     7
100
AcDbCircle
 10
952.1749409999999
 20
651.563842
 30
0.0
 40
7.8125
100
AcDbArc
 50
249.390307
 51
290.609693
  0
LINE
  5
BD
330
6B
100
AcDbEntity
  8
0
 62
     7
100
AcDbLine
 10
943.674941
 20
663.5904889999998
 30
0.0
 11
943.674941
 21
662.687392
 31
0.0
  0
LINE
  5
BE
330
6B
100
AcDbEntity
  8
0
 62
     7
100
AcDbLine
 10
960.674941
 20
663.5904889999998
 30
0.0
 11
960.674941
 21
661.198444
 31
0.0
  0
LINE
  5
BF
330
6B
100
AcDbEntity
  8
0
 62
     7
100
AcDbLine
 10
954.9249409999999
 20
645.251342
 30
0.0
 11
954.9249409999999
 21
644.251342
 31
0.0
  0
LINE
  5
C0
330
6B
100
AcDbEntity
  8
0
 62
     7
100
AcDbLine
 10
949.424941
 20
645.251342
 30
0.0
 11
949.424941
 21
644.251342
 31
0.0
  0
LINE
  5
C1
330
6B
100
AcDbEntity
  8
0
 62
     7
100
AcDbLine
 10
949.424941
 20
645.251342
 30
0.0
 11
954.9249409999999
 21
645.251342
 31
0.0
  0
LINE
  5
C2
330
6B
100
AcDbEntity
  8
0
 62
     7
100
AcDbLine
 10
960.674941
 20
663.001342
 30
0.0
 11
943.674941
 21
663.001342
 31
0.0
  0
LINE
  5
C3
330
6B
100
AcDbEntity
  8
0
 62
     7
100
AcDbLine
 10
958.389043
 20
647.251342
 30
0.0
 11
945.96084
 21
647.251342
 31
0.0
  0
LINE
  5
C4
330
6B
100
AcDbEntity
  8
0
 62
     7
100
AcDbLine
 10
954.9249409999999
 20
645.251342
 30
0.0
 11
960.174941
 21
648.2824309999998
 31
0.0
  0
LINE
  5
C5
330
6B
100
AcDbEntity
  8
0
 62
     7
100
AcDbLine
 10
949.424941
 20
645.251342
 30
0.0
 11
944.1749409999999
 21
648.2824309999998
 31
0.0
  0
ARC
  5
C6
330
6B
100
AcDbEntity
  8
0
 62
     7
100
AcDbCircle
 10
959.6749409999999
 20
649.1484569999999
 30
0.0
 40
1.0
100
AcDbArc
 50
300.0
 51
0.0
  0
ARC
  5
C7
330
6B
100
AcDbEntity
  8
0
 62
     7
100
AcDbCircle
 10
943.429455
 20
649.6616289999997
 30
0.0
 40
1.0
100
AcDbArc
 50
94.900687
 51
274.900687
  0
ARC
  5
C8
330
6B
100
AcDbEntity
  8
0
 62
     7
100
AcDbCircle
 10
943.429455
 20
652.6616289999997
 30
0.0
 40
1.0
100
AcDbArc
 50
94.900687
 51
274.900687
  0
ARC
  5
C9
330
6B
100
AcDbEntity
  8
0
 62
     7
100
AcDbCircle
 10
960.9237309999999
 20
651.1616289999997
 30
0.0
 40
1.0
100
AcDbArc
 50
274.900687
 51
94.900687
  0
ARC
  5
CA
330
6B
100
AcDbEntity
  8
0
 62
     7
100
AcDbCircle
 10
960.9237309999999
 20
654.1616289999997
 30
0.0
 40
1.0
100
AcDbArc
 50
274.900687
 51
94.900687
  0
ARC
  5
CB
330
6B
100
AcDbEntity
  8
0
 62
     7
100
AcDbCircle
 10
960.9237309999999
 20
657.1616289999997
 30
0.0
 40
1.0
100
AcDbArc
 50
274.900687
 51
94.900687
  0
ARC
  5
CC
330
6B
100
AcDbEntity
  8
0
 62
     7
100
AcDbCircle
 10
960.9237309999999
 20
660.216616
 30
0.0
 40
1.0
100
AcDbArc
 50
275.079413
 51
95.079413
  0
ARC
  5
CD
330
6B
100
AcDbEntity
  8
0
 62
     7
100
AcDbCircle
 10
943.429455
 20
658.6616289999997
 30
0.0
 40
1.0
100
AcDbArc
 50
95.079413
 51
275.079413
  0
ARC
  5
CE
330
6B
100
AcDbEntity
  8
0
 62
     7
100
AcDbCircle
 10
943.429455
 20
655.661629
 30
0.0
 40
1.0
100
AcDbArc
 50
94.900687
 51
274.900687
  0
ARC
  5
CF
330
6B
100
AcDbEntity
  8
0
 62
     7
100
AcDbCircle
 10
943.429455
 20
661.6616289999996
 30
0.0
 40
1.0
100
AcDbArc
 50
95.079413
 51
275.079413
  0
LINE
  5
D0
330
6B
100
AcDbEntity
  8
0
 62
     7
100
AcDbLine
 10
947.2070229999999
 20
663.001342
 30
0.0
 11
943.3409179999999
 21
662.657702
 31
0.0
  0
LINE
  5
D1
330
6B
100
AcDbEntity
  8
0
 62
     7
100
AcDbLine
 10
960.674941
 20
662.1905589999999
 30
0.0
 11
943.517991
 21
660.6655559999998
 31
0.0
  0
LINE
  5
D2
330
6B
100
AcDbEntity
  8
0
 62
     7
100
AcDbLine
 10
960.674941
 20
649.1434579999999
 30
0.0
 11
945.0839039999999
 21
647.757641
 31
0.0
  0
ARC
  5
D3
330
6B
100
AcDbEntity
  8
0
 62
     7
100
AcDbCircle
 10
944.674941
 20
649.1484569999999
 30
0.0
 40
1.0
100
AcDbArc
 50
207.3771129999999
 51
240.0
  0
LINE
  5
D4
330
6B
100
AcDbEntity
  8
0
 62
     7
100
AcDbLine
 10
960.8351949999999
 20
661.2126889999997
 30
0.0
 11
943.3409179999999
 21
659.6577019999998
 31
0.0
  0
LINE
  5
D5
330
6B
100
AcDbEntity
  8
0
 62
     7
100
AcDbLine
 10
961.0122679999999
 20
659.2205429999998
 30
0.0
 11
943.517991
 21
657.6655559999998
 31
0.0
  0
LINE
  5
D6
330
6B
100
AcDbEntity
  8
0
 62
     7
100
AcDbLine
 10
960.8383019999999
 20
658.1579730000002
 30
0.0
 11
943.3440259999999
 21
656.657973
 31
0.0
  0
LINE
  5
D7
330
6B
100
AcDbEntity
  8
0
 62
     7
100
AcDbLine
 10
961.00916
 20
656.1652849999997
 30
0.0
 11
943.5148830000001
 21
654.6652849999998
 31
0.0
  0
LINE
  5
D8
330
6B
100
AcDbEntity
  8
0
 62
     7
100
AcDbLine
 10
960.8383019999999
 20
655.1579730000002
 30
0.0
 11
943.3440259999999
 21
653.657973
 31
0.0
  0
LINE
  5
D9
330
6B
100
AcDbEntity
  8
0
 62
     7
100
AcDbLine
 10
961.00916
 20
653.1652849999998
 30
0.0
 11
943.5148830000001
 21
651.6652849999998
 31
0.0
  0
LINE
  5
DA
330
6B
100
AcDbEntity
  8
0
 62
     7
100
AcDbLine
 10
960.8383019999999
 20
652.157973
 30
0.0
 11
943.3440259999999
 21
650.6579730000002
 31
0.0
  0
LINE
  5
DB
330
6B
100
AcDbEntity
  8
0
 62
     7
100
AcDbLine
 10
961.00916
 20
650.1652849999998
 30
0.0
 11
943.5148830000001
 21
648.6652849999998
 31
0.0
  0
LINE
  5
DC
330
6B
100
AcDbEntity
  8
0
 62
     7
100
AcDbLine
 10
943.674941
 20
651.6790079999997
 30
0.0
 11
943.674941
 21
650.6863469999997
 31
0.0
  0
LINE
  5
DD
330
6B
100
AcDbEntity
  8
0
 62
     7
100
AcDbLine
 10
943.674941
 20
654.679008
 30
0.0
 11
943.674941
 21
653.686347
 31
0.0
  0
LINE
  5
DE
330
6B
100
AcDbEntity
  8
0
 62
     7
100
AcDbLine
 10
943.674941
 20
657.6795059999997
 30
0.0
 11
943.674941
 21
656.6863469999997
 31
0.0
  0
LINE
  5
DF
330
6B
100
AcDbEntity
  8
0
 62
     7
100
AcDbLine
 10
943.674941
 20
660.6795059999996
 30
0.0
 11
943.674941
 21
659.687392
 31
0.0
  0
LINE
  5
E0
330
6B
100
AcDbEntity
  8
0
 62
     7
100
AcDbLine
 10
960.674941
 20
659.190559
 30
0.0
 11
960.674941
 21
658.143966
 31
0.0
  0
LINE
  5
E1
330
6B
100
AcDbEntity
  8
0
 62
     7
100
AcDbLine
 10
960.674941
 20
656.1366279999997
 30
0.0
 11
960.674941
 21
655.1439659999997
 31
0.0
  0
LINE
  5
E2
330
6B
100
AcDbEntity
  8
0
 62
     7
100
AcDbLine
 10
960.674941
 20
653.136628
 30
0.0
 11
960.674941
 21
652.1439659999997
 31
0.0
  0
LINE
  5
E3
330
6B
100
AcDbEntity
  8
0
 62
     7
100
AcDbLine
 10
960.674941
 20
650.136628
 30
0.0
 11
960.674941
 21
649.1434579999999
 31
0.0
  0
LINE
  5
E4
330
6B
100
AcDbEntity
  8
0
 62
     3
100
AcDbLine
 10
854.6138650000001
 20
695.9886589999999
 30
0.0
 11
854.1259380000001
 21
695.9886589999999
 31
0.0
  0
LINE
  5
1B7
330
6B
100
AcDbEntity
  8
0
 62
     3
100
AcDbLine
 10
1020.426574
 20
574.1543809999996
 30
0.0
 11
1020.426574
 21
597.1543809999997
 31
0.0
  0
LINE
  5
1B9
330
6B
100
AcDbEntity
  8
0
 62
     3
100
AcDbLine
 10
967.3729650000002
 20
567.1543810000001
 30
0.0
 11
967.3729650000002
 21
581.1543809999997
 31
0.0
  0
TEXT
  5
1BB
330
6B
100
AcDbEntity
  8
0
 62
     3
100
AcDbText
 10
996.436892
 20
593.3594969999997
 30
0.0
 40
2.0
  1
A
 41
0.7
100
AcDbText
  0
TEXT
  5
1BC
330
6B
100
AcDbEntity
  8
0
 62
     3
100
AcDbText
 10
998.9721789999999
 20
593.3594969999997
 30
0.0
 40
2.0
  1
P
 41
0.7
100
AcDbText
  0
TEXT
  5
1BD
330
6B
100
AcDbEntity
  8
0
 62
     3
100
AcDbText
 10
1001.507465
 20
593.3594969999997
 30
0.0
 40
2.0
  1
P
 41
0.7
100
AcDbText
  0
TEXT
  5
1BE
330
6B
100
AcDbEntity
  8
0
 62
     3
100
AcDbText
 10
1004.042751
 20
593.3594969999997
 30
0.0
 40
2.0
  1
D
 41
0.7
100
AcDbText
  0
TEXT
  5
1BF
330
6B
100
AcDbEntity
  8
0
 62
     3
100
AcDbText
 10
1009.411434
 20
593.3594969999997
 30
0.0
 40
2.0
  1
C
 41
0.7
100
AcDbText
  0
TEXT
  5
1C0
330
6B
100
AcDbEntity
  8
0
 62
     3
100
AcDbText
 10
1011.94672
 20
593.3594969999997
 30
0.0
 40
2.0
  1
H
 41
0.7
100
AcDbText
  0
TEXT
  5
1C1
330
6B
100
AcDbEntity
  8
0
 62
     3
100
AcDbText
 10
1014.482007
 20
593.3594969999997
 30
0.0
 40
2.0
  1
C
 41
0.7
100
AcDbText
  0
TEXT
  5
1C2
330
6B
100
AcDbEntity
  8
0
 62
     3
100
AcDbText
 10
1017.017293
 20
593.3594969999997
 30
0.0
 40
2.0
  1
K
 41
0.7
100
AcDbText
  0
TEXT
  5
1C3
330
6B
100
AcDbEntity
  8
0
 62
     3
100
AcDbText
 10
1022.691259
 20
593.3594969999997
 30
0.0
 40
2.0
  1
DESN
 41
1.216762999999998
100
AcDbText
  0
TEXT
  5
1C4
330
6B
100
AcDbEntity
  8
0
 62
     3
100
AcDbText
 10
937.6849010000002
 20
564.012999
 30
0.0
 40
2.0
  1
NICHIDO IND.CO.LTD
 41
1.274876
100
AcDbText
  0
LINE
  5
1C5
330
6B
100
AcDbEntity
  8
0
 62
     3
100
AcDbLine
 10
948.06793
 20
597.1543809999997
 30
0.0
 11
948.06793
 21
574.1543809999996
 31
0.0
  0
LINE
  5
1C6
330
6B
100
AcDbEntity
  8
0
 62
     3
100
AcDbLine
 10
994.4265740000004
 20
597.1543809999997
 30
0.0
 11
994.4265740000004
 21
557.488659
 31
0.0
  0
LINE
  5
1CB
330
6B
100
AcDbEntity
  8
0
 62
     3
100
AcDbLine
 10
1007.426574
 20
597.1543809999998
 30
0.0
 11
1007.426574
 21
567.1543810000001
 31
0.0
  0
TEXT
  5
1CC
330
6B
100
AcDbEntity
  8
0
 62
     3
100
AcDbText
 10
995.5390190000001
 20
568.0190679999997
 30
0.0
 40
3.2
  1
作成日
 41
1.017225999999997
100
AcDbText
  0
LINE
  5
1CD
330
6B
100
AcDbEntity
  8
0
 62
     3
100
AcDbLine
 10
1046.125938
 20
597.1543809999997
 30
0.0
 11
934.8224949999996
 21
597.1543809999997
 31
0.0
  0
LINE
  5
1CE
330
6B
100
AcDbEntity
  8
0
 62
     3
100
AcDbLine
 10
1033.426574
 20
574.1543809999996
 30
0.0
 11
1033.426574
 21
597.1543809999997
 31
0.0
  0
TEXT
  5
1CF
330
6B
100
AcDbEntity
  8
0
 62
     3
100
AcDbText
 10
1036.750378
 20
593.445316
 30
0.0
 40
1.8
  1
D
 41
0.666667
100
AcDbText
  0
TEXT
  5
1D0
330
6B
100
AcDbEntity
  8
0
 62
     3
100
AcDbText
 10
1039.567006
 20
593.445316
 30
0.0
 40
1.8
  1
E
 41
0.666667
100
AcDbText
  0
TEXT
  5
1D1
330
6B
100
AcDbEntity
  8
0
 62
     3
100
AcDbText
 10
1042.383634
 20
593.445316
 30
0.0
 40
1.8
  1
F
 41
0.666667
100
AcDbText
  0
TEXT
  5
1D2
330
6B
100
AcDbEntity
  8
0
 62
     3
100
AcDbText
 10
1036.750378
 20
589.4527619999998
 30
0.0
 40
3.2
  1
製図
 41
1.076369
100
AcDbText
  0
LINE
  5
1D3
330
6B
100
AcDbEntity
  8
0
 62
     3
100
AcDbLine
 10
934.8224949999996
 20
597.1543809999997
 30
0.0
 11
934.8224949999996
 21
557.488659
 31
0.0
  0
TEXT
  5
1D4
330
6B
100
AcDbEntity
  8
0
 62
     3
100
AcDbText
 10
936.1991480000002
 20
557.821124
 30
0.0
 40
5.0
  1
日動工業株式会社
 41
0.833333
100
AcDbText
  0
LINE
  5
1D5
330
6B
100
AcDbEntity
  8
0
 62
     3
100
AcDbLine
 10
977.7048990000002
 20
581.1543809999998
 30
0.0
 11
977.7048990000002
 21
557.488659
 31
0.0
  0
LINE
  5
1D6
330
6B
100
AcDbEntity
  8
0
 62
     3
100
AcDbLine
 10
977.7048990000002
 20
562.3215199999998
 30
0.0
 11
994.4265740000004
 21
562.3215199999998
 31
0.0
  0
TEXT
  5
1D7
330
6B
100
AcDbEntity
  8
0
 62
     3
100
AcDbText
 10
978.2915009999999
 20
563.1379509999998
 30
0.0
 40
3.2
  1
出図コード
 41
0.8356860000000001
100
AcDbText
  0
LINE
  5
1D9
330
6B
100
AcDbEntity
  8
0
 62
     3
100
AcDbLine
 10
934.8224949999996
 20
567.1543810000001
 30
0.0
 11
1046.125938
 21
567.1543810000001
 31
0.0
  0
LINE
  5
1DB
330
6B
100
AcDbEntity
  8
0
 62
     3
100
AcDbLine
 10
934.8224949999996
 20
588.1543810000001
 30
0.0
 11
1046.125938
 21
588.1543810000001
 31
0.0
  0
LINE
  5
1E1
330
6B
100
AcDbEntity
  8
0
 62
     3
100
AcDbLine
 10
934.8224949999996
 20
581.1543809999997
 30
0.0
 11
994.4265740000004
 21
581.1543809999997
 31
0.0
  0
LINE
  5
1E7
330
6B
100
AcDbEntity
  8
0
 62
     3
100
AcDbLine
 10
934.8224949999996
 20
574.1543809999996
 30
0.0
 11
1046.125938
 21
574.1543809999996
 31
0.0
  0
TEXT
  5
1E8
330
6B
100
AcDbEntity
  8
0
 62
     3
100
AcDbText
 10
978.1589529999999
 20
558.090853
 30
0.0
 40
3.2
  1
ZK-A4Y
 41
0.8112849999999999
100
AcDbText
  0
LINE
  5
1E9
330
6B
100
AcDbEntity
  8
0
 62
     3
100
AcDbLine
 10
866.1259380000004
 20
834.4886589999996
 30
0.0
 11
866.1259380000004
 21
557.488659
 31
0.0
  0
LINE
  5
1EA
330
6B
100
AcDbEntity
  8
0
 62
     3
100
AcDbLine
 10
1046.125938
 20
557.488659
 30
0.0
 11
1046.125938
 21
834.4886589999996
 31
0.0
  0
LINE
  5
1EB
330
6B
100
AcDbEntity
  8
0
 62
     3
100
AcDbLine
 10
1046.125938
 20
557.488659
 30
0.0
 11
866.1259380000004
 21
557.488659
 31
0.0
  0
TEXT
  5
1F0
330
6B
100
AcDbEntity
  8
0
 62
     3
100
AcDbText
 10
936.6398919999999
 20
593.323907
 30
0.0
 40
2.0
  1
CONPONENTS
 41
0.5331600000000001
100
AcDbText
  0
TEXT
  5
1F1
330
6B
100
AcDbEntity
  8
0
 62
     3
100
AcDbText
 10
936.2901660000003
 20
574.3917299999998
 30
0.0
 40
3.0
  1
材
 41
0.833333
100
AcDbText
  0
TEXT
  5
1F2
330
6B
100
AcDbEntity
  8
0
 62
     3
100
AcDbText
 10
943.8258080000002
 20
574.3917299999998
 30
0.0
 40
3.0
  1
質
 41
0.833333
100
AcDbText
  0
TEXT
  5
1F3
330
6B
100
AcDbEntity
  8
0
 62
     3
100
AcDbText
 10
936.378236
 20
585.016255
 30
0.0
 40
2.0
  1
MODEL
 41
1.031072999999999
100
AcDbText
  0
TEXT
  5
1F4
330
6B
100
AcDbEntity
  8
0
 62
     3
100
AcDbText
 10
936.2901660000003
 20
578.074038
 30
0.0
 40
2.0
  1
MATERIAL
 41
0.659278
100
AcDbText
  0
TEXT
  5
1F5
330
6B
100
AcDbEntity
  8
0
 62
     3
100
AcDbText
 10
967.597446
 20
574.3917299999998
 30
0.0
 40
3.0
  1
備
 41
0.833333
100
AcDbText
  0
TEXT
  5
1F6
330
6B
100
AcDbEntity
  8
0
 62
     3
100
AcDbText
 10
974.3304480000002
 20
574.3917299999998
 30
0.0
 40
3.0
  1
考
 41
0.833333
100
AcDbText
  0
TEXT
  5
1F7
330
6B
100
AcDbEntity
  8
0
 62
     3
100
AcDbText
 10
967.9465546546673
 20
578.074038
 30
0.0
 40
2.0
  1
REMARKS
 41
0.675794
100
AcDbText
  0
TEXT
  5
1F8
330
6B
100
AcDbEntity
  8
0
 62
     3
100
AcDbText
 10
937.879895
 20
571.1539179999999
 30
0.0
 40
2.0
  1
3AD
 41
1.42614
100
AcDbText
  0
TEXT
  5
1F9
330
6B
100
AcDbEntity
  8
0
 62
     3
100
AcDbText
 10
947.1908739999999
 20
571.319651
 30
0.0
 40
2.0
  1
ANGLE
 41
1.669883999999996
100
AcDbText
  0
TEXT
  5
1FA
330
6B
100
AcDbEntity
  8
0
 62
     3
100
AcDbText
 10
968.1247609999999
 20
570.94281
 30
0.0
 40
2.0
  1
SCALE
 41
0.7719630000000001
100
AcDbText
  0
TEXT
  5
1FB
330
6B
100
AcDbEntity
  8
0
 62
     3
100
AcDbText
 10
937.566024
 20
567.1543810000001
 30
0.0
 40
3.0
  1
第
 41
0.833333
100
AcDbText
  0
TEXT
  5
1FC
330
6B
100
AcDbEntity
  8
0
 62
     3
100
AcDbText
 10
945.3528740000002
 20
567.1543810000001
 30
0.0
 40
3.0
  1
三
 41
0.833333
100
AcDbText
  0
TEXT
  5
1FD
330
6B
100
AcDbEntity
  8
0
 62
     3
100
AcDbText
 10
953.1397240000003
 20
567.1543810000001
 30
0.0
 40
3.0
  1
角
 41
0.833333
100
AcDbText
  0
TEXT
  5
1FE
330
6B
100
AcDbEntity
  8
0
 62
     3
100
AcDbText
 10
960.9265739999999
 20
567.1543810000001
 30
0.0
 40
3.0
  1
法
 41
0.833333
100
AcDbText
  0
TEXT
  5
1FF
330
6B
100
AcDbEntity
  8
0
 62
     3
100
AcDbText
 10
967.9879660000002
 20
567.44281
 30
0.0
 40
3.0
  1
尺
 41
0.833333
100
AcDbText
  0
TEXT
  5
200
330
6B
100
AcDbEntity
  8
0
 62
     3
100
AcDbText
 10
974.7209680000002
 20
567.44281
 30
0.0
 40
3.0
  1
度
 41
0.833333
100
AcDbText
  0
TEXT
  5
201
330
6B
100
AcDbEntity
  8
0
 62
     3
100
AcDbText
 10
997.304238
 20
589.6121099999998
 30
0.0
 40
3.0
  1
承認
 41
1.089472999999999
100
AcDbText
  0
TEXT
  5
202
330
6B
100
AcDbEntity
  8
0
 62
     3
100
AcDbText
 10
1010.547119
 20
589.5543809999998
 30
0.0
 40
3.0
  1
検図
 41
0.931761
100
AcDbText
  0
TEXT
  5
203
330
6B
100
AcDbEntity
  8
0
 62
     3
100
AcDbText
 10
1023.547515
 20
589.5543809999998
 30
0.0
 40
3.0
  1
設
 41
0.833333
100
AcDbText
  0
TEXT
  5
204
330
6B
100
AcDbEntity
  8
0
 62
     3
100
AcDbText
 10
1028.037384
 20
589.5543809999998
 30
0.0
 40
3.0
  1
計
 41
0.833333
100
AcDbText
  0
TEXT
  5
205
330
6B
100
AcDbEntity
  8
0
 62
     3
100
AcDbText
 10
936.571364
 20
588.8431369999997
 30
0.0
 40
3.0
  1
品
 41
0.833333
100
AcDbText
  0
TEXT
  5
206
330
6B
100
AcDbEntity
  8
0
 62
     3
100
AcDbText
 10
944.1070060000003
 20
588.8431369999997
 30
0.0
 40
3.0
  1
名
 41
0.833333
100
AcDbText
  0
TEXT
  5
207
330
6B
100
AcDbEntity
  8
0
 62
     3
100
AcDbText
 10
936.378236
 20
581.383995
 30
0.0
 40
3.0
  1
型
 41
0.833333
100
AcDbText
  0
TEXT
  5
208
330
6B
100
AcDbEntity
  8
0
 62
     3
100
AcDbText
 10
943.9263269999999
 20
581.383995
 30
0.0
 40
3.0
  1
式
 41
0.833333
100
AcDbText
  0
TEXT
  5
212
330
6B
100
AcDbEntity
  8
0
 62
     3
100
AcDbText
 10
980.5732590000003
 20
574.7074309999998
 30
0.0
 40
3.2
  1
交換球
  7
高3.2
100
AcDbText
  0
LINE
  5
227
330
6B
100
AcDbEntity
  8
0
 62
     3
100
AcDbLine
 10
1020.426574
 20
597.1543809999997
 30
0.0
 11
1020.426574
 21
603.1543809999996
 31
0.0
  0
LINE
  5
228
330
6B
100
AcDbEntity
  8
0
 62
     3
100
AcDbLine
 10
994.4265740000004
 20
597.1543809999997
 30
0.0
 11
994.4265740000004
 21
603.1543809999996
 31
0.0
  0
LINE
  5
229
330
6B
100
AcDbEntity
  8
0
 62
     3
100
AcDbLine
 10
1046.125938
 20
603.1543809999996
 30
0.0
 11
994.4265740000004
 21
603.1543809999996
 31
0.0
  0
TEXT
  5
22A
330
6B
100
AcDbEntity
  8
0
 62
     3
100
AcDbText
 10
1000.422173
 20
597.95073
 30
0.0
 40
4.5
  1
コード
  7
高4.5
100
AcDbText
  0
TEXT
  5
236
330
6B
100
AcDbEntity
  8
0
 62
     3
100
AcDbText
 10
963.6880229639199
 20
588.706798
 30
0.0
 40
4.5
  1
レフ球
  7
高4.5
100
AcDbText
  0
TEXT
  5
237
330
6B
100
AcDbEntity
  8
0
 62
     3
100
AcDbText
 10
981.7678717715507
 20
568.0423789999998
 30
0.0
 40
3.2
  1
1/2
  7
高3.2
100
AcDbText
  0
TEXT
  5
238
330
6B
100
AcDbEntity
  8
0
 62
     3
100
AcDbText
 10
1011.010123
 20
567.928798
 30
0.0
 40
3.2
  1
2008.09.04
  7
高3.2
100
AcDbText
  0
TEXT
  5
23A
330
6B
100
AcDbEntity
  8
0
 62
     3
100
AcDbText
 10
951.0207270000003
 20
581.7687509999997
 30
0.0
 40
4.5
  1
NRF-500-220V
 41
0.8
  7
高4.5
100
AcDbText
  0
TEXT
  5
23B
330
6B
100
AcDbEntity
  8
0
 62
     3
100
AcDbText
 10
998.124516871112
 20
558.9151290894708
 30
0.0
 40
6.299999999999998
  1
NRF-500-220V
 41
0.6
  7
高6.3
100
AcDbText
  0
TEXT
  5
23D
330
6B
100
AcDbEntity
  8
0
 62
     3
100
AcDbText
 10
1025.434333853721
 20
597.7985180000001
 30
0.0
 40
4.5
  1
8222
  7
高4.5
100
AcDbText
  0
LINE
  5
62C
330
6B
100
AcDbEntity
  8
0
 62
     3
100
AcDbLine
 10
903.2102900199999
 20
836.2761030999999
 30
0.0
 11
903.6460379300001
 21
836.0486349599996
 31
0.0
  0
LINE
  5
62D
330
6B
100
AcDbEntity
  8
0
 62
     3
100
AcDbLine
 10
903.2102900199999
 20
832.5454726199996
 30
0.0
 11
903.6460379300001
 21
832.7729407599999
 31
0.0
  0
LINE
  5
62E
330
6B
100
AcDbEntity
  8
0
 62
     3
100
AcDbLine
 10
903.6460379300001
 20
836.0486349599996
 30
0.0
 11
903.6460379300001
 21
832.7729407599999
 31
0.0
  0
LINE
  5
62F
330
6B
100
AcDbEntity
  8
0
 62
     3
100
AcDbLine
 10
904.7495553500001
 20
832.5454726199996
 30
0.0
 11
904.3138074399999
 21
832.7729407599999
 31
0.0
  0
LINE
  5
630
330
6B
100
AcDbEntity
  8
0
 62
     3
100
AcDbLine
 10
904.3138074399999
 20
834.7697995699999
 30
0.0
 11
904.3138074399999
 21
832.7729407599999
 31
0.0
  0
LINE
  5
631
330
6B
100
AcDbEntity
  8
0
 62
     3
100
AcDbLine
 10
907.2914181299999
 20
836.2761030999999
 30
0.0
 11
906.85567022
 21
836.0486349599996
 31
0.0
  0
LINE
  5
632
330
6B
100
AcDbEntity
  8
0
 62
     3
100
AcDbLine
 10
905.7521527999996
 20
836.2761030999999
 30
0.0
 11
906.1879007099999
 21
836.0486349599996
 31
0.0
  0
LINE
  5
633
330
6B
100
AcDbEntity
  8
0
 62
     3
100
AcDbLine
 10
906.1879007099999
 20
836.0486349599996
 30
0.0
 11
906.1879007099999
 21
834.6062978999999
 31
0.0
  0
LINE
  5
634
330
6B
100
AcDbEntity
  8
0
 62
     3
100
AcDbLine
 10
906.85567022
 20
836.0486349599996
 30
0.0
 11
906.85567022
 21
832.3339114799999
 31
0.0
  0
LINE
  5
635
330
6B
100
AcDbEntity
  8
0
 62
     3
100
AcDbLine
 10
907.50671533
 20
836.2761004699999
 30
0.0
 11
907.9424616699999
 21
836.0486293299997
 31
0.0
  0
LINE
  5
636
330
6B
100
AcDbEntity
  8
0
 62
     3
100
AcDbLine
 10
907.50663736
 20
832.5455225999997
 30
0.0
 11
907.9423932099999
 21
832.7729755199996
 31
0.0
  0
LINE
  5
637
330
6B
100
AcDbEntity
  8
0
 62
     3
100
AcDbLine
 10
907.9424616699999
 20
836.0486293299997
 30
0.0
 11
907.9424616699999
 21
832.7729755199996
 31
0.0
  0
LINE
  5
638
330
6B
100
AcDbEntity
  8
0
 62
     3
100
AcDbLine
 10
909.43625173
 20
836.2760767999997
 30
0.0
 11
909.00050064
 21
836.0486147699997
 31
0.0
  0
LINE
  5
639
330
6B
100
AcDbEntity
  8
0
 62
     3
100
AcDbLine
 10
909.00050064
 20
836.0486147699997
 30
0.0
 11
909.00050064
 21
832.7729609499996
 31
0.0
  0
LINE
  5
63A
330
6B
100
AcDbEntity
  8
0
 62
     3
100
AcDbLine
 10
909.43625173
 20
832.5454989199997
 30
0.0
 11
909.00050064
 21
832.7729609499996
 31
0.0
  0
LINE
  5
63B
330
6B
100
AcDbEntity
  8
0
 62
     3
100
AcDbLine
 10
913.1265051699999
 20
836.2760357999999
 30
0.0
 11
913.56225229
 21
836.0485661599996
 31
0.0
  0
LINE
  5
63C
330
6B
100
AcDbEntity
  8
0
 62
     3
100
AcDbLine
 10
913.56225229
 20
836.0485661599996
 30
0.0
 11
913.5621951199999
 21
832.7729123499999
 31
0.0
  0
LINE
  5
63D
330
6B
100
AcDbEntity
  8
0
 62
     3
100
AcDbLine
 10
913.12644006
 20
832.5454579199996
 30
0.0
 11
913.5621951199999
 21
832.7729123499999
 31
0.0
  0
LINE
  5
63E
330
6B
100
AcDbEntity
  8
0
 62
     3
100
AcDbLine
 10
915.0787661299997
 20
836.2760357999999
 30
0.0
 11
914.64301901
 21
836.0485661599996
 31
0.0
  0
LINE
  5
63F
330
6B
100
AcDbEntity
  8
0
 62
     3
100
AcDbLine
 10
915.0788312399999
 20
832.5454579199996
 30
0.0
 11
914.6430761799999
 21
832.7729123499999
 31
0.0
  0
LINE
  5
640
330
6B
100
AcDbEntity
  8
0
 62
     3
100
AcDbLine
 10
915.2824939900002
 20
836.2760357999999
 30
0.0
 11
915.71824112
 21
836.0485661599996
 31
0.0
  0
LINE
  5
641
330
6B
100
AcDbEntity
  8
0
 62
     3
100
AcDbLine
 10
915.2824288799999
 20
832.5454579199996
 30
0.0
 11
915.7181839399999
 21
832.7729123499999
 31
0.0
  0
LINE
  5
642
330
6B
100
AcDbEntity
  8
0
 62
     3
100
AcDbLine
 10
917.2347549600001
 20
836.2760357999999
 30
0.0
 11
916.7990078399999
 21
836.0485661599996
 31
0.0
  0
LINE
  5
643
330
6B
100
AcDbEntity
  8
0
 62
     3
100
AcDbLine
 10
916.7990078399999
 20
836.0485661599996
 30
0.0
 11
916.79906501
 21
832.7729123499999
 31
0.0
  0
LINE
  5
644
330
6B
100
AcDbEntity
  8
0
 62
     3
100
AcDbLine
 10
917.23482007
 20
832.5454579199996
 30
0.0
 11
916.79906501
 21
832.7729123499999
 31
0.0
  0
LINE
  5
645
330
6B
100
AcDbEntity
  8
0
 62
     3
100
AcDbLine
 10
915.7182162099999
 20
834.6214330399996
 30
0.0
 11
914.6430439199999
 21
834.6214330399996
 31
0.0
  0
LINE
  5
646
330
6B
100
AcDbEntity
  8
0
 62
     3
100
AcDbLine
 10
915.71820885
 20
834.2001426799999
 30
0.0
 11
914.6430512699996
 21
834.2001426799999
 31
0.0
  0
LINE
  5
647
330
6B
100
AcDbEntity
  8
0
 62
     3
100
AcDbLine
 10
915.71824112
 20
836.0485661599996
 30
0.0
 11
915.7182162099999
 21
834.6214330399996
 31
0.0
  0
LINE
  5
648
330
6B
100
AcDbEntity
  8
0
 62
     3
100
AcDbLine
 10
915.71820885
 20
834.2001426799999
 30
0.0
 11
915.7181839399999
 21
832.7729123499999
 31
0.0
  0
LINE
  5
649
330
6B
100
AcDbEntity
  8
0
 62
     3
100
AcDbLine
 10
914.64301901
 20
836.0485661599996
 30
0.0
 11
914.6430439199999
 21
834.6214330399996
 31
0.0
  0
LINE
  5
64A
330
6B
100
AcDbEntity
  8
0
 62
     3
100
AcDbLine
 10
914.6430512699996
 20
834.2001426799999
 30
0.0
 11
914.6430761799999
 21
832.7729123499999
 31
0.0
  0
LINE
  5
64B
330
6B
100
AcDbEntity
  8
0
 62
     3
100
AcDbLine
 10
917.4417140800001
 20
836.2760357999999
 30
0.0
 11
917.8774611999999
 21
836.0485661599996
 31
0.0
  0
LINE
  5
64C
330
6B
100
AcDbEntity
  8
0
 62
     3
100
AcDbLine
 10
917.8774611999999
 20
836.0485661599996
 30
0.0
 11
917.87740403
 21
832.7729123499999
 31
0.0
  0
LINE
  5
64D
330
6B
100
AcDbEntity
  8
0
 62
     3
100
AcDbLine
 10
917.44164897
 20
832.5454579199996
 30
0.0
 11
917.87740403
 21
832.7729123499999
 31
0.0
  0
LINE
  5
64E
330
6B
100
AcDbEntity
  8
0
 62
     3
100
AcDbLine
 10
919.37122435
 20
836.2760357999999
 30
0.0
 11
918.9354772299999
 21
836.0485661599996
 31
0.0
  0
LINE
  5
64F
330
6B
100
AcDbEntity
  8
0
 62
     3
100
AcDbLine
 10
918.9354772299999
 20
836.0485661599996
 30
0.0
 11
918.9355344
 21
832.7729123499999
 31
0.0
  0
LINE
  5
650
330
6B
100
AcDbEntity
  8
0
 62
     3
100
AcDbLine
 10
919.3712894599999
 20
832.5454579199996
 30
0.0
 11
918.9355344
 21
832.7729123499999
 31
0.0
  0
LINE
  5
651
330
6B
100
AcDbEntity
  8
0
 62
     3
100
AcDbLine
 10
919.58558392
 20
836.2760357999999
 30
0.0
 11
920.02133104
 21
836.0485661599996
 31
0.0
  0
LINE
  5
652
330
6B
100
AcDbEntity
  8
0
 62
     3
100
AcDbLine
 10
920.02133104
 20
836.0485661599996
 30
0.0
 11
920.0212738699999
 21
832.7729123499999
 31
0.0
  0
LINE
  5
653
330
6B
100
AcDbEntity
  8
0
 62
     3
100
AcDbLine
 10
919.5855188100001
 20
832.5454579199996
 30
0.0
 11
920.0212738699999
 21
832.7729123499999
 31
0.0
  0
ARC
  5
654
330
6B
100
AcDbEntity
  8
0
 62
     3
100
AcDbCircle
 10
911.7345939000001
 20
834.4201776199996
 30
0.0
 40
2.086285909999999
100
AcDbArc
 50
97.70152350999723
 51
270.0
  0
ARC
  5
655
330
6B
100
AcDbEntity
  8
0
 62
     3
100
AcDbCircle
 10
924.6151947399999
 20
834.3992209899999
 30
0.0
 40
2.108943379999999
100
AcDbArc
 50
0.3142502700074235
 51
69.00558244998835
  0
ARC
  5
656
330
6B
100
AcDbEntity
  8
0
 62
     3
100
AcDbCircle
 10
925.07587006
 20
834.3992209899999
 30
0.0
 40
2.108943379999999
100
AcDbArc
 50
110.9944175499969
 51
148.1166110200025
  0
ARC
  5
657
330
6B
100
AcDbEntity
  8
0
 62
     3
100
AcDbCircle
 10
924.6151947399999
 20
834.4223547299996
 30
0.0
 40
2.108943379999999
100
AcDbArc
 50
290.9944175499969
 51
359.6857497299926
  0
ARC
  5
658
330
6B
100
AcDbEntity
  8
0
 62
     3
100
AcDbCircle
 10
925.07587006
 20
834.4223547299996
 30
0.0
 40
2.108943379999999
100
AcDbArc
 50
211.8833889799973
 51
249.0055824499884
  0
ARC
  5
659
330
6B
100
AcDbEntity
  8
0
 62
     3
100
AcDbCircle
 10
924.8455324
 20
835.2735932499998
 30
0.0
 40
1.214070989999997
100
AcDbArc
 50
64.36517190000066
 51
115.6348280999993
  0
ARC
  5
65A
330
6B
100
AcDbEntity
  8
0
 62
     3
100
AcDbCircle
 10
924.8455324
 20
833.5479824699998
 30
0.0
 40
1.214070989999997
100
AcDbArc
 50
244.3651719000007
 51
295.6348280999993
  0
ARC
  5
65B
330
6B
100
AcDbEntity
  8
0
 62
     3
100
AcDbCircle
 10
924.8455324
 20
835.2966549299997
 30
0.0
 40
0.59585563
100
AcDbArc
 50
19.48660554000642
 51
160.5133944599935
  0
ARC
  5
65C
330
6B
100
AcDbEntity
  8
0
 62
     3
100
AcDbCircle
 10
924.8455324
 20
833.5479824699998
 30
0.0
 40
1.214070989999997
100
AcDbArc
 50
244.3651719000007
 51
295.6348280999993
  0
ARC
  5
65D
330
6B
100
AcDbEntity
  8
0
 62
     3
100
AcDbCircle
 10
924.8455324
 20
833.5249207899996
 30
0.0
 40
0.59585563
100
AcDbArc
 50
199.4866055400056
 51
340.5133944599935
  0
ARC
  5
65E
330
6B
100
AcDbEntity
  8
0
 62
     3
100
AcDbCircle
 10
920.1030598999999
 20
812.1827280199999
 30
0.0
 40
26.04
100
AcDbArc
 50
69.50571480000848
 51
81.68998806999741
  0
ARC
  5
65F
330
6B
100
AcDbEntity
  8
0
 62
     3
100
AcDbCircle
 10
920.1030598999999
 20
856.6388476999996
 30
0.0
 40
26.04
100
AcDbArc
 50
278.3100119300026
 51
290.4942851999915
  0
ARC
  5
660
330
6B
100
AcDbEntity
  8
0
 62
     3
100
AcDbCircle
 10
928.41126403
 20
834.4107878599997
 30
0.0
 40
2.31
100
AcDbArc
 50
290.4942851999915
 51
69.50571480000848
  0
ARC
  5
661
330
6B
100
AcDbEntity
  8
0
 62
     3
100
AcDbCircle
 10
901.11126403
 20
834.4107878599997
 30
0.0
 40
2.31
100
AcDbArc
 50
110.4942851999915
 51
249.5057147999946
  0
ARC
  5
662
330
6B
100
AcDbEntity
  8
0
 62
     3
100
AcDbCircle
 10
909.4194681499999
 20
812.1827280199999
 30
0.0
 40
26.04
100
AcDbArc
 50
98.31001192998948
 51
110.4942851999915
  0
ARC
  5
663
330
6B
100
AcDbEntity
  8
0
 62
     3
100
AcDbCircle
 10
909.4194681499999
 20
856.6388476999996
 30
0.0
 40
26.04
100
AcDbArc
 50
249.5057147999946
 51
261.6899880699974
  0
ARC
  5
664
330
6B
100
AcDbEntity
  8
0
 62
     3
100
AcDbCircle
 10
914.7612640299996
 20
775.6107878599999
 30
0.0
 40
62.99999987
100
AcDbArc
 50
81.68998806999741
 51
98.31001192998948
  0
ARC
  5
665
330
6B
100
AcDbEntity
  8
0
 62
     3
100
AcDbCircle
 10
914.7612640299996
 20
893.2107878599996
 30
0.0
 40
62.99999987
100
AcDbArc
 50
261.6899880699974
 51
278.3100119300026
  0
ARC
  5
666
330
6B
100
AcDbEntity
  8
0
 62
     3
100
AcDbCircle
 10
914.7612640299996
 20
775.6107878599999
 30
0.0
 40
62.36999987
100
AcDbArc
 50
81.68998806999741
 51
98.31001192998948
  0
ARC
  5
667
330
6B
100
AcDbEntity
  8
0
 62
     3
100
AcDbCircle
 10
914.7612640299996
 20
893.2107878599996
 30
0.0
 40
62.36999987
100
AcDbArc
 50
261.6899880699974
 51
278.3100119300026
  0
ARC
  5
668
330
6B
100
AcDbEntity
  8
0
 62
     3
100
AcDbCircle
 10
920.1030598999999
 20
856.6388476999996
 30
0.0
 40
25.41
100
AcDbArc
 50
278.3100119300026
 51
290.4942851999915
  0
ARC
  5
669
330
6B
100
AcDbEntity
  8
0
 62
     3
100
AcDbCircle
 10
920.1030598999999
 20
812.1827280199999
 30
0.0
 40
25.41
100
AcDbArc
 50
69.50571480000848
 51
81.68998806999741
  0
ARC
  5
66A
330
6B
100
AcDbEntity
  8
0
 62
     3
100
AcDbCircle
 10
928.41126403
 20
834.4107878599997
 30
0.0
 40
1.679999999999999
100
AcDbArc
 50
290.4942851999915
 51
69.50571480000848
  0
ARC
  5
66B
330
6B
100
AcDbEntity
  8
0
 62
     3
100
AcDbCircle
 10
901.11126403
 20
834.4107878599997
 30
0.0
 40
1.679999999999999
100
AcDbArc
 50
110.4942851999915
 51
249.5057147999946
  0
ARC
  5
66C
330
6B
100
AcDbEntity
  8
0
 62
     3
100
AcDbCircle
 10
909.4194681499999
 20
812.1827280199999
 30
0.0
 40
25.41
100
AcDbArc
 50
98.31001192998948
 51
110.4942851999915
  0
ARC
  5
66D
330
6B
100
AcDbEntity
  8
0
 62
     3
100
AcDbCircle
 10
909.4194681499999
 20
856.6388476999996
 30
0.0
 40
25.41
100
AcDbArc
 50
249.5057147999946
 51
261.6899880699974
  0
LINE
  5
66E
330
6B
100
AcDbEntity
  8
0
 62
     3
100
AcDbLine
 10
919.3712251299999
 20
832.3339114799999
 30
0.0
 11
917.4417133
 21
832.3339114799999
 31
0.0
  0
LINE
  5
66F
330
6B
100
AcDbEntity
  8
0
 62
     3
100
AcDbLine
 10
919.3712251299999
 20
832.5454726199996
 30
0.0
 11
919.3712251299999
 21
832.3339114799999
 31
0.0
  0
LINE
  5
670
330
6B
100
AcDbEntity
  8
0
 62
     3
100
AcDbLine
 10
917.23475574
 20
836.4875655199996
 30
0.0
 11
915.2824932099999
 21
836.4875655199996
 31
0.0
  0
LINE
  5
671
330
6B
100
AcDbEntity
  8
0
 62
     3
100
AcDbLine
 10
917.23475574
 20
836.4875655199996
 30
0.0
 11
917.23475574
 21
836.2761030999999
 31
0.0
  0
LINE
  5
672
330
6B
100
AcDbEntity
  8
0
 62
     3
100
AcDbLine
 10
917.23475574
 20
832.5454726199996
 30
0.0
 11
917.23475574
 21
832.3338127699999
 31
0.0
  0
LINE
  5
673
330
6B
100
AcDbEntity
  8
0
 62
     3
100
AcDbLine
 10
917.23475574
 20
832.3338127699999
 30
0.0
 11
915.2824932099999
 21
832.3338127699999
 31
0.0
  0
LINE
  5
674
330
6B
100
AcDbEntity
  8
0
 62
     3
100
AcDbLine
 10
919.3712251299999
 20
836.4876642399996
 30
0.0
 11
919.3712251299999
 21
836.2761030999999
 31
0.0
  0
LINE
  5
675
330
6B
100
AcDbEntity
  8
0
 62
     3
100
AcDbLine
 10
919.3712251299999
 20
836.4876642399996
 30
0.0
 11
917.4417133
 21
836.4876642399996
 31
0.0
  0
LINE
  5
676
330
6B
100
AcDbEntity
  8
0
 62
     3
100
AcDbLine
 10
917.4417133
 20
836.4876642399996
 30
0.0
 11
917.4417133
 21
836.2761030999999
 31
0.0
  0
LINE
  5
677
330
6B
100
AcDbEntity
  8
0
 62
     3
100
AcDbLine
 10
919.5855831300001
 20
832.5454726199996
 30
0.0
 11
919.5855831300001
 21
832.3339114799999
 31
0.0
  0
LINE
  5
678
330
6B
100
AcDbEntity
  8
0
 62
     3
100
AcDbLine
 10
921.5698836899999
 20
832.3339114799999
 30
0.0
 11
919.5855831300001
 21
832.3339114799999
 31
0.0
  0
LINE
  5
679
330
6B
100
AcDbEntity
  8
0
 62
     3
100
AcDbLine
 10
921.0793470600002
 20
835.8198947199996
 30
0.0
 11
921.0793470600002
 21
833.0016809999998
 31
0.0
  0
LINE
  5
67A
330
6B
100
AcDbEntity
  8
0
 62
     3
100
AcDbLine
 10
921.0793470600002
 20
833.0016809999998
 30
0.0
 11
921.2693960300001
 21
833.0016809999998
 31
0.0
  0
ARC
  5
67B
330
6B
100
AcDbEntity
  8
0
 62
     3
100
AcDbCircle
 10
920.2976102899999
 20
834.4107878599997
 30
0.0
 40
1.71170957
100
AcDbArc
 50
304.5919552700034
 51
55.40804472999656
  0
LINE
  5
67C
330
6B
100
AcDbEntity
  8
0
 62
     3
100
AcDbLine
 10
921.5698836899999
 20
836.4876642399996
 30
0.0
 11
919.5855831300001
 21
836.4876642399996
 31
0.0
  0
LINE
  5
67D
330
6B
100
AcDbEntity
  8
0
 62
     3
100
AcDbLine
 10
919.5855831300001
 20
836.4876642399996
 30
0.0
 11
919.5855831300001
 21
836.2761030999999
 31
0.0
  0
LINE
  5
67E
330
6B
100
AcDbEntity
  8
0
 62
     3
100
AcDbLine
 10
917.4417133
 20
832.5454726199996
 30
0.0
 11
917.4417133
 21
832.3339114799999
 31
0.0
  0
LINE
  5
67F
330
6B
100
AcDbEntity
  8
0
 62
     3
100
AcDbLine
 10
921.0793470600002
 20
835.8198947199996
 30
0.0
 11
921.2693960300001
 21
835.8198947199996
 31
0.0
  0
LINE
  5
680
330
6B
100
AcDbEntity
  8
0
 62
     3
100
AcDbLine
 10
909.4361874
 20
832.5454726199996
 30
0.0
 11
909.4361837100001
 21
832.3338917099999
 31
0.0
  0
LINE
  5
681
330
6B
100
AcDbEntity
  8
0
 62
     3
100
AcDbLine
 10
907.50667187
 20
832.3339312499998
 30
0.0
 11
909.4361837100001
 21
832.3338975799996
 31
0.0
  0
LINE
  5
682
330
6B
100
AcDbEntity
  8
0
 62
     3
100
AcDbLine
 10
903.2102900199999
 20
832.3339114799999
 30
0.0
 11
904.7495553500001
 21
832.3339114799999
 31
0.0
  0
ARC
  5
683
330
6B
100
AcDbEntity
  8
0
 62
     3
100
AcDbCircle
 10
898.22834734
 20
834.4596944799999
 30
0.0
 40
14.71356563
100
AcDbArc
 50
353.8660061899952
 51
357.6940342600066
  0
LINE
  5
684
330
6B
100
AcDbEntity
  8
0
 62
     3
100
AcDbLine
 10
911.9449272000002
 20
833.8713268299997
 30
0.0
 11
912.92999809
 21
833.8676819499996
 31
0.0
  0
LINE
  5
686
330
6B
100
AcDbEntity
  8
0
 62
     3
100
AcDbLine
 10
911.94890562
 20
834.9465415699997
 30
0.0
 11
912.9339764999999
 21
834.9428966999999
 31
0.0
  0
ARC
  5
687
330
6B
100
AcDbEntity
  8
0
 62
     3
100
AcDbCircle
 10
898.22834734
 20
834.4596944799999
 30
0.0
 40
14.71356563
100
AcDbArc
 50
1.881965739991514
 51
5.709993809994633
  0
LINE
  5
688
330
6B
100
AcDbEntity
  8
0
 62
     3
100
AcDbLine
 10
909.4362562
 20
836.4876444699998
 30
0.0
 11
909.4362525100001
 21
836.2761030999999
 31
0.0
  0
LINE
  5
689
330
6B
100
AcDbEntity
  8
0
 62
     3
100
AcDbLine
 10
907.50674437
 20
836.4876840099999
 30
0.0
 11
909.4362562
 21
836.4876503299997
 31
0.0
  0
LINE
  5
68A
330
6B
100
AcDbEntity
  8
0
 62
     3
100
AcDbLine
 10
907.5066755599999
 20
832.5454726199996
 30
0.0
 11
907.50667187
 21
832.3339312499998
 31
0.0
  0
LINE
  5
68B
330
6B
100
AcDbEntity
  8
0
 62
     3
100
AcDbLine
 10
907.50674437
 20
836.4876840099999
 30
0.0
 11
907.5067406799997
 21
836.2761030999999
 31
0.0
  0
LINE
  5
68C
330
6B
100
AcDbEntity
  8
0
 62
     3
100
AcDbLine
 10
904.7495553500001
 20
832.5454726199996
 30
0.0
 11
904.7495553500001
 21
832.3339114799999
 31
0.0
  0
LINE
  5
68D
330
6B
100
AcDbEntity
  8
0
 62
     3
100
AcDbLine
 10
904.3138074399999
 20
834.7697995699999
 30
0.0
 11
905.8362374999999
 21
832.3339114799999
 31
0.0
  0
LINE
  5
68E
330
6B
100
AcDbEntity
  8
0
 62
     3
100
AcDbLine
 10
905.8362374999999
 20
832.3339114799999
 30
0.0
 11
906.85567022
 21
832.3339114799999
 31
0.0
  0
LINE
  5
68F
330
6B
100
AcDbEntity
  8
0
 62
     3
100
AcDbLine
 10
907.2914181299999
 20
836.4876642399996
 30
0.0
 11
907.2914181299999
 21
836.2761030999999
 31
0.0
  0
LINE
  5
690
330
6B
100
AcDbEntity
  8
0
 62
     3
100
AcDbLine
 10
905.7521527999996
 20
836.4876642399996
 30
0.0
 11
907.2914181299999
 21
836.4876642399996
 31
0.0
  0
LINE
  5
691
330
6B
100
AcDbEntity
  8
0
 62
     3
100
AcDbLine
 10
905.7521527999996
 20
836.4876642399996
 30
0.0
 11
905.7521527999996
 21
836.2761030999999
 31
0.0
  0
LINE
  5
692
330
6B
100
AcDbEntity
  8
0
 62
     3
100
AcDbLine
 10
906.1879007099999
 20
834.6062978999999
 30
0.0
 11
904.9532540400001
 21
836.4876642399996
 31
0.0
  0
LINE
  5
693
330
6B
100
AcDbEntity
  8
0
 62
     3
100
AcDbLine
 10
903.2102900199999
 20
836.4876642399996
 30
0.0
 11
904.9532540400001
 21
836.4876642399996
 31
0.0
  0
LINE
  5
694
330
6B
100
AcDbEntity
  8
0
 62
     3
100
AcDbLine
 10
913.12650438
 20
836.4875655199996
 30
0.0
 11
915.0787669199999
 21
836.4875655199996
 31
0.0
  0
LINE
  5
695
330
6B
100
AcDbEntity
  8
0
 62
     3
100
AcDbLine
 10
913.12650438
 20
836.2761030999999
 30
0.0
 11
913.12650438
 21
836.4875655199996
 31
0.0
  0
LINE
  5
696
330
6B
100
AcDbEntity
  8
0
 62
     3
100
AcDbLine
 10
913.12650438
 20
832.3338127699999
 30
0.0
 11
913.12650438
 21
832.5454726199996
 31
0.0
  0
LINE
  5
697
330
6B
100
AcDbEntity
  8
0
 62
     3
100
AcDbLine
 10
913.12650438
 20
832.3338127699999
 30
0.0
 11
915.0787669199999
 21
832.3338127699999
 31
0.0
  0
LINE
  5
698
330
6B
100
AcDbEntity
  8
0
 62
     3
100
AcDbLine
 10
915.2824932099999
 20
832.5454726199996
 30
0.0
 11
915.2824932099999
 21
832.3338127699999
 31
0.0
  0
LINE
  5
699
330
6B
100
AcDbEntity
  8
0
 62
     3
100
AcDbLine
 10
915.0787669199999
 20
832.5454726199996
 30
0.0
 11
915.0787669199999
 21
832.3338127699999
 31
0.0
  0
LINE
  5
69A
330
6B
100
AcDbEntity
  8
0
 62
     3
100
AcDbLine
 10
915.0787669199999
 20
836.2761030999999
 30
0.0
 11
915.0787669199999
 21
836.4875655199996
 31
0.0
  0
LINE
  5
69B
330
6B
100
AcDbEntity
  8
0
 62
     3
100
AcDbLine
 10
915.2824932099999
 20
836.2761030999999
 30
0.0
 11
915.2824932099999
 21
836.4875655199996
 31
0.0
  0
LINE
  5
69C
330
6B
100
AcDbEntity
  8
0
 62
     3
100
AcDbLine
 10
903.2102900199999
 20
832.5454726199996
 30
0.0
 11
903.2102900199999
 21
832.3339114799999
 31
0.0
  0
LINE
  5
69D
330
6B
100
AcDbEntity
  8
0
 62
     3
100
AcDbLine
 10
903.2102900199999
 20
836.4876642399996
 30
0.0
 11
903.2102900199999
 21
836.2761030999999
 31
0.0
  0
ARC
  5
69E
330
6B
100
AcDbEntity
  8
0
 62
     3
100
AcDbCircle
 10
921.77988369
 20
834.8465357699996
 30
0.0
 40
1.641128469999999
100
AcDbArc
 50
17.30874897999775
 51
23.76507095999297
  0
ARC
  5
69F
330
6B
100
AcDbEntity
  8
0
 62
     3
100
AcDbCircle
 10
920.3816102900001
 20
834.4107878599997
 30
0.0
 40
3.105725599999998
100
AcDbArc
 50
342.6912510200022
 51
17.30856643999277
  0
ARC
  5
6A0
330
6B
100
AcDbEntity
  8
0
 62
     3
100
AcDbCircle
 10
921.77988369
 20
833.9750399599999
 30
0.0
 40
1.641128469999999
100
AcDbArc
 50
336.2349290400072
 51
342.6912510200022
  0
ARC
  5
6A1
330
6B
100
AcDbEntity
  8
0
 62
     3
100
AcDbCircle
 10
921.5698836899999
 20
834.8465357699996
 30
0.0
 40
1.641128469999999
100
AcDbArc
 50
17.30874897999775
 51
90.0
  0
ARC
  5
6A2
330
6B
100
AcDbEntity
  8
0
 62
     3
100
AcDbCircle
 10
920.17161029
 20
834.4107878599997
 30
0.0
 40
3.105725599999998
100
AcDbArc
 50
342.6912510200022
 51
17.30856643999277
  0
ARC
  5
6A3
330
6B
100
AcDbEntity
  8
0
 62
     3
100
AcDbCircle
 10
921.5698836899999
 20
833.9750399599999
 30
0.0
 40
1.641128469999999
100
AcDbArc
 50
270.0
 51
342.6912510200022
  0
ARC
  5
6A4
330
6B
100
AcDbEntity
  8
0
 62
     3
100
AcDbCircle
 10
911.44594332
 20
834.4107878599997
 30
0.0
 40
2.076876379999998
100
AcDbArc
 50
46.75287960999258
 51
89.74999828999569
  0
ARC
  5
6A5
330
6B
100
AcDbEntity
  8
0
 62
     3
100
AcDbCircle
 10
911.44594332
 20
834.4107878599997
 30
0.0
 40
2.076876379999998
100
AcDbArc
 50
273.976333149997
 51
312.8231203899968
  0
ARC
  5
6A6
330
6B
100
AcDbEntity
  8
0
 62
     3
100
AcDbCircle
 10
922.88775126
 20
834.3787263299997
 30
0.0
 40
2.755888999999998
100
AcDbArc
 50
0.6665840599916529
 51
23.90392827000101
  0
ARC
  5
6A7
330
6B
100
AcDbEntity
  8
0
 62
     3
100
AcDbCircle
 10
926.8033135399999
 20
834.3787263299997
 30
0.0
 40
2.755888999999998
100
AcDbArc
 50
156.096071729999
 51
179.3334159400083
  0
ARC
  5
6A8
330
6B
100
AcDbEntity
  8
0
 62
     3
100
AcDbCircle
 10
922.88775126
 20
834.4428493899997
 30
0.0
 40
2.755888999999998
100
AcDbArc
 50
336.096071729999
 51
359.3334159400084
  0
ARC
  5
6A9
330
6B
100
AcDbEntity
  8
0
 62
     3
100
AcDbCircle
 10
926.8033135399999
 20
834.4428493899997
 30
0.0
 40
2.755888999999998
100
AcDbArc
 50
180.6665840599917
 51
203.903928270001
  0
LINE
  5
6AA
330
6B
100
AcDbEntity
  8
0
 62
     3
100
AcDbLine
 10
931.45360063
 20
834.4886589999996
 30
0.0
 11
1046.125938
 21
834.4886589999996
 31
0.0
  0
LINE
  5
6AB
330
6B
100
AcDbEntity
  8
0
 62
     3
100
AcDbLine
 10
898.04085411
 20
834.4886589999996
 30
0.0
 11
866.1259380000004
 21
834.4886589999996
 31
0.0
  0
TEXT
  5
6AC
330
6B
100
AcDbEntity
  8
0
 62
     3
100
AcDbText
 10
1033.625938
 20
824.9886589999999
 30
0.0
 40
3.2
  1
担　当
  7
高3.2
100
AcDbText
  0
TEXT
  5
6AD
330
6B
100
AcDbEntity
  8
0
 62
     3
100
AcDbText
 10
989.6259380000001
 20
824.9886589999999
 30
0.0
 40
3.2
  1
変更・追記内容
  7
高3.2
100
AcDbText
  0
TEXT
  5
6AE
330
6B
100
AcDbEntity
  8
0
 62
     3
100
AcDbText
 10
964.7394530003394
 20
820.3181204900916
 30
0.0
 40
2.0
  1
1
  7
高2
100
AcDbText
  0
TEXT
  5
6AF
330
6B
100
AcDbEntity
  8
0
 62
     3
100
AcDbText
 10
964.430941523582
 20
815.1483037778186
 30
0.0
 40
2.0
  1
2
  7
高2
100
AcDbText
  0
TEXT
  5
6B0
330
6B
100
AcDbEntity
  8
0
 62
     3
100
AcDbText
 10
971.6259380000003
 20
824.9886589999999
 30
0.0
 40
3.2
  1
日　付
  7
高3.2
100
AcDbText
  0
TEXT
  5
6B1
330
6B
100
AcDbEntity
  8
0
 62
     3
100
AcDbText
 10
971.6259380000003
 20
829.9886589999996
 30
0.0
 40
3.2
  1
図　　　　面　　　　略　　　　歴
  7
高3.2
100
AcDbText
  0
TEXT
  5
6B2
330
6B
100
AcDbEntity
  8
0
 62
     3
100
AcDbText
 10
961.625938
 20
824.9886589999999
 30
0.0
 40
3.2
  1
記号
  7
高3.2
100
AcDbText
  0
LINE
  5
6B3
330
6B
100
AcDbEntity
  8
0
 62
     7
100
AcDbLine
 10
965.125938
 20
818.2795549999998
 30
0.0
 11
963.225938
 21
814.9886589999999
 31
0.0
  0
LINE
  5
6B4
330
6B
100
AcDbEntity
  8
0
 62
     7
100
AcDbLine
 10
965.125938
 20
818.2795549999998
 30
0.0
 11
967.025938
 21
814.9886589999999
 31
0.0
  0
LINE
  5
6B5
330
6B
100
AcDbEntity
  8
0
 62
     7
100
AcDbLine
 10
963.225938
 20
814.9886589999999
 30
0.0
 11
967.025938
 21
814.9886589999999
 31
0.0
  0
LINE
  5
6B6
330
6B
100
AcDbEntity
  8
0
 62
     7
100
AcDbLine
 10
965.125938
 20
823.2795559999997
 30
0.0
 11
963.225938
 21
819.9886589999996
 31
0.0
  0
LINE
  5
6B7
330
6B
100
AcDbEntity
  8
0
 62
     7
100
AcDbLine
 10
965.125938
 20
823.2795559999997
 30
0.0
 11
967.025938
 21
819.9886589999996
 31
0.0
  0
LINE
  5
6B8
330
6B
100
AcDbEntity
  8
0
 62
     7
100
AcDbLine
 10
963.225938
 20
819.9886589999996
 30
0.0
 11
967.025938
 21
819.9886589999996
 31
0.0
  0
LINE
  5
6B9
330
6B
100
AcDbEntity
  8
0
 62
     3
100
AcDbLine
 10
960.1259380000001
 20
829.4886589999999
 30
0.0
 11
1046.125938
 21
829.4886589999999
 31
0.0
  0
LINE
  5
6BA
330
6B
100
AcDbEntity
  8
0
 62
     3
100
AcDbLine
 10
960.1259380000001
 20
824.4886589999996
 30
0.0
 11
1046.125938
 21
824.4886589999996
 31
0.0
  0
LINE
  5
6BB
330
6B
100
AcDbEntity
  8
0
 62
     7
100
AcDbLine
 10
960.1259380000001
 20
819.4886589999999
 30
0.0
 11
1046.125938
 21
819.4886589999999
 31
0.0
  0
LINE
  5
6BC
330
6B
100
AcDbEntity
  8
0
 62
     3
100
AcDbLine
 10
960.1259380000001
 20
814.4886589999996
 30
0.0
 11
1046.125938
 21
814.4886589999996
 31
0.0
  0
LINE
  5
6BD
330
6B
100
AcDbEntity
  8
0
 62
     7
100
AcDbLine
 10
1032.125938
 20
814.4886589999996
 30
0.0
 11
1032.125938
 21
829.4886589999999
 31
0.0
  0
LINE
  5
6BE
330
6B
100
AcDbEntity
  8
0
 62
     7
100
AcDbLine
 10
988.1259380000001
 20
814.4886589999996
 30
0.0
 11
988.1259380000001
 21
829.4886589999999
 31
0.0
  0
LINE
  5
6BF
330
6B
100
AcDbEntity
  8
0
 62
     7
100
AcDbLine
 10
970.1259379999999
 20
814.4886589999996
 30
0.0
 11
970.1259379999999
 21
829.4886589999999
 31
0.0
  0
LINE
  5
6C0
330
6B
100
AcDbEntity
  8
0
 62
     3
100
AcDbLine
 10
960.1259380000001
 20
814.4886589999996
 30
0.0
 11
960.1259380000001
 21
834.4886589999996
 31
0.0
  0
LINE
  5
8BD
330
6B
100
AcDbEntity
  8
0
 62
     3
100
AcDbLine
 10
976.7629030000003
 20
665.6021560000002
 30
0.0
 11
976.7629030000003
 21
616.6021560000002
 31
0.0
  0
LINE
  5
8BE
330
6B
100
AcDbEntity
  8
0
 62
     3
100
AcDbLine
 10
976.7629030000003
 20
665.6021560000002
 30
0.0
 11
1039.257215
 21
665.6021560000002
 31
0.0
  0
LINE
  5
8BF
330
6B
100
AcDbEntity
  8
0
 62
     3
100
AcDbLine
 10
976.7629030000003
 20
616.6021560000002
 30
0.0
 11
1039.257215
 21
616.6021560000002
 31
0.0
  0
TEXT
  5
8C0
330
6B
100
AcDbEntity
  8
0
 62
     3
100
AcDbText
 10
984.6228687386799
 20
668.0561380000002
 30
0.0
 40
4.5
  1
主　　　仕　　　様
  7
高4.5
100
AcDbText
  0
TEXT
  5
8C1
330
6B
100
AcDbEntity
  8
0
 62
     3
100
AcDbText
 10
978.7629030000003
 20
659.6021559999999
 30
0.0
 40
4.5
  1
型　　式
 41
0.8
  7
高4.5
100
AcDbText
  0
TEXT
  5
8C2
330
6B
100
AcDbEntity
  8
0
 62
     3
100
AcDbText
 10
978.7629030000003
 20
652.6021560000002
 30
0.0
 40
4.5
  1
定格電圧
 41
0.8
  7
高4.5
100
AcDbText
  0
TEXT
  5
8C3
330
6B
100
AcDbEntity
  8
0
 62
     3
100
AcDbText
 10
978.7629030000003
 20
645.6021560000002
 30
0.0
 40
4.5
  1
定格消費電力
 41
0.8
  7
高4.5
100
AcDbText
  0
TEXT
  5
8C4
330
6B
100
AcDbEntity
  8
0
 62
     3
100
AcDbText
 10
978.7629030000003
 20
638.6021559999999
 30
0.0
 40
4.5
  1
定格光束
 41
0.8
  7
高4.5
100
AcDbText
  0
TEXT
  5
8C5
330
6B
100
AcDbEntity
  8
0
 62
     3
100
AcDbText
 10
978.7629030000003
 20
631.6021560000002
 30
0.0
 40
4.5
  1
寿　　命
 41
0.8
  7
高4.5
100
AcDbText
  0
TEXT
  5
8C6
330
6B
100
AcDbEntity
  8
0
 62
     3
100
AcDbText
 10
978.7629030000003
 20
624.6021560000002
 30
0.0
 40
4.5
  1
口　　金
 41
0.8
  7
高4.5
100
AcDbText
  0
TEXT
  5
8C7
330
6B
100
AcDbEntity
  8
0
 62
     3
100
AcDbText
 10
978.7629030000003
 20
617.6021559999999
 30
0.0
 40
4.5
  1
質　　量
 41
0.8
  7
高4.5
100
AcDbText
  0
LINE
  5
8C8
330
6B
100
AcDbEntity
  8
0
 62
     3
100
AcDbLine
 10
1039.257215
 20
616.6021560000002
 30
0.0
 11
1039.257215
 21
665.6021560000002
 31
0.0
  0
LINE
  5
8C9
330
6B
100
AcDbEntity
  8
0
 62
     7
100
AcDbLine
 10
976.7629030000003
 20
658.6021560000002
 30
0.0
 11
1039.257215
 21
658.6021560000002
 31
0.0
  0
LINE
  5
8CA
330
6B
100
AcDbEntity
  8
0
 62
     7
100
AcDbLine
 10
976.7629030000003
 20
651.6021560000003
 30
0.0
 11
1039.257215
 21
651.6021560000003
 31
0.0
  0
LINE
  5
8CB
330
6B
100
AcDbEntity
  8
0
 62
     7
100
AcDbLine
 10
976.7629030000003
 20
644.6021560000002
 30
0.0
 11
1039.257215
 21
644.6021560000002
 31
0.0
  0
LINE
  5
8CC
330
6B
100
AcDbEntity
  8
0
 62
     7
100
AcDbLine
 10
976.7629030000003
 20
637.6021560000002
 30
0.0
 11
1039.257215
 21
637.6021560000002
 31
0.0
  0
LINE
  5
8CD
330
6B
100
AcDbEntity
  8
0
 62
     7
100
AcDbLine
 10
976.7629030000003
 20
630.6021560000003
 30
0.0
 11
1039.257215
 21
630.6021560000003
 31
0.0
  0
LINE
  5
8CE
330
6B
100
AcDbEntity
  8
0
 62
     7
100
AcDbLine
 10
976.7629030000003
 20
623.6021560000002
 30
0.0
 11
1039.257215
 21
623.6021560000002
 31
0.0
  0
LINE
  5
8CF
330
6B
100
AcDbEntity
  8
0
 62
     7
100
AcDbLine
 10
1006.363246113844
 20
665.6021560000002
 30
0.0
 11
1006.363246113844
 21
616.6021560000002
 31
0.0
  0
LINE
  5
8D0
330
6B
100
AcDbEntity
  8
0
 62
     7
100
AcDbLine
 10
984.6228687386799
 20
667.0561380000001
 30
0.0
 11
1032.017674644761
 21
667.0561380000001
 31
0.0
  0
TEXT
  5
8D1
330
6B
100
AcDbEntity
  8
0
 62
     3
100
AcDbText
 10
1008.363246113844
 20
652.6021560000002
 30
0.0
 40
4.5
  1
200V
 41
0.8
  7
高4.5
100
AcDbText
  0
TEXT
  5
8D2
330
6B
100
AcDbEntity
  8
0
 62
     3
100
AcDbText
 10
1008.363246113844
 20
631.6021560000002
 30
0.0
 40
4.5
  1
約2000時間
 41
0.8
  7
高4.5
100
AcDbText
  0
TEXT
  5
8D3
330
6B
100
AcDbEntity
  8
0
 62
     3
100
AcDbText
 10
1008.363246113844
 20
659.6021560000003
 30
0.0
 40
4.5
  1
NRF-500-220V
 41
0.55
  7
高4.5
100
AcDbText
  0
TEXT
  5
8D4
330
6B
100
AcDbEntity
  8
0
 62
     3
100
AcDbText
 10
1008.363246113844
 20
645.6021560000002
 30
0.0
 40
4.5
  1
470W
 41
0.8
  7
高4.5
100
AcDbText
  0
TEXT
  5
8D5
330
6B
100
AcDbEntity
  8
0
 62
     3
100
AcDbText
 10
1008.363246113844
 20
638.6021560000003
 30
0.0
 40
4.5
  1
6400Lm
 41
0.8
  7
高4.5
100
AcDbText
  0
TEXT
  5
8D6
330
6B
100
AcDbEntity
  8
0
 62
     3
100
AcDbText
 10
1008.363246113844
 20
624.6021560000002
 30
0.0
 40
4.5
  1
E39
 41
0.8
  7
高4.5
100
AcDbText
  0
TEXT
  5
8D7
330
6B
100
AcDbEntity
  8
0
 62
     3
100
AcDbText
 10
1008.363246113844
 20
617.6021560000002
 30
0.0
 40
4.5
  1
245g
 41
0.8
  7
高4.5
100
AcDbText
  0
LINE
  5
956
330
6B
100
AcDbEntity
  8
0
 62
     3
100
AcDbLine
 10
911.94890562
 20
834.9465415699997
 30
0.0
 11
911.93027809
 21
835.0658093399996
 31
0.0
  0
LINE
  5
957
330
6B
100
AcDbEntity
  8
0
 62
     3
100
AcDbLine
 10
911.93027809
 20
835.0658093399996
 30
0.0
 11
911.9079069099999
 21
835.1800141199996
 31
0.0
  0
LINE
  5
958
330
6B
100
AcDbEntity
  8
0
 62
     3
100
AcDbLine
 10
911.9079069099999
 20
835.1800141199996
 30
0.0
 11
911.88196498
 21
835.2882731799997
 31
0.0
  0
LINE
  5
959
330
6B
100
AcDbEntity
  8
0
 62
     3
100
AcDbLine
 10
911.88196498
 20
835.2882731799997
 30
0.0
 11
911.85265284
 21
835.3897497299996
 31
0.0
  0
LINE
  5
95A
330
6B
100
AcDbEntity
  8
0
 62
     3
100
AcDbLine
 10
911.85265284
 20
835.3897497299996
 30
0.0
 11
911.8201970300001
 21
835.4836594099998
 31
0.0
  0
LINE
  5
95B
330
6B
100
AcDbEntity
  8
0
 62
     3
100
AcDbLine
 10
911.8201970300001
 20
835.4836594099998
 30
0.0
 11
911.7848484399999
 21
835.5692763499996
 31
0.0
  0
LINE
  5
95C
330
6B
100
AcDbEntity
  8
0
 62
     3
100
AcDbLine
 10
911.7848484399999
 20
835.5692763499996
 30
0.0
 11
911.7468802900001
 21
835.6459387599997
 31
0.0
  0
LINE
  5
95D
330
6B
100
AcDbEntity
  8
0
 62
     3
100
AcDbLine
 10
911.7468802900001
 20
835.6459387599997
 30
0.0
 11
911.70658604
 21
835.7130541
 31
0.0
  0
LINE
  5
95E
330
6B
100
AcDbEntity
  8
0
 62
     3
100
AcDbLine
 10
911.70658604
 20
835.7130541
 30
0.0
 11
911.6642771699996
 21
835.7701035899998
 31
0.0
  0
LINE
  5
95F
330
6B
100
AcDbEntity
  8
0
 62
     3
100
AcDbLine
 10
911.6642771699996
 20
835.7701035899998
 30
0.0
 11
911.62028068
 21
835.8166462599998
 31
0.0
  0
LINE
  5
960
330
6B
100
AcDbEntity
  8
0
 62
     3
100
AcDbLine
 10
911.62028068
 20
835.8166462599998
 30
0.0
 11
911.5749366600001
 21
835.8523223799997
 31
0.0
  0
LINE
  5
961
330
6B
100
AcDbEntity
  8
0
 62
     3
100
AcDbLine
 10
911.5749366600001
 20
835.8523223799997
 30
0.0
 11
911.5285955900001
 21
835.8768561699999
 31
0.0
  0
LINE
  5
962
330
6B
100
AcDbEntity
  8
0
 62
     3
100
AcDbLine
 10
911.5285955900001
 20
835.8768561699999
 30
0.0
 11
911.4816156499999
 21
835.8900580199996
 31
0.0
  0
LINE
  5
963
330
6B
100
AcDbEntity
  8
0
 62
     3
100
AcDbLine
 10
911.4816156499999
 20
835.8900580199996
 30
0.0
 11
911.4343599899999
 21
835.8918258599997
 31
0.0
  0
LINE
  5
964
330
6B
100
AcDbEntity
  8
0
 62
     3
100
AcDbLine
 10
911.4343599899999
 20
835.8918258599997
 30
0.0
 11
911.38719386
 21
835.8821460499997
 31
0.0
  0
LINE
  5
965
330
6B
100
AcDbEntity
  8
0
 62
     3
100
AcDbLine
 10
911.38719386
 20
835.8821460499997
 30
0.0
 11
911.3404818300001
 21
835.8610933899997
 31
0.0
  0
LINE
  5
966
330
6B
100
AcDbEntity
  8
0
 62
     3
100
AcDbLine
 10
911.3404818300001
 20
835.8610933899997
 30
0.0
 11
911.2945849699999
 21
835.8288306199996
 31
0.0
  0
LINE
  5
967
330
6B
100
AcDbEntity
  8
0
 62
     3
100
AcDbLine
 10
911.2945849699999
 20
835.8288306199996
 30
0.0
 11
911.24985803
 21
835.7856071099996
 31
0.0
  0
LINE
  5
968
330
6B
100
AcDbEntity
  8
0
 62
     3
100
AcDbLine
 10
911.24985803
 20
835.7856071099996
 30
0.0
 11
911.20664672
 21
835.7317569499999
 31
0.0
  0
LINE
  5
969
330
6B
100
AcDbEntity
  8
0
 62
     3
100
AcDbLine
 10
911.20664672
 20
835.7317569499999
 30
0.0
 11
911.16528506
 21
835.6676963799996
 31
0.0
  0
LINE
  5
96A
330
6B
100
AcDbEntity
  8
0
 62
     3
100
AcDbLine
 10
911.16528506
 20
835.6676963799996
 30
0.0
 11
911.1260927399996
 21
835.5939205599996
 31
0.0
  0
LINE
  5
96B
330
6B
100
AcDbEntity
  8
0
 62
     3
100
AcDbLine
 10
911.1260927399996
 20
835.5939205599996
 30
0.0
 11
911.0893727
 21
835.5109997299999
 31
0.0
  0
LINE
  5
96C
330
6B
100
AcDbEntity
  8
0
 62
     3
100
AcDbLine
 10
911.0893727
 20
835.5109997299999
 30
0.0
 11
911.05540877
 21
835.4195748199996
 31
0.0
  0
LINE
  5
96D
330
6B
100
AcDbEntity
  8
0
 62
     3
100
AcDbLine
 10
911.05540877
 20
835.4195748199996
 30
0.0
 11
911.02446347
 21
835.3203525199997
 31
0.0
  0
LINE
  5
96E
330
6B
100
AcDbEntity
  8
0
 62
     3
100
AcDbLine
 10
911.02446347
 20
835.3203525199997
 30
0.0
 11
910.9967759899999
 21
835.2140997499997
 31
0.0
  0
LINE
  5
96F
330
6B
100
AcDbEntity
  8
0
 62
     3
100
AcDbLine
 10
910.9967759899999
 20
835.2140997499997
 30
0.0
 11
910.9725603399999
 21
835.1016377899997
 31
0.0
  0
LINE
  5
970
330
6B
100
AcDbEntity
  8
0
 62
     3
100
AcDbLine
 10
910.9725603399999
 20
835.1016377899997
 30
0.0
 11
910.9520036999999
 21
834.9838359099997
 31
0.0
  0
LINE
  5
971
330
6B
100
AcDbEntity
  8
0
 62
     3
100
AcDbLine
 10
910.9520036999999
 20
834.9838359099997
 30
0.0
 11
910.9352649599999
 21
834.8616046699996
 31
0.0
  0
LINE
  5
972
330
6B
100
AcDbEntity
  8
0
 62
     3
100
AcDbLine
 10
910.9352649599999
 20
834.8616046699996
 30
0.0
 11
910.9224734999999
 21
834.7358888499996
 31
0.0
  0
LINE
  5
973
330
6B
100
AcDbEntity
  8
0
 62
     3
100
AcDbLine
 10
910.9224734999999
 20
834.7358888499996
 30
0.0
 11
910.91372819
 21
834.60766017
 31
0.0
  0
LINE
  5
974
330
6B
100
AcDbEntity
  8
0
 62
     3
100
AcDbLine
 10
910.91372819
 20
834.60766017
 30
0.0
 11
910.90909663
 21
834.4779097599996
 31
0.0
  0
LINE
  5
975
330
6B
100
AcDbEntity
  8
0
 62
     3
100
AcDbLine
 10
910.90909663
 20
834.4779097599996
 30
0.0
 11
910.9086146199999
 21
834.3476405299997
 31
0.0
  0
LINE
  5
976
330
6B
100
AcDbEntity
  8
0
 62
     3
100
AcDbLine
 10
910.9086146199999
 20
834.3476405299997
 30
0.0
 11
910.9122858800001
 21
834.2178594099998
 31
0.0
  0
LINE
  5
977
330
6B
100
AcDbEntity
  8
0
 62
     3
100
AcDbLine
 10
910.9122858800001
 20
834.2178594099998
 30
0.0
 11
910.9200820399999
 21
834.08956952
 31
0.0
  0
LINE
  5
978
330
6B
100
AcDbEntity
  8
0
 62
     3
100
AcDbLine
 10
910.9200820399999
 20
834.08956952
 30
0.0
 11
910.93194284
 21
833.9637624799999
 31
0.0
  0
LINE
  5
979
330
6B
100
AcDbEntity
  8
0
 62
     3
100
AcDbLine
 10
910.93194284
 20
833.9637624799999
 30
0.0
 11
910.9477765999999
 21
833.8414107099996
 31
0.0
  0
LINE
  5
97A
330
6B
100
AcDbEntity
  8
0
 62
     3
100
AcDbLine
 10
910.9477765999999
 20
833.8414107099996
 30
0.0
 11
910.96746092
 21
833.7234599399996
 31
0.0
  0
LINE
  5
97B
330
6B
100
AcDbEntity
  8
0
 62
     3
100
AcDbLine
 10
910.96746092
 20
833.7234599399996
 30
0.0
 11
910.9908436799999
 21
833.6108218699999
 31
0.0
  0
LINE
  5
97C
330
6B
100
AcDbEntity
  8
0
 62
     3
100
AcDbLine
 10
910.9908436799999
 20
833.6108218699999
 30
0.0
 11
911.0177441099999
 21
833.5043671099999
 31
0.0
  0
LINE
  5
97D
330
6B
100
AcDbEntity
  8
0
 62
     3
100
AcDbLine
 10
911.0177441099999
 20
833.5043671099999
 30
0.0
 11
911.04795431
 21
833.4049185199997
 31
0.0
  0
LINE
  5
97E
330
6B
100
AcDbEntity
  8
0
 62
     3
100
AcDbLine
 10
911.04795431
 20
833.4049185199997
 30
0.0
 11
911.08124076
 21
833.3132447899997
 31
0.0
  0
LINE
  5
97F
330
6B
100
AcDbEntity
  8
0
 62
     3
100
AcDbLine
 10
911.08124076
 20
833.3132447899997
 30
0.0
 11
911.1173461599999
 21
833.2300544899997
 31
0.0
  0
LINE
  5
980
330
6B
100
AcDbEntity
  8
0
 62
     3
100
AcDbLine
 10
911.1173461599999
 20
833.2300544899997
 30
0.0
 11
911.15599146
 21
833.1559906599999
 31
0.0
  0
LINE
  5
981
330
6B
100
AcDbEntity
  8
0
 62
     3
100
AcDbLine
 10
911.15599146
 20
833.1559906599999
 30
0.0
 11
911.1968779399999
 21
833.0916257699996
 31
0.0
  0
LINE
  5
982
330
6B
100
AcDbEntity
  8
0
 62
     3
100
AcDbLine
 10
911.1968779399999
 20
833.0916257699996
 30
0.0
 11
911.2396895599999
 21
833.03745732
 31
0.0
  0
LINE
  5
983
330
6B
100
AcDbEntity
  8
0
 62
     3
100
AcDbLine
 10
911.2396895599999
 20
833.03745732
 30
0.0
 11
911.2840954199999
 21
832.9939039999997
 31
0.0
  0
LINE
  5
984
330
6B
100
AcDbEntity
  8
0
 62
     3
100
AcDbLine
 10
911.2840954199999
 20
832.9939039999997
 30
0.0
 11
911.3297522699999
 21
832.9613024699996
 31
0.0
  0
LINE
  5
985
330
6B
100
AcDbEntity
  8
0
 62
     3
100
AcDbLine
 10
911.3297522699999
 20
832.9613024699996
 30
0.0
 11
911.3763072299999
 21
832.9399047099999
 31
0.0
  0
LINE
  5
986
330
6B
100
AcDbEntity
  8
0
 62
     3
100
AcDbLine
 10
911.3763072299999
 20
832.9399047099999
 30
0.0
 11
911.42340044
 21
832.9298761299996
 31
0.0
  0
LINE
  5
987
330
6B
100
AcDbEntity
  8
0
 62
     3
100
AcDbLine
 10
911.42340044
 20
832.9298761299996
 30
0.0
 11
911.4706678899999
 21
832.9312942299997
 31
0.0
  0
LINE
  5
988
330
6B
100
AcDbEntity
  8
0
 62
     3
100
AcDbLine
 10
911.4706678899999
 20
832.9312942299997
 30
0.0
 11
911.51774423
 21
832.9441480499998
 31
0.0
  0
LINE
  5
989
330
6B
100
AcDbEntity
  8
0
 62
     3
100
AcDbLine
 10
911.51774423
 20
832.9441480499998
 30
0.0
 11
911.5642655900003
 21
832.9683382499997
 31
0.0
  0
LINE
  5
98A
330
6B
100
AcDbEntity
  8
0
 62
     3
100
AcDbLine
 10
911.5642655900003
 20
832.9683382499997
 30
0.0
 11
911.60987238
 21
833.0036778299996
 31
0.0
  0
LINE
  5
98B
330
6B
100
AcDbEntity
  8
0
 62
     3
100
AcDbLine
 10
911.60987238
 20
833.0036778299996
 30
0.0
 11
911.65421208
 21
833.0498936499997
 31
0.0
  0
LINE
  5
98C
330
6B
100
AcDbEntity
  8
0
 62
     3
100
AcDbLine
 10
911.65421208
 20
833.0498936499997
 30
0.0
 11
911.6969419699996
 21
833.1066284899996
 31
0.0
  0
LINE
  5
98D
330
6B
100
AcDbEntity
  8
0
 62
     3
100
AcDbLine
 10
911.6969419699996
 20
833.1066284899996
 30
0.0
 11
911.73773177
 21
833.1734437999998
 31
0.0
  0
LINE
  5
98E
330
6B
100
AcDbEntity
  8
0
 62
     3
100
AcDbLine
 10
911.73773177
 20
833.1734437999998
 30
0.0
 11
911.7762662
 21
833.2498231499997
 31
0.0
  0
LINE
  5
98F
330
6B
100
AcDbEntity
  8
0
 62
     3
100
AcDbLine
 10
911.7762662
 20
833.2498231499997
 30
0.0
 11
911.8122474000001
 21
833.3351761599997
 31
0.0
  0
LINE
  5
990
330
6B
100
AcDbEntity
  8
0
 62
     3
100
AcDbLine
 10
911.8122474000001
 20
833.3351761599997
 30
0.0
 11
911.8453972600001
 21
833.4288430899999
 31
0.0
  0
LINE
  5
991
330
6B
100
AcDbEntity
  8
0
 62
     3
100
AcDbLine
 10
911.8453972600001
 20
833.4288430899999
 30
0.0
 11
911.87545954
 21
833.5300999499997
 31
0.0
  0
LINE
  5
992
330
6B
100
AcDbEntity
  8
0
 62
     3
100
AcDbLine
 10
911.87545954
 20
833.5300999499997
 30
0.0
 11
911.90220189
 21
833.6381640699999
 31
0.0
  0
LINE
  5
993
330
6B
100
AcDbEntity
  8
0
 62
     3
100
AcDbLine
 10
911.90220189
 20
833.6381640699999
 30
0.0
 11
911.92541759
 21
833.7522001799996
 31
0.0
  0
LINE
  5
994
330
6B
100
AcDbEntity
  8
0
 62
     3
100
AcDbLine
 10
911.92541759
 20
833.7522001799996
 30
0.0
 11
911.9449272000002
 21
833.8713268299997
 31
0.0
  0
LINE
  5
997
330
6B
100
AcDbEntity
  8
0
  6
Continuous
100
AcDbLine
 10
942.4331107280648
 20
649.326200130278
 30
0.0
 11
942.4331107280648
 21
626.1109904795696
 31
0.0
  0
LINE
  5
998
330
6B
100
AcDbEntity
  8
0
  6
Continuous
100
AcDbLine
 10
961.9200752719352
 20
650.9970578697217
 30
0.0
 11
961.9200752719352
 21
626.1109904795696
 31
0.0
  0
LINE
  5
999
330
6B
100
AcDbEntity
  8
0
  6
Continuous
100
AcDbLine
 10
944.9331107280647
 20
627.3609904795696
 30
0.0
 11
959.4200752719352
 21
627.3609904795696
 31
0.0
  0
LINE
  5
99D
330
6B
100
AcDbEntity
  8
0
100
AcDbLine
 10
951.924941
 20
643.751342
 30
0.0
 11
900.8638900000001
 21
643.751342
 31
0.0
  0
LINE
  5
99E
330
6B
100
AcDbEntity
  8
0
100
AcDbLine
 10
951.924941
 20
762.751342
 30
0.0
 11
900.8638900000001
 21
762.751342
 31
0.0
  0
LINE
  5
99F
330
6B
100
AcDbEntity
  8
0
100
AcDbLine
 10
902.11389
 20
646.251342
 30
0.0
 11
902.11389
 21
760.251342
 31
0.0
  0
LINE
  5
9A3
330
6B
100
AcDbEntity
  8
0
100
AcDbLine
 10
912.1749409999999
 20
730.0758689999999
 30
0.0
 11
912.1749409999999
 21
776.7441589999998
 31
0.0
  0
LINE
  5
9A4
330
6B
100
AcDbEntity
  8
0
100
AcDbLine
 10
992.174941
 20
730.0758689999999
 30
0.0
 11
992.174941
 21
776.7441589999998
 31
0.0
  0
LINE
  5
9A5
330
6B
100
AcDbEntity
  8
0
100
AcDbLine
 10
914.6749409999999
 20
775.4941589999997
 30
0.0
 11
989.6749409999999
 21
775.4941589999997
 31
0.0
  0
TEXT
  5
9A9
330
6B
100
AcDbEntity
  8
0
  6
Continuous
 62
     4
100
AcDbText
 10
948.1765929999999
 20
627.9859904795696
 30
0.0
 40
3.0
  1
E39
100
AcDbText
  0
LINE
  5
9AA
330
6B
100
AcDbEntity
  8
0
  6
ByBlock
 62
     0
370
    -2
100
AcDbLine
 10
959.4200752719352
 20
628.0308629795696
 30
0.0
 11
961.9200752719352
 21
627.3609904795696
 31
0.0
  0
LINE
  5
9AB
330
6B
100
AcDbEntity
  8
0
  6
ByBlock
 62
     0
370
    -2
100
AcDbLine
 10
961.9200752719352
 20
627.3609904795696
 30
0.0
 11
959.4200752719352
 21
626.6911179795696
 31
0.0
  0
LINE
  5
9AC
330
6B
100
AcDbEntity
  8
0
  6
ByBlock
 62
     0
370
    -2
100
AcDbLine
 10
961.9200752719352
 20
627.3609904795696
 30
0.0
 11
959.4200752719352
 21
627.3609904795696
 31
0.0
  0
LINE
  5
9AD
330
6B
100
AcDbEntity
  8
0
  6
ByBlock
 62
     0
370
    -2
100
AcDbLine
 10
944.9331107280647
 20
626.6911179795696
 30
0.0
 11
942.4331107280648
 21
627.3609904795696
 31
0.0
  0
LINE
  5
9AE
330
6B
100
AcDbEntity
  8
0
  6
ByBlock
 62
     0
370
    -2
100
AcDbLine
 10
942.4331107280648
 20
627.3609904795696
 30
0.0
 11
944.9331107280647
 21
628.0308629795696
 31
0.0
  0
LINE
  5
9AF
330
6B
100
AcDbEntity
  8
0
  6
ByBlock
 62
     0
370
    -2
100
AcDbLine
 10
942.4331107280648
 20
627.3609904795696
 30
0.0
 11
944.9331107280647
 21
627.3609904795696
 31
0.0
  0
TEXT
  5
9B0
330
6B
100
AcDbEntity
  8
0
  6
Continuous
 62
     4
100
AcDbText
 10
901.48889
 20
699.2513420000002
 30
0.0
 40
3.0
  1
238
 50
90.0
100
AcDbText
  0
LINE
  5
9B1
330
6B
100
AcDbEntity
  8
0
  6
ByBlock
 62
     0
370
    -2
100
AcDbLine
 10
901.4440175
 20
760.251342
 30
0.0
 11
902.11389
 21
762.751342
 31
0.0
  0
LINE
  5
9B2
330
6B
100
AcDbEntity
  8
0
  6
ByBlock
 62
     0
370
    -2
100
AcDbLine
 10
902.11389
 20
762.751342
 30
0.0
 11
902.7837625000001
 21
760.251342
 31
0.0
  0
LINE
  5
9B3
330
6B
100
AcDbEntity
  8
0
  6
ByBlock
 62
     0
370
    -2
100
AcDbLine
 10
902.11389
 20
762.751342
 30
0.0
 11
902.11389
 21
760.251342
 31
0.0
  0
LINE
  5
9B4
330
6B
100
AcDbEntity
  8
0
  6
ByBlock
 62
     0
370
    -2
100
AcDbLine
 10
902.7837625000001
 20
646.251342
 30
0.0
 11
902.11389
 21
643.751342
 31
0.0
  0
LINE
  5
9B5
330
6B
100
AcDbEntity
  8
0
  6
ByBlock
 62
     0
370
    -2
100
AcDbLine
 10
902.11389
 20
643.751342
 30
0.0
 11
901.4440175
 21
646.251342
 31
0.0
  0
LINE
  5
9B6
330
6B
100
AcDbEntity
  8
0
  6
ByBlock
 62
     0
370
    -2
100
AcDbLine
 10
902.11389
 20
643.751342
 30
0.0
 11
902.11389
 21
646.251342
 31
0.0
  0
TEXT
  5
9B7
330
6B
100
AcDbEntity
  8
0
  6
Continuous
 62
     4
100
AcDbText
 10
948.9249409999999
 20
776.1191589999997
 30
0.0
 40
3.0
  1
160
100
AcDbText
  0
LINE
  5
9B8
330
6B
100
AcDbEntity
  8
0
  6
ByBlock
 62
     0
370
    -2
100
AcDbLine
 10
989.6749409999999
 20
776.1640314999997
 30
0.0
 11
992.174941
 21
775.4941589999997
 31
0.0
  0
LINE
  5
9B9
330
6B
100
AcDbEntity
  8
0
  6
ByBlock
 62
     0
370
    -2
100
AcDbLine
 10
992.174941
 20
775.4941589999997
 30
0.0
 11
989.6749409999999
 21
774.8242864999997
 31
0.0
  0
LINE
  5
9BA
330
6B
100
AcDbEntity
  8
0
  6
ByBlock
 62
     0
370
    -2
100
AcDbLine
 10
992.174941
 20
775.4941589999997
 30
0.0
 11
989.6749409999999
 21
775.4941589999997
 31
0.0
  0
LINE
  5
9BB
330
6B
100
AcDbEntity
  8
0
  6
ByBlock
 62
     0
370
    -2
100
AcDbLine
 10
914.6749409999999
 20
774.8242864999997
 30
0.0
 11
912.1749409999999
 21
775.4941589999997
 31
0.0
  0
LINE
  5
9BC
330
6B
100
AcDbEntity
  8
0
  6
ByBlock
 62
     0
370
    -2
100
AcDbLine
 10
912.1749409999999
 20
775.4941589999997
 30
0.0
 11
914.6749409999999
 21
776.1640314999997
 31
0.0
  0
LINE
  5
9BD
330
6B
100
AcDbEntity
  8
0
  6
ByBlock
 62
     0
370
    -2
100
AcDbLine
 10
912.1749409999999
 20
775.4941589999997
 30
0.0
 11
914.6749409999999
 21
775.4941589999997
 31
0.0
  0
ENDSEC
  0
SECTION
  2
OBJECTS
  0
DICTIONARY
  5
C
330
0
100
AcDbDictionary
281
     1
  3
ACAD_2007HEADERVARS_RT
350
9C1
  3
ACAD_COLOR
350
62
  3
ACAD_GROUP
350
D
  3
ACAD_LAYOUT
350
61
  3
ACAD_MATERIAL
350
10
  3
ACAD_MLEADERSTYLE
350
65
  3
ACAD_MLINESTYLE
350
5E
  3
ACAD_PLOTSETTINGS
350
60
  3
ACAD_PLOTSTYLENAME
350
E
  3
ACAD_SCALELIST
350
42
  3
ACAD_TABLESTYLE
350
63
  3
ACAD_VISUALSTYLE
350
29
  3
ACDB_RECOMPOSE_DATA
350
9BF
  3
AcDbVariableDictionary
350
442
  3
AEC_PROPERTY_SET_DEFS
350
8B8
  3
DWGPROPS
350
9C0
  0
DICTIONARY
  5
2E4
330
2
100
AcDbDictionary
280
     1
281
     1
  3
ACAD_LAYERSTATES
360
2E5
  0
DICTIONARY
  5
43E
330
54
100
AcDbDictionary
280
     1
281
     1
  3
ADSK_XREC_LAYER_RECONCILED
360
43F
  0
DICTIONARY
  5
995
330
6B
100
AcDbDictionary
280
     1
281
     1
  3
ACAD_SORTENTS
360
996
  0
DICTIONARY
  5
9C1
102
{ACAD_REACTORS
330
C
102
}
330
C
100
AcDbDictionary
281
     1
  3
DIMARCSYM
350
9C3
  3
DIMFXL
350
9C2
  3
DIMJOGANG
350
9C4
  0
DICTIONARY
  5
62
102
{ACAD_REACTORS
330
C
102
}
330
C
100
AcDbDictionary
281
     1
  0
DICTIONARY
  5
D
102
{ACAD_REACTORS
330
C
102
}
330
C
100
AcDbDictionary
281
     1
  0
DICTIONARY
  5
61
102
{ACAD_REACTORS
330
C
102
}
330
C
100
AcDbDictionary
281
     1
  3
Model
350
6E
  3
レイアウト1
350
6A
  0
DICTIONARY
  5
10
102
{ACAD_REACTORS
330
C
102
}
330
C
100
AcDbDictionary
281
     1
  3
ByBlock
350
19
  3
ByLayer
350
11
  3
Global
350
21
  0
DICTIONARY
  5
65
102
{ACAD_REACTORS
330
C
102
}
330
C
100
AcDbDictionary
281
     1
  3
Standard
350
66
  0
DICTIONARY
  5
5E
102
{ACAD_REACTORS
330
C
102
}
330
C
100
AcDbDictionary
281
     1
  3
Standard
350
5F
  0
DICTIONARY
  5
60
102
{ACAD_REACTORS
330
C
102
}
330
C
100
AcDbDictionary
281
     1
  0
ACDBDICTIONARYWDFLT
  5
E
102
{ACAD_REACTORS
330
C
102
}
330
C
100
AcDbDictionary
281
     1
  3
Normal
350
F
100
AcDbDictionaryWithDefault
340
F
  0
DICTIONARY
  5
42
102
{ACAD_REACTORS
330
C
102
}
330
C
100
AcDbDictionary
281
     1
  3
A0
350
43
  3
A1
350
44
  3
A2
350
45
  3
A3
350
46
  3
A4
350
47
  3
A5
350
48
  3
A6
350
49
  3
A7
350
4A
  3
A8
350
4B
  3
A9
350
4C
  3
B0
350
4D
  3
B1
350
4E
  3
B2
350
4F
  3
B3
350
50
  3
B4
350
51
  3
B5
350
52
  3
B6
350
53
  0
DICTIONARY
  5
63
102
{ACAD_REACTORS
330
C
102
}
330
C
100
AcDbDictionary
281
     1
  3
Standard
350
64
  0
DICTIONARY
  5
29
102
{ACAD_REACTORS
330
C
102
}
330
C
100
AcDbDictionary
281
     1
  3
2dWireframe
350
2F
  3
3dWireframe
350
2E3
  3
Basic
350
2E
  3
Brighten
350
35
  3
ColorChange
350
39
  3
Conceptual
350
32
  3
Dim
350
34
  3
EdgeColorOff
350
41
  3
Facepattern
350
38
  3
Flat
350
2A
  3
FlatWithEdges
350
2B
  3
Gouraud
350
2C
  3
GouraudWithEdges
350
2D
  3
Hidden
350
31
  3
JitterOff
350
3F
  3
Linepattern
350
37
  3
OverhangOff
350
40
  3
Realistic
350
33
  3
Shaded
350
3E
  3
Shaded with edges
350
3D
  3
Shades of Gray
350
3A
  3
Sketchy
350
3B
  3
Thicken
350
36
  3
Wireframe
350
30
  3
X-Ray
350
3C
  0
XRECORD
  5
9BF
102
{ACAD_REACTORS
330
C
102
}
330
C
100
AcDbXrecord
280
     1
 90
        1
330
64
  0
DICTIONARY
  5
442
102
{ACAD_REACTORS
330
C
102
}
330
C
100
AcDbDictionary
281
     1
  3
CANNOSCALE
350
445
  3
CMLEADERSTYLE
350
444
  3
CTABLESTYLE
350
443
  3
DIMASSOC
350
448
  3
INDEXCTL
350
447
  3
SORTENTS
350
446
  3
XCLIPFRAME
350
8D9
  0
DICTIONARY
  5
8B8
102
{ACAD_REACTORS
330
C
102
}
330
C
100
AcDbDictionary
281
     1
  0
XRECORD
  5
9C0
102
{ACAD_REACTORS
330
C
102
}
330
C
100
AcDbXrecord
280
     1
  1
DWGPROPS COOKIE
  2

  3

  4

  6

  7

  8
imamura
  9

300
=
301
=
302
=
303
=
304
=
305
=
306
=
307
=
308
=
309
=
 40
0.0275449652777778
 41
2456071.812274363
 42
2457351.760913183
  1

 90
        0
  0
DICTIONARY
  5
2E5
102
{ACAD_REACTORS
330
2E4
102
}
330
2E4
100
AcDbDictionary
281
     1
  0
XRECORD
  5
43F
102
{ACAD_REACTORS
330
43E
102
}
330
43E
100
AcDbXrecord
280
     1
290
     1
  0
SORTENTSTABLE
  5
996
102
{ACAD_REACTORS
330
995
102
}
330
995
100
AcDbSortentsTable
330
6B
331
95A
  5
6B1
331
97B
  5
8CE
331
65A
  5
681
331
96B
  5
8BE
331
8C4
  5
9AA
331
66B
  5
693
331
98C
  5
95D
331
8D5
  5
9BB
331
67C
  5
6A4
331
9AE
  5
64D
331
1F5
  5
237
331
99D
  5
BE
331
206
  5
638
331
B6
  5
D0
331
228
  5
640
331
D8
  5
1C6
331
C7
  5
E1
331
68B
  5
96B
331
63A
  5
661
331
6B7
  5
999
331
6A6
  5
986
331
64B
  5
672
331
1D3
  5
1FD
331
1C2
  5
1F0
331
6B8
  5
99A
331
95B
  5
6B2
331
97C
  5
8CF
331
65B
  5
682
331
96C
  5
8BF
331
8C5
  5
9AB
331
66C
  5
694
331
98D
  5
95E
331
8D6
  5
9BC
331
67D
  5
6A5
331
9AF
  5
64E
331
1F6
  5
238
331
99E
  5
BF
331
207
  5
639
331
B7
  5
D1
331
229
  5
641
331
D9
  5
1CB
331
C8
  5
E2
331
68C
  5
96C
331
63B
  5
662
331
6A7
  5
987
331
64C
  5
673
331
1D4
  5
1FE
331
1C3
  5
1F1
331
6B9
  5
99B
331
6A8
  5
988
331
95C
  5
6B3
331
97D
  5
8D0
331
65C
  5
683
331
96D
  5
8C0
331
8C6
  5
9AC
331
66D
  5
695
331
98E
  5
95F
331
8D7
  5
9BD
331
67E
  5
6A6
331
1F7
  5
23A
331
99F
  5
C0
331
208
  5
63A
331
B8
  5
D2
331
9B0
  5
C7
331
22A
  5
642
331
DA
  5
1CC
331
C9
  5
E3
331
68D
  5
96D
331
63C
  5
663
331
64D
  5
674
331
1D5
  5
1FF
331
1C4
  5
1F2
331
6BA
  5
99C
331
6A9
  5
989
331
698
  5
978
331
95D
  5
6B4
331
97E
  5
8D1
331
65D
  5
684
331
96E
  5
8C1
331
8C7
  5
9AD
331
66E
  5
696
331
98F
  5
960
331
67F
  5
6A7
331
1F8
  5
23B
331
62C
  5
653
331
DB
  5
1CD
331
CA
  5
E4
331
B9
  5
D3
331
9B1
  5
C4
331
68E
  5
96E
331
63D
  5
664
331
1C5
  5
1F3
331
64E
  5
675
331
1E7
  5
205
331
1D6
  5
200
331
6BB
  5
99D
331
6AA
  5
98A
331
699
  5
979
331
1E8
  5
206
331
95E
  5
6B5
331
97F
  5
8D2
331
65E
  5
686
331
96F
  5
8C2
331
8C8
  5
9AE
331
66F
  5
697
331
990
  5
961
331
1F9
  5
23D
331
62D
  5
654
331
DC
  5
1CE
331
CB
  5
1B7
331
BA
  5
D4
331
9B2
  5
C5
331
68F
  5
96F
331
63E
  5
665
331
1C6
  5
1F4
331
64F
  5
676
331
1D7
  5
201
331
690
  5
970
331
650
  5
677
331
6BC
  5
99E
331
6AB
  5
98B
331
69A
  5
97A
331
1E9
  5
207
331
95F
  5
6B6
331
980
  5
8D3
331
65F
  5
687
331
8C9
  5
9AF
331
670
  5
698
331
991
  5
962
331
1FA
  5
62C
331
63F
  5
666
331
62E
  5
655
331
DD
  5
1CF
331
CC
  5
1B9
331
BB
  5
D5
331
9B3
  5
C6
331
680
  5
6A8
331
238
  5
645
331
691
  5
971
331
640
  5
667
331
651
  5
678
331
1D9
  5
202
331
6BD
  5
99F
331
6AC
  5
98C
331
69B
  5
97B
331
1EA
  5
208
331
970
  5
8C3
331
960
  5
6B7
331
981
  5
8D4
331
660
  5
688
331
8CA
  5
9B0
331
671
  5
699
331
992
  5
963
331
1FB
  5
62D
331
62F
  5
656
331
1B7
  5
1D7
331
DE
  5
1D0
331
CD
  5
1BB
331
BC
  5
D6
331
9B4
  5
C1
331
9A3
  5
AE
331
681
  5
6A9
331
630
  5
657
331
692
  5
972
331
641
  5
668
331
652
  5
679
331
6BE
  5
9A0
331
6AD
  5
98D
331
69C
  5
97C
331
1EB
  5
212
331
971
  5
8C4
331
961
  5
6B8
331
982
  5
8D5
331
661
  5
689
331
8CB
  5
9B1
331
672
  5
69A
331
993
  5
964
331
1FC
  5
62E
331
DF
  5
1D1
331
CE
  5
1BC
331
BD
  5
D7
331
9B5
  5
C2
331
9A4
  5
AF
331
631
  5
658
331
1B9
  5
1D9
331
E0
  5
1D2
331
682
  5
6AA
331
23A
  5
646
331
693
  5
973
331
642
  5
669
331
6BF
  5
9A1
331
6AE
  5
98E
331
69D
  5
97D
331
653
  5
67A
331
1DB
  5
203
331
972
  5
8C5
331
962
  5
6B9
331
983
  5
8D6
331
662
  5
68A
331
8CC
  5
9B2
331
994
  5
965
331
673
  5
69B
331
1FD
  5
62F
331
CF
  5
1BD
331
BE
  5
D8
331
9B6
  5
C3
331
9A5
  5
B0
331
632
  5
659
331
E1
  5
1D3
331
D0
  5
1BE
331
683
  5
6AB
331
23B
  5
647
331
694
  5
974
331
643
  5
66A
331
1CB
  5
1F5
331
6AF
  5
98F
331
69E
  5
97E
331
654
  5
67B
331
973
  5
8C6
331
963
  5
6BA
331
984
  5
8D7
331
663
  5
68B
331
8CD
  5
9B3
331
674
  5
69C
331
1FE
  5
630
331
BF
  5
D9
331
9B7
  5
BD
331
684
  5
6AC
331
633
  5
65A
331
1BB
  5
1DB
331
E2
  5
1D4
331
D1
  5
1BF
331
C0
  5
DA
331
9B8
  5
BA
331
695
  5
975
331
644
  5
66B
331
1CC
  5
1F6
331
6B0
  5
990
331
69F
  5
97F
331
655
  5
67C
331
974
  5
8C7
331
964
  5
6BB
331
8BD
  5
9A3
331
664
  5
68C
331
985
  5
956
331
8CE
  5
9B4
331
1FF
  5
631
331
675
  5
69D
331
6C0
  5
9A2
331
200
  5
632
331
B0
  5
CA
331
634
  5
65B
331
1BC
  5
1E1
331
E3
  5
1D5
331
D2
  5
1C0
331
C1
  5
DB
331
9B9
  5
BB
331
23D
  5
648
331
696
  5
976
331
645
  5
66C
331
1CD
  5
1F7
331
6B1
  5
991
331
6A0
  5
980
331
656
  5
67D
331
975
  5
8C8
331
965
  5
6BC
331
8BE
  5
9A4
331
986
  5
957
331
8CF
  5
9B5
331
997
  5
649
331
676
  5
69E
331
665
  5
68D
331
8D0
  5
9B6
331
998
  5
64A
331
9A9
  5
652
331
1F0
  5
227
331
201
  5
633
331
B1
  5
CB
331
212
  5
63E
331
C2
  5
DC
331
9BA
  5
BC
331
686
  5
966
331
635
  5
65C
331
1BD
  5
1E7
331
E4
  5
1D6
331
D3
  5
1C1
331
697
  5
977
331
646
  5
66D
331
1CE
  5
1F8
331
6B2
  5
992
331
6A1
  5
981
331
657
  5
67E
331
976
  5
8C9
331
966
  5
6BD
331
8BF
  5
9A5
331
666
  5
68E
331
987
  5
958
331
677
  5
69F
331
8C0
  5
9A6
331
988
  5
959
331
8D1
  5
9B7
331
678
  5
6A0
331
999
  5
64B
331
9AA
  5
64F
331
1F1
  5
228
331
202
  5
634
331
B2
  5
CC
331
D4
  5
1C2
331
C3
  5
DD
331
9BB
  5
B4
331
687
  5
967
331
636
  5
65D
331
1BE
  5
1E8
331
AE
  5
C8
331
6B3
  5
993
331
6A2
  5
982
331
647
  5
66E
331
1CF
  5
1F9
331
977
  5
8CA
331
956
  5
6AD
331
967
  5
6BE
331
667
  5
68F
331
978
  5
8CB
331
968
  5
6BF
331
8C1
  5
9A7
331
668
  5
690
331
989
  5
95A
331
8D2
  5
9B8
331
679
  5
6A1
331
9AB
  5
650
331
1F2
  5
229
331
203
  5
635
331
B3
  5
CD
331
236
  5
643
331
D5
  5
1C3
331
C4
  5
DE
331
9BC
  5
B5
331
688
  5
968
331
637
  5
65E
331
1BF
  5
1E9
331
AF
  5
C9
331
648
  5
66F
331
1D0
  5
1FA
331
6B4
  5
994
331
6A3
  5
983
331
1E1
  5
204
331
957
  5
6AE
331
958
  5
6AF
331
979
  5
8CC
331
658
  5
67F
331
969
  5
6C0
331
8C2
  5
9A8
331
669
  5
691
331
98A
  5
95B
331
8D3
  5
9B9
331
67A
  5
6A2
331
9AC
  5
651
331
1F3
  5
22A
331
204
  5
636
331
B4
  5
CE
331
237
  5
644
331
D6
  5
1C4
331
C5
  5
DF
331
9BD
  5
B6
331
689
  5
969
331
638
  5
65F
331
1C0
  5
1EA
331
6B5
  5
997
331
6A4
  5
984
331
649
  5
670
331
1D1
  5
1FB
331
959
  5
6B0
331
97A
  5
8CD
331
659
  5
680
331
96A
  5
8BD
331
8C3
  5
9A9
331
66A
  5
692
331
98B
  5
95C
331
8D4
  5
9BA
331
67B
  5
6A3
331
9AD
  5
64C
331
1F4
  5
236
331
205
  5
637
331
B5
  5
CF
331
227
  5
63F
331
D7
  5
1C5
331
C6
  5
E0
331
68A
  5
96A
331
639
  5
660
331
1C1
  5
1EB
331
6B6
  5
998
331
6A5
  5
985
331
64A
  5
671
331
1D2
  5
1FC
  0
XRECORD
  5
9C3
102
{ACAD_REACTORS
330
9C1
102
}
330
9C1
100
AcDbXrecord
280
     1
 70
     2
  0
XRECORD
  5
9C2
102
{ACAD_REACTORS
330
9C1
102
}
330
9C1
100
AcDbXrecord
280
     1
 40
1.25
  0
XRECORD
  5
9C4
102
{ACAD_REACTORS
330
9C1
102
}
330
9C1
100
AcDbXrecord
280
     1
 40
1.570796326794896
  0
LAYOUT
  5
6E
102
{ACAD_XDICTIONARY
360
9F8
102
}
102
{ACAD_REACTORS
330
61
102
}
330
61
100
AcDbPlotSettings
  1

  2
FX DP 205
  4

  6

 40
0.0
 41
0.0
 42
0.0
 43
0.0
 44
0.0
 45
0.0
 46
0.0
 47
0.0
 48
0.0
 49
0.0
140
0.0
141
0.0
142
1.0
143
1.0
 70
  1712
 72
     0
 73
     0
 74
     0
  7

 75
     0
147
1.0
148
0.0
149
0.0
100
AcDbLayout
  1
Model
 70
     1
 71
     0
 10
0.0
 20
0.0
 11
12.0
 21
9.0
 12
0.0
 22
0.0
 32
0.0
 14
0.0
 24
0.0
 34
0.0
 15
0.0
 25
0.0
 35
0.0
146
0.0
 13
0.0
 23
0.0
 33
0.0
 16
1.0
 26
0.0
 36
0.0
 17
0.0
 27
1.0
 37
0.0
 76
     0
330
6B
331
8B
  0
LAYOUT
  5
6A
102
{ACAD_XDICTIONARY
360
9F6
102
}
102
{ACAD_REACTORS
330
61
102
}
330
61
100
AcDbPlotSettings
  1

  2
FX DP 205
  4

  6

 40
0.0
 41
0.0
 42
0.0
 43
0.0
 44
0.0
 45
0.0
 46
0.0
 47
0.0
 48
0.0
 49
0.0
140
0.0
141
0.0
142
1.0
143
1.0
 70
   688
 72
     0
 73
     0
 74
     5
  7

 75
    16
147
1.0
148
0.0
149
0.0
100
AcDbLayout
  1
レイアウト1
 70
     1
 71
     1
 10
0.0
 20
0.0
 11
12.0
 21
9.0
 12
0.0
 22
0.0
 32
0.0
 14
1.000000000000000E+20
 24
1.000000000000000E+20
 34
1.000000000000000E+20
 15
-1.000000000000000E+20
 25
-1.000000000000000E+20
 35
-1.000000000000000E+20
146
0.0
 13
0.0
 23
0.0
 33
0.0
 16
1.0
 26
0.0
 36
0.0
 17
0.0
 27
1.0
 37
0.0
 76
     0
330
67
  0
MATERIAL
  5
19
102
{ACAD_XDICTIONARY
360
1A
102
}
102
{ACAD_REACTORS
330
10
102
}
330
10
100
AcDbMaterial
  1
ByBlock
 72
     0
 43
0.0208333333333333
 43
0.0
 43
0.0
 43
0.0
 43
0.0
 43
0.0208333333333333
 43
0.0
 43
0.0
 43
0.0
 43
0.0
 43
1.0
 43
0.0
 43
0.0
 43
0.0
 43
0.0
 43
1.0
 77
     0
 47
0.0208333333333333
 47
0.0
 47
0.0
 47
0.0
 47
0.0
 47
0.0208333333333333
 47
0.0
 47
0.0
 47
0.0
 47
0.0
 47
1.0
 47
0.0
 47
0.0
 47
0.0
 47
0.0
 47
1.0
171
     0
 49
0.0208333333333333
 49
0.0
 49
0.0
 49
0.0
 49
0.0
 49
0.0208333333333333
 49
0.0
 49
0.0
 49
0.0
 49
0.0
 49
1.0
 49
0.0
 49
0.0
 49
0.0
 49
0.0
 49
1.0
175
     0
142
0.0208333333333333
142
0.0
142
0.0
142
0.0
142
0.0
142
0.0208333333333333
142
0.0
142
0.0
142
0.0
142
0.0
142
1.0
142
0.0
142
0.0
142
0.0
142
0.0
142
1.0
179
     0
144
0.0208333333333333
144
0.0
144
0.0
144
0.0
144
0.0
144
0.0208333333333333
144
0.0
144
0.0
144
0.0
144
0.0
144
1.0
144
0.0
144
0.0
144
0.0
144
0.0
144
1.0
147
0.0208333333333333
147
0.0
147
0.0
147
0.0
147
0.0
147
0.0208333333333333
147
0.0
147
0.0
147
0.0
147
0.0
147
1.0
147
0.0
147
0.0
147
0.0
147
0.0
147
1.0
  0
MATERIAL
  5
11
102
{ACAD_XDICTIONARY
360
12
102
}
102
{ACAD_REACTORS
330
10
102
}
330
10
100
AcDbMaterial
  1
ByLayer
 72
     0
 43
0.0208333333333333
 43
0.0
 43
0.0
 43
0.0
 43
0.0
 43
0.0208333333333333
 43
0.0
 43
0.0
 43
0.0
 43
0.0
 43
1.0
 43
0.0
 43
0.0
 43
0.0
 43
0.0
 43
1.0
 77
     0
 47
0.0208333333333333
 47
0.0
 47
0.0
 47
0.0
 47
0.0
 47
0.0208333333333333
 47
0.0
 47
0.0
 47
0.0
 47
0.0
 47
1.0
 47
0.0
 47
0.0
 47
0.0
 47
0.0
 47
1.0
171
     0
 49
0.0208333333333333
 49
0.0
 49
0.0
 49
0.0
 49
0.0
 49
0.0208333333333333
 49
0.0
 49
0.0
 49
0.0
 49
0.0
 49
1.0
 49
0.0
 49
0.0
 49
0.0
 49
0.0
 49
1.0
175
     0
142
0.0208333333333333
142
0.0
142
0.0
142
0.0
142
0.0
142
0.0208333333333333
142
0.0
142
0.0
142
0.0
142
0.0
142
1.0
142
0.0
142
0.0
142
0.0
142
0.0
142
1.0
179
     0
144
0.0208333333333333
144
0.0
144
0.0
144
0.0
144
0.0
144
0.0208333333333333
144
0.0
144
0.0
144
0.0
144
0.0
144
1.0
144
0.0
144
0.0
144
0.0
144
0.0
144
1.0
147
0.0208333333333333
147
0.0
147
0.0
147
0.0
147
0.0
147
0.0208333333333333
147
0.0
147
0.0
147
0.0
147
0.0
147
1.0
147
0.0
147
0.0
147
0.0
147
0.0
147
1.0
  0
MATERIAL
  5
21
102
{ACAD_XDICTIONARY
360
22
102
}
102
{ACAD_REACTORS
330
10
102
}
330
10
100
AcDbMaterial
  1
Global
 72
     0
 43
0.0208333333333333
 43
0.0
 43
0.0
 43
0.0
 43
0.0
 43
0.0208333333333333
 43
0.0
 43
0.0
 43
0.0
 43
0.0
 43
1.0
 43
0.0
 43
0.0
 43
0.0
 43
0.0
 43
1.0
 77
     0
 47
0.0208333333333333
 47
0.0
 47
0.0
 47
0.0
 47
0.0
 47
0.0208333333333333
 47
0.0
 47
0.0
 47
0.0
 47
0.0
 47
1.0
 47
0.0
 47
0.0
 47
0.0
 47
0.0
 47
1.0
171
     0
 49
0.0208333333333333
 49
0.0
 49
0.0
 49
0.0
 49
0.0
 49
0.0208333333333333
 49
0.0
 49
0.0
 49
0.0
 49
0.0
 49
1.0
 49
0.0
 49
0.0
 49
0.0
 49
0.0
 49
1.0
175
     0
142
0.0208333333333333
142
0.0
142
0.0
142
0.0
142
0.0
142
0.0208333333333333
142
0.0
142
0.0
142
0.0
142
0.0
142
1.0
142
0.0
142
0.0
142
0.0
142
0.0
142
1.0
179
     0
144
0.0208333333333333
144
0.0
144
0.0
144
0.0
144
0.0
144
0.0208333333333333
144
0.0
144
0.0
144
0.0
144
0.0
144
1.0
144
0.0
144
0.0
144
0.0
144
0.0
144
1.0
147
0.0208333333333333
147
0.0
147
0.0
147
0.0
147
0.0
147
0.0208333333333333
147
0.0
147
0.0
147
0.0
147
0.0
147
1.0
147
0.0
147
0.0
147
0.0
147
0.0
147
1.0
  0
MLEADERSTYLE
  5
66
102
{ACAD_REACTORS
330
65
102
}
330
65
100
AcDbMLeaderStyle
170
     2
171
     1
172
     0
 90
        2
 40
0.0
 41
0.0
173
     1
 91
-1056964608
340
5A
 92
       -2
290
     1
 42
0.09
291
     1
 43
0.36
  3
Standard
 44
0.18
300

342
55
174
     1
178
     6
175
     1
176
     0
 93
-1056964608
 45
0.18
292
     0
297
     0
 46
0.18
 94
-1056964608
 47
1.0
 49
1.0
140
1.0
293
     1
141
0.0
294
     1
177
     0
142
1.0
295
     0
296
     0
143
0.125
1001
ACAD_MLEADERVER
1070
     2
  0
MLINESTYLE
  5
5F
102
{ACAD_REACTORS
330
5E
102
}
330
5E
100
AcDbMlineStyle
  2
STANDARD
 70
     0
  3

 62
   256
 51
90.0
 52
90.0
 71
     2
 49
0.5
 62
   256
  6
BYLAYER
 49
-0.5
 62
   256
  6
BYLAYER
  0
ACDBPLACEHOLDER
  5
F
102
{ACAD_REACTORS
330
E
102
}
330
E
  0
SCALE
  5
43
102
{ACAD_REACTORS
330
42
102
}
330
42
100
AcDbScale
 70
     0
300
1:1
140
1.0
141
1.0
290
     1
  0
SCALE
  5
44
102
{ACAD_REACTORS
330
42
102
}
330
42
100
AcDbScale
 70
     0
300
1/128" = 1'-0"
140
0.0078125
141
12.0
290
     0
  0
SCALE
  5
45
102
{ACAD_REACTORS
330
42
102
}
330
42
100
AcDbScale
 70
     0
300
1/64" = 1'-0"
140
0.015625
141
12.0
290
     0
  0
SCALE
  5
46
102
{ACAD_REACTORS
330
42
102
}
330
42
100
AcDbScale
 70
     0
300
1/32" = 1'-0"
140
0.03125
141
12.0
290
     0
  0
SCALE
  5
47
102
{ACAD_REACTORS
330
42
102
}
330
42
100
AcDbScale
 70
     0
300
1/16" = 1'-0"
140
0.0625
141
12.0
290
     0
  0
SCALE
  5
48
102
{ACAD_REACTORS
330
42
102
}
330
42
100
AcDbScale
 70
     0
300
3/32" = 1'-0"
140
0.09375
141
12.0
290
     0
  0
SCALE
  5
49
102
{ACAD_REACTORS
330
42
102
}
330
42
100
AcDbScale
 70
     0
300
1/8" = 1'-0"
140
0.125
141
12.0
290
     0
  0
SCALE
  5
4A
102
{ACAD_REACTORS
330
42
102
}
330
42
100
AcDbScale
 70
     0
300
3/16" = 1'-0"
140
0.1875
141
12.0
290
     0
  0
SCALE
  5
4B
102
{ACAD_REACTORS
330
42
102
}
330
42
100
AcDbScale
 70
     0
300
1/4" = 1'-0"
140
0.25
141
12.0
290
     0
  0
SCALE
  5
4C
102
{ACAD_REACTORS
330
42
102
}
330
42
100
AcDbScale
 70
     0
300
3/8" = 1'-0"
140
0.375
141
12.0
290
     0
  0
SCALE
  5
4D
102
{ACAD_REACTORS
330
42
102
}
330
42
100
AcDbScale
 70
     0
300
1/2" = 1'-0"
140
0.5
141
12.0
290
     0
  0
SCALE
  5
4E
102
{ACAD_REACTORS
330
42
102
}
330
42
100
AcDbScale
 70
     0
300
3/4" = 1'-0"
140
0.75
141
12.0
290
     0
  0
SCALE
  5
4F
102
{ACAD_REACTORS
330
42
102
}
330
42
100
AcDbScale
 70
     0
300
1" = 1'-0"
140
1.0
141
12.0
290
     0
  0
SCALE
  5
50
102
{ACAD_REACTORS
330
42
102
}
330
42
100
AcDbScale
 70
     0
300
1-1/2" = 1'-0"
140
1.5
141
12.0
290
     0
  0
SCALE
  5
51
102
{ACAD_REACTORS
330
42
102
}
330
42
100
AcDbScale
 70
     0
300
3" = 1'-0"
140
3.0
141
12.0
290
     0
  0
SCALE
  5
52
102
{ACAD_REACTORS
330
42
102
}
330
42
100
AcDbScale
 70
     0
300
6" = 1'-0"
140
6.0
141
12.0
290
     0
  0
SCALE
  5
53
102
{ACAD_REACTORS
330
42
102
}
330
42
100
AcDbScale
 70
     0
300
1'-0" = 1'-0"
140
12.0
141
12.0
290
     0
  0
TABLESTYLE
  5
64
102
{ACAD_XDICTIONARY
360
44A
102
}
102
{ACAD_REACTORS
330
63
102
}
330
63
100
AcDbTableStyle
  3
Standard
 70
     0
 71
     0
 40
0.06
 41
0.06
280
     0
281
     0
  7
STANDARD
140
0.18
170
     2
 62
     0
 63
     7
283
     0
274
    -2
284
     1
 64
     0
275
    -2
285
     1
 65
     0
276
    -2
286
     1
 66
     0
277
    -2
287
     1
 67
     0
278
    -2
288
     1
 68
     0
279
    -2
289
     1
 69
     0
  7
STANDARD
140
0.25
170
     5
 62
     0
 63
     7
283
     0
274
    -2
284
     1
 64
     0
275
    -2
285
     1
 65
     0
276
    -2
286
     1
 66
     0
277
    -2
287
     1
 67
     0
278
    -2
288
     1
 68
     0
279
    -2
289
     1
 69
     0
  7
STANDARD
140
0.18
170
     5
 62
     0
 63
     7
283
     0
274
    -2
284
     1
 64
     0
275
    -2
285
     1
 65
     0
276
    -2
286
     1
 66
     0
277
    -2
287
     1
 67
     0
278
    -2
288
     1
 68
     0
279
    -2
289
     1
 69
     0
  0
VISUALSTYLE
  5
2F
102
{ACAD_XDICTIONARY
360
9CF
102
}
102
{ACAD_REACTORS
330
29
102
}
330
29
100
AcDbVisualStyle
  2

 70
     4
 71
     0
 72
     2
 73
     0
 90
        0
 40
-0.6
 41
-30.0
 62
     5
 63
     7
 74
     1
 91
        4
 64
     7
 65
   257
 75
     1
175
     1
 42
1.0
 92
        0
 66
   257
 43
1.0
 76
     1
 77
     6
 78
     2
 67
     7
 79
     5
170
     0
171
     0
290
     0
174
     0
 93
        1
 44
0.0
173
     0
291
     0
 45
0.0
1001
ACAD
1000
AcDbSavedByObjectVersion
1070
     0
  0
VISUALSTYLE
  5
2E3
102
{ACAD_XDICTIONARY
360
9FA
102
}
102
{ACAD_REACTORS
330
29
102
}
330
29
100
AcDbVisualStyle
  2

 70
     5
 71
     0
 72
     2
 73
     1
 90
        0
 40
-0.6
 41
-30.0
 62
     5
 63
     7
 74
     1
 91
        4
 64
     7
 65
   257
 75
     1
175
     1
 42
1.0
 92
        0
 66
   257
 43
1.0
 76
     1
 77
     6
 78
     2
 67
     7
 79
     5
170
     0
171
     0
290
     0
174
     0
 93
        1
 44
0.0
173
     0
291
     0
 45
0.0
1001
ACAD
1000
AcDbSavedByObjectVersion
1070
     0
  0
VISUALSTYLE
  5
2E
102
{ACAD_XDICTIONARY
360
9CD
102
}
102
{ACAD_REACTORS
330
29
102
}
330
29
100
AcDbVisualStyle
  2

 70
     7
 71
     1
 72
     0
 73
     1
 90
        0
 40
-0.6
 41
-30.0
 62
     5
 63
     7
 74
     0
 91
        4
 64
     7
 65
   257
 75
     1
175
     1
 42
1.0
 92
        8
 66
     7
 43
1.0
 76
     1
 77
     6
 78
     2
 67
     7
 79
     5
170
     0
171
     0
290
     0
174
     0
 93
        1
 44
0.0
173
     0
291
     1
 45
0.0
1001
ACAD
1000
AcDbSavedByObjectVersion
1070
     0
  0
VISUALSTYLE
  5
35
102
{ACAD_XDICTIONARY
360
9DB
102
}
102
{ACAD_REACTORS
330
29
102
}
330
29
100
AcDbVisualStyle
  2

 70
    12
 71
     2
 72
     2
 73
     0
 90
        0
 40
-0.6
 41
-30.0
 62
     5
 63
     7
 74
     1
 91
        4
 64
     7
 65
   257
 75
     1
175
     1
 42
1.0
 92
        8
 66
     7
 43
1.0
 76
     1
 77
     6
 78
     2
 67
     7
 79
     5
170
     0
171
     0
290
     0
174
     0
 93
        1
 44
50.0
173
     0
291
     1
 45
0.0
1001
ACAD
1000
AcDbSavedByObjectVersion
1070
     0
  0
VISUALSTYLE
  5
39
102
{ACAD_XDICTIONARY
360
9E3
102
}
102
{ACAD_REACTORS
330
29
102
}
330
29
100
AcDbVisualStyle
  2

 70
    16
 71
     2
 72
     2
 73
     3
 90
        0
 40
-0.6
 41
-30.0
 62
     5
 63
     8
 74
     1
 91
        4
 64
     7
 65
   257
 75
     1
175
     1
 42
1.0
 92
        8
 66
     8
 43
1.0
 76
     1
 77
     6
 78
     2
 67
     7
 79
     5
170
     0
171
     0
290
     0
174
     0
 93
        1
 44
0.0
173
     0
291
     1
 45
0.0
1001
ACAD
1000
AcDbSavedByObjectVersion
1070
     0
  0
VISUALSTYLE
  5
32
102
{ACAD_XDICTIONARY
360
9D5
102
}
102
{ACAD_REACTORS
330
29
102
}
330
29
100
AcDbVisualStyle
  2

 70
     9
 71
     3
 72
     2
 73
     0
 90
        0
 40
-0.6
 41
-30.0
 62
     5
 63
     7
 74
     2
 91
        2
 64
     7
 65
   257
 75
     1
175
     1
 42
179.0
 92
        8
 66
     7
 43
1.0
 76
     1
 77
     6
 78
     2
 67
     7
 79
     3
170
     0
171
     0
290
     0
174
     0
 93
        1
 44
0.0
173
     0
291
     0
 45
0.0
1001
ACAD
1000
AcDbSavedByObjectVersion
1070
     0
  0
VISUALSTYLE
  5
34
102
{ACAD_XDICTIONARY
360
9D9
102
}
102
{ACAD_REACTORS
330
29
102
}
330
29
100
AcDbVisualStyle
  2

 70
    11
 71
     2
 72
     2
 73
     0
 90
        0
 40
-0.6
 41
-30.0
 62
     5
 63
     7
 74
     1
 91
        4
 64
     7
 65
   257
 75
     1
175
     1
 42
1.0
 92
        8
 66
     7
 43
1.0
 76
     1
 77
     6
 78
     2
 67
     7
 79
     5
170
     0
171
     0
290
     0
174
     0
 93
        1
 44
-50.0
173
     0
291
     1
 45
0.0
1001
ACAD
1000
AcDbSavedByObjectVersion
1070
     0
  0
VISUALSTYLE
  5
41
102
{ACAD_XDICTIONARY
360
9F3
102
}
102
{ACAD_REACTORS
330
29
102
}
330
29
100
AcDbVisualStyle
  2

 70
    22
 71
     2
 72
     2
 73
     0
 90
        0
 40
-0.6
 41
-30.0
 62
     5
 63
     7
 74
     1
 91
        4
 64
     7
 65
   257
 75
     1
175
     1
 42
1.0
 92
        8
 66
     7
 43
1.0
 76
     1
 77
     6
 78
     2
 67
     7
 79
     5
170
     0
171
     0
290
     0
174
     0
 93
        1
 44
0.0
173
     0
291
     1
 45
0.0
1001
ACAD
1000
AcDbSavedByObjectVersion
1070
     0
  0
VISUALSTYLE
  5
38
102
{ACAD_XDICTIONARY
360
9E1
102
}
102
{ACAD_REACTORS
330
29
102
}
330
29
100
AcDbVisualStyle
  2

 70
    15
 71
     2
 72
     2
 73
     0
 90
        0
 40
-0.6
 41
-30.0
 62
     5
 63
     7
 74
     1
 91
        4
 64
     7
 65
   257
 75
     1
175
     1
 42
1.0
 92
        8
 66
     7
 43
1.0
 76
     1
 77
     6
 78
     2
 67
     7
 79
     5
170
     0
171
     0
290
     0
174
     0
 93
        1
 44
0.0
173
     0
291
     1
 45
0.0
1001
ACAD
1000
AcDbSavedByObjectVersion
1070
     0
  0
VISUALSTYLE
  5
2A
102
{ACAD_XDICTIONARY
360
9C5
102
}
102
{ACAD_REACTORS
330
29
102
}
330
29
100
AcDbVisualStyle
  2

 70
     0
 71
     2
 72
     1
 73
     1
 90
        2
 40
-0.6
 41
30.0
 62
     5
 63
     7
 74
     0
 91
        0
 64
     7
 65
   257
 75
     1
175
     1
 42
1.0
 92
        8
 66
     7
 43
1.0
 76
     1
 77
     6
 78
     2
 67
     7
 79
     5
170
     0
171
     0
290
     0
174
     0
 93
       13
 44
0.0
173
     0
291
     1
 45
0.0
1001
ACAD
1000
AcDbSavedByObjectVersion
1070
     0
  0
VISUALSTYLE
  5
2B
102
{ACAD_XDICTIONARY
360
9C7
102
}
102
{ACAD_REACTORS
330
29
102
}
330
29
100
AcDbVisualStyle
  2

 70
     1
 71
     2
 72
     1
 73
     1
 90
        2
 40
-0.6
 41
30.0
 62
     5
 63
     7
 74
     1
 91
        0
 64
     7
 65
   257
 75
     1
175
     1
 42
1.0
 92
        0
 66
   257
 43
1.0
 76
     1
 77
     6
 78
     2
 67
     7
 79
     5
170
     0
171
     0
290
     0
174
     0
 93
       13
 44
0.0
173
     0
291
     1
 45
0.0
1001
ACAD
1000
AcDbSavedByObjectVersion
1070
     0
  0
VISUALSTYLE
  5
2C
102
{ACAD_XDICTIONARY
360
9C9
102
}
102
{ACAD_REACTORS
330
29
102
}
330
29
100
AcDbVisualStyle
  2

 70
     2
 71
     2
 72
     2
 73
     1
 90
        2
 40
-0.6
 41
30.0
 62
     5
 63
     7
 74
     0
 91
        0
 64
     7
 65
   257
 75
     1
175
     1
 42
1.0
 92
        0
 66
     7
 43
1.0
 76
     1
 77
     6
 78
     2
 67
     7
 79
     5
170
     0
171
     0
290
     0
174
     0
 93
       13
 44
0.0
173
     0
291
     1
 45
0.0
1001
ACAD
1000
AcDbSavedByObjectVersion
1070
     0
  0
VISUALSTYLE
  5
2D
102
{ACAD_XDICTIONARY
360
9CB
102
}
102
{ACAD_REACTORS
330
29
102
}
330
29
100
AcDbVisualStyle
  2

 70
     3
 71
     2
 72
     2
 73
     1
 90
        2
 40
-0.6
 41
30.0
 62
     5
 63
     7
 74
     1
 91
        0
 64
     7
 65
   257
 75
     1
175
     1
 42
1.0
 92
        0
 66
   257
 43
1.0
 76
     1
 77
     6
 78
     2
 67
     7
 79
     5
170
     0
171
     0
290
     0
174
     0
 93
       13
 44
0.0
173
     0
291
     1
 45
0.0
1001
ACAD
1000
AcDbSavedByObjectVersion
1070
     0
  0
VISUALSTYLE
  5
31
102
{ACAD_XDICTIONARY
360
9D3
102
}
102
{ACAD_REACTORS
330
29
102
}
330
29
100
AcDbVisualStyle
  2

 70
     6
 71
     1
 72
     2
 73
     2
 90
        0
 40
-0.6
 41
-30.0
 62
     5
 63
     7
 74
     2
 91
        2
 64
     7
 65
   257
 75
     2
175
     1
 42
40.0
 92
        0
 66
   257
 43
1.0
 76
     1
 77
     6
 78
     2
 67
     7
 79
     3
170
     0
171
     0
290
     0
174
     0
 93
        1
 44
0.0
173
     0
291
     0
 45
0.0
1001
ACAD
1000
AcDbSavedByObjectVersion
1070
     0
  0
VISUALSTYLE
  5
3F
102
{ACAD_XDICTIONARY
360
9EF
102
}
102
{ACAD_REACTORS
330
29
102
}
330
29
100
AcDbVisualStyle
  2

 70
    20
 71
     2
 72
     2
 73
     0
 90
        0
 40
-0.6
 41
-30.0
 62
     5
 63
     7
 74
     1
 91
        4
 64
     7
 65
   257
 75
     1
175
     1
 42
1.0
 92
       10
 66
     7
 43
1.0
 76
     1
 77
     6
 78
     2
 67
     7
 79
     5
170
     0
171
     0
290
     0
174
     0
 93
        1
 44
0.0
173
     0
291
     1
 45
0.0
1001
ACAD
1000
AcDbSavedByObjectVersion
1070
     0
  0
VISUALSTYLE
  5
37
102
{ACAD_XDICTIONARY
360
9DF
102
}
102
{ACAD_REACTORS
330
29
102
}
330
29
100
AcDbVisualStyle
  2

 70
    14
 71
     2
 72
     2
 73
     0
 90
        0
 40
-0.6
 41
-30.0
 62
     5
 63
     7
 74
     1
 91
        4
 64
     7
 65
   257
 75
     7
175
     7
 42
1.0
 92
        8
 66
     7
 43
1.0
 76
     1
 77
     6
 78
     2
 67
     7
 79
     5
170
     0
171
     0
290
     0
174
     0
 93
        1
 44
0.0
173
     0
291
     1
 45
0.0
1001
ACAD
1000
AcDbSavedByObjectVersion
1070
     0
  0
VISUALSTYLE
  5
40
102
{ACAD_XDICTIONARY
360
9F1
102
}
102
{ACAD_REACTORS
330
29
102
}
330
29
100
AcDbVisualStyle
  2

 70
    21
 71
     2
 72
     2
 73
     0
 90
        0
 40
-0.6
 41
-30.0
 62
     5
 63
     7
 74
     1
 91
        4
 64
     7
 65
   257
 75
     1
175
     1
 42
1.0
 92
        9
 66
     7
 43
1.0
 76
     1
 77
     6
 78
     2
 67
     7
 79
     5
170
     0
171
     0
290
     0
174
     0
 93
        1
 44
0.0
173
     0
291
     1
 45
0.0
1001
ACAD
1000
AcDbSavedByObjectVersion
1070
     0
  0
VISUALSTYLE
  5
33
102
{ACAD_XDICTIONARY
360
9D7
102
}
102
{ACAD_REACTORS
330
29
102
}
330
29
100
AcDbVisualStyle
  2

 70
     8
 71
     2
 72
     3
 73
     0
 90
        2
 40
-0.6
 41
30.0
 62
     5
 63
     7
 74
     0
 91
        0
 64
     7
 65
   257
 75
     1
175
     1
 42
1.0
 92
        8
 66
   257
 43
1.0
 76
     1
 77
     6
 78
     2
 67
     7
 79
     3
170
     0
171
     0
290
     0
174
     0
 93
       13
 44
0.0
173
     0
291
     0
 45
0.0
1001
ACAD
1000
AcDbSavedByObjectVersion
1070
     0
  0
VISUALSTYLE
  5
3E
102
{ACAD_XDICTIONARY
360
9ED
102
}
102
{ACAD_REACTORS
330
29
102
}
330
29
100
AcDbVisualStyle
  2

 70
    27
 71
     2
 72
     2
 73
     1
 90
        2
 40
-0.6
 41
30.0
 62
     5
 63
     7
 74
     0
 91
        4
 64
     7
 65
   257
 75
     1
175
     1
 42
1.0
 92
        8
 66
   257
 43
1.0
 76
     1
 77
     6
 78
     2
 67
     8
 79
     3
170
     0
171
     0
290
     0
174
     0
 93
        5
 44
0.0
173
     0
291
     0
 45
0.0
1001
ACAD
1000
AcDbSavedByObjectVersion
1070
     0
  0
VISUALSTYLE
  5
3D
102
{ACAD_XDICTIONARY
360
9EB
102
}
102
{ACAD_REACTORS
330
29
102
}
330
29
100
AcDbVisualStyle
  2

 70
    26
 71
     2
 72
     2
 73
     1
 90
        2
 40
-0.6
 41
30.0
 62
     5
 63
     7
 74
     1
 91
       10
 64
     7
 65
   257
 75
     2
175
     1
 42
1.0
 92
        8
 66
   257
 43
1.0
 76
     1
 77
     6
 78
     2
 67
     7
 79
     3
170
     0
171
     0
290
     0
174
     0
 93
        5
 44
0.0
173
     0
291
     0
 45
0.0
1001
ACAD
1000
AcDbSavedByObjectVersion
1070
     0
  0
VISUALSTYLE
  5
3A
102
{ACAD_XDICTIONARY
360
9E5
102
}
102
{ACAD_REACTORS
330
29
102
}
330
29
100
AcDbVisualStyle
  2

 70
    23
 71
     2
 72
     2
 73
     3
 90
        0
 40
-0.6
 41
-30.0
 62
     5
 63
     7
 74
     2
 91
        2
 64
     7
 65
     7
 75
     1
175
     1
 42
40.0
 92
        8
 66
     7
 43
1.0
 76
     1
 77
     6
 78
     2
 67
     7
 79
     3
170
     0
171
     0
290
     0
174
     0
 93
        1
 44
0.0
173
     0
291
     0
 45
0.0
1001
ACAD
1000
AcDbSavedByObjectVersion
1070
     0
  0
VISUALSTYLE
  5
3B
102
{ACAD_XDICTIONARY
360
9E7
102
}
102
{ACAD_REACTORS
330
29
102
}
330
29
100
AcDbVisualStyle
  2

 70
    24
 71
     1
 72
     2
 73
     2
 90
        0
 40
-0.6
 41
-30.0
 62
     5
 63
     7
 74
     2
 91
        2
 64
     7
 65
     7
 75
     1
175
     1
 42
40.0
 92
       11
 66
     7
 43
1.0
 76
     1
 77
     6
 78
     2
 67
     7
 79
     6
170
     0
171
     0
290
     0
174
     0
 93
        1
 44
0.0
173
     0
291
     0
 45
0.0
1001
ACAD
1000
AcDbSavedByObjectVersion
1070
     0
  0
VISUALSTYLE
  5
36
102
{ACAD_XDICTIONARY
360
9DD
102
}
102
{ACAD_REACTORS
330
29
102
}
330
29
100
AcDbVisualStyle
  2

 70
    13
 71
     2
 72
     2
 73
     0
 90
        0
 40
-0.6
 41
-30.0
 62
     5
 63
     7
 74
     1
 91
        4
 64
     7
 65
   257
 75
     1
175
     1
 42
1.0
 92
       12
 66
     7
 43
1.0
 76
     1
 77
     6
 78
     2
 67
     7
 79
     5
170
     0
171
     0
290
     0
174
     0
 93
        1
 44
0.0
173
     0
291
     1
 45
0.0
1001
ACAD
1000
AcDbSavedByObjectVersion
1070
     0
  0
VISUALSTYLE
  5
30
102
{ACAD_XDICTIONARY
360
9D1
102
}
102
{ACAD_REACTORS
330
29
102
}
330
29
100
AcDbVisualStyle
  2

 70
     5
 71
     0
 72
     2
 73
     0
 90
        0
 40
-0.6
 41
-30.0
 62
     5
 63
     7
 74
     1
 91
        4
 64
     7
 65
   257
 75
     1
175
     1
 42
1.0
 92
        0
 66
   257
 43
1.0
 76
     1
 77
     6
 78
     2
 67
     7
 79
     3
170
     0
171
     0
290
     0
174
     0
 93
        1
 44
0.0
173
     0
291
     0
 45
0.0
1001
ACAD
1000
AcDbSavedByObjectVersion
1070
     0
  0
VISUALSTYLE
  5
3C
102
{ACAD_XDICTIONARY
360
9E9
102
}
102
{ACAD_REACTORS
330
29
102
}
330
29
100
AcDbVisualStyle
  2

 70
    25
 71
     2
 72
     2
 73
     1
 90
        1
 40
0.5
 41
-30.0
 62
     5
 63
     7
 74
     1
 91
        0
 64
     7
 65
   257
 75
     1
175
     1
 42
1.0
 92
        8
 66
     7
 43
1.0
 76
     1
 77
     6
 78
     2
 67
     7
 79
     3
170
     0
171
     0
290
     0
174
     0
 93
       13
 44
0.0
173
     0
291
     0
 45
0.0
1001
ACAD
1000
AcDbSavedByObjectVersion
1070
     0
  0
DICTIONARYVAR
  5
445
102
{ACAD_REACTORS
330
442
102
}
330
442
100
DictionaryVariables
280
     0
  1
1:1
  0
DICTIONARYVAR
  5
444
102
{ACAD_REACTORS
330
442
102
}
330
442
100
DictionaryVariables
280
     0
  1
STANDARD
  0
DICTIONARYVAR
  5
443
102
{ACAD_REACTORS
330
442
102
}
330
442
100
DictionaryVariables
280
     0
  1
STANDARD
  0
DICTIONARYVAR
  5
448
102
{ACAD_REACTORS
330
442
102
}
330
442
100
DictionaryVariables
280
     0
  1
1
  0
DICTIONARYVAR
  5
447
102
{ACAD_REACTORS
330
442
102
}
330
442
100
DictionaryVariables
280
     0
  1
0
  0
DICTIONARYVAR
  5
446
102
{ACAD_REACTORS
330
442
102
}
330
442
100
DictionaryVariables
280
     0
  1
127
  0
DICTIONARYVAR
  5
8D9
102
{ACAD_REACTORS
330
442
102
}
330
442
100
DictionaryVariables
280
     0
  1
2
  0
DICTIONARY
  5
9F8
330
6E
100
AcDbDictionary
280
     1
281
     1
  3
ACAD_XREC_ROUNDTRIP
360
9F9
  0
DICTIONARY
  5
9F6
330
6A
100
AcDbDictionary
280
     1
281
     1
  3
ACAD_XREC_ROUNDTRIP
360
9F7
  0
DICTIONARY
  5
1A
330
19
100
AcDbDictionary
280
     1
281
     1
  3
ACAD_XREC_ROUNDTRIP
360
453
  3
BUMPTILE
360
1C
  3
DIFFUSETILE
360
1B
  3
OPACITYTILE
360
1F
  3
REFLECTIONTILE
360
1E
  3
REFRACTIONTILE
360
20
  3
SPECULARTILE
360
1D
  0
DICTIONARY
  5
12
330
11
100
AcDbDictionary
280
     1
281
     1
  3
ACAD_XREC_ROUNDTRIP
360
452
  3
BUMPTILE
360
14
  3
DIFFUSETILE
360
13
  3
OPACITYTILE
360
17
  3
REFLECTIONTILE
360
16
  3
REFRACTIONTILE
360
18
  3
SPECULARTILE
360
15
  0
DICTIONARY
  5
22
330
21
100
AcDbDictionary
280
     1
281
     1
  3
ACAD_XREC_ROUNDTRIP
360
454
  3
BUMPTILE
360
24
  3
DIFFUSETILE
360
23
  3
OPACITYTILE
360
27
  3
REFLECTIONTILE
360
26
  3
REFRACTIONTILE
360
28
  3
SPECULARTILE
360
25
  0
DICTIONARY
  5
44A
330
64
100
AcDbDictionary
280
     1
281
     1
  3
ACAD_ROUNDTRIP_2008_TABLESTYLE_CELLSTYLEMAP
360
9BE
  3
ACAD_XREC_ROUNDTRIP
360
9F5
  0
DICTIONARY
  5
9CF
330
2F
100
AcDbDictionary
280
     1
281
     1
  3
ACAD_XREC_ROUNDTRIP
360
9D0
  0
DICTIONARY
  5
9FA
330
2E3
100
AcDbDictionary
280
     1
281
     1
  3
ACAD_XREC_ROUNDTRIP
360
9FB
  0
DICTIONARY
  5
9CD
330
2E
100
AcDbDictionary
280
     1
281
     1
  3
ACAD_XREC_ROUNDTRIP
360
9CE
  0
DICTIONARY
  5
9DB
330
35
100
AcDbDictionary
280
     1
281
     1
  3
ACAD_XREC_ROUNDTRIP
360
9DC
  0
DICTIONARY
  5
9E3
330
39
100
AcDbDictionary
280
     1
281
     1
  3
ACAD_XREC_ROUNDTRIP
360
9E4
  0
DICTIONARY
  5
9D5
330
32
100
AcDbDictionary
280
     1
281
     1
  3
ACAD_XREC_ROUNDTRIP
360
9D6
  0
DICTIONARY
  5
9D9
330
34
100
AcDbDictionary
280
     1
281
     1
  3
ACAD_XREC_ROUNDTRIP
360
9DA
  0
DICTIONARY
  5
9F3
330
41
100
AcDbDictionary
280
     1
281
     1
  3
ACAD_XREC_ROUNDTRIP
360
9F4
  0
DICTIONARY
  5
9E1
330
38
100
AcDbDictionary
280
     1
281
     1
  3
ACAD_XREC_ROUNDTRIP
360
9E2
  0
DICTIONARY
  5
9C5
330
2A
100
AcDbDictionary
280
     1
281
     1
  3
ACAD_XREC_ROUNDTRIP
360
9C6
  0
DICTIONARY
  5
9C7
330
2B
100
AcDbDictionary
280
     1
281
     1
  3
ACAD_XREC_ROUNDTRIP
360
9C8
  0
DICTIONARY
  5
9C9
330
2C
100
AcDbDictionary
280
     1
281
     1
  3
ACAD_XREC_ROUNDTRIP
360
9CA
  0
DICTIONARY
  5
9CB
330
2D
100
AcDbDictionary
280
     1
281
     1
  3
ACAD_XREC_ROUNDTRIP
360
9CC
  0
DICTIONARY
  5
9D3
330
31
100
AcDbDictionary
280
     1
281
     1
  3
ACAD_XREC_ROUNDTRIP
360
9D4
  0
DICTIONARY
  5
9EF
330
3F
100
AcDbDictionary
280
     1
281
     1
  3
ACAD_XREC_ROUNDTRIP
360
9F0
  0
DICTIONARY
  5
9DF
330
37
100
AcDbDictionary
280
     1
281
     1
  3
ACAD_XREC_ROUNDTRIP
360
9E0
  0
DICTIONARY
  5
9F1
330
40
100
AcDbDictionary
280
     1
281
     1
  3
ACAD_XREC_ROUNDTRIP
360
9F2
  0
DICTIONARY
  5
9D7
330
33
100
AcDbDictionary
280
     1
281
     1
  3
ACAD_XREC_ROUNDTRIP
360
9D8
  0
DICTIONARY
  5
9ED
330
3E
100
AcDbDictionary
280
     1
281
     1
  3
ACAD_XREC_ROUNDTRIP
360
9EE
  0
DICTIONARY
  5
9EB
330
3D
100
AcDbDictionary
280
     1
281
     1
  3
ACAD_XREC_ROUNDTRIP
360
9EC
  0
DICTIONARY
  5
9E5
330
3A
100
AcDbDictionary
280
     1
281
     1
  3
ACAD_XREC_ROUNDTRIP
360
9E6
  0
DICTIONARY
  5
9E7
330
3B
100
AcDbDictionary
280
     1
281
     1
  3
ACAD_XREC_ROUNDTRIP
360
9E8
  0
DICTIONARY
  5
9DD
330
36
100
AcDbDictionary
280
     1
281
     1
  3
ACAD_XREC_ROUNDTRIP
360
9DE
  0
DICTIONARY
  5
9D1
330
30
100
AcDbDictionary
280
     1
281
     1
  3
ACAD_XREC_ROUNDTRIP
360
9D2
  0
DICTIONARY
  5
9E9
330
3C
100
AcDbDictionary
280
     1
281
     1
  3
ACAD_XREC_ROUNDTRIP
360
9EA
  0
XRECORD
  5
9F9
102
{ACAD_REACTORS
330
9F8
102
}
330
9F8
100
AcDbXrecord
280
     1
102
SHADEPLOT
 70
     0
102
SHADEPLOTRESLEVEL
 70
     2
102
SHADEPLOTCUSTOMDPI
 70
   300
  0
XRECORD
  5
9F7
102
{ACAD_REACTORS
330
9F6
102
}
330
9F6
100
AcDbXrecord
280
     1
102
SHADEPLOT
 70
     0
102
SHADEPLOTRESLEVEL
 70
     2
102
SHADEPLOTCUSTOMDPI
 70
   300
  0
XRECORD
  5
453
102
{ACAD_REACTORS
330
1A
102
}
330
1A
100
AcDbXrecord
280
     1
102
MATERIAL
148
0.0
149
0.0
149
0.0
 93
        0
 94
      127
282
     0
 72
     0
 77
     0
171
     0
175
     0
179
     0
273
     0
  0
XRECORD
  5
1C
102
{ACAD_REACTORS
330
1A
102
}
330
1A
100
AcDbXrecord
280
     1
270
     1
271
     1
  0
XRECORD
  5
1B
102
{ACAD_REACTORS
330
1A
102
}
330
1A
100
AcDbXrecord
280
     1
270
     1
271
     1
  0
XRECORD
  5
1F
102
{ACAD_REACTORS
330
1A
102
}
330
1A
100
AcDbXrecord
280
     1
270
     1
271
     1
  0
XRECORD
  5
1E
102
{ACAD_REACTORS
330
1A
102
}
330
1A
100
AcDbXrecord
280
     1
270
     1
271
     1
  0
XRECORD
  5
20
102
{ACAD_REACTORS
330
1A
102
}
330
1A
100
AcDbXrecord
280
     1
270
     1
271
     1
  0
XRECORD
  5
1D
102
{ACAD_REACTORS
330
1A
102
}
330
1A
100
AcDbXrecord
280
     1
270
     1
271
     1
  0
XRECORD
  5
452
102
{ACAD_REACTORS
330
12
102
}
330
12
100
AcDbXrecord
280
     1
102
MATERIAL
148
0.0
149
0.0
149
0.0
 93
        0
 94
      127
282
     0
 72
     0
 77
     0
171
     0
175
     0
179
     0
273
     0
  0
XRECORD
  5
14
102
{ACAD_REACTORS
330
12
102
}
330
12
100
AcDbXrecord
280
     1
270
     1
271
     1
  0
XRECORD
  5
13
102
{ACAD_REACTORS
330
12
102
}
330
12
100
AcDbXrecord
280
     1
270
     1
271
     1
  0
XRECORD
  5
17
102
{ACAD_REACTORS
330
12
102
}
330
12
100
AcDbXrecord
280
     1
270
     1
271
     1
  0
XRECORD
  5
16
102
{ACAD_REACTORS
330
12
102
}
330
12
100
AcDbXrecord
280
     1
270
     1
271
     1
  0
XRECORD
  5
18
102
{ACAD_REACTORS
330
12
102
}
330
12
100
AcDbXrecord
280
     1
270
     1
271
     1
  0
XRECORD
  5
15
102
{ACAD_REACTORS
330
12
102
}
330
12
100
AcDbXrecord
280
     1
270
     1
271
     1
  0
XRECORD
  5
454
102
{ACAD_REACTORS
330
22
102
}
330
22
100
AcDbXrecord
280
     1
102
MATERIAL
148
0.0
149
0.0
149
0.0
 93
        0
 94
      127
282
     0
 72
     0
 77
     0
171
     0
175
     0
179
     0
273
     0
  0
XRECORD
  5
24
102
{ACAD_REACTORS
330
22
102
}
330
22
100
AcDbXrecord
280
     1
270
     1
271
     1
  0
XRECORD
  5
23
102
{ACAD_REACTORS
330
22
102
}
330
22
100
AcDbXrecord
280
     1
270
     1
271
     1
  0
XRECORD
  5
27
102
{ACAD_REACTORS
330
22
102
}
330
22
100
AcDbXrecord
280
     1
270
     1
271
     1
  0
XRECORD
  5
26
102
{ACAD_REACTORS
330
22
102
}
330
22
100
AcDbXrecord
280
     1
270
     1
271
     1
  0
XRECORD
  5
28
102
{ACAD_REACTORS
330
22
102
}
330
22
100
AcDbXrecord
280
     1
270
     1
271
     1
  0
XRECORD
  5
25
102
{ACAD_REACTORS
330
22
102
}
330
22
100
AcDbXrecord
280
     1
270
     1
271
     1
  0
CELLSTYLEMAP
  5
9BE
102
{ACAD_REACTORS
330
44A
102
}
330
44A
100
AcDbCellStyleMap
 90
        3
300
CELLSTYLE
  1
TABLEFORMAT_BEGIN
 90
        5
170
     1
 91
        0
 92
    32768
 62
   257
 93
        1
300
CONTENTFORMAT
  1
CONTENTFORMAT_BEGIN
 90
        0
 91
        0
 92
      512
 93
        0
300

 40
0.0
140
1.0
 94
        5
 62
     0
340
55
144
0.25
309
CONTENTFORMAT_END
171
     1
301
MARGIN
  1
CELLMARGIN_BEGIN
 40
0.06
 40
0.06
 40
0.06
 40
0.06
 40
0.18
 40
0.18
309
CELLMARGIN_END
 94
        6
 95
        1
302
GRIDFORMAT
  1
GRIDFORMAT_BEGIN
 90
        0
 91
        1
 62
     0
 92
       -2
340
0
 93
        0
 40
0.045
309
GRIDFORMAT_END
 95
        2
302
GRIDFORMAT
  1
GRIDFORMAT_BEGIN
 90
        0
 91
        1
 62
     0
 92
       -2
340
0
 93
        0
 40
0.045
309
GRIDFORMAT_END
 95
        4
302
GRIDFORMAT
  1
GRIDFORMAT_BEGIN
 90
        0
 91
        1
 62
     0
 92
       -2
340
0
 93
        0
 40
0.045
309
GRIDFORMAT_END
 95
        8
302
GRIDFORMAT
  1
GRIDFORMAT_BEGIN
 90
        0
 91
        1
 62
     0
 92
       -2
340
0
 93
        0
 40
0.045
309
GRIDFORMAT_END
 95
       16
302
GRIDFORMAT
  1
GRIDFORMAT_BEGIN
 90
        0
 91
        1
 62
     0
 92
       -2
340
0
 93
        0
 40
0.045
309
GRIDFORMAT_END
 95
       32
302
GRIDFORMAT
  1
GRIDFORMAT_BEGIN
 90
        0
 91
        1
 62
     0
 92
       -2
340
0
 93
        0
 40
0.045
309
GRIDFORMAT_END
309
TABLEFORMAT_END
  1
CELLSTYLE_BEGIN
 90
        1
 91
        1
300
_TITLE
309
CELLSTYLE_END
300
CELLSTYLE
  1
TABLEFORMAT_BEGIN
 90
        5
170
     1
 91
        0
 92
        0
 62
   257
 93
        1
300
CONTENTFORMAT
  1
CONTENTFORMAT_BEGIN
 90
        0
 91
        0
 92
      512
 93
        0
300

 40
0.0
140
1.0
 94
        5
 62
     0
340
55
144
0.18
309
CONTENTFORMAT_END
171
     1
301
MARGIN
  1
CELLMARGIN_BEGIN
 40
0.06
 40
0.06
 40
0.06
 40
0.06
 40
0.18
 40
0.18
309
CELLMARGIN_END
 94
        6
 95
        1
302
GRIDFORMAT
  1
GRIDFORMAT_BEGIN
 90
        0
 91
        1
 62
     0
 92
       -2
340
0
 93
        0
 40
0.045
309
GRIDFORMAT_END
 95
        2
302
GRIDFORMAT
  1
GRIDFORMAT_BEGIN
 90
        0
 91
        1
 62
     0
 92
       -2
340
0
 93
        0
 40
0.045
309
GRIDFORMAT_END
 95
        4
302
GRIDFORMAT
  1
GRIDFORMAT_BEGIN
 90
        0
 91
        1
 62
     0
 92
       -2
340
0
 93
        0
 40
0.045
309
GRIDFORMAT_END
 95
        8
302
GRIDFORMAT
  1
GRIDFORMAT_BEGIN
 90
        0
 91
        1
 62
     0
 92
       -2
340
0
 93
        0
 40
0.045
309
GRIDFORMAT_END
 95
       16
302
GRIDFORMAT
  1
GRIDFORMAT_BEGIN
 90
        0
 91
        1
 62
     0
 92
       -2
340
0
 93
        0
 40
0.045
309
GRIDFORMAT_END
 95
       32
302
GRIDFORMAT
  1
GRIDFORMAT_BEGIN
 90
        0
 91
        1
 62
     0
 92
       -2
340
0
 93
        0
 40
0.045
309
GRIDFORMAT_END
309
TABLEFORMAT_END
  1
CELLSTYLE_BEGIN
 90
        2
 91
        1
300
_HEADER
309
CELLSTYLE_END
300
CELLSTYLE
  1
TABLEFORMAT_BEGIN
 90
        5
170
     1
 91
        0
 92
        0
 62
   257
 93
        1
300
CONTENTFORMAT
  1
CONTENTFORMAT_BEGIN
 90
        0
 91
        0
 92
      512
 93
        0
300

 40
0.0
140
1.0
 94
        2
 62
     0
340
55
144
0.18
309
CONTENTFORMAT_END
171
     1
301
MARGIN
  1
CELLMARGIN_BEGIN
 40
0.06
 40
0.06
 40
0.06
 40
0.06
 40
0.18
 40
0.18
309
CELLMARGIN_END
 94
        6
 95
        1
302
GRIDFORMAT
  1
GRIDFORMAT_BEGIN
 90
        0
 91
        1
 62
     0
 92
       -2
340
0
 93
        0
 40
0.045
309
GRIDFORMAT_END
 95
        2
302
GRIDFORMAT
  1
GRIDFORMAT_BEGIN
 90
        0
 91
        1
 62
     0
 92
       -2
340
0
 93
        0
 40
0.045
309
GRIDFORMAT_END
 95
        4
302
GRIDFORMAT
  1
GRIDFORMAT_BEGIN
 90
        0
 91
        1
 62
     0
 92
       -2
340
0
 93
        0
 40
0.045
309
GRIDFORMAT_END
 95
        8
302
GRIDFORMAT
  1
GRIDFORMAT_BEGIN
 90
        0
 91
        1
 62
     0
 92
       -2
340
0
 93
        0
 40
0.045
309
GRIDFORMAT_END
 95
       16
302
GRIDFORMAT
  1
GRIDFORMAT_BEGIN
 90
        0
 91
        1
 62
     0
 92
       -2
340
0
 93
        0
 40
0.045
309
GRIDFORMAT_END
 95
       32
302
GRIDFORMAT
  1
GRIDFORMAT_BEGIN
 90
        0
 91
        1
 62
     0
 92
       -2
340
0
 93
        0
 40
0.045
309
GRIDFORMAT_END
309
TABLEFORMAT_END
  1
CELLSTYLE_BEGIN
 90
        3
 91
        2
300
_DATA
309
CELLSTYLE_END
  0
XRECORD
  5
9F5
102
{ACAD_REACTORS
330
44A
102
}
330
44A
100
AcDbXrecord
280
     1
102
ACAD_ROUNDTRIP_PRE2007_TABLESTYLE
 90
      512
 91
        0
  1

 92
      512
 93
        0
  2

 94
      512
 95
        0
  3

  0
XRECORD
  5
9D0
102
{ACAD_REACTORS
330
9CF
102
}
330
9CF
100
AcDbXrecord
280
     1
102
RTVSPropertyOp0
 70
     1
102
RTVSPropertyOp1
 70
     1
102
RTVSPropertyOp2
 70
     1
102
RTVSPropertyOp3
 70
     1
102
RTVSPropertyOp4
 70
     1
102
RTVSPropertyOp5
 70
     1
102
RTVSPropertyOp6
 70
     1
102
RTVSPropertyOp7
 70
     1
102
RTVSPropertyOp8
 70
     1
102
RTVSPropertyOp9
 70
     1
102
RTVSPropertyOp10
 70
     1
102
RTVSPropertyOp11
 70
     1
102
RTVSPropertyOp12
 70
     1
102
RTVSPropertyOp13
 70
     1
102
RTVSPropertyOp14
 70
     1
102
RTVSPropertyOp15
 70
     1
102
RTVSPropertyOp16
 70
     1
102
RTVSPropertyOp17
 70
     1
102
RTVSPropertyOp18
 70
     1
102
RTVSPropertyOp19
 70
     1
102
RTVSPropertyOp20
 70
     1
102
RTVSPropertyOp21
 70
     1
102
RTVSPropertyOp22
 70
     1
102
RTVSPropertyOp23
 70
     1
102
RTVSPropertyOp24
 70
     1
102
RTVSPropertyOp25
 70
     1
102
RTVSPropertyOp26
 70
     1
102
RTVSPropertyOp27
 70
     1
102
RTVSPropertyOp28
 70
     1
102
RTVSPropertyOp29
 70
     1
102
RTVSPropertyOp30
 70
     1
102
RTVSPropertyOp31
 70
     1
102
RTVSPropertyOp32
 70
     1
  0
XRECORD
  5
9FB
102
{ACAD_REACTORS
330
9FA
102
}
330
9FA
100
AcDbXrecord
280
     1
102
RTVSPropertyOp0
 70
     1
102
RTVSPropertyOp1
 70
     1
102
RTVSPropertyOp2
 70
     1
102
RTVSPropertyOp3
 70
     1
102
RTVSPropertyOp4
 70
     1
102
RTVSPropertyOp5
 70
     1
102
RTVSPropertyOp6
 70
     1
102
RTVSPropertyOp7
 70
     1
102
RTVSPropertyOp8
 70
     1
102
RTVSPropertyOp9
 70
     1
102
RTVSPropertyOp10
 70
     1
102
RTVSPropertyOp11
 70
     1
102
RTVSPropertyOp12
 70
     1
102
RTVSPropertyOp13
 70
     1
102
RTVSPropertyOp14
 70
     1
102
RTVSPropertyOp15
 70
     1
102
RTVSPropertyOp16
 70
     1
102
RTVSPropertyOp17
 70
     1
102
RTVSPropertyOp18
 70
     1
102
RTVSPropertyOp19
 70
     1
102
RTVSPropertyOp20
 70
     1
102
RTVSPropertyOp21
 70
     1
102
RTVSPropertyOp22
 70
     1
102
RTVSPropertyOp23
 70
     1
102
RTVSPropertyOp24
 70
     1
102
RTVSPropertyOp25
 70
     1
102
RTVSPropertyOp26
 70
     1
102
RTVSPropertyOp27
 70
     1
102
RTVSPropertyOp28
 70
     1
102
RTVSPropertyOp29
 70
     1
102
RTVSPropertyOp30
 70
     1
102
RTVSPropertyOp31
 70
     1
102
RTVSPropertyOp32
 70
     1
  0
XRECORD
  5
9CE
102
{ACAD_REACTORS
330
9CD
102
}
330
9CD
100
AcDbXrecord
280
     1
102
RTVSPropertyOp0
 70
     1
102
RTVSPropertyOp1
 70
     1
102
RTVSPropertyOp2
 70
     1
102
RTVSPropertyOp3
 70
     1
102
RTVSPropertyOp4
 70
     1
102
RTVSPropertyOp5
 70
     1
102
RTVSPropertyOp6
 70
     1
102
RTVSPropertyOp7
 70
     1
102
RTVSPropertyOp8
 70
     1
102
RTVSPropertyOp9
 70
     1
102
RTVSPropertyOp10
 70
     1
102
RTVSPropertyOp11
 70
     1
102
RTVSPropertyOp12
 70
     1
102
RTVSPropertyOp13
 70
     1
102
RTVSPropertyOp14
 70
     1
102
RTVSPropertyOp15
 70
     1
102
RTVSPropertyOp16
 70
     1
102
RTVSPropertyOp17
 70
     1
102
RTVSPropertyOp18
 70
     1
102
RTVSPropertyOp19
 70
     1
102
RTVSPropertyOp20
 70
     1
102
RTVSPropertyOp21
 70
     1
102
RTVSPropertyOp22
 70
     1
102
RTVSPropertyOp23
 70
     1
102
RTVSPropertyOp24
 70
     1
102
RTVSPropertyOp25
 70
     1
102
RTVSPropertyOp26
 70
     1
102
RTVSPropertyOp27
 70
     1
102
RTVSPropertyOp28
 70
     1
102
RTVSPropertyOp29
 70
     1
102
RTVSPropertyOp30
 70
     1
102
RTVSPropertyOp31
 70
     1
102
RTVSPropertyOp32
 70
     1
  0
XRECORD
  5
9DC
102
{ACAD_REACTORS
330
9DB
102
}
330
9DB
100
AcDbXrecord
280
     1
102
RTVSPropertyOp0
 70
     1
102
RTVSPropertyOp1
 70
     1
102
RTVSPropertyOp2
 70
     1
102
RTVSPropertyOp3
 70
     1
102
RTVSPropertyOp4
 70
     1
102
RTVSPropertyOp5
 70
     1
102
RTVSPropertyOp6
 70
     1
102
RTVSPropertyOp7
 70
     1
102
RTVSPropertyOp8
 70
     1
102
RTVSPropertyOp9
 70
     1
102
RTVSPropertyOp10
 70
     1
102
RTVSPropertyOp11
 70
     1
102
RTVSPropertyOp12
 70
     1
102
RTVSPropertyOp13
 70
     1
102
RTVSPropertyOp14
 70
     1
102
RTVSPropertyOp15
 70
     1
102
RTVSPropertyOp16
 70
     1
102
RTVSPropertyOp17
 70
     1
102
RTVSPropertyOp18
 70
     1
102
RTVSPropertyOp19
 70
     1
102
RTVSPropertyOp20
 70
     1
102
RTVSPropertyOp21
 70
     1
102
RTVSPropertyOp22
 70
     1
102
RTVSPropertyOp23
 70
     1
102
RTVSPropertyOp24
 70
     1
102
RTVSPropertyOp25
 70
     1
102
RTVSPropertyOp26
 70
     1
102
RTVSPropertyOp27
 70
     1
102
RTVSPropertyOp28
 70
     1
102
RTVSPropertyOp29
 70
     1
102
RTVSPropertyOp30
 70
     1
102
RTVSPropertyOp31
 70
     1
102
RTVSPropertyOp32
 70
     1
  0
XRECORD
  5
9E4
102
{ACAD_REACTORS
330
9E3
102
}
330
9E3
100
AcDbXrecord
280
     1
102
RTVSPropertyOp0
 70
     1
102
RTVSPropertyOp1
 70
     1
102
RTVSPropertyOp2
 70
     1
102
RTVSPropertyOp3
 70
     1
102
RTVSPropertyOp4
 70
     1
102
RTVSPropertyOp5
 70
     1
102
RTVSPropertyOp6
 70
     1
102
RTVSPropertyOp7
 70
     1
102
RTVSPropertyOp8
 70
     1
102
RTVSPropertyOp9
 70
     1
102
RTVSPropertyOp10
 70
     1
102
RTVSPropertyOp11
 70
     1
102
RTVSPropertyOp12
 70
     1
102
RTVSPropertyOp13
 70
     1
102
RTVSPropertyOp14
 70
     1
102
RTVSPropertyOp15
 70
     1
102
RTVSPropertyOp16
 70
     1
102
RTVSPropertyOp17
 70
     1
102
RTVSPropertyOp18
 70
     1
102
RTVSPropertyOp19
 70
     1
102
RTVSPropertyOp20
 70
     1
102
RTVSPropertyOp21
 70
     1
102
RTVSPropertyOp22
 70
     1
102
RTVSPropertyOp23
 70
     1
102
RTVSPropertyOp24
 70
     1
102
RTVSPropertyOp25
 70
     1
102
RTVSPropertyOp26
 70
     1
102
RTVSPropertyOp27
 70
     1
102
RTVSPropertyOp28
 70
     1
102
RTVSPropertyOp29
 70
     1
102
RTVSPropertyOp30
 70
     1
102
RTVSPropertyOp31
 70
     1
102
RTVSPropertyOp32
 70
     1
  0
XRECORD
  5
9D6
102
{ACAD_REACTORS
330
9D5
102
}
330
9D5
100
AcDbXrecord
280
     1
102
RTVSPropertyOp0
 70
     1
102
RTVSPropertyOp1
 70
     1
102
RTVSPropertyOp2
 70
     1
102
RTVSPropertyOp3
 70
     1
102
RTVSPropertyOp4
 70
     1
102
RTVSPropertyOp5
 70
     1
102
RTVSPropertyOp6
 70
     1
102
RTVSPropertyOp7
 70
     1
102
RTVSPropertyOp8
 70
     1
102
RTVSPropertyOp9
 70
     1
102
RTVSPropertyOp10
 70
     1
102
RTVSPropertyOp11
 70
     1
102
RTVSPropertyOp12
 70
     1
102
RTVSPropertyOp13
 70
     1
102
RTVSPropertyOp14
 70
     1
102
RTVSPropertyOp15
 70
     1
102
RTVSPropertyOp16
 70
     1
102
RTVSPropertyOp17
 70
     1
102
RTVSPropertyOp18
 70
     1
102
RTVSPropertyOp19
 70
     1
102
RTVSPropertyOp20
 70
     1
102
RTVSPropertyOp21
 70
     1
102
RTVSPropertyOp22
 70
     1
102
RTVSPropertyOp23
 70
     1
102
RTVSPropertyOp24
 70
     1
102
RTVSPropertyOp25
 70
     1
102
RTVSPropertyOp26
 70
     1
102
RTVSPropertyOp27
 70
     1
102
RTVSPropertyOp28
 70
     1
102
RTVSPropertyOp29
 70
     1
102
RTVSPropertyOp30
 70
     1
102
RTVSPropertyOp31
 70
     1
102
RTVSPropertyOp32
 70
     1
  0
XRECORD
  5
9DA
102
{ACAD_REACTORS
330
9D9
102
}
330
9D9
100
AcDbXrecord
280
     1
102
RTVSPropertyOp0
 70
     1
102
RTVSPropertyOp1
 70
     1
102
RTVSPropertyOp2
 70
     1
102
RTVSPropertyOp3
 70
     1
102
RTVSPropertyOp4
 70
     1
102
RTVSPropertyOp5
 70
     1
102
RTVSPropertyOp6
 70
     1
102
RTVSPropertyOp7
 70
     1
102
RTVSPropertyOp8
 70
     1
102
RTVSPropertyOp9
 70
     1
102
RTVSPropertyOp10
 70
     1
102
RTVSPropertyOp11
 70
     1
102
RTVSPropertyOp12
 70
     1
102
RTVSPropertyOp13
 70
     1
102
RTVSPropertyOp14
 70
     1
102
RTVSPropertyOp15
 70
     1
102
RTVSPropertyOp16
 70
     1
102
RTVSPropertyOp17
 70
     1
102
RTVSPropertyOp18
 70
     1
102
RTVSPropertyOp19
 70
     1
102
RTVSPropertyOp20
 70
     1
102
RTVSPropertyOp21
 70
     1
102
RTVSPropertyOp22
 70
     1
102
RTVSPropertyOp23
 70
     1
102
RTVSPropertyOp24
 70
     1
102
RTVSPropertyOp25
 70
     1
102
RTVSPropertyOp26
 70
     1
102
RTVSPropertyOp27
 70
     1
102
RTVSPropertyOp28
 70
     1
102
RTVSPropertyOp29
 70
     1
102
RTVSPropertyOp30
 70
     1
102
RTVSPropertyOp31
 70
     1
102
RTVSPropertyOp32
 70
     1
  0
XRECORD
  5
9F4
102
{ACAD_REACTORS
330
9F3
102
}
330
9F3
100
AcDbXrecord
280
     1
102
RTVSPropertyOp0
 70
     0
102
RTVSPropertyOp1
 70
     0
102
RTVSPropertyOp2
 70
     0
102
RTVSPropertyOp3
 70
     0
102
RTVSPropertyOp4
 70
     0
102
RTVSPropertyOp5
 70
     0
102
RTVSPropertyOp6
 70
     0
102
RTVSPropertyOp7
 70
     0
102
RTVSPropertyOp8
 70
     0
102
RTVSPropertyOp9
 70
     0
102
RTVSPropertyOp10
 70
     0
102
RTVSPropertyOp11
 70
     0
102
RTVSPropertyOp12
 70
     0
102
RTVSPropertyOp13
 70
     0
102
RTVSPropertyOp14
 70
     2
102
RTVSPropertyOp15
 70
     0
102
RTVSPropertyOp16
 70
     0
102
RTVSPropertyOp17
 70
     0
102
RTVSPropertyOp18
 70
     0
102
RTVSPropertyOp19
 70
     0
102
RTVSPropertyOp20
 70
     0
102
RTVSPropertyOp21
 70
     0
102
RTVSPropertyOp22
 70
     0
102
RTVSPropertyOp23
 70
     0
102
RTVSPropertyOp24
 70
     0
102
RTVSPropertyOp25
 70
     0
102
RTVSPropertyOp26
 70
     0
102
RTVSPropertyOp27
 70
     0
102
RTVSPropertyOp28
 70
     0
102
RTVSPropertyOp29
 70
     0
102
RTVSPropertyOp30
 70
     0
102
RTVSPropertyOp31
 70
     0
102
RTVSPropertyOp32
 70
     0
  0
XRECORD
  5
9E2
102
{ACAD_REACTORS
330
9E1
102
}
330
9E1
100
AcDbXrecord
280
     1
102
RTVSPropertyOp0
 70
     1
102
RTVSPropertyOp1
 70
     1
102
RTVSPropertyOp2
 70
     1
102
RTVSPropertyOp3
 70
     1
102
RTVSPropertyOp4
 70
     1
102
RTVSPropertyOp5
 70
     1
102
RTVSPropertyOp6
 70
     1
102
RTVSPropertyOp7
 70
     1
102
RTVSPropertyOp8
 70
     1
102
RTVSPropertyOp9
 70
     1
102
RTVSPropertyOp10
 70
     1
102
RTVSPropertyOp11
 70
     1
102
RTVSPropertyOp12
 70
     1
102
RTVSPropertyOp13
 70
     1
102
RTVSPropertyOp14
 70
     1
102
RTVSPropertyOp15
 70
     1
102
RTVSPropertyOp16
 70
     1
102
RTVSPropertyOp17
 70
     1
102
RTVSPropertyOp18
 70
     1
102
RTVSPropertyOp19
 70
     1
102
RTVSPropertyOp20
 70
     1
102
RTVSPropertyOp21
 70
     1
102
RTVSPropertyOp22
 70
     1
102
RTVSPropertyOp23
 70
     1
102
RTVSPropertyOp24
 70
     1
102
RTVSPropertyOp25
 70
     1
102
RTVSPropertyOp26
 70
     1
102
RTVSPropertyOp27
 70
     1
102
RTVSPropertyOp28
 70
     1
102
RTVSPropertyOp29
 70
     1
102
RTVSPropertyOp30
 70
     1
102
RTVSPropertyOp31
 70
     1
102
RTVSPropertyOp32
 70
     1
  0
XRECORD
  5
9C6
102
{ACAD_REACTORS
330
9C5
102
}
330
9C5
100
AcDbXrecord
280
     1
102
RTVSPropertyOp0
 70
     1
102
RTVSPropertyOp1
 70
     1
102
RTVSPropertyOp2
 70
     1
102
RTVSPropertyOp3
 70
     1
102
RTVSPropertyOp4
 70
     1
102
RTVSPropertyOp5
 70
     1
102
RTVSPropertyOp6
 70
     1
102
RTVSPropertyOp7
 70
     1
102
RTVSPropertyOp8
 70
     1
102
RTVSPropertyOp9
 70
     1
102
RTVSPropertyOp10
 70
     1
102
RTVSPropertyOp11
 70
     1
102
RTVSPropertyOp12
 70
     1
102
RTVSPropertyOp13
 70
     1
102
RTVSPropertyOp14
 70
     1
102
RTVSPropertyOp15
 70
     1
102
RTVSPropertyOp16
 70
     1
102
RTVSPropertyOp17
 70
     1
102
RTVSPropertyOp18
 70
     1
102
RTVSPropertyOp19
 70
     1
102
RTVSPropertyOp20
 70
     1
102
RTVSPropertyOp21
 70
     1
102
RTVSPropertyOp22
 70
     1
102
RTVSPropertyOp23
 70
     1
102
RTVSPropertyOp24
 70
     1
102
RTVSPropertyOp25
 70
     1
102
RTVSPropertyOp26
 70
     1
102
RTVSPropertyOp27
 70
     1
102
RTVSPropertyOp28
 70
     1
102
RTVSPropertyOp29
 70
     1
102
RTVSPropertyOp30
 70
     1
102
RTVSPropertyOp31
 70
     1
102
RTVSPropertyOp32
 70
     1
  0
XRECORD
  5
9C8
102
{ACAD_REACTORS
330
9C7
102
}
330
9C7
100
AcDbXrecord
280
     1
102
RTVSPropertyOp0
 70
     1
102
RTVSPropertyOp1
 70
     1
102
RTVSPropertyOp2
 70
     1
102
RTVSPropertyOp3
 70
     1
102
RTVSPropertyOp4
 70
     1
102
RTVSPropertyOp5
 70
     1
102
RTVSPropertyOp6
 70
     1
102
RTVSPropertyOp7
 70
     1
102
RTVSPropertyOp8
 70
     1
102
RTVSPropertyOp9
 70
     1
102
RTVSPropertyOp10
 70
     1
102
RTVSPropertyOp11
 70
     1
102
RTVSPropertyOp12
 70
     1
102
RTVSPropertyOp13
 70
     1
102
RTVSPropertyOp14
 70
     1
102
RTVSPropertyOp15
 70
     1
102
RTVSPropertyOp16
 70
     1
102
RTVSPropertyOp17
 70
     1
102
RTVSPropertyOp18
 70
     1
102
RTVSPropertyOp19
 70
     1
102
RTVSPropertyOp20
 70
     1
102
RTVSPropertyOp21
 70
     1
102
RTVSPropertyOp22
 70
     1
102
RTVSPropertyOp23
 70
     1
102
RTVSPropertyOp24
 70
     1
102
RTVSPropertyOp25
 70
     1
102
RTVSPropertyOp26
 70
     1
102
RTVSPropertyOp27
 70
     1
102
RTVSPropertyOp28
 70
     1
102
RTVSPropertyOp29
 70
     1
102
RTVSPropertyOp30
 70
     1
102
RTVSPropertyOp31
 70
     1
102
RTVSPropertyOp32
 70
     1
  0
XRECORD
  5
9CA
102
{ACAD_REACTORS
330
9C9
102
}
330
9C9
100
AcDbXrecord
280
     1
102
RTVSPropertyOp0
 70
     1
102
RTVSPropertyOp1
 70
     1
102
RTVSPropertyOp2
 70
     1
102
RTVSPropertyOp3
 70
     1
102
RTVSPropertyOp4
 70
     1
102
RTVSPropertyOp5
 70
     1
102
RTVSPropertyOp6
 70
     1
102
RTVSPropertyOp7
 70
     1
102
RTVSPropertyOp8
 70
     1
102
RTVSPropertyOp9
 70
     1
102
RTVSPropertyOp10
 70
     1
102
RTVSPropertyOp11
 70
     1
102
RTVSPropertyOp12
 70
     1
102
RTVSPropertyOp13
 70
     1
102
RTVSPropertyOp14
 70
     1
102
RTVSPropertyOp15
 70
     1
102
RTVSPropertyOp16
 70
     1
102
RTVSPropertyOp17
 70
     1
102
RTVSPropertyOp18
 70
     1
102
RTVSPropertyOp19
 70
     1
102
RTVSPropertyOp20
 70
     1
102
RTVSPropertyOp21
 70
     1
102
RTVSPropertyOp22
 70
     1
102
RTVSPropertyOp23
 70
     1
102
RTVSPropertyOp24
 70
     1
102
RTVSPropertyOp25
 70
     1
102
RTVSPropertyOp26
 70
     1
102
RTVSPropertyOp27
 70
     1
102
RTVSPropertyOp28
 70
     1
102
RTVSPropertyOp29
 70
     1
102
RTVSPropertyOp30
 70
     1
102
RTVSPropertyOp31
 70
     1
102
RTVSPropertyOp32
 70
     1
  0
XRECORD
  5
9CC
102
{ACAD_REACTORS
330
9CB
102
}
330
9CB
100
AcDbXrecord
280
     1
102
RTVSPropertyOp0
 70
     1
102
RTVSPropertyOp1
 70
     1
102
RTVSPropertyOp2
 70
     1
102
RTVSPropertyOp3
 70
     1
102
RTVSPropertyOp4
 70
     1
102
RTVSPropertyOp5
 70
     1
102
RTVSPropertyOp6
 70
     1
102
RTVSPropertyOp7
 70
     1
102
RTVSPropertyOp8
 70
     1
102
RTVSPropertyOp9
 70
     1
102
RTVSPropertyOp10
 70
     1
102
RTVSPropertyOp11
 70
     1
102
RTVSPropertyOp12
 70
     1
102
RTVSPropertyOp13
 70
     1
102
RTVSPropertyOp14
 70
     1
102
RTVSPropertyOp15
 70
     1
102
RTVSPropertyOp16
 70
     1
102
RTVSPropertyOp17
 70
     1
102
RTVSPropertyOp18
 70
     1
102
RTVSPropertyOp19
 70
     1
102
RTVSPropertyOp20
 70
     1
102
RTVSPropertyOp21
 70
     1
102
RTVSPropertyOp22
 70
     1
102
RTVSPropertyOp23
 70
     1
102
RTVSPropertyOp24
 70
     1
102
RTVSPropertyOp25
 70
     1
102
RTVSPropertyOp26
 70
     1
102
RTVSPropertyOp27
 70
     1
102
RTVSPropertyOp28
 70
     1
102
RTVSPropertyOp29
 70
     1
102
RTVSPropertyOp30
 70
     1
102
RTVSPropertyOp31
 70
     1
102
RTVSPropertyOp32
 70
     1
  0
XRECORD
  5
9D4
102
{ACAD_REACTORS
330
9D3
102
}
330
9D3
100
AcDbXrecord
280
     1
102
RTVSPropertyOp0
 70
     1
102
RTVSPropertyOp1
 70
     1
102
RTVSPropertyOp2
 70
     1
102
RTVSPropertyOp3
 70
     1
102
RTVSPropertyOp4
 70
     1
102
RTVSPropertyOp5
 70
     1
102
RTVSPropertyOp6
 70
     1
102
RTVSPropertyOp7
 70
     1
102
RTVSPropertyOp8
 70
     1
102
RTVSPropertyOp9
 70
     1
102
RTVSPropertyOp10
 70
     1
102
RTVSPropertyOp11
 70
     1
102
RTVSPropertyOp12
 70
     1
102
RTVSPropertyOp13
 70
     1
102
RTVSPropertyOp14
 70
     1
102
RTVSPropertyOp15
 70
     1
102
RTVSPropertyOp16
 70
     1
102
RTVSPropertyOp17
 70
     1
102
RTVSPropertyOp18
 70
     1
102
RTVSPropertyOp19
 70
     1
102
RTVSPropertyOp20
 70
     1
102
RTVSPropertyOp21
 70
     1
102
RTVSPropertyOp22
 70
     1
102
RTVSPropertyOp23
 70
     1
102
RTVSPropertyOp24
 70
     1
102
RTVSPropertyOp25
 70
     1
102
RTVSPropertyOp26
 70
     1
102
RTVSPropertyOp27
 70
     1
102
RTVSPropertyOp28
 70
     1
102
RTVSPropertyOp29
 70
     1
102
RTVSPropertyOp30
 70
     1
102
RTVSPropertyOp31
 70
     1
102
RTVSPropertyOp32
 70
     1
  0
XRECORD
  5
9F0
102
{ACAD_REACTORS
330
9EF
102
}
330
9EF
100
AcDbXrecord
280
     1
102
RTVSPropertyOp0
 70
     0
102
RTVSPropertyOp1
 70
     0
102
RTVSPropertyOp2
 70
     0
102
RTVSPropertyOp3
 70
     0
102
RTVSPropertyOp4
 70
     0
102
RTVSPropertyOp5
 70
     0
102
RTVSPropertyOp6
 70
     0
102
RTVSPropertyOp7
 70
     0
102
RTVSPropertyOp8
 70
     0
102
RTVSPropertyOp9
 70
     0
102
RTVSPropertyOp10
 70
     0
102
RTVSPropertyOp11
 70
     0
102
RTVSPropertyOp12
 70
     0
102
RTVSPropertyOp13
 70
     0
102
RTVSPropertyOp14
 70
     2
102
RTVSPropertyOp15
 70
     0
102
RTVSPropertyOp16
 70
     0
102
RTVSPropertyOp17
 70
     0
102
RTVSPropertyOp18
 70
     0
102
RTVSPropertyOp19
 70
     0
102
RTVSPropertyOp20
 70
     0
102
RTVSPropertyOp21
 70
     0
102
RTVSPropertyOp22
 70
     0
102
RTVSPropertyOp23
 70
     0
102
RTVSPropertyOp24
 70
     0
102
RTVSPropertyOp25
 70
     0
102
RTVSPropertyOp26
 70
     0
102
RTVSPropertyOp27
 70
     0
102
RTVSPropertyOp28
 70
     0
102
RTVSPropertyOp29
 70
     0
102
RTVSPropertyOp30
 70
     0
102
RTVSPropertyOp31
 70
     0
102
RTVSPropertyOp32
 70
     0
  0
XRECORD
  5
9E0
102
{ACAD_REACTORS
330
9DF
102
}
330
9DF
100
AcDbXrecord
280
     1
102
RTVSPropertyOp0
 70
     1
102
RTVSPropertyOp1
 70
     1
102
RTVSPropertyOp2
 70
     1
102
RTVSPropertyOp3
 70
     1
102
RTVSPropertyOp4
 70
     1
102
RTVSPropertyOp5
 70
     1
102
RTVSPropertyOp6
 70
     1
102
RTVSPropertyOp7
 70
     1
102
RTVSPropertyOp8
 70
     1
102
RTVSPropertyOp9
 70
     1
102
RTVSPropertyOp10
 70
     1
102
RTVSPropertyOp11
 70
     1
102
RTVSPropertyOp12
 70
     1
102
RTVSPropertyOp13
 70
     1
102
RTVSPropertyOp14
 70
     1
102
RTVSPropertyOp15
 70
     1
102
RTVSPropertyOp16
 70
     1
102
RTVSPropertyOp17
 70
     1
102
RTVSPropertyOp18
 70
     1
102
RTVSPropertyOp19
 70
     1
102
RTVSPropertyOp20
 70
     1
102
RTVSPropertyOp21
 70
     1
102
RTVSPropertyOp22
 70
     1
102
RTVSPropertyOp23
 70
     1
102
RTVSPropertyOp24
 70
     1
102
RTVSPropertyOp25
 70
     1
102
RTVSPropertyOp26
 70
     1
102
RTVSPropertyOp27
 70
     1
102
RTVSPropertyOp28
 70
     1
102
RTVSPropertyOp29
 70
     1
102
RTVSPropertyOp30
 70
     1
102
RTVSPropertyOp31
 70
     1
102
RTVSPropertyOp32
 70
     1
  0
XRECORD
  5
9F2
102
{ACAD_REACTORS
330
9F1
102
}
330
9F1
100
AcDbXrecord
280
     1
102
RTVSPropertyOp0
 70
     0
102
RTVSPropertyOp1
 70
     0
102
RTVSPropertyOp2
 70
     0
102
RTVSPropertyOp3
 70
     0
102
RTVSPropertyOp4
 70
     0
102
RTVSPropertyOp5
 70
     0
102
RTVSPropertyOp6
 70
     0
102
RTVSPropertyOp7
 70
     0
102
RTVSPropertyOp8
 70
     0
102
RTVSPropertyOp9
 70
     0
102
RTVSPropertyOp10
 70
     0
102
RTVSPropertyOp11
 70
     0
102
RTVSPropertyOp12
 70
     0
102
RTVSPropertyOp13
 70
     0
102
RTVSPropertyOp14
 70
     2
102
RTVSPropertyOp15
 70
     0
102
RTVSPropertyOp16
 70
     0
102
RTVSPropertyOp17
 70
     0
102
RTVSPropertyOp18
 70
     0
102
RTVSPropertyOp19
 70
     0
102
RTVSPropertyOp20
 70
     0
102
RTVSPropertyOp21
 70
     0
102
RTVSPropertyOp22
 70
     0
102
RTVSPropertyOp23
 70
     0
102
RTVSPropertyOp24
 70
     0
102
RTVSPropertyOp25
 70
     0
102
RTVSPropertyOp26
 70
     0
102
RTVSPropertyOp27
 70
     0
102
RTVSPropertyOp28
 70
     0
102
RTVSPropertyOp29
 70
     0
102
RTVSPropertyOp30
 70
     0
102
RTVSPropertyOp31
 70
     0
102
RTVSPropertyOp32
 70
     0
  0
XRECORD
  5
9D8
102
{ACAD_REACTORS
330
9D7
102
}
330
9D7
100
AcDbXrecord
280
     1
102
RTVSPropertyOp0
 70
     1
102
RTVSPropertyOp1
 70
     1
102
RTVSPropertyOp2
 70
     1
102
RTVSPropertyOp3
 70
     1
102
RTVSPropertyOp4
 70
     1
102
RTVSPropertyOp5
 70
     1
102
RTVSPropertyOp6
 70
     1
102
RTVSPropertyOp7
 70
     1
102
RTVSPropertyOp8
 70
     1
102
RTVSPropertyOp9
 70
     1
102
RTVSPropertyOp10
 70
     1
102
RTVSPropertyOp11
 70
     1
102
RTVSPropertyOp12
 70
     1
102
RTVSPropertyOp13
 70
     1
102
RTVSPropertyOp14
 70
     1
102
RTVSPropertyOp15
 70
     1
102
RTVSPropertyOp16
 70
     1
102
RTVSPropertyOp17
 70
     1
102
RTVSPropertyOp18
 70
     1
102
RTVSPropertyOp19
 70
     1
102
RTVSPropertyOp20
 70
     1
102
RTVSPropertyOp21
 70
     1
102
RTVSPropertyOp22
 70
     1
102
RTVSPropertyOp23
 70
     1
102
RTVSPropertyOp24
 70
     1
102
RTVSPropertyOp25
 70
     1
102
RTVSPropertyOp26
 70
     1
102
RTVSPropertyOp27
 70
     1
102
RTVSPropertyOp28
 70
     1
102
RTVSPropertyOp29
 70
     1
102
RTVSPropertyOp30
 70
     1
102
RTVSPropertyOp31
 70
     1
102
RTVSPropertyOp32
 70
     1
  0
XRECORD
  5
9EE
102
{ACAD_REACTORS
330
9ED
102
}
330
9ED
100
AcDbXrecord
280
     1
102
RTVSPropertyOp0
 70
     1
102
RTVSPropertyOp1
 70
     1
102
RTVSPropertyOp2
 70
     1
102
RTVSPropertyOp3
 70
     1
102
RTVSPropertyOp4
 70
     1
102
RTVSPropertyOp5
 70
     1
102
RTVSPropertyOp6
 70
     1
102
RTVSPropertyOp7
 70
     1
102
RTVSPropertyOp8
 70
     1
102
RTVSPropertyOp9
 70
     1
102
RTVSPropertyOp10
 70
     1
102
RTVSPropertyOp11
 70
     1
102
RTVSPropertyOp12
 70
     1
102
RTVSPropertyOp13
 70
     1
102
RTVSPropertyOp14
 70
     1
102
RTVSPropertyOp15
 70
     1
102
RTVSPropertyOp16
 70
     1
102
RTVSPropertyOp17
 70
     1
102
RTVSPropertyOp18
 70
     1
102
RTVSPropertyOp19
 70
     1
102
RTVSPropertyOp20
 70
     1
102
RTVSPropertyOp21
 70
     1
102
RTVSPropertyOp22
 70
     1
102
RTVSPropertyOp23
 70
     1
102
RTVSPropertyOp24
 70
     1
102
RTVSPropertyOp25
 70
     1
102
RTVSPropertyOp26
 70
     1
102
RTVSPropertyOp27
 70
     1
102
RTVSPropertyOp28
 70
     1
102
RTVSPropertyOp29
 70
     1
102
RTVSPropertyOp30
 70
     1
102
RTVSPropertyOp31
 70
     1
102
RTVSPropertyOp32
 70
     1
  0
XRECORD
  5
9EC
102
{ACAD_REACTORS
330
9EB
102
}
330
9EB
100
AcDbXrecord
280
     1
102
RTVSPropertyOp0
 70
     1
102
RTVSPropertyOp1
 70
     1
102
RTVSPropertyOp2
 70
     1
102
RTVSPropertyOp3
 70
     1
102
RTVSPropertyOp4
 70
     1
102
RTVSPropertyOp5
 70
     1
102
RTVSPropertyOp6
 70
     1
102
RTVSPropertyOp7
 70
     1
102
RTVSPropertyOp8
 70
     1
102
RTVSPropertyOp9
 70
     1
102
RTVSPropertyOp10
 70
     1
102
RTVSPropertyOp11
 70
     1
102
RTVSPropertyOp12
 70
     1
102
RTVSPropertyOp13
 70
     1
102
RTVSPropertyOp14
 70
     1
102
RTVSPropertyOp15
 70
     1
102
RTVSPropertyOp16
 70
     1
102
RTVSPropertyOp17
 70
     1
102
RTVSPropertyOp18
 70
     1
102
RTVSPropertyOp19
 70
     1
102
RTVSPropertyOp20
 70
     1
102
RTVSPropertyOp21
 70
     1
102
RTVSPropertyOp22
 70
     1
102
RTVSPropertyOp23
 70
     1
102
RTVSPropertyOp24
 70
     1
102
RTVSPropertyOp25
 70
     1
102
RTVSPropertyOp26
 70
     1
102
RTVSPropertyOp27
 70
     1
102
RTVSPropertyOp28
 70
     1
102
RTVSPropertyOp29
 70
     1
102
RTVSPropertyOp30
 70
     1
102
RTVSPropertyOp31
 70
     1
102
RTVSPropertyOp32
 70
     1
  0
XRECORD
  5
9E6
102
{ACAD_REACTORS
330
9E5
102
}
330
9E5
100
AcDbXrecord
280
     1
102
RTVSPropertyOp0
 70
     1
102
RTVSPropertyOp1
 70
     1
102
RTVSPropertyOp2
 70
     1
102
RTVSPropertyOp3
 70
     1
102
RTVSPropertyOp4
 70
     1
102
RTVSPropertyOp5
 70
     1
102
RTVSPropertyOp6
 70
     1
102
RTVSPropertyOp7
 70
     1
102
RTVSPropertyOp8
 70
     1
102
RTVSPropertyOp9
 70
     1
102
RTVSPropertyOp10
 70
     1
102
RTVSPropertyOp11
 70
     1
102
RTVSPropertyOp12
 70
     1
102
RTVSPropertyOp13
 70
     1
102
RTVSPropertyOp14
 70
     1
102
RTVSPropertyOp15
 70
     1
102
RTVSPropertyOp16
 70
     1
102
RTVSPropertyOp17
 70
     1
102
RTVSPropertyOp18
 70
     1
102
RTVSPropertyOp19
 70
     1
102
RTVSPropertyOp20
 70
     1
102
RTVSPropertyOp21
 70
     1
102
RTVSPropertyOp22
 70
     1
102
RTVSPropertyOp23
 70
     1
102
RTVSPropertyOp24
 70
     1
102
RTVSPropertyOp25
 70
     1
102
RTVSPropertyOp26
 70
     1
102
RTVSPropertyOp27
 70
     1
102
RTVSPropertyOp28
 70
     1
102
RTVSPropertyOp29
 70
     1
102
RTVSPropertyOp30
 70
     1
102
RTVSPropertyOp31
 70
     1
102
RTVSPropertyOp32
 70
     1
  0
XRECORD
  5
9E8
102
{ACAD_REACTORS
330
9E7
102
}
330
9E7
100
AcDbXrecord
280
     1
102
RTVSPropertyOp0
 70
     1
102
RTVSPropertyOp1
 70
     1
102
RTVSPropertyOp2
 70
     1
102
RTVSPropertyOp3
 70
     1
102
RTVSPropertyOp4
 70
     1
102
RTVSPropertyOp5
 70
     1
102
RTVSPropertyOp6
 70
     1
102
RTVSPropertyOp7
 70
     1
102
RTVSPropertyOp8
 70
     1
102
RTVSPropertyOp9
 70
     1
102
RTVSPropertyOp10
 70
     1
102
RTVSPropertyOp11
 70
     1
102
RTVSPropertyOp12
 70
     1
102
RTVSPropertyOp13
 70
     1
102
RTVSPropertyOp14
 70
     1
102
RTVSPropertyOp15
 70
     1
102
RTVSPropertyOp16
 70
     1
102
RTVSPropertyOp17
 70
     1
102
RTVSPropertyOp18
 70
     1
102
RTVSPropertyOp19
 70
     1
102
RTVSPropertyOp20
 70
     1
102
RTVSPropertyOp21
 70
     1
102
RTVSPropertyOp22
 70
     1
102
RTVSPropertyOp23
 70
     1
102
RTVSPropertyOp24
 70
     1
102
RTVSPropertyOp25
 70
     1
102
RTVSPropertyOp26
 70
     1
102
RTVSPropertyOp27
 70
     1
102
RTVSPropertyOp28
 70
     1
102
RTVSPropertyOp29
 70
     1
102
RTVSPropertyOp30
 70
     1
102
RTVSPropertyOp31
 70
     1
102
RTVSPropertyOp32
 70
     1
  0
XRECORD
  5
9DE
102
{ACAD_REACTORS
330
9DD
102
}
330
9DD
100
AcDbXrecord
280
     1
102
RTVSPropertyOp0
 70
     1
102
RTVSPropertyOp1
 70
     1
102
RTVSPropertyOp2
 70
     1
102
RTVSPropertyOp3
 70
     1
102
RTVSPropertyOp4
 70
     1
102
RTVSPropertyOp5
 70
     1
102
RTVSPropertyOp6
 70
     1
102
RTVSPropertyOp7
 70
     1
102
RTVSPropertyOp8
 70
     1
102
RTVSPropertyOp9
 70
     1
102
RTVSPropertyOp10
 70
     1
102
RTVSPropertyOp11
 70
     1
102
RTVSPropertyOp12
 70
     1
102
RTVSPropertyOp13
 70
     1
102
RTVSPropertyOp14
 70
     1
102
RTVSPropertyOp15
 70
     1
102
RTVSPropertyOp16
 70
     1
102
RTVSPropertyOp17
 70
     1
102
RTVSPropertyOp18
 70
     1
102
RTVSPropertyOp19
 70
     1
102
RTVSPropertyOp20
 70
     1
102
RTVSPropertyOp21
 70
     1
102
RTVSPropertyOp22
 70
     1
102
RTVSPropertyOp23
 70
     1
102
RTVSPropertyOp24
 70
     1
102
RTVSPropertyOp25
 70
     1
102
RTVSPropertyOp26
 70
     1
102
RTVSPropertyOp27
 70
     1
102
RTVSPropertyOp28
 70
     1
102
RTVSPropertyOp29
 70
     1
102
RTVSPropertyOp30
 70
     1
102
RTVSPropertyOp31
 70
     1
102
RTVSPropertyOp32
 70
     1
  0
XRECORD
  5
9D2
102
{ACAD_REACTORS
330
9D1
102
}
330
9D1
100
AcDbXrecord
280
     1
102
RTVSPropertyOp0
 70
     1
102
RTVSPropertyOp1
 70
     1
102
RTVSPropertyOp2
 70
     1
102
RTVSPropertyOp3
 70
     1
102
RTVSPropertyOp4
 70
     1
102
RTVSPropertyOp5
 70
     1
102
RTVSPropertyOp6
 70
     1
102
RTVSPropertyOp7
 70
     1
102
RTVSPropertyOp8
 70
     1
102
RTVSPropertyOp9
 70
     1
102
RTVSPropertyOp10
 70
     1
102
RTVSPropertyOp11
 70
     1
102
RTVSPropertyOp12
 70
     1
102
RTVSPropertyOp13
 70
     1
102
RTVSPropertyOp14
 70
     1
102
RTVSPropertyOp15
 70
     1
102
RTVSPropertyOp16
 70
     1
102
RTVSPropertyOp17
 70
     1
102
RTVSPropertyOp18
 70
     1
102
RTVSPropertyOp19
 70
     1
102
RTVSPropertyOp20
 70
     1
102
RTVSPropertyOp21
 70
     1
102
RTVSPropertyOp22
 70
     1
102
RTVSPropertyOp23
 70
     1
102
RTVSPropertyOp24
 70
     1
102
RTVSPropertyOp25
 70
     1
102
RTVSPropertyOp26
 70
     1
102
RTVSPropertyOp27
 70
     1
102
RTVSPropertyOp28
 70
     1
102
RTVSPropertyOp29
 70
     1
102
RTVSPropertyOp30
 70
     1
102
RTVSPropertyOp31
 70
     1
102
RTVSPropertyOp32
 70
     1
  0
XRECORD
  5
9EA
102
{ACAD_REACTORS
330
9E9
102
}
330
9E9
100
AcDbXrecord
280
     1
102
RTVSPropertyOp0
 70
     1
102
RTVSPropertyOp1
 70
     1
102
RTVSPropertyOp2
 70
     1
102
RTVSPropertyOp3
 70
     1
102
RTVSPropertyOp4
 70
     1
102
RTVSPropertyOp5
 70
     1
102
RTVSPropertyOp6
 70
     1
102
RTVSPropertyOp7
 70
     1
102
RTVSPropertyOp8
 70
     1
102
RTVSPropertyOp9
 70
     1
102
RTVSPropertyOp10
 70
     1
102
RTVSPropertyOp11
 70
     1
102
RTVSPropertyOp12
 70
     1
102
RTVSPropertyOp13
 70
     1
102
RTVSPropertyOp14
 70
     1
102
RTVSPropertyOp15
 70
     1
102
RTVSPropertyOp16
 70
     1
102
RTVSPropertyOp17
 70
     1
102
RTVSPropertyOp18
 70
     1
102
RTVSPropertyOp19
 70
     1
102
RTVSPropertyOp20
 70
     1
102
RTVSPropertyOp21
 70
     1
102
RTVSPropertyOp22
 70
     1
102
RTVSPropertyOp23
 70
     1
102
RTVSPropertyOp24
 70
     1
102
RTVSPropertyOp25
 70
     1
102
RTVSPropertyOp26
 70
     1
102
RTVSPropertyOp27
 70
     1
102
RTVSPropertyOp28
 70
     1
102
RTVSPropertyOp29
 70
     1
102
RTVSPropertyOp30
 70
     1
102
RTVSPropertyOp31
 70
     1
102
RTVSPropertyOp32
 70
     1
  0
ENDSEC
  0
EOF
