  0
SECTION
  2
HEADER
  9
$ACADVER
  1
AC1015
  9
$ACADMAINTVER
 70
    20
  9
$DWGCODEPAGE
  3
ANSI_932
  9
$INSBASE
 10
0.0
 20
0.0
 30
0.0
  9
$EXTMIN
 10
854.1259380000001
 20
556.3086083217706
 30
0.0
  9
$EXTMAX
 10
1142.219200091707
 20
838.6107877299998
 30
0.0
  9
$LIMMIN
 10
854.1249159999999
 20
557.4876469999998
  9
$LIMMAX
 10
1046.126977
 20
838.611779
  9
$ORTHOMODE
 70
     1
  9
$REGENMODE
 70
     1
  9
$FILLMODE
 70
     1
  9
$QTEXTMODE
 70
     0
  9
$MIRRTEXT
 70
     0
  9
$LTSCALE
 40
4.685369
  9
$ATTMODE
 70
     1
  9
$TEXTSIZE
 40
3.2
  9
$TRACEWID
 40
0.05
  9
$TEXTSTYLE
  7
高3.2
  9
$CLAYER
  8
0
  9
$CELTYPE
  6
CONTINUOUS
  9
$CECOLOR
 62
   256
  9
$CELTSCALE
 40
1.0
  9
$DISPSILH
 70
     0
  9
$DIMSCALE
 40
1.0
  9
$DIMASZ
 40
2.5
  9
$DIMEXO
 40
0.25
  9
$DIMDLI
 40
0.2
  9
$DIMRND
 40
0.0
  9
$DIMDLE
 40
0.0
  9
$DIMEXE
 40
1.25
  9
$DIMTP
 40
0.0
  9
$DIMTM
 40
0.0
  9
$DIMTXT
 40
3.0
  9
$DIMCEN
 40
0.0
  9
$DIMTSZ
 40
0.0
  9
$DIMTOL
 70
     0
  9
$DIMLIM
 70
     0
  9
$DIMTIH
 70
     0
  9
$DIMTOH
 70
     0
  9
$DIMSE1
 70
     0
  9
$DIMSE2
 70
     0
  9
$DIMTAD
 70
     3
  9
$DIMZIN
 70
     8
  9
$DIMBLK
  1
Open30
  9
$DIMASO
 70
     1
  9
$DIMSHO
 70
     1
  9
$DIMPOST
  1

  9
$DIMAPOST
  1

  9
$DIMALT
 70
     0
  9
$DIMALTD
 70
     3
  9
$DIMALTF
 40
0.03937007874016
  9
$DIMLFAC
 40
2.0
  9
$DIMTOFL
 70
     1
  9
$DIMTVP
 40
0.0
  9
$DIMTIX
 70
     0
  9
$DIMSOXD
 70
     0
  9
$DIMSAH
 70
     0
  9
$DIMBLK1
  1

  9
$DIMBLK2
  1

  9
$DIMSTYLE
  2
1／2
  9
$DIMCLRD
 70
     0
  9
$DIMCLRE
 70
     0
  9
$DIMCLRT
 70
     4
  9
$DIMTFAC
 40
1.0
  9
$DIMGAP
 40
0.625
  9
$DIMJUST
 70
     0
  9
$DIMSD1
 70
     0
  9
$DIMSD2
 70
     0
  9
$DIMTOLJ
 70
     0
  9
$DIMTZIN
 70
     8
  9
$DIMALTZ
 70
     0
  9
$DIMALTTZ
 70
     0
  9
$DIMUPT
 70
     1
  9
$DIMDEC
 70
     2
  9
$DIMTDEC
 70
     2
  9
$DIMALTU
 70
     2
  9
$DIMALTTD
 70
     3
  9
$DIMTXSTY
  7
STANDARD
  9
$DIMAUNIT
 70
     0
  9
$DIMADEC
 70
     1
  9
$DIMALTRND
 40
0.0
  9
$DIMAZIN
 70
     2
  9
$DIMDSEP
 70
    46
  9
$DIMATFIT
 70
     0
  9
$DIMFRAC
 70
     0
  9
$DIMLDRBLK
  1
Open30
  9
$DIMLUNIT
 70
     2
  9
$DIMLWD
 70
    -2
  9
$DIMLWE
 70
    -2
  9
$DIMTMOVE
 70
     0
  9
$LUNITS
 70
     2
  9
$LUPREC
 70
     4
  9
$SKETCHINC
 40
0.1
  9
$FILLETRAD
 40
0.0
  9
$AUNITS
 70
     0
  9
$AUPREC
 70
     0
  9
$MENU
  1
.
  9
$ELEVATION
 40
0.0
  9
$PELEVATION
 40
0.0
  9
$THICKNESS
 40
0.0
  9
$LIMCHECK
 70
     0
  9
$CHAMFERA
 40
0.0
  9
$CHAMFERB
 40
0.0
  9
$CHAMFERC
 40
0.0
  9
$CHAMFERD
 40
0.0
  9
$SKPOLY
 70
     0
  9
$TDCREATE
 40
2456071.806602292
  9
$TDUCREATE
 40
2456071.431602292
  9
$TDUPDATE
 40
2457351.761790961
  9
$TDUUPDATE
 40
2457351.386790961
  9
$TDINDWG
 40
0.0385084954
  9
$TDUSRTIMER
 40
0.0385082292
  9
$USRTIMER
 70
     1
  9
$ANGBASE
 50
0.0
  9
$ANGDIR
 70
     0
  9
$PDMODE
 70
     0
  9
$PDSIZE
 40
0.0
  9
$PLINEWID
 40
0.0
  9
$SPLFRAME
 70
     0
  9
$SPLINETYPE
 70
     6
  9
$SPLINESEGS
 70
     8
  9
$HANDSEED
  5
DDD
  9
$SURFTAB1
 70
     6
  9
$SURFTAB2
 70
     6
  9
$SURFTYPE
 70
     6
  9
$SURFU
 70
     6
  9
$SURFV
 70
     6
  9
$UCSBASE
  2

  9
$UCSNAME
  2

  9
$UCSORG
 10
0.0
 20
0.0
 30
0.0
  9
$UCSXDIR
 10
1.0
 20
0.0
 30
0.0
  9
$UCSYDIR
 10
0.0
 20
1.0
 30
0.0
  9
$UCSORTHOREF
  2

  9
$UCSORTHOVIEW
 70
     0
  9
$UCSORGTOP
 10
0.0
 20
0.0
 30
0.0
  9
$UCSORGBOTTOM
 10
0.0
 20
0.0
 30
0.0
  9
$UCSORGLEFT
 10
0.0
 20
0.0
 30
0.0
  9
$UCSORGRIGHT
 10
0.0
 20
0.0
 30
0.0
  9
$UCSORGFRONT
 10
0.0
 20
0.0
 30
0.0
  9
$UCSORGBACK
 10
0.0
 20
0.0
 30
0.0
  9
$PUCSBASE
  2

  9
$PUCSNAME
  2

  9
$PUCSORG
 10
0.0
 20
0.0
 30
0.0
  9
$PUCSXDIR
 10
1.0
 20
0.0
 30
0.0
  9
$PUCSYDIR
 10
0.0
 20
1.0
 30
0.0
  9
$PUCSORTHOREF
  2

  9
$PUCSORTHOVIEW
 70
     0
  9
$PUCSORGTOP
 10
0.0
 20
0.0
 30
0.0
  9
$PUCSORGBOTTOM
 10
0.0
 20
0.0
 30
0.0
  9
$PUCSORGLEFT
 10
0.0
 20
0.0
 30
0.0
  9
$PUCSORGRIGHT
 10
0.0
 20
0.0
 30
0.0
  9
$PUCSORGFRONT
 10
0.0
 20
0.0
 30
0.0
  9
$PUCSORGBACK
 10
0.0
 20
0.0
 30
0.0
  9
$USERI1
 70
     0
  9
$USERI2
 70
     0
  9
$USERI3
 70
     0
  9
$USERI4
 70
     0
  9
$USERI5
 70
     0
  9
$USERR1
 40
0.0
  9
$USERR2
 40
0.0
  9
$USERR3
 40
0.0
  9
$USERR4
 40
0.0
  9
$USERR5
 40
0.0
  9
$WORLDVIEW
 70
     1
  9
$SHADEDGE
 70
     3
  9
$SHADEDIF
 70
    70
  9
$TILEMODE
 70
     1
  9
$MAXACTVP
 70
    64
  9
$PINSBASE
 10
0.0
 20
0.0
 30
0.0
  9
$PLIMCHECK
 70
     0
  9
$PEXTMIN
 10
1.000000000000000E+20
 20
1.000000000000000E+20
 30
1.000000000000000E+20
  9
$PEXTMAX
 10
-1.000000000000000E+20
 20
-1.000000000000000E+20
 30
-1.000000000000000E+20
  9
$PLIMMIN
 10
0.0
 20
0.0
  9
$PLIMMAX
 10
12.0
 20
9.0
  9
$UNITMODE
 70
     0
  9
$VISRETAIN
 70
     1
  9
$PLINEGEN
 70
     0
  9
$PSLTSCALE
 70
     1
  9
$TREEDEPTH
 70
  3020
  9
$CMLSTYLE
  2
Standard
  9
$CMLJUST
 70
     0
  9
$CMLSCALE
 40
1.0
  9
$PROXYGRAPHICS
 70
     1
  9
$MEASUREMENT
 70
     0
  9
$CELWEIGHT
370
    -1
  9
$ENDCAPS
280
     0
  9
$JOINSTYLE
280
     0
  9
$LWDISPLAY
290
     0
  9
$INSUNITS
 70
     0
  9
$HYPERLINKBASE
  1

  9
$STYLESHEET
  1

  9
$XEDIT
290
     1
  9
$CEPSNTYPE
380
     0
  9
$PSTYLEMODE
290
     1
  9
$FINGERPRINTGUID
  2
{00E3F84E-7B37-491D-B02B-D774940D975C}
  9
$VERSIONGUID
  2
{85F104BB-BA68-41C1-85C7-4D900C681CF8}
  9
$EXTNAMES
290
     1
  9
$PSVPSCALE
 40
0.0
  9
$OLESTARTUP
290
     0
  0
ENDSEC
  0
SECTION
  2
CLASSES
  0
CLASS
  1
ACDBDICTIONARYWDFLT
  2
AcDbDictionaryWithDefault
  3
ObjectDBX Classes
 90
        0
280
     0
281
     0
  0
CLASS
  1
MATERIAL
  2
AcDbMaterial
  3
ObjectDBX Classes
 90
     1153
280
     0
281
     0
  0
CLASS
  1
VISUALSTYLE
  2
AcDbVisualStyle
  3
ObjectDBX Classes
 90
     4095
280
     0
281
     0
  0
CLASS
  1
SCALE
  2
AcDbScale
  3
ObjectDBX Classes
 90
     1153
280
     0
281
     0
  0
CLASS
  1
TABLESTYLE
  2
AcDbTableStyle
  3
ObjectDBX Classes
 90
     4095
280
     0
281
     0
  0
CLASS
  1
MLEADERSTYLE
  2
AcDbMLeaderStyle
  3
ACDB_MLEADERSTYLE_CLASS
 90
     4095
280
     0
281
     0
  0
CLASS
  1
SORTENTSTABLE
  2
AcDbSortentsTable
  3
ObjectDBX Classes
 90
        0
280
     0
281
     0
  0
CLASS
  1
DICTIONARYVAR
  2
AcDbDictionaryVar
  3
ObjectDBX Classes
 90
        0
280
     0
281
     0
  0
CLASS
  1
CELLSTYLEMAP
  2
AcDbCellStyleMap
  3
ObjectDBX Classes
 90
     1152
280
     0
281
     0
  0
CLASS
  1
ACDBPLACEHOLDER
  2
AcDbPlaceHolder
  3
ObjectDBX Classes
 90
        0
280
     0
281
     0
  0
CLASS
  1
LAYOUT
  2
AcDbLayout
  3
ObjectDBX Classes
 90
        0
280
     0
281
     0
  0
CLASS
  1
AEC_REFEDIT_STATUS_TRACKER
  2
AecDbRefEditStatusTracker
  3
AecArchBase60|Product Desc: Autodesk Architectural Desktop 2007 |Company: Autodesk,Inc. |WEB Address: www.autodesk.com
 90
      129
280
     0
281
     0
  0
CLASS
  1
NPOCOLLECTION
  2
AcDbImpNonPersistentObjectsCollection
  3
ObjectDBX Classes
 90
     1153
280
     0
281
     0
  0
ENDSEC
  0
SECTION
  2
TABLES
  0
TABLE
  2
VPORT
  5
8
330
0
100
AcDbSymbolTable
 70
     1
  0
VPORT
  5
8B
330
8
100
AcDbSymbolTableRecord
100
AcDbViewportTableRecord
  2
*Active
 70
     0
 10
0.0
 20
0.0
 11
1.0
 21
1.0
 12
935.6175514720565
 22
645.6180402784343
 13
0.0
 23
0.0
 14
1.0
 24
1.0
 15
0.0
 25
0.0
 16
0.0
 26
0.0
 36
1.0
 17
0.0
 27
0.0
 37
0.0
 40
590.9087943089247
 41
1.973776223776223
 42
50.0
 43
0.0
 44
0.0
 50
0.0
 51
0.0
 71
     0
 72
   100
 73
     1
 74
     1
 75
     0
 76
     0
 77
     0
 78
     0
281
     0
 65
     1
110
0.0
120
0.0
130
0.0
111
1.0
121
0.0
131
0.0
112
0.0
122
1.0
132
0.0
 79
     0
146
0.0
  0
ENDTAB
  0
TABLE
  2
LTYPE
  5
5
330
0
100
AcDbSymbolTable
 70
     2
  0
LTYPE
  5
5A
330
5
100
AcDbSymbolTableRecord
100
AcDbLinetypeTableRecord
  2
ByBlock
 70
     0
  3

 72
    65
 73
     0
 40
0.0
  0
LTYPE
  5
5B
330
5
100
AcDbSymbolTableRecord
100
AcDbLinetypeTableRecord
  2
ByLayer
 70
     0
  3

 72
    65
 73
     0
 40
0.0
  0
LTYPE
  5
5C
330
5
100
AcDbSymbolTableRecord
100
AcDbLinetypeTableRecord
  2
CONTINUOUS
 70
     0
  3
Solid-line
 72
    65
 73
     0
 40
0.0
  0
ENDTAB
  0
TABLE
  2
LAYER
  5
2
102
{ACAD_XDICTIONARY
360
2E4
102
}
330
0
100
AcDbSymbolTable
 70
     2
  0
LAYER
  5
54
102
{ACAD_XDICTIONARY
360
4E1
102
}
330
2
100
AcDbSymbolTableRecord
100
AcDbLayerTableRecord
  2
0
 70
     0
 62
     7
  6
CONTINUOUS
370
    -3
390
F
  0
LAYER
  5
2CF
330
2
100
AcDbSymbolTableRecord
100
AcDbLayerTableRecord
  2
Defpoints
 70
     0
 62
     7
  6
CONTINUOUS
290
     0
370
    -3
390
F
  0
ENDTAB
  0
TABLE
  2
STYLE
  5
3
330
0
100
AcDbSymbolTable
 70
     6
  0
STYLE
  5
55
330
3
100
AcDbSymbolTableRecord
100
AcDbTextStyleTableRecord
  2
STANDARD
 70
     0
 40
0.0
 41
1.0
 50
0.0
 71
     0
 42
0.2
  3
TXT
  4
BIGFONT
  0
STYLE
  5
2D0
330
3
100
AcDbSymbolTableRecord
100
AcDbTextStyleTableRecord
  2
高3.2
 70
     0
 40
3.2
 41
1.0
 50
0.0
 71
     0
 42
3.2
  3
txt.shx
  4
bigfont.shx
  0
STYLE
  5
2D1
330
3
100
AcDbSymbolTableRecord
100
AcDbTextStyleTableRecord
  2
高6.3
 70
     0
 40
6.299999999999998
 41
1.0
 50
0.0
 71
     0
 42
6.299999999999998
  3
txt.shx
  4
bigfont.shx
  0
STYLE
  5
2D2
330
3
100
AcDbSymbolTableRecord
100
AcDbTextStyleTableRecord
  2
高2.5
 70
     0
 40
2.5
 41
1.0
 50
0.0
 71
     0
 42
0.2
  3
txt.shx
  4
bigfont.shx
  0
STYLE
  5
2D3
330
3
100
AcDbSymbolTableRecord
100
AcDbTextStyleTableRecord
  2
高4.5
 70
     0
 40
4.5
 41
1.0
 50
0.0
 71
     0
 42
6.299999999999998
  3
txt.shx
  4
bigfont.shx
  0
STYLE
  5
2D4
330
3
100
AcDbSymbolTableRecord
100
AcDbTextStyleTableRecord
  2
高2
 70
     0
 40
2.0
 41
1.0
 50
0.0
 71
     0
 42
2.0
  3
txt.shx
  4
bigfont.shx
  0
ENDTAB
  0
TABLE
  2
VIEW
  5
6
330
0
100
AcDbSymbolTable
 70
     0
  0
ENDTAB
  0
TABLE
  2
UCS
  5
7
330
0
100
AcDbSymbolTable
 70
     0
  0
ENDTAB
  0
TABLE
  2
APPID
  5
9
330
0
100
AcDbSymbolTable
 70
    10
  0
APPID
  5
56
330
9
100
AcDbSymbolTableRecord
100
AcDbRegAppTableRecord
  2
ACAD
 70
     0
  0
APPID
  5
5D
330
9
100
AcDbSymbolTableRecord
100
AcDbRegAppTableRecord
  2
AcadAnnotative
 70
     0
  0
APPID
  5
2DF
330
9
100
AcDbSymbolTableRecord
100
AcDbRegAppTableRecord
  2
ACAD_DSTYLE_DIMJOGGED_JOGANGLE_SYMBOL
 70
     0
  0
APPID
  5
2E0
330
9
100
AcDbSymbolTableRecord
100
AcDbRegAppTableRecord
  2
ACAD_DSTYLE_DIMJAG
 70
     0
  0
APPID
  5
2E1
330
9
100
AcDbSymbolTableRecord
100
AcDbRegAppTableRecord
  2
ACAD_DSTYLE_DIMBREAK
 70
     0
  0
APPID
  5
2E2
330
9
100
AcDbSymbolTableRecord
100
AcDbRegAppTableRecord
  2
ACAD_DSTYLE_DIMTALN
 70
     0
  0
APPID
  5
42E
330
9
100
AcDbSymbolTableRecord
100
AcDbRegAppTableRecord
  2
ACAD_EXEMPT_FROM_CAD_STANDARDS
 70
     0
  0
APPID
  5
529
330
9
100
AcDbSymbolTableRecord
100
AcDbRegAppTableRecord
  2
ACAD_MLEADERVER
 70
     0
  0
APPID
  5
52E
330
9
100
AcDbSymbolTableRecord
100
AcDbRegAppTableRecord
  2
ACAD_DSTYLE_DIMARC_LENGTH_SYMBOL
 70
     0
  0
APPID
  5
52F
330
9
100
AcDbSymbolTableRecord
100
AcDbRegAppTableRecord
  2
ACAD_DSTYLE_DIMEXT_LENGTH
 70
     0
  0
ENDTAB
  0
TABLE
  2
DIMSTYLE
  5
A
330
0
100
AcDbSymbolTable
 70
    11
100
AcDbDimStyleTable
 71
     2
340
2D9
340
57
  0
DIMSTYLE
105
57
330
A
100
AcDbSymbolTableRecord
100
AcDbDimStyleTableRecord
  2
Standard
 70
     0
340
55
  0
DIMSTYLE
105
2D9
330
A
100
AcDbSymbolTableRecord
100
AcDbDimStyleTableRecord
  2
1／2
 70
     0
 41
2.5
 42
0.25
 43
0.2
 44
1.25
 73
     0
 74
     0
 77
     3
 78
     8
 79
     2
140
3.0
141
0.0
143
0.03937007874016
144
2.0
147
0.625
171
     3
172
     1
178
     4
179
     1
271
     2
272
     2
274
     3
283
     0
284
     8
288
     1
289
     0
340
55
341
23F
342
23F
1001
ACAD_DSTYLE_DIMARC_LENGTH_SYMBOL
1070
   379
1070
     2
1001
ACAD_DSTYLE_DIMEXT_LENGTH
1070
   378
1040
1.25
1001
ACAD_DSTYLE_DIMJOGGED_JOGANGLE_SYMBOL
1070
   384
1040
1.570796326794896
  0
DIMSTYLE
105
5E5
330
A
100
AcDbSymbolTableRecord
100
AcDbDimStyleTableRecord
  2
1：1
 70
     0
 41
2.5
 42
0.25
 43
0.2
 44
1.25
 73
     0
 74
     0
 77
     3
 78
     8
 79
     2
140
3.0
141
0.0
143
0.03937007874016
147
0.625
171
     3
172
     1
178
     4
179
     1
271
     2
272
     2
274
     3
283
     0
284
     8
288
     1
289
     0
340
55
341
23F
342
23F
1001
ACAD_DSTYLE_DIMARC_LENGTH_SYMBOL
1070
   379
1070
     2
1001
ACAD_DSTYLE_DIMEXT_LENGTH
1070
   378
1040
1.25
1001
ACAD_DSTYLE_DIMJOGGED_JOGANGLE_SYMBOL
1070
   384
1040
1.570796326794896
  0
DIMSTYLE
105
5E6
330
A
100
AcDbSymbolTableRecord
100
AcDbDimStyleTableRecord
  2
2：1
 70
     0
 41
2.5
 42
0.25
 43
0.2
 44
1.25
 73
     0
 74
     0
 77
     3
 78
     8
 79
     2
140
3.0
141
0.0
143
0.03937007874016
144
0.5
147
0.625
171
     3
172
     1
178
     4
179
     1
271
     2
272
     2
274
     3
283
     0
284
     8
288
     1
289
     0
340
55
341
23F
342
23F
1001
ACAD_DSTYLE_DIMARC_LENGTH_SYMBOL
1070
   379
1070
     2
1001
ACAD_DSTYLE_DIMEXT_LENGTH
1070
   378
1040
1.25
1001
ACAD_DSTYLE_DIMJOGGED_JOGANGLE_SYMBOL
1070
   384
1040
1.570796326794896
  0
DIMSTYLE
105
5E7
330
A
100
AcDbSymbolTableRecord
100
AcDbDimStyleTableRecord
  2
5：1
 70
     0
 41
2.5
 42
0.25
 43
0.2
 44
1.25
 73
     0
 74
     0
 77
     3
 78
     8
 79
     2
140
3.0
141
0.0
143
0.03937007874016
144
0.2
147
0.625
171
     3
172
     1
178
     4
179
     1
271
     2
272
     2
274
     3
283
     0
284
     8
288
     1
289
     0
340
55
341
23F
342
23F
1001
ACAD_DSTYLE_DIMARC_LENGTH_SYMBOL
1070
   379
1070
     2
1001
ACAD_DSTYLE_DIMEXT_LENGTH
1070
   378
1040
1.25
1001
ACAD_DSTYLE_DIMJOGGED_JOGANGLE_SYMBOL
1070
   384
1040
1.570796326794896
  0
DIMSTYLE
105
5E8
330
A
100
AcDbSymbolTableRecord
100
AcDbDimStyleTableRecord
  2
10：1
 70
     0
 41
2.5
 42
0.25
 43
0.2
 44
1.25
 73
     0
 74
     0
 77
     3
 78
     8
 79
     2
140
3.0
141
0.0
143
0.03937007874016
144
0.1
147
0.625
171
     3
172
     1
178
     4
179
     1
271
     2
272
     2
274
     3
283
     0
284
     8
288
     1
289
     0
340
55
341
23F
342
23F
1001
ACAD_DSTYLE_DIMARC_LENGTH_SYMBOL
1070
   379
1070
     2
1001
ACAD_DSTYLE_DIMEXT_LENGTH
1070
   378
1040
1.25
1001
ACAD_DSTYLE_DIMJOGGED_JOGANGLE_SYMBOL
1070
   384
1040
1.570796326794896
  0
DIMSTYLE
105
5E9
330
A
100
AcDbSymbolTableRecord
100
AcDbDimStyleTableRecord
  2
1／5
 70
     0
 41
2.5
 42
0.25
 43
0.2
 44
1.25
 73
     0
 74
     0
 77
     3
 78
     8
 79
     2
140
3.0
141
0.0
143
0.03937007874016
144
5.0
147
0.625
171
     3
172
     1
178
     4
179
     1
271
     2
272
     2
274
     3
283
     0
284
     8
288
     1
289
     0
340
55
341
23F
342
23F
1001
ACAD_DSTYLE_DIMARC_LENGTH_SYMBOL
1070
   379
1070
     2
1001
ACAD_DSTYLE_DIMEXT_LENGTH
1070
   378
1040
1.25
1001
ACAD_DSTYLE_DIMJOGGED_JOGANGLE_SYMBOL
1070
   384
1040
1.570796326794896
  0
DIMSTYLE
105
5EA
330
A
100
AcDbSymbolTableRecord
100
AcDbDimStyleTableRecord
  2
1／10
 70
     0
 41
2.5
 42
0.25
 43
0.2
 44
1.25
 73
     0
 74
     0
 77
     3
 78
     8
 79
     2
140
3.0
141
0.0
143
0.03937007874016
144
10.0
147
0.625
171
     3
172
     1
178
     4
179
     1
271
     2
272
     2
274
     3
283
     0
284
     8
288
     1
289
     0
340
55
341
23F
342
23F
1001
ACAD_DSTYLE_DIMARC_LENGTH_SYMBOL
1070
   379
1070
     2
1001
ACAD_DSTYLE_DIMEXT_LENGTH
1070
   378
1040
1.25
1001
ACAD_DSTYLE_DIMJOGGED_JOGANGLE_SYMBOL
1070
   384
1040
1.570796326794896
  0
DIMSTYLE
105
5EB
330
A
100
AcDbSymbolTableRecord
100
AcDbDimStyleTableRecord
  2
1／4
 70
     0
 41
2.5
 42
0.25
 43
0.2
 44
1.25
 73
     0
 74
     0
 77
     3
 78
     8
 79
     2
140
3.0
141
0.0
143
0.03937007874016
144
4.0
147
0.625
171
     3
172
     1
178
     4
179
     1
271
     2
272
     2
274
     3
283
     0
284
     8
288
     1
289
     0
340
55
341
23F
342
23F
1001
ACAD_DSTYLE_DIMARC_LENGTH_SYMBOL
1070
   379
1070
     2
1001
ACAD_DSTYLE_DIMEXT_LENGTH
1070
   378
1040
1.25
1001
ACAD_DSTYLE_DIMJOGGED_JOGANGLE_SYMBOL
1070
   384
1040
1.570796326794896
  0
DIMSTYLE
105
5EC
330
A
100
AcDbSymbolTableRecord
100
AcDbDimStyleTableRecord
  2
1／3
 70
     0
 41
2.5
 42
0.25
 43
0.2
 44
1.25
 73
     0
 74
     0
 77
     3
 78
     8
 79
     2
140
3.0
141
0.0
143
0.03937007874016
144
3.0
147
0.625
171
     3
172
     1
178
     4
179
     1
271
     2
272
     2
274
     3
283
     0
284
     8
288
     1
289
     0
340
55
341
23F
342
23F
1001
ACAD_DSTYLE_DIMARC_LENGTH_SYMBOL
1070
   379
1070
     2
1001
ACAD_DSTYLE_DIMEXT_LENGTH
1070
   378
1040
1.25
1001
ACAD_DSTYLE_DIMJOGGED_JOGANGLE_SYMBOL
1070
   384
1040
1.570796326794896
  0
DIMSTYLE
105
5ED
330
A
100
AcDbSymbolTableRecord
100
AcDbDimStyleTableRecord
  2
FREE
 70
     0
 41
2.5
 42
0.25
 43
0.2
 44
1.25
 73
     0
 74
     0
 77
     3
 78
     8
 79
     2
140
3.0
141
0.0
143
0.03937007874016
147
0.625
171
     3
172
     1
178
     4
179
     1
271
     2
272
     2
274
     3
283
     0
284
     8
288
     1
289
     0
340
55
341
23F
342
23F
1001
ACAD_DSTYLE_DIMBREAK
1070
   391
1040
3.75
1001
ACAD_DSTYLE_DIMJAG
1070
   388
1040
1.5
1001
ACAD_DSTYLE_DIMTALN
1070
   392
1070
     0
1001
ACAD_DSTYLE_DIMARC_LENGTH_SYMBOL
1070
   379
1070
     2
1001
ACAD_DSTYLE_DIMEXT_LENGTH
1070
   378
1040
1.25
1001
ACAD_DSTYLE_DIMJOGGED_JOGANGLE_SYMBOL
1070
   384
1040
1.570796326794896
  0
ENDTAB
  0
TABLE
  2
BLOCK_RECORD
  5
1
330
0
100
AcDbSymbolTable
 70
    35
  0
BLOCK_RECORD
  5
6B
102
{ACAD_XDICTIONARY
360
D74
102
}
330
1
100
AcDbSymbolTableRecord
100
AcDbBlockTableRecord
  2
*Model_Space
340
6E
  0
BLOCK_RECORD
  5
67
330
1
100
AcDbSymbolTableRecord
100
AcDbBlockTableRecord
  2
*Paper_Space
340
6A
  0
BLOCK_RECORD
  5
23F
330
1
100
AcDbSymbolTableRecord
100
AcDbBlockTableRecord
  2
_Open30
340
0
102
{BLKREFS
331
7F3
331
7F4
331
7FE
331
7FF
331
809
331
80A
331
814
331
815
331
81F
331
820
331
82A
331
82B
331
835
331
836
331
840
331
841
331
84B
331
84C
331
854
331
855
331
8B2
331
8B3
331
8C0
331
8C1
331
8CE
331
8CF
331
8DC
331
8DD
331
8EA
331
8EB
331
8F8
331
8F9
331
906
331
907
331
914
331
915
331
922
331
923
331
92E
331
92F
331
B3A
331
B3B
331
B45
331
B46
331
B50
331
B51
331
B5B
331
B5C
331
B66
331
B67
331
B71
331
B72
331
B7C
331
B7D
331
B87
331
B88
331
B92
331
B93
331
B9B
331
B9C
331
C52
331
C53
331
C5B
331
C5C
331
C6D
331
C6E
102
}
  0
BLOCK_RECORD
  5
3F6
330
1
100
AcDbSymbolTableRecord
100
AcDbBlockTableRecord
  2
*D1
340
0
  0
BLOCK_RECORD
  5
402
330
1
100
AcDbSymbolTableRecord
100
AcDbBlockTableRecord
  2
*D2
340
0
  0
BLOCK_RECORD
  5
418
330
1
100
AcDbSymbolTableRecord
100
AcDbBlockTableRecord
  2
*D3
340
0
  0
BLOCK_RECORD
  5
764
330
1
100
AcDbSymbolTableRecord
100
AcDbBlockTableRecord
  2
*D4
340
0
  0
BLOCK_RECORD
  5
772
330
1
100
AcDbSymbolTableRecord
100
AcDbBlockTableRecord
  2
*D5
340
0
  0
BLOCK_RECORD
  5
780
330
1
100
AcDbSymbolTableRecord
100
AcDbBlockTableRecord
  2
*D6
340
0
  0
BLOCK_RECORD
  5
78E
330
1
100
AcDbSymbolTableRecord
100
AcDbBlockTableRecord
  2
*D7
340
0
  0
BLOCK_RECORD
  5
79C
330
1
100
AcDbSymbolTableRecord
100
AcDbBlockTableRecord
  2
*D8
340
0
  0
BLOCK_RECORD
  5
7AA
330
1
100
AcDbSymbolTableRecord
100
AcDbBlockTableRecord
  2
*D9
340
0
  0
BLOCK_RECORD
  5
7B8
330
1
100
AcDbSymbolTableRecord
100
AcDbBlockTableRecord
  2
*D10
340
0
  0
BLOCK_RECORD
  5
7C6
330
1
100
AcDbSymbolTableRecord
100
AcDbBlockTableRecord
  2
*D11
340
0
  0
BLOCK_RECORD
  5
7D4
330
1
100
AcDbSymbolTableRecord
100
AcDbBlockTableRecord
  2
*D12
340
0
  0
BLOCK_RECORD
  5
7E2
330
1
100
AcDbSymbolTableRecord
100
AcDbBlockTableRecord
  2
*D13
340
0
  0
BLOCK_RECORD
  5
8AB
330
1
100
AcDbSymbolTableRecord
100
AcDbBlockTableRecord
  2
*D14
340
0
  0
BLOCK_RECORD
  5
8B9
330
1
100
AcDbSymbolTableRecord
100
AcDbBlockTableRecord
  2
*D15
340
0
  0
BLOCK_RECORD
  5
8C7
330
1
100
AcDbSymbolTableRecord
100
AcDbBlockTableRecord
  2
*D16
340
0
  0
BLOCK_RECORD
  5
8D5
330
1
100
AcDbSymbolTableRecord
100
AcDbBlockTableRecord
  2
*D17
340
0
  0
BLOCK_RECORD
  5
8E3
330
1
100
AcDbSymbolTableRecord
100
AcDbBlockTableRecord
  2
*D18
340
0
  0
BLOCK_RECORD
  5
8F1
330
1
100
AcDbSymbolTableRecord
100
AcDbBlockTableRecord
  2
*D19
340
0
  0
BLOCK_RECORD
  5
8FF
330
1
100
AcDbSymbolTableRecord
100
AcDbBlockTableRecord
  2
*D20
340
0
  0
BLOCK_RECORD
  5
90D
330
1
100
AcDbSymbolTableRecord
100
AcDbBlockTableRecord
  2
*D21
340
0
  0
BLOCK_RECORD
  5
91B
330
1
100
AcDbSymbolTableRecord
100
AcDbBlockTableRecord
  2
*D22
340
0
  0
BLOCK_RECORD
  5
929
330
1
100
AcDbSymbolTableRecord
100
AcDbBlockTableRecord
  2
*D23
340
0
  0
BLOCK_RECORD
  5
AAB
330
1
100
AcDbSymbolTableRecord
100
AcDbBlockTableRecord
  2
*D24
340
0
  0
BLOCK_RECORD
  5
AB9
330
1
100
AcDbSymbolTableRecord
100
AcDbBlockTableRecord
  2
*D25
340
0
  0
BLOCK_RECORD
  5
AC7
330
1
100
AcDbSymbolTableRecord
100
AcDbBlockTableRecord
  2
*D26
340
0
  0
BLOCK_RECORD
  5
AD5
330
1
100
AcDbSymbolTableRecord
100
AcDbBlockTableRecord
  2
*D27
340
0
  0
BLOCK_RECORD
  5
AE3
330
1
100
AcDbSymbolTableRecord
100
AcDbBlockTableRecord
  2
*D28
340
0
  0
BLOCK_RECORD
  5
AF1
330
1
100
AcDbSymbolTableRecord
100
AcDbBlockTableRecord
  2
*D29
340
0
  0
BLOCK_RECORD
  5
AFF
330
1
100
AcDbSymbolTableRecord
100
AcDbBlockTableRecord
  2
*D30
340
0
  0
BLOCK_RECORD
  5
B0D
330
1
100
AcDbSymbolTableRecord
100
AcDbBlockTableRecord
  2
*D31
340
0
  0
BLOCK_RECORD
  5
B1B
330
1
100
AcDbSymbolTableRecord
100
AcDbBlockTableRecord
  2
*D32
340
0
  0
BLOCK_RECORD
  5
B29
330
1
100
AcDbSymbolTableRecord
100
AcDbBlockTableRecord
  2
*D33
340
0
  0
ENDTAB
  0
ENDSEC
  0
SECTION
  2
BLOCKS
  0
BLOCK
  5
6C
330
6B
100
AcDbEntity
  8
0
100
AcDbBlockBegin
  2
*Model_Space
 70
     0
 10
0.0
 20
0.0
 30
0.0
  3
*Model_Space
  1

  0
ENDBLK
  5
6D
330
6B
100
AcDbEntity
  8
0
100
AcDbBlockEnd
  0
BLOCK
  5
68
330
67
100
AcDbEntity
 67
     1
  8
0
100
AcDbBlockBegin
  2
*Paper_Space
 70
     0
 10
0.0
 20
0.0
 30
0.0
  3
*Paper_Space
  1

  0
ENDBLK
  5
69
330
67
100
AcDbEntity
 67
     1
  8
0
100
AcDbBlockEnd
  0
BLOCK
  5
240
330
23F
100
AcDbEntity
  8
0
100
AcDbBlockBegin
  2
_Open30
 70
     0
 10
0.0
 20
0.0
 30
0.0
  3
_Open30
  1

  0
LINE
  5
241
330
23F
100
AcDbEntity
  8
0
  6
ByBlock
 62
     0
370
    -2
100
AcDbLine
 10
-1.0
 20
0.267949
 30
0.0
 11
0.0
 21
0.0
 31
0.0
  0
LINE
  5
242
330
23F
100
AcDbEntity
  8
0
  6
ByBlock
 62
     0
370
    -2
100
AcDbLine
 10
0.0
 20
0.0
 30
0.0
 11
-1.0
 21
-0.267949
 31
0.0
  0
LINE
  5
243
330
23F
100
AcDbEntity
  8
0
  6
ByBlock
 62
     0
370
    -2
100
AcDbLine
 10
0.0
 20
0.0
 30
0.0
 11
-1.0
 21
0.0
 31
0.0
  0
ENDBLK
  5
244
330
23F
100
AcDbEntity
  8
0
100
AcDbBlockEnd
  0
BLOCK
  5
3F7
330
3F6
100
AcDbEntity
  8
0
100
AcDbBlockBegin
  2
*D1
 70
     1
 10
0.0
 20
0.0
 30
0.0
  3
*D1
  1

  0
LINE
  5
C4F
330
3F6
100
AcDbEntity
  8
0
 62
     0
370
    -2
100
AcDbLine
 10
912.1749409999999
 20
730.0758689999999
 30
0.0
 11
912.1749409999999
 21
776.7441589999998
 31
0.0
  0
LINE
  5
C50
330
3F6
100
AcDbEntity
  8
0
 62
     0
370
    -2
100
AcDbLine
 10
992.174941
 20
730.0758689999999
 30
0.0
 11
992.174941
 21
776.7441589999998
 31
0.0
  0
LINE
  5
C51
330
3F6
100
AcDbEntity
  8
0
 62
     0
370
    -2
100
AcDbLine
 10
914.6749409999999
 20
775.4941589999997
 30
0.0
 11
989.6749409999999
 21
775.4941589999997
 31
0.0
  0
INSERT
  5
C52
330
3F6
100
AcDbEntity
  8
0
 62
     0
370
    -2
100
AcDbBlockReference
  2
_Open30
 10
912.1749409999999
 20
775.4941589999997
 30
0.0
 41
2.5
 42
2.5
 43
2.5
 50
180.0
  0
INSERT
  5
C53
330
3F6
100
AcDbEntity
  8
0
 62
     0
370
    -2
100
AcDbBlockReference
  2
_Open30
 10
992.174941
 20
775.4941589999997
 30
0.0
 41
2.5
 42
2.5
 43
2.5
  0
MTEXT
  5
C54
330
3F6
100
AcDbEntity
  8
0
 62
     4
100
AcDbMText
 10
952.1749409999999
 20
777.6191589999997
 30
0.0
 40
3.0
 41
0.0
 71
     5
 72
     1
  1
%%C160
 73
     1
 44
1.0
1001
ACAD
1000
MTEXTBEGIN
1070
    73
1070
     1
1070
    44
1040
1.0
1070
    74
1070
     0
1000
MTEXTEND
  0
POINT
  5
C55
330
3F6
100
AcDbEntity
  8
Defpoints
 62
     0
100
AcDbPoint
 10
912.1749409999999
 20
729.8258689999999
 30
0.0
  0
POINT
  5
C56
330
3F6
100
AcDbEntity
  8
Defpoints
 62
     0
100
AcDbPoint
 10
992.174941
 20
729.8258689999999
 30
0.0
  0
POINT
  5
C57
330
3F6
100
AcDbEntity
  8
Defpoints
 62
     0
100
AcDbPoint
 10
992.174941
 20
775.4941589999997
 30
0.0
  0
ENDBLK
  5
3F8
330
3F6
100
AcDbEntity
  8
0
100
AcDbBlockEnd
  0
BLOCK
  5
403
330
402
100
AcDbEntity
  8
0
100
AcDbBlockBegin
  2
*D2
 70
     1
 10
0.0
 20
0.0
 30
0.0
  3
*D2
  1

  0
LINE
  5
C58
330
402
100
AcDbEntity
  8
0
 62
     0
370
    -2
100
AcDbLine
 10
951.924941
 20
643.751342
 30
0.0
 11
900.8638900000001
 21
643.751342
 31
0.0
  0
LINE
  5
C59
330
402
100
AcDbEntity
  8
0
 62
     0
370
    -2
100
AcDbLine
 10
951.924941
 20
762.751342
 30
0.0
 11
900.8638900000001
 21
762.751342
 31
0.0
  0
LINE
  5
C5A
330
402
100
AcDbEntity
  8
0
 62
     0
370
    -2
100
AcDbLine
 10
902.11389
 20
646.251342
 30
0.0
 11
902.11389
 21
760.251342
 31
0.0
  0
INSERT
  5
C5B
330
402
100
AcDbEntity
  8
0
 62
     0
370
    -2
100
AcDbBlockReference
  2
_Open30
 10
902.11389
 20
643.751342
 30
0.0
 41
2.5
 42
2.5
 43
2.5
 50
270.0
  0
INSERT
  5
C5C
330
402
100
AcDbEntity
  8
0
 62
     0
370
    -2
100
AcDbBlockReference
  2
_Open30
 10
902.11389
 20
762.751342
 30
0.0
 41
2.5
 42
2.5
 43
2.5
 50
90.0
  0
MTEXT
  5
C5D
330
402
100
AcDbEntity
  8
0
 62
     4
100
AcDbMText
 10
899.98889
 20
703.2513420000002
 30
0.0
 40
3.0
 41
0.0
 71
     5
 72
     1
  1
238
 11
0.0000000000000001
 21
1.0
 31
0.0
 73
     1
 44
1.0
1001
ACAD
1000
MTEXTBEGIN
1070
    73
1070
     1
1070
    44
1040
1.0
1070
    74
1070
     0
1000
MTEXTEND
  0
POINT
  5
C5E
330
402
100
AcDbEntity
  8
Defpoints
 62
     0
100
AcDbPoint
 10
952.1749409999999
 20
643.751342
 30
0.0
  0
POINT
  5
C5F
330
402
100
AcDbEntity
  8
Defpoints
 62
     0
100
AcDbPoint
 10
952.1749409999999
 20
762.751342
 30
0.0
  0
POINT
  5
C60
330
402
100
AcDbEntity
  8
Defpoints
 62
     0
100
AcDbPoint
 10
902.11389
 20
762.751342
 30
0.0
  0
ENDBLK
  5
404
330
402
100
AcDbEntity
  8
0
100
AcDbBlockEnd
  0
BLOCK
  5
419
330
418
100
AcDbEntity
  8
0
100
AcDbBlockBegin
  2
*D3
 70
     1
 10
0.0
 20
0.0
 30
0.0
  3
*D3
  1

  0
LINE
  5
C6A
330
418
100
AcDbEntity
  8
0
  6
Continuous
 62
     0
370
    -2
100
AcDbLine
 10
942.4331107280648
 20
649.326200130278
 30
0.0
 11
942.4331107280648
 21
627.2157294762737
 31
0.0
  0
LINE
  5
C6B
330
418
100
AcDbEntity
  8
0
  6
Continuous
 62
     0
370
    -2
100
AcDbLine
 10
961.9200752719352
 20
650.9970578697217
 30
0.0
 11
961.9200752719352
 21
627.2157294762737
 31
0.0
  0
LINE
  5
C6C
330
418
100
AcDbEntity
  8
0
  6
Continuous
 62
     0
370
    -2
100
AcDbLine
 10
944.9331107280647
 20
628.4657294762737
 30
0.0
 11
959.4200752719352
 21
628.4657294762737
 31
0.0
  0
INSERT
  5
C6D
330
418
100
AcDbEntity
  8
0
  6
Continuous
 62
     0
370
    -2
100
AcDbBlockReference
  2
_Open30
 10
942.4331107280648
 20
628.4657294762737
 30
0.0
 41
2.5
 42
2.5
 43
2.5
 50
180.0
  0
INSERT
  5
C6E
330
418
100
AcDbEntity
  8
0
  6
Continuous
 62
     0
370
    -2
100
AcDbBlockReference
  2
_Open30
 10
961.9200752719352
 20
628.4657294762737
 30
0.0
 41
2.5
 42
2.5
 43
2.5
  0
MTEXT
  5
C6F
330
418
100
AcDbEntity
  8
0
  6
Continuous
 62
     4
100
AcDbMText
 10
952.176593
 20
630.5907294762737
 30
0.0
 40
3.0
 41
0.0
 71
     5
 72
     1
  1
E39
 73
     1
 44
1.0
1001
ACAD
1000
MTEXTBEGIN
1070
    73
1070
     1
1070
    44
1040
1.0
1070
    74
1070
     0
1000
MTEXTEND
  0
POINT
  5
C70
330
418
100
AcDbEntity
  8
Defpoints
  6
Continuous
 62
     0
100
AcDbPoint
 10
942.4331107280648
 20
649.576200130278
 30
0.0
  0
POINT
  5
C71
330
418
100
AcDbEntity
  8
Defpoints
  6
Continuous
 62
     0
100
AcDbPoint
 10
961.9200752719352
 20
651.2470578697217
 30
0.0
  0
POINT
  5
C72
330
418
100
AcDbEntity
  8
Defpoints
  6
Continuous
 62
     0
100
AcDbPoint
 10
961.9200752719352
 20
628.4657294762737
 30
0.0
  0
ENDBLK
  5
41A
330
418
100
AcDbEntity
  8
0
100
AcDbBlockEnd
  0
BLOCK
  5
765
330
764
100
AcDbEntity
  8
0
100
AcDbBlockBegin
  2
*D4
 70
     1
 10
0.0
 20
0.0
 30
0.0
  3
*D4
  1

  0
LINE
  5
7EE
330
764
100
AcDbEntity
  8
0
 62
     0
370
    -2
100
AcDbLine
 10
1405.754656833195
 20
817.233669731882
 30
0.0
 11
1405.754656833195
 21
814.3240383098731
 31
0.0
  0
LINE
  5
7EF
330
764
100
AcDbEntity
  8
0
 62
     0
370
    -2
100
AcDbLine
 10
1403.297469779074
 20
817.233669731882
 30
0.0
 11
1403.297469779074
 21
814.3240383098731
 31
0.0
  0
LINE
  5
7F0
330
764
100
AcDbEntity
  8
0
 62
     0
370
    -2
100
AcDbLine
 10
1408.254656833195
 20
815.5740383098732
 30
0.0
 11
1410.754656833194
 21
815.5740383098732
 31
0.0
  0
LINE
  5
7F1
330
764
100
AcDbEntity
  8
0
 62
     0
370
    -2
100
AcDbLine
 10
1400.797469779074
 20
815.5740383098732
 30
0.0
 11
1388.047469779074
 21
815.5740383098732
 31
0.0
  0
LINE
  5
7F2
330
764
100
AcDbEntity
  8
0
 62
     0
370
    -2
100
AcDbLine
 10
1405.754656833195
 20
815.5740383098732
 30
0.0
 11
1403.297469779074
 21
815.5740383098732
 31
0.0
  0
INSERT
  5
7F3
330
764
100
AcDbEntity
  8
0
 62
     0
370
    -2
100
AcDbBlockReference
  2
_Open30
 10
1405.754656833195
 20
815.5740383098732
 30
0.0
 41
2.5
 42
2.5
 43
2.5
 50
180.0
  0
INSERT
  5
7F4
330
764
100
AcDbEntity
  8
0
 62
     0
370
    -2
100
AcDbBlockReference
  2
_Open30
 10
1403.297469779074
 20
815.5740383098732
 30
0.0
 41
2.5
 42
2.5
 43
2.5
  0
MTEXT
  5
7F5
330
764
100
AcDbEntity
  8
0
 62
     4
100
AcDbMText
 10
1393.172469779074
 20
817.6990383098733
 30
0.0
 40
3.0
 41
0.0
 71
     5
 72
     1
  1
2.46
 73
     1
 44
1.0
1001
ACAD
1000
MTEXTBEGIN
1070
    73
1070
     1
1070
    44
1040
1.0
1070
    74
1070
     0
1000
MTEXTEND
  0
POINT
  5
7F6
330
764
100
AcDbEntity
  8
Defpoints
 62
     0
100
AcDbPoint
 10
1405.754656833195
 20
817.483669731882
 30
0.0
  0
POINT
  5
7F7
330
764
100
AcDbEntity
  8
Defpoints
 62
     0
100
AcDbPoint
 10
1403.297469779074
 20
817.483669731882
 30
0.0
  0
POINT
  5
7F8
330
764
100
AcDbEntity
  8
Defpoints
 62
     0
100
AcDbPoint
 10
1403.297469779074
 20
815.5740383098732
 30
0.0
  0
ENDBLK
  5
766
330
764
100
AcDbEntity
  8
0
100
AcDbBlockEnd
  0
BLOCK
  5
773
330
772
100
AcDbEntity
  8
0
100
AcDbBlockBegin
  2
*D5
 70
     1
 10
0.0
 20
0.0
 30
0.0
  3
*D5
  1

  0
LINE
  5
7F9
330
772
100
AcDbEntity
  8
0
 62
     0
370
    -2
100
AcDbLine
 10
1407.392781739267
 20
811.7775801591195
 30
0.0
 11
1407.392781739267
 21
809.2316880896563
 31
0.0
  0
LINE
  5
7FA
330
772
100
AcDbEntity
  8
0
 62
     0
370
    -2
100
AcDbLine
 10
1404.298545941125
 20
811.7775801591195
 30
0.0
 11
1404.298545941125
 21
809.2316880896563
 31
0.0
  0
LINE
  5
7FB
330
772
100
AcDbEntity
  8
0
 62
     0
370
    -2
100
AcDbLine
 10
1409.892781739268
 20
810.4816880896564
 30
0.0
 11
1412.392781739268
 21
810.4816880896564
 31
0.0
  0
LINE
  5
7FC
330
772
100
AcDbEntity
  8
0
 62
     0
370
    -2
100
AcDbLine
 10
1401.798545941125
 20
810.4816880896564
 30
0.0
 11
1387.965212607791
 21
810.4816880896564
 31
0.0
  0
LINE
  5
7FD
330
772
100
AcDbEntity
  8
0
 62
     0
370
    -2
100
AcDbLine
 10
1407.392781739267
 20
810.4816880896564
 30
0.0
 11
1404.298545941125
 21
810.4816880896564
 31
0.0
  0
INSERT
  5
7FE
330
772
100
AcDbEntity
  8
0
 62
     0
370
    -2
100
AcDbBlockReference
  2
_Open30
 10
1407.392781739267
 20
810.4816880896564
 30
0.0
 41
2.5
 42
2.5
 43
2.5
 50
180.0
  0
INSERT
  5
7FF
330
772
100
AcDbEntity
  8
0
 62
     0
370
    -2
100
AcDbBlockReference
  2
_Open30
 10
1404.298545941125
 20
810.4816880896564
 30
0.0
 41
2.5
 42
2.5
 43
2.5
  0
MTEXT
  5
800
330
772
100
AcDbEntity
  8
0
 62
     4
100
AcDbMText
 10
1393.173545941125
 20
812.3566880896563
 30
0.0
 40
2.5
 41
0.0
 71
     5
 72
     1
  1
15.47
  7
高2.5
 73
     1
 44
1.0
1001
ACAD
1000
MTEXTBEGIN
1070
    73
1070
     1
1070
    44
1040
1.0
1070
    74
1070
     0
1000
MTEXTEND
  0
POINT
  5
801
330
772
100
AcDbEntity
  8
Defpoints
 62
     0
100
AcDbPoint
 10
1407.392781739267
 20
812.0275801591196
 30
0.0
  0
POINT
  5
802
330
772
100
AcDbEntity
  8
Defpoints
 62
     0
100
AcDbPoint
 10
1404.298545941125
 20
812.0275801591196
 30
0.0
  0
POINT
  5
803
330
772
100
AcDbEntity
  8
Defpoints
 62
     0
100
AcDbPoint
 10
1404.298545941125
 20
810.4816880896564
 30
0.0
  0
ENDBLK
  5
774
330
772
100
AcDbEntity
  8
0
100
AcDbBlockEnd
  0
BLOCK
  5
781
330
780
100
AcDbEntity
  8
0
100
AcDbBlockBegin
  2
*D6
 70
     1
 10
0.0
 20
0.0
 30
0.0
  3
*D6
  1

  0
LINE
  5
804
330
780
100
AcDbEntity
  8
0
 62
     0
370
    -2
100
AcDbLine
 10
1409.121913347353
 20
806.3214904432731
 30
0.0
 11
1409.121913347353
 21
804.0484027809059
 31
0.0
  0
LINE
  5
805
330
780
100
AcDbEntity
  8
0
 62
     0
370
    -2
100
AcDbLine
 10
1405.117608394161
 20
806.3214904432731
 30
0.0
 11
1405.117608394161
 21
804.0484027809059
 31
0.0
  0
LINE
  5
806
330
780
100
AcDbEntity
  8
0
 62
     0
370
    -2
100
AcDbLine
 10
1411.621913347353
 20
805.2984027809058
 30
0.0
 11
1414.121913347353
 21
805.2984027809058
 31
0.0
  0
LINE
  5
807
330
780
100
AcDbEntity
  8
0
 62
     0
370
    -2
100
AcDbLine
 10
1402.617608394161
 20
805.2984027809058
 30
0.0
 11
1390.867608394162
 21
805.2984027809058
 31
0.0
  0
LINE
  5
808
330
780
100
AcDbEntity
  8
0
 62
     0
370
    -2
100
AcDbLine
 10
1409.121913347353
 20
805.2984027809058
 30
0.0
 11
1405.117608394161
 21
805.2984027809058
 31
0.0
  0
INSERT
  5
809
330
780
100
AcDbEntity
  8
0
 62
     0
370
    -2
100
AcDbBlockReference
  2
_Open30
 10
1409.121913347353
 20
805.2984027809058
 30
0.0
 41
2.5
 42
2.5
 43
2.5
 50
180.0
  0
INSERT
  5
80A
330
780
100
AcDbEntity
  8
0
 62
     0
370
    -2
100
AcDbBlockReference
  2
_Open30
 10
1405.117608394161
 20
805.2984027809058
 30
0.0
 41
2.5
 42
2.5
 43
2.5
  0
MTEXT
  5
80B
330
780
100
AcDbEntity
  8
0
 62
     4
100
AcDbMText
 10
1395.492608394161
 20
807.5234027809059
 30
0.0
 40
3.2
 41
0.0
 71
     5
 72
     1
  1
8.01
  7
高3.2
 73
     1
 44
1.0
1001
ACAD
1000
MTEXTBEGIN
1070
    73
1070
     1
1070
    44
1040
1.0
1070
    74
1070
     0
1000
MTEXTEND
  0
POINT
  5
80C
330
780
100
AcDbEntity
  8
Defpoints
 62
     0
100
AcDbPoint
 10
1409.121913347353
 20
806.5714904432732
 30
0.0
  0
POINT
  5
80D
330
780
100
AcDbEntity
  8
Defpoints
 62
     0
100
AcDbPoint
 10
1405.117608394161
 20
806.5714904432732
 30
0.0
  0
POINT
  5
80E
330
780
100
AcDbEntity
  8
Defpoints
 62
     0
100
AcDbPoint
 10
1405.117608394161
 20
805.2984027809058
 30
0.0
  0
ENDBLK
  5
782
330
780
100
AcDbEntity
  8
0
100
AcDbBlockEnd
  0
BLOCK
  5
78F
330
78E
100
AcDbEntity
  8
0
100
AcDbBlockBegin
  2
*D7
 70
     1
 10
0.0
 20
0.0
 30
0.0
  3
*D7
  1

  0
LINE
  5
80F
330
78E
100
AcDbEntity
  8
0
 62
     0
370
    -2
100
AcDbLine
 10
1409.030906645341
 20
801.0472704752416
 30
0.0
 11
1409.030906645341
 21
799.2288569677851
 31
0.0
  0
LINE
  5
810
330
78E
100
AcDbEntity
  8
0
 62
     0
370
    -2
100
AcDbLine
 10
1404.298545941125
 20
801.0472704752416
 30
0.0
 11
1404.298545941125
 21
799.2288569677851
 31
0.0
  0
LINE
  5
811
330
78E
100
AcDbEntity
  8
0
 62
     0
370
    -2
100
AcDbLine
 10
1411.530906645341
 20
800.4788569677852
 30
0.0
 11
1414.030906645341
 21
800.4788569677852
 31
0.0
  0
LINE
  5
812
330
78E
100
AcDbEntity
  8
0
 62
     0
370
    -2
100
AcDbLine
 10
1401.798545941125
 20
800.4788569677852
 30
0.0
 11
1380.048545941125
 21
800.4788569677852
 31
0.0
  0
LINE
  5
813
330
78E
100
AcDbEntity
  8
0
 62
     0
370
    -2
100
AcDbLine
 10
1409.030906645341
 20
800.4788569677852
 30
0.0
 11
1404.298545941125
 21
800.4788569677852
 31
0.0
  0
INSERT
  5
814
330
78E
100
AcDbEntity
  8
0
 62
     0
370
    -2
100
AcDbBlockReference
  2
_Open30
 10
1409.030906645341
 20
800.4788569677852
 30
0.0
 41
2.5
 42
2.5
 43
2.5
 50
180.0
  0
INSERT
  5
815
330
78E
100
AcDbEntity
  8
0
 62
     0
370
    -2
100
AcDbBlockReference
  2
_Open30
 10
1404.298545941125
 20
800.4788569677852
 30
0.0
 41
2.5
 42
2.5
 43
2.5
  0
MTEXT
  5
816
330
78E
100
AcDbEntity
  8
0
 62
     4
100
AcDbMText
 10
1389.673545941125
 20
803.3538569677851
 30
0.0
 40
4.5
 41
0.0
 71
     5
 72
     1
  1
47.32
  7
高4.5
 73
     1
 44
1.0
1001
ACAD
1000
MTEXTBEGIN
1070
    73
1070
     1
1070
    44
1040
1.0
1070
    74
1070
     0
1000
MTEXTEND
  0
POINT
  5
817
330
78E
100
AcDbEntity
  8
Defpoints
 62
     0
100
AcDbPoint
 10
1409.030906645341
 20
801.2972704752415
 30
0.0
  0
POINT
  5
818
330
78E
100
AcDbEntity
  8
Defpoints
 62
     0
100
AcDbPoint
 10
1404.298545941125
 20
801.2972704752415
 30
0.0
  0
POINT
  5
819
330
78E
100
AcDbEntity
  8
Defpoints
 62
     0
100
AcDbPoint
 10
1404.298545941125
 20
800.4788569677852
 30
0.0
  0
ENDBLK
  5
790
330
78E
100
AcDbEntity
  8
0
100
AcDbBlockEnd
  0
BLOCK
  5
79D
330
79C
100
AcDbEntity
  8
0
100
AcDbBlockBegin
  2
*D8
 70
     1
 10
0.0
 20
0.0
 30
0.0
  3
*D8
  1

  0
LINE
  5
81A
330
79C
100
AcDbEntity
  8
0
 62
     0
370
    -2
100
AcDbLine
 10
1430.508542913348
 20
817.233669731882
 30
0.0
 11
1430.508542913348
 21
814.3240383098731
 31
0.0
  0
LINE
  5
81B
330
79C
100
AcDbEntity
  8
0
 62
     0
370
    -2
100
AcDbLine
 10
1428.051355859228
 20
817.233669731882
 30
0.0
 11
1428.051355859228
 21
814.3240383098731
 31
0.0
  0
LINE
  5
81C
330
79C
100
AcDbEntity
  8
0
 62
     0
370
    -2
100
AcDbLine
 10
1433.008542913348
 20
815.5740383098732
 30
0.0
 11
1435.508542913348
 21
815.5740383098732
 31
0.0
  0
LINE
  5
81D
330
79C
100
AcDbEntity
  8
0
 62
     0
370
    -2
100
AcDbLine
 10
1425.551355859228
 20
815.5740383098732
 30
0.0
 11
1403.951355859228
 21
815.5740383098732
 31
0.0
  0
LINE
  5
81E
330
79C
100
AcDbEntity
  8
0
 62
     0
370
    -2
100
AcDbLine
 10
1430.508542913348
 20
815.5740383098732
 30
0.0
 11
1428.051355859228
 21
815.5740383098732
 31
0.0
  0
INSERT
  5
81F
330
79C
100
AcDbEntity
  8
0
 62
     0
370
    -2
100
AcDbBlockReference
  2
_Open30
 10
1430.508542913348
 20
815.5740383098732
 30
0.0
 41
2.5
 42
2.5
 43
2.5
 50
180.0
  0
INSERT
  5
820
330
79C
100
AcDbEntity
  8
0
 62
     0
370
    -2
100
AcDbBlockReference
  2
_Open30
 10
1428.051355859228
 20
815.5740383098732
 30
0.0
 41
2.5
 42
2.5
 43
2.5
  0
MTEXT
  5
821
330
79C
100
AcDbEntity
  8
0
 62
     4
100
AcDbMText
 10
1413.501355859228
 20
819.3490383098732
 30
0.0
 40
6.299999999999998
 41
0.0
 71
     5
 72
     1
  1
0.25
  7
高6.3
 73
     1
 44
1.0
1001
ACAD
1000
MTEXTBEGIN
1070
    73
1070
     1
1070
    44
1040
1.0
1070
    74
1070
     0
1000
MTEXTEND
  0
POINT
  5
822
330
79C
100
AcDbEntity
  8
Defpoints
 62
     0
100
AcDbPoint
 10
1430.508542913348
 20
817.483669731882
 30
0.0
  0
POINT
  5
823
330
79C
100
AcDbEntity
  8
Defpoints
 62
     0
100
AcDbPoint
 10
1428.051355859228
 20
817.483669731882
 30
0.0
  0
POINT
  5
824
330
79C
100
AcDbEntity
  8
Defpoints
 62
     0
100
AcDbPoint
 10
1428.051355859228
 20
815.5740383098732
 30
0.0
  0
ENDBLK
  5
79E
330
79C
100
AcDbEntity
  8
0
100
AcDbBlockEnd
  0
BLOCK
  5
7AB
330
7AA
100
AcDbEntity
  8
0
100
AcDbBlockBegin
  2
*D9
 70
     1
 10
0.0
 20
0.0
 30
0.0
  3
*D9
  1

  0
LINE
  5
825
330
7AA
100
AcDbEntity
  8
0
 62
     0
370
    -2
100
AcDbLine
 10
1432.146667819422
 20
811.7775801591195
 30
0.0
 11
1432.146667819422
 21
809.2316880896563
 31
0.0
  0
LINE
  5
826
330
7AA
100
AcDbEntity
  8
0
 62
     0
370
    -2
100
AcDbLine
 10
1429.052432021279
 20
811.7775801591195
 30
0.0
 11
1429.052432021279
 21
809.2316880896563
 31
0.0
  0
LINE
  5
827
330
7AA
100
AcDbEntity
  8
0
 62
     0
370
    -2
100
AcDbLine
 10
1434.646667819422
 20
810.4816880896564
 30
0.0
 11
1437.146667819422
 21
810.4816880896564
 31
0.0
  0
LINE
  5
828
330
7AA
100
AcDbEntity
  8
0
 62
     0
370
    -2
100
AcDbLine
 10
1426.552432021279
 20
810.4816880896564
 30
0.0
 11
1414.552432021279
 21
810.4816880896564
 31
0.0
  0
LINE
  5
829
330
7AA
100
AcDbEntity
  8
0
 62
     0
370
    -2
100
AcDbLine
 10
1432.146667819422
 20
810.4816880896564
 30
0.0
 11
1429.052432021279
 21
810.4816880896564
 31
0.0
  0
INSERT
  5
82A
330
7AA
100
AcDbEntity
  8
0
 62
     0
370
    -2
100
AcDbBlockReference
  2
_Open30
 10
1432.146667819422
 20
810.4816880896564
 30
0.0
 41
2.5
 42
2.5
 43
2.5
 50
180.0
  0
INSERT
  5
82B
330
7AA
100
AcDbEntity
  8
0
 62
     0
370
    -2
100
AcDbBlockReference
  2
_Open30
 10
1429.052432021279
 20
810.4816880896564
 30
0.0
 41
2.5
 42
2.5
 43
2.5
  0
MTEXT
  5
82C
330
7AA
100
AcDbEntity
  8
0
 62
     4
100
AcDbMText
 10
1419.177432021279
 20
812.6066880896564
 30
0.0
 40
3.0
 41
0.0
 71
     5
 72
     1
  1
1.55
 73
     1
 44
1.0
1001
ACAD
1000
MTEXTBEGIN
1070
    73
1070
     1
1070
    44
1040
1.0
1070
    74
1070
     0
1000
MTEXTEND
  0
POINT
  5
82D
330
7AA
100
AcDbEntity
  8
Defpoints
 62
     0
100
AcDbPoint
 10
1432.146667819422
 20
812.0275801591196
 30
0.0
  0
POINT
  5
82E
330
7AA
100
AcDbEntity
  8
Defpoints
 62
     0
100
AcDbPoint
 10
1429.052432021279
 20
812.0275801591196
 30
0.0
  0
POINT
  5
82F
330
7AA
100
AcDbEntity
  8
Defpoints
 62
     0
100
AcDbPoint
 10
1429.052432021279
 20
810.4816880896564
 30
0.0
  0
ENDBLK
  5
7AC
330
7AA
100
AcDbEntity
  8
0
100
AcDbBlockEnd
  0
BLOCK
  5
7B9
330
7B8
100
AcDbEntity
  8
0
100
AcDbBlockBegin
  2
*D10
 70
     1
 10
0.0
 20
0.0
 30
0.0
  3
*D10
  1

  0
LINE
  5
830
330
7B8
100
AcDbEntity
  8
0
 62
     0
370
    -2
100
AcDbLine
 10
1433.875799427507
 20
806.3214904432731
 30
0.0
 11
1433.875799427507
 21
804.0484027809059
 31
0.0
  0
LINE
  5
831
330
7B8
100
AcDbEntity
  8
0
 62
     0
370
    -2
100
AcDbLine
 10
1429.871494474315
 20
806.3214904432731
 30
0.0
 11
1429.871494474315
 21
804.0484027809059
 31
0.0
  0
LINE
  5
832
330
7B8
100
AcDbEntity
  8
0
 62
     0
370
    -2
100
AcDbLine
 10
1436.375799427507
 20
805.2984027809058
 30
0.0
 11
1438.875799427507
 21
805.2984027809058
 31
0.0
  0
LINE
  5
833
330
7B8
100
AcDbEntity
  8
0
 62
     0
370
    -2
100
AcDbLine
 10
1427.371494474315
 20
805.2984027809058
 30
0.0
 11
1419.038161140982
 21
805.2984027809058
 31
0.0
  0
LINE
  5
834
330
7B8
100
AcDbEntity
  8
0
 62
     0
370
    -2
100
AcDbLine
 10
1433.875799427507
 20
805.2984027809058
 30
0.0
 11
1429.871494474315
 21
805.2984027809058
 31
0.0
  0
INSERT
  5
835
330
7B8
100
AcDbEntity
  8
0
 62
     0
370
    -2
100
AcDbBlockReference
  2
_Open30
 10
1433.875799427507
 20
805.2984027809058
 30
0.0
 41
2.5
 42
2.5
 43
2.5
 50
180.0
  0
INSERT
  5
836
330
7B8
100
AcDbEntity
  8
0
 62
     0
370
    -2
100
AcDbBlockReference
  2
_Open30
 10
1429.871494474315
 20
805.2984027809058
 30
0.0
 41
2.5
 42
2.5
 43
2.5
  0
MTEXT
  5
837
330
7B8
100
AcDbEntity
  8
0
 62
     4
100
AcDbMText
 10
1421.496494474315
 20
806.9234027809059
 30
0.0
 40
2.0
 41
0.0
 71
     5
 72
     1
  1
0.8
  7
高2
 73
     1
 44
1.0
1001
ACAD
1000
MTEXTBEGIN
1070
    73
1070
     1
1070
    44
1040
1.0
1070
    74
1070
     0
1000
MTEXTEND
  0
POINT
  5
838
330
7B8
100
AcDbEntity
  8
Defpoints
 62
     0
100
AcDbPoint
 10
1433.875799427507
 20
806.5714904432732
 30
0.0
  0
POINT
  5
839
330
7B8
100
AcDbEntity
  8
Defpoints
 62
     0
100
AcDbPoint
 10
1429.871494474315
 20
806.5714904432732
 30
0.0
  0
POINT
  5
83A
330
7B8
100
AcDbEntity
  8
Defpoints
 62
     0
100
AcDbPoint
 10
1429.871494474315
 20
805.2984027809058
 30
0.0
  0
ENDBLK
  5
7BA
330
7B8
100
AcDbEntity
  8
0
100
AcDbBlockEnd
  0
BLOCK
  5
7C7
330
7C6
100
AcDbEntity
  8
0
100
AcDbBlockBegin
  2
*D11
 70
     1
 10
0.0
 20
0.0
 30
0.0
  3
*D11
  1

  0
LINE
  5
83B
330
7C6
100
AcDbEntity
  8
0
 62
     0
370
    -2
100
AcDbLine
 10
1433.784792725495
 20
801.0472704752416
 30
0.0
 11
1433.784792725495
 21
799.2288569677851
 31
0.0
  0
LINE
  5
83C
330
7C6
100
AcDbEntity
  8
0
 62
     0
370
    -2
100
AcDbLine
 10
1429.052432021279
 20
801.0472704752416
 30
0.0
 11
1429.052432021279
 21
799.2288569677851
 31
0.0
  0
LINE
  5
83D
330
7C6
100
AcDbEntity
  8
0
 62
     0
370
    -2
100
AcDbLine
 10
1436.284792725495
 20
800.4788569677852
 30
0.0
 11
1438.784792725495
 21
800.4788569677852
 31
0.0
  0
LINE
  5
83E
330
7C6
100
AcDbEntity
  8
0
 62
     0
370
    -2
100
AcDbLine
 10
1426.552432021279
 20
800.4788569677852
 30
0.0
 11
1411.802432021279
 21
800.4788569677852
 31
0.0
  0
LINE
  5
83F
330
7C6
100
AcDbEntity
  8
0
 62
     0
370
    -2
100
AcDbLine
 10
1433.784792725495
 20
800.4788569677852
 30
0.0
 11
1429.052432021279
 21
800.4788569677852
 31
0.0
  0
INSERT
  5
840
330
7C6
100
AcDbEntity
  8
0
 62
     0
370
    -2
100
AcDbBlockReference
  2
_Open30
 10
1433.784792725495
 20
800.4788569677852
 30
0.0
 41
2.5
 42
2.5
 43
2.5
 50
180.0
  0
INSERT
  5
841
330
7C6
100
AcDbEntity
  8
0
 62
     0
370
    -2
100
AcDbBlockReference
  2
_Open30
 10
1429.052432021279
 20
800.4788569677852
 30
0.0
 41
2.5
 42
2.5
 43
2.5
  0
MTEXT
  5
842
330
7C6
100
AcDbEntity
  8
0
 62
     4
100
AcDbMText
 10
1417.927432021279
 20
802.6038569677851
 30
0.0
 40
3.0
 41
0.0
 71
     5
 72
     1
  1
18.93
 73
     1
 44
1.0
1001
ACAD
1000
MTEXTBEGIN
1070
    73
1070
     1
1070
    44
1040
1.0
1070
    74
1070
     0
1000
MTEXTEND
  0
POINT
  5
843
330
7C6
100
AcDbEntity
  8
Defpoints
 62
     0
100
AcDbPoint
 10
1433.784792725495
 20
801.2972704752415
 30
0.0
  0
POINT
  5
844
330
7C6
100
AcDbEntity
  8
Defpoints
 62
     0
100
AcDbPoint
 10
1429.052432021279
 20
801.2972704752415
 30
0.0
  0
POINT
  5
845
330
7C6
100
AcDbEntity
  8
Defpoints
 62
     0
100
AcDbPoint
 10
1429.052432021279
 20
800.4788569677852
 30
0.0
  0
ENDBLK
  5
7C8
330
7C6
100
AcDbEntity
  8
0
100
AcDbBlockEnd
  0
BLOCK
  5
7D5
330
7D4
100
AcDbEntity
  8
0
100
AcDbBlockBegin
  2
*D12
 70
     1
 10
0.0
 20
0.0
 30
0.0
  3
*D12
  1

  0
LINE
  5
846
330
7D4
100
AcDbEntity
  8
0
 62
     0
370
    -2
100
AcDbLine
 10
1430.980365874356
 20
795.9914302686517
 30
0.0
 11
1430.980365874356
 21
793.6815091917763
 31
0.0
  0
LINE
  5
847
330
7D4
100
AcDbEntity
  8
0
 62
     0
370
    -2
100
AcDbLine
 10
1426.391690672209
 20
795.9914302686517
 30
0.0
 11
1426.391690672209
 21
793.6815091917763
 31
0.0
  0
LINE
  5
848
330
7D4
100
AcDbEntity
  8
0
 62
     0
370
    -2
100
AcDbLine
 10
1433.480365874357
 20
794.9315091917762
 30
0.0
 11
1435.980365874357
 21
794.9315091917762
 31
0.0
  0
LINE
  5
849
330
7D4
100
AcDbEntity
  8
0
 62
     0
370
    -2
100
AcDbLine
 10
1423.891690672209
 20
794.9315091917762
 30
0.0
 11
1409.141690672209
 21
794.9315091917762
 31
0.0
  0
LINE
  5
84A
330
7D4
100
AcDbEntity
  8
0
 62
     0
370
    -2
100
AcDbLine
 10
1430.980365874356
 20
794.9315091917762
 30
0.0
 11
1426.391690672209
 21
794.9315091917762
 31
0.0
  0
INSERT
  5
84B
330
7D4
100
AcDbEntity
  8
0
 62
     0
370
    -2
100
AcDbBlockReference
  2
_Open30
 10
1430.980365874356
 20
794.9315091917762
 30
0.0
 41
2.5
 42
2.5
 43
2.5
 50
180.0
  0
INSERT
  5
84C
330
7D4
100
AcDbEntity
  8
0
 62
     0
370
    -2
100
AcDbBlockReference
  2
_Open30
 10
1426.391690672209
 20
794.9315091917762
 30
0.0
 41
2.5
 42
2.5
 43
2.5
  0
MTEXT
  5
84D
330
7D4
100
AcDbEntity
  8
0
 62
     4
100
AcDbMText
 10
1415.266690672209
 20
797.0565091917762
 30
0.0
 40
3.0
 41
0.0
 71
     5
 72
     1
  1
13.77
 73
     1
 44
1.0
1001
ACAD
1000
MTEXTBEGIN
1070
    73
1070
     1
1070
    44
1040
1.0
1070
    74
1070
     0
1000
MTEXTEND
  0
POINT
  5
84E
330
7D4
100
AcDbEntity
  8
Defpoints
 62
     0
100
AcDbPoint
 10
1430.980365874356
 20
796.2414302686517
 30
0.0
  0
POINT
  5
84F
330
7D4
100
AcDbEntity
  8
Defpoints
 62
     0
100
AcDbPoint
 10
1426.391690672209
 20
796.2414302686517
 30
0.0
  0
POINT
  5
850
330
7D4
100
AcDbEntity
  8
Defpoints
 62
     0
100
AcDbPoint
 10
1426.391690672209
 20
794.9315091917762
 30
0.0
  0
ENDBLK
  5
7D6
330
7D4
100
AcDbEntity
  8
0
100
AcDbBlockEnd
  0
BLOCK
  5
7E3
330
7E2
100
AcDbEntity
  8
0
100
AcDbBlockBegin
  2
*D13
 70
     1
 10
0.0
 20
0.0
 30
0.0
  3
*D13
  1

  0
LINE
  5
851
330
7E2
100
AcDbEntity
  8
0
 62
     0
370
    -2
100
AcDbLine
 10
1423.884083041206
 20
826.9209215869263
 30
0.0
 11
1423.884083041206
 21
834.3174550648637
 31
0.0
  0
LINE
  5
852
330
7E2
100
AcDbEntity
  8
0
 62
     0
370
    -2
100
AcDbLine
 10
1413.945608671716
 20
826.9209215869263
 30
0.0
 11
1413.945608671716
 21
834.3174550648637
 31
0.0
  0
LINE
  5
853
330
7E2
100
AcDbEntity
  8
0
 62
     0
370
    -2
100
AcDbLine
 10
1421.384083041206
 20
833.0674550648639
 30
0.0
 11
1416.445608671716
 21
833.0674550648639
 31
0.0
  0
INSERT
  5
854
330
7E2
100
AcDbEntity
  8
0
 62
     0
370
    -2
100
AcDbBlockReference
  2
_Open30
 10
1423.884083041206
 20
833.0674550648639
 30
0.0
 41
2.5
 42
2.5
 43
2.5
  0
INSERT
  5
855
330
7E2
100
AcDbEntity
  8
0
 62
     0
370
    -2
100
AcDbBlockReference
  2
_Open30
 10
1413.945608671716
 20
833.0674550648639
 30
0.0
 41
2.5
 42
2.5
 43
2.5
 50
180.0
  0
MTEXT
  5
856
330
7E2
100
AcDbEntity
  8
0
 62
     4
100
AcDbMText
 10
1418.914845856461
 20
836.1424550648639
 30
0.0
 40
3.0
 41
0.0
 71
     5
 72
     1
  1
9.94\H0.7X;\S+0^ -0.02;
 73
     1
 44
1.0
1001
ACAD
1000
MTEXTBEGIN
1070
    73
1070
     1
1070
    44
1040
1.0
1070
    74
1070
     0
1000
MTEXTEND
  0
POINT
  5
857
330
7E2
100
AcDbEntity
  8
Defpoints
 62
     0
100
AcDbPoint
 10
1423.884083041206
 20
826.6709215869262
 30
0.0
  0
POINT
  5
858
330
7E2
100
AcDbEntity
  8
Defpoints
 62
     0
100
AcDbPoint
 10
1413.945608671716
 20
826.6709215869262
 30
0.0
  0
POINT
  5
859
330
7E2
100
AcDbEntity
  8
Defpoints
 62
     0
100
AcDbPoint
 10
1413.945608671716
 20
833.0674550648639
 30
0.0
  0
ENDBLK
  5
7E4
330
7E2
100
AcDbEntity
  8
0
100
AcDbBlockEnd
  0
BLOCK
  5
8AC
330
8AB
100
AcDbEntity
  8
0
100
AcDbBlockBegin
  2
*D14
 70
     1
 10
0.0
 20
0.0
 30
0.0
  3
*D14
  1

  0
LINE
  5
8AD
330
8AB
100
AcDbEntity
  8
0
 62
     0
370
    -2
100
AcDbLine
 10
-178.2339678749101
 20
-812.0370112307897
 30
0.0
 11
-178.2339678749101
 21
-814.9466426527986
 31
0.0
  0
LINE
  5
8AE
330
8AB
100
AcDbEntity
  8
0
 62
     0
370
    -2
100
AcDbLine
 10
-180.6911549290304
 20
-812.0370112307897
 30
0.0
 11
-180.6911549290304
 21
-814.9466426527986
 31
0.0
  0
LINE
  5
8AF
330
8AB
100
AcDbEntity
  8
0
 62
     0
370
    -2
100
AcDbLine
 10
-175.7339678749101
 20
-813.6966426527985
 30
0.0
 11
-173.2339678749101
 21
-813.6966426527985
 31
0.0
  0
LINE
  5
8B0
330
8AB
100
AcDbEntity
  8
0
 62
     0
370
    -2
100
AcDbLine
 10
-183.1911549290304
 20
-813.6966426527985
 30
0.0
 11
-195.9411549290304
 21
-813.6966426527985
 31
0.0
  0
LINE
  5
8B1
330
8AB
100
AcDbEntity
  8
0
 62
     0
370
    -2
100
AcDbLine
 10
-178.2339678749101
 20
-813.6966426527985
 30
0.0
 11
-180.6911549290304
 21
-813.6966426527985
 31
0.0
  0
INSERT
  5
8B2
330
8AB
100
AcDbEntity
  8
0
 62
     0
370
    -2
100
AcDbBlockReference
  2
_Open30
 10
-178.2339678749101
 20
-813.6966426527985
 30
0.0
 41
2.5
 42
2.5
 43
2.5
 50
180.0
  0
INSERT
  5
8B3
330
8AB
100
AcDbEntity
  8
0
 62
     0
370
    -2
100
AcDbBlockReference
  2
_Open30
 10
-180.6911549290304
 20
-813.6966426527985
 30
0.0
 41
2.5
 42
2.5
 43
2.5
  0
MTEXT
  5
8B4
330
8AB
100
AcDbEntity
  8
0
 62
     4
100
AcDbMText
 10
-190.8161549290304
 20
-811.5716426527985
 30
0.0
 40
3.0
 41
0.0
 71
     5
 72
     1
  1
2.46
 73
     1
 44
1.0
1001
ACAD
1000
MTEXTBEGIN
1070
    73
1070
     1
1070
    44
1040
1.0
1070
    74
1070
     0
1000
MTEXTEND
  0
POINT
  5
8B5
330
8AB
100
AcDbEntity
  8
Defpoints
 62
     0
100
AcDbPoint
 10
-178.2339678749101
 20
-811.7870112307898
 30
0.0
  0
POINT
  5
8B6
330
8AB
100
AcDbEntity
  8
Defpoints
 62
     0
100
AcDbPoint
 10
-180.6911549290304
 20
-811.7870112307898
 30
0.0
  0
POINT
  5
8B7
330
8AB
100
AcDbEntity
  8
Defpoints
 62
     0
100
AcDbPoint
 10
-180.6911549290304
 20
-813.6966426527985
 30
0.0
  0
ENDBLK
  5
8B8
330
8AB
100
AcDbEntity
  8
0
100
AcDbBlockEnd
  0
BLOCK
  5
8BA
330
8B9
100
AcDbEntity
  8
0
100
AcDbBlockBegin
  2
*D15
 70
     1
 10
0.0
 20
0.0
 30
0.0
  3
*D15
  1

  0
LINE
  5
8BB
330
8B9
100
AcDbEntity
  8
0
 62
     0
370
    -2
100
AcDbLine
 10
-176.5958429688369
 20
-817.4931008035521
 30
0.0
 11
-176.5958429688369
 21
-820.0389928730155
 31
0.0
  0
LINE
  5
8BC
330
8B9
100
AcDbEntity
  8
0
 62
     0
370
    -2
100
AcDbLine
 10
-179.6900787669798
 20
-817.4931008035521
 30
0.0
 11
-179.6900787669798
 21
-820.0389928730155
 31
0.0
  0
LINE
  5
8BD
330
8B9
100
AcDbEntity
  8
0
 62
     0
370
    -2
100
AcDbLine
 10
-174.0958429688369
 20
-818.7889928730154
 30
0.0
 11
-171.5958429688369
 21
-818.7889928730154
 31
0.0
  0
LINE
  5
8BE
330
8B9
100
AcDbEntity
  8
0
 62
     0
370
    -2
100
AcDbLine
 10
-182.1900787669798
 20
-818.7889928730154
 30
0.0
 11
-196.0234121003131
 21
-818.7889928730154
 31
0.0
  0
LINE
  5
8BF
330
8B9
100
AcDbEntity
  8
0
 62
     0
370
    -2
100
AcDbLine
 10
-176.5958429688369
 20
-818.7889928730154
 30
0.0
 11
-179.6900787669798
 21
-818.7889928730154
 31
0.0
  0
INSERT
  5
8C0
330
8B9
100
AcDbEntity
  8
0
 62
     0
370
    -2
100
AcDbBlockReference
  2
_Open30
 10
-176.5958429688369
 20
-818.7889928730154
 30
0.0
 41
2.5
 42
2.5
 43
2.5
 50
180.0
  0
INSERT
  5
8C1
330
8B9
100
AcDbEntity
  8
0
 62
     0
370
    -2
100
AcDbBlockReference
  2
_Open30
 10
-179.6900787669798
 20
-818.7889928730154
 30
0.0
 41
2.5
 42
2.5
 43
2.5
  0
MTEXT
  5
8C2
330
8B9
100
AcDbEntity
  8
0
 62
     4
100
AcDbMText
 10
-190.8150787669798
 20
-816.9139928730155
 30
0.0
 40
2.5
 41
0.0
 71
     5
 72
     1
  1
15.47
  7
高2.5
 73
     1
 44
1.0
1001
ACAD
1000
MTEXTBEGIN
1070
    73
1070
     1
1070
    44
1040
1.0
1070
    74
1070
     0
1000
MTEXTEND
  0
POINT
  5
8C3
330
8B9
100
AcDbEntity
  8
Defpoints
 62
     0
100
AcDbPoint
 10
-176.5958429688369
 20
-817.2431008035522
 30
0.0
  0
POINT
  5
8C4
330
8B9
100
AcDbEntity
  8
Defpoints
 62
     0
100
AcDbPoint
 10
-179.6900787669798
 20
-817.2431008035522
 30
0.0
  0
POINT
  5
8C5
330
8B9
100
AcDbEntity
  8
Defpoints
 62
     0
100
AcDbPoint
 10
-179.6900787669798
 20
-818.7889928730154
 30
0.0
  0
ENDBLK
  5
8C6
330
8B9
100
AcDbEntity
  8
0
100
AcDbBlockEnd
  0
BLOCK
  5
8C8
330
8C7
100
AcDbEntity
  8
0
100
AcDbBlockBegin
  2
*D16
 70
     1
 10
0.0
 20
0.0
 30
0.0
  3
*D16
  1

  0
LINE
  5
8C9
330
8C7
100
AcDbEntity
  8
0
 62
     0
370
    -2
100
AcDbLine
 10
-174.8667113607514
 20
-822.9491905193986
 30
0.0
 11
-174.8667113607514
 21
-825.2222781817659
 31
0.0
  0
LINE
  5
8CA
330
8C7
100
AcDbEntity
  8
0
 62
     0
370
    -2
100
AcDbLine
 10
-178.8710163139432
 20
-822.9491905193986
 30
0.0
 11
-178.8710163139432
 21
-825.2222781817659
 31
0.0
  0
LINE
  5
8CB
330
8C7
100
AcDbEntity
  8
0
 62
     0
370
    -2
100
AcDbLine
 10
-172.3667113607514
 20
-823.9722781817658
 30
0.0
 11
-169.8667113607514
 21
-823.9722781817658
 31
0.0
  0
LINE
  5
8CC
330
8C7
100
AcDbEntity
  8
0
 62
     0
370
    -2
100
AcDbLine
 10
-181.3710163139432
 20
-823.9722781817658
 30
0.0
 11
-193.1210163139432
 21
-823.9722781817658
 31
0.0
  0
LINE
  5
8CD
330
8C7
100
AcDbEntity
  8
0
 62
     0
370
    -2
100
AcDbLine
 10
-174.8667113607514
 20
-823.9722781817658
 30
0.0
 11
-178.8710163139432
 21
-823.9722781817658
 31
0.0
  0
INSERT
  5
8CE
330
8C7
100
AcDbEntity
  8
0
 62
     0
370
    -2
100
AcDbBlockReference
  2
_Open30
 10
-174.8667113607514
 20
-823.9722781817658
 30
0.0
 41
2.5
 42
2.5
 43
2.5
 50
180.0
  0
INSERT
  5
8CF
330
8C7
100
AcDbEntity
  8
0
 62
     0
370
    -2
100
AcDbBlockReference
  2
_Open30
 10
-178.8710163139432
 20
-823.9722781817658
 30
0.0
 41
2.5
 42
2.5
 43
2.5
  0
MTEXT
  5
8D0
330
8C7
100
AcDbEntity
  8
0
 62
     4
100
AcDbMText
 10
-188.4960163139432
 20
-821.7472781817658
 30
0.0
 40
3.2
 41
0.0
 71
     5
 72
     1
  1
8.01
  7
高3.2
 73
     1
 44
1.0
1001
ACAD
1000
MTEXTBEGIN
1070
    73
1070
     1
1070
    44
1040
1.0
1070
    74
1070
     0
1000
MTEXTEND
  0
POINT
  5
8D1
330
8C7
100
AcDbEntity
  8
Defpoints
 62
     0
100
AcDbPoint
 10
-174.8667113607514
 20
-822.6991905193985
 30
0.0
  0
POINT
  5
8D2
330
8C7
100
AcDbEntity
  8
Defpoints
 62
     0
100
AcDbPoint
 10
-178.8710163139432
 20
-822.6991905193985
 30
0.0
  0
POINT
  5
8D3
330
8C7
100
AcDbEntity
  8
Defpoints
 62
     0
100
AcDbPoint
 10
-178.8710163139432
 20
-823.9722781817658
 30
0.0
  0
ENDBLK
  5
8D4
330
8C7
100
AcDbEntity
  8
0
100
AcDbBlockEnd
  0
BLOCK
  5
8D6
330
8D5
100
AcDbEntity
  8
0
100
AcDbBlockBegin
  2
*D17
 70
     1
 10
0.0
 20
0.0
 30
0.0
  3
*D17
  1

  0
LINE
  5
8D7
330
8D5
100
AcDbEntity
  8
0
 62
     0
370
    -2
100
AcDbLine
 10
-174.9577180627636
 20
-828.2234104874302
 30
0.0
 11
-174.9577180627636
 21
-830.0418239948866
 31
0.0
  0
LINE
  5
8D8
330
8D5
100
AcDbEntity
  8
0
 62
     0
370
    -2
100
AcDbLine
 10
-179.6900787669798
 20
-828.2234104874302
 30
0.0
 11
-179.6900787669798
 21
-830.0418239948866
 31
0.0
  0
LINE
  5
8D9
330
8D5
100
AcDbEntity
  8
0
 62
     0
370
    -2
100
AcDbLine
 10
-172.4577180627636
 20
-828.7918239948865
 30
0.0
 11
-169.9577180627637
 21
-828.7918239948865
 31
0.0
  0
LINE
  5
8DA
330
8D5
100
AcDbEntity
  8
0
 62
     0
370
    -2
100
AcDbLine
 10
-182.1900787669798
 20
-828.7918239948865
 30
0.0
 11
-203.9400787669798
 21
-828.7918239948865
 31
0.0
  0
LINE
  5
8DB
330
8D5
100
AcDbEntity
  8
0
 62
     0
370
    -2
100
AcDbLine
 10
-174.9577180627636
 20
-828.7918239948865
 30
0.0
 11
-179.6900787669798
 21
-828.7918239948865
 31
0.0
  0
INSERT
  5
8DC
330
8D5
100
AcDbEntity
  8
0
 62
     0
370
    -2
100
AcDbBlockReference
  2
_Open30
 10
-174.9577180627636
 20
-828.7918239948865
 30
0.0
 41
2.5
 42
2.5
 43
2.5
 50
180.0
  0
INSERT
  5
8DD
330
8D5
100
AcDbEntity
  8
0
 62
     0
370
    -2
100
AcDbBlockReference
  2
_Open30
 10
-179.6900787669798
 20
-828.7918239948865
 30
0.0
 41
2.5
 42
2.5
 43
2.5
  0
MTEXT
  5
8DE
330
8D5
100
AcDbEntity
  8
0
 62
     4
100
AcDbMText
 10
-194.3150787669798
 20
-825.9168239948866
 30
0.0
 40
4.5
 41
0.0
 71
     5
 72
     1
  1
47.32
  7
高4.5
 73
     1
 44
1.0
1001
ACAD
1000
MTEXTBEGIN
1070
    73
1070
     1
1070
    44
1040
1.0
1070
    74
1070
     0
1000
MTEXTEND
  0
POINT
  5
8DF
330
8D5
100
AcDbEntity
  8
Defpoints
 62
     0
100
AcDbPoint
 10
-174.9577180627636
 20
-827.9734104874302
 30
0.0
  0
POINT
  5
8E0
330
8D5
100
AcDbEntity
  8
Defpoints
 62
     0
100
AcDbPoint
 10
-179.6900787669798
 20
-827.9734104874302
 30
0.0
  0
POINT
  5
8E1
330
8D5
100
AcDbEntity
  8
Defpoints
 62
     0
100
AcDbPoint
 10
-179.6900787669798
 20
-828.7918239948865
 30
0.0
  0
ENDBLK
  5
8E2
330
8D5
100
AcDbEntity
  8
0
100
AcDbBlockEnd
  0
BLOCK
  5
8E4
330
8E3
100
AcDbEntity
  8
0
100
AcDbBlockBegin
  2
*D18
 70
     1
 10
0.0
 20
0.0
 30
0.0
  3
*D18
  1

  0
LINE
  5
8E5
330
8E3
100
AcDbEntity
  8
0
 62
     0
370
    -2
100
AcDbLine
 10
-153.4800817947562
 20
-812.0370112307897
 30
0.0
 11
-153.4800817947562
 21
-814.9466426527986
 31
0.0
  0
LINE
  5
8E6
330
8E3
100
AcDbEntity
  8
0
 62
     0
370
    -2
100
AcDbLine
 10
-155.9372688488765
 20
-812.0370112307897
 30
0.0
 11
-155.9372688488765
 21
-814.9466426527986
 31
0.0
  0
LINE
  5
8E7
330
8E3
100
AcDbEntity
  8
0
 62
     0
370
    -2
100
AcDbLine
 10
-150.9800817947562
 20
-813.6966426527985
 30
0.0
 11
-148.4800817947562
 21
-813.6966426527985
 31
0.0
  0
LINE
  5
8E8
330
8E3
100
AcDbEntity
  8
0
 62
     0
370
    -2
100
AcDbLine
 10
-158.4372688488765
 20
-813.6966426527985
 30
0.0
 11
-180.0372688488765
 21
-813.6966426527985
 31
0.0
  0
LINE
  5
8E9
330
8E3
100
AcDbEntity
  8
0
 62
     0
370
    -2
100
AcDbLine
 10
-153.4800817947562
 20
-813.6966426527985
 30
0.0
 11
-155.9372688488765
 21
-813.6966426527985
 31
0.0
  0
INSERT
  5
8EA
330
8E3
100
AcDbEntity
  8
0
 62
     0
370
    -2
100
AcDbBlockReference
  2
_Open30
 10
-153.4800817947562
 20
-813.6966426527985
 30
0.0
 41
2.5
 42
2.5
 43
2.5
 50
180.0
  0
INSERT
  5
8EB
330
8E3
100
AcDbEntity
  8
0
 62
     0
370
    -2
100
AcDbBlockReference
  2
_Open30
 10
-155.9372688488765
 20
-813.6966426527985
 30
0.0
 41
2.5
 42
2.5
 43
2.5
  0
MTEXT
  5
8EC
330
8E3
100
AcDbEntity
  8
0
 62
     4
100
AcDbMText
 10
-170.4872688488765
 20
-809.9216426527986
 30
0.0
 40
6.299999999999998
 41
0.0
 71
     5
 72
     1
  1
0.25
  7
高6.3
 73
     1
 44
1.0
1001
ACAD
1000
MTEXTBEGIN
1070
    73
1070
     1
1070
    44
1040
1.0
1070
    74
1070
     0
1000
MTEXTEND
  0
POINT
  5
8ED
330
8E3
100
AcDbEntity
  8
Defpoints
 62
     0
100
AcDbPoint
 10
-153.4800817947562
 20
-811.7870112307898
 30
0.0
  0
POINT
  5
8EE
330
8E3
100
AcDbEntity
  8
Defpoints
 62
     0
100
AcDbPoint
 10
-155.9372688488765
 20
-811.7870112307898
 30
0.0
  0
POINT
  5
8EF
330
8E3
100
AcDbEntity
  8
Defpoints
 62
     0
100
AcDbPoint
 10
-155.9372688488765
 20
-813.6966426527985
 30
0.0
  0
ENDBLK
  5
8F0
330
8E3
100
AcDbEntity
  8
0
100
AcDbBlockEnd
  0
BLOCK
  5
8F2
330
8F1
100
AcDbEntity
  8
0
100
AcDbBlockBegin
  2
*D19
 70
     1
 10
0.0
 20
0.0
 30
0.0
  3
*D19
  1

  0
LINE
  5
8F3
330
8F1
100
AcDbEntity
  8
0
 62
     0
370
    -2
100
AcDbLine
 10
-151.841956888683
 20
-817.4931008035521
 30
0.0
 11
-151.841956888683
 21
-820.0389928730155
 31
0.0
  0
LINE
  5
8F4
330
8F1
100
AcDbEntity
  8
0
 62
     0
370
    -2
100
AcDbLine
 10
-154.9361926868259
 20
-817.4931008035521
 30
0.0
 11
-154.9361926868259
 21
-820.0389928730155
 31
0.0
  0
LINE
  5
8F5
330
8F1
100
AcDbEntity
  8
0
 62
     0
370
    -2
100
AcDbLine
 10
-149.341956888683
 20
-818.7889928730154
 30
0.0
 11
-146.841956888683
 21
-818.7889928730154
 31
0.0
  0
LINE
  5
8F6
330
8F1
100
AcDbEntity
  8
0
 62
     0
370
    -2
100
AcDbLine
 10
-157.4361926868259
 20
-818.7889928730154
 30
0.0
 11
-169.4361926868259
 21
-818.7889928730154
 31
0.0
  0
LINE
  5
8F7
330
8F1
100
AcDbEntity
  8
0
 62
     0
370
    -2
100
AcDbLine
 10
-151.841956888683
 20
-818.7889928730154
 30
0.0
 11
-154.9361926868259
 21
-818.7889928730154
 31
0.0
  0
INSERT
  5
8F8
330
8F1
100
AcDbEntity
  8
0
 62
     0
370
    -2
100
AcDbBlockReference
  2
_Open30
 10
-151.841956888683
 20
-818.7889928730154
 30
0.0
 41
2.5
 42
2.5
 43
2.5
 50
180.0
  0
INSERT
  5
8F9
330
8F1
100
AcDbEntity
  8
0
 62
     0
370
    -2
100
AcDbBlockReference
  2
_Open30
 10
-154.9361926868259
 20
-818.7889928730154
 30
0.0
 41
2.5
 42
2.5
 43
2.5
  0
MTEXT
  5
8FA
330
8F1
100
AcDbEntity
  8
0
 62
     4
100
AcDbMText
 10
-164.8111926868259
 20
-816.6639928730154
 30
0.0
 40
3.0
 41
0.0
 71
     5
 72
     1
  1
1.55
 73
     1
 44
1.0
1001
ACAD
1000
MTEXTBEGIN
1070
    73
1070
     1
1070
    44
1040
1.0
1070
    74
1070
     0
1000
MTEXTEND
  0
POINT
  5
8FB
330
8F1
100
AcDbEntity
  8
Defpoints
 62
     0
100
AcDbPoint
 10
-151.841956888683
 20
-817.2431008035522
 30
0.0
  0
POINT
  5
8FC
330
8F1
100
AcDbEntity
  8
Defpoints
 62
     0
100
AcDbPoint
 10
-154.9361926868259
 20
-817.2431008035522
 30
0.0
  0
POINT
  5
8FD
330
8F1
100
AcDbEntity
  8
Defpoints
 62
     0
100
AcDbPoint
 10
-154.9361926868259
 20
-818.7889928730154
 30
0.0
  0
ENDBLK
  5
8FE
330
8F1
100
AcDbEntity
  8
0
100
AcDbBlockEnd
  0
BLOCK
  5
900
330
8FF
100
AcDbEntity
  8
0
100
AcDbBlockBegin
  2
*D20
 70
     1
 10
0.0
 20
0.0
 30
0.0
  3
*D20
  1

  0
LINE
  5
901
330
8FF
100
AcDbEntity
  8
0
 62
     0
370
    -2
100
AcDbLine
 10
-150.1128252805975
 20
-822.9491905193986
 30
0.0
 11
-150.1128252805975
 21
-825.2222781817659
 31
0.0
  0
LINE
  5
902
330
8FF
100
AcDbEntity
  8
0
 62
     0
370
    -2
100
AcDbLine
 10
-154.1171302337894
 20
-822.9491905193986
 30
0.0
 11
-154.1171302337894
 21
-825.2222781817659
 31
0.0
  0
LINE
  5
903
330
8FF
100
AcDbEntity
  8
0
 62
     0
370
    -2
100
AcDbLine
 10
-147.6128252805976
 20
-823.9722781817658
 30
0.0
 11
-145.1128252805975
 21
-823.9722781817658
 31
0.0
  0
LINE
  5
904
330
8FF
100
AcDbEntity
  8
0
 62
     0
370
    -2
100
AcDbLine
 10
-156.6171302337894
 20
-823.9722781817658
 30
0.0
 11
-164.9504635671227
 21
-823.9722781817658
 31
0.0
  0
LINE
  5
905
330
8FF
100
AcDbEntity
  8
0
 62
     0
370
    -2
100
AcDbLine
 10
-150.1128252805975
 20
-823.9722781817658
 30
0.0
 11
-154.1171302337894
 21
-823.9722781817658
 31
0.0
  0
INSERT
  5
906
330
8FF
100
AcDbEntity
  8
0
 62
     0
370
    -2
100
AcDbBlockReference
  2
_Open30
 10
-150.1128252805975
 20
-823.9722781817658
 30
0.0
 41
2.5
 42
2.5
 43
2.5
 50
180.0
  0
INSERT
  5
907
330
8FF
100
AcDbEntity
  8
0
 62
     0
370
    -2
100
AcDbBlockReference
  2
_Open30
 10
-154.1171302337894
 20
-823.9722781817658
 30
0.0
 41
2.5
 42
2.5
 43
2.5
  0
MTEXT
  5
908
330
8FF
100
AcDbEntity
  8
0
 62
     4
100
AcDbMText
 10
-162.4921302337894
 20
-822.3472781817658
 30
0.0
 40
2.0
 41
0.0
 71
     5
 72
     1
  1
0.8
  7
高2
 73
     1
 44
1.0
1001
ACAD
1000
MTEXTBEGIN
1070
    73
1070
     1
1070
    44
1040
1.0
1070
    74
1070
     0
1000
MTEXTEND
  0
POINT
  5
909
330
8FF
100
AcDbEntity
  8
Defpoints
 62
     0
100
AcDbPoint
 10
-150.1128252805975
 20
-822.6991905193985
 30
0.0
  0
POINT
  5
90A
330
8FF
100
AcDbEntity
  8
Defpoints
 62
     0
100
AcDbPoint
 10
-154.1171302337894
 20
-822.6991905193985
 30
0.0
  0
POINT
  5
90B
330
8FF
100
AcDbEntity
  8
Defpoints
 62
     0
100
AcDbPoint
 10
-154.1171302337894
 20
-823.9722781817658
 30
0.0
  0
ENDBLK
  5
90C
330
8FF
100
AcDbEntity
  8
0
100
AcDbBlockEnd
  0
BLOCK
  5
90E
330
90D
100
AcDbEntity
  8
0
100
AcDbBlockBegin
  2
*D21
 70
     1
 10
0.0
 20
0.0
 30
0.0
  3
*D21
  1

  0
LINE
  5
90F
330
90D
100
AcDbEntity
  8
0
 62
     0
370
    -2
100
AcDbLine
 10
-150.2038319826098
 20
-828.2234104874302
 30
0.0
 11
-150.2038319826098
 21
-830.0418239948866
 31
0.0
  0
LINE
  5
910
330
90D
100
AcDbEntity
  8
0
 62
     0
370
    -2
100
AcDbLine
 10
-154.9361926868259
 20
-828.2234104874302
 30
0.0
 11
-154.9361926868259
 21
-830.0418239948866
 31
0.0
  0
LINE
  5
911
330
90D
100
AcDbEntity
  8
0
 62
     0
370
    -2
100
AcDbLine
 10
-147.7038319826099
 20
-828.7918239948865
 30
0.0
 11
-145.2038319826098
 21
-828.7918239948865
 31
0.0
  0
LINE
  5
912
330
90D
100
AcDbEntity
  8
0
 62
     0
370
    -2
100
AcDbLine
 10
-157.4361926868259
 20
-828.7918239948865
 30
0.0
 11
-172.1861926868259
 21
-828.7918239948865
 31
0.0
  0
LINE
  5
913
330
90D
100
AcDbEntity
  8
0
 62
     0
370
    -2
100
AcDbLine
 10
-150.2038319826098
 20
-828.7918239948865
 30
0.0
 11
-154.9361926868259
 21
-828.7918239948865
 31
0.0
  0
INSERT
  5
914
330
90D
100
AcDbEntity
  8
0
 62
     0
370
    -2
100
AcDbBlockReference
  2
_Open30
 10
-150.2038319826098
 20
-828.7918239948865
 30
0.0
 41
2.5
 42
2.5
 43
2.5
 50
180.0
  0
INSERT
  5
915
330
90D
100
AcDbEntity
  8
0
 62
     0
370
    -2
100
AcDbBlockReference
  2
_Open30
 10
-154.9361926868259
 20
-828.7918239948865
 30
0.0
 41
2.5
 42
2.5
 43
2.5
  0
MTEXT
  5
916
330
90D
100
AcDbEntity
  8
0
 62
     4
100
AcDbMText
 10
-166.0611926868259
 20
-826.6668239948867
 30
0.0
 40
3.0
 41
0.0
 71
     5
 72
     1
  1
18.93
 73
     1
 44
1.0
1001
ACAD
1000
MTEXTBEGIN
1070
    73
1070
     1
1070
    44
1040
1.0
1070
    74
1070
     0
1000
MTEXTEND
  0
POINT
  5
917
330
90D
100
AcDbEntity
  8
Defpoints
 62
     0
100
AcDbPoint
 10
-150.2038319826098
 20
-827.9734104874302
 30
0.0
  0
POINT
  5
918
330
90D
100
AcDbEntity
  8
Defpoints
 62
     0
100
AcDbPoint
 10
-154.9361926868259
 20
-827.9734104874302
 30
0.0
  0
POINT
  5
919
330
90D
100
AcDbEntity
  8
Defpoints
 62
     0
100
AcDbPoint
 10
-154.9361926868259
 20
-828.7918239948865
 30
0.0
  0
ENDBLK
  5
91A
330
90D
100
AcDbEntity
  8
0
100
AcDbBlockEnd
  0
BLOCK
  5
91C
330
91B
100
AcDbEntity
  8
0
100
AcDbBlockBegin
  2
*D22
 70
     1
 10
0.0
 20
0.0
 30
0.0
  3
*D22
  1

  0
LINE
  5
91D
330
91B
100
AcDbEntity
  8
0
 62
     0
370
    -2
100
AcDbLine
 10
-153.0082588337482
 20
-833.2792506940199
 30
0.0
 11
-153.0082588337482
 21
-835.5891717708955
 31
0.0
  0
LINE
  5
91E
330
91B
100
AcDbEntity
  8
0
 62
     0
370
    -2
100
AcDbLine
 10
-157.5969340358961
 20
-833.2792506940199
 30
0.0
 11
-157.5969340358961
 21
-835.5891717708955
 31
0.0
  0
LINE
  5
91F
330
91B
100
AcDbEntity
  8
0
 62
     0
370
    -2
100
AcDbLine
 10
-150.5082588337482
 20
-834.3391717708955
 30
0.0
 11
-148.0082588337482
 21
-834.3391717708955
 31
0.0
  0
LINE
  5
920
330
91B
100
AcDbEntity
  8
0
 62
     0
370
    -2
100
AcDbLine
 10
-160.0969340358961
 20
-834.3391717708955
 30
0.0
 11
-174.8469340358961
 21
-834.3391717708955
 31
0.0
  0
LINE
  5
921
330
91B
100
AcDbEntity
  8
0
 62
     0
370
    -2
100
AcDbLine
 10
-153.0082588337482
 20
-834.3391717708955
 30
0.0
 11
-157.5969340358961
 21
-834.3391717708955
 31
0.0
  0
INSERT
  5
922
330
91B
100
AcDbEntity
  8
0
 62
     0
370
    -2
100
AcDbBlockReference
  2
_Open30
 10
-153.0082588337482
 20
-834.3391717708955
 30
0.0
 41
2.5
 42
2.5
 43
2.5
 50
180.0
  0
INSERT
  5
923
330
91B
100
AcDbEntity
  8
0
 62
     0
370
    -2
100
AcDbBlockReference
  2
_Open30
 10
-157.5969340358961
 20
-834.3391717708955
 30
0.0
 41
2.5
 42
2.5
 43
2.5
  0
MTEXT
  5
924
330
91B
100
AcDbEntity
  8
0
 62
     4
100
AcDbMText
 10
-168.7219340358961
 20
-832.2141717708955
 30
0.0
 40
3.0
 41
0.0
 71
     5
 72
     1
  1
13.77
 73
     1
 44
1.0
1001
ACAD
1000
MTEXTBEGIN
1070
    73
1070
     1
1070
    44
1040
1.0
1070
    74
1070
     0
1000
MTEXTEND
  0
POINT
  5
925
330
91B
100
AcDbEntity
  8
Defpoints
 62
     0
100
AcDbPoint
 10
-153.0082588337482
 20
-833.0292506940201
 30
0.0
  0
POINT
  5
926
330
91B
100
AcDbEntity
  8
Defpoints
 62
     0
100
AcDbPoint
 10
-157.5969340358961
 20
-833.0292506940201
 30
0.0
  0
POINT
  5
927
330
91B
100
AcDbEntity
  8
Defpoints
 62
     0
100
AcDbPoint
 10
-157.5969340358961
 20
-834.3391717708955
 30
0.0
  0
ENDBLK
  5
928
330
91B
100
AcDbEntity
  8
0
100
AcDbBlockEnd
  0
BLOCK
  5
92A
330
929
100
AcDbEntity
  8
0
100
AcDbBlockBegin
  2
*D23
 70
     1
 10
0.0
 20
0.0
 30
0.0
  3
*D23
  1

  0
LINE
  5
92B
330
929
100
AcDbEntity
  8
0
 62
     0
370
    -2
100
AcDbLine
 10
-160.1045416668985
 20
-802.3497593757458
 30
0.0
 11
-160.1045416668985
 21
-794.9532258978079
 31
0.0
  0
LINE
  5
92C
330
929
100
AcDbEntity
  8
0
 62
     0
370
    -2
100
AcDbLine
 10
-170.0430160363884
 20
-802.3497593757458
 30
0.0
 11
-170.0430160363884
 21
-794.9532258978079
 31
0.0
  0
LINE
  5
92D
330
929
100
AcDbEntity
  8
0
 62
     0
370
    -2
100
AcDbLine
 10
-162.6045416668985
 20
-796.2032258978077
 30
0.0
 11
-167.5430160363885
 21
-796.2032258978077
 31
0.0
  0
INSERT
  5
92E
330
929
100
AcDbEntity
  8
0
 62
     0
370
    -2
100
AcDbBlockReference
  2
_Open30
 10
-160.1045416668985
 20
-796.2032258978077
 30
0.0
 41
2.5
 42
2.5
 43
2.5
  0
INSERT
  5
92F
330
929
100
AcDbEntity
  8
0
 62
     0
370
    -2
100
AcDbBlockReference
  2
_Open30
 10
-170.0430160363884
 20
-796.2032258978077
 30
0.0
 41
2.5
 42
2.5
 43
2.5
 50
180.0
  0
MTEXT
  5
930
330
929
100
AcDbEntity
  8
0
 62
     4
100
AcDbMText
 10
-165.0737788516435
 20
-793.1282258978077
 30
0.0
 40
3.0
 41
0.0
 71
     5
 72
     1
  1
9.94\H0.7X;\S+0^ -0.02;
 73
     1
 44
1.0
1001
ACAD
1000
MTEXTBEGIN
1070
    73
1070
     1
1070
    44
1040
1.0
1070
    74
1070
     0
1000
MTEXTEND
  0
POINT
  5
931
330
929
100
AcDbEntity
  8
Defpoints
 62
     0
100
AcDbPoint
 10
-160.1045416668985
 20
-802.5997593757455
 30
0.0
  0
POINT
  5
932
330
929
100
AcDbEntity
  8
Defpoints
 62
     0
100
AcDbPoint
 10
-170.0430160363884
 20
-802.5997593757455
 30
0.0
  0
POINT
  5
933
330
929
100
AcDbEntity
  8
Defpoints
 62
     0
100
AcDbPoint
 10
-170.0430160363884
 20
-796.2032258978077
 30
0.0
  0
ENDBLK
  5
934
330
929
100
AcDbEntity
  8
0
100
AcDbBlockEnd
  0
BLOCK
  5
AAC
330
AAB
100
AcDbEntity
  8
0
100
AcDbBlockBegin
  2
*D24
 70
     1
 10
0.0
 20
0.0
 30
0.0
  3
*D24
  1

  0
LINE
  5
B35
330
AAB
100
AcDbEntity
  8
0
 62
     0
370
    -2
100
AcDbLine
 10
1346.471809302721
 20
807.6379244287322
 30
0.0
 11
1346.471809302721
 21
804.7282930067236
 31
0.0
  0
LINE
  5
B36
330
AAB
100
AcDbEntity
  8
0
 62
     0
370
    -2
100
AcDbLine
 10
1344.014622248601
 20
807.6379244287322
 30
0.0
 11
1344.014622248601
 21
804.7282930067236
 31
0.0
  0
LINE
  5
B37
330
AAB
100
AcDbEntity
  8
0
 62
     0
370
    -2
100
AcDbLine
 10
1348.971809302721
 20
805.9782930067234
 30
0.0
 11
1351.471809302721
 21
805.9782930067234
 31
0.0
  0
LINE
  5
B38
330
AAB
100
AcDbEntity
  8
0
 62
     0
370
    -2
100
AcDbLine
 10
1341.514622248601
 20
805.9782930067234
 30
0.0
 11
1328.764622248601
 21
805.9782930067234
 31
0.0
  0
LINE
  5
B39
330
AAB
100
AcDbEntity
  8
0
 62
     0
370
    -2
100
AcDbLine
 10
1346.471809302721
 20
805.9782930067234
 30
0.0
 11
1344.014622248601
 21
805.9782930067234
 31
0.0
  0
INSERT
  5
B3A
330
AAB
100
AcDbEntity
  8
0
 62
     0
370
    -2
100
AcDbBlockReference
  2
_Open30
 10
1346.471809302721
 20
805.9782930067234
 30
0.0
 41
2.5
 42
2.5
 43
2.5
 50
180.0
  0
INSERT
  5
B3B
330
AAB
100
AcDbEntity
  8
0
 62
     0
370
    -2
100
AcDbBlockReference
  2
_Open30
 10
1344.014622248601
 20
805.9782930067234
 30
0.0
 41
2.5
 42
2.5
 43
2.5
  0
MTEXT
  5
B3C
330
AAB
100
AcDbEntity
  8
0
 62
     4
100
AcDbMText
 10
1333.889622248601
 20
808.1032930067236
 30
0.0
 40
3.0
 41
0.0
 71
     5
 72
     1
  1
2.46
 73
     1
 44
1.0
1001
ACAD
1000
MTEXTBEGIN
1070
    73
1070
     1
1070
    44
1040
1.0
1070
    74
1070
     0
1000
MTEXTEND
  0
POINT
  5
B3D
330
AAB
100
AcDbEntity
  8
Defpoints
 62
     0
100
AcDbPoint
 10
1346.471809302721
 20
807.8879244287323
 30
0.0
  0
POINT
  5
B3E
330
AAB
100
AcDbEntity
  8
Defpoints
 62
     0
100
AcDbPoint
 10
1344.014622248601
 20
807.8879244287323
 30
0.0
  0
POINT
  5
B3F
330
AAB
100
AcDbEntity
  8
Defpoints
 62
     0
100
AcDbPoint
 10
1344.014622248601
 20
805.9782930067234
 30
0.0
  0
ENDBLK
  5
AAD
330
AAB
100
AcDbEntity
  8
0
100
AcDbBlockEnd
  0
BLOCK
  5
ABA
330
AB9
100
AcDbEntity
  8
0
100
AcDbBlockBegin
  2
*D25
 70
     1
 10
0.0
 20
0.0
 30
0.0
  3
*D25
  1

  0
LINE
  5
B40
330
AB9
100
AcDbEntity
  8
0
 62
     0
370
    -2
100
AcDbLine
 10
1348.109934208794
 20
802.1818348559699
 30
0.0
 11
1348.109934208794
 21
799.6359427865066
 31
0.0
  0
LINE
  5
B41
330
AB9
100
AcDbEntity
  8
0
 62
     0
370
    -2
100
AcDbLine
 10
1345.015698410651
 20
802.1818348559699
 30
0.0
 11
1345.015698410651
 21
799.6359427865066
 31
0.0
  0
LINE
  5
B42
330
AB9
100
AcDbEntity
  8
0
 62
     0
370
    -2
100
AcDbLine
 10
1350.609934208794
 20
800.8859427865068
 30
0.0
 11
1353.109934208794
 21
800.8859427865068
 31
0.0
  0
LINE
  5
B43
330
AB9
100
AcDbEntity
  8
0
 62
     0
370
    -2
100
AcDbLine
 10
1342.515698410651
 20
800.8859427865068
 30
0.0
 11
1328.682365077318
 21
800.8859427865068
 31
0.0
  0
LINE
  5
B44
330
AB9
100
AcDbEntity
  8
0
 62
     0
370
    -2
100
AcDbLine
 10
1348.109934208794
 20
800.8859427865068
 30
0.0
 11
1345.015698410651
 21
800.8859427865068
 31
0.0
  0
INSERT
  5
B45
330
AB9
100
AcDbEntity
  8
0
 62
     0
370
    -2
100
AcDbBlockReference
  2
_Open30
 10
1348.109934208794
 20
800.8859427865068
 30
0.0
 41
2.5
 42
2.5
 43
2.5
 50
180.0
  0
INSERT
  5
B46
330
AB9
100
AcDbEntity
  8
0
 62
     0
370
    -2
100
AcDbBlockReference
  2
_Open30
 10
1345.015698410651
 20
800.8859427865068
 30
0.0
 41
2.5
 42
2.5
 43
2.5
  0
MTEXT
  5
B47
330
AB9
100
AcDbEntity
  8
0
 62
     4
100
AcDbMText
 10
1333.890698410651
 20
802.7609427865067
 30
0.0
 40
2.5
 41
0.0
 71
     5
 72
     1
  1
15.47
  7
高2.5
 73
     1
 44
1.0
1001
ACAD
1000
MTEXTBEGIN
1070
    73
1070
     1
1070
    44
1040
1.0
1070
    74
1070
     0
1000
MTEXTEND
  0
POINT
  5
B48
330
AB9
100
AcDbEntity
  8
Defpoints
 62
     0
100
AcDbPoint
 10
1348.109934208794
 20
802.4318348559699
 30
0.0
  0
POINT
  5
B49
330
AB9
100
AcDbEntity
  8
Defpoints
 62
     0
100
AcDbPoint
 10
1345.015698410651
 20
802.4318348559699
 30
0.0
  0
POINT
  5
B4A
330
AB9
100
AcDbEntity
  8
Defpoints
 62
     0
100
AcDbPoint
 10
1345.015698410651
 20
800.8859427865068
 30
0.0
  0
ENDBLK
  5
ABB
330
AB9
100
AcDbEntity
  8
0
100
AcDbBlockEnd
  0
BLOCK
  5
AC8
330
AC7
100
AcDbEntity
  8
0
100
AcDbBlockBegin
  2
*D26
 70
     1
 10
0.0
 20
0.0
 30
0.0
  3
*D26
  1

  0
LINE
  5
B4B
330
AC7
100
AcDbEntity
  8
0
 62
     0
370
    -2
100
AcDbLine
 10
1349.83906581688
 20
796.7257451401234
 30
0.0
 11
1349.83906581688
 21
794.4526574777563
 31
0.0
  0
LINE
  5
B4C
330
AC7
100
AcDbEntity
  8
0
 62
     0
370
    -2
100
AcDbLine
 10
1345.834760863688
 20
796.7257451401234
 30
0.0
 11
1345.834760863688
 21
794.4526574777563
 31
0.0
  0
LINE
  5
B4D
330
AC7
100
AcDbEntity
  8
0
 62
     0
370
    -2
100
AcDbLine
 10
1352.33906581688
 20
795.7026574777562
 30
0.0
 11
1354.83906581688
 21
795.7026574777562
 31
0.0
  0
LINE
  5
B4E
330
AC7
100
AcDbEntity
  8
0
 62
     0
370
    -2
100
AcDbLine
 10
1343.334760863688
 20
795.7026574777562
 30
0.0
 11
1331.584760863688
 21
795.7026574777562
 31
0.0
  0
LINE
  5
B4F
330
AC7
100
AcDbEntity
  8
0
 62
     0
370
    -2
100
AcDbLine
 10
1349.83906581688
 20
795.7026574777562
 30
0.0
 11
1345.834760863688
 21
795.7026574777562
 31
0.0
  0
INSERT
  5
B50
330
AC7
100
AcDbEntity
  8
0
 62
     0
370
    -2
100
AcDbBlockReference
  2
_Open30
 10
1349.83906581688
 20
795.7026574777562
 30
0.0
 41
2.5
 42
2.5
 43
2.5
 50
180.0
  0
INSERT
  5
B51
330
AC7
100
AcDbEntity
  8
0
 62
     0
370
    -2
100
AcDbBlockReference
  2
_Open30
 10
1345.834760863688
 20
795.7026574777562
 30
0.0
 41
2.5
 42
2.5
 43
2.5
  0
MTEXT
  5
B52
330
AC7
100
AcDbEntity
  8
0
 62
     4
100
AcDbMText
 10
1336.209760863688
 20
797.9276574777562
 30
0.0
 40
3.2
 41
0.0
 71
     5
 72
     1
  1
8.01
  7
高3.2
 73
     1
 44
1.0
1001
ACAD
1000
MTEXTBEGIN
1070
    73
1070
     1
1070
    44
1040
1.0
1070
    74
1070
     0
1000
MTEXTEND
  0
POINT
  5
B53
330
AC7
100
AcDbEntity
  8
Defpoints
 62
     0
100
AcDbPoint
 10
1349.83906581688
 20
796.9757451401234
 30
0.0
  0
POINT
  5
B54
330
AC7
100
AcDbEntity
  8
Defpoints
 62
     0
100
AcDbPoint
 10
1345.834760863688
 20
796.9757451401234
 30
0.0
  0
POINT
  5
B55
330
AC7
100
AcDbEntity
  8
Defpoints
 62
     0
100
AcDbPoint
 10
1345.834760863688
 20
795.7026574777562
 30
0.0
  0
ENDBLK
  5
AC9
330
AC7
100
AcDbEntity
  8
0
100
AcDbBlockEnd
  0
BLOCK
  5
AD6
330
AD5
100
AcDbEntity
  8
0
100
AcDbBlockBegin
  2
*D27
 70
     1
 10
0.0
 20
0.0
 30
0.0
  3
*D27
  1

  0
LINE
  5
B56
330
AD5
100
AcDbEntity
  8
0
 62
     0
370
    -2
100
AcDbLine
 10
1349.748059114867
 20
791.4515251720916
 30
0.0
 11
1349.748059114867
 21
789.6331116646355
 31
0.0
  0
LINE
  5
B57
330
AD5
100
AcDbEntity
  8
0
 62
     0
370
    -2
100
AcDbLine
 10
1345.015698410651
 20
791.4515251720916
 30
0.0
 11
1345.015698410651
 21
789.6331116646355
 31
0.0
  0
LINE
  5
B58
330
AD5
100
AcDbEntity
  8
0
 62
     0
370
    -2
100
AcDbLine
 10
1352.248059114868
 20
790.8831116646353
 30
0.0
 11
1354.748059114867
 21
790.8831116646353
 31
0.0
  0
LINE
  5
B59
330
AD5
100
AcDbEntity
  8
0
 62
     0
370
    -2
100
AcDbLine
 10
1342.515698410651
 20
790.8831116646353
 30
0.0
 11
1320.765698410651
 21
790.8831116646353
 31
0.0
  0
LINE
  5
B5A
330
AD5
100
AcDbEntity
  8
0
 62
     0
370
    -2
100
AcDbLine
 10
1349.748059114867
 20
790.8831116646353
 30
0.0
 11
1345.015698410651
 21
790.8831116646353
 31
0.0
  0
INSERT
  5
B5B
330
AD5
100
AcDbEntity
  8
0
 62
     0
370
    -2
100
AcDbBlockReference
  2
_Open30
 10
1349.748059114867
 20
790.8831116646353
 30
0.0
 41
2.5
 42
2.5
 43
2.5
 50
180.0
  0
INSERT
  5
B5C
330
AD5
100
AcDbEntity
  8
0
 62
     0
370
    -2
100
AcDbBlockReference
  2
_Open30
 10
1345.015698410651
 20
790.8831116646353
 30
0.0
 41
2.5
 42
2.5
 43
2.5
  0
MTEXT
  5
B5D
330
AD5
100
AcDbEntity
  8
0
 62
     4
100
AcDbMText
 10
1330.390698410651
 20
793.7581116646355
 30
0.0
 40
4.5
 41
0.0
 71
     5
 72
     1
  1
47.32
  7
高4.5
 73
     1
 44
1.0
1001
ACAD
1000
MTEXTBEGIN
1070
    73
1070
     1
1070
    44
1040
1.0
1070
    74
1070
     0
1000
MTEXTEND
  0
POINT
  5
B5E
330
AD5
100
AcDbEntity
  8
Defpoints
 62
     0
100
AcDbPoint
 10
1349.748059114867
 20
791.7015251720917
 30
0.0
  0
POINT
  5
B5F
330
AD5
100
AcDbEntity
  8
Defpoints
 62
     0
100
AcDbPoint
 10
1345.015698410651
 20
791.7015251720917
 30
0.0
  0
POINT
  5
B60
330
AD5
100
AcDbEntity
  8
Defpoints
 62
     0
100
AcDbPoint
 10
1345.015698410651
 20
790.8831116646353
 30
0.0
  0
ENDBLK
  5
AD7
330
AD5
100
AcDbEntity
  8
0
100
AcDbBlockEnd
  0
BLOCK
  5
AE4
330
AE3
100
AcDbEntity
  8
0
100
AcDbBlockBegin
  2
*D28
 70
     1
 10
0.0
 20
0.0
 30
0.0
  3
*D28
  1

  0
LINE
  5
B61
330
AE3
100
AcDbEntity
  8
0
 62
     0
370
    -2
100
AcDbLine
 10
1371.225695382875
 20
807.6379244287322
 30
0.0
 11
1371.225695382875
 21
804.7282930067236
 31
0.0
  0
LINE
  5
B62
330
AE3
100
AcDbEntity
  8
0
 62
     0
370
    -2
100
AcDbLine
 10
1368.768508328755
 20
807.6379244287322
 30
0.0
 11
1368.768508328755
 21
804.7282930067236
 31
0.0
  0
LINE
  5
B63
330
AE3
100
AcDbEntity
  8
0
 62
     0
370
    -2
100
AcDbLine
 10
1373.725695382875
 20
805.9782930067234
 30
0.0
 11
1376.225695382875
 21
805.9782930067234
 31
0.0
  0
LINE
  5
B64
330
AE3
100
AcDbEntity
  8
0
 62
     0
370
    -2
100
AcDbLine
 10
1366.268508328755
 20
805.9782930067234
 30
0.0
 11
1344.668508328755
 21
805.9782930067234
 31
0.0
  0
LINE
  5
B65
330
AE3
100
AcDbEntity
  8
0
 62
     0
370
    -2
100
AcDbLine
 10
1371.225695382875
 20
805.9782930067234
 30
0.0
 11
1368.768508328755
 21
805.9782930067234
 31
0.0
  0
INSERT
  5
B66
330
AE3
100
AcDbEntity
  8
0
 62
     0
370
    -2
100
AcDbBlockReference
  2
_Open30
 10
1371.225695382875
 20
805.9782930067234
 30
0.0
 41
2.5
 42
2.5
 43
2.5
 50
180.0
  0
INSERT
  5
B67
330
AE3
100
AcDbEntity
  8
0
 62
     0
370
    -2
100
AcDbBlockReference
  2
_Open30
 10
1368.768508328755
 20
805.9782930067234
 30
0.0
 41
2.5
 42
2.5
 43
2.5
  0
MTEXT
  5
B68
330
AE3
100
AcDbEntity
  8
0
 62
     4
100
AcDbMText
 10
1354.218508328755
 20
809.7532930067231
 30
0.0
 40
6.299999999999998
 41
0.0
 71
     5
 72
     1
  1
0.25
  7
高6.3
 73
     1
 44
1.0
1001
ACAD
1000
MTEXTBEGIN
1070
    73
1070
     1
1070
    44
1040
1.0
1070
    74
1070
     0
1000
MTEXTEND
  0
POINT
  5
B69
330
AE3
100
AcDbEntity
  8
Defpoints
 62
     0
100
AcDbPoint
 10
1371.225695382875
 20
807.8879244287323
 30
0.0
  0
POINT
  5
B6A
330
AE3
100
AcDbEntity
  8
Defpoints
 62
     0
100
AcDbPoint
 10
1368.768508328755
 20
807.8879244287323
 30
0.0
  0
POINT
  5
B6B
330
AE3
100
AcDbEntity
  8
Defpoints
 62
     0
100
AcDbPoint
 10
1368.768508328755
 20
805.9782930067234
 30
0.0
  0
ENDBLK
  5
AE5
330
AE3
100
AcDbEntity
  8
0
100
AcDbBlockEnd
  0
BLOCK
  5
AF2
330
AF1
100
AcDbEntity
  8
0
100
AcDbBlockBegin
  2
*D29
 70
     1
 10
0.0
 20
0.0
 30
0.0
  3
*D29
  1

  0
LINE
  5
B6C
330
AF1
100
AcDbEntity
  8
0
 62
     0
370
    -2
100
AcDbLine
 10
1372.863820288948
 20
802.1818348559699
 30
0.0
 11
1372.863820288948
 21
799.6359427865066
 31
0.0
  0
LINE
  5
B6D
330
AF1
100
AcDbEntity
  8
0
 62
     0
370
    -2
100
AcDbLine
 10
1369.769584490805
 20
802.1818348559699
 30
0.0
 11
1369.769584490805
 21
799.6359427865066
 31
0.0
  0
LINE
  5
B6E
330
AF1
100
AcDbEntity
  8
0
 62
     0
370
    -2
100
AcDbLine
 10
1375.363820288948
 20
800.8859427865068
 30
0.0
 11
1377.863820288948
 21
800.8859427865068
 31
0.0
  0
LINE
  5
B6F
330
AF1
100
AcDbEntity
  8
0
 62
     0
370
    -2
100
AcDbLine
 10
1367.269584490805
 20
800.8859427865068
 30
0.0
 11
1355.269584490805
 21
800.8859427865068
 31
0.0
  0
LINE
  5
B70
330
AF1
100
AcDbEntity
  8
0
 62
     0
370
    -2
100
AcDbLine
 10
1372.863820288948
 20
800.8859427865068
 30
0.0
 11
1369.769584490805
 21
800.8859427865068
 31
0.0
  0
INSERT
  5
B71
330
AF1
100
AcDbEntity
  8
0
 62
     0
370
    -2
100
AcDbBlockReference
  2
_Open30
 10
1372.863820288948
 20
800.8859427865068
 30
0.0
 41
2.5
 42
2.5
 43
2.5
 50
180.0
  0
INSERT
  5
B72
330
AF1
100
AcDbEntity
  8
0
 62
     0
370
    -2
100
AcDbBlockReference
  2
_Open30
 10
1369.769584490805
 20
800.8859427865068
 30
0.0
 41
2.5
 42
2.5
 43
2.5
  0
MTEXT
  5
B73
330
AF1
100
AcDbEntity
  8
0
 62
     4
100
AcDbMText
 10
1359.894584490805
 20
803.0109427865067
 30
0.0
 40
3.0
 41
0.0
 71
     5
 72
     1
  1
1.55
 73
     1
 44
1.0
1001
ACAD
1000
MTEXTBEGIN
1070
    73
1070
     1
1070
    44
1040
1.0
1070
    74
1070
     0
1000
MTEXTEND
  0
POINT
  5
B74
330
AF1
100
AcDbEntity
  8
Defpoints
 62
     0
100
AcDbPoint
 10
1372.863820288948
 20
802.4318348559699
 30
0.0
  0
POINT
  5
B75
330
AF1
100
AcDbEntity
  8
Defpoints
 62
     0
100
AcDbPoint
 10
1369.769584490805
 20
802.4318348559699
 30
0.0
  0
POINT
  5
B76
330
AF1
100
AcDbEntity
  8
Defpoints
 62
     0
100
AcDbPoint
 10
1369.769584490805
 20
800.8859427865068
 30
0.0
  0
ENDBLK
  5
AF3
330
AF1
100
AcDbEntity
  8
0
100
AcDbBlockEnd
  0
BLOCK
  5
B00
330
AFF
100
AcDbEntity
  8
0
100
AcDbBlockBegin
  2
*D30
 70
     1
 10
0.0
 20
0.0
 30
0.0
  3
*D30
  1

  0
LINE
  5
B77
330
AFF
100
AcDbEntity
  8
0
 62
     0
370
    -2
100
AcDbLine
 10
1374.592951897034
 20
796.7257451401234
 30
0.0
 11
1374.592951897034
 21
794.4526574777563
 31
0.0
  0
LINE
  5
B78
330
AFF
100
AcDbEntity
  8
0
 62
     0
370
    -2
100
AcDbLine
 10
1370.588646943842
 20
796.7257451401234
 30
0.0
 11
1370.588646943842
 21
794.4526574777563
 31
0.0
  0
LINE
  5
B79
330
AFF
100
AcDbEntity
  8
0
 62
     0
370
    -2
100
AcDbLine
 10
1377.092951897034
 20
795.7026574777562
 30
0.0
 11
1379.592951897034
 21
795.7026574777562
 31
0.0
  0
LINE
  5
B7A
330
AFF
100
AcDbEntity
  8
0
 62
     0
370
    -2
100
AcDbLine
 10
1368.088646943842
 20
795.7026574777562
 30
0.0
 11
1359.755313610508
 21
795.7026574777562
 31
0.0
  0
LINE
  5
B7B
330
AFF
100
AcDbEntity
  8
0
 62
     0
370
    -2
100
AcDbLine
 10
1374.592951897034
 20
795.7026574777562
 30
0.0
 11
1370.588646943842
 21
795.7026574777562
 31
0.0
  0
INSERT
  5
B7C
330
AFF
100
AcDbEntity
  8
0
 62
     0
370
    -2
100
AcDbBlockReference
  2
_Open30
 10
1374.592951897034
 20
795.7026574777562
 30
0.0
 41
2.5
 42
2.5
 43
2.5
 50
180.0
  0
INSERT
  5
B7D
330
AFF
100
AcDbEntity
  8
0
 62
     0
370
    -2
100
AcDbBlockReference
  2
_Open30
 10
1370.588646943842
 20
795.7026574777562
 30
0.0
 41
2.5
 42
2.5
 43
2.5
  0
MTEXT
  5
B7E
330
AFF
100
AcDbEntity
  8
0
 62
     4
100
AcDbMText
 10
1362.213646943842
 20
797.3276574777562
 30
0.0
 40
2.0
 41
0.0
 71
     5
 72
     1
  1
0.8
  7
高2
 73
     1
 44
1.0
1001
ACAD
1000
MTEXTBEGIN
1070
    73
1070
     1
1070
    44
1040
1.0
1070
    74
1070
     0
1000
MTEXTEND
  0
POINT
  5
B7F
330
AFF
100
AcDbEntity
  8
Defpoints
 62
     0
100
AcDbPoint
 10
1374.592951897034
 20
796.9757451401234
 30
0.0
  0
POINT
  5
B80
330
AFF
100
AcDbEntity
  8
Defpoints
 62
     0
100
AcDbPoint
 10
1370.588646943842
 20
796.9757451401234
 30
0.0
  0
POINT
  5
B81
330
AFF
100
AcDbEntity
  8
Defpoints
 62
     0
100
AcDbPoint
 10
1370.588646943842
 20
795.7026574777562
 30
0.0
  0
ENDBLK
  5
B01
330
AFF
100
AcDbEntity
  8
0
100
AcDbBlockEnd
  0
BLOCK
  5
B0E
330
B0D
100
AcDbEntity
  8
0
100
AcDbBlockBegin
  2
*D31
 70
     1
 10
0.0
 20
0.0
 30
0.0
  3
*D31
  1

  0
LINE
  5
B82
330
B0D
100
AcDbEntity
  8
0
 62
     0
370
    -2
100
AcDbLine
 10
1374.501945195021
 20
791.4515251720916
 30
0.0
 11
1374.501945195021
 21
789.6331116646355
 31
0.0
  0
LINE
  5
B83
330
B0D
100
AcDbEntity
  8
0
 62
     0
370
    -2
100
AcDbLine
 10
1369.769584490805
 20
791.4515251720916
 30
0.0
 11
1369.769584490805
 21
789.6331116646355
 31
0.0
  0
LINE
  5
B84
330
B0D
100
AcDbEntity
  8
0
 62
     0
370
    -2
100
AcDbLine
 10
1377.001945195021
 20
790.8831116646353
 30
0.0
 11
1379.501945195021
 21
790.8831116646353
 31
0.0
  0
LINE
  5
B85
330
B0D
100
AcDbEntity
  8
0
 62
     0
370
    -2
100
AcDbLine
 10
1367.269584490805
 20
790.8831116646353
 30
0.0
 11
1352.519584490805
 21
790.8831116646353
 31
0.0
  0
LINE
  5
B86
330
B0D
100
AcDbEntity
  8
0
 62
     0
370
    -2
100
AcDbLine
 10
1374.501945195021
 20
790.8831116646353
 30
0.0
 11
1369.769584490805
 21
790.8831116646353
 31
0.0
  0
INSERT
  5
B87
330
B0D
100
AcDbEntity
  8
0
 62
     0
370
    -2
100
AcDbBlockReference
  2
_Open30
 10
1374.501945195021
 20
790.8831116646353
 30
0.0
 41
2.5
 42
2.5
 43
2.5
 50
180.0
  0
INSERT
  5
B88
330
B0D
100
AcDbEntity
  8
0
 62
     0
370
    -2
100
AcDbBlockReference
  2
_Open30
 10
1369.769584490805
 20
790.8831116646353
 30
0.0
 41
2.5
 42
2.5
 43
2.5
  0
MTEXT
  5
B89
330
B0D
100
AcDbEntity
  8
0
 62
     4
100
AcDbMText
 10
1358.644584490805
 20
793.0081116646355
 30
0.0
 40
3.0
 41
0.0
 71
     5
 72
     1
  1
18.93
 73
     1
 44
1.0
1001
ACAD
1000
MTEXTBEGIN
1070
    73
1070
     1
1070
    44
1040
1.0
1070
    74
1070
     0
1000
MTEXTEND
  0
POINT
  5
B8A
330
B0D
100
AcDbEntity
  8
Defpoints
 62
     0
100
AcDbPoint
 10
1374.501945195021
 20
791.7015251720917
 30
0.0
  0
POINT
  5
B8B
330
B0D
100
AcDbEntity
  8
Defpoints
 62
     0
100
AcDbPoint
 10
1369.769584490805
 20
791.7015251720917
 30
0.0
  0
POINT
  5
B8C
330
B0D
100
AcDbEntity
  8
Defpoints
 62
     0
100
AcDbPoint
 10
1369.769584490805
 20
790.8831116646353
 30
0.0
  0
ENDBLK
  5
B0F
330
B0D
100
AcDbEntity
  8
0
100
AcDbBlockEnd
  0
BLOCK
  5
B1C
330
B1B
100
AcDbEntity
  8
0
100
AcDbBlockBegin
  2
*D32
 70
     1
 10
0.0
 20
0.0
 30
0.0
  3
*D32
  1

  0
LINE
  5
B8D
330
B1B
100
AcDbEntity
  8
0
 62
     0
370
    -2
100
AcDbLine
 10
1371.697518343883
 20
786.3956849655021
 30
0.0
 11
1371.697518343883
 21
784.0857638886265
 31
0.0
  0
LINE
  5
B8E
330
B1B
100
AcDbEntity
  8
0
 62
     0
370
    -2
100
AcDbLine
 10
1367.108843141735
 20
786.3956849655021
 30
0.0
 11
1367.108843141735
 21
784.0857638886265
 31
0.0
  0
LINE
  5
B8F
330
B1B
100
AcDbEntity
  8
0
 62
     0
370
    -2
100
AcDbLine
 10
1374.197518343883
 20
785.3357638886265
 30
0.0
 11
1376.697518343883
 21
785.3357638886265
 31
0.0
  0
LINE
  5
B90
330
B1B
100
AcDbEntity
  8
0
 62
     0
370
    -2
100
AcDbLine
 10
1364.608843141735
 20
785.3357638886265
 30
0.0
 11
1349.858843141735
 21
785.3357638886265
 31
0.0
  0
LINE
  5
B91
330
B1B
100
AcDbEntity
  8
0
 62
     0
370
    -2
100
AcDbLine
 10
1371.697518343883
 20
785.3357638886265
 30
0.0
 11
1367.108843141735
 21
785.3357638886265
 31
0.0
  0
INSERT
  5
B92
330
B1B
100
AcDbEntity
  8
0
 62
     0
370
    -2
100
AcDbBlockReference
  2
_Open30
 10
1371.697518343883
 20
785.3357638886265
 30
0.0
 41
2.5
 42
2.5
 43
2.5
 50
180.0
  0
INSERT
  5
B93
330
B1B
100
AcDbEntity
  8
0
 62
     0
370
    -2
100
AcDbBlockReference
  2
_Open30
 10
1367.108843141735
 20
785.3357638886265
 30
0.0
 41
2.5
 42
2.5
 43
2.5
  0
MTEXT
  5
B94
330
B1B
100
AcDbEntity
  8
0
 62
     4
100
AcDbMText
 10
1355.983843141735
 20
787.4607638886264
 30
0.0
 40
3.0
 41
0.0
 71
     5
 72
     1
  1
13.77
 73
     1
 44
1.0
1001
ACAD
1000
MTEXTBEGIN
1070
    73
1070
     1
1070
    44
1040
1.0
1070
    74
1070
     0
1000
MTEXTEND
  0
POINT
  5
B95
330
B1B
100
AcDbEntity
  8
Defpoints
 62
     0
100
AcDbPoint
 10
1371.697518343883
 20
786.6456849655021
 30
0.0
  0
POINT
  5
B96
330
B1B
100
AcDbEntity
  8
Defpoints
 62
     0
100
AcDbPoint
 10
1367.108843141735
 20
786.6456849655021
 30
0.0
  0
POINT
  5
B97
330
B1B
100
AcDbEntity
  8
Defpoints
 62
     0
100
AcDbPoint
 10
1367.108843141735
 20
785.3357638886265
 30
0.0
  0
ENDBLK
  5
B1D
330
B1B
100
AcDbEntity
  8
0
100
AcDbBlockEnd
  0
BLOCK
  5
B2A
330
B29
100
AcDbEntity
  8
0
100
AcDbBlockBegin
  2
*D33
 70
     1
 10
0.0
 20
0.0
 30
0.0
  3
*D33
  1

  0
LINE
  5
B98
330
B29
100
AcDbEntity
  8
0
 62
     0
370
    -2
100
AcDbLine
 10
1364.601235510733
 20
817.3251762837763
 30
0.0
 11
1364.601235510733
 21
824.7217097617141
 31
0.0
  0
LINE
  5
B99
330
B29
100
AcDbEntity
  8
0
 62
     0
370
    -2
100
AcDbLine
 10
1354.662761141242
 20
817.3251762837763
 30
0.0
 11
1354.662761141242
 21
824.7217097617141
 31
0.0
  0
LINE
  5
B9A
330
B29
100
AcDbEntity
  8
0
 62
     0
370
    -2
100
AcDbLine
 10
1362.101235510732
 20
823.4717097617144
 30
0.0
 11
1357.162761141243
 21
823.4717097617144
 31
0.0
  0
INSERT
  5
B9B
330
B29
100
AcDbEntity
  8
0
 62
     0
370
    -2
100
AcDbBlockReference
  2
_Open30
 10
1364.601235510733
 20
823.4717097617144
 30
0.0
 41
2.5
 42
2.5
 43
2.5
  0
INSERT
  5
B9C
330
B29
100
AcDbEntity
  8
0
 62
     0
370
    -2
100
AcDbBlockReference
  2
_Open30
 10
1354.662761141242
 20
823.4717097617144
 30
0.0
 41
2.5
 42
2.5
 43
2.5
 50
180.0
  0
MTEXT
  5
B9D
330
B29
100
AcDbEntity
  8
0
 62
     4
100
AcDbMText
 10
1359.631998325988
 20
826.5467097617143
 30
0.0
 40
3.0
 41
0.0
 71
     5
 72
     1
  1
9.94\H0.7X;\S+0^ -0.02;
 73
     1
 44
1.0
1001
ACAD
1000
MTEXTBEGIN
1070
    73
1070
     1
1070
    44
1040
1.0
1070
    74
1070
     0
1000
MTEXTEND
  0
POINT
  5
B9E
330
B29
100
AcDbEntity
  8
Defpoints
 62
     0
100
AcDbPoint
 10
1364.601235510733
 20
817.0751762837765
 30
0.0
  0
POINT
  5
B9F
330
B29
100
AcDbEntity
  8
Defpoints
 62
     0
100
AcDbPoint
 10
1354.662761141242
 20
817.0751762837765
 30
0.0
  0
POINT
  5
BA0
330
B29
100
AcDbEntity
  8
Defpoints
 62
     0
100
AcDbPoint
 10
1354.662761141242
 20
823.4717097617144
 30
0.0
  0
ENDBLK
  5
B2B
330
B29
100
AcDbEntity
  8
0
100
AcDbBlockEnd
  0
ENDSEC
  0
SECTION
  2
ENTITIES
  0
LINE
  5
AE
330
6B
100
AcDbEntity
  8
0
 62
     3
100
AcDbLine
 10
964.424941
 20
680.6203059999997
 30
0.0
 11
964.424941
 21
672.4116289999997
 31
0.0
  0
LINE
  5
AF
330
6B
100
AcDbEntity
  8
0
 62
     3
100
AcDbLine
 10
939.9249409999999
 20
680.6203059999997
 30
0.0
 11
939.9249409999999
 21
672.4116289999997
 31
0.0
  0
ARC
  5
B0
330
6B
100
AcDbEntity
  8
0
 62
     3
100
AcDbCircle
 10
952.1749409999999
 20
729.8258689999999
 30
0.0
 40
40.0
100
AcDbArc
 50
168.303417
 51
238.842573
  0
ARC
  5
B1
330
6B
100
AcDbEntity
  8
0
 62
     3
100
AcDbCircle
 10
952.1749409999999
 20
713.2238039999997
 30
0.0
 40
49.52753799999999
100
AcDbArc
 50
53.211816
 51
126.788184
  0
ARC
  5
B2
330
6B
100
AcDbEntity
  8
0
 62
     3
100
AcDbCircle
 10
966.8634649999999
 20
732.866803
 30
0.0
 40
25.0
100
AcDbArc
 50
11.696583
 51
53.211816
  0
ARC
  5
B3
330
6B
100
AcDbEntity
  8
0
 62
     3
100
AcDbCircle
 10
937.4864179999999
 20
732.866803
 30
0.0
 40
25.0
100
AcDbArc
 50
126.788184
 51
168.303417
  0
ARC
  5
B4
330
6B
100
AcDbEntity
  8
0
 62
     3
100
AcDbCircle
 10
952.1749409999999
 20
729.8258689999999
 30
0.0
 40
40.0
100
AcDbArc
 50
301.157427
 51
11.696583
  0
ARC
  5
B5
330
6B
100
AcDbEntity
  8
0
 62
     3
100
AcDbCircle
 10
981.9249409999999
 20
680.6203059999997
 30
0.0
 40
17.5
100
AcDbArc
 50
121.157427
 51
180.0
  0
ARC
  5
B6
330
6B
100
AcDbEntity
  8
0
 62
     3
100
AcDbCircle
 10
922.424941
 20
680.6203059999997
 30
0.0
 40
17.5
100
AcDbArc
 50
0.0
 51
58.842573
  0
ARC
  5
B7
330
6B
100
AcDbEntity
  8
0
 62
     3
100
AcDbCircle
 10
952.1749409999999
 20
672.4116289999997
 30
0.0
 40
12.25
100
AcDbArc
 50
180.0
 51
226.06216
  0
ARC
  5
B8
330
6B
100
AcDbEntity
  8
0
 62
     3
100
AcDbCircle
 10
952.1749409999999
 20
672.4116289999997
 30
0.0
 40
12.25
100
AcDbArc
 50
313.93784
 51
0.0
  0
LINE
  5
B9
330
6B
100
AcDbEntity
  8
0
 62
     3
100
AcDbLine
 10
943.674941
 20
663.5904889999998
 30
0.0
 11
960.674941
 21
663.5904889999998
 31
0.0
  0
LINE
  5
BA
330
6B
100
AcDbEntity
  8
0
 62
     3
100
AcDbLine
 10
992.149533
 20
731.251342
 30
0.0
 11
912.200349
 21
731.251342
 31
0.0
  0
LINE
  5
BB
330
6B
100
AcDbEntity
  8
0
 62
     7
100
AcDbLine
 10
949.424941
 20
644.251342
 30
0.0
 11
954.9249409999999
 21
644.251342
 31
0.0
  0
ARC
  5
BC
330
6B
100
AcDbEntity
  8
0
 62
     7
100
AcDbCircle
 10
952.1749409999999
 20
651.563842
 30
0.0
 40
7.8125
100
AcDbArc
 50
249.390307
 51
290.609693
  0
LINE
  5
BD
330
6B
100
AcDbEntity
  8
0
 62
     7
100
AcDbLine
 10
943.674941
 20
663.5904889999998
 30
0.0
 11
943.674941
 21
662.687392
 31
0.0
  0
LINE
  5
BE
330
6B
100
AcDbEntity
  8
0
 62
     7
100
AcDbLine
 10
960.674941
 20
663.5904889999998
 30
0.0
 11
960.674941
 21
661.198444
 31
0.0
  0
LINE
  5
BF
330
6B
100
AcDbEntity
  8
0
 62
     7
100
AcDbLine
 10
954.9249409999999
 20
645.251342
 30
0.0
 11
954.9249409999999
 21
644.251342
 31
0.0
  0
LINE
  5
C0
330
6B
100
AcDbEntity
  8
0
 62
     7
100
AcDbLine
 10
949.424941
 20
645.251342
 30
0.0
 11
949.424941
 21
644.251342
 31
0.0
  0
LINE
  5
C1
330
6B
100
AcDbEntity
  8
0
 62
     7
100
AcDbLine
 10
949.424941
 20
645.251342
 30
0.0
 11
954.9249409999999
 21
645.251342
 31
0.0
  0
LINE
  5
C2
330
6B
100
AcDbEntity
  8
0
 62
     7
100
AcDbLine
 10
960.674941
 20
663.001342
 30
0.0
 11
943.674941
 21
663.001342
 31
0.0
  0
LINE
  5
C3
330
6B
100
AcDbEntity
  8
0
 62
     7
100
AcDbLine
 10
958.389043
 20
647.251342
 30
0.0
 11
945.96084
 21
647.251342
 31
0.0
  0
LINE
  5
C4
330
6B
100
AcDbEntity
  8
0
 62
     7
100
AcDbLine
 10
954.9249409999999
 20
645.251342
 30
0.0
 11
960.174941
 21
648.2824309999998
 31
0.0
  0
LINE
  5
C5
330
6B
100
AcDbEntity
  8
0
 62
     7
100
AcDbLine
 10
949.424941
 20
645.251342
 30
0.0
 11
944.1749409999999
 21
648.2824309999998
 31
0.0
  0
ARC
  5
C6
330
6B
100
AcDbEntity
  8
0
 62
     7
100
AcDbCircle
 10
959.6749409999999
 20
649.1484569999999
 30
0.0
 40
1.0
100
AcDbArc
 50
300.0
 51
0.0
  0
ARC
  5
C7
330
6B
100
AcDbEntity
  8
0
 62
     7
100
AcDbCircle
 10
943.429455
 20
649.6616289999997
 30
0.0
 40
1.0
100
AcDbArc
 50
94.900687
 51
274.900687
  0
ARC
  5
C8
330
6B
100
AcDbEntity
  8
0
 62
     7
100
AcDbCircle
 10
943.429455
 20
652.6616289999997
 30
0.0
 40
1.0
100
AcDbArc
 50
94.900687
 51
274.900687
  0
ARC
  5
C9
330
6B
100
AcDbEntity
  8
0
 62
     7
100
AcDbCircle
 10
960.9237309999999
 20
651.1616289999997
 30
0.0
 40
1.0
100
AcDbArc
 50
274.900687
 51
94.900687
  0
ARC
  5
CA
330
6B
100
AcDbEntity
  8
0
 62
     7
100
AcDbCircle
 10
960.9237309999999
 20
654.1616289999997
 30
0.0
 40
1.0
100
AcDbArc
 50
274.900687
 51
94.900687
  0
ARC
  5
CB
330
6B
100
AcDbEntity
  8
0
 62
     7
100
AcDbCircle
 10
960.9237309999999
 20
657.1616289999997
 30
0.0
 40
1.0
100
AcDbArc
 50
274.900687
 51
94.900687
  0
ARC
  5
CC
330
6B
100
AcDbEntity
  8
0
 62
     7
100
AcDbCircle
 10
960.9237309999999
 20
660.216616
 30
0.0
 40
1.0
100
AcDbArc
 50
275.079413
 51
95.079413
  0
ARC
  5
CD
330
6B
100
AcDbEntity
  8
0
 62
     7
100
AcDbCircle
 10
943.429455
 20
658.6616289999997
 30
0.0
 40
1.0
100
AcDbArc
 50
95.079413
 51
275.079413
  0
ARC
  5
CE
330
6B
100
AcDbEntity
  8
0
 62
     7
100
AcDbCircle
 10
943.429455
 20
655.661629
 30
0.0
 40
1.0
100
AcDbArc
 50
94.900687
 51
274.900687
  0
ARC
  5
CF
330
6B
100
AcDbEntity
  8
0
 62
     7
100
AcDbCircle
 10
943.429455
 20
661.6616289999996
 30
0.0
 40
1.0
100
AcDbArc
 50
95.079413
 51
275.079413
  0
LINE
  5
D0
330
6B
100
AcDbEntity
  8
0
 62
     7
100
AcDbLine
 10
947.2070229999999
 20
663.001342
 30
0.0
 11
943.3409179999999
 21
662.657702
 31
0.0
  0
LINE
  5
D1
330
6B
100
AcDbEntity
  8
0
 62
     7
100
AcDbLine
 10
960.674941
 20
662.1905589999999
 30
0.0
 11
943.517991
 21
660.6655559999998
 31
0.0
  0
LINE
  5
D2
330
6B
100
AcDbEntity
  8
0
 62
     7
100
AcDbLine
 10
960.674941
 20
649.1434579999999
 30
0.0
 11
945.0839039999999
 21
647.757641
 31
0.0
  0
ARC
  5
D3
330
6B
100
AcDbEntity
  8
0
 62
     7
100
AcDbCircle
 10
944.674941
 20
649.1484569999999
 30
0.0
 40
1.0
100
AcDbArc
 50
207.3771129999999
 51
240.0
  0
LINE
  5
D4
330
6B
100
AcDbEntity
  8
0
 62
     7
100
AcDbLine
 10
960.8351949999999
 20
661.2126889999997
 30
0.0
 11
943.3409179999999
 21
659.6577019999998
 31
0.0
  0
LINE
  5
D5
330
6B
100
AcDbEntity
  8
0
 62
     7
100
AcDbLine
 10
961.0122679999999
 20
659.2205429999998
 30
0.0
 11
943.517991
 21
657.6655559999998
 31
0.0
  0
LINE
  5
D6
330
6B
100
AcDbEntity
  8
0
 62
     7
100
AcDbLine
 10
960.8383019999999
 20
658.1579730000002
 30
0.0
 11
943.3440259999999
 21
656.657973
 31
0.0
  0
LINE
  5
D7
330
6B
100
AcDbEntity
  8
0
 62
     7
100
AcDbLine
 10
961.00916
 20
656.1652849999997
 30
0.0
 11
943.5148830000001
 21
654.6652849999998
 31
0.0
  0
LINE
  5
D8
330
6B
100
AcDbEntity
  8
0
 62
     7
100
AcDbLine
 10
960.8383019999999
 20
655.1579730000002
 30
0.0
 11
943.3440259999999
 21
653.657973
 31
0.0
  0
LINE
  5
D9
330
6B
100
AcDbEntity
  8
0
 62
     7
100
AcDbLine
 10
961.00916
 20
653.1652849999998
 30
0.0
 11
943.5148830000001
 21
651.6652849999998
 31
0.0
  0
LINE
  5
DA
330
6B
100
AcDbEntity
  8
0
 62
     7
100
AcDbLine
 10
960.8383019999999
 20
652.157973
 30
0.0
 11
943.3440259999999
 21
650.6579730000002
 31
0.0
  0
LINE
  5
DB
330
6B
100
AcDbEntity
  8
0
 62
     7
100
AcDbLine
 10
961.00916
 20
650.1652849999998
 30
0.0
 11
943.5148830000001
 21
648.6652849999998
 31
0.0
  0
LINE
  5
DC
330
6B
100
AcDbEntity
  8
0
 62
     7
100
AcDbLine
 10
943.674941
 20
651.6790079999997
 30
0.0
 11
943.674941
 21
650.6863469999997
 31
0.0
  0
LINE
  5
DD
330
6B
100
AcDbEntity
  8
0
 62
     7
100
AcDbLine
 10
943.674941
 20
654.679008
 30
0.0
 11
943.674941
 21
653.686347
 31
0.0
  0
LINE
  5
DE
330
6B
100
AcDbEntity
  8
0
 62
     7
100
AcDbLine
 10
943.674941
 20
657.6795059999997
 30
0.0
 11
943.674941
 21
656.6863469999997
 31
0.0
  0
LINE
  5
DF
330
6B
100
AcDbEntity
  8
0
 62
     7
100
AcDbLine
 10
943.674941
 20
660.6795059999996
 30
0.0
 11
943.674941
 21
659.687392
 31
0.0
  0
LINE
  5
E0
330
6B
100
AcDbEntity
  8
0
 62
     7
100
AcDbLine
 10
960.674941
 20
659.190559
 30
0.0
 11
960.674941
 21
658.143966
 31
0.0
  0
LINE
  5
E1
330
6B
100
AcDbEntity
  8
0
 62
     7
100
AcDbLine
 10
960.674941
 20
656.1366279999997
 30
0.0
 11
960.674941
 21
655.1439659999997
 31
0.0
  0
LINE
  5
E2
330
6B
100
AcDbEntity
  8
0
 62
     7
100
AcDbLine
 10
960.674941
 20
653.136628
 30
0.0
 11
960.674941
 21
652.1439659999997
 31
0.0
  0
LINE
  5
E3
330
6B
100
AcDbEntity
  8
0
 62
     7
100
AcDbLine
 10
960.674941
 20
650.136628
 30
0.0
 11
960.674941
 21
649.1434579999999
 31
0.0
  0
LINE
  5
E4
330
6B
100
AcDbEntity
  8
0
 62
     3
100
AcDbLine
 10
854.6138650000001
 20
695.9886589999999
 30
0.0
 11
854.1259380000001
 21
695.9886589999999
 31
0.0
  0
LINE
  5
1B7
330
6B
100
AcDbEntity
  8
0
 62
     3
100
AcDbLine
 10
1020.426574
 20
574.1543809999996
 30
0.0
 11
1020.426574
 21
597.1543809999997
 31
0.0
  0
LINE
  5
1B9
330
6B
100
AcDbEntity
  8
0
 62
     3
100
AcDbLine
 10
967.3729650000002
 20
567.1543810000001
 30
0.0
 11
967.3729650000002
 21
581.1543809999997
 31
0.0
  0
TEXT
  5
1BB
330
6B
100
AcDbEntity
  8
0
 62
     3
100
AcDbText
 10
996.436892
 20
593.3594969999997
 30
0.0
 40
2.0
  1
A
 41
0.7
100
AcDbText
  0
TEXT
  5
1BC
330
6B
100
AcDbEntity
  8
0
 62
     3
100
AcDbText
 10
998.9721789999999
 20
593.3594969999997
 30
0.0
 40
2.0
  1
P
 41
0.7
100
AcDbText
  0
TEXT
  5
1BD
330
6B
100
AcDbEntity
  8
0
 62
     3
100
AcDbText
 10
1001.507465
 20
593.3594969999997
 30
0.0
 40
2.0
  1
P
 41
0.7
100
AcDbText
  0
TEXT
  5
1BE
330
6B
100
AcDbEntity
  8
0
 62
     3
100
AcDbText
 10
1004.042751
 20
593.3594969999997
 30
0.0
 40
2.0
  1
D
 41
0.7
100
AcDbText
  0
TEXT
  5
1BF
330
6B
100
AcDbEntity
  8
0
 62
     3
100
AcDbText
 10
1009.411434
 20
593.3594969999997
 30
0.0
 40
2.0
  1
C
 41
0.7
100
AcDbText
  0
TEXT
  5
1C0
330
6B
100
AcDbEntity
  8
0
 62
     3
100
AcDbText
 10
1011.94672
 20
593.3594969999997
 30
0.0
 40
2.0
  1
H
 41
0.7
100
AcDbText
  0
TEXT
  5
1C1
330
6B
100
AcDbEntity
  8
0
 62
     3
100
AcDbText
 10
1014.482007
 20
593.3594969999997
 30
0.0
 40
2.0
  1
C
 41
0.7
100
AcDbText
  0
TEXT
  5
1C2
330
6B
100
AcDbEntity
  8
0
 62
     3
100
AcDbText
 10
1017.017293
 20
593.3594969999997
 30
0.0
 40
2.0
  1
K
 41
0.7
100
AcDbText
  0
TEXT
  5
1C3
330
6B
100
AcDbEntity
  8
0
 62
     3
100
AcDbText
 10
1022.691259
 20
593.3594969999997
 30
0.0
 40
2.0
  1
DESN
 41
1.216762999999998
100
AcDbText
  0
TEXT
  5
1C4
330
6B
100
AcDbEntity
  8
0
 62
     3
100
AcDbText
 10
937.6849010000002
 20
564.012999
 30
0.0
 40
2.0
  1
NICHIDO IND.CO.LTD
 41
1.274876
100
AcDbText
  0
LINE
  5
1C5
330
6B
100
AcDbEntity
  8
0
 62
     3
100
AcDbLine
 10
948.06793
 20
597.1543809999997
 30
0.0
 11
948.06793
 21
574.1543809999996
 31
0.0
  0
LINE
  5
1C6
330
6B
100
AcDbEntity
  8
0
 62
     3
100
AcDbLine
 10
994.4265740000004
 20
597.1543809999997
 30
0.0
 11
994.4265740000004
 21
557.488659
 31
0.0
  0
LINE
  5
1CB
330
6B
100
AcDbEntity
  8
0
 62
     3
100
AcDbLine
 10
1007.426574
 20
597.1543809999998
 30
0.0
 11
1007.426574
 21
567.1543810000001
 31
0.0
  0
TEXT
  5
1CC
330
6B
100
AcDbEntity
  8
0
 62
     3
100
AcDbText
 10
995.5390190000001
 20
568.0190679999997
 30
0.0
 40
3.2
  1
作成日
 41
1.017225999999997
100
AcDbText
  0
LINE
  5
1CD
330
6B
100
AcDbEntity
  8
0
 62
     3
100
AcDbLine
 10
1046.125938
 20
597.1543809999997
 30
0.0
 11
934.8224949999996
 21
597.1543809999997
 31
0.0
  0
LINE
  5
1CE
330
6B
100
AcDbEntity
  8
0
 62
     3
100
AcDbLine
 10
1033.426574
 20
574.1543809999996
 30
0.0
 11
1033.426574
 21
597.1543809999997
 31
0.0
  0
TEXT
  5
1CF
330
6B
100
AcDbEntity
  8
0
 62
     3
100
AcDbText
 10
1036.750378
 20
593.445316
 30
0.0
 40
1.8
  1
D
 41
0.666667
100
AcDbText
  0
TEXT
  5
1D0
330
6B
100
AcDbEntity
  8
0
 62
     3
100
AcDbText
 10
1039.567006
 20
593.445316
 30
0.0
 40
1.8
  1
E
 41
0.666667
100
AcDbText
  0
TEXT
  5
1D1
330
6B
100
AcDbEntity
  8
0
 62
     3
100
AcDbText
 10
1042.383634
 20
593.445316
 30
0.0
 40
1.8
  1
F
 41
0.666667
100
AcDbText
  0
TEXT
  5
1D2
330
6B
100
AcDbEntity
  8
0
 62
     3
100
AcDbText
 10
1036.750378
 20
589.4527619999998
 30
0.0
 40
3.2
  1
製図
 41
1.076369
100
AcDbText
  0
LINE
  5
1D3
330
6B
100
AcDbEntity
  8
0
 62
     3
100
AcDbLine
 10
934.8224949999996
 20
597.1543809999997
 30
0.0
 11
934.8224949999996
 21
557.488659
 31
0.0
  0
TEXT
  5
1D4
330
6B
100
AcDbEntity
  8
0
 62
     3
100
AcDbText
 10
936.1991480000002
 20
557.821124
 30
0.0
 40
5.0
  1
日動工業株式会社
 41
0.833333
100
AcDbText
  0
LINE
  5
1D5
330
6B
100
AcDbEntity
  8
0
 62
     3
100
AcDbLine
 10
977.7048990000002
 20
581.1543809999998
 30
0.0
 11
977.7048990000002
 21
557.488659
 31
0.0
  0
LINE
  5
1D6
330
6B
100
AcDbEntity
  8
0
 62
     3
100
AcDbLine
 10
977.7048990000002
 20
562.3215199999998
 30
0.0
 11
994.4265740000004
 21
562.3215199999998
 31
0.0
  0
TEXT
  5
1D7
330
6B
100
AcDbEntity
  8
0
 62
     3
100
AcDbText
 10
978.2915009999999
 20
563.1379509999998
 30
0.0
 40
3.2
  1
出図コード
 41
0.8356860000000001
100
AcDbText
  0
LINE
  5
1D9
330
6B
100
AcDbEntity
  8
0
 62
     3
100
AcDbLine
 10
934.8224949999996
 20
567.1543810000001
 30
0.0
 11
1046.125938
 21
567.1543810000001
 31
0.0
  0
LINE
  5
1DB
330
6B
100
AcDbEntity
  8
0
 62
     3
100
AcDbLine
 10
934.8224949999996
 20
588.1543810000001
 30
0.0
 11
1046.125938
 21
588.1543810000001
 31
0.0
  0
LINE
  5
1E1
330
6B
100
AcDbEntity
  8
0
 62
     3
100
AcDbLine
 10
934.8224949999996
 20
581.1543809999997
 30
0.0
 11
994.4265740000004
 21
581.1543809999997
 31
0.0
  0
LINE
  5
1E7
330
6B
100
AcDbEntity
  8
0
 62
     3
100
AcDbLine
 10
934.8224949999996
 20
574.1543809999996
 30
0.0
 11
1046.125938
 21
574.1543809999996
 31
0.0
  0
TEXT
  5
1E8
330
6B
100
AcDbEntity
  8
0
 62
     3
100
AcDbText
 10
978.1589529999999
 20
558.090853
 30
0.0
 40
3.2
  1
ZK-A4Y
 41
0.8112849999999999
100
AcDbText
  0
LINE
  5
1E9
330
6B
100
AcDbEntity
  8
0
 62
     3
100
AcDbLine
 10
866.1259380000004
 20
834.4886589999996
 30
0.0
 11
866.1259380000004
 21
557.488659
 31
0.0
  0
LINE
  5
1EA
330
6B
100
AcDbEntity
  8
0
 62
     3
100
AcDbLine
 10
1046.125938
 20
557.488659
 30
0.0
 11
1046.125938
 21
834.4886589999996
 31
0.0
  0
LINE
  5
1EB
330
6B
100
AcDbEntity
  8
0
 62
     3
100
AcDbLine
 10
1046.125938
 20
557.488659
 30
0.0
 11
866.1259380000004
 21
557.488659
 31
0.0
  0
TEXT
  5
1F0
330
6B
100
AcDbEntity
  8
0
 62
     3
100
AcDbText
 10
936.6398919999999
 20
593.323907
 30
0.0
 40
2.0
  1
CONPONENTS
 41
0.5331600000000001
100
AcDbText
  0
TEXT
  5
1F1
330
6B
100
AcDbEntity
  8
0
 62
     3
100
AcDbText
 10
936.2901660000003
 20
574.3917299999998
 30
0.0
 40
3.0
  1
材
 41
0.833333
100
AcDbText
  0
TEXT
  5
1F2
330
6B
100
AcDbEntity
  8
0
 62
     3
100
AcDbText
 10
943.8258080000002
 20
574.3917299999998
 30
0.0
 40
3.0
  1
質
 41
0.833333
100
AcDbText
  0
TEXT
  5
1F3
330
6B
100
AcDbEntity
  8
0
 62
     3
100
AcDbText
 10
936.378236
 20
585.016255
 30
0.0
 40
2.0
  1
MODEL
 41
1.031072999999999
100
AcDbText
  0
TEXT
  5
1F4
330
6B
100
AcDbEntity
  8
0
 62
     3
100
AcDbText
 10
936.2901660000003
 20
578.074038
 30
0.0
 40
2.0
  1
MATERIAL
 41
0.659278
100
AcDbText
  0
TEXT
  5
1F5
330
6B
100
AcDbEntity
  8
0
 62
     3
100
AcDbText
 10
967.597446
 20
574.3917299999998
 30
0.0
 40
3.0
  1
備
 41
0.833333
100
AcDbText
  0
TEXT
  5
1F6
330
6B
100
AcDbEntity
  8
0
 62
     3
100
AcDbText
 10
974.3304480000002
 20
574.3917299999998
 30
0.0
 40
3.0
  1
考
 41
0.833333
100
AcDbText
  0
TEXT
  5
1F7
330
6B
100
AcDbEntity
  8
0
 62
     3
100
AcDbText
 10
968.0188146574474
 20
578.074038
 30
0.0
 40
2.0
  1
REMARKS
 41
0.675794
100
AcDbText
  0
TEXT
  5
1F8
330
6B
100
AcDbEntity
  8
0
 62
     3
100
AcDbText
 10
937.879895
 20
571.1539179999999
 30
0.0
 40
2.0
  1
3AD
 41
1.42614
100
AcDbText
  0
TEXT
  5
1F9
330
6B
100
AcDbEntity
  8
0
 62
     3
100
AcDbText
 10
947.1908739999999
 20
571.319651
 30
0.0
 40
2.0
  1
ANGLE
 41
1.669883999999996
100
AcDbText
  0
TEXT
  5
1FA
330
6B
100
AcDbEntity
  8
0
 62
     3
100
AcDbText
 10
968.1247609999999
 20
570.94281
 30
0.0
 40
2.0
  1
SCALE
 41
0.7719630000000001
100
AcDbText
  0
TEXT
  5
1FB
330
6B
100
AcDbEntity
  8
0
 62
     3
100
AcDbText
 10
937.566024
 20
567.1543810000001
 30
0.0
 40
3.0
  1
第
 41
0.833333
100
AcDbText
  0
TEXT
  5
1FC
330
6B
100
AcDbEntity
  8
0
 62
     3
100
AcDbText
 10
945.3528740000002
 20
567.1543810000001
 30
0.0
 40
3.0
  1
三
 41
0.833333
100
AcDbText
  0
TEXT
  5
1FD
330
6B
100
AcDbEntity
  8
0
 62
     3
100
AcDbText
 10
953.1397240000003
 20
567.1543810000001
 30
0.0
 40
3.0
  1
角
 41
0.833333
100
AcDbText
  0
TEXT
  5
1FE
330
6B
100
AcDbEntity
  8
0
 62
     3
100
AcDbText
 10
960.9265739999999
 20
567.1543810000001
 30
0.0
 40
3.0
  1
法
 41
0.833333
100
AcDbText
  0
TEXT
  5
1FF
330
6B
100
AcDbEntity
  8
0
 62
     3
100
AcDbText
 10
967.9879660000002
 20
567.44281
 30
0.0
 40
3.0
  1
尺
 41
0.833333
100
AcDbText
  0
TEXT
  5
200
330
6B
100
AcDbEntity
  8
0
 62
     3
100
AcDbText
 10
974.7209680000002
 20
567.44281
 30
0.0
 40
3.0
  1
度
 41
0.833333
100
AcDbText
  0
TEXT
  5
201
330
6B
100
AcDbEntity
  8
0
 62
     3
100
AcDbText
 10
997.304238
 20
589.6121099999998
 30
0.0
 40
3.0
  1
承認
 41
1.089472999999999
100
AcDbText
  0
TEXT
  5
202
330
6B
100
AcDbEntity
  8
0
 62
     3
100
AcDbText
 10
1010.547119
 20
589.5543809999998
 30
0.0
 40
3.0
  1
検図
 41
0.931761
100
AcDbText
  0
TEXT
  5
203
330
6B
100
AcDbEntity
  8
0
 62
     3
100
AcDbText
 10
1023.547515
 20
589.5543809999998
 30
0.0
 40
3.0
  1
設
 41
0.833333
100
AcDbText
  0
TEXT
  5
204
330
6B
100
AcDbEntity
  8
0
 62
     3
100
AcDbText
 10
1028.037384
 20
589.5543809999998
 30
0.0
 40
3.0
  1
計
 41
0.833333
100
AcDbText
  0
TEXT
  5
205
330
6B
100
AcDbEntity
  8
0
 62
     3
100
AcDbText
 10
936.571364
 20
588.8431369999997
 30
0.0
 40
3.0
  1
品
 41
0.833333
100
AcDbText
  0
TEXT
  5
206
330
6B
100
AcDbEntity
  8
0
 62
     3
100
AcDbText
 10
944.1070060000003
 20
588.8431369999997
 30
0.0
 40
3.0
  1
名
 41
0.833333
100
AcDbText
  0
TEXT
  5
207
330
6B
100
AcDbEntity
  8
0
 62
     3
100
AcDbText
 10
936.378236
 20
581.383995
 30
0.0
 40
3.0
  1
型
 41
0.833333
100
AcDbText
  0
TEXT
  5
208
330
6B
100
AcDbEntity
  8
0
 62
     3
100
AcDbText
 10
943.9263269999999
 20
581.383995
 30
0.0
 40
3.0
  1
式
 41
0.833333
100
AcDbText
  0
TEXT
  5
212
330
6B
100
AcDbEntity
  8
0
 62
     3
100
AcDbText
 10
980.5732590000003
 20
574.7074309999998
 30
0.0
 40
3.2
  1
交換球
  7
高3.2
100
AcDbText
  0
LINE
  5
227
330
6B
100
AcDbEntity
  8
0
 62
     3
100
AcDbLine
 10
1020.426574
 20
597.1543809999997
 30
0.0
 11
1020.426574
 21
603.1543809999996
 31
0.0
  0
LINE
  5
228
330
6B
100
AcDbEntity
  8
0
 62
     3
100
AcDbLine
 10
994.4265740000004
 20
597.1543809999997
 30
0.0
 11
994.4265740000004
 21
603.1543809999996
 31
0.0
  0
LINE
  5
229
330
6B
100
AcDbEntity
  8
0
 62
     3
100
AcDbLine
 10
1046.125938
 20
603.1543809999996
 30
0.0
 11
994.4265740000004
 21
603.1543809999996
 31
0.0
  0
TEXT
  5
22A
330
6B
100
AcDbEntity
  8
0
 62
     3
100
AcDbText
 10
1000.422173
 20
597.95073
 30
0.0
 40
4.5
  1
コード
  7
高4.5
100
AcDbText
  0
TEXT
  5
238
330
6B
100
AcDbEntity
  8
0
 62
     3
100
AcDbText
 10
962.3299836383747
 20
588.706798
 30
0.0
 40
4.5
  1
レフ球
  7
高4.5
100
AcDbText
  0
TEXT
  5
239
330
6B
100
AcDbEntity
  8
0
 62
     3
100
AcDbText
 10
982.3138576377967
 20
568.0423789999998
 30
0.0
 40
3.2
  1
1/2
  7
高3.2
100
AcDbText
  0
TEXT
  5
23A
330
6B
100
AcDbEntity
  8
0
 62
     3
100
AcDbText
 10
1011.010123
 20
567.928798
 30
0.0
 40
3.2
  1
2008.09.04
  7
高3.2
100
AcDbText
  0
TEXT
  5
23B
330
6B
100
AcDbEntity
  8
0
 62
     3
100
AcDbText
 10
950.847188
 20
581.900915
 30
0.0
 40
4.5
  1
NRF-500-110V
 41
0.8
  7
高4.5
100
AcDbText
  0
TEXT
  5
23C
330
6B
100
AcDbEntity
  8
0
 62
     3
100
AcDbText
 10
998.6363295923482
 20
558.8029975816128
 30
0.0
 40
6.299999999999998
  1
NRF-500-110V
 41
0.6
  7
高6.3
100
AcDbText
  0
TEXT
  5
23D
330
6B
100
AcDbEntity
  8
0
 62
     3
100
AcDbText
 10
1025.354518456522
 20
597.7985180000001
 30
0.0
 40
4.5
  1
8219
  7
高4.5
100
AcDbText
  0
LINE
  5
6CF
330
6B
100
AcDbEntity
  8
0
 62
     3
100
AcDbLine
 10
903.2102900199996
 20
836.2761030999999
 30
0.0
 11
903.6460379300001
 21
836.0486349599996
 31
0.0
  0
LINE
  5
6D0
330
6B
100
AcDbEntity
  8
0
 62
     3
100
AcDbLine
 10
903.2102900199996
 20
832.5454726199996
 30
0.0
 11
903.6460379300001
 21
832.7729407599999
 31
0.0
  0
LINE
  5
6D1
330
6B
100
AcDbEntity
  8
0
 62
     3
100
AcDbLine
 10
903.6460379300001
 20
836.0486349599996
 30
0.0
 11
903.6460379300001
 21
832.7729407599999
 31
0.0
  0
LINE
  5
6D2
330
6B
100
AcDbEntity
  8
0
 62
     3
100
AcDbLine
 10
904.7495553499997
 20
832.5454726199996
 30
0.0
 11
904.3138074399999
 21
832.7729407599999
 31
0.0
  0
LINE
  5
6D3
330
6B
100
AcDbEntity
  8
0
 62
     3
100
AcDbLine
 10
904.3138074399999
 20
834.7697995699999
 30
0.0
 11
904.3138074399999
 21
832.7729407599999
 31
0.0
  0
LINE
  5
6D4
330
6B
100
AcDbEntity
  8
0
 62
     3
100
AcDbLine
 10
907.2914181299996
 20
836.2761030999999
 30
0.0
 11
906.8556702199996
 21
836.0486349599996
 31
0.0
  0
LINE
  5
6D5
330
6B
100
AcDbEntity
  8
0
 62
     3
100
AcDbLine
 10
905.7521527999996
 20
836.2761030999999
 30
0.0
 11
906.1879007099999
 21
836.0486349599996
 31
0.0
  0
LINE
  5
6D6
330
6B
100
AcDbEntity
  8
0
 62
     3
100
AcDbLine
 10
906.1879007099999
 20
836.0486349599996
 30
0.0
 11
906.1879007099999
 21
834.6062978999999
 31
0.0
  0
LINE
  5
6D7
330
6B
100
AcDbEntity
  8
0
 62
     3
100
AcDbLine
 10
906.8556702199996
 20
836.0486349599996
 30
0.0
 11
906.8556702199996
 21
832.3339114799999
 31
0.0
  0
LINE
  5
6D8
330
6B
100
AcDbEntity
  8
0
 62
     3
100
AcDbLine
 10
907.50671533
 20
836.2761004699999
 30
0.0
 11
907.9424616699999
 21
836.0486293299997
 31
0.0
  0
LINE
  5
6D9
330
6B
100
AcDbEntity
  8
0
 62
     3
100
AcDbLine
 10
907.5066373599996
 20
832.5455225999997
 30
0.0
 11
907.9423932099999
 21
832.7729755199996
 31
0.0
  0
LINE
  5
6DA
330
6B
100
AcDbEntity
  8
0
 62
     3
100
AcDbLine
 10
907.9424616699999
 20
836.0486293299997
 30
0.0
 11
907.9424616699999
 21
832.7729755199996
 31
0.0
  0
LINE
  5
6DB
330
6B
100
AcDbEntity
  8
0
 62
     3
100
AcDbLine
 10
909.43625173
 20
836.2760767999997
 30
0.0
 11
909.00050064
 21
836.0486147699997
 31
0.0
  0
LINE
  5
6DC
330
6B
100
AcDbEntity
  8
0
 62
     3
100
AcDbLine
 10
909.00050064
 20
836.0486147699997
 30
0.0
 11
909.00050064
 21
832.7729609499996
 31
0.0
  0
LINE
  5
6DD
330
6B
100
AcDbEntity
  8
0
 62
     3
100
AcDbLine
 10
909.43625173
 20
832.5454989199997
 30
0.0
 11
909.00050064
 21
832.7729609499996
 31
0.0
  0
LINE
  5
6DE
330
6B
100
AcDbEntity
  8
0
 62
     3
100
AcDbLine
 10
913.1265051699998
 20
836.2760357999999
 30
0.0
 11
913.5622522899996
 21
836.0485661599996
 31
0.0
  0
LINE
  5
6DF
330
6B
100
AcDbEntity
  8
0
 62
     3
100
AcDbLine
 10
913.5622522899996
 20
836.0485661599996
 30
0.0
 11
913.5621951199999
 21
832.7729123499999
 31
0.0
  0
LINE
  5
6E0
330
6B
100
AcDbEntity
  8
0
 62
     3
100
AcDbLine
 10
913.12644006
 20
832.5454579199996
 30
0.0
 11
913.5621951199999
 21
832.7729123499999
 31
0.0
  0
LINE
  5
6E1
330
6B
100
AcDbEntity
  8
0
 62
     3
100
AcDbLine
 10
915.0787661299997
 20
836.2760357999999
 30
0.0
 11
914.64301901
 21
836.0485661599996
 31
0.0
  0
LINE
  5
6E2
330
6B
100
AcDbEntity
  8
0
 62
     3
100
AcDbLine
 10
915.0788312399999
 20
832.5454579199996
 30
0.0
 11
914.6430761799996
 21
832.7729123499999
 31
0.0
  0
LINE
  5
6E3
330
6B
100
AcDbEntity
  8
0
 62
     3
100
AcDbLine
 10
915.2824939900002
 20
836.2760357999999
 30
0.0
 11
915.71824112
 21
836.0485661599996
 31
0.0
  0
LINE
  5
6E4
330
6B
100
AcDbEntity
  8
0
 62
     3
100
AcDbLine
 10
915.2824288799996
 20
832.5454579199996
 30
0.0
 11
915.7181839399999
 21
832.7729123499999
 31
0.0
  0
LINE
  5
6E5
330
6B
100
AcDbEntity
  8
0
 62
     3
100
AcDbLine
 10
917.2347549600001
 20
836.2760357999999
 30
0.0
 11
916.7990078399999
 21
836.0485661599996
 31
0.0
  0
LINE
  5
6E6
330
6B
100
AcDbEntity
  8
0
 62
     3
100
AcDbLine
 10
916.7990078399999
 20
836.0485661599996
 30
0.0
 11
916.79906501
 21
832.7729123499999
 31
0.0
  0
LINE
  5
6E7
330
6B
100
AcDbEntity
  8
0
 62
     3
100
AcDbLine
 10
917.2348200699998
 20
832.5454579199996
 30
0.0
 11
916.79906501
 21
832.7729123499999
 31
0.0
  0
LINE
  5
6E8
330
6B
100
AcDbEntity
  8
0
 62
     3
100
AcDbLine
 10
915.7182162099998
 20
834.6214330399996
 30
0.0
 11
914.6430439199999
 21
834.6214330399996
 31
0.0
  0
LINE
  5
6E9
330
6B
100
AcDbEntity
  8
0
 62
     3
100
AcDbLine
 10
915.71820885
 20
834.2001426799999
 30
0.0
 11
914.6430512699996
 21
834.2001426799999
 31
0.0
  0
LINE
  5
6EA
330
6B
100
AcDbEntity
  8
0
 62
     3
100
AcDbLine
 10
915.71824112
 20
836.0485661599996
 30
0.0
 11
915.7182162099998
 21
834.6214330399996
 31
0.0
  0
LINE
  5
6EB
330
6B
100
AcDbEntity
  8
0
 62
     3
100
AcDbLine
 10
915.71820885
 20
834.2001426799999
 30
0.0
 11
915.7181839399999
 21
832.7729123499999
 31
0.0
  0
LINE
  5
6EC
330
6B
100
AcDbEntity
  8
0
 62
     3
100
AcDbLine
 10
914.64301901
 20
836.0485661599996
 30
0.0
 11
914.6430439199999
 21
834.6214330399996
 31
0.0
  0
LINE
  5
6ED
330
6B
100
AcDbEntity
  8
0
 62
     3
100
AcDbLine
 10
914.6430512699996
 20
834.2001426799999
 30
0.0
 11
914.6430761799996
 21
832.7729123499999
 31
0.0
  0
LINE
  5
6EE
330
6B
100
AcDbEntity
  8
0
 62
     3
100
AcDbLine
 10
917.4417140800001
 20
836.2760357999999
 30
0.0
 11
917.8774611999998
 21
836.0485661599996
 31
0.0
  0
LINE
  5
6EF
330
6B
100
AcDbEntity
  8
0
 62
     3
100
AcDbLine
 10
917.8774611999998
 20
836.0485661599996
 30
0.0
 11
917.87740403
 21
832.7729123499999
 31
0.0
  0
LINE
  5
6F0
330
6B
100
AcDbEntity
  8
0
 62
     3
100
AcDbLine
 10
917.4416489699996
 20
832.5454579199996
 30
0.0
 11
917.87740403
 21
832.7729123499999
 31
0.0
  0
LINE
  5
6F1
330
6B
100
AcDbEntity
  8
0
 62
     3
100
AcDbLine
 10
919.37122435
 20
836.2760357999999
 30
0.0
 11
918.9354772299997
 21
836.0485661599996
 31
0.0
  0
LINE
  5
6F2
330
6B
100
AcDbEntity
  8
0
 62
     3
100
AcDbLine
 10
918.9354772299997
 20
836.0485661599996
 30
0.0
 11
918.9355344
 21
832.7729123499999
 31
0.0
  0
LINE
  5
6F3
330
6B
100
AcDbEntity
  8
0
 62
     3
100
AcDbLine
 10
919.3712894599999
 20
832.5454579199996
 30
0.0
 11
918.9355344
 21
832.7729123499999
 31
0.0
  0
LINE
  5
6F4
330
6B
100
AcDbEntity
  8
0
 62
     3
100
AcDbLine
 10
919.5855839199998
 20
836.2760357999999
 30
0.0
 11
920.02133104
 21
836.0485661599996
 31
0.0
  0
LINE
  5
6F5
330
6B
100
AcDbEntity
  8
0
 62
     3
100
AcDbLine
 10
920.02133104
 20
836.0485661599996
 30
0.0
 11
920.0212738699997
 21
832.7729123499999
 31
0.0
  0
LINE
  5
6F6
330
6B
100
AcDbEntity
  8
0
 62
     3
100
AcDbLine
 10
919.5855188100001
 20
832.5454579199996
 30
0.0
 11
920.0212738699997
 21
832.7729123499999
 31
0.0
  0
ARC
  5
6F7
330
6B
100
AcDbEntity
  8
0
 62
     3
100
AcDbCircle
 10
911.7345939000001
 20
834.4201776199996
 30
0.0
 40
2.086285909999999
100
AcDbArc
 50
97.70152350999723
 51
270.0
  0
ARC
  5
6F8
330
6B
100
AcDbEntity
  8
0
 62
     3
100
AcDbCircle
 10
924.6151947399999
 20
834.3992209899999
 30
0.0
 40
2.108943379999999
100
AcDbArc
 50
0.3142502700074235
 51
69.00558244998835
  0
ARC
  5
6F9
330
6B
100
AcDbEntity
  8
0
 62
     3
100
AcDbCircle
 10
925.07587006
 20
834.3992209899999
 30
0.0
 40
2.108943379999999
100
AcDbArc
 50
110.9944175499969
 51
148.1166110200025
  0
ARC
  5
6FA
330
6B
100
AcDbEntity
  8
0
 62
     3
100
AcDbCircle
 10
924.6151947399999
 20
834.4223547299996
 30
0.0
 40
2.108943379999999
100
AcDbArc
 50
290.9944175499969
 51
359.6857497299926
  0
ARC
  5
6FB
330
6B
100
AcDbEntity
  8
0
 62
     3
100
AcDbCircle
 10
925.07587006
 20
834.4223547299996
 30
0.0
 40
2.108943379999999
100
AcDbArc
 50
211.8833889799973
 51
249.0055824499884
  0
ARC
  5
6FC
330
6B
100
AcDbEntity
  8
0
 62
     3
100
AcDbCircle
 10
924.8455324
 20
835.2735932499998
 30
0.0
 40
1.214070989999997
100
AcDbArc
 50
64.36517190000066
 51
115.6348280999993
  0
ARC
  5
6FD
330
6B
100
AcDbEntity
  8
0
 62
     3
100
AcDbCircle
 10
924.8455324
 20
833.5479824699998
 30
0.0
 40
1.214070989999997
100
AcDbArc
 50
244.3651719000007
 51
295.6348280999993
  0
ARC
  5
6FE
330
6B
100
AcDbEntity
  8
0
 62
     3
100
AcDbCircle
 10
924.8455324
 20
835.2966549299997
 30
0.0
 40
0.59585563
100
AcDbArc
 50
19.48660554000642
 51
160.5133944599938
  0
ARC
  5
6FF
330
6B
100
AcDbEntity
  8
0
 62
     3
100
AcDbCircle
 10
924.8455324
 20
833.5479824699998
 30
0.0
 40
1.214070989999997
100
AcDbArc
 50
244.3651719000007
 51
295.6348280999993
  0
ARC
  5
700
330
6B
100
AcDbEntity
  8
0
 62
     3
100
AcDbCircle
 10
924.8455324
 20
833.5249207899996
 30
0.0
 40
0.59585563
100
AcDbArc
 50
199.4866055400053
 51
340.5133944599935
  0
ARC
  5
701
330
6B
100
AcDbEntity
  8
0
 62
     3
100
AcDbCircle
 10
920.1030598999999
 20
812.1827280199999
 30
0.0
 40
26.04
100
AcDbArc
 50
69.50571480000848
 51
81.68998806999741
  0
ARC
  5
702
330
6B
100
AcDbEntity
  8
0
 62
     3
100
AcDbCircle
 10
920.1030598999999
 20
856.6388476999996
 30
0.0
 40
26.04
100
AcDbArc
 50
278.3100119300026
 51
290.4942851999915
  0
ARC
  5
703
330
6B
100
AcDbEntity
  8
0
 62
     3
100
AcDbCircle
 10
928.41126403
 20
834.4107878599997
 30
0.0
 40
2.31
100
AcDbArc
 50
290.4942851999915
 51
69.50571480000848
  0
ARC
  5
704
330
6B
100
AcDbEntity
  8
0
 62
     3
100
AcDbCircle
 10
901.1112640299996
 20
834.4107878599997
 30
0.0
 40
2.31
100
AcDbArc
 50
110.4942851999915
 51
249.5057147999946
  0
ARC
  5
705
330
6B
100
AcDbEntity
  8
0
 62
     3
100
AcDbCircle
 10
909.4194681499997
 20
812.1827280199999
 30
0.0
 40
26.04
100
AcDbArc
 50
98.31001192998948
 51
110.4942851999915
  0
ARC
  5
706
330
6B
100
AcDbEntity
  8
0
 62
     3
100
AcDbCircle
 10
909.4194681499997
 20
856.6388476999996
 30
0.0
 40
26.04
100
AcDbArc
 50
249.5057147999946
 51
261.6899880699974
  0
ARC
  5
707
330
6B
100
AcDbEntity
  8
0
 62
     3
100
AcDbCircle
 10
914.7612640299996
 20
775.6107878599999
 30
0.0
 40
62.99999987
100
AcDbArc
 50
81.68998806999741
 51
98.31001192998948
  0
ARC
  5
708
330
6B
100
AcDbEntity
  8
0
 62
     3
100
AcDbCircle
 10
914.7612640299996
 20
893.2107878599996
 30
0.0
 40
62.99999987
100
AcDbArc
 50
261.6899880699974
 51
278.3100119300026
  0
ARC
  5
709
330
6B
100
AcDbEntity
  8
0
 62
     3
100
AcDbCircle
 10
914.7612640299996
 20
775.6107878599999
 30
0.0
 40
62.36999987
100
AcDbArc
 50
81.68998806999741
 51
98.31001192998948
  0
ARC
  5
70A
330
6B
100
AcDbEntity
  8
0
 62
     3
100
AcDbCircle
 10
914.7612640299996
 20
893.2107878599996
 30
0.0
 40
62.36999987
100
AcDbArc
 50
261.6899880699974
 51
278.3100119300026
  0
ARC
  5
70B
330
6B
100
AcDbEntity
  8
0
 62
     3
100
AcDbCircle
 10
920.1030598999999
 20
856.6388476999996
 30
0.0
 40
25.41
100
AcDbArc
 50
278.3100119300026
 51
290.4942851999915
  0
ARC
  5
70C
330
6B
100
AcDbEntity
  8
0
 62
     3
100
AcDbCircle
 10
920.1030598999999
 20
812.1827280199999
 30
0.0
 40
25.41
100
AcDbArc
 50
69.50571480000848
 51
81.68998806999741
  0
ARC
  5
70D
330
6B
100
AcDbEntity
  8
0
 62
     3
100
AcDbCircle
 10
928.41126403
 20
834.4107878599997
 30
0.0
 40
1.679999999999999
100
AcDbArc
 50
290.4942851999915
 51
69.50571480000848
  0
ARC
  5
70E
330
6B
100
AcDbEntity
  8
0
 62
     3
100
AcDbCircle
 10
901.1112640299996
 20
834.4107878599997
 30
0.0
 40
1.679999999999999
100
AcDbArc
 50
110.4942851999915
 51
249.5057147999946
  0
ARC
  5
70F
330
6B
100
AcDbEntity
  8
0
 62
     3
100
AcDbCircle
 10
909.4194681499997
 20
812.1827280199999
 30
0.0
 40
25.41
100
AcDbArc
 50
98.31001192998948
 51
110.4942851999915
  0
ARC
  5
710
330
6B
100
AcDbEntity
  8
0
 62
     3
100
AcDbCircle
 10
909.4194681499997
 20
856.6388476999996
 30
0.0
 40
25.41
100
AcDbArc
 50
249.5057147999946
 51
261.6899880699974
  0
LINE
  5
711
330
6B
100
AcDbEntity
  8
0
 62
     3
100
AcDbLine
 10
919.3712251299999
 20
832.3339114799999
 30
0.0
 11
917.4417132999996
 21
832.3339114799999
 31
0.0
  0
LINE
  5
712
330
6B
100
AcDbEntity
  8
0
 62
     3
100
AcDbLine
 10
919.3712251299999
 20
832.5454726199996
 30
0.0
 11
919.3712251299999
 21
832.3339114799999
 31
0.0
  0
LINE
  5
713
330
6B
100
AcDbEntity
  8
0
 62
     3
100
AcDbLine
 10
917.2347557399998
 20
836.4875655199996
 30
0.0
 11
915.2824932099996
 21
836.4875655199996
 31
0.0
  0
LINE
  5
714
330
6B
100
AcDbEntity
  8
0
 62
     3
100
AcDbLine
 10
917.2347557399998
 20
836.4875655199996
 30
0.0
 11
917.2347557399998
 21
836.2761030999999
 31
0.0
  0
LINE
  5
715
330
6B
100
AcDbEntity
  8
0
 62
     3
100
AcDbLine
 10
917.2347557399998
 20
832.5454726199996
 30
0.0
 11
917.2347557399998
 21
832.3338127699999
 31
0.0
  0
LINE
  5
716
330
6B
100
AcDbEntity
  8
0
 62
     3
100
AcDbLine
 10
917.2347557399998
 20
832.3338127699999
 30
0.0
 11
915.2824932099996
 21
832.3338127699999
 31
0.0
  0
LINE
  5
717
330
6B
100
AcDbEntity
  8
0
 62
     3
100
AcDbLine
 10
919.3712251299999
 20
836.4876642399996
 30
0.0
 11
919.3712251299999
 21
836.2761030999999
 31
0.0
  0
LINE
  5
718
330
6B
100
AcDbEntity
  8
0
 62
     3
100
AcDbLine
 10
919.3712251299999
 20
836.4876642399996
 30
0.0
 11
917.4417132999996
 21
836.4876642399996
 31
0.0
  0
LINE
  5
719
330
6B
100
AcDbEntity
  8
0
 62
     3
100
AcDbLine
 10
917.4417132999996
 20
836.4876642399996
 30
0.0
 11
917.4417132999996
 21
836.2761030999999
 31
0.0
  0
LINE
  5
71A
330
6B
100
AcDbEntity
  8
0
 62
     3
100
AcDbLine
 10
919.5855831300001
 20
832.5454726199996
 30
0.0
 11
919.5855831300001
 21
832.3339114799999
 31
0.0
  0
LINE
  5
71B
330
6B
100
AcDbEntity
  8
0
 62
     3
100
AcDbLine
 10
921.5698836899999
 20
832.3339114799999
 30
0.0
 11
919.5855831300001
 21
832.3339114799999
 31
0.0
  0
LINE
  5
71C
330
6B
100
AcDbEntity
  8
0
 62
     3
100
AcDbLine
 10
921.0793470600002
 20
835.8198947199996
 30
0.0
 11
921.0793470600002
 21
833.0016809999998
 31
0.0
  0
LINE
  5
71D
330
6B
100
AcDbEntity
  8
0
 62
     3
100
AcDbLine
 10
921.0793470600002
 20
833.0016809999998
 30
0.0
 11
921.2693960300001
 21
833.0016809999998
 31
0.0
  0
ARC
  5
71E
330
6B
100
AcDbEntity
  8
0
 62
     3
100
AcDbCircle
 10
920.2976102899997
 20
834.4107878599997
 30
0.0
 40
1.71170957
100
AcDbArc
 50
304.5919552700034
 51
55.40804472999656
  0
LINE
  5
71F
330
6B
100
AcDbEntity
  8
0
 62
     3
100
AcDbLine
 10
921.5698836899999
 20
836.4876642399996
 30
0.0
 11
919.5855831300001
 21
836.4876642399996
 31
0.0
  0
LINE
  5
720
330
6B
100
AcDbEntity
  8
0
 62
     3
100
AcDbLine
 10
919.5855831300001
 20
836.4876642399996
 30
0.0
 11
919.5855831300001
 21
836.2761030999999
 31
0.0
  0
LINE
  5
721
330
6B
100
AcDbEntity
  8
0
 62
     3
100
AcDbLine
 10
917.4417132999996
 20
832.5454726199996
 30
0.0
 11
917.4417132999996
 21
832.3339114799999
 31
0.0
  0
LINE
  5
722
330
6B
100
AcDbEntity
  8
0
 62
     3
100
AcDbLine
 10
921.0793470600002
 20
835.8198947199996
 30
0.0
 11
921.2693960300001
 21
835.8198947199996
 31
0.0
  0
LINE
  5
723
330
6B
100
AcDbEntity
  8
0
 62
     3
100
AcDbLine
 10
909.4361874
 20
832.5454726199996
 30
0.0
 11
909.4361837100001
 21
832.3338917099999
 31
0.0
  0
LINE
  5
724
330
6B
100
AcDbEntity
  8
0
 62
     3
100
AcDbLine
 10
907.50667187
 20
832.3339312499998
 30
0.0
 11
909.4361837100001
 21
832.3338975799996
 31
0.0
  0
LINE
  5
725
330
6B
100
AcDbEntity
  8
0
 62
     3
100
AcDbLine
 10
903.2102900199996
 20
832.3339114799999
 30
0.0
 11
904.7495553499997
 21
832.3339114799999
 31
0.0
  0
ARC
  5
726
330
6B
100
AcDbEntity
  8
0
 62
     3
100
AcDbCircle
 10
898.2283473399997
 20
834.4596944799999
 30
0.0
 40
14.71356563
100
AcDbArc
 50
353.8660061899952
 51
357.6940342600066
  0
LINE
  5
727
330
6B
100
AcDbEntity
  8
0
 62
     3
100
AcDbLine
 10
911.9449272000002
 20
833.8713268299997
 30
0.0
 11
912.92999809
 21
833.8676819499996
 31
0.0
  0
LINE
  5
729
330
6B
100
AcDbEntity
  8
0
 62
     3
100
AcDbLine
 10
911.94890562
 20
834.9465415699997
 30
0.0
 11
912.9339764999999
 21
834.9428966999999
 31
0.0
  0
ARC
  5
72A
330
6B
100
AcDbEntity
  8
0
 62
     3
100
AcDbCircle
 10
898.2283473399997
 20
834.4596944799999
 30
0.0
 40
14.71356563
100
AcDbArc
 50
1.881965739991514
 51
5.709993809994633
  0
LINE
  5
72B
330
6B
100
AcDbEntity
  8
0
 62
     3
100
AcDbLine
 10
909.4362562
 20
836.4876444699998
 30
0.0
 11
909.4362525100001
 21
836.2761030999999
 31
0.0
  0
LINE
  5
72C
330
6B
100
AcDbEntity
  8
0
 62
     3
100
AcDbLine
 10
907.50674437
 20
836.4876840099999
 30
0.0
 11
909.4362562
 21
836.4876503299997
 31
0.0
  0
LINE
  5
72D
330
6B
100
AcDbEntity
  8
0
 62
     3
100
AcDbLine
 10
907.5066755599999
 20
832.5454726199996
 30
0.0
 11
907.50667187
 21
832.3339312499998
 31
0.0
  0
LINE
  5
72E
330
6B
100
AcDbEntity
  8
0
 62
     3
100
AcDbLine
 10
907.50674437
 20
836.4876840099999
 30
0.0
 11
907.5067406799997
 21
836.2761030999999
 31
0.0
  0
LINE
  5
72F
330
6B
100
AcDbEntity
  8
0
 62
     3
100
AcDbLine
 10
904.7495553499997
 20
832.5454726199996
 30
0.0
 11
904.7495553499997
 21
832.3339114799999
 31
0.0
  0
LINE
  5
730
330
6B
100
AcDbEntity
  8
0
 62
     3
100
AcDbLine
 10
904.3138074399999
 20
834.7697995699999
 30
0.0
 11
905.8362374999999
 21
832.3339114799999
 31
0.0
  0
LINE
  5
731
330
6B
100
AcDbEntity
  8
0
 62
     3
100
AcDbLine
 10
905.8362374999999
 20
832.3339114799999
 30
0.0
 11
906.8556702199996
 21
832.3339114799999
 31
0.0
  0
LINE
  5
732
330
6B
100
AcDbEntity
  8
0
 62
     3
100
AcDbLine
 10
907.2914181299996
 20
836.4876642399996
 30
0.0
 11
907.2914181299996
 21
836.2761030999999
 31
0.0
  0
LINE
  5
733
330
6B
100
AcDbEntity
  8
0
 62
     3
100
AcDbLine
 10
905.7521527999996
 20
836.4876642399996
 30
0.0
 11
907.2914181299996
 21
836.4876642399996
 31
0.0
  0
LINE
  5
734
330
6B
100
AcDbEntity
  8
0
 62
     3
100
AcDbLine
 10
905.7521527999996
 20
836.4876642399996
 30
0.0
 11
905.7521527999996
 21
836.2761030999999
 31
0.0
  0
LINE
  5
735
330
6B
100
AcDbEntity
  8
0
 62
     3
100
AcDbLine
 10
906.1879007099999
 20
834.6062978999999
 30
0.0
 11
904.9532540400001
 21
836.4876642399996
 31
0.0
  0
LINE
  5
736
330
6B
100
AcDbEntity
  8
0
 62
     3
100
AcDbLine
 10
903.2102900199996
 20
836.4876642399996
 30
0.0
 11
904.9532540400001
 21
836.4876642399996
 31
0.0
  0
LINE
  5
737
330
6B
100
AcDbEntity
  8
0
 62
     3
100
AcDbLine
 10
913.12650438
 20
836.4875655199996
 30
0.0
 11
915.0787669199999
 21
836.4875655199996
 31
0.0
  0
LINE
  5
738
330
6B
100
AcDbEntity
  8
0
 62
     3
100
AcDbLine
 10
913.12650438
 20
836.2761030999999
 30
0.0
 11
913.12650438
 21
836.4875655199996
 31
0.0
  0
LINE
  5
739
330
6B
100
AcDbEntity
  8
0
 62
     3
100
AcDbLine
 10
913.12650438
 20
832.3338127699999
 30
0.0
 11
913.12650438
 21
832.5454726199996
 31
0.0
  0
LINE
  5
73A
330
6B
100
AcDbEntity
  8
0
 62
     3
100
AcDbLine
 10
913.12650438
 20
832.3338127699999
 30
0.0
 11
915.0787669199999
 21
832.3338127699999
 31
0.0
  0
LINE
  5
73B
330
6B
100
AcDbEntity
  8
0
 62
     3
100
AcDbLine
 10
915.2824932099996
 20
832.5454726199996
 30
0.0
 11
915.2824932099996
 21
832.3338127699999
 31
0.0
  0
LINE
  5
73C
330
6B
100
AcDbEntity
  8
0
 62
     3
100
AcDbLine
 10
915.0787669199999
 20
832.5454726199996
 30
0.0
 11
915.0787669199999
 21
832.3338127699999
 31
0.0
  0
LINE
  5
73D
330
6B
100
AcDbEntity
  8
0
 62
     3
100
AcDbLine
 10
915.0787669199999
 20
836.2761030999999
 30
0.0
 11
915.0787669199999
 21
836.4875655199996
 31
0.0
  0
LINE
  5
73E
330
6B
100
AcDbEntity
  8
0
 62
     3
100
AcDbLine
 10
915.2824932099996
 20
836.2761030999999
 30
0.0
 11
915.2824932099996
 21
836.4875655199996
 31
0.0
  0
LINE
  5
73F
330
6B
100
AcDbEntity
  8
0
 62
     3
100
AcDbLine
 10
903.2102900199996
 20
832.5454726199996
 30
0.0
 11
903.2102900199996
 21
832.3339114799999
 31
0.0
  0
LINE
  5
740
330
6B
100
AcDbEntity
  8
0
 62
     3
100
AcDbLine
 10
903.2102900199996
 20
836.4876642399996
 30
0.0
 11
903.2102900199996
 21
836.2761030999999
 31
0.0
  0
ARC
  5
741
330
6B
100
AcDbEntity
  8
0
 62
     3
100
AcDbCircle
 10
921.77988369
 20
834.8465357699996
 30
0.0
 40
1.641128469999999
100
AcDbArc
 50
17.30874897999775
 51
23.76507095999297
  0
ARC
  5
742
330
6B
100
AcDbEntity
  8
0
 62
     3
100
AcDbCircle
 10
920.3816102900001
 20
834.4107878599997
 30
0.0
 40
3.105725599999998
100
AcDbArc
 50
342.6912510200022
 51
17.30856643999277
  0
ARC
  5
743
330
6B
100
AcDbEntity
  8
0
 62
     3
100
AcDbCircle
 10
921.77988369
 20
833.9750399599999
 30
0.0
 40
1.641128469999999
100
AcDbArc
 50
336.2349290400072
 51
342.6912510200022
  0
ARC
  5
744
330
6B
100
AcDbEntity
  8
0
 62
     3
100
AcDbCircle
 10
921.5698836899999
 20
834.8465357699996
 30
0.0
 40
1.641128469999999
100
AcDbArc
 50
17.30874897999775
 51
90.0
  0
ARC
  5
745
330
6B
100
AcDbEntity
  8
0
 62
     3
100
AcDbCircle
 10
920.17161029
 20
834.4107878599997
 30
0.0
 40
3.105725599999998
100
AcDbArc
 50
342.6912510200022
 51
17.30856643999277
  0
ARC
  5
746
330
6B
100
AcDbEntity
  8
0
 62
     3
100
AcDbCircle
 10
921.5698836899999
 20
833.9750399599999
 30
0.0
 40
1.641128469999999
100
AcDbArc
 50
270.0
 51
342.6912510200022
  0
ARC
  5
747
330
6B
100
AcDbEntity
  8
0
 62
     3
100
AcDbCircle
 10
911.44594332
 20
834.4107878599997
 30
0.0
 40
2.076876379999998
100
AcDbArc
 50
46.75287960999258
 51
89.74999828999569
  0
ARC
  5
748
330
6B
100
AcDbEntity
  8
0
 62
     3
100
AcDbCircle
 10
911.44594332
 20
834.4107878599997
 30
0.0
 40
2.076876379999998
100
AcDbArc
 50
273.976333149997
 51
312.8231203899968
  0
ARC
  5
749
330
6B
100
AcDbEntity
  8
0
 62
     3
100
AcDbCircle
 10
922.8877512599996
 20
834.3787263299997
 30
0.0
 40
2.755888999999998
100
AcDbArc
 50
0.6665840599916529
 51
23.90392827000101
  0
ARC
  5
74A
330
6B
100
AcDbEntity
  8
0
 62
     3
100
AcDbCircle
 10
926.8033135399999
 20
834.3787263299997
 30
0.0
 40
2.755888999999998
100
AcDbArc
 50
156.096071729999
 51
179.3334159400083
  0
ARC
  5
74B
330
6B
100
AcDbEntity
  8
0
 62
     3
100
AcDbCircle
 10
922.8877512599996
 20
834.4428493899997
 30
0.0
 40
2.755888999999998
100
AcDbArc
 50
336.096071729999
 51
359.3334159400084
  0
ARC
  5
74C
330
6B
100
AcDbEntity
  8
0
 62
     3
100
AcDbCircle
 10
926.8033135399999
 20
834.4428493899997
 30
0.0
 40
2.755888999999998
100
AcDbArc
 50
180.6665840599917
 51
203.903928270001
  0
LINE
  5
74D
330
6B
100
AcDbEntity
  8
0
 62
     3
100
AcDbLine
 10
931.45360063
 20
834.4886589999996
 30
0.0
 11
1046.125938
 21
834.4886589999996
 31
0.0
  0
LINE
  5
74E
330
6B
100
AcDbEntity
  8
0
 62
     3
100
AcDbLine
 10
898.04085411
 20
834.4886589999996
 30
0.0
 11
866.1259380000004
 21
834.4886589999996
 31
0.0
  0
TEXT
  5
74F
330
6B
100
AcDbEntity
  8
0
 62
     3
100
AcDbText
 10
1033.625938
 20
824.9886589999999
 30
0.0
 40
3.2
  1
担　当
  7
高3.2
100
AcDbText
  0
TEXT
  5
750
330
6B
100
AcDbEntity
  8
0
 62
     3
100
AcDbText
 10
989.6259380000001
 20
824.9886589999999
 30
0.0
 40
3.2
  1
変更・追記内容
  7
高3.2
100
AcDbText
  0
TEXT
  5
751
330
6B
100
AcDbEntity
  8
0
 62
     3
100
AcDbText
 10
964.7394530003394
 20
820.3181204900916
 30
0.0
 40
2.0
  1
1
  7
高2
100
AcDbText
  0
TEXT
  5
752
330
6B
100
AcDbEntity
  8
0
 62
     3
100
AcDbText
 10
964.430941523582
 20
815.1483037778186
 30
0.0
 40
2.0
  1
2
  7
高2
100
AcDbText
  0
TEXT
  5
753
330
6B
100
AcDbEntity
  8
0
 62
     3
100
AcDbText
 10
971.6259380000003
 20
824.9886589999999
 30
0.0
 40
3.2
  1
日　付
  7
高3.2
100
AcDbText
  0
TEXT
  5
754
330
6B
100
AcDbEntity
  8
0
 62
     3
100
AcDbText
 10
971.6259380000003
 20
829.9886589999996
 30
0.0
 40
3.2
  1
図　　　　面　　　　略　　　　歴
  7
高3.2
100
AcDbText
  0
TEXT
  5
755
330
6B
100
AcDbEntity
  8
0
 62
     3
100
AcDbText
 10
961.625938
 20
824.9886589999999
 30
0.0
 40
3.2
  1
記号
  7
高3.2
100
AcDbText
  0
LINE
  5
756
330
6B
100
AcDbEntity
  8
0
 62
     7
100
AcDbLine
 10
965.125938
 20
818.2795549999998
 30
0.0
 11
963.225938
 21
814.9886589999999
 31
0.0
  0
LINE
  5
757
330
6B
100
AcDbEntity
  8
0
 62
     7
100
AcDbLine
 10
965.125938
 20
818.2795549999998
 30
0.0
 11
967.0259379999997
 21
814.9886589999999
 31
0.0
  0
LINE
  5
758
330
6B
100
AcDbEntity
  8
0
 62
     7
100
AcDbLine
 10
963.225938
 20
814.9886589999999
 30
0.0
 11
967.0259379999997
 21
814.9886589999999
 31
0.0
  0
LINE
  5
759
330
6B
100
AcDbEntity
  8
0
 62
     7
100
AcDbLine
 10
965.125938
 20
823.2795559999997
 30
0.0
 11
963.225938
 21
819.9886589999996
 31
0.0
  0
LINE
  5
75A
330
6B
100
AcDbEntity
  8
0
 62
     7
100
AcDbLine
 10
965.125938
 20
823.2795559999997
 30
0.0
 11
967.0259379999997
 21
819.9886589999996
 31
0.0
  0
LINE
  5
75B
330
6B
100
AcDbEntity
  8
0
 62
     7
100
AcDbLine
 10
963.225938
 20
819.9886589999996
 30
0.0
 11
967.0259379999997
 21
819.9886589999996
 31
0.0
  0
LINE
  5
75C
330
6B
100
AcDbEntity
  8
0
 62
     3
100
AcDbLine
 10
960.1259380000001
 20
829.4886589999999
 30
0.0
 11
1046.125938
 21
829.4886589999999
 31
0.0
  0
LINE
  5
75D
330
6B
100
AcDbEntity
  8
0
 62
     3
100
AcDbLine
 10
960.1259380000001
 20
824.4886589999996
 30
0.0
 11
1046.125938
 21
824.4886589999996
 31
0.0
  0
LINE
  5
75E
330
6B
100
AcDbEntity
  8
0
 62
     7
100
AcDbLine
 10
960.1259380000001
 20
819.4886589999999
 30
0.0
 11
1046.125938
 21
819.4886589999999
 31
0.0
  0
LINE
  5
75F
330
6B
100
AcDbEntity
  8
0
 62
     3
100
AcDbLine
 10
960.1259380000001
 20
814.4886589999996
 30
0.0
 11
1046.125938
 21
814.4886589999996
 31
0.0
  0
LINE
  5
760
330
6B
100
AcDbEntity
  8
0
 62
     7
100
AcDbLine
 10
1032.125938
 20
814.4886589999996
 30
0.0
 11
1032.125938
 21
829.4886589999999
 31
0.0
  0
LINE
  5
761
330
6B
100
AcDbEntity
  8
0
 62
     7
100
AcDbLine
 10
988.1259380000001
 20
814.4886589999996
 30
0.0
 11
988.1259380000001
 21
829.4886589999999
 31
0.0
  0
LINE
  5
762
330
6B
100
AcDbEntity
  8
0
 62
     7
100
AcDbLine
 10
970.1259379999999
 20
814.4886589999996
 30
0.0
 11
970.1259379999999
 21
829.4886589999999
 31
0.0
  0
LINE
  5
763
330
6B
100
AcDbEntity
  8
0
 62
     3
100
AcDbLine
 10
960.1259380000001
 20
814.4886589999996
 30
0.0
 11
960.1259380000001
 21
834.4886589999996
 31
0.0
  0
LINE
  5
C98
330
6B
100
AcDbEntity
  8
0
 62
     3
100
AcDbLine
 10
976.7629030000003
 20
665.6021560000002
 30
0.0
 11
976.7629030000003
 21
616.6021560000002
 31
0.0
  0
LINE
  5
C99
330
6B
100
AcDbEntity
  8
0
 62
     3
100
AcDbLine
 10
976.7629030000003
 20
665.6021560000002
 30
0.0
 11
1039.257215
 21
665.6021560000002
 31
0.0
  0
LINE
  5
C9A
330
6B
100
AcDbEntity
  8
0
 62
     3
100
AcDbLine
 10
976.7629030000003
 20
616.6021560000002
 30
0.0
 11
1039.257215
 21
616.6021560000002
 31
0.0
  0
TEXT
  5
C9B
330
6B
100
AcDbEntity
  8
0
 62
     3
100
AcDbText
 10
984.6228687386801
 20
668.0561380000002
 30
0.0
 40
4.5
  1
主　　　仕　　　様
  7
高4.5
100
AcDbText
  0
TEXT
  5
C9C
330
6B
100
AcDbEntity
  8
0
 62
     3
100
AcDbText
 10
978.7629030000003
 20
659.6021559999999
 30
0.0
 40
4.5
  1
型　　式
 41
0.8
  7
高4.5
100
AcDbText
  0
TEXT
  5
C9D
330
6B
100
AcDbEntity
  8
0
 62
     3
100
AcDbText
 10
978.7629030000003
 20
652.6021560000002
 30
0.0
 40
4.5
  1
定格電圧
 41
0.8
  7
高4.5
100
AcDbText
  0
TEXT
  5
C9E
330
6B
100
AcDbEntity
  8
0
 62
     3
100
AcDbText
 10
978.7629030000003
 20
645.6021560000002
 30
0.0
 40
4.5
  1
定格消費電力
 41
0.8
  7
高4.5
100
AcDbText
  0
TEXT
  5
C9F
330
6B
100
AcDbEntity
  8
0
 62
     3
100
AcDbText
 10
978.7629030000003
 20
638.6021559999999
 30
0.0
 40
4.5
  1
定格光束
 41
0.8
  7
高4.5
100
AcDbText
  0
TEXT
  5
CA0
330
6B
100
AcDbEntity
  8
0
 62
     3
100
AcDbText
 10
978.7629030000003
 20
631.6021560000002
 30
0.0
 40
4.5
  1
寿　　命
 41
0.8
  7
高4.5
100
AcDbText
  0
TEXT
  5
CA1
330
6B
100
AcDbEntity
  8
0
 62
     3
100
AcDbText
 10
978.7629030000003
 20
624.6021560000002
 30
0.0
 40
4.5
  1
口　　金
 41
0.8
  7
高4.5
100
AcDbText
  0
TEXT
  5
CA2
330
6B
100
AcDbEntity
  8
0
 62
     3
100
AcDbText
 10
978.7629030000003
 20
617.6021559999999
 30
0.0
 40
4.5
  1
質　　量
 41
0.8
  7
高4.5
100
AcDbText
  0
LINE
  5
CA3
330
6B
100
AcDbEntity
  8
0
 62
     3
100
AcDbLine
 10
1039.257215
 20
616.6021560000002
 30
0.0
 11
1039.257215
 21
665.6021560000002
 31
0.0
  0
LINE
  5
CA4
330
6B
100
AcDbEntity
  8
0
 62
     7
100
AcDbLine
 10
976.7629030000003
 20
658.6021560000002
 30
0.0
 11
1039.257215
 21
658.6021560000002
 31
0.0
  0
LINE
  5
CA5
330
6B
100
AcDbEntity
  8
0
 62
     7
100
AcDbLine
 10
976.7629030000003
 20
651.6021560000003
 30
0.0
 11
1039.257215
 21
651.6021560000003
 31
0.0
  0
LINE
  5
CA6
330
6B
100
AcDbEntity
  8
0
 62
     7
100
AcDbLine
 10
976.7629030000003
 20
644.6021560000002
 30
0.0
 11
1039.257215
 21
644.6021560000002
 31
0.0
  0
LINE
  5
CA7
330
6B
100
AcDbEntity
  8
0
 62
     7
100
AcDbLine
 10
976.7629030000003
 20
637.6021560000002
 30
0.0
 11
1039.257215
 21
637.6021560000002
 31
0.0
  0
LINE
  5
CA8
330
6B
100
AcDbEntity
  8
0
 62
     7
100
AcDbLine
 10
976.7629030000003
 20
630.6021560000003
 30
0.0
 11
1039.257215
 21
630.6021560000003
 31
0.0
  0
LINE
  5
CA9
330
6B
100
AcDbEntity
  8
0
 62
     7
100
AcDbLine
 10
976.7629030000003
 20
623.6021560000002
 30
0.0
 11
1039.257215
 21
623.6021560000002
 31
0.0
  0
LINE
  5
CAA
330
6B
100
AcDbEntity
  8
0
 62
     7
100
AcDbLine
 10
1006.363246113844
 20
665.6021560000002
 30
0.0
 11
1006.363246113844
 21
616.6021560000002
 31
0.0
  0
LINE
  5
CAB
330
6B
100
AcDbEntity
  8
0
 62
     7
100
AcDbLine
 10
984.6228687386801
 20
667.0561380000001
 30
0.0
 11
1032.017674644761
 21
667.0561380000001
 31
0.0
  0
TEXT
  5
CAC
330
6B
100
AcDbEntity
  8
0
 62
     3
100
AcDbText
 10
1008.363246113844
 20
652.6021560000002
 30
0.0
 40
4.5
  1
100V
 41
0.8
  7
高4.5
100
AcDbText
  0
TEXT
  5
CAD
330
6B
100
AcDbEntity
  8
0
 62
     3
100
AcDbText
 10
1008.363246113844
 20
631.6021560000002
 30
0.0
 40
4.5
  1
約2000時間
 41
0.8
  7
高4.5
100
AcDbText
  0
TEXT
  5
CAE
330
6B
100
AcDbEntity
  8
0
 62
     3
100
AcDbText
 10
1008.363246113844
 20
659.6021560000003
 30
0.0
 40
4.5
  1
NRF-500
 41
0.8
  7
高4.5
100
AcDbText
  0
TEXT
  5
CAF
330
6B
100
AcDbEntity
  8
0
 62
     3
100
AcDbText
 10
1008.363246113844
 20
645.6021560000002
 30
0.0
 40
4.5
  1
425W
 41
0.8
  7
高4.5
100
AcDbText
  0
TEXT
  5
CB0
330
6B
100
AcDbEntity
  8
0
 62
     3
100
AcDbText
 10
1008.363246113844
 20
638.6021560000003
 30
0.0
 40
4.5
  1
6400Lm
 41
0.8
  7
高4.5
100
AcDbText
  0
TEXT
  5
CB1
330
6B
100
AcDbEntity
  8
0
 62
     3
100
AcDbText
 10
1008.363246113844
 20
624.6021560000002
 30
0.0
 40
4.5
  1
E39
 41
0.8
  7
高4.5
100
AcDbText
  0
TEXT
  5
CB2
330
6B
100
AcDbEntity
  8
0
 62
     3
100
AcDbText
 10
1008.363246113844
 20
617.6021560000002
 30
0.0
 40
4.5
  1
245g
 41
0.8
  7
高4.5
100
AcDbText
  0
LINE
  5
D35
330
6B
100
AcDbEntity
  8
0
 62
     3
100
AcDbLine
 10
911.94890562
 20
834.9465415699997
 30
0.0
 11
911.9302780899996
 21
835.0658093399996
 31
0.0
  0
LINE
  5
D36
330
6B
100
AcDbEntity
  8
0
 62
     3
100
AcDbLine
 10
911.9302780899996
 20
835.0658093399996
 30
0.0
 11
911.9079069099997
 21
835.1800141199996
 31
0.0
  0
LINE
  5
D37
330
6B
100
AcDbEntity
  8
0
 62
     3
100
AcDbLine
 10
911.9079069099997
 20
835.1800141199996
 30
0.0
 11
911.8819649799997
 21
835.2882731799997
 31
0.0
  0
LINE
  5
D38
330
6B
100
AcDbEntity
  8
0
 62
     3
100
AcDbLine
 10
911.8819649799997
 20
835.2882731799997
 30
0.0
 11
911.8526528399996
 21
835.3897497299996
 31
0.0
  0
LINE
  5
D39
330
6B
100
AcDbEntity
  8
0
 62
     3
100
AcDbLine
 10
911.8526528399996
 20
835.3897497299996
 30
0.0
 11
911.8201970300001
 21
835.4836594099998
 31
0.0
  0
LINE
  5
D3A
330
6B
100
AcDbEntity
  8
0
 62
     3
100
AcDbLine
 10
911.8201970300001
 20
835.4836594099998
 30
0.0
 11
911.7848484399999
 21
835.5692763499996
 31
0.0
  0
LINE
  5
D3B
330
6B
100
AcDbEntity
  8
0
 62
     3
100
AcDbLine
 10
911.7848484399999
 20
835.5692763499996
 30
0.0
 11
911.7468802899997
 21
835.6459387599997
 31
0.0
  0
LINE
  5
D3C
330
6B
100
AcDbEntity
  8
0
 62
     3
100
AcDbLine
 10
911.7468802899997
 20
835.6459387599997
 30
0.0
 11
911.7065860399996
 21
835.7130541
 31
0.0
  0
LINE
  5
D3D
330
6B
100
AcDbEntity
  8
0
 62
     3
100
AcDbLine
 10
911.7065860399996
 20
835.7130541
 30
0.0
 11
911.6642771699996
 21
835.7701035899998
 31
0.0
  0
LINE
  5
D3E
330
6B
100
AcDbEntity
  8
0
 62
     3
100
AcDbLine
 10
911.6642771699996
 20
835.7701035899998
 30
0.0
 11
911.6202806799996
 21
835.8166462599998
 31
0.0
  0
LINE
  5
D3F
330
6B
100
AcDbEntity
  8
0
 62
     3
100
AcDbLine
 10
911.6202806799996
 20
835.8166462599998
 30
0.0
 11
911.5749366599997
 21
835.8523223799997
 31
0.0
  0
LINE
  5
D40
330
6B
100
AcDbEntity
  8
0
 62
     3
100
AcDbLine
 10
911.5749366599997
 20
835.8523223799997
 30
0.0
 11
911.5285955900001
 21
835.8768561699999
 31
0.0
  0
LINE
  5
D41
330
6B
100
AcDbEntity
  8
0
 62
     3
100
AcDbLine
 10
911.5285955900001
 20
835.8768561699999
 30
0.0
 11
911.4816156499999
 21
835.8900580199996
 31
0.0
  0
LINE
  5
D42
330
6B
100
AcDbEntity
  8
0
 62
     3
100
AcDbLine
 10
911.4816156499999
 20
835.8900580199996
 30
0.0
 11
911.4343599899997
 21
835.8918258599997
 31
0.0
  0
LINE
  5
D43
330
6B
100
AcDbEntity
  8
0
 62
     3
100
AcDbLine
 10
911.4343599899997
 20
835.8918258599997
 30
0.0
 11
911.38719386
 21
835.8821460499997
 31
0.0
  0
LINE
  5
D44
330
6B
100
AcDbEntity
  8
0
 62
     3
100
AcDbLine
 10
911.38719386
 20
835.8821460499997
 30
0.0
 11
911.3404818300001
 21
835.8610933899997
 31
0.0
  0
LINE
  5
D45
330
6B
100
AcDbEntity
  8
0
 62
     3
100
AcDbLine
 10
911.3404818300001
 20
835.8610933899997
 30
0.0
 11
911.2945849699999
 21
835.8288306199996
 31
0.0
  0
LINE
  5
D46
330
6B
100
AcDbEntity
  8
0
 62
     3
100
AcDbLine
 10
911.2945849699999
 20
835.8288306199996
 30
0.0
 11
911.2498580299996
 21
835.7856071099996
 31
0.0
  0
LINE
  5
D47
330
6B
100
AcDbEntity
  8
0
 62
     3
100
AcDbLine
 10
911.2498580299996
 20
835.7856071099996
 30
0.0
 11
911.2066467199996
 21
835.7317569499999
 31
0.0
  0
LINE
  5
D48
330
6B
100
AcDbEntity
  8
0
 62
     3
100
AcDbLine
 10
911.2066467199996
 20
835.7317569499999
 30
0.0
 11
911.1652850599996
 21
835.6676963799996
 31
0.0
  0
LINE
  5
D49
330
6B
100
AcDbEntity
  8
0
 62
     3
100
AcDbLine
 10
911.1652850599996
 20
835.6676963799996
 30
0.0
 11
911.1260927399996
 21
835.5939205599996
 31
0.0
  0
LINE
  5
D4A
330
6B
100
AcDbEntity
  8
0
 62
     3
100
AcDbLine
 10
911.1260927399996
 20
835.5939205599996
 30
0.0
 11
911.0893726999996
 21
835.5109997299999
 31
0.0
  0
LINE
  5
D4B
330
6B
100
AcDbEntity
  8
0
 62
     3
100
AcDbLine
 10
911.0893726999996
 20
835.5109997299999
 30
0.0
 11
911.0554087699997
 21
835.4195748199996
 31
0.0
  0
LINE
  5
D4C
330
6B
100
AcDbEntity
  8
0
 62
     3
100
AcDbLine
 10
911.0554087699997
 20
835.4195748199996
 30
0.0
 11
911.0244634699997
 21
835.3203525199997
 31
0.0
  0
LINE
  5
D4D
330
6B
100
AcDbEntity
  8
0
 62
     3
100
AcDbLine
 10
911.0244634699997
 20
835.3203525199997
 30
0.0
 11
910.9967759899999
 21
835.2140997499997
 31
0.0
  0
LINE
  5
D4E
330
6B
100
AcDbEntity
  8
0
 62
     3
100
AcDbLine
 10
910.9967759899999
 20
835.2140997499997
 30
0.0
 11
910.9725603399997
 21
835.1016377899997
 31
0.0
  0
LINE
  5
D4F
330
6B
100
AcDbEntity
  8
0
 62
     3
100
AcDbLine
 10
910.9725603399997
 20
835.1016377899997
 30
0.0
 11
910.9520036999997
 21
834.9838359099997
 31
0.0
  0
LINE
  5
D50
330
6B
100
AcDbEntity
  8
0
 62
     3
100
AcDbLine
 10
910.9520036999997
 20
834.9838359099997
 30
0.0
 11
910.9352649599999
 21
834.8616046699996
 31
0.0
  0
LINE
  5
D51
330
6B
100
AcDbEntity
  8
0
 62
     3
100
AcDbLine
 10
910.9352649599999
 20
834.8616046699996
 30
0.0
 11
910.9224734999996
 21
834.7358888499996
 31
0.0
  0
LINE
  5
D52
330
6B
100
AcDbEntity
  8
0
 62
     3
100
AcDbLine
 10
910.9224734999996
 20
834.7358888499996
 30
0.0
 11
910.9137281899997
 21
834.60766017
 31
0.0
  0
LINE
  5
D53
330
6B
100
AcDbEntity
  8
0
 62
     3
100
AcDbLine
 10
910.9137281899997
 20
834.60766017
 30
0.0
 11
910.90909663
 21
834.4779097599996
 31
0.0
  0
LINE
  5
D54
330
6B
100
AcDbEntity
  8
0
 62
     3
100
AcDbLine
 10
910.90909663
 20
834.4779097599996
 30
0.0
 11
910.9086146199997
 21
834.3476405299997
 31
0.0
  0
LINE
  5
D55
330
6B
100
AcDbEntity
  8
0
 62
     3
100
AcDbLine
 10
910.9086146199997
 20
834.3476405299997
 30
0.0
 11
910.9122858800001
 21
834.2178594099998
 31
0.0
  0
LINE
  5
D56
330
6B
100
AcDbEntity
  8
0
 62
     3
100
AcDbLine
 10
910.9122858800001
 20
834.2178594099998
 30
0.0
 11
910.9200820399999
 21
834.08956952
 31
0.0
  0
LINE
  5
D57
330
6B
100
AcDbEntity
  8
0
 62
     3
100
AcDbLine
 10
910.9200820399999
 20
834.08956952
 30
0.0
 11
910.93194284
 21
833.9637624799999
 31
0.0
  0
LINE
  5
D58
330
6B
100
AcDbEntity
  8
0
 62
     3
100
AcDbLine
 10
910.93194284
 20
833.9637624799999
 30
0.0
 11
910.9477765999999
 21
833.8414107099996
 31
0.0
  0
LINE
  5
D59
330
6B
100
AcDbEntity
  8
0
 62
     3
100
AcDbLine
 10
910.9477765999999
 20
833.8414107099996
 30
0.0
 11
910.96746092
 21
833.7234599399996
 31
0.0
  0
LINE
  5
D5A
330
6B
100
AcDbEntity
  8
0
 62
     3
100
AcDbLine
 10
910.96746092
 20
833.7234599399996
 30
0.0
 11
910.9908436799999
 21
833.6108218699999
 31
0.0
  0
LINE
  5
D5B
330
6B
100
AcDbEntity
  8
0
 62
     3
100
AcDbLine
 10
910.9908436799999
 20
833.6108218699999
 30
0.0
 11
911.0177441099999
 21
833.5043671099999
 31
0.0
  0
LINE
  5
D5C
330
6B
100
AcDbEntity
  8
0
 62
     3
100
AcDbLine
 10
911.0177441099999
 20
833.5043671099999
 30
0.0
 11
911.04795431
 21
833.4049185199997
 31
0.0
  0
LINE
  5
D5D
330
6B
100
AcDbEntity
  8
0
 62
     3
100
AcDbLine
 10
911.04795431
 20
833.4049185199997
 30
0.0
 11
911.08124076
 21
833.3132447899997
 31
0.0
  0
LINE
  5
D5E
330
6B
100
AcDbEntity
  8
0
 62
     3
100
AcDbLine
 10
911.08124076
 20
833.3132447899997
 30
0.0
 11
911.1173461599999
 21
833.2300544899997
 31
0.0
  0
LINE
  5
D5F
330
6B
100
AcDbEntity
  8
0
 62
     3
100
AcDbLine
 10
911.1173461599999
 20
833.2300544899997
 30
0.0
 11
911.1559914599997
 21
833.1559906599999
 31
0.0
  0
LINE
  5
D60
330
6B
100
AcDbEntity
  8
0
 62
     3
100
AcDbLine
 10
911.1559914599997
 20
833.1559906599999
 30
0.0
 11
911.1968779399999
 21
833.0916257699996
 31
0.0
  0
LINE
  5
D61
330
6B
100
AcDbEntity
  8
0
 62
     3
100
AcDbLine
 10
911.1968779399999
 20
833.0916257699996
 30
0.0
 11
911.2396895599999
 21
833.03745732
 31
0.0
  0
LINE
  5
D62
330
6B
100
AcDbEntity
  8
0
 62
     3
100
AcDbLine
 10
911.2396895599999
 20
833.03745732
 30
0.0
 11
911.2840954199999
 21
832.9939039999997
 31
0.0
  0
LINE
  5
D63
330
6B
100
AcDbEntity
  8
0
 62
     3
100
AcDbLine
 10
911.2840954199999
 20
832.9939039999997
 30
0.0
 11
911.3297522699999
 21
832.9613024699996
 31
0.0
  0
LINE
  5
D64
330
6B
100
AcDbEntity
  8
0
 62
     3
100
AcDbLine
 10
911.3297522699999
 20
832.9613024699996
 30
0.0
 11
911.3763072299999
 21
832.9399047099999
 31
0.0
  0
LINE
  5
D65
330
6B
100
AcDbEntity
  8
0
 62
     3
100
AcDbLine
 10
911.3763072299999
 20
832.9399047099999
 30
0.0
 11
911.42340044
 21
832.9298761299996
 31
0.0
  0
LINE
  5
D66
330
6B
100
AcDbEntity
  8
0
 62
     3
100
AcDbLine
 10
911.42340044
 20
832.9298761299996
 30
0.0
 11
911.4706678899997
 21
832.9312942299997
 31
0.0
  0
LINE
  5
D67
330
6B
100
AcDbEntity
  8
0
 62
     3
100
AcDbLine
 10
911.4706678899997
 20
832.9312942299997
 30
0.0
 11
911.51774423
 21
832.9441480499998
 31
0.0
  0
LINE
  5
D68
330
6B
100
AcDbEntity
  8
0
 62
     3
100
AcDbLine
 10
911.51774423
 20
832.9441480499998
 30
0.0
 11
911.5642655900003
 21
832.9683382499997
 31
0.0
  0
LINE
  5
D69
330
6B
100
AcDbEntity
  8
0
 62
     3
100
AcDbLine
 10
911.5642655900003
 20
832.9683382499997
 30
0.0
 11
911.60987238
 21
833.0036778299996
 31
0.0
  0
LINE
  5
D6A
330
6B
100
AcDbEntity
  8
0
 62
     3
100
AcDbLine
 10
911.60987238
 20
833.0036778299996
 30
0.0
 11
911.65421208
 21
833.0498936499997
 31
0.0
  0
LINE
  5
D6B
330
6B
100
AcDbEntity
  8
0
 62
     3
100
AcDbLine
 10
911.65421208
 20
833.0498936499997
 30
0.0
 11
911.6969419699996
 21
833.1066284899996
 31
0.0
  0
LINE
  5
D6C
330
6B
100
AcDbEntity
  8
0
 62
     3
100
AcDbLine
 10
911.6969419699996
 20
833.1066284899996
 30
0.0
 11
911.7377317699997
 21
833.1734437999998
 31
0.0
  0
LINE
  5
D6D
330
6B
100
AcDbEntity
  8
0
 62
     3
100
AcDbLine
 10
911.7377317699997
 20
833.1734437999998
 30
0.0
 11
911.7762662
 21
833.2498231499997
 31
0.0
  0
LINE
  5
D6E
330
6B
100
AcDbEntity
  8
0
 62
     3
100
AcDbLine
 10
911.7762662
 20
833.2498231499997
 30
0.0
 11
911.8122474000001
 21
833.3351761599997
 31
0.0
  0
LINE
  5
D6F
330
6B
100
AcDbEntity
  8
0
 62
     3
100
AcDbLine
 10
911.8122474000001
 20
833.3351761599997
 30
0.0
 11
911.8453972600001
 21
833.4288430899999
 31
0.0
  0
LINE
  5
D70
330
6B
100
AcDbEntity
  8
0
 62
     3
100
AcDbLine
 10
911.8453972600001
 20
833.4288430899999
 30
0.0
 11
911.87545954
 21
833.5300999499997
 31
0.0
  0
LINE
  5
D71
330
6B
100
AcDbEntity
  8
0
 62
     3
100
AcDbLine
 10
911.87545954
 20
833.5300999499997
 30
0.0
 11
911.90220189
 21
833.6381640699999
 31
0.0
  0
LINE
  5
D72
330
6B
100
AcDbEntity
  8
0
 62
     3
100
AcDbLine
 10
911.90220189
 20
833.6381640699999
 30
0.0
 11
911.92541759
 21
833.7522001799996
 31
0.0
  0
LINE
  5
D73
330
6B
100
AcDbEntity
  8
0
 62
     3
100
AcDbLine
 10
911.92541759
 20
833.7522001799996
 30
0.0
 11
911.9449272000002
 21
833.8713268299997
 31
0.0
  0
LINE
  5
D76
330
6B
100
AcDbEntity
  8
0
  6
Continuous
100
AcDbLine
 10
942.4331107280648
 20
649.326200130278
 30
0.0
 11
942.4331107280648
 21
627.2157294762737
 31
0.0
  0
LINE
  5
D77
330
6B
100
AcDbEntity
  8
0
  6
Continuous
100
AcDbLine
 10
961.9200752719352
 20
650.9970578697217
 30
0.0
 11
961.9200752719352
 21
627.2157294762737
 31
0.0
  0
LINE
  5
D78
330
6B
100
AcDbEntity
  8
0
  6
Continuous
100
AcDbLine
 10
944.9331107280647
 20
628.4657294762737
 30
0.0
 11
959.4200752719352
 21
628.4657294762737
 31
0.0
  0
LINE
  5
D7C
330
6B
100
AcDbEntity
  8
0
100
AcDbLine
 10
951.924941
 20
643.751342
 30
0.0
 11
900.8638900000001
 21
643.751342
 31
0.0
  0
LINE
  5
D7D
330
6B
100
AcDbEntity
  8
0
100
AcDbLine
 10
951.924941
 20
762.751342
 30
0.0
 11
900.8638900000001
 21
762.751342
 31
0.0
  0
LINE
  5
D7E
330
6B
100
AcDbEntity
  8
0
100
AcDbLine
 10
902.11389
 20
646.251342
 30
0.0
 11
902.11389
 21
760.251342
 31
0.0
  0
LINE
  5
D82
330
6B
100
AcDbEntity
  8
0
100
AcDbLine
 10
912.1749409999999
 20
730.0758689999999
 30
0.0
 11
912.1749409999999
 21
776.7441589999998
 31
0.0
  0
LINE
  5
D83
330
6B
100
AcDbEntity
  8
0
100
AcDbLine
 10
992.174941
 20
730.0758689999999
 30
0.0
 11
992.174941
 21
776.7441589999998
 31
0.0
  0
LINE
  5
D84
330
6B
100
AcDbEntity
  8
0
100
AcDbLine
 10
914.6749409999999
 20
775.4941589999997
 30
0.0
 11
989.6749409999999
 21
775.4941589999997
 31
0.0
  0
TEXT
  5
D88
330
6B
100
AcDbEntity
  8
0
  6
Continuous
 62
     4
100
AcDbText
 10
948.1765929999999
 20
629.0907294762737
 30
0.0
 40
3.0
  1
E39
100
AcDbText
  0
LINE
  5
D89
330
6B
100
AcDbEntity
  8
0
  6
ByBlock
 62
     0
370
    -2
100
AcDbLine
 10
959.4200752719352
 20
629.1356019762737
 30
0.0
 11
961.9200752719352
 21
628.4657294762737
 31
0.0
  0
LINE
  5
D8A
330
6B
100
AcDbEntity
  8
0
  6
ByBlock
 62
     0
370
    -2
100
AcDbLine
 10
961.9200752719352
 20
628.4657294762737
 30
0.0
 11
959.4200752719352
 21
627.7958569762737
 31
0.0
  0
LINE
  5
D8B
330
6B
100
AcDbEntity
  8
0
  6
ByBlock
 62
     0
370
    -2
100
AcDbLine
 10
961.9200752719352
 20
628.4657294762737
 30
0.0
 11
959.4200752719352
 21
628.4657294762737
 31
0.0
  0
LINE
  5
D8C
330
6B
100
AcDbEntity
  8
0
  6
ByBlock
 62
     0
370
    -2
100
AcDbLine
 10
944.9331107280647
 20
627.7958569762737
 30
0.0
 11
942.4331107280648
 21
628.4657294762737
 31
0.0
  0
LINE
  5
D8D
330
6B
100
AcDbEntity
  8
0
  6
ByBlock
 62
     0
370
    -2
100
AcDbLine
 10
942.4331107280648
 20
628.4657294762737
 30
0.0
 11
944.9331107280647
 21
629.1356019762737
 31
0.0
  0
LINE
  5
D8E
330
6B
100
AcDbEntity
  8
0
  6
ByBlock
 62
     0
370
    -2
100
AcDbLine
 10
942.4331107280648
 20
628.4657294762737
 30
0.0
 11
944.9331107280647
 21
628.4657294762737
 31
0.0
  0
TEXT
  5
D8F
330
6B
100
AcDbEntity
  8
0
  6
Continuous
 62
     4
100
AcDbText
 10
901.48889
 20
699.2513420000002
 30
0.0
 40
3.0
  1
238
 50
90.0
100
AcDbText
  0
LINE
  5
D90
330
6B
100
AcDbEntity
  8
0
  6
ByBlock
 62
     0
370
    -2
100
AcDbLine
 10
901.4440175
 20
760.251342
 30
0.0
 11
902.11389
 21
762.751342
 31
0.0
  0
LINE
  5
D91
330
6B
100
AcDbEntity
  8
0
  6
ByBlock
 62
     0
370
    -2
100
AcDbLine
 10
902.11389
 20
762.751342
 30
0.0
 11
902.7837625000001
 21
760.251342
 31
0.0
  0
LINE
  5
D92
330
6B
100
AcDbEntity
  8
0
  6
ByBlock
 62
     0
370
    -2
100
AcDbLine
 10
902.11389
 20
762.751342
 30
0.0
 11
902.11389
 21
760.251342
 31
0.0
  0
LINE
  5
D93
330
6B
100
AcDbEntity
  8
0
  6
ByBlock
 62
     0
370
    -2
100
AcDbLine
 10
902.7837625000001
 20
646.251342
 30
0.0
 11
902.11389
 21
643.751342
 31
0.0
  0
LINE
  5
D94
330
6B
100
AcDbEntity
  8
0
  6
ByBlock
 62
     0
370
    -2
100
AcDbLine
 10
902.11389
 20
643.751342
 30
0.0
 11
901.4440175
 21
646.251342
 31
0.0
  0
LINE
  5
D95
330
6B
100
AcDbEntity
  8
0
  6
ByBlock
 62
     0
370
    -2
100
AcDbLine
 10
902.11389
 20
643.751342
 30
0.0
 11
902.11389
 21
646.251342
 31
0.0
  0
TEXT
  5
D96
330
6B
100
AcDbEntity
  8
0
  6
Continuous
 62
     4
100
AcDbText
 10
947.424941
 20
776.1191589999997
 30
0.0
 40
3.0
  1
\U+2205160
100
AcDbText
  0
LINE
  5
D97
330
6B
100
AcDbEntity
  8
0
  6
ByBlock
 62
     0
370
    -2
100
AcDbLine
 10
989.6749409999999
 20
776.1640314999997
 30
0.0
 11
992.174941
 21
775.4941589999997
 31
0.0
  0
LINE
  5
D98
330
6B
100
AcDbEntity
  8
0
  6
ByBlock
 62
     0
370
    -2
100
AcDbLine
 10
992.174941
 20
775.4941589999997
 30
0.0
 11
989.6749409999999
 21
774.8242864999997
 31
0.0
  0
LINE
  5
D99
330
6B
100
AcDbEntity
  8
0
  6
ByBlock
 62
     0
370
    -2
100
AcDbLine
 10
992.174941
 20
775.4941589999997
 30
0.0
 11
989.6749409999999
 21
775.4941589999997
 31
0.0
  0
LINE
  5
D9A
330
6B
100
AcDbEntity
  8
0
  6
ByBlock
 62
     0
370
    -2
100
AcDbLine
 10
914.6749409999999
 20
774.8242864999997
 30
0.0
 11
912.1749409999999
 21
775.4941589999997
 31
0.0
  0
LINE
  5
D9B
330
6B
100
AcDbEntity
  8
0
  6
ByBlock
 62
     0
370
    -2
100
AcDbLine
 10
912.1749409999999
 20
775.4941589999997
 30
0.0
 11
914.6749409999999
 21
776.1640314999997
 31
0.0
  0
LINE
  5
D9C
330
6B
100
AcDbEntity
  8
0
  6
ByBlock
 62
     0
370
    -2
100
AcDbLine
 10
912.1749409999999
 20
775.4941589999997
 30
0.0
 11
914.6749409999999
 21
775.4941589999997
 31
0.0
  0
ENDSEC
  0
SECTION
  2
OBJECTS
  0
DICTIONARY
  5
C
330
0
100
AcDbDictionary
281
     1
  3
ACAD_2007HEADERVARS_RT
350
DA1
  3
ACAD_COLOR
350
62
  3
ACAD_GROUP
350
D
  3
ACAD_LAYOUT
350
61
  3
ACAD_MATERIAL
350
10
  3
ACAD_MLEADERSTYLE
350
65
  3
ACAD_MLINESTYLE
350
5E
  3
ACAD_PLOTSETTINGS
350
60
  3
ACAD_PLOTSTYLENAME
350
E
  3
ACAD_SCALELIST
350
42
  3
ACAD_TABLESTYLE
350
63
  3
ACAD_VISUALSTYLE
350
29
  3
ACDB_RECOMPOSE_DATA
350
D9F
  3
AcDbVariableDictionary
350
4E5
  3
AEC_PROPERTY_SET_DEFS
350
C93
  3
DWGPROPS
350
DA0
  0
DICTIONARY
  5
2E4
330
2
100
AcDbDictionary
280
     1
281
     1
  3
ACAD_LAYERSTATES
360
2E5
  0
DICTIONARY
  5
4E1
330
54
100
AcDbDictionary
280
     1
281
     1
  3
ADSK_XREC_LAYER_RECONCILED
360
4E2
  0
DICTIONARY
  5
D74
330
6B
100
AcDbDictionary
280
     1
281
     1
  3
ACAD_SORTENTS
360
D75
  0
DICTIONARY
  5
DA1
102
{ACAD_REACTORS
330
C
102
}
330
C
100
AcDbDictionary
281
     1
  3
DIMARCSYM
350
DA3
  3
DIMFXL
350
DA2
  3
DIMJOGANG
350
DA4
  0
DICTIONARY
  5
62
102
{ACAD_REACTORS
330
C
102
}
330
C
100
AcDbDictionary
281
     1
  0
DICTIONARY
  5
D
102
{ACAD_REACTORS
330
C
102
}
330
C
100
AcDbDictionary
281
     1
  0
DICTIONARY
  5
61
102
{ACAD_REACTORS
330
C
102
}
330
C
100
AcDbDictionary
281
     1
  3
Model
350
6E
  3
レイアウト1
350
6A
  0
DICTIONARY
  5
10
102
{ACAD_REACTORS
330
C
102
}
330
C
100
AcDbDictionary
281
     1
  3
ByBlock
350
19
  3
ByLayer
350
11
  3
Global
350
21
  0
DICTIONARY
  5
65
102
{ACAD_REACTORS
330
C
102
}
330
C
100
AcDbDictionary
281
     1
  3
Standard
350
66
  0
DICTIONARY
  5
5E
102
{ACAD_REACTORS
330
C
102
}
330
C
100
AcDbDictionary
281
     1
  3
Standard
350
5F
  0
DICTIONARY
  5
60
102
{ACAD_REACTORS
330
C
102
}
330
C
100
AcDbDictionary
281
     1
  0
ACDBDICTIONARYWDFLT
  5
E
102
{ACAD_REACTORS
330
C
102
}
330
C
100
AcDbDictionary
281
     1
  3
Normal
350
F
100
AcDbDictionaryWithDefault
340
F
  0
DICTIONARY
  5
42
102
{ACAD_REACTORS
330
C
102
}
330
C
100
AcDbDictionary
281
     1
  3
A0
350
43
  3
A1
350
44
  3
A2
350
45
  3
A3
350
46
  3
A4
350
47
  3
A5
350
48
  3
A6
350
49
  3
A7
350
4A
  3
A8
350
4B
  3
A9
350
4C
  3
B0
350
4D
  3
B1
350
4E
  3
B2
350
4F
  3
B3
350
50
  3
B4
350
51
  3
B5
350
52
  3
B6
350
53
  0
DICTIONARY
  5
63
102
{ACAD_REACTORS
330
C
102
}
330
C
100
AcDbDictionary
281
     1
  3
Standard
350
64
  3
部品表
350
935
  0
DICTIONARY
  5
29
102
{ACAD_REACTORS
330
C
102
}
330
C
100
AcDbDictionary
281
     1
  3
2dWireframe
350
2F
  3
3dWireframe
350
2E3
  3
Basic
350
2E
  3
Brighten
350
35
  3
ColorChange
350
39
  3
Conceptual
350
32
  3
Dim
350
34
  3
EdgeColorOff
350
41
  3
Facepattern
350
38
  3
Flat
350
2A
  3
FlatWithEdges
350
2B
  3
Gouraud
350
2C
  3
GouraudWithEdges
350
2D
  3
Hidden
350
31
  3
JitterOff
350
3F
  3
Linepattern
350
37
  3
OverhangOff
350
40
  3
Realistic
350
33
  3
Shaded
350
3E
  3
Shaded with edges
350
3D
  3
Shades of Gray
350
3A
  3
Sketchy
350
3B
  3
Thicken
350
36
  3
Wireframe
350
30
  3
X-Ray
350
3C
  0
XRECORD
  5
D9F
102
{ACAD_REACTORS
330
C
102
}
330
C
100
AcDbXrecord
280
     1
 90
        1
330
64
330
935
  0
DICTIONARY
  5
4E5
102
{ACAD_REACTORS
330
C
102
}
330
C
100
AcDbDictionary
281
     1
  3
CANNOSCALE
350
4E8
  3
CMLEADERSTYLE
350
4E7
  3
CTABLESTYLE
350
4E6
  3
DIMASSOC
350
4EB
  3
INDEXCTL
350
4EA
  3
SORTENTS
350
4E9
  3
XCLIPFRAME
350
CB4
  0
DICTIONARY
  5
C93
102
{ACAD_REACTORS
330
C
102
}
330
C
100
AcDbDictionary
281
     1
  0
XRECORD
  5
DA0
102
{ACAD_REACTORS
330
C
102
}
330
C
100
AcDbXrecord
280
     1
  1
DWGPROPS COOKIE
  2

  3

  4

  6

  7

  8
imamura
  9

300
=
301
=
302
=
303
=
304
=
305
=
306
=
307
=
308
=
309
=
 40
0.0385083101851852
 41
2456071.806602292
 42
2457351.761790961
  1

 90
        0
  0
DICTIONARY
  5
2E5
102
{ACAD_REACTORS
330
2E4
102
}
330
2E4
100
AcDbDictionary
281
     1
  0
XRECORD
  5
4E2
102
{ACAD_REACTORS
330
4E1
102
}
330
4E1
100
AcDbXrecord
280
     1
290
     1
  0
SORTENTSTABLE
  5
D75
102
{ACAD_REACTORS
330
D74
102
}
330
D74
100
AcDbSortentsTable
330
6B
331
D59
  5
CA8
331
D48
  5
763
331
6F4
  5
71B
331
6E3
  5
70A
331
6D2
  5
6F9
331
6FE
  5
725
331
C6
  5
E0
331
B5
  5
CF
331
D60
  5
CAF
331
70F
  5
737
331
D7
  5
1C5
331
D71
  5
D42
331
720
  5
748
331
731
  5
D4D
331
1C1
  5
1EB
331
742
  5
D5E
331
1D2
  5
1FC
331
CA5
  5
D8F
331
753
  5
D6F
331
D93
  5
C1
331
1FE
  5
6D3
331
D37
  5
752
331
AF
  5
C9
331
D82
  5
AE
331
D5A
  5
CA9
331
D49
  5
C98
331
D38
  5
753
331
6F5
  5
71C
331
6E4
  5
70B
331
6D3
  5
6FA
331
6FF
  5
726
331
C7
  5
E1
331
B6
  5
D0
331
D61
  5
CB0
331
710
  5
738
331
D8
  5
1C6
331
D72
  5
D43
331
721
  5
749
331
732
  5
D4E
331
1C2
  5
1F0
331
743
  5
D5F
331
1D3
  5
1FD
331
CA6
  5
D90
331
754
  5
D70
331
D94
  5
C2
331
1FF
  5
6D4
331
D83
  5
AF
331
D5B
  5
CAA
331
D4A
  5
C99
331
D39
  5
754
331
200
  5
6D5
331
6F6
  5
71D
331
6E5
  5
70C
331
6D4
  5
6FB
331
700
  5
727
331
C8
  5
E2
331
B7
  5
D1
331
D62
  5
CB1
331
711
  5
739
331
D9
  5
1CB
331
D73
  5
D44
331
722
  5
74A
331
733
  5
D4F
331
1C3
  5
1F1
331
744
  5
D60
331
1D4
  5
1FE
331
CA7
  5
D91
331
755
  5
D71
331
D95
  5
C3
331
D84
  5
B0
331
CA8
  5
D92
331
D3A
  5
755
331
201
  5
6D6
331
1F0
  5
227
331
D5C
  5
CAB
331
D4B
  5
C9A
331
212
  5
6E1
331
6F7
  5
71E
331
6E6
  5
70D
331
6D5
  5
6FC
331
701
  5
729
331
C9
  5
E3
331
B8
  5
D2
331
D63
  5
CB2
331
712
  5
73A
331
DA
  5
1CC
331
723
  5
74B
331
734
  5
D50
331
1C4
  5
1F2
331
745
  5
D61
331
1D5
  5
1FF
331
756
  5
D72
331
D96
  5
BD
331
CA9
  5
D93
331
C98
  5
D82
331
D5D
  5
CAC
331
D4C
  5
C9B
331
D3B
  5
756
331
202
  5
6D7
331
1F1
  5
228
331
760
  5
D7E
331
6E7
  5
70E
331
6D6
  5
6FD
331
702
  5
72A
331
CA
  5
E4
331
B9
  5
D3
331
D64
  5
D35
331
713
  5
73B
331
DB
  5
1CD
331
724
  5
74C
331
735
  5
D51
331
1C5
  5
1F3
331
746
  5
D62
331
1D6
  5
200
331
757
  5
D73
331
1E7
  5
205
331
D97
  5
BA
331
CAA
  5
D94
331
C99
  5
D83
331
758
  5
D76
331
1E8
  5
206
331
D98
  5
BB
331
D5E
  5
CAD
331
D4D
  5
C9C
331
D3C
  5
757
331
203
  5
6D8
331
1F2
  5
229
331
761
  5
D7F
331
6E8
  5
70F
331
6D7
  5
6FE
331
703
  5
72B
331
CB
  5
1B7
331
BA
  5
D4
331
D65
  5
D36
331
714
  5
73C
331
DC
  5
1CE
331
725
  5
74D
331
D76
  5
6EC
331
736
  5
D52
331
747
  5
D63
331
1D7
  5
201
331
1C6
  5
1F4
331
748
  5
D64
331
D88
  5
6F5
331
CAB
  5
D95
331
C9A
  5
D84
331
759
  5
D77
331
1E9
  5
207
331
D99
  5
BC
331
D5F
  5
CAE
331
D4E
  5
C9D
331
D3D
  5
758
331
204
  5
6D9
331
1F3
  5
22A
331
762
  5
D80
331
6E9
  5
710
331
6D8
  5
6FF
331
704
  5
72C
331
CC
  5
1B9
331
BB
  5
D5
331
D66
  5
D37
331
715
  5
73D
331
DD
  5
1CF
331
726
  5
74E
331
737
  5
D53
331
D77
  5
6ED
331
738
  5
D54
331
D78
  5
6EE
331
D89
  5
6F2
331
749
  5
D65
331
1D9
  5
202
331
CAC
  5
D96
331
C9B
  5
D85
331
75A
  5
D78
331
1EA
  5
208
331
D9A
  5
B4
331
D4F
  5
C9E
331
D3E
  5
759
331
205
  5
6DA
331
1F4
  5
238
331
763
  5
D81
331
6EA
  5
711
331
6D9
  5
700
331
227
  5
6E2
331
705
  5
72D
331
CD
  5
1BB
331
BC
  5
D6
331
D67
  5
D38
331
716
  5
73E
331
DE
  5
1D0
331
727
  5
74F
331
1B7
  5
1D7
331
739
  5
D55
331
D68
  5
D39
331
74A
  5
D66
331
D8A
  5
6F3
331
CAD
  5
D97
331
C9C
  5
D86
331
75B
  5
D79
331
1EB
  5
212
331
D9B
  5
B5
331
D50
  5
C9F
331
D3F
  5
75A
331
206
  5
6DB
331
1F5
  5
239
331
6EB
  5
712
331
6DA
  5
701
331
228
  5
6E3
331
706
  5
72E
331
CE
  5
1BC
331
BD
  5
D7
331
717
  5
73F
331
DF
  5
1D1
331
D69
  5
D3A
331
718
  5
740
331
E0
  5
1D2
331
73A
  5
D56
331
729
  5
D45
331
1B9
  5
1D9
331
D8B
  5
6F4
331
74B
  5
D67
331
1DB
  5
203
331
CAE
  5
D98
331
C9D
  5
D87
331
75C
  5
D7A
331
D51
  5
CA0
331
D40
  5
75B
331
238
  5
6E6
331
207
  5
6DC
331
1F6
  5
23A
331
D9C
  5
B6
331
6EC
  5
713
331
6DB
  5
702
331
229
  5
6E4
331
707
  5
72F
331
CF
  5
1BD
331
BE
  5
D8
331
708
  5
730
331
D0
  5
1BE
331
72A
  5
D46
331
D6A
  5
D3B
331
719
  5
741
331
E1
  5
1D3
331
73B
  5
D57
331
1CB
  5
1F5
331
CAF
  5
D99
331
C9E
  5
D88
331
75D
  5
D7B
331
74C
  5
D68
331
D8C
  5
6EF
331
D52
  5
CA1
331
D41
  5
75C
331
239
  5
6E7
331
208
  5
6DD
331
1F7
  5
23B
331
6ED
  5
714
331
6DC
  5
703
331
22A
  5
6E5
331
BF
  5
D9
331
6F8
  5
71F
331
C0
  5
DA
331
709
  5
731
331
D1
  5
1BF
331
D6B
  5
D3C
331
71A
  5
742
331
E2
  5
1D4
331
72B
  5
D47
331
1BB
  5
1DB
331
73C
  5
D58
331
1CC
  5
1F6
331
D7C
  5
BE
331
CB0
  5
D9A
331
C9F
  5
D89
331
75E
  5
D7C
331
74D
  5
D69
331
D8D
  5
6F0
331
D53
  5
CA2
331
D42
  5
75D
331
23A
  5
6E8
331
1F8
  5
23C
331
6EE
  5
715
331
6DD
  5
704
331
6F9
  5
720
331
C1
  5
DB
331
B0
  5
CA
331
70A
  5
732
331
D2
  5
1C0
331
D6C
  5
D3D
331
71B
  5
743
331
E3
  5
1D5
331
72C
  5
D48
331
1BC
  5
1E1
331
73D
  5
D59
331
1CD
  5
1F7
331
D7D
  5
BF
331
CB1
  5
D9B
331
CA0
  5
D8A
331
75F
  5
D7D
331
74E
  5
D6A
331
D8E
  5
6F1
331
D54
  5
CA3
331
D43
  5
75E
331
23B
  5
6E9
331
1F9
  5
23D
331
6EF
  5
716
331
6DE
  5
705
331
6F0
  5
717
331
6FA
  5
721
331
C2
  5
DC
331
B1
  5
CB
331
70B
  5
733
331
D3
  5
1C1
331
D6D
  5
D3E
331
71C
  5
744
331
E4
  5
1D6
331
72D
  5
D49
331
1BD
  5
1E7
331
73E
  5
D5A
331
1CE
  5
1F8
331
D7E
  5
C0
331
CB2
  5
D9C
331
CA1
  5
D8B
331
74F
  5
D6B
331
D8F
  5
C7
331
D55
  5
CA4
331
D44
  5
75F
331
23C
  5
6EA
331
1FA
  5
6CF
331
6DF
  5
706
331
6F1
  5
718
331
6E0
  5
707
331
6FB
  5
722
331
C3
  5
DD
331
B2
  5
CC
331
D6E
  5
D3F
331
71D
  5
745
331
70C
  5
734
331
D4
  5
1C2
331
72E
  5
D4A
331
1BE
  5
1E8
331
73F
  5
D5B
331
1CF
  5
1F9
331
CA2
  5
D8C
331
750
  5
D6C
331
D90
  5
C4
331
D56
  5
CA5
331
D45
  5
760
331
23D
  5
6EB
331
1FB
  5
6D0
331
6CF
  5
6F6
331
6F2
  5
719
331
6E1
  5
708
331
6D0
  5
6F7
331
6FC
  5
723
331
C4
  5
DE
331
B3
  5
CD
331
D6F
  5
D40
331
71E
  5
746
331
70D
  5
735
331
D5
  5
1C3
331
72F
  5
D4B
331
1BF
  5
1E9
331
740
  5
D5C
331
1D0
  5
1FA
331
CA3
  5
D8D
331
751
  5
D6D
331
1E1
  5
204
331
D91
  5
C5
331
D57
  5
CA6
331
D46
  5
761
331
D35
  5
750
331
1FC
  5
6D1
331
D58
  5
CA7
331
6F3
  5
71A
331
6E2
  5
709
331
6D1
  5
6F8
331
6FD
  5
724
331
C5
  5
DF
331
B4
  5
CE
331
D70
  5
D41
331
71F
  5
747
331
70E
  5
736
331
D6
  5
1C4
331
730
  5
D4C
331
1C0
  5
1EA
331
741
  5
D5D
331
1D1
  5
1FB
331
CA4
  5
D8E
331
752
  5
D6E
331
D92
  5
C6
331
1FD
  5
6D2
331
D47
  5
762
331
D36
  5
751
331
AE
  5
C8
  0
XRECORD
  5
DA3
102
{ACAD_REACTORS
330
DA1
102
}
330
DA1
100
AcDbXrecord
280
     1
 70
     2
  0
XRECORD
  5
DA2
102
{ACAD_REACTORS
330
DA1
102
}
330
DA1
100
AcDbXrecord
280
     1
 40
1.25
  0
XRECORD
  5
DA4
102
{ACAD_REACTORS
330
DA1
102
}
330
DA1
100
AcDbXrecord
280
     1
 40
1.570796326794896
  0
LAYOUT
  5
6E
102
{ACAD_XDICTIONARY
360
DD8
102
}
102
{ACAD_REACTORS
330
61
102
}
330
61
100
AcDbPlotSettings
  1

  2
FX DP 205
  4

  6

 40
0.0
 41
0.0
 42
0.0
 43
0.0
 44
0.0
 45
0.0
 46
0.0
 47
0.0
 48
0.0
 49
0.0
140
0.0
141
0.0
142
1.0
143
1.0
 70
  1712
 72
     0
 73
     0
 74
     0
  7

 75
     0
147
1.0
148
0.0
149
0.0
100
AcDbLayout
  1
Model
 70
     1
 71
     0
 10
0.0
 20
0.0
 11
12.0
 21
9.0
 12
0.0
 22
0.0
 32
0.0
 14
0.0
 24
0.0
 34
0.0
 15
0.0
 25
0.0
 35
0.0
146
0.0
 13
0.0
 23
0.0
 33
0.0
 16
1.0
 26
0.0
 36
0.0
 17
0.0
 27
1.0
 37
0.0
 76
     0
330
6B
331
8B
  0
LAYOUT
  5
6A
102
{ACAD_XDICTIONARY
360
DD6
102
}
102
{ACAD_REACTORS
330
61
102
}
330
61
100
AcDbPlotSettings
  1

  2
FX DP 205
  4

  6

 40
0.0
 41
0.0
 42
0.0
 43
0.0
 44
0.0
 45
0.0
 46
0.0
 47
0.0
 48
0.0
 49
0.0
140
0.0
141
0.0
142
1.0
143
1.0
 70
   688
 72
     0
 73
     0
 74
     5
  7

 75
    16
147
1.0
148
0.0
149
0.0
100
AcDbLayout
  1
レイアウト1
 70
     1
 71
     1
 10
0.0
 20
0.0
 11
12.0
 21
9.0
 12
0.0
 22
0.0
 32
0.0
 14
1.000000000000000E+20
 24
1.000000000000000E+20
 34
1.000000000000000E+20
 15
-1.000000000000000E+20
 25
-1.000000000000000E+20
 35
-1.000000000000000E+20
146
0.0
 13
0.0
 23
0.0
 33
0.0
 16
1.0
 26
0.0
 36
0.0
 17
0.0
 27
1.0
 37
0.0
 76
     0
330
67
  0
MATERIAL
  5
19
102
{ACAD_XDICTIONARY
360
1A
102
}
102
{ACAD_REACTORS
330
10
102
}
330
10
100
AcDbMaterial
  1
ByBlock
 72
     0
 43
0.0208333333333333
 43
0.0
 43
0.0
 43
0.0
 43
0.0
 43
0.0208333333333333
 43
0.0
 43
0.0
 43
0.0
 43
0.0
 43
1.0
 43
0.0
 43
0.0
 43
0.0
 43
0.0
 43
1.0
 77
     0
 47
0.0208333333333333
 47
0.0
 47
0.0
 47
0.0
 47
0.0
 47
0.0208333333333333
 47
0.0
 47
0.0
 47
0.0
 47
0.0
 47
1.0
 47
0.0
 47
0.0
 47
0.0
 47
0.0
 47
1.0
171
     0
 49
0.0208333333333333
 49
0.0
 49
0.0
 49
0.0
 49
0.0
 49
0.0208333333333333
 49
0.0
 49
0.0
 49
0.0
 49
0.0
 49
1.0
 49
0.0
 49
0.0
 49
0.0
 49
0.0
 49
1.0
175
     0
142
0.0208333333333333
142
0.0
142
0.0
142
0.0
142
0.0
142
0.0208333333333333
142
0.0
142
0.0
142
0.0
142
0.0
142
1.0
142
0.0
142
0.0
142
0.0
142
0.0
142
1.0
179
     0
144
0.0208333333333333
144
0.0
144
0.0
144
0.0
144
0.0
144
0.0208333333333333
144
0.0
144
0.0
144
0.0
144
0.0
144
1.0
144
0.0
144
0.0
144
0.0
144
0.0
144
1.0
147
0.0208333333333333
147
0.0
147
0.0
147
0.0
147
0.0
147
0.0208333333333333
147
0.0
147
0.0
147
0.0
147
0.0
147
1.0
147
0.0
147
0.0
147
0.0
147
0.0
147
1.0
  0
MATERIAL
  5
11
102
{ACAD_XDICTIONARY
360
12
102
}
102
{ACAD_REACTORS
330
10
102
}
330
10
100
AcDbMaterial
  1
ByLayer
 72
     0
 43
0.0208333333333333
 43
0.0
 43
0.0
 43
0.0
 43
0.0
 43
0.0208333333333333
 43
0.0
 43
0.0
 43
0.0
 43
0.0
 43
1.0
 43
0.0
 43
0.0
 43
0.0
 43
0.0
 43
1.0
 77
     0
 47
0.0208333333333333
 47
0.0
 47
0.0
 47
0.0
 47
0.0
 47
0.0208333333333333
 47
0.0
 47
0.0
 47
0.0
 47
0.0
 47
1.0
 47
0.0
 47
0.0
 47
0.0
 47
0.0
 47
1.0
171
     0
 49
0.0208333333333333
 49
0.0
 49
0.0
 49
0.0
 49
0.0
 49
0.0208333333333333
 49
0.0
 49
0.0
 49
0.0
 49
0.0
 49
1.0
 49
0.0
 49
0.0
 49
0.0
 49
0.0
 49
1.0
175
     0
142
0.0208333333333333
142
0.0
142
0.0
142
0.0
142
0.0
142
0.0208333333333333
142
0.0
142
0.0
142
0.0
142
0.0
142
1.0
142
0.0
142
0.0
142
0.0
142
0.0
142
1.0
179
     0
144
0.0208333333333333
144
0.0
144
0.0
144
0.0
144
0.0
144
0.0208333333333333
144
0.0
144
0.0
144
0.0
144
0.0
144
1.0
144
0.0
144
0.0
144
0.0
144
0.0
144
1.0
147
0.0208333333333333
147
0.0
147
0.0
147
0.0
147
0.0
147
0.0208333333333333
147
0.0
147
0.0
147
0.0
147
0.0
147
1.0
147
0.0
147
0.0
147
0.0
147
0.0
147
1.0
  0
MATERIAL
  5
21
102
{ACAD_XDICTIONARY
360
22
102
}
102
{ACAD_REACTORS
330
10
102
}
330
10
100
AcDbMaterial
  1
Global
 72
     0
 43
0.0208333333333333
 43
0.0
 43
0.0
 43
0.0
 43
0.0
 43
0.0208333333333333
 43
0.0
 43
0.0
 43
0.0
 43
0.0
 43
1.0
 43
0.0
 43
0.0
 43
0.0
 43
0.0
 43
1.0
 77
     0
 47
0.0208333333333333
 47
0.0
 47
0.0
 47
0.0
 47
0.0
 47
0.0208333333333333
 47
0.0
 47
0.0
 47
0.0
 47
0.0
 47
1.0
 47
0.0
 47
0.0
 47
0.0
 47
0.0
 47
1.0
171
     0
 49
0.0208333333333333
 49
0.0
 49
0.0
 49
0.0
 49
0.0
 49
0.0208333333333333
 49
0.0
 49
0.0
 49
0.0
 49
0.0
 49
1.0
 49
0.0
 49
0.0
 49
0.0
 49
0.0
 49
1.0
175
     0
142
0.0208333333333333
142
0.0
142
0.0
142
0.0
142
0.0
142
0.0208333333333333
142
0.0
142
0.0
142
0.0
142
0.0
142
1.0
142
0.0
142
0.0
142
0.0
142
0.0
142
1.0
179
     0
144
0.0208333333333333
144
0.0
144
0.0
144
0.0
144
0.0
144
0.0208333333333333
144
0.0
144
0.0
144
0.0
144
0.0
144
1.0
144
0.0
144
0.0
144
0.0
144
0.0
144
1.0
147
0.0208333333333333
147
0.0
147
0.0
147
0.0
147
0.0
147
0.0208333333333333
147
0.0
147
0.0
147
0.0
147
0.0
147
1.0
147
0.0
147
0.0
147
0.0
147
0.0
147
1.0
  0
MLEADERSTYLE
  5
66
102
{ACAD_REACTORS
330
65
102
}
330
65
100
AcDbMLeaderStyle
170
     2
171
     1
172
     0
 90
        2
 40
0.0
 41
0.0
173
     1
 91
-1056964608
340
5A
 92
       -2
290
     1
 42
0.09
291
     1
 43
0.36
  3
Standard
 44
0.18
300

342
55
174
     1
178
     6
175
     1
176
     0
 93
-1056964608
 45
0.18
292
     0
297
     0
 46
0.18
 94
-1056964608
 47
1.0
 49
1.0
140
1.0
293
     1
141
0.0
294
     1
177
     0
142
1.0
295
     0
296
     0
143
0.125
1001
ACAD_MLEADERVER
1070
     2
  0
MLINESTYLE
  5
5F
102
{ACAD_REACTORS
330
5E
102
}
330
5E
100
AcDbMlineStyle
  2
STANDARD
 70
     0
  3

 62
   256
 51
90.0
 52
90.0
 71
     2
 49
0.5
 62
   256
  6
BYLAYER
 49
-0.5
 62
   256
  6
BYLAYER
  0
ACDBPLACEHOLDER
  5
F
102
{ACAD_REACTORS
330
E
102
}
330
E
  0
SCALE
  5
43
102
{ACAD_REACTORS
330
42
102
}
330
42
100
AcDbScale
 70
     0
300
1:1
140
1.0
141
1.0
290
     1
  0
SCALE
  5
44
102
{ACAD_REACTORS
330
42
102
}
330
42
100
AcDbScale
 70
     0
300
1/128" = 1'-0"
140
0.0078125
141
12.0
290
     0
  0
SCALE
  5
45
102
{ACAD_REACTORS
330
42
102
}
330
42
100
AcDbScale
 70
     0
300
1/64" = 1'-0"
140
0.015625
141
12.0
290
     0
  0
SCALE
  5
46
102
{ACAD_REACTORS
330
42
102
}
330
42
100
AcDbScale
 70
     0
300
1/32" = 1'-0"
140
0.03125
141
12.0
290
     0
  0
SCALE
  5
47
102
{ACAD_REACTORS
330
42
102
}
330
42
100
AcDbScale
 70
     0
300
1/16" = 1'-0"
140
0.0625
141
12.0
290
     0
  0
SCALE
  5
48
102
{ACAD_REACTORS
330
42
102
}
330
42
100
AcDbScale
 70
     0
300
3/32" = 1'-0"
140
0.09375
141
12.0
290
     0
  0
SCALE
  5
49
102
{ACAD_REACTORS
330
42
102
}
330
42
100
AcDbScale
 70
     0
300
1/8" = 1'-0"
140
0.125
141
12.0
290
     0
  0
SCALE
  5
4A
102
{ACAD_REACTORS
330
42
102
}
330
42
100
AcDbScale
 70
     0
300
3/16" = 1'-0"
140
0.1875
141
12.0
290
     0
  0
SCALE
  5
4B
102
{ACAD_REACTORS
330
42
102
}
330
42
100
AcDbScale
 70
     0
300
1/4" = 1'-0"
140
0.25
141
12.0
290
     0
  0
SCALE
  5
4C
102
{ACAD_REACTORS
330
42
102
}
330
42
100
AcDbScale
 70
     0
300
3/8" = 1'-0"
140
0.375
141
12.0
290
     0
  0
SCALE
  5
4D
102
{ACAD_REACTORS
330
42
102
}
330
42
100
AcDbScale
 70
     0
300
1/2" = 1'-0"
140
0.5
141
12.0
290
     0
  0
SCALE
  5
4E
102
{ACAD_REACTORS
330
42
102
}
330
42
100
AcDbScale
 70
     0
300
3/4" = 1'-0"
140
0.75
141
12.0
290
     0
  0
SCALE
  5
4F
102
{ACAD_REACTORS
330
42
102
}
330
42
100
AcDbScale
 70
     0
300
1" = 1'-0"
140
1.0
141
12.0
290
     0
  0
SCALE
  5
50
102
{ACAD_REACTORS
330
42
102
}
330
42
100
AcDbScale
 70
     0
300
1-1/2" = 1'-0"
140
1.5
141
12.0
290
     0
  0
SCALE
  5
51
102
{ACAD_REACTORS
330
42
102
}
330
42
100
AcDbScale
 70
     0
300
3" = 1'-0"
140
3.0
141
12.0
290
     0
  0
SCALE
  5
52
102
{ACAD_REACTORS
330
42
102
}
330
42
100
AcDbScale
 70
     0
300
6" = 1'-0"
140
6.0
141
12.0
290
     0
  0
SCALE
  5
53
102
{ACAD_REACTORS
330
42
102
}
330
42
100
AcDbScale
 70
     0
300
1'-0" = 1'-0"
140
12.0
141
12.0
290
     0
  0
TABLESTYLE
  5
64
102
{ACAD_XDICTIONARY
360
4ED
102
}
102
{ACAD_REACTORS
330
63
102
}
330
63
100
AcDbTableStyle
  3
Standard
 70
     0
 71
     0
 40
0.06
 41
0.06
280
     0
281
     0
  7
STANDARD
140
0.18
170
     2
 62
     0
 63
     7
283
     0
274
    -2
284
     1
 64
     0
275
    -2
285
     1
 65
     0
276
    -2
286
     1
 66
     0
277
    -2
287
     1
 67
     0
278
    -2
288
     1
 68
     0
279
    -2
289
     1
 69
     0
  7
STANDARD
140
0.25
170
     5
 62
     0
 63
     7
283
     0
274
    -2
284
     1
 64
     0
275
    -2
285
     1
 65
     0
276
    -2
286
     1
 66
     0
277
    -2
287
     1
 67
     0
278
    -2
288
     1
 68
     0
279
    -2
289
     1
 69
     0
  7
STANDARD
140
0.18
170
     5
 62
     0
 63
     7
283
     0
274
    -2
284
     1
 64
     0
275
    -2
285
     1
 65
     0
276
    -2
286
     1
 66
     0
277
    -2
287
     1
 67
     0
278
    -2
288
     1
 68
     0
279
    -2
289
     1
 69
     0
  0
TABLESTYLE
  5
935
102
{ACAD_XDICTIONARY
360
936
102
}
102
{ACAD_REACTORS
330
63
102
}
330
63
100
AcDbTableStyle
  3
Standard
 70
     1
 71
     0
 40
1.5
 41
0.5
280
     0
281
     0
  7
高3.2
140
0.18
170
     7
 62
     3
 63
     7
283
     0
274
    -2
284
     1
 64
     3
275
    -2
285
     1
 65
     7
276
    -2
286
     1
 66
     3
277
    -2
287
     1
 67
     3
278
    -2
288
     1
 68
     7
279
    -2
289
     1
 69
     3
  7
高3.2
140
0.25
170
     8
 62
     3
 63
     7
283
     0
274
    -2
284
     1
 64
     0
275
    -2
285
     1
 65
     0
276
    -2
286
     1
 66
     0
277
    -2
287
     1
 67
     0
278
    -2
288
     1
 68
     0
279
    -2
289
     1
 69
     0
  7
高3.2
140
0.18
170
     7
 62
     3
 63
     7
283
     0
274
    -2
284
     1
 64
     3
275
    -2
285
     1
 65
     7
276
    -2
286
     1
 66
     3
277
    -2
287
     1
 67
     3
278
    -2
288
     1
 68
     7
279
    -2
289
     1
 69
     3
  0
VISUALSTYLE
  5
2F
102
{ACAD_XDICTIONARY
360
DAF
102
}
102
{ACAD_REACTORS
330
29
102
}
330
29
100
AcDbVisualStyle
  2

 70
     4
 71
     0
 72
     2
 73
     0
 90
        0
 40
-0.6
 41
-30.0
 62
     5
 63
     7
 74
     1
 91
        4
 64
     7
 65
   257
 75
     1
175
     1
 42
1.0
 92
        0
 66
   257
 43
1.0
 76
     1
 77
     6
 78
     2
 67
     7
 79
     5
170
     0
171
     0
290
     0
174
     0
 93
        1
 44
0.0
173
     0
291
     0
 45
0.0
1001
ACAD
1000
AcDbSavedByObjectVersion
1070
     0
  0
VISUALSTYLE
  5
2E3
102
{ACAD_XDICTIONARY
360
DDA
102
}
102
{ACAD_REACTORS
330
29
102
}
330
29
100
AcDbVisualStyle
  2

 70
     5
 71
     0
 72
     2
 73
     1
 90
        0
 40
-0.6
 41
-30.0
 62
     5
 63
     7
 74
     1
 91
        4
 64
     7
 65
   257
 75
     1
175
     1
 42
1.0
 92
        0
 66
   257
 43
1.0
 76
     1
 77
     6
 78
     2
 67
     7
 79
     5
170
     0
171
     0
290
     0
174
     0
 93
        1
 44
0.0
173
     0
291
     0
 45
0.0
1001
ACAD
1000
AcDbSavedByObjectVersion
1070
     0
  0
VISUALSTYLE
  5
2E
102
{ACAD_XDICTIONARY
360
DAD
102
}
102
{ACAD_REACTORS
330
29
102
}
330
29
100
AcDbVisualStyle
  2

 70
     7
 71
     1
 72
     0
 73
     1
 90
        0
 40
-0.6
 41
-30.0
 62
     5
 63
     7
 74
     0
 91
        4
 64
     7
 65
   257
 75
     1
175
     1
 42
1.0
 92
        8
 66
     7
 43
1.0
 76
     1
 77
     6
 78
     2
 67
     7
 79
     5
170
     0
171
     0
290
     0
174
     0
 93
        1
 44
0.0
173
     0
291
     1
 45
0.0
1001
ACAD
1000
AcDbSavedByObjectVersion
1070
     0
  0
VISUALSTYLE
  5
35
102
{ACAD_XDICTIONARY
360
DBB
102
}
102
{ACAD_REACTORS
330
29
102
}
330
29
100
AcDbVisualStyle
  2

 70
    12
 71
     2
 72
     2
 73
     0
 90
        0
 40
-0.6
 41
-30.0
 62
     5
 63
     7
 74
     1
 91
        4
 64
     7
 65
   257
 75
     1
175
     1
 42
1.0
 92
        8
 66
     7
 43
1.0
 76
     1
 77
     6
 78
     2
 67
     7
 79
     5
170
     0
171
     0
290
     0
174
     0
 93
        1
 44
50.0
173
     0
291
     1
 45
0.0
1001
ACAD
1000
AcDbSavedByObjectVersion
1070
     0
  0
VISUALSTYLE
  5
39
102
{ACAD_XDICTIONARY
360
DC3
102
}
102
{ACAD_REACTORS
330
29
102
}
330
29
100
AcDbVisualStyle
  2

 70
    16
 71
     2
 72
     2
 73
     3
 90
        0
 40
-0.6
 41
-30.0
 62
     5
 63
     8
 74
     1
 91
        4
 64
     7
 65
   257
 75
     1
175
     1
 42
1.0
 92
        8
 66
     8
 43
1.0
 76
     1
 77
     6
 78
     2
 67
     7
 79
     5
170
     0
171
     0
290
     0
174
     0
 93
        1
 44
0.0
173
     0
291
     1
 45
0.0
1001
ACAD
1000
AcDbSavedByObjectVersion
1070
     0
  0
VISUALSTYLE
  5
32
102
{ACAD_XDICTIONARY
360
DB5
102
}
102
{ACAD_REACTORS
330
29
102
}
330
29
100
AcDbVisualStyle
  2

 70
     9
 71
     3
 72
     2
 73
     0
 90
        0
 40
-0.6
 41
-30.0
 62
     5
 63
     7
 74
     2
 91
        2
 64
     7
 65
   257
 75
     1
175
     1
 42
179.0
 92
        8
 66
     7
 43
1.0
 76
     1
 77
     6
 78
     2
 67
     7
 79
     3
170
     0
171
     0
290
     0
174
     0
 93
        1
 44
0.0
173
     0
291
     0
 45
0.0
1001
ACAD
1000
AcDbSavedByObjectVersion
1070
     0
  0
VISUALSTYLE
  5
34
102
{ACAD_XDICTIONARY
360
DB9
102
}
102
{ACAD_REACTORS
330
29
102
}
330
29
100
AcDbVisualStyle
  2

 70
    11
 71
     2
 72
     2
 73
     0
 90
        0
 40
-0.6
 41
-30.0
 62
     5
 63
     7
 74
     1
 91
        4
 64
     7
 65
   257
 75
     1
175
     1
 42
1.0
 92
        8
 66
     7
 43
1.0
 76
     1
 77
     6
 78
     2
 67
     7
 79
     5
170
     0
171
     0
290
     0
174
     0
 93
        1
 44
-50.0
173
     0
291
     1
 45
0.0
1001
ACAD
1000
AcDbSavedByObjectVersion
1070
     0
  0
VISUALSTYLE
  5
41
102
{ACAD_XDICTIONARY
360
DD3
102
}
102
{ACAD_REACTORS
330
29
102
}
330
29
100
AcDbVisualStyle
  2

 70
    22
 71
     2
 72
     2
 73
     0
 90
        0
 40
-0.6
 41
-30.0
 62
     5
 63
     7
 74
     1
 91
        4
 64
     7
 65
   257
 75
     1
175
     1
 42
1.0
 92
        8
 66
     7
 43
1.0
 76
     1
 77
     6
 78
     2
 67
     7
 79
     5
170
     0
171
     0
290
     0
174
     0
 93
        1
 44
0.0
173
     0
291
     1
 45
0.0
1001
ACAD
1000
AcDbSavedByObjectVersion
1070
     0
  0
VISUALSTYLE
  5
38
102
{ACAD_XDICTIONARY
360
DC1
102
}
102
{ACAD_REACTORS
330
29
102
}
330
29
100
AcDbVisualStyle
  2

 70
    15
 71
     2
 72
     2
 73
     0
 90
        0
 40
-0.6
 41
-30.0
 62
     5
 63
     7
 74
     1
 91
        4
 64
     7
 65
   257
 75
     1
175
     1
 42
1.0
 92
        8
 66
     7
 43
1.0
 76
     1
 77
     6
 78
     2
 67
     7
 79
     5
170
     0
171
     0
290
     0
174
     0
 93
        1
 44
0.0
173
     0
291
     1
 45
0.0
1001
ACAD
1000
AcDbSavedByObjectVersion
1070
     0
  0
VISUALSTYLE
  5
2A
102
{ACAD_XDICTIONARY
360
DA5
102
}
102
{ACAD_REACTORS
330
29
102
}
330
29
100
AcDbVisualStyle
  2

 70
     0
 71
     2
 72
     1
 73
     1
 90
        2
 40
-0.6
 41
30.0
 62
     5
 63
     7
 74
     0
 91
        0
 64
     7
 65
   257
 75
     1
175
     1
 42
1.0
 92
        8
 66
     7
 43
1.0
 76
     1
 77
     6
 78
     2
 67
     7
 79
     5
170
     0
171
     0
290
     0
174
     0
 93
       13
 44
0.0
173
     0
291
     1
 45
0.0
1001
ACAD
1000
AcDbSavedByObjectVersion
1070
     0
  0
VISUALSTYLE
  5
2B
102
{ACAD_XDICTIONARY
360
DA7
102
}
102
{ACAD_REACTORS
330
29
102
}
330
29
100
AcDbVisualStyle
  2

 70
     1
 71
     2
 72
     1
 73
     1
 90
        2
 40
-0.6
 41
30.0
 62
     5
 63
     7
 74
     1
 91
        0
 64
     7
 65
   257
 75
     1
175
     1
 42
1.0
 92
        0
 66
   257
 43
1.0
 76
     1
 77
     6
 78
     2
 67
     7
 79
     5
170
     0
171
     0
290
     0
174
     0
 93
       13
 44
0.0
173
     0
291
     1
 45
0.0
1001
ACAD
1000
AcDbSavedByObjectVersion
1070
     0
  0
VISUALSTYLE
  5
2C
102
{ACAD_XDICTIONARY
360
DA9
102
}
102
{ACAD_REACTORS
330
29
102
}
330
29
100
AcDbVisualStyle
  2

 70
     2
 71
     2
 72
     2
 73
     1
 90
        2
 40
-0.6
 41
30.0
 62
     5
 63
     7
 74
     0
 91
        0
 64
     7
 65
   257
 75
     1
175
     1
 42
1.0
 92
        0
 66
     7
 43
1.0
 76
     1
 77
     6
 78
     2
 67
     7
 79
     5
170
     0
171
     0
290
     0
174
     0
 93
       13
 44
0.0
173
     0
291
     1
 45
0.0
1001
ACAD
1000
AcDbSavedByObjectVersion
1070
     0
  0
VISUALSTYLE
  5
2D
102
{ACAD_XDICTIONARY
360
DAB
102
}
102
{ACAD_REACTORS
330
29
102
}
330
29
100
AcDbVisualStyle
  2

 70
     3
 71
     2
 72
     2
 73
     1
 90
        2
 40
-0.6
 41
30.0
 62
     5
 63
     7
 74
     1
 91
        0
 64
     7
 65
   257
 75
     1
175
     1
 42
1.0
 92
        0
 66
   257
 43
1.0
 76
     1
 77
     6
 78
     2
 67
     7
 79
     5
170
     0
171
     0
290
     0
174
     0
 93
       13
 44
0.0
173
     0
291
     1
 45
0.0
1001
ACAD
1000
AcDbSavedByObjectVersion
1070
     0
  0
VISUALSTYLE
  5
31
102
{ACAD_XDICTIONARY
360
DB3
102
}
102
{ACAD_REACTORS
330
29
102
}
330
29
100
AcDbVisualStyle
  2

 70
     6
 71
     1
 72
     2
 73
     2
 90
        0
 40
-0.6
 41
-30.0
 62
     5
 63
     7
 74
     2
 91
        2
 64
     7
 65
   257
 75
     2
175
     1
 42
40.0
 92
        0
 66
   257
 43
1.0
 76
     1
 77
     6
 78
     2
 67
     7
 79
     3
170
     0
171
     0
290
     0
174
     0
 93
        1
 44
0.0
173
     0
291
     0
 45
0.0
1001
ACAD
1000
AcDbSavedByObjectVersion
1070
     0
  0
VISUALSTYLE
  5
3F
102
{ACAD_XDICTIONARY
360
DCF
102
}
102
{ACAD_REACTORS
330
29
102
}
330
29
100
AcDbVisualStyle
  2

 70
    20
 71
     2
 72
     2
 73
     0
 90
        0
 40
-0.6
 41
-30.0
 62
     5
 63
     7
 74
     1
 91
        4
 64
     7
 65
   257
 75
     1
175
     1
 42
1.0
 92
       10
 66
     7
 43
1.0
 76
     1
 77
     6
 78
     2
 67
     7
 79
     5
170
     0
171
     0
290
     0
174
     0
 93
        1
 44
0.0
173
     0
291
     1
 45
0.0
1001
ACAD
1000
AcDbSavedByObjectVersion
1070
     0
  0
VISUALSTYLE
  5
37
102
{ACAD_XDICTIONARY
360
DBF
102
}
102
{ACAD_REACTORS
330
29
102
}
330
29
100
AcDbVisualStyle
  2

 70
    14
 71
     2
 72
     2
 73
     0
 90
        0
 40
-0.6
 41
-30.0
 62
     5
 63
     7
 74
     1
 91
        4
 64
     7
 65
   257
 75
     7
175
     7
 42
1.0
 92
        8
 66
     7
 43
1.0
 76
     1
 77
     6
 78
     2
 67
     7
 79
     5
170
     0
171
     0
290
     0
174
     0
 93
        1
 44
0.0
173
     0
291
     1
 45
0.0
1001
ACAD
1000
AcDbSavedByObjectVersion
1070
     0
  0
VISUALSTYLE
  5
40
102
{ACAD_XDICTIONARY
360
DD1
102
}
102
{ACAD_REACTORS
330
29
102
}
330
29
100
AcDbVisualStyle
  2

 70
    21
 71
     2
 72
     2
 73
     0
 90
        0
 40
-0.6
 41
-30.0
 62
     5
 63
     7
 74
     1
 91
        4
 64
     7
 65
   257
 75
     1
175
     1
 42
1.0
 92
        9
 66
     7
 43
1.0
 76
     1
 77
     6
 78
     2
 67
     7
 79
     5
170
     0
171
     0
290
     0
174
     0
 93
        1
 44
0.0
173
     0
291
     1
 45
0.0
1001
ACAD
1000
AcDbSavedByObjectVersion
1070
     0
  0
VISUALSTYLE
  5
33
102
{ACAD_XDICTIONARY
360
DB7
102
}
102
{ACAD_REACTORS
330
29
102
}
330
29
100
AcDbVisualStyle
  2

 70
     8
 71
     2
 72
     3
 73
     0
 90
        2
 40
-0.6
 41
30.0
 62
     5
 63
     7
 74
     0
 91
        0
 64
     7
 65
   257
 75
     1
175
     1
 42
1.0
 92
        8
 66
   257
 43
1.0
 76
     1
 77
     6
 78
     2
 67
     7
 79
     3
170
     0
171
     0
290
     0
174
     0
 93
       13
 44
0.0
173
     0
291
     0
 45
0.0
1001
ACAD
1000
AcDbSavedByObjectVersion
1070
     0
  0
VISUALSTYLE
  5
3E
102
{ACAD_XDICTIONARY
360
DCD
102
}
102
{ACAD_REACTORS
330
29
102
}
330
29
100
AcDbVisualStyle
  2

 70
    27
 71
     2
 72
     2
 73
     1
 90
        2
 40
-0.6
 41
30.0
 62
     5
 63
     7
 74
     0
 91
        4
 64
     7
 65
   257
 75
     1
175
     1
 42
1.0
 92
        8
 66
   257
 43
1.0
 76
     1
 77
     6
 78
     2
 67
     8
 79
     3
170
     0
171
     0
290
     0
174
     0
 93
        5
 44
0.0
173
     0
291
     0
 45
0.0
1001
ACAD
1000
AcDbSavedByObjectVersion
1070
     0
  0
VISUALSTYLE
  5
3D
102
{ACAD_XDICTIONARY
360
DCB
102
}
102
{ACAD_REACTORS
330
29
102
}
330
29
100
AcDbVisualStyle
  2

 70
    26
 71
     2
 72
     2
 73
     1
 90
        2
 40
-0.6
 41
30.0
 62
     5
 63
     7
 74
     1
 91
       10
 64
     7
 65
   257
 75
     2
175
     1
 42
1.0
 92
        8
 66
   257
 43
1.0
 76
     1
 77
     6
 78
     2
 67
     7
 79
     3
170
     0
171
     0
290
     0
174
     0
 93
        5
 44
0.0
173
     0
291
     0
 45
0.0
1001
ACAD
1000
AcDbSavedByObjectVersion
1070
     0
  0
VISUALSTYLE
  5
3A
102
{ACAD_XDICTIONARY
360
DC5
102
}
102
{ACAD_REACTORS
330
29
102
}
330
29
100
AcDbVisualStyle
  2

 70
    23
 71
     2
 72
     2
 73
     3
 90
        0
 40
-0.6
 41
-30.0
 62
     5
 63
     7
 74
     2
 91
        2
 64
     7
 65
     7
 75
     1
175
     1
 42
40.0
 92
        8
 66
     7
 43
1.0
 76
     1
 77
     6
 78
     2
 67
     7
 79
     3
170
     0
171
     0
290
     0
174
     0
 93
        1
 44
0.0
173
     0
291
     0
 45
0.0
1001
ACAD
1000
AcDbSavedByObjectVersion
1070
     0
  0
VISUALSTYLE
  5
3B
102
{ACAD_XDICTIONARY
360
DC7
102
}
102
{ACAD_REACTORS
330
29
102
}
330
29
100
AcDbVisualStyle
  2

 70
    24
 71
     1
 72
     2
 73
     2
 90
        0
 40
-0.6
 41
-30.0
 62
     5
 63
     7
 74
     2
 91
        2
 64
     7
 65
     7
 75
     1
175
     1
 42
40.0
 92
       11
 66
     7
 43
1.0
 76
     1
 77
     6
 78
     2
 67
     7
 79
     6
170
     0
171
     0
290
     0
174
     0
 93
        1
 44
0.0
173
     0
291
     0
 45
0.0
1001
ACAD
1000
AcDbSavedByObjectVersion
1070
     0
  0
VISUALSTYLE
  5
36
102
{ACAD_XDICTIONARY
360
DBD
102
}
102
{ACAD_REACTORS
330
29
102
}
330
29
100
AcDbVisualStyle
  2

 70
    13
 71
     2
 72
     2
 73
     0
 90
        0
 40
-0.6
 41
-30.0
 62
     5
 63
     7
 74
     1
 91
        4
 64
     7
 65
   257
 75
     1
175
     1
 42
1.0
 92
       12
 66
     7
 43
1.0
 76
     1
 77
     6
 78
     2
 67
     7
 79
     5
170
     0
171
     0
290
     0
174
     0
 93
        1
 44
0.0
173
     0
291
     1
 45
0.0
1001
ACAD
1000
AcDbSavedByObjectVersion
1070
     0
  0
VISUALSTYLE
  5
30
102
{ACAD_XDICTIONARY
360
DB1
102
}
102
{ACAD_REACTORS
330
29
102
}
330
29
100
AcDbVisualStyle
  2

 70
     5
 71
     0
 72
     2
 73
     0
 90
        0
 40
-0.6
 41
-30.0
 62
     5
 63
     7
 74
     1
 91
        4
 64
     7
 65
   257
 75
     1
175
     1
 42
1.0
 92
        0
 66
   257
 43
1.0
 76
     1
 77
     6
 78
     2
 67
     7
 79
     3
170
     0
171
     0
290
     0
174
     0
 93
        1
 44
0.0
173
     0
291
     0
 45
0.0
1001
ACAD
1000
AcDbSavedByObjectVersion
1070
     0
  0
VISUALSTYLE
  5
3C
102
{ACAD_XDICTIONARY
360
DC9
102
}
102
{ACAD_REACTORS
330
29
102
}
330
29
100
AcDbVisualStyle
  2

 70
    25
 71
     2
 72
     2
 73
     1
 90
        1
 40
0.5
 41
-30.0
 62
     5
 63
     7
 74
     1
 91
        0
 64
     7
 65
   257
 75
     1
175
     1
 42
1.0
 92
        8
 66
     7
 43
1.0
 76
     1
 77
     6
 78
     2
 67
     7
 79
     3
170
     0
171
     0
290
     0
174
     0
 93
       13
 44
0.0
173
     0
291
     0
 45
0.0
1001
ACAD
1000
AcDbSavedByObjectVersion
1070
     0
  0
DICTIONARYVAR
  5
4E8
102
{ACAD_REACTORS
330
4E5
102
}
330
4E5
100
DictionaryVariables
280
     0
  1
1:1
  0
DICTIONARYVAR
  5
4E7
102
{ACAD_REACTORS
330
4E5
102
}
330
4E5
100
DictionaryVariables
280
     0
  1
STANDARD
  0
DICTIONARYVAR
  5
4E6
102
{ACAD_REACTORS
330
4E5
102
}
330
4E5
100
DictionaryVariables
280
     0
  1
STANDARD
  0
DICTIONARYVAR
  5
4EB
102
{ACAD_REACTORS
330
4E5
102
}
330
4E5
100
DictionaryVariables
280
     0
  1
1
  0
DICTIONARYVAR
  5
4EA
102
{ACAD_REACTORS
330
4E5
102
}
330
4E5
100
DictionaryVariables
280
     0
  1
0
  0
DICTIONARYVAR
  5
4E9
102
{ACAD_REACTORS
330
4E5
102
}
330
4E5
100
DictionaryVariables
280
     0
  1
127
  0
DICTIONARYVAR
  5
CB4
102
{ACAD_REACTORS
330
4E5
102
}
330
4E5
100
DictionaryVariables
280
     0
  1
2
  0
DICTIONARY
  5
DD8
330
6E
100
AcDbDictionary
280
     1
281
     1
  3
ACAD_XREC_ROUNDTRIP
360
DD9
  0
DICTIONARY
  5
DD6
330
6A
100
AcDbDictionary
280
     1
281
     1
  3
ACAD_XREC_ROUNDTRIP
360
DD7
  0
DICTIONARY
  5
1A
330
19
100
AcDbDictionary
280
     1
281
     1
  3
ACAD_XREC_ROUNDTRIP
360
4F6
  3
BUMPTILE
360
1C
  3
DIFFUSETILE
360
1B
  3
OPACITYTILE
360
1F
  3
REFLECTIONTILE
360
1E
  3
REFRACTIONTILE
360
20
  3
SPECULARTILE
360
1D
  0
DICTIONARY
  5
12
330
11
100
AcDbDictionary
280
     1
281
     1
  3
ACAD_XREC_ROUNDTRIP
360
4F5
  3
BUMPTILE
360
14
  3
DIFFUSETILE
360
13
  3
OPACITYTILE
360
17
  3
REFLECTIONTILE
360
16
  3
REFRACTIONTILE
360
18
  3
SPECULARTILE
360
15
  0
DICTIONARY
  5
22
330
21
100
AcDbDictionary
280
     1
281
     1
  3
ACAD_XREC_ROUNDTRIP
360
4F7
  3
BUMPTILE
360
24
  3
DIFFUSETILE
360
23
  3
OPACITYTILE
360
27
  3
REFLECTIONTILE
360
26
  3
REFRACTIONTILE
360
28
  3
SPECULARTILE
360
25
  0
DICTIONARY
  5
4ED
330
64
100
AcDbDictionary
280
     1
281
     1
  3
ACAD_ROUNDTRIP_2008_TABLESTYLE_CELLSTYLEMAP
360
D9D
  3
ACAD_XREC_ROUNDTRIP
360
DD5
  0
DICTIONARY
  5
936
330
935
100
AcDbDictionary
280
     1
281
     1
  3
ACAD_ROUNDTRIP_2008_TABLESTYLE_CELLSTYLEMAP
360
D9E
  3
ACAD_XREC_ROUNDTRIP
360
DDC
  0
DICTIONARY
  5
DAF
330
2F
100
AcDbDictionary
280
     1
281
     1
  3
ACAD_XREC_ROUNDTRIP
360
DB0
  0
DICTIONARY
  5
DDA
330
2E3
100
AcDbDictionary
280
     1
281
     1
  3
ACAD_XREC_ROUNDTRIP
360
DDB
  0
DICTIONARY
  5
DAD
330
2E
100
AcDbDictionary
280
     1
281
     1
  3
ACAD_XREC_ROUNDTRIP
360
DAE
  0
DICTIONARY
  5
DBB
330
35
100
AcDbDictionary
280
     1
281
     1
  3
ACAD_XREC_ROUNDTRIP
360
DBC
  0
DICTIONARY
  5
DC3
330
39
100
AcDbDictionary
280
     1
281
     1
  3
ACAD_XREC_ROUNDTRIP
360
DC4
  0
DICTIONARY
  5
DB5
330
32
100
AcDbDictionary
280
     1
281
     1
  3
ACAD_XREC_ROUNDTRIP
360
DB6
  0
DICTIONARY
  5
DB9
330
34
100
AcDbDictionary
280
     1
281
     1
  3
ACAD_XREC_ROUNDTRIP
360
DBA
  0
DICTIONARY
  5
DD3
330
41
100
AcDbDictionary
280
     1
281
     1
  3
ACAD_XREC_ROUNDTRIP
360
DD4
  0
DICTIONARY
  5
DC1
330
38
100
AcDbDictionary
280
     1
281
     1
  3
ACAD_XREC_ROUNDTRIP
360
DC2
  0
DICTIONARY
  5
DA5
330
2A
100
AcDbDictionary
280
     1
281
     1
  3
ACAD_XREC_ROUNDTRIP
360
DA6
  0
DICTIONARY
  5
DA7
330
2B
100
AcDbDictionary
280
     1
281
     1
  3
ACAD_XREC_ROUNDTRIP
360
DA8
  0
DICTIONARY
  5
DA9
330
2C
100
AcDbDictionary
280
     1
281
     1
  3
ACAD_XREC_ROUNDTRIP
360
DAA
  0
DICTIONARY
  5
DAB
330
2D
100
AcDbDictionary
280
     1
281
     1
  3
ACAD_XREC_ROUNDTRIP
360
DAC
  0
DICTIONARY
  5
DB3
330
31
100
AcDbDictionary
280
     1
281
     1
  3
ACAD_XREC_ROUNDTRIP
360
DB4
  0
DICTIONARY
  5
DCF
330
3F
100
AcDbDictionary
280
     1
281
     1
  3
ACAD_XREC_ROUNDTRIP
360
DD0
  0
DICTIONARY
  5
DBF
330
37
100
AcDbDictionary
280
     1
281
     1
  3
ACAD_XREC_ROUNDTRIP
360
DC0
  0
DICTIONARY
  5
DD1
330
40
100
AcDbDictionary
280
     1
281
     1
  3
ACAD_XREC_ROUNDTRIP
360
DD2
  0
DICTIONARY
  5
DB7
330
33
100
AcDbDictionary
280
     1
281
     1
  3
ACAD_XREC_ROUNDTRIP
360
DB8
  0
DICTIONARY
  5
DCD
330
3E
100
AcDbDictionary
280
     1
281
     1
  3
ACAD_XREC_ROUNDTRIP
360
DCE
  0
DICTIONARY
  5
DCB
330
3D
100
AcDbDictionary
280
     1
281
     1
  3
ACAD_XREC_ROUNDTRIP
360
DCC
  0
DICTIONARY
  5
DC5
330
3A
100
AcDbDictionary
280
     1
281
     1
  3
ACAD_XREC_ROUNDTRIP
360
DC6
  0
DICTIONARY
  5
DC7
330
3B
100
AcDbDictionary
280
     1
281
     1
  3
ACAD_XREC_ROUNDTRIP
360
DC8
  0
DICTIONARY
  5
DBD
330
36
100
AcDbDictionary
280
     1
281
     1
  3
ACAD_XREC_ROUNDTRIP
360
DBE
  0
DICTIONARY
  5
DB1
330
30
100
AcDbDictionary
280
     1
281
     1
  3
ACAD_XREC_ROUNDTRIP
360
DB2
  0
DICTIONARY
  5
DC9
330
3C
100
AcDbDictionary
280
     1
281
     1
  3
ACAD_XREC_ROUNDTRIP
360
DCA
  0
XRECORD
  5
DD9
102
{ACAD_REACTORS
330
DD8
102
}
330
DD8
100
AcDbXrecord
280
     1
102
SHADEPLOT
 70
     0
102
SHADEPLOTRESLEVEL
 70
     2
102
SHADEPLOTCUSTOMDPI
 70
   300
  0
XRECORD
  5
DD7
102
{ACAD_REACTORS
330
DD6
102
}
330
DD6
100
AcDbXrecord
280
     1
102
SHADEPLOT
 70
     0
102
SHADEPLOTRESLEVEL
 70
     2
102
SHADEPLOTCUSTOMDPI
 70
   300
  0
XRECORD
  5
4F6
102
{ACAD_REACTORS
330
1A
102
}
330
1A
100
AcDbXrecord
280
     1
102
MATERIAL
148
0.0
149
0.0
149
0.0
 93
        0
 94
      127
282
     0
 72
     0
 77
     0
171
     0
175
     0
179
     0
273
     0
  0
XRECORD
  5
1C
102
{ACAD_REACTORS
330
1A
102
}
330
1A
100
AcDbXrecord
280
     1
270
     1
271
     1
  0
XRECORD
  5
1B
102
{ACAD_REACTORS
330
1A
102
}
330
1A
100
AcDbXrecord
280
     1
270
     1
271
     1
  0
XRECORD
  5
1F
102
{ACAD_REACTORS
330
1A
102
}
330
1A
100
AcDbXrecord
280
     1
270
     1
271
     1
  0
XRECORD
  5
1E
102
{ACAD_REACTORS
330
1A
102
}
330
1A
100
AcDbXrecord
280
     1
270
     1
271
     1
  0
XRECORD
  5
20
102
{ACAD_REACTORS
330
1A
102
}
330
1A
100
AcDbXrecord
280
     1
270
     1
271
     1
  0
XRECORD
  5
1D
102
{ACAD_REACTORS
330
1A
102
}
330
1A
100
AcDbXrecord
280
     1
270
     1
271
     1
  0
XRECORD
  5
4F5
102
{ACAD_REACTORS
330
12
102
}
330
12
100
AcDbXrecord
280
     1
102
MATERIAL
148
0.0
149
0.0
149
0.0
 93
        0
 94
      127
282
     0
 72
     0
 77
     0
171
     0
175
     0
179
     0
273
     0
  0
XRECORD
  5
14
102
{ACAD_REACTORS
330
12
102
}
330
12
100
AcDbXrecord
280
     1
270
     1
271
     1
  0
XRECORD
  5
13
102
{ACAD_REACTORS
330
12
102
}
330
12
100
AcDbXrecord
280
     1
270
     1
271
     1
  0
XRECORD
  5
17
102
{ACAD_REACTORS
330
12
102
}
330
12
100
AcDbXrecord
280
     1
270
     1
271
     1
  0
XRECORD
  5
16
102
{ACAD_REACTORS
330
12
102
}
330
12
100
AcDbXrecord
280
     1
270
     1
271
     1
  0
XRECORD
  5
18
102
{ACAD_REACTORS
330
12
102
}
330
12
100
AcDbXrecord
280
     1
270
     1
271
     1
  0
XRECORD
  5
15
102
{ACAD_REACTORS
330
12
102
}
330
12
100
AcDbXrecord
280
     1
270
     1
271
     1
  0
XRECORD
  5
4F7
102
{ACAD_REACTORS
330
22
102
}
330
22
100
AcDbXrecord
280
     1
102
MATERIAL
148
0.0
149
0.0
149
0.0
 93
        0
 94
      127
282
     0
 72
     0
 77
     0
171
     0
175
     0
179
     0
273
     0
  0
XRECORD
  5
24
102
{ACAD_REACTORS
330
22
102
}
330
22
100
AcDbXrecord
280
     1
270
     1
271
     1
  0
XRECORD
  5
23
102
{ACAD_REACTORS
330
22
102
}
330
22
100
AcDbXrecord
280
     1
270
     1
271
     1
  0
XRECORD
  5
27
102
{ACAD_REACTORS
330
22
102
}
330
22
100
AcDbXrecord
280
     1
270
     1
271
     1
  0
XRECORD
  5
26
102
{ACAD_REACTORS
330
22
102
}
330
22
100
AcDbXrecord
280
     1
270
     1
271
     1
  0
XRECORD
  5
28
102
{ACAD_REACTORS
330
22
102
}
330
22
100
AcDbXrecord
280
     1
270
     1
271
     1
  0
XRECORD
  5
25
102
{ACAD_REACTORS
330
22
102
}
330
22
100
AcDbXrecord
280
     1
270
     1
271
     1
  0
CELLSTYLEMAP
  5
D9D
102
{ACAD_REACTORS
330
4ED
102
}
330
4ED
100
AcDbCellStyleMap
 90
        3
300
CELLSTYLE
  1
TABLEFORMAT_BEGIN
 90
        5
170
     1
 91
        0
 92
    32768
 62
   257
 93
        1
300
CONTENTFORMAT
  1
CONTENTFORMAT_BEGIN
 90
        0
 91
        0
 92
      512
 93
        0
300

 40
0.0
140
1.0
 94
        5
 62
     0
340
55
144
0.25
309
CONTENTFORMAT_END
171
     1
301
MARGIN
  1
CELLMARGIN_BEGIN
 40
0.06
 40
0.06
 40
0.06
 40
0.06
 40
0.18
 40
0.18
309
CELLMARGIN_END
 94
        6
 95
        1
302
GRIDFORMAT
  1
GRIDFORMAT_BEGIN
 90
        0
 91
        1
 62
     0
 92
       -2
340
0
 93
        0
 40
0.045
309
GRIDFORMAT_END
 95
        2
302
GRIDFORMAT
  1
GRIDFORMAT_BEGIN
 90
        0
 91
        1
 62
     0
 92
       -2
340
0
 93
        0
 40
0.045
309
GRIDFORMAT_END
 95
        4
302
GRIDFORMAT
  1
GRIDFORMAT_BEGIN
 90
        0
 91
        1
 62
     0
 92
       -2
340
0
 93
        0
 40
0.045
309
GRIDFORMAT_END
 95
        8
302
GRIDFORMAT
  1
GRIDFORMAT_BEGIN
 90
        0
 91
        1
 62
     0
 92
       -2
340
0
 93
        0
 40
0.045
309
GRIDFORMAT_END
 95
       16
302
GRIDFORMAT
  1
GRIDFORMAT_BEGIN
 90
        0
 91
        1
 62
     0
 92
       -2
340
0
 93
        0
 40
0.045
309
GRIDFORMAT_END
 95
       32
302
GRIDFORMAT
  1
GRIDFORMAT_BEGIN
 90
        0
 91
        1
 62
     0
 92
       -2
340
0
 93
        0
 40
0.045
309
GRIDFORMAT_END
309
TABLEFORMAT_END
  1
CELLSTYLE_BEGIN
 90
        1
 91
        1
300
_TITLE
309
CELLSTYLE_END
300
CELLSTYLE
  1
TABLEFORMAT_BEGIN
 90
        5
170
     1
 91
        0
 92
        0
 62
   257
 93
        1
300
CONTENTFORMAT
  1
CONTENTFORMAT_BEGIN
 90
        0
 91
        0
 92
      512
 93
        0
300

 40
0.0
140
1.0
 94
        5
 62
     0
340
55
144
0.18
309
CONTENTFORMAT_END
171
     1
301
MARGIN
  1
CELLMARGIN_BEGIN
 40
0.06
 40
0.06
 40
0.06
 40
0.06
 40
0.18
 40
0.18
309
CELLMARGIN_END
 94
        6
 95
        1
302
GRIDFORMAT
  1
GRIDFORMAT_BEGIN
 90
        0
 91
        1
 62
     0
 92
       -2
340
0
 93
        0
 40
0.045
309
GRIDFORMAT_END
 95
        2
302
GRIDFORMAT
  1
GRIDFORMAT_BEGIN
 90
        0
 91
        1
 62
     0
 92
       -2
340
0
 93
        0
 40
0.045
309
GRIDFORMAT_END
 95
        4
302
GRIDFORMAT
  1
GRIDFORMAT_BEGIN
 90
        0
 91
        1
 62
     0
 92
       -2
340
0
 93
        0
 40
0.045
309
GRIDFORMAT_END
 95
        8
302
GRIDFORMAT
  1
GRIDFORMAT_BEGIN
 90
        0
 91
        1
 62
     0
 92
       -2
340
0
 93
        0
 40
0.045
309
GRIDFORMAT_END
 95
       16
302
GRIDFORMAT
  1
GRIDFORMAT_BEGIN
 90
        0
 91
        1
 62
     0
 92
       -2
340
0
 93
        0
 40
0.045
309
GRIDFORMAT_END
 95
       32
302
GRIDFORMAT
  1
GRIDFORMAT_BEGIN
 90
        0
 91
        1
 62
     0
 92
       -2
340
0
 93
        0
 40
0.045
309
GRIDFORMAT_END
309
TABLEFORMAT_END
  1
CELLSTYLE_BEGIN
 90
        2
 91
        1
300
_HEADER
309
CELLSTYLE_END
300
CELLSTYLE
  1
TABLEFORMAT_BEGIN
 90
        5
170
     1
 91
        0
 92
        0
 62
   257
 93
        1
300
CONTENTFORMAT
  1
CONTENTFORMAT_BEGIN
 90
        0
 91
        0
 92
      512
 93
        0
300

 40
0.0
140
1.0
 94
        2
 62
     0
340
55
144
0.18
309
CONTENTFORMAT_END
171
     1
301
MARGIN
  1
CELLMARGIN_BEGIN
 40
0.06
 40
0.06
 40
0.06
 40
0.06
 40
0.18
 40
0.18
309
CELLMARGIN_END
 94
        6
 95
        1
302
GRIDFORMAT
  1
GRIDFORMAT_BEGIN
 90
        0
 91
        1
 62
     0
 92
       -2
340
0
 93
        0
 40
0.045
309
GRIDFORMAT_END
 95
        2
302
GRIDFORMAT
  1
GRIDFORMAT_BEGIN
 90
        0
 91
        1
 62
     0
 92
       -2
340
0
 93
        0
 40
0.045
309
GRIDFORMAT_END
 95
        4
302
GRIDFORMAT
  1
GRIDFORMAT_BEGIN
 90
        0
 91
        1
 62
     0
 92
       -2
340
0
 93
        0
 40
0.045
309
GRIDFORMAT_END
 95
        8
302
GRIDFORMAT
  1
GRIDFORMAT_BEGIN
 90
        0
 91
        1
 62
     0
 92
       -2
340
0
 93
        0
 40
0.045
309
GRIDFORMAT_END
 95
       16
302
GRIDFORMAT
  1
GRIDFORMAT_BEGIN
 90
        0
 91
        1
 62
     0
 92
       -2
340
0
 93
        0
 40
0.045
309
GRIDFORMAT_END
 95
       32
302
GRIDFORMAT
  1
GRIDFORMAT_BEGIN
 90
        0
 91
        1
 62
     0
 92
       -2
340
0
 93
        0
 40
0.045
309
GRIDFORMAT_END
309
TABLEFORMAT_END
  1
CELLSTYLE_BEGIN
 90
        3
 91
        2
300
_DATA
309
CELLSTYLE_END
  0
XRECORD
  5
DD5
102
{ACAD_REACTORS
330
4ED
102
}
330
4ED
100
AcDbXrecord
280
     1
102
ACAD_ROUNDTRIP_PRE2007_TABLESTYLE
 90
      512
 91
        0
  1

 92
      512
 93
        0
  2

 94
      512
 95
        0
  3

  0
CELLSTYLEMAP
  5
D9E
102
{ACAD_REACTORS
330
936
102
}
330
936
100
AcDbCellStyleMap
 90
        3
300
CELLSTYLE
  1
TABLEFORMAT_BEGIN
 90
        5
170
     1
 91
        0
 92
    32768
 62
   257
 93
        1
300
CONTENTFORMAT
  1
CONTENTFORMAT_BEGIN
 90
        0
 91
        0
 92
      512
 93
        0
300

 40
0.0
140
1.0
 94
        8
 62
     3
340
2D0
144
0.25
309
CONTENTFORMAT_END
171
     1
301
MARGIN
  1
CELLMARGIN_BEGIN
 40
0.5
 40
10.0
 40
0.06
 40
0.06
 40
0.18
 40
0.18
309
CELLMARGIN_END
 94
        6
 95
        1
302
GRIDFORMAT
  1
GRIDFORMAT_BEGIN
 90
        0
 91
        1
 62
     0
 92
       -2
340
0
 93
        0
 40
0.045
309
GRIDFORMAT_END
 95
        2
302
GRIDFORMAT
  1
GRIDFORMAT_BEGIN
 90
        0
 91
        1
 62
     0
 92
       -2
340
0
 93
        0
 40
0.045
309
GRIDFORMAT_END
 95
        4
302
GRIDFORMAT
  1
GRIDFORMAT_BEGIN
 90
        0
 91
        1
 62
     0
 92
       -2
340
0
 93
        0
 40
0.045
309
GRIDFORMAT_END
 95
        8
302
GRIDFORMAT
  1
GRIDFORMAT_BEGIN
 90
        0
 91
        1
 62
     0
 92
       -2
340
0
 93
        0
 40
0.045
309
GRIDFORMAT_END
 95
       16
302
GRIDFORMAT
  1
GRIDFORMAT_BEGIN
 90
        0
 91
        1
 62
     0
 92
       -2
340
0
 93
        0
 40
0.045
309
GRIDFORMAT_END
 95
       32
302
GRIDFORMAT
  1
GRIDFORMAT_BEGIN
 90
        0
 91
        1
 62
     0
 92
       -2
340
0
 93
        0
 40
0.045
309
GRIDFORMAT_END
309
TABLEFORMAT_END
  1
CELLSTYLE_BEGIN
 90
        1
 91
        1
300
_TITLE
309
CELLSTYLE_END
300
CELLSTYLE
  1
TABLEFORMAT_BEGIN
 90
        5
170
     1
 91
        0
 92
        0
 62
   257
 93
        1
300
CONTENTFORMAT
  1
CONTENTFORMAT_BEGIN
 90
        0
 91
        0
 92
      512
 93
        0
300

 40
0.0
140
1.0
 94
        7
 62
     3
340
2D0
144
0.18
309
CONTENTFORMAT_END
171
     1
301
MARGIN
  1
CELLMARGIN_BEGIN
 40
0.5
 40
1.5
 40
0.06
 40
0.06
 40
0.18
 40
0.18
309
CELLMARGIN_END
 94
        6
 95
        1
302
GRIDFORMAT
  1
GRIDFORMAT_BEGIN
 90
        0
 91
        1
 62
     3
 92
       -2
340
5A
 93
        0
 40
0.045
309
GRIDFORMAT_END
 95
        2
302
GRIDFORMAT
  1
GRIDFORMAT_BEGIN
 90
        0
 91
        1
 62
     7
 92
       -2
340
5A
 93
        0
 40
0.045
309
GRIDFORMAT_END
 95
        4
302
GRIDFORMAT
  1
GRIDFORMAT_BEGIN
 90
        0
 91
        1
 62
     3
 92
       -2
340
5A
 93
        0
 40
0.045
309
GRIDFORMAT_END
 95
        8
302
GRIDFORMAT
  1
GRIDFORMAT_BEGIN
 90
        0
 91
        1
 62
     3
 92
       -2
340
5A
 93
        0
 40
0.045
309
GRIDFORMAT_END
 95
       16
302
GRIDFORMAT
  1
GRIDFORMAT_BEGIN
 90
        0
 91
        1
 62
     7
 92
       -2
340
5A
 93
        0
 40
0.045
309
GRIDFORMAT_END
 95
       32
302
GRIDFORMAT
  1
GRIDFORMAT_BEGIN
 90
        0
 91
        1
 62
     3
 92
       -2
340
5A
 93
        0
 40
0.045
309
GRIDFORMAT_END
309
TABLEFORMAT_END
  1
CELLSTYLE_BEGIN
 90
        2
 91
        1
300
_HEADER
309
CELLSTYLE_END
300
CELLSTYLE
  1
TABLEFORMAT_BEGIN
 90
        5
170
     1
 91
        0
 92
        0
 62
   257
 93
        1
300
CONTENTFORMAT
  1
CONTENTFORMAT_BEGIN
 90
        0
 91
        0
 92
      512
 93
        0
300

 40
0.0
140
1.0
 94
        7
 62
     3
340
2D0
144
0.18
309
CONTENTFORMAT_END
171
     1
301
MARGIN
  1
CELLMARGIN_BEGIN
 40
0.5
 40
1.5
 40
0.06
 40
0.06
 40
0.18
 40
0.18
309
CELLMARGIN_END
 94
        6
 95
        1
302
GRIDFORMAT
  1
GRIDFORMAT_BEGIN
 90
        0
 91
        1
 62
     3
 92
       -2
340
5A
 93
        0
 40
0.045
309
GRIDFORMAT_END
 95
        2
302
GRIDFORMAT
  1
GRIDFORMAT_BEGIN
 90
        0
 91
        1
 62
     7
 92
       -2
340
5A
 93
        0
 40
0.045
309
GRIDFORMAT_END
 95
        4
302
GRIDFORMAT
  1
GRIDFORMAT_BEGIN
 90
        0
 91
        1
 62
     3
 92
       -2
340
5A
 93
        0
 40
0.045
309
GRIDFORMAT_END
 95
        8
302
GRIDFORMAT
  1
GRIDFORMAT_BEGIN
 90
        0
 91
        1
 62
     3
 92
       -2
340
5A
 93
        0
 40
0.045
309
GRIDFORMAT_END
 95
       16
302
GRIDFORMAT
  1
GRIDFORMAT_BEGIN
 90
        0
 91
        1
 62
     7
 92
       -2
340
5A
 93
        0
 40
0.045
309
GRIDFORMAT_END
 95
       32
302
GRIDFORMAT
  1
GRIDFORMAT_BEGIN
 90
        0
 91
        1
 62
     3
 92
       -2
340
5A
 93
        0
 40
0.045
309
GRIDFORMAT_END
309
TABLEFORMAT_END
  1
CELLSTYLE_BEGIN
 90
        3
 91
        2
300
_DATA
309
CELLSTYLE_END
  0
XRECORD
  5
DDC
102
{ACAD_REACTORS
330
936
102
}
330
936
100
AcDbXrecord
280
     1
102
ACAD_ROUNDTRIP_PRE2007_TABLESTYLE
 90
      512
 91
        0
  1

 92
      512
 93
        0
  2

 94
      512
 95
        0
  3

  0
XRECORD
  5
DB0
102
{ACAD_REACTORS
330
DAF
102
}
330
DAF
100
AcDbXrecord
280
     1
102
RTVSPropertyOp0
 70
     1
102
RTVSPropertyOp1
 70
     1
102
RTVSPropertyOp2
 70
     1
102
RTVSPropertyOp3
 70
     1
102
RTVSPropertyOp4
 70
     1
102
RTVSPropertyOp5
 70
     1
102
RTVSPropertyOp6
 70
     1
102
RTVSPropertyOp7
 70
     1
102
RTVSPropertyOp8
 70
     1
102
RTVSPropertyOp9
 70
     1
102
RTVSPropertyOp10
 70
     1
102
RTVSPropertyOp11
 70
     1
102
RTVSPropertyOp12
 70
     1
102
RTVSPropertyOp13
 70
     1
102
RTVSPropertyOp14
 70
     1
102
RTVSPropertyOp15
 70
     1
102
RTVSPropertyOp16
 70
     1
102
RTVSPropertyOp17
 70
     1
102
RTVSPropertyOp18
 70
     1
102
RTVSPropertyOp19
 70
     1
102
RTVSPropertyOp20
 70
     1
102
RTVSPropertyOp21
 70
     1
102
RTVSPropertyOp22
 70
     1
102
RTVSPropertyOp23
 70
     1
102
RTVSPropertyOp24
 70
     1
102
RTVSPropertyOp25
 70
     1
102
RTVSPropertyOp26
 70
     1
102
RTVSPropertyOp27
 70
     1
102
RTVSPropertyOp28
 70
     1
102
RTVSPropertyOp29
 70
     1
102
RTVSPropertyOp30
 70
     1
102
RTVSPropertyOp31
 70
     1
102
RTVSPropertyOp32
 70
     1
  0
XRECORD
  5
DDB
102
{ACAD_REACTORS
330
DDA
102
}
330
DDA
100
AcDbXrecord
280
     1
102
RTVSPropertyOp0
 70
     1
102
RTVSPropertyOp1
 70
     1
102
RTVSPropertyOp2
 70
     1
102
RTVSPropertyOp3
 70
     1
102
RTVSPropertyOp4
 70
     1
102
RTVSPropertyOp5
 70
     1
102
RTVSPropertyOp6
 70
     1
102
RTVSPropertyOp7
 70
     1
102
RTVSPropertyOp8
 70
     1
102
RTVSPropertyOp9
 70
     1
102
RTVSPropertyOp10
 70
     1
102
RTVSPropertyOp11
 70
     1
102
RTVSPropertyOp12
 70
     1
102
RTVSPropertyOp13
 70
     1
102
RTVSPropertyOp14
 70
     1
102
RTVSPropertyOp15
 70
     1
102
RTVSPropertyOp16
 70
     1
102
RTVSPropertyOp17
 70
     1
102
RTVSPropertyOp18
 70
     1
102
RTVSPropertyOp19
 70
     1
102
RTVSPropertyOp20
 70
     1
102
RTVSPropertyOp21
 70
     1
102
RTVSPropertyOp22
 70
     1
102
RTVSPropertyOp23
 70
     1
102
RTVSPropertyOp24
 70
     1
102
RTVSPropertyOp25
 70
     1
102
RTVSPropertyOp26
 70
     1
102
RTVSPropertyOp27
 70
     1
102
RTVSPropertyOp28
 70
     1
102
RTVSPropertyOp29
 70
     1
102
RTVSPropertyOp30
 70
     1
102
RTVSPropertyOp31
 70
     1
102
RTVSPropertyOp32
 70
     1
  0
XRECORD
  5
DAE
102
{ACAD_REACTORS
330
DAD
102
}
330
DAD
100
AcDbXrecord
280
     1
102
RTVSPropertyOp0
 70
     1
102
RTVSPropertyOp1
 70
     1
102
RTVSPropertyOp2
 70
     1
102
RTVSPropertyOp3
 70
     1
102
RTVSPropertyOp4
 70
     1
102
RTVSPropertyOp5
 70
     1
102
RTVSPropertyOp6
 70
     1
102
RTVSPropertyOp7
 70
     1
102
RTVSPropertyOp8
 70
     1
102
RTVSPropertyOp9
 70
     1
102
RTVSPropertyOp10
 70
     1
102
RTVSPropertyOp11
 70
     1
102
RTVSPropertyOp12
 70
     1
102
RTVSPropertyOp13
 70
     1
102
RTVSPropertyOp14
 70
     1
102
RTVSPropertyOp15
 70
     1
102
RTVSPropertyOp16
 70
     1
102
RTVSPropertyOp17
 70
     1
102
RTVSPropertyOp18
 70
     1
102
RTVSPropertyOp19
 70
     1
102
RTVSPropertyOp20
 70
     1
102
RTVSPropertyOp21
 70
     1
102
RTVSPropertyOp22
 70
     1
102
RTVSPropertyOp23
 70
     1
102
RTVSPropertyOp24
 70
     1
102
RTVSPropertyOp25
 70
     1
102
RTVSPropertyOp26
 70
     1
102
RTVSPropertyOp27
 70
     1
102
RTVSPropertyOp28
 70
     1
102
RTVSPropertyOp29
 70
     1
102
RTVSPropertyOp30
 70
     1
102
RTVSPropertyOp31
 70
     1
102
RTVSPropertyOp32
 70
     1
  0
XRECORD
  5
DBC
102
{ACAD_REACTORS
330
DBB
102
}
330
DBB
100
AcDbXrecord
280
     1
102
RTVSPropertyOp0
 70
     1
102
RTVSPropertyOp1
 70
     1
102
RTVSPropertyOp2
 70
     1
102
RTVSPropertyOp3
 70
     1
102
RTVSPropertyOp4
 70
     1
102
RTVSPropertyOp5
 70
     1
102
RTVSPropertyOp6
 70
     1
102
RTVSPropertyOp7
 70
     1
102
RTVSPropertyOp8
 70
     1
102
RTVSPropertyOp9
 70
     1
102
RTVSPropertyOp10
 70
     1
102
RTVSPropertyOp11
 70
     1
102
RTVSPropertyOp12
 70
     1
102
RTVSPropertyOp13
 70
     1
102
RTVSPropertyOp14
 70
     1
102
RTVSPropertyOp15
 70
     1
102
RTVSPropertyOp16
 70
     1
102
RTVSPropertyOp17
 70
     1
102
RTVSPropertyOp18
 70
     1
102
RTVSPropertyOp19
 70
     1
102
RTVSPropertyOp20
 70
     1
102
RTVSPropertyOp21
 70
     1
102
RTVSPropertyOp22
 70
     1
102
RTVSPropertyOp23
 70
     1
102
RTVSPropertyOp24
 70
     1
102
RTVSPropertyOp25
 70
     1
102
RTVSPropertyOp26
 70
     1
102
RTVSPropertyOp27
 70
     1
102
RTVSPropertyOp28
 70
     1
102
RTVSPropertyOp29
 70
     1
102
RTVSPropertyOp30
 70
     1
102
RTVSPropertyOp31
 70
     1
102
RTVSPropertyOp32
 70
     1
  0
XRECORD
  5
DC4
102
{ACAD_REACTORS
330
DC3
102
}
330
DC3
100
AcDbXrecord
280
     1
102
RTVSPropertyOp0
 70
     1
102
RTVSPropertyOp1
 70
     1
102
RTVSPropertyOp2
 70
     1
102
RTVSPropertyOp3
 70
     1
102
RTVSPropertyOp4
 70
     1
102
RTVSPropertyOp5
 70
     1
102
RTVSPropertyOp6
 70
     1
102
RTVSPropertyOp7
 70
     1
102
RTVSPropertyOp8
 70
     1
102
RTVSPropertyOp9
 70
     1
102
RTVSPropertyOp10
 70
     1
102
RTVSPropertyOp11
 70
     1
102
RTVSPropertyOp12
 70
     1
102
RTVSPropertyOp13
 70
     1
102
RTVSPropertyOp14
 70
     1
102
RTVSPropertyOp15
 70
     1
102
RTVSPropertyOp16
 70
     1
102
RTVSPropertyOp17
 70
     1
102
RTVSPropertyOp18
 70
     1
102
RTVSPropertyOp19
 70
     1
102
RTVSPropertyOp20
 70
     1
102
RTVSPropertyOp21
 70
     1
102
RTVSPropertyOp22
 70
     1
102
RTVSPropertyOp23
 70
     1
102
RTVSPropertyOp24
 70
     1
102
RTVSPropertyOp25
 70
     1
102
RTVSPropertyOp26
 70
     1
102
RTVSPropertyOp27
 70
     1
102
RTVSPropertyOp28
 70
     1
102
RTVSPropertyOp29
 70
     1
102
RTVSPropertyOp30
 70
     1
102
RTVSPropertyOp31
 70
     1
102
RTVSPropertyOp32
 70
     1
  0
XRECORD
  5
DB6
102
{ACAD_REACTORS
330
DB5
102
}
330
DB5
100
AcDbXrecord
280
     1
102
RTVSPropertyOp0
 70
     1
102
RTVSPropertyOp1
 70
     1
102
RTVSPropertyOp2
 70
     1
102
RTVSPropertyOp3
 70
     1
102
RTVSPropertyOp4
 70
     1
102
RTVSPropertyOp5
 70
     1
102
RTVSPropertyOp6
 70
     1
102
RTVSPropertyOp7
 70
     1
102
RTVSPropertyOp8
 70
     1
102
RTVSPropertyOp9
 70
     1
102
RTVSPropertyOp10
 70
     1
102
RTVSPropertyOp11
 70
     1
102
RTVSPropertyOp12
 70
     1
102
RTVSPropertyOp13
 70
     1
102
RTVSPropertyOp14
 70
     1
102
RTVSPropertyOp15
 70
     1
102
RTVSPropertyOp16
 70
     1
102
RTVSPropertyOp17
 70
     1
102
RTVSPropertyOp18
 70
     1
102
RTVSPropertyOp19
 70
     1
102
RTVSPropertyOp20
 70
     1
102
RTVSPropertyOp21
 70
     1
102
RTVSPropertyOp22
 70
     1
102
RTVSPropertyOp23
 70
     1
102
RTVSPropertyOp24
 70
     1
102
RTVSPropertyOp25
 70
     1
102
RTVSPropertyOp26
 70
     1
102
RTVSPropertyOp27
 70
     1
102
RTVSPropertyOp28
 70
     1
102
RTVSPropertyOp29
 70
     1
102
RTVSPropertyOp30
 70
     1
102
RTVSPropertyOp31
 70
     1
102
RTVSPropertyOp32
 70
     1
  0
XRECORD
  5
DBA
102
{ACAD_REACTORS
330
DB9
102
}
330
DB9
100
AcDbXrecord
280
     1
102
RTVSPropertyOp0
 70
     1
102
RTVSPropertyOp1
 70
     1
102
RTVSPropertyOp2
 70
     1
102
RTVSPropertyOp3
 70
     1
102
RTVSPropertyOp4
 70
     1
102
RTVSPropertyOp5
 70
     1
102
RTVSPropertyOp6
 70
     1
102
RTVSPropertyOp7
 70
     1
102
RTVSPropertyOp8
 70
     1
102
RTVSPropertyOp9
 70
     1
102
RTVSPropertyOp10
 70
     1
102
RTVSPropertyOp11
 70
     1
102
RTVSPropertyOp12
 70
     1
102
RTVSPropertyOp13
 70
     1
102
RTVSPropertyOp14
 70
     1
102
RTVSPropertyOp15
 70
     1
102
RTVSPropertyOp16
 70
     1
102
RTVSPropertyOp17
 70
     1
102
RTVSPropertyOp18
 70
     1
102
RTVSPropertyOp19
 70
     1
102
RTVSPropertyOp20
 70
     1
102
RTVSPropertyOp21
 70
     1
102
RTVSPropertyOp22
 70
     1
102
RTVSPropertyOp23
 70
     1
102
RTVSPropertyOp24
 70
     1
102
RTVSPropertyOp25
 70
     1
102
RTVSPropertyOp26
 70
     1
102
RTVSPropertyOp27
 70
     1
102
RTVSPropertyOp28
 70
     1
102
RTVSPropertyOp29
 70
     1
102
RTVSPropertyOp30
 70
     1
102
RTVSPropertyOp31
 70
     1
102
RTVSPropertyOp32
 70
     1
  0
XRECORD
  5
DD4
102
{ACAD_REACTORS
330
DD3
102
}
330
DD3
100
AcDbXrecord
280
     1
102
RTVSPropertyOp0
 70
     0
102
RTVSPropertyOp1
 70
     0
102
RTVSPropertyOp2
 70
     0
102
RTVSPropertyOp3
 70
     0
102
RTVSPropertyOp4
 70
     0
102
RTVSPropertyOp5
 70
     0
102
RTVSPropertyOp6
 70
     0
102
RTVSPropertyOp7
 70
     0
102
RTVSPropertyOp8
 70
     0
102
RTVSPropertyOp9
 70
     0
102
RTVSPropertyOp10
 70
     0
102
RTVSPropertyOp11
 70
     0
102
RTVSPropertyOp12
 70
     0
102
RTVSPropertyOp13
 70
     0
102
RTVSPropertyOp14
 70
     2
102
RTVSPropertyOp15
 70
     0
102
RTVSPropertyOp16
 70
     0
102
RTVSPropertyOp17
 70
     0
102
RTVSPropertyOp18
 70
     0
102
RTVSPropertyOp19
 70
     0
102
RTVSPropertyOp20
 70
     0
102
RTVSPropertyOp21
 70
     0
102
RTVSPropertyOp22
 70
     0
102
RTVSPropertyOp23
 70
     0
102
RTVSPropertyOp24
 70
     0
102
RTVSPropertyOp25
 70
     0
102
RTVSPropertyOp26
 70
     0
102
RTVSPropertyOp27
 70
     0
102
RTVSPropertyOp28
 70
     0
102
RTVSPropertyOp29
 70
     0
102
RTVSPropertyOp30
 70
     0
102
RTVSPropertyOp31
 70
     0
102
RTVSPropertyOp32
 70
     0
  0
XRECORD
  5
DC2
102
{ACAD_REACTORS
330
DC1
102
}
330
DC1
100
AcDbXrecord
280
     1
102
RTVSPropertyOp0
 70
     1
102
RTVSPropertyOp1
 70
     1
102
RTVSPropertyOp2
 70
     1
102
RTVSPropertyOp3
 70
     1
102
RTVSPropertyOp4
 70
     1
102
RTVSPropertyOp5
 70
     1
102
RTVSPropertyOp6
 70
     1
102
RTVSPropertyOp7
 70
     1
102
RTVSPropertyOp8
 70
     1
102
RTVSPropertyOp9
 70
     1
102
RTVSPropertyOp10
 70
     1
102
RTVSPropertyOp11
 70
     1
102
RTVSPropertyOp12
 70
     1
102
RTVSPropertyOp13
 70
     1
102
RTVSPropertyOp14
 70
     1
102
RTVSPropertyOp15
 70
     1
102
RTVSPropertyOp16
 70
     1
102
RTVSPropertyOp17
 70
     1
102
RTVSPropertyOp18
 70
     1
102
RTVSPropertyOp19
 70
     1
102
RTVSPropertyOp20
 70
     1
102
RTVSPropertyOp21
 70
     1
102
RTVSPropertyOp22
 70
     1
102
RTVSPropertyOp23
 70
     1
102
RTVSPropertyOp24
 70
     1
102
RTVSPropertyOp25
 70
     1
102
RTVSPropertyOp26
 70
     1
102
RTVSPropertyOp27
 70
     1
102
RTVSPropertyOp28
 70
     1
102
RTVSPropertyOp29
 70
     1
102
RTVSPropertyOp30
 70
     1
102
RTVSPropertyOp31
 70
     1
102
RTVSPropertyOp32
 70
     1
  0
XRECORD
  5
DA6
102
{ACAD_REACTORS
330
DA5
102
}
330
DA5
100
AcDbXrecord
280
     1
102
RTVSPropertyOp0
 70
     1
102
RTVSPropertyOp1
 70
     1
102
RTVSPropertyOp2
 70
     1
102
RTVSPropertyOp3
 70
     1
102
RTVSPropertyOp4
 70
     1
102
RTVSPropertyOp5
 70
     1
102
RTVSPropertyOp6
 70
     1
102
RTVSPropertyOp7
 70
     1
102
RTVSPropertyOp8
 70
     1
102
RTVSPropertyOp9
 70
     1
102
RTVSPropertyOp10
 70
     1
102
RTVSPropertyOp11
 70
     1
102
RTVSPropertyOp12
 70
     1
102
RTVSPropertyOp13
 70
     1
102
RTVSPropertyOp14
 70
     1
102
RTVSPropertyOp15
 70
     1
102
RTVSPropertyOp16
 70
     1
102
RTVSPropertyOp17
 70
     1
102
RTVSPropertyOp18
 70
     1
102
RTVSPropertyOp19
 70
     1
102
RTVSPropertyOp20
 70
     1
102
RTVSPropertyOp21
 70
     1
102
RTVSPropertyOp22
 70
     1
102
RTVSPropertyOp23
 70
     1
102
RTVSPropertyOp24
 70
     1
102
RTVSPropertyOp25
 70
     1
102
RTVSPropertyOp26
 70
     1
102
RTVSPropertyOp27
 70
     1
102
RTVSPropertyOp28
 70
     1
102
RTVSPropertyOp29
 70
     1
102
RTVSPropertyOp30
 70
     1
102
RTVSPropertyOp31
 70
     1
102
RTVSPropertyOp32
 70
     1
  0
XRECORD
  5
DA8
102
{ACAD_REACTORS
330
DA7
102
}
330
DA7
100
AcDbXrecord
280
     1
102
RTVSPropertyOp0
 70
     1
102
RTVSPropertyOp1
 70
     1
102
RTVSPropertyOp2
 70
     1
102
RTVSPropertyOp3
 70
     1
102
RTVSPropertyOp4
 70
     1
102
RTVSPropertyOp5
 70
     1
102
RTVSPropertyOp6
 70
     1
102
RTVSPropertyOp7
 70
     1
102
RTVSPropertyOp8
 70
     1
102
RTVSPropertyOp9
 70
     1
102
RTVSPropertyOp10
 70
     1
102
RTVSPropertyOp11
 70
     1
102
RTVSPropertyOp12
 70
     1
102
RTVSPropertyOp13
 70
     1
102
RTVSPropertyOp14
 70
     1
102
RTVSPropertyOp15
 70
     1
102
RTVSPropertyOp16
 70
     1
102
RTVSPropertyOp17
 70
     1
102
RTVSPropertyOp18
 70
     1
102
RTVSPropertyOp19
 70
     1
102
RTVSPropertyOp20
 70
     1
102
RTVSPropertyOp21
 70
     1
102
RTVSPropertyOp22
 70
     1
102
RTVSPropertyOp23
 70
     1
102
RTVSPropertyOp24
 70
     1
102
RTVSPropertyOp25
 70
     1
102
RTVSPropertyOp26
 70
     1
102
RTVSPropertyOp27
 70
     1
102
RTVSPropertyOp28
 70
     1
102
RTVSPropertyOp29
 70
     1
102
RTVSPropertyOp30
 70
     1
102
RTVSPropertyOp31
 70
     1
102
RTVSPropertyOp32
 70
     1
  0
XRECORD
  5
DAA
102
{ACAD_REACTORS
330
DA9
102
}
330
DA9
100
AcDbXrecord
280
     1
102
RTVSPropertyOp0
 70
     1
102
RTVSPropertyOp1
 70
     1
102
RTVSPropertyOp2
 70
     1
102
RTVSPropertyOp3
 70
     1
102
RTVSPropertyOp4
 70
     1
102
RTVSPropertyOp5
 70
     1
102
RTVSPropertyOp6
 70
     1
102
RTVSPropertyOp7
 70
     1
102
RTVSPropertyOp8
 70
     1
102
RTVSPropertyOp9
 70
     1
102
RTVSPropertyOp10
 70
     1
102
RTVSPropertyOp11
 70
     1
102
RTVSPropertyOp12
 70
     1
102
RTVSPropertyOp13
 70
     1
102
RTVSPropertyOp14
 70
     1
102
RTVSPropertyOp15
 70
     1
102
RTVSPropertyOp16
 70
     1
102
RTVSPropertyOp17
 70
     1
102
RTVSPropertyOp18
 70
     1
102
RTVSPropertyOp19
 70
     1
102
RTVSPropertyOp20
 70
     1
102
RTVSPropertyOp21
 70
     1
102
RTVSPropertyOp22
 70
     1
102
RTVSPropertyOp23
 70
     1
102
RTVSPropertyOp24
 70
     1
102
RTVSPropertyOp25
 70
     1
102
RTVSPropertyOp26
 70
     1
102
RTVSPropertyOp27
 70
     1
102
RTVSPropertyOp28
 70
     1
102
RTVSPropertyOp29
 70
     1
102
RTVSPropertyOp30
 70
     1
102
RTVSPropertyOp31
 70
     1
102
RTVSPropertyOp32
 70
     1
  0
XRECORD
  5
DAC
102
{ACAD_REACTORS
330
DAB
102
}
330
DAB
100
AcDbXrecord
280
     1
102
RTVSPropertyOp0
 70
     1
102
RTVSPropertyOp1
 70
     1
102
RTVSPropertyOp2
 70
     1
102
RTVSPropertyOp3
 70
     1
102
RTVSPropertyOp4
 70
     1
102
RTVSPropertyOp5
 70
     1
102
RTVSPropertyOp6
 70
     1
102
RTVSPropertyOp7
 70
     1
102
RTVSPropertyOp8
 70
     1
102
RTVSPropertyOp9
 70
     1
102
RTVSPropertyOp10
 70
     1
102
RTVSPropertyOp11
 70
     1
102
RTVSPropertyOp12
 70
     1
102
RTVSPropertyOp13
 70
     1
102
RTVSPropertyOp14
 70
     1
102
RTVSPropertyOp15
 70
     1
102
RTVSPropertyOp16
 70
     1
102
RTVSPropertyOp17
 70
     1
102
RTVSPropertyOp18
 70
     1
102
RTVSPropertyOp19
 70
     1
102
RTVSPropertyOp20
 70
     1
102
RTVSPropertyOp21
 70
     1
102
RTVSPropertyOp22
 70
     1
102
RTVSPropertyOp23
 70
     1
102
RTVSPropertyOp24
 70
     1
102
RTVSPropertyOp25
 70
     1
102
RTVSPropertyOp26
 70
     1
102
RTVSPropertyOp27
 70
     1
102
RTVSPropertyOp28
 70
     1
102
RTVSPropertyOp29
 70
     1
102
RTVSPropertyOp30
 70
     1
102
RTVSPropertyOp31
 70
     1
102
RTVSPropertyOp32
 70
     1
  0
XRECORD
  5
DB4
102
{ACAD_REACTORS
330
DB3
102
}
330
DB3
100
AcDbXrecord
280
     1
102
RTVSPropertyOp0
 70
     1
102
RTVSPropertyOp1
 70
     1
102
RTVSPropertyOp2
 70
     1
102
RTVSPropertyOp3
 70
     1
102
RTVSPropertyOp4
 70
     1
102
RTVSPropertyOp5
 70
     1
102
RTVSPropertyOp6
 70
     1
102
RTVSPropertyOp7
 70
     1
102
RTVSPropertyOp8
 70
     1
102
RTVSPropertyOp9
 70
     1
102
RTVSPropertyOp10
 70
     1
102
RTVSPropertyOp11
 70
     1
102
RTVSPropertyOp12
 70
     1
102
RTVSPropertyOp13
 70
     1
102
RTVSPropertyOp14
 70
     1
102
RTVSPropertyOp15
 70
     1
102
RTVSPropertyOp16
 70
     1
102
RTVSPropertyOp17
 70
     1
102
RTVSPropertyOp18
 70
     1
102
RTVSPropertyOp19
 70
     1
102
RTVSPropertyOp20
 70
     1
102
RTVSPropertyOp21
 70
     1
102
RTVSPropertyOp22
 70
     1
102
RTVSPropertyOp23
 70
     1
102
RTVSPropertyOp24
 70
     1
102
RTVSPropertyOp25
 70
     1
102
RTVSPropertyOp26
 70
     1
102
RTVSPropertyOp27
 70
     1
102
RTVSPropertyOp28
 70
     1
102
RTVSPropertyOp29
 70
     1
102
RTVSPropertyOp30
 70
     1
102
RTVSPropertyOp31
 70
     1
102
RTVSPropertyOp32
 70
     1
  0
XRECORD
  5
DD0
102
{ACAD_REACTORS
330
DCF
102
}
330
DCF
100
AcDbXrecord
280
     1
102
RTVSPropertyOp0
 70
     0
102
RTVSPropertyOp1
 70
     0
102
RTVSPropertyOp2
 70
     0
102
RTVSPropertyOp3
 70
     0
102
RTVSPropertyOp4
 70
     0
102
RTVSPropertyOp5
 70
     0
102
RTVSPropertyOp6
 70
     0
102
RTVSPropertyOp7
 70
     0
102
RTVSPropertyOp8
 70
     0
102
RTVSPropertyOp9
 70
     0
102
RTVSPropertyOp10
 70
     0
102
RTVSPropertyOp11
 70
     0
102
RTVSPropertyOp12
 70
     0
102
RTVSPropertyOp13
 70
     0
102
RTVSPropertyOp14
 70
     2
102
RTVSPropertyOp15
 70
     0
102
RTVSPropertyOp16
 70
     0
102
RTVSPropertyOp17
 70
     0
102
RTVSPropertyOp18
 70
     0
102
RTVSPropertyOp19
 70
     0
102
RTVSPropertyOp20
 70
     0
102
RTVSPropertyOp21
 70
     0
102
RTVSPropertyOp22
 70
     0
102
RTVSPropertyOp23
 70
     0
102
RTVSPropertyOp24
 70
     0
102
RTVSPropertyOp25
 70
     0
102
RTVSPropertyOp26
 70
     0
102
RTVSPropertyOp27
 70
     0
102
RTVSPropertyOp28
 70
     0
102
RTVSPropertyOp29
 70
     0
102
RTVSPropertyOp30
 70
     0
102
RTVSPropertyOp31
 70
     0
102
RTVSPropertyOp32
 70
     0
  0
XRECORD
  5
DC0
102
{ACAD_REACTORS
330
DBF
102
}
330
DBF
100
AcDbXrecord
280
     1
102
RTVSPropertyOp0
 70
     1
102
RTVSPropertyOp1
 70
     1
102
RTVSPropertyOp2
 70
     1
102
RTVSPropertyOp3
 70
     1
102
RTVSPropertyOp4
 70
     1
102
RTVSPropertyOp5
 70
     1
102
RTVSPropertyOp6
 70
     1
102
RTVSPropertyOp7
 70
     1
102
RTVSPropertyOp8
 70
     1
102
RTVSPropertyOp9
 70
     1
102
RTVSPropertyOp10
 70
     1
102
RTVSPropertyOp11
 70
     1
102
RTVSPropertyOp12
 70
     1
102
RTVSPropertyOp13
 70
     1
102
RTVSPropertyOp14
 70
     1
102
RTVSPropertyOp15
 70
     1
102
RTVSPropertyOp16
 70
     1
102
RTVSPropertyOp17
 70
     1
102
RTVSPropertyOp18
 70
     1
102
RTVSPropertyOp19
 70
     1
102
RTVSPropertyOp20
 70
     1
102
RTVSPropertyOp21
 70
     1
102
RTVSPropertyOp22
 70
     1
102
RTVSPropertyOp23
 70
     1
102
RTVSPropertyOp24
 70
     1
102
RTVSPropertyOp25
 70
     1
102
RTVSPropertyOp26
 70
     1
102
RTVSPropertyOp27
 70
     1
102
RTVSPropertyOp28
 70
     1
102
RTVSPropertyOp29
 70
     1
102
RTVSPropertyOp30
 70
     1
102
RTVSPropertyOp31
 70
     1
102
RTVSPropertyOp32
 70
     1
  0
XRECORD
  5
DD2
102
{ACAD_REACTORS
330
DD1
102
}
330
DD1
100
AcDbXrecord
280
     1
102
RTVSPropertyOp0
 70
     0
102
RTVSPropertyOp1
 70
     0
102
RTVSPropertyOp2
 70
     0
102
RTVSPropertyOp3
 70
     0
102
RTVSPropertyOp4
 70
     0
102
RTVSPropertyOp5
 70
     0
102
RTVSPropertyOp6
 70
     0
102
RTVSPropertyOp7
 70
     0
102
RTVSPropertyOp8
 70
     0
102
RTVSPropertyOp9
 70
     0
102
RTVSPropertyOp10
 70
     0
102
RTVSPropertyOp11
 70
     0
102
RTVSPropertyOp12
 70
     0
102
RTVSPropertyOp13
 70
     0
102
RTVSPropertyOp14
 70
     2
102
RTVSPropertyOp15
 70
     0
102
RTVSPropertyOp16
 70
     0
102
RTVSPropertyOp17
 70
     0
102
RTVSPropertyOp18
 70
     0
102
RTVSPropertyOp19
 70
     0
102
RTVSPropertyOp20
 70
     0
102
RTVSPropertyOp21
 70
     0
102
RTVSPropertyOp22
 70
     0
102
RTVSPropertyOp23
 70
     0
102
RTVSPropertyOp24
 70
     0
102
RTVSPropertyOp25
 70
     0
102
RTVSPropertyOp26
 70
     0
102
RTVSPropertyOp27
 70
     0
102
RTVSPropertyOp28
 70
     0
102
RTVSPropertyOp29
 70
     0
102
RTVSPropertyOp30
 70
     0
102
RTVSPropertyOp31
 70
     0
102
RTVSPropertyOp32
 70
     0
  0
XRECORD
  5
DB8
102
{ACAD_REACTORS
330
DB7
102
}
330
DB7
100
AcDbXrecord
280
     1
102
RTVSPropertyOp0
 70
     1
102
RTVSPropertyOp1
 70
     1
102
RTVSPropertyOp2
 70
     1
102
RTVSPropertyOp3
 70
     1
102
RTVSPropertyOp4
 70
     1
102
RTVSPropertyOp5
 70
     1
102
RTVSPropertyOp6
 70
     1
102
RTVSPropertyOp7
 70
     1
102
RTVSPropertyOp8
 70
     1
102
RTVSPropertyOp9
 70
     1
102
RTVSPropertyOp10
 70
     1
102
RTVSPropertyOp11
 70
     1
102
RTVSPropertyOp12
 70
     1
102
RTVSPropertyOp13
 70
     1
102
RTVSPropertyOp14
 70
     1
102
RTVSPropertyOp15
 70
     1
102
RTVSPropertyOp16
 70
     1
102
RTVSPropertyOp17
 70
     1
102
RTVSPropertyOp18
 70
     1
102
RTVSPropertyOp19
 70
     1
102
RTVSPropertyOp20
 70
     1
102
RTVSPropertyOp21
 70
     1
102
RTVSPropertyOp22
 70
     1
102
RTVSPropertyOp23
 70
     1
102
RTVSPropertyOp24
 70
     1
102
RTVSPropertyOp25
 70
     1
102
RTVSPropertyOp26
 70
     1
102
RTVSPropertyOp27
 70
     1
102
RTVSPropertyOp28
 70
     1
102
RTVSPropertyOp29
 70
     1
102
RTVSPropertyOp30
 70
     1
102
RTVSPropertyOp31
 70
     1
102
RTVSPropertyOp32
 70
     1
  0
XRECORD
  5
DCE
102
{ACAD_REACTORS
330
DCD
102
}
330
DCD
100
AcDbXrecord
280
     1
102
RTVSPropertyOp0
 70
     1
102
RTVSPropertyOp1
 70
     1
102
RTVSPropertyOp2
 70
     1
102
RTVSPropertyOp3
 70
     1
102
RTVSPropertyOp4
 70
     1
102
RTVSPropertyOp5
 70
     1
102
RTVSPropertyOp6
 70
     1
102
RTVSPropertyOp7
 70
     1
102
RTVSPropertyOp8
 70
     1
102
RTVSPropertyOp9
 70
     1
102
RTVSPropertyOp10
 70
     1
102
RTVSPropertyOp11
 70
     1
102
RTVSPropertyOp12
 70
     1
102
RTVSPropertyOp13
 70
     1
102
RTVSPropertyOp14
 70
     1
102
RTVSPropertyOp15
 70
     1
102
RTVSPropertyOp16
 70
     1
102
RTVSPropertyOp17
 70
     1
102
RTVSPropertyOp18
 70
     1
102
RTVSPropertyOp19
 70
     1
102
RTVSPropertyOp20
 70
     1
102
RTVSPropertyOp21
 70
     1
102
RTVSPropertyOp22
 70
     1
102
RTVSPropertyOp23
 70
     1
102
RTVSPropertyOp24
 70
     1
102
RTVSPropertyOp25
 70
     1
102
RTVSPropertyOp26
 70
     1
102
RTVSPropertyOp27
 70
     1
102
RTVSPropertyOp28
 70
     1
102
RTVSPropertyOp29
 70
     1
102
RTVSPropertyOp30
 70
     1
102
RTVSPropertyOp31
 70
     1
102
RTVSPropertyOp32
 70
     1
  0
XRECORD
  5
DCC
102
{ACAD_REACTORS
330
DCB
102
}
330
DCB
100
AcDbXrecord
280
     1
102
RTVSPropertyOp0
 70
     1
102
RTVSPropertyOp1
 70
     1
102
RTVSPropertyOp2
 70
     1
102
RTVSPropertyOp3
 70
     1
102
RTVSPropertyOp4
 70
     1
102
RTVSPropertyOp5
 70
     1
102
RTVSPropertyOp6
 70
     1
102
RTVSPropertyOp7
 70
     1
102
RTVSPropertyOp8
 70
     1
102
RTVSPropertyOp9
 70
     1
102
RTVSPropertyOp10
 70
     1
102
RTVSPropertyOp11
 70
     1
102
RTVSPropertyOp12
 70
     1
102
RTVSPropertyOp13
 70
     1
102
RTVSPropertyOp14
 70
     1
102
RTVSPropertyOp15
 70
     1
102
RTVSPropertyOp16
 70
     1
102
RTVSPropertyOp17
 70
     1
102
RTVSPropertyOp18
 70
     1
102
RTVSPropertyOp19
 70
     1
102
RTVSPropertyOp20
 70
     1
102
RTVSPropertyOp21
 70
     1
102
RTVSPropertyOp22
 70
     1
102
RTVSPropertyOp23
 70
     1
102
RTVSPropertyOp24
 70
     1
102
RTVSPropertyOp25
 70
     1
102
RTVSPropertyOp26
 70
     1
102
RTVSPropertyOp27
 70
     1
102
RTVSPropertyOp28
 70
     1
102
RTVSPropertyOp29
 70
     1
102
RTVSPropertyOp30
 70
     1
102
RTVSPropertyOp31
 70
     1
102
RTVSPropertyOp32
 70
     1
  0
XRECORD
  5
DC6
102
{ACAD_REACTORS
330
DC5
102
}
330
DC5
100
AcDbXrecord
280
     1
102
RTVSPropertyOp0
 70
     1
102
RTVSPropertyOp1
 70
     1
102
RTVSPropertyOp2
 70
     1
102
RTVSPropertyOp3
 70
     1
102
RTVSPropertyOp4
 70
     1
102
RTVSPropertyOp5
 70
     1
102
RTVSPropertyOp6
 70
     1
102
RTVSPropertyOp7
 70
     1
102
RTVSPropertyOp8
 70
     1
102
RTVSPropertyOp9
 70
     1
102
RTVSPropertyOp10
 70
     1
102
RTVSPropertyOp11
 70
     1
102
RTVSPropertyOp12
 70
     1
102
RTVSPropertyOp13
 70
     1
102
RTVSPropertyOp14
 70
     1
102
RTVSPropertyOp15
 70
     1
102
RTVSPropertyOp16
 70
     1
102
RTVSPropertyOp17
 70
     1
102
RTVSPropertyOp18
 70
     1
102
RTVSPropertyOp19
 70
     1
102
RTVSPropertyOp20
 70
     1
102
RTVSPropertyOp21
 70
     1
102
RTVSPropertyOp22
 70
     1
102
RTVSPropertyOp23
 70
     1
102
RTVSPropertyOp24
 70
     1
102
RTVSPropertyOp25
 70
     1
102
RTVSPropertyOp26
 70
     1
102
RTVSPropertyOp27
 70
     1
102
RTVSPropertyOp28
 70
     1
102
RTVSPropertyOp29
 70
     1
102
RTVSPropertyOp30
 70
     1
102
RTVSPropertyOp31
 70
     1
102
RTVSPropertyOp32
 70
     1
  0
XRECORD
  5
DC8
102
{ACAD_REACTORS
330
DC7
102
}
330
DC7
100
AcDbXrecord
280
     1
102
RTVSPropertyOp0
 70
     1
102
RTVSPropertyOp1
 70
     1
102
RTVSPropertyOp2
 70
     1
102
RTVSPropertyOp3
 70
     1
102
RTVSPropertyOp4
 70
     1
102
RTVSPropertyOp5
 70
     1
102
RTVSPropertyOp6
 70
     1
102
RTVSPropertyOp7
 70
     1
102
RTVSPropertyOp8
 70
     1
102
RTVSPropertyOp9
 70
     1
102
RTVSPropertyOp10
 70
     1
102
RTVSPropertyOp11
 70
     1
102
RTVSPropertyOp12
 70
     1
102
RTVSPropertyOp13
 70
     1
102
RTVSPropertyOp14
 70
     1
102
RTVSPropertyOp15
 70
     1
102
RTVSPropertyOp16
 70
     1
102
RTVSPropertyOp17
 70
     1
102
RTVSPropertyOp18
 70
     1
102
RTVSPropertyOp19
 70
     1
102
RTVSPropertyOp20
 70
     1
102
RTVSPropertyOp21
 70
     1
102
RTVSPropertyOp22
 70
     1
102
RTVSPropertyOp23
 70
     1
102
RTVSPropertyOp24
 70
     1
102
RTVSPropertyOp25
 70
     1
102
RTVSPropertyOp26
 70
     1
102
RTVSPropertyOp27
 70
     1
102
RTVSPropertyOp28
 70
     1
102
RTVSPropertyOp29
 70
     1
102
RTVSPropertyOp30
 70
     1
102
RTVSPropertyOp31
 70
     1
102
RTVSPropertyOp32
 70
     1
  0
XRECORD
  5
DBE
102
{ACAD_REACTORS
330
DBD
102
}
330
DBD
100
AcDbXrecord
280
     1
102
RTVSPropertyOp0
 70
     1
102
RTVSPropertyOp1
 70
     1
102
RTVSPropertyOp2
 70
     1
102
RTVSPropertyOp3
 70
     1
102
RTVSPropertyOp4
 70
     1
102
RTVSPropertyOp5
 70
     1
102
RTVSPropertyOp6
 70
     1
102
RTVSPropertyOp7
 70
     1
102
RTVSPropertyOp8
 70
     1
102
RTVSPropertyOp9
 70
     1
102
RTVSPropertyOp10
 70
     1
102
RTVSPropertyOp11
 70
     1
102
RTVSPropertyOp12
 70
     1
102
RTVSPropertyOp13
 70
     1
102
RTVSPropertyOp14
 70
     1
102
RTVSPropertyOp15
 70
     1
102
RTVSPropertyOp16
 70
     1
102
RTVSPropertyOp17
 70
     1
102
RTVSPropertyOp18
 70
     1
102
RTVSPropertyOp19
 70
     1
102
RTVSPropertyOp20
 70
     1
102
RTVSPropertyOp21
 70
     1
102
RTVSPropertyOp22
 70
     1
102
RTVSPropertyOp23
 70
     1
102
RTVSPropertyOp24
 70
     1
102
RTVSPropertyOp25
 70
     1
102
RTVSPropertyOp26
 70
     1
102
RTVSPropertyOp27
 70
     1
102
RTVSPropertyOp28
 70
     1
102
RTVSPropertyOp29
 70
     1
102
RTVSPropertyOp30
 70
     1
102
RTVSPropertyOp31
 70
     1
102
RTVSPropertyOp32
 70
     1
  0
XRECORD
  5
DB2
102
{ACAD_REACTORS
330
DB1
102
}
330
DB1
100
AcDbXrecord
280
     1
102
RTVSPropertyOp0
 70
     1
102
RTVSPropertyOp1
 70
     1
102
RTVSPropertyOp2
 70
     1
102
RTVSPropertyOp3
 70
     1
102
RTVSPropertyOp4
 70
     1
102
RTVSPropertyOp5
 70
     1
102
RTVSPropertyOp6
 70
     1
102
RTVSPropertyOp7
 70
     1
102
RTVSPropertyOp8
 70
     1
102
RTVSPropertyOp9
 70
     1
102
RTVSPropertyOp10
 70
     1
102
RTVSPropertyOp11
 70
     1
102
RTVSPropertyOp12
 70
     1
102
RTVSPropertyOp13
 70
     1
102
RTVSPropertyOp14
 70
     1
102
RTVSPropertyOp15
 70
     1
102
RTVSPropertyOp16
 70
     1
102
RTVSPropertyOp17
 70
     1
102
RTVSPropertyOp18
 70
     1
102
RTVSPropertyOp19
 70
     1
102
RTVSPropertyOp20
 70
     1
102
RTVSPropertyOp21
 70
     1
102
RTVSPropertyOp22
 70
     1
102
RTVSPropertyOp23
 70
     1
102
RTVSPropertyOp24
 70
     1
102
RTVSPropertyOp25
 70
     1
102
RTVSPropertyOp26
 70
     1
102
RTVSPropertyOp27
 70
     1
102
RTVSPropertyOp28
 70
     1
102
RTVSPropertyOp29
 70
     1
102
RTVSPropertyOp30
 70
     1
102
RTVSPropertyOp31
 70
     1
102
RTVSPropertyOp32
 70
     1
  0
XRECORD
  5
DCA
102
{ACAD_REACTORS
330
DC9
102
}
330
DC9
100
AcDbXrecord
280
     1
102
RTVSPropertyOp0
 70
     1
102
RTVSPropertyOp1
 70
     1
102
RTVSPropertyOp2
 70
     1
102
RTVSPropertyOp3
 70
     1
102
RTVSPropertyOp4
 70
     1
102
RTVSPropertyOp5
 70
     1
102
RTVSPropertyOp6
 70
     1
102
RTVSPropertyOp7
 70
     1
102
RTVSPropertyOp8
 70
     1
102
RTVSPropertyOp9
 70
     1
102
RTVSPropertyOp10
 70
     1
102
RTVSPropertyOp11
 70
     1
102
RTVSPropertyOp12
 70
     1
102
RTVSPropertyOp13
 70
     1
102
RTVSPropertyOp14
 70
     1
102
RTVSPropertyOp15
 70
     1
102
RTVSPropertyOp16
 70
     1
102
RTVSPropertyOp17
 70
     1
102
RTVSPropertyOp18
 70
     1
102
RTVSPropertyOp19
 70
     1
102
RTVSPropertyOp20
 70
     1
102
RTVSPropertyOp21
 70
     1
102
RTVSPropertyOp22
 70
     1
102
RTVSPropertyOp23
 70
     1
102
RTVSPropertyOp24
 70
     1
102
RTVSPropertyOp25
 70
     1
102
RTVSPropertyOp26
 70
     1
102
RTVSPropertyOp27
 70
     1
102
RTVSPropertyOp28
 70
     1
102
RTVSPropertyOp29
 70
     1
102
RTVSPropertyOp30
 70
     1
102
RTVSPropertyOp31
 70
     1
102
RTVSPropertyOp32
 70
     1
  0
ENDSEC
  0
EOF
