  0
SECTION
  2
HEADER
  9
$ACADVER
  1
AC1015
  9
$ACADMAINTVER
 70
    20
  9
$DWGCODEPAGE
  3
ANSI_932
  9
$INSBASE
 10
0.0
 20
0.0
 30
0.0
  9
$EXTMIN
 10
598.9750285234653
 20
-58.75493106348244
 30
0.0
  9
$EXTMAX
 10
790.9750285234653
 20
222.3671976665175
 30
0.0
  9
$LIMMIN
 10
0.0
 20
0.0
  9
$LIMMAX
 10
12.0
 20
9.0
  9
$ORTHOMODE
 70
     1
  9
$REGENMODE
 70
     1
  9
$FILLMODE
 70
     1
  9
$QTEXTMODE
 70
     0
  9
$MIRRTEXT
 70
     0
  9
$LTSCALE
 40
0.2
  9
$ATTMODE
 70
     1
  9
$TEXTSIZE
 40
3.2
  9
$TRACEWID
 40
0.05
  9
$TEXTSTYLE
  7
高3.2
  9
$CLAYER
  8
0
  9
$CELTYPE
  6
ByLayer
  9
$CECOLOR
 62
   256
  9
$CELTSCALE
 40
1.0
  9
$DISPSILH
 70
     0
  9
$DIMSCALE
 40
1.0
  9
$DIMASZ
 40
2.5
  9
$DIMEXO
 40
0.25
  9
$DIMDLI
 40
0.2
  9
$DIMRND
 40
0.0
  9
$DIMDLE
 40
0.0
  9
$DIMEXE
 40
1.25
  9
$DIMTP
 40
0.0
  9
$DIMTM
 40
0.0
  9
$DIMTXT
 40
3.0
  9
$DIMCEN
 40
0.0
  9
$DIMTSZ
 40
0.0
  9
$DIMTOL
 70
     0
  9
$DIMLIM
 70
     0
  9
$DIMTIH
 70
     0
  9
$DIMTOH
 70
     0
  9
$DIMSE1
 70
     0
  9
$DIMSE2
 70
     0
  9
$DIMTAD
 70
     3
  9
$DIMZIN
 70
     8
  9
$DIMBLK
  1
Open30
  9
$DIMASO
 70
     1
  9
$DIMSHO
 70
     1
  9
$DIMPOST
  1

  9
$DIMAPOST
  1

  9
$DIMALT
 70
     0
  9
$DIMALTD
 70
     3
  9
$DIMALTF
 40
0.03937007874016
  9
$DIMLFAC
 40
2.0
  9
$DIMTOFL
 70
     1
  9
$DIMTVP
 40
0.0
  9
$DIMTIX
 70
     0
  9
$DIMSOXD
 70
     0
  9
$DIMSAH
 70
     0
  9
$DIMBLK1
  1

  9
$DIMBLK2
  1

  9
$DIMSTYLE
  2
1／2
  9
$DIMCLRD
 70
     0
  9
$DIMCLRE
 70
     0
  9
$DIMCLRT
 70
     4
  9
$DIMTFAC
 40
1.0
  9
$DIMGAP
 40
0.625
  9
$DIMJUST
 70
     0
  9
$DIMSD1
 70
     0
  9
$DIMSD2
 70
     0
  9
$DIMTOLJ
 70
     0
  9
$DIMTZIN
 70
     8
  9
$DIMALTZ
 70
     0
  9
$DIMALTTZ
 70
     0
  9
$DIMUPT
 70
     1
  9
$DIMDEC
 70
     2
  9
$DIMTDEC
 70
     2
  9
$DIMALTU
 70
     2
  9
$DIMALTTD
 70
     3
  9
$DIMTXSTY
  7
Standard
  9
$DIMAUNIT
 70
     0
  9
$DIMADEC
 70
     1
  9
$DIMALTRND
 40
0.0
  9
$DIMAZIN
 70
     2
  9
$DIMDSEP
 70
    46
  9
$DIMATFIT
 70
     0
  9
$DIMFRAC
 70
     0
  9
$DIMLDRBLK
  1
Open30
  9
$DIMLUNIT
 70
     2
  9
$DIMLWD
 70
    -2
  9
$DIMLWE
 70
    -2
  9
$DIMTMOVE
 70
     0
  9
$LUNITS
 70
     2
  9
$LUPREC
 70
     4
  9
$SKETCHINC
 40
0.1
  9
$FILLETRAD
 40
0.0
  9
$AUNITS
 70
     0
  9
$AUPREC
 70
     0
  9
$MENU
  1
.
  9
$ELEVATION
 40
0.0
  9
$PELEVATION
 40
0.0
  9
$THICKNESS
 40
0.0
  9
$LIMCHECK
 70
     0
  9
$CHAMFERA
 40
0.0
  9
$CHAMFERB
 40
0.0
  9
$CHAMFERC
 40
0.0
  9
$CHAMFERD
 40
0.0
  9
$SKPOLY
 70
     0
  9
$TDCREATE
 40
2456237.859514468
  9
$TDUCREATE
 40
2456237.484514467
  9
$TDUPDATE
 40
2459744.392289699
  9
$TDUUPDATE
 40
2459744.017289699
  9
$TDINDWG
 40
0.4811332870
  9
$TDUSRTIMER
 40
0.4811323843
  9
$USRTIMER
 70
     1
  9
$ANGBASE
 50
0.0
  9
$ANGDIR
 70
     0
  9
$PDMODE
 70
     0
  9
$PDSIZE
 40
0.0
  9
$PLINEWID
 40
0.0
  9
$SPLFRAME
 70
     0
  9
$SPLINETYPE
 70
     6
  9
$SPLINESEGS
 70
     8
  9
$HANDSEED
  5
1E9D
  9
$SURFTAB1
 70
     6
  9
$SURFTAB2
 70
     6
  9
$SURFTYPE
 70
     6
  9
$SURFU
 70
     6
  9
$SURFV
 70
     6
  9
$UCSBASE
  2

  9
$UCSNAME
  2

  9
$UCSORG
 10
0.0
 20
0.0
 30
0.0
  9
$UCSXDIR
 10
1.0
 20
0.0
 30
0.0
  9
$UCSYDIR
 10
0.0
 20
1.0
 30
0.0
  9
$UCSORTHOREF
  2

  9
$UCSORTHOVIEW
 70
     0
  9
$UCSORGTOP
 10
0.0
 20
0.0
 30
0.0
  9
$UCSORGBOTTOM
 10
0.0
 20
0.0
 30
0.0
  9
$UCSORGLEFT
 10
0.0
 20
0.0
 30
0.0
  9
$UCSORGRIGHT
 10
0.0
 20
0.0
 30
0.0
  9
$UCSORGFRONT
 10
0.0
 20
0.0
 30
0.0
  9
$UCSORGBACK
 10
0.0
 20
0.0
 30
0.0
  9
$PUCSBASE
  2

  9
$PUCSNAME
  2

  9
$PUCSORG
 10
0.0
 20
0.0
 30
0.0
  9
$PUCSXDIR
 10
1.0
 20
0.0
 30
0.0
  9
$PUCSYDIR
 10
0.0
 20
1.0
 30
0.0
  9
$PUCSORTHOREF
  2

  9
$PUCSORTHOVIEW
 70
     0
  9
$PUCSORGTOP
 10
0.0
 20
0.0
 30
0.0
  9
$PUCSORGBOTTOM
 10
0.0
 20
0.0
 30
0.0
  9
$PUCSORGLEFT
 10
0.0
 20
0.0
 30
0.0
  9
$PUCSORGRIGHT
 10
0.0
 20
0.0
 30
0.0
  9
$PUCSORGFRONT
 10
0.0
 20
0.0
 30
0.0
  9
$PUCSORGBACK
 10
0.0
 20
0.0
 30
0.0
  9
$USERI1
 70
     0
  9
$USERI2
 70
     0
  9
$USERI3
 70
     0
  9
$USERI4
 70
     0
  9
$USERI5
 70
     0
  9
$USERR1
 40
0.0
  9
$USERR2
 40
0.0
  9
$USERR3
 40
0.0
  9
$USERR4
 40
0.0
  9
$USERR5
 40
0.0
  9
$WORLDVIEW
 70
     1
  9
$SHADEDGE
 70
     3
  9
$SHADEDIF
 70
    70
  9
$TILEMODE
 70
     1
  9
$MAXACTVP
 70
    64
  9
$PINSBASE
 10
0.0
 20
0.0
 30
0.0
  9
$PLIMCHECK
 70
     0
  9
$PEXTMIN
 10
0.0
 20
0.0
 30
0.0
  9
$PEXTMAX
 10
0.0
 20
0.0
 30
0.0
  9
$PLIMMIN
 10
0.0
 20
0.0
  9
$PLIMMAX
 10
12.0
 20
9.0
  9
$UNITMODE
 70
     0
  9
$VISRETAIN
 70
     1
  9
$PLINEGEN
 70
     0
  9
$PSLTSCALE
 70
     1
  9
$TREEDEPTH
 70
  3020
  9
$CMLSTYLE
  2
Standard
  9
$CMLJUST
 70
     0
  9
$CMLSCALE
 40
1.0
  9
$PROXYGRAPHICS
 70
     1
  9
$MEASUREMENT
 70
     1
  9
$CELWEIGHT
370
    -1
  9
$ENDCAPS
280
     0
  9
$JOINSTYLE
280
     0
  9
$LWDISPLAY
290
     0
  9
$INSUNITS
 70
     1
  9
$HYPERLINKBASE
  1

  9
$STYLESHEET
  1
N-PLOT.CTB
  9
$XEDIT
290
     1
  9
$CEPSNTYPE
380
     0
  9
$PSTYLEMODE
290
     1
  9
$FINGERPRINTGUID
  2
{56757981-08C7-46F1-92FD-96438F5B3FB6}
  9
$VERSIONGUID
  2
{691B1808-CAEC-4182-9B4B-1316164FD31B}
  9
$EXTNAMES
290
     1
  9
$PSVPSCALE
 40
0.0
  9
$OLESTARTUP
290
     0
  0
ENDSEC
  0
SECTION
  2
CLASSES
  0
CLASS
  1
ACDBDICTIONARYWDFLT
  2
AcDbDictionaryWithDefault
  3
ObjectDBX Classes
 90
        0
280
     0
281
     0
  0
CLASS
  1
ACDBPLACEHOLDER
  2
AcDbPlaceHolder
  3
ObjectDBX Classes
 90
        0
280
     0
281
     0
  0
CLASS
  1
LAYOUT
  2
AcDbLayout
  3
ObjectDBX Classes
 90
        0
280
     0
281
     0
  0
CLASS
  1
DICTIONARYVAR
  2
AcDbDictionaryVar
  3
ObjectDBX Classes
 90
        0
280
     0
281
     0
  0
CLASS
  1
TABLESTYLE
  2
AcDbTableStyle
  3
ObjectDBX Classes
 90
     4095
280
     0
281
     0
  0
CLASS
  1
MATERIAL
  2
AcDbMaterial
  3
ObjectDBX Classes
 90
     1153
280
     0
281
     0
  0
CLASS
  1
VISUALSTYLE
  2
AcDbVisualStyle
  3
ObjectDBX Classes
 90
     4095
280
     0
281
     0
  0
CLASS
  1
SORTENTSTABLE
  2
AcDbSortentsTable
  3
ObjectDBX Classes
 90
        0
280
     0
281
     0
  0
CLASS
  1
DIMASSOC
  2
AcDbDimAssoc
  3
"AcDbDimAssoc|Product Desc:     AcDim ARX App For Dimension|Company:          Autodesk, Inc.|WEB Address:      www.autodesk.com"
 90
        0
280
     0
281
     0
  0
CLASS
  1
SCALE
  2
AcDbScale
  3
ObjectDBX Classes
 90
     1153
280
     0
281
     0
  0
CLASS
  1
MLEADERSTYLE
  2
AcDbMLeaderStyle
  3
ACDB_MLEADERSTYLE_CLASS
 90
     4095
280
     0
281
     0
  0
CLASS
  1
CELLSTYLEMAP
  2
AcDbCellStyleMap
  3
ObjectDBX Classes
 90
     1152
280
     0
281
     0
  0
CLASS
  1
AEC_REFEDIT_STATUS_TRACKER
  2
AecDbRefEditStatusTracker
  3
AecArchBase60|Product Desc: Autodesk Architectural Desktop 2007 |Company: Autodesk,Inc. |WEB Address: www.autodesk.com
 90
      129
280
     0
281
     0
  0
CLASS
  1
NPOCOLLECTION
  2
AcDbImpNonPersistentObjectsCollection
  3
ObjectDBX Classes
 90
     1153
280
     0
281
     0
  0
ENDSEC
  0
SECTION
  2
TABLES
  0
TABLE
  2
VPORT
  5
8
102
{ACAD_XDICTIONARY
360
88F
102
}
330
0
100
AcDbSymbolTable
 70
     1
  0
VPORT
  5
94
330
8
100
AcDbSymbolTableRecord
100
AcDbViewportTableRecord
  2
*Active
 70
     0
 10
0.0
 20
0.0
 11
1.0
 21
1.0
 12
777.6452237486478
 22
55.52720816804702
 13
0.0
 23
0.0
 14
0.5
 24
0.5
 15
0.5
 25
0.5
 16
0.0
 26
0.0
 36
1.0
 17
0.0
 27
0.0
 37
0.0
 40
687.5928920518235
 41
1.560897435897435
 42
50.0
 43
0.0
 44
0.0
 50
0.0
 51
0.0
 71
     0
 72
  1000
 73
     1
 74
     2
 75
     0
 76
     0
 77
     0
 78
     0
281
     0
 65
     1
110
0.0
120
0.0
130
0.0
111
1.0
121
0.0
131
0.0
112
0.0
122
1.0
132
0.0
 79
     0
146
0.0
  0
ENDTAB
  0
TABLE
  2
LTYPE
  5
5
330
0
100
AcDbSymbolTable
 70
     3
  0
LTYPE
  5
14
330
5
100
AcDbSymbolTableRecord
100
AcDbLinetypeTableRecord
  2
ByBlock
 70
     0
  3

 72
    65
 73
     0
 40
0.0
  0
LTYPE
  5
15
330
5
100
AcDbSymbolTableRecord
100
AcDbLinetypeTableRecord
  2
ByLayer
 70
     0
  3

 72
    65
 73
     0
 40
0.0
  0
LTYPE
  5
16
330
5
100
AcDbSymbolTableRecord
100
AcDbLinetypeTableRecord
  2
Continuous
 70
     0
  3
Solid line
 72
    65
 73
     0
 40
0.0
  0
LTYPE
  5
148
330
5
100
AcDbSymbolTableRecord
100
AcDbLinetypeTableRecord
  2
CENTER
 70
     0
  3
Center ____ _ ____ _ ____ _ ____ _ ____ _ ____
 72
    65
 73
     4
 40
50.8
 49
31.75
 74
     0
 49
-6.349999999999997
 74
     0
 49
6.349999999999997
 74
     0
 49
-6.349999999999997
 74
     0
  0
ENDTAB
  0
TABLE
  2
LAYER
  5
2
102
{ACAD_XDICTIONARY
360
DD
102
}
330
0
100
AcDbSymbolTable
 70
     2
  0
LAYER
  5
10
102
{ACAD_XDICTIONARY
360
7BE
102
}
330
2
100
AcDbSymbolTableRecord
100
AcDbLayerTableRecord
  2
0
 70
     0
 62
     7
  6
Continuous
370
    -3
390
F
  0
LAYER
  5
D8
330
2
100
AcDbSymbolTableRecord
100
AcDbLayerTableRecord
  2
Defpoints
 70
     0
 62
     7
  6
Continuous
290
     0
370
    -3
390
F
  0
ENDTAB
  0
TABLE
  2
STYLE
  5
3
330
0
100
AcDbSymbolTable
 70
     6
  0
STYLE
  5
11
330
3
100
AcDbSymbolTableRecord
100
AcDbTextStyleTableRecord
  2
Standard
 70
     0
 40
0.0
 41
1.0
 50
0.0
 71
     0
 42
0.2
  3
txt.shx
  4
bigfont.shx
  0
STYLE
  5
11D
330
3
100
AcDbSymbolTableRecord
100
AcDbTextStyleTableRecord
  2
高3.2
 70
     0
 40
3.2
 41
1.0
 50
0.0
 71
     0
 42
3.2
  3
txt.shx
  4
bigfont.shx
  0
STYLE
  5
11E
330
3
100
AcDbSymbolTableRecord
100
AcDbTextStyleTableRecord
  2
高6.3
 70
     0
 40
6.299999999999998
 41
1.0
 50
0.0
 71
     0
 42
6.299999999999998
  3
txt.shx
  4
bigfont.shx
  0
STYLE
  5
11F
330
3
100
AcDbSymbolTableRecord
100
AcDbTextStyleTableRecord
  2
高2.5
 70
     0
 40
2.5
 41
1.0
 50
0.0
 71
     0
 42
0.2
  3
txt.shx
  4
bigfont.shx
  0
STYLE
  5
146
330
3
100
AcDbSymbolTableRecord
100
AcDbTextStyleTableRecord
  2
高4.5
 70
     0
 40
4.5
 41
1.0
 50
0.0
 71
     0
 42
6.299999999999998
  3
txt.shx
  4
bigfont.shx
  0
STYLE
  5
171
330
3
100
AcDbSymbolTableRecord
100
AcDbTextStyleTableRecord
  2
高2
 70
     0
 40
2.0
 41
1.0
 50
0.0
 71
     0
 42
6.299999999999998
  3
txt.shx
  4
bigfont.shx
  0
ENDTAB
  0
TABLE
  2
VIEW
  5
6
330
0
100
AcDbSymbolTable
 70
     0
  0
ENDTAB
  0
TABLE
  2
UCS
  5
7
330
0
100
AcDbSymbolTable
 70
     0
  0
ENDTAB
  0
TABLE
  2
APPID
  5
9
330
0
100
AcDbSymbolTable
 70
    10
  0
APPID
  5
12
330
9
100
AcDbSymbolTableRecord
100
AcDbRegAppTableRecord
  2
ACAD
 70
     0
  0
APPID
  5
DC
330
9
100
AcDbSymbolTableRecord
100
AcDbRegAppTableRecord
  2
ACAD_DSTYLE_DIMJOGGED_JOGANGLE_SYMBOL
 70
     0
  0
APPID
  5
3A5
330
9
100
AcDbSymbolTableRecord
100
AcDbRegAppTableRecord
  2
ACAD_EXEMPT_FROM_CAD_STANDARDS
 70
     0
  0
APPID
  5
8BE
330
9
100
AcDbSymbolTableRecord
100
AcDbRegAppTableRecord
  2
ACAD_DSTYLE_DIMARC_LENGTH_SYMBOL
 70
     0
  0
APPID
  5
8BF
330
9
100
AcDbSymbolTableRecord
100
AcDbRegAppTableRecord
  2
ACAD_DSTYLE_DIMEXT_LENGTH
 70
     0
  0
APPID
  5
8D4
330
9
100
AcDbSymbolTableRecord
100
AcDbRegAppTableRecord
  2
ACAD_MLEADERVER
 70
     0
  0
APPID
  5
BF5
330
9
100
AcDbSymbolTableRecord
100
AcDbRegAppTableRecord
  2
ACAD_DSTYLE_DIMRADIAL_EXTENSION
 70
     0
  0
APPID
  5
D80
330
9
100
AcDbSymbolTableRecord
100
AcDbRegAppTableRecord
  2
ACAD_DSTYLE_DIMJAG
 70
     0
  0
APPID
  5
D81
330
9
100
AcDbSymbolTableRecord
100
AcDbRegAppTableRecord
  2
ACAD_DSTYLE_DIMBREAK
 70
     0
  0
APPID
  5
D82
330
9
100
AcDbSymbolTableRecord
100
AcDbRegAppTableRecord
  2
ACAD_DSTYLE_DIMTALN
 70
     0
  0
ENDTAB
  0
TABLE
  2
DIMSTYLE
  5
A
330
0
100
AcDbSymbolTable
 70
    10
100
AcDbDimStyleTable
 71
     5
340
128
340
D9
340
DB
340
DA
340
127
  0
DIMSTYLE
105
D9
330
A
100
AcDbSymbolTableRecord
100
AcDbDimStyleTableRecord
  2
1：1
 70
     0
 41
2.5
 42
0.25
 43
0.2
 44
1.25
 73
     0
 74
     0
 77
     3
 78
     8
 79
     2
140
3.0
141
0.0
143
0.03937007874016
147
0.625
171
     3
172
     1
178
     4
179
     1
271
     2
272
     2
274
     3
283
     0
284
     8
288
     1
289
     0
340
11
341
C6
342
C6
1001
ACAD_DSTYLE_DIMARC_LENGTH_SYMBOL
1070
   379
1070
     2
1001
ACAD_DSTYLE_DIMEXT_LENGTH
1070
   378
1040
1.25
1001
ACAD_DSTYLE_DIMJOGGED_JOGANGLE_SYMBOL
1070
   384
1040
1.570796326794896
  0
DIMSTYLE
105
DA
330
A
100
AcDbSymbolTableRecord
100
AcDbDimStyleTableRecord
  2
2：1
 70
     0
 41
2.5
 42
0.25
 43
0.2
 44
1.25
 73
     0
 74
     0
 77
     3
 78
     8
 79
     2
140
3.0
141
0.0
143
0.03937007874016
144
0.5
147
0.625
171
     3
172
     1
178
     4
179
     1
271
     2
272
     2
274
     3
283
     0
284
     8
288
     1
289
     0
340
11
341
C6
342
C6
1001
ACAD_DSTYLE_DIMARC_LENGTH_SYMBOL
1070
   379
1070
     2
1001
ACAD_DSTYLE_DIMEXT_LENGTH
1070
   378
1040
1.25
1001
ACAD_DSTYLE_DIMJOGGED_JOGANGLE_SYMBOL
1070
   384
1040
1.570796326794896
  0
DIMSTYLE
105
DB
330
A
100
AcDbSymbolTableRecord
100
AcDbDimStyleTableRecord
  2
5：1
 70
     0
 41
2.5
 42
0.25
 43
0.2
 44
1.25
 73
     0
 74
     0
 77
     3
 78
     8
 79
     2
140
3.0
141
0.0
143
0.03937007874016
144
0.2
147
0.625
171
     3
172
     1
178
     4
179
     1
271
     2
272
     2
274
     3
283
     0
284
     8
288
     1
289
     0
340
11
341
C6
342
C6
1001
ACAD_DSTYLE_DIMARC_LENGTH_SYMBOL
1070
   379
1070
     2
1001
ACAD_DSTYLE_DIMEXT_LENGTH
1070
   378
1040
1.25
1001
ACAD_DSTYLE_DIMJOGGED_JOGANGLE_SYMBOL
1070
   384
1040
1.570796326794896
  0
DIMSTYLE
105
127
330
A
100
AcDbSymbolTableRecord
100
AcDbDimStyleTableRecord
  2
10：1
 70
     0
 41
2.5
 42
0.25
 43
0.2
 44
1.25
 73
     0
 74
     0
 77
     3
 78
     8
 79
     2
140
3.0
141
0.0
143
0.03937007874016
144
0.1
147
0.625
171
     3
172
     1
178
     4
179
     1
271
     2
272
     2
274
     3
283
     0
284
     8
288
     1
289
     0
340
11
341
C6
342
C6
1001
ACAD_DSTYLE_DIMARC_LENGTH_SYMBOL
1070
   379
1070
     2
1001
ACAD_DSTYLE_DIMEXT_LENGTH
1070
   378
1040
1.25
1001
ACAD_DSTYLE_DIMJOGGED_JOGANGLE_SYMBOL
1070
   384
1040
1.570796326794896
  0
DIMSTYLE
105
128
330
A
100
AcDbSymbolTableRecord
100
AcDbDimStyleTableRecord
  2
1／2
 70
     0
 41
2.5
 42
0.25
 43
0.2
 44
1.25
 73
     0
 74
     0
 77
     3
 78
     8
 79
     2
140
3.0
141
0.0
143
0.03937007874016
144
2.0
147
0.625
171
     3
172
     1
178
     4
179
     1
271
     2
272
     2
274
     3
283
     0
284
     8
288
     1
289
     0
340
11
341
C6
342
C6
1001
ACAD_DSTYLE_DIMARC_LENGTH_SYMBOL
1070
   379
1070
     2
1001
ACAD_DSTYLE_DIMEXT_LENGTH
1070
   378
1040
1.25
1001
ACAD_DSTYLE_DIMJOGGED_JOGANGLE_SYMBOL
1070
   384
1040
1.570796326794896
  0
DIMSTYLE
105
129
330
A
100
AcDbSymbolTableRecord
100
AcDbDimStyleTableRecord
  2
1／5
 70
     0
 41
2.5
 42
0.25
 43
0.2
 44
1.25
 73
     0
 74
     0
 77
     3
 78
     8
 79
     2
140
3.0
141
0.0
143
0.03937007874016
144
5.0
147
0.625
171
     3
172
     1
178
     4
179
     1
271
     2
272
     2
274
     3
283
     0
284
     8
288
     1
289
     0
340
11
341
C6
342
C6
1001
ACAD_DSTYLE_DIMARC_LENGTH_SYMBOL
1070
   379
1070
     2
1001
ACAD_DSTYLE_DIMEXT_LENGTH
1070
   378
1040
1.25
1001
ACAD_DSTYLE_DIMJOGGED_JOGANGLE_SYMBOL
1070
   384
1040
1.570796326794896
  0
DIMSTYLE
105
12A
330
A
100
AcDbSymbolTableRecord
100
AcDbDimStyleTableRecord
  2
1／10
 70
     0
 41
2.5
 42
0.25
 43
0.2
 44
1.25
 73
     0
 74
     0
 77
     3
 78
     8
 79
     2
140
3.0
141
0.0
143
0.03937007874016
144
10.0
147
0.625
171
     3
172
     1
178
     4
179
     1
271
     2
272
     2
274
     3
283
     0
284
     8
288
     1
289
     0
340
11
341
C6
342
C6
1001
ACAD_DSTYLE_DIMARC_LENGTH_SYMBOL
1070
   379
1070
     2
1001
ACAD_DSTYLE_DIMEXT_LENGTH
1070
   378
1040
1.25
1001
ACAD_DSTYLE_DIMJOGGED_JOGANGLE_SYMBOL
1070
   384
1040
1.570796326794896
  0
DIMSTYLE
105
D7D
330
A
100
AcDbSymbolTableRecord
100
AcDbDimStyleTableRecord
  2
1／4
 70
     0
 41
2.5
 42
0.25
 43
0.2
 44
1.25
 73
     0
 74
     0
 77
     3
 78
     8
 79
     2
140
3.0
141
0.0
143
0.03937007874016
144
4.0
147
0.625
171
     3
172
     1
178
     4
179
     1
271
     2
272
     2
274
     3
283
     0
284
     8
288
     1
289
     0
340
11
341
C6
342
C6
1001
ACAD_DSTYLE_DIMARC_LENGTH_SYMBOL
1070
   379
1070
     2
1001
ACAD_DSTYLE_DIMEXT_LENGTH
1070
   378
1040
1.25
1001
ACAD_DSTYLE_DIMJOGGED_JOGANGLE_SYMBOL
1070
   384
1040
1.570796326794896
  0
DIMSTYLE
105
D7E
330
A
100
AcDbSymbolTableRecord
100
AcDbDimStyleTableRecord
  2
1／3
 70
     0
 41
2.5
 42
0.25
 43
0.2
 44
1.25
 73
     0
 74
     0
 77
     3
 78
     8
 79
     2
140
3.0
141
0.0
143
0.03937007874016
144
3.0
147
0.625
171
     3
172
     1
178
     4
179
     1
271
     2
272
     2
274
     3
283
     0
284
     8
288
     1
289
     0
340
11
341
C6
342
C6
1001
ACAD_DSTYLE_DIMARC_LENGTH_SYMBOL
1070
   379
1070
     2
1001
ACAD_DSTYLE_DIMEXT_LENGTH
1070
   378
1040
1.25
1001
ACAD_DSTYLE_DIMJOGGED_JOGANGLE_SYMBOL
1070
   384
1040
1.570796326794896
  0
DIMSTYLE
105
D7F
330
A
100
AcDbSymbolTableRecord
100
AcDbDimStyleTableRecord
  2
FREE
 70
     0
 41
2.5
 42
0.25
 43
0.2
 44
1.25
 73
     0
 74
     0
 77
     3
 78
     8
 79
     2
140
3.0
141
0.0
143
0.03937007874016
147
0.625
171
     3
172
     1
178
     4
179
     1
271
     2
272
     2
274
     3
283
     0
284
     8
288
     1
289
     0
340
11
341
C6
342
C6
1001
ACAD_DSTYLE_DIMBREAK
1070
   391
1040
3.75
1001
ACAD_DSTYLE_DIMJAG
1070
   388
1040
1.5
1001
ACAD_DSTYLE_DIMTALN
1070
   392
1070
     0
1001
ACAD_DSTYLE_DIMARC_LENGTH_SYMBOL
1070
   379
1070
     2
1001
ACAD_DSTYLE_DIMEXT_LENGTH
1070
   378
1040
1.25
1001
ACAD_DSTYLE_DIMJOGGED_JOGANGLE_SYMBOL
1070
   384
1040
1.570796326794896
  0
ENDTAB
  0
TABLE
  2
BLOCK_RECORD
  5
1
330
0
100
AcDbSymbolTable
 70
    20
  0
BLOCK_RECORD
  5
1F
102
{ACAD_XDICTIONARY
360
324
102
}
330
1
100
AcDbSymbolTableRecord
100
AcDbBlockTableRecord
  2
*Model_Space
340
22
  0
BLOCK_RECORD
  5
58
330
1
100
AcDbSymbolTableRecord
100
AcDbBlockTableRecord
  2
*Paper_Space
340
59
  0
BLOCK_RECORD
  5
5D
330
1
100
AcDbSymbolTableRecord
100
AcDbBlockTableRecord
  2
*Paper_Space0
340
5E
  0
BLOCK_RECORD
  5
C6
330
1
100
AcDbSymbolTableRecord
100
AcDbBlockTableRecord
  2
_Open30
340
0
102
{BLKREFS
331
19C3
331
19C4
331
19CE
331
19CF
331
19D9
331
19DA
331
19E4
331
19E5
331
19EF
331
19F0
331
19FA
331
19FB
331
1A05
331
1A06
331
1A10
331
1A11
331
1A1B
331
1A1C
331
1A24
331
1A25
331
1CC7
331
1CC8
331
1CD0
331
1CD1
331
1CD9
331
1CDA
331
1CE1
331
1CE8
331
1CE9
331
1CF2
331
1CF3
331
1CFD
331
1CFE
331
1D0A
331
1D0B
102
}
  0
BLOCK_RECORD
  5
12FE
330
1
100
AcDbSymbolTableRecord
100
AcDbBlockTableRecord
  2
*D2
340
0
  0
BLOCK_RECORD
  5
133C
330
1
100
AcDbSymbolTableRecord
100
AcDbBlockTableRecord
  2
*D3
340
0
  0
BLOCK_RECORD
  5
1354
330
1
100
AcDbSymbolTableRecord
100
AcDbBlockTableRecord
  2
*D4
340
0
  0
BLOCK_RECORD
  5
136C
330
1
100
AcDbSymbolTableRecord
100
AcDbBlockTableRecord
  2
*D5
340
0
  0
BLOCK_RECORD
  5
137E
330
1
100
AcDbSymbolTableRecord
100
AcDbBlockTableRecord
  2
*D6
340
0
  0
BLOCK_RECORD
  5
139A
330
1
100
AcDbSymbolTableRecord
100
AcDbBlockTableRecord
  2
*D7
340
0
  0
BLOCK_RECORD
  5
13B4
330
1
100
AcDbSymbolTableRecord
100
AcDbBlockTableRecord
  2
*D8
340
0
  0
BLOCK_RECORD
  5
13DB
330
1
100
AcDbSymbolTableRecord
100
AcDbBlockTableRecord
  2
*D9
340
0
  0
BLOCK_RECORD
  5
1934
330
1
100
AcDbSymbolTableRecord
100
AcDbBlockTableRecord
  2
*D10
340
0
  0
BLOCK_RECORD
  5
1942
330
1
100
AcDbSymbolTableRecord
100
AcDbBlockTableRecord
  2
*D11
340
0
  0
BLOCK_RECORD
  5
1950
330
1
100
AcDbSymbolTableRecord
100
AcDbBlockTableRecord
  2
*D12
340
0
  0
BLOCK_RECORD
  5
195E
330
1
100
AcDbSymbolTableRecord
100
AcDbBlockTableRecord
  2
*D13
340
0
  0
BLOCK_RECORD
  5
196C
330
1
100
AcDbSymbolTableRecord
100
AcDbBlockTableRecord
  2
*D14
340
0
  0
BLOCK_RECORD
  5
197A
330
1
100
AcDbSymbolTableRecord
100
AcDbBlockTableRecord
  2
*D15
340
0
  0
BLOCK_RECORD
  5
1988
330
1
100
AcDbSymbolTableRecord
100
AcDbBlockTableRecord
  2
*D16
340
0
  0
BLOCK_RECORD
  5
1996
330
1
100
AcDbSymbolTableRecord
100
AcDbBlockTableRecord
  2
*D17
340
0
  0
BLOCK_RECORD
  5
19A4
330
1
100
AcDbSymbolTableRecord
100
AcDbBlockTableRecord
  2
*D18
340
0
  0
BLOCK_RECORD
  5
19B2
330
1
100
AcDbSymbolTableRecord
100
AcDbBlockTableRecord
  2
*D19
340
0
  0
ENDTAB
  0
ENDSEC
  0
SECTION
  2
BLOCKS
  0
BLOCK
  5
20
330
1F
100
AcDbEntity
  8
0
100
AcDbBlockBegin
  2
*Model_Space
 70
     0
 10
0.0
 20
0.0
 30
0.0
  3
*Model_Space
  1

  0
ENDBLK
  5
21
330
1F
100
AcDbEntity
  8
0
100
AcDbBlockEnd
  0
BLOCK
  5
5A
330
58
100
AcDbEntity
 67
     1
  8
0
100
AcDbBlockBegin
  2
*Paper_Space
 70
     0
 10
0.0
 20
0.0
 30
0.0
  3
*Paper_Space
  1

  0
ENDBLK
  5
5B
330
58
100
AcDbEntity
 67
     1
  8
0
100
AcDbBlockEnd
  0
BLOCK
  5
5F
330
5D
100
AcDbEntity
 67
     1
  8
0
100
AcDbBlockBegin
  2
*Paper_Space0
 70
     0
 10
0.0
 20
0.0
 30
0.0
  3
*Paper_Space0
  1

  0
ENDBLK
  5
60
330
5D
100
AcDbEntity
 67
     1
  8
0
100
AcDbBlockEnd
  0
BLOCK
  5
C7
330
C6
100
AcDbEntity
  8
0
100
AcDbBlockBegin
  2
_Open30
 70
     0
 10
0.0
 20
0.0
 30
0.0
  3
_Open30
  1

  0
LINE
  5
C8
330
C6
100
AcDbEntity
  8
0
  6
ByBlock
 62
     0
370
    -2
100
AcDbLine
 10
-1.0
 20
0.267949
 30
0.0
 11
0.0
 21
0.0
 31
0.0
  0
LINE
  5
C9
330
C6
100
AcDbEntity
  8
0
  6
ByBlock
 62
     0
370
    -2
100
AcDbLine
 10
0.0
 20
0.0
 30
0.0
 11
-1.0
 21
-0.267949
 31
0.0
  0
LINE
  5
CA
330
C6
100
AcDbEntity
  8
0
  6
ByBlock
 62
     0
370
    -2
100
AcDbLine
 10
0.0
 20
0.0
 30
0.0
 11
-1.0
 21
0.0
 31
0.0
  0
ENDBLK
  5
CB
330
C6
100
AcDbEntity
  8
0
100
AcDbBlockEnd
  0
BLOCK
  5
12FF
330
12FE
100
AcDbEntity
  8
0
100
AcDbBlockBegin
  2
*D2
 70
     1
 10
0.0
 20
0.0
 30
0.0
  3
*D2
  1

  0
LINE
  5
1CC4
330
12FE
100
AcDbEntity
  8
0
 62
     0
370
    -2
100
AcDbLine
 10
657.816072677496
 20
90.59070909587996
 30
0.0
 11
632.954945963369
 21
90.59070909587996
 31
0.0
  0
LINE
  5
1CC5
330
12FE
100
AcDbEntity
  8
0
 62
     0
370
    -2
100
AcDbLine
 10
674.021517243724
 20
175.84070909588
 30
0.0
 11
632.954945963369
 21
175.84070909588
 31
0.0
  0
LINE
  5
1CC6
330
12FE
100
AcDbEntity
  8
0
 62
     0
370
    -2
100
AcDbLine
 10
634.204945963369
 20
93.09070909587996
 30
0.0
 11
634.204945963369
 21
173.34070909588
 31
0.0
  0
INSERT
  5
1CC7
330
12FE
100
AcDbEntity
  8
0
 62
     0
370
    -2
100
AcDbBlockReference
  2
_Open30
 10
634.204945963369
 20
90.59070909587996
 30
0.0
 41
2.5
 42
2.5
 43
2.5
 50
270.0
  0
INSERT
  5
1CC8
330
12FE
100
AcDbEntity
  8
0
 62
     0
370
    -2
100
AcDbBlockReference
  2
_Open30
 10
634.204945963369
 20
175.84070909588
 30
0.0
 41
2.5
 42
2.5
 43
2.5
 50
90.0
  0
MTEXT
  5
1CC9
330
12FE
100
AcDbEntity
  8
0
 62
     4
100
AcDbMText
 10
632.079945963369
 20
133.21570909588
 30
0.0
 40
3.0
 41
0.0
 71
     5
 72
     1
  1
170.5
 11
0.0000000000000001
 21
1.0
 31
0.0
 73
     1
 44
1.0
1001
ACAD
1000
MTEXTBEGIN
1070
    73
1070
     1
1070
    44
1040
1.0
1070
    74
1070
     0
1000
MTEXTEND
  0
POINT
  5
1CCA
330
12FE
100
AcDbEntity
  8
Defpoints
 62
     0
100
AcDbPoint
 10
658.0660726774961
 20
90.59070909587996
 30
0.0
  0
POINT
  5
1CCB
330
12FE
100
AcDbEntity
  8
Defpoints
 62
     0
100
AcDbPoint
 10
674.271517243724
 20
175.84070909588
 30
0.0
  0
POINT
  5
1CCC
330
12FE
100
AcDbEntity
  8
Defpoints
 62
     0
100
AcDbPoint
 10
634.204945963369
 20
175.84070909588
 30
0.0
  0
ENDBLK
  5
1300
330
12FE
100
AcDbEntity
  8
0
100
AcDbBlockEnd
  0
BLOCK
  5
133D
330
133C
100
AcDbEntity
  8
0
100
AcDbBlockBegin
  2
*D3
 70
     1
 10
0.0
 20
0.0
 30
0.0
  3
*D3
  1

  0
LINE
  5
1CCD
330
133C
100
AcDbEntity
  8
0
 62
     0
370
    -2
100
AcDbLine
 10
674.021517243724
 20
175.84070909588
 30
0.0
 11
638.0745100111623
 21
175.84070909588
 31
0.0
  0
LINE
  5
1CCE
330
133C
100
AcDbEntity
  8
0
 62
     0
370
    -2
100
AcDbLine
 10
655.1160726774963
 20
97.84070909587995
 30
0.0
 11
638.0745100111623
 21
97.84070909587995
 31
0.0
  0
LINE
  5
1CCF
330
133C
100
AcDbEntity
  8
0
 62
     0
370
    -2
100
AcDbLine
 10
639.3245100111624
 20
173.34070909588
 30
0.0
 11
639.3245100111624
 21
100.3407090958799
 31
0.0
  0
INSERT
  5
1CD0
330
133C
100
AcDbEntity
  8
0
 62
     0
370
    -2
100
AcDbBlockReference
  2
_Open30
 10
639.3245100111624
 20
175.84070909588
 30
0.0
 41
2.5
 42
2.5
 43
2.5
 50
90.0
  0
INSERT
  5
1CD1
330
133C
100
AcDbEntity
  8
0
 62
     0
370
    -2
100
AcDbBlockReference
  2
_Open30
 10
639.3245100111624
 20
97.84070909587995
 30
0.0
 41
2.5
 42
2.5
 43
2.5
 50
270.0
  0
MTEXT
  5
1CD2
330
133C
100
AcDbEntity
  8
0
 62
     4
100
AcDbMText
 10
637.1995100111623
 20
134.2529681143229
 30
0.0
 40
3.0
 41
0.0
 71
     5
 72
     1
  1
156
 11
0.0000000000000001
 21
1.0
 31
0.0
 73
     1
 44
1.0
1001
ACAD
1000
MTEXTBEGIN
1070
    73
1070
     1
1070
    44
1040
1.0
1070
    74
1070
     0
1000
MTEXTEND
  0
POINT
  5
1CD3
330
133C
100
AcDbEntity
  8
Defpoints
 62
     0
100
AcDbPoint
 10
674.271517243724
 20
175.84070909588
 30
0.0
  0
POINT
  5
1CD4
330
133C
100
AcDbEntity
  8
Defpoints
 62
     0
100
AcDbPoint
 10
655.3660726774962
 20
97.84070909587995
 30
0.0
  0
POINT
  5
1CD5
330
133C
100
AcDbEntity
  8
Defpoints
 62
     0
100
AcDbPoint
 10
639.3245100111624
 20
97.84070909587995
 30
0.0
  0
ENDBLK
  5
133E
330
133C
100
AcDbEntity
  8
0
100
AcDbBlockEnd
  0
BLOCK
  5
1355
330
1354
100
AcDbEntity
  8
0
100
AcDbBlockBegin
  2
*D4
 70
     1
 10
0.0
 20
0.0
 30
0.0
  3
*D4
  1

  0
LINE
  5
1CD6
330
1354
100
AcDbEntity
  8
0
 62
     0
370
    -2
100
AcDbLine
 10
704.271517243724
 20
129.3407090958799
 30
0.0
 11
704.271517243724
 21
190.4362817064705
 31
0.0
  0
LINE
  5
1CD7
330
1354
100
AcDbEntity
  8
0
 62
     0
370
    -2
100
AcDbLine
 10
644.2715172437241
 20
129.34070909588
 30
0.0
 11
644.2715172437241
 21
190.4362817064705
 31
0.0
  0
LINE
  5
1CD8
330
1354
100
AcDbEntity
  8
0
 62
     0
370
    -2
100
AcDbLine
 10
701.771517243724
 20
189.1862817064705
 30
0.0
 11
646.7715172437241
 21
189.1862817064705
 31
0.0
  0
INSERT
  5
1CD9
330
1354
100
AcDbEntity
  8
0
 62
     0
370
    -2
100
AcDbBlockReference
  2
_Open30
 10
704.271517243724
 20
189.1862817064705
 30
0.0
 41
2.5
 42
2.5
 43
2.5
  0
INSERT
  5
1CDA
330
1354
100
AcDbEntity
  8
0
 62
     0
370
    -2
100
AcDbBlockReference
  2
_Open30
 10
644.2715172437241
 20
189.1862817064705
 30
0.0
 41
2.5
 42
2.5
 43
2.5
 50
180.0
  0
MTEXT
  5
1CDB
330
1354
100
AcDbEntity
  8
0
 62
     4
100
AcDbMText
 10
674.5265800499116
 20
191.3112817064705
 30
0.0
 40
3.0
 41
0.0
 71
     5
 72
     1
  1
%%C120
 73
     1
 44
1.0
1001
ACAD
1000
MTEXTBEGIN
1070
    73
1070
     1
1070
    44
1040
1.0
1070
    74
1070
     0
1000
MTEXTEND
  0
POINT
  5
1CDC
330
1354
100
AcDbEntity
  8
Defpoints
 62
     0
100
AcDbPoint
 10
704.271517243724
 20
129.0907090958799
 30
0.0
  0
POINT
  5
1CDD
330
1354
100
AcDbEntity
  8
Defpoints
 62
     0
100
AcDbPoint
 10
644.2715172437241
 20
129.09070909588
 30
0.0
  0
POINT
  5
1CDE
330
1354
100
AcDbEntity
  8
Defpoints
 62
     0
100
AcDbPoint
 10
644.2715172437241
 20
189.1862817064705
 30
0.0
  0
ENDBLK
  5
1356
330
1354
100
AcDbEntity
  8
0
100
AcDbBlockEnd
  0
BLOCK
  5
136D
330
136C
100
AcDbEntity
  8
0
100
AcDbBlockBegin
  2
*D5
 70
     1
 10
0.0
 20
0.0
 30
0.0
  3
*D5
  1

  0
LINE
  5
1CDF
330
136C
100
AcDbEntity
  8
0
 62
     0
370
    -2
100
AcDbLine
 10
654.4882631150501
 20
33.50300533513952
 30
0.0
 11
631.0283498753444
 21
36.98520958022505
 31
0.0
  0
LINE
  5
1CE0
330
136C
100
AcDbEntity
  8
0
 62
     0
370
    -2
100
AcDbLine
 10
674.2715172437242
 20
30.56653533183703
 30
0.0
 11
656.9611698811343
 21
33.13594658472671
 31
0.0
  0
INSERT
  5
1CE1
330
136C
100
AcDbEntity
  8
0
 62
     0
370
    -2
100
AcDbBlockReference
  2
_Open30
 10
656.9611698811343
 20
33.13594658472671
 30
0.0
 41
2.5
 42
2.5
 43
2.5
 50
351.5571116616326
  0
MTEXT
  5
1CE2
330
136C
100
AcDbEntity
  8
0
 62
     4
100
AcDbMText
 10
635.9152273304512
 20
38.40812164313296
 30
0.0
 40
3.0
 41
0.0
 71
     5
 72
     1
  1
R35
 11
0.9891627064337097
 21
-0.1468235001651254
 31
0.0
 73
     1
 44
1.0
1001
ACAD
1000
MTEXTBEGIN
1070
    73
1070
     1
1070
    44
1040
1.0
1070
    74
1070
     0
1000
MTEXTEND
  0
POINT
  5
1CE3
330
136C
100
AcDbEntity
  8
Defpoints
 62
     0
100
AcDbPoint
 10
656.9611698811343
 20
33.13594658472671
 30
0.0
  0
POINT
  5
1CE4
330
136C
100
AcDbEntity
  8
Defpoints
 62
     0
100
AcDbPoint
 10
674.2715172437242
 20
30.56653533183703
 30
0.0
  0
ENDBLK
  5
136E
330
136C
100
AcDbEntity
  8
0
100
AcDbBlockEnd
  0
BLOCK
  5
137F
330
137E
100
AcDbEntity
  8
0
100
AcDbBlockBegin
  2
*D6
 70
     1
 10
0.0
 20
0.0
 30
0.0
  3
*D6
  1

  0
LINE
  5
1CE5
330
137E
100
AcDbEntity
  8
0
 62
     0
370
    -2
100
AcDbLine
 10
643.5866627211801
 20
12.85062631320186
 30
0.0
 11
634.7152275853026
 21
7.728700849404695
 31
0.0
  0
LINE
  5
1CE6
330
137E
100
AcDbEntity
  8
0
 62
     0
370
    -2
100
AcDbLine
 10
704.9563717662679
 20
12.85062631320181
 30
0.0
 11
713.8278069021454
 21
7.728700849404626
 31
0.0
  0
ARC
  5
1CE7
330
137E
100
AcDbEntity
  8
0
 62
     0
370
    -2
100
AcDbCircle
 10
674.271517243724
 20
30.56653533183696
 30
0.0
 40
44.42566896486485
100
AcDbArc
 50
213.2246752593579
 51
326.775324740642
  0
INSERT
  5
1CE8
330
137E
100
AcDbEntity
  8
0
 62
     0
370
    -2
100
AcDbBlockReference
  2
_Open30
 10
635.797759340033
 20
8.35370084940469
 30
0.0
 41
2.5
 42
2.5
 43
2.5
 50
121.6123376296788
  0
INSERT
  5
1CE9
330
137E
100
AcDbEntity
  8
0
 62
     0
370
    -2
100
AcDbBlockReference
  2
_Open30
 10
712.7452751474148
 20
8.353700849404622
 30
0.0
 41
2.5
 42
2.5
 43
2.5
 50
58.38766237032107
  0
MTEXT
  5
1CEA
330
137E
100
AcDbEntity
  8
0
 62
     4
100
AcDbMText
 10
674.1346858589227
 20
-11.73391232592683
 30
0.0
 40
3.0
 41
0.0
 71
     5
 72
     1
  1
120\U+00B0
 11
0.9999947682363783
 21
-0.0032347333540984
 31
0.0
 73
     1
 44
1.0
1001
ACAD
1000
MTEXTBEGIN
1070
    73
1070
     1
1070
    44
1040
1.0
1070
    74
1070
     0
1000
MTEXTEND
  0
POINT
  5
1CEB
330
137E
100
AcDbEntity
  8
Defpoints
 62
     0
100
AcDbPoint
 10
689.4659909104258
 20
-11.17993796792407
 30
0.0
  0
POINT
  5
1CEC
330
137E
100
AcDbEntity
  8
Defpoints
 62
     0
100
AcDbPoint
 10
674.271517243724
 20
30.56653533183696
 30
0.0
  0
POINT
  5
1CED
330
137E
100
AcDbEntity
  8
Defpoints
 62
     0
100
AcDbPoint
 10
674.271517243724
 20
30.56653533183696
 30
0.0
  0
POINT
  5
1CEE
330
137E
100
AcDbEntity
  8
Defpoints
 62
     0
100
AcDbPoint
 10
643.8031690721262
 20
12.97562631320186
 30
0.0
  0
POINT
  5
1CEF
330
137E
100
AcDbEntity
  8
Defpoints
 62
     0
100
AcDbPoint
 10
704.7398654153218
 20
12.97562631320181
 30
0.0
  0
ENDBLK
  5
1380
330
137E
100
AcDbEntity
  8
0
100
AcDbBlockEnd
  0
BLOCK
  5
139B
330
139A
100
AcDbEntity
  8
0
100
AcDbBlockBegin
  2
*D7
 70
     1
 10
0.0
 20
0.0
 30
0.0
  3
*D7
  1

  0
LINE
  5
1CF0
330
139A
100
AcDbEntity
  8
0
 62
     0
370
    -2
100
AcDbLine
 10
655.4735831351364
 20
55.06448001914529
 30
0.0
 11
652.8359429970021
 21
58.50191957158628
 31
0.0
  0
ARC
  5
1CF1
330
139A
100
AcDbEntity
  8
0
 62
     0
370
    -2
100
AcDbCircle
 10
674.271517243724
 20
30.56653533183644
 30
0.0
 40
33.96178120898154
100
AcDbArc
 50
94.21861881780491
 51
123.2813811821947
  0
INSERT
  5
1CF2
330
139A
100
AcDbEntity
  8
0
 62
     0
370
    -2
100
AcDbBlockReference
  2
_Open30
 10
674.271517243724
 20
64.528316540818
 30
0.0
 41
2.5
 42
2.5
 43
2.5
 50
2.109309408902451
  0
INSERT
  5
1CF3
330
139A
100
AcDbEntity
  8
0
 62
     0
370
    -2
100
AcDbBlockReference
  2
_Open30
 10
653.5968947832631
 20
57.5102278962222
 30
0.0
 41
2.5
 42
2.5
 43
2.5
 50
215.3906905910972
  0
MTEXT
  5
1CF4
330
139A
100
AcDbEntity
  8
0
 62
     4
100
AcDbMText
 10
663.1617848256837
 20
64.90062369346981
 30
0.0
 40
3.0
 41
0.0
 71
     5
 72
     1
  1
37.5\U+00B0
 11
0.9514311670747749
 21
0.3078615505689721
 31
0.0
 73
     1
 44
1.0
1001
ACAD
1000
MTEXTBEGIN
1070
    73
1070
     1
1070
    44
1040
1.0
1070
    74
1070
     0
1000
MTEXTEND
  0
POINT
  5
1CF5
330
139A
100
AcDbEntity
  8
Defpoints
 62
     0
100
AcDbPoint
 10
659.9186483035663
 20
61.3463621031714
 30
0.0
  0
POINT
  5
1CF6
330
139A
100
AcDbEntity
  8
Defpoints
 62
     0
100
AcDbPoint
 10
663.6181922360711
 20
44.45021878693362
 30
0.0
  0
POINT
  5
1CF7
330
139A
100
AcDbEntity
  8
Defpoints
 62
     0
100
AcDbPoint
 10
674.271517243724
 20
65.74835336910718
 30
0.0
  0
POINT
  5
1CF8
330
139A
100
AcDbEntity
  8
Defpoints
 62
     0
100
AcDbPoint
 10
674.271517243724
 20
-4.615282705433287
 30
0.0
  0
POINT
  5
1CF9
330
139A
100
AcDbEntity
  8
Defpoints
 62
     0
100
AcDbPoint
 10
655.6257734923885
 20
54.86614168407246
 30
0.0
  0
ENDBLK
  5
139C
330
139A
100
AcDbEntity
  8
0
100
AcDbBlockEnd
  0
BLOCK
  5
13B5
330
13B4
100
AcDbEntity
  8
0
100
AcDbBlockBegin
  2
*D8
 70
     1
 10
0.0
 20
0.0
 30
0.0
  3
*D8
  1

  0
LINE
  5
1CFA
330
13B4
100
AcDbEntity
  8
0
 62
     0
370
    -2
100
AcDbLine
 10
674.2715172437239
 20
65.99835336910723
 30
0.0
 11
674.271517243724
 21
76.57630713080163
 31
0.0
  0
LINE
  5
1CFB
330
13B4
100
AcDbEntity
  8
0
 62
     0
370
    -2
100
AcDbLine
 10
643.5866627211801
 20
12.85062631320187
 30
0.0
 11
634.4258860434957
 21
7.561649432354727
 31
0.0
  0
ARC
  5
1CFC
330
13B4
100
AcDbEntity
  8
0
 62
     0
370
    -2
100
AcDbCircle
 10
674.2715172437239
 20
30.56653533183692
 30
0.0
 40
44.75977179896466
100
AcDbArc
 50
93.20059885325759
 51
206.7994011467422
  0
INSERT
  5
1CFD
330
13B4
100
AcDbEntity
  8
0
 62
     0
370
    -2
100
AcDbBlockReference
  2
_Open30
 10
674.2715172437239
 20
75.32630713080158
 30
0.0
 41
2.5
 42
2.5
 43
2.5
 50
1.600299426628792
  0
INSERT
  5
1CFE
330
13B4
100
AcDbEntity
  8
0
 62
     0
370
    -2
100
AcDbBlockReference
  2
_Open30
 10
635.5084177982262
 20
8.186649432354727
 30
0.0
 41
2.5
 42
2.5
 43
2.5
 50
298.399700573371
  0
MTEXT
  5
1CFF
330
13B4
100
AcDbEntity
  8
0
 62
     4
100
AcDbMText
 10
633.8504423175889
 20
54.32192479311021
 30
0.0
 40
3.0
 41
0.0
 71
     5
 72
     1
  1
120\U+00B0
 11
0.5066760176018985
 21
0.8621365397586862
 31
0.0
 73
     1
 44
1.0
1001
ACAD
1000
MTEXTBEGIN
1070
    73
1070
     1
1070
    44
1040
1.0
1070
    74
1070
     0
1000
MTEXTEND
  0
POINT
  5
1D00
330
13B4
100
AcDbEntity
  8
Defpoints
 62
     0
100
AcDbPoint
 10
630.1917469530462
 20
38.33898813751489
 30
0.0
  0
POINT
  5
1D01
330
13B4
100
AcDbEntity
  8
Defpoints
 62
     0
100
AcDbPoint
 10
674.2715172437239
 20
65.74835336910723
 30
0.0
  0
POINT
  5
1D02
330
13B4
100
AcDbEntity
  8
Defpoints
 62
     0
100
AcDbPoint
 10
674.2715172437239
 20
30.56653533183692
 30
0.0
  0
POINT
  5
1D03
330
13B4
100
AcDbEntity
  8
Defpoints
 62
     0
100
AcDbPoint
 10
643.8031690721261
 20
12.97562631320187
 30
0.0
  0
POINT
  5
1D04
330
13B4
100
AcDbEntity
  8
Defpoints
 62
     0
100
AcDbPoint
 10
674.2715172437239
 20
-4.615282705433173
 30
0.0
  0
ENDBLK
  5
13B6
330
13B4
100
AcDbEntity
  8
0
100
AcDbBlockEnd
  0
BLOCK
  5
13DC
330
13DB
100
AcDbEntity
  8
0
100
AcDbBlockBegin
  2
*D9
 70
     1
 10
0.0
 20
0.0
 30
0.0
  3
*D9
  1

  0
LINE
  5
1D05
330
13DB
100
AcDbEntity
  8
0
 62
     0
370
    -2
100
AcDbLine
 10
690.7269618099514
 20
90.59070909587996
 30
0.0
 11
704.6861187010048
 21
90.59070909587996
 31
0.0
  0
LINE
  5
1D06
330
13DB
100
AcDbEntity
  8
0
 62
     0
370
    -2
100
AcDbLine
 10
693.4269618099517
 20
97.84070909587995
 30
0.0
 11
704.6861187010048
 21
97.84070909587995
 31
0.0
  0
LINE
  5
1D07
330
13DB
100
AcDbEntity
  8
0
 62
     0
370
    -2
100
AcDbLine
 10
703.4361187010048
 20
100.3407090958799
 30
0.0
 11
703.4361187010048
 21
102.8407090958799
 31
0.0
  0
LINE
  5
1D08
330
13DB
100
AcDbEntity
  8
0
 62
     0
370
    -2
100
AcDbLine
 10
703.4361187010048
 20
88.09070909587996
 30
0.0
 11
703.4361187010048
 21
75.34070909587993
 31
0.0
  0
LINE
  5
1D09
330
13DB
100
AcDbEntity
  8
0
 62
     0
370
    -2
100
AcDbLine
 10
703.4361187010048
 20
97.84070909587995
 30
0.0
 11
703.4361187010048
 21
90.59070909587996
 31
0.0
  0
INSERT
  5
1D0A
330
13DB
100
AcDbEntity
  8
0
 62
     0
370
    -2
100
AcDbBlockReference
  2
_Open30
 10
703.4361187010048
 20
97.84070909587995
 30
0.0
 41
2.5
 42
2.5
 43
2.5
 50
270.0
  0
INSERT
  5
1D0B
330
13DB
100
AcDbEntity
  8
0
 62
     0
370
    -2
100
AcDbBlockReference
  2
_Open30
 10
703.4361187010048
 20
90.59070909587996
 30
0.0
 41
2.5
 42
2.5
 43
2.5
 50
90.0
  0
MTEXT
  5
1D0C
330
13DB
100
AcDbEntity
  8
0
 62
     4
100
AcDbMText
 10
698.8111187010048
 20
80.46570909588004
 30
0.0
 40
3.0
 41
0.0
 71
     5
 72
     1
  1
14.5\P(M5)
 11
0.0000000000000001
 21
1.0
 31
0.0
 73
     1
 44
1.0
1001
ACAD
1000
MTEXTBEGIN
1070
    73
1070
     1
1070
    44
1040
1.0
1070
    74
1070
     0
1000
MTEXTEND
  0
POINT
  5
1D0D
330
13DB
100
AcDbEntity
  8
Defpoints
 62
     0
100
AcDbPoint
 10
690.4769618099513
 20
90.59070909587996
 30
0.0
  0
POINT
  5
1D0E
330
13DB
100
AcDbEntity
  8
Defpoints
 62
     0
100
AcDbPoint
 10
693.1769618099517
 20
97.84070909587995
 30
0.0
  0
POINT
  5
1D0F
330
13DB
100
AcDbEntity
  8
Defpoints
 62
     0
100
AcDbPoint
 10
703.4361187010048
 20
97.84070909587995
 30
0.0
  0
ENDBLK
  5
13DD
330
13DB
100
AcDbEntity
  8
0
100
AcDbBlockEnd
  0
BLOCK
  5
1935
330
1934
100
AcDbEntity
  8
0
100
AcDbBlockBegin
  2
*D10
 70
     1
 10
0.0
 20
0.0
 30
0.0
  3
*D10
  1

  0
LINE
  5
19BE
330
1934
100
AcDbEntity
  8
0
 62
     0
370
    -2
100
AcDbLine
 10
1077.914307584874
 20
189.7936919513815
 30
0.0
 11
1077.914307584874
 21
186.8840605293726
 31
0.0
  0
LINE
  5
19BF
330
1934
100
AcDbEntity
  8
0
 62
     0
370
    -2
100
AcDbLine
 10
1075.457120530754
 20
189.7936919513815
 30
0.0
 11
1075.457120530754
 21
186.8840605293726
 31
0.0
  0
LINE
  5
19C0
330
1934
100
AcDbEntity
  8
0
 62
     0
370
    -2
100
AcDbLine
 10
1080.414307584875
 20
188.1340605293726
 30
0.0
 11
1082.914307584874
 21
188.1340605293726
 31
0.0
  0
LINE
  5
19C1
330
1934
100
AcDbEntity
  8
0
 62
     0
370
    -2
100
AcDbLine
 10
1072.957120530753
 20
188.1340605293726
 30
0.0
 11
1060.207120530754
 21
188.1340605293726
 31
0.0
  0
LINE
  5
19C2
330
1934
100
AcDbEntity
  8
0
 62
     0
370
    -2
100
AcDbLine
 10
1077.914307584874
 20
188.1340605293726
 30
0.0
 11
1075.457120530754
 21
188.1340605293726
 31
0.0
  0
INSERT
  5
19C3
330
1934
100
AcDbEntity
  8
0
 62
     0
370
    -2
100
AcDbBlockReference
  2
_Open30
 10
1077.914307584874
 20
188.1340605293726
 30
0.0
 41
2.5
 42
2.5
 43
2.5
 50
180.0
  0
INSERT
  5
19C4
330
1934
100
AcDbEntity
  8
0
 62
     0
370
    -2
100
AcDbBlockReference
  2
_Open30
 10
1075.457120530754
 20
188.1340605293726
 30
0.0
 41
2.5
 42
2.5
 43
2.5
  0
MTEXT
  5
19C5
330
1934
100
AcDbEntity
  8
0
 62
     4
100
AcDbMText
 10
1065.332120530753
 20
190.2590605293726
 30
0.0
 40
3.0
 41
0.0
 71
     5
 72
     1
  1
2.46
 73
     1
 44
1.0
1001
ACAD
1000
MTEXTBEGIN
1070
    73
1070
     1
1070
    44
1040
1.0
1070
    74
1070
     0
1000
MTEXTEND
  0
POINT
  5
19C6
330
1934
100
AcDbEntity
  8
Defpoints
 62
     0
100
AcDbPoint
 10
1077.914307584874
 20
190.0436919513815
 30
0.0
  0
POINT
  5
19C7
330
1934
100
AcDbEntity
  8
Defpoints
 62
     0
100
AcDbPoint
 10
1075.457120530754
 20
190.0436919513815
 30
0.0
  0
POINT
  5
19C8
330
1934
100
AcDbEntity
  8
Defpoints
 62
     0
100
AcDbPoint
 10
1075.457120530754
 20
188.1340605293726
 30
0.0
  0
ENDBLK
  5
1936
330
1934
100
AcDbEntity
  8
0
100
AcDbBlockEnd
  0
BLOCK
  5
1943
330
1942
100
AcDbEntity
  8
0
100
AcDbBlockBegin
  2
*D11
 70
     1
 10
0.0
 20
0.0
 30
0.0
  3
*D11
  1

  0
LINE
  5
19C9
330
1942
100
AcDbEntity
  8
0
 62
     0
370
    -2
100
AcDbLine
 10
1079.552432490948
 20
184.337602378619
 30
0.0
 11
1079.552432490948
 21
181.7917103091558
 31
0.0
  0
LINE
  5
19CA
330
1942
100
AcDbEntity
  8
0
 62
     0
370
    -2
100
AcDbLine
 10
1076.458196692805
 20
184.337602378619
 30
0.0
 11
1076.458196692805
 21
181.7917103091558
 31
0.0
  0
LINE
  5
19CB
330
1942
100
AcDbEntity
  8
0
 62
     0
370
    -2
100
AcDbLine
 10
1082.052432490948
 20
183.0417103091558
 30
0.0
 11
1084.552432490948
 21
183.0417103091558
 31
0.0
  0
LINE
  5
19CC
330
1942
100
AcDbEntity
  8
0
 62
     0
370
    -2
100
AcDbLine
 10
1073.958196692805
 20
183.0417103091558
 30
0.0
 11
1060.124863359471
 21
183.0417103091558
 31
0.0
  0
LINE
  5
19CD
330
1942
100
AcDbEntity
  8
0
 62
     0
370
    -2
100
AcDbLine
 10
1079.552432490948
 20
183.0417103091558
 30
0.0
 11
1076.458196692805
 21
183.0417103091558
 31
0.0
  0
INSERT
  5
19CE
330
1942
100
AcDbEntity
  8
0
 62
     0
370
    -2
100
AcDbBlockReference
  2
_Open30
 10
1079.552432490948
 20
183.0417103091558
 30
0.0
 41
2.5
 42
2.5
 43
2.5
 50
180.0
  0
INSERT
  5
19CF
330
1942
100
AcDbEntity
  8
0
 62
     0
370
    -2
100
AcDbBlockReference
  2
_Open30
 10
1076.458196692805
 20
183.0417103091558
 30
0.0
 41
2.5
 42
2.5
 43
2.5
  0
MTEXT
  5
19D0
330
1942
100
AcDbEntity
  8
0
 62
     4
100
AcDbMText
 10
1065.333196692805
 20
184.9167103091558
 30
0.0
 40
2.5
 41
0.0
 71
     5
 72
     1
  1
15.47
  7
高2.5
 73
     1
 44
1.0
1001
ACAD
1000
MTEXTBEGIN
1070
    73
1070
     1
1070
    44
1040
1.0
1070
    74
1070
     0
1000
MTEXTEND
  0
POINT
  5
19D1
330
1942
100
AcDbEntity
  8
Defpoints
 62
     0
100
AcDbPoint
 10
1079.552432490948
 20
184.5876023786192
 30
0.0
  0
POINT
  5
19D2
330
1942
100
AcDbEntity
  8
Defpoints
 62
     0
100
AcDbPoint
 10
1076.458196692805
 20
184.5876023786192
 30
0.0
  0
POINT
  5
19D3
330
1942
100
AcDbEntity
  8
Defpoints
 62
     0
100
AcDbPoint
 10
1076.458196692805
 20
183.0417103091558
 30
0.0
  0
ENDBLK
  5
1944
330
1942
100
AcDbEntity
  8
0
100
AcDbBlockEnd
  0
BLOCK
  5
1951
330
1950
100
AcDbEntity
  8
0
100
AcDbBlockBegin
  2
*D12
 70
     1
 10
0.0
 20
0.0
 30
0.0
  3
*D12
  1

  0
LINE
  5
19D4
330
1950
100
AcDbEntity
  8
0
 62
     0
370
    -2
100
AcDbLine
 10
1081.281564099033
 20
178.8815126627727
 30
0.0
 11
1081.281564099033
 21
176.6084250004054
 31
0.0
  0
LINE
  5
19D5
330
1950
100
AcDbEntity
  8
0
 62
     0
370
    -2
100
AcDbLine
 10
1077.277259145841
 20
178.8815126627727
 30
0.0
 11
1077.277259145841
 21
176.6084250004054
 31
0.0
  0
LINE
  5
19D6
330
1950
100
AcDbEntity
  8
0
 62
     0
370
    -2
100
AcDbLine
 10
1083.781564099033
 20
177.8584250004054
 30
0.0
 11
1086.281564099033
 21
177.8584250004054
 31
0.0
  0
LINE
  5
19D7
330
1950
100
AcDbEntity
  8
0
 62
     0
370
    -2
100
AcDbLine
 10
1074.777259145841
 20
177.8584250004054
 30
0.0
 11
1063.027259145841
 21
177.8584250004054
 31
0.0
  0
LINE
  5
19D8
330
1950
100
AcDbEntity
  8
0
 62
     0
370
    -2
100
AcDbLine
 10
1081.281564099033
 20
177.8584250004054
 30
0.0
 11
1077.277259145841
 21
177.8584250004054
 31
0.0
  0
INSERT
  5
19D9
330
1950
100
AcDbEntity
  8
0
 62
     0
370
    -2
100
AcDbBlockReference
  2
_Open30
 10
1081.281564099033
 20
177.8584250004054
 30
0.0
 41
2.5
 42
2.5
 43
2.5
 50
180.0
  0
INSERT
  5
19DA
330
1950
100
AcDbEntity
  8
0
 62
     0
370
    -2
100
AcDbBlockReference
  2
_Open30
 10
1077.277259145841
 20
177.8584250004054
 30
0.0
 41
2.5
 42
2.5
 43
2.5
  0
MTEXT
  5
19DB
330
1950
100
AcDbEntity
  8
0
 62
     4
100
AcDbMText
 10
1067.652259145841
 20
180.0834250004054
 30
0.0
 40
3.2
 41
0.0
 71
     5
 72
     1
  1
8.01
  7
高3.2
 73
     1
 44
1.0
1001
ACAD
1000
MTEXTBEGIN
1070
    73
1070
     1
1070
    44
1040
1.0
1070
    74
1070
     0
1000
MTEXTEND
  0
POINT
  5
19DC
330
1950
100
AcDbEntity
  8
Defpoints
 62
     0
100
AcDbPoint
 10
1081.281564099033
 20
179.1315126627726
 30
0.0
  0
POINT
  5
19DD
330
1950
100
AcDbEntity
  8
Defpoints
 62
     0
100
AcDbPoint
 10
1077.277259145841
 20
179.1315126627726
 30
0.0
  0
POINT
  5
19DE
330
1950
100
AcDbEntity
  8
Defpoints
 62
     0
100
AcDbPoint
 10
1077.277259145841
 20
177.8584250004054
 30
0.0
  0
ENDBLK
  5
1952
330
1950
100
AcDbEntity
  8
0
100
AcDbBlockEnd
  0
BLOCK
  5
195F
330
195E
100
AcDbEntity
  8
0
100
AcDbBlockBegin
  2
*D13
 70
     1
 10
0.0
 20
0.0
 30
0.0
  3
*D13
  1

  0
LINE
  5
19DF
330
195E
100
AcDbEntity
  8
0
 62
     0
370
    -2
100
AcDbLine
 10
1081.190557397021
 20
173.6072926947411
 30
0.0
 11
1081.190557397021
 21
171.7888791872847
 31
0.0
  0
LINE
  5
19E0
330
195E
100
AcDbEntity
  8
0
 62
     0
370
    -2
100
AcDbLine
 10
1076.458196692805
 20
173.6072926947411
 30
0.0
 11
1076.458196692805
 21
171.7888791872847
 31
0.0
  0
LINE
  5
19E1
330
195E
100
AcDbEntity
  8
0
 62
     0
370
    -2
100
AcDbLine
 10
1083.690557397021
 20
173.0388791872847
 30
0.0
 11
1086.190557397021
 21
173.0388791872847
 31
0.0
  0
LINE
  5
19E2
330
195E
100
AcDbEntity
  8
0
 62
     0
370
    -2
100
AcDbLine
 10
1073.958196692805
 20
173.0388791872847
 30
0.0
 11
1052.208196692805
 21
173.0388791872847
 31
0.0
  0
LINE
  5
19E3
330
195E
100
AcDbEntity
  8
0
 62
     0
370
    -2
100
AcDbLine
 10
1081.190557397021
 20
173.0388791872847
 30
0.0
 11
1076.458196692805
 21
173.0388791872847
 31
0.0
  0
INSERT
  5
19E4
330
195E
100
AcDbEntity
  8
0
 62
     0
370
    -2
100
AcDbBlockReference
  2
_Open30
 10
1081.190557397021
 20
173.0388791872847
 30
0.0
 41
2.5
 42
2.5
 43
2.5
 50
180.0
  0
INSERT
  5
19E5
330
195E
100
AcDbEntity
  8
0
 62
     0
370
    -2
100
AcDbBlockReference
  2
_Open30
 10
1076.458196692805
 20
173.0388791872847
 30
0.0
 41
2.5
 42
2.5
 43
2.5
  0
MTEXT
  5
19E6
330
195E
100
AcDbEntity
  8
0
 62
     4
100
AcDbMText
 10
1061.833196692805
 20
175.9138791872847
 30
0.0
 40
4.5
 41
0.0
 71
     5
 72
     1
  1
47.32
  7
高4.5
 73
     1
 44
1.0
1001
ACAD
1000
MTEXTBEGIN
1070
    73
1070
     1
1070
    44
1040
1.0
1070
    74
1070
     0
1000
MTEXTEND
  0
POINT
  5
19E7
330
195E
100
AcDbEntity
  8
Defpoints
 62
     0
100
AcDbPoint
 10
1081.190557397021
 20
173.8572926947411
 30
0.0
  0
POINT
  5
19E8
330
195E
100
AcDbEntity
  8
Defpoints
 62
     0
100
AcDbPoint
 10
1076.458196692805
 20
173.8572926947411
 30
0.0
  0
POINT
  5
19E9
330
195E
100
AcDbEntity
  8
Defpoints
 62
     0
100
AcDbPoint
 10
1076.458196692805
 20
173.0388791872847
 30
0.0
  0
ENDBLK
  5
1960
330
195E
100
AcDbEntity
  8
0
100
AcDbBlockEnd
  0
BLOCK
  5
196D
330
196C
100
AcDbEntity
  8
0
100
AcDbBlockBegin
  2
*D14
 70
     1
 10
0.0
 20
0.0
 30
0.0
  3
*D14
  1

  0
LINE
  5
19EA
330
196C
100
AcDbEntity
  8
0
 62
     0
370
    -2
100
AcDbLine
 10
1102.668193665028
 20
189.7936919513815
 30
0.0
 11
1102.668193665028
 21
186.8840605293726
 31
0.0
  0
LINE
  5
19EB
330
196C
100
AcDbEntity
  8
0
 62
     0
370
    -2
100
AcDbLine
 10
1100.211006610908
 20
189.7936919513815
 30
0.0
 11
1100.211006610908
 21
186.8840605293726
 31
0.0
  0
LINE
  5
19EC
330
196C
100
AcDbEntity
  8
0
 62
     0
370
    -2
100
AcDbLine
 10
1105.168193665028
 20
188.1340605293726
 30
0.0
 11
1107.668193665028
 21
188.1340605293726
 31
0.0
  0
LINE
  5
19ED
330
196C
100
AcDbEntity
  8
0
 62
     0
370
    -2
100
AcDbLine
 10
1097.711006610908
 20
188.1340605293726
 30
0.0
 11
1076.111006610908
 21
188.1340605293726
 31
0.0
  0
LINE
  5
19EE
330
196C
100
AcDbEntity
  8
0
 62
     0
370
    -2
100
AcDbLine
 10
1102.668193665028
 20
188.1340605293726
 30
0.0
 11
1100.211006610908
 21
188.1340605293726
 31
0.0
  0
INSERT
  5
19EF
330
196C
100
AcDbEntity
  8
0
 62
     0
370
    -2
100
AcDbBlockReference
  2
_Open30
 10
1102.668193665028
 20
188.1340605293726
 30
0.0
 41
2.5
 42
2.5
 43
2.5
 50
180.0
  0
INSERT
  5
19F0
330
196C
100
AcDbEntity
  8
0
 62
     0
370
    -2
100
AcDbBlockReference
  2
_Open30
 10
1100.211006610908
 20
188.1340605293726
 30
0.0
 41
2.5
 42
2.5
 43
2.5
  0
MTEXT
  5
19F1
330
196C
100
AcDbEntity
  8
0
 62
     4
100
AcDbMText
 10
1085.661006610908
 20
191.9090605293727
 30
0.0
 40
6.299999999999998
 41
0.0
 71
     5
 72
     1
  1
0.25
  7
高6.3
 73
     1
 44
1.0
1001
ACAD
1000
MTEXTBEGIN
1070
    73
1070
     1
1070
    44
1040
1.0
1070
    74
1070
     0
1000
MTEXTEND
  0
POINT
  5
19F2
330
196C
100
AcDbEntity
  8
Defpoints
 62
     0
100
AcDbPoint
 10
1102.668193665028
 20
190.0436919513815
 30
0.0
  0
POINT
  5
19F3
330
196C
100
AcDbEntity
  8
Defpoints
 62
     0
100
AcDbPoint
 10
1100.211006610908
 20
190.0436919513815
 30
0.0
  0
POINT
  5
19F4
330
196C
100
AcDbEntity
  8
Defpoints
 62
     0
100
AcDbPoint
 10
1100.211006610908
 20
188.1340605293726
 30
0.0
  0
ENDBLK
  5
196E
330
196C
100
AcDbEntity
  8
0
100
AcDbBlockEnd
  0
BLOCK
  5
197B
330
197A
100
AcDbEntity
  8
0
100
AcDbBlockBegin
  2
*D15
 70
     1
 10
0.0
 20
0.0
 30
0.0
  3
*D15
  1

  0
LINE
  5
19F5
330
197A
100
AcDbEntity
  8
0
 62
     0
370
    -2
100
AcDbLine
 10
1104.306318571101
 20
184.337602378619
 30
0.0
 11
1104.306318571101
 21
181.7917103091558
 31
0.0
  0
LINE
  5
19F6
330
197A
100
AcDbEntity
  8
0
 62
     0
370
    -2
100
AcDbLine
 10
1101.212082772959
 20
184.337602378619
 30
0.0
 11
1101.212082772959
 21
181.7917103091558
 31
0.0
  0
LINE
  5
19F7
330
197A
100
AcDbEntity
  8
0
 62
     0
370
    -2
100
AcDbLine
 10
1106.806318571101
 20
183.0417103091558
 30
0.0
 11
1109.306318571102
 21
183.0417103091558
 31
0.0
  0
LINE
  5
19F8
330
197A
100
AcDbEntity
  8
0
 62
     0
370
    -2
100
AcDbLine
 10
1098.712082772959
 20
183.0417103091558
 30
0.0
 11
1086.712082772958
 21
183.0417103091558
 31
0.0
  0
LINE
  5
19F9
330
197A
100
AcDbEntity
  8
0
 62
     0
370
    -2
100
AcDbLine
 10
1104.306318571101
 20
183.0417103091558
 30
0.0
 11
1101.212082772959
 21
183.0417103091558
 31
0.0
  0
INSERT
  5
19FA
330
197A
100
AcDbEntity
  8
0
 62
     0
370
    -2
100
AcDbBlockReference
  2
_Open30
 10
1104.306318571101
 20
183.0417103091558
 30
0.0
 41
2.5
 42
2.5
 43
2.5
 50
180.0
  0
INSERT
  5
19FB
330
197A
100
AcDbEntity
  8
0
 62
     0
370
    -2
100
AcDbBlockReference
  2
_Open30
 10
1101.212082772959
 20
183.0417103091558
 30
0.0
 41
2.5
 42
2.5
 43
2.5
  0
MTEXT
  5
19FC
330
197A
100
AcDbEntity
  8
0
 62
     4
100
AcDbMText
 10
1091.337082772958
 20
185.1667103091558
 30
0.0
 40
3.0
 41
0.0
 71
     5
 72
     1
  1
1.55
 73
     1
 44
1.0
1001
ACAD
1000
MTEXTBEGIN
1070
    73
1070
     1
1070
    44
1040
1.0
1070
    74
1070
     0
1000
MTEXTEND
  0
POINT
  5
19FD
330
197A
100
AcDbEntity
  8
Defpoints
 62
     0
100
AcDbPoint
 10
1104.306318571101
 20
184.5876023786192
 30
0.0
  0
POINT
  5
19FE
330
197A
100
AcDbEntity
  8
Defpoints
 62
     0
100
AcDbPoint
 10
1101.212082772959
 20
184.5876023786192
 30
0.0
  0
POINT
  5
19FF
330
197A
100
AcDbEntity
  8
Defpoints
 62
     0
100
AcDbPoint
 10
1101.212082772959
 20
183.0417103091558
 30
0.0
  0
ENDBLK
  5
197C
330
197A
100
AcDbEntity
  8
0
100
AcDbBlockEnd
  0
BLOCK
  5
1989
330
1988
100
AcDbEntity
  8
0
100
AcDbBlockBegin
  2
*D16
 70
     1
 10
0.0
 20
0.0
 30
0.0
  3
*D16
  1

  0
LINE
  5
1A00
330
1988
100
AcDbEntity
  8
0
 62
     0
370
    -2
100
AcDbLine
 10
1106.035450179187
 20
178.8815126627727
 30
0.0
 11
1106.035450179187
 21
176.6084250004054
 31
0.0
  0
LINE
  5
1A01
330
1988
100
AcDbEntity
  8
0
 62
     0
370
    -2
100
AcDbLine
 10
1102.031145225995
 20
178.8815126627727
 30
0.0
 11
1102.031145225995
 21
176.6084250004054
 31
0.0
  0
LINE
  5
1A02
330
1988
100
AcDbEntity
  8
0
 62
     0
370
    -2
100
AcDbLine
 10
1108.535450179187
 20
177.8584250004054
 30
0.0
 11
1111.035450179187
 21
177.8584250004054
 31
0.0
  0
LINE
  5
1A03
330
1988
100
AcDbEntity
  8
0
 62
     0
370
    -2
100
AcDbLine
 10
1099.531145225995
 20
177.8584250004054
 30
0.0
 11
1091.197811892661
 21
177.8584250004054
 31
0.0
  0
LINE
  5
1A04
330
1988
100
AcDbEntity
  8
0
 62
     0
370
    -2
100
AcDbLine
 10
1106.035450179187
 20
177.8584250004054
 30
0.0
 11
1102.031145225995
 21
177.8584250004054
 31
0.0
  0
INSERT
  5
1A05
330
1988
100
AcDbEntity
  8
0
 62
     0
370
    -2
100
AcDbBlockReference
  2
_Open30
 10
1106.035450179187
 20
177.8584250004054
 30
0.0
 41
2.5
 42
2.5
 43
2.5
 50
180.0
  0
INSERT
  5
1A06
330
1988
100
AcDbEntity
  8
0
 62
     0
370
    -2
100
AcDbBlockReference
  2
_Open30
 10
1102.031145225995
 20
177.8584250004054
 30
0.0
 41
2.5
 42
2.5
 43
2.5
  0
MTEXT
  5
1A07
330
1988
100
AcDbEntity
  8
0
 62
     4
100
AcDbMText
 10
1093.656145225995
 20
179.4834250004054
 30
0.0
 40
2.0
 41
0.0
 71
     5
 72
     1
  1
0.8
  7
高2
 73
     1
 44
1.0
1001
ACAD
1000
MTEXTBEGIN
1070
    73
1070
     1
1070
    44
1040
1.0
1070
    74
1070
     0
1000
MTEXTEND
  0
POINT
  5
1A08
330
1988
100
AcDbEntity
  8
Defpoints
 62
     0
100
AcDbPoint
 10
1106.035450179187
 20
179.1315126627726
 30
0.0
  0
POINT
  5
1A09
330
1988
100
AcDbEntity
  8
Defpoints
 62
     0
100
AcDbPoint
 10
1102.031145225995
 20
179.1315126627726
 30
0.0
  0
POINT
  5
1A0A
330
1988
100
AcDbEntity
  8
Defpoints
 62
     0
100
AcDbPoint
 10
1102.031145225995
 20
177.8584250004054
 30
0.0
  0
ENDBLK
  5
198A
330
1988
100
AcDbEntity
  8
0
100
AcDbBlockEnd
  0
BLOCK
  5
1997
330
1996
100
AcDbEntity
  8
0
100
AcDbBlockBegin
  2
*D17
 70
     1
 10
0.0
 20
0.0
 30
0.0
  3
*D17
  1

  0
LINE
  5
1A0B
330
1996
100
AcDbEntity
  8
0
 62
     0
370
    -2
100
AcDbLine
 10
1105.944443477175
 20
173.6072926947411
 30
0.0
 11
1105.944443477175
 21
171.7888791872847
 31
0.0
  0
LINE
  5
1A0C
330
1996
100
AcDbEntity
  8
0
 62
     0
370
    -2
100
AcDbLine
 10
1101.212082772959
 20
173.6072926947411
 30
0.0
 11
1101.212082772959
 21
171.7888791872847
 31
0.0
  0
LINE
  5
1A0D
330
1996
100
AcDbEntity
  8
0
 62
     0
370
    -2
100
AcDbLine
 10
1108.444443477175
 20
173.0388791872847
 30
0.0
 11
1110.944443477175
 21
173.0388791872847
 31
0.0
  0
LINE
  5
1A0E
330
1996
100
AcDbEntity
  8
0
 62
     0
370
    -2
100
AcDbLine
 10
1098.712082772959
 20
173.0388791872847
 30
0.0
 11
1083.962082772958
 21
173.0388791872847
 31
0.0
  0
LINE
  5
1A0F
330
1996
100
AcDbEntity
  8
0
 62
     0
370
    -2
100
AcDbLine
 10
1105.944443477175
 20
173.0388791872847
 30
0.0
 11
1101.212082772959
 21
173.0388791872847
 31
0.0
  0
INSERT
  5
1A10
330
1996
100
AcDbEntity
  8
0
 62
     0
370
    -2
100
AcDbBlockReference
  2
_Open30
 10
1105.944443477175
 20
173.0388791872847
 30
0.0
 41
2.5
 42
2.5
 43
2.5
 50
180.0
  0
INSERT
  5
1A11
330
1996
100
AcDbEntity
  8
0
 62
     0
370
    -2
100
AcDbBlockReference
  2
_Open30
 10
1101.212082772959
 20
173.0388791872847
 30
0.0
 41
2.5
 42
2.5
 43
2.5
  0
MTEXT
  5
1A12
330
1996
100
AcDbEntity
  8
0
 62
     4
100
AcDbMText
 10
1090.087082772958
 20
175.1638791872847
 30
0.0
 40
3.0
 41
0.0
 71
     5
 72
     1
  1
18.93
 73
     1
 44
1.0
1001
ACAD
1000
MTEXTBEGIN
1070
    73
1070
     1
1070
    44
1040
1.0
1070
    74
1070
     0
1000
MTEXTEND
  0
POINT
  5
1A13
330
1996
100
AcDbEntity
  8
Defpoints
 62
     0
100
AcDbPoint
 10
1105.944443477175
 20
173.8572926947411
 30
0.0
  0
POINT
  5
1A14
330
1996
100
AcDbEntity
  8
Defpoints
 62
     0
100
AcDbPoint
 10
1101.212082772959
 20
173.8572926947411
 30
0.0
  0
POINT
  5
1A15
330
1996
100
AcDbEntity
  8
Defpoints
 62
     0
100
AcDbPoint
 10
1101.212082772959
 20
173.0388791872847
 30
0.0
  0
ENDBLK
  5
1998
330
1996
100
AcDbEntity
  8
0
100
AcDbBlockEnd
  0
BLOCK
  5
19A5
330
19A4
100
AcDbEntity
  8
0
100
AcDbBlockBegin
  2
*D18
 70
     1
 10
0.0
 20
0.0
 30
0.0
  3
*D18
  1

  0
LINE
  5
1A16
330
19A4
100
AcDbEntity
  8
0
 62
     0
370
    -2
100
AcDbLine
 10
1103.140016626036
 20
168.5514524881513
 30
0.0
 11
1103.140016626036
 21
166.2415314112758
 31
0.0
  0
LINE
  5
1A17
330
19A4
100
AcDbEntity
  8
0
 62
     0
370
    -2
100
AcDbLine
 10
1098.551341423888
 20
168.5514524881513
 30
0.0
 11
1098.551341423888
 21
166.2415314112758
 31
0.0
  0
LINE
  5
1A18
330
19A4
100
AcDbEntity
  8
0
 62
     0
370
    -2
100
AcDbLine
 10
1105.640016626036
 20
167.4915314112758
 30
0.0
 11
1108.140016626036
 21
167.4915314112758
 31
0.0
  0
LINE
  5
1A19
330
19A4
100
AcDbEntity
  8
0
 62
     0
370
    -2
100
AcDbLine
 10
1096.051341423888
 20
167.4915314112758
 30
0.0
 11
1081.301341423888
 21
167.4915314112758
 31
0.0
  0
LINE
  5
1A1A
330
19A4
100
AcDbEntity
  8
0
 62
     0
370
    -2
100
AcDbLine
 10
1103.140016626036
 20
167.4915314112758
 30
0.0
 11
1098.551341423888
 21
167.4915314112758
 31
0.0
  0
INSERT
  5
1A1B
330
19A4
100
AcDbEntity
  8
0
 62
     0
370
    -2
100
AcDbBlockReference
  2
_Open30
 10
1103.140016626036
 20
167.4915314112758
 30
0.0
 41
2.5
 42
2.5
 43
2.5
 50
180.0
  0
INSERT
  5
1A1C
330
19A4
100
AcDbEntity
  8
0
 62
     0
370
    -2
100
AcDbBlockReference
  2
_Open30
 10
1098.551341423888
 20
167.4915314112758
 30
0.0
 41
2.5
 42
2.5
 43
2.5
  0
MTEXT
  5
1A1D
330
19A4
100
AcDbEntity
  8
0
 62
     4
100
AcDbMText
 10
1087.426341423888
 20
169.6165314112758
 30
0.0
 40
3.0
 41
0.0
 71
     5
 72
     1
  1
13.77
 73
     1
 44
1.0
1001
ACAD
1000
MTEXTBEGIN
1070
    73
1070
     1
1070
    44
1040
1.0
1070
    74
1070
     0
1000
MTEXTEND
  0
POINT
  5
1A1E
330
19A4
100
AcDbEntity
  8
Defpoints
 62
     0
100
AcDbPoint
 10
1103.140016626036
 20
168.8014524881513
 30
0.0
  0
POINT
  5
1A1F
330
19A4
100
AcDbEntity
  8
Defpoints
 62
     0
100
AcDbPoint
 10
1098.551341423888
 20
168.8014524881513
 30
0.0
  0
POINT
  5
1A20
330
19A4
100
AcDbEntity
  8
Defpoints
 62
     0
100
AcDbPoint
 10
1098.551341423888
 20
167.4915314112758
 30
0.0
  0
ENDBLK
  5
19A6
330
19A4
100
AcDbEntity
  8
0
100
AcDbBlockEnd
  0
BLOCK
  5
19B3
330
19B2
100
AcDbEntity
  8
0
100
AcDbBlockBegin
  2
*D19
 70
     1
 10
0.0
 20
0.0
 30
0.0
  3
*D19
  1

  0
LINE
  5
1A21
330
19B2
100
AcDbEntity
  8
0
 62
     0
370
    -2
100
AcDbLine
 10
1096.043733792886
 20
199.4809438064256
 30
0.0
 11
1096.043733792886
 21
206.8774772843634
 31
0.0
  0
LINE
  5
1A22
330
19B2
100
AcDbEntity
  8
0
 62
     0
370
    -2
100
AcDbLine
 10
1086.105259423396
 20
199.4809438064256
 30
0.0
 11
1086.105259423396
 21
206.8774772843634
 31
0.0
  0
LINE
  5
1A23
330
19B2
100
AcDbEntity
  8
0
 62
     0
370
    -2
100
AcDbLine
 10
1093.543733792886
 20
205.6274772843634
 30
0.0
 11
1088.605259423396
 21
205.6274772843634
 31
0.0
  0
INSERT
  5
1A24
330
19B2
100
AcDbEntity
  8
0
 62
     0
370
    -2
100
AcDbBlockReference
  2
_Open30
 10
1096.043733792886
 20
205.6274772843634
 30
0.0
 41
2.5
 42
2.5
 43
2.5
  0
INSERT
  5
1A25
330
19B2
100
AcDbEntity
  8
0
 62
     0
370
    -2
100
AcDbBlockReference
  2
_Open30
 10
1086.105259423396
 20
205.6274772843634
 30
0.0
 41
2.5
 42
2.5
 43
2.5
 50
180.0
  0
MTEXT
  5
1A26
330
19B2
100
AcDbEntity
  8
0
 62
     4
100
AcDbMText
 10
1091.074496608141
 20
208.7024772843634
 30
0.0
 40
3.0
 41
0.0
 71
     5
 72
     1
  1
9.94\H0.7X;\S+0^ -0.02;
 73
     1
 44
1.0
1001
ACAD
1000
MTEXTBEGIN
1070
    73
1070
     1
1070
    44
1040
1.0
1070
    74
1070
     0
1000
MTEXTEND
  0
POINT
  5
1A27
330
19B2
100
AcDbEntity
  8
Defpoints
 62
     0
100
AcDbPoint
 10
1096.043733792886
 20
199.2309438064257
 30
0.0
  0
POINT
  5
1A28
330
19B2
100
AcDbEntity
  8
Defpoints
 62
     0
100
AcDbPoint
 10
1086.105259423396
 20
199.2309438064257
 30
0.0
  0
POINT
  5
1A29
330
19B2
100
AcDbEntity
  8
Defpoints
 62
     0
100
AcDbPoint
 10
1086.105259423396
 20
205.6274772843634
 30
0.0
  0
ENDBLK
  5
19B4
330
19B2
100
AcDbEntity
  8
0
100
AcDbBlockEnd
  0
ENDSEC
  0
SECTION
  2
ENTITIES
  0
LINE
  5
C7F
330
1F
100
AcDbEntity
  8
0
 62
     3
100
AcDbLine
 10
599.4629553534653
 20
79.74506893651756
 30
0.0
 11
598.9750285234653
 21
79.74506893651756
 31
0.0
  0
LINE
  5
C80
330
1F
100
AcDbEntity
  8
0
 62
     3
100
AcDbLine
 10
610.9750285234653
 20
218.2450689365175
 30
0.0
 11
610.9750285234653
 21
-58.75493106348244
 31
0.0
  0
LINE
  5
C82
330
1F
100
AcDbEntity
  8
0
 62
     3
100
AcDbLine
 10
790.9750285234653
 20
-58.75493106348244
 30
0.0
 11
790.9750285234653
 21
218.2450689365175
 31
0.0
  0
LINE
  5
C83
330
1F
100
AcDbEntity
  8
0
 62
     3
100
AcDbLine
 10
610.9750285234653
 20
-58.75493106348244
 30
0.0
 11
790.9750285234653
 21
-58.75493106348244
 31
0.0
  0
LINE
  5
C84
330
1F
100
AcDbEntity
  8
0
 62
     3
100
AcDbLine
 10
678.0593805434652
 20
220.0325130365176
 30
0.0
 11
678.4951284534653
 21
219.8050448965175
 31
0.0
  0
LINE
  5
C85
330
1F
100
AcDbEntity
  8
0
 62
     3
100
AcDbLine
 10
678.0593805434652
 20
216.3018825565176
 30
0.0
 11
678.4951284534653
 21
216.5293506965176
 31
0.0
  0
LINE
  5
C86
330
1F
100
AcDbEntity
  8
0
 62
     3
100
AcDbLine
 10
678.4951284534653
 20
219.8050448965175
 30
0.0
 11
678.4951284534653
 21
216.5293506965176
 31
0.0
  0
LINE
  5
C87
330
1F
100
AcDbEntity
  8
0
 62
     3
100
AcDbLine
 10
679.5986458734652
 20
216.3018825565176
 30
0.0
 11
679.1628979634652
 21
216.5293506965176
 31
0.0
  0
LINE
  5
C88
330
1F
100
AcDbEntity
  8
0
 62
     3
100
AcDbLine
 10
679.1628979634652
 20
218.5262095065175
 30
0.0
 11
679.1628979634652
 21
216.5293506965176
 31
0.0
  0
LINE
  5
C89
330
1F
100
AcDbEntity
  8
0
 62
     3
100
AcDbLine
 10
682.1405086534653
 20
220.0325130365176
 30
0.0
 11
681.7047607434654
 21
219.8050448965175
 31
0.0
  0
LINE
  5
C8A
330
1F
100
AcDbEntity
  8
0
 62
     3
100
AcDbLine
 10
680.6012433234652
 20
220.0325130365176
 30
0.0
 11
681.0369912334652
 21
219.8050448965175
 31
0.0
  0
LINE
  5
C8B
330
1F
100
AcDbEntity
  8
0
 62
     3
100
AcDbLine
 10
681.0369912334652
 20
219.8050448965175
 30
0.0
 11
681.0369912334652
 21
218.3627078365175
 31
0.0
  0
LINE
  5
C8C
330
1F
100
AcDbEntity
  8
0
 62
     3
100
AcDbLine
 10
681.7047607434654
 20
219.8050448965175
 30
0.0
 11
681.7047607434654
 21
216.0903214165176
 31
0.0
  0
LINE
  5
C8D
330
1F
100
AcDbEntity
  8
0
 62
     3
100
AcDbLine
 10
682.3558058534652
 20
220.0325104065175
 30
0.0
 11
682.7915521934652
 21
219.8050392665176
 31
0.0
  0
LINE
  5
C8E
330
1F
100
AcDbEntity
  8
0
 62
     3
100
AcDbLine
 10
682.3557278834653
 20
216.3019325365176
 30
0.0
 11
682.7914837334652
 21
216.5293854565176
 31
0.0
  0
LINE
  5
C8F
330
1F
100
AcDbEntity
  8
0
 62
     3
100
AcDbLine
 10
682.7915521934652
 20
219.8050392665176
 30
0.0
 11
682.7915521934652
 21
216.5293854565176
 31
0.0
  0
LINE
  5
C90
330
1F
100
AcDbEntity
  8
0
 62
     3
100
AcDbLine
 10
684.2853422534654
 20
220.0324867365175
 30
0.0
 11
683.8495911634652
 21
219.8050247065175
 31
0.0
  0
LINE
  5
C91
330
1F
100
AcDbEntity
  8
0
 62
     3
100
AcDbLine
 10
683.8495911634652
 20
219.8050247065175
 30
0.0
 11
683.8495911634652
 21
216.5293708865176
 31
0.0
  0
LINE
  5
C92
330
1F
100
AcDbEntity
  8
0
 62
     3
100
AcDbLine
 10
684.2853422534654
 20
216.3019088565176
 30
0.0
 11
683.8495911634652
 21
216.5293708865176
 31
0.0
  0
LINE
  5
C93
330
1F
100
AcDbEntity
  8
0
 62
     3
100
AcDbLine
 10
687.9755956934652
 20
220.0324457365176
 30
0.0
 11
688.4113428134654
 21
219.8049760965175
 31
0.0
  0
LINE
  5
C94
330
1F
100
AcDbEntity
  8
0
 62
     3
100
AcDbLine
 10
688.4113428134654
 20
219.8049760965175
 30
0.0
 11
688.4112856434652
 21
216.5293222865175
 31
0.0
  0
LINE
  5
C95
330
1F
100
AcDbEntity
  8
0
 62
     3
100
AcDbLine
 10
687.9755305834652
 20
216.3018678565176
 30
0.0
 11
688.4112856434652
 21
216.5293222865175
 31
0.0
  0
LINE
  5
C96
330
1F
100
AcDbEntity
  8
0
 62
     3
100
AcDbLine
 10
689.9278566534652
 20
220.0324457365176
 30
0.0
 11
689.4921095334653
 21
219.8049760965175
 31
0.0
  0
LINE
  5
C97
330
1F
100
AcDbEntity
  8
0
 62
     3
100
AcDbLine
 10
689.9279217634653
 20
216.3018678565176
 30
0.0
 11
689.4921667034652
 21
216.5293222865175
 31
0.0
  0
LINE
  5
C98
330
1F
100
AcDbEntity
  8
0
 62
     3
100
AcDbLine
 10
690.1315845134653
 20
220.0324457365176
 30
0.0
 11
690.5673316434652
 21
219.8049760965175
 31
0.0
  0
LINE
  5
C99
330
1F
100
AcDbEntity
  8
0
 62
     3
100
AcDbLine
 10
690.1315194034652
 20
216.3018678565176
 30
0.0
 11
690.5672744634653
 21
216.5293222865175
 31
0.0
  0
LINE
  5
C9A
330
1F
100
AcDbEntity
  8
0
 62
     3
100
AcDbLine
 10
692.0838454834653
 20
220.0324457365176
 30
0.0
 11
691.6480983634652
 21
219.8049760965175
 31
0.0
  0
LINE
  5
C9B
330
1F
100
AcDbEntity
  8
0
 62
     3
100
AcDbLine
 10
691.6480983634652
 20
219.8049760965175
 30
0.0
 11
691.6481555334652
 21
216.5293222865175
 31
0.0
  0
LINE
  5
C9C
330
1F
100
AcDbEntity
  8
0
 62
     3
100
AcDbLine
 10
692.0839105934653
 20
216.3018678565176
 30
0.0
 11
691.6481555334652
 21
216.5293222865175
 31
0.0
  0
LINE
  5
C9D
330
1F
100
AcDbEntity
  8
0
 62
     3
100
AcDbLine
 10
690.5673067334652
 20
218.3778429765175
 30
0.0
 11
689.4921344434654
 21
218.3778429765175
 31
0.0
  0
LINE
  5
C9E
330
1F
100
AcDbEntity
  8
0
 62
     3
100
AcDbLine
 10
690.5672993734652
 20
217.9565526165176
 30
0.0
 11
689.4921417934653
 21
217.9565526165176
 31
0.0
  0
LINE
  5
C9F
330
1F
100
AcDbEntity
  8
0
 62
     3
100
AcDbLine
 10
690.5673316434652
 20
219.8049760965175
 30
0.0
 11
690.5673067334652
 21
218.3778429765175
 31
0.0
  0
LINE
  5
CA0
330
1F
100
AcDbEntity
  8
0
 62
     3
100
AcDbLine
 10
690.5672993734652
 20
217.9565526165176
 30
0.0
 11
690.5672744634653
 21
216.5293222865175
 31
0.0
  0
LINE
  5
CA1
330
1F
100
AcDbEntity
  8
0
 62
     3
100
AcDbLine
 10
689.4921095334653
 20
219.8049760965175
 30
0.0
 11
689.4921344434654
 21
218.3778429765175
 31
0.0
  0
LINE
  5
CA2
330
1F
100
AcDbEntity
  8
0
 62
     3
100
AcDbLine
 10
689.4921417934653
 20
217.9565526165176
 30
0.0
 11
689.4921667034652
 21
216.5293222865175
 31
0.0
  0
LINE
  5
CA3
330
1F
100
AcDbEntity
  8
0
 62
     3
100
AcDbLine
 10
692.2908046034653
 20
220.0324457365176
 30
0.0
 11
692.7265517234652
 21
219.8049760965175
 31
0.0
  0
LINE
  5
CA4
330
1F
100
AcDbEntity
  8
0
 62
     3
100
AcDbLine
 10
692.7265517234652
 20
219.8049760965175
 30
0.0
 11
692.7264945534652
 21
216.5293222865175
 31
0.0
  0
LINE
  5
CA5
330
1F
100
AcDbEntity
  8
0
 62
     3
100
AcDbLine
 10
692.2907394934652
 20
216.3018678565176
 30
0.0
 11
692.7264945534652
 21
216.5293222865175
 31
0.0
  0
LINE
  5
CA6
330
1F
100
AcDbEntity
  8
0
 62
     3
100
AcDbLine
 10
694.2203148734653
 20
220.0324457365176
 30
0.0
 11
693.7845677534652
 21
219.8049760965175
 31
0.0
  0
LINE
  5
CA7
330
1F
100
AcDbEntity
  8
0
 62
     3
100
AcDbLine
 10
693.7845677534652
 20
219.8049760965175
 30
0.0
 11
693.7846249234652
 21
216.5293222865175
 31
0.0
  0
LINE
  5
CA8
330
1F
100
AcDbEntity
  8
0
 62
     3
100
AcDbLine
 10
694.2203799834652
 20
216.3018678565176
 30
0.0
 11
693.7846249234652
 21
216.5293222865175
 31
0.0
  0
LINE
  5
CA9
330
1F
100
AcDbEntity
  8
0
 62
     3
100
AcDbLine
 10
694.4346744434652
 20
220.0324457365176
 30
0.0
 11
694.8704215634652
 21
219.8049760965175
 31
0.0
  0
LINE
  5
CAA
330
1F
100
AcDbEntity
  8
0
 62
     3
100
AcDbLine
 10
694.8704215634652
 20
219.8049760965175
 30
0.0
 11
694.8703643934652
 21
216.5293222865175
 31
0.0
  0
LINE
  5
CAB
330
1F
100
AcDbEntity
  8
0
 62
     3
100
AcDbLine
 10
694.4346093334652
 20
216.3018678565176
 30
0.0
 11
694.8703643934652
 21
216.5293222865175
 31
0.0
  0
ARC
  5
CAC
330
1F
100
AcDbEntity
  8
0
 62
     3
100
AcDbCircle
 10
686.5836844234652
 20
218.1765875565176
 30
0.0
 40
2.086285909999999
100
AcDbArc
 50
97.70152350999723
 51
270.0
  0
ARC
  5
CAD
330
1F
100
AcDbEntity
  8
0
 62
     3
100
AcDbCircle
 10
699.4642852634653
 20
218.1556309265176
 30
0.0
 40
2.108943379999999
100
AcDbArc
 50
0.3142502699992948
 51
69.0055824499965
  0
ARC
  5
CAE
330
1F
100
AcDbEntity
  8
0
 62
     3
100
AcDbCircle
 10
699.9249605834652
 20
218.1556309265176
 30
0.0
 40
2.108943379999999
100
AcDbArc
 50
110.9944175499974
 51
148.1166110200014
  0
ARC
  5
CAF
330
1F
100
AcDbEntity
  8
0
 62
     3
100
AcDbCircle
 10
699.4642852634653
 20
218.1787646665175
 30
0.0
 40
2.108943379999999
100
AcDbArc
 50
290.9944175500035
 51
359.6857497300007
  0
ARC
  5
CB0
330
1F
100
AcDbEntity
  8
0
 62
     3
100
AcDbCircle
 10
699.9249605834652
 20
218.1787646665175
 30
0.0
 40
2.108943379999999
100
AcDbArc
 50
211.8833889799985
 51
249.0055824499965
  0
ARC
  5
CB1
330
1F
100
AcDbEntity
  8
0
 62
     3
100
AcDbCircle
 10
699.6946229234652
 20
219.0300031865175
 30
0.0
 40
1.214070989999997
100
AcDbArc
 50
64.3651718999996
 51
115.6348281000004
  0
ARC
  5
CB2
330
1F
100
AcDbEntity
  8
0
 62
     3
100
AcDbCircle
 10
699.6946229234652
 20
217.3043924065175
 30
0.0
 40
1.214070989999997
100
AcDbArc
 50
244.3651718999996
 51
295.6348281000004
  0
ARC
  5
CB3
330
1F
100
AcDbEntity
  8
0
 62
     3
100
AcDbCircle
 10
699.6946229234652
 20
219.0530648665176
 30
0.0
 40
0.59585563
100
AcDbArc
 50
19.48660554000094
 51
160.513394459999
  0
ARC
  5
CB4
330
1F
100
AcDbEntity
  8
0
 62
     3
100
AcDbCircle
 10
699.6946229234652
 20
217.3043924065175
 30
0.0
 40
1.214070989999997
100
AcDbArc
 50
244.3651718999996
 51
295.6348281000004
  0
ARC
  5
CB5
330
1F
100
AcDbEntity
  8
0
 62
     3
100
AcDbCircle
 10
699.6946229234652
 20
217.2813307265176
 30
0.0
 40
0.59585563
100
AcDbArc
 50
199.4866055400009
 51
340.5133944599987
  0
ARC
  5
CB6
330
1F
100
AcDbEntity
  8
0
 62
     3
100
AcDbCircle
 10
694.9521504234652
 20
195.9391379565176
 30
0.0
 40
26.04
100
AcDbArc
 50
69.5057148000011
 51
81.68998806999734
  0
ARC
  5
CB7
330
1F
100
AcDbEntity
  8
0
 62
     3
100
AcDbCircle
 10
694.9521504234652
 20
240.3952576365175
 30
0.0
 40
26.04
100
AcDbArc
 50
278.3100119300026
 51
290.4942851999985
  0
ARC
  5
CB8
330
1F
100
AcDbEntity
  8
0
 62
     3
100
AcDbCircle
 10
703.2603545534652
 20
218.1671977965176
 30
0.0
 40
2.31
100
AcDbArc
 50
290.4942851999985
 51
69.5057148000011
  0
ARC
  5
CB9
330
1F
100
AcDbEntity
  8
0
 62
     3
100
AcDbCircle
 10
675.9603545534653
 20
218.1671977965176
 30
0.0
 40
2.31
100
AcDbArc
 50
110.4942851999985
 51
249.505714799995
  0
ARC
  5
CBA
330
1F
100
AcDbEntity
  8
0
 62
     3
100
AcDbCircle
 10
684.2685586734652
 20
195.9391379565176
 30
0.0
 40
26.04
100
AcDbArc
 50
98.31001192999607
 51
110.4942851999985
  0
ARC
  5
CBB
330
1F
100
AcDbEntity
  8
0
 62
     3
100
AcDbCircle
 10
684.2685586734652
 20
240.3952576365175
 30
0.0
 40
26.04
100
AcDbArc
 50
249.505714799995
 51
261.6899880699975
  0
ARC
  5
CBC
330
1F
100
AcDbEntity
  8
0
 62
     3
100
AcDbCircle
 10
689.6103545534653
 20
159.3671977965175
 30
0.0
 40
62.99999987
100
AcDbArc
 50
81.68998806999734
 51
98.31001192999607
  0
ARC
  5
CBD
330
1F
100
AcDbEntity
  8
0
 62
     3
100
AcDbCircle
 10
689.6103545534653
 20
276.9671977965176
 30
0.0
 40
62.99999987
100
AcDbArc
 50
261.6899880699975
 51
278.3100119300026
  0
ARC
  5
CBE
330
1F
100
AcDbEntity
  8
0
 62
     3
100
AcDbCircle
 10
689.6103545534653
 20
159.3671977965175
 30
0.0
 40
62.36999987
100
AcDbArc
 50
81.68998806999734
 51
98.31001192999607
  0
ARC
  5
CBF
330
1F
100
AcDbEntity
  8
0
 62
     3
100
AcDbCircle
 10
689.6103545534653
 20
276.9671977965176
 30
0.0
 40
62.36999987
100
AcDbArc
 50
261.6899880699975
 51
278.3100119300026
  0
ARC
  5
CC0
330
1F
100
AcDbEntity
  8
0
 62
     3
100
AcDbCircle
 10
694.9521504234652
 20
240.3952576365175
 30
0.0
 40
25.41
100
AcDbArc
 50
278.3100119300026
 51
290.4942851999985
  0
ARC
  5
CC1
330
1F
100
AcDbEntity
  8
0
 62
     3
100
AcDbCircle
 10
694.9521504234652
 20
195.9391379565176
 30
0.0
 40
25.41
100
AcDbArc
 50
69.5057148000011
 51
81.68998806999734
  0
ARC
  5
CC2
330
1F
100
AcDbEntity
  8
0
 62
     3
100
AcDbCircle
 10
703.2603545534652
 20
218.1671977965176
 30
0.0
 40
1.679999999999999
100
AcDbArc
 50
290.4942851999985
 51
69.5057148000011
  0
ARC
  5
CC3
330
1F
100
AcDbEntity
  8
0
 62
     3
100
AcDbCircle
 10
675.9603545534653
 20
218.1671977965176
 30
0.0
 40
1.679999999999999
100
AcDbArc
 50
110.4942851999985
 51
249.505714799995
  0
ARC
  5
CC4
330
1F
100
AcDbEntity
  8
0
 62
     3
100
AcDbCircle
 10
684.2685586734652
 20
195.9391379565176
 30
0.0
 40
25.41
100
AcDbArc
 50
98.31001192999607
 51
110.4942851999985
  0
ARC
  5
CC5
330
1F
100
AcDbEntity
  8
0
 62
     3
100
AcDbCircle
 10
684.2685586734652
 20
240.3952576365175
 30
0.0
 40
25.41
100
AcDbArc
 50
249.505714799995
 51
261.6899880699975
  0
LINE
  5
CC6
330
1F
100
AcDbEntity
  8
0
 62
     3
100
AcDbLine
 10
694.2203156534652
 20
216.0903214165176
 30
0.0
 11
692.2908038234652
 21
216.0903214165176
 31
0.0
  0
LINE
  5
CC7
330
1F
100
AcDbEntity
  8
0
 62
     3
100
AcDbLine
 10
694.2203156534652
 20
216.3018825565176
 30
0.0
 11
694.2203156534652
 21
216.0903214165176
 31
0.0
  0
LINE
  5
CC8
330
1F
100
AcDbEntity
  8
0
 62
     3
100
AcDbLine
 10
692.0838462634653
 20
220.2439754565176
 30
0.0
 11
690.1315837334652
 21
220.2439754565176
 31
0.0
  0
LINE
  5
CC9
330
1F
100
AcDbEntity
  8
0
 62
     3
100
AcDbLine
 10
692.0838462634653
 20
220.2439754565176
 30
0.0
 11
692.0838462634653
 21
220.0325130365176
 31
0.0
  0
LINE
  5
CCA
330
1F
100
AcDbEntity
  8
0
 62
     3
100
AcDbLine
 10
692.0838462634653
 20
216.3018825565176
 30
0.0
 11
692.0838462634653
 21
216.0902227065176
 31
0.0
  0
LINE
  5
CCB
330
1F
100
AcDbEntity
  8
0
 62
     3
100
AcDbLine
 10
692.0838462634653
 20
216.0902227065176
 30
0.0
 11
690.1315837334652
 21
216.0902227065176
 31
0.0
  0
LINE
  5
CCC
330
1F
100
AcDbEntity
  8
0
 62
     3
100
AcDbLine
 10
694.2203156534652
 20
220.2440741765175
 30
0.0
 11
694.2203156534652
 21
220.0325130365176
 31
0.0
  0
LINE
  5
CCD
330
1F
100
AcDbEntity
  8
0
 62
     3
100
AcDbLine
 10
694.2203156534652
 20
220.2440741765175
 30
0.0
 11
692.2908038234652
 21
220.2440741765175
 31
0.0
  0
LINE
  5
CCE
330
1F
100
AcDbEntity
  8
0
 62
     3
100
AcDbLine
 10
692.2908038234652
 20
220.2440741765175
 30
0.0
 11
692.2908038234652
 21
220.0325130365176
 31
0.0
  0
LINE
  5
CCF
330
1F
100
AcDbEntity
  8
0
 62
     3
100
AcDbLine
 10
694.4346736534653
 20
216.3018825565176
 30
0.0
 11
694.4346736534653
 21
216.0903214165176
 31
0.0
  0
LINE
  5
CD0
330
1F
100
AcDbEntity
  8
0
 62
     3
100
AcDbLine
 10
696.4189742134652
 20
216.0903214165176
 30
0.0
 11
694.4346736534653
 21
216.0903214165176
 31
0.0
  0
LINE
  5
CD1
330
1F
100
AcDbEntity
  8
0
 62
     3
100
AcDbLine
 10
695.9284375834653
 20
219.5763046565176
 30
0.0
 11
695.9284375834653
 21
216.7580909365175
 31
0.0
  0
LINE
  5
CD2
330
1F
100
AcDbEntity
  8
0
 62
     3
100
AcDbLine
 10
695.9284375834653
 20
216.7580909365175
 30
0.0
 11
696.1184865534652
 21
216.7580909365175
 31
0.0
  0
ARC
  5
CD3
330
1F
100
AcDbEntity
  8
0
 62
     3
100
AcDbCircle
 10
695.1467008134653
 20
218.1671977965176
 30
0.0
 40
1.71170957
100
AcDbArc
 50
304.5919552700012
 51
55.40804472999885
  0
LINE
  5
CD4
330
1F
100
AcDbEntity
  8
0
 62
     3
100
AcDbLine
 10
696.4189742134652
 20
220.2440741765175
 30
0.0
 11
694.4346736534653
 21
220.2440741765175
 31
0.0
  0
LINE
  5
CD5
330
1F
100
AcDbEntity
  8
0
 62
     3
100
AcDbLine
 10
694.4346736534653
 20
220.2440741765175
 30
0.0
 11
694.4346736534653
 21
220.0325130365176
 31
0.0
  0
LINE
  5
CD6
330
1F
100
AcDbEntity
  8
0
 62
     3
100
AcDbLine
 10
692.2908038234652
 20
216.3018825565176
 30
0.0
 11
692.2908038234652
 21
216.0903214165176
 31
0.0
  0
LINE
  5
CD7
330
1F
100
AcDbEntity
  8
0
 62
     3
100
AcDbLine
 10
695.9284375834653
 20
219.5763046565176
 30
0.0
 11
696.1184865534652
 21
219.5763046565176
 31
0.0
  0
LINE
  5
CD8
330
1F
100
AcDbEntity
  8
0
 62
     3
100
AcDbLine
 10
684.2852779234653
 20
216.3018825565176
 30
0.0
 11
684.2852742334653
 21
216.0903016465176
 31
0.0
  0
LINE
  5
CD9
330
1F
100
AcDbEntity
  8
0
 62
     3
100
AcDbLine
 10
682.3557623934653
 20
216.0903411865175
 30
0.0
 11
684.2852742334653
 21
216.0903075165176
 31
0.0
  0
LINE
  5
CDA
330
1F
100
AcDbEntity
  8
0
 62
     3
100
AcDbLine
 10
678.0593805434652
 20
216.0903214165176
 30
0.0
 11
679.5986458734652
 21
216.0903214165176
 31
0.0
  0
ARC
  5
CDB
330
1F
100
AcDbEntity
  8
0
 62
     3
100
AcDbCircle
 10
673.0774378634653
 20
218.2161044165176
 30
0.0
 40
14.71356563
100
AcDbArc
 50
353.8660061899999
 51
357.6940342600001
  0
LINE
  5
CDC
330
1F
100
AcDbEntity
  8
0
 62
     3
100
AcDbLine
 10
686.7940177234652
 20
217.6277367665175
 30
0.0
 11
687.7790886134653
 21
217.6240918865176
 31
0.0
  0
LINE
  5
CDE
330
1F
100
AcDbEntity
  8
0
 62
     3
100
AcDbLine
 10
686.7979961434652
 20
218.7029515065176
 30
0.0
 11
687.7830670234652
 21
218.6993066365176
 31
0.0
  0
ARC
  5
CDF
330
1F
100
AcDbEntity
  8
0
 62
     3
100
AcDbCircle
 10
673.0774378634653
 20
218.2161044165176
 30
0.0
 40
14.71356563
100
AcDbArc
 50
1.881965739999571
 51
5.70999380999998
  0
LINE
  5
CE0
330
1F
100
AcDbEntity
  8
0
 62
     3
100
AcDbLine
 10
684.2853467234653
 20
220.2440544065175
 30
0.0
 11
684.2853430334653
 21
220.0325130365176
 31
0.0
  0
LINE
  5
CE1
330
1F
100
AcDbEntity
  8
0
 62
     3
100
AcDbLine
 10
682.3558348934652
 20
220.2440939465175
 30
0.0
 11
684.2853467234653
 21
220.2440602665175
 31
0.0
  0
LINE
  5
CE2
330
1F
100
AcDbEntity
  8
0
 62
     3
100
AcDbLine
 10
682.3557660834652
 20
216.3018825565176
 30
0.0
 11
682.3557623934653
 21
216.0903411865175
 31
0.0
  0
LINE
  5
CE3
330
1F
100
AcDbEntity
  8
0
 62
     3
100
AcDbLine
 10
682.3558348934652
 20
220.2440939465175
 30
0.0
 11
682.3558312034653
 21
220.0325130365176
 31
0.0
  0
LINE
  5
CE4
330
1F
100
AcDbEntity
  8
0
 62
     3
100
AcDbLine
 10
679.5986458734652
 20
216.3018825565176
 30
0.0
 11
679.5986458734652
 21
216.0903214165176
 31
0.0
  0
LINE
  5
CE5
330
1F
100
AcDbEntity
  8
0
 62
     3
100
AcDbLine
 10
679.1628979634652
 20
218.5262095065175
 30
0.0
 11
680.6853280234652
 21
216.0903214165176
 31
0.0
  0
LINE
  5
CE6
330
1F
100
AcDbEntity
  8
0
 62
     3
100
AcDbLine
 10
680.6853280234652
 20
216.0903214165176
 30
0.0
 11
681.7047607434654
 21
216.0903214165176
 31
0.0
  0
LINE
  5
CE7
330
1F
100
AcDbEntity
  8
0
 62
     3
100
AcDbLine
 10
682.1405086534653
 20
220.2440741765175
 30
0.0
 11
682.1405086534653
 21
220.0325130365176
 31
0.0
  0
LINE
  5
CE8
330
1F
100
AcDbEntity
  8
0
 62
     3
100
AcDbLine
 10
680.6012433234652
 20
220.2440741765175
 30
0.0
 11
682.1405086534653
 21
220.2440741765175
 31
0.0
  0
LINE
  5
CE9
330
1F
100
AcDbEntity
  8
0
 62
     3
100
AcDbLine
 10
680.6012433234652
 20
220.2440741765175
 30
0.0
 11
680.6012433234652
 21
220.0325130365176
 31
0.0
  0
LINE
  5
CEA
330
1F
100
AcDbEntity
  8
0
 62
     3
100
AcDbLine
 10
681.0369912334652
 20
218.3627078365175
 30
0.0
 11
679.8023445634652
 21
220.2440741765175
 31
0.0
  0
LINE
  5
CEB
330
1F
100
AcDbEntity
  8
0
 62
     3
100
AcDbLine
 10
678.0593805434652
 20
220.2440741765175
 30
0.0
 11
679.8023445634652
 21
220.2440741765175
 31
0.0
  0
LINE
  5
CEC
330
1F
100
AcDbEntity
  8
0
 62
     3
100
AcDbLine
 10
687.9755949034652
 20
220.2439754565176
 30
0.0
 11
689.9278574434653
 21
220.2439754565176
 31
0.0
  0
LINE
  5
CED
330
1F
100
AcDbEntity
  8
0
 62
     3
100
AcDbLine
 10
687.9755949034652
 20
220.0325130365176
 30
0.0
 11
687.9755949034652
 21
220.2439754565176
 31
0.0
  0
LINE
  5
CEE
330
1F
100
AcDbEntity
  8
0
 62
     3
100
AcDbLine
 10
687.9755949034652
 20
216.0902227065176
 30
0.0
 11
687.9755949034652
 21
216.3018825565176
 31
0.0
  0
LINE
  5
CEF
330
1F
100
AcDbEntity
  8
0
 62
     3
100
AcDbLine
 10
687.9755949034652
 20
216.0902227065176
 30
0.0
 11
689.9278574434653
 21
216.0902227065176
 31
0.0
  0
LINE
  5
CF0
330
1F
100
AcDbEntity
  8
0
 62
     3
100
AcDbLine
 10
690.1315837334652
 20
216.3018825565176
 30
0.0
 11
690.1315837334652
 21
216.0902227065176
 31
0.0
  0
LINE
  5
CF1
330
1F
100
AcDbEntity
  8
0
 62
     3
100
AcDbLine
 10
689.9278574434653
 20
216.3018825565176
 30
0.0
 11
689.9278574434653
 21
216.0902227065176
 31
0.0
  0
LINE
  5
CF2
330
1F
100
AcDbEntity
  8
0
 62
     3
100
AcDbLine
 10
689.9278574434653
 20
220.0325130365176
 30
0.0
 11
689.9278574434653
 21
220.2439754565176
 31
0.0
  0
LINE
  5
CF3
330
1F
100
AcDbEntity
  8
0
 62
     3
100
AcDbLine
 10
690.1315837334652
 20
220.0325130365176
 30
0.0
 11
690.1315837334652
 21
220.2439754565176
 31
0.0
  0
LINE
  5
CF4
330
1F
100
AcDbEntity
  8
0
 62
     3
100
AcDbLine
 10
678.0593805434652
 20
216.3018825565176
 30
0.0
 11
678.0593805434652
 21
216.0903214165176
 31
0.0
  0
LINE
  5
CF5
330
1F
100
AcDbEntity
  8
0
 62
     3
100
AcDbLine
 10
678.0593805434652
 20
220.2440741765175
 30
0.0
 11
678.0593805434652
 21
220.0325130365176
 31
0.0
  0
ARC
  5
CF6
330
1F
100
AcDbEntity
  8
0
 62
     3
100
AcDbCircle
 10
696.6289742134653
 20
218.6029457065175
 30
0.0
 40
1.641128469999999
100
AcDbArc
 50
17.30874898000033
 51
23.76507095999893
  0
ARC
  5
CF7
330
1F
100
AcDbEntity
  8
0
 62
     3
100
AcDbCircle
 10
695.2307008134653
 20
218.1671977965176
 30
0.0
 40
3.105725599999998
100
AcDbArc
 50
342.6912510199997
 51
17.30856644000045
  0
ARC
  5
CF8
330
1F
100
AcDbEntity
  8
0
 62
     3
100
AcDbCircle
 10
696.6289742134653
 20
217.7314498965176
 30
0.0
 40
1.641128469999999
100
AcDbArc
 50
336.234929039998
 51
342.6912510199997
  0
ARC
  5
CF9
330
1F
100
AcDbEntity
  8
0
 62
     3
100
AcDbCircle
 10
696.4189742134652
 20
218.6029457065175
 30
0.0
 40
1.641128469999999
100
AcDbArc
 50
17.30874898000033
 51
90.0
  0
ARC
  5
CFA
330
1F
100
AcDbEntity
  8
0
 62
     3
100
AcDbCircle
 10
695.0207008134652
 20
218.1671977965176
 30
0.0
 40
3.105725599999998
100
AcDbArc
 50
342.6912510199997
 51
17.30856644000045
  0
ARC
  5
CFB
330
1F
100
AcDbEntity
  8
0
 62
     3
100
AcDbCircle
 10
696.4189742134652
 20
217.7314498965176
 30
0.0
 40
1.641128469999999
100
AcDbArc
 50
270.0
 51
342.6912510199997
  0
ARC
  5
CFC
330
1F
100
AcDbEntity
  8
0
 62
     3
100
AcDbCircle
 10
686.2950338434652
 20
218.1671977965176
 30
0.0
 40
2.076876379999998
100
AcDbArc
 50
46.75287961000123
 51
89.74999828999569
  0
ARC
  5
CFD
330
1F
100
AcDbEntity
  8
0
 62
     3
100
AcDbCircle
 10
686.2950338434652
 20
218.1671977965176
 30
0.0
 40
2.076876379999998
100
AcDbArc
 50
273.9763331499971
 51
312.8231203899985
  0
ARC
  5
CFE
330
1F
100
AcDbEntity
  8
0
 62
     3
100
AcDbCircle
 10
697.7368417834652
 20
218.1351362665175
 30
0.0
 40
2.755888999999998
100
AcDbArc
 50
0.6665840599997753
 51
23.90392827000137
  0
ARC
  5
CFF
330
1F
100
AcDbEntity
  8
0
 62
     3
100
AcDbCircle
 10
701.6524040634654
 20
218.1351362665175
 30
0.0
 40
2.755888999999998
100
AcDbArc
 50
156.0960717299986
 51
179.3334159400002
  0
ARC
  5
D00
330
1F
100
AcDbEntity
  8
0
 62
     3
100
AcDbCircle
 10
697.7368417834652
 20
218.1992593265176
 30
0.0
 40
2.755888999999998
100
AcDbArc
 50
336.0960717299986
 51
359.3334159400003
  0
ARC
  5
D01
330
1F
100
AcDbEntity
  8
0
 62
     3
100
AcDbCircle
 10
701.6524040634654
 20
218.1992593265176
 30
0.0
 40
2.755888999999998
100
AcDbArc
 50
180.6665840599997
 51
203.9039282700014
  0
LINE
  5
D02
330
1F
100
AcDbEntity
  8
0
 62
     3
100
AcDbLine
 10
706.3026911534652
 20
218.2450689365175
 30
0.0
 11
790.9750285234653
 21
218.2450689365175
 31
0.0
  0
LINE
  5
D04
330
1F
100
AcDbEntity
  8
0
 62
     3
100
AcDbLine
 10
672.8899446334652
 20
218.2450689365175
 30
0.0
 11
610.9750285234653
 21
218.2450689365175
 31
0.0
  0
LINE
  5
D05
330
1F
100
AcDbEntity
  8
0
 62
     3
100
AcDbLine
 10
738.9750285234653
 20
-58.75493106348244
 30
0.0
 11
738.9750285234653
 21
-0.7549310634824346
 31
0.0
  0
LINE
  5
D06
330
1F
100
AcDbEntity
  8
0
 62
     3
100
AcDbLine
 10
751.9750285234652
 20
-48.75493106348244
 30
0.0
 11
751.9750285234652
 21
-20.75493106348245
 31
0.0
  0
LINE
  5
D07
330
1F
100
AcDbEntity
  8
0
 62
     3
100
AcDbLine
 10
711.9750285234653
 20
-48.75493106348244
 30
0.0
 11
711.9750285234653
 21
-34.75493106348245
 31
0.0
  0
LINE
  5
D08
330
1F
100
AcDbEntity
  8
0
 62
     3
100
AcDbLine
 10
721.9750285234653
 20
-34.75493106348245
 30
0.0
 11
721.9750285234653
 21
-58.75493106348244
 31
0.0
  0
LINE
  5
D09
330
1F
100
AcDbEntity
  8
0
 62
     3
100
AcDbLine
 10
692.9750285234653
 20
-18.75493106348245
 30
0.0
 11
692.9750285234653
 21
-41.75493106348244
 31
0.0
  0
LINE
  5
D0A
330
1F
100
AcDbEntity
  8
0
 62
     3
100
AcDbLine
 10
751.9750285234652
 20
-20.75493106348245
 30
0.0
 11
751.9750285234652
 21
-18.75493106348244
 31
0.0
  0
LINE
  5
D0B
330
1F
100
AcDbEntity
  8
0
 62
     3
100
AcDbLine
 10
764.9750285234652
 20
-41.75493106348244
 30
0.0
 11
764.9750285234652
 21
-0.754931063482438
 31
0.0
  0
LINE
  5
D0C
330
1F
100
AcDbEntity
  8
0
 62
     3
100
AcDbLine
 10
790.9750285234653
 20
-18.75493106348244
 30
0.0
 11
679.7295938834653
 21
-18.75493106348243
 31
0.0
  0
LINE
  5
D0D
330
1F
100
AcDbEntity
  8
0
 62
     3
100
AcDbLine
 10
790.9750285234653
 20
-27.75493106348245
 30
0.0
 11
679.7295938834653
 21
-27.75493106348244
 31
0.0
  0
LINE
  5
D0E
330
1F
100
AcDbEntity
  8
0
 62
     3
100
AcDbLine
 10
790.9750285234653
 20
-41.75493106348244
 30
0.0
 11
679.7295938834653
 21
-41.75493106348244
 31
0.0
  0
LINE
  5
D0F
330
1F
100
AcDbEntity
  8
0
 62
     3
100
AcDbLine
 10
790.9750285234653
 20
-48.75493106348244
 30
0.0
 11
679.6715860234652
 21
-48.75493106348244
 31
0.0
  0
LINE
  5
D10
330
1F
100
AcDbEntity
  8
0
 62
     3
100
AcDbLine
 10
777.9750285234653
 20
-41.75493106348244
 30
0.0
 11
777.9750285234653
 21
-18.75493106348244
 31
0.0
  0
LINE
  5
D11
330
1F
100
AcDbEntity
  8
0
 62
     3
100
AcDbLine
 10
679.7295938834653
 20
-18.75493106348243
 30
0.0
 11
679.7295938834653
 21
-58.75493106348244
 31
0.0
  0
LINE
  5
D12
330
1F
100
AcDbEntity
  8
0
 62
     3
100
AcDbLine
 10
738.9750285234653
 20
-34.75493106348245
 30
0.0
 11
679.7295938834653
 21
-34.75493106348246
 31
0.0
  0
LINE
  5
D13
330
1F
100
AcDbEntity
  8
0
 62
     3
100
AcDbLine
 10
722.2533534534652
 20
-53.92206980348245
 30
0.0
 11
738.9750285234653
 21
-53.92206980348245
 31
0.0
  0
LINE
  5
D14
330
1F
100
AcDbEntity
  8
0
 62
     3
100
AcDbLine
 10
710.9750285234653
 20
213.7450689365177
 30
0.0
 11
790.9750285234653
 21
213.7450689365177
 31
0.0
  0
LINE
  5
D15
330
1F
100
AcDbEntity
  8
0
 62
     3
100
AcDbLine
 10
710.9750285234653
 20
208.7450689365176
 30
0.0
 11
790.9750285234653
 21
208.7450689365176
 31
0.0
  0
LINE
  5
D16
330
1F
100
AcDbEntity
  8
0
 62
     7
100
AcDbLine
 10
710.9750285234653
 20
202.7450689365177
 30
0.0
 11
790.9750285234653
 21
202.7450689365177
 31
0.0
  0
LINE
  5
D17
330
1F
100
AcDbEntity
  8
0
 62
     3
100
AcDbLine
 10
710.9750285234653
 20
196.7450689365176
 30
0.0
 11
790.9750285234653
 21
196.7450689365176
 31
0.0
  0
LINE
  5
D18
330
1F
100
AcDbEntity
  8
0
 62
     7
100
AcDbLine
 10
778.9750285234653
 20
196.7450689365176
 30
0.0
 11
778.9750285234653
 21
208.7450689365176
 31
0.0
  0
LINE
  5
D19
330
1F
100
AcDbEntity
  8
0
 62
     3
100
AcDbLine
 10
778.9750285234653
 20
208.7450689365176
 30
0.0
 11
778.9750285234653
 21
213.7450689365177
 31
0.0
  0
LINE
  5
D1A
330
1F
100
AcDbEntity
  8
0
 62
     7
100
AcDbLine
 10
736.9750285234653
 20
196.7450689365176
 30
0.0
 11
736.9750285234653
 21
208.7450689365176
 31
0.0
  0
LINE
  5
D1B
330
1F
100
AcDbEntity
  8
0
 62
     3
100
AcDbLine
 10
736.9750285234653
 20
208.7450689365176
 30
0.0
 11
736.9750285234653
 21
213.7450689365177
 31
0.0
  0
LINE
  5
D1C
330
1F
100
AcDbEntity
  8
0
 62
     7
100
AcDbLine
 10
718.9750285234652
 20
196.7450689365176
 30
0.0
 11
718.9750285234652
 21
208.7450689365176
 31
0.0
  0
LINE
  5
D1D
330
1F
100
AcDbEntity
  8
0
 62
     3
100
AcDbLine
 10
718.9750285234652
 20
208.7450689365176
 30
0.0
 11
718.9750285234652
 21
213.7450689365177
 31
0.0
  0
LINE
  5
D1E
330
1F
100
AcDbEntity
  8
0
 62
     3
100
AcDbLine
 10
710.9750285234653
 20
196.7450689365178
 30
0.0
 11
710.9750285234653
 21
218.2450689365175
 31
0.0
  0
TEXT
  5
D20
330
1F
100
AcDbEntity
  8
0
 62
     3
100
AcDbText
 10
723.139353936781
 20
-39.6818342101171
 30
0.0
 40
2.5
  1
-
  7
高2.5
100
AcDbText
  0
TEXT
  5
D21
330
1F
100
AcDbEntity
  8
0
 62
     3
100
AcDbText
 10
694.1713972187175
 20
-41.47598478502755
 30
0.0
 40
2.5
  1
ABS
  7
高2.5
100
AcDbText
  0
TEXT
  5
D22
330
1F
100
AcDbEntity
  8
0
 62
     3
100
AcDbText
 10
694.4363049734151
 20
-26.44268153972455
 30
0.0
 40
4.5
  1
LED大型回転灯フラッシャーランタン
 41
0.45
  7
高4.5
100
AcDbText
1001
ACAD
1000
ACAD_MTEXT_DEFINED_HEIGHT_BEGIN
1070
    46
1040
0.0
1000
ACAD_MTEXT_DEFINED_HEIGHT_END
  0
TEXT
  5
D23
330
1F
100
AcDbEntity
  8
0
 62
     3
100
AcDbText
 10
781.0406176169394
 20
-22.24123896477885
 30
0.0
 40
2.0
  1
DEF
  7
高2
100
AcDbText
  0
TEXT
  5
D24
330
1F
100
AcDbEntity
  8
0
 62
     3
100
AcDbText
 10
767.1015192632312
 20
-22.24123896477895
 30
0.0
 40
2.0
  1
DESN
  7
高2
100
AcDbText
  0
TEXT
  5
D25
330
1F
100
AcDbEntity
  8
0
 62
     3
100
AcDbText
 10
740.8471523232309
 20
-22.24123896477885
 30
0.0
 40
2.0
  1
APPD
  7
高2
100
AcDbText
  0
TEXT
  5
D26
330
1F
100
AcDbEntity
  8
0
 62
     3
100
AcDbText
 10
753.9598884234652
 20
-22.24123896477884
 30
0.0
 40
2.0
  1
CHCK
  7
高2
100
AcDbText
  0
TEXT
  5
D27
330
1F
100
AcDbEntity
  8
0
 62
     3
100
AcDbText
 10
712.902194162618
 20
-44.58653224025172
 30
0.0
 40
2.0
  1
SCALE
 41
0.8
  7
高2
100
AcDbText
  0
TEXT
  5
D28
330
1F
100
AcDbEntity
  8
0
 62
     3
100
AcDbText
 10
681.4141725865114
 20
-44.58653224025171
 30
0.0
 40
2.0
  1
3AD　ANGLE
 41
1.5
  7
高2
100
AcDbText
  0
TEXT
  5
D29
330
1F
100
AcDbEntity
  8
0
 62
     3
100
AcDbText
 10
712.1715998534668
 20
-37.83499417129462
 30
0.0
 40
2.0
  1
REMARKS
 41
0.7
  7
高2
100
AcDbText
  0
TEXT
  5
D2A
330
1F
100
AcDbEntity
  8
0
 62
     3
100
AcDbText
 10
681.1972642334652
 20
-37.75493106348244
 30
0.0
 40
2.0
  1
MATERIAL
 41
0.7
  7
高2
100
AcDbText
  0
TEXT
  5
D2B
330
1F
100
AcDbEntity
  8
0
 62
     3
100
AcDbText
 10
681.7737514362192
 20
-30.75493106348246
 30
0.0
 40
2.0
  1
MODEL
  7
高2
100
AcDbText
  0
TEXT
  5
D2C
330
1F
100
AcDbEntity
  8
0
 62
     3
100
AcDbText
 10
681.4106723175505
 20
-22.04790971288343
 30
0.0
 40
2.0
  1
CONPONENTS
 41
0.5
  7
高2
100
AcDbText
  0
TEXT
  5
D2D
330
1F
100
AcDbEntity
  8
0
 62
     3
100
AcDbText
 10
694.1177877887175
 20
-34.1409217723708
 30
0.0
 40
2.5
  1
NLA-120Y-100
  7
高2.5
100
AcDbText
  0
TEXT
  5
D2E
330
1F
100
AcDbEntity
  8
0
 62
     3
100
AcDbText
 10
741.8662810954905
 20
-57.45202763339172
 30
0.0
 40
6.299999999999998
  1
NLA-120
  7
高6.3
100
AcDbText
1001
ACAD
1000
ACAD_MTEXT_DEFINED_HEIGHT_BEGIN
1070
    46
1040
0.0
1000
ACAD_MTEXT_DEFINED_HEIGHT_END
  0
TEXT
  5
D2F
330
1F
100
AcDbEntity
  8
0
 62
     3
100
AcDbText
 10
755.5385382737949
 20
-47.65404190524943
 30
0.0
 40
3.2
  1
2012.11.06
  7
高3.2
100
AcDbText
1001
ACAD
1000
ACAD_MTEXT_DEFINED_HEIGHT_BEGIN
1070
    46
1040
0.0
1000
ACAD_MTEXT_DEFINED_HEIGHT_END
  0
TEXT
  5
D30
330
1F
100
AcDbEntity
  8
0
 62
     3
100
AcDbText
 10
725.7626264181116
 20
-47.65401406091458
 30
0.0
 40
3.2
  1
1/2
  7
高3.2
100
AcDbText
  0
TEXT
  5
D31
330
1F
100
AcDbEntity
  8
0
 62
     3
100
AcDbText
 10
722.8399553934653
 20
-57.93805289034647
 30
0.0
 40
3.2
  1
ZK-A4Y
 41
0.8
  7
高3.2
100
AcDbText
  0
TEXT
  5
D32
330
1F
100
AcDbEntity
  8
0
 62
     3
100
AcDbText
 10
680.5602949234652
 20
-52.23031064129461
 30
0.0
 40
2.0
  1
NICHIDO IND.CO.LTD
 41
1.3
  7
高2
100
AcDbText
  0
TEXT
  5
D33
330
1F
100
AcDbEntity
  8
0
 62
     3
100
AcDbText
 10
681.7418181884224
 20
-26.61440285559751
 30
0.0
 40
3.2
  1
品 名
  7
高3.2
100
AcDbText
1001
ACAD
1000
ACAD_MTEXT_DEFINED_HEIGHT_BEGIN
1070
    46
1040
0.0
1000
ACAD_MTEXT_DEFINED_HEIGHT_END
  0
TEXT
  5
D34
330
1F
100
AcDbEntity
  8
0
 62
     3
100
AcDbText
 10
681.7418181884224
 20
-34.25493106348246
 30
0.0
 40
3.2
  1
型 式
  7
高3.2
100
AcDbText
1001
ACAD
1000
ACAD_MTEXT_DEFINED_HEIGHT_BEGIN
1070
    46
1040
3.064735913775952
1000
ACAD_MTEXT_DEFINED_HEIGHT_END
  0
TEXT
  5
D35
330
1F
100
AcDbEntity
  8
0
 62
     3
100
AcDbText
 10
681.7418181884224
 20
-41.25493106348243
 30
0.0
 40
3.2
  1
材 質
  7
高3.2
100
AcDbText
1001
ACAD
1000
ACAD_MTEXT_DEFINED_HEIGHT_BEGIN
1070
    46
1040
0.0
1000
ACAD_MTEXT_DEFINED_HEIGHT_END
  0
TEXT
  5
D36
330
1F
100
AcDbEntity
  8
0
 62
     3
100
AcDbText
 10
681.4367832384224
 20
-48.2874910712362
 30
0.0
 40
3.2
  1
第 三 角 法
  7
高3.2
100
AcDbText
1001
ACAD
1000
ACAD_MTEXT_DEFINED_HEIGHT_BEGIN
1070
    46
1040
0.0
1000
ACAD_MTEXT_DEFINED_HEIGHT_END
  0
TEXT
  5
D37
330
1F
100
AcDbEntity
  8
0
 62
     3
100
AcDbText
 10
679.8433158459512
 20
-57.6144028555975
 30
0.0
 40
3.2
  1
日動工業株式会社
 41
1.199999999999999
  7
高3.2
100
AcDbText
1001
ACAD
1000
ACAD_MTEXT_DEFINED_HEIGHT_BEGIN
1070
    46
1040
0.0
1000
ACAD_MTEXT_DEFINED_HEIGHT_END
  0
TEXT
  5
D38
330
1F
100
AcDbEntity
  8
0
 62
     3
100
AcDbText
 10
713.4789400454296
 20
-41.37035253031489
 30
0.0
 40
3.2
  1
備考
  7
高3.2
100
AcDbText
1001
ACAD
1000
ACAD_MTEXT_DEFINED_HEIGHT_BEGIN
1070
    46
1040
0.0
1000
ACAD_MTEXT_DEFINED_HEIGHT_END
  0
TEXT
  5
D39
330
1F
100
AcDbEntity
  8
0
 62
     3
100
AcDbText
 10
723.1279974924651
 20
-52.60870103791216
 30
0.0
 40
2.5
  1
出図コード
  7
高2.5
100
AcDbText
1001
ACAD
1000
ACAD_MTEXT_DEFINED_HEIGHT_BEGIN
1070
    46
1040
0.0
1000
ACAD_MTEXT_DEFINED_HEIGHT_END
  0
TEXT
  5
D3A
330
1F
100
AcDbEntity
  8
0
 62
     3
100
AcDbText
 10
713.3201739273422
 20
-48.30169615306953
 30
0.0
 40
3.2
  1
尺度
  7
高3.2
100
AcDbText
1001
ACAD
1000
ACAD_MTEXT_DEFINED_HEIGHT_BEGIN
1070
    46
1040
0.0
1000
ACAD_MTEXT_DEFINED_HEIGHT_END
  0
TEXT
  5
D3B
330
1F
100
AcDbEntity
  8
0
 62
     3
100
AcDbText
 10
740.4664354091209
 20
-47.17021770495203
 30
0.0
 40
3.2
  1
作成日
  7
高3.2
100
AcDbText
1001
ACAD
1000
ACAD_MTEXT_DEFINED_HEIGHT_BEGIN
1070
    46
1040
0.0
1000
ACAD_MTEXT_DEFINED_HEIGHT_END
  0
LINE
  5
D3C
330
1F
100
AcDbEntity
  8
0
 62
     7
100
AcDbLine
 10
714.7801624549956
 20
207.6421832496568
 30
0.0
 11
712.5301624527492
 21
203.7450689365177
 31
0.0
  0
LINE
  5
D3D
330
1F
100
AcDbEntity
  8
0
 62
     7
100
AcDbLine
 10
714.7801624549956
 20
207.6421832496568
 30
0.0
 11
717.0301624527492
 21
203.7450689365177
 31
0.0
  0
LINE
  5
D3E
330
1F
100
AcDbEntity
  8
0
 62
     7
100
AcDbLine
 10
712.5301624527492
 20
203.7450689365177
 30
0.0
 11
717.0301624527492
 21
203.7450689365177
 31
0.0
  0
LINE
  5
D3F
330
1F
100
AcDbEntity
  8
0
 62
     7
100
AcDbLine
 10
714.7801624498677
 20
201.6421832585383
 30
0.0
 11
712.5301624527492
 21
197.7450689365176
 31
0.0
  0
LINE
  5
D40
330
1F
100
AcDbEntity
  8
0
 62
     7
100
AcDbLine
 10
714.7801624498677
 20
201.6421832585383
 30
0.0
 11
717.0301624527492
 21
197.7450689365176
 31
0.0
  0
LINE
  5
D41
330
1F
100
AcDbEntity
  8
0
 62
     7
100
AcDbLine
 10
712.5301624527492
 20
197.7450689365176
 30
0.0
 11
717.0301624527492
 21
197.7450689365176
 31
0.0
  0
TEXT
  5
D44
330
1F
100
AcDbEntity
  8
0
 62
     3
100
AcDbText
 10
740.3609094159851
 20
-26.61440285559751
 30
0.0
 40
3.2
  1
承 認
  7
高3.2
100
AcDbText
1001
ACAD
1000
ACAD_MTEXT_DEFINED_HEIGHT_BEGIN
1070
    46
1040
0.0
1000
ACAD_MTEXT_DEFINED_HEIGHT_END
  0
TEXT
  5
D45
330
1F
100
AcDbEntity
  8
0
 62
     3
100
AcDbText
 10
753.3609094159848
 20
-26.61440285559751
 30
0.0
 40
3.2
  1
検 図
  7
高3.2
100
AcDbText
1001
ACAD
1000
ACAD_MTEXT_DEFINED_HEIGHT_BEGIN
1070
    46
1040
0.0
1000
ACAD_MTEXT_DEFINED_HEIGHT_END
  0
TEXT
  5
D46
330
1F
100
AcDbEntity
  8
0
 62
     3
100
AcDbText
 10
766.3609094159848
 20
-26.61440285559751
 30
0.0
 40
3.2
  1
設 計
  7
高3.2
100
AcDbText
1001
ACAD
1000
ACAD_MTEXT_DEFINED_HEIGHT_BEGIN
1070
    46
1040
0.0
1000
ACAD_MTEXT_DEFINED_HEIGHT_END
  0
TEXT
  5
D47
330
1F
100
AcDbEntity
  8
0
 62
     3
100
AcDbText
 10
779.6615459359848
 20
-26.61440285559751
 30
0.0
 40
3.2
  1
製 図
  7
高3.2
100
AcDbText
1001
ACAD
1000
ACAD_MTEXT_DEFINED_HEIGHT_BEGIN
1070
    46
1040
0.0
1000
ACAD_MTEXT_DEFINED_HEIGHT_END
  0
TEXT
  5
D48
330
1F
100
AcDbEntity
  8
0
 62
     3
100
AcDbText
 10
779.560563985921
 20
209.2450689365177
 30
0.0
 40
3.2
  1
担　当
  7
高3.2
100
AcDbText
  0
TEXT
  5
D49
330
1F
100
AcDbEntity
  8
0
 62
     3
100
AcDbText
 10
744.5735020740045
 20
209.2450689365177
 30
0.0
 40
3.2
  1
変更・追記内容
  7
高3.2
100
AcDbText
  0
TEXT
  5
D4A
330
1F
100
AcDbEntity
  8
0
 62
     3
100
AcDbText
 10
722.3371618956895
 20
209.2450689365177
 30
0.0
 40
3.2
  1
日　付
  7
高3.2
100
AcDbText
  0
TEXT
  5
D4B
330
1F
100
AcDbEntity
  8
0
 62
     3
100
AcDbText
 10
719.7494148931252
 20
214.3343187565176
 30
0.0
 40
3.2
  1
図　　　　面　　　　略　　　　歴
  7
高3.2
100
AcDbText
  0
TEXT
  5
D4C
330
1F
100
AcDbEntity
  8
0
 62
     3
100
AcDbText
 10
711.6098231791487
 20
209.2450689365177
 30
0.0
 40
3.2
  1
記号
  7
高3.2
100
AcDbText
  0
TEXT
  5
D4D
330
1F
100
AcDbEntity
  8
0
 62
     3
100
AcDbText
 10
694.1177877887175
 20
-30.70050416314739
 30
0.0
 40
2.5
  1
NLA-120R-100
  7
高2.5
100
AcDbText
  0
TEXT
  5
D4E
330
1F
100
AcDbEntity
  8
0
 62
     3
100
AcDbText
 10
694.1713972187175
 20
-37.9429647365396
 30
0.0
 40
2.5
  1
PMMA
  7
高2.5
100
AcDbText
  0
TEXT
  5
D4F
330
1F
100
AcDbEntity
  8
0
 62
     7
100
AcDbText
 10
782.5912655577922
 20
-38.37770536902076
 30
0.0
 40
4.5
  1
I
  7
高4.5
100
AcDbText
1001
ACAD
1000
ACAD_MTEXT_DEFINED_HEIGHT_BEGIN
1070
    46
1040
0.0
1000
ACAD_MTEXT_DEFINED_HEIGHT_END
  0
LINE
  5
D50
330
1F
100
AcDbEntity
  8
0
 62
     3
100
AcDbLine
 10
790.9750285234653
 20
-12.75493106348244
 30
0.0
 11
738.9750285234654
 21
-12.75493106348243
 31
0.0
  0
LINE
  5
D51
330
1F
100
AcDbEntity
  8
0
 62
     3
100
AcDbLine
 10
790.9750285234653
 20
-6.754931063482437
 30
0.0
 11
738.9750285234654
 21
-6.754931063482432
 31
0.0
  0
LINE
  5
D52
330
1F
100
AcDbEntity
  8
0
 62
     3
100
AcDbLine
 10
790.9750285234653
 20
-0.754931063482438
 30
0.0
 11
738.9750285234654
 21
-0.7549310634824348
 31
0.0
  0
TEXT
  5
D53
330
1F
100
AcDbEntity
  8
0
 62
     3
100
AcDbText
 10
740.4363049734151
 20
-6.194878937992302
 30
0.0
 40
4.5
  1
型　　式
  7
高4.5
100
AcDbText
1001
ACAD
1000
ACAD_MTEXT_DEFINED_HEIGHT_BEGIN
1070
    46
1040
0.0
1000
ACAD_MTEXT_DEFINED_HEIGHT_END
  0
TEXT
  5
D54
330
1F
100
AcDbEntity
  8
0
 62
     3
100
AcDbText
 10
766.4363049734149
 20
-6.194878937992307
 30
0.0
 40
4.5
  1
コード
  7
高4.5
100
AcDbText
1001
ACAD
1000
ACAD_MTEXT_DEFINED_HEIGHT_BEGIN
1070
    46
1040
0.0
1000
ACAD_MTEXT_DEFINED_HEIGHT_END
  0
TEXT
  5
D5D
330
1F
100
AcDbEntity
  8
0
 62
     3
100
AcDbText
 10
740.4363049734151
 20
-12.1948789379923
 30
0.0
 40
3.2
  1
NLA-120R-100
 41
0.7
  7
高3.2
100
AcDbText
1001
ACAD
1000
ACAD_MTEXT_DEFINED_HEIGHT_BEGIN
1070
    46
1040
0.0
1000
ACAD_MTEXT_DEFINED_HEIGHT_END
  0
TEXT
  5
D5E
330
1F
100
AcDbEntity
  8
0
 62
     3
100
AcDbText
 10
766.4363049734149
 20
-12.19487893799231
 30
0.0
 40
4.5
  1
14005
  7
高4.5
100
AcDbText
1001
ACAD
1000
ACAD_MTEXT_DEFINED_HEIGHT_BEGIN
1070
    46
1040
0.0
1000
ACAD_MTEXT_DEFINED_HEIGHT_END
  0
TEXT
  5
D5F
330
1F
100
AcDbEntity
  8
0
 62
     3
100
AcDbText
 10
740.4363049734151
 20
-18.1948789379923
 30
0.0
 40
3.2
  1
NLA-120Y-100
 41
0.7
  7
高3.2
100
AcDbText
1001
ACAD
1000
ACAD_MTEXT_DEFINED_HEIGHT_BEGIN
1070
    46
1040
0.0
1000
ACAD_MTEXT_DEFINED_HEIGHT_END
  0
TEXT
  5
D60
330
1F
100
AcDbEntity
  8
0
 62
     3
100
AcDbText
 10
766.4363049734149
 20
-18.1948789379923
 30
0.0
 40
4.5
  1
14006
  7
高4.5
100
AcDbText
1001
ACAD
1000
ACAD_MTEXT_DEFINED_HEIGHT_BEGIN
1070
    46
1040
0.0
1000
ACAD_MTEXT_DEFINED_HEIGHT_END
  0
LINE
  5
DC0
330
1F
100
AcDbEntity
  8
0
 62
     7
100
AcDbLine
 10
714.3995390191052
 20
62.17700747050859
 30
0.0
 11
788.0163135984712
 21
62.1770074705083
 31
0.0
  0
LINE
  5
DC1
330
1F
100
AcDbEntity
  8
0
 62
     7
100
AcDbLine
 10
714.3995390191052
 20
67.1770074705086
 30
0.0
 11
788.0163135984712
 21
67.17700747050831
 31
0.0
  0
LINE
  5
DC2
330
1F
100
AcDbEntity
  8
0
 62
     7
100
AcDbLine
 10
714.3995390191052
 20
72.1770074705086
 30
0.0
 11
788.0163135984712
 21
72.1770074705083
 31
0.0
  0
LINE
  5
DC9
330
1F
100
AcDbEntity
  8
0
 62
     7
100
AcDbLine
 10
714.3995390191052
 20
77.17700747050828
 30
0.0
 11
788.0163135984712
 21
77.17700747050819
 31
0.0
  0
LINE
  5
DCA
330
1F
100
AcDbEntity
  8
0
 62
     7
100
AcDbLine
 10
714.3995390191052
 20
82.17700747050827
 30
0.0
 11
788.0163135984712
 21
82.17700747050825
 31
0.0
  0
LINE
  5
DCB
330
1F
100
AcDbEntity
  8
0
 62
     7
100
AcDbLine
 10
714.3995390191052
 20
87.17700747050827
 30
0.0
 11
788.0163135984712
 21
87.1770074705082
 31
0.0
  0
LINE
  5
DCC
330
1F
100
AcDbEntity
  8
0
 62
     7
100
AcDbLine
 10
714.3995390191052
 20
92.17700747050828
 30
0.0
 11
788.0163135984712
 21
92.17700747050811
 31
0.0
  0
LINE
  5
DCD
330
1F
100
AcDbEntity
  8
0
 62
     7
100
AcDbLine
 10
714.3995390191052
 20
97.17700747050828
 30
0.0
 11
788.0163135984712
 21
97.1770074705082
 31
0.0
  0
LINE
  5
DCE
330
1F
100
AcDbEntity
  8
0
 62
     7
100
AcDbLine
 10
714.3995390191052
 20
102.1770074705082
 30
0.0
 11
788.0163135984712
 21
102.1770074705081
 31
0.0
  0
LINE
  5
DCF
330
1F
100
AcDbEntity
  8
0
 62
     7
100
AcDbLine
 10
714.3995390191052
 20
107.1770074705082
 30
0.0
 11
788.0163135984712
 21
107.1770074705082
 31
0.0
  0
TEXT
  5
DD6
330
1F
100
AcDbEntity
  8
0
 62
     3
100
AcDbText
 10
736.5391199855223
 20
92.6770074705082
 30
0.0
 40
3.2
  1
100V(50/60Hz)
 41
0.8
  7
高3.2
100
AcDbText
  0
TEXT
  5
DD7
330
1F
100
AcDbEntity
  8
0
 62
     3
100
AcDbText
 10
716.0494780191052
 20
102.6770074705082
 30
0.0
 40
3.2
  1
グローブ色
 41
0.8
  7
高3.2
100
AcDbText
  0
TEXT
  5
DD8
330
1F
100
AcDbEntity
  8
0
 62
     3
100
AcDbText
 10
716.0494780191052
 20
97.67700747050829
 30
0.0
 40
3.2
  1
光　　　源
 41
0.8
  7
高3.2
100
AcDbText
  0
TEXT
  5
DD9
330
1F
100
AcDbEntity
  8
0
 62
     3
100
AcDbText
 10
716.0494780191052
 20
92.67700747050829
 30
0.0
 40
3.2
  1
定格　電圧
 41
0.8
  7
高3.2
100
AcDbText
  0
TEXT
  5
DDA
330
1F
100
AcDbEntity
  8
0
 62
     3
100
AcDbText
 10
716.0494780191052
 20
87.67700747050827
 30
0.0
 40
3.2
  1
定格　電流
 41
0.8
  7
高3.2
100
AcDbText
  0
TEXT
  5
DDB
330
1F
100
AcDbEntity
  8
0
 62
     3
100
AcDbText
 10
716.0494780191052
 20
82.67700747050827
 30
0.0
 40
3.2
  1
消費　電力
 41
0.8
  7
高3.2
100
AcDbText
  0
TEXT
  5
DDC
330
1F
100
AcDbEntity
  8
0
 62
     3
100
AcDbText
 10
716.0494780191052
 20
77.6770074705084
 30
0.0
 40
3.2
  1
光　　　度
 41
0.8
  7
高3.2
100
AcDbText
  0
TEXT
  5
DDD
330
1F
100
AcDbEntity
  8
0
 62
     3
100
AcDbText
 10
716.0494780191052
 20
72.6770074705084
 30
0.0
 40
3.2
  1
照　射　角
 41
0.8
  7
高3.2
100
AcDbText
  0
TEXT
  5
DDF
330
1F
100
AcDbEntity
  8
0
 62
     3
100
AcDbText
 10
716.0494780191052
 20
52.84882015779921
 30
0.0
 40
3.2
  1
質　　　量
 41
0.8
  7
高3.2
100
AcDbText
  0
LINE
  5
DE0
330
1F
100
AcDbEntity
  8
0
 62
     7
100
AcDbLine
 10
734.8891809855223
 20
112.1770074705082
 30
0.0
 11
734.8891809855223
 21
52.17700747050848
 31
0.0
  0
LINE
  5
DE1
330
1F
100
AcDbEntity
  8
0
 62
     3
100
AcDbLine
 10
714.3995390191054
 20
112.1770074705082
 30
0.0
 11
714.3995390191056
 21
52.17700747050859
 31
0.0
  0
TEXT
  5
DE2
330
1F
100
AcDbEntity
  8
0
 62
     3
100
AcDbText
 10
736.5391199855223
 20
97.6770074705082
 30
0.0
 40
3.2
  1
LED 32球
 41
0.8
  7
高3.2
100
AcDbText
  0
TEXT
  5
DE3
330
1F
100
AcDbEntity
  8
0
 62
     3
100
AcDbText
 10
736.5391199855223
 20
87.6770074705082
 30
0.0
 40
3.2
  1
0.013A
 41
0.8
  7
高3.2
100
AcDbText
  0
TEXT
  5
DE4
330
1F
100
AcDbEntity
  8
0
 62
     3
100
AcDbText
 10
736.5391199855223
 20
82.67700747050819
 30
0.0
 40
3.2
  1
1.1W
 41
0.8
  7
高3.2
100
AcDbText
  0
TEXT
  5
DE5
330
1F
100
AcDbEntity
  8
0
 62
     3
100
AcDbText
 10
736.5391199855223
 20
77.6770074705084
 30
0.0
 40
3.2
  1
5800mcd
 41
0.8
  7
高3.2
100
AcDbText
  0
TEXT
  5
DE8
330
1F
100
AcDbEntity
  8
0
 62
     3
100
AcDbText
 10
736.5391199855223
 20
72.67700747050819
 30
0.0
 40
3.2
  1
360\U+00B0
 41
0.8
  7
高3.2
100
AcDbText
  0
TEXT
  5
DEA
330
1F
100
AcDbEntity
  8
0
 62
     3
100
AcDbText
 10
736.5391199855223
 20
52.84882015779921
 30
0.0
 40
3.2
  1
0.53kg
 41
0.8
  7
高3.2
100
AcDbText
  0
TEXT
  5
DEB
330
1F
100
AcDbEntity
  8
0
 62
     3
100
AcDbText
 10
716.0494780191052
 20
62.84882015779928
 30
0.0
 40
3.2
  1
使用環境温度
 41
0.8
  7
高3.2
100
AcDbText
  0
TEXT
  5
DEC
330
1F
100
AcDbEntity
  8
0
 62
     3
100
AcDbText
 10
736.5391199855223
 20
62.84882015779897
 30
0.0
 40
3.2
  1
-10～50℃
 41
0.8
  7
高3.2
100
AcDbText
  0
TEXT
  5
DF0
330
1F
100
AcDbEntity
  8
0
 62
     3
100
AcDbText
 10
736.5350957239038
 20
102.6952213378578
 30
0.0
 40
3.2
  1
赤
 41
0.8
  7
高3.2
100
AcDbText
  0
LINE
  5
DF1
330
1F
100
AcDbEntity
  8
0
 62
     7
100
AcDbLine
 10
761.2904407274717
 20
112.1770074705082
 30
0.0
 11
761.2904407274717
 21
102.1770074705082
 31
0.0
  0
LINE
  5
DF2
330
1F
100
AcDbEntity
  8
0
 62
     3
100
AcDbLine
 10
714.3995390191052
 20
52.17700747050859
 30
0.0
 11
788.0163135984712
 21
52.1770074705083
 31
0.0
  0
TEXT
  5
DF3
330
1F
100
AcDbEntity
  8
0
 62
     3
100
AcDbText
 10
716.0494780191047
 20
68.01448276093918
 30
0.0
 40
3.2
  1
LED寿命
 41
0.8
  7
高3.2
100
AcDbText
  0
TEXT
  5
DF4
330
1F
100
AcDbEntity
  8
0
 62
     3
100
AcDbText
 10
736.5391199855223
 20
68.01448276093918
 30
0.0
 40
3.2
  1
約40000時間
 41
0.8
  7
高3.2
100
AcDbText
  0
TEXT
  5
DF8
330
1F
100
AcDbEntity
  8
0
 62
     3
100
AcDbText
 10
762.9403797274719
 20
82.67700747050808
 30
0.0
 40
3.2
  1
1.2W
 41
0.8
  7
高3.2
100
AcDbText
  0
TEXT
  5
E03
330
1F
100
AcDbEntity
  8
0
 62
     3
100
AcDbText
 10
762.9363554658532
 20
102.6952213378577
 30
0.0
 40
3.2
  1
黄
 41
0.8
  7
高3.2
100
AcDbText
  0
LINE
  5
E04
330
1F
100
AcDbEntity
  8
0
 62
     3
100
AcDbLine
 10
788.0163135984712
 20
112.1770074705082
 30
0.0
 11
788.0163135984712
 21
52.17700747050828
 31
0.0
  0
LINE
  5
E06
330
1F
100
AcDbEntity
  8
0
 62
     7
100
AcDbLine
 10
761.2904407274717
 20
92.1770074705082
 30
0.0
 11
761.2904407274717
 21
82.17700747050827
 31
0.0
  0
LINE
  5
E07
330
1F
100
AcDbEntity
  8
0
 62
     3
100
AcDbLine
 10
714.3995390191052
 20
112.1770074705082
 30
0.0
 11
788.0163135984712
 21
112.1770074705082
 31
0.0
  0
TEXT
  5
E08
330
1F
100
AcDbEntity
  8
0
 62
     3
100
AcDbText
 10
716.0494780191052
 20
107.6770074705083
 30
0.0
 40
3.2
  1
型　　　式
 41
0.8
  7
高3.2
100
AcDbText
  0
TEXT
  5
E09
330
1F
100
AcDbEntity
  8
0
 62
     3
100
AcDbText
 10
736.5350957239038
 20
107.6952213378577
 30
0.0
 40
3.2
  1
NLA-120R-100
 41
0.7
  7
高3.2
100
AcDbText
  0
TEXT
  5
E0A
330
1F
100
AcDbEntity
  8
0
 62
     3
100
AcDbText
 10
762.9363554658532
 20
107.6952213378577
 30
0.0
 40
3.2
  1
NLA-120Y-100
 41
0.7
  7
高3.2
100
AcDbText
  0
LINE
  5
E14
330
1F
100
AcDbEntity
  8
0
 62
     7
100
AcDbLine
 10
714.3995390191052
 20
57.17700747050859
 30
0.0
 11
788.0163135984712
 21
57.1770074705083
 31
0.0
  0
TEXT
  5
E15
330
1F
100
AcDbEntity
  8
0
 62
     3
100
AcDbText
 10
716.0494780191052
 20
57.84882015779928
 30
0.0
 40
3.2
  1
防水　規格
 41
0.8
  7
高3.2
100
AcDbText
  0
TEXT
  5
E16
330
1F
100
AcDbEntity
  8
0
 62
     3
100
AcDbText
 10
736.5391199855223
 20
57.84882015779897
 30
0.0
 40
3.2
  1
IP23
 41
0.8
  7
高3.2
100
AcDbText
  0
TEXT
  5
E17
330
1F
100
AcDbEntity
  8
0
 62
     3
100
AcDbText
 10
731.7340998257582
 20
116.1281246035951
 30
0.0
 40
4.5
  1
主　　仕　　様
  7
高4.5
100
AcDbText
  0
LINE
  5
E18
330
1F
100
AcDbEntity
  8
0
 62
     7
100
AcDbLine
 10
731.205106576067
 20
115.4609546867688
 30
0.0
 11
768.4612118165333
 21
115.4609546867688
 31
0.0
  0
LINE
  5
F7D
330
1F
100
AcDbEntity
  8
0
100
AcDbLine
 10
674.271517243724
 20
180.1419363341037
 30
0.0
 11
674.271517243724
 21
84.96364059418345
 31
0.0
  0
LINE
  5
F7E
330
1F
100
AcDbEntity
  8
0
 62
     7
100
AcDbLine
 10
675.3215172437237
 20
90.59070909587996
 30
0.0
 11
673.2215172437239
 21
90.59070909587996
 31
0.0
  0
LINE
  5
F80
330
1F
100
AcDbEntity
  8
0
 62
     3
100
AcDbLine
 10
704.271517243724
 20
126.3407090958799
 30
0.0
 11
704.271517243724
 21
128.0907090958799
 31
0.0
  0
LINE
  5
F81
330
1F
100
AcDbEntity
  8
0
 62
     3
100
AcDbLine
 10
644.271517243724
 20
126.3407090958799
 30
0.0
 11
644.271517243724
 21
128.0907090958799
 31
0.0
  0
LINE
  5
F83
330
1F
100
AcDbEntity
  8
0
  6
CENTER
 62
     7
100
AcDbLine
 10
709.4533352809942
 20
30.56653533183697
 30
0.0
 11
639.0896992064538
 21
30.56653533183697
 31
0.0
  0
ARC
  5
F84
330
1F
100
AcDbEntity
  8
0
 62
     3
100
AcDbCircle
 10
674.271517243724
 20
30.56653533183697
 30
0.0
 40
30.0
100
AcDbArc
 50
129.8880154632739
 51
125.111984536728
  0
CIRCLE
  5
F85
330
1F
100
AcDbEntity
  8
0
  6
CENTER
 62
     7
100
AcDbCircle
 10
674.271517243724
 20
30.56653533183697
 30
0.0
 40
17.5
  0
LINE
  5
F87
330
1F
100
AcDbEntity
  8
0
 62
     3
100
AcDbLine
 10
647.7271642874842
 20
102.8407090958799
 30
0.0
 11
700.8158701999636
 21
102.8407090958799
 31
0.0
  0
CIRCLE
  5
F88
330
1F
100
AcDbEntity
  8
0
 62
     7
100
AcDbCircle
 10
674.271517243724
 20
48.06653533183697
 30
0.0
 40
4.0
  0
CIRCLE
  5
F89
330
1F
100
AcDbEntity
  8
0
 62
     3
100
AcDbCircle
 10
674.271517243724
 20
48.06653533183697
 30
0.0
 40
3.75
  0
LINE
  5
F8F
330
1F
100
AcDbEntity
  8
0
 62
     3
100
AcDbLine
 10
678.2138249360316
 20
102.8407090958799
 30
0.0
 11
678.021517243724
 21
97.84070909587995
 31
0.0
  0
LINE
  5
F90
330
1F
100
AcDbEntity
  8
0
 62
     3
100
AcDbLine
 10
678.021517243724
 20
97.84070909587995
 30
0.0
 11
670.521517243724
 21
97.84070909587995
 31
0.0
  0
LINE
  5
F91
330
1F
100
AcDbEntity
  8
0
 62
     3
100
AcDbLine
 10
670.521517243724
 20
97.84070909587995
 30
0.0
 11
670.3292095514163
 21
102.8407090958799
 31
0.0
  0
CIRCLE
  5
F92
330
1F
100
AcDbEntity
  8
0
 62
     7
100
AcDbCircle
 10
674.271517243724
 20
48.06653533183697
 30
0.0
 40
3.0
  0
LINE
  5
F93
330
1F
100
AcDbEntity
  8
0
 62
     7
100
AcDbLine
 10
676.271517243724
 20
49.22123587021485
 30
0.0
 11
676.271517243724
 21
46.91183479345761
 31
0.0
  0
CIRCLE
  5
F94
330
1F
100
AcDbEntity
  8
0
 62
     7
100
AcDbCircle
 10
674.271517243724
 20
48.06653533183697
 30
0.0
 40
1.25
  0
LINE
  5
F95
330
1F
100
AcDbEntity
  8
0
 62
     7
100
AcDbLine
 10
676.2715172437244
 20
49.22123587021586
 30
0.0
 11
674.2715172437226
 21
50.37593640859622
 31
0.0
  0
LINE
  5
F96
330
1F
100
AcDbEntity
  8
0
 62
     7
100
AcDbLine
 10
674.2715172437232
 20
50.37593640859507
 30
0.0
 11
672.271517243724
 21
49.22123587021625
 31
0.0
  0
LINE
  5
F97
330
1F
100
AcDbEntity
  8
0
 62
     7
100
AcDbLine
 10
672.271517243724
 20
49.22123587021633
 30
0.0
 11
672.271517243724
 21
46.91183479345069
 31
0.0
  0
LINE
  5
F98
330
1F
100
AcDbEntity
  8
0
 62
     7
100
AcDbLine
 10
672.2715172437273
 20
46.91183479345597
 30
0.0
 11
674.2715172437181
 21
45.75713425508188
 31
0.0
  0
LINE
  5
F99
330
1F
100
AcDbEntity
  8
0
 62
     7
100
AcDbLine
 10
674.2715172437213
 20
45.75713425507685
 30
0.0
 11
676.271517243724
 21
46.91183479345768
 31
0.0
  0
LINE
  5
F9A
330
1F
100
AcDbEntity
  8
0
  6
CENTER
 62
     7
100
AcDbLine
 10
674.271517243724
 20
30.56653533183697
 30
0.0
 11
643.8031690721262
 21
12.97562631320186
 31
0.0
  0
LINE
  5
F9B
330
1F
100
AcDbEntity
  8
0
  6
CENTER
 62
     7
100
AcDbLine
 10
674.271517243724
 20
30.56653533183697
 30
0.0
 11
704.7398654153218
 21
12.97562631320181
 31
0.0
  0
LINE
  5
F9C
330
1F
100
AcDbEntity
  8
0
 62
     7
100
AcDbLine
 10
661.1160726774962
 20
22.97123587021486
 30
0.0
 11
661.1160726774962
 21
20.66183479345762
 31
0.0
  0
CIRCLE
  5
F9D
330
1F
100
AcDbEntity
  8
0
 62
     7
100
AcDbCircle
 10
659.1160726774963
 20
21.81653533183697
 30
0.0
 40
4.0
  0
CIRCLE
  5
F9E
330
1F
100
AcDbEntity
  8
0
 62
     3
100
AcDbCircle
 10
659.1160726774963
 20
21.81653533183697
 30
0.0
 40
3.75
  0
CIRCLE
  5
F9F
330
1F
100
AcDbEntity
  8
0
 62
     7
100
AcDbCircle
 10
659.1160726774963
 20
21.81653533183697
 30
0.0
 40
3.0
  0
CIRCLE
  5
FA0
330
1F
100
AcDbEntity
  8
0
 62
     7
100
AcDbCircle
 10
659.1160726774963
 20
21.81653533183697
 30
0.0
 40
1.25
  0
LINE
  5
FA1
330
1F
100
AcDbEntity
  8
0
 62
     7
100
AcDbLine
 10
661.1160726774969
 20
22.97123587021587
 30
0.0
 11
659.1160726774949
 21
24.12593640859621
 31
0.0
  0
LINE
  5
FA2
330
1F
100
AcDbEntity
  8
0
 62
     7
100
AcDbLine
 10
659.1160726774956
 20
24.12593640859507
 30
0.0
 11
657.1160726774962
 21
22.97123587021624
 31
0.0
  0
LINE
  5
FA3
330
1F
100
AcDbEntity
  8
0
 62
     7
100
AcDbLine
 10
657.1160726774962
 20
22.97123587021633
 30
0.0
 11
657.1160726774962
 21
20.66183479345069
 31
0.0
  0
LINE
  5
FA4
330
1F
100
AcDbEntity
  8
0
 62
     7
100
AcDbLine
 10
657.1160726774992
 20
20.66183479345597
 30
0.0
 11
659.1160726774902
 21
19.50713425508187
 31
0.0
  0
LINE
  5
FA5
330
1F
100
AcDbEntity
  8
0
 62
     7
100
AcDbLine
 10
659.1160726774935
 20
19.50713425507685
 30
0.0
 11
661.1160726774962
 21
20.66183479345772
 31
0.0
  0
LINE
  5
FA6
330
1F
100
AcDbEntity
  8
0
 62
     7
100
AcDbLine
 10
691.4269618099517
 20
22.97123587021486
 30
0.0
 11
691.4269618099517
 21
20.66183479345764
 31
0.0
  0
CIRCLE
  5
FA7
330
1F
100
AcDbEntity
  8
0
 62
     7
100
AcDbCircle
 10
689.4269618099517
 20
21.81653533183698
 30
0.0
 40
4.0
  0
CIRCLE
  5
FA8
330
1F
100
AcDbEntity
  8
0
 62
     3
100
AcDbCircle
 10
689.4269618099517
 20
21.81653533183698
 30
0.0
 40
3.75
  0
CIRCLE
  5
FA9
330
1F
100
AcDbEntity
  8
0
 62
     7
100
AcDbCircle
 10
689.4269618099517
 20
21.81653533183698
 30
0.0
 40
3.0
  0
CIRCLE
  5
FAA
330
1F
100
AcDbEntity
  8
0
 62
     7
100
AcDbCircle
 10
689.4269618099517
 20
21.81653533183698
 30
0.0
 40
1.25
  0
LINE
  5
FAB
330
1F
100
AcDbEntity
  8
0
 62
     7
100
AcDbLine
 10
691.4269618099522
 20
22.97123587021589
 30
0.0
 11
689.4269618099504
 21
24.12593640859622
 31
0.0
  0
LINE
  5
FAC
330
1F
100
AcDbEntity
  8
0
 62
     7
100
AcDbLine
 10
689.4269618099507
 20
24.12593640859508
 30
0.0
 11
687.4269618099518
 21
22.97123587021626
 31
0.0
  0
LINE
  5
FAD
330
1F
100
AcDbEntity
  8
0
 62
     7
100
AcDbLine
 10
687.4269618099518
 20
22.97123587021634
 30
0.0
 11
687.4269618099518
 21
20.66183479345071
 31
0.0
  0
LINE
  5
FAE
330
1F
100
AcDbEntity
  8
0
 62
     7
100
AcDbLine
 10
687.4269618099547
 20
20.66183479345599
 30
0.0
 11
689.4269618099456
 21
19.50713425508189
 31
0.0
  0
LINE
  5
FAF
330
1F
100
AcDbEntity
  8
0
 62
     7
100
AcDbLine
 10
689.4269618099484
 20
19.50713425507687
 30
0.0
 11
691.4269618099517
 21
20.66183479345773
 31
0.0
  0
LINE
  5
FB2
330
1F
100
AcDbEntity
  8
0
 62
     7
100
AcDbLine
 10
677.271517243724
 20
97.34070909587996
 30
0.0
 11
677.271517243724
 21
97.84070909587995
 31
0.0
  0
LINE
  5
FB3
330
1F
100
AcDbEntity
  8
0
 62
     7
100
AcDbLine
 10
671.271517243724
 20
97.34070909587996
 30
0.0
 11
671.271517243724
 21
97.84070909587995
 31
0.0
  0
LINE
  5
FB4
330
1F
100
AcDbEntity
  8
0
 62
     7
100
AcDbLine
 10
677.271517243724
 20
97.34070909587996
 30
0.0
 11
671.271517243724
 21
97.34070909587996
 31
0.0
  0
LINE
  5
FB5
330
1F
100
AcDbEntity
  8
0
 62
     7
100
AcDbLine
 10
676.271517243724
 20
94.94070909587994
 30
0.0
 11
676.271517243724
 21
97.34070909587996
 31
0.0
  0
LINE
  5
FB6
330
1F
100
AcDbEntity
  8
0
 62
     7
100
AcDbLine
 10
672.271517243724
 20
94.94070909587994
 30
0.0
 11
672.271517243724
 21
97.34070909587996
 31
0.0
  0
LINE
  5
FB7
330
1F
100
AcDbEntity
  8
0
 62
     7
100
AcDbLine
 10
676.271517243724
 20
96.59070909587995
 30
0.0
 11
672.271517243724
 21
96.59070909587995
 31
0.0
  0
LINE
  5
FBA
330
1F
100
AcDbEntity
  8
0
 62
     7
100
AcDbLine
 10
676.271517243724
 20
94.94070909587994
 30
0.0
 11
672.271517243724
 21
94.94070909587994
 31
0.0
  0
ARC
  5
FBD
330
1F
100
AcDbEntity
  8
0
 62
     7
100
AcDbCircle
 10
673.271517243724
 20
94.46570909588007
 30
0.0
 40
2.124999999999899
100
AcDbArc
 50
61.9275130641455
 51
118.0724869358545
  0
ARC
  5
FBE
330
1F
100
AcDbEntity
  8
0
 62
     7
100
AcDbCircle
 10
675.271517243724
 20
94.4657090958802
 30
0.0
 40
2.124999999999773
100
AcDbArc
 50
61.9275130641451
 51
118.0724869358545
  0
ARC
  5
FC5
330
1F
100
AcDbEntity
  8
0
 62
     7
100
AcDbCircle
 10
675.271517243724
 20
97.06570909588002
 30
0.0
 40
2.125000000000019
100
AcDbArc
 50
241.9275130641455
 51
298.0724869358545
  0
ARC
  5
FC6
330
1F
100
AcDbEntity
  8
0
 62
     7
100
AcDbCircle
 10
673.271517243724
 20
97.06570909588002
 30
0.0
 40
2.125000000000019
100
AcDbArc
 50
241.9275130641455
 51
298.0724869358545
  0
LINE
  5
FC7
330
1F
100
AcDbEntity
  8
0
 62
     7
100
AcDbLine
 10
675.521517243724
 20
90.70617914971789
 30
0.0
 11
675.521517243724
 21
94.94070909587994
 31
0.0
  0
LINE
  5
FC8
330
1F
100
AcDbEntity
  8
0
 62
     7
100
AcDbLine
 10
673.021517243724
 20
90.70617914971792
 30
0.0
 11
673.021517243724
 21
94.94070909587994
 31
0.0
  0
LINE
  5
FC9
330
1F
100
AcDbEntity
  8
0
 62
     7
100
AcDbLine
 10
675.3215172437237
 20
90.59070909587996
 30
0.0
 11
675.3215172437237
 21
94.94070909587994
 31
0.0
  0
LINE
  5
FCA
330
1F
100
AcDbEntity
  8
0
 62
     7
100
AcDbLine
 10
673.2215172437239
 20
90.59070909587996
 30
0.0
 11
673.2215172437239
 21
94.94070909587994
 31
0.0
  0
LINE
  5
FCB
330
1F
100
AcDbEntity
  8
0
 62
     7
100
AcDbLine
 10
675.521517243724
 20
90.70617914971792
 30
0.0
 11
675.3215172437237
 21
90.59070909587996
 31
0.0
  0
LINE
  5
FCC
330
1F
100
AcDbEntity
  8
0
 62
     7
100
AcDbLine
 10
673.021517243724
 20
90.70617914971792
 30
0.0
 11
673.2215172437239
 21
90.59070909587996
 31
0.0
  0
LINE
  5
FCD
330
1F
100
AcDbEntity
  8
0
 62
     7
100
AcDbLine
 10
673.021517243724
 20
90.70617914971792
 30
0.0
 11
675.521517243724
 21
90.70617914971792
 31
0.0
  0
LINE
  5
FCE
330
1F
100
AcDbEntity
  8
0
 62
     7
100
AcDbLine
 10
688.1769618099517
 20
90.70617914971792
 30
0.0
 11
688.1769618099517
 21
94.94070909587994
 31
0.0
  0
LINE
  5
FCF
330
1F
100
AcDbEntity
  8
0
 62
     7
100
AcDbLine
 10
688.3769618099513
 20
90.59070909587996
 30
0.0
 11
688.3769618099513
 21
94.94070909587994
 31
0.0
  0
LINE
  5
FD0
330
1F
100
AcDbEntity
  8
0
 62
     7
100
AcDbLine
 10
690.6769618099517
 20
90.70617914971792
 30
0.0
 11
690.6769618099517
 21
94.94070909587994
 31
0.0
  0
LINE
  5
FD1
330
1F
100
AcDbEntity
  8
0
 62
     7
100
AcDbLine
 10
690.4769618099513
 20
90.59070909587996
 30
0.0
 11
690.4769618099513
 21
94.94070909587994
 31
0.0
  0
LINE
  5
FD2
330
1F
100
AcDbEntity
  8
0
 62
     7
100
AcDbLine
 10
687.4269618099518
 20
94.94070909587994
 30
0.0
 11
687.4269618099518
 21
97.34070909587996
 31
0.0
  0
LINE
  5
FD3
330
1F
100
AcDbEntity
  8
0
 62
     7
100
AcDbLine
 10
691.4269618099517
 20
94.94070909587994
 30
0.0
 11
691.4269618099517
 21
97.34070909587996
 31
0.0
  0
LINE
  5
FD4
330
1F
100
AcDbEntity
  8
0
 62
     7
100
AcDbLine
 10
690.4769618099513
 20
90.59070909587996
 30
0.0
 11
688.3769618099513
 21
90.59070909587996
 31
0.0
  0
LINE
  5
FD5
330
1F
100
AcDbEntity
  8
0
 62
     3
100
AcDbLine
 10
693.3692695022592
 20
102.8407090958799
 30
0.0
 11
693.1769618099517
 21
97.84070909587995
 31
0.0
  0
LINE
  5
FD6
330
1F
100
AcDbEntity
  8
0
 62
     3
100
AcDbLine
 10
693.1769618099517
 20
97.84070909587995
 30
0.0
 11
685.6769618099518
 21
97.84070909587995
 31
0.0
  0
LINE
  5
FD7
330
1F
100
AcDbEntity
  8
0
 62
     7
100
AcDbLine
 10
692.4269618099518
 20
97.34070909587996
 30
0.0
 11
686.4269618099517
 21
97.34070909587996
 31
0.0
  0
LINE
  5
FD8
330
1F
100
AcDbEntity
  8
0
 62
     7
100
AcDbLine
 10
691.4269618099517
 20
96.59070909587995
 30
0.0
 11
687.4269618099518
 21
96.59070909587995
 31
0.0
  0
LINE
  5
FD9
330
1F
100
AcDbEntity
  8
0
 62
     7
100
AcDbLine
 10
691.4269618099517
 20
94.94070909587994
 30
0.0
 11
687.4269618099518
 21
94.94070909587994
 31
0.0
  0
LINE
  5
FDA
330
1F
100
AcDbEntity
  8
0
 62
     3
100
AcDbLine
 10
685.6769618099518
 20
97.84070909587995
 30
0.0
 11
685.4846541176437
 21
102.8407090958799
 31
0.0
  0
LINE
  5
FDB
330
1F
100
AcDbEntity
  8
0
 62
     7
100
AcDbLine
 10
692.4269618099518
 20
97.34070909587996
 30
0.0
 11
692.4269618099518
 21
97.84070909587995
 31
0.0
  0
LINE
  5
FDC
330
1F
100
AcDbEntity
  8
0
 62
     7
100
AcDbLine
 10
686.4269618099517
 20
97.34070909587996
 30
0.0
 11
686.4269618099517
 21
97.84070909587995
 31
0.0
  0
ARC
  5
FDD
330
1F
100
AcDbEntity
  8
0
 62
     7
100
AcDbCircle
 10
688.4269618099517
 20
94.46570909588007
 30
0.0
 40
2.124999999999899
100
AcDbArc
 50
61.9275130641455
 51
118.0724869358545
  0
ARC
  5
FDE
330
1F
100
AcDbEntity
  8
0
 62
     7
100
AcDbCircle
 10
690.4269618099513
 20
94.46570909588023
 30
0.0
 40
2.124999999999773
100
AcDbArc
 50
61.9275130641451
 51
118.0724869358545
  0
ARC
  5
FDF
330
1F
100
AcDbEntity
  8
0
 62
     7
100
AcDbCircle
 10
690.4269618099517
 20
97.06570909588002
 30
0.0
 40
2.125000000000019
100
AcDbArc
 50
241.9275130641455
 51
298.0724869358545
  0
ARC
  5
FE0
330
1F
100
AcDbEntity
  8
0
 62
     7
100
AcDbCircle
 10
688.4269618099517
 20
97.06570909588002
 30
0.0
 40
2.125000000000019
100
AcDbArc
 50
241.9275130641455
 51
298.0724869358545
  0
LINE
  5
FE1
330
1F
100
AcDbEntity
  8
0
 62
     7
100
AcDbLine
 10
690.6769618099517
 20
90.70617914971792
 30
0.0
 11
690.4769618099513
 21
90.59070909587996
 31
0.0
  0
LINE
  5
FE2
330
1F
100
AcDbEntity
  8
0
 62
     7
100
AcDbLine
 10
688.1769618099517
 20
90.70617914971792
 30
0.0
 11
688.3769618099513
 21
90.59070909587996
 31
0.0
  0
LINE
  5
FE3
330
1F
100
AcDbEntity
  8
0
 62
     7
100
AcDbLine
 10
688.1769618099517
 20
90.70617914971792
 30
0.0
 11
690.6769618099517
 21
90.70617914971792
 31
0.0
  0
LINE
  5
FE4
330
1F
100
AcDbEntity
  8
0
 62
     7
100
AcDbLine
 10
657.8660726774963
 20
90.70617914971792
 30
0.0
 11
657.8660726774963
 21
94.94070909587994
 31
0.0
  0
LINE
  5
FE5
330
1F
100
AcDbEntity
  8
0
 62
     7
100
AcDbLine
 10
658.0660726774961
 20
90.59070909587996
 30
0.0
 11
658.0660726774961
 21
94.94070909587994
 31
0.0
  0
LINE
  5
FE6
330
1F
100
AcDbEntity
  8
0
 62
     7
100
AcDbLine
 10
660.3660726774962
 20
90.70617914971789
 30
0.0
 11
660.3660726774962
 21
94.94070909587994
 31
0.0
  0
LINE
  5
FE7
330
1F
100
AcDbEntity
  8
0
 62
     7
100
AcDbLine
 10
660.1660726774962
 20
90.59070909587996
 30
0.0
 11
660.1660726774962
 21
94.94070909587994
 31
0.0
  0
LINE
  5
FE8
330
1F
100
AcDbEntity
  8
0
 62
     7
100
AcDbLine
 10
657.1160726774962
 20
94.94070909587994
 30
0.0
 11
657.1160726774962
 21
97.34070909587996
 31
0.0
  0
LINE
  5
FE9
330
1F
100
AcDbEntity
  8
0
 62
     7
100
AcDbLine
 10
661.1160726774962
 20
94.94070909587994
 30
0.0
 11
661.1160726774962
 21
97.34070909587996
 31
0.0
  0
LINE
  5
FEA
330
1F
100
AcDbEntity
  8
0
 62
     7
100
AcDbLine
 10
660.1660726774962
 20
90.59070909587996
 30
0.0
 11
658.0660726774961
 21
90.59070909587996
 31
0.0
  0
LINE
  5
FEC
330
1F
100
AcDbEntity
  8
0
 62
     3
100
AcDbLine
 10
662.5314825198545
 20
97.84070909587995
 30
0.0
 11
655.3660726774962
 21
97.84070909587995
 31
0.0
  0
LINE
  5
FED
330
1F
100
AcDbEntity
  8
0
 62
     7
100
AcDbLine
 10
662.1160726774962
 20
97.34070909587996
 30
0.0
 11
656.1160726774962
 21
97.34070909587996
 31
0.0
  0
LINE
  5
FEE
330
1F
100
AcDbEntity
  8
0
 62
     7
100
AcDbLine
 10
661.1160726774962
 20
96.59070909587995
 30
0.0
 11
657.1160726774962
 21
96.59070909587995
 31
0.0
  0
LINE
  5
FEF
330
1F
100
AcDbEntity
  8
0
 62
     7
100
AcDbLine
 10
661.1160726774962
 20
94.94070909587994
 30
0.0
 11
657.1160726774962
 21
94.94070909587994
 31
0.0
  0
LINE
  5
FF0
330
1F
100
AcDbEntity
  8
0
 62
     3
100
AcDbLine
 10
655.3660726774962
 20
97.84070909587995
 30
0.0
 11
655.1737649851888
 21
102.8407090958799
 31
0.0
  0
LINE
  5
FF1
330
1F
100
AcDbEntity
  8
0
 62
     7
100
AcDbLine
 10
662.1160726774962
 20
97.34070909587996
 30
0.0
 11
662.1160726774962
 21
97.84070909587995
 31
0.0
  0
LINE
  5
FF2
330
1F
100
AcDbEntity
  8
0
 62
     7
100
AcDbLine
 10
656.1160726774962
 20
97.34070909587996
 30
0.0
 11
656.1160726774962
 21
97.84070909587995
 31
0.0
  0
ARC
  5
FF3
330
1F
100
AcDbEntity
  8
0
 62
     7
100
AcDbCircle
 10
658.1160726774962
 20
94.46570909588007
 30
0.0
 40
2.124999999999899
100
AcDbArc
 50
61.9275130641455
 51
118.0724869358545
  0
ARC
  5
FF4
330
1F
100
AcDbEntity
  8
0
 62
     7
100
AcDbCircle
 10
660.1160726774963
 20
94.4657090958802
 30
0.0
 40
2.124999999999773
100
AcDbArc
 50
61.9275130641451
 51
118.0724869358545
  0
ARC
  5
FF5
330
1F
100
AcDbEntity
  8
0
 62
     7
100
AcDbCircle
 10
660.1160726774963
 20
97.06570909588002
 30
0.0
 40
2.125000000000019
100
AcDbArc
 50
241.9275130641455
 51
298.0724869358545
  0
ARC
  5
FF6
330
1F
100
AcDbEntity
  8
0
 62
     7
100
AcDbCircle
 10
658.1160726774962
 20
97.06570909588002
 30
0.0
 40
2.125000000000019
100
AcDbArc
 50
241.9275130641455
 51
298.0724869358545
  0
LINE
  5
FF7
330
1F
100
AcDbEntity
  8
0
 62
     7
100
AcDbLine
 10
660.3660726774962
 20
90.70617914971789
 30
0.0
 11
660.1660726774962
 21
90.59070909587996
 31
0.0
  0
LINE
  5
FF8
330
1F
100
AcDbEntity
  8
0
 62
     7
100
AcDbLine
 10
657.8660726774963
 20
90.70617914971789
 30
0.0
 11
658.0660726774961
 21
90.59070909587996
 31
0.0
  0
LINE
  5
FF9
330
1F
100
AcDbEntity
  8
0
 62
     7
100
AcDbLine
 10
657.8660726774963
 20
90.70617914971789
 30
0.0
 11
660.3660726774962
 21
90.70617914971789
 31
0.0
  0
LINE
  5
FFB
330
1F
100
AcDbEntity
  8
0
 62
     3
100
AcDbLine
 10
704.271517243724
 20
128.0907090958799
 30
0.0
 11
644.271517243724
 21
128.0907090958799
 31
0.0
  0
LINE
  5
FFC
330
1F
100
AcDbEntity
  8
0
 62
     7
100
AcDbLine
 10
704.271517243724
 20
126.3407090958799
 30
0.0
 11
644.271517243724
 21
126.3407090958799
 31
0.0
  0
LINE
  5
FFD
330
1F
100
AcDbEntity
  8
0
 62
     7
100
AcDbLine
 10
703.2672065785198
 20
124.3407090958799
 30
0.0
 11
702.8916454417711
 21
124.3407090958799
 31
0.0
  0
ARC
  5
FFE
330
1F
100
AcDbEntity
  8
0
 62
     3
100
AcDbCircle
 10
674.271517243724
 20
30.56653533183697
 30
0.0
 40
25.25
100
AcDbArc
 50
130.3375845645805
 51
124.6624154354174
  0
ARC
  5
1001
330
1F
100
AcDbEntity
  8
0
 62
     3
100
AcDbCircle
 10
674.271517243724
 20
30.56653533183697
 30
0.0
 40
27.0
100
AcDbArc
 50
130.1535308674093
 51
124.8464691325912
  0
LINE
  5
1004
330
1F
100
AcDbEntity
  8
0
 62
     3
100
AcDbLine
 10
701.3137208079599
 20
103.2943974114152
 30
0.0
 11
701.3180288716307
 21
103.3407090958799
 31
0.0
  0
LINE
  5
1005
330
1F
100
AcDbEntity
  8
0
 62
     3
100
AcDbLine
 10
703.7715172437117
 20
125.340709095868
 30
0.0
 11
704.271517243724
 21
126.3407090958799
 31
0.0
  0
LINE
  5
1006
330
1F
100
AcDbEntity
  8
0
 62
     3
100
AcDbLine
 10
644.271517243724
 20
126.3407090958799
 30
0.0
 11
644.7715172437298
 21
125.340709095868
 31
0.0
  0
LINE
  5
1007
330
1F
100
AcDbEntity
  8
0
 62
     3
100
AcDbLine
 10
647.225005615817
 20
103.3407090958799
 30
0.0
 11
647.2293136794881
 21
103.2943974114152
 31
0.0
  0
LINE
  5
100A
330
1F
100
AcDbEntity
  8
0
 62
     3
100
AcDbLine
 10
704.271517243724
 20
129.0907090958799
 30
0.0
 11
644.271517243724
 21
129.0907090958799
 31
0.0
  0
ARC
  5
100B
330
1F
100
AcDbEntity
  8
0
 62
     3
100
AcDbCircle
 10
703.1715172437241
 20
128.5907090958799
 30
0.0
 40
0.5000000000000303
100
AcDbArc
 50
270.0
 51
90.0
  0
ARC
  5
100C
330
1F
100
AcDbEntity
  8
0
 62
     3
100
AcDbCircle
 10
645.3715172437239
 20
128.5907090958799
 30
0.0
 40
0.5
100
AcDbArc
 50
90.0
 51
270.0
  0
LINE
  5
100D
330
1F
100
AcDbEntity
  8
0
 62
     7
100
AcDbLine
 10
649.0550488791275
 20
170.8407090958799
 30
0.0
 11
699.4879856083205
 21
170.8407090958799
 31
0.0
  0
ARC
  5
1015
330
1F
100
AcDbEntity
  8
0
 62
     3
100
AcDbCircle
 10
674.271517243724
 20
93.50698156370986
 30
0.0
 40
82.33372753217016
100
AcDbArc
 50
70.6094637441647
 51
109.3905362558353
  0
LINE
  5
1016
330
1F
100
AcDbEntity
  8
0
 62
     7
100
AcDbLine
 10
681.2485550028383
 20
103.3407090958799
 30
0.0
 11
681.42182279445
 21
103.3407090958799
 31
0.0
  0
ARC
  5
1017
330
1F
100
AcDbEntity
  8
0
 62
     7
100
AcDbCircle
 10
674.271517243724
 20
30.56653533183697
 30
0.0
 40
27.04651162790697
100
AcDbArc
 50
358.9407313530326
 51
1.059268646967461
  0
ARC
  5
101D
330
1F
100
AcDbEntity
  8
0
 62
     7
100
AcDbCircle
 10
674.271517243724
 20
30.56653533183697
 30
0.0
 40
29.0
100
AcDbArc
 50
15.9879072166581
 51
29.01209278334367
  0
ARC
  5
101E
330
1F
100
AcDbEntity
  8
0
 62
     7
100
AcDbCircle
 10
674.271517243724
 20
30.56653533183697
 30
0.0
 40
29.5
100
AcDbArc
 50
359.0288385910126
 51
0.9711614089864808
  0
LINE
  5
101F
330
1F
100
AcDbEntity
  8
0
 62
     7
100
AcDbLine
 10
701.3134068085918
 20
31.06653533183698
 30
0.0
 11
703.7672796512293
 21
31.06653533183698
 31
0.0
  0
LINE
  5
1020
330
1F
100
AcDbEntity
  8
0
 62
     7
100
AcDbLine
 10
701.3134068085918
 20
30.06653533183698
 30
0.0
 11
703.7672796512293
 21
30.06653533183698
 31
0.0
  0
ARC
  5
1021
330
1F
100
AcDbEntity
  8
0
 62
     7
100
AcDbCircle
 10
674.271517243724
 20
30.56653533183697
 30
0.0
 40
27.54651162790697
100
AcDbArc
 50
358.9599603954483
 51
1.040039604551775
  0
LINE
  5
1022
330
1F
100
AcDbEntity
  8
0
 62
     7
100
AcDbLine
 10
700.521386288638
 20
37.08252845363936
 30
0.0
 11
702.8916454417711
 21
37.71763747957378
 31
0.0
  0
LINE
  5
1023
330
1F
100
AcDbEntity
  8
0
 62
     7
100
AcDbLine
 10
700.2625672435352
 20
38.04845427992842
 30
0.0
 11
702.6328263966684
 21
38.68356330586284
 31
0.0
  0
ARC
  5
1024
330
1F
100
AcDbEntity
  8
0
 62
     7
100
AcDbCircle
 10
674.271517243724
 20
30.56653533183697
 30
0.0
 40
27.04651162790697
100
AcDbArc
 50
13.94073135303171
 51
16.05926864696551
  0
ARC
  5
1025
330
1F
100
AcDbEntity
  8
0
 62
     7
100
AcDbCircle
 10
674.271517243724
 20
30.56653533183697
 30
0.0
 40
27.54651162790697
100
AcDbArc
 50
13.95996039544915
 51
16.04003960455205
  0
ARC
  5
1026
330
1F
100
AcDbEntity
  8
0
 62
     7
100
AcDbCircle
 10
674.271517243724
 20
30.56653533183697
 30
0.0
 40
29.5
100
AcDbArc
 50
14.02883859101384
 51
15.9711614089863
  0
LINE
  5
1027
330
1F
100
AcDbEntity
  8
0
 62
     7
100
AcDbLine
 10
697.9404805732329
 20
43.65446741237867
 30
0.0
 11
700.0655967926136
 21
44.88140383369739
 31
0.0
  0
LINE
  5
1028
330
1F
100
AcDbEntity
  8
0
 62
     7
100
AcDbLine
 10
697.4404805732327
 20
44.52049281616308
 30
0.0
 11
699.5655967926136
 21
45.74742923748181
 31
0.0
  0
ARC
  5
1029
330
1F
100
AcDbEntity
  8
0
 62
     7
100
AcDbCircle
 10
674.271517243724
 20
30.56653533183697
 30
0.0
 40
27.04651162790697
100
AcDbArc
 50
28.94073135302998
 51
31.05926864697237
  0
ARC
  5
102A
330
1F
100
AcDbEntity
  8
0
 62
     7
100
AcDbCircle
 10
674.271517243724
 20
30.56653533183697
 30
0.0
 40
27.54651162790697
100
AcDbArc
 50
28.95996039545207
 51
31.04003960455109
  0
ARC
  5
102B
330
1F
100
AcDbEntity
  8
0
 62
     7
100
AcDbCircle
 10
674.271517243724
 20
30.56653533183697
 30
0.0
 40
29.5
100
AcDbArc
 50
29.02883859101306
 51
30.97116140898368
  0
LINE
  5
102C
330
1F
100
AcDbEntity
  8
0
 62
     7
100
AcDbLine
 10
693.7465741217331
 20
49.33448542865949
 30
0.0
 11
695.4817242489314
 21
51.06963555585792
 31
0.0
  0
LINE
  5
102D
330
1F
100
AcDbEntity
  8
0
 62
     7
100
AcDbLine
 10
693.0394673405466
 20
50.04159220984604
 30
0.0
 11
694.7746174677448
 21
51.77674233704447
 31
0.0
  0
ARC
  5
102E
330
1F
100
AcDbEntity
  8
0
 62
     7
100
AcDbCircle
 10
674.271517243724
 20
30.56653533183697
 30
0.0
 40
27.04651162790697
100
AcDbArc
 50
43.9407313530286
 51
46.05926864696735
  0
ARC
  5
102F
330
1F
100
AcDbEntity
  8
0
 62
     7
100
AcDbCircle
 10
674.271517243724
 20
30.56653533183697
 30
0.0
 40
27.54651162790697
100
AcDbArc
 50
43.95996039544713
 51
46.04003960455343
  0
ARC
  5
1030
330
1F
100
AcDbEntity
  8
0
 62
     7
100
AcDbCircle
 10
674.271517243724
 20
30.56653533183697
 30
0.0
 40
29.5
100
AcDbArc
 50
44.02883859101076
 51
45.97116140898923
  0
LINE
  5
1031
330
1F
100
AcDbEntity
  8
0
 62
     7
100
AcDbLine
 10
688.2254747280501
 20
53.73549866134577
 30
0.0
 11
689.4524111493687
 21
55.86061488072656
 31
0.0
  0
LINE
  5
1032
330
1F
100
AcDbEntity
  8
0
 62
     7
100
AcDbLine
 10
687.3594493242656
 20
54.23549866134578
 30
0.0
 11
688.5863857455846
 21
56.36061488072659
 31
0.0
  0
ARC
  5
1033
330
1F
100
AcDbEntity
  8
0
 62
     7
100
AcDbCircle
 10
674.271517243724
 20
30.56653533183697
 30
0.0
 40
27.04651162790697
100
AcDbArc
 50
58.94073135303097
 51
61.0592686469682
  0
ARC
  5
1034
330
1F
100
AcDbEntity
  8
0
 62
     7
100
AcDbCircle
 10
674.271517243724
 20
30.56653533183697
 30
0.0
 40
27.54651162790697
100
AcDbArc
 50
58.95996039545464
 51
61.04003960454942
  0
ARC
  5
1035
330
1F
100
AcDbEntity
  8
0
 62
     7
100
AcDbCircle
 10
674.271517243724
 20
30.56653533183697
 30
0.0
 40
29.5
100
AcDbArc
 50
59.02883859100767
 51
60.97116140899347
  0
LINE
  5
1036
330
1F
100
AcDbEntity
  8
0
 62
     7
100
AcDbLine
 10
681.7534361918152
 20
56.55758533164834
 30
0.0
 11
682.3885452177497
 21
58.92784448478124
 31
0.0
  0
LINE
  5
1037
330
1F
100
AcDbEntity
  8
0
 62
     7
100
AcDbLine
 10
680.7875103655264
 20
56.81640437675088
 30
0.0
 11
681.4226193914606
 21
59.18666352988378
 31
0.0
  0
ARC
  5
1038
330
1F
100
AcDbEntity
  8
0
 62
     7
100
AcDbCircle
 10
674.271517243724
 20
30.56653533183697
 30
0.0
 40
27.04651162790697
100
AcDbArc
 50
73.94073135303013
 51
76.05926864696849
  0
ARC
  5
1039
330
1F
100
AcDbEntity
  8
0
 62
     7
100
AcDbCircle
 10
674.271517243724
 20
30.56653533183697
 30
0.0
 40
27.54651162790697
100
AcDbArc
 50
73.95996039544515
 51
76.04003960454453
  0
ARC
  5
103A
330
1F
100
AcDbEntity
  8
0
 62
     7
100
AcDbCircle
 10
674.271517243724
 20
30.56653533183697
 30
0.0
 40
29.5
100
AcDbArc
 50
74.02883859101426
 51
75.97116140898022
  0
LINE
  5
103B
330
1F
100
AcDbEntity
  8
0
 62
     7
100
AcDbLine
 10
674.7715172437239
 20
57.60842489670476
 30
0.0
 11
674.7715172437239
 21
60.06229773934222
 31
0.0
  0
LINE
  5
103C
330
1F
100
AcDbEntity
  8
0
 62
     7
100
AcDbLine
 10
673.771517243724
 20
57.60842489670476
 30
0.0
 11
673.771517243724
 21
60.06229773934222
 31
0.0
  0
ARC
  5
103D
330
1F
100
AcDbEntity
  8
0
 62
     7
100
AcDbCircle
 10
674.271517243724
 20
30.56653533183697
 30
0.0
 40
27.04651162790697
100
AcDbArc
 50
88.94073135303498
 51
91.05926864696501
  0
ARC
  5
103E
330
1F
100
AcDbEntity
  8
0
 62
     7
100
AcDbCircle
 10
674.271517243724
 20
30.56653533183697
 30
0.0
 40
27.54651162790697
100
AcDbArc
 50
88.95996039543927
 51
91.04003960456072
  0
ARC
  5
103F
330
1F
100
AcDbEntity
  8
0
 62
     7
100
AcDbCircle
 10
674.271517243724
 20
30.56653533183697
 30
0.0
 40
29.5
100
AcDbArc
 50
89.02883859101519
 51
90.9711614089848
  0
LINE
  5
1040
330
1F
100
AcDbEntity
  8
0
 62
     7
100
AcDbLine
 10
667.7555241219216
 20
56.81640437675088
 30
0.0
 11
667.1204150959872
 21
59.18666352988378
 31
0.0
  0
LINE
  5
1041
330
1F
100
AcDbEntity
  8
0
 62
     7
100
AcDbLine
 10
666.7895982956326
 20
56.55758533164834
 30
0.0
 11
666.1544892696981
 21
58.92784448478124
 31
0.0
  0
ARC
  5
1042
330
1F
100
AcDbEntity
  8
0
 62
     7
100
AcDbCircle
 10
674.271517243724
 20
30.56653533183697
 30
0.0
 40
27.04651162790697
100
AcDbArc
 50
103.9407313530315
 51
106.0592686469699
  0
ARC
  5
1043
330
1F
100
AcDbEntity
  8
0
 62
     7
100
AcDbCircle
 10
674.271517243724
 20
30.56653533183697
 30
0.0
 40
27.54651162790697
100
AcDbArc
 50
103.9599603954422
 51
106.0400396045548
  0
ARC
  5
1044
330
1F
100
AcDbEntity
  8
0
 62
     7
100
AcDbCircle
 10
674.271517243724
 20
30.56653533183697
 30
0.0
 40
29.5
100
AcDbArc
 50
104.0288385910198
 51
105.9711614089857
  0
LINE
  5
1045
330
1F
100
AcDbEntity
  8
0
 62
     7
100
AcDbLine
 10
661.1835851631822
 20
54.23549866134573
 30
0.0
 11
659.9566487418634
 21
56.36061488072653
 31
0.0
  0
LINE
  5
1046
330
1F
100
AcDbEntity
  8
0
 62
     7
100
AcDbLine
 10
660.3175597593977
 20
53.73549866134573
 30
0.0
 11
659.0906233380792
 21
55.86061488072653
 31
0.0
  0
ARC
  5
1047
330
1F
100
AcDbEntity
  8
0
 62
     7
100
AcDbCircle
 10
674.271517243724
 20
30.56653533183692
 30
0.0
 40
27.04651162790697
100
AcDbArc
 50
118.9407313530314
 51
121.059268646969
  0
ARC
  5
1048
330
1F
100
AcDbEntity
  8
0
 62
     7
100
AcDbCircle
 10
674.271517243724
 20
30.56653533183692
 30
0.0
 40
27.54651162790696
100
AcDbArc
 50
118.9599603954505
 51
121.0400396045449
  0
ARC
  5
1049
330
1F
100
AcDbEntity
  8
0
 62
     7
100
AcDbCircle
 10
674.271517243724
 20
30.56653533183692
 30
0.0
 40
29.5
100
AcDbArc
 50
119.0288385910061
 51
120.9711614089927
  0
LINE
  5
104A
330
1F
100
AcDbEntity
  8
0
 62
     7
100
AcDbLine
 10
655.5035671469014
 20
50.04159220984599
 30
0.0
 11
653.7684170197032
 21
51.77674233704447
 31
0.0
  0
LINE
  5
104B
330
1F
100
AcDbEntity
  8
0
 62
     7
100
AcDbLine
 10
654.7964603657149
 20
49.33448542865949
 30
0.0
 11
653.0613102385166
 21
51.06963555585792
 31
0.0
  0
ARC
  5
104C
330
1F
100
AcDbEntity
  8
0
 62
     7
100
AcDbCircle
 10
674.271517243724
 20
30.56653533183697
 30
0.0
 40
27.04651162790697
100
AcDbArc
 50
133.9407313530297
 51
136.0592686469748
  0
ARC
  5
104D
330
1F
100
AcDbEntity
  8
0
 62
     7
100
AcDbCircle
 10
674.271517243724
 20
30.56653533183697
 30
0.0
 40
27.54651162790697
100
AcDbArc
 50
133.9599603954454
 51
136.0400396045557
  0
ARC
  5
104E
330
1F
100
AcDbEntity
  8
0
 62
     7
100
AcDbCircle
 10
674.271517243724
 20
30.56653533183697
 30
0.0
 40
29.5
100
AcDbArc
 50
134.0288385910107
 51
135.9711614089926
  0
LINE
  5
104F
330
1F
100
AcDbEntity
  8
0
 62
     7
100
AcDbLine
 10
651.1025539142153
 20
44.52049281616308
 30
0.0
 11
648.9774376948344
 21
45.74742923748181
 31
0.0
  0
LINE
  5
1050
330
1F
100
AcDbEntity
  8
0
 62
     7
100
AcDbLine
 10
650.6025539142152
 20
43.65446741237867
 30
0.0
 11
648.4774376948344
 21
44.88140383369739
 31
0.0
  0
ARC
  5
1051
330
1F
100
AcDbEntity
  8
0
 62
     7
100
AcDbCircle
 10
674.271517243724
 20
30.56653533183697
 30
0.0
 40
27.04651162790697
100
AcDbArc
 50
148.9407313530261
 51
151.0592686469706
  0
ARC
  5
1052
330
1F
100
AcDbEntity
  8
0
 62
     7
100
AcDbCircle
 10
674.271517243724
 20
30.56653533183697
 30
0.0
 40
27.54651162790697
100
AcDbArc
 50
148.9599603954496
 51
151.0400396045472
  0
ARC
  5
1053
330
1F
100
AcDbEntity
  8
0
 62
     7
100
AcDbCircle
 10
674.271517243724
 20
30.56653533183697
 30
0.0
 40
29.5
100
AcDbArc
 50
149.028838591017
 51
150.9711614089892
  0
LINE
  5
1054
330
1F
100
AcDbEntity
  8
0
 62
     7
100
AcDbLine
 10
648.2804672439126
 20
38.0484542799284
 30
0.0
 11
645.9102080907797
 21
38.68356330586284
 31
0.0
  0
LINE
  5
1055
330
1F
100
AcDbEntity
  8
0
 62
     7
100
AcDbLine
 10
648.0216481988101
 20
37.08252845363933
 30
0.0
 11
645.6513890456772
 21
37.71763747957378
 31
0.0
  0
ARC
  5
1056
330
1F
100
AcDbEntity
  8
0
 62
     7
100
AcDbCircle
 10
674.271517243724
 20
30.56653533183697
 30
0.0
 40
27.04651162790697
100
AcDbArc
 50
163.940731353036
 51
166.0592686469683
  0
ARC
  5
1057
330
1F
100
AcDbEntity
  8
0
 62
     7
100
AcDbCircle
 10
674.271517243724
 20
30.56653533183697
 30
0.0
 40
27.54651162790697
100
AcDbArc
 50
163.9599603954479
 51
166.04003960455
  0
ARC
  5
1058
330
1F
100
AcDbEntity
  8
0
 62
     7
100
AcDbCircle
 10
674.271517243724
 20
30.56653533183697
 30
0.0
 40
29.5
100
AcDbArc
 50
164.0288385910129
 51
165.9711614089853
  0
LINE
  5
1059
330
1F
100
AcDbEntity
  8
0
 62
     7
100
AcDbLine
 10
647.2296276788561
 20
31.06653533183697
 30
0.0
 11
644.7757548362187
 21
31.06653533183697
 31
0.0
  0
LINE
  5
105A
330
1F
100
AcDbEntity
  8
0
 62
     7
100
AcDbLine
 10
647.2296276788561
 20
30.06653533183697
 30
0.0
 11
644.7757548362187
 21
30.06653533183697
 31
0.0
  0
ARC
  5
105B
330
1F
100
AcDbEntity
  8
0
 62
     7
100
AcDbCircle
 10
674.271517243724
 20
30.56653533183697
 30
0.0
 40
27.04651162790697
100
AcDbArc
 50
178.9407313530317
 51
181.0592686469682
  0
ARC
  5
105C
330
1F
100
AcDbEntity
  8
0
 62
     7
100
AcDbCircle
 10
674.271517243724
 20
30.56653533183697
 30
0.0
 40
27.54651162790697
100
AcDbArc
 50
178.959960395449
 51
181.0400396045526
  0
ARC
  5
105D
330
1F
100
AcDbEntity
  8
0
 62
     7
100
AcDbCircle
 10
674.271517243724
 20
30.56653533183697
 30
0.0
 40
29.5
100
AcDbArc
 50
179.0288385910135
 51
180.9711614089865
  0
LINE
  5
105E
330
1F
100
AcDbEntity
  8
0
 62
     7
100
AcDbLine
 10
648.0216481988101
 20
24.05054221003462
 30
0.0
 11
645.6513890456772
 21
23.41543318410018
 31
0.0
  0
LINE
  5
105F
330
1F
100
AcDbEntity
  8
0
 62
     7
100
AcDbLine
 10
648.2804672439126
 20
23.08461638374556
 30
0.0
 11
645.9102080907797
 21
22.44950735781111
 31
0.0
  0
ARC
  5
1060
330
1F
100
AcDbEntity
  8
0
 62
     7
100
AcDbCircle
 10
674.271517243724
 20
30.56653533183697
 30
0.0
 40
27.04651162790697
100
AcDbArc
 50
193.9407313530301
 51
196.0592686469647
  0
ARC
  5
1061
330
1F
100
AcDbEntity
  8
0
 62
     7
100
AcDbCircle
 10
674.271517243724
 20
30.56653533183697
 30
0.0
 40
27.54651162790697
100
AcDbArc
 50
193.9599603954451
 51
196.040039604552
  0
ARC
  5
1062
330
1F
100
AcDbEntity
  8
0
 62
     7
100
AcDbCircle
 10
674.271517243724
 20
30.56653533183697
 30
0.0
 40
29.5
100
AcDbArc
 50
194.0288385910146
 51
195.9711614089878
  0
LINE
  5
1063
330
1F
100
AcDbEntity
  8
0
 62
     7
100
AcDbLine
 10
650.602553914215
 20
17.47860325129528
 30
0.0
 11
648.4774376948344
 21
16.25166682997656
 31
0.0
  0
LINE
  5
1064
330
1F
100
AcDbEntity
  8
0
 62
     7
100
AcDbLine
 10
651.102553914215
 20
16.61257784751082
 30
0.0
 11
648.9774376948344
 21
15.38564142619211
 31
0.0
  0
ARC
  5
1065
330
1F
100
AcDbEntity
  8
0
 62
     7
100
AcDbCircle
 10
674.271517243724
 20
30.56653533183697
 30
0.0
 40
27.04651162790697
100
AcDbArc
 50
208.9407313530293
 51
211.0592686469738
  0
ARC
  5
1066
330
1F
100
AcDbEntity
  8
0
 62
     7
100
AcDbCircle
 10
674.271517243724
 20
30.56653533183697
 30
0.0
 40
27.54651162790697
100
AcDbArc
 50
208.9599603954491
 51
211.0400396045504
  0
ARC
  5
1067
330
1F
100
AcDbEntity
  8
0
 62
     7
100
AcDbCircle
 10
674.271517243724
 20
30.56653533183697
 30
0.0
 40
29.5
100
AcDbArc
 50
209.0288385910108
 51
210.9711614089829
  0
LINE
  5
1068
330
1F
100
AcDbEntity
  8
0
 62
     7
100
AcDbLine
 10
654.7964603657149
 20
11.79858523501446
 30
0.0
 11
653.0613102385166
 21
10.06343510781602
 31
0.0
  0
LINE
  5
1069
330
1F
100
AcDbEntity
  8
0
 62
     7
100
AcDbLine
 10
655.5035671469014
 20
11.0914784538279
 30
0.0
 11
653.7684170197032
 21
9.356328326629467
 31
0.0
  0
ARC
  5
106A
330
1F
100
AcDbEntity
  8
0
 62
     7
100
AcDbCircle
 10
674.271517243724
 20
30.56653533183697
 30
0.0
 40
27.04651162790697
100
AcDbArc
 50
223.9407313530252
 51
226.0592686469703
  0
ARC
  5
106B
330
1F
100
AcDbEntity
  8
0
 62
     7
100
AcDbCircle
 10
674.271517243724
 20
30.56653533183697
 30
0.0
 40
27.54651162790697
100
AcDbArc
 50
223.9599603954443
 51
226.0400396045545
  0
ARC
  5
106C
330
1F
100
AcDbEntity
  8
0
 62
     7
100
AcDbCircle
 10
674.271517243724
 20
30.56653533183697
 30
0.0
 40
29.5
100
AcDbArc
 50
224.0288385910073
 51
225.9711614089892
  0
LINE
  5
106D
330
1F
100
AcDbEntity
  8
0
 62
     7
100
AcDbLine
 10
660.3175597593977
 20
7.397572002328161
 30
0.0
 11
659.0906233380792
 21
5.272455782947361
 31
0.0
  0
LINE
  5
106E
330
1F
100
AcDbEntity
  8
0
 62
     7
100
AcDbLine
 10
661.1835851631822
 20
6.897572002328161
 30
0.0
 11
659.9566487418634
 21
4.772455782947361
 31
0.0
  0
ARC
  5
106F
330
1F
100
AcDbEntity
  8
0
 62
     7
100
AcDbCircle
 10
674.271517243724
 20
30.56653533183697
 30
0.0
 40
27.04651162790697
100
AcDbArc
 50
238.9407313530309
 51
241.0592686469682
  0
ARC
  5
1070
330
1F
100
AcDbEntity
  8
0
 62
     7
100
AcDbCircle
 10
674.271517243724
 20
30.56653533183697
 30
0.0
 40
27.54651162790697
100
AcDbArc
 50
238.9599603954546
 51
241.0400396045494
  0
ARC
  5
1071
330
1F
100
AcDbEntity
  8
0
 62
     7
100
AcDbCircle
 10
674.271517243724
 20
30.56653533183697
 30
0.0
 40
29.5
100
AcDbArc
 50
239.0288385910073
 51
240.9711614089939
  0
LINE
  5
1072
330
1F
100
AcDbEntity
  8
0
 62
     7
100
AcDbLine
 10
666.7895982956326
 20
4.575485332025606
 30
0.0
 11
666.1544892696981
 21
2.205226178892701
 31
0.0
  0
LINE
  5
1073
330
1F
100
AcDbEntity
  8
0
 62
     7
100
AcDbLine
 10
667.7555241219217
 20
4.316666286923066
 30
0.0
 11
667.1204150959872
 21
1.946407133790159
 31
0.0
  0
ARC
  5
1074
330
1F
100
AcDbEntity
  8
0
 62
     7
100
AcDbCircle
 10
674.271517243724
 20
30.56653533183697
 30
0.0
 40
27.04651162790697
100
AcDbArc
 50
253.9407313530301
 51
256.0592686469685
  0
ARC
  5
1075
330
1F
100
AcDbEntity
  8
0
 62
     7
100
AcDbCircle
 10
674.271517243724
 20
30.56653533183697
 30
0.0
 40
27.54651162790697
100
AcDbArc
 50
253.9599603954452
 51
256.0400396045578
  0
ARC
  5
1076
330
1F
100
AcDbEntity
  8
0
 62
     7
100
AcDbCircle
 10
674.271517243724
 20
30.56653533183697
 30
0.0
 40
29.5
100
AcDbArc
 50
254.0288385910141
 51
255.9711614089803
  0
LINE
  5
1077
330
1F
100
AcDbEntity
  8
0
 62
     7
100
AcDbLine
 10
673.771517243724
 20
3.524645766969171
 30
0.0
 11
673.771517243724
 21
1.07077292433172
 31
0.0
  0
LINE
  5
1078
330
1F
100
AcDbEntity
  8
0
 62
     7
100
AcDbLine
 10
674.7715172437239
 20
3.524645766969171
 30
0.0
 11
674.7715172437239
 21
1.07077292433172
 31
0.0
  0
ARC
  5
1079
330
1F
100
AcDbEntity
  8
0
 62
     7
100
AcDbCircle
 10
674.271517243724
 20
30.56653533183697
 30
0.0
 40
27.04651162790697
100
AcDbArc
 50
268.940731353035
 51
271.059268646965
  0
ARC
  5
107A
330
1F
100
AcDbEntity
  8
0
 62
     7
100
AcDbCircle
 10
674.271517243724
 20
30.56653533183697
 30
0.0
 40
27.54651162790697
100
AcDbArc
 50
268.9599603954523
 51
271.0400396045477
  0
ARC
  5
107B
330
1F
100
AcDbEntity
  8
0
 62
     7
100
AcDbCircle
 10
674.271517243724
 20
30.56653533183697
 30
0.0
 40
29.5
100
AcDbArc
 50
269.0288385910152
 51
270.9711614089848
  0
LINE
  5
107C
330
1F
100
AcDbEntity
  8
0
 62
     7
100
AcDbLine
 10
680.7875103655263
 20
4.316666286923178
 30
0.0
 11
681.4226193914606
 21
1.946407133790273
 31
0.0
  0
LINE
  5
107D
330
1F
100
AcDbEntity
  8
0
 62
     7
100
AcDbLine
 10
681.7534361918152
 20
4.575485332025606
 30
0.0
 11
682.3885452177497
 21
2.205226178892701
 31
0.0
  0
ARC
  5
107E
330
1F
100
AcDbEntity
  8
0
 62
     7
100
AcDbCircle
 10
674.271517243724
 20
30.56653533183697
 30
0.0
 40
27.04651162790697
100
AcDbArc
 50
283.9407313530315
 51
286.0592686469699
  0
ARC
  5
107F
330
1F
100
AcDbEntity
  8
0
 62
     7
100
AcDbCircle
 10
674.271517243724
 20
30.56653533183697
 30
0.0
 40
27.54651162790697
100
AcDbArc
 50
283.9599603954554
 51
286.0400396045548
  0
ARC
  5
1080
330
1F
100
AcDbEntity
  8
0
 62
     7
100
AcDbCircle
 10
674.271517243724
 20
30.56653533183697
 30
0.0
 40
29.5
100
AcDbArc
 50
284.0288385910063
 51
285.9711614089858
  0
LINE
  5
1081
330
1F
100
AcDbEntity
  8
0
 62
     7
100
AcDbLine
 10
687.3594493242656
 20
6.897572002328104
 30
0.0
 11
688.5863857455846
 21
4.772455782947361
 31
0.0
  0
LINE
  5
1082
330
1F
100
AcDbEntity
  8
0
 62
     7
100
AcDbLine
 10
688.2254747280501
 20
7.397572002328104
 30
0.0
 11
689.452411149369
 21
5.272455782947361
 31
0.0
  0
ARC
  5
1083
330
1F
100
AcDbEntity
  8
0
 62
     7
100
AcDbCircle
 10
674.271517243724
 20
30.56653533183697
 30
0.0
 40
27.04651162790697
100
AcDbArc
 50
298.9407313530318
 51
301.059268646969
  0
ARC
  5
1084
330
1F
100
AcDbEntity
  8
0
 62
     7
100
AcDbCircle
 10
674.271517243724
 20
30.56653533183697
 30
0.0
 40
27.54651162790697
100
AcDbArc
 50
298.9599603954506
 51
301.0400396045454
  0
ARC
  5
1085
330
1F
100
AcDbEntity
  8
0
 62
     7
100
AcDbCircle
 10
674.271517243724
 20
30.56653533183697
 30
0.0
 40
29.5
100
AcDbArc
 50
299.0288385910065
 51
300.9711614089923
  0
LINE
  5
1086
330
1F
100
AcDbEntity
  8
0
 62
     7
100
AcDbLine
 10
693.0394673405466
 20
11.0914784538279
 30
0.0
 11
694.7746174677448
 21
9.356328326629467
 31
0.0
  0
LINE
  5
1087
330
1F
100
AcDbEntity
  8
0
 62
     7
100
AcDbLine
 10
693.7465741217331
 20
11.79858523501446
 30
0.0
 11
695.4817242489314
 21
10.06343510781602
 31
0.0
  0
ARC
  5
1088
330
1F
100
AcDbEntity
  8
0
 62
     7
100
AcDbCircle
 10
674.271517243724
 20
30.56653533183697
 30
0.0
 40
27.04651162790697
100
AcDbArc
 50
313.9407313530326
 51
316.0592686469714
  0
ARC
  5
1089
330
1F
100
AcDbEntity
  8
0
 62
     7
100
AcDbCircle
 10
674.271517243724
 20
30.56653533183697
 30
0.0
 40
27.54651162790697
100
AcDbArc
 50
313.959960395446
 51
316.0400396045529
  0
ARC
  5
108A
330
1F
100
AcDbEntity
  8
0
 62
     7
100
AcDbCircle
 10
674.271517243724
 20
30.56653533183697
 30
0.0
 40
29.5
100
AcDbArc
 50
314.0288385910137
 51
315.9711614089922
  0
LINE
  5
108B
330
1F
100
AcDbEntity
  8
0
 62
     7
100
AcDbLine
 10
697.4404805732327
 20
16.61257784751075
 30
0.0
 11
699.5655967926136
 21
15.38564142619202
 31
0.0
  0
LINE
  5
108C
330
1F
100
AcDbEntity
  8
0
 62
     7
100
AcDbLine
 10
697.9404805732329
 20
17.47860325129522
 30
0.0
 11
700.0655967926136
 21
16.2516668299765
 31
0.0
  0
ARC
  5
108D
330
1F
100
AcDbEntity
  8
0
 62
     7
100
AcDbCircle
 10
674.271517243724
 20
30.56653533183697
 30
0.0
 40
27.04651162790697
100
AcDbArc
 50
328.9407313530276
 51
331.05926864697
  0
ARC
  5
108E
330
1F
100
AcDbEntity
  8
0
 62
     7
100
AcDbCircle
 10
674.271517243724
 20
30.56653533183697
 30
0.0
 40
27.54651162790697
100
AcDbArc
 50
328.9599603954489
 51
331.0400396045516
  0
ARC
  5
108F
330
1F
100
AcDbEntity
  8
0
 62
     7
100
AcDbCircle
 10
674.271517243724
 20
30.56653533183697
 30
0.0
 40
29.5
100
AcDbArc
 50
329.0288385910157
 51
330.9711614089869
  0
LINE
  5
1090
330
1F
100
AcDbEntity
  8
0
 62
     7
100
AcDbLine
 10
700.2625672435352
 20
23.0846163837455
 30
0.0
 11
702.6328263966684
 21
22.44950735781106
 31
0.0
  0
LINE
  5
1091
330
1F
100
AcDbEntity
  8
0
 62
     7
100
AcDbLine
 10
700.5213862886376
 20
24.05054221003457
 30
0.0
 11
702.8916454417708
 21
23.41543318410012
 31
0.0
  0
ARC
  5
1092
330
1F
100
AcDbEntity
  8
0
 62
     7
100
AcDbCircle
 10
674.271517243724
 20
30.56653533183697
 30
0.0
 40
27.04651162790697
100
AcDbArc
 50
343.9407313530345
 51
346.0592686469683
  0
ARC
  5
1093
330
1F
100
AcDbEntity
  8
0
 62
     7
100
AcDbCircle
 10
674.271517243724
 20
30.56653533183697
 30
0.0
 40
27.54651162790697
100
AcDbArc
 50
343.959960395448
 51
346.0400396045508
  0
ARC
  5
1094
330
1F
100
AcDbEntity
  8
0
 62
     7
100
AcDbCircle
 10
674.271517243724
 20
30.56653533183697
 30
0.0
 40
29.5
100
AcDbArc
 50
344.0288385910137
 51
345.9711614089861
  0
ARC
  5
1095
330
1F
100
AcDbEntity
  8
0
 62
     7
100
AcDbCircle
 10
674.271517243724
 20
30.56653533183697
 30
0.0
 40
29.0
100
AcDbArc
 50
0.9879072166564045
 51
14.01209278334279
  0
ARC
  5
1096
330
1F
100
AcDbEntity
  8
0
 62
     7
100
AcDbCircle
 10
674.271517243724
 20
30.56653533183697
 30
0.0
 40
29.0
100
AcDbArc
 50
345.9879072166572
 51
359.0120927833436
  0
ARC
  5
1097
330
1F
100
AcDbEntity
  8
0
 62
     7
100
AcDbCircle
 10
674.271517243724
 20
30.56653533183697
 30
0.0
 40
29.0
100
AcDbArc
 50
330.9879072166564
 51
344.0120927833419
  0
ARC
  5
1098
330
1F
100
AcDbEntity
  8
0
 62
     7
100
AcDbCircle
 10
674.271517243724
 20
30.56653533183697
 30
0.0
 40
29.0
100
AcDbArc
 50
315.9879072166549
 51
329.0120927833411
  0
ARC
  5
1099
330
1F
100
AcDbEntity
  8
0
 62
     7
100
AcDbCircle
 10
674.271517243724
 20
30.56653533183697
 30
0.0
 40
29.0
100
AcDbArc
 50
300.9879072166572
 51
314.0120927833411
  0
ARC
  5
109A
330
1F
100
AcDbEntity
  8
0
 62
     7
100
AcDbCircle
 10
674.271517243724
 20
30.56653533183697
 30
0.0
 40
29.0
100
AcDbArc
 50
285.9879072166542
 51
299.0120927833472
  0
ARC
  5
109B
330
1F
100
AcDbEntity
  8
0
 62
     7
100
AcDbCircle
 10
674.271517243724
 20
30.56653533183697
 30
0.0
 40
29.0
100
AcDbArc
 50
270.9879072166499
 51
284.0120927833384
  0
ARC
  5
109C
330
1F
100
AcDbEntity
  8
0
 62
     7
100
AcDbCircle
 10
674.271517243724
 20
30.56653533183697
 30
0.0
 40
29.0
100
AcDbArc
 50
255.9879072166615
 51
269.0120927833501
  0
ARC
  5
109D
330
1F
100
AcDbEntity
  8
0
 62
     7
100
AcDbCircle
 10
674.271517243724
 20
30.56653533183697
 30
0.0
 40
29.0
100
AcDbArc
 50
240.9879072166528
 51
254.0120927833458
  0
ARC
  5
109E
330
1F
100
AcDbEntity
  8
0
 62
     7
100
AcDbCircle
 10
674.271517243724
 20
30.56653533183697
 30
0.0
 40
29.0
100
AcDbArc
 50
225.9879072166589
 51
239.0120927833429
  0
ARC
  5
109F
330
1F
100
AcDbEntity
  8
0
 62
     7
100
AcDbCircle
 10
674.271517243724
 20
30.56653533183697
 30
0.0
 40
29.0
100
AcDbArc
 50
210.9879072166589
 51
224.0120927833451
  0
ARC
  5
10A0
330
1F
100
AcDbEntity
  8
0
 62
     7
100
AcDbCircle
 10
674.271517243724
 20
30.56653533183697
 30
0.0
 40
29.0
100
AcDbArc
 50
195.9879072166573
 51
209.0120927833436
  0
ARC
  5
10A1
330
1F
100
AcDbEntity
  8
0
 62
     7
100
AcDbCircle
 10
674.271517243724
 20
30.56653533183697
 30
0.0
 40
29.0
100
AcDbArc
 50
180.9879072166564
 51
194.0120927833428
  0
ARC
  5
10A2
330
1F
100
AcDbEntity
  8
0
 62
     7
100
AcDbCircle
 10
674.271517243724
 20
30.56653533183697
 30
0.0
 40
29.0
100
AcDbArc
 50
165.9879072166572
 51
179.0120927833435
  0
ARC
  5
10A3
330
1F
100
AcDbEntity
  8
0
 62
     7
100
AcDbCircle
 10
674.271517243724
 20
30.56653533183697
 30
0.0
 40
29.0
100
AcDbArc
 50
150.9879072166563
 51
164.0120927833419
  0
ARC
  5
10A4
330
1F
100
AcDbEntity
  8
0
 62
     7
100
AcDbCircle
 10
674.271517243724
 20
30.56653533183697
 30
0.0
 40
29.0
100
AcDbArc
 50
135.9879072166549
 51
149.012092783341
  0
ARC
  5
10A5
330
1F
100
AcDbEntity
  8
0
 62
     7
100
AcDbCircle
 10
674.271517243724
 20
30.56653533183697
 30
0.0
 40
29.0
100
AcDbArc
 50
120.9879072166571
 51
125.0295889624963
  0
ARC
  5
10A6
330
1F
100
AcDbEntity
  8
0
 62
     7
100
AcDbCircle
 10
674.271517243724
 20
30.56653533183697
 30
0.0
 40
29.0
100
AcDbArc
 50
105.9879072166542
 51
119.0120927833472
  0
ARC
  5
10A7
330
1F
100
AcDbEntity
  8
0
 62
     7
100
AcDbCircle
 10
674.271517243724
 20
30.56653533183697
 30
0.0
 40
29.0
100
AcDbArc
 50
90.98790721664988
 51
104.0120927833384
  0
ARC
  5
10A8
330
1F
100
AcDbEntity
  8
0
 62
     7
100
AcDbCircle
 10
674.271517243724
 20
30.56653533183697
 30
0.0
 40
29.0
100
AcDbArc
 50
75.98790721666155
 51
89.01209278335008
  0
ARC
  5
10A9
330
1F
100
AcDbEntity
  8
0
 62
     7
100
AcDbCircle
 10
674.271517243724
 20
30.56653533183697
 30
0.0
 40
29.0
100
AcDbArc
 50
60.98790721665277
 51
74.01209278334579
  0
ARC
  5
10AA
330
1F
100
AcDbEntity
  8
0
 62
     7
100
AcDbCircle
 10
674.271517243724
 20
30.56653533183697
 30
0.0
 40
29.0
100
AcDbArc
 50
45.98790721665888
 51
59.01209278334285
  0
ARC
  5
10AB
330
1F
100
AcDbEntity
  8
0
 62
     7
100
AcDbCircle
 10
674.271517243724
 20
30.56653533183697
 30
0.0
 40
29.0
100
AcDbArc
 50
30.98790721665825
 51
44.01209278334511
  0
LINE
  5
10AC
330
1F
100
AcDbEntity
  8
0
 62
     7
100
AcDbLine
 10
674.7715172437239
 20
103.8407090958794
 30
0.0
 11
674.7715172437239
 21
124.3407090958799
 31
0.0
  0
LINE
  5
10AD
330
1F
100
AcDbEntity
  8
0
 62
     7
100
AcDbLine
 10
673.7715172437249
 20
103.8407090958794
 30
0.0
 11
673.7715172437249
 21
124.3407090958799
 31
0.0
  0
ARC
  5
10AE
330
1F
100
AcDbEntity
  8
0
 62
     7
100
AcDbCircle
 10
674.2715172437242
 20
103.8407090958794
 30
0.0
 40
0.4999999999995455
100
AcDbArc
 50
180.0
 51
0.0
  0
ELLIPSE
  5
10B0
330
1F
100
AcDbEntity
  8
0
 62
     7
100
AcDbEllipse
 10
674.271517243724
 20
124.3407090958799
 30
0.0
 11
0.0
 21
1.0
 31
0.0
210
0.0
220
0.0
230
1.0
 40
0.5
 41
4.712388980384688
 42
7.853981633974482
  0
LINE
  5
10B5
330
1F
100
AcDbEntity
  8
0
 62
     7
100
AcDbLine
 10
681.2931909563006
 20
124.3407090958799
 30
0.0
 11
680.7875103655264
 21
103.8407090958794
 31
0.0
  0
LINE
  5
10B7
330
1F
100
AcDbEntity
  8
0
 62
     7
100
AcDbLine
 10
681.4226193914612
 20
124.3407090958799
 30
0.0
 11
680.9169416054714
 21
103.8407090958794
 31
0.0
  0
LINE
  5
10B8
330
1F
100
AcDbEntity
  8
0
 62
     7
100
AcDbLine
 10
681.8828674317622
 20
103.8407090958794
 30
0.0
 11
682.3885452177497
 21
124.3407090958799
 31
0.0
  0
ELLIPSE
  5
10BA
330
1F
100
AcDbEntity
  8
0
 62
     7
100
AcDbEllipse
 10
681.9055823046054
 20
124.3407090958799
 30
0.0
 11
0.0
 21
1.0
 31
0.0
210
0.0
220
0.0
230
1.0
 40
0.482816045651879
 41
4.712388980384688
 42
7.853981633974482
  0
LINE
  5
10BB
330
1F
100
AcDbEntity
  8
0
 62
     7
100
AcDbLine
 10
681.2931909563006
 20
124.3407090958799
 30
0.0
 11
681.5249248466186
 21
124.9558579977246
 31
0.0
  0
ELLIPSE
  5
10BD
330
1F
100
AcDbEntity
  8
0
 62
     7
100
AcDbEllipse
 10
681.3999045186167
 20
103.8407090958794
 30
0.0
 11
-0.0000000000000037
 21
0.5005156995018179
 31
0.0
210
0.0
220
0.0
230
1.0
 40
0.9649305978335032
 41
1.570796326794896
 42
4.712388980384688
  0
ELLIPSE
  5
10BE
330
1F
100
AcDbEntity
  8
0
 62
     7
100
AcDbEllipse
 10
681.2704732786717
 20
103.8407090958794
 30
0.0
 11
-0.0000000000000037
 21
0.5005156995018179
 31
0.0
210
0.0
220
0.0
230
1.0
 40
0.9649305978335032
 41
1.570796326794896
 42
3.186991184351246
  0
LINE
  5
10BF
330
1F
100
AcDbEntity
  8
0
 62
     7
100
AcDbLine
 10
688.3363492092297
 20
124.3407090958799
 30
0.0
 11
687.3594493242656
 21
103.8407090958794
 31
0.0
  0
LINE
  5
10C6
330
1F
100
AcDbEntity
  8
0
 62
     7
100
AcDbLine
 10
687.6094912790486
 20
103.8407090958794
 30
0.0
 11
688.5863857455846
 21
124.3407090958799
 31
0.0
  0
LINE
  5
10C7
330
1F
100
AcDbEntity
  8
0
 62
     7
100
AcDbLine
 10
689.4524111493687
 20
124.3407090958799
 30
0.0
 11
688.4755166828331
 21
103.8407090958794
 31
0.0
  0
ELLIPSE
  5
10C9
330
1F
100
AcDbEntity
  8
0
 62
     7
100
AcDbEllipse
 10
689.0193984474765
 20
124.3407090958799
 30
0.0
 11
0.0
 21
1.0
 31
0.0
210
0.0
220
0.0
230
1.0
 40
0.4330127018921531
 41
4.712388980384688
 42
7.853981633974482
  0
LINE
  5
10CA
330
1F
100
AcDbEntity
  8
0
 62
     7
100
AcDbLine
 10
688.3363492092297
 20
124.3407090958799
 30
0.0
 11
688.744894078683
 21
125.114090766254
 31
0.0
  0
ELLIPSE
  5
10CC
330
1F
100
AcDbEntity
  8
0
 62
     7
100
AcDbEllipse
 10
688.0425039809408
 20
103.8407090958794
 30
0.0
 11
0.0
 21
-0.4999999999994601
 31
0.0
210
0.0
220
0.0
230
1.0
 40
0.8660254037852414
 41
4.712388980384688
 42
7.853981633974482
  0
ELLIPSE
  5
10CD
330
1F
100
AcDbEntity
  8
0
 62
     7
100
AcDbEllipse
 10
687.7924620261579
 20
103.8407090958794
 30
0.0
 11
0.0
 21
-0.4999999999994601
 31
0.0
210
0.0
220
0.0
230
1.0
 40
0.8660254037852414
 41
4.712388980384688
 42
6.283185307179584
  0
LINE
  5
10CE
330
1F
100
AcDbEntity
  8
0
 62
     7
100
AcDbLine
 10
694.4210124069432
 20
124.3407090958799
 30
0.0
 11
693.0394673405467
 21
103.8407090958794
 31
0.0
  0
LINE
  5
10D0
330
1F
100
AcDbEntity
  8
0
 62
     7
100
AcDbLine
 10
695.4817242489317
 20
124.3407090958799
 30
0.0
 11
694.1001868453493
 21
103.8407090958794
 31
0.0
  0
LINE
  5
10D1
330
1F
100
AcDbEntity
  8
0
 62
     7
100
AcDbLine
 10
694.7746174677452
 20
124.3407090958799
 30
0.0
 11
693.3930800641635
 21
103.8407090958794
 31
0.0
  0
ELLIPSE
  5
10D3
330
1F
100
AcDbEntity
  8
0
 62
     7
100
AcDbEllipse
 10
695.1281708583382
 20
124.3407090958799
 30
0.0
 11
0.0
 21
1.0
 31
0.0
210
0.0
220
0.0
230
1.0
 40
0.3535533905933335
 41
4.712388980384688
 42
7.853981633974482
  0
ELLIPSE
  5
10D5
330
1F
100
AcDbEntity
  8
0
 62
     7
100
AcDbEllipse
 10
693.7466334547563
 20
103.8407090958794
 30
0.0
 11
0.0
 21
-0.4999999999994601
 31
0.0
210
0.0
220
0.0
230
1.0
 40
0.7071067811865212
 41
4.712388980384688
 42
7.853981633974482
  0
ELLIPSE
  5
10D6
330
1F
100
AcDbEntity
  8
0
 62
     7
100
AcDbEllipse
 10
693.3930207311397
 20
103.8407090958794
 30
0.0
 11
0.0
 21
-0.4999999999994601
 31
0.0
210
0.0
220
0.0
230
1.0
 40
0.7071067811865212
 41
4.712388980384688
 42
6.283185307179584
  0
LINE
  5
10D7
330
1F
100
AcDbEntity
  8
0
 62
     7
100
AcDbLine
 10
694.4210124069432
 20
124.3407090958799
 30
0.0
 11
694.9514070796501
 21
125.2067555913699
 31
0.0
  0
LINE
  5
10D8
330
1F
100
AcDbEntity
  8
0
 62
     7
100
AcDbLine
 10
699.1325208078985
 20
124.3407090958799
 30
0.0
 11
697.4404805732327
 21
103.8407090958794
 31
0.0
  0
LINE
  5
10DA
330
1F
100
AcDbEntity
  8
0
 62
     7
100
AcDbLine
 10
699.5655967926136
 20
124.3407090958799
 30
0.0
 11
697.8735659429406
 21
103.8407090958794
 31
0.0
  0
LINE
  5
10DB
330
1F
100
AcDbEntity
  8
0
 62
     7
100
AcDbLine
 10
698.3735659429401
 20
103.8407090958794
 30
0.0
 11
700.0655967926136
 21
124.3407090958799
 31
0.0
  0
ELLIPSE
  5
10DD
330
1F
100
AcDbEntity
  8
0
 62
     7
100
AcDbEllipse
 10
699.8155967926136
 20
124.3407090958799
 30
0.0
 11
0.0
 21
1.0
 31
0.0
210
0.0
220
0.0
230
1.0
 40
0.25
 41
4.712388980384688
 42
7.853981633974482
  0
LINE
  5
10DE
330
1F
100
AcDbEntity
  8
0
 62
     7
100
AcDbLine
 10
699.1325208078985
 20
124.3407090958799
 30
0.0
 11
699.7240989191725
 21
125.2713272917543
 31
0.0
  0
ELLIPSE
  5
10E0
330
1F
100
AcDbEntity
  8
0
 62
     7
100
AcDbEllipse
 10
698.1235659429406
 20
103.8407090958794
 30
0.0
 11
0.0
 21
-0.4999999999994601
 31
0.0
210
0.0
220
0.0
230
1.0
 40
0.5000000000000853
 41
4.712388980384688
 42
7.853981633974482
  0
ELLIPSE
  5
10E1
330
1F
100
AcDbEntity
  8
0
 62
     7
100
AcDbEllipse
 10
697.6904805732325
 20
103.8407090958794
 30
0.0
 11
0.0
 21
-0.4999999999994601
 31
0.0
210
0.0
220
0.0
230
1.0
 40
0.5000000000000853
 41
4.712388980384688
 42
6.283185307179584
  0
LINE
  5
10E2
330
1F
100
AcDbEntity
  8
0
 62
     7
100
AcDbLine
 10
702.1497929007066
 20
124.3407090958799
 30
0.0
 11
700.2625672435352
 21
103.8407090958794
 31
0.0
  0
LINE
  5
10E4
330
1F
100
AcDbEntity
  8
0
 62
     7
100
AcDbLine
 10
702.6328263966684
 20
124.3407090958799
 30
0.0
 11
700.7456112070967
 21
103.8407090958794
 31
0.0
  0
LINE
  5
10E5
330
1F
100
AcDbEntity
  8
0
 62
     7
100
AcDbLine
 10
701.0044302521992
 20
103.8407090958794
 30
0.0
 11
702.8916454417708
 21
124.3407090958799
 31
0.0
  0
ELLIPSE
  5
10E7
330
1F
100
AcDbEntity
  8
0
 62
     7
100
AcDbEllipse
 10
702.7622359192196
 20
124.3407090958799
 30
0.0
 11
-0.0000000000001137
 21
1.0
 31
0.0
210
0.0
220
0.0
230
1.0
 40
0.1294095225512137
 41
4.712388980384688
 42
7.853981633974482
  0
LINE
  5
10E8
330
1F
100
AcDbEntity
  8
0
 62
     7
100
AcDbLine
 10
702.1497929007066
 20
124.3407090958799
 30
0.0
 11
702.7348916210224
 21
125.3181302406288
 31
0.0
  0
ELLIPSE
  5
10EA
330
1F
100
AcDbEntity
  8
0
 62
     7
100
AcDbEllipse
 10
700.8750207296476
 20
103.8407090958794
 30
0.0
 11
0.0
 21
-0.4999999999994601
 31
0.0
210
0.0
220
0.0
230
1.0
 40
0.258819045102707
 41
4.712388980384688
 42
7.853981633974482
  0
ELLIPSE
  5
10EB
330
1F
100
AcDbEntity
  8
0
 62
     7
100
AcDbEllipse
 10
700.3919767660866
 20
103.8407090958794
 30
0.0
 11
0.0
 21
-0.4999999999994601
 31
0.0
210
0.0
220
0.0
230
1.0
 40
0.258819045102707
 41
4.712388980384688
 42
6.283185307179584
  0
LINE
  5
10EC
330
1F
100
AcDbEntity
  8
0
 62
     7
100
AcDbLine
 10
703.7715172437239
 20
125.3407090958799
 30
0.0
 11
701.8540463075326
 21
103.7963837022212
 31
0.0
  0
LINE
  5
10ED
330
1F
100
AcDbEntity
  8
0
 62
     3
100
AcDbLine
 10
701.3134068085918
 20
103.3407090958799
 30
0.0
 11
703.26720657852
 21
124.3407090958799
 31
0.0
  0
LINE
  5
10EE
330
1F
100
AcDbEntity
  8
0
 62
     3
100
AcDbLine
 10
703.26720657852
 20
124.3407090958799
 30
0.0
 11
703.7715172437239
 21
125.3407090958799
 31
0.0
  0
LINE
  5
10EF
330
1F
100
AcDbEntity
  8
0
 62
     3
100
AcDbLine
 10
701.3134068085918
 20
103.3407090958799
 30
0.0
 11
701.3560149235042
 21
103.3407090958799
 31
0.0
  0
LINE
  5
10F0
330
1F
100
AcDbEntity
  8
0
 62
     7
100
AcDbLine
 10
700.3919767660866
 20
103.3407090958799
 30
0.0
 11
700.8750207296476
 21
103.3407090958799
 31
0.0
  0
LINE
  5
10F1
330
1F
100
AcDbEntity
  8
0
 62
     7
100
AcDbLine
 10
697.6904805732325
 20
103.3407090958799
 30
0.0
 11
698.1235659429406
 21
103.3407090958799
 31
0.0
  0
LINE
  5
10F2
330
1F
100
AcDbEntity
  8
0
 62
     7
100
AcDbLine
 10
693.3930207311397
 20
103.3407090958799
 30
0.0
 11
693.7466334547563
 21
103.3407090958799
 31
0.0
  0
LINE
  5
10F3
330
1F
100
AcDbEntity
  8
0
 62
     7
100
AcDbLine
 10
687.7924620261579
 20
103.3407090958799
 30
0.0
 11
688.0425039809408
 21
103.3407090958799
 31
0.0
  0
LINE
  5
10F4
330
1F
100
AcDbEntity
  8
0
 62
     7
100
AcDbLine
 10
667.2944794846094
 20
103.3407090958799
 30
0.0
 11
667.1212116929979
 21
103.3407090958799
 31
0.0
  0
LINE
  5
10F5
330
1F
100
AcDbEntity
  8
0
 62
     7
100
AcDbLine
 10
660.7505724612901
 20
103.3407090958799
 30
0.0
 11
660.5005305065072
 21
103.3407090958799
 31
0.0
  0
LINE
  5
10F6
330
1F
100
AcDbEntity
  8
0
 62
     7
100
AcDbLine
 10
655.1500137563082
 20
103.3407090958799
 30
0.0
 11
654.7964010326916
 21
103.3407090958799
 31
0.0
  0
LINE
  5
10F7
330
1F
100
AcDbEntity
  8
0
 62
     7
100
AcDbLine
 10
650.8525539142152
 20
103.3407090958799
 30
0.0
 11
650.4194685445074
 21
103.3407090958799
 31
0.0
  0
LINE
  5
10F8
330
1F
100
AcDbEntity
  8
0
 62
     7
100
AcDbLine
 10
648.1510577213612
 20
103.3407090958799
 30
0.0
 11
647.6680137577999
 21
103.3407090958799
 31
0.0
  0
LINE
  5
10F9
330
1F
100
AcDbEntity
  8
0
 62
     3
100
AcDbLine
 10
647.2296276788563
 20
103.3407090958799
 30
0.0
 11
647.1870195639437
 21
103.3407090958799
 31
0.0
  0
LINE
  5
10FA
330
1F
100
AcDbEntity
  8
0
 62
     7
100
AcDbLine
 10
667.2498435311472
 20
124.3407090958799
 30
0.0
 11
667.7555241219216
 21
103.8407090958794
 31
0.0
  0
LINE
  5
10FB
330
1F
100
AcDbEntity
  8
0
 62
     7
100
AcDbLine
 10
667.1204150959868
 20
124.3407090958799
 30
0.0
 11
667.6260928819764
 21
103.8407090958794
 31
0.0
  0
LINE
  5
10FC
330
1F
100
AcDbEntity
  8
0
 62
     7
100
AcDbLine
 10
666.6601670556858
 20
103.8407090958794
 30
0.0
 11
666.1544892696981
 21
124.3407090958799
 31
0.0
  0
ELLIPSE
  5
10FD
330
1F
100
AcDbEntity
  8
0
 62
     7
100
AcDbEllipse
 10
666.6374521828425
 20
124.3407090958799
 30
0.0
 11
0.0
 21
1.0
 31
0.0
210
0.0
220
0.0
230
-1.0
 40
0.482816045651879
 41
4.712388980384688
 42
7.853981633974482
  0
LINE
  5
10FE
330
1F
100
AcDbEntity
  8
0
 62
     7
100
AcDbLine
 10
667.2498435311472
 20
124.3407090958799
 30
0.0
 11
667.0181096408294
 21
124.9558579977246
 31
0.0
  0
ELLIPSE
  5
10FF
330
1F
100
AcDbEntity
  8
0
 62
     7
100
AcDbEllipse
 10
667.1431299688312
 20
103.8407090958794
 30
0.0
 11
0.0000000000000037
 21
0.5005156995018179
 31
0.0
210
0.0
220
0.0
230
-1.0
 40
0.9649305978335032
 41
1.570796326794896
 42
4.712388980384688
  0
ELLIPSE
  5
1100
330
1F
100
AcDbEntity
  8
0
 62
     7
100
AcDbEllipse
 10
667.2725612087762
 20
103.8407090958794
 30
0.0
 11
0.0000000000000037
 21
0.5005156995018179
 31
0.0
210
0.0
220
0.0
230
-1.0
 40
0.9649305978335032
 41
1.570796326794896
 42
3.186991184351246
  0
LINE
  5
1101
330
1F
100
AcDbEntity
  8
0
 62
     7
100
AcDbLine
 10
660.2066852782181
 20
124.3407090958799
 30
0.0
 11
661.1835851631822
 21
103.8407090958794
 31
0.0
  0
LINE
  5
1102
330
1F
100
AcDbEntity
  8
0
 62
     7
100
AcDbLine
 10
660.9335432083993
 20
103.8407090958794
 30
0.0
 11
659.9566487418634
 21
124.3407090958799
 31
0.0
  0
LINE
  5
1103
330
1F
100
AcDbEntity
  8
0
 62
     7
100
AcDbLine
 10
659.0906233380792
 20
124.3407090958799
 30
0.0
 11
660.0675178046149
 21
103.8407090958794
 31
0.0
  0
ELLIPSE
  5
1104
330
1F
100
AcDbEntity
  8
0
 62
     7
100
AcDbEllipse
 10
659.5236360399715
 20
124.3407090958799
 30
0.0
 11
0.0
 21
1.0
 31
0.0
210
0.0
220
0.0
230
-1.0
 40
0.4330127018921531
 41
4.712388980384688
 42
7.853981633974482
  0
LINE
  5
1105
330
1F
100
AcDbEntity
  8
0
 62
     7
100
AcDbLine
 10
660.2066852782181
 20
124.3407090958799
 30
0.0
 11
659.798140408765
 21
125.114090766254
 31
0.0
  0
ELLIPSE
  5
1106
330
1F
100
AcDbEntity
  8
0
 62
     7
100
AcDbEllipse
 10
660.5005305065072
 20
103.8407090958794
 30
0.0
 11
0.0
 21
-0.4999999999994601
 31
0.0
210
0.0
220
0.0
230
-1.0
 40
0.8660254037852414
 41
4.712388980384688
 42
7.853981633974482
  0
ELLIPSE
  5
1107
330
1F
100
AcDbEntity
  8
0
 62
     7
100
AcDbEllipse
 10
660.7505724612901
 20
103.8407090958794
 30
0.0
 11
0.0
 21
-0.4999999999994601
 31
0.0
210
0.0
220
0.0
230
-1.0
 40
0.8660254037852414
 41
4.712388980384688
 42
6.283185307179584
  0
LINE
  5
1108
330
1F
100
AcDbEntity
  8
0
 62
     7
100
AcDbLine
 10
654.1220220805046
 20
124.3407090958799
 30
0.0
 11
655.5035671469011
 21
103.8407090958794
 31
0.0
  0
LINE
  5
1109
330
1F
100
AcDbEntity
  8
0
 62
     7
100
AcDbLine
 10
653.0613102385161
 20
124.3407090958799
 30
0.0
 11
654.4428476420987
 21
103.8407090958794
 31
0.0
  0
LINE
  5
110A
330
1F
100
AcDbEntity
  8
0
 62
     7
100
AcDbLine
 10
653.7684170197027
 20
124.3407090958799
 30
0.0
 11
655.1499544232845
 21
103.8407090958794
 31
0.0
  0
ELLIPSE
  5
110B
330
1F
100
AcDbEntity
  8
0
 62
     7
100
AcDbEllipse
 10
653.4148636291095
 20
124.3407090958799
 30
0.0
 11
0.0
 21
1.0
 31
0.0
210
0.0
220
0.0
230
-1.0
 40
0.3535533905933335
 41
4.712388980384688
 42
7.853981633974482
  0
ELLIPSE
  5
110C
330
1F
100
AcDbEntity
  8
0
 62
     7
100
AcDbEllipse
 10
654.7964010326916
 20
103.8407090958794
 30
0.0
 11
0.0
 21
-0.4999999999994601
 31
0.0
210
0.0
220
0.0
230
-1.0
 40
0.7071067811865212
 41
4.712388980384688
 42
7.853981633974482
  0
ELLIPSE
  5
110D
330
1F
100
AcDbEntity
  8
0
 62
     7
100
AcDbEllipse
 10
655.1500137563082
 20
103.8407090958794
 30
0.0
 11
0.0
 21
-0.4999999999994601
 31
0.0
210
0.0
220
0.0
230
-1.0
 40
0.7071067811865212
 41
4.712388980384688
 42
6.283185307179584
  0
LINE
  5
110E
330
1F
100
AcDbEntity
  8
0
 62
     7
100
AcDbLine
 10
654.1220220805046
 20
124.3407090958799
 30
0.0
 11
653.5916274077979
 21
125.2067555913699
 31
0.0
  0
LINE
  5
110F
330
1F
100
AcDbEntity
  8
0
 62
     7
100
AcDbLine
 10
649.4105136795492
 20
124.3407090958799
 30
0.0
 11
651.102553914215
 21
103.8407090958794
 31
0.0
  0
LINE
  5
1110
330
1F
100
AcDbEntity
  8
0
 62
     7
100
AcDbLine
 10
648.9774376948344
 20
124.3407090958799
 30
0.0
 11
650.6694685445072
 21
103.8407090958794
 31
0.0
  0
LINE
  5
1111
330
1F
100
AcDbEntity
  8
0
 62
     7
100
AcDbLine
 10
650.1694685445077
 20
103.8407090958794
 30
0.0
 11
648.4774376948344
 21
124.3407090958799
 31
0.0
  0
ELLIPSE
  5
1112
330
1F
100
AcDbEntity
  8
0
 62
     7
100
AcDbEllipse
 10
648.7274376948342
 20
124.3407090958799
 30
0.0
 11
0.0
 21
1.0
 31
0.0
210
0.0
220
0.0
230
-1.0
 40
0.25
 41
4.712388980384688
 42
7.853981633974482
  0
LINE
  5
1113
330
1F
100
AcDbEntity
  8
0
 62
     7
100
AcDbLine
 10
649.4105136795492
 20
124.3407090958799
 30
0.0
 11
648.8189355682752
 21
125.2713272917543
 31
0.0
  0
ELLIPSE
  5
1114
330
1F
100
AcDbEntity
  8
0
 62
     7
100
AcDbEllipse
 10
650.4194685445074
 20
103.8407090958794
 30
0.0
 11
0.0
 21
-0.4999999999994601
 31
0.0
210
0.0
220
0.0
230
-1.0
 40
0.5000000000000853
 41
4.712388980384688
 42
7.853981633974482
  0
ELLIPSE
  5
1115
330
1F
100
AcDbEntity
  8
0
 62
     7
100
AcDbEllipse
 10
650.8525539142152
 20
103.8407090958794
 30
0.0
 11
0.0
 21
-0.4999999999994601
 31
0.0
210
0.0
220
0.0
230
-1.0
 40
0.5000000000000853
 41
4.712388980384688
 42
6.283185307179584
  0
LINE
  5
1116
330
1F
100
AcDbEntity
  8
0
 62
     7
100
AcDbLine
 10
646.3932415867414
 20
124.3407090958799
 30
0.0
 11
648.2804672439125
 21
103.8407090958794
 31
0.0
  0
LINE
  5
1117
330
1F
100
AcDbEntity
  8
0
 62
     7
100
AcDbLine
 10
645.9102080907796
 20
124.3407090958799
 30
0.0
 11
647.7974232803513
 21
103.8407090958794
 31
0.0
  0
LINE
  5
1118
330
1F
100
AcDbEntity
  8
0
 62
     7
100
AcDbLine
 10
647.5386042352487
 20
103.8407090958794
 30
0.0
 11
645.6513890456772
 21
124.3407090958799
 31
0.0
  0
ELLIPSE
  5
1119
330
1F
100
AcDbEntity
  8
0
 62
     7
100
AcDbEllipse
 10
645.7807985682284
 20
124.3407090958799
 30
0.0
 11
0.0000000000001137
 21
1.0
 31
0.0
210
0.0
220
0.0
230
-1.0
 40
0.1294095225512137
 41
4.712388980384688
 42
7.853981633974482
  0
LINE
  5
111A
330
1F
100
AcDbEntity
  8
0
 62
     7
100
AcDbLine
 10
646.3932415867414
 20
124.3407090958799
 30
0.0
 11
645.8081428664256
 21
125.3181302406288
 31
0.0
  0
ELLIPSE
  5
111B
330
1F
100
AcDbEntity
  8
0
 62
     7
100
AcDbEllipse
 10
647.6680137577999
 20
103.8407090958794
 30
0.0
 11
0.0
 21
-0.4999999999994601
 31
0.0
210
0.0
220
0.0
230
-1.0
 40
0.258819045102707
 41
4.712388980384688
 42
7.853981633974482
  0
ELLIPSE
  5
111C
330
1F
100
AcDbEntity
  8
0
 62
     7
100
AcDbEllipse
 10
648.1510577213612
 20
103.8407090958794
 30
0.0
 11
0.0
 21
-0.4999999999994601
 31
0.0
210
0.0
220
0.0
230
-1.0
 40
0.258819045102707
 41
4.712388980384688
 42
6.283185307179584
  0
LINE
  5
111D
330
1F
100
AcDbEntity
  8
0
 62
     7
100
AcDbLine
 10
644.771517243724
 20
125.3407090958799
 30
0.0
 11
646.6889881799154
 21
103.7963837022212
 31
0.0
  0
LINE
  5
111E
330
1F
100
AcDbEntity
  8
0
 62
     3
100
AcDbLine
 10
647.2296276788561
 20
103.3407090958799
 30
0.0
 11
645.275827908928
 21
124.3407090958799
 31
0.0
  0
LINE
  5
111F
330
1F
100
AcDbEntity
  8
0
 62
     3
100
AcDbLine
 10
645.275827908928
 20
124.3407090958799
 30
0.0
 11
644.771517243724
 21
125.3407090958799
 31
0.0
  0
ARC
  5
1120
330
1F
100
AcDbEntity
  8
0
 62
     7
100
AcDbCircle
 10
701.3560149235042
 20
103.8407090958799
 30
0.0
 40
0.5
100
AcDbArc
 50
270.0
 51
354.9140073716311
  0
ARC
  5
1121
330
1F
100
AcDbEntity
  8
0
 62
     7
100
AcDbCircle
 10
647.1870195639437
 20
103.8407090958799
 30
0.0
 40
0.5
100
AcDbArc
 50
185.0859926283689
 51
270.0
  0
ARC
  5
1122
330
1F
100
AcDbEntity
  8
0
 62
     3
100
AcDbCircle
 10
700.8158701999636
 20
103.3407090958799
 30
0.0
 40
0.5
100
AcDbArc
 50
270.0
 51
354.6854543300562
  0
ARC
  5
1123
330
1F
100
AcDbEntity
  8
0
 62
     3
100
AcDbCircle
 10
647.7271642874842
 20
103.3407090958799
 30
0.0
 40
0.5
100
AcDbArc
 50
185.3145456699438
 51
270.0
  0
LINE
  5
1124
330
1F
100
AcDbEntity
  8
0
 62
     7
100
AcDbLine
 10
673.7715172437249
 20
124.3407090958799
 30
0.0
 11
667.249843531147
 21
124.3407090958799
 31
0.0
  0
LINE
  5
1125
330
1F
100
AcDbEntity
  8
0
 62
     7
100
AcDbLine
 10
681.2931909563009
 20
124.3407090958799
 30
0.0
 11
674.7715172437239
 21
124.3407090958799
 31
0.0
  0
LINE
  5
1126
330
1F
100
AcDbEntity
  8
0
 62
     7
100
AcDbLine
 10
688.3363492092297
 20
124.3407090958799
 30
0.0
 11
682.3885452177497
 21
124.3407090958799
 31
0.0
  0
LINE
  5
1127
330
1F
100
AcDbEntity
  8
0
 62
     7
100
AcDbLine
 10
694.4210124069432
 20
124.3407090958799
 30
0.0
 11
689.4524111493687
 21
124.3407090958799
 31
0.0
  0
LINE
  5
1128
330
1F
100
AcDbEntity
  8
0
 62
     7
100
AcDbLine
 10
699.1325208078985
 20
124.3407090958799
 30
0.0
 11
695.4817242489317
 21
124.3407090958799
 31
0.0
  0
LINE
  5
1129
330
1F
100
AcDbEntity
  8
0
 62
     7
100
AcDbLine
 10
702.1497929007066
 20
124.3407090958799
 30
0.0
 11
700.0655967926136
 21
124.3407090958799
 31
0.0
  0
LINE
  5
112A
330
1F
100
AcDbEntity
  8
0
 62
     7
100
AcDbLine
 10
645.6513890456772
 20
124.3407090958799
 30
0.0
 11
645.275827908928
 21
124.3407090958799
 31
0.0
  0
LINE
  5
112B
330
1F
100
AcDbEntity
  8
0
 62
     7
100
AcDbLine
 10
648.4774376948344
 20
124.3407090958799
 30
0.0
 11
646.3932415867414
 21
124.3407090958799
 31
0.0
  0
LINE
  5
112C
330
1F
100
AcDbEntity
  8
0
 62
     7
100
AcDbLine
 10
653.0613102385158
 20
124.3407090958799
 30
0.0
 11
649.4105136795492
 21
124.3407090958799
 31
0.0
  0
LINE
  5
112D
330
1F
100
AcDbEntity
  8
0
 62
     7
100
AcDbLine
 10
659.0906233380792
 20
124.3407090958799
 30
0.0
 11
654.1220220805046
 21
124.3407090958799
 31
0.0
  0
LINE
  5
112E
330
1F
100
AcDbEntity
  8
0
 62
     7
100
AcDbLine
 10
666.1544892696981
 20
124.3407090958799
 30
0.0
 11
660.2066852782181
 21
124.3407090958799
 31
0.0
  0
LINE
  5
1134
330
1F
100
AcDbEntity
  8
0
  6
CENTER
 62
     7
100
AcDbLine
 10
674.271517243724
 20
65.74835336910722
 30
0.0
 11
674.271517243724
 21
-4.615282705433273
 31
0.0
  0
LINE
  5
1137
330
1F
100
AcDbEntity
  8
0
  6
CENTER
 62
     7
100
AcDbLine
 10
674.271517243724
 20
30.56653533183697
 30
0.0
 11
699.8192666553652
 21
45.3165353318367
 31
0.0
  0
CIRCLE
  5
1138
330
1F
100
AcDbEntity
  8
0
 62
     3
100
AcDbCircle
 10
683.797796685353
 20
36.06653533183687
 30
0.0
 40
3.75
  0
LINE
  5
1139
330
1F
100
AcDbEntity
  8
0
  6
CENTER
 62
     7
100
AcDbLine
 10
663.6181922360711
 20
44.45021878693363
 30
0.0
 11
674.271517243724
 21
30.56653533183698
 31
0.0
  0
ARC
  5
113A
330
1F
100
AcDbEntity
  8
0
 62
     3
100
AcDbCircle
 10
663.6181922360711
 20
44.45021878693356
 30
0.0
 40
3.75
100
AcDbArc
 50
146.9712206344934
 51
108.0287793655166
  0
ARC
  5
116A
330
1F
100
AcDbEntity
  8
0
 62
     3
100
AcDbCircle
 10
205.3786601008659
 20
129.0907090958799
 30
0.0
 40
498.8928571428581
100
AcDbArc
 50
0.0
 51
4.689612045534261
  0
ARC
  5
116B
330
1F
100
AcDbEntity
  8
0
 62
     3
100
AcDbCircle
 10
1143.164374386582
 20
129.0907090958799
 30
0.0
 40
498.8928571428581
100
AcDbArc
 50
175.3103879544657
 51
180.0
  0
ARC
  5
116C
330
1F
100
AcDbEntity
  8
0
 62
     3
100
AcDbCircle
 10
701.1063584770636
 20
169.7564612636837
 30
0.0
 40
1.5
100
AcDbArc
 50
4.689612045534261
 51
70.51276295978694
  0
ARC
  5
116D
330
1F
100
AcDbEntity
  8
0
 62
     3
100
AcDbCircle
 10
647.4366760103844
 20
169.7564612636837
 30
0.0
 40
1.5
100
AcDbArc
 50
109.487237040213
 51
175.3103879544625
  0
LINE
  5
12AE
330
1F
100
AcDbEntity
  8
0
 62
     7
100
AcDbLine
 10
664.6098839114354
 20
45.21117057319441
 30
0.0
 11
656.6174651677528
 21
55.62709347033328
 31
0.0
  0
LINE
  5
12AF
330
1F
100
AcDbEntity
  8
0
 62
     7
100
AcDbLine
 10
662.6265005607072
 20
43.68926700067262
 30
0.0
 11
654.6340818170245
 21
54.1051898978115
 31
0.0
  0
ARC
  5
12B0
330
1F
100
AcDbEntity
  8
0
 62
     7
100
AcDbCircle
 10
663.1223463983892
 20
44.06974289380308
 30
0.0
 40
0.6249999999999877
100
AcDbArc
 50
217.4999999999968
 51
37.49999999999676
  0
ARC
  5
12B1
330
1F
100
AcDbEntity
  8
0
 62
     7
100
AcDbCircle
 10
664.1140380737531
 20
44.83069468006397
 30
0.0
 40
0.6249999999999946
100
AcDbArc
 50
217.4999999999968
 51
37.49999999999676
  0
LINE
  5
12CE
330
1F
100
AcDbEntity
  8
0
 62
     7
100
AcDbLine
 10
663.6181922360711
 20
44.45021878693361
 30
0.0
 11
655.6257734923885
 21
54.86614168407246
 31
0.0
  0
ARC
  5
12CF
330
1F
100
AcDbEntity
  8
0
 62
     7
100
AcDbCircle
 10
674.271517243724
 20
30.56653533183697
 30
0.0
 40
29.0
100
AcDbArc
 50
129.9704110375023
 51
134.0120927833411
  0
LINE
  5
12D0
330
1F
100
AcDbEntity
  8
0
 62
     7
100
AcDbLine
 10
662.5314825198545
 20
84.45866763402436
 30
0.0
 11
662.5314825198545
 21
102.8407090958799
 31
0.0
  0
LINE
  5
12D1
330
1F
100
AcDbEntity
  8
0
 62
     7
100
AcDbLine
 10
664.7390380737531
 20
84.20866763402434
 30
0.0
 11
664.7390380737531
 21
102.8407090958799
 31
0.0
  0
LINE
  5
12D2
330
1F
100
AcDbEntity
  8
0
 62
     7
100
AcDbLine
 10
663.4890380737531
 20
84.20866763402434
 30
0.0
 11
663.4890380737531
 21
102.8407090958799
 31
0.0
  0
LINE
  5
12D3
330
1F
100
AcDbEntity
  8
0
 62
     7
100
AcDbLine
 10
660.0314825198545
 20
81.95866763402436
 30
0.0
 11
647.5396161145065
 21
81.95866763402436
 31
0.0
  0
LINE
  5
12D4
330
1F
100
AcDbEntity
  8
0
 62
     7
100
AcDbLine
 10
659.9890380737531
 20
80.70866763402436
 30
0.0
 11
647.5396161145065
 21
80.70866763402436
 31
0.0
  0
LINE
  5
12D5
330
1F
100
AcDbEntity
  8
0
 62
     7
100
AcDbLine
 10
623.5396161145065
 20
77.15866763402437
 30
0.0
 11
615.0396161145065
 21
77.15866763402437
 31
0.0
  0
LINE
  5
12D6
330
1F
100
AcDbEntity
  8
0
 62
     7
100
AcDbLine
 10
623.5396161145065
 20
77.90866763402437
 30
0.0
 11
615.0396161145065
 21
77.90866763402437
 31
0.0
  0
LINE
  5
12D7
330
1F
100
AcDbEntity
  8
0
 62
     7
100
AcDbLine
 10
623.5396161145065
 20
83.50866763402439
 30
0.0
 11
615.0396161145065
 21
83.50866763402439
 31
0.0
  0
LINE
  5
12D8
330
1F
100
AcDbEntity
  8
0
 62
     7
100
AcDbLine
 10
623.5396161145065
 20
84.25866763402439
 30
0.0
 11
615.0396161145065
 21
84.25866763402439
 31
0.0
  0
LINE
  5
12D9
330
1F
100
AcDbEntity
  8
0
 62
     7
100
AcDbLine
 10
659.9890380737531
 20
79.45866763402439
 30
0.0
 11
647.5396161145065
 21
79.45866763402439
 31
0.0
  0
ARC
  5
12DA
330
1F
100
AcDbEntity
  8
0
 62
     7
100
AcDbCircle
 10
660.0314825198545
 20
84.45866763402436
 30
0.0
 40
2.5
100
AcDbArc
 50
270.0
 51
0.0
  0
ARC
  5
12DB
330
1F
100
AcDbEntity
  8
0
 62
     7
100
AcDbCircle
 10
659.9890380737531
 20
84.20866763402434
 30
0.0
 40
3.5
100
AcDbArc
 50
270.0
 51
0.0
  0
ARC
  5
12DC
330
1F
100
AcDbEntity
  8
0
 62
     7
100
AcDbCircle
 10
659.9890380737531
 20
84.20866763402434
 30
0.0
 40
4.75
100
AcDbArc
 50
270.0
 51
0.0
  0
LINE
  5
12DD
330
1F
100
AcDbEntity
  8
0
 62
     3
100
AcDbLine
 10
638.5396161145065
 20
84.30407827255118
 30
0.0
 11
638.5396161145065
 21
77.11325699549758
 31
0.0
  0
LINE
  5
12DE
330
1F
100
AcDbEntity
  8
0
 62
     3
100
AcDbLine
 10
623.5396161145065
 20
86.70866763402463
 30
0.0
 11
623.5396161145065
 21
74.70866763402411
 31
0.0
  0
LINE
  5
12DF
330
1F
100
AcDbEntity
  8
0
 62
     7
100
AcDbLine
 10
615.0396161145065
 20
84.25866763402439
 30
0.0
 11
615.0396161145065
 21
83.50866763402439
 31
0.0
  0
LINE
  5
12E0
330
1F
100
AcDbEntity
  8
0
 62
     7
100
AcDbLine
 10
615.0396161145057
 20
77.90866763402437
 30
0.0
 11
615.0396161145065
 21
77.15866763402437
 31
0.0
  0
LINE
  5
12E1
330
1F
100
AcDbEntity
  8
0
 62
     3
100
AcDbLine
 10
638.5396161145065
 20
83.70866763402439
 30
0.0
 11
647.5396161145065
 21
83.45866763402439
 31
0.0
  0
LINE
  5
12E2
330
1F
100
AcDbEntity
  8
0
 62
     3
100
AcDbLine
 10
647.5396161145065
 20
83.45866763402439
 30
0.0
 11
647.5396161145065
 21
77.95866763402441
 31
0.0
  0
LINE
  5
12E3
330
1F
100
AcDbEntity
  8
0
 62
     7
100
AcDbLine
 10
646.0396161145065
 20
81.50866763402444
 30
0.0
 11
646.0396161145065
 21
77.91700096735771
 31
0.0
  0
LINE
  5
12E4
330
1F
100
AcDbEntity
  8
0
 62
     7
100
AcDbLine
 10
645.1396161145062
 20
81.50866763402444
 30
0.0
 11
645.1396161145062
 21
77.89200096735772
 31
0.0
  0
LINE
  5
12E5
330
1F
100
AcDbEntity
  8
0
 62
     7
100
AcDbLine
 10
644.2396161145062
 20
83.55033430069104
 30
0.0
 11
644.2396161145062
 21
79.90866763402434
 31
0.0
  0
LINE
  5
12E6
330
1F
100
AcDbEntity
  8
0
 62
     7
100
AcDbLine
 10
643.3396161145062
 20
83.57533430069102
 30
0.0
 11
643.3396161145062
 21
79.90866763402434
 31
0.0
  0
LINE
  5
12E7
330
1F
100
AcDbEntity
  8
0
 62
     7
100
AcDbLine
 10
642.4396161145064
 20
81.50866763402435
 30
0.0
 11
642.4396161145064
 21
77.81700096735773
 31
0.0
  0
LINE
  5
12E8
330
1F
100
AcDbEntity
  8
0
 62
     7
100
AcDbLine
 10
641.5396161145065
 20
81.50866763402435
 30
0.0
 11
641.5396161145065
 21
77.7920009673577
 31
0.0
  0
LINE
  5
12E9
330
1F
100
AcDbEntity
  8
0
 62
     7
100
AcDbLine
 10
640.6396161145062
 20
83.65033430069106
 30
0.0
 11
640.6396161145062
 21
79.90866763402441
 31
0.0
  0
LINE
  5
12EA
330
1F
100
AcDbEntity
  8
0
 62
     7
100
AcDbLine
 10
639.7396161145064
 20
83.67533430069103
 30
0.0
 11
639.7396161145064
 21
79.90866763402441
 31
0.0
  0
LINE
  5
12EB
330
1F
100
AcDbEntity
  8
0
 62
     3
100
AcDbLine
 10
647.5396161145065
 20
77.95866763402441
 30
0.0
 11
638.5396161145065
 21
77.70866763402439
 31
0.0
  0
ARC
  5
12EC
330
1F
100
AcDbEntity
  8
0
 62
     3
100
AcDbCircle
 10
635.0396161145065
 20
86.70866763402441
 30
0.0
 40
2.375
100
AcDbArc
 50
246.6624519992529
 51
315.4822333322691
  0
ARC
  5
12ED
330
1F
100
AcDbEntity
  8
0
 62
     3
100
AcDbCircle
 10
623.5396161145065
 20
60.05406237086649
 30
0.0
 40
26.6546052631579
100
AcDbArc
 50
66.66245199925291
 51
90.0
  0
ARC
  5
12EE
330
1F
100
AcDbEntity
  8
0
 62
     3
100
AcDbCircle
 10
637.485026753033
 20
84.30407827255118
 30
0.0
 40
1.054589361473199
100
AcDbArc
 50
0.0
 51
135.482233332269
  0
ARC
  5
12EF
330
1F
100
AcDbEntity
  8
0
 62
     3
100
AcDbCircle
 10
635.0396161145065
 20
74.70866763402439
 30
0.0
 40
2.375
100
AcDbArc
 50
44.51776666773094
 51
113.3375480007471
  0
ARC
  5
12F0
330
1F
100
AcDbEntity
  8
0
 62
     3
100
AcDbCircle
 10
623.5396161145065
 20
101.3632728971822
 30
0.0
 40
26.6546052631579
100
AcDbArc
 50
270.0
 51
293.3375480007471
  0
ARC
  5
12F1
330
1F
100
AcDbEntity
  8
0
 62
     3
100
AcDbCircle
 10
637.485026753033
 20
77.11325699549758
 30
0.0
 40
1.054589361473199
100
AcDbArc
 50
224.5177666677309
 51
0.0
  0
ARC
  5
12F2
330
1F
100
AcDbEntity
  8
0
 62
     7
100
AcDbCircle
 10
645.5896161145062
 20
81.50866763402444
 30
0.0
 40
0.4499999999999421
100
AcDbArc
 50
0.0
 51
180.0
  0
ARC
  5
12F3
330
1F
100
AcDbEntity
  8
0
 62
     7
100
AcDbCircle
 10
643.7896161145065
 20
79.90866763402434
 30
0.0
 40
0.4500000000000249
100
AcDbArc
 50
180.0
 51
0.0
  0
ARC
  5
12F4
330
1F
100
AcDbEntity
  8
0
 62
     7
100
AcDbCircle
 10
641.9896161145064
 20
81.50866763402435
 30
0.0
 40
0.4500000000000249
100
AcDbArc
 50
0.0
 51
180.0
  0
ARC
  5
12F5
330
1F
100
AcDbEntity
  8
0
 62
     7
100
AcDbCircle
 10
640.1896161145064
 20
79.90866763402441
 30
0.0
 40
0.4500000000000661
100
AcDbArc
 50
180.0
 51
0.0
  0
TEXT
  5
1454
330
1F
100
AcDbEntity
  8
0
 62
     3
100
AcDbText
 10
762.9403797274719
 20
87.6770074705082
 30
0.0
 40
3.2
  1
0.015A
 41
0.8
  7
高3.2
100
AcDbText
  0
TEXT
  5
1B4E
330
1F
100
AcDbEntity
  8
0
100
AcDbText
 10
720.4750285234653
 20
203.2450689365177
 30
0.0
 40
2.5
  1
'15.06.18
  7
高2.5
100
AcDbText
  0
TEXT
  5
1B4F
330
1F
100
AcDbEntity
  8
0
100
AcDbText
 10
738.4750285234653
 20
203.2450689365177
 30
0.0
 40
2.5
  1
品名変更 No.5066
  7
高2.5
100
AcDbText
  0
TEXT
  5
1B50
330
1F
100
AcDbEntity
  8
0
100
AcDbText
 10
780.4750285234653
 20
203.2450689365177
 30
0.0
 40
2.5
  1
今村
  7
高2.5
100
AcDbText
  0
LINE
  5
1D97
330
1F
100
AcDbEntity
  8
0
100
AcDbLine
 10
690.7269618099514
 20
90.59070909587996
 30
0.0
 11
704.6861187010048
 21
90.59070909587996
 31
0.0
  0
LINE
  5
1D9A
330
1F
100
AcDbEntity
  8
0
100
AcDbLine
 10
693.4269618099517
 20
97.84070909587995
 30
0.0
 11
704.6861187010048
 21
97.84070909587995
 31
0.0
  0
LINE
  5
1D9B
330
1F
100
AcDbEntity
  8
0
100
AcDbLine
 10
703.4361187010048
 20
100.3407090958799
 30
0.0
 11
703.4361187010048
 21
102.8407090958799
 31
0.0
  0
LINE
  5
1D9C
330
1F
100
AcDbEntity
  8
0
100
AcDbLine
 10
703.4361187010048
 20
88.09070909587996
 30
0.0
 11
703.4361187010048
 21
75.34070909587993
 31
0.0
  0
LINE
  5
1D9D
330
1F
100
AcDbEntity
  8
0
100
AcDbLine
 10
703.4361187010048
 20
97.84070909587995
 30
0.0
 11
703.4361187010048
 21
90.59070909587996
 31
0.0
  0
LINE
  5
1DA1
330
1F
100
AcDbEntity
  8
0
100
AcDbLine
 10
674.2715172437239
 20
65.99835336910723
 30
0.0
 11
674.271517243724
 21
76.57630713080163
 31
0.0
  0
LINE
  5
1DA2
330
1F
100
AcDbEntity
  8
0
100
AcDbLine
 10
643.5866627211801
 20
12.85062631320187
 30
0.0
 11
634.4258860434957
 21
7.561649432354727
 31
0.0
  0
ARC
  5
1DA3
330
1F
100
AcDbEntity
  8
0
100
AcDbCircle
 10
674.2715172437239
 20
30.56653533183692
 30
0.0
 40
44.75977179896466
100
AcDbArc
 50
93.20059885325756
 51
206.7994011467422
  0
LINE
  5
1DA7
330
1F
100
AcDbEntity
  8
0
100
AcDbLine
 10
655.4735831351364
 20
55.06448001914529
 30
0.0
 11
652.8359429970021
 21
58.50191957158628
 31
0.0
  0
ARC
  5
1DA8
330
1F
100
AcDbEntity
  8
0
100
AcDbCircle
 10
674.271517243724
 20
30.56653533183644
 30
0.0
 40
33.96178120898154
100
AcDbArc
 50
94.21861881780491
 51
123.2813811821947
  0
LINE
  5
1DAC
330
1F
100
AcDbEntity
  8
0
100
AcDbLine
 10
643.5866627211801
 20
12.85062631320186
 30
0.0
 11
634.7152275853026
 21
7.728700849404695
 31
0.0
  0
LINE
  5
1DAD
330
1F
100
AcDbEntity
  8
0
100
AcDbLine
 10
704.9563717662679
 20
12.85062631320181
 30
0.0
 11
713.8278069021454
 21
7.728700849404626
 31
0.0
  0
ARC
  5
1DAE
330
1F
100
AcDbEntity
  8
0
100
AcDbCircle
 10
674.271517243724
 20
30.56653533183696
 30
0.0
 40
44.42566896486485
100
AcDbArc
 50
213.2246752593579
 51
326.775324740642
  0
LINE
  5
1DB2
330
1F
100
AcDbEntity
  8
0
100
AcDbLine
 10
654.4882631150501
 20
33.50300533513952
 30
0.0
 11
631.0283498753444
 21
36.98520958022505
 31
0.0
  0
LINE
  5
1DB3
330
1F
100
AcDbEntity
  8
0
100
AcDbLine
 10
674.2715172437242
 20
30.56653533183703
 30
0.0
 11
656.9611698811343
 21
33.13594658472671
 31
0.0
  0
LINE
  5
1DB6
330
1F
100
AcDbEntity
  8
0
100
AcDbLine
 10
704.271517243724
 20
129.3407090958799
 30
0.0
 11
704.271517243724
 21
190.4362817064705
 31
0.0
  0
LINE
  5
1DB7
330
1F
100
AcDbEntity
  8
0
100
AcDbLine
 10
644.2715172437241
 20
129.34070909588
 30
0.0
 11
644.2715172437241
 21
190.4362817064705
 31
0.0
  0
LINE
  5
1DB8
330
1F
100
AcDbEntity
  8
0
100
AcDbLine
 10
701.771517243724
 20
189.1862817064705
 30
0.0
 11
646.7715172437241
 21
189.1862817064705
 31
0.0
  0
LINE
  5
1DBC
330
1F
100
AcDbEntity
  8
0
100
AcDbLine
 10
674.021517243724
 20
175.84070909588
 30
0.0
 11
638.0745100111623
 21
175.84070909588
 31
0.0
  0
LINE
  5
1DBD
330
1F
100
AcDbEntity
  8
0
100
AcDbLine
 10
655.1160726774963
 20
97.84070909587995
 30
0.0
 11
638.0745100111623
 21
97.84070909587995
 31
0.0
  0
LINE
  5
1DBE
330
1F
100
AcDbEntity
  8
0
100
AcDbLine
 10
639.3245100111624
 20
173.34070909588
 30
0.0
 11
639.3245100111624
 21
100.3407090958799
 31
0.0
  0
LINE
  5
1DC2
330
1F
100
AcDbEntity
  8
0
100
AcDbLine
 10
657.816072677496
 20
90.59070909587996
 30
0.0
 11
632.954945963369
 21
90.59070909587996
 31
0.0
  0
LINE
  5
1DC3
330
1F
100
AcDbEntity
  8
0
100
AcDbLine
 10
674.021517243724
 20
175.84070909588
 30
0.0
 11
632.954945963369
 21
175.84070909588
 31
0.0
  0
LINE
  5
1DC4
330
1F
100
AcDbEntity
  8
0
100
AcDbLine
 10
634.204945963369
 20
93.09070909587996
 30
0.0
 11
634.204945963369
 21
173.34070909588
 31
0.0
  0
TEXT
  5
1DC8
330
1F
100
AcDbEntity
  8
0
 62
     4
100
AcDbText
 10
618.6720166976035
 20
68.33721026178618
 30
0.0
 40
3.0
  1
VFF0.75sq
100
AcDbText
1001
ACAD
1000
MTEXTBEGIN
1070
    73
1070
     1
1070
    44
1040
1.0
1070
    74
1070
     0
1000
MTEXTEND
  0
TEXT
  5
1DC9
330
1F
100
AcDbEntity
  8
0
 62
     4
100
AcDbText
 10
625.6720166976036
 20
63.33721026178618
 30
0.0
 40
3.0
  1
(350mm)
100
AcDbText
1001
ACAD
1000
MTEXTBEGIN
1070
    73
1070
     1
1070
    44
1040
1.0
1070
    74
1070
     0
1000
MTEXTEND
  0
TEXT
  5
1DCC
330
1F
100
AcDbEntity
  8
0
 62
     4
100
AcDbText
 10
710.8741007626653
 20
130.6367040858684
 30
0.0
 40
3.0
  1
Oリング
100
AcDbText
1001
ACAD
1000
MTEXTBEGIN
1070
    73
1070
     1
1070
    44
1040
1.0
1070
    74
1070
     0
1000
MTEXTEND
  0
TEXT
  5
1DCF
330
1F
100
AcDbEntity
  8
0
 62
     4
100
AcDbText
 10
708.6843991569702
 20
167.0266914101031
 30
0.0
 40
3.0
  1
グローブ
100
AcDbText
1001
ACAD
1000
MTEXTBEGIN
1070
    73
1070
     1
1070
    44
1040
1.0
1070
    74
1070
     0
1000
MTEXTEND
  0
TEXT
  5
1DD0
330
1F
100
AcDbEntity
  8
0
 62
     4
100
AcDbText
 10
709.0843991569702
 20
162.0266914101031
 30
0.0
 40
3.0
  1
(PMMA)
100
AcDbText
1001
ACAD
1000
MTEXTBEGIN
1070
    73
1070
     1
1070
    44
1040
1.0
1070
    74
1070
     0
1000
MTEXTEND
  0
TEXT
  5
1DD1
330
1F
100
AcDbEntity
  8
0
 62
     4
100
AcDbText
 10
709.0843991569702
 20
157.0266914101031
 30
0.0
 40
3.0
  1
R:赤:55411
100
AcDbText
1001
ACAD
1000
MTEXTBEGIN
1070
    73
1070
     1
1070
    44
1040
1.0
1070
    74
1070
     0
1000
MTEXTEND
  0
TEXT
  5
1DD2
330
1F
100
AcDbEntity
  8
0
 62
     4
100
AcDbText
 10
709.0843991569702
 20
152.0266914101031
 30
0.0
 40
3.0
  1
Y:黄:55412
100
AcDbText
1001
ACAD
1000
MTEXTBEGIN
1070
    73
1070
     1
1070
    44
1040
1.0
1070
    74
1070
     0
1000
MTEXTEND
  0
TEXT
  5
1DD5
330
1F
100
AcDbEntity
  8
0
 62
     3
100
AcDbText
 10
714.3466731455569
 20
204.0521969007125
 30
0.0
 40
2.0
  1
1
  7
高2
100
AcDbText
1001
ACAD
1000
MTEXTBEGIN
1070
    73
1070
     1
1070
    44
1040
1.0
1070
    74
1070
     0
1000
MTEXTEND
  0
TEXT
  5
1DD6
330
1F
100
AcDbEntity
  8
0
 62
     3
100
AcDbText
 10
714.1157262082337
 20
198.0470467325406
 30
0.0
 40
2.0
  1
2
  7
高2
100
AcDbText
1001
ACAD
1000
MTEXTBEGIN
1070
    73
1070
     1
1070
    44
1040
1.0
1070
    74
1070
     0
1000
MTEXTEND
  0
LINE
  5
1DD7
330
1F
100
AcDbEntity
  8
0
 62
     3
100
AcDbLine
 10
686.7979961434652
 20
218.7029515065176
 30
0.0
 11
686.7793686134652
 21
218.8222192765175
 31
0.0
  0
LINE
  5
1DD8
330
1F
100
AcDbEntity
  8
0
 62
     3
100
AcDbLine
 10
686.7793686134652
 20
218.8222192765175
 30
0.0
 11
686.7569974334652
 21
218.9364240565176
 31
0.0
  0
LINE
  5
1DD9
330
1F
100
AcDbEntity
  8
0
 62
     3
100
AcDbLine
 10
686.7569974334652
 20
218.9364240565176
 30
0.0
 11
686.7310555034653
 21
219.0446831165175
 31
0.0
  0
LINE
  5
1DDA
330
1F
100
AcDbEntity
  8
0
 62
     3
100
AcDbLine
 10
686.7310555034653
 20
219.0446831165175
 30
0.0
 11
686.7017433634653
 21
219.1461596665175
 31
0.0
  0
LINE
  5
1DDB
330
1F
100
AcDbEntity
  8
0
 62
     3
100
AcDbLine
 10
686.7017433634653
 20
219.1461596665175
 30
0.0
 11
686.6692875534653
 21
219.2400693465176
 31
0.0
  0
LINE
  5
1DDC
330
1F
100
AcDbEntity
  8
0
 62
     3
100
AcDbLine
 10
686.6692875534653
 20
219.2400693465176
 30
0.0
 11
686.6339389634653
 21
219.3256862865176
 31
0.0
  0
LINE
  5
1DDD
330
1F
100
AcDbEntity
  8
0
 62
     3
100
AcDbLine
 10
686.6339389634653
 20
219.3256862865176
 30
0.0
 11
686.5959708134652
 21
219.4023486965175
 31
0.0
  0
LINE
  5
1DDE
330
1F
100
AcDbEntity
  8
0
 62
     3
100
AcDbLine
 10
686.5959708134652
 20
219.4023486965175
 30
0.0
 11
686.5556765634652
 21
219.4694640365176
 31
0.0
  0
LINE
  5
1DDF
330
1F
100
AcDbEntity
  8
0
 62
     3
100
AcDbLine
 10
686.5556765634652
 20
219.4694640365176
 30
0.0
 11
686.5133676934653
 21
219.5265135265175
 31
0.0
  0
LINE
  5
1DE0
330
1F
100
AcDbEntity
  8
0
 62
     3
100
AcDbLine
 10
686.5133676934653
 20
219.5265135265175
 30
0.0
 11
686.4693712034652
 21
219.5730561965175
 31
0.0
  0
LINE
  5
1DE1
330
1F
100
AcDbEntity
  8
0
 62
     3
100
AcDbLine
 10
686.4693712034652
 20
219.5730561965175
 30
0.0
 11
686.4240271834652
 21
219.6087323165175
 31
0.0
  0
LINE
  5
1DE2
330
1F
100
AcDbEntity
  8
0
 62
     3
100
AcDbLine
 10
686.4240271834652
 20
219.6087323165175
 30
0.0
 11
686.3776861134653
 21
219.6332661065176
 31
0.0
  0
LINE
  5
1DE3
330
1F
100
AcDbEntity
  8
0
 62
     3
100
AcDbLine
 10
686.3776861134653
 20
219.6332661065176
 30
0.0
 11
686.3307061734652
 21
219.6464679565175
 31
0.0
  0
LINE
  5
1DE4
330
1F
100
AcDbEntity
  8
0
 62
     3
100
AcDbLine
 10
686.3307061734652
 20
219.6464679565175
 30
0.0
 11
686.2834505134652
 21
219.6482357965176
 31
0.0
  0
LINE
  5
1DE5
330
1F
100
AcDbEntity
  8
0
 62
     3
100
AcDbLine
 10
686.2834505134652
 20
219.6482357965176
 30
0.0
 11
686.2362843834652
 21
219.6385559865175
 31
0.0
  0
LINE
  5
1DE6
330
1F
100
AcDbEntity
  8
0
 62
     3
100
AcDbLine
 10
686.2362843834652
 20
219.6385559865175
 30
0.0
 11
686.1895723534652
 21
219.6175033265175
 31
0.0
  0
LINE
  5
1DE7
330
1F
100
AcDbEntity
  8
0
 62
     3
100
AcDbLine
 10
686.1895723534652
 20
219.6175033265175
 30
0.0
 11
686.1436754934652
 21
219.5852405565176
 31
0.0
  0
LINE
  5
1DE8
330
1F
100
AcDbEntity
  8
0
 62
     3
100
AcDbLine
 10
686.1436754934652
 20
219.5852405565176
 30
0.0
 11
686.0989485534652
 21
219.5420170465176
 31
0.0
  0
LINE
  5
1DE9
330
1F
100
AcDbEntity
  8
0
 62
     3
100
AcDbLine
 10
686.0989485534652
 20
219.5420170465176
 30
0.0
 11
686.0557372434652
 21
219.4881668865175
 31
0.0
  0
LINE
  5
1DEA
330
1F
100
AcDbEntity
  8
0
 62
     3
100
AcDbLine
 10
686.0557372434652
 20
219.4881668865175
 30
0.0
 11
686.0143755834654
 21
219.4241063165176
 31
0.0
  0
LINE
  5
1DEB
330
1F
100
AcDbEntity
  8
0
 62
     3
100
AcDbLine
 10
686.0143755834654
 20
219.4241063165176
 30
0.0
 11
685.9751832634652
 21
219.3503304965176
 31
0.0
  0
LINE
  5
1DEC
330
1F
100
AcDbEntity
  8
0
 62
     3
100
AcDbLine
 10
685.9751832634652
 20
219.3503304965176
 30
0.0
 11
685.9384632234653
 21
219.2674096665176
 31
0.0
  0
LINE
  5
1DED
330
1F
100
AcDbEntity
  8
0
 62
     3
100
AcDbLine
 10
685.9384632234653
 20
219.2674096665176
 30
0.0
 11
685.9044992934652
 21
219.1759847565176
 31
0.0
  0
LINE
  5
1DEE
330
1F
100
AcDbEntity
  8
0
 62
     3
100
AcDbLine
 10
685.9044992934652
 20
219.1759847565176
 30
0.0
 11
685.8735539934652
 21
219.0767624565175
 31
0.0
  0
LINE
  5
1DEF
330
1F
100
AcDbEntity
  8
0
 62
     3
100
AcDbLine
 10
685.8735539934652
 20
219.0767624565175
 30
0.0
 11
685.8458665134652
 21
218.9705096865175
 31
0.0
  0
LINE
  5
1DF0
330
1F
100
AcDbEntity
  8
0
 62
     3
100
AcDbLine
 10
685.8458665134652
 20
218.9705096865175
 30
0.0
 11
685.8216508634653
 21
218.8580477265176
 31
0.0
  0
LINE
  5
1DF1
330
1F
100
AcDbEntity
  8
0
 62
     3
100
AcDbLine
 10
685.8216508634653
 20
218.8580477265176
 30
0.0
 11
685.8010942234653
 21
218.7402458465176
 31
0.0
  0
LINE
  5
1DF2
330
1F
100
AcDbEntity
  8
0
 62
     3
100
AcDbLine
 10
685.8010942234653
 20
218.7402458465176
 30
0.0
 11
685.7843554834651
 21
218.6180146065176
 31
0.0
  0
LINE
  5
1DF3
330
1F
100
AcDbEntity
  8
0
 62
     3
100
AcDbLine
 10
685.7843554834651
 20
218.6180146065176
 30
0.0
 11
685.7715640234653
 21
218.4922987865176
 31
0.0
  0
LINE
  5
1DF4
330
1F
100
AcDbEntity
  8
0
 62
     3
100
AcDbLine
 10
685.7715640234653
 20
218.4922987865176
 30
0.0
 11
685.7628187134653
 21
218.3640701065176
 31
0.0
  0
LINE
  5
1DF5
330
1F
100
AcDbEntity
  8
0
 62
     3
100
AcDbLine
 10
685.7628187134653
 20
218.3640701065176
 30
0.0
 11
685.7581871534653
 21
218.2343196965176
 31
0.0
  0
LINE
  5
1DF6
330
1F
100
AcDbEntity
  8
0
 62
     3
100
AcDbLine
 10
685.7581871534653
 20
218.2343196965176
 30
0.0
 11
685.7577051434653
 21
218.1040504665176
 31
0.0
  0
LINE
  5
1DF7
330
1F
100
AcDbEntity
  8
0
 62
     3
100
AcDbLine
 10
685.7577051434653
 20
218.1040504665176
 30
0.0
 11
685.7613764034653
 21
217.9742693465176
 31
0.0
  0
LINE
  5
1DF8
330
1F
100
AcDbEntity
  8
0
 62
     3
100
AcDbLine
 10
685.7613764034653
 20
217.9742693465176
 30
0.0
 11
685.7691725634652
 21
217.8459794565176
 31
0.0
  0
LINE
  5
1DF9
330
1F
100
AcDbEntity
  8
0
 62
     3
100
AcDbLine
 10
685.7691725634652
 20
217.8459794565176
 30
0.0
 11
685.7810333634652
 21
217.7201724165176
 31
0.0
  0
LINE
  5
1DFA
330
1F
100
AcDbEntity
  8
0
 62
     3
100
AcDbLine
 10
685.7810333634652
 20
217.7201724165176
 30
0.0
 11
685.7968671234653
 21
217.5978206465176
 31
0.0
  0
LINE
  5
1DFB
330
1F
100
AcDbEntity
  8
0
 62
     3
100
AcDbLine
 10
685.7968671234653
 20
217.5978206465176
 30
0.0
 11
685.8165514434652
 21
217.4798698765176
 31
0.0
  0
LINE
  5
1DFC
330
1F
100
AcDbEntity
  8
0
 62
     3
100
AcDbLine
 10
685.8165514434652
 20
217.4798698765176
 30
0.0
 11
685.8399342034653
 21
217.3672318065176
 31
0.0
  0
LINE
  5
1DFD
330
1F
100
AcDbEntity
  8
0
 62
     3
100
AcDbLine
 10
685.8399342034653
 20
217.3672318065176
 30
0.0
 11
685.8668346334653
 21
217.2607770465175
 31
0.0
  0
LINE
  5
1DFE
330
1F
100
AcDbEntity
  8
0
 62
     3
100
AcDbLine
 10
685.8668346334653
 20
217.2607770465175
 30
0.0
 11
685.8970448334653
 21
217.1613284565176
 31
0.0
  0
LINE
  5
1DFF
330
1F
100
AcDbEntity
  8
0
 62
     3
100
AcDbLine
 10
685.8970448334653
 20
217.1613284565176
 30
0.0
 11
685.9303312834652
 21
217.0696547265176
 31
0.0
  0
LINE
  5
1E00
330
1F
100
AcDbEntity
  8
0
 62
     3
100
AcDbLine
 10
685.9303312834652
 20
217.0696547265176
 30
0.0
 11
685.9664366834652
 21
216.9864644265175
 31
0.0
  0
LINE
  5
1E01
330
1F
100
AcDbEntity
  8
0
 62
     3
100
AcDbLine
 10
685.9664366834652
 20
216.9864644265175
 30
0.0
 11
686.0050819834652
 21
216.9124005965175
 31
0.0
  0
LINE
  5
1E02
330
1F
100
AcDbEntity
  8
0
 62
     3
100
AcDbLine
 10
686.0050819834652
 20
216.9124005965175
 30
0.0
 11
686.0459684634652
 21
216.8480357065175
 31
0.0
  0
LINE
  5
1E03
330
1F
100
AcDbEntity
  8
0
 62
     3
100
AcDbLine
 10
686.0459684634652
 20
216.8480357065175
 30
0.0
 11
686.0887800834652
 21
216.7938672565175
 31
0.0
  0
LINE
  5
1E04
330
1F
100
AcDbEntity
  8
0
 62
     3
100
AcDbLine
 10
686.0887800834652
 20
216.7938672565175
 30
0.0
 11
686.1331859434653
 21
216.7503139365176
 31
0.0
  0
LINE
  5
1E05
330
1F
100
AcDbEntity
  8
0
 62
     3
100
AcDbLine
 10
686.1331859434653
 20
216.7503139365176
 30
0.0
 11
686.1788427934652
 21
216.7177124065176
 31
0.0
  0
LINE
  5
1E06
330
1F
100
AcDbEntity
  8
0
 62
     3
100
AcDbLine
 10
686.1788427934652
 20
216.7177124065176
 30
0.0
 11
686.2253977534654
 21
216.6963146465175
 31
0.0
  0
LINE
  5
1E07
330
1F
100
AcDbEntity
  8
0
 62
     3
100
AcDbLine
 10
686.2253977534654
 20
216.6963146465175
 30
0.0
 11
686.2724909634652
 21
216.6862860665176
 31
0.0
  0
LINE
  5
1E08
330
1F
100
AcDbEntity
  8
0
 62
     3
100
AcDbLine
 10
686.2724909634652
 20
216.6862860665176
 30
0.0
 11
686.3197584134653
 21
216.6877041665176
 31
0.0
  0
LINE
  5
1E09
330
1F
100
AcDbEntity
  8
0
 62
     3
100
AcDbLine
 10
686.3197584134653
 20
216.6877041665176
 30
0.0
 11
686.3668347534654
 21
216.7005579865175
 31
0.0
  0
LINE
  5
1E0A
330
1F
100
AcDbEntity
  8
0
 62
     3
100
AcDbLine
 10
686.3668347534654
 20
216.7005579865175
 30
0.0
 11
686.4133561134653
 21
216.7247481865175
 31
0.0
  0
LINE
  5
1E0B
330
1F
100
AcDbEntity
  8
0
 62
     3
100
AcDbLine
 10
686.4133561134653
 20
216.7247481865175
 30
0.0
 11
686.4589629034654
 21
216.7600877665176
 31
0.0
  0
LINE
  5
1E0C
330
1F
100
AcDbEntity
  8
0
 62
     3
100
AcDbLine
 10
686.4589629034654
 20
216.7600877665176
 30
0.0
 11
686.5033026034653
 21
216.8063035865175
 31
0.0
  0
LINE
  5
1E0D
330
1F
100
AcDbEntity
  8
0
 62
     3
100
AcDbLine
 10
686.5033026034653
 20
216.8063035865175
 30
0.0
 11
686.5460324934653
 21
216.8630384265175
 31
0.0
  0
LINE
  5
1E0E
330
1F
100
AcDbEntity
  8
0
 62
     3
100
AcDbLine
 10
686.5460324934653
 20
216.8630384265175
 30
0.0
 11
686.5868222934652
 21
216.9298537365175
 31
0.0
  0
LINE
  5
1E0F
330
1F
100
AcDbEntity
  8
0
 62
     3
100
AcDbLine
 10
686.5868222934652
 20
216.9298537365175
 30
0.0
 11
686.6253567234653
 21
217.0062330865176
 31
0.0
  0
LINE
  5
1E10
330
1F
100
AcDbEntity
  8
0
 62
     3
100
AcDbLine
 10
686.6253567234653
 20
217.0062330865176
 30
0.0
 11
686.6613379234652
 21
217.0915860965175
 31
0.0
  0
LINE
  5
1E11
330
1F
100
AcDbEntity
  8
0
 62
     3
100
AcDbLine
 10
686.6613379234652
 20
217.0915860965175
 30
0.0
 11
686.6944877834653
 21
217.1852530265176
 31
0.0
  0
LINE
  5
1E12
330
1F
100
AcDbEntity
  8
0
 62
     3
100
AcDbLine
 10
686.6944877834653
 20
217.1852530265176
 30
0.0
 11
686.7245500634652
 21
217.2865098865176
 31
0.0
  0
LINE
  5
1E13
330
1F
100
AcDbEntity
  8
0
 62
     3
100
AcDbLine
 10
686.7245500634652
 20
217.2865098865176
 30
0.0
 11
686.7512924134652
 21
217.3945740065176
 31
0.0
  0
LINE
  5
1E14
330
1F
100
AcDbEntity
  8
0
 62
     3
100
AcDbLine
 10
686.7512924134652
 20
217.3945740065176
 30
0.0
 11
686.7745081134652
 21
217.5086101165176
 31
0.0
  0
LINE
  5
1E15
330
1F
100
AcDbEntity
  8
0
 62
     3
100
AcDbLine
 10
686.7745081134652
 20
217.5086101165176
 30
0.0
 11
686.7940177234652
 21
217.6277367665175
 31
0.0
  0
TEXT
  5
1E16
330
1F
100
AcDbEntity
  8
0
 62
     4
100
AcDbText
 10
697.8111187010048
 20
76.46570909588004
 30
0.0
 40
3.0
  1
14.5
 50
90.0
100
AcDbText
  0
TEXT
  5
1E17
330
1F
100
AcDbEntity
  8
0
 62
     4
100
AcDbText
 10
702.8111187010048
 20
75.96570909588004
 30
0.0
 40
3.0
  1
(M5)
 50
90.0
100
AcDbText
  0
LINE
  5
1E18
330
1F
100
AcDbEntity
  8
0
  6
ByBlock
 62
     0
370
    -2
100
AcDbLine
 10
702.7662462010048
 20
88.09070909587996
 30
0.0
 11
703.4361187010048
 21
90.59070909587996
 31
0.0
  0
LINE
  5
1E19
330
1F
100
AcDbEntity
  8
0
  6
ByBlock
 62
     0
370
    -2
100
AcDbLine
 10
703.4361187010048
 20
90.59070909587996
 30
0.0
 11
704.1059912010048
 21
88.09070909587996
 31
0.0
  0
LINE
  5
1E1A
330
1F
100
AcDbEntity
  8
0
  6
ByBlock
 62
     0
370
    -2
100
AcDbLine
 10
703.4361187010048
 20
90.59070909587996
 30
0.0
 11
703.4361187010048
 21
88.09070909587996
 31
0.0
  0
LINE
  5
1E1B
330
1F
100
AcDbEntity
  8
0
  6
ByBlock
 62
     0
370
    -2
100
AcDbLine
 10
704.1059912010048
 20
100.3407090958799
 30
0.0
 11
703.4361187010048
 21
97.84070909587995
 31
0.0
  0
LINE
  5
1E1C
330
1F
100
AcDbEntity
  8
0
  6
ByBlock
 62
     0
370
    -2
100
AcDbLine
 10
703.4361187010048
 20
97.84070909587995
 30
0.0
 11
702.7662462010048
 21
100.3407090958799
 31
0.0
  0
LINE
  5
1E1D
330
1F
100
AcDbEntity
  8
0
  6
ByBlock
 62
     0
370
    -2
100
AcDbLine
 10
703.4361187010048
 20
97.84070909587995
 30
0.0
 11
703.4361187010048
 21
100.3407090958799
 31
0.0
  0
TEXT
  5
1E1E
330
1F
100
AcDbEntity
  8
0
 62
     4
100
AcDbText
 10
632.9902740524188
 20
49.89783047273295
 30
0.0
 40
3.0
  1
120\U+00B0
 50
59.55732652113301
100
AcDbText
  0
LINE
  5
1E1F
330
1F
100
AcDbEntity
  8
0
  6
ByBlock
 62
     0
370
    -2
100
AcDbLine
 10
634.9086228217891
 20
10.70438157706295
 30
0.0
 11
635.5084177982262
 21
8.186649432354727
 31
0.0
  0
LINE
  5
1E20
330
1F
100
AcDbEntity
  8
0
  6
ByBlock
 62
     0
370
    -2
100
AcDbLine
 10
635.5084177982262
 20
8.186649432354727
 30
0.0
 11
633.730114714476
 21
10.06717257993384
 31
0.0
  0
LINE
  5
1E21
330
1F
100
AcDbEntity
  8
0
  6
ByBlock
 62
     0
370
    -2
100
AcDbLine
 10
635.5084177982262
 20
8.186649432354727
 30
0.0
 11
634.3193687681325
 21
10.38577707849839
 31
0.0
  0
LINE
  5
1E22
330
1F
100
AcDbEntity
  8
0
  6
ByBlock
 62
     0
370
    -2
100
AcDbLine
 10
671.7537848836406
 20
75.9261012031679
 30
0.0
 11
674.2715172437239
 21
75.32630713080158
 31
0.0
  0
LINE
  5
1E23
330
1F
100
AcDbEntity
  8
0
  6
ByBlock
 62
     0
370
    -2
100
AcDbLine
 10
674.2715172437239
 20
75.32630713080158
 30
0.0
 11
671.7911997582633
 21
74.58687874510427
 31
0.0
  0
LINE
  5
1E24
330
1F
100
AcDbEntity
  8
0
  6
ByBlock
 62
     0
370
    -2
100
AcDbLine
 10
674.2715172437239
 20
75.32630713080158
 30
0.0
 11
671.7724923209519
 21
75.25648997413608
 31
0.0
  0
TEXT
  5
1E25
330
1F
100
AcDbEntity
  8
0
 62
     4
100
AcDbText
 10
658.390705732626
 20
61.78023841472831
 30
0.0
 40
3.0
  1
37.5\U+00B0
 50
17.93040475795351
100
AcDbText
  0
LINE
  5
1E26
330
1F
100
AcDbEntity
  8
0
  6
ByBlock
 62
     0
370
    -2
100
AcDbLine
 10
656.0229053523181
 20
58.41200496683852
 30
0.0
 11
653.5968947832631
 21
57.5102278962222
 31
0.0
  0
LINE
  5
1E27
330
1F
100
AcDbEntity
  8
0
  6
ByBlock
 62
     0
370
    -2
100
AcDbLine
 10
653.5968947832631
 20
57.5102278962222
 30
0.0
 11
655.2469937466026
 21
59.5041944399341
 31
0.0
  0
LINE
  5
1E28
330
1F
100
AcDbEntity
  8
0
  6
ByBlock
 62
     0
370
    -2
100
AcDbLine
 10
653.5968947832631
 20
57.5102278962222
 30
0.0
 11
655.6349495494603
 21
58.95809970338631
 31
0.0
  0
LINE
  5
1E29
330
1F
100
AcDbEntity
  8
0
  6
ByBlock
 62
     0
370
    -2
100
AcDbLine
 10
671.7485557968019
 20
65.10571995577248
 30
0.0
 11
674.271517243724
 21
64.528316540818
 31
0.0
  0
LINE
  5
1E2A
330
1F
100
AcDbEntity
  8
0
  6
ByBlock
 62
     0
370
    -2
100
AcDbLine
 10
674.271517243724
 20
64.528316540818
 30
0.0
 11
671.7978665570266
 21
63.76688273118129
 31
0.0
  0
LINE
  5
1E2B
330
1F
100
AcDbEntity
  8
0
  6
ByBlock
 62
     0
370
    -2
100
AcDbLine
 10
674.271517243724
 20
64.528316540818
 30
0.0
 11
671.7732111769143
 21
64.43630134347689
 31
0.0
  0
TEXT
  5
1E2C
330
1F
100
AcDbEntity
  8
0
 62
     4
100
AcDbText
 10
669.8798559938869
 20
-13.22015686152648
 30
0.0
 40
3.0
  1
120\U+00B0
 50
359.8146631077469
100
AcDbText
  0
LINE
  5
1E2D
330
1F
100
AcDbEntity
  8
0
  6
ByBlock
 62
     0
370
    -2
100
AcDbLine
 10
710.8643790471155
 20
6.575792239229504
 30
0.0
 11
712.7452751474148
 21
8.353700849404622
 31
0.0
  0
LINE
  5
1E2E
330
1F
100
AcDbEntity
  8
0
  6
ByBlock
 62
     0
370
    -2
100
AcDbLine
 10
712.7452751474148
 20
8.353700849404622
 30
0.0
 11
712.005324757184
 21
5.873539042938442
 31
0.0
  0
LINE
  5
1E2F
330
1F
100
AcDbEntity
  8
0
  6
ByBlock
 62
     0
370
    -2
100
AcDbLine
 10
712.7452751474148
 20
8.353700849404622
 30
0.0
 11
711.4348519021498
 21
6.224665641083973
 31
0.0
  0
LINE
  5
1E30
330
1F
100
AcDbEntity
  8
0
  6
ByBlock
 62
     0
370
    -2
100
AcDbLine
 10
636.5377097302638
 20
5.873539042938508
 30
0.0
 11
635.797759340033
 21
8.35370084940469
 31
0.0
  0
LINE
  5
1E31
330
1F
100
AcDbEntity
  8
0
  6
ByBlock
 62
     0
370
    -2
100
AcDbLine
 10
635.797759340033
 20
8.35370084940469
 30
0.0
 11
637.6786554403325
 21
6.575792239229569
 31
0.0
  0
LINE
  5
1E32
330
1F
100
AcDbEntity
  8
0
  6
ByBlock
 62
     0
370
    -2
100
AcDbLine
 10
635.797759340033
 20
8.35370084940469
 30
0.0
 11
637.108182585298
 21
6.224665641084039
 31
0.0
  0
TEXT
  5
1E33
330
1F
100
AcDbEntity
  8
0
 62
     4
100
AcDbText
 10
631.7383412544686
 20
37.51167158414289
 30
0.0
 40
3.0
  1
R35
 50
351.5571116616326
100
AcDbText
  0
LINE
  5
1E34
330
1F
100
AcDbEntity
  8
0
  6
ByBlock
 62
     0
370
    -2
100
AcDbLine
 10
654.5866161401646
 20
34.16561823020504
 30
0.0
 11
656.9611698811343
 21
33.13594658472671
 31
0.0
  0
LINE
  5
1E35
330
1F
100
AcDbEntity
  8
0
  6
ByBlock
 62
     0
370
    -2
100
AcDbLine
 10
656.9611698811343
 20
33.13594658472671
 30
0.0
 11
654.3899100899358
 21
32.84039244007401
 31
0.0
  0
LINE
  5
1E36
330
1F
100
AcDbEntity
  8
0
  6
ByBlock
 62
     0
370
    -2
100
AcDbLine
 10
656.9611698811343
 20
33.13594658472671
 30
0.0
 11
654.4882631150501
 21
33.50300533513953
 31
0.0
  0
TEXT
  5
1E37
330
1F
100
AcDbEntity
  8
0
 62
     4
100
AcDbText
 10
669.7765800499117
 20
189.8112817064705
 30
0.0
 40
3.0
  1
\U+2205120
100
AcDbText
  0
LINE
  5
1E38
330
1F
100
AcDbEntity
  8
0
  6
ByBlock
 62
     0
370
    -2
100
AcDbLine
 10
646.7715172437241
 20
188.5164092064704
 30
0.0
 11
644.2715172437241
 21
189.1862817064705
 31
0.0
  0
LINE
  5
1E39
330
1F
100
AcDbEntity
  8
0
  6
ByBlock
 62
     0
370
    -2
100
AcDbLine
 10
644.2715172437241
 20
189.1862817064705
 30
0.0
 11
646.7715172437241
 21
189.8561542064705
 31
0.0
  0
LINE
  5
1E3A
330
1F
100
AcDbEntity
  8
0
  6
ByBlock
 62
     0
370
    -2
100
AcDbLine
 10
644.2715172437241
 20
189.1862817064705
 30
0.0
 11
646.7715172437241
 21
189.1862817064705
 31
0.0
  0
LINE
  5
1E3B
330
1F
100
AcDbEntity
  8
0
  6
ByBlock
 62
     0
370
    -2
100
AcDbLine
 10
701.771517243724
 20
189.8561542064705
 30
0.0
 11
704.271517243724
 21
189.1862817064705
 31
0.0
  0
LINE
  5
1E3C
330
1F
100
AcDbEntity
  8
0
  6
ByBlock
 62
     0
370
    -2
100
AcDbLine
 10
704.271517243724
 20
189.1862817064705
 30
0.0
 11
701.771517243724
 21
188.5164092064704
 31
0.0
  0
LINE
  5
1E3D
330
1F
100
AcDbEntity
  8
0
  6
ByBlock
 62
     0
370
    -2
100
AcDbLine
 10
704.271517243724
 20
189.1862817064705
 30
0.0
 11
701.771517243724
 21
189.1862817064705
 31
0.0
  0
TEXT
  5
1E3E
330
1F
100
AcDbEntity
  8
0
 62
     4
100
AcDbText
 10
638.6995100111623
 20
130.7529681143229
 30
0.0
 40
3.0
  1
156
 50
90.0
100
AcDbText
  0
LINE
  5
1E3F
330
1F
100
AcDbEntity
  8
0
  6
ByBlock
 62
     0
370
    -2
100
AcDbLine
 10
639.9943825111623
 20
100.3407090958799
 30
0.0
 11
639.3245100111624
 21
97.84070909587995
 31
0.0
  0
LINE
  5
1E40
330
1F
100
AcDbEntity
  8
0
  6
ByBlock
 62
     0
370
    -2
100
AcDbLine
 10
639.3245100111624
 20
97.84070909587995
 30
0.0
 11
638.6546375111623
 21
100.3407090958799
 31
0.0
  0
LINE
  5
1E41
330
1F
100
AcDbEntity
  8
0
  6
ByBlock
 62
     0
370
    -2
100
AcDbLine
 10
639.3245100111624
 20
97.84070909587995
 30
0.0
 11
639.3245100111624
 21
100.3407090958799
 31
0.0
  0
LINE
  5
1E42
330
1F
100
AcDbEntity
  8
0
  6
ByBlock
 62
     0
370
    -2
100
AcDbLine
 10
638.6546375111623
 20
173.34070909588
 30
0.0
 11
639.3245100111624
 21
175.84070909588
 31
0.0
  0
LINE
  5
1E43
330
1F
100
AcDbEntity
  8
0
  6
ByBlock
 62
     0
370
    -2
100
AcDbLine
 10
639.3245100111624
 20
175.84070909588
 30
0.0
 11
639.9943825111623
 21
173.34070909588
 31
0.0
  0
LINE
  5
1E44
330
1F
100
AcDbEntity
  8
0
  6
ByBlock
 62
     0
370
    -2
100
AcDbLine
 10
639.3245100111624
 20
175.84070909588
 30
0.0
 11
639.3245100111624
 21
173.34070909588
 31
0.0
  0
TEXT
  5
1E45
330
1F
100
AcDbEntity
  8
0
 62
     4
100
AcDbText
 10
633.579945963369
 20
127.96570909588
 30
0.0
 40
3.0
  1
170.5
 50
90.0
100
AcDbText
  0
LINE
  5
1E46
330
1F
100
AcDbEntity
  8
0
  6
ByBlock
 62
     0
370
    -2
100
AcDbLine
 10
633.535073463369
 20
173.34070909588
 30
0.0
 11
634.204945963369
 21
175.84070909588
 31
0.0
  0
LINE
  5
1E47
330
1F
100
AcDbEntity
  8
0
  6
ByBlock
 62
     0
370
    -2
100
AcDbLine
 10
634.204945963369
 20
175.84070909588
 30
0.0
 11
634.874818463369
 21
173.34070909588
 31
0.0
  0
LINE
  5
1E48
330
1F
100
AcDbEntity
  8
0
  6
ByBlock
 62
     0
370
    -2
100
AcDbLine
 10
634.204945963369
 20
175.84070909588
 30
0.0
 11
634.204945963369
 21
173.34070909588
 31
0.0
  0
LINE
  5
1E49
330
1F
100
AcDbEntity
  8
0
  6
ByBlock
 62
     0
370
    -2
100
AcDbLine
 10
634.874818463369
 20
93.09070909587996
 30
0.0
 11
634.204945963369
 21
90.59070909587996
 31
0.0
  0
LINE
  5
1E4A
330
1F
100
AcDbEntity
  8
0
  6
ByBlock
 62
     0
370
    -2
100
AcDbLine
 10
634.204945963369
 20
90.59070909587996
 30
0.0
 11
633.535073463369
 21
93.09070909587996
 31
0.0
  0
LINE
  5
1E4B
330
1F
100
AcDbEntity
  8
0
  6
ByBlock
 62
     0
370
    -2
100
AcDbLine
 10
634.204945963369
 20
90.59070909587996
 30
0.0
 11
634.204945963369
 21
93.09070909587996
 31
0.0
  0
LINE
  5
1E4C
330
1F
100
AcDbEntity
  8
0
100
AcDbLine
 10
652.2315285511057
 20
77.48369203252867
 30
0.0
 11
646.2970166976035
 21
69.83721026178618
 31
0.0
1001
ACAD
1000
DSTYLE
1002
{
1070
   147
1040
0.625
1070
    77
1070
     0
1002
}
  0
LINE
  5
1E4D
330
1F
100
AcDbEntity
  8
0
100
AcDbLine
 10
646.2970166976035
 20
69.83721026178618
 30
0.0
 11
643.7970166976035
 21
69.83721026178618
 31
0.0
1001
ACAD
1000
DSTYLE
1002
{
1070
   147
1040
0.625
1070
    77
1070
     0
1002
}
  0
LINE
  5
1E4E
330
1F
100
AcDbEntity
  8
0
  6
ByBlock
 62
     0
370
    -2
100
AcDbLine
 10
651.7023358136604
 20
77.89440386933342
 30
0.0
 11
653.7643270941297
 21
79.45866763402439
 31
0.0
  0
LINE
  5
1E4F
330
1F
100
AcDbEntity
  8
0
  6
ByBlock
 62
     0
370
    -2
100
AcDbLine
 10
653.7643270941297
 20
79.45866763402439
 30
0.0
 11
652.7607212885508
 21
77.07298019572391
 31
0.0
  0
LINE
  5
1E50
330
1F
100
AcDbEntity
  8
0
  6
ByBlock
 62
     0
370
    -2
100
AcDbLine
 10
653.7643270941297
 20
79.45866763402439
 30
0.0
 11
652.2315285511057
 21
77.48369203252867
 31
0.0
  0
LINE
  5
1E51
330
1F
100
AcDbEntity
  8
0
100
AcDbLine
 10
705.5579691527676
 20
130.2312270612999
 30
0.0
 11
707.7491007626649
 21
132.1367040858685
 31
0.0
1001
ACAD
1000
DSTYLE
1002
{
1070
   147
1040
0.625
1070
    77
1070
     0
1002
}
  0
LINE
  5
1E52
330
1F
100
AcDbEntity
  8
0
100
AcDbLine
 10
707.7491007626649
 20
132.1367040858685
 30
0.0
 11
710.249100762665
 21
132.1367040858685
 31
0.0
1001
ACAD
1000
DSTYLE
1002
{
1070
   147
1040
0.625
1070
    77
1070
     0
1002
}
  0
LINE
  5
1E53
330
1F
100
AcDbEntity
  8
0
  6
ByBlock
 62
     0
370
    -2
100
AcDbLine
 10
705.9975443010841
 20
129.7257541587236
 30
0.0
 11
703.6715172437241
 21
128.5907090958799
 31
0.0
  0
LINE
  5
1E54
330
1F
100
AcDbEntity
  8
0
  6
ByBlock
 62
     0
370
    -2
100
AcDbLine
 10
703.6715172437241
 20
128.5907090958799
 30
0.0
 11
705.1183940044514
 21
130.7366999638762
 31
0.0
  0
LINE
  5
1E55
330
1F
100
AcDbEntity
  8
0
  6
ByBlock
 62
     0
370
    -2
100
AcDbLine
 10
703.6715172437241
 20
128.5907090958799
 30
0.0
 11
705.5579691527676
 21
130.2312270612999
 31
0.0
  0
LINE
  5
1E56
330
1F
100
AcDbEntity
  8
0
100
AcDbLine
 10
704.1288112147217
 20
151.9868212086855
 30
0.0
 11
705.9593991569702
 21
168.5266914101031
 31
0.0
1001
ACAD
1000
DSTYLE
1002
{
1070
   147
1040
0.625
1070
    77
1070
     0
1002
}
  0
LINE
  5
1E57
330
1F
100
AcDbEntity
  8
0
100
AcDbLine
 10
705.9593991569702
 20
168.5266914101031
 30
0.0
 11
708.4593991569702
 21
168.5266914101031
 31
0.0
1001
ACAD
1000
DSTYLE
1002
{
1070
   147
1040
0.625
1070
    77
1070
     0
1002
}
  0
LINE
  5
1E58
330
1F
100
AcDbEntity
  8
0
  6
ByBlock
 62
     0
370
    -2
100
AcDbLine
 10
704.7946182380185
 20
151.9131314944453
 30
0.0
 11
703.8537972596774
 21
149.5019937851949
 31
0.0
  0
LINE
  5
1E59
330
1F
100
AcDbEntity
  8
0
  6
ByBlock
 62
     0
370
    -2
100
AcDbLine
 10
703.8537972596774
 20
149.5019937851949
 30
0.0
 11
703.4630041914248
 21
152.0605109229256
 31
0.0
  0
LINE
  5
1E5A
330
1F
100
AcDbEntity
  8
0
  6
ByBlock
 62
     0
370
    -2
100
AcDbLine
 10
703.8537972596774
 20
149.5019937851949
 30
0.0
 11
704.1288112147217
 21
151.9868212086855
 31
0.0
  0
ENDSEC
  0
SECTION
  2
OBJECTS
  0
DICTIONARY
  5
C
330
0
100
AcDbDictionary
281
     1
  3
ACAD_2007HEADERVARS_RT
350
1E5E
  3
ACAD_COLOR
350
73
  3
ACAD_GROUP
350
D
  3
ACAD_LAYOUT
350
1A
  3
ACAD_MATERIAL
350
72
  3
ACAD_MLEADERSTYLE
350
168
  3
ACAD_MLINESTYLE
350
17
  3
ACAD_PLOTSETTINGS
350
19
  3
ACAD_PLOTSTYLENAME
350
E
  3
ACAD_SCALELIST
350
156
  3
ACAD_TABLESTYLE
350
86
  3
ACAD_VISUALSTYLE
350
99
  3
ACDB_RECOMPOSE_DATA
350
1E5C
  3
AcDbVariableDictionary
350
66
  3
DWGPROPS
350
1E5D
  0
DICTIONARY
  5
88F
330
8
100
AcDbDictionary
280
     1
281
     1
  0
DICTIONARY
  5
DD
330
2
100
AcDbDictionary
280
     1
281
     1
  3
ACAD_LAYERSTATES
360
DE
  0
DICTIONARY
  5
7BE
330
10
100
AcDbDictionary
280
     1
281
     1
  3
ADSK_XREC_LAYER_RECONCILED
360
7BF
  0
DICTIONARY
  5
324
330
1F
100
AcDbDictionary
280
     1
281
     1
  3
ACAD_SORTENTS
360
325
  0
DICTIONARY
  5
1E5E
102
{ACAD_REACTORS
330
C
102
}
330
C
100
AcDbDictionary
281
     1
  3
DIMARCSYM
350
1E60
  3
DIMFXL
350
1E5F
  3
DIMJOGANG
350
1E61
  0
DICTIONARY
  5
73
102
{ACAD_REACTORS
330
C
102
}
330
C
100
AcDbDictionary
281
     1
  0
DICTIONARY
  5
D
102
{ACAD_REACTORS
330
C
102
}
330
C
100
AcDbDictionary
281
     1
  0
DICTIONARY
  5
1A
102
{ACAD_REACTORS
330
C
102
}
330
C
100
AcDbDictionary
281
     1
  3
Model
350
22
  3
レイアウト1
350
59
  3
レイアウト2
350
5E
  0
DICTIONARY
  5
72
102
{ACAD_REACTORS
330
C
102
}
330
C
100
AcDbDictionary
281
     1
  3
ByBlock
350
97
  3
ByLayer
350
96
  3
Global
350
98
  0
DICTIONARY
  5
168
102
{ACAD_REACTORS
330
C
102
}
330
C
100
AcDbDictionary
281
     1
  3
Standard
350
169
  0
DICTIONARY
  5
17
102
{ACAD_REACTORS
330
C
102
}
330
C
100
AcDbDictionary
281
     1
  3
Standard
350
18
  0
DICTIONARY
  5
19
102
{ACAD_REACTORS
330
C
102
}
330
C
100
AcDbDictionary
281
     1
  0
ACDBDICTIONARYWDFLT
  5
E
102
{ACAD_REACTORS
330
C
102
}
330
C
100
AcDbDictionary
281
     1
  3
Normal
350
F
100
AcDbDictionaryWithDefault
340
F
  0
DICTIONARY
  5
156
102
{ACAD_REACTORS
330
C
102
}
330
C
100
AcDbDictionary
281
     1
  3
A0
350
157
  3
A1
350
158
  3
A2
350
159
  3
A3
350
15A
  3
A4
350
15B
  3
A5
350
15C
  3
A6
350
15D
  3
A7
350
15E
  3
A8
350
15F
  3
A9
350
160
  3
B0
350
161
  3
B1
350
162
  3
B2
350
163
  3
B3
350
164
  3
B4
350
165
  3
B5
350
166
  3
B6
350
167
  0
DICTIONARY
  5
86
102
{ACAD_REACTORS
330
C
102
}
330
C
100
AcDbDictionary
281
     1
  3
Standard
350
87
  0
DICTIONARY
  5
99
102
{ACAD_REACTORS
330
C
102
}
330
C
100
AcDbDictionary
281
     1
  3
2dWireframe
350
9F
  3
3D Hidden
350
A1
  3
3dWireframe
350
A0
  3
Basic
350
9E
  3
Brighten
350
A5
  3
ColorChange
350
A9
  3
Conceptual
350
A2
  3
Dim
350
A4
  3
EdgeColorOff
350
155
  3
Facepattern
350
A8
  3
Flat
350
9A
  3
FlatWithEdges
350
9B
  3
Gouraud
350
9C
  3
GouraudWithEdges
350
9D
  3
Hidden
350
14D
  3
JitterOff
350
153
  3
Linepattern
350
A7
  3
OverhangOff
350
154
  3
Realistic
350
A3
  3
Shaded
350
152
  3
Shaded with edges
350
151
  3
Shades of Gray
350
14E
  3
Sketchy
350
14F
  3
Thicken
350
A6
  3
Wireframe
350
14C
  3
X-Ray
350
150
  0
XRECORD
  5
1E5C
102
{ACAD_REACTORS
330
C
102
}
330
C
100
AcDbXrecord
280
     1
 90
        1
330
87
  0
DICTIONARY
  5
66
102
{ACAD_REACTORS
330
C
102
}
330
C
100
AcDbDictionary
281
     1
  3
CANNOSCALE
350
24A
  3
CMLEADERSTYLE
350
248
  3
CTABLESTYLE
350
89
  3
DIMASSOC
350
67
  3
HIDETEXT
350
6B
  3
INDEXCTL
350
8D6
  3
LAYEREVAL
350
24C
  3
LAYERNOTIFY
350
24D
  3
LIGHTINGUNITS
350
24B
  3
MSLTSCALE
350
249
  3
SORTENTS
350
8D5
  3
XCLIPFRAME
350
1D12
  0
XRECORD
  5
1E5D
102
{ACAD_REACTORS
330
C
102
}
330
C
100
AcDbXrecord
280
     1
  1
DWGPROPS COOKIE
  2

  3

  4

  6

  7

  8
imamura
  9

300
=
301
=
302
=
303
=
304
=
305
=
306
=
307
=
308
=
309
=
 40
0.4811332870370371
 41
2456237.859514468
 42
2459744.392289699
  1

 90
        0
  0
DICTIONARY
  5
DE
102
{ACAD_REACTORS
330
DD
102
}
330
DD
100
AcDbDictionary
281
     1
  0
XRECORD
  5
7BF
102
{ACAD_REACTORS
330
7BE
102
}
330
7BE
100
AcDbXrecord
280
     1
290
     1
  0
SORTENTSTABLE
  5
325
102
{ACAD_REACTORS
330
324
102
}
330
324
100
AcDbSortentsTable
330
1F
331
F95
  5
101C
331
FF7
  5
106E
331
F91
  5
1019
331
D2C
  5
DE4
331
CB6
  5
CAE
331
CF5
  5
D2E
331
FF3
  5
106A
331
D28
  5
DE0
331
CF1
  5
D2A
331
CB2
  5
CAA
331
F89
  5
100E
331
DF2
  5
FE2
331
D24
  5
DDB
331
CED
  5
D26
331
CAE
  5
CA6
331
D20
  5
DD7
331
CE9
  5
D22
331
CAA
  5
CA2
331
1E2D
  5
1E33
331
1B4F
  5
1E59
331
1DB7
  5
1E1E
331
1DF6
  5
CFD
331
1E29
  5
1E39
331
1DB3
  5
1E28
331
111E
  5
1DB6
331
10E7
  5
12E4
331
1DF2
  5
CF8
331
1E25
  5
1E3F
331
111A
  5
1DB1
331
106D
  5
110B
331
10A4
  5
1096
331
102E
  5
10B8
331
1DEE
  5
CF4
331
1E21
  5
1E48
331
1116
  5
1DAD
331
1069
  5
1107
331
10A0
  5
109A
331
102A
  5
10AF
331
1DEA
  5
CF0
331
12B1
  5
1DC1
331
1112
  5
1DA9
331
10DB
  5
12DC
331
1065
  5
1103
331
109C
  5
109E
331
1026
  5
10AB
331
1061
  5
10FF
331
1098
  5
10A2
331
1022
  5
10A7
331
FEF
  5
1066
331
FB4
  5
1016
331
F85
  5
100C
331
D5F
  5
FB6
331
FE7
  5
105F
331
F81
  5
FFA
331
DEA
  5
FDC
331
D1C
  5
DCE
331
CA6
  5
C9E
331
CE5
  5
CDD
331
FE3
  5
105B
331
FAC
  5
1039
331
F7D
  5
FF1
331
D18
  5
DCA
331
CA2
  5
C9A
331
CE1
  5
CD9
331
FA8
  5
1035
331
DE2
  5
FD7
331
D53
  5
F9A
331
D14
  5
DC0
331
C9E
  5
C96
331
D10
  5
D5D
331
CD9
  5
CD1
331
C9A
  5
C92
331
1E1D
  5
1E51
331
1DA7
  5
1E37
331
1DE6
  5
CEC
331
1E19
  5
1E53
331
1E58
  5
FA0
331
1DA3
  5
1E42
331
12F4
  5
1DEF
331
110E
  5
1DA5
331
10D7
  5
12D9
331
1DE2
  5
CE8
331
1E54
  5
FAF
331
1E15
  5
D1D
331
12F0
  5
1DE5
331
110A
  5
1DA1
331
10D3
  5
12D6
331
1094
  5
1132
331
1DDE
  5
CE4
331
105D
  5
10FB
331
101E
  5
10A6
331
1E50
  5
1DF6
331
1E11
  5
D18
331
1D9B
  5
1E4C
331
12EC
  5
1DE1
331
1106
  5
1D9D
331
116D
  5
1089
331
1090
  5
112E
331
1059
  5
10F7
331
1DDA
  5
CE0
331
12E8
  5
1DDB
331
1102
  5
1D97
331
108C
  5
112A
331
1055
  5
10F3
331
1016
  5
1000
331
1088
  5
1126
331
1051
  5
10EF
331
FDF
  5
1057
331
FDB
  5
1053
331
D4F
  5
F99
331
D4B
  5
F93
331
CD5
  5
CCD
331
100A
  5
1072
331
FA4
  5
102D
331
E15
  5
FED
331
D47
  5
F87
331
CD1
  5
CC9
331
FA0
  5
1029
331
DDA
  5
FD0
331
D0C
  5
D46
331
CCD
  5
CC5
331
D08
  5
D42
331
CC9
  5
CC1
331
1E4C
  5
1DF9
331
1DD6
  5
F86
331
1E48
  5
1E0E
331
10C7
  5
12CE
331
1DD2
  5
FAC
331
1E44
  5
1E18
331
1139
  5
1DBA
331
104D
  5
10E9
331
1E0D
  5
D14
331
C95
  5
C8D
331
1E40
  5
1E1A
331
12E4
  5
1DD7
331
10FE
  5
1454
331
10BF
  5
12B0
331
1049
  5
10E5
331
1E09
  5
D10
331
C91
  5
C89
331
12E0
  5
1DD3
331
10FA
  5
12F2
331
10BB
  5
116D
331
1084
  5
1122
331
1045
  5
10DE
331
1080
  5
111E
331
1041
  5
10D8
331
1006
  5
1084
331
FD7
  5
104F
331
FD3
  5
104B
331
DD6
  5
FCC
331
D3F
  5
E14
331
FFE
  5
1080
331
FCF
  5
1047
331
E09
  5
FEA
331
D3B
  5
E07
331
CC5
  5
CBD
331
D04
  5
D3C
331
FCB
  5
1043
331
F9C
  5
1025
331
DCE
  5
FCA
331
D37
  5
DF8
331
D00
  5
D39
331
CC1
  5
CB9
331
F98
  5
1021
331
DCA
  5
FC6
331
D33
  5
DF1
331
CFC
  5
D35
331
CBD
  5
CB5
331
CF8
  5
D31
331
CB9
  5
CB1
331
1E3C
  5
1E21
331
1E05
  5
D0C
331
C8D
  5
C85
331
1E38
  5
1E23
331
1DC2
  5
1E00
331
12DC
  5
1DCF
331
10F6
  5
12EE
331
112D
  5
107B
331
10B7
  5
116A
331
1E01
  5
D08
331
C89
  5
C81
331
1E34
  5
1E29
331
1DBE
  5
1E15
331
12D8
  5
1DCB
331
1129
  5
1074
331
107C
  5
111A
331
10F2
  5
1002
331
103D
  5
10D2
331
1DFD
  5
D04
331
C85
  5
C4B
331
12D4
  5
1DC7
331
10EE
  5
12EB
331
1125
  5
1078
331
1078
  5
1116
331
1039
  5
10CE
331
1DF9
  5
D00
331
12D0
  5
1DC3
331
1121
  5
1DB5
331
10EA
  5
12E6
331
1074
  5
1112
331
10AB
  5
108E
331
1035
  5
10C9
331
1070
  5
110E
331
1031
  5
10BD
331
FC7
  5
FF5
331
F94
  5
101B
331
D2F
  5
DEA
331
FF6
  5
106D
331
F90
  5
1015
331
DC2
  5
FBA
331
D2B
  5
DE3
331
CB5
  5
CAD
331
CF4
  5
D2D
331
FF2
  5
1069
331
D27
  5
DDF
331
CF0
  5
D29
331
CB1
  5
CA9
331
F88
  5
100D
331
DF1
  5
FE0
331
D23
  5
DDA
331
CEC
  5
D25
331
CAD
  5
CA5
331
CE8
  5
D21
331
CA9
  5
CA1
331
1E2C
  5
1E36
331
1B4E
  5
1E58
331
1DB6
  5
1E1D
331
1DF5
  5
CFC
331
1E28
  5
1E3E
331
1DB2
  5
1E27
331
111D
  5
1DB4
331
10A7
  5
1092
331
1DF1
  5
CF7
331
1E24
  5
1E45
331
1DAE
  5
1E2F
331
1119
  5
1DB0
331
10E2
  5
12E1
331
106C
  5
110A
331
10A3
  5
1097
331
102D
  5
10B7
331
1DED
  5
CF3
331
1E20
  5
1E47
331
1115
  5
1DAC
331
10DE
  5
12DE
331
1068
  5
1106
331
109F
  5
109B
331
1029
  5
10AE
331
1DE9
  5
CEF
331
12B0
  5
1DC0
331
1111
  5
1DA8
331
10DA
  5
12DB
331
1064
  5
1102
331
109B
  5
109F
331
1025
  5
10AA
331
1060
  5
10FE
331
1021
  5
108C
331
FEE
  5
1065
331
FB7
  5
1017
331
FEA
  5
1062
331
FB3
  5
103E
331
F84
  5
100B
331
D5E
  5
FB5
331
FE6
  5
105E
331
FAF
  5
103C
331
F80
  5
FFB
331
D1B
  5
DCD
331
CA5
  5
C9D
331
CE4
  5
CDC
331
FE2
  5
105A
331
FAB
  5
1038
331
DE5
  5
FDA
331
D17
  5
DC9
331
CA1
  5
C99
331
CE0
  5
CD8
331
DE1
  5
FD6
331
D13
  5
D60
331
D52
  5
D51
331
C9D
  5
C95
331
CDC
  5
CD4
331
CD8
  5
CD0
331
C99
  5
C91
331
1E1C
  5
1E50
331
1DE5
  5
CEB
331
1E18
  5
1E52
331
1E57
  5
FA8
331
1DA2
  5
1E41
331
12F3
  5
1DEB
331
110D
  5
1DA4
331
10D6
  5
12D8
331
1097
  5
10A3
331
1DE1
  5
CE7
331
1E53
  5
FAE
331
1E14
  5
D1C
331
12EF
  5
1DE4
331
1109
  5
1DA0
331
1093
  5
1131
331
105C
  5
10FA
331
1DDD
  5
CE3
331
101D
  5
108D
331
1E10
  5
D17
331
1D9A
  5
1E4B
331
12EB
  5
1DDE
331
1105
  5
1D9C
331
116C
  5
108A
331
10CE
  5
12D3
331
108F
  5
112D
331
1DD9
  5
CDF
331
1058
  5
10F6
331
1101
  5
1B50
331
10CA
  5
12D0
331
108B
  5
1129
331
1054
  5
10F2
331
1015
  5
1088
331
1050
  5
10ED
331
FDE
  5
1056
331
FDA
  5
1052
331
D4E
  5
F97
331
FA7
  5
1032
331
100D
  5
1007
331
E18
  5
FF0
331
D4A
  5
F92
331
CD4
  5
CCC
331
FA3
  5
102C
331
E14
  5
FEC
331
DDD
  5
FD3
331
D46
  5
F7D
331
D0F
  5
D54
331
CD0
  5
CC8
331
DD9
  5
FCF
331
D0B
  5
D45
331
CCC
  5
CC4
331
CC8
  5
CC0
331
1E4F
  5
1DF5
331
1E4B
  5
1E0B
331
1DD5
  5
F89
331
1E47
  5
1E0D
331
10C6
  5
12B1
331
1DD1
  5
FAB
331
1E43
  5
1E17
331
12E7
  5
1DDA
331
1138
  5
1DB9
331
104C
  5
10E8
331
1E0C
  5
D13
331
C94
  5
C8C
331
1DC9
  5
1DFF
331
12E3
  5
1DD6
331
10FD
  5
12F5
331
1134
  5
FF2
331
10BE
  5
12AF
331
1087
  5
1125
331
1E08
  5
D0F
331
1048
  5
10E4
331
C90
  5
C88
331
10F9
  5
12F1
331
10BA
  5
116C
331
1083
  5
1121
331
1044
  5
10DD
331
1040
  5
10D6
331
1005
  5
1083
331
FD6
  5
104E
331
1001
  5
1081
331
FD2
  5
104A
331
D3E
  5
E0A
331
D07
  5
D41
331
FFD
  5
1073
331
FCE
  5
1046
331
F9F
  5
1028
331
E08
  5
FE9
331
D3A
  5
E06
331
CC4
  5
CBC
331
FF9
  5
1070
331
F9B
  5
1024
331
FCA
  5
FF4
331
E04
  5
FE7
331
DCD
  5
FC9
331
D36
  5
DF4
331
CFF
  5
D38
331
CC0
  5
CB8
331
DC9
  5
FC5
331
D32
  5
DF0
331
CFB
  5
D34
331
CBC
  5
CB4
331
CB8
  5
CB0
331
1E3F
  5
1E19
331
1E3B
  5
1E20
331
12DF
  5
1DD2
331
1E04
  5
D0B
331
C8C
  5
C84
331
1E37
  5
1E26
331
12DB
  5
1DCE
331
10F5
  5
12ED
331
112C
  5
107C
331
107F
  5
111D
331
1E00
  5
D07
331
C88
  5
C80
331
1E33
  5
1E2C
331
1DBD
  5
1E14
331
12D7
  5
1DCA
331
1128
  5
1075
331
107B
  5
1119
331
10F1
  5
1004
331
103C
  5
10D1
331
1DFC
  5
D03
331
C84
  5
C24
331
12D3
  5
1DC6
331
10ED
  5
12EA
331
1124
  5
1079
331
10AE
  5
1138
331
1077
  5
1115
331
1DF8
  5
CFF
331
1038
  5
10CD
331
C80
  5
BBC
331
1120
  5
12E9
331
1073
  5
1111
331
10AA
  5
108F
331
1034
  5
10C6
331
1030
  5
10BC
331
FC6
  5
1042
331
F97
  5
1020
331
F93
  5
FF9
331
D2E
  5
DE8
331
CF7
  5
D30
331
FF5
  5
106C
331
FBE
  5
1040
331
F8F
  5
1013
331
DF8
  5
FE5
331
DC1
  5
FB9
331
D2A
  5
DE2
331
CB4
  5
CAC
331
CF3
  5
D2C
331
FF1
  5
1068
331
FBA
  5
1018
331
DF4
  5
FE4
331
D26
  5
DDD
331
CEF
  5
D28
331
CB0
  5
CA8
331
DF0
  5
FDF
331
D22
  5
DD9
331
CEB
  5
D24
331
CAC
  5
CA4
331
CA8
  5
CA0
331
1E2F
  5
1E35
331
1E2B
  5
1E3B
331
12CF
  5
1095
331
1DF4
  5
CFA
331
1E27
  5
1E3D
331
111C
  5
1DB3
331
10E5
  5
12E3
331
106F
  5
110D
331
10A6
  5
1093
331
1DF0
  5
CF6
331
1E23
  5
1E44
331
1DAD
  5
1E2E
331
1118
  5
1DAF
331
10E1
  5
12E0
331
106B
  5
1109
331
10A2
  5
1098
331
102C
  5
10B5
331
1DEC
  5
CF2
331
1114
  5
1DAB
331
10DD
  5
12DD
331
1067
  5
1105
331
109E
  5
109C
331
1028
  5
10AD
331
1DE8
  5
CEE
331
1110
  5
1DA7
331
1063
  5
1101
331
109A
  5
10A0
331
1024
  5
10A9
331
1020
  5
1009
331
FED
  5
1064
331
F87
  5
FFD
331
FB6
  5
FF7
331
FE9
  5
1061
331
FB2
  5
103D
331
F83
  5
1008
331
DEC
  5
FDE
331
D5D
  5
FB4
331
D1E
  5
DD6
331
CE7
  5
D20
331
FE5
  5
105D
331
FAE
  5
103B
331
DE8
  5
FDB
331
D1A
  5
DCC
331
CA4
  5
C9C
331
CE3
  5
CDB
331
FE1
  5
1059
331
FAA
  5
1037
331
DE4
  5
FD9
331
D16
  5
DC2
331
CA0
  5
C98
331
CDF
  5
CD7
331
DE0
  5
FD5
331
D12
  5
D5F
331
D51
  5
D50
331
CDB
  5
CD3
331
C9C
  5
C94
331
C98
  5
C90
331
1E1F
  5
1E46
331
1E1B
  5
1E4F
331
1E5A
  5
FA4
331
12AF
  5
1DBF
331
1DE4
  5
CEA
331
1E17
  5
1E56
331
1E56
  5
FA5
331
1DA1
  5
1E40
331
12F2
  5
1DEA
331
110C
  5
1DA3
331
10D5
  5
12D7
331
105F
  5
10FD
331
1096
  5
10A4
331
1DE0
  5
CE6
331
1E52
  5
FB2
331
1E13
  5
D1B
331
1D9D
  5
1E4E
331
12EE
  5
1DE3
331
1108
  5
1D9F
331
10D1
  5
12D5
331
1092
  5
1130
331
1DDC
  5
CE2
331
105B
  5
10F9
331
12EA
  5
1DDD
331
116B
  5
1DBD
331
1104
  5
1D9B
331
10CD
  5
12D2
331
108E
  5
112C
331
1DD8
  5
CDE
331
1057
  5
10F5
331
1100
  5
1B4F
331
10C9
  5
12CF
331
108A
  5
1128
331
1053
  5
10F1
331
FDD
  5
1055
331
1D97
  5
1E4A
331
FD9
  5
1051
331
D4D
  5
F95
331
CD7
  5
CCF
331
100C
  5
1087
331
FA6
  5
102F
331
E17
  5
FEF
331
D49
  5
F90
331
CD3
  5
CCB
331
FA2
  5
102B
331
DDC
  5
FD2
331
D45
  5
E18
331
D0E
  5
D53
331
CCF
  5
CC7
331
DD8
  5
FCE
331
D41
  5
E16
331
D0A
  5
D44
331
CCB
  5
CC3
331
1E4E
  5
1DF1
331
1E4A
  5
1E0A
331
1E46
  5
1E0C
331
104F
  5
10EC
331
1DD0
  5
FAA
331
1E0F
  5
D16
331
C97
  5
C8F
331
1E42
  5
1E16
331
12E6
  5
1DD9
331
1DCC
  5
FB3
331
1137
  5
1DB8
331
104B
  5
10E7
331
1E0B
  5
D12
331
C93
  5
C8B
331
1DC8
  5
1DFB
331
12E2
  5
1DD5
331
10FC
  5
12F4
331
10BD
  5
116E
331
1086
  5
1124
331
1047
  5
10E1
331
10F8
  5
12F0
331
1082
  5
1120
331
1043
  5
10DC
331
1004
  5
1082
331
FD5
  5
104D
331
FD1
  5
1049
331
D3D
  5
E09
331
CC7
  5
CBF
331
D06
  5
D40
331
FFC
  5
107F
331
FCD
  5
1045
331
F9E
  5
1027
331
E07
  5
FE8
331
D39
  5
E04
331
CC3
  5
CBB
331
D02
  5
D3B
331
FF8
  5
106F
331
F9A
  5
1023
331
FC9
  5
FF6
331
E03
  5
FE6
331
DCC
  5
FC8
331
D35
  5
DF3
331
CFE
  5
D37
331
CBF
  5
CB7
331
D31
  5
DEC
331
CFA
  5
D33
331
CBB
  5
CB3
331
1E3E
  5
1E1C
331
1E07
  5
D0E
331
C8F
  5
C87
331
1E3A
  5
1E25
331
1DC4
  5
1E05
331
12DE
  5
1DD1
331
1E03
  5
D0A
331
C8B
  5
C83
331
1E36
  5
1E2B
331
12DA
  5
1DCD
331
10F4
  5
12EC
331
112B
  5
107D
331
10B5
  5
115D
331
107E
  5
111C
331
1DFF
  5
D06
331
103F
  5
10D5
331
C87
  5
C7F
331
1DBC
  5
1E13
331
12D6
  5
1DC9
331
1127
  5
1076
331
107A
  5
1118
331
10F0
  5
1005
331
103B
  5
10D0
331
1DFB
  5
D02
331
C83
  5
C08
331
1B50
  5
1E5A
331
1DB8
  5
1E1F
331
12D2
  5
1DC5
331
10EC
  5
12E8
331
1123
  5
FFE
331
10AD
  5
1137
331
1076
  5
1114
331
1037
  5
10CC
331
10E8
  5
12E5
331
1072
  5
1110
331
10A9
  5
1090
331
1033
  5
10BF
331
FC5
  5
1041
331
F96
  5
101D
331
F92
  5
101A
331
D2D
  5
DE5
331
CB7
  5
CAF
331
CF6
  5
D2F
331
FF4
  5
106B
331
FBD
  5
103F
331
DC0
  5
FB8
331
D29
  5
DE1
331
CB3
  5
CAB
331
CF2
  5
D2B
331
FF0
  5
1067
331
DF3
  5
FE3
331
D25
  5
DDC
331
CEE
  5
D27
331
CAF
  5
CA7
331
D60
  5
FB7
331
D21
  5
DD8
331
CEA
  5
D23
331
CAB
  5
CA3
331
1E2E
  5
1E34
331
1DF7
  5
CFE
331
C7F
  5
BA4
331
1E2A
  5
1E3A
331
12CE
  5
1DC2
331
111F
  5
1DB7
331
1DF3
  5
CF9
331
1E26
  5
1E3C
331
111B
  5
1DB2
331
10E4
  5
12E2
331
106E
  5
110C
331
10A5
  5
1094
331
102F
  5
10BB
331
1DEF
  5
CF5
331
1E22
  5
1E43
331
1454
  5
1E57
331
1DAC
  5
1E2D
331
1117
  5
1DAE
331
10E0
  5
12DF
331
106A
  5
1108
331
10A1
  5
1099
331
102B
  5
10B0
331
1DEB
  5
CF1
331
1DA8
  5
1E38
331
1113
  5
1DAA
331
1066
  5
1104
331
1027
  5
10AC
331
10D8
  5
12DA
331
1062
  5
1100
331
1099
  5
10A1
331
1023
  5
10A8
331
FEC
  5
1063
331
FB5
  5
FF8
331
FE8
  5
1060
331
DEB
  5
FDD
331
D1D
  5
DCF
331
CA7
  5
C9F
331
CE6
  5
D1F
331
FE4
  5
105C
331
FAD
  5
103A
331
F7E
  5
FFC
331
D19
  5
DCB
331
CA3
  5
C9B
331
CE2
  5
CDA
331
FE0
  5
1058
331
FA9
  5
1036
331
DE3
  5
FD8
331
D54
  5
F9B
331
D15
  5
DC1
331
C9F
  5
C97
331
CDE
  5
CD6
331
D11
  5
D5E
331
D50
  5
D47
331
CDA
  5
CD2
331
C9B
  5
C93
331
1E1E
  5
1E49
331
1DE7
  5
CED
331
1E1A
  5
1E54
331
1E59
  5
FA1
331
12F5
  5
1DF0
331
12AE
  5
1DBE
331
110F
  5
1DA6
331
1DE3
  5
CE9
331
1E16
  5
1E55
331
1E55
  5
FB0
331
12F1
  5
1DE9
331
110B
  5
1DA2
331
105E
  5
10FC
331
1095
  5
10A5
331
101F
  5
100A
331
1DDF
  5
CE5
331
1E51
  5
FB1
331
1E12
  5
D19
331
1D9C
  5
1E4D
331
12ED
  5
1DE2
331
1107
  5
1D9E
331
10D0
  5
12D4
331
1091
  5
112F
331
1DDB
  5
CE1
331
105A
  5
10F8
331
12E9
  5
1DDC
331
116A
  5
1DBC
331
1103
  5
1D9A
331
10CC
  5
12D1
331
108D
  5
112B
331
1056
  5
10F4
331
1017
  5
108B
331
1089
  5
1127
331
1052
  5
10F0
331
FDC
  5
1054
331
FD8
  5
1050
331
D4C
  5
F94
331
CD6
  5
CCE
331
100B
  5
1086
331
FA5
  5
102E
331
E16
  5
FEE
331
DDF
  5
FD4
331
D48
  5
F8A
331
CD2
  5
CCA
331
FA1
  5
102A
331
DDB
  5
FD1
331
D44
  5
E17
331
D0D
  5
D52
331
CCE
  5
CC6
331
D40
  5
E15
331
D09
  5
D43
331
CCA
  5
CC2
331
1E4D
  5
1DFA
331
1DD7
  5
CDD
331
1E49
  5
1E06
331
1E45
  5
1E12
331
113A
  5
1DBB
331
1DCF
  5
FA9
331
104E
  5
10EA
331
1E0E
  5
D15
331
C96
  5
C8E
331
1E41
  5
1E1B
331
12E5
  5
1DD8
331
10FF
  5
1B4E
331
104A
  5
10E6
331
1E0A
  5
D11
331
C92
  5
C8A
331
12E1
  5
1DD4
331
10FB
  5
12F3
331
1085
  5
1123
331
1046
  5
10E0
331
10B8
  5
116B
331
1081
  5
111F
331
1042
  5
10DB
331
1007
  5
1085
331
FD4
  5
104C
331
DD7
  5
FCD
331
FD0
  5
1048
331
E0A
  5
FEB
331
D3C
  5
E08
331
CC6
  5
CBE
331
D05
  5
D3F
331
FFB
  5
1071
331
FCC
  5
1044
331
F9D
  5
1026
331
E06
  5
FE1
331
DCF
  5
FCB
331
D38
  5
E03
331
CC2
  5
CBA
331
D01
  5
D3A
331
F99
  5
1022
331
FC8
  5
FF3
331
DCB
  5
FC7
331
D34
  5
DF2
331
CFD
  5
D36
331
CBE
  5
CB6
331
D30
  5
DEB
331
CF9
  5
D32
331
CBA
  5
CB2
331
1E3D
  5
1E22
331
1E06
  5
D0D
331
C8E
  5
C86
331
1E39
  5
1E24
331
1DC3
  5
1E04
331
12DD
  5
1DD0
331
10F7
  5
12EF
331
112E
  5
107A
331
1E02
  5
D09
331
C8A
  5
C82
331
1E35
  5
1E2A
331
12D9
  5
1DCC
331
112A
  5
107E
331
107D
  5
111B
331
10F3
  5
1001
331
103E
  5
10D3
331
1DFE
  5
D05
331
C86
  5
C7E
331
12D5
  5
1DC8
331
1126
  5
1077
331
10B0
  5
113C
331
10EF
  5
1006
331
1079
  5
1117
331
1DFA
  5
D01
331
103A
  5
10CF
331
C82
  5
BF6
331
12D1
  5
1DC4
331
10EB
  5
12E7
331
1122
  5
FFF
331
10AC
  5
1133
331
1075
  5
1113
331
1036
  5
10CA
331
1071
  5
110F
331
10A8
  5
1091
331
1032
  5
10BE
  0
XRECORD
  5
1E60
102
{ACAD_REACTORS
330
1E5E
102
}
330
1E5E
100
AcDbXrecord
280
     1
 70
     2
  0
XRECORD
  5
1E5F
102
{ACAD_REACTORS
330
1E5E
102
}
330
1E5E
100
AcDbXrecord
280
     1
 40
1.25
  0
XRECORD
  5
1E61
102
{ACAD_REACTORS
330
1E5E
102
}
330
1E5E
100
AcDbXrecord
280
     1
 40
1.570796326794896
  0
LAYOUT
  5
22
102
{ACAD_XDICTIONARY
360
1E62
102
}
102
{ACAD_REACTORS
330
1A
102
}
330
1A
100
AcDbPlotSettings
  1

  2
none_device
  4
ANSI_A_(8.50_x_11.00_Inches)
  6

 40
6.349999904632567
 41
19.04999923706055
 42
6.350006103515625
 43
19.04998779296875
 44
215.8999938964844
 45
279.3999938964844
 46
0.0
 47
0.0
 48
0.0
 49
0.0
140
0.0
141
0.0
142
1.0
143
2.584895464708373
 70
 11952
 72
     0
 73
     1
 74
     0
  7

 75
     0
147
0.3868628397755418
148
0.0
149
0.0
100
AcDbLayout
  1
Model
 70
     1
 71
     0
 10
0.0
 20
0.0
 11
12.0
 21
9.0
 12
0.0
 22
0.0
 32
0.0
 14
0.0
 24
0.0
 34
0.0
 15
0.0
 25
0.0
 35
0.0
146
0.0
 13
0.0
 23
0.0
 33
0.0
 16
1.0
 26
0.0
 36
0.0
 17
0.0
 27
1.0
 37
0.0
 76
     0
330
1F
331
94
  0
LAYOUT
  5
59
102
{ACAD_XDICTIONARY
360
1E64
102
}
102
{ACAD_REACTORS
330
1A
102
}
330
1A
100
AcDbPlotSettings
  1

  2
None
  4

  6

 40
0.0
 41
0.0
 42
0.0
 43
0.0
 44
0.0
 45
0.0
 46
0.0
 47
0.0
 48
0.0
 49
0.0
140
0.0
141
0.0
142
1.0
143
1.0
 70
   688
 72
     0
 73
     0
 74
     5
  7

 75
    16
147
1.0
148
0.0
149
0.0
100
AcDbLayout
  1
レイアウト1
 70
     1
 71
     1
 10
0.0
 20
0.0
 11
12.0
 21
9.0
 12
0.0
 22
0.0
 32
0.0
 14
0.0
 24
0.0
 34
0.0
 15
0.0
 25
0.0
 35
0.0
146
0.0
 13
0.0
 23
0.0
 33
0.0
 16
1.0
 26
0.0
 36
0.0
 17
0.0
 27
1.0
 37
0.0
 76
     0
330
58
  0
LAYOUT
  5
5E
102
{ACAD_XDICTIONARY
360
1E66
102
}
102
{ACAD_REACTORS
330
1A
102
}
330
1A
100
AcDbPlotSettings
  1

  2
None
  4

  6

 40
0.0
 41
0.0
 42
0.0
 43
0.0
 44
0.0
 45
0.0
 46
0.0
 47
0.0
 48
0.0
 49
0.0
140
0.0
141
0.0
142
1.0
143
1.0
 70
   688
 72
     0
 73
     0
 74
     5
  7

 75
    16
147
1.0
148
0.0
149
0.0
100
AcDbLayout
  1
レイアウト2
 70
     1
 71
     2
 10
0.0
 20
0.0
 11
12.0
 21
9.0
 12
0.0
 22
0.0
 32
0.0
 14
0.0
 24
0.0
 34
0.0
 15
0.0
 25
0.0
 35
0.0
146
0.0
 13
0.0
 23
0.0
 33
0.0
 16
1.0
 26
0.0
 36
0.0
 17
0.0
 27
1.0
 37
0.0
 76
     0
330
5D
  0
MATERIAL
  5
97
102
{ACAD_XDICTIONARY
360
EA5
102
}
102
{ACAD_REACTORS
330
72
102
}
330
72
100
AcDbMaterial
  1
ByBlock
 73
     1
 78
     1
172
     1
176
     1
270
     1
274
     1
  0
MATERIAL
  5
96
102
{ACAD_XDICTIONARY
360
EA3
102
}
102
{ACAD_REACTORS
330
72
102
}
330
72
100
AcDbMaterial
  1
ByLayer
 73
     1
 78
     1
172
     1
176
     1
270
     1
274
     1
  0
MATERIAL
  5
98
102
{ACAD_XDICTIONARY
360
EA7
102
}
102
{ACAD_REACTORS
330
72
102
}
330
72
100
AcDbMaterial
  1
Global
 73
     1
 78
     1
172
     1
176
     1
270
     1
274
     1
  0
MLEADERSTYLE
  5
169
102
{ACAD_REACTORS
330
168
102
}
330
168
100
AcDbMLeaderStyle
170
     2
171
     1
172
     0
 90
        2
 40
0.0
 41
0.0
173
     1
 91
-1056964608
340
14
 92
       -2
290
     1
 42
2.0
291
     1
 43
0.36
  3
Standard
 44
4.0
300

342
11
174
     1
178
     6
175
     1
176
     0
 93
-1056964608
 45
4.0
292
     0
297
     0
 46
4.0
 94
-1056964608
 47
1.0
 49
1.0
140
1.0
293
     1
141
0.0
294
     1
177
     0
142
1.0
295
     0
296
     0
143
0.125
1001
ACAD_MLEADERVER
1070
     2
  0
MLINESTYLE
  5
18
102
{ACAD_REACTORS
330
17
102
}
330
17
100
AcDbMlineStyle
  2
STANDARD
 70
     0
  3

 62
   256
 51
90.0
 52
90.0
 71
     2
 49
0.5
 62
   256
  6
BYLAYER
 49
-0.5
 62
   256
  6
BYLAYER
  0
ACDBPLACEHOLDER
  5
F
102
{ACAD_REACTORS
330
E
102
}
330
E
  0
SCALE
  5
157
102
{ACAD_REACTORS
330
156
102
}
330
156
100
AcDbScale
 70
     0
300
1:1
140
1.0
141
1.0
290
     1
  0
SCALE
  5
158
102
{ACAD_REACTORS
330
156
102
}
330
156
100
AcDbScale
 70
     0
300
1:2
140
1.0
141
2.0
290
     0
  0
SCALE
  5
159
102
{ACAD_REACTORS
330
156
102
}
330
156
100
AcDbScale
 70
     0
300
1:4
140
1.0
141
4.0
290
     0
  0
SCALE
  5
15A
102
{ACAD_REACTORS
330
156
102
}
330
156
100
AcDbScale
 70
     0
300
1:5
140
1.0
141
5.0
290
     0
  0
SCALE
  5
15B
102
{ACAD_REACTORS
330
156
102
}
330
156
100
AcDbScale
 70
     0
300
1:8
140
1.0
141
8.0
290
     0
  0
SCALE
  5
15C
102
{ACAD_REACTORS
330
156
102
}
330
156
100
AcDbScale
 70
     0
300
1:10
140
1.0
141
10.0
290
     0
  0
SCALE
  5
15D
102
{ACAD_REACTORS
330
156
102
}
330
156
100
AcDbScale
 70
     0
300
1:16
140
1.0
141
16.0
290
     0
  0
SCALE
  5
15E
102
{ACAD_REACTORS
330
156
102
}
330
156
100
AcDbScale
 70
     0
300
1:20
140
1.0
141
20.0
290
     0
  0
SCALE
  5
15F
102
{ACAD_REACTORS
330
156
102
}
330
156
100
AcDbScale
 70
     0
300
1:30
140
1.0
141
30.0
290
     0
  0
SCALE
  5
160
102
{ACAD_REACTORS
330
156
102
}
330
156
100
AcDbScale
 70
     0
300
1:40
140
1.0
141
40.0
290
     0
  0
SCALE
  5
161
102
{ACAD_REACTORS
330
156
102
}
330
156
100
AcDbScale
 70
     0
300
1:50
140
1.0
141
50.0
290
     0
  0
SCALE
  5
162
102
{ACAD_REACTORS
330
156
102
}
330
156
100
AcDbScale
 70
     0
300
1:100
140
1.0
141
100.0
290
     0
  0
SCALE
  5
163
102
{ACAD_REACTORS
330
156
102
}
330
156
100
AcDbScale
 70
     0
300
2:1
140
2.0
141
1.0
290
     0
  0
SCALE
  5
164
102
{ACAD_REACTORS
330
156
102
}
330
156
100
AcDbScale
 70
     0
300
4:1
140
4.0
141
1.0
290
     0
  0
SCALE
  5
165
102
{ACAD_REACTORS
330
156
102
}
330
156
100
AcDbScale
 70
     0
300
8:1
140
8.0
141
1.0
290
     0
  0
SCALE
  5
166
102
{ACAD_REACTORS
330
156
102
}
330
156
100
AcDbScale
 70
     0
300
10:1
140
10.0
141
1.0
290
     0
  0
SCALE
  5
167
102
{ACAD_REACTORS
330
156
102
}
330
156
100
AcDbScale
 70
     0
300
100:1
140
100.0
141
1.0
290
     0
  0
TABLESTYLE
  5
87
102
{ACAD_XDICTIONARY
360
887
102
}
102
{ACAD_REACTORS
330
86
102
}
330
86
100
AcDbTableStyle
  3
Standard
 70
     0
 71
     0
 40
0.06
 41
0.06
280
     0
281
     0
  7
Standard
140
0.18
170
     2
 62
     0
 63
     7
283
     0
274
    -2
284
     1
 64
     0
275
    -2
285
     1
 65
     0
276
    -2
286
     1
 66
     0
277
    -2
287
     1
 67
     0
278
    -2
288
     1
 68
     0
279
    -2
289
     1
 69
     0
  7
Standard
140
0.25
170
     5
 62
     0
 63
     7
283
     0
274
    -2
284
     1
 64
     0
275
    -2
285
     1
 65
     0
276
    -2
286
     1
 66
     0
277
    -2
287
     1
 67
     0
278
    -2
288
     1
 68
     0
279
    -2
289
     1
 69
     0
  7
Standard
140
0.18
170
     5
 62
     0
 63
     7
283
     0
274
    -2
284
     1
 64
     0
275
    -2
285
     1
 65
     0
276
    -2
286
     1
 66
     0
277
    -2
287
     1
 67
     0
278
    -2
288
     1
 68
     0
279
    -2
289
     1
 69
     0
  0
VISUALSTYLE
  5
9F
102
{ACAD_XDICTIONARY
360
1E73
102
}
102
{ACAD_REACTORS
330
99
102
}
330
99
100
AcDbVisualStyle
  2

 70
     4
 71
     0
 72
     2
 73
     1
 90
        0
 40
-0.6
 41
-30.0
 62
     5
 63
     7
 74
     1
 91
        4
 64
     7
 65
   257
 75
     1
175
     1
 42
1.0
 92
        0
 66
   257
 43
1.0
 76
     1
 77
     6
 78
     2
 67
     7
 79
     5
170
     0
171
     0
290
     0
174
     0
 93
        1
 44
0.0
173
     0
291
     0
 45
0.0
1001
ACAD
1000
AcDbSavedByObjectVersion
1070
     0
  0
VISUALSTYLE
  5
A1
102
{ACAD_XDICTIONARY
360
1E77
102
}
102
{ACAD_REACTORS
330
99
102
}
330
99
100
AcDbVisualStyle
  2

 70
     6
 71
     1
 72
     2
 73
     2
 90
        0
 40
-0.6
 41
-30.0
 62
     5
 63
     7
 74
     2
 91
        2
 64
     7
 65
   257
 75
     2
175
     1
 42
40.0
 92
        0
 66
   257
 43
1.0
 76
     1
 77
     6
 78
     2
 67
     7
 79
     3
170
     0
171
     0
290
     0
174
     0
 93
        1
 44
0.0
173
     0
291
     0
 45
0.0
1001
ACAD
1000
AcDbSavedByObjectVersion
1070
     0
  0
VISUALSTYLE
  5
A0
102
{ACAD_XDICTIONARY
360
1E75
102
}
102
{ACAD_REACTORS
330
99
102
}
330
99
100
AcDbVisualStyle
  2

 70
     5
 71
     0
 72
     2
 73
     1
 90
        0
 40
-0.6
 41
-30.0
 62
     5
 63
     7
 74
     1
 91
        4
 64
     7
 65
   257
 75
     1
175
     1
 42
1.0
 92
        0
 66
   257
 43
1.0
 76
     1
 77
     6
 78
     2
 67
     7
 79
     5
170
     0
171
     0
290
     0
174
     0
 93
        1
 44
0.0
173
     0
291
     0
 45
0.0
1001
ACAD
1000
AcDbSavedByObjectVersion
1070
     0
  0
VISUALSTYLE
  5
9E
102
{ACAD_XDICTIONARY
360
1E71
102
}
102
{ACAD_REACTORS
330
99
102
}
330
99
100
AcDbVisualStyle
  2

 70
     7
 71
     1
 72
     0
 73
     1
 90
        0
 40
-0.6
 41
-30.0
 62
     5
 63
     7
 74
     0
 91
        4
 64
     7
 65
   257
 75
     1
175
     1
 42
1.0
 92
        8
 66
     7
 43
1.0
 76
     1
 77
     6
 78
     2
 67
     7
 79
     5
170
     0
171
     0
290
     0
174
     0
 93
        1
 44
0.0
173
     0
291
     1
 45
0.0
1001
ACAD
1000
AcDbSavedByObjectVersion
1070
     0
  0
VISUALSTYLE
  5
A5
102
{ACAD_XDICTIONARY
360
1E7F
102
}
102
{ACAD_REACTORS
330
99
102
}
330
99
100
AcDbVisualStyle
  2

 70
    12
 71
     2
 72
     2
 73
     1
 90
        0
 40
-0.6
 41
-30.0
 62
     5
 63
     7
 74
     1
 91
        4
 64
     7
 65
   257
 75
     1
175
     1
 42
1.0
 92
        8
 66
     7
 43
1.0
 76
     1
 77
     6
 78
     2
 67
     7
 79
     5
170
     0
171
     0
290
     0
174
     0
 93
        1
 44
50.0
173
     0
291
     1
 45
0.0
1001
ACAD
1000
AcDbSavedByObjectVersion
1070
     0
  0
VISUALSTYLE
  5
A9
102
{ACAD_XDICTIONARY
360
1E87
102
}
102
{ACAD_REACTORS
330
99
102
}
330
99
100
AcDbVisualStyle
  2

 70
    16
 71
     2
 72
     2
 73
     3
 90
        0
 40
-0.6
 41
-30.0
 62
     5
 63
     8
 74
     1
 91
        4
 64
     7
 65
   257
 75
     1
175
     1
 42
1.0
 92
        8
 66
     8
 43
1.0
 76
     1
 77
     6
 78
     2
 67
     7
 79
     5
170
     0
171
     0
290
     0
174
     0
 93
        1
 44
0.0
173
     0
291
     1
 45
0.0
1001
ACAD
1000
AcDbSavedByObjectVersion
1070
     0
  0
VISUALSTYLE
  5
A2
102
{ACAD_XDICTIONARY
360
1E79
102
}
102
{ACAD_REACTORS
330
99
102
}
330
99
100
AcDbVisualStyle
  2

 70
     9
 71
     3
 72
     2
 73
     1
 90
        0
 40
-0.6
 41
-30.0
 62
     5
 63
     7
 74
     2
 91
        2
 64
     7
 65
   257
 75
     1
175
     1
 42
40.0
 92
        8
 66
     7
 43
1.0
 76
     1
 77
     6
 78
     2
 67
     7
 79
     3
170
     0
171
     0
290
     0
174
     0
 93
        1
 44
0.0
173
     0
291
     0
 45
0.0
1001
ACAD
1000
AcDbSavedByObjectVersion
1070
     0
  0
VISUALSTYLE
  5
A4
102
{ACAD_XDICTIONARY
360
1E7D
102
}
102
{ACAD_REACTORS
330
99
102
}
330
99
100
AcDbVisualStyle
  2

 70
    11
 71
     2
 72
     2
 73
     1
 90
        0
 40
-0.6
 41
-30.0
 62
     5
 63
     7
 74
     1
 91
        4
 64
     7
 65
   257
 75
     1
175
     1
 42
1.0
 92
        8
 66
     7
 43
1.0
 76
     1
 77
     6
 78
     2
 67
     7
 79
     5
170
     0
171
     0
290
     0
174
     0
 93
        1
 44
-50.0
173
     0
291
     1
 45
0.0
1001
ACAD
1000
AcDbSavedByObjectVersion
1070
     0
  0
VISUALSTYLE
  5
155
102
{ACAD_XDICTIONARY
360
1E9B
102
}
102
{ACAD_REACTORS
330
99
102
}
330
99
100
AcDbVisualStyle
  2

 70
    22
 71
     2
 72
     2
 73
     0
 90
        0
 40
-0.6
 41
-30.0
 62
     5
 63
     7
 74
     1
 91
        4
 64
     7
 65
   257
 75
     1
175
     1
 42
1.0
 92
        8
 66
     7
 43
1.0
 76
     1
 77
     6
 78
     2
 67
     7
 79
     5
170
     0
171
     0
290
     0
174
     0
 93
        1
 44
0.0
173
     0
291
     1
 45
0.0
1001
ACAD
1000
AcDbSavedByObjectVersion
1070
     0
  0
VISUALSTYLE
  5
A8
102
{ACAD_XDICTIONARY
360
1E85
102
}
102
{ACAD_REACTORS
330
99
102
}
330
99
100
AcDbVisualStyle
  2

 70
    15
 71
     2
 72
     2
 73
     1
 90
        0
 40
-0.6
 41
-30.0
 62
     5
 63
     7
 74
     1
 91
        4
 64
     7
 65
   257
 75
     1
175
     1
 42
1.0
 92
        8
 66
     7
 43
1.0
 76
     1
 77
     6
 78
     2
 67
     7
 79
     5
170
     0
171
     0
290
     0
174
     0
 93
        1
 44
0.0
173
     0
291
     1
 45
0.0
1001
ACAD
1000
AcDbSavedByObjectVersion
1070
     0
  0
VISUALSTYLE
  5
9A
102
{ACAD_XDICTIONARY
360
1E69
102
}
102
{ACAD_REACTORS
330
99
102
}
330
99
100
AcDbVisualStyle
  2

 70
     0
 71
     2
 72
     1
 73
     1
 90
        2
 40
-0.6
 41
30.0
 62
     5
 63
     7
 74
     0
 91
        4
 64
     7
 65
   257
 75
     1
175
     1
 42
1.0
 92
        8
 66
     7
 43
1.0
 76
     1
 77
     6
 78
     2
 67
     7
 79
     5
170
     0
171
     0
290
     0
174
     0
 93
        1
 44
0.0
173
     0
291
     1
 45
0.0
1001
ACAD
1000
AcDbSavedByObjectVersion
1070
     0
  0
VISUALSTYLE
  5
9B
102
{ACAD_XDICTIONARY
360
1E6B
102
}
102
{ACAD_REACTORS
330
99
102
}
330
99
100
AcDbVisualStyle
  2

 70
     1
 71
     2
 72
     1
 73
     1
 90
        2
 40
-0.6
 41
30.0
 62
     5
 63
     7
 74
     1
 91
        4
 64
     7
 65
   257
 75
     1
175
     1
 42
1.0
 92
        0
 66
   257
 43
1.0
 76
     1
 77
     6
 78
     2
 67
     7
 79
     5
170
     0
171
     0
290
     0
174
     0
 93
        1
 44
0.0
173
     0
291
     1
 45
0.0
1001
ACAD
1000
AcDbSavedByObjectVersion
1070
     0
  0
VISUALSTYLE
  5
9C
102
{ACAD_XDICTIONARY
360
1E6D
102
}
102
{ACAD_REACTORS
330
99
102
}
330
99
100
AcDbVisualStyle
  2

 70
     2
 71
     2
 72
     2
 73
     1
 90
        2
 40
-0.6
 41
30.0
 62
     5
 63
     7
 74
     0
 91
        4
 64
     7
 65
   257
 75
     1
175
     1
 42
1.0
 92
        0
 66
     7
 43
1.0
 76
     1
 77
     6
 78
     2
 67
     7
 79
     5
170
     0
171
     0
290
     0
174
     0
 93
        1
 44
0.0
173
     0
291
     1
 45
0.0
1001
ACAD
1000
AcDbSavedByObjectVersion
1070
     0
  0
VISUALSTYLE
  5
9D
102
{ACAD_XDICTIONARY
360
1E6F
102
}
102
{ACAD_REACTORS
330
99
102
}
330
99
100
AcDbVisualStyle
  2

 70
     3
 71
     2
 72
     2
 73
     1
 90
        2
 40
-0.6
 41
30.0
 62
     5
 63
     7
 74
     1
 91
        4
 64
     7
 65
   257
 75
     1
175
     1
 42
1.0
 92
        0
 66
   257
 43
1.0
 76
     1
 77
     6
 78
     2
 67
     7
 79
     5
170
     0
171
     0
290
     0
174
     0
 93
        1
 44
0.0
173
     0
291
     1
 45
0.0
1001
ACAD
1000
AcDbSavedByObjectVersion
1070
     0
  0
VISUALSTYLE
  5
14D
102
{ACAD_XDICTIONARY
360
1E8B
102
}
102
{ACAD_REACTORS
330
99
102
}
330
99
100
AcDbVisualStyle
  2

 70
     6
 71
     1
 72
     2
 73
     2
 90
        0
 40
-0.6
 41
-30.0
 62
     5
 63
     7
 74
     2
 91
        2
 64
     7
 65
   257
 75
     2
175
     1
 42
40.0
 92
        0
 66
   257
 43
1.0
 76
     1
 77
     6
 78
     2
 67
     7
 79
     3
170
     0
171
     0
290
     0
174
     0
 93
        1
 44
0.0
173
     0
291
     0
 45
0.0
1001
ACAD
1000
AcDbSavedByObjectVersion
1070
     0
  0
VISUALSTYLE
  5
153
102
{ACAD_XDICTIONARY
360
1E97
102
}
102
{ACAD_REACTORS
330
99
102
}
330
99
100
AcDbVisualStyle
  2

 70
    20
 71
     2
 72
     2
 73
     0
 90
        0
 40
-0.6
 41
-30.0
 62
     5
 63
     7
 74
     1
 91
        4
 64
     7
 65
   257
 75
     1
175
     1
 42
1.0
 92
       10
 66
     7
 43
1.0
 76
     1
 77
     6
 78
     2
 67
     7
 79
     5
170
     0
171
     0
290
     0
174
     0
 93
        1
 44
0.0
173
     0
291
     1
 45
0.0
1001
ACAD
1000
AcDbSavedByObjectVersion
1070
     0
  0
VISUALSTYLE
  5
A7
102
{ACAD_XDICTIONARY
360
1E83
102
}
102
{ACAD_REACTORS
330
99
102
}
330
99
100
AcDbVisualStyle
  2

 70
    14
 71
     2
 72
     2
 73
     1
 90
        0
 40
-0.6
 41
-30.0
 62
     5
 63
     7
 74
     1
 91
        4
 64
     7
 65
   257
 75
     7
175
     7
 42
1.0
 92
        8
 66
     7
 43
1.0
 76
     1
 77
     6
 78
     2
 67
     7
 79
     5
170
     0
171
     0
290
     0
174
     0
 93
        1
 44
0.0
173
     0
291
     1
 45
0.0
1001
ACAD
1000
AcDbSavedByObjectVersion
1070
     0
  0
VISUALSTYLE
  5
154
102
{ACAD_XDICTIONARY
360
1E99
102
}
102
{ACAD_REACTORS
330
99
102
}
330
99
100
AcDbVisualStyle
  2

 70
    21
 71
     2
 72
     2
 73
     0
 90
        0
 40
-0.6
 41
-30.0
 62
     5
 63
     7
 74
     1
 91
        4
 64
     7
 65
   257
 75
     1
175
     1
 42
1.0
 92
        9
 66
     7
 43
1.0
 76
     1
 77
     6
 78
     2
 67
     7
 79
     5
170
     0
171
     0
290
     0
174
     0
 93
        1
 44
0.0
173
     0
291
     1
 45
0.0
1001
ACAD
1000
AcDbSavedByObjectVersion
1070
     0
  0
VISUALSTYLE
  5
A3
102
{ACAD_XDICTIONARY
360
1E7B
102
}
102
{ACAD_REACTORS
330
99
102
}
330
99
100
AcDbVisualStyle
  2

 70
     8
 71
     2
 72
     2
 73
     1
 90
        0
 40
-0.6
 41
-30.0
 62
     5
 63
     7
 74
     1
 91
        0
 64
     7
 65
   257
 75
     1
175
     1
 42
1.0
 92
        8
 66
     8
 43
1.0
 76
     1
 77
     6
 78
     2
 67
     7
 79
     5
170
     0
171
     0
290
     0
174
     0
 93
       13
 44
0.0
173
     0
291
     0
 45
0.0
1001
ACAD
1000
AcDbSavedByObjectVersion
1070
     0
  0
VISUALSTYLE
  5
152
102
{ACAD_XDICTIONARY
360
1E95
102
}
102
{ACAD_REACTORS
330
99
102
}
330
99
100
AcDbVisualStyle
  2

 70
    27
 71
     2
 72
     2
 73
     1
 90
        2
 40
-0.6
 41
30.0
 62
     5
 63
     7
 74
     0
 91
        4
 64
     7
 65
   257
 75
     1
175
     1
 42
1.0
 92
        8
 66
   257
 43
1.0
 76
     1
 77
     6
 78
     2
 67
     8
 79
     3
170
     0
171
     0
290
     0
174
     0
 93
        5
 44
0.0
173
     0
291
     0
 45
0.0
1001
ACAD
1000
AcDbSavedByObjectVersion
1070
     0
  0
VISUALSTYLE
  5
151
102
{ACAD_XDICTIONARY
360
1E93
102
}
102
{ACAD_REACTORS
330
99
102
}
330
99
100
AcDbVisualStyle
  2

 70
    26
 71
     2
 72
     2
 73
     1
 90
        2
 40
-0.6
 41
30.0
 62
     5
 63
     7
 74
     1
 91
       10
 64
     7
 65
   257
 75
     2
175
     1
 42
1.0
 92
        8
 66
   257
 43
1.0
 76
     1
 77
     6
 78
     2
 67
     7
 79
     3
170
     0
171
     0
290
     0
174
     0
 93
        5
 44
0.0
173
     0
291
     0
 45
0.0
1001
ACAD
1000
AcDbSavedByObjectVersion
1070
     0
  0
VISUALSTYLE
  5
14E
102
{ACAD_XDICTIONARY
360
1E8D
102
}
102
{ACAD_REACTORS
330
99
102
}
330
99
100
AcDbVisualStyle
  2

 70
    23
 71
     2
 72
     2
 73
     3
 90
        0
 40
-0.6
 41
-30.0
 62
     5
 63
     7
 74
     2
 91
        2
 64
     7
 65
     7
 75
     1
175
     1
 42
40.0
 92
        8
 66
     7
 43
1.0
 76
     1
 77
     6
 78
     2
 67
     7
 79
     3
170
     0
171
     0
290
     0
174
     0
 93
        1
 44
0.0
173
     0
291
     0
 45
0.0
1001
ACAD
1000
AcDbSavedByObjectVersion
1070
     0
  0
VISUALSTYLE
  5
14F
102
{ACAD_XDICTIONARY
360
1E8F
102
}
102
{ACAD_REACTORS
330
99
102
}
330
99
100
AcDbVisualStyle
  2

 70
    24
 71
     1
 72
     2
 73
     2
 90
        0
 40
-0.6
 41
-30.0
 62
     5
 63
     7
 74
     2
 91
        2
 64
     7
 65
     7
 75
     1
175
     1
 42
40.0
 92
       11
 66
     7
 43
1.0
 76
     1
 77
     6
 78
     2
 67
     7
 79
     6
170
     0
171
     0
290
     0
174
     0
 93
        1
 44
0.0
173
     0
291
     0
 45
0.0
1001
ACAD
1000
AcDbSavedByObjectVersion
1070
     0
  0
VISUALSTYLE
  5
A6
102
{ACAD_XDICTIONARY
360
1E81
102
}
102
{ACAD_REACTORS
330
99
102
}
330
99
100
AcDbVisualStyle
  2

 70
    13
 71
     2
 72
     2
 73
     1
 90
        0
 40
-0.6
 41
-30.0
 62
     5
 63
     7
 74
     1
 91
        4
 64
     7
 65
   257
 75
     1
175
     1
 42
1.0
 92
       12
 66
     7
 43
1.0
 76
     1
 77
     6
 78
     2
 67
     7
 79
     5
170
     0
171
     0
290
     0
174
     0
 93
        1
 44
0.0
173
     0
291
     1
 45
0.0
1001
ACAD
1000
AcDbSavedByObjectVersion
1070
     0
  0
VISUALSTYLE
  5
14C
102
{ACAD_XDICTIONARY
360
1E89
102
}
102
{ACAD_REACTORS
330
99
102
}
330
99
100
AcDbVisualStyle
  2

 70
     5
 71
     0
 72
     2
 73
     0
 90
        0
 40
-0.6
 41
-30.0
 62
     5
 63
     7
 74
     1
 91
        4
 64
     7
 65
   257
 75
     1
175
     1
 42
1.0
 92
        0
 66
   257
 43
1.0
 76
     1
 77
     6
 78
     2
 67
     7
 79
     3
170
     0
171
     0
290
     0
174
     0
 93
        1
 44
0.0
173
     0
291
     0
 45
0.0
1001
ACAD
1000
AcDbSavedByObjectVersion
1070
     0
  0
VISUALSTYLE
  5
150
102
{ACAD_XDICTIONARY
360
1E91
102
}
102
{ACAD_REACTORS
330
99
102
}
330
99
100
AcDbVisualStyle
  2

 70
    25
 71
     2
 72
     2
 73
     1
 90
        1
 40
0.5
 41
-30.0
 62
     5
 63
     7
 74
     1
 91
        0
 64
     7
 65
   257
 75
     1
175
     1
 42
1.0
 92
        8
 66
     7
 43
1.0
 76
     1
 77
     6
 78
     2
 67
     7
 79
     3
170
     0
171
     0
290
     0
174
     0
 93
       13
 44
0.0
173
     0
291
     0
 45
0.0
1001
ACAD
1000
AcDbSavedByObjectVersion
1070
     0
  0
DICTIONARYVAR
  5
24A
102
{ACAD_REACTORS
330
66
102
}
330
66
100
DictionaryVariables
280
     0
  1
1:1
  0
DICTIONARYVAR
  5
248
102
{ACAD_REACTORS
330
66
102
}
330
66
100
DictionaryVariables
280
     0
  1
STANDARD
  0
DICTIONARYVAR
  5
89
102
{ACAD_REACTORS
330
66
102
}
330
66
100
DictionaryVariables
280
     0
  1
STANDARD
  0
DICTIONARYVAR
  5
67
102
{ACAD_REACTORS
330
66
102
}
330
66
100
DictionaryVariables
280
     0
  1
2
  0
DICTIONARYVAR
  5
6B
102
{ACAD_REACTORS
330
66
102
}
330
66
100
DictionaryVariables
280
     0
  1
1
  0
DICTIONARYVAR
  5
8D6
102
{ACAD_REACTORS
330
66
102
}
330
66
100
DictionaryVariables
280
     0
  1
0
  0
DICTIONARYVAR
  5
24C
102
{ACAD_REACTORS
330
66
102
}
330
66
100
DictionaryVariables
280
     0
  1
1
  0
DICTIONARYVAR
  5
24D
102
{ACAD_REACTORS
330
66
102
}
330
66
100
DictionaryVariables
280
     0
  1
15
  0
DICTIONARYVAR
  5
24B
102
{ACAD_REACTORS
330
66
102
}
330
66
100
DictionaryVariables
280
     0
  1
0
  0
DICTIONARYVAR
  5
249
102
{ACAD_REACTORS
330
66
102
}
330
66
100
DictionaryVariables
280
     0
  1
0
  0
DICTIONARYVAR
  5
8D5
102
{ACAD_REACTORS
330
66
102
}
330
66
100
DictionaryVariables
280
     0
  1
127
  0
DICTIONARYVAR
  5
1D12
102
{ACAD_REACTORS
330
66
102
}
330
66
100
DictionaryVariables
280
     0
  1
2
  0
DICTIONARY
  5
1E62
330
22
100
AcDbDictionary
280
     1
281
     1
  3
ACAD_XREC_ROUNDTRIP
360
1E63
  0
DICTIONARY
  5
1E64
330
59
100
AcDbDictionary
280
     1
281
     1
  3
ACAD_XREC_ROUNDTRIP
360
1E65
  0
DICTIONARY
  5
1E66
330
5E
100
AcDbDictionary
280
     1
281
     1
  3
ACAD_XREC_ROUNDTRIP
360
1E67
  0
DICTIONARY
  5
EA5
330
97
100
AcDbDictionary
280
     1
281
     1
  3
ACAD_XREC_ROUNDTRIP
360
EA6
  0
DICTIONARY
  5
EA3
330
96
100
AcDbDictionary
280
     1
281
     1
  3
ACAD_XREC_ROUNDTRIP
360
EA4
  0
DICTIONARY
  5
EA7
330
98
100
AcDbDictionary
280
     1
281
     1
  3
ACAD_XREC_ROUNDTRIP
360
EA8
  0
DICTIONARY
  5
887
330
87
100
AcDbDictionary
280
     1
281
     1
  3
ACAD_ROUNDTRIP_2008_TABLESTYLE_CELLSTYLEMAP
360
1E5B
  3
ACAD_XREC_ROUNDTRIP
360
1E68
  0
DICTIONARY
  5
1E73
330
9F
100
AcDbDictionary
280
     1
281
     1
  3
ACAD_XREC_ROUNDTRIP
360
1E74
  0
DICTIONARY
  5
1E77
330
A1
100
AcDbDictionary
280
     1
281
     1
  3
ACAD_XREC_ROUNDTRIP
360
1E78
  0
DICTIONARY
  5
1E75
330
A0
100
AcDbDictionary
280
     1
281
     1
  3
ACAD_XREC_ROUNDTRIP
360
1E76
  0
DICTIONARY
  5
1E71
330
9E
100
AcDbDictionary
280
     1
281
     1
  3
ACAD_XREC_ROUNDTRIP
360
1E72
  0
DICTIONARY
  5
1E7F
330
A5
100
AcDbDictionary
280
     1
281
     1
  3
ACAD_XREC_ROUNDTRIP
360
1E80
  0
DICTIONARY
  5
1E87
330
A9
100
AcDbDictionary
280
     1
281
     1
  3
ACAD_XREC_ROUNDTRIP
360
1E88
  0
DICTIONARY
  5
1E79
330
A2
100
AcDbDictionary
280
     1
281
     1
  3
ACAD_XREC_ROUNDTRIP
360
1E7A
  0
DICTIONARY
  5
1E7D
330
A4
100
AcDbDictionary
280
     1
281
     1
  3
ACAD_XREC_ROUNDTRIP
360
1E7E
  0
DICTIONARY
  5
1E9B
330
155
100
AcDbDictionary
280
     1
281
     1
  3
ACAD_XREC_ROUNDTRIP
360
1E9C
  0
DICTIONARY
  5
1E85
330
A8
100
AcDbDictionary
280
     1
281
     1
  3
ACAD_XREC_ROUNDTRIP
360
1E86
  0
DICTIONARY
  5
1E69
330
9A
100
AcDbDictionary
280
     1
281
     1
  3
ACAD_XREC_ROUNDTRIP
360
1E6A
  0
DICTIONARY
  5
1E6B
330
9B
100
AcDbDictionary
280
     1
281
     1
  3
ACAD_XREC_ROUNDTRIP
360
1E6C
  0
DICTIONARY
  5
1E6D
330
9C
100
AcDbDictionary
280
     1
281
     1
  3
ACAD_XREC_ROUNDTRIP
360
1E6E
  0
DICTIONARY
  5
1E6F
330
9D
100
AcDbDictionary
280
     1
281
     1
  3
ACAD_XREC_ROUNDTRIP
360
1E70
  0
DICTIONARY
  5
1E8B
330
14D
100
AcDbDictionary
280
     1
281
     1
  3
ACAD_XREC_ROUNDTRIP
360
1E8C
  0
DICTIONARY
  5
1E97
330
153
100
AcDbDictionary
280
     1
281
     1
  3
ACAD_XREC_ROUNDTRIP
360
1E98
  0
DICTIONARY
  5
1E83
330
A7
100
AcDbDictionary
280
     1
281
     1
  3
ACAD_XREC_ROUNDTRIP
360
1E84
  0
DICTIONARY
  5
1E99
330
154
100
AcDbDictionary
280
     1
281
     1
  3
ACAD_XREC_ROUNDTRIP
360
1E9A
  0
DICTIONARY
  5
1E7B
330
A3
100
AcDbDictionary
280
     1
281
     1
  3
ACAD_XREC_ROUNDTRIP
360
1E7C
  0
DICTIONARY
  5
1E95
330
152
100
AcDbDictionary
280
     1
281
     1
  3
ACAD_XREC_ROUNDTRIP
360
1E96
  0
DICTIONARY
  5
1E93
330
151
100
AcDbDictionary
280
     1
281
     1
  3
ACAD_XREC_ROUNDTRIP
360
1E94
  0
DICTIONARY
  5
1E8D
330
14E
100
AcDbDictionary
280
     1
281
     1
  3
ACAD_XREC_ROUNDTRIP
360
1E8E
  0
DICTIONARY
  5
1E8F
330
14F
100
AcDbDictionary
280
     1
281
     1
  3
ACAD_XREC_ROUNDTRIP
360
1E90
  0
DICTIONARY
  5
1E81
330
A6
100
AcDbDictionary
280
     1
281
     1
  3
ACAD_XREC_ROUNDTRIP
360
1E82
  0
DICTIONARY
  5
1E89
330
14C
100
AcDbDictionary
280
     1
281
     1
  3
ACAD_XREC_ROUNDTRIP
360
1E8A
  0
DICTIONARY
  5
1E91
330
150
100
AcDbDictionary
280
     1
281
     1
  3
ACAD_XREC_ROUNDTRIP
360
1E92
  0
XRECORD
  5
1E63
102
{ACAD_REACTORS
330
1E62
102
}
330
1E62
100
AcDbXrecord
280
     1
102
SHADEPLOT
 70
     0
102
SHADEPLOTRESLEVEL
 70
     2
102
SHADEPLOTCUSTOMDPI
 70
   300
  0
XRECORD
  5
1E65
102
{ACAD_REACTORS
330
1E64
102
}
330
1E64
100
AcDbXrecord
280
     1
102
SHADEPLOT
 70
     0
102
SHADEPLOTRESLEVEL
 70
     2
102
SHADEPLOTCUSTOMDPI
 70
   300
  0
XRECORD
  5
1E67
102
{ACAD_REACTORS
330
1E66
102
}
330
1E66
100
AcDbXrecord
280
     1
102
SHADEPLOT
 70
     0
102
SHADEPLOTRESLEVEL
 70
     2
102
SHADEPLOTCUSTOMDPI
 70
   300
  0
XRECORD
  5
EA6
102
{ACAD_REACTORS
330
EA5
102
}
330
EA5
100
AcDbXrecord
280
     1
102
MATERIAL
148
0.0
149
0.0
149
0.0
 93
        0
 94
      127
282
     0
 72
     1
 77
     1
171
     1
175
     1
179
     1
273
     0
  0
XRECORD
  5
EA4
102
{ACAD_REACTORS
330
EA3
102
}
330
EA3
100
AcDbXrecord
280
     1
102
MATERIAL
148
0.0
149
0.0
149
0.0
 93
        0
 94
      127
282
     0
 72
     1
 77
     1
171
     1
175
     1
179
     1
273
     0
  0
XRECORD
  5
EA8
102
{ACAD_REACTORS
330
EA7
102
}
330
EA7
100
AcDbXrecord
280
     1
102
MATERIAL
148
0.0
149
0.0
149
0.0
 93
        0
 94
      127
282
     0
 72
     1
 77
     1
171
     1
175
     1
179
     1
273
     0
  0
CELLSTYLEMAP
  5
1E5B
102
{ACAD_REACTORS
330
887
102
}
330
887
100
AcDbCellStyleMap
 90
        3
300
CELLSTYLE
  1
TABLEFORMAT_BEGIN
 90
        5
170
     1
 91
        0
 92
    32768
 62
   257
 93
        1
300
CONTENTFORMAT
  1
CONTENTFORMAT_BEGIN
 90
        0
 91
        0
 92
      512
 93
        0
300

 40
0.0
140
1.0
 94
        5
 62
     0
340
11
144
0.25
309
CONTENTFORMAT_END
171
     1
301
MARGIN
  1
CELLMARGIN_BEGIN
 40
0.06
 40
0.06
 40
0.06
 40
0.06
 40
0.18
 40
0.18
309
CELLMARGIN_END
 94
        6
 95
        1
302
GRIDFORMAT
  1
GRIDFORMAT_BEGIN
 90
        0
 91
        1
 62
     0
 92
       -2
340
0
 93
        0
 40
0.045
309
GRIDFORMAT_END
 95
        2
302
GRIDFORMAT
  1
GRIDFORMAT_BEGIN
 90
        0
 91
        1
 62
     0
 92
       -2
340
0
 93
        0
 40
0.045
309
GRIDFORMAT_END
 95
        4
302
GRIDFORMAT
  1
GRIDFORMAT_BEGIN
 90
        0
 91
        1
 62
     0
 92
       -2
340
0
 93
        0
 40
0.045
309
GRIDFORMAT_END
 95
        8
302
GRIDFORMAT
  1
GRIDFORMAT_BEGIN
 90
        0
 91
        1
 62
     0
 92
       -2
340
0
 93
        0
 40
0.045
309
GRIDFORMAT_END
 95
       16
302
GRIDFORMAT
  1
GRIDFORMAT_BEGIN
 90
        0
 91
        1
 62
     0
 92
       -2
340
0
 93
        0
 40
0.045
309
GRIDFORMAT_END
 95
       32
302
GRIDFORMAT
  1
GRIDFORMAT_BEGIN
 90
        0
 91
        1
 62
     0
 92
       -2
340
0
 93
        0
 40
0.045
309
GRIDFORMAT_END
309
TABLEFORMAT_END
  1
CELLSTYLE_BEGIN
 90
        1
 91
        1
300
_TITLE
309
CELLSTYLE_END
300
CELLSTYLE
  1
TABLEFORMAT_BEGIN
 90
        5
170
     1
 91
        0
 92
        0
 62
   257
 93
        1
300
CONTENTFORMAT
  1
CONTENTFORMAT_BEGIN
 90
        0
 91
        0
 92
      512
 93
        0
300

 40
0.0
140
1.0
 94
        5
 62
     0
340
11
144
0.18
309
CONTENTFORMAT_END
171
     1
301
MARGIN
  1
CELLMARGIN_BEGIN
 40
0.06
 40
0.06
 40
0.06
 40
0.06
 40
0.18
 40
0.18
309
CELLMARGIN_END
 94
        6
 95
        1
302
GRIDFORMAT
  1
GRIDFORMAT_BEGIN
 90
        0
 91
        1
 62
     0
 92
       -2
340
0
 93
        0
 40
0.045
309
GRIDFORMAT_END
 95
        2
302
GRIDFORMAT
  1
GRIDFORMAT_BEGIN
 90
        0
 91
        1
 62
     0
 92
       -2
340
0
 93
        0
 40
0.045
309
GRIDFORMAT_END
 95
        4
302
GRIDFORMAT
  1
GRIDFORMAT_BEGIN
 90
        0
 91
        1
 62
     0
 92
       -2
340
0
 93
        0
 40
0.045
309
GRIDFORMAT_END
 95
        8
302
GRIDFORMAT
  1
GRIDFORMAT_BEGIN
 90
        0
 91
        1
 62
     0
 92
       -2
340
0
 93
        0
 40
0.045
309
GRIDFORMAT_END
 95
       16
302
GRIDFORMAT
  1
GRIDFORMAT_BEGIN
 90
        0
 91
        1
 62
     0
 92
       -2
340
0
 93
        0
 40
0.045
309
GRIDFORMAT_END
 95
       32
302
GRIDFORMAT
  1
GRIDFORMAT_BEGIN
 90
        0
 91
        1
 62
     0
 92
       -2
340
0
 93
        0
 40
0.045
309
GRIDFORMAT_END
309
TABLEFORMAT_END
  1
CELLSTYLE_BEGIN
 90
        2
 91
        1
300
_HEADER
309
CELLSTYLE_END
300
CELLSTYLE
  1
TABLEFORMAT_BEGIN
 90
        5
170
     1
 91
        0
 92
        0
 62
   257
 93
        1
300
CONTENTFORMAT
  1
CONTENTFORMAT_BEGIN
 90
        0
 91
        0
 92
      512
 93
        0
300

 40
0.0
140
1.0
 94
        2
 62
     0
340
11
144
0.18
309
CONTENTFORMAT_END
171
     1
301
MARGIN
  1
CELLMARGIN_BEGIN
 40
0.06
 40
0.06
 40
0.06
 40
0.06
 40
0.18
 40
0.18
309
CELLMARGIN_END
 94
        6
 95
        1
302
GRIDFORMAT
  1
GRIDFORMAT_BEGIN
 90
        0
 91
        1
 62
     0
 92
       -2
340
0
 93
        0
 40
0.045
309
GRIDFORMAT_END
 95
        2
302
GRIDFORMAT
  1
GRIDFORMAT_BEGIN
 90
        0
 91
        1
 62
     0
 92
       -2
340
0
 93
        0
 40
0.045
309
GRIDFORMAT_END
 95
        4
302
GRIDFORMAT
  1
GRIDFORMAT_BEGIN
 90
        0
 91
        1
 62
     0
 92
       -2
340
0
 93
        0
 40
0.045
309
GRIDFORMAT_END
 95
        8
302
GRIDFORMAT
  1
GRIDFORMAT_BEGIN
 90
        0
 91
        1
 62
     0
 92
       -2
340
0
 93
        0
 40
0.045
309
GRIDFORMAT_END
 95
       16
302
GRIDFORMAT
  1
GRIDFORMAT_BEGIN
 90
        0
 91
        1
 62
     0
 92
       -2
340
0
 93
        0
 40
0.045
309
GRIDFORMAT_END
 95
       32
302
GRIDFORMAT
  1
GRIDFORMAT_BEGIN
 90
        0
 91
        1
 62
     0
 92
       -2
340
0
 93
        0
 40
0.045
309
GRIDFORMAT_END
309
TABLEFORMAT_END
  1
CELLSTYLE_BEGIN
 90
        3
 91
        2
300
_DATA
309
CELLSTYLE_END
  0
XRECORD
  5
1E68
102
{ACAD_REACTORS
330
887
102
}
330
887
100
AcDbXrecord
280
     1
102
ACAD_ROUNDTRIP_PRE2007_TABLESTYLE
 90
      512
 91
        0
  1

 92
      512
 93
        0
  2

 94
      512
 95
        0
  3

  0
XRECORD
  5
1E74
102
{ACAD_REACTORS
330
1E73
102
}
330
1E73
100
AcDbXrecord
280
     1
102
RTVSPropertyOp0
 70
     1
102
RTVSPropertyOp1
 70
     1
102
RTVSPropertyOp2
 70
     1
102
RTVSPropertyOp3
 70
     1
102
RTVSPropertyOp4
 70
     1
102
RTVSPropertyOp5
 70
     1
102
RTVSPropertyOp6
 70
     1
102
RTVSPropertyOp7
 70
     1
102
RTVSPropertyOp8
 70
     1
102
RTVSPropertyOp9
 70
     1
102
RTVSPropertyOp10
 70
     1
102
RTVSPropertyOp11
 70
     1
102
RTVSPropertyOp12
 70
     1
102
RTVSPropertyOp13
 70
     1
102
RTVSPropertyOp14
 70
     1
102
RTVSPropertyOp15
 70
     1
102
RTVSPropertyOp16
 70
     1
102
RTVSPropertyOp17
 70
     1
102
RTVSPropertyOp18
 70
     1
102
RTVSPropertyOp19
 70
     1
102
RTVSPropertyOp20
 70
     1
102
RTVSPropertyOp21
 70
     1
102
RTVSPropertyOp22
 70
     1
102
RTVSPropertyOp23
 70
     1
102
RTVSPropertyOp24
 70
     1
102
RTVSPropertyOp25
 70
     1
102
RTVSPropertyOp26
 70
     1
102
RTVSPropertyOp27
 70
     1
102
RTVSPropertyOp28
 70
     1
102
RTVSPropertyOp29
 70
     1
102
RTVSPropertyOp30
 70
     1
102
RTVSPropertyOp31
 70
     1
102
RTVSPropertyOp32
 70
     1
  0
XRECORD
  5
1E78
102
{ACAD_REACTORS
330
1E77
102
}
330
1E77
100
AcDbXrecord
280
     1
102
RTVSPropertyOp0
 70
     1
102
RTVSPropertyOp1
 70
     1
102
RTVSPropertyOp2
 70
     1
102
RTVSPropertyOp3
 70
     1
102
RTVSPropertyOp4
 70
     1
102
RTVSPropertyOp5
 70
     1
102
RTVSPropertyOp6
 70
     1
102
RTVSPropertyOp7
 70
     1
102
RTVSPropertyOp8
 70
     1
102
RTVSPropertyOp9
 70
     1
102
RTVSPropertyOp10
 70
     1
102
RTVSPropertyOp11
 70
     1
102
RTVSPropertyOp12
 70
     1
102
RTVSPropertyOp13
 70
     1
102
RTVSPropertyOp14
 70
     1
102
RTVSPropertyOp15
 70
     1
102
RTVSPropertyOp16
 70
     1
102
RTVSPropertyOp17
 70
     1
102
RTVSPropertyOp18
 70
     1
102
RTVSPropertyOp19
 70
     1
102
RTVSPropertyOp20
 70
     1
102
RTVSPropertyOp21
 70
     1
102
RTVSPropertyOp22
 70
     1
102
RTVSPropertyOp23
 70
     1
102
RTVSPropertyOp24
 70
     1
102
RTVSPropertyOp25
 70
     1
102
RTVSPropertyOp26
 70
     1
102
RTVSPropertyOp27
 70
     1
102
RTVSPropertyOp28
 70
     1
102
RTVSPropertyOp29
 70
     1
102
RTVSPropertyOp30
 70
     1
102
RTVSPropertyOp31
 70
     1
102
RTVSPropertyOp32
 70
     1
  0
XRECORD
  5
1E76
102
{ACAD_REACTORS
330
1E75
102
}
330
1E75
100
AcDbXrecord
280
     1
102
RTVSPropertyOp0
 70
     1
102
RTVSPropertyOp1
 70
     1
102
RTVSPropertyOp2
 70
     1
102
RTVSPropertyOp3
 70
     1
102
RTVSPropertyOp4
 70
     1
102
RTVSPropertyOp5
 70
     1
102
RTVSPropertyOp6
 70
     1
102
RTVSPropertyOp7
 70
     1
102
RTVSPropertyOp8
 70
     1
102
RTVSPropertyOp9
 70
     1
102
RTVSPropertyOp10
 70
     1
102
RTVSPropertyOp11
 70
     1
102
RTVSPropertyOp12
 70
     1
102
RTVSPropertyOp13
 70
     1
102
RTVSPropertyOp14
 70
     1
102
RTVSPropertyOp15
 70
     1
102
RTVSPropertyOp16
 70
     1
102
RTVSPropertyOp17
 70
     1
102
RTVSPropertyOp18
 70
     1
102
RTVSPropertyOp19
 70
     1
102
RTVSPropertyOp20
 70
     1
102
RTVSPropertyOp21
 70
     1
102
RTVSPropertyOp22
 70
     1
102
RTVSPropertyOp23
 70
     1
102
RTVSPropertyOp24
 70
     1
102
RTVSPropertyOp25
 70
     1
102
RTVSPropertyOp26
 70
     1
102
RTVSPropertyOp27
 70
     1
102
RTVSPropertyOp28
 70
     1
102
RTVSPropertyOp29
 70
     1
102
RTVSPropertyOp30
 70
     1
102
RTVSPropertyOp31
 70
     1
102
RTVSPropertyOp32
 70
     1
  0
XRECORD
  5
1E72
102
{ACAD_REACTORS
330
1E71
102
}
330
1E71
100
AcDbXrecord
280
     1
102
RTVSPropertyOp0
 70
     1
102
RTVSPropertyOp1
 70
     1
102
RTVSPropertyOp2
 70
     1
102
RTVSPropertyOp3
 70
     1
102
RTVSPropertyOp4
 70
     1
102
RTVSPropertyOp5
 70
     1
102
RTVSPropertyOp6
 70
     1
102
RTVSPropertyOp7
 70
     1
102
RTVSPropertyOp8
 70
     1
102
RTVSPropertyOp9
 70
     1
102
RTVSPropertyOp10
 70
     1
102
RTVSPropertyOp11
 70
     1
102
RTVSPropertyOp12
 70
     1
102
RTVSPropertyOp13
 70
     1
102
RTVSPropertyOp14
 70
     1
102
RTVSPropertyOp15
 70
     1
102
RTVSPropertyOp16
 70
     1
102
RTVSPropertyOp17
 70
     1
102
RTVSPropertyOp18
 70
     1
102
RTVSPropertyOp19
 70
     1
102
RTVSPropertyOp20
 70
     1
102
RTVSPropertyOp21
 70
     1
102
RTVSPropertyOp22
 70
     1
102
RTVSPropertyOp23
 70
     1
102
RTVSPropertyOp24
 70
     1
102
RTVSPropertyOp25
 70
     1
102
RTVSPropertyOp26
 70
     1
102
RTVSPropertyOp27
 70
     1
102
RTVSPropertyOp28
 70
     1
102
RTVSPropertyOp29
 70
     1
102
RTVSPropertyOp30
 70
     1
102
RTVSPropertyOp31
 70
     1
102
RTVSPropertyOp32
 70
     1
  0
XRECORD
  5
1E80
102
{ACAD_REACTORS
330
1E7F
102
}
330
1E7F
100
AcDbXrecord
280
     1
102
RTVSPropertyOp0
 70
     1
102
RTVSPropertyOp1
 70
     1
102
RTVSPropertyOp2
 70
     1
102
RTVSPropertyOp3
 70
     1
102
RTVSPropertyOp4
 70
     1
102
RTVSPropertyOp5
 70
     1
102
RTVSPropertyOp6
 70
     1
102
RTVSPropertyOp7
 70
     1
102
RTVSPropertyOp8
 70
     1
102
RTVSPropertyOp9
 70
     1
102
RTVSPropertyOp10
 70
     1
102
RTVSPropertyOp11
 70
     1
102
RTVSPropertyOp12
 70
     1
102
RTVSPropertyOp13
 70
     1
102
RTVSPropertyOp14
 70
     1
102
RTVSPropertyOp15
 70
     1
102
RTVSPropertyOp16
 70
     1
102
RTVSPropertyOp17
 70
     1
102
RTVSPropertyOp18
 70
     1
102
RTVSPropertyOp19
 70
     1
102
RTVSPropertyOp20
 70
     1
102
RTVSPropertyOp21
 70
     1
102
RTVSPropertyOp22
 70
     1
102
RTVSPropertyOp23
 70
     1
102
RTVSPropertyOp24
 70
     1
102
RTVSPropertyOp25
 70
     1
102
RTVSPropertyOp26
 70
     1
102
RTVSPropertyOp27
 70
     1
102
RTVSPropertyOp28
 70
     1
102
RTVSPropertyOp29
 70
     1
102
RTVSPropertyOp30
 70
     1
102
RTVSPropertyOp31
 70
     1
102
RTVSPropertyOp32
 70
     1
  0
XRECORD
  5
1E88
102
{ACAD_REACTORS
330
1E87
102
}
330
1E87
100
AcDbXrecord
280
     1
102
RTVSPropertyOp0
 70
     1
102
RTVSPropertyOp1
 70
     1
102
RTVSPropertyOp2
 70
     1
102
RTVSPropertyOp3
 70
     1
102
RTVSPropertyOp4
 70
     1
102
RTVSPropertyOp5
 70
     1
102
RTVSPropertyOp6
 70
     1
102
RTVSPropertyOp7
 70
     1
102
RTVSPropertyOp8
 70
     1
102
RTVSPropertyOp9
 70
     1
102
RTVSPropertyOp10
 70
     1
102
RTVSPropertyOp11
 70
     1
102
RTVSPropertyOp12
 70
     1
102
RTVSPropertyOp13
 70
     1
102
RTVSPropertyOp14
 70
     1
102
RTVSPropertyOp15
 70
     1
102
RTVSPropertyOp16
 70
     1
102
RTVSPropertyOp17
 70
     1
102
RTVSPropertyOp18
 70
     1
102
RTVSPropertyOp19
 70
     1
102
RTVSPropertyOp20
 70
     1
102
RTVSPropertyOp21
 70
     1
102
RTVSPropertyOp22
 70
     1
102
RTVSPropertyOp23
 70
     1
102
RTVSPropertyOp24
 70
     1
102
RTVSPropertyOp25
 70
     1
102
RTVSPropertyOp26
 70
     1
102
RTVSPropertyOp27
 70
     1
102
RTVSPropertyOp28
 70
     1
102
RTVSPropertyOp29
 70
     1
102
RTVSPropertyOp30
 70
     1
102
RTVSPropertyOp31
 70
     1
102
RTVSPropertyOp32
 70
     1
  0
XRECORD
  5
1E7A
102
{ACAD_REACTORS
330
1E79
102
}
330
1E79
100
AcDbXrecord
280
     1
102
RTVSPropertyOp0
 70
     1
102
RTVSPropertyOp1
 70
     1
102
RTVSPropertyOp2
 70
     1
102
RTVSPropertyOp3
 70
     1
102
RTVSPropertyOp4
 70
     1
102
RTVSPropertyOp5
 70
     1
102
RTVSPropertyOp6
 70
     1
102
RTVSPropertyOp7
 70
     1
102
RTVSPropertyOp8
 70
     1
102
RTVSPropertyOp9
 70
     1
102
RTVSPropertyOp10
 70
     1
102
RTVSPropertyOp11
 70
     1
102
RTVSPropertyOp12
 70
     1
102
RTVSPropertyOp13
 70
     1
102
RTVSPropertyOp14
 70
     1
102
RTVSPropertyOp15
 70
     1
102
RTVSPropertyOp16
 70
     1
102
RTVSPropertyOp17
 70
     1
102
RTVSPropertyOp18
 70
     1
102
RTVSPropertyOp19
 70
     1
102
RTVSPropertyOp20
 70
     1
102
RTVSPropertyOp21
 70
     1
102
RTVSPropertyOp22
 70
     1
102
RTVSPropertyOp23
 70
     1
102
RTVSPropertyOp24
 70
     1
102
RTVSPropertyOp25
 70
     1
102
RTVSPropertyOp26
 70
     1
102
RTVSPropertyOp27
 70
     1
102
RTVSPropertyOp28
 70
     1
102
RTVSPropertyOp29
 70
     1
102
RTVSPropertyOp30
 70
     1
102
RTVSPropertyOp31
 70
     1
102
RTVSPropertyOp32
 70
     1
  0
XRECORD
  5
1E7E
102
{ACAD_REACTORS
330
1E7D
102
}
330
1E7D
100
AcDbXrecord
280
     1
102
RTVSPropertyOp0
 70
     1
102
RTVSPropertyOp1
 70
     1
102
RTVSPropertyOp2
 70
     1
102
RTVSPropertyOp3
 70
     1
102
RTVSPropertyOp4
 70
     1
102
RTVSPropertyOp5
 70
     1
102
RTVSPropertyOp6
 70
     1
102
RTVSPropertyOp7
 70
     1
102
RTVSPropertyOp8
 70
     1
102
RTVSPropertyOp9
 70
     1
102
RTVSPropertyOp10
 70
     1
102
RTVSPropertyOp11
 70
     1
102
RTVSPropertyOp12
 70
     1
102
RTVSPropertyOp13
 70
     1
102
RTVSPropertyOp14
 70
     1
102
RTVSPropertyOp15
 70
     1
102
RTVSPropertyOp16
 70
     1
102
RTVSPropertyOp17
 70
     1
102
RTVSPropertyOp18
 70
     1
102
RTVSPropertyOp19
 70
     1
102
RTVSPropertyOp20
 70
     1
102
RTVSPropertyOp21
 70
     1
102
RTVSPropertyOp22
 70
     1
102
RTVSPropertyOp23
 70
     1
102
RTVSPropertyOp24
 70
     1
102
RTVSPropertyOp25
 70
     1
102
RTVSPropertyOp26
 70
     1
102
RTVSPropertyOp27
 70
     1
102
RTVSPropertyOp28
 70
     1
102
RTVSPropertyOp29
 70
     1
102
RTVSPropertyOp30
 70
     1
102
RTVSPropertyOp31
 70
     1
102
RTVSPropertyOp32
 70
     1
  0
XRECORD
  5
1E9C
102
{ACAD_REACTORS
330
1E9B
102
}
330
1E9B
100
AcDbXrecord
280
     1
102
RTVSPropertyOp0
 70
     0
102
RTVSPropertyOp1
 70
     0
102
RTVSPropertyOp2
 70
     0
102
RTVSPropertyOp3
 70
     0
102
RTVSPropertyOp4
 70
     0
102
RTVSPropertyOp5
 70
     0
102
RTVSPropertyOp6
 70
     0
102
RTVSPropertyOp7
 70
     0
102
RTVSPropertyOp8
 70
     0
102
RTVSPropertyOp9
 70
     0
102
RTVSPropertyOp10
 70
     0
102
RTVSPropertyOp11
 70
     0
102
RTVSPropertyOp12
 70
     0
102
RTVSPropertyOp13
 70
     0
102
RTVSPropertyOp14
 70
     2
102
RTVSPropertyOp15
 70
     0
102
RTVSPropertyOp16
 70
     0
102
RTVSPropertyOp17
 70
     0
102
RTVSPropertyOp18
 70
     0
102
RTVSPropertyOp19
 70
     0
102
RTVSPropertyOp20
 70
     0
102
RTVSPropertyOp21
 70
     0
102
RTVSPropertyOp22
 70
     0
102
RTVSPropertyOp23
 70
     0
102
RTVSPropertyOp24
 70
     0
102
RTVSPropertyOp25
 70
     0
102
RTVSPropertyOp26
 70
     0
102
RTVSPropertyOp27
 70
     0
102
RTVSPropertyOp28
 70
     1
102
RTVSPropertyOp29
 70
     1
102
RTVSPropertyOp30
 70
     1
102
RTVSPropertyOp31
 70
     1
102
RTVSPropertyOp32
 70
     1
  0
XRECORD
  5
1E86
102
{ACAD_REACTORS
330
1E85
102
}
330
1E85
100
AcDbXrecord
280
     1
102
RTVSPropertyOp0
 70
     1
102
RTVSPropertyOp1
 70
     1
102
RTVSPropertyOp2
 70
     1
102
RTVSPropertyOp3
 70
     1
102
RTVSPropertyOp4
 70
     1
102
RTVSPropertyOp5
 70
     1
102
RTVSPropertyOp6
 70
     1
102
RTVSPropertyOp7
 70
     1
102
RTVSPropertyOp8
 70
     1
102
RTVSPropertyOp9
 70
     1
102
RTVSPropertyOp10
 70
     1
102
RTVSPropertyOp11
 70
     1
102
RTVSPropertyOp12
 70
     1
102
RTVSPropertyOp13
 70
     1
102
RTVSPropertyOp14
 70
     1
102
RTVSPropertyOp15
 70
     1
102
RTVSPropertyOp16
 70
     1
102
RTVSPropertyOp17
 70
     1
102
RTVSPropertyOp18
 70
     1
102
RTVSPropertyOp19
 70
     1
102
RTVSPropertyOp20
 70
     1
102
RTVSPropertyOp21
 70
     1
102
RTVSPropertyOp22
 70
     1
102
RTVSPropertyOp23
 70
     1
102
RTVSPropertyOp24
 70
     1
102
RTVSPropertyOp25
 70
     1
102
RTVSPropertyOp26
 70
     1
102
RTVSPropertyOp27
 70
     1
102
RTVSPropertyOp28
 70
     1
102
RTVSPropertyOp29
 70
     1
102
RTVSPropertyOp30
 70
     1
102
RTVSPropertyOp31
 70
     1
102
RTVSPropertyOp32
 70
     1
  0
XRECORD
  5
1E6A
102
{ACAD_REACTORS
330
1E69
102
}
330
1E69
100
AcDbXrecord
280
     1
102
RTVSPropertyOp0
 70
     1
102
RTVSPropertyOp1
 70
     1
102
RTVSPropertyOp2
 70
     1
102
RTVSPropertyOp3
 70
     1
102
RTVSPropertyOp4
 70
     1
102
RTVSPropertyOp5
 70
     1
102
RTVSPropertyOp6
 70
     1
102
RTVSPropertyOp7
 70
     1
102
RTVSPropertyOp8
 70
     1
102
RTVSPropertyOp9
 70
     1
102
RTVSPropertyOp10
 70
     1
102
RTVSPropertyOp11
 70
     1
102
RTVSPropertyOp12
 70
     1
102
RTVSPropertyOp13
 70
     1
102
RTVSPropertyOp14
 70
     1
102
RTVSPropertyOp15
 70
     1
102
RTVSPropertyOp16
 70
     1
102
RTVSPropertyOp17
 70
     1
102
RTVSPropertyOp18
 70
     1
102
RTVSPropertyOp19
 70
     1
102
RTVSPropertyOp20
 70
     1
102
RTVSPropertyOp21
 70
     1
102
RTVSPropertyOp22
 70
     1
102
RTVSPropertyOp23
 70
     1
102
RTVSPropertyOp24
 70
     1
102
RTVSPropertyOp25
 70
     1
102
RTVSPropertyOp26
 70
     1
102
RTVSPropertyOp27
 70
     1
102
RTVSPropertyOp28
 70
     1
102
RTVSPropertyOp29
 70
     1
102
RTVSPropertyOp30
 70
     1
102
RTVSPropertyOp31
 70
     1
102
RTVSPropertyOp32
 70
     1
  0
XRECORD
  5
1E6C
102
{ACAD_REACTORS
330
1E6B
102
}
330
1E6B
100
AcDbXrecord
280
     1
102
RTVSPropertyOp0
 70
     1
102
RTVSPropertyOp1
 70
     1
102
RTVSPropertyOp2
 70
     1
102
RTVSPropertyOp3
 70
     1
102
RTVSPropertyOp4
 70
     1
102
RTVSPropertyOp5
 70
     1
102
RTVSPropertyOp6
 70
     1
102
RTVSPropertyOp7
 70
     1
102
RTVSPropertyOp8
 70
     1
102
RTVSPropertyOp9
 70
     1
102
RTVSPropertyOp10
 70
     1
102
RTVSPropertyOp11
 70
     1
102
RTVSPropertyOp12
 70
     1
102
RTVSPropertyOp13
 70
     1
102
RTVSPropertyOp14
 70
     1
102
RTVSPropertyOp15
 70
     1
102
RTVSPropertyOp16
 70
     1
102
RTVSPropertyOp17
 70
     1
102
RTVSPropertyOp18
 70
     1
102
RTVSPropertyOp19
 70
     1
102
RTVSPropertyOp20
 70
     1
102
RTVSPropertyOp21
 70
     1
102
RTVSPropertyOp22
 70
     1
102
RTVSPropertyOp23
 70
     1
102
RTVSPropertyOp24
 70
     1
102
RTVSPropertyOp25
 70
     1
102
RTVSPropertyOp26
 70
     1
102
RTVSPropertyOp27
 70
     1
102
RTVSPropertyOp28
 70
     1
102
RTVSPropertyOp29
 70
     1
102
RTVSPropertyOp30
 70
     1
102
RTVSPropertyOp31
 70
     1
102
RTVSPropertyOp32
 70
     1
  0
XRECORD
  5
1E6E
102
{ACAD_REACTORS
330
1E6D
102
}
330
1E6D
100
AcDbXrecord
280
     1
102
RTVSPropertyOp0
 70
     1
102
RTVSPropertyOp1
 70
     1
102
RTVSPropertyOp2
 70
     1
102
RTVSPropertyOp3
 70
     1
102
RTVSPropertyOp4
 70
     1
102
RTVSPropertyOp5
 70
     1
102
RTVSPropertyOp6
 70
     1
102
RTVSPropertyOp7
 70
     1
102
RTVSPropertyOp8
 70
     1
102
RTVSPropertyOp9
 70
     1
102
RTVSPropertyOp10
 70
     1
102
RTVSPropertyOp11
 70
     1
102
RTVSPropertyOp12
 70
     1
102
RTVSPropertyOp13
 70
     1
102
RTVSPropertyOp14
 70
     1
102
RTVSPropertyOp15
 70
     1
102
RTVSPropertyOp16
 70
     1
102
RTVSPropertyOp17
 70
     1
102
RTVSPropertyOp18
 70
     1
102
RTVSPropertyOp19
 70
     1
102
RTVSPropertyOp20
 70
     1
102
RTVSPropertyOp21
 70
     1
102
RTVSPropertyOp22
 70
     1
102
RTVSPropertyOp23
 70
     1
102
RTVSPropertyOp24
 70
     1
102
RTVSPropertyOp25
 70
     1
102
RTVSPropertyOp26
 70
     1
102
RTVSPropertyOp27
 70
     1
102
RTVSPropertyOp28
 70
     1
102
RTVSPropertyOp29
 70
     1
102
RTVSPropertyOp30
 70
     1
102
RTVSPropertyOp31
 70
     1
102
RTVSPropertyOp32
 70
     1
  0
XRECORD
  5
1E70
102
{ACAD_REACTORS
330
1E6F
102
}
330
1E6F
100
AcDbXrecord
280
     1
102
RTVSPropertyOp0
 70
     1
102
RTVSPropertyOp1
 70
     1
102
RTVSPropertyOp2
 70
     1
102
RTVSPropertyOp3
 70
     1
102
RTVSPropertyOp4
 70
     1
102
RTVSPropertyOp5
 70
     1
102
RTVSPropertyOp6
 70
     1
102
RTVSPropertyOp7
 70
     1
102
RTVSPropertyOp8
 70
     1
102
RTVSPropertyOp9
 70
     1
102
RTVSPropertyOp10
 70
     1
102
RTVSPropertyOp11
 70
     1
102
RTVSPropertyOp12
 70
     1
102
RTVSPropertyOp13
 70
     1
102
RTVSPropertyOp14
 70
     1
102
RTVSPropertyOp15
 70
     1
102
RTVSPropertyOp16
 70
     1
102
RTVSPropertyOp17
 70
     1
102
RTVSPropertyOp18
 70
     1
102
RTVSPropertyOp19
 70
     1
102
RTVSPropertyOp20
 70
     1
102
RTVSPropertyOp21
 70
     1
102
RTVSPropertyOp22
 70
     1
102
RTVSPropertyOp23
 70
     1
102
RTVSPropertyOp24
 70
     1
102
RTVSPropertyOp25
 70
     1
102
RTVSPropertyOp26
 70
     1
102
RTVSPropertyOp27
 70
     1
102
RTVSPropertyOp28
 70
     1
102
RTVSPropertyOp29
 70
     1
102
RTVSPropertyOp30
 70
     1
102
RTVSPropertyOp31
 70
     1
102
RTVSPropertyOp32
 70
     1
  0
XRECORD
  5
1E8C
102
{ACAD_REACTORS
330
1E8B
102
}
330
1E8B
100
AcDbXrecord
280
     1
102
RTVSPropertyOp0
 70
     1
102
RTVSPropertyOp1
 70
     1
102
RTVSPropertyOp2
 70
     1
102
RTVSPropertyOp3
 70
     1
102
RTVSPropertyOp4
 70
     1
102
RTVSPropertyOp5
 70
     1
102
RTVSPropertyOp6
 70
     1
102
RTVSPropertyOp7
 70
     1
102
RTVSPropertyOp8
 70
     1
102
RTVSPropertyOp9
 70
     1
102
RTVSPropertyOp10
 70
     1
102
RTVSPropertyOp11
 70
     1
102
RTVSPropertyOp12
 70
     1
102
RTVSPropertyOp13
 70
     1
102
RTVSPropertyOp14
 70
     1
102
RTVSPropertyOp15
 70
     1
102
RTVSPropertyOp16
 70
     1
102
RTVSPropertyOp17
 70
     1
102
RTVSPropertyOp18
 70
     1
102
RTVSPropertyOp19
 70
     1
102
RTVSPropertyOp20
 70
     1
102
RTVSPropertyOp21
 70
     1
102
RTVSPropertyOp22
 70
     1
102
RTVSPropertyOp23
 70
     1
102
RTVSPropertyOp24
 70
     1
102
RTVSPropertyOp25
 70
     1
102
RTVSPropertyOp26
 70
     1
102
RTVSPropertyOp27
 70
     1
102
RTVSPropertyOp28
 70
     1
102
RTVSPropertyOp29
 70
     1
102
RTVSPropertyOp30
 70
     1
102
RTVSPropertyOp31
 70
     1
102
RTVSPropertyOp32
 70
     1
  0
XRECORD
  5
1E98
102
{ACAD_REACTORS
330
1E97
102
}
330
1E97
100
AcDbXrecord
280
     1
102
RTVSPropertyOp0
 70
     0
102
RTVSPropertyOp1
 70
     0
102
RTVSPropertyOp2
 70
     0
102
RTVSPropertyOp3
 70
     0
102
RTVSPropertyOp4
 70
     0
102
RTVSPropertyOp5
 70
     0
102
RTVSPropertyOp6
 70
     0
102
RTVSPropertyOp7
 70
     0
102
RTVSPropertyOp8
 70
     0
102
RTVSPropertyOp9
 70
     0
102
RTVSPropertyOp10
 70
     0
102
RTVSPropertyOp11
 70
     0
102
RTVSPropertyOp12
 70
     0
102
RTVSPropertyOp13
 70
     0
102
RTVSPropertyOp14
 70
     2
102
RTVSPropertyOp15
 70
     0
102
RTVSPropertyOp16
 70
     0
102
RTVSPropertyOp17
 70
     0
102
RTVSPropertyOp18
 70
     0
102
RTVSPropertyOp19
 70
     0
102
RTVSPropertyOp20
 70
     0
102
RTVSPropertyOp21
 70
     0
102
RTVSPropertyOp22
 70
     0
102
RTVSPropertyOp23
 70
     0
102
RTVSPropertyOp24
 70
     0
102
RTVSPropertyOp25
 70
     0
102
RTVSPropertyOp26
 70
     0
102
RTVSPropertyOp27
 70
     0
102
RTVSPropertyOp28
 70
     1
102
RTVSPropertyOp29
 70
     1
102
RTVSPropertyOp30
 70
     1
102
RTVSPropertyOp31
 70
     1
102
RTVSPropertyOp32
 70
     1
  0
XRECORD
  5
1E84
102
{ACAD_REACTORS
330
1E83
102
}
330
1E83
100
AcDbXrecord
280
     1
102
RTVSPropertyOp0
 70
     1
102
RTVSPropertyOp1
 70
     1
102
RTVSPropertyOp2
 70
     1
102
RTVSPropertyOp3
 70
     1
102
RTVSPropertyOp4
 70
     1
102
RTVSPropertyOp5
 70
     1
102
RTVSPropertyOp6
 70
     1
102
RTVSPropertyOp7
 70
     1
102
RTVSPropertyOp8
 70
     1
102
RTVSPropertyOp9
 70
     1
102
RTVSPropertyOp10
 70
     1
102
RTVSPropertyOp11
 70
     1
102
RTVSPropertyOp12
 70
     1
102
RTVSPropertyOp13
 70
     1
102
RTVSPropertyOp14
 70
     1
102
RTVSPropertyOp15
 70
     1
102
RTVSPropertyOp16
 70
     1
102
RTVSPropertyOp17
 70
     1
102
RTVSPropertyOp18
 70
     1
102
RTVSPropertyOp19
 70
     1
102
RTVSPropertyOp20
 70
     1
102
RTVSPropertyOp21
 70
     1
102
RTVSPropertyOp22
 70
     1
102
RTVSPropertyOp23
 70
     1
102
RTVSPropertyOp24
 70
     1
102
RTVSPropertyOp25
 70
     1
102
RTVSPropertyOp26
 70
     1
102
RTVSPropertyOp27
 70
     1
102
RTVSPropertyOp28
 70
     1
102
RTVSPropertyOp29
 70
     1
102
RTVSPropertyOp30
 70
     1
102
RTVSPropertyOp31
 70
     1
102
RTVSPropertyOp32
 70
     1
  0
XRECORD
  5
1E9A
102
{ACAD_REACTORS
330
1E99
102
}
330
1E99
100
AcDbXrecord
280
     1
102
RTVSPropertyOp0
 70
     0
102
RTVSPropertyOp1
 70
     0
102
RTVSPropertyOp2
 70
     0
102
RTVSPropertyOp3
 70
     0
102
RTVSPropertyOp4
 70
     0
102
RTVSPropertyOp5
 70
     0
102
RTVSPropertyOp6
 70
     0
102
RTVSPropertyOp7
 70
     0
102
RTVSPropertyOp8
 70
     0
102
RTVSPropertyOp9
 70
     0
102
RTVSPropertyOp10
 70
     0
102
RTVSPropertyOp11
 70
     0
102
RTVSPropertyOp12
 70
     0
102
RTVSPropertyOp13
 70
     0
102
RTVSPropertyOp14
 70
     2
102
RTVSPropertyOp15
 70
     0
102
RTVSPropertyOp16
 70
     0
102
RTVSPropertyOp17
 70
     0
102
RTVSPropertyOp18
 70
     0
102
RTVSPropertyOp19
 70
     0
102
RTVSPropertyOp20
 70
     0
102
RTVSPropertyOp21
 70
     0
102
RTVSPropertyOp22
 70
     0
102
RTVSPropertyOp23
 70
     0
102
RTVSPropertyOp24
 70
     0
102
RTVSPropertyOp25
 70
     0
102
RTVSPropertyOp26
 70
     0
102
RTVSPropertyOp27
 70
     0
102
RTVSPropertyOp28
 70
     1
102
RTVSPropertyOp29
 70
     1
102
RTVSPropertyOp30
 70
     1
102
RTVSPropertyOp31
 70
     1
102
RTVSPropertyOp32
 70
     1
  0
XRECORD
  5
1E7C
102
{ACAD_REACTORS
330
1E7B
102
}
330
1E7B
100
AcDbXrecord
280
     1
102
RTVSPropertyOp0
 70
     1
102
RTVSPropertyOp1
 70
     1
102
RTVSPropertyOp2
 70
     1
102
RTVSPropertyOp3
 70
     1
102
RTVSPropertyOp4
 70
     1
102
RTVSPropertyOp5
 70
     1
102
RTVSPropertyOp6
 70
     1
102
RTVSPropertyOp7
 70
     1
102
RTVSPropertyOp8
 70
     1
102
RTVSPropertyOp9
 70
     1
102
RTVSPropertyOp10
 70
     1
102
RTVSPropertyOp11
 70
     1
102
RTVSPropertyOp12
 70
     1
102
RTVSPropertyOp13
 70
     1
102
RTVSPropertyOp14
 70
     1
102
RTVSPropertyOp15
 70
     1
102
RTVSPropertyOp16
 70
     1
102
RTVSPropertyOp17
 70
     1
102
RTVSPropertyOp18
 70
     1
102
RTVSPropertyOp19
 70
     1
102
RTVSPropertyOp20
 70
     1
102
RTVSPropertyOp21
 70
     1
102
RTVSPropertyOp22
 70
     1
102
RTVSPropertyOp23
 70
     1
102
RTVSPropertyOp24
 70
     1
102
RTVSPropertyOp25
 70
     1
102
RTVSPropertyOp26
 70
     1
102
RTVSPropertyOp27
 70
     1
102
RTVSPropertyOp28
 70
     1
102
RTVSPropertyOp29
 70
     1
102
RTVSPropertyOp30
 70
     1
102
RTVSPropertyOp31
 70
     1
102
RTVSPropertyOp32
 70
     1
  0
XRECORD
  5
1E96
102
{ACAD_REACTORS
330
1E95
102
}
330
1E95
100
AcDbXrecord
280
     1
102
RTVSPropertyOp0
 70
     1
102
RTVSPropertyOp1
 70
     1
102
RTVSPropertyOp2
 70
     1
102
RTVSPropertyOp3
 70
     1
102
RTVSPropertyOp4
 70
     1
102
RTVSPropertyOp5
 70
     1
102
RTVSPropertyOp6
 70
     1
102
RTVSPropertyOp7
 70
     1
102
RTVSPropertyOp8
 70
     1
102
RTVSPropertyOp9
 70
     1
102
RTVSPropertyOp10
 70
     1
102
RTVSPropertyOp11
 70
     1
102
RTVSPropertyOp12
 70
     1
102
RTVSPropertyOp13
 70
     1
102
RTVSPropertyOp14
 70
     1
102
RTVSPropertyOp15
 70
     1
102
RTVSPropertyOp16
 70
     1
102
RTVSPropertyOp17
 70
     1
102
RTVSPropertyOp18
 70
     1
102
RTVSPropertyOp19
 70
     1
102
RTVSPropertyOp20
 70
     1
102
RTVSPropertyOp21
 70
     1
102
RTVSPropertyOp22
 70
     1
102
RTVSPropertyOp23
 70
     1
102
RTVSPropertyOp24
 70
     1
102
RTVSPropertyOp25
 70
     1
102
RTVSPropertyOp26
 70
     1
102
RTVSPropertyOp27
 70
     1
102
RTVSPropertyOp28
 70
     1
102
RTVSPropertyOp29
 70
     1
102
RTVSPropertyOp30
 70
     1
102
RTVSPropertyOp31
 70
     1
102
RTVSPropertyOp32
 70
     1
  0
XRECORD
  5
1E94
102
{ACAD_REACTORS
330
1E93
102
}
330
1E93
100
AcDbXrecord
280
     1
102
RTVSPropertyOp0
 70
     1
102
RTVSPropertyOp1
 70
     1
102
RTVSPropertyOp2
 70
     1
102
RTVSPropertyOp3
 70
     1
102
RTVSPropertyOp4
 70
     1
102
RTVSPropertyOp5
 70
     1
102
RTVSPropertyOp6
 70
     1
102
RTVSPropertyOp7
 70
     1
102
RTVSPropertyOp8
 70
     1
102
RTVSPropertyOp9
 70
     1
102
RTVSPropertyOp10
 70
     1
102
RTVSPropertyOp11
 70
     1
102
RTVSPropertyOp12
 70
     1
102
RTVSPropertyOp13
 70
     1
102
RTVSPropertyOp14
 70
     1
102
RTVSPropertyOp15
 70
     1
102
RTVSPropertyOp16
 70
     1
102
RTVSPropertyOp17
 70
     1
102
RTVSPropertyOp18
 70
     1
102
RTVSPropertyOp19
 70
     1
102
RTVSPropertyOp20
 70
     1
102
RTVSPropertyOp21
 70
     1
102
RTVSPropertyOp22
 70
     1
102
RTVSPropertyOp23
 70
     1
102
RTVSPropertyOp24
 70
     1
102
RTVSPropertyOp25
 70
     1
102
RTVSPropertyOp26
 70
     1
102
RTVSPropertyOp27
 70
     1
102
RTVSPropertyOp28
 70
     1
102
RTVSPropertyOp29
 70
     1
102
RTVSPropertyOp30
 70
     1
102
RTVSPropertyOp31
 70
     1
102
RTVSPropertyOp32
 70
     1
  0
XRECORD
  5
1E8E
102
{ACAD_REACTORS
330
1E8D
102
}
330
1E8D
100
AcDbXrecord
280
     1
102
RTVSPropertyOp0
 70
     1
102
RTVSPropertyOp1
 70
     1
102
RTVSPropertyOp2
 70
     1
102
RTVSPropertyOp3
 70
     1
102
RTVSPropertyOp4
 70
     1
102
RTVSPropertyOp5
 70
     1
102
RTVSPropertyOp6
 70
     1
102
RTVSPropertyOp7
 70
     1
102
RTVSPropertyOp8
 70
     1
102
RTVSPropertyOp9
 70
     1
102
RTVSPropertyOp10
 70
     1
102
RTVSPropertyOp11
 70
     1
102
RTVSPropertyOp12
 70
     1
102
RTVSPropertyOp13
 70
     1
102
RTVSPropertyOp14
 70
     1
102
RTVSPropertyOp15
 70
     1
102
RTVSPropertyOp16
 70
     1
102
RTVSPropertyOp17
 70
     1
102
RTVSPropertyOp18
 70
     1
102
RTVSPropertyOp19
 70
     1
102
RTVSPropertyOp20
 70
     1
102
RTVSPropertyOp21
 70
     1
102
RTVSPropertyOp22
 70
     1
102
RTVSPropertyOp23
 70
     1
102
RTVSPropertyOp24
 70
     1
102
RTVSPropertyOp25
 70
     1
102
RTVSPropertyOp26
 70
     1
102
RTVSPropertyOp27
 70
     1
102
RTVSPropertyOp28
 70
     1
102
RTVSPropertyOp29
 70
     1
102
RTVSPropertyOp30
 70
     1
102
RTVSPropertyOp31
 70
     1
102
RTVSPropertyOp32
 70
     1
  0
XRECORD
  5
1E90
102
{ACAD_REACTORS
330
1E8F
102
}
330
1E8F
100
AcDbXrecord
280
     1
102
RTVSPropertyOp0
 70
     1
102
RTVSPropertyOp1
 70
     1
102
RTVSPropertyOp2
 70
     1
102
RTVSPropertyOp3
 70
     1
102
RTVSPropertyOp4
 70
     1
102
RTVSPropertyOp5
 70
     1
102
RTVSPropertyOp6
 70
     1
102
RTVSPropertyOp7
 70
     1
102
RTVSPropertyOp8
 70
     1
102
RTVSPropertyOp9
 70
     1
102
RTVSPropertyOp10
 70
     1
102
RTVSPropertyOp11
 70
     1
102
RTVSPropertyOp12
 70
     1
102
RTVSPropertyOp13
 70
     1
102
RTVSPropertyOp14
 70
     1
102
RTVSPropertyOp15
 70
     1
102
RTVSPropertyOp16
 70
     1
102
RTVSPropertyOp17
 70
     1
102
RTVSPropertyOp18
 70
     1
102
RTVSPropertyOp19
 70
     1
102
RTVSPropertyOp20
 70
     1
102
RTVSPropertyOp21
 70
     1
102
RTVSPropertyOp22
 70
     1
102
RTVSPropertyOp23
 70
     1
102
RTVSPropertyOp24
 70
     1
102
RTVSPropertyOp25
 70
     1
102
RTVSPropertyOp26
 70
     1
102
RTVSPropertyOp27
 70
     1
102
RTVSPropertyOp28
 70
     1
102
RTVSPropertyOp29
 70
     1
102
RTVSPropertyOp30
 70
     1
102
RTVSPropertyOp31
 70
     1
102
RTVSPropertyOp32
 70
     1
  0
XRECORD
  5
1E82
102
{ACAD_REACTORS
330
1E81
102
}
330
1E81
100
AcDbXrecord
280
     1
102
RTVSPropertyOp0
 70
     1
102
RTVSPropertyOp1
 70
     1
102
RTVSPropertyOp2
 70
     1
102
RTVSPropertyOp3
 70
     1
102
RTVSPropertyOp4
 70
     1
102
RTVSPropertyOp5
 70
     1
102
RTVSPropertyOp6
 70
     1
102
RTVSPropertyOp7
 70
     1
102
RTVSPropertyOp8
 70
     1
102
RTVSPropertyOp9
 70
     1
102
RTVSPropertyOp10
 70
     1
102
RTVSPropertyOp11
 70
     1
102
RTVSPropertyOp12
 70
     1
102
RTVSPropertyOp13
 70
     1
102
RTVSPropertyOp14
 70
     1
102
RTVSPropertyOp15
 70
     1
102
RTVSPropertyOp16
 70
     1
102
RTVSPropertyOp17
 70
     1
102
RTVSPropertyOp18
 70
     1
102
RTVSPropertyOp19
 70
     1
102
RTVSPropertyOp20
 70
     1
102
RTVSPropertyOp21
 70
     1
102
RTVSPropertyOp22
 70
     1
102
RTVSPropertyOp23
 70
     1
102
RTVSPropertyOp24
 70
     1
102
RTVSPropertyOp25
 70
     1
102
RTVSPropertyOp26
 70
     1
102
RTVSPropertyOp27
 70
     1
102
RTVSPropertyOp28
 70
     1
102
RTVSPropertyOp29
 70
     1
102
RTVSPropertyOp30
 70
     1
102
RTVSPropertyOp31
 70
     1
102
RTVSPropertyOp32
 70
     1
  0
XRECORD
  5
1E8A
102
{ACAD_REACTORS
330
1E89
102
}
330
1E89
100
AcDbXrecord
280
     1
102
RTVSPropertyOp0
 70
     1
102
RTVSPropertyOp1
 70
     1
102
RTVSPropertyOp2
 70
     1
102
RTVSPropertyOp3
 70
     1
102
RTVSPropertyOp4
 70
     1
102
RTVSPropertyOp5
 70
     1
102
RTVSPropertyOp6
 70
     1
102
RTVSPropertyOp7
 70
     1
102
RTVSPropertyOp8
 70
     1
102
RTVSPropertyOp9
 70
     1
102
RTVSPropertyOp10
 70
     1
102
RTVSPropertyOp11
 70
     1
102
RTVSPropertyOp12
 70
     1
102
RTVSPropertyOp13
 70
     1
102
RTVSPropertyOp14
 70
     1
102
RTVSPropertyOp15
 70
     1
102
RTVSPropertyOp16
 70
     1
102
RTVSPropertyOp17
 70
     1
102
RTVSPropertyOp18
 70
     1
102
RTVSPropertyOp19
 70
     1
102
RTVSPropertyOp20
 70
     1
102
RTVSPropertyOp21
 70
     1
102
RTVSPropertyOp22
 70
     1
102
RTVSPropertyOp23
 70
     1
102
RTVSPropertyOp24
 70
     1
102
RTVSPropertyOp25
 70
     1
102
RTVSPropertyOp26
 70
     1
102
RTVSPropertyOp27
 70
     1
102
RTVSPropertyOp28
 70
     1
102
RTVSPropertyOp29
 70
     1
102
RTVSPropertyOp30
 70
     1
102
RTVSPropertyOp31
 70
     1
102
RTVSPropertyOp32
 70
     1
  0
XRECORD
  5
1E92
102
{ACAD_REACTORS
330
1E91
102
}
330
1E91
100
AcDbXrecord
280
     1
102
RTVSPropertyOp0
 70
     1
102
RTVSPropertyOp1
 70
     1
102
RTVSPropertyOp2
 70
     1
102
RTVSPropertyOp3
 70
     1
102
RTVSPropertyOp4
 70
     1
102
RTVSPropertyOp5
 70
     1
102
RTVSPropertyOp6
 70
     1
102
RTVSPropertyOp7
 70
     1
102
RTVSPropertyOp8
 70
     1
102
RTVSPropertyOp9
 70
     1
102
RTVSPropertyOp10
 70
     1
102
RTVSPropertyOp11
 70
     1
102
RTVSPropertyOp12
 70
     1
102
RTVSPropertyOp13
 70
     1
102
RTVSPropertyOp14
 70
     1
102
RTVSPropertyOp15
 70
     1
102
RTVSPropertyOp16
 70
     1
102
RTVSPropertyOp17
 70
     1
102
RTVSPropertyOp18
 70
     1
102
RTVSPropertyOp19
 70
     1
102
RTVSPropertyOp20
 70
     1
102
RTVSPropertyOp21
 70
     1
102
RTVSPropertyOp22
 70
     1
102
RTVSPropertyOp23
 70
     1
102
RTVSPropertyOp24
 70
     1
102
RTVSPropertyOp25
 70
     1
102
RTVSPropertyOp26
 70
     1
102
RTVSPropertyOp27
 70
     1
102
RTVSPropertyOp28
 70
     1
102
RTVSPropertyOp29
 70
     1
102
RTVSPropertyOp30
 70
     1
102
RTVSPropertyOp31
 70
     1
102
RTVSPropertyOp32
 70
     1
  0
ENDSEC
  0
EOF
