  0
SECTION
  2
HEADER
  9
$ACADVER
  1
AC1015
  9
$ACADMAINTVER
 70
    20
  9
$DWGCODEPAGE
  3
ANSI_932
  9
$INSBASE
 10
0.0
 20
0.0
 30
0.0
  9
$EXTMIN
 10
-156.7147909531769
 20
-612.5645050840037
 30
-0.0000000349181948
  9
$EXTMAX
 10
120.343144287646
 20
-423.0667491513223
 30
0.0000000814935747
  9
$LIMMIN
 10
-156.691643
 20
-612.552941
  9
$LIMMAX
 10
120.310357
 20
-423.078315
  9
$ORTHOMODE
 70
     1
  9
$REGENMODE
 70
     1
  9
$FILLMODE
 70
     1
  9
$QTEXTMODE
 70
     0
  9
$MIRRTEXT
 70
     0
  9
$LTSCALE
 40
4.616666999999996
  9
$ATTMODE
 70
     1
  9
$TEXTSIZE
 40
0.2
  9
$TRACEWID
 40
0.05
  9
$TEXTSTYLE
  7
STANDARD
  9
$CLAYER
  8
0
  9
$CELTYPE
  6
CONTINUOUS
  9
$CECOLOR
 62
   256
  9
$CELTSCALE
 40
1.0
  9
$DISPSILH
 70
     0
  9
$DIMSCALE
 40
1.0
  9
$DIMASZ
 40
2.5
  9
$DIMEXO
 40
0.25
  9
$DIMDLI
 40
0.2
  9
$DIMRND
 40
0.0
  9
$DIMDLE
 40
0.0
  9
$DIMEXE
 40
1.25
  9
$DIMTP
 40
0.0
  9
$DIMTM
 40
0.0
  9
$DIMTXT
 40
3.0
  9
$DIMCEN
 40
0.0
  9
$DIMTSZ
 40
0.0
  9
$DIMTOL
 70
     0
  9
$DIMLIM
 70
     0
  9
$DIMTIH
 70
     0
  9
$DIMTOH
 70
     0
  9
$DIMSE1
 70
     0
  9
$DIMSE2
 70
     0
  9
$DIMTAD
 70
     3
  9
$DIMZIN
 70
     8
  9
$DIMBLK
  1
Open30
  9
$DIMASO
 70
     1
  9
$DIMSHO
 70
     1
  9
$DIMPOST
  1

  9
$DIMAPOST
  1

  9
$DIMALT
 70
     0
  9
$DIMALTD
 70
     3
  9
$DIMALTF
 40
0.03937007874016
  9
$DIMLFAC
 40
1.0
  9
$DIMTOFL
 70
     1
  9
$DIMTVP
 40
0.0
  9
$DIMTIX
 70
     0
  9
$DIMSOXD
 70
     0
  9
$DIMSAH
 70
     0
  9
$DIMBLK1
  1

  9
$DIMBLK2
  1

  9
$DIMSTYLE
  2
1：1
  9
$DIMCLRD
 70
     0
  9
$DIMCLRE
 70
     0
  9
$DIMCLRT
 70
     4
  9
$DIMTFAC
 40
1.0
  9
$DIMGAP
 40
0.625
  9
$DIMJUST
 70
     0
  9
$DIMSD1
 70
     0
  9
$DIMSD2
 70
     0
  9
$DIMTOLJ
 70
     0
  9
$DIMTZIN
 70
     8
  9
$DIMALTZ
 70
     0
  9
$DIMALTTZ
 70
     0
  9
$DIMUPT
 70
     1
  9
$DIMDEC
 70
     2
  9
$DIMTDEC
 70
     2
  9
$DIMALTU
 70
     2
  9
$DIMALTTD
 70
     3
  9
$DIMTXSTY
  7
STANDARD
  9
$DIMAUNIT
 70
     0
  9
$DIMADEC
 70
     1
  9
$DIMALTRND
 40
0.0
  9
$DIMAZIN
 70
     2
  9
$DIMDSEP
 70
    46
  9
$DIMATFIT
 70
     0
  9
$DIMFRAC
 70
     0
  9
$DIMLDRBLK
  1
Open30
  9
$DIMLUNIT
 70
     2
  9
$DIMLWD
 70
    -2
  9
$DIMLWE
 70
    -2
  9
$DIMTMOVE
 70
     0
  9
$LUNITS
 70
     2
  9
$LUPREC
 70
     4
  9
$SKETCHINC
 40
0.1
  9
$FILLETRAD
 40
0.0
  9
$AUNITS
 70
     0
  9
$AUPREC
 70
     0
  9
$MENU
  1
.
  9
$ELEVATION
 40
0.0
  9
$PELEVATION
 40
0.0
  9
$THICKNESS
 40
0.0
  9
$LIMCHECK
 70
     0
  9
$CHAMFERA
 40
0.0
  9
$CHAMFERB
 40
0.0
  9
$CHAMFERC
 40
0.0
  9
$CHAMFERD
 40
0.0
  9
$SKPOLY
 70
     0
  9
$TDCREATE
 40
2455475.658025347
  9
$TDUCREATE
 40
2455475.283025347
  9
$TDUPDATE
 40
2456265.702762628
  9
$TDUUPDATE
 40
2456265.327762628
  9
$TDINDWG
 40
0.0473934838
  9
$TDUSRTIMER
 40
0.0473755787
  9
$USRTIMER
 70
     1
  9
$ANGBASE
 50
0.0
  9
$ANGDIR
 70
     0
  9
$PDMODE
 70
     0
  9
$PDSIZE
 40
0.0
  9
$PLINEWID
 40
0.0
  9
$SPLFRAME
 70
     0
  9
$SPLINETYPE
 70
     6
  9
$SPLINESEGS
 70
     8
  9
$HANDSEED
  5
A2A
  9
$SURFTAB1
 70
     6
  9
$SURFTAB2
 70
     6
  9
$SURFTYPE
 70
     6
  9
$SURFU
 70
     6
  9
$SURFV
 70
     6
  9
$UCSBASE
  2

  9
$UCSNAME
  2

  9
$UCSORG
 10
0.0
 20
0.0
 30
0.0
  9
$UCSXDIR
 10
1.0
 20
0.0
 30
0.0
  9
$UCSYDIR
 10
0.0
 20
1.0
 30
0.0
  9
$UCSORTHOREF
  2

  9
$UCSORTHOVIEW
 70
     0
  9
$UCSORGTOP
 10
0.0
 20
0.0
 30
0.0
  9
$UCSORGBOTTOM
 10
0.0
 20
0.0
 30
0.0
  9
$UCSORGLEFT
 10
0.0
 20
0.0
 30
0.0
  9
$UCSORGRIGHT
 10
0.0
 20
0.0
 30
0.0
  9
$UCSORGFRONT
 10
0.0
 20
0.0
 30
0.0
  9
$UCSORGBACK
 10
0.0
 20
0.0
 30
0.0
  9
$PUCSBASE
  2

  9
$PUCSNAME
  2

  9
$PUCSORG
 10
0.0
 20
0.0
 30
0.0
  9
$PUCSXDIR
 10
1.0
 20
0.0
 30
0.0
  9
$PUCSYDIR
 10
0.0
 20
1.0
 30
0.0
  9
$PUCSORTHOREF
  2

  9
$PUCSORTHOVIEW
 70
     0
  9
$PUCSORGTOP
 10
0.0
 20
0.0
 30
0.0
  9
$PUCSORGBOTTOM
 10
0.0
 20
0.0
 30
0.0
  9
$PUCSORGLEFT
 10
0.0
 20
0.0
 30
0.0
  9
$PUCSORGRIGHT
 10
0.0
 20
0.0
 30
0.0
  9
$PUCSORGFRONT
 10
0.0
 20
0.0
 30
0.0
  9
$PUCSORGBACK
 10
0.0
 20
0.0
 30
0.0
  9
$USERI1
 70
     0
  9
$USERI2
 70
     0
  9
$USERI3
 70
     0
  9
$USERI4
 70
     0
  9
$USERI5
 70
     0
  9
$USERR1
 40
0.0
  9
$USERR2
 40
0.0
  9
$USERR3
 40
0.0
  9
$USERR4
 40
0.0
  9
$USERR5
 40
0.0
  9
$WORLDVIEW
 70
     1
  9
$SHADEDGE
 70
     3
  9
$SHADEDIF
 70
    70
  9
$TILEMODE
 70
     1
  9
$MAXACTVP
 70
    64
  9
$PINSBASE
 10
0.0
 20
0.0
 30
0.0
  9
$PLIMCHECK
 70
     0
  9
$PEXTMIN
 10
1.000000000000000E+20
 20
1.000000000000000E+20
 30
1.000000000000000E+20
  9
$PEXTMAX
 10
-1.000000000000000E+20
 20
-1.000000000000000E+20
 30
-1.000000000000000E+20
  9
$PLIMMIN
 10
0.0
 20
0.0
  9
$PLIMMAX
 10
12.0
 20
9.0
  9
$UNITMODE
 70
     0
  9
$VISRETAIN
 70
     1
  9
$PLINEGEN
 70
     0
  9
$PSLTSCALE
 70
     1
  9
$TREEDEPTH
 70
  3020
  9
$CMLSTYLE
  2
Standard
  9
$CMLJUST
 70
     0
  9
$CMLSCALE
 40
1.0
  9
$PROXYGRAPHICS
 70
     1
  9
$MEASUREMENT
 70
     0
  9
$CELWEIGHT
370
    -1
  9
$ENDCAPS
280
     0
  9
$JOINSTYLE
280
     0
  9
$LWDISPLAY
290
     0
  9
$INSUNITS
 70
     0
  9
$HYPERLINKBASE
  1

  9
$STYLESHEET
  1
N-PLOT.CTB
  9
$XEDIT
290
     1
  9
$CEPSNTYPE
380
     0
  9
$PSTYLEMODE
290
     1
  9
$FINGERPRINTGUID
  2
{78F31CF2-2F5B-46FE-9B35-52C1DCE28346}
  9
$VERSIONGUID
  2
{2826A75F-FB0A-4AAF-930B-1E268204DE5A}
  9
$EXTNAMES
290
     1
  9
$PSVPSCALE
 40
0.0
  9
$OLESTARTUP
290
     0
  0
ENDSEC
  0
SECTION
  2
CLASSES
  0
CLASS
  1
ACDBDICTIONARYWDFLT
  2
AcDbDictionaryWithDefault
  3
ObjectDBX Classes
 90
        0
280
     0
281
     0
  0
CLASS
  1
MATERIAL
  2
AcDbMaterial
  3
ObjectDBX Classes
 90
     1024
280
     0
281
     0
  0
CLASS
  1
VISUALSTYLE
  2
AcDbVisualStyle
  3
ObjectDBX Classes
 90
     4095
280
     0
281
     0
  0
CLASS
  1
TABLESTYLE
  2
AcDbTableStyle
  3
ObjectDBX Classes
 90
     4095
280
     0
281
     0
  0
CLASS
  1
DICTIONARYVAR
  2
AcDbDictionaryVar
  3
ObjectDBX Classes
 90
        0
280
     0
281
     0
  0
CLASS
  1
ACDBPLACEHOLDER
  2
AcDbPlaceHolder
  3
ObjectDBX Classes
 90
        0
280
     0
281
     0
  0
CLASS
  1
LAYOUT
  2
AcDbLayout
  3
ObjectDBX Classes
 90
        0
280
     0
281
     0
  0
CLASS
  1
SCALE
  2
AcDbScale
  3
ObjectDBX Classes
 90
     1153
280
     0
281
     0
  0
CLASS
  1
MLEADERSTYLE
  2
AcDbMLeaderStyle
  3
ACDB_MLEADERSTYLE_CLASS
 90
     4095
280
     0
281
     0
  0
CLASS
  1
SORTENTSTABLE
  2
AcDbSortentsTable
  3
ObjectDBX Classes
 90
        0
280
     0
281
     0
  0
CLASS
  1
CELLSTYLEMAP
  2
AcDbCellStyleMap
  3
ObjectDBX Classes
 90
     1152
280
     0
281
     0
  0
ENDSEC
  0
SECTION
  2
TABLES
  0
TABLE
  2
VPORT
  5
8
330
0
100
AcDbSymbolTable
 70
     1
  0
VPORT
  5
56
330
8
100
AcDbSymbolTableRecord
100
AcDbViewportTableRecord
  2
*Active
 70
     0
 10
0.0
 20
0.0
 11
1.0
 21
1.0
 12
-18.18582333276544
 22
-517.815627117663
 13
0.0
 23
0.0
 14
1.0
 24
1.0
 15
0.0
 25
0.0
 16
0.0
 26
0.0
 36
1.0
 17
0.0
 27
0.0
 37
0.0
 40
190.8997122034533
 41
1.950617283950617
 42
50.0
 43
0.0
 44
0.0
 50
0.0
 51
0.0
 71
     0
 72
   100
 73
     1
 74
     1
 75
     0
 76
     0
 77
     0
 78
     0
281
     0
 65
     1
110
0.0
120
0.0
130
0.0
111
1.0
121
0.0
131
0.0
112
0.0
122
1.0
132
0.0
 79
     0
146
0.0
  0
ENDTAB
  0
TABLE
  2
LTYPE
  5
5
330
0
100
AcDbSymbolTable
 70
    10
  0
LTYPE
  5
28
330
5
100
AcDbSymbolTableRecord
100
AcDbLinetypeTableRecord
  2
ByBlock
 70
     0
  3

 72
    65
 73
     0
 40
0.0
  0
LTYPE
  5
29
330
5
100
AcDbSymbolTableRecord
100
AcDbLinetypeTableRecord
  2
ByLayer
 70
     0
  3

 72
    65
 73
     0
 40
0.0
  0
LTYPE
  5
2A
330
5
100
AcDbSymbolTableRecord
100
AcDbLinetypeTableRecord
  2
CONTINUOUS
 70
     0
  3
Solid-line
 72
    65
 73
     0
 40
0.0
  0
LTYPE
  5
3D
330
5
100
AcDbSymbolTableRecord
100
AcDbLinetypeTableRecord
  2
CENTER
 70
     0
  3
CENTER
 72
    65
 73
     4
 40
2.0
 49
1.25
 74
     0
 49
-0.25
 74
     0
 49
0.25
 74
     0
 49
-0.25
 74
     0
  0
LTYPE
  5
3E
330
5
100
AcDbSymbolTableRecord
100
AcDbLinetypeTableRecord
  2
CENTER2
 70
     0
  3
CENTER2
 72
    65
 73
     4
 40
1.125
 49
0.75
 74
     0
 49
-0.125
 74
     0
 49
0.125
 74
     0
 49
-0.125
 74
     0
  0
LTYPE
  5
3F
330
5
100
AcDbSymbolTableRecord
100
AcDbLinetypeTableRecord
  2
CENTERX2
 70
     0
  3
CENTERX2
 72
    65
 73
     4
 40
4.0
 49
2.5
 74
     0
 49
-0.5
 74
     0
 49
0.5
 74
     0
 49
-0.5
 74
     0
  0
LTYPE
  5
4C
330
5
100
AcDbSymbolTableRecord
100
AcDbLinetypeTableRecord
  2
HIDDEN
 70
     0
  3
HIDDEN
 72
    65
 73
     2
 40
0.375
 49
0.25
 74
     0
 49
-0.125
 74
     0
  0
LTYPE
  5
4D
330
5
100
AcDbSymbolTableRecord
100
AcDbLinetypeTableRecord
  2
HIDDEN2
 70
     0
  3
HIDDEN2
 72
    65
 73
     2
 40
0.1875
 49
0.125
 74
     0
 49
-0.0625
 74
     0
  0
LTYPE
  5
4E
330
5
100
AcDbSymbolTableRecord
100
AcDbLinetypeTableRecord
  2
HIDDENX2
 70
     0
  3
HIDDENX2
 72
    65
 73
     2
 40
0.75
 49
0.5
 74
     0
 49
-0.25
 74
     0
  0
LTYPE
  5
4F
330
5
100
AcDbSymbolTableRecord
100
AcDbLinetypeTableRecord
  2
PHANTOM
 70
     0
  3
PHANTOM
 72
    65
 73
     6
 40
2.5
 49
1.25
 74
     0
 49
-0.25
 74
     0
 49
0.25
 74
     0
 49
-0.25
 74
     0
 49
0.25
 74
     0
 49
-0.25
 74
     0
  0
LTYPE
  5
50
330
5
100
AcDbSymbolTableRecord
100
AcDbLinetypeTableRecord
  2
PHANTOM2
 70
     0
  3
PHANTOM2
 72
    65
 73
     6
 40
1.25
 49
0.625
 74
     0
 49
-0.125
 74
     0
 49
0.125
 74
     0
 49
-0.125
 74
     0
 49
0.125
 74
     0
 49
-0.125
 74
     0
  0
LTYPE
  5
51
330
5
100
AcDbSymbolTableRecord
100
AcDbLinetypeTableRecord
  2
PHANTOMX2
 70
     0
  3
PHANTOMX2
 72
    65
 73
     6
 40
5.0
 49
2.5
 74
     0
 49
-0.5
 74
     0
 49
0.5
 74
     0
 49
-0.5
 74
     0
 49
0.5
 74
     0
 49
-0.5
 74
     0
  0
ENDTAB
  0
TABLE
  2
LAYER
  5
2
102
{ACAD_XDICTIONARY
360
451
102
}
330
0
100
AcDbSymbolTable
 70
     3
  0
LAYER
  5
25
102
{ACAD_XDICTIONARY
360
62E
102
}
330
2
100
AcDbSymbolTableRecord
100
AcDbLayerTableRecord
  2
0
 70
     0
 62
     7
  6
CONTINUOUS
370
    -3
390
F
  0
LAYER
  5
52
102
{ACAD_XDICTIONARY
360
630
102
}
330
2
100
AcDbSymbolTableRecord
100
AcDbLayerTableRecord
  2
001
 70
     0
 62
     7
  6
CONTINUOUS
370
    -3
390
F
  0
LAYER
  5
43D
330
2
100
AcDbSymbolTableRecord
100
AcDbLayerTableRecord
  2
Defpoints
 70
     0
 62
     7
  6
CONTINUOUS
290
     0
370
    -3
390
F
  0
ENDTAB
  0
TABLE
  2
STYLE
  5
3
330
0
100
AcDbSymbolTable
 70
     6
  0
STYLE
  5
26
330
3
100
AcDbSymbolTableRecord
100
AcDbTextStyleTableRecord
  2
STANDARD
 70
     0
 40
0.0
 41
1.0
 50
0.0
 71
     0
 42
0.2
  3
TXT
  4
BIGFONT
  0
STYLE
  5
43E
330
3
100
AcDbSymbolTableRecord
100
AcDbTextStyleTableRecord
  2
高3.2
 70
     0
 40
3.2
 41
1.0
 50
0.0
 71
     0
 42
3.2
  3
txt.shx
  4
bigfont.shx
  0
STYLE
  5
43F
330
3
100
AcDbSymbolTableRecord
100
AcDbTextStyleTableRecord
  2
高6.3
 70
     0
 40
6.299999999999998
 41
1.0
 50
0.0
 71
     0
 42
6.299999999999998
  3
txt.shx
  4
bigfont.shx
  0
STYLE
  5
440
330
3
100
AcDbSymbolTableRecord
100
AcDbTextStyleTableRecord
  2
高2.5
 70
     0
 40
2.5
 41
1.0
 50
0.0
 71
     0
 42
0.2
  3
txt.shx
  4
bigfont.shx
  0
STYLE
  5
441
330
3
100
AcDbSymbolTableRecord
100
AcDbTextStyleTableRecord
  2
高4.5
 70
     0
 40
4.5
 41
1.0
 50
0.0
 71
     0
 42
6.299999999999998
  3
txt.shx
  4
bigfont.shx
  0
STYLE
  5
442
330
3
100
AcDbSymbolTableRecord
100
AcDbTextStyleTableRecord
  2
高2
 70
     0
 40
2.0
 41
1.0
 50
0.0
 71
     0
 42
2.0
  3
txt.shx
  4
bigfont.shx
  0
ENDTAB
  0
TABLE
  2
VIEW
  5
6
330
0
100
AcDbSymbolTable
 70
     0
  0
ENDTAB
  0
TABLE
  2
UCS
  5
7
330
0
100
AcDbSymbolTable
 70
     0
  0
ENDTAB
  0
TABLE
  2
APPID
  5
9
330
0
100
AcDbSymbolTable
 70
    10
  0
APPID
  5
27
330
9
100
AcDbSymbolTableRecord
100
AcDbRegAppTableRecord
  2
ACAD
 70
     0
  0
APPID
  5
37A
330
9
100
AcDbSymbolTableRecord
100
AcDbRegAppTableRecord
  2
ACAD_PSEXT
 70
     0
  0
APPID
  5
44D
330
9
100
AcDbSymbolTableRecord
100
AcDbRegAppTableRecord
  2
ACAD_DSTYLE_DIMJOGGED_JOGANGLE_SYMBOL
 70
     0
  0
APPID
  5
44E
330
9
100
AcDbSymbolTableRecord
100
AcDbRegAppTableRecord
  2
ACAD_DSTYLE_DIMJAG
 70
     0
  0
APPID
  5
44F
330
9
100
AcDbSymbolTableRecord
100
AcDbRegAppTableRecord
  2
ACAD_DSTYLE_DIMBREAK
 70
     0
  0
APPID
  5
450
330
9
100
AcDbSymbolTableRecord
100
AcDbRegAppTableRecord
  2
ACAD_DSTYLE_DIMTALN
 70
     0
  0
APPID
  5
571
330
9
100
AcDbSymbolTableRecord
100
AcDbRegAppTableRecord
  2
ACAD_EXEMPT_FROM_CAD_STANDARDS
 70
     0
  0
APPID
  5
676
330
9
100
AcDbSymbolTableRecord
100
AcDbRegAppTableRecord
  2
ACAD_MLEADERVER
 70
     0
  0
APPID
  5
677
330
9
100
AcDbSymbolTableRecord
100
AcDbRegAppTableRecord
  2
ACAD_DSTYLE_DIMARC_LENGTH_SYMBOL
 70
     0
  0
APPID
  5
678
330
9
100
AcDbSymbolTableRecord
100
AcDbRegAppTableRecord
  2
ACAD_DSTYLE_DIMEXT_LENGTH
 70
     0
  0
ENDTAB
  0
TABLE
  2
DIMSTYLE
  5
A
330
0
100
AcDbSymbolTable
 70
    11
100
AcDbDimStyleTable
 71
     2
340
443
340
358
  0
DIMSTYLE
105
358
330
A
100
AcDbSymbolTableRecord
100
AcDbDimStyleTableRecord
  2
Standard
 70
     0
340
26
  0
DIMSTYLE
105
443
330
A
100
AcDbSymbolTableRecord
100
AcDbDimStyleTableRecord
  2
1：1
 70
     0
 41
2.5
 42
0.25
 43
0.2
 44
1.25
 73
     0
 74
     0
 77
     3
 78
     8
 79
     2
140
3.0
141
0.0
143
0.03937007874016
147
0.625
171
     3
172
     1
178
     4
179
     1
271
     2
272
     2
274
     3
283
     0
284
     8
288
     1
289
     0
340
26
341
3AD
342
3AD
1001
ACAD_DSTYLE_DIMARC_LENGTH_SYMBOL
1070
   379
1070
     2
1001
ACAD_DSTYLE_DIMEXT_LENGTH
1070
   378
1040
1.25
1001
ACAD_DSTYLE_DIMJOGGED_JOGANGLE_SYMBOL
1070
   384
1040
1.570796326794896
  0
DIMSTYLE
105
444
330
A
100
AcDbSymbolTableRecord
100
AcDbDimStyleTableRecord
  2
2：1
 70
     0
 41
2.5
 42
0.25
 43
0.2
 44
1.25
 73
     0
 74
     0
 77
     3
 78
     8
 79
     2
140
3.0
141
0.0
143
0.03937007874016
144
0.5
147
0.625
171
     3
172
     1
178
     4
179
     1
271
     2
272
     2
274
     3
283
     0
284
     8
288
     1
289
     0
340
26
341
3AD
342
3AD
1001
ACAD_DSTYLE_DIMARC_LENGTH_SYMBOL
1070
   379
1070
     2
1001
ACAD_DSTYLE_DIMEXT_LENGTH
1070
   378
1040
1.25
1001
ACAD_DSTYLE_DIMJOGGED_JOGANGLE_SYMBOL
1070
   384
1040
1.570796326794896
  0
DIMSTYLE
105
445
330
A
100
AcDbSymbolTableRecord
100
AcDbDimStyleTableRecord
  2
5：1
 70
     0
 41
2.5
 42
0.25
 43
0.2
 44
1.25
 73
     0
 74
     0
 77
     3
 78
     8
 79
     2
140
3.0
141
0.0
143
0.03937007874016
144
0.2
147
0.625
171
     3
172
     1
178
     4
179
     1
271
     2
272
     2
274
     3
283
     0
284
     8
288
     1
289
     0
340
26
341
3AD
342
3AD
1001
ACAD_DSTYLE_DIMARC_LENGTH_SYMBOL
1070
   379
1070
     2
1001
ACAD_DSTYLE_DIMEXT_LENGTH
1070
   378
1040
1.25
1001
ACAD_DSTYLE_DIMJOGGED_JOGANGLE_SYMBOL
1070
   384
1040
1.570796326794896
  0
DIMSTYLE
105
446
330
A
100
AcDbSymbolTableRecord
100
AcDbDimStyleTableRecord
  2
10：1
 70
     0
 41
2.5
 42
0.25
 43
0.2
 44
1.25
 73
     0
 74
     0
 77
     3
 78
     8
 79
     2
140
3.0
141
0.0
143
0.03937007874016
144
0.1
147
0.625
171
     3
172
     1
178
     4
179
     1
271
     2
272
     2
274
     3
283
     0
284
     8
288
     1
289
     0
340
26
341
3AD
342
3AD
1001
ACAD_DSTYLE_DIMARC_LENGTH_SYMBOL
1070
   379
1070
     2
1001
ACAD_DSTYLE_DIMEXT_LENGTH
1070
   378
1040
1.25
1001
ACAD_DSTYLE_DIMJOGGED_JOGANGLE_SYMBOL
1070
   384
1040
1.570796326794896
  0
DIMSTYLE
105
447
330
A
100
AcDbSymbolTableRecord
100
AcDbDimStyleTableRecord
  2
1／2
 70
     0
 41
2.5
 42
0.25
 43
0.2
 44
1.25
 73
     0
 74
     0
 77
     3
 78
     8
 79
     2
140
3.0
141
0.0
143
0.03937007874016
144
2.0
147
0.625
171
     3
172
     1
178
     4
179
     1
271
     2
272
     2
274
     3
283
     0
284
     8
288
     1
289
     0
340
26
341
3AD
342
3AD
1001
ACAD_DSTYLE_DIMARC_LENGTH_SYMBOL
1070
   379
1070
     2
1001
ACAD_DSTYLE_DIMEXT_LENGTH
1070
   378
1040
1.25
1001
ACAD_DSTYLE_DIMJOGGED_JOGANGLE_SYMBOL
1070
   384
1040
1.570796326794896
  0
DIMSTYLE
105
448
330
A
100
AcDbSymbolTableRecord
100
AcDbDimStyleTableRecord
  2
1／5
 70
     0
 41
2.5
 42
0.25
 43
0.2
 44
1.25
 73
     0
 74
     0
 77
     3
 78
     8
 79
     2
140
3.0
141
0.0
143
0.03937007874016
144
5.0
147
0.625
171
     3
172
     1
178
     4
179
     1
271
     2
272
     2
274
     3
283
     0
284
     8
288
     1
289
     0
340
26
341
3AD
342
3AD
1001
ACAD_DSTYLE_DIMARC_LENGTH_SYMBOL
1070
   379
1070
     2
1001
ACAD_DSTYLE_DIMEXT_LENGTH
1070
   378
1040
1.25
1001
ACAD_DSTYLE_DIMJOGGED_JOGANGLE_SYMBOL
1070
   384
1040
1.570796326794896
  0
DIMSTYLE
105
449
330
A
100
AcDbSymbolTableRecord
100
AcDbDimStyleTableRecord
  2
1／10
 70
     0
 41
2.5
 42
0.25
 43
0.2
 44
1.25
 73
     0
 74
     0
 77
     3
 78
     8
 79
     2
140
3.0
141
0.0
143
0.03937007874016
144
10.0
147
0.625
171
     3
172
     1
178
     4
179
     1
271
     2
272
     2
274
     3
283
     0
284
     8
288
     1
289
     0
340
26
341
3AD
342
3AD
1001
ACAD_DSTYLE_DIMARC_LENGTH_SYMBOL
1070
   379
1070
     2
1001
ACAD_DSTYLE_DIMEXT_LENGTH
1070
   378
1040
1.25
1001
ACAD_DSTYLE_DIMJOGGED_JOGANGLE_SYMBOL
1070
   384
1040
1.570796326794896
  0
DIMSTYLE
105
44A
330
A
100
AcDbSymbolTableRecord
100
AcDbDimStyleTableRecord
  2
1／4
 70
     0
 41
2.5
 42
0.25
 43
0.2
 44
1.25
 73
     0
 74
     0
 77
     3
 78
     8
 79
     2
140
3.0
141
0.0
143
0.03937007874016
144
4.0
147
0.625
171
     3
172
     1
178
     4
179
     1
271
     2
272
     2
274
     3
283
     0
284
     8
288
     1
289
     0
340
26
341
3AD
342
3AD
1001
ACAD_DSTYLE_DIMARC_LENGTH_SYMBOL
1070
   379
1070
     2
1001
ACAD_DSTYLE_DIMEXT_LENGTH
1070
   378
1040
1.25
1001
ACAD_DSTYLE_DIMJOGGED_JOGANGLE_SYMBOL
1070
   384
1040
1.570796326794896
  0
DIMSTYLE
105
44B
330
A
100
AcDbSymbolTableRecord
100
AcDbDimStyleTableRecord
  2
1／3
 70
     0
 41
2.5
 42
0.25
 43
0.2
 44
1.25
 73
     0
 74
     0
 77
     3
 78
     8
 79
     2
140
3.0
141
0.0
143
0.03937007874016
144
3.0
147
0.625
171
     3
172
     1
178
     4
179
     1
271
     2
272
     2
274
     3
283
     0
284
     8
288
     1
289
     0
340
26
341
3AD
342
3AD
1001
ACAD_DSTYLE_DIMARC_LENGTH_SYMBOL
1070
   379
1070
     2
1001
ACAD_DSTYLE_DIMEXT_LENGTH
1070
   378
1040
1.25
1001
ACAD_DSTYLE_DIMJOGGED_JOGANGLE_SYMBOL
1070
   384
1040
1.570796326794896
  0
DIMSTYLE
105
44C
330
A
100
AcDbSymbolTableRecord
100
AcDbDimStyleTableRecord
  2
FREE
 70
     0
 41
2.5
 42
0.25
 43
0.2
 44
1.25
 73
     0
 74
     0
 77
     3
 78
     8
 79
     2
140
3.0
141
0.0
143
0.03937007874016
147
0.625
171
     3
172
     1
178
     4
179
     1
271
     2
272
     2
274
     3
283
     0
284
     8
288
     1
289
     0
340
26
341
3AD
342
3AD
1001
ACAD_DSTYLE_DIMBREAK
1070
   391
1040
3.75
1001
ACAD_DSTYLE_DIMJAG
1070
   388
1040
1.5
1001
ACAD_DSTYLE_DIMTALN
1070
   392
1070
     0
1001
ACAD_DSTYLE_DIMARC_LENGTH_SYMBOL
1070
   379
1070
     2
1001
ACAD_DSTYLE_DIMEXT_LENGTH
1070
   378
1040
1.25
1001
ACAD_DSTYLE_DIMJOGGED_JOGANGLE_SYMBOL
1070
   384
1040
1.570796326794896
  0
ENDTAB
  0
TABLE
  2
BLOCK_RECORD
  5
1
330
0
100
AcDbSymbolTable
 70
    22
  0
BLOCK_RECORD
  5
36
102
{ACAD_XDICTIONARY
360
59A
102
}
330
1
100
AcDbSymbolTableRecord
100
AcDbBlockTableRecord
  2
*Model_Space
340
39
  0
BLOCK_RECORD
  5
32
330
1
100
AcDbSymbolTableRecord
100
AcDbBlockTableRecord
  2
*Paper_Space
340
35
  0
BLOCK_RECORD
  5
57
330
1
100
AcDbSymbolTableRecord
100
AcDbBlockTableRecord
  2
ARROW
340
0
  0
BLOCK_RECORD
  5
3AD
330
1
100
AcDbSymbolTableRecord
100
AcDbBlockTableRecord
  2
_Open30
340
0
102
{BLKREFS
331
7CF
331
7D0
331
7DD
331
7DE
331
7EB
331
7EC
331
7F9
331
7FA
331
807
331
808
331
815
331
816
331
823
331
824
331
82F
331
830
331
7B3
331
7B4
331
7C1
331
7C2
331
90D
331
90E
331
918
331
919
331
923
331
924
331
92E
331
92F
331
939
331
93A
331
944
331
945
331
94F
331
950
331
95A
331
95B
331
965
331
966
331
96E
331
96F
102
}
  0
BLOCK_RECORD
  5
7AC
330
1
100
AcDbSymbolTableRecord
100
AcDbBlockTableRecord
  2
*D2
340
0
  0
BLOCK_RECORD
  5
7BA
330
1
100
AcDbSymbolTableRecord
100
AcDbBlockTableRecord
  2
*D3
340
0
  0
BLOCK_RECORD
  5
7C8
330
1
100
AcDbSymbolTableRecord
100
AcDbBlockTableRecord
  2
*D4
340
0
  0
BLOCK_RECORD
  5
7D6
330
1
100
AcDbSymbolTableRecord
100
AcDbBlockTableRecord
  2
*D5
340
0
  0
BLOCK_RECORD
  5
7E4
330
1
100
AcDbSymbolTableRecord
100
AcDbBlockTableRecord
  2
*D6
340
0
  0
BLOCK_RECORD
  5
7F2
330
1
100
AcDbSymbolTableRecord
100
AcDbBlockTableRecord
  2
*D7
340
0
  0
BLOCK_RECORD
  5
800
330
1
100
AcDbSymbolTableRecord
100
AcDbBlockTableRecord
  2
*D8
340
0
  0
BLOCK_RECORD
  5
80E
330
1
100
AcDbSymbolTableRecord
100
AcDbBlockTableRecord
  2
*D9
340
0
  0
BLOCK_RECORD
  5
81C
330
1
100
AcDbSymbolTableRecord
100
AcDbBlockTableRecord
  2
*D10
340
0
  0
BLOCK_RECORD
  5
82A
330
1
100
AcDbSymbolTableRecord
100
AcDbBlockTableRecord
  2
*D11
340
0
  0
BLOCK_RECORD
  5
87E
330
1
100
AcDbSymbolTableRecord
100
AcDbBlockTableRecord
  2
*D12
340
0
  0
BLOCK_RECORD
  5
88C
330
1
100
AcDbSymbolTableRecord
100
AcDbBlockTableRecord
  2
*D13
340
0
  0
BLOCK_RECORD
  5
89A
330
1
100
AcDbSymbolTableRecord
100
AcDbBlockTableRecord
  2
*D14
340
0
  0
BLOCK_RECORD
  5
8A8
330
1
100
AcDbSymbolTableRecord
100
AcDbBlockTableRecord
  2
*D15
340
0
  0
BLOCK_RECORD
  5
8B6
330
1
100
AcDbSymbolTableRecord
100
AcDbBlockTableRecord
  2
*D16
340
0
  0
BLOCK_RECORD
  5
8C4
330
1
100
AcDbSymbolTableRecord
100
AcDbBlockTableRecord
  2
*D17
340
0
  0
BLOCK_RECORD
  5
8D2
330
1
100
AcDbSymbolTableRecord
100
AcDbBlockTableRecord
  2
*D18
340
0
  0
BLOCK_RECORD
  5
8E0
330
1
100
AcDbSymbolTableRecord
100
AcDbBlockTableRecord
  2
*D19
340
0
  0
BLOCK_RECORD
  5
8EE
330
1
100
AcDbSymbolTableRecord
100
AcDbBlockTableRecord
  2
*D20
340
0
  0
BLOCK_RECORD
  5
8FC
330
1
100
AcDbSymbolTableRecord
100
AcDbBlockTableRecord
  2
*D21
340
0
  0
ENDTAB
  0
ENDSEC
  0
SECTION
  2
BLOCKS
  0
BLOCK
  5
37
330
36
100
AcDbEntity
  8
0
100
AcDbBlockBegin
  2
*Model_Space
 70
     0
 10
0.0
 20
0.0
 30
0.0
  3
*Model_Space
  1

  0
ENDBLK
  5
38
330
36
100
AcDbEntity
  8
0
100
AcDbBlockEnd
  0
BLOCK
  5
33
330
32
100
AcDbEntity
 67
     1
  8
0
100
AcDbBlockBegin
  2
*Paper_Space
 70
     0
 10
0.0
 20
0.0
 30
0.0
  3
*Paper_Space
  1

  0
ENDBLK
  5
34
330
32
100
AcDbEntity
 67
     1
  8
0
100
AcDbBlockEnd
  0
BLOCK
  5
58
330
57
100
AcDbEntity
  8
0
100
AcDbBlockBegin
  2
ARROW
 70
     0
 10
0.0
 20
0.0
 30
0.0
  3
ARROW
  1

  0
LWPOLYLINE
  5
59
330
57
100
AcDbEntity
  8
0
  6
Continuous
 62
     0
100
AcDbPolyline
 90
        3
 70
     0
 43
0.0
 10
2.0
 20
0.535898
 10
0.0
 20
0.0
 10
2.0
 20
-0.535898
  0
ENDBLK
  5
5E
330
57
100
AcDbEntity
  8
0
100
AcDbBlockEnd
  0
BLOCK
  5
3AE
330
3AD
100
AcDbEntity
  8
0
100
AcDbBlockBegin
  2
_Open30
 70
     0
 10
0.0
 20
0.0
 30
0.0
  3
_Open30
  1

  0
LINE
  5
3AF
330
3AD
100
AcDbEntity
  8
0
  6
ByBlock
 62
     0
370
    -2
100
AcDbLine
 10
-1.0
 20
0.267949
 30
0.0
 11
0.0
 21
0.0
 31
0.0
  0
LINE
  5
3B0
330
3AD
100
AcDbEntity
  8
0
  6
ByBlock
 62
     0
370
    -2
100
AcDbLine
 10
0.0
 20
0.0
 30
0.0
 11
-1.0
 21
-0.267949
 31
0.0
  0
LINE
  5
3B1
330
3AD
100
AcDbEntity
  8
0
  6
ByBlock
 62
     0
370
    -2
100
AcDbLine
 10
0.0
 20
0.0
 30
0.0
 11
-1.0
 21
0.0
 31
0.0
  0
ENDBLK
  5
3B2
330
3AD
100
AcDbEntity
  8
0
100
AcDbBlockEnd
  0
BLOCK
  5
7AD
330
7AC
100
AcDbEntity
  8
0
100
AcDbBlockBegin
  2
*D2
 70
     1
 10
0.0
 20
0.0
 30
0.0
  3
*D2
  1

  0
LINE
  5
7AE
330
7AC
100
AcDbEntity
  8
0
 62
     0
370
    -2
100
AcDbLine
 10
-178.2339678749101
 20
-812.0370112307897
 30
0.0
 11
-178.2339678749101
 21
-814.9466426527986
 31
0.0
  0
LINE
  5
7AF
330
7AC
100
AcDbEntity
  8
0
 62
     0
370
    -2
100
AcDbLine
 10
-180.6911549290304
 20
-812.0370112307897
 30
0.0
 11
-180.6911549290304
 21
-814.9466426527986
 31
0.0
  0
LINE
  5
7B0
330
7AC
100
AcDbEntity
  8
0
 62
     0
370
    -2
100
AcDbLine
 10
-175.7339678749101
 20
-813.6966426527985
 30
0.0
 11
-173.2339678749101
 21
-813.6966426527985
 31
0.0
  0
LINE
  5
7B1
330
7AC
100
AcDbEntity
  8
0
 62
     0
370
    -2
100
AcDbLine
 10
-183.1911549290304
 20
-813.6966426527985
 30
0.0
 11
-195.9411549290304
 21
-813.6966426527985
 31
0.0
  0
LINE
  5
7B2
330
7AC
100
AcDbEntity
  8
0
 62
     0
370
    -2
100
AcDbLine
 10
-178.2339678749101
 20
-813.6966426527985
 30
0.0
 11
-180.6911549290304
 21
-813.6966426527985
 31
0.0
  0
INSERT
  5
7B3
330
7AC
100
AcDbEntity
  8
0
 62
     0
370
    -2
100
AcDbBlockReference
  2
_Open30
 10
-178.2339678749101
 20
-813.6966426527985
 30
0.0
 41
2.5
 42
2.5
 43
2.5
 50
180.0
  0
INSERT
  5
7B4
330
7AC
100
AcDbEntity
  8
0
 62
     0
370
    -2
100
AcDbBlockReference
  2
_Open30
 10
-180.6911549290304
 20
-813.6966426527985
 30
0.0
 41
2.5
 42
2.5
 43
2.5
  0
MTEXT
  5
7B5
330
7AC
100
AcDbEntity
  8
0
 62
     4
100
AcDbMText
 10
-190.8161549290304
 20
-811.5716426527985
 30
0.0
 40
3.0
 41
0.0
 71
     5
 72
     1
  1
2.46
 73
     1
 44
1.0
1001
ACAD
1000
MTEXTBEGIN
1070
    73
1070
     1
1070
    44
1040
1.0
1070
    74
1070
     0
1000
MTEXTEND
  0
POINT
  5
7B6
330
7AC
100
AcDbEntity
  8
Defpoints
 62
     0
100
AcDbPoint
 10
-178.2339678749101
 20
-811.7870112307898
 30
0.0
  0
POINT
  5
7B7
330
7AC
100
AcDbEntity
  8
Defpoints
 62
     0
100
AcDbPoint
 10
-180.6911549290304
 20
-811.7870112307898
 30
0.0
  0
POINT
  5
7B8
330
7AC
100
AcDbEntity
  8
Defpoints
 62
     0
100
AcDbPoint
 10
-180.6911549290304
 20
-813.6966426527985
 30
0.0
  0
ENDBLK
  5
7B9
330
7AC
100
AcDbEntity
  8
0
100
AcDbBlockEnd
  0
BLOCK
  5
7BB
330
7BA
100
AcDbEntity
  8
0
100
AcDbBlockBegin
  2
*D3
 70
     1
 10
0.0
 20
0.0
 30
0.0
  3
*D3
  1

  0
LINE
  5
7BC
330
7BA
100
AcDbEntity
  8
0
 62
     0
370
    -2
100
AcDbLine
 10
-176.5958429688369
 20
-817.4931008035521
 30
0.0
 11
-176.5958429688369
 21
-820.0389928730155
 31
0.0
  0
LINE
  5
7BD
330
7BA
100
AcDbEntity
  8
0
 62
     0
370
    -2
100
AcDbLine
 10
-179.6900787669798
 20
-817.4931008035521
 30
0.0
 11
-179.6900787669798
 21
-820.0389928730155
 31
0.0
  0
LINE
  5
7BE
330
7BA
100
AcDbEntity
  8
0
 62
     0
370
    -2
100
AcDbLine
 10
-174.0958429688369
 20
-818.7889928730154
 30
0.0
 11
-171.5958429688369
 21
-818.7889928730154
 31
0.0
  0
LINE
  5
7BF
330
7BA
100
AcDbEntity
  8
0
 62
     0
370
    -2
100
AcDbLine
 10
-182.1900787669798
 20
-818.7889928730154
 30
0.0
 11
-196.0234121003131
 21
-818.7889928730154
 31
0.0
  0
LINE
  5
7C0
330
7BA
100
AcDbEntity
  8
0
 62
     0
370
    -2
100
AcDbLine
 10
-176.5958429688369
 20
-818.7889928730154
 30
0.0
 11
-179.6900787669798
 21
-818.7889928730154
 31
0.0
  0
INSERT
  5
7C1
330
7BA
100
AcDbEntity
  8
0
 62
     0
370
    -2
100
AcDbBlockReference
  2
_Open30
 10
-176.5958429688369
 20
-818.7889928730154
 30
0.0
 41
2.5
 42
2.5
 43
2.5
 50
180.0
  0
INSERT
  5
7C2
330
7BA
100
AcDbEntity
  8
0
 62
     0
370
    -2
100
AcDbBlockReference
  2
_Open30
 10
-179.6900787669798
 20
-818.7889928730154
 30
0.0
 41
2.5
 42
2.5
 43
2.5
  0
MTEXT
  5
7C3
330
7BA
100
AcDbEntity
  8
0
 62
     4
100
AcDbMText
 10
-190.8150787669798
 20
-816.9139928730155
 30
0.0
 40
2.5
 41
0.0
 71
     5
 72
     1
  1
15.47
  7
高2.5
 73
     1
 44
1.0
1001
ACAD
1000
MTEXTBEGIN
1070
    73
1070
     1
1070
    44
1040
1.0
1070
    74
1070
     0
1000
MTEXTEND
  0
POINT
  5
7C4
330
7BA
100
AcDbEntity
  8
Defpoints
 62
     0
100
AcDbPoint
 10
-176.5958429688369
 20
-817.2431008035522
 30
0.0
  0
POINT
  5
7C5
330
7BA
100
AcDbEntity
  8
Defpoints
 62
     0
100
AcDbPoint
 10
-179.6900787669798
 20
-817.2431008035522
 30
0.0
  0
POINT
  5
7C6
330
7BA
100
AcDbEntity
  8
Defpoints
 62
     0
100
AcDbPoint
 10
-179.6900787669798
 20
-818.7889928730154
 30
0.0
  0
ENDBLK
  5
7C7
330
7BA
100
AcDbEntity
  8
0
100
AcDbBlockEnd
  0
BLOCK
  5
7C9
330
7C8
100
AcDbEntity
  8
0
100
AcDbBlockBegin
  2
*D4
 70
     1
 10
0.0
 20
0.0
 30
0.0
  3
*D4
  1

  0
LINE
  5
7CA
330
7C8
100
AcDbEntity
  8
0
 62
     0
370
    -2
100
AcDbLine
 10
-174.8667113607514
 20
-822.9491905193986
 30
0.0
 11
-174.8667113607514
 21
-825.2222781817659
 31
0.0
  0
LINE
  5
7CB
330
7C8
100
AcDbEntity
  8
0
 62
     0
370
    -2
100
AcDbLine
 10
-178.8710163139432
 20
-822.9491905193986
 30
0.0
 11
-178.8710163139432
 21
-825.2222781817659
 31
0.0
  0
LINE
  5
7CC
330
7C8
100
AcDbEntity
  8
0
 62
     0
370
    -2
100
AcDbLine
 10
-172.3667113607514
 20
-823.9722781817658
 30
0.0
 11
-169.8667113607514
 21
-823.9722781817658
 31
0.0
  0
LINE
  5
7CD
330
7C8
100
AcDbEntity
  8
0
 62
     0
370
    -2
100
AcDbLine
 10
-181.3710163139432
 20
-823.9722781817658
 30
0.0
 11
-193.1210163139432
 21
-823.9722781817658
 31
0.0
  0
LINE
  5
7CE
330
7C8
100
AcDbEntity
  8
0
 62
     0
370
    -2
100
AcDbLine
 10
-174.8667113607514
 20
-823.9722781817658
 30
0.0
 11
-178.8710163139432
 21
-823.9722781817658
 31
0.0
  0
INSERT
  5
7CF
330
7C8
100
AcDbEntity
  8
0
 62
     0
370
    -2
100
AcDbBlockReference
  2
_Open30
 10
-174.8667113607514
 20
-823.9722781817658
 30
0.0
 41
2.5
 42
2.5
 43
2.5
 50
180.0
  0
INSERT
  5
7D0
330
7C8
100
AcDbEntity
  8
0
 62
     0
370
    -2
100
AcDbBlockReference
  2
_Open30
 10
-178.8710163139432
 20
-823.9722781817658
 30
0.0
 41
2.5
 42
2.5
 43
2.5
  0
MTEXT
  5
7D1
330
7C8
100
AcDbEntity
  8
0
 62
     4
100
AcDbMText
 10
-188.4960163139432
 20
-821.7472781817658
 30
0.0
 40
3.2
 41
0.0
 71
     5
 72
     1
  1
8.01
  7
高3.2
 73
     1
 44
1.0
1001
ACAD
1000
MTEXTBEGIN
1070
    73
1070
     1
1070
    44
1040
1.0
1070
    74
1070
     0
1000
MTEXTEND
  0
POINT
  5
7D2
330
7C8
100
AcDbEntity
  8
Defpoints
 62
     0
100
AcDbPoint
 10
-174.8667113607514
 20
-822.6991905193985
 30
0.0
  0
POINT
  5
7D3
330
7C8
100
AcDbEntity
  8
Defpoints
 62
     0
100
AcDbPoint
 10
-178.8710163139432
 20
-822.6991905193985
 30
0.0
  0
POINT
  5
7D4
330
7C8
100
AcDbEntity
  8
Defpoints
 62
     0
100
AcDbPoint
 10
-178.8710163139432
 20
-823.9722781817658
 30
0.0
  0
ENDBLK
  5
7D5
330
7C8
100
AcDbEntity
  8
0
100
AcDbBlockEnd
  0
BLOCK
  5
7D7
330
7D6
100
AcDbEntity
  8
0
100
AcDbBlockBegin
  2
*D5
 70
     1
 10
0.0
 20
0.0
 30
0.0
  3
*D5
  1

  0
LINE
  5
7D8
330
7D6
100
AcDbEntity
  8
0
 62
     0
370
    -2
100
AcDbLine
 10
-174.9577180627636
 20
-828.2234104874302
 30
0.0
 11
-174.9577180627636
 21
-830.0418239948866
 31
0.0
  0
LINE
  5
7D9
330
7D6
100
AcDbEntity
  8
0
 62
     0
370
    -2
100
AcDbLine
 10
-179.6900787669798
 20
-828.2234104874302
 30
0.0
 11
-179.6900787669798
 21
-830.0418239948866
 31
0.0
  0
LINE
  5
7DA
330
7D6
100
AcDbEntity
  8
0
 62
     0
370
    -2
100
AcDbLine
 10
-172.4577180627636
 20
-828.7918239948865
 30
0.0
 11
-169.9577180627637
 21
-828.7918239948865
 31
0.0
  0
LINE
  5
7DB
330
7D6
100
AcDbEntity
  8
0
 62
     0
370
    -2
100
AcDbLine
 10
-182.1900787669798
 20
-828.7918239948865
 30
0.0
 11
-203.9400787669798
 21
-828.7918239948865
 31
0.0
  0
LINE
  5
7DC
330
7D6
100
AcDbEntity
  8
0
 62
     0
370
    -2
100
AcDbLine
 10
-174.9577180627636
 20
-828.7918239948865
 30
0.0
 11
-179.6900787669798
 21
-828.7918239948865
 31
0.0
  0
INSERT
  5
7DD
330
7D6
100
AcDbEntity
  8
0
 62
     0
370
    -2
100
AcDbBlockReference
  2
_Open30
 10
-174.9577180627636
 20
-828.7918239948865
 30
0.0
 41
2.5
 42
2.5
 43
2.5
 50
180.0
  0
INSERT
  5
7DE
330
7D6
100
AcDbEntity
  8
0
 62
     0
370
    -2
100
AcDbBlockReference
  2
_Open30
 10
-179.6900787669798
 20
-828.7918239948865
 30
0.0
 41
2.5
 42
2.5
 43
2.5
  0
MTEXT
  5
7DF
330
7D6
100
AcDbEntity
  8
0
 62
     4
100
AcDbMText
 10
-194.3150787669798
 20
-825.9168239948866
 30
0.0
 40
4.5
 41
0.0
 71
     5
 72
     1
  1
47.32
  7
高4.5
 73
     1
 44
1.0
1001
ACAD
1000
MTEXTBEGIN
1070
    73
1070
     1
1070
    44
1040
1.0
1070
    74
1070
     0
1000
MTEXTEND
  0
POINT
  5
7E0
330
7D6
100
AcDbEntity
  8
Defpoints
 62
     0
100
AcDbPoint
 10
-174.9577180627636
 20
-827.9734104874302
 30
0.0
  0
POINT
  5
7E1
330
7D6
100
AcDbEntity
  8
Defpoints
 62
     0
100
AcDbPoint
 10
-179.6900787669798
 20
-827.9734104874302
 30
0.0
  0
POINT
  5
7E2
330
7D6
100
AcDbEntity
  8
Defpoints
 62
     0
100
AcDbPoint
 10
-179.6900787669798
 20
-828.7918239948865
 30
0.0
  0
ENDBLK
  5
7E3
330
7D6
100
AcDbEntity
  8
0
100
AcDbBlockEnd
  0
BLOCK
  5
7E5
330
7E4
100
AcDbEntity
  8
0
100
AcDbBlockBegin
  2
*D6
 70
     1
 10
0.0
 20
0.0
 30
0.0
  3
*D6
  1

  0
LINE
  5
7E6
330
7E4
100
AcDbEntity
  8
0
 62
     0
370
    -2
100
AcDbLine
 10
-153.4800817947562
 20
-812.0370112307897
 30
0.0
 11
-153.4800817947562
 21
-814.9466426527986
 31
0.0
  0
LINE
  5
7E7
330
7E4
100
AcDbEntity
  8
0
 62
     0
370
    -2
100
AcDbLine
 10
-155.9372688488765
 20
-812.0370112307897
 30
0.0
 11
-155.9372688488765
 21
-814.9466426527986
 31
0.0
  0
LINE
  5
7E8
330
7E4
100
AcDbEntity
  8
0
 62
     0
370
    -2
100
AcDbLine
 10
-150.9800817947562
 20
-813.6966426527985
 30
0.0
 11
-148.4800817947562
 21
-813.6966426527985
 31
0.0
  0
LINE
  5
7E9
330
7E4
100
AcDbEntity
  8
0
 62
     0
370
    -2
100
AcDbLine
 10
-158.4372688488765
 20
-813.6966426527985
 30
0.0
 11
-180.0372688488765
 21
-813.6966426527985
 31
0.0
  0
LINE
  5
7EA
330
7E4
100
AcDbEntity
  8
0
 62
     0
370
    -2
100
AcDbLine
 10
-153.4800817947562
 20
-813.6966426527985
 30
0.0
 11
-155.9372688488765
 21
-813.6966426527985
 31
0.0
  0
INSERT
  5
7EB
330
7E4
100
AcDbEntity
  8
0
 62
     0
370
    -2
100
AcDbBlockReference
  2
_Open30
 10
-153.4800817947562
 20
-813.6966426527985
 30
0.0
 41
2.5
 42
2.5
 43
2.5
 50
180.0
  0
INSERT
  5
7EC
330
7E4
100
AcDbEntity
  8
0
 62
     0
370
    -2
100
AcDbBlockReference
  2
_Open30
 10
-155.9372688488765
 20
-813.6966426527985
 30
0.0
 41
2.5
 42
2.5
 43
2.5
  0
MTEXT
  5
7ED
330
7E4
100
AcDbEntity
  8
0
 62
     4
100
AcDbMText
 10
-170.4872688488765
 20
-809.9216426527986
 30
0.0
 40
6.299999999999998
 41
0.0
 71
     5
 72
     1
  1
0.25
  7
高6.3
 73
     1
 44
1.0
1001
ACAD
1000
MTEXTBEGIN
1070
    73
1070
     1
1070
    44
1040
1.0
1070
    74
1070
     0
1000
MTEXTEND
  0
POINT
  5
7EE
330
7E4
100
AcDbEntity
  8
Defpoints
 62
     0
100
AcDbPoint
 10
-153.4800817947562
 20
-811.7870112307898
 30
0.0
  0
POINT
  5
7EF
330
7E4
100
AcDbEntity
  8
Defpoints
 62
     0
100
AcDbPoint
 10
-155.9372688488765
 20
-811.7870112307898
 30
0.0
  0
POINT
  5
7F0
330
7E4
100
AcDbEntity
  8
Defpoints
 62
     0
100
AcDbPoint
 10
-155.9372688488765
 20
-813.6966426527985
 30
0.0
  0
ENDBLK
  5
7F1
330
7E4
100
AcDbEntity
  8
0
100
AcDbBlockEnd
  0
BLOCK
  5
7F3
330
7F2
100
AcDbEntity
  8
0
100
AcDbBlockBegin
  2
*D7
 70
     1
 10
0.0
 20
0.0
 30
0.0
  3
*D7
  1

  0
LINE
  5
7F4
330
7F2
100
AcDbEntity
  8
0
 62
     0
370
    -2
100
AcDbLine
 10
-151.841956888683
 20
-817.4931008035521
 30
0.0
 11
-151.841956888683
 21
-820.0389928730155
 31
0.0
  0
LINE
  5
7F5
330
7F2
100
AcDbEntity
  8
0
 62
     0
370
    -2
100
AcDbLine
 10
-154.9361926868259
 20
-817.4931008035521
 30
0.0
 11
-154.9361926868259
 21
-820.0389928730155
 31
0.0
  0
LINE
  5
7F6
330
7F2
100
AcDbEntity
  8
0
 62
     0
370
    -2
100
AcDbLine
 10
-149.341956888683
 20
-818.7889928730154
 30
0.0
 11
-146.841956888683
 21
-818.7889928730154
 31
0.0
  0
LINE
  5
7F7
330
7F2
100
AcDbEntity
  8
0
 62
     0
370
    -2
100
AcDbLine
 10
-157.4361926868259
 20
-818.7889928730154
 30
0.0
 11
-169.4361926868259
 21
-818.7889928730154
 31
0.0
  0
LINE
  5
7F8
330
7F2
100
AcDbEntity
  8
0
 62
     0
370
    -2
100
AcDbLine
 10
-151.841956888683
 20
-818.7889928730154
 30
0.0
 11
-154.9361926868259
 21
-818.7889928730154
 31
0.0
  0
INSERT
  5
7F9
330
7F2
100
AcDbEntity
  8
0
 62
     0
370
    -2
100
AcDbBlockReference
  2
_Open30
 10
-151.841956888683
 20
-818.7889928730154
 30
0.0
 41
2.5
 42
2.5
 43
2.5
 50
180.0
  0
INSERT
  5
7FA
330
7F2
100
AcDbEntity
  8
0
 62
     0
370
    -2
100
AcDbBlockReference
  2
_Open30
 10
-154.9361926868259
 20
-818.7889928730154
 30
0.0
 41
2.5
 42
2.5
 43
2.5
  0
MTEXT
  5
7FB
330
7F2
100
AcDbEntity
  8
0
 62
     4
100
AcDbMText
 10
-164.8111926868259
 20
-816.6639928730154
 30
0.0
 40
3.0
 41
0.0
 71
     5
 72
     1
  1
1.55
 73
     1
 44
1.0
1001
ACAD
1000
MTEXTBEGIN
1070
    73
1070
     1
1070
    44
1040
1.0
1070
    74
1070
     0
1000
MTEXTEND
  0
POINT
  5
7FC
330
7F2
100
AcDbEntity
  8
Defpoints
 62
     0
100
AcDbPoint
 10
-151.841956888683
 20
-817.2431008035522
 30
0.0
  0
POINT
  5
7FD
330
7F2
100
AcDbEntity
  8
Defpoints
 62
     0
100
AcDbPoint
 10
-154.9361926868259
 20
-817.2431008035522
 30
0.0
  0
POINT
  5
7FE
330
7F2
100
AcDbEntity
  8
Defpoints
 62
     0
100
AcDbPoint
 10
-154.9361926868259
 20
-818.7889928730154
 30
0.0
  0
ENDBLK
  5
7FF
330
7F2
100
AcDbEntity
  8
0
100
AcDbBlockEnd
  0
BLOCK
  5
801
330
800
100
AcDbEntity
  8
0
100
AcDbBlockBegin
  2
*D8
 70
     1
 10
0.0
 20
0.0
 30
0.0
  3
*D8
  1

  0
LINE
  5
802
330
800
100
AcDbEntity
  8
0
 62
     0
370
    -2
100
AcDbLine
 10
-150.1128252805975
 20
-822.9491905193986
 30
0.0
 11
-150.1128252805975
 21
-825.2222781817659
 31
0.0
  0
LINE
  5
803
330
800
100
AcDbEntity
  8
0
 62
     0
370
    -2
100
AcDbLine
 10
-154.1171302337894
 20
-822.9491905193986
 30
0.0
 11
-154.1171302337894
 21
-825.2222781817659
 31
0.0
  0
LINE
  5
804
330
800
100
AcDbEntity
  8
0
 62
     0
370
    -2
100
AcDbLine
 10
-147.6128252805976
 20
-823.9722781817658
 30
0.0
 11
-145.1128252805975
 21
-823.9722781817658
 31
0.0
  0
LINE
  5
805
330
800
100
AcDbEntity
  8
0
 62
     0
370
    -2
100
AcDbLine
 10
-156.6171302337894
 20
-823.9722781817658
 30
0.0
 11
-164.9504635671227
 21
-823.9722781817658
 31
0.0
  0
LINE
  5
806
330
800
100
AcDbEntity
  8
0
 62
     0
370
    -2
100
AcDbLine
 10
-150.1128252805975
 20
-823.9722781817658
 30
0.0
 11
-154.1171302337894
 21
-823.9722781817658
 31
0.0
  0
INSERT
  5
807
330
800
100
AcDbEntity
  8
0
 62
     0
370
    -2
100
AcDbBlockReference
  2
_Open30
 10
-150.1128252805975
 20
-823.9722781817658
 30
0.0
 41
2.5
 42
2.5
 43
2.5
 50
180.0
  0
INSERT
  5
808
330
800
100
AcDbEntity
  8
0
 62
     0
370
    -2
100
AcDbBlockReference
  2
_Open30
 10
-154.1171302337894
 20
-823.9722781817658
 30
0.0
 41
2.5
 42
2.5
 43
2.5
  0
MTEXT
  5
809
330
800
100
AcDbEntity
  8
0
 62
     4
100
AcDbMText
 10
-162.4921302337894
 20
-822.3472781817658
 30
0.0
 40
2.0
 41
0.0
 71
     5
 72
     1
  1
0.8
  7
高2
 73
     1
 44
1.0
1001
ACAD
1000
MTEXTBEGIN
1070
    73
1070
     1
1070
    44
1040
1.0
1070
    74
1070
     0
1000
MTEXTEND
  0
POINT
  5
80A
330
800
100
AcDbEntity
  8
Defpoints
 62
     0
100
AcDbPoint
 10
-150.1128252805975
 20
-822.6991905193985
 30
0.0
  0
POINT
  5
80B
330
800
100
AcDbEntity
  8
Defpoints
 62
     0
100
AcDbPoint
 10
-154.1171302337894
 20
-822.6991905193985
 30
0.0
  0
POINT
  5
80C
330
800
100
AcDbEntity
  8
Defpoints
 62
     0
100
AcDbPoint
 10
-154.1171302337894
 20
-823.9722781817658
 30
0.0
  0
ENDBLK
  5
80D
330
800
100
AcDbEntity
  8
0
100
AcDbBlockEnd
  0
BLOCK
  5
80F
330
80E
100
AcDbEntity
  8
0
100
AcDbBlockBegin
  2
*D9
 70
     1
 10
0.0
 20
0.0
 30
0.0
  3
*D9
  1

  0
LINE
  5
810
330
80E
100
AcDbEntity
  8
0
 62
     0
370
    -2
100
AcDbLine
 10
-150.2038319826098
 20
-828.2234104874302
 30
0.0
 11
-150.2038319826098
 21
-830.0418239948866
 31
0.0
  0
LINE
  5
811
330
80E
100
AcDbEntity
  8
0
 62
     0
370
    -2
100
AcDbLine
 10
-154.9361926868259
 20
-828.2234104874302
 30
0.0
 11
-154.9361926868259
 21
-830.0418239948866
 31
0.0
  0
LINE
  5
812
330
80E
100
AcDbEntity
  8
0
 62
     0
370
    -2
100
AcDbLine
 10
-147.7038319826099
 20
-828.7918239948865
 30
0.0
 11
-145.2038319826098
 21
-828.7918239948865
 31
0.0
  0
LINE
  5
813
330
80E
100
AcDbEntity
  8
0
 62
     0
370
    -2
100
AcDbLine
 10
-157.4361926868259
 20
-828.7918239948865
 30
0.0
 11
-172.1861926868259
 21
-828.7918239948865
 31
0.0
  0
LINE
  5
814
330
80E
100
AcDbEntity
  8
0
 62
     0
370
    -2
100
AcDbLine
 10
-150.2038319826098
 20
-828.7918239948865
 30
0.0
 11
-154.9361926868259
 21
-828.7918239948865
 31
0.0
  0
INSERT
  5
815
330
80E
100
AcDbEntity
  8
0
 62
     0
370
    -2
100
AcDbBlockReference
  2
_Open30
 10
-150.2038319826098
 20
-828.7918239948865
 30
0.0
 41
2.5
 42
2.5
 43
2.5
 50
180.0
  0
INSERT
  5
816
330
80E
100
AcDbEntity
  8
0
 62
     0
370
    -2
100
AcDbBlockReference
  2
_Open30
 10
-154.9361926868259
 20
-828.7918239948865
 30
0.0
 41
2.5
 42
2.5
 43
2.5
  0
MTEXT
  5
817
330
80E
100
AcDbEntity
  8
0
 62
     4
100
AcDbMText
 10
-166.0611926868259
 20
-826.6668239948867
 30
0.0
 40
3.0
 41
0.0
 71
     5
 72
     1
  1
18.93
 73
     1
 44
1.0
1001
ACAD
1000
MTEXTBEGIN
1070
    73
1070
     1
1070
    44
1040
1.0
1070
    74
1070
     0
1000
MTEXTEND
  0
POINT
  5
818
330
80E
100
AcDbEntity
  8
Defpoints
 62
     0
100
AcDbPoint
 10
-150.2038319826098
 20
-827.9734104874302
 30
0.0
  0
POINT
  5
819
330
80E
100
AcDbEntity
  8
Defpoints
 62
     0
100
AcDbPoint
 10
-154.9361926868259
 20
-827.9734104874302
 30
0.0
  0
POINT
  5
81A
330
80E
100
AcDbEntity
  8
Defpoints
 62
     0
100
AcDbPoint
 10
-154.9361926868259
 20
-828.7918239948865
 30
0.0
  0
ENDBLK
  5
81B
330
80E
100
AcDbEntity
  8
0
100
AcDbBlockEnd
  0
BLOCK
  5
81D
330
81C
100
AcDbEntity
  8
0
100
AcDbBlockBegin
  2
*D10
 70
     1
 10
0.0
 20
0.0
 30
0.0
  3
*D10
  1

  0
LINE
  5
81E
330
81C
100
AcDbEntity
  8
0
 62
     0
370
    -2
100
AcDbLine
 10
-153.0082588337482
 20
-833.2792506940199
 30
0.0
 11
-153.0082588337482
 21
-835.5891717708955
 31
0.0
  0
LINE
  5
81F
330
81C
100
AcDbEntity
  8
0
 62
     0
370
    -2
100
AcDbLine
 10
-157.5969340358961
 20
-833.2792506940199
 30
0.0
 11
-157.5969340358961
 21
-835.5891717708955
 31
0.0
  0
LINE
  5
820
330
81C
100
AcDbEntity
  8
0
 62
     0
370
    -2
100
AcDbLine
 10
-150.5082588337482
 20
-834.3391717708955
 30
0.0
 11
-148.0082588337482
 21
-834.3391717708955
 31
0.0
  0
LINE
  5
821
330
81C
100
AcDbEntity
  8
0
 62
     0
370
    -2
100
AcDbLine
 10
-160.0969340358961
 20
-834.3391717708955
 30
0.0
 11
-174.8469340358961
 21
-834.3391717708955
 31
0.0
  0
LINE
  5
822
330
81C
100
AcDbEntity
  8
0
 62
     0
370
    -2
100
AcDbLine
 10
-153.0082588337482
 20
-834.3391717708955
 30
0.0
 11
-157.5969340358961
 21
-834.3391717708955
 31
0.0
  0
INSERT
  5
823
330
81C
100
AcDbEntity
  8
0
 62
     0
370
    -2
100
AcDbBlockReference
  2
_Open30
 10
-153.0082588337482
 20
-834.3391717708955
 30
0.0
 41
2.5
 42
2.5
 43
2.5
 50
180.0
  0
INSERT
  5
824
330
81C
100
AcDbEntity
  8
0
 62
     0
370
    -2
100
AcDbBlockReference
  2
_Open30
 10
-157.5969340358961
 20
-834.3391717708955
 30
0.0
 41
2.5
 42
2.5
 43
2.5
  0
MTEXT
  5
825
330
81C
100
AcDbEntity
  8
0
 62
     4
100
AcDbMText
 10
-168.7219340358961
 20
-832.2141717708955
 30
0.0
 40
3.0
 41
0.0
 71
     5
 72
     1
  1
13.77
 73
     1
 44
1.0
1001
ACAD
1000
MTEXTBEGIN
1070
    73
1070
     1
1070
    44
1040
1.0
1070
    74
1070
     0
1000
MTEXTEND
  0
POINT
  5
826
330
81C
100
AcDbEntity
  8
Defpoints
 62
     0
100
AcDbPoint
 10
-153.0082588337482
 20
-833.0292506940201
 30
0.0
  0
POINT
  5
827
330
81C
100
AcDbEntity
  8
Defpoints
 62
     0
100
AcDbPoint
 10
-157.5969340358961
 20
-833.0292506940201
 30
0.0
  0
POINT
  5
828
330
81C
100
AcDbEntity
  8
Defpoints
 62
     0
100
AcDbPoint
 10
-157.5969340358961
 20
-834.3391717708955
 30
0.0
  0
ENDBLK
  5
829
330
81C
100
AcDbEntity
  8
0
100
AcDbBlockEnd
  0
BLOCK
  5
82B
330
82A
100
AcDbEntity
  8
0
100
AcDbBlockBegin
  2
*D11
 70
     1
 10
0.0
 20
0.0
 30
0.0
  3
*D11
  1

  0
LINE
  5
82C
330
82A
100
AcDbEntity
  8
0
 62
     0
370
    -2
100
AcDbLine
 10
-160.1045416668985
 20
-802.3497593757458
 30
0.0
 11
-160.1045416668985
 21
-794.9532258978079
 31
0.0
  0
LINE
  5
82D
330
82A
100
AcDbEntity
  8
0
 62
     0
370
    -2
100
AcDbLine
 10
-170.0430160363884
 20
-802.3497593757458
 30
0.0
 11
-170.0430160363884
 21
-794.9532258978079
 31
0.0
  0
LINE
  5
82E
330
82A
100
AcDbEntity
  8
0
 62
     0
370
    -2
100
AcDbLine
 10
-162.6045416668985
 20
-796.2032258978077
 30
0.0
 11
-167.5430160363885
 21
-796.2032258978077
 31
0.0
  0
INSERT
  5
82F
330
82A
100
AcDbEntity
  8
0
 62
     0
370
    -2
100
AcDbBlockReference
  2
_Open30
 10
-160.1045416668985
 20
-796.2032258978077
 30
0.0
 41
2.5
 42
2.5
 43
2.5
  0
INSERT
  5
830
330
82A
100
AcDbEntity
  8
0
 62
     0
370
    -2
100
AcDbBlockReference
  2
_Open30
 10
-170.0430160363884
 20
-796.2032258978077
 30
0.0
 41
2.5
 42
2.5
 43
2.5
 50
180.0
  0
MTEXT
  5
831
330
82A
100
AcDbEntity
  8
0
 62
     4
100
AcDbMText
 10
-167.1793885053084
 20
-794.0782258978079
 30
0.0
 40
3.0
 41
0.0
 71
     5
 72
     1
  1
9.94
 73
     1
 44
1.0
1001
ACAD
1000
MTEXTBEGIN
1070
    73
1070
     1
1070
    44
1040
1.0
1070
    74
1070
     0
1000
MTEXTEND
  0
POINT
  5
832
330
82A
100
AcDbEntity
  8
Defpoints
 62
     0
100
AcDbPoint
 10
-160.1045416668985
 20
-802.5997593757455
 30
0.0
  0
POINT
  5
833
330
82A
100
AcDbEntity
  8
Defpoints
 62
     0
100
AcDbPoint
 10
-170.0430160363884
 20
-802.5997593757455
 30
0.0
  0
POINT
  5
834
330
82A
100
AcDbEntity
  8
Defpoints
 62
     0
100
AcDbPoint
 10
-170.0430160363884
 20
-796.2032258978077
 30
0.0
  0
ENDBLK
  5
835
330
82A
100
AcDbEntity
  8
0
100
AcDbBlockEnd
  0
BLOCK
  5
87F
330
87E
100
AcDbEntity
  8
0
100
AcDbBlockBegin
  2
*D12
 70
     1
 10
0.0
 20
0.0
 30
0.0
  3
*D12
  1

  0
LINE
  5
908
330
87E
100
AcDbEntity
  8
0
 62
     0
370
    -2
100
AcDbLine
 10
291.7262014805321
 20
-494.7755217749552
 30
0.0
 11
291.7262014805321
 21
-497.6851531969641
 31
0.0
  0
LINE
  5
909
330
87E
100
AcDbEntity
  8
0
 62
     0
370
    -2
100
AcDbLine
 10
289.2690144264118
 20
-494.7755217749552
 30
0.0
 11
289.2690144264118
 21
-497.6851531969641
 31
0.0
  0
LINE
  5
90A
330
87E
100
AcDbEntity
  8
0
 62
     0
370
    -2
100
AcDbLine
 10
294.2262014805322
 20
-496.4351531969641
 30
0.0
 11
296.7262014805322
 21
-496.4351531969641
 31
0.0
  0
LINE
  5
90B
330
87E
100
AcDbEntity
  8
0
 62
     0
370
    -2
100
AcDbLine
 10
286.7690144264118
 20
-496.4351531969641
 30
0.0
 11
274.0190144264119
 21
-496.4351531969641
 31
0.0
  0
LINE
  5
90C
330
87E
100
AcDbEntity
  8
0
 62
     0
370
    -2
100
AcDbLine
 10
291.7262014805321
 20
-496.4351531969641
 30
0.0
 11
289.2690144264118
 21
-496.4351531969641
 31
0.0
  0
INSERT
  5
90D
330
87E
100
AcDbEntity
  8
0
 62
     0
370
    -2
100
AcDbBlockReference
  2
_Open30
 10
291.7262014805321
 20
-496.4351531969641
 30
0.0
 41
2.5
 42
2.5
 43
2.5
 50
180.0
  0
INSERT
  5
90E
330
87E
100
AcDbEntity
  8
0
 62
     0
370
    -2
100
AcDbBlockReference
  2
_Open30
 10
289.2690144264118
 20
-496.4351531969641
 30
0.0
 41
2.5
 42
2.5
 43
2.5
  0
MTEXT
  5
90F
330
87E
100
AcDbEntity
  8
0
 62
     4
100
AcDbMText
 10
279.1440144264119
 20
-494.3101531969642
 30
0.0
 40
3.0
 41
0.0
 71
     5
 72
     1
  1
2.46
 73
     1
 44
1.0
1001
ACAD
1000
MTEXTBEGIN
1070
    73
1070
     1
1070
    44
1040
1.0
1070
    74
1070
     0
1000
MTEXTEND
  0
POINT
  5
910
330
87E
100
AcDbEntity
  8
Defpoints
 62
     0
100
AcDbPoint
 10
291.7262014805321
 20
-494.5255217749553
 30
0.0
  0
POINT
  5
911
330
87E
100
AcDbEntity
  8
Defpoints
 62
     0
100
AcDbPoint
 10
289.2690144264118
 20
-494.5255217749553
 30
0.0
  0
POINT
  5
912
330
87E
100
AcDbEntity
  8
Defpoints
 62
     0
100
AcDbPoint
 10
289.2690144264118
 20
-496.4351531969641
 30
0.0
  0
ENDBLK
  5
880
330
87E
100
AcDbEntity
  8
0
100
AcDbBlockEnd
  0
BLOCK
  5
88D
330
88C
100
AcDbEntity
  8
0
100
AcDbBlockBegin
  2
*D13
 70
     1
 10
0.0
 20
0.0
 30
0.0
  3
*D13
  1

  0
LINE
  5
913
330
88C
100
AcDbEntity
  8
0
 62
     0
370
    -2
100
AcDbLine
 10
293.3643263866054
 20
-500.2316113477176
 30
0.0
 11
293.3643263866054
 21
-502.777503417181
 31
0.0
  0
LINE
  5
914
330
88C
100
AcDbEntity
  8
0
 62
     0
370
    -2
100
AcDbLine
 10
290.2700905884625
 20
-500.2316113477176
 30
0.0
 11
290.2700905884625
 21
-502.777503417181
 31
0.0
  0
LINE
  5
915
330
88C
100
AcDbEntity
  8
0
 62
     0
370
    -2
100
AcDbLine
 10
295.8643263866054
 20
-501.527503417181
 30
0.0
 11
298.3643263866054
 21
-501.527503417181
 31
0.0
  0
LINE
  5
916
330
88C
100
AcDbEntity
  8
0
 62
     0
370
    -2
100
AcDbLine
 10
287.7700905884625
 20
-501.527503417181
 30
0.0
 11
273.9367572551291
 21
-501.527503417181
 31
0.0
  0
LINE
  5
917
330
88C
100
AcDbEntity
  8
0
 62
     0
370
    -2
100
AcDbLine
 10
293.3643263866054
 20
-501.527503417181
 30
0.0
 11
290.2700905884625
 21
-501.527503417181
 31
0.0
  0
INSERT
  5
918
330
88C
100
AcDbEntity
  8
0
 62
     0
370
    -2
100
AcDbBlockReference
  2
_Open30
 10
293.3643263866054
 20
-501.527503417181
 30
0.0
 41
2.5
 42
2.5
 43
2.5
 50
180.0
  0
INSERT
  5
919
330
88C
100
AcDbEntity
  8
0
 62
     0
370
    -2
100
AcDbBlockReference
  2
_Open30
 10
290.2700905884625
 20
-501.527503417181
 30
0.0
 41
2.5
 42
2.5
 43
2.5
  0
MTEXT
  5
91A
330
88C
100
AcDbEntity
  8
0
 62
     4
100
AcDbMText
 10
279.1450905884625
 20
-499.652503417181
 30
0.0
 40
2.5
 41
0.0
 71
     5
 72
     1
  1
15.47
  7
高2.5
 73
     1
 44
1.0
1001
ACAD
1000
MTEXTBEGIN
1070
    73
1070
     1
1070
    44
1040
1.0
1070
    74
1070
     0
1000
MTEXTEND
  0
POINT
  5
91B
330
88C
100
AcDbEntity
  8
Defpoints
 62
     0
100
AcDbPoint
 10
293.3643263866054
 20
-499.9816113477177
 30
0.0
  0
POINT
  5
91C
330
88C
100
AcDbEntity
  8
Defpoints
 62
     0
100
AcDbPoint
 10
290.2700905884625
 20
-499.9816113477177
 30
0.0
  0
POINT
  5
91D
330
88C
100
AcDbEntity
  8
Defpoints
 62
     0
100
AcDbPoint
 10
290.2700905884625
 20
-501.527503417181
 30
0.0
  0
ENDBLK
  5
88E
330
88C
100
AcDbEntity
  8
0
100
AcDbBlockEnd
  0
BLOCK
  5
89B
330
89A
100
AcDbEntity
  8
0
100
AcDbBlockBegin
  2
*D14
 70
     1
 10
0.0
 20
0.0
 30
0.0
  3
*D14
  1

  0
LINE
  5
91E
330
89A
100
AcDbEntity
  8
0
 62
     0
370
    -2
100
AcDbLine
 10
295.0934579946909
 20
-505.6877010635641
 30
0.0
 11
295.0934579946909
 21
-507.9607887259315
 31
0.0
  0
LINE
  5
91F
330
89A
100
AcDbEntity
  8
0
 62
     0
370
    -2
100
AcDbLine
 10
291.089153041499
 20
-505.6877010635641
 30
0.0
 11
291.089153041499
 21
-507.9607887259315
 31
0.0
  0
LINE
  5
920
330
89A
100
AcDbEntity
  8
0
 62
     0
370
    -2
100
AcDbLine
 10
297.5934579946909
 20
-506.7107887259314
 30
0.0
 11
300.0934579946909
 21
-506.7107887259314
 31
0.0
  0
LINE
  5
921
330
89A
100
AcDbEntity
  8
0
 62
     0
370
    -2
100
AcDbLine
 10
288.589153041499
 20
-506.7107887259314
 30
0.0
 11
276.839153041499
 21
-506.7107887259314
 31
0.0
  0
LINE
  5
922
330
89A
100
AcDbEntity
  8
0
 62
     0
370
    -2
100
AcDbLine
 10
295.0934579946909
 20
-506.7107887259314
 30
0.0
 11
291.089153041499
 21
-506.7107887259314
 31
0.0
  0
INSERT
  5
923
330
89A
100
AcDbEntity
  8
0
 62
     0
370
    -2
100
AcDbBlockReference
  2
_Open30
 10
295.0934579946909
 20
-506.7107887259314
 30
0.0
 41
2.5
 42
2.5
 43
2.5
 50
180.0
  0
INSERT
  5
924
330
89A
100
AcDbEntity
  8
0
 62
     0
370
    -2
100
AcDbBlockReference
  2
_Open30
 10
291.089153041499
 20
-506.7107887259314
 30
0.0
 41
2.5
 42
2.5
 43
2.5
  0
MTEXT
  5
925
330
89A
100
AcDbEntity
  8
0
 62
     4
100
AcDbMText
 10
281.464153041499
 20
-504.4857887259314
 30
0.0
 40
3.2
 41
0.0
 71
     5
 72
     1
  1
8.01
  7
高3.2
 73
     1
 44
1.0
1001
ACAD
1000
MTEXTBEGIN
1070
    73
1070
     1
1070
    44
1040
1.0
1070
    74
1070
     0
1000
MTEXTEND
  0
POINT
  5
926
330
89A
100
AcDbEntity
  8
Defpoints
 62
     0
100
AcDbPoint
 10
295.0934579946909
 20
-505.4377010635642
 30
0.0
  0
POINT
  5
927
330
89A
100
AcDbEntity
  8
Defpoints
 62
     0
100
AcDbPoint
 10
291.089153041499
 20
-505.4377010635642
 30
0.0
  0
POINT
  5
928
330
89A
100
AcDbEntity
  8
Defpoints
 62
     0
100
AcDbPoint
 10
291.089153041499
 20
-506.7107887259314
 30
0.0
  0
ENDBLK
  5
89C
330
89A
100
AcDbEntity
  8
0
100
AcDbBlockEnd
  0
BLOCK
  5
8A9
330
8A8
100
AcDbEntity
  8
0
100
AcDbBlockBegin
  2
*D15
 70
     1
 10
0.0
 20
0.0
 30
0.0
  3
*D15
  1

  0
LINE
  5
929
330
8A8
100
AcDbEntity
  8
0
 62
     0
370
    -2
100
AcDbLine
 10
295.0024512926786
 20
-510.9619210315957
 30
0.0
 11
295.0024512926786
 21
-512.7803345390522
 31
0.0
  0
LINE
  5
92A
330
8A8
100
AcDbEntity
  8
0
 62
     0
370
    -2
100
AcDbLine
 10
290.2700905884625
 20
-510.9619210315957
 30
0.0
 11
290.2700905884625
 21
-512.7803345390522
 31
0.0
  0
LINE
  5
92B
330
8A8
100
AcDbEntity
  8
0
 62
     0
370
    -2
100
AcDbLine
 10
297.5024512926786
 20
-511.5303345390522
 30
0.0
 11
300.0024512926787
 21
-511.5303345390522
 31
0.0
  0
LINE
  5
92C
330
8A8
100
AcDbEntity
  8
0
 62
     0
370
    -2
100
AcDbLine
 10
287.7700905884625
 20
-511.5303345390522
 30
0.0
 11
266.0200905884625
 21
-511.5303345390522
 31
0.0
  0
LINE
  5
92D
330
8A8
100
AcDbEntity
  8
0
 62
     0
370
    -2
100
AcDbLine
 10
295.0024512926786
 20
-511.5303345390522
 30
0.0
 11
290.2700905884625
 21
-511.5303345390522
 31
0.0
  0
INSERT
  5
92E
330
8A8
100
AcDbEntity
  8
0
 62
     0
370
    -2
100
AcDbBlockReference
  2
_Open30
 10
295.0024512926786
 20
-511.5303345390522
 30
0.0
 41
2.5
 42
2.5
 43
2.5
 50
180.0
  0
INSERT
  5
92F
330
8A8
100
AcDbEntity
  8
0
 62
     0
370
    -2
100
AcDbBlockReference
  2
_Open30
 10
290.2700905884625
 20
-511.5303345390522
 30
0.0
 41
2.5
 42
2.5
 43
2.5
  0
MTEXT
  5
930
330
8A8
100
AcDbEntity
  8
0
 62
     4
100
AcDbMText
 10
275.6450905884625
 20
-508.6553345390521
 30
0.0
 40
4.5
 41
0.0
 71
     5
 72
     1
  1
47.32
  7
高4.5
 73
     1
 44
1.0
1001
ACAD
1000
MTEXTBEGIN
1070
    73
1070
     1
1070
    44
1040
1.0
1070
    74
1070
     0
1000
MTEXTEND
  0
POINT
  5
931
330
8A8
100
AcDbEntity
  8
Defpoints
 62
     0
100
AcDbPoint
 10
295.0024512926786
 20
-510.7119210315958
 30
0.0
  0
POINT
  5
932
330
8A8
100
AcDbEntity
  8
Defpoints
 62
     0
100
AcDbPoint
 10
290.2700905884625
 20
-510.7119210315958
 30
0.0
  0
POINT
  5
933
330
8A8
100
AcDbEntity
  8
Defpoints
 62
     0
100
AcDbPoint
 10
290.2700905884625
 20
-511.5303345390522
 30
0.0
  0
ENDBLK
  5
8AA
330
8A8
100
AcDbEntity
  8
0
100
AcDbBlockEnd
  0
BLOCK
  5
8B7
330
8B6
100
AcDbEntity
  8
0
100
AcDbBlockBegin
  2
*D16
 70
     1
 10
0.0
 20
0.0
 30
0.0
  3
*D16
  1

  0
LINE
  5
934
330
8B6
100
AcDbEntity
  8
0
 62
     0
370
    -2
100
AcDbLine
 10
316.4800875606861
 20
-494.7755217749552
 30
0.0
 11
316.4800875606861
 21
-497.6851531969641
 31
0.0
  0
LINE
  5
935
330
8B6
100
AcDbEntity
  8
0
 62
     0
370
    -2
100
AcDbLine
 10
314.0229005065657
 20
-494.7755217749552
 30
0.0
 11
314.0229005065657
 21
-497.6851531969641
 31
0.0
  0
LINE
  5
936
330
8B6
100
AcDbEntity
  8
0
 62
     0
370
    -2
100
AcDbLine
 10
318.9800875606861
 20
-496.4351531969641
 30
0.0
 11
321.4800875606861
 21
-496.4351531969641
 31
0.0
  0
LINE
  5
937
330
8B6
100
AcDbEntity
  8
0
 62
     0
370
    -2
100
AcDbLine
 10
311.5229005065657
 20
-496.4351531969641
 30
0.0
 11
289.9229005065659
 21
-496.4351531969641
 31
0.0
  0
LINE
  5
938
330
8B6
100
AcDbEntity
  8
0
 62
     0
370
    -2
100
AcDbLine
 10
316.4800875606861
 20
-496.4351531969641
 30
0.0
 11
314.0229005065657
 21
-496.4351531969641
 31
0.0
  0
INSERT
  5
939
330
8B6
100
AcDbEntity
  8
0
 62
     0
370
    -2
100
AcDbBlockReference
  2
_Open30
 10
316.4800875606861
 20
-496.4351531969641
 30
0.0
 41
2.5
 42
2.5
 43
2.5
 50
180.0
  0
INSERT
  5
93A
330
8B6
100
AcDbEntity
  8
0
 62
     0
370
    -2
100
AcDbBlockReference
  2
_Open30
 10
314.0229005065657
 20
-496.4351531969641
 30
0.0
 41
2.5
 42
2.5
 43
2.5
  0
MTEXT
  5
93B
330
8B6
100
AcDbEntity
  8
0
 62
     4
100
AcDbMText
 10
299.4729005065658
 20
-492.6601531969642
 30
0.0
 40
6.299999999999998
 41
0.0
 71
     5
 72
     1
  1
0.25
  7
高6.3
 73
     1
 44
1.0
1001
ACAD
1000
MTEXTBEGIN
1070
    73
1070
     1
1070
    44
1040
1.0
1070
    74
1070
     0
1000
MTEXTEND
  0
POINT
  5
93C
330
8B6
100
AcDbEntity
  8
Defpoints
 62
     0
100
AcDbPoint
 10
316.4800875606861
 20
-494.5255217749553
 30
0.0
  0
POINT
  5
93D
330
8B6
100
AcDbEntity
  8
Defpoints
 62
     0
100
AcDbPoint
 10
314.0229005065657
 20
-494.5255217749553
 30
0.0
  0
POINT
  5
93E
330
8B6
100
AcDbEntity
  8
Defpoints
 62
     0
100
AcDbPoint
 10
314.0229005065657
 20
-496.4351531969641
 30
0.0
  0
ENDBLK
  5
8B8
330
8B6
100
AcDbEntity
  8
0
100
AcDbBlockEnd
  0
BLOCK
  5
8C5
330
8C4
100
AcDbEntity
  8
0
100
AcDbBlockBegin
  2
*D17
 70
     1
 10
0.0
 20
0.0
 30
0.0
  3
*D17
  1

  0
LINE
  5
93F
330
8C4
100
AcDbEntity
  8
0
 62
     0
370
    -2
100
AcDbLine
 10
318.1182124667592
 20
-500.2316113477176
 30
0.0
 11
318.1182124667592
 21
-502.777503417181
 31
0.0
  0
LINE
  5
940
330
8C4
100
AcDbEntity
  8
0
 62
     0
370
    -2
100
AcDbLine
 10
315.0239766686163
 20
-500.2316113477176
 30
0.0
 11
315.0239766686163
 21
-502.777503417181
 31
0.0
  0
LINE
  5
941
330
8C4
100
AcDbEntity
  8
0
 62
     0
370
    -2
100
AcDbLine
 10
320.6182124667592
 20
-501.527503417181
 30
0.0
 11
323.1182124667593
 21
-501.527503417181
 31
0.0
  0
LINE
  5
942
330
8C4
100
AcDbEntity
  8
0
 62
     0
370
    -2
100
AcDbLine
 10
312.5239766686163
 20
-501.527503417181
 30
0.0
 11
300.5239766686163
 21
-501.527503417181
 31
0.0
  0
LINE
  5
943
330
8C4
100
AcDbEntity
  8
0
 62
     0
370
    -2
100
AcDbLine
 10
318.1182124667592
 20
-501.527503417181
 30
0.0
 11
315.0239766686163
 21
-501.527503417181
 31
0.0
  0
INSERT
  5
944
330
8C4
100
AcDbEntity
  8
0
 62
     0
370
    -2
100
AcDbBlockReference
  2
_Open30
 10
318.1182124667592
 20
-501.527503417181
 30
0.0
 41
2.5
 42
2.5
 43
2.5
 50
180.0
  0
INSERT
  5
945
330
8C4
100
AcDbEntity
  8
0
 62
     0
370
    -2
100
AcDbBlockReference
  2
_Open30
 10
315.0239766686163
 20
-501.527503417181
 30
0.0
 41
2.5
 42
2.5
 43
2.5
  0
MTEXT
  5
946
330
8C4
100
AcDbEntity
  8
0
 62
     4
100
AcDbMText
 10
305.1489766686164
 20
-499.402503417181
 30
0.0
 40
3.0
 41
0.0
 71
     5
 72
     1
  1
1.55
 73
     1
 44
1.0
1001
ACAD
1000
MTEXTBEGIN
1070
    73
1070
     1
1070
    44
1040
1.0
1070
    74
1070
     0
1000
MTEXTEND
  0
POINT
  5
947
330
8C4
100
AcDbEntity
  8
Defpoints
 62
     0
100
AcDbPoint
 10
318.1182124667592
 20
-499.9816113477177
 30
0.0
  0
POINT
  5
948
330
8C4
100
AcDbEntity
  8
Defpoints
 62
     0
100
AcDbPoint
 10
315.0239766686163
 20
-499.9816113477177
 30
0.0
  0
POINT
  5
949
330
8C4
100
AcDbEntity
  8
Defpoints
 62
     0
100
AcDbPoint
 10
315.0239766686163
 20
-501.527503417181
 30
0.0
  0
ENDBLK
  5
8C6
330
8C4
100
AcDbEntity
  8
0
100
AcDbBlockEnd
  0
BLOCK
  5
8D3
330
8D2
100
AcDbEntity
  8
0
100
AcDbBlockBegin
  2
*D18
 70
     1
 10
0.0
 20
0.0
 30
0.0
  3
*D18
  1

  0
LINE
  5
94A
330
8D2
100
AcDbEntity
  8
0
 62
     0
370
    -2
100
AcDbLine
 10
319.8473440748447
 20
-505.6877010635641
 30
0.0
 11
319.8473440748447
 21
-507.9607887259315
 31
0.0
  0
LINE
  5
94B
330
8D2
100
AcDbEntity
  8
0
 62
     0
370
    -2
100
AcDbLine
 10
315.843039121653
 20
-505.6877010635641
 30
0.0
 11
315.843039121653
 21
-507.9607887259315
 31
0.0
  0
LINE
  5
94C
330
8D2
100
AcDbEntity
  8
0
 62
     0
370
    -2
100
AcDbLine
 10
322.3473440748447
 20
-506.7107887259314
 30
0.0
 11
324.8473440748447
 21
-506.7107887259314
 31
0.0
  0
LINE
  5
94D
330
8D2
100
AcDbEntity
  8
0
 62
     0
370
    -2
100
AcDbLine
 10
313.3430391216529
 20
-506.7107887259314
 30
0.0
 11
305.0097057883196
 21
-506.7107887259314
 31
0.0
  0
LINE
  5
94E
330
8D2
100
AcDbEntity
  8
0
 62
     0
370
    -2
100
AcDbLine
 10
319.8473440748447
 20
-506.7107887259314
 30
0.0
 11
315.843039121653
 21
-506.7107887259314
 31
0.0
  0
INSERT
  5
94F
330
8D2
100
AcDbEntity
  8
0
 62
     0
370
    -2
100
AcDbBlockReference
  2
_Open30
 10
319.8473440748447
 20
-506.7107887259314
 30
0.0
 41
2.5
 42
2.5
 43
2.5
 50
180.0
  0
INSERT
  5
950
330
8D2
100
AcDbEntity
  8
0
 62
     0
370
    -2
100
AcDbBlockReference
  2
_Open30
 10
315.843039121653
 20
-506.7107887259314
 30
0.0
 41
2.5
 42
2.5
 43
2.5
  0
MTEXT
  5
951
330
8D2
100
AcDbEntity
  8
0
 62
     4
100
AcDbMText
 10
307.468039121653
 20
-505.0857887259314
 30
0.0
 40
2.0
 41
0.0
 71
     5
 72
     1
  1
0.8
  7
高2
 73
     1
 44
1.0
1001
ACAD
1000
MTEXTBEGIN
1070
    73
1070
     1
1070
    44
1040
1.0
1070
    74
1070
     0
1000
MTEXTEND
  0
POINT
  5
952
330
8D2
100
AcDbEntity
  8
Defpoints
 62
     0
100
AcDbPoint
 10
319.8473440748447
 20
-505.4377010635642
 30
0.0
  0
POINT
  5
953
330
8D2
100
AcDbEntity
  8
Defpoints
 62
     0
100
AcDbPoint
 10
315.843039121653
 20
-505.4377010635642
 30
0.0
  0
POINT
  5
954
330
8D2
100
AcDbEntity
  8
Defpoints
 62
     0
100
AcDbPoint
 10
315.843039121653
 20
-506.7107887259314
 30
0.0
  0
ENDBLK
  5
8D4
330
8D2
100
AcDbEntity
  8
0
100
AcDbBlockEnd
  0
BLOCK
  5
8E1
330
8E0
100
AcDbEntity
  8
0
100
AcDbBlockBegin
  2
*D19
 70
     1
 10
0.0
 20
0.0
 30
0.0
  3
*D19
  1

  0
LINE
  5
955
330
8E0
100
AcDbEntity
  8
0
 62
     0
370
    -2
100
AcDbLine
 10
319.7563373728324
 20
-510.9619210315957
 30
0.0
 11
319.7563373728324
 21
-512.7803345390522
 31
0.0
  0
LINE
  5
956
330
8E0
100
AcDbEntity
  8
0
 62
     0
370
    -2
100
AcDbLine
 10
315.0239766686163
 20
-510.9619210315957
 30
0.0
 11
315.0239766686163
 21
-512.7803345390522
 31
0.0
  0
LINE
  5
957
330
8E0
100
AcDbEntity
  8
0
 62
     0
370
    -2
100
AcDbLine
 10
322.2563373728324
 20
-511.5303345390522
 30
0.0
 11
324.7563373728324
 21
-511.5303345390522
 31
0.0
  0
LINE
  5
958
330
8E0
100
AcDbEntity
  8
0
 62
     0
370
    -2
100
AcDbLine
 10
312.5239766686163
 20
-511.5303345390522
 30
0.0
 11
297.7739766686164
 21
-511.5303345390522
 31
0.0
  0
LINE
  5
959
330
8E0
100
AcDbEntity
  8
0
 62
     0
370
    -2
100
AcDbLine
 10
319.7563373728324
 20
-511.5303345390522
 30
0.0
 11
315.0239766686163
 21
-511.5303345390522
 31
0.0
  0
INSERT
  5
95A
330
8E0
100
AcDbEntity
  8
0
 62
     0
370
    -2
100
AcDbBlockReference
  2
_Open30
 10
319.7563373728324
 20
-511.5303345390522
 30
0.0
 41
2.5
 42
2.5
 43
2.5
 50
180.0
  0
INSERT
  5
95B
330
8E0
100
AcDbEntity
  8
0
 62
     0
370
    -2
100
AcDbBlockReference
  2
_Open30
 10
315.0239766686163
 20
-511.5303345390522
 30
0.0
 41
2.5
 42
2.5
 43
2.5
  0
MTEXT
  5
95C
330
8E0
100
AcDbEntity
  8
0
 62
     4
100
AcDbMText
 10
303.8989766686163
 20
-509.4053345390522
 30
0.0
 40
3.0
 41
0.0
 71
     5
 72
     1
  1
18.93
 73
     1
 44
1.0
1001
ACAD
1000
MTEXTBEGIN
1070
    73
1070
     1
1070
    44
1040
1.0
1070
    74
1070
     0
1000
MTEXTEND
  0
POINT
  5
95D
330
8E0
100
AcDbEntity
  8
Defpoints
 62
     0
100
AcDbPoint
 10
319.7563373728324
 20
-510.7119210315958
 30
0.0
  0
POINT
  5
95E
330
8E0
100
AcDbEntity
  8
Defpoints
 62
     0
100
AcDbPoint
 10
315.0239766686163
 20
-510.7119210315958
 30
0.0
  0
POINT
  5
95F
330
8E0
100
AcDbEntity
  8
Defpoints
 62
     0
100
AcDbPoint
 10
315.0239766686163
 20
-511.5303345390522
 30
0.0
  0
ENDBLK
  5
8E2
330
8E0
100
AcDbEntity
  8
0
100
AcDbBlockEnd
  0
BLOCK
  5
8EF
330
8EE
100
AcDbEntity
  8
0
100
AcDbBlockBegin
  2
*D20
 70
     1
 10
0.0
 20
0.0
 30
0.0
  3
*D20
  1

  0
LINE
  5
960
330
8EE
100
AcDbEntity
  8
0
 62
     0
370
    -2
100
AcDbLine
 10
316.9519105216941
 20
-516.0177612381857
 30
0.0
 11
316.9519105216941
 21
-518.3276823150611
 31
0.0
  0
LINE
  5
961
330
8EE
100
AcDbEntity
  8
0
 62
     0
370
    -2
100
AcDbLine
 10
312.3632353195462
 20
-516.0177612381857
 30
0.0
 11
312.3632353195462
 21
-518.3276823150611
 31
0.0
  0
LINE
  5
962
330
8EE
100
AcDbEntity
  8
0
 62
     0
370
    -2
100
AcDbLine
 10
319.4519105216941
 20
-517.0776823150609
 30
0.0
 11
321.9519105216941
 21
-517.0776823150609
 31
0.0
  0
LINE
  5
963
330
8EE
100
AcDbEntity
  8
0
 62
     0
370
    -2
100
AcDbLine
 10
309.8632353195462
 20
-517.0776823150609
 30
0.0
 11
295.1132353195462
 21
-517.0776823150609
 31
0.0
  0
LINE
  5
964
330
8EE
100
AcDbEntity
  8
0
 62
     0
370
    -2
100
AcDbLine
 10
316.9519105216941
 20
-517.0776823150609
 30
0.0
 11
312.3632353195462
 21
-517.0776823150609
 31
0.0
  0
INSERT
  5
965
330
8EE
100
AcDbEntity
  8
0
 62
     0
370
    -2
100
AcDbBlockReference
  2
_Open30
 10
316.9519105216941
 20
-517.0776823150609
 30
0.0
 41
2.5
 42
2.5
 43
2.5
 50
180.0
  0
INSERT
  5
966
330
8EE
100
AcDbEntity
  8
0
 62
     0
370
    -2
100
AcDbBlockReference
  2
_Open30
 10
312.3632353195462
 20
-517.0776823150609
 30
0.0
 41
2.5
 42
2.5
 43
2.5
  0
MTEXT
  5
967
330
8EE
100
AcDbEntity
  8
0
 62
     4
100
AcDbMText
 10
301.2382353195462
 20
-514.9526823150611
 30
0.0
 40
3.0
 41
0.0
 71
     5
 72
     1
  1
13.77
 73
     1
 44
1.0
1001
ACAD
1000
MTEXTBEGIN
1070
    73
1070
     1
1070
    44
1040
1.0
1070
    74
1070
     0
1000
MTEXTEND
  0
POINT
  5
968
330
8EE
100
AcDbEntity
  8
Defpoints
 62
     0
100
AcDbPoint
 10
316.9519105216941
 20
-515.7677612381855
 30
0.0
  0
POINT
  5
969
330
8EE
100
AcDbEntity
  8
Defpoints
 62
     0
100
AcDbPoint
 10
312.3632353195462
 20
-515.7677612381855
 30
0.0
  0
POINT
  5
96A
330
8EE
100
AcDbEntity
  8
Defpoints
 62
     0
100
AcDbPoint
 10
312.3632353195462
 20
-517.0776823150609
 30
0.0
  0
ENDBLK
  5
8F0
330
8EE
100
AcDbEntity
  8
0
100
AcDbBlockEnd
  0
BLOCK
  5
8FD
330
8FC
100
AcDbEntity
  8
0
100
AcDbBlockBegin
  2
*D21
 70
     1
 10
0.0
 20
0.0
 30
0.0
  3
*D21
  1

  0
LINE
  5
96B
330
8FC
100
AcDbEntity
  8
0
 62
     0
370
    -2
100
AcDbLine
 10
309.8556276885438
 20
-485.0882699199111
 30
0.0
 11
309.8556276885438
 21
-477.6917364419735
 31
0.0
  0
LINE
  5
96C
330
8FC
100
AcDbEntity
  8
0
 62
     0
370
    -2
100
AcDbLine
 10
299.9171533190538
 20
-485.0882699199111
 30
0.0
 11
299.9171533190538
 21
-477.6917364419735
 31
0.0
  0
LINE
  5
96D
330
8FC
100
AcDbEntity
  8
0
 62
     0
370
    -2
100
AcDbLine
 10
307.3556276885438
 20
-478.9417364419732
 30
0.0
 11
302.4171533190538
 21
-478.9417364419732
 31
0.0
  0
INSERT
  5
96E
330
8FC
100
AcDbEntity
  8
0
 62
     0
370
    -2
100
AcDbBlockReference
  2
_Open30
 10
309.8556276885438
 20
-478.9417364419732
 30
0.0
 41
2.5
 42
2.5
 43
2.5
  0
INSERT
  5
96F
330
8FC
100
AcDbEntity
  8
0
 62
     0
370
    -2
100
AcDbBlockReference
  2
_Open30
 10
299.9171533190538
 20
-478.9417364419732
 30
0.0
 41
2.5
 42
2.5
 43
2.5
 50
180.0
  0
MTEXT
  5
970
330
8FC
100
AcDbEntity
  8
0
 62
     4
100
AcDbMText
 10
302.7807808501338
 20
-476.8167364419735
 30
0.0
 40
3.0
 41
0.0
 71
     5
 72
     1
  1
9.94
 73
     1
 44
1.0
1001
ACAD
1000
MTEXTBEGIN
1070
    73
1070
     1
1070
    44
1040
1.0
1070
    74
1070
     0
1000
MTEXTEND
  0
POINT
  5
971
330
8FC
100
AcDbEntity
  8
Defpoints
 62
     0
100
AcDbPoint
 10
309.8556276885438
 20
-485.3382699199111
 30
0.0
  0
POINT
  5
972
330
8FC
100
AcDbEntity
  8
Defpoints
 62
     0
100
AcDbPoint
 10
299.9171533190538
 20
-485.3382699199111
 30
0.0
  0
POINT
  5
973
330
8FC
100
AcDbEntity
  8
Defpoints
 62
     0
100
AcDbPoint
 10
299.9171533190538
 20
-478.9417364419732
 30
0.0
  0
ENDBLK
  5
8FE
330
8FC
100
AcDbEntity
  8
0
100
AcDbBlockEnd
  0
ENDSEC
  0
SECTION
  2
ENTITIES
  0
LINE
  5
D8
330
36
100
AcDbEntity
  8
001
 62
     3
100
AcDbLine
 10
72.73858800000002
 20
-595.879579
 30
0.0
 11
72.73858800000002
 21
-574.879579
 31
0.0
  0
LINE
  5
D9
330
36
100
AcDbEntity
  8
001
 62
     3
100
AcDbLine
 10
84.738588
 20
-595.879579
 30
0.0
 11
84.738588
 21
-574.879579
 31
0.0
  0
LINE
  5
DA
330
36
100
AcDbEntity
  8
001
 62
     3
100
AcDbLine
 10
96.73858799999999
 20
-595.879579
 30
0.0
 11
96.73858799999999
 21
-574.879579
 31
0.0
  0
LINE
  5
DB
330
36
100
AcDbEntity
  8
001
 62
     3
100
AcDbLine
 10
72.73858800000002
 20
-595.879579
 30
0.0
 11
72.73858800000002
 21
-602.879579
 31
0.0
  0
LINE
  5
DC
330
36
100
AcDbEntity
  8
001
 62
     3
100
AcDbLine
 10
47.68497899999998
 20
-602.879579
 30
0.0
 11
47.68497899999998
 21
-588.879579
 31
0.0
  0
LINE
  5
DD
330
36
100
AcDbEntity
  8
001
 62
     3
100
AcDbLine
 10
58.016913
 20
-588.879579
 30
0.0
 11
58.016913
 21
-602.879579
 31
0.0
  0
TEXT
  5
DE
330
36
100
AcDbEntity
  8
001
 62
     3
100
AcDbText
 10
73.748906
 20
-577.6744629999996
 30
0.0
 40
2.0
  1
A
 41
0.7
100
AcDbText
  0
TEXT
  5
DF
330
36
100
AcDbEntity
  8
001
 62
     3
100
AcDbText
 10
76.284193
 20
-577.6744629999996
 30
0.0
 40
2.0
  1
P
 41
0.7
100
AcDbText
  0
TEXT
  5
E0
330
36
100
AcDbEntity
  8
001
 62
     3
100
AcDbText
 10
78.819479
 20
-577.6744629999996
 30
0.0
 40
2.0
  1
P
 41
0.7
100
AcDbText
  0
TEXT
  5
E1
330
36
100
AcDbEntity
  8
001
 62
     3
100
AcDbText
 10
81.35476500000001
 20
-577.6744629999996
 30
0.0
 40
2.0
  1
D
 41
0.7
100
AcDbText
  0
TEXT
  5
E2
330
36
100
AcDbEntity
  8
001
 62
     3
100
AcDbText
 10
85.72344800000001
 20
-577.6744629999996
 30
0.0
 40
2.0
  1
C
 41
0.7
100
AcDbText
  0
TEXT
  5
E3
330
36
100
AcDbEntity
  8
001
 62
     3
100
AcDbText
 10
88.25873399999997
 20
-577.6744629999996
 30
0.0
 40
2.0
  1
H
 41
0.7
100
AcDbText
  0
TEXT
  5
E4
330
36
100
AcDbEntity
  8
001
 62
     3
100
AcDbText
 10
90.79402100000001
 20
-577.6744629999996
 30
0.0
 40
2.0
  1
C
 41
0.7
100
AcDbText
  0
TEXT
  5
E5
330
36
100
AcDbEntity
  8
001
 62
     3
100
AcDbText
 10
93.329307
 20
-577.6744629999996
 30
0.0
 40
2.0
  1
K
 41
0.7
100
AcDbText
  0
TEXT
  5
E6
330
36
100
AcDbEntity
  8
001
 62
     3
100
AcDbText
 10
99.003273
 20
-577.6744629999996
 30
0.0
 40
2.0
  1
DESN
 41
1.216762999999998
100
AcDbText
  0
LINE
  5
E7
330
36
100
AcDbEntity
  8
001
 62
     3
100
AcDbLine
 10
33.379944
 20
-574.879579
 30
0.0
 11
33.379944
 21
-595.879579
 31
0.0
  0
LINE
  5
E8
330
36
100
AcDbEntity
  8
001
 62
     3
100
AcDbLine
 10
72.73858800000002
 20
-602.879579
 30
0.0
 11
72.73858800000002
 21
-612.545302
 31
0.0
  0
LINE
  5
E9
330
36
100
AcDbEntity
  8
001
 62
     3
100
AcDbLine
 10
84.738588
 20
-595.879579
 30
0.0
 11
84.738588
 21
-602.879579
 31
0.0
  0
TEXT
  5
EA
330
36
100
AcDbEntity
  8
001
 62
     3
100
AcDbText
 10
73.51707199999998
 20
-601.1743219999997
 30
0.0
 40
3.2
  1
作成日
 41
1.017225999999997
100
AcDbText
  0
LINE
  5
EB
330
36
100
AcDbEntity
  8
001
 62
     3
100
AcDbLine
 10
108.738588
 20
-595.879579
 30
0.0
 11
108.738588
 21
-574.879579
 31
0.0
  0
TEXT
  5
EC
330
36
100
AcDbEntity
  8
001
 62
     3
100
AcDbText
 10
111.062392
 20
-577.588645
 30
0.0
 40
1.8
  1
D
 41
0.666667
100
AcDbText
  0
TEXT
  5
ED
330
36
100
AcDbEntity
  8
001
 62
     3
100
AcDbText
 10
113.87902
 20
-577.588645
 30
0.0
 40
1.8
  1
E
 41
0.666667
100
AcDbText
  0
TEXT
  5
EE
330
36
100
AcDbEntity
  8
001
 62
     3
100
AcDbText
 10
116.695648
 20
-577.588645
 30
0.0
 40
1.8
  1
F
 41
0.666667
100
AcDbText
  0
TEXT
  5
EF
330
36
100
AcDbEntity
  8
001
 62
     3
100
AcDbText
 10
111.062392
 20
-581.5811980000002
 30
0.0
 40
3.2
  1
製図
 41
1.076369
100
AcDbText
  0
LINE
  5
F0
330
36
100
AcDbEntity
  8
001
 62
     3
100
AcDbLine
 10
20.134509
 20
-574.879579
 30
0.0
 11
20.134509
 21
-612.545302
 31
0.0
  0
TEXT
  5
F1
330
36
100
AcDbEntity
  8
001
 62
     3
100
AcDbText
 10
20.864708
 20
-612.224433
 30
0.0
 40
4.5
  1
日動工業株式会社
 41
0.833333
100
AcDbText
  0
LINE
  5
F2
330
36
100
AcDbEntity
  8
001
 62
     3
100
AcDbLine
 10
58.016913
 20
-602.879579
 30
0.0
 11
58.016913
 21
-612.545302
 31
0.0
  0
LINE
  5
F3
330
36
100
AcDbEntity
  8
001
 62
     3
100
AcDbLine
 10
58.016913
 20
-607.71244
 30
0.0
 11
72.73858800000002
 21
-607.71244
 31
0.0
  0
TEXT
  5
F4
330
36
100
AcDbEntity
  8
001
 62
     3
100
AcDbText
 10
59.079036
 20
-607.0580620000002
 30
0.0
 40
2.56
  1
出図コード
 41
0.8356860000000001
100
AcDbText
  0
TEXT
  5
F5
330
36
100
AcDbEntity
  8
001
 62
     3
100
AcDbText
 10
59.20656199999999
 20
-611.617286
 30
0.0
 40
2.56
  1
HM-A4
 41
0.999426
100
AcDbText
  0
LINE
  5
F6
330
36
100
AcDbEntity
  8
001
 62
     3
100
AcDbLine
 10
-18.190643
 20
-423.0793099999998
 30
0.0
 11
-18.190643
 21
-424.327869
 31
0.0
  0
TEXT
  5
F7
330
36
100
AcDbEntity
  8
001
 62
     3
100
AcDbText
 10
22.038918
 20
-606.8811809999997
 30
0.0
 40
2.24
  1
NICHIDO IND.CO.,LTD
 41
0.9741899999999999
100
AcDbText
  0
LINE
  5
F8
330
36
100
AcDbEntity
  8
001
 62
     3
100
AcDbLine
 10
20.134509
 20
-574.879579
 30
0.0
 11
120.309357
 21
-574.879579
 31
0.0
  0
LINE
  5
F9
330
36
100
AcDbEntity
  8
001
 62
     3
100
AcDbLine
 10
116.796173
 20
-602.879579
 30
0.0
 11
120.309357
 21
-602.879579
 31
0.0
  0
LINE
  5
FA
330
36
100
AcDbEntity
  8
001
 62
     3
100
AcDbLine
 10
88.19669499999998
 20
-602.879579
 30
0.0
 11
116.796173
 21
-602.879579
 31
0.0
  0
LINE
  5
FB
330
36
100
AcDbEntity
  8
001
 62
     3
100
AcDbLine
 10
61.089108
 20
-602.879579
 30
0.0
 11
20.134509
 21
-602.879579
 31
0.0
  0
LINE
  5
FC
330
36
100
AcDbEntity
  8
001
 62
     3
100
AcDbLine
 10
69.579775
 20
-602.879579
 30
0.0
 11
88.19669499999998
 21
-602.879579
 31
0.0
  0
LINE
  5
FD
330
36
100
AcDbEntity
  8
001
 62
     3
100
AcDbLine
 10
65.087202
 20
-602.879579
 30
0.0
 11
69.579775
 21
-602.879579
 31
0.0
  0
LINE
  5
FE
330
36
100
AcDbEntity
  8
001
 62
     3
100
AcDbLine
 10
65.087202
 20
-602.879579
 30
0.0
 11
61.089108
 21
-602.879579
 31
0.0
  0
LINE
  5
FF
330
36
100
AcDbEntity
  8
001
 62
     3
100
AcDbLine
 10
35.528351
 20
-595.879579
 30
0.0
 11
20.134509
 21
-595.879579
 31
0.0
  0
LINE
  5
100
330
36
100
AcDbEntity
  8
001
 62
     3
100
AcDbLine
 10
46.28855
 20
-595.879579
 30
0.0
 11
35.528351
 21
-595.879579
 31
0.0
  0
LINE
  5
101
330
36
100
AcDbEntity
  8
001
 62
     3
100
AcDbLine
 10
34.936667
 20
-581.879579
 30
0.0
 11
20.134509
 21
-581.879579
 31
0.0
  0
LINE
  5
102
330
36
100
AcDbEntity
  8
001
 62
     3
100
AcDbLine
 10
71.261849
 20
-581.879579
 30
0.0
 11
120.309357
 21
-581.879579
 31
0.0
  0
LINE
  5
103
330
36
100
AcDbEntity
  8
001
 62
     3
100
AcDbLine
 10
66.85802800000001
 20
-581.879579
 30
0.0
 11
71.261849
 21
-581.879579
 31
0.0
  0
LINE
  5
104
330
36
100
AcDbEntity
  8
001
 62
     3
100
AcDbLine
 10
38.343077
 20
-581.879579
 30
0.0
 11
66.85802800000001
 21
-581.879579
 31
0.0
  0
LINE
  5
105
330
36
100
AcDbEntity
  8
001
 62
     3
100
AcDbLine
 10
38.343077
 20
-581.879579
 30
0.0
 11
34.936667
 21
-581.879579
 31
0.0
  0
LINE
  5
106
330
36
100
AcDbEntity
  8
001
 62
     3
100
AcDbLine
 10
66.536828
 20
-588.879579
 30
0.0
 11
38.70654
 21
-588.879579
 31
0.0
  0
LINE
  5
107
330
36
100
AcDbEntity
  8
001
 62
     3
100
AcDbLine
 10
69.262802
 20
-588.879579
 30
0.0
 11
66.536828
 21
-588.879579
 31
0.0
  0
LINE
  5
108
330
36
100
AcDbEntity
  8
001
 62
     3
100
AcDbLine
 10
69.262802
 20
-588.879579
 30
0.0
 11
72.73858800000002
 21
-588.879579
 31
0.0
  0
LINE
  5
109
330
36
100
AcDbEntity
  8
001
 62
     3
100
AcDbLine
 10
35.89181400000001
 20
-588.879579
 30
0.0
 11
38.70654
 21
-588.879579
 31
0.0
  0
LINE
  5
10A
330
36
100
AcDbEntity
  8
001
 62
     3
100
AcDbLine
 10
35.89181400000001
 20
-588.879579
 30
0.0
 11
20.134509
 21
-588.879579
 31
0.0
  0
LINE
  5
10B
330
36
100
AcDbEntity
  8
001
 62
     3
100
AcDbLine
 10
58.798425
 20
-595.879579
 30
0.0
 11
46.28855
 21
-595.879579
 31
0.0
  0
LINE
  5
10C
330
36
100
AcDbEntity
  8
001
 62
     3
100
AcDbLine
 10
71.578749
 20
-595.879579
 30
0.0
 11
58.798425
 21
-595.879579
 31
0.0
  0
LINE
  5
10D
330
36
100
AcDbEntity
  8
001
 62
     3
100
AcDbLine
 10
71.578749
 20
-595.879579
 30
0.0
 11
120.309357
 21
-595.879579
 31
0.0
  0
LINE
  5
112
330
36
100
AcDbEntity
  8
001
 62
     3
100
AcDbLine
 10
-111.168349
 20
-456.283387
 30
0.0
 11
-27.168349
 21
-456.283387
 31
0.0
  0
LINE
  5
113
330
36
100
AcDbEntity
  8
001
 62
     3
100
AcDbLine
 10
-116.168349
 20
-503.283387
 30
0.0
 11
-116.168349
 21
-461.283387
 31
0.0
  0
LINE
  5
114
330
36
100
AcDbEntity
  8
001
 62
     3
100
AcDbLine
 10
-22.168349
 20
-503.283387
 30
0.0
 11
-22.168349
 21
-461.283387
 31
0.0
  0
LINE
  5
115
330
36
100
AcDbEntity
  8
001
  6
CENTER
100
AcDbLine
 10
-122.927788
 20
-503.283387
 30
0.0
 11
-15.411304
 21
-503.283387
 31
0.0
  0
TEXT
  5
116
330
36
100
AcDbEntity
  8
001
 62
     3
100
AcDbText
 10
60.94304043005069
 20
-601.2737260105526
 30
0.0
 40
3.2
  1
1/1
  7
高3.2
100
AcDbText
  0
LINE
  5
117
330
36
100
AcDbEntity
  8
001
 62
     3
100
AcDbLine
 10
-117.550702
 20
-448.812799
 30
0.0
 11
-109.168349
 21
-453.283387
 31
0.0
  0
LINE
  5
118
330
36
100
AcDbEntity
  8
001
 62
     3
100
AcDbLine
 10
-123.638937
 20
-454.9010339999998
 30
0.0
 11
-119.168349
 21
-463.2833869999998
 31
0.0
  0
ARC
  5
119
330
36
100
AcDbEntity
  8
001
 62
     3
100
AcDbCircle
 10
-119.668349
 20
-452.783387
 30
0.0
 40
4.5
100
AcDbArc
 50
61.92751300000002
 51
208.072487
  0
LINE
  5
11A
330
36
100
AcDbEntity
  8
001
 62
     3
100
AcDbLine
 10
-14.69776099999999
 20
-551.66574
 30
0.0
 11
-19.168349
 21
-543.283387
 31
0.0
  0
ARC
  5
11B
330
36
100
AcDbEntity
  8
001
 62
     3
100
AcDbCircle
 10
-18.668349
 20
-553.783387
 30
0.0
 40
4.5
100
AcDbArc
 50
241.927513
 51
28.072487
  0
LINE
  5
11C
330
36
100
AcDbEntity
  8
001
 62
     3
100
AcDbLine
 10
-20.785996
 20
-557.7539759999998
 30
0.0
 11
-29.168349
 21
-553.2833870000001
 31
0.0
  0
TEXT
  5
11D
330
36
100
AcDbEntity
  8
001
 62
     3
100
AcDbText
 10
37.165242
 20
-588.205719
 30
0.0
 40
4.5
  1
NFT0404
  7
高4.5
100
AcDbText
  0
TEXT
  5
11E
330
36
100
AcDbEntity
  8
001
 62
     3
100
AcDbText
 10
88.05062743005064
 20
-601.2737260105526
 30
0.0
 40
3.2
  1
2007.12.18
  7
高3.2
100
AcDbText
  0
TEXT
  5
11F
330
36
100
AcDbEntity
  8
001
 62
     3
100
AcDbText
 10
74.94718931959444
 20
-611.5407831466901
 30
0.0
 40
6.299999999999998
  1
NFT0404
 41
0.8
  7
高6.3
100
AcDbText
  0
ARC
  5
124
330
36
100
AcDbEntity
  8
001
 62
     3
100
AcDbCircle
 10
-27.168349
 20
-461.283387
 30
0.0
 40
5.0
100
AcDbArc
 50
0.0
 51
90.0
  0
ARC
  5
125
330
36
100
AcDbEntity
  8
001
 62
     3
100
AcDbCircle
 10
-111.168349
 20
-461.283387
 30
0.0
 40
5.0
100
AcDbArc
 50
90.0
 51
180.0
  0
LINE
  5
126
330
36
100
AcDbEntity
  8
001
  6
PHANTOM
100
AcDbLine
 10
-45.168349
 20
-501.2945339999998
 30
0.0
 11
-93.16834900000001
 21
-501.2945339999998
 31
0.0
  0
LINE
  5
127
330
36
100
AcDbEntity
  8
001
  6
PHANTOM
100
AcDbLine
 10
-45.168349
 20
-479.2833869999998
 30
0.0
 11
-45.168349
 21
-501.2945339999998
 31
0.0
  0
LINE
  5
128
330
36
100
AcDbEntity
  8
001
  6
PHANTOM
100
AcDbLine
 10
-93.16834900000001
 20
-479.2833869999998
 30
0.0
 11
-93.16834900000001
 21
-501.2945339999998
 31
0.0
  0
LINE
  5
129
330
36
100
AcDbEntity
  8
001
  6
PHANTOM
100
AcDbLine
 10
-87.086777
 20
-479.2833869999998
 30
0.0
 11
-87.086777
 21
-501.2945339999998
 31
0.0
  0
LINE
  5
12A
330
36
100
AcDbEntity
  8
001
  6
PHANTOM
100
AcDbLine
 10
-81.005205
 20
-479.2833869999998
 30
0.0
 11
-81.005205
 21
-501.2945339999998
 31
0.0
  0
LINE
  5
12B
330
36
100
AcDbEntity
  8
001
  6
PHANTOM
100
AcDbLine
 10
-45.168349
 20
-479.2833869999998
 30
0.0
 11
-93.16834900000001
 21
-479.2833869999998
 31
0.0
  0
LINE
  5
12C
330
36
100
AcDbEntity
  8
001
  6
PHANTOM
100
AcDbLine
 10
-51.24992
 20
-479.2833869999998
 30
0.0
 11
-51.24992
 21
-501.2945339999998
 31
0.0
  0
LINE
  5
12D
330
36
100
AcDbEntity
  8
001
  6
PHANTOM
100
AcDbLine
 10
-57.331492
 20
-479.2833869999998
 30
0.0
 11
-57.331492
 21
-501.2945339999998
 31
0.0
  0
LINE
  5
12E
330
36
100
AcDbEntity
  8
001
  6
CENTER
100
AcDbLine
 10
-63.413064
 20
-479.2833869999998
 30
0.0
 11
-63.413064
 21
-501.2945339999998
 31
0.0
  0
LINE
  5
12F
330
36
100
AcDbEntity
  8
001
  6
CENTER
100
AcDbLine
 10
-74.92363399999998
 20
-479.2833869999998
 30
0.0
 11
-74.92363399999998
 21
-501.2945339999998
 31
0.0
  0
LINE
  5
130
330
36
100
AcDbEntity
  8
001
  6
CENTER
100
AcDbLine
 10
-69.16834899999999
 20
-557.0464789999999
 30
0.0
 11
-69.16834899999999
 21
-450.058845
 31
0.0
  0
CIRCLE
  5
131
330
36
100
AcDbEntity
  8
001
100
AcDbCircle
 10
-32.168349
 20
-466.283387
 30
0.0
 40
2.0
  0
CIRCLE
  5
132
330
36
100
AcDbEntity
  8
001
100
AcDbCircle
 10
-69.16834899999999
 20
-466.283387
 30
0.0
 40
2.0
  0
CIRCLE
  5
133
330
36
100
AcDbEntity
  8
001
100
AcDbCircle
 10
-60.168349
 20
-466.283387
 30
0.0
 40
2.0
  0
CIRCLE
  5
134
330
36
100
AcDbEntity
  8
001
100
AcDbCircle
 10
-51.168349
 20
-466.283387
 30
0.0
 40
2.0
  0
CIRCLE
  5
135
330
36
100
AcDbEntity
  8
001
100
AcDbCircle
 10
-42.168349
 20
-466.283387
 30
0.0
 40
2.0
  0
CIRCLE
  5
136
330
36
100
AcDbEntity
  8
001
100
AcDbCircle
 10
-96.168349
 20
-466.283387
 30
0.0
 40
2.0
  0
CIRCLE
  5
137
330
36
100
AcDbEntity
  8
001
100
AcDbCircle
 10
-87.168349
 20
-466.283387
 30
0.0
 40
2.0
  0
CIRCLE
  5
138
330
36
100
AcDbEntity
  8
001
100
AcDbCircle
 10
-78.16834899999998
 20
-466.283387
 30
0.0
 40
2.0
  0
CIRCLE
  5
139
330
36
100
AcDbEntity
  8
001
100
AcDbCircle
 10
-106.168349
 20
-476.283387
 30
0.0
 40
2.0
  0
CIRCLE
  5
13A
330
36
100
AcDbEntity
  8
001
100
AcDbCircle
 10
-106.168349
 20
-485.283387
 30
0.0
 40
2.0
  0
CIRCLE
  5
13B
330
36
100
AcDbEntity
  8
001
100
AcDbCircle
 10
-106.168349
 20
-494.283387
 30
0.0
 40
2.0
  0
CIRCLE
  5
13C
330
36
100
AcDbEntity
  8
001
100
AcDbCircle
 10
-32.168349
 20
-476.283387
 30
0.0
 40
2.0
  0
CIRCLE
  5
13D
330
36
100
AcDbEntity
  8
001
100
AcDbCircle
 10
-32.168349
 20
-485.283387
 30
0.0
 40
2.0
  0
CIRCLE
  5
13E
330
36
100
AcDbEntity
  8
001
100
AcDbCircle
 10
-32.168349
 20
-494.283387
 30
0.0
 40
2.0
  0
CIRCLE
  5
13F
330
36
100
AcDbEntity
  8
001
100
AcDbCircle
 10
-42.168349
 20
-476.283387
 30
0.0
 40
2.0
  0
CIRCLE
  5
140
330
36
100
AcDbEntity
  8
001
100
AcDbCircle
 10
-42.168349
 20
-485.283387
 30
0.0
 40
2.0
  0
CIRCLE
  5
141
330
36
100
AcDbEntity
  8
001
100
AcDbCircle
 10
-42.168349
 20
-494.283387
 30
0.0
 40
2.0
  0
CIRCLE
  5
142
330
36
100
AcDbEntity
  8
001
100
AcDbCircle
 10
-96.168349
 20
-476.283387
 30
0.0
 40
2.0
  0
CIRCLE
  5
143
330
36
100
AcDbEntity
  8
001
100
AcDbCircle
 10
-96.168349
 20
-485.283387
 30
0.0
 40
2.0
  0
CIRCLE
  5
144
330
36
100
AcDbEntity
  8
001
100
AcDbCircle
 10
-96.168349
 20
-494.283387
 30
0.0
 40
2.0
  0
CIRCLE
  5
145
330
36
100
AcDbEntity
  8
001
100
AcDbCircle
 10
-60.168349
 20
-476.283387
 30
0.0
 40
2.0
  0
CIRCLE
  5
146
330
36
100
AcDbEntity
  8
001
100
AcDbCircle
 10
-51.168349
 20
-476.283387
 30
0.0
 40
2.0
  0
CIRCLE
  5
147
330
36
100
AcDbEntity
  8
001
100
AcDbCircle
 10
-69.16834899999999
 20
-476.283387
 30
0.0
 40
2.0
  0
CIRCLE
  5
148
330
36
100
AcDbEntity
  8
001
100
AcDbCircle
 10
-87.168349
 20
-476.283387
 30
0.0
 40
2.0
  0
CIRCLE
  5
149
330
36
100
AcDbEntity
  8
001
100
AcDbCircle
 10
-78.16834899999998
 20
-476.283387
 30
0.0
 40
2.0
  0
LINE
  5
14A
330
36
100
AcDbEntity
  8
001
100
AcDbLine
 10
-40.75413499999998
 20
-464.869174
 30
0.0
 11
-30.754135
 21
-474.869174
 31
0.0
  0
LINE
  5
14B
330
36
100
AcDbEntity
  8
001
100
AcDbLine
 10
-43.582562
 20
-467.6976009999998
 30
0.0
 11
-33.582562
 21
-477.6976009999998
 31
0.0
  0
LINE
  5
14C
330
36
100
AcDbEntity
  8
001
100
AcDbLine
 10
-96.168349
 20
-468.283387
 30
0.0
 11
-104.690387
 21
-477.63084
 31
0.0
  0
LINE
  5
14D
330
36
100
AcDbEntity
  8
001
100
AcDbLine
 10
-97.58256199999999
 20
-464.869174
 30
0.0
 11
-107.582562
 21
-474.869174
 31
0.0
  0
CIRCLE
  5
14E
330
36
100
AcDbEntity
  8
001
100
AcDbCircle
 10
-18.668349
 20
-553.783387
 30
0.0
 40
2.5
  0
CIRCLE
  5
14F
330
36
100
AcDbEntity
  8
001
100
AcDbCircle
 10
-119.668349
 20
-452.783387
 30
0.0
 40
2.5
  0
LINE
  5
150
330
36
100
AcDbEntity
  8
001
100
AcDbLine
 10
-106.168349
 20
-463.2833869999998
 30
0.0
 11
-32.168349
 21
-463.2833869999998
 31
0.0
  0
ARC
  5
151
330
36
100
AcDbEntity
  8
001
100
AcDbCircle
 10
-32.168349
 20
-466.283387
 30
0.0
 40
3.0
100
AcDbArc
 50
0.0
 51
90.0
  0
LINE
  5
152
330
36
100
AcDbEntity
  8
001
100
AcDbLine
 10
-29.168349
 20
-503.283387
 30
0.0
 11
-29.168349
 21
-466.283387
 31
0.0
  0
LINE
  5
153
330
36
100
AcDbEntity
  8
001
100
AcDbLine
 10
-109.168349
 20
-503.283387
 30
0.0
 11
-109.168349
 21
-466.283387
 31
0.0
  0
ARC
  5
154
330
36
100
AcDbEntity
  8
001
100
AcDbCircle
 10
-106.168349
 20
-466.283387
 30
0.0
 40
3.0
100
AcDbArc
 50
90.0
 51
180.0
  0
LINE
  5
155
330
36
100
AcDbEntity
  8
001
 62
     3
100
AcDbLine
 10
-74.53445399999998
 20
-586.378049
 30
0.0
 11
-51.794782
 21
-586.378049
 31
0.0
  0
LINE
  5
156
330
36
100
AcDbEntity
  8
001
 62
     3
100
AcDbLine
 10
-50.789618
 20
-593.5191009999997
 30
0.0
 11
-50.789618
 21
-587.628049
 31
0.0
  0
LINE
  5
157
330
36
100
AcDbEntity
  8
001
 62
     3
100
AcDbLine
 10
-75.539618
 20
-593.5191009999997
 30
0.0
 11
-75.539618
 21
-587.628049
 31
0.0
  0
LINE
  5
158
330
36
100
AcDbEntity
  8
001
 62
     3
100
AcDbLine
 10
-50.789618
 20
-591.628049
 30
0.0
 11
-75.539618
 21
-591.628049
 31
0.0
  0
LINE
  5
159
330
36
100
AcDbEntity
  8
001
 62
     3
100
AcDbLine
 10
-50.789618
 20
-587.628049
 30
0.0
 11
-75.539618
 21
-587.628049
 31
0.0
  0
LINE
  5
15A
330
36
100
AcDbEntity
  8
001
 62
     3
100
AcDbLine
 10
-51.589974
 20
-586.484683
 30
0.0
 11
-50.789618
 21
-587.628049
 31
0.0
  0
LINE
  5
15B
330
36
100
AcDbEntity
  8
001
 62
     3
100
AcDbLine
 10
-74.739262
 20
-586.484683
 30
0.0
 11
-75.539618
 21
-587.628049
 31
0.0
  0
ARC
  5
15C
330
36
100
AcDbEntity
  8
001
 62
     3
100
AcDbCircle
 10
-51.794782
 20
-586.628049
 30
0.0
 40
0.25
100
AcDbArc
 50
34.99202
 51
90.0
  0
LINE
  5
15D
330
36
100
AcDbEntity
  8
001
  6
HIDDEN
 62
    15
100
AcDbLine
 10
-51.589974
 20
-586.484683
 30
0.0
 11
-51.664618
 21
-586.378049
 31
0.0
  0
ARC
  5
15E
330
36
100
AcDbEntity
  8
001
 62
     3
100
AcDbCircle
 10
-74.53445399999998
 20
-586.628049
 30
0.0
 40
0.25
100
AcDbArc
 50
90.0
 51
145.00798
  0
LINE
  5
15F
330
36
100
AcDbEntity
  8
001
  6
HIDDEN
 62
    15
100
AcDbLine
 10
-74.739262
 20
-586.484683
 30
0.0
 11
-74.66461800000002
 21
-586.378049
 31
0.0
  0
LINE
  5
160
330
36
100
AcDbEntity
  8
001
100
AcDbLine
 10
-61.272863
 20
-591.628049
 30
0.0
 11
-61.272863
 21
-589.159245
 31
0.0
  0
LINE
  5
161
330
36
100
AcDbEntity
  8
001
100
AcDbLine
 10
-61.647863
 20
-591.628049
 30
0.0
 11
-61.647863
 21
-589.159245
 31
0.0
  0
LINE
  5
162
330
36
100
AcDbEntity
  8
001
100
AcDbLine
 10
-61.272863
 20
-589.159245
 30
0.0
 11
-61.33306
 21
-587.75003
 31
0.0
  0
LINE
  5
163
330
36
100
AcDbEntity
  8
001
100
AcDbLine
 10
-61.647863
 20
-589.159245
 30
0.0
 11
-61.587665
 21
-587.75003
 31
0.0
  0
LINE
  5
164
330
36
100
AcDbEntity
  8
001
100
AcDbLine
 10
-72.685067
 20
-591.628049
 30
0.0
 11
-72.685067
 21
-589.159245
 31
0.0
  0
LINE
  5
165
330
36
100
AcDbEntity
  8
001
100
AcDbLine
 10
-72.310067
 20
-591.628049
 30
0.0
 11
-72.310067
 21
-589.159245
 31
0.0
  0
LINE
  5
166
330
36
100
AcDbEntity
  8
001
100
AcDbLine
 10
-72.685067
 20
-589.159245
 30
0.0
 11
-72.62486899999998
 21
-587.75003
 31
0.0
  0
LINE
  5
167
330
36
100
AcDbEntity
  8
001
100
AcDbLine
 10
-72.310067
 20
-589.159245
 30
0.0
 11
-72.37026400000002
 21
-587.75003
 31
0.0
  0
ARC
  5
168
330
36
100
AcDbEntity
  8
001
100
AcDbCircle
 10
-72.497567
 20
-587.7554679999997
 30
0.0
 40
0.127419
100
AcDbArc
 50
2.446006999999998
 51
177.553993
  0
ARC
  5
169
330
36
100
AcDbEntity
  8
001
100
AcDbCircle
 10
-61.460363
 20
-587.7554679999997
 30
0.0
 40
0.127419
100
AcDbArc
 50
2.446006999999998
 51
177.553993
  0
LINE
  5
16A
330
36
100
AcDbEntity
  8
001
  6
CENTER
100
AcDbLine
 10
-63.164618
 20
-585.8002609999998
 30
0.0
 11
-63.164618
 21
-595.5427179999998
 31
0.0
  0
LINE
  5
16B
330
36
100
AcDbEntity
  8
001
100
AcDbLine
 10
-49.288874
 20
-586.365882
 30
0.0
 11
-44.359681
 21
-586.365882
 31
0.0
  0
LINE
  5
16C
330
36
100
AcDbEntity
  8
001
100
AcDbLine
 10
-50.789618
 20
-587.628049
 30
0.0
 11
-49.288874
 21
-586.365882
 31
0.0
  0
LINE
  5
16D
330
36
100
AcDbEntity
  8
001
100
AcDbLine
 10
-75.539618
 20
-587.628049
 30
0.0
 11
-77.040363
 21
-586.365882
 31
0.0
  0
LINE
  5
16E
330
36
100
AcDbEntity
  8
001
100
AcDbLine
 10
-77.040363
 20
-586.365882
 30
0.0
 11
-80.862344
 21
-586.365882
 31
0.0
  0
LINE
  5
16F
330
36
100
AcDbEntity
  8
001
 62
     3
100
AcDbLine
 10
-75.039618
 20
-594.0191009999997
 30
0.0
 11
-51.28961799999999
 21
-594.0191009999997
 31
0.0
  0
LINE
  5
170
330
36
100
AcDbEntity
  8
001
100
AcDbLine
 10
-45.243413
 20
-597.928901
 30
0.0
 11
-44.313868
 21
-596.999357
 31
0.0
  0
LINE
  5
171
330
36
100
AcDbEntity
  8
001
100
AcDbLine
 10
-48.07184
 20
-597.928901
 30
0.0
 11
-44.65408
 21
-594.511141
 31
0.0
  0
LINE
  5
172
330
36
100
AcDbEntity
  8
001
100
AcDbLine
 10
-50.900267
 20
-597.928901
 30
0.0
 11
-44.994292
 21
-592.022926
 31
0.0
  0
LINE
  5
173
330
36
100
AcDbEntity
  8
001
100
AcDbLine
 10
-53.72869399999999
 20
-597.928901
 30
0.0
 11
-50.86876199999998
 21
-595.06897
 31
0.0
  0
LINE
  5
174
330
36
100
AcDbEntity
  8
001
100
AcDbLine
 10
-49.39684
 20
-593.597048
 30
0.0
 11
-45.33450300000001
 21
-589.534711
 31
0.0
  0
LINE
  5
175
330
36
100
AcDbEntity
  8
001
100
AcDbLine
 10
-56.55712099999998
 20
-597.928901
 30
0.0
 11
-53.69718999999999
 21
-595.06897
 31
0.0
  0
LINE
  5
176
330
36
100
AcDbEntity
  8
001
100
AcDbLine
 10
-49.25330800000001
 20
-590.6250879999999
 30
0.0
 11
-45.67471499999999
 21
-587.046495
 31
0.0
  0
LINE
  5
177
330
36
100
AcDbEntity
  8
001
100
AcDbLine
 10
-59.385548
 20
-597.928901
 30
0.0
 11
-56.525617
 21
-595.06897
 31
0.0
  0
LINE
  5
178
330
36
100
AcDbEntity
  8
001
100
AcDbLine
 10
-49.109776
 20
-587.653129
 30
0.0
 11
-47.898938
 21
-586.442291
 31
0.0
  0
LINE
  5
179
330
36
100
AcDbEntity
  8
001
100
AcDbLine
 10
-62.213975
 20
-597.928901
 30
0.0
 11
-59.35404399999999
 21
-595.06897
 31
0.0
  0
LINE
  5
17A
330
36
100
AcDbEntity
  8
001
100
AcDbLine
 10
-65.04240199999999
 20
-597.928901
 30
0.0
 11
-62.182471
 21
-595.06897
 31
0.0
  0
LINE
  5
17B
330
36
100
AcDbEntity
  8
001
100
AcDbLine
 10
-67.87082999999999
 20
-597.928901
 30
0.0
 11
-65.01089799999999
 21
-595.06897
 31
0.0
  0
LINE
  5
17C
330
36
100
AcDbEntity
  8
001
100
AcDbLine
 10
-70.69925699999997
 20
-597.928901
 30
0.0
 11
-67.839325
 21
-595.06897
 31
0.0
  0
LINE
  5
17D
330
36
100
AcDbEntity
  8
001
100
AcDbLine
 10
-73.52768399999998
 20
-597.928901
 30
0.0
 11
-70.66775200000002
 21
-595.06897
 31
0.0
  0
LINE
  5
17E
330
36
100
AcDbEntity
  8
001
100
AcDbLine
 10
-76.356111
 20
-597.928901
 30
0.0
 11
-73.496179
 21
-595.06897
 31
0.0
  0
LINE
  5
17F
330
36
100
AcDbEntity
  8
001
100
AcDbLine
 10
-79.184538
 20
-597.928901
 30
0.0
 11
-76.324607
 21
-595.06897
 31
0.0
  0
LINE
  5
180
330
36
100
AcDbEntity
  8
001
100
AcDbLine
 10
-80.267333
 20
-596.183269
 30
0.0
 11
-76.944176
 21
-592.8601119999997
 31
0.0
  0
LINE
  5
181
330
36
100
AcDbEntity
  8
001
100
AcDbLine
 10
-80.418538
 20
-593.5060469999997
 30
0.0
 11
-77.116641
 21
-590.20415
 31
0.0
  0
LINE
  5
182
330
36
100
AcDbEntity
  8
001
100
AcDbLine
 10
-80.569742
 20
-590.828824
 30
0.0
 11
-77.289106
 21
-587.5481869999997
 31
0.0
  0
LINE
  5
183
330
36
100
AcDbEntity
  8
001
100
AcDbLine
 10
-80.72094699999999
 20
-588.151601
 30
0.0
 11
-79.011636
 21
-586.442291
 31
0.0
  0
TEXT
  5
184
330
36
100
AcDbEntity
  8
001
 62
     3
100
AcDbText
 10
28.58719164579777
 20
-469.7417332600553
 30
0.0
 40
2.5
  1
本体材質
  7
高2.5
100
AcDbText
  0
TEXT
  5
185
330
36
100
AcDbEntity
  8
001
 62
     3
100
AcDbText
 10
28.58719164579777
 20
-503.7417332600552
 30
0.0
 40
2.5
  1
点灯モード
  7
高2.5
100
AcDbText
  0
TEXT
  5
186
330
36
100
AcDbEntity
  8
001
 62
     3
100
AcDbText
 10
28.58719164579777
 20
-507.3417332600553
 30
0.0
 40
2.5
  1
充電時間
  7
高2.5
100
AcDbText
  0
TEXT
  5
187
330
36
100
AcDbEntity
  8
001
 62
     3
100
AcDbText
 10
28.58719164579777
 20
-519.7417332600553
 30
0.0
 40
2.5
  1
防水規格
  7
高2.5
100
AcDbText
  0
TEXT
  5
188
330
36
100
AcDbEntity
  8
001
 62
     3
100
AcDbText
 10
48.71204486398561
 20
-477.2636420600551
 30
0.0
 40
2.5
  1
緑、青、白、赤、黄、オレンジ
  7
高2.5
100
AcDbText
  0
TEXT
  5
18A
330
36
100
AcDbEntity
  8
001
 62
     3
100
AcDbText
 10
48.71204486398561
 20
-503.7417332600552
 30
0.0
 40
2.5
  1
常時点灯式・スロー点滅　20回／分
  7
高2.5
100
AcDbText
  0
TEXT
  5
18B
330
36
100
AcDbEntity
  8
001
 62
     3
100
AcDbText
 10
28.58719164579777
 20
-511.7417332600552
 30
0.0
 40
2.5
  1
点灯時間
  7
高2.5
100
AcDbText
  0
TEXT
  5
18C
330
36
100
AcDbEntity
  8
001
 62
     3
100
AcDbText
 10
28.58719164579777
 20
-515.7417332600552
 30
0.0
 40
2.5
  1
適応温度
  7
高2.5
100
AcDbText
  0
TEXT
  5
18D
330
36
100
AcDbEntity
  8
001
 62
     3
100
AcDbText
 10
48.71204486398561
 20
-515.7417332600552
 30
0.0
 40
2.5
  1
－40℃～70℃
  7
高2.5
100
AcDbText
  0
TEXT
  5
18E
330
36
100
AcDbEntity
  8
001
 62
     3
100
AcDbText
 10
48.71204486398561
 20
-519.7417332600553
 30
0.0
 40
2.5
  1
IP68（防塵6級　防水8級）
  7
高2.5
100
AcDbText
  0
TEXT
  5
18F
330
36
100
AcDbEntity
  8
001
 62
     3
100
AcDbText
 10
28.58719164579777
 20
-488.1436444600553
 30
0.0
 40
2.5
  1
充電特性
  7
高2.5
100
AcDbText
  0
TEXT
  5
190
330
36
100
AcDbEntity
  8
001
 62
     3
100
AcDbText
 10
48.71204486398561
 20
-488.1436444600553
 30
0.0
 40
2.5
  1
充放電10万回以上
  7
高2.5
100
AcDbText
  0
TEXT
  5
191
330
36
100
AcDbEntity
  8
001
 62
     3
100
AcDbText
 10
28.45814444579777
 20
-495.8503340600554
 30
0.0
 40
2.5
  1
照度Lx(1m)
  7
高2.5
100
AcDbText
  0
TEXT
  5
192
330
36
100
AcDbEntity
  8
001
 62
     3
100
AcDbText
 10
28.42227324579777
 20
-527.5349996600551
 30
0.0
 40
2.5
  1
設置方向
  7
高2.5
100
AcDbText
  0
TEXT
  5
193
330
36
100
AcDbEntity
  8
001
 62
     3
100
AcDbText
 10
28.58719164579777
 20
-499.7417332600551
 30
0.0
 40
2.5
  1
点灯・消灯
  7
高2.5
100
AcDbText
  0
TEXT
  5
194
330
36
100
AcDbEntity
  8
001
 62
     3
100
AcDbText
 10
48.71204486398561
 20
-499.7417332600551
 30
0.0
 40
2.5
  1
日没時自動点灯・日照時自動消灯
  7
高2.5
100
AcDbText
  0
TEXT
  5
195
330
36
100
AcDbEntity
  8
001
 62
     3
100
AcDbText
 10
48.71204486398561
 20
-511.6011276600553
 30
0.0
 40
2.5
  1
8時間以上（満充電時）
  7
高2.5
100
AcDbText
  0
TEXT
  5
196
330
36
100
AcDbEntity
  8
001
 62
     3
100
AcDbText
 10
48.71204486398561
 20
-527.6316660600551
 30
0.0
 40
2.5
  1
上向　／　横向　
  7
高2.5
100
AcDbText
  0
TEXT
  5
199
330
36
100
AcDbEntity
  8
001
 62
     3
100
AcDbText
 10
28.58719164579777
 20
-535.3417332600553
 30
0.0
 40
2.5
  1
開口寸法
  7
高2.5
100
AcDbText
  0
LINE
  5
19A
330
36
100
AcDbEntity
  8
001
 62
     3
100
AcDbLine
 10
-49.791582
 20
-593.777496
 30
0.0
 11
-49.791582
 21
-594.027496
 31
0.0
  0
ARC
  5
19B
330
36
100
AcDbEntity
  8
001
 62
     3
100
AcDbCircle
 10
-49.91658199999999
 20
-593.714996
 30
0.0
 40
0.125
100
AcDbArc
 50
0.0
 51
90.0
  0
LINE
  5
19C
330
36
100
AcDbEntity
  8
001
 62
     3
100
AcDbLine
 10
-76.54060300000002
 20
-593.777496
 30
0.0
 11
-76.54060300000002
 21
-594.027496
 31
0.0
  0
ARC
  5
19D
330
36
100
AcDbEntity
  8
001
 62
     3
100
AcDbCircle
 10
-76.415603
 20
-593.714996
 30
0.0
 40
0.125
100
AcDbArc
 50
90.0
 51
180.0
  0
LINE
  5
19E
330
36
100
AcDbEntity
  8
001
 62
     3
100
AcDbLine
 10
-72.54158199999998
 20
-593.714996
 30
0.0
 11
-72.54158199999998
 21
-594.027496
 31
0.0
  0
LINE
  5
19F
330
36
100
AcDbEntity
  8
001
 62
     3
100
AcDbLine
 10
-72.66658199999998
 20
-593.589996
 30
0.0
 11
-76.415603
 21
-593.589996
 31
0.0
  0
ARC
  5
1A0
330
36
100
AcDbEntity
  8
001
 62
     3
100
AcDbCircle
 10
-72.66658199999998
 20
-593.714996
 30
0.0
 40
0.125
100
AcDbArc
 50
0.0
 51
90.0
  0
LINE
  5
1A1
330
36
100
AcDbEntity
  8
001
 62
     3
100
AcDbLine
 10
-53.790603
 20
-593.714996
 30
0.0
 11
-53.790603
 21
-594.027496
 31
0.0
  0
LINE
  5
1A2
330
36
100
AcDbEntity
  8
001
 62
     3
100
AcDbLine
 10
-53.665603
 20
-593.589996
 30
0.0
 11
-49.91658199999999
 21
-593.589996
 31
0.0
  0
ARC
  5
1A3
330
36
100
AcDbEntity
  8
001
 62
     3
100
AcDbCircle
 10
-53.665603
 20
-593.714996
 30
0.0
 40
0.125
100
AcDbArc
 50
90.0
 51
180.0
  0
TEXT
  5
1A4
330
36
100
AcDbEntity
  8
001
 62
     3
100
AcDbText
 10
-13.208697
 20
-485.866035
 30
0.0
 40
3.2
  1
ソーラーパネル
 41
0.833333
100
AcDbText
  0
LINE
  5
1A5
330
36
100
AcDbEntity
  8
001
100
AcDbLine
 10
8.737771999999999
 20
-485.866035
 30
0.0
 11
-13.208697
 21
-485.866035
 31
0.0
  0
LINE
  5
1A6
330
36
100
AcDbEntity
  8
001
 62
     3
100
AcDbLine
 10
-51.28961799999999
 20
-594.0191009999997
 30
0.0
 11
-49.791582
 21
-594.0191009999997
 31
0.0
  0
LINE
  5
1A7
330
36
100
AcDbEntity
  8
001
 62
     3
100
AcDbLine
 10
-75.039618
 20
-594.0191009999997
 30
0.0
 11
-76.54060300000002
 21
-594.0191009999997
 31
0.0
  0
LINE
  5
1A8
330
36
100
AcDbEntity
  8
001
 62
     3
100
AcDbLine
 10
-49.288874
 20
-586.365882
 30
0.0
 11
-49.452481
 21
-595.0637280000002
 31
0.0
  0
LINE
  5
1A9
330
36
100
AcDbEntity
  8
001
 62
     3
100
AcDbLine
 10
-77.040363
 20
-586.365882
 30
0.0
 11
-76.876755
 21
-595.0637280000002
 31
0.0
  0
LINE
  5
1AA
330
36
100
AcDbEntity
  8
001
 62
     3
100
AcDbLine
 10
-49.452481
 20
-595.0637280000002
 30
0.0
 11
-76.876755
 21
-595.0637280000002
 31
0.0
  0
TEXT
  5
1AB
330
36
100
AcDbEntity
  8
001
 62
     3
100
AcDbText
 10
-19.362659
 20
-608.266879
 30
0.0
 40
3.2
  1
開口寸法
  7
高3.2
100
AcDbText
  0
LINE
  5
1AC
330
36
100
AcDbEntity
  8
001
100
AcDbLine
 10
-19.362659
 20
-608.7135039082517
 30
0.0
 11
-4.452020786916023
 21
-608.7135039082517
 31
0.0
  0
LINE
  5
1AD
330
36
100
AcDbEntity
  8
001
100
AcDbLine
 10
-117.747478
 20
-599.4227860000002
 30
0.0
 11
-113.747478
 21
-599.4227860000002
 31
0.0
  0
LINE
  5
1AE
330
36
100
AcDbEntity
  8
001
100
AcDbLine
 10
-117.747478
 20
-574.672786
 30
0.0
 11
-113.747478
 21
-574.672786
 31
0.0
  0
ARC
  5
1AF
330
36
100
AcDbEntity
  8
001
100
AcDbCircle
 10
-112.747478
 20
-598.4176219999998
 30
0.0
 40
0.25
100
AcDbArc
 50
304.99202
 51
0.0
  0
LINE
  5
1B0
330
36
100
AcDbEntity
  8
001
  6
HIDDEN
 62
    15
100
AcDbLine
 10
-112.604112
 20
-598.6224299999999
 30
0.0
 11
-112.497478
 21
-598.5477860000002
 31
0.0
  0
ARC
  5
1B1
330
36
100
AcDbEntity
  8
001
100
AcDbCircle
 10
-112.747478
 20
-575.67795
 30
0.0
 40
0.25
100
AcDbArc
 50
0.0
 51
55.00798
  0
LINE
  5
1B2
330
36
100
AcDbEntity
  8
001
  6
HIDDEN
 62
    15
100
AcDbLine
 10
-112.604112
 20
-575.4731419999997
 30
0.0
 11
-112.497478
 21
-575.547786
 31
0.0
  0
LINE
  5
1B3
330
36
100
AcDbEntity
  8
001
100
AcDbLine
 10
-117.747478
 20
-588.9395419999997
 30
0.0
 11
-115.278674
 21
-588.9395419999997
 31
0.0
  0
LINE
  5
1B4
330
36
100
AcDbEntity
  8
001
100
AcDbLine
 10
-117.747478
 20
-588.5645419999997
 30
0.0
 11
-115.278674
 21
-588.5645419999997
 31
0.0
  0
LINE
  5
1B5
330
36
100
AcDbEntity
  8
001
100
AcDbLine
 10
-115.278674
 20
-588.9395419999997
 30
0.0
 11
-113.869459
 21
-588.879345
 31
0.0
  0
LINE
  5
1B6
330
36
100
AcDbEntity
  8
001
100
AcDbLine
 10
-115.278674
 20
-588.5645419999997
 30
0.0
 11
-113.869459
 21
-588.624739
 31
0.0
  0
LINE
  5
1B7
330
36
100
AcDbEntity
  8
001
100
AcDbLine
 10
-117.747478
 20
-577.5273379999998
 30
0.0
 11
-115.278674
 21
-577.5273379999998
 31
0.0
  0
LINE
  5
1B8
330
36
100
AcDbEntity
  8
001
100
AcDbLine
 10
-117.747478
 20
-577.9023379999999
 30
0.0
 11
-115.278674
 21
-577.9023379999999
 31
0.0
  0
LINE
  5
1B9
330
36
100
AcDbEntity
  8
001
100
AcDbLine
 10
-115.278674
 20
-577.5273379999998
 30
0.0
 11
-113.869459
 21
-577.5875349999997
 31
0.0
  0
LINE
  5
1BA
330
36
100
AcDbEntity
  8
001
100
AcDbLine
 10
-115.278674
 20
-577.9023379999999
 30
0.0
 11
-113.869459
 21
-577.8421409999999
 31
0.0
  0
ARC
  5
1BB
330
36
100
AcDbEntity
  8
001
100
AcDbCircle
 10
-113.874897
 20
-577.7148379999998
 30
0.0
 40
0.127419
100
AcDbArc
 50
272.446007
 51
87.553993
  0
ARC
  5
1BC
330
36
100
AcDbEntity
  8
001
100
AcDbCircle
 10
-113.874897
 20
-588.7520419999997
 30
0.0
 40
0.127419
100
AcDbArc
 50
272.446007
 51
87.553993
  0
ARC
  5
1BD
330
36
100
AcDbEntity
  8
001
100
AcDbCircle
 10
-113.910063
 20
-599.3795509999999
 30
0.0
 40
0.168236
100
AcDbArc
 50
270.0
 51
345.108226
  0
LINE
  5
1BE
330
36
100
AcDbEntity
  8
001
100
AcDbLine
 10
-113.910063
 20
-599.5477860000002
 30
0.0
 11
-117.747478
 21
-599.5477860000002
 31
0.0
  0
LINE
  5
1BF
330
36
100
AcDbEntity
  8
001
100
AcDbLine
 10
-117.747478
 20
-599.4227860000002
 30
0.0
 11
-117.747478
 21
-599.5477860000002
 31
0.0
  0
ARC
  5
1C0
330
36
100
AcDbEntity
  8
001
100
AcDbCircle
 10
-113.910063
 20
-574.7160219999996
 30
0.0
 40
0.168236
100
AcDbArc
 50
14.891774
 51
90.0
  0
LINE
  5
1C1
330
36
100
AcDbEntity
  8
001
100
AcDbLine
 10
-113.910063
 20
-574.5477860000002
 30
0.0
 11
-117.747478
 21
-574.5477860000002
 31
0.0
  0
LINE
  5
1C2
330
36
100
AcDbEntity
  8
001
100
AcDbLine
 10
-117.747478
 20
-574.672786
 30
0.0
 11
-117.747478
 21
-574.5477860000002
 31
0.0
  0
LINE
  5
1C3
330
36
100
AcDbEntity
  8
001
 62
     3
100
AcDbLine
 10
-119.81156
 20
-600.3891150000002
 30
0.0
 11
-119.87406
 21
-600.3891150000002
 31
0.0
  0
LINE
  5
1C4
330
36
100
AcDbEntity
  8
001
  6
CENTER
100
AcDbLine
 10
-119.45695
 20
-599.639115
 30
0.0
 11
-120.470915
 21
-599.639115
 31
0.0
  0
LINE
  5
1C5
330
36
100
AcDbEntity
  8
001
 62
     3
100
AcDbLine
 10
-119.81156
 20
-577.6391150000002
 30
0.0
 11
-120.12406
 21
-577.6391150000002
 31
0.0
  0
ARC
  5
1C6
330
36
100
AcDbEntity
  8
001
100
AcDbCircle
 10
-119.680605
 20
-600.135576
 30
0.0
 40
0.125
100
AcDbArc
 50
270.0
 51
317.809442
  0
ARC
  5
1C7
330
36
100
AcDbEntity
  8
001
100
AcDbCircle
 10
-120.236291
 20
-599.6318769999998
 30
0.0
 40
0.875
100
AcDbArc
 50
317.809442
 51
355.950761
  0
LINE
  5
1C8
330
36
100
AcDbEntity
  8
001
100
AcDbLine
 10
-119.363475
 20
-599.693664
 30
0.0
 11
-119.453445
 21
-599.693664
 31
0.0
  0
LINE
  5
1C9
330
36
100
AcDbEntity
  8
001
100
AcDbLine
 10
-119.453445
 20
-599.5774879999999
 30
0.0
 11
-119.453445
 21
-599.693664
 31
0.0
  0
LINE
  5
1CA
330
36
100
AcDbEntity
  8
001
100
AcDbLine
 10
-119.362983
 20
-599.5774879999999
 30
0.0
 11
-119.453445
 21
-599.5774879999999
 31
0.0
  0
ARC
  5
1CB
330
36
100
AcDbEntity
  8
001
100
AcDbCircle
 10
-120.236291
 20
-599.639275
 30
0.0
 40
0.875
100
AcDbArc
 50
4.049239
 51
42.190558
  0
ARC
  5
1CC
330
36
100
AcDbEntity
  8
001
100
AcDbCircle
 10
-119.680605
 20
-599.135576
 30
0.0
 40
0.125
100
AcDbArc
 50
42.190558
 51
90.0
  0
LINE
  5
1CD
330
36
100
AcDbEntity
  8
001
100
AcDbLine
 10
-125.217404
 20
-574.1474969999997
 30
0.0
 11
-125.330285
 21
-574.2362019999998
 31
0.0
  0
LINE
  5
1CE
330
36
100
AcDbEntity
  8
001
100
AcDbLine
 10
-125.325637
 20
-574.69167
 30
0.0
 11
-125.325637
 21
-574.232549
 31
0.0
  0
LINE
  5
1CF
330
36
100
AcDbEntity
  8
001
100
AcDbLine
 10
-125.109171
 20
-574.1474969999997
 30
0.0
 11
-125.217404
 21
-574.1474969999997
 31
0.0
  0
LINE
  5
1D0
330
36
100
AcDbEntity
  8
001
100
AcDbLine
 10
-125.109171
 20
-575.0849969999998
 30
0.0
 11
-125.109171
 21
-573.8349969999998
 31
0.0
  0
LINE
  5
1D1
330
36
100
AcDbEntity
  8
001
100
AcDbLine
 10
-123.458359
 20
-573.8349969999998
 30
0.0
 11
-124.466775
 21
-573.6417679999997
 31
0.0
  0
LINE
  5
1D2
330
36
100
AcDbEntity
  8
001
100
AcDbLine
 10
-123.401127
 20
-574.8790349999998
 30
0.0
 11
-123.401127
 21
-574.0409589999997
 31
0.0
  0
LINE
  5
1D3
330
36
100
AcDbEntity
  8
001
100
AcDbLine
 10
-124.487984
 20
-573.8349969999998
 30
0.0
 11
-123.401127
 21
-574.0409589999997
 31
0.0
  0
LINE
  5
1D4
330
36
100
AcDbEntity
  8
001
100
AcDbLine
 10
-124.487984
 20
-573.8349969999998
 30
0.0
 11
-125.109171
 21
-573.8349969999998
 31
0.0
  0
LINE
  5
1D5
330
36
100
AcDbEntity
  8
001
100
AcDbLine
 10
-125.737984
 20
-574.4599969999998
 30
0.0
 11
-125.508595
 21
-573.6417679999997
 31
0.0
  0
LINE
  5
1D6
330
36
100
AcDbEntity
  8
001
100
AcDbLine
 10
-125.737984
 20
-574.4599969999998
 30
0.0
 11
-125.508595
 21
-575.278226
 31
0.0
  0
LINE
  5
1D7
330
36
100
AcDbEntity
  8
001
100
AcDbLine
 10
-125.217404
 20
-574.7724969999998
 30
0.0
 11
-125.330285
 21
-574.688199
 31
0.0
  0
LINE
  5
1D8
330
36
100
AcDbEntity
  8
001
100
AcDbLine
 10
-125.109171
 20
-574.7724969999998
 30
0.0
 11
-125.217404
 21
-574.7724969999998
 31
0.0
  0
LINE
  5
1D9
330
36
100
AcDbEntity
  8
001
100
AcDbLine
 10
-123.458359
 20
-575.0849969999998
 30
0.0
 11
-124.466775
 21
-575.278226
 31
0.0
  0
LINE
  5
1DA
330
36
100
AcDbEntity
  8
001
100
AcDbLine
 10
-124.487984
 20
-575.0849969999998
 30
0.0
 11
-123.401127
 21
-574.8790349999998
 31
0.0
  0
LINE
  5
1DB
330
36
100
AcDbEntity
  8
001
100
AcDbLine
 10
-124.487984
 20
-575.0849969999998
 30
0.0
 11
-125.109171
 21
-575.0849969999998
 31
0.0
  0
ARC
  5
1DC
330
36
100
AcDbEntity
  8
001
100
AcDbCircle
 10
-119.680605
 20
-573.9599969999998
 30
0.0
 40
0.125
100
AcDbArc
 50
42.190558
 51
90.0
  0
ARC
  5
1DD
330
36
100
AcDbEntity
  8
001
100
AcDbCircle
 10
-120.236291
 20
-574.463696
 30
0.0
 40
0.875
100
AcDbArc
 50
4.049239
 51
42.190558
  0
LINE
  5
1DE
330
36
100
AcDbEntity
  8
001
100
AcDbLine
 10
-119.363475
 20
-574.4019089999998
 30
0.0
 11
-119.453445
 21
-574.4019089999998
 31
0.0
  0
LINE
  5
1DF
330
36
100
AcDbEntity
  8
001
100
AcDbLine
 10
-119.453445
 20
-574.5180849999997
 30
0.0
 11
-119.453445
 21
-574.4019089999998
 31
0.0
  0
LINE
  5
1E0
330
36
100
AcDbEntity
  8
001
100
AcDbLine
 10
-119.362983
 20
-574.5180849999997
 30
0.0
 11
-119.453445
 21
-574.5180849999997
 31
0.0
  0
ARC
  5
1E1
330
36
100
AcDbEntity
  8
001
100
AcDbCircle
 10
-120.236291
 20
-574.456298
 30
0.0
 40
0.875
100
AcDbArc
 50
317.809442
 51
355.950761
  0
ARC
  5
1E2
330
36
100
AcDbEntity
  8
001
100
AcDbCircle
 10
-119.680605
 20
-574.9599969999998
 30
0.0
 40
0.125
100
AcDbArc
 50
270.0
 51
317.809442
  0
LINE
  5
1E3
330
36
100
AcDbEntity
  8
001
100
AcDbLine
 10
-122.816328
 20
-600.260576
 30
0.0
 11
-120.12406
 21
-600.260576
 31
0.0
  0
LINE
  5
1E4
330
36
100
AcDbEntity
  8
001
100
AcDbLine
 10
-122.816328
 20
-599.9480759999999
 30
0.0
 11
-119.68656
 21
-599.9480759999999
 31
0.0
  0
LINE
  5
1E5
330
36
100
AcDbEntity
  8
001
100
AcDbLine
 10
-122.816328
 20
-599.323076
 30
0.0
 11
-119.68656
 21
-599.323076
 31
0.0
  0
LINE
  5
1E6
330
36
100
AcDbEntity
  8
001
100
AcDbLine
 10
-122.816328
 20
-599.010576
 30
0.0
 11
-120.12406
 21
-599.010576
 31
0.0
  0
LINE
  5
1E7
330
36
100
AcDbEntity
  8
001
100
AcDbLine
 10
-123.401127
 20
-574.7724969999998
 30
0.0
 11
-119.68656
 21
-574.7724969999998
 31
0.0
  0
LINE
  5
1E8
330
36
100
AcDbEntity
  8
001
100
AcDbLine
 10
-123.401127
 20
-574.1474969999997
 30
0.0
 11
-119.68656
 21
-574.1474969999997
 31
0.0
  0
LINE
  5
1E9
330
36
100
AcDbEntity
  8
001
100
AcDbLine
 10
-123.458359
 20
-573.8349969999998
 30
0.0
 11
-120.12406
 21
-573.8349969999998
 31
0.0
  0
LINE
  5
1EA
330
36
100
AcDbEntity
  8
001
100
AcDbLine
 10
-123.458359
 20
-575.0849969999998
 30
0.0
 11
-120.12406
 21
-575.0849969999998
 31
0.0
  0
LINE
  5
1EB
330
36
100
AcDbEntity
  8
001
 62
     3
100
AcDbLine
 10
-120.12406
 20
-570.510865
 30
0.0
 11
-120.12406
 21
-603.8619029999997
 31
0.0
  0
LINE
  5
1EC
330
36
100
AcDbEntity
  8
001
100
AcDbLine
 10
-125.508595
 20
-573.6417679999997
 30
0.0
 11
-119.81156
 21
-573.6417679999997
 31
0.0
  0
LINE
  5
1ED
330
36
100
AcDbEntity
  8
001
100
AcDbLine
 10
-125.508595
 20
-575.278226
 30
0.0
 11
-120.12406
 21
-575.278226
 31
0.0
  0
LINE
  5
1EE
330
36
100
AcDbEntity
  8
001
 62
     3
100
AcDbLine
 10
-117.747478
 20
-599.4227860000002
 30
0.0
 11
-119.58799
 21
-599.4227860000002
 31
0.0
  0
LINE
  5
1EF
330
36
100
AcDbEntity
  8
001
 62
     3
100
AcDbLine
 10
-117.747478
 20
-574.672786
 30
0.0
 11
-119.363475
 21
-574.672786
 31
0.0
  0
LINE
  5
1F0
330
36
100
AcDbEntity
  8
001
 62
     3
100
AcDbLine
 10
-112.497478
 20
-575.67795
 30
0.0
 11
-112.497478
 21
-598.4176219999998
 31
0.0
  0
LINE
  5
1F1
330
36
100
AcDbEntity
  8
001
 62
     3
100
AcDbLine
 10
-113.747478
 20
-599.4227860000002
 30
0.0
 11
-113.747478
 21
-574.672786
 31
0.0
  0
LINE
  5
1F2
330
36
100
AcDbEntity
  8
001
 62
     3
100
AcDbLine
 10
-112.604112
 20
-575.4731419999997
 30
0.0
 11
-113.747478
 21
-574.672786
 31
0.0
  0
LINE
  5
1F3
330
36
100
AcDbEntity
  8
001
 62
     3
100
AcDbLine
 10
-112.604112
 20
-598.6224299999999
 30
0.0
 11
-113.747478
 21
-599.4227860000002
 31
0.0
  0
LINE
  5
1F4
330
36
100
AcDbEntity
  8
001
 62
     3
100
AcDbLine
 10
-117.747478
 20
-599.4227860000002
 30
0.0
 11
-117.747478
 21
-574.672786
 31
0.0
  0
TEXT
  5
1F5
330
36
100
AcDbEntity
  8
001
 62
     3
100
AcDbText
 10
28.58719164579777
 20
-531.3417332600553
 30
0.0
 40
2.5
  1
本体寸法
  7
高2.5
100
AcDbText
  0
LINE
  5
1F6
330
36
100
AcDbEntity
  8
001
  6
CENTER
100
AcDbLine
 10
-111.91969
 20
-587.0477860000002
 30
0.0
 11
-129.53545
 21
-587.0477860000002
 31
0.0
  0
LINE
  5
1F7
330
36
100
AcDbEntity
  8
001
100
AcDbLine
 10
-122.824876
 20
-587.0477860000002
 30
0.0
 11
-120.12406
 21
-584.3469709999998
 31
0.0
  0
LINE
  5
1F8
330
36
100
AcDbEntity
  8
001
100
AcDbLine
 10
-125.653303
 20
-587.0477860000002
 30
0.0
 11
-120.12406
 21
-581.518544
 31
0.0
  0
LINE
  5
1F9
330
36
100
AcDbEntity
  8
001
100
AcDbLine
 10
-128.48173
 20
-587.0477860000002
 30
0.0
 11
-120.12406
 21
-578.690116
 31
0.0
  0
LINE
  5
1FA
330
36
100
AcDbEntity
  8
001
100
AcDbLine
 10
-128.534092
 20
-584.2717209999997
 30
0.0
 11
-120.12406
 21
-575.8616889999997
 31
0.0
  0
LINE
  5
1FB
330
36
100
AcDbEntity
  8
001
100
AcDbLine
 10
-128.534092
 20
-581.443294
 30
0.0
 11
-122.369024
 21
-575.278226
 31
0.0
  0
LINE
  5
1FC
330
36
100
AcDbEntity
  8
001
100
AcDbLine
 10
-120.732566
 20
-573.6417679999997
 30
0.0
 11
-120.12406
 21
-573.033262
 31
0.0
  0
LINE
  5
1FD
330
36
100
AcDbEntity
  8
001
100
AcDbLine
 10
-128.534092
 20
-578.614867
 30
0.0
 11
-125.197452
 21
-575.278226
 31
0.0
  0
LINE
  5
1FE
330
36
100
AcDbEntity
  8
001
100
AcDbLine
 10
-123.560993
 20
-573.6417679999997
 30
0.0
 11
-120.580393
 21
-570.6611679999999
 31
0.0
  0
LINE
  5
1FF
330
36
100
AcDbEntity
  8
001
100
AcDbLine
 10
-128.534092
 20
-575.78644
 30
0.0
 11
-123.40882
 21
-570.6611679999999
 31
0.0
  0
LINE
  5
200
330
36
100
AcDbEntity
  8
001
100
AcDbLine
 10
-128.534092
 20
-572.9580129999998
 30
0.0
 11
-126.237247
 21
-570.6611679999999
 31
0.0
  0
LINE
  5
201
330
36
100
AcDbEntity
  8
001
100
AcDbLine
 10
-122.200593
 20
-603.394066
 30
0.0
 11
-120.12406
 21
-601.317533
 31
0.0
  0
LINE
  5
202
330
36
100
AcDbEntity
  8
001
100
AcDbLine
 10
-122.200593
 20
-600.5656389999998
 30
0.0
 11
-120.12406
 21
-598.4891059999998
 31
0.0
  0
LINE
  5
203
330
36
100
AcDbEntity
  8
001
100
AcDbLine
 10
-122.200593
 20
-597.737212
 30
0.0
 11
-120.12406
 21
-595.6606789999997
 31
0.0
  0
LINE
  5
204
330
36
100
AcDbEntity
  8
001
100
AcDbLine
 10
-122.200593
 20
-594.9087839999997
 30
0.0
 11
-120.12406
 21
-592.8322519999998
 31
0.0
  0
LINE
  5
205
330
36
100
AcDbEntity
  8
001
100
AcDbLine
 10
-122.200593
 20
-592.080357
 30
0.0
 11
-120.12406
 21
-590.003825
 31
0.0
  0
LINE
  5
206
330
36
100
AcDbEntity
  8
001
100
AcDbLine
 10
-122.200593
 20
-589.25193
 30
0.0
 11
-120.12406
 21
-587.1753980000002
 31
0.0
  0
LINE
  5
207
330
36
100
AcDbEntity
  8
001
 62
     3
100
AcDbLine
 10
-129.53545
 20
-587.0477860000002
 30
0.0
 11
-150.777712
 21
-587.0477860000002
 31
0.0
  0
LINE
  5
208
330
36
100
AcDbEntity
  8
001
100
AcDbLine
 10
-122.200593
 20
-604.3717299999997
 30
0.0
 11
-122.200593
 21
-587.0477860000002
 31
0.0
  0
LINE
  5
209
330
36
100
AcDbEntity
  8
001
100
AcDbLine
 10
-122.816328
 20
-598.817346
 30
0.0
 11
-122.214951
 21
-596.913525
 31
0.0
  0
LINE
  5
20A
330
36
100
AcDbEntity
  8
001
100
AcDbLine
 10
-122.816328
 20
-600.4608839999997
 30
0.0
 11
-122.214951
 21
-602.364705
 31
0.0
  0
LINE
  5
20B
330
36
100
AcDbEntity
  8
001
100
AcDbLine
 10
-124.339162
 20
-598.817346
 30
0.0
 11
-124.339162
 21
-600.4538049999998
 31
0.0
  0
LINE
  5
20C
330
36
100
AcDbEntity
  8
001
100
AcDbLine
 10
-122.200593
 20
-596.868071
 30
0.0
 11
-124.382277
 21
-598.856645
 31
0.0
  0
LINE
  5
20D
330
36
100
AcDbEntity
  8
001
100
AcDbLine
 10
-122.200593
 20
-602.41016
 30
0.0
 11
-124.382277
 21
-600.4215849999998
 31
0.0
  0
LINE
  5
20E
330
36
100
AcDbEntity
  8
001
100
AcDbLine
 10
-125.129631
 20
-599.9480759999999
 30
0.0
 11
-126.823633
 21
-599.9480759999999
 31
0.0
  0
LINE
  5
20F
330
36
100
AcDbEntity
  8
001
100
AcDbLine
 10
-125.129631
 20
-599.323076
 30
0.0
 11
-126.823633
 21
-599.323076
 31
0.0
  0
LINE
  5
210
330
36
100
AcDbEntity
  8
001
100
AcDbLine
 10
-126.823633
 20
-599.323076
 30
0.0
 11
-126.823633
 21
-599.9480759999999
 31
0.0
  0
LINE
  5
211
330
36
100
AcDbEntity
  8
001
100
AcDbLine
 10
-122.816328
 20
-598.817346
 30
0.0
 11
-122.816328
 21
-600.4538049999998
 31
0.0
  0
LINE
  5
212
330
36
100
AcDbEntity
  8
001
100
AcDbLine
 10
-124.829631
 20
-598.817346
 30
0.0
 11
-122.816328
 21
-598.817346
 31
0.0
  0
ARC
  5
213
330
36
100
AcDbEntity
  8
001
100
AcDbCircle
 10
-124.829631
 20
-599.1173459999997
 30
0.0
 40
0.3
100
AcDbArc
 50
90.0
 51
180.0
  0
LINE
  5
214
330
36
100
AcDbEntity
  8
001
100
AcDbLine
 10
-125.129631
 20
-600.153805
 30
0.0
 11
-125.129631
 21
-599.1173459999997
 31
0.0
  0
ARC
  5
215
330
36
100
AcDbEntity
  8
001
100
AcDbCircle
 10
-124.829631
 20
-600.153805
 30
0.0
 40
0.3
100
AcDbArc
 50
180.0
 51
270.0
  0
LINE
  5
216
330
36
100
AcDbEntity
  8
001
100
AcDbLine
 10
-124.829631
 20
-600.4538049999998
 30
0.0
 11
-122.816328
 21
-600.4538049999998
 31
0.0
  0
LINE
  5
217
330
36
100
AcDbEntity
  8
001
100
AcDbLine
 10
-119.68656
 20
-577.514115
 30
0.0
 11
-119.68656
 21
-573.7650949999999
 31
0.0
  0
ARC
  5
218
330
36
100
AcDbEntity
  8
001
100
AcDbCircle
 10
-119.81156
 20
-577.514115
 30
0.0
 40
0.125
100
AcDbArc
 50
270.0
 51
0.0
  0
ARC
  5
219
330
36
100
AcDbEntity
  8
001
100
AcDbCircle
 10
-119.81156
 20
-573.7650949999999
 30
0.0
 40
0.125
100
AcDbArc
 50
0.0
 51
90.0
  0
LINE
  5
21A
330
36
100
AcDbEntity
  8
001
100
AcDbLine
 10
-119.68656
 20
-596.5150949999999
 30
0.0
 11
-119.68656
 21
-600.264115
 31
0.0
  0
ARC
  5
21B
330
36
100
AcDbEntity
  8
001
100
AcDbCircle
 10
-119.81156
 20
-596.5150949999999
 30
0.0
 40
0.125
100
AcDbArc
 50
0.0
 51
90.0
  0
LINE
  5
21C
330
36
100
AcDbEntity
  8
001
100
AcDbLine
 10
-119.81156
 20
-596.390095
 30
0.0
 11
-120.12406
 21
-596.390095
 31
0.0
  0
ARC
  5
21D
330
36
100
AcDbEntity
  8
001
100
AcDbCircle
 10
-119.81156
 20
-600.264115
 30
0.0
 40
0.125
100
AcDbArc
 50
270.0
 51
0.0
  0
LINE
  5
21E
330
36
100
AcDbEntity
  8
001
100
AcDbLine
 10
-119.87406
 20
-600.3891150000002
 30
0.0
 11
-120.12406
 21
-600.3891150000002
 31
0.0
  0
LINE
  5
21F
330
36
100
AcDbEntity
  8
001
100
AcDbLine
 10
-51.28961799999999
 20
-594.3191009999998
 30
0.0
 11
-49.791582
 21
-594.3191009999998
 31
0.0
  0
LINE
  5
220
330
36
100
AcDbEntity
  8
001
100
AcDbLine
 10
-75.039618
 20
-594.3191009999998
 30
0.0
 11
-51.28961799999999
 21
-594.3191009999998
 31
0.0
  0
LINE
  5
221
330
36
100
AcDbEntity
  8
001
100
AcDbLine
 10
-75.039618
 20
-594.3191009999998
 30
0.0
 11
-76.54060300000002
 21
-594.3191009999998
 31
0.0
  0
TEXT
  5
222
330
36
100
AcDbEntity
  8
001
 62
     3
100
AcDbText
 10
28.60835404579777
 20
-473.2071452600552
 30
0.0
 40
2.5
  1
防水充填材
  7
高2.5
100
AcDbText
  0
TEXT
  5
223
330
36
100
AcDbEntity
  8
001
 62
     3
100
AcDbText
 10
48.71204486398561
 20
-473.4007276600554
 30
0.0
 40
2.5
  1
特殊ウレタン（ダウコーニング社製）
  7
高2.5
100
AcDbText
  0
LINE
  5
224
330
36
100
AcDbEntity
  8
001
 62
     3
100
AcDbLine
 10
27.23885084579777
 20
-466.5417332600553
 30
0.0
 11
112.3788671801602
 21
-466.5417332600553
 31
0.0
  0
LINE
  5
225
330
36
100
AcDbEntity
  8
001
100
AcDbLine
 10
27.23885084579777
 20
-470.1417332600551
 30
0.0
 11
112.3788671801602
 21
-470.1417332600549
 31
0.0
  0
LINE
  5
226
330
36
100
AcDbEntity
  8
001
100
AcDbLine
 10
112.3788671801602
 20
-474.1417332600551
 30
0.0
 11
27.23885084579777
 21
-474.1417332600551
 31
0.0
  0
LINE
  5
227
330
36
100
AcDbEntity
  8
001
100
AcDbLine
 10
27.23885084579777
 20
-477.7417332600553
 30
0.0
 11
112.3788671801602
 21
-477.7417332600552
 31
0.0
  0
LINE
  5
228
330
36
100
AcDbEntity
  8
001
100
AcDbLine
 10
27.23885084579777
 20
-481.3417332600553
 30
0.0
 11
112.3788671801602
 21
-481.3417332600553
 31
0.0
  0
LINE
  5
229
330
36
100
AcDbEntity
  8
001
100
AcDbLine
 10
27.23885084579777
 20
-484.9417332600553
 30
0.0
 11
112.3788671801602
 21
-484.9417332600551
 31
0.0
  0
LINE
  5
22A
330
36
100
AcDbEntity
  8
001
100
AcDbLine
 10
27.23885084579777
 20
-488.9417332600551
 30
0.0
 11
112.3788671801602
 21
-488.9417332600551
 31
0.0
  0
LINE
  5
22B
330
36
100
AcDbEntity
  8
001
100
AcDbLine
 10
27.23885084579777
 20
-492.5417332600551
 30
0.0
 11
112.3788671801602
 21
-492.541733260055
 31
0.0
  0
LINE
  5
22C
330
36
100
AcDbEntity
  8
001
100
AcDbLine
 10
27.23885084579777
 20
-496.5417332600551
 30
0.0
 11
112.3788671801602
 21
-496.5417332600551
 31
0.0
  0
LINE
  5
22D
330
36
100
AcDbEntity
  8
001
100
AcDbLine
 10
27.23885084579777
 20
-500.5417332600551
 30
0.0
 11
112.3788671801602
 21
-500.5417332600551
 31
0.0
  0
LINE
  5
22E
330
36
100
AcDbEntity
  8
001
100
AcDbLine
 10
27.23885084579777
 20
-508.1417332600551
 30
0.0
 11
112.3788671801602
 21
-508.1417332600551
 31
0.0
  0
LINE
  5
22F
330
36
100
AcDbEntity
  8
001
100
AcDbLine
 10
27.23885084579777
 20
-516.1417332600551
 30
0.0
 11
112.3788671801602
 21
-516.1417332600551
 31
0.0
  0
LINE
  5
230
330
36
100
AcDbEntity
  8
001
100
AcDbLine
 10
27.23885084579777
 20
-528.1417332600551
 30
0.0
 11
112.3788671801602
 21
-528.1417332600551
 31
0.0
  0
LINE
  5
231
330
36
100
AcDbEntity
  8
001
100
AcDbLine
 10
27.23885084579777
 20
-535.7417332600552
 30
0.0
 11
112.3788671801602
 21
-535.7417332600552
 31
0.0
  0
LINE
  5
232
330
36
100
AcDbEntity
  8
001
100
AcDbLine
 10
27.23885084579777
 20
-532.1417332600551
 30
0.0
 11
112.3788671801602
 21
-532.1417332600551
 31
0.0
  0
LINE
  5
233
330
36
100
AcDbEntity
  8
001
100
AcDbLine
 10
27.23885084579777
 20
-524.1417332600551
 30
0.0
 11
112.3788671801602
 21
-524.141733260055
 31
0.0
  0
LINE
  5
234
330
36
100
AcDbEntity
  8
001
100
AcDbLine
 10
27.23885084579777
 20
-512.1417332600554
 30
0.0
 11
112.3788671801602
 21
-512.1417332600554
 31
0.0
  0
LINE
  5
235
330
36
100
AcDbEntity
  8
001
100
AcDbLine
 10
27.23885084579777
 20
-504.1417332600551
 30
0.0
 11
112.3788671801602
 21
-504.1417332600551
 31
0.0
  0
TEXT
  5
236
330
36
100
AcDbEntity
  8
001
 62
     3
100
AcDbText
 10
48.71204486398561
 20
-469.7417332600553
 30
0.0
 40
2.5
  1
UVコーティングポリカーボネート樹脂
  7
高2.5
100
AcDbText
  0
LINE
  5
237
330
36
100
AcDbEntity
  8
001
100
AcDbLine
 10
33.17522844579777
 20
-465.8503804600551
 30
0.0
 11
85.37925535075975
 21
-465.8503804600551
 31
0.0
  0
LINE
  5
238
330
36
100
AcDbEntity
  8
001
100
AcDbLine
 10
-49.452481
 20
-594.691415
 30
0.0
 11
-76.876755
 21
-594.691415
 31
0.0
  0
LINE
  5
239
330
36
100
AcDbEntity
  8
001
100
AcDbLine
 10
-49.671225
 20
-586.68745
 30
0.0
 11
-49.671225
 21
-594.691415
 31
0.0
  0
LINE
  5
23A
330
36
100
AcDbEntity
  8
001
100
AcDbLine
 10
-50.04556
 20
-587.0022759999998
 30
0.0
 11
-50.04556
 21
-593.589996
 31
0.0
  0
LINE
  5
23B
330
36
100
AcDbEntity
  8
001
100
AcDbLine
 10
-50.419894
 20
-587.317101
 30
0.0
 11
-50.419894
 21
-593.589996
 31
0.0
  0
LINE
  5
23C
330
36
100
AcDbEntity
  8
001
100
AcDbLine
 10
-76.658011
 20
-586.68745
 30
0.0
 11
-76.658011
 21
-594.691415
 31
0.0
  0
LINE
  5
23D
330
36
100
AcDbEntity
  8
001
100
AcDbLine
 10
-76.283677
 20
-587.0022759999998
 30
0.0
 11
-76.283677
 21
-593.589996
 31
0.0
  0
LINE
  5
23E
330
36
100
AcDbEntity
  8
001
100
AcDbLine
 10
-75.90934200000003
 20
-587.317101
 30
0.0
 11
-75.90934200000003
 21
-593.589996
 31
0.0
  0
TEXT
  5
23F
330
36
100
AcDbEntity
  8
001
 62
     3
100
AcDbText
 10
48.71204486398561
 20
-480.6140700600553
 30
0.0
 40
2.5
  1
シングルクリスタルソーラーパネル
  7
高2.5
100
AcDbText
  0
TEXT
  5
240
330
36
100
AcDbEntity
  8
001
 62
     3
100
AcDbText
 10
28.58719164579777
 20
-538.9417332600551
 30
0.0
 40
2.5
  1
質　　量
  7
高2.5
100
AcDbText
  0
TEXT
  5
241
330
36
100
AcDbEntity
  8
001
 62
     3
100
AcDbText
 10
28.58719164579777
 20
-492.1417332600554
 30
0.0
 40
2.5
  1
光　　源
  7
高2.5
100
AcDbText
  0
TEXT
  5
242
330
36
100
AcDbEntity
  8
001
 62
     3
100
AcDbText
 10
-13.354296
 20
-464.332747
 30
0.0
 40
3.2
  1
ＬＥＤ発光～４箇所
 41
0.833333
100
AcDbText
  0
LINE
  5
243
330
36
100
AcDbEntity
  8
001
100
AcDbLine
 10
-12.886907
 20
-464.883965
 30
0.0
 11
15.08428
 21
-464.883965
 31
0.0
  0
TEXT
  5
245
330
36
100
AcDbEntity
  8
001
 62
     3
100
AcDbText
 10
62.38956356281875
 20
-465.1482840098228
 30
0.0
 40
3.6
  1
（全面発光型）
 41
0.833333
100
AcDbText
  0
TEXT
  5
246
330
36
100
AcDbEntity
  8
001
 62
     3
100
AcDbText
 10
35.17052885430145
 20
-465.1025588066653
 30
0.0
 40
3.6
  1
主　　仕　　様
 41
0.833333
100
AcDbText
  0
TEXT
  5
247
330
36
100
AcDbEntity
  8
001
 62
     3
100
AcDbText
 10
-151.3058900865267
 20
-580.465854
 30
0.0
 40
3.2
  1
底突き　厚壁
  7
高3.2
100
AcDbText
  0
TEXT
  5
248
330
36
100
AcDbEntity
  8
001
 62
     3
100
AcDbText
 10
-151.3641460865267
 20
-595.543357
 30
0.0
 40
3.2
  1
薄い　中空壁
  7
高3.2
100
AcDbText
  0
TEXT
  5
249
330
36
100
AcDbEntity
  8
001
 62
     3
100
AcDbText
 10
-67.609903
 20
-581.323407
 30
0.0
 40
3.2
  1
（5～10ミリ）
  7
高3.2
100
AcDbText
  0
TEXT
  5
24A
330
36
100
AcDbEntity
  8
001
 62
     3
100
AcDbText
 10
28.37772604579777
 20
-477.1556972600554
 30
0.0
 40
2.5
  1
発
  7
高2.5
100
AcDbText
  0
TEXT
  5
24B
330
36
100
AcDbEntity
  8
001
 62
     3
100
AcDbText
 10
32.62019404579777
 20
-477.1556972600554
 30
0.0
 40
2.5
  1
光
  7
高2.5
100
AcDbText
  0
TEXT
  5
24C
330
36
100
AcDbEntity
  8
001
 62
     3
100
AcDbText
 10
36.86266124579776
 20
-477.1556972600554
 30
0.0
 40
2.5
  1
色
  7
高2.5
100
AcDbText
  0
TEXT
  5
24D
330
36
100
AcDbEntity
  8
001
 62
     3
100
AcDbText
 10
28.37772604579777
 20
-480.7556972600552
 30
0.0
 40
2.5
  1
太陽電池
  7
高2.5
100
AcDbText
  0
TEXT
  5
24E
330
36
100
AcDbEntity
  8
001
 62
     3
100
AcDbText
 10
28.37772604579777
 20
-484.3556972600553
 30
0.0
 40
2.5
  1
蓄
  7
高2.5
100
AcDbText
  0
TEXT
  5
24F
330
36
100
AcDbEntity
  8
001
 62
     3
100
AcDbText
 10
32.62019404579777
 20
-484.3556972600553
 30
0.0
 40
2.5
  1
電
  7
高2.5
100
AcDbText
  0
TEXT
  5
250
330
36
100
AcDbEntity
  8
001
 62
     3
100
AcDbText
 10
36.86266124579776
 20
-484.3556972600553
 30
0.0
 40
2.5
  1
部
  7
高2.5
100
AcDbText
  0
LINE
  5
256
330
36
100
AcDbEntity
  8
001
100
AcDbLine
 10
-119.217855
 20
-599.4227860000002
 30
0.0
 11
-110.941743
 21
-592.5286039999997
 31
0.0
  0
LINE
  5
257
330
36
100
AcDbEntity
  8
001
100
AcDbLine
 10
-110.941743
 20
-592.5286039999997
 30
0.0
 11
-83.441743
 21
-592.5286039999997
 31
0.0
  0
TEXT
  5
258
330
36
100
AcDbEntity
  8
001
 62
     4
100
AcDbText
 10
-108.191743
 20
-591.5286039999997
 30
0.0
 40
3.2
  1
ボードファスナー
 41
0.8
  7
高3.2
100
AcDbText
  0
LINE
  5
25E
330
36
100
AcDbEntity
  8
001
100
AcDbLine
 10
-76.257186
 20
-586.547192
 30
0.0
 11
-69.79139299999999
 21
-576.9955139999997
 31
0.0
  0
LINE
  5
25F
330
36
100
AcDbEntity
  8
001
100
AcDbLine
 10
-69.79139299999999
 20
-576.9955139999997
 30
0.0
 11
-34.041393
 21
-576.9955139999997
 31
0.0
  0
TEXT
  5
260
330
36
100
AcDbEntity
  8
001
 62
     4
100
AcDbText
 10
-67.041393
 20
-575.9955139999997
 30
0.0
 40
3.2
  1
タイル周囲シーリング層
 41
0.8
  7
高3.2
100
AcDbText
  0
CIRCLE
  5
261
330
36
100
AcDbEntity
  8
001
100
AcDbCircle
 10
-106.168349
 20
-466.283387
 30
0.0
 40
2.0
  0
TEXT
  5
262
330
36
100
AcDbEntity
  8
001
 62
     3
100
AcDbText
 10
-109.179986
 20
-576.599555
 30
0.0
 40
3.2
  1
（M4x25）
  7
高3.2
100
AcDbText
  0
CIRCLE
  5
263
330
36
100
AcDbEntity
  8
001
100
AcDbCircle
 10
2.128697999999999
 20
-599.2449349999998
 30
0.0
 40
0.625
  0
CIRCLE
  5
264
330
36
100
AcDbEntity
  8
001
100
AcDbCircle
 10
-23.121302
 20
-573.9949349999998
 30
0.0
 40
0.625
  0
LINE
  5
265
330
36
100
AcDbEntity
  8
001
100
AcDbLine
 10
-19.746302
 20
-576.6199349999998
 30
0.0
 11
-1.246302
 21
-576.6199349999998
 31
0.0
  0
ARC
  5
266
330
36
100
AcDbEntity
  8
001
100
AcDbCircle
 10
-1.246302
 20
-577.3699349999998
 30
0.0
 40
0.75
100
AcDbArc
 50
0.0
 51
90.0
  0
LINE
  5
267
330
36
100
AcDbEntity
  8
001
100
AcDbLine
 10
-0.4963020000000001
 20
-586.6199349999998
 30
0.0
 11
-0.4963020000000001
 21
-577.3699349999998
 31
0.0
  0
LINE
  5
268
330
36
100
AcDbEntity
  8
001
100
AcDbLine
 10
-20.496302
 20
-586.6199349999998
 30
0.0
 11
-20.496302
 21
-577.3699349999998
 31
0.0
  0
ARC
  5
269
330
36
100
AcDbEntity
  8
001
100
AcDbCircle
 10
-19.746302
 20
-577.3699349999998
 30
0.0
 40
0.75
100
AcDbArc
 50
90.0
 51
180.0
  0
LINE
  5
26A
330
36
100
AcDbEntity
  8
001
100
AcDbLine
 10
-19.746302
 20
-596.6199349999998
 30
0.0
 11
-1.246302
 21
-596.6199349999998
 31
0.0
  0
ARC
  5
26B
330
36
100
AcDbEntity
  8
001
100
AcDbCircle
 10
-1.246302
 20
-595.8699349999998
 30
0.0
 40
0.75
100
AcDbArc
 50
270.0
 51
0.0
  0
LINE
  5
26C
330
36
100
AcDbEntity
  8
001
100
AcDbLine
 10
-0.4963020000000001
 20
-586.6199349999998
 30
0.0
 11
-0.4963020000000001
 21
-595.8699349999998
 31
0.0
  0
LINE
  5
26D
330
36
100
AcDbEntity
  8
001
100
AcDbLine
 10
-20.496302
 20
-586.6199349999998
 30
0.0
 11
-20.496302
 21
-595.8699349999998
 31
0.0
  0
ARC
  5
26E
330
36
100
AcDbEntity
  8
001
100
AcDbCircle
 10
-19.746302
 20
-595.8699349999998
 30
0.0
 40
0.75
100
AcDbArc
 50
180.0
 51
270.0
  0
LINE
  5
26F
330
36
100
AcDbEntity
  8
001
 62
     3
100
AcDbLine
 10
3.511005
 20
-572.605303
 30
0.0
 11
3.511005
 21
-600.619918
 31
0.0
  0
LINE
  5
270
330
36
100
AcDbEntity
  8
001
 62
     3
100
AcDbLine
 10
3.511005
 20
-572.605303
 30
0.0
 11
-24.50361
 21
-572.605303
 31
0.0
  0
LINE
  5
271
330
36
100
AcDbEntity
  8
001
 62
     3
100
AcDbLine
 10
-24.50361
 20
-572.605303
 30
0.0
 11
-24.50361
 21
-600.619918
 31
0.0
  0
LINE
  5
272
330
36
100
AcDbEntity
  8
001
 62
     3
100
AcDbLine
 10
-24.50361
 20
-600.619918
 30
0.0
 11
3.511005
 21
-600.619918
 31
0.0
  0
CIRCLE
  5
273
330
36
100
AcDbEntity
  8
001
 62
     3
100
AcDbCircle
 10
-36.993302
 20
-471.5772099999998
 30
0.0
 40
2.0
  0
CIRCLE
  5
274
330
36
100
AcDbEntity
  8
001
 62
     3
100
AcDbCircle
 10
-101.219165
 20
-471.1924969999998
 30
0.0
 40
2.0
  0
TEXT
  5
275
330
36
100
AcDbEntity
  8
001
 62
     3
100
AcDbText
 10
-13.212356
 20
-490.355342
 30
0.0
 40
3.2
  1
（４８×４８）
 41
0.833333
100
AcDbText
  0
TEXT
  5
276
330
36
100
AcDbEntity
  8
001
 62
     3
100
AcDbText
 10
-13.028543
 20
-475.6053399999998
 30
0.0
 40
3.2
  1
ノンスリップ突起
 41
0.833333
100
AcDbText
  0
LINE
  5
277
330
36
100
AcDbEntity
  8
001
100
AcDbLine
 10
12.66121
 20
-475.6053399999998
 30
0.0
 11
-13.028543
 21
-475.6053399999998
 31
0.0
  0
LINE
  5
278
330
36
100
AcDbEntity
  8
001
100
AcDbLine
 10
-20.996302
 20
-574.8699349999998
 30
0.0
 11
0.003698
 21
-574.8699349999998
 31
0.0
  0
ARC
  5
279
330
36
100
AcDbEntity
  8
001
100
AcDbCircle
 10
0.003698
 20
-576.1199349999998
 30
0.0
 40
1.25
100
AcDbArc
 50
0.0
 51
90.0
  0
ARC
  5
27A
330
36
100
AcDbEntity
  8
001
100
AcDbCircle
 10
0.003698
 20
-576.1199349999998
 30
0.0
 40
2.0
100
AcDbArc
 50
0.0
 51
90.0
  0
LINE
  5
27B
330
36
100
AcDbEntity
  8
001
100
AcDbLine
 10
-20.996302
 20
-574.1199349999998
 30
0.0
 11
0.003698
 21
-574.1199349999998
 31
0.0
  0
LINE
  5
27C
330
36
100
AcDbEntity
  8
001
100
AcDbLine
 10
2.003697999999999
 20
-597.1199349999998
 30
0.0
 11
2.003697999999999
 21
-576.1199349999998
 31
0.0
  0
LINE
  5
27D
330
36
100
AcDbEntity
  8
001
100
AcDbLine
 10
1.253697999999997
 20
-586.6199349999998
 30
0.0
 11
1.253697999999997
 21
-576.1199349999998
 31
0.0
  0
LINE
  5
27E
330
36
100
AcDbEntity
  8
001
100
AcDbLine
 10
1.253697999999997
 20
-586.6199349999998
 30
0.0
 11
1.253697999999997
 21
-597.1199349999998
 31
0.0
  0
ARC
  5
27F
330
36
100
AcDbEntity
  8
001
100
AcDbCircle
 10
0.003698
 20
-597.1199349999998
 30
0.0
 40
1.25
100
AcDbArc
 50
270.0
 51
0.0
  0
ARC
  5
280
330
36
100
AcDbEntity
  8
001
100
AcDbCircle
 10
0.003698
 20
-597.1199349999998
 30
0.0
 40
2.0
100
AcDbArc
 50
270.0
 51
0.0
  0
LINE
  5
281
330
36
100
AcDbEntity
  8
001
100
AcDbLine
 10
3.121345
 20
-598.715523
 30
0.0
 11
2.003697999999999
 21
-596.6199349999998
 31
0.0
  0
ARC
  5
282
330
36
100
AcDbEntity
  8
001
100
AcDbCircle
 10
2.128697999999999
 20
-599.2449349999998
 30
0.0
 40
1.125
100
AcDbArc
 50
241.927513
 51
28.072487
  0
LINE
  5
283
330
36
100
AcDbEntity
  8
001
100
AcDbLine
 10
1.599286
 20
-600.237582
 30
0.0
 11
-0.4963020000000001
 21
-599.1199349999998
 31
0.0
  0
LINE
  5
284
330
36
100
AcDbEntity
  8
001
100
AcDbLine
 10
0.003698
 20
-599.1199349999998
 30
0.0
 11
-20.996302
 21
-599.1199349999998
 31
0.0
  0
ARC
  5
285
330
36
100
AcDbEntity
  8
001
100
AcDbCircle
 10
-20.996302
 20
-597.1199349999998
 30
0.0
 40
1.25
100
AcDbArc
 50
180.0
 51
270.0
  0
LINE
  5
286
330
36
100
AcDbEntity
  8
001
100
AcDbLine
 10
-20.996302
 20
-598.3699349999998
 30
0.0
 11
0.003698
 21
-598.3699349999998
 31
0.0
  0
ARC
  5
287
330
36
100
AcDbEntity
  8
001
100
AcDbCircle
 10
-20.996302
 20
-597.1199349999998
 30
0.0
 40
2.0
100
AcDbArc
 50
180.0
 51
270.0
  0
LINE
  5
288
330
36
100
AcDbEntity
  8
001
100
AcDbLine
 10
-22.996302
 20
-597.1199349999998
 30
0.0
 11
-22.996302
 21
-576.1199349999998
 31
0.0
  0
LINE
  5
289
330
36
100
AcDbEntity
  8
001
100
AcDbLine
 10
-22.246302
 20
-586.6199349999998
 30
0.0
 11
-22.246302
 21
-597.1199349999998
 31
0.0
  0
LINE
  5
28A
330
36
100
AcDbEntity
  8
001
100
AcDbLine
 10
-22.246302
 20
-586.6199349999998
 30
0.0
 11
-22.246302
 21
-576.1199349999998
 31
0.0
  0
ARC
  5
28B
330
36
100
AcDbEntity
  8
001
100
AcDbCircle
 10
-20.996302
 20
-576.1199349999998
 30
0.0
 40
1.25
100
AcDbArc
 50
90.0
 51
180.0
  0
ARC
  5
28C
330
36
100
AcDbEntity
  8
001
100
AcDbCircle
 10
-20.996302
 20
-576.1199349999998
 30
0.0
 40
2.0
100
AcDbArc
 50
90.0
 51
180.0
  0
LINE
  5
28D
330
36
100
AcDbEntity
  8
001
100
AcDbLine
 10
-24.113949
 20
-574.5243469999998
 30
0.0
 11
-22.996302
 21
-576.6199349999998
 31
0.0
  0
ARC
  5
28E
330
36
100
AcDbEntity
  8
001
100
AcDbCircle
 10
-23.121302
 20
-573.9949349999998
 30
0.0
 40
1.125
100
AcDbArc
 50
61.92751300000002
 51
208.072487
  0
LINE
  5
28F
330
36
100
AcDbEntity
  8
001
100
AcDbLine
 10
-22.59189
 20
-573.0022879999998
 30
0.0
 11
-20.496302
 21
-574.1199349999998
 31
0.0
  0
LINE
  5
290
330
36
100
AcDbEntity
  8
001
  6
CENTER
100
AcDbLine
 10
-10.496302
 20
-601.5961129999997
 30
0.0
 11
-10.496302
 21
-571.6110399999998
 31
0.0
  0
LINE
  5
291
330
36
100
AcDbEntity
  8
001
  6
CENTER
100
AcDbLine
 10
-25.825166
 20
-586.612611
 30
0.0
 11
4.385341999999996
 21
-586.612611
 31
0.0
  0
LINE
  5
297
330
36
100
AcDbEntity
  8
001
100
AcDbLine
 10
-121.581633
 20
-451.682904
 30
0.0
 11
-132.395909
 21
-445.3213749999998
 31
0.0
  0
LINE
  5
298
330
36
100
AcDbEntity
  8
001
100
AcDbLine
 10
-132.395909
 20
-445.3213749999998
 30
0.0
 11
-148.895909
 21
-445.3213749999998
 31
0.0
  0
TEXT
  5
299
330
36
100
AcDbEntity
  8
001
 62
     4
100
AcDbText
 10
-146.145909
 20
-444.3213749999999
 30
0.0
 40
3.2
  1
2-%%c5
 41
0.859375
100
AcDbText
  0
TEXT
  5
29A
330
36
100
AcDbEntity
  8
001
 62
     3
100
AcDbText
 10
48.71204486398561
 20
-535.3417332600553
 30
0.0
 40
2.5
  1
115x115x深さ(65)
  7
高2.5
100
AcDbText
  0
TEXT
  5
29B
330
36
100
AcDbEntity
  8
001
 62
     3
100
AcDbText
 10
48.71204486398561
 20
-531.3417332600553
 30
0.0
 40
2.5
  1
99x99x60
  7
高2.5
100
AcDbText
  0
LINE
  5
29C
330
36
100
AcDbEntity
  8
001
  6
CENTER
100
AcDbLine
 10
-22.692691
 20
-553.783387
 30
0.0
 11
-12.743148
 21
-553.783387
 31
0.0
  0
LINE
  5
29D
330
36
100
AcDbEntity
  8
001
  6
CENTER
100
AcDbLine
 10
-18.668349
 20
-560.2579059999998
 30
0.0
 11
-18.668349
 21
-550.153415
 31
0.0
  0
TEXT
  5
29E
330
36
100
AcDbEntity
  8
001
 62
     3
100
AcDbText
 10
48.71204486398561
 20
-484.2399524600551
 30
0.0
 40
2.5
  1
スードキャパシタ120F
  7
高2.5
100
AcDbText
  0
TEXT
  5
29F
330
36
100
AcDbEntity
  8
001
 62
     3
100
AcDbText
 10
48.71204486398561
 20
-492.1417332600554
 30
0.0
 40
2.5
  1
高輝度チップLED3.5～4個
  7
高2.5
100
AcDbText
  0
TEXT
  5
2A0
330
36
100
AcDbEntity
  8
001
 62
     3
100
AcDbText
 10
48.71204486398561
 20
-507.3417332600553
 30
0.0
 40
2.5
  1
晴れ5時間、曇り　雨8時間
  7
高2.5
100
AcDbText
  0
TEXT
  5
2A1
330
36
100
AcDbEntity
  8
001
 62
     3
100
AcDbText
 10
48.71204486398561
 20
-538.9417332600551
 30
0.0
 40
2.5
  1
600g
  7
高2.5
100
AcDbText
  0
LINE
  5
2A2
330
36
100
AcDbEntity
  8
001
 62
     3
100
AcDbLine
 10
120.309357
 20
-612.5519269999998
 30
0.0
 11
120.309357
 21
-432.551927
 31
0.0
  0
LINE
  5
2A3
330
36
100
AcDbEntity
  8
001
 62
     3
100
AcDbLine
 10
-156.690643
 20
-432.551927
 30
0.0
 11
120.309357
 21
-432.551927
 31
0.0
  0
TEXT
  5
2A4
330
36
100
AcDbEntity
  8
001
 62
     3
100
AcDbText
 10
21.451906
 20
-577.710053
 30
0.0
 40
2.0
  1
CONPONENTS
 41
0.5331600000000001
100
AcDbText
  0
TEXT
  5
2A5
330
36
100
AcDbEntity
  8
001
 62
     3
100
AcDbText
 10
21.60218
 20
-595.6422299999998
 30
0.0
 40
3.0
  1
材
 41
0.833333
100
AcDbText
  0
TEXT
  5
2A6
330
36
100
AcDbEntity
  8
001
 62
     3
100
AcDbText
 10
29.137822
 20
-595.6422299999998
 30
0.0
 40
3.0
  1
質
 41
0.833333
100
AcDbText
  0
TEXT
  5
2A7
330
36
100
AcDbEntity
  8
001
 62
     3
100
AcDbText
 10
21.69025
 20
-585.017706
 30
0.0
 40
2.0
  1
MODEL
 41
1.031072999999999
100
AcDbText
  0
TEXT
  5
2A8
330
36
100
AcDbEntity
  8
001
 62
     3
100
AcDbText
 10
21.60218
 20
-591.959922
 30
0.0
 40
2.0
  1
MATERIAL
 41
0.659278
100
AcDbText
  0
TEXT
  5
2A9
330
36
100
AcDbEntity
  8
001
 62
     3
100
AcDbText
 10
47.90945999999999
 20
-595.6422299999998
 30
0.0
 40
3.0
  1
備
 41
0.833333
100
AcDbText
  0
TEXT
  5
2AA
330
36
100
AcDbEntity
  8
001
 62
     3
100
AcDbText
 10
54.642462
 20
-595.6422299999998
 30
0.0
 40
3.0
  1
考
 41
0.833333
100
AcDbText
  0
TEXT
  5
2AB
330
36
100
AcDbEntity
  8
001
 62
     3
100
AcDbText
 10
48.17305503387125
 20
-591.959922
 30
0.0
 40
2.0
  1
REMARKS
 41
0.675794
100
AcDbText
  0
TEXT
  5
2AC
330
36
100
AcDbEntity
  8
001
 62
     3
100
AcDbText
 10
21.191909
 20
-598.880043
 30
0.0
 40
2.0
  1
3AD
 41
1.42614
100
AcDbText
  0
TEXT
  5
2AD
330
36
100
AcDbEntity
  8
001
 62
     3
100
AcDbText
 10
30.50288800000001
 20
-598.714309
 30
0.0
 40
2.0
  1
ANGLE
 41
1.669883999999995
100
AcDbText
  0
TEXT
  5
2AE
330
36
100
AcDbEntity
  8
001
 62
     3
100
AcDbText
 10
48.436775
 20
-599.09115
 30
0.0
 40
2.0
  1
SCALE
 41
0.7719630000000001
100
AcDbText
  0
TEXT
  5
2AF
330
36
100
AcDbEntity
  8
001
 62
     3
100
AcDbText
 10
20.878038
 20
-602.879579
 30
0.0
 40
3.0
  1
第
 41
0.833333
100
AcDbText
  0
TEXT
  5
2B0
330
36
100
AcDbEntity
  8
001
 62
     3
100
AcDbText
 10
28.664888
 20
-602.879579
 30
0.0
 40
3.0
  1
三
 41
0.833333
100
AcDbText
  0
TEXT
  5
2B1
330
36
100
AcDbEntity
  8
001
 62
     3
100
AcDbText
 10
36.451738
 20
-602.879579
 30
0.0
 40
3.0
  1
角
 41
0.833333
100
AcDbText
  0
TEXT
  5
2B2
330
36
100
AcDbEntity
  8
001
 62
     3
100
AcDbText
 10
44.238588
 20
-602.879579
 30
0.0
 40
3.0
  1
法
 41
0.833333
100
AcDbText
  0
TEXT
  5
2B3
330
36
100
AcDbEntity
  8
001
 62
     3
100
AcDbText
 10
48.29997999999999
 20
-602.5911499999997
 30
0.0
 40
3.0
  1
尺
 41
0.833333
100
AcDbText
  0
TEXT
  5
2B4
330
36
100
AcDbEntity
  8
001
 62
     3
100
AcDbText
 10
55.03298199999999
 20
-602.5911499999997
 30
0.0
 40
3.0
  1
度
 41
0.833333
100
AcDbText
  0
TEXT
  5
2B5
330
36
100
AcDbEntity
  8
001
 62
     3
100
AcDbText
 10
75.616253
 20
-581.4218499999997
 30
0.0
 40
3.0
  1
承認
 41
1.089472999999999
100
AcDbText
  0
TEXT
  5
2B6
330
36
100
AcDbEntity
  8
001
 62
     3
100
AcDbText
 10
87.859133
 20
-581.479579
 30
0.0
 40
3.0
  1
検図
 41
0.931761
100
AcDbText
  0
TEXT
  5
2B7
330
36
100
AcDbEntity
  8
001
 62
     3
100
AcDbText
 10
99.35953000000001
 20
-581.479579
 30
0.0
 40
3.0
  1
設
 41
0.833333
100
AcDbText
  0
TEXT
  5
2B8
330
36
100
AcDbEntity
  8
001
 62
     3
100
AcDbText
 10
103.849398
 20
-581.479579
 30
0.0
 40
3.0
  1
計
 41
0.833333
100
AcDbText
  0
TEXT
  5
2B9
330
36
100
AcDbEntity
  8
001
 62
     3
100
AcDbText
 10
22.022013
 20
-581.3070269999997
 30
0.0
 40
3.0
  1
品
 41
0.833333
100
AcDbText
  0
TEXT
  5
2BA
330
36
100
AcDbEntity
  8
001
 62
     3
100
AcDbText
 10
29.557655
 20
-581.3070269999997
 30
0.0
 40
3.0
  1
名
 41
0.833333
100
AcDbText
  0
TEXT
  5
2BB
330
36
100
AcDbEntity
  8
001
 62
     3
100
AcDbText
 10
21.69025
 20
-588.5459940062077
 30
0.0
 40
3.0
  1
型
 41
0.833333
100
AcDbText
  0
TEXT
  5
2BC
330
36
100
AcDbEntity
  8
001
 62
     3
100
AcDbText
 10
29.238341
 20
-588.5459940062077
 30
0.0
 40
3.0
  1
式
 41
0.833333
100
AcDbText
  0
LINE
  5
2BD
330
36
100
AcDbEntity
  8
001
 62
     3
100
AcDbLine
 10
73.848354
 20
-612.5519269999998
 30
0.0
 11
-156.690643
 21
-612.5519269999998
 31
0.0
  0
LINE
  5
2BE
330
36
100
AcDbEntity
  8
001
 62
     3
100
AcDbLine
 10
118.930462
 20
-612.5519269999998
 30
0.0
 11
120.309357
 21
-612.5519269999998
 31
0.0
  0
LINE
  5
2BF
330
36
100
AcDbEntity
  8
001
 62
     3
100
AcDbLine
 10
114.801352
 20
-612.5519269999998
 30
0.0
 11
118.930462
 21
-612.5519269999998
 31
0.0
  0
LINE
  5
2C0
330
36
100
AcDbEntity
  8
001
 62
     3
100
AcDbLine
 10
77.977464
 20
-612.5519269999998
 30
0.0
 11
114.801352
 21
-612.5519269999998
 31
0.0
  0
LINE
  5
2C1
330
36
100
AcDbEntity
  8
001
 62
     3
100
AcDbLine
 10
77.977464
 20
-612.5519269999998
 30
0.0
 11
73.848354
 21
-612.5519269999998
 31
0.0
  0
LINE
  5
2C2
330
36
100
AcDbEntity
  8
001
 62
     3
100
AcDbLine
 10
-156.690643
 20
-432.551927
 30
0.0
 11
-156.690643
 21
-612.5519269999998
 31
0.0
  0
LINE
  5
2C8
330
36
100
AcDbEntity
  8
001
100
AcDbLine
 10
-119.39615
 20
-574.2191809999998
 30
0.0
 11
-113.930238
 21
-572.171392
 31
0.0
  0
LINE
  5
2C9
330
36
100
AcDbEntity
  8
001
100
AcDbLine
 10
-113.930238
 20
-572.171392
 30
0.0
 11
-80.930238
 21
-572.171392
 31
0.0
  0
TEXT
  5
2CA
330
36
100
AcDbEntity
  8
001
 62
     4
100
AcDbText
 10
-111.180238
 20
-571.171392
 30
0.0
 40
3.2
  1
カールボルト　プラグ
 41
0.8
  7
高3.2
100
AcDbText
  0
TEXT
  5
2CB
330
36
100
AcDbEntity
  8
001
 62
     3
100
AcDbText
 10
-71.75282299999998
 20
-606.203749
 30
0.0
 40
3.2
  1
埋設施工事例
  7
高3.2
100
AcDbText
  0
TEXT
  5
2CC
330
36
100
AcDbEntity
  8
001
 62
     3
100
AcDbText
 10
-131.285221
 20
-607.607194
 30
0.0
 40
3.2
  1
壁面施工事例
  7
高3.2
100
AcDbText
  0
LINE
  5
2CD
330
36
100
AcDbEntity
  8
001
100
AcDbLine
 10
-49.24971950683708
 20
-606.8299224917889
 30
0.0
 11
-71.75282299999998
 21
-606.8299224917889
 31
0.0
  0
LINE
  5
2CE
330
36
100
AcDbEntity
  8
001
100
AcDbLine
 10
-108.7849851929137
 20
-608.3468329810691
 30
0.0
 11
-131.285221
 21
-608.3468329810691
 31
0.0
  0
LINE
  5
2CF
330
36
100
AcDbEntity
  8
001
100
AcDbLine
 10
27.23885084579777
 20
-520.1417332600551
 30
0.0
 11
112.3788671801602
 21
-520.1417332600551
 31
0.0
  0
LINE
  5
2D0
330
36
100
AcDbEntity
  8
001
 62
     3
100
AcDbLine
 10
112.3788671801602
 20
-466.5417332600553
 30
0.0
 11
112.3788671801602
 21
-539.3417332600551
 31
0.0
  0
LINE
  5
2D1
330
36
100
AcDbEntity
  8
001
 62
     3
100
AcDbLine
 10
27.23885084579777
 20
-466.5417332600553
 30
0.0
 11
27.23885084579777
 21
-539.3417332600551
 31
0.0
  0
LINE
  5
2D2
330
36
100
AcDbEntity
  8
001
100
AcDbLine
 10
47.32521569750821
 20
-466.5417332600553
 30
0.0
 11
47.32521569750821
 21
-539.3417332600551
 31
0.0
  0
TEXT
  5
2D3
330
36
100
AcDbEntity
  8
001
 62
     3
100
AcDbText
 10
28.49847164579777
 20
-523.7374020600554
 30
0.0
 40
2.5
  1
圧縮荷重
  7
高2.5
100
AcDbText
  0
TEXT
  5
2D5
330
36
100
AcDbEntity
  8
001
 62
     3
100
AcDbText
 10
48.71204486398561
 20
-523.6077484600554
 30
0.0
 40
2.5
  1
4,180kgf
  7
高2.5
100
AcDbText
  0
LINE
  5
2D7
330
36
100
AcDbEntity
  8
001
 62
     3
100
AcDbLine
 10
27.23885084579777
 20
-539.3417332600551
 30
0.0
 11
112.3788671801602
 21
-539.3417332600551
 31
0.0
  0
TEXT
  5
2D8
330
36
100
AcDbEntity
  8
001
 62
     3
100
AcDbText
 10
34.798546
 20
-580.485819
 30
0.0
 40
4.5
  1
ソーラーLEDタイル100
 41
0.6
  7
高4.5
100
AcDbText
  0
LINE
  5
2D9
330
36
100
AcDbEntity
  8
001
  6
PHANTOM
100
AcDbLine
 10
-45.168349
 20
-505.27224
 30
0.0
 11
-93.16834900000001
 21
-505.27224
 31
0.0
  0
LINE
  5
2DA
330
36
100
AcDbEntity
  8
001
  6
PHANTOM
100
AcDbLine
 10
-45.168349
 20
-527.283387
 30
0.0
 11
-45.168349
 21
-505.27224
 31
0.0
  0
LINE
  5
2DB
330
36
100
AcDbEntity
  8
001
  6
PHANTOM
100
AcDbLine
 10
-93.16834900000001
 20
-527.283387
 30
0.0
 11
-93.16834900000001
 21
-505.27224
 31
0.0
  0
LINE
  5
2DC
330
36
100
AcDbEntity
  8
001
  6
PHANTOM
100
AcDbLine
 10
-87.086777
 20
-527.283387
 30
0.0
 11
-87.086777
 21
-505.27224
 31
0.0
  0
LINE
  5
2DD
330
36
100
AcDbEntity
  8
001
  6
PHANTOM
100
AcDbLine
 10
-81.005205
 20
-527.283387
 30
0.0
 11
-81.005205
 21
-505.27224
 31
0.0
  0
LINE
  5
2DE
330
36
100
AcDbEntity
  8
001
  6
PHANTOM
100
AcDbLine
 10
-45.168349
 20
-527.283387
 30
0.0
 11
-93.16834900000001
 21
-527.283387
 31
0.0
  0
LINE
  5
2DF
330
36
100
AcDbEntity
  8
001
  6
PHANTOM
100
AcDbLine
 10
-51.24992
 20
-527.283387
 30
0.0
 11
-51.24992
 21
-505.27224
 31
0.0
  0
LINE
  5
2E0
330
36
100
AcDbEntity
  8
001
  6
PHANTOM
100
AcDbLine
 10
-57.331492
 20
-527.283387
 30
0.0
 11
-57.331492
 21
-505.27224
 31
0.0
  0
LINE
  5
2E1
330
36
100
AcDbEntity
  8
001
  6
CENTER
100
AcDbLine
 10
-63.413064
 20
-527.283387
 30
0.0
 11
-63.413064
 21
-505.27224
 31
0.0
  0
LINE
  5
2E2
330
36
100
AcDbEntity
  8
001
  6
CENTER
100
AcDbLine
 10
-74.92363399999998
 20
-527.283387
 30
0.0
 11
-74.92363399999998
 21
-505.27224
 31
0.0
  0
CIRCLE
  5
2E3
330
36
100
AcDbEntity
  8
001
100
AcDbCircle
 10
-32.168349
 20
-540.2833870000002
 30
0.0
 40
2.0
  0
CIRCLE
  5
2E4
330
36
100
AcDbEntity
  8
001
100
AcDbCircle
 10
-69.16834899999999
 20
-540.2833870000002
 30
0.0
 40
2.0
  0
CIRCLE
  5
2E5
330
36
100
AcDbEntity
  8
001
100
AcDbCircle
 10
-60.168349
 20
-540.2833870000002
 30
0.0
 40
2.0
  0
CIRCLE
  5
2E6
330
36
100
AcDbEntity
  8
001
100
AcDbCircle
 10
-51.168349
 20
-540.2833870000002
 30
0.0
 40
2.0
  0
CIRCLE
  5
2E7
330
36
100
AcDbEntity
  8
001
100
AcDbCircle
 10
-42.168349
 20
-540.2833870000002
 30
0.0
 40
2.0
  0
CIRCLE
  5
2E8
330
36
100
AcDbEntity
  8
001
100
AcDbCircle
 10
-96.168349
 20
-540.2833870000002
 30
0.0
 40
2.0
  0
CIRCLE
  5
2E9
330
36
100
AcDbEntity
  8
001
100
AcDbCircle
 10
-87.168349
 20
-540.2833870000002
 30
0.0
 40
2.0
  0
CIRCLE
  5
2EA
330
36
100
AcDbEntity
  8
001
100
AcDbCircle
 10
-78.16834899999998
 20
-540.2833870000002
 30
0.0
 40
2.0
  0
CIRCLE
  5
2EB
330
36
100
AcDbEntity
  8
001
100
AcDbCircle
 10
-106.168349
 20
-530.283387
 30
0.0
 40
2.0
  0
CIRCLE
  5
2EC
330
36
100
AcDbEntity
  8
001
100
AcDbCircle
 10
-106.168349
 20
-521.283387
 30
0.0
 40
2.0
  0
CIRCLE
  5
2ED
330
36
100
AcDbEntity
  8
001
100
AcDbCircle
 10
-106.168349
 20
-512.283387
 30
0.0
 40
2.0
  0
CIRCLE
  5
2EE
330
36
100
AcDbEntity
  8
001
100
AcDbCircle
 10
-32.168349
 20
-530.283387
 30
0.0
 40
2.0
  0
CIRCLE
  5
2EF
330
36
100
AcDbEntity
  8
001
100
AcDbCircle
 10
-32.168349
 20
-521.283387
 30
0.0
 40
2.0
  0
CIRCLE
  5
2F0
330
36
100
AcDbEntity
  8
001
100
AcDbCircle
 10
-32.168349
 20
-512.283387
 30
0.0
 40
2.0
  0
CIRCLE
  5
2F1
330
36
100
AcDbEntity
  8
001
100
AcDbCircle
 10
-42.168349
 20
-530.283387
 30
0.0
 40
2.0
  0
CIRCLE
  5
2F2
330
36
100
AcDbEntity
  8
001
100
AcDbCircle
 10
-42.168349
 20
-521.283387
 30
0.0
 40
2.0
  0
CIRCLE
  5
2F3
330
36
100
AcDbEntity
  8
001
100
AcDbCircle
 10
-42.168349
 20
-512.283387
 30
0.0
 40
2.0
  0
CIRCLE
  5
2F4
330
36
100
AcDbEntity
  8
001
100
AcDbCircle
 10
-96.168349
 20
-530.283387
 30
0.0
 40
2.0
  0
CIRCLE
  5
2F5
330
36
100
AcDbEntity
  8
001
100
AcDbCircle
 10
-96.168349
 20
-521.283387
 30
0.0
 40
2.0
  0
CIRCLE
  5
2F6
330
36
100
AcDbEntity
  8
001
100
AcDbCircle
 10
-96.168349
 20
-512.283387
 30
0.0
 40
2.0
  0
CIRCLE
  5
2F7
330
36
100
AcDbEntity
  8
001
100
AcDbCircle
 10
-60.168349
 20
-530.283387
 30
0.0
 40
2.0
  0
CIRCLE
  5
2F8
330
36
100
AcDbEntity
  8
001
100
AcDbCircle
 10
-51.168349
 20
-530.283387
 30
0.0
 40
2.0
  0
CIRCLE
  5
2F9
330
36
100
AcDbEntity
  8
001
100
AcDbCircle
 10
-69.16834899999999
 20
-530.283387
 30
0.0
 40
2.0
  0
CIRCLE
  5
2FA
330
36
100
AcDbEntity
  8
001
100
AcDbCircle
 10
-87.168349
 20
-530.283387
 30
0.0
 40
2.0
  0
CIRCLE
  5
2FB
330
36
100
AcDbEntity
  8
001
100
AcDbCircle
 10
-78.16834899999998
 20
-530.283387
 30
0.0
 40
2.0
  0
LINE
  5
2FC
330
36
100
AcDbEntity
  8
001
100
AcDbLine
 10
-40.75413499999998
 20
-541.6976009999998
 30
0.0
 11
-30.754135
 21
-531.6976009999998
 31
0.0
  0
LINE
  5
2FD
330
36
100
AcDbEntity
  8
001
100
AcDbLine
 10
-43.582562
 20
-538.869174
 30
0.0
 11
-33.582562
 21
-528.869174
 31
0.0
  0
LINE
  5
2FE
330
36
100
AcDbEntity
  8
001
100
AcDbLine
 10
-96.168349
 20
-538.283387
 30
0.0
 11
-104.690387
 21
-528.9359349999998
 31
0.0
  0
LINE
  5
2FF
330
36
100
AcDbEntity
  8
001
100
AcDbLine
 10
-97.58256199999999
 20
-541.6976009999998
 30
0.0
 11
-107.582562
 21
-531.6976009999998
 31
0.0
  0
LINE
  5
300
330
36
100
AcDbEntity
  8
001
100
AcDbLine
 10
-106.168349
 20
-543.283387
 30
0.0
 11
-32.168349
 21
-543.283387
 31
0.0
  0
ARC
  5
301
330
36
100
AcDbEntity
  8
001
100
AcDbCircle
 10
-32.168349
 20
-540.2833870000002
 30
0.0
 40
3.0
100
AcDbArc
 50
270.0
 51
0.0
  0
LINE
  5
302
330
36
100
AcDbEntity
  8
001
100
AcDbLine
 10
-29.168349
 20
-503.283387
 30
0.0
 11
-29.168349
 21
-540.2833870000002
 31
0.0
  0
LINE
  5
303
330
36
100
AcDbEntity
  8
001
100
AcDbLine
 10
-109.168349
 20
-503.283387
 30
0.0
 11
-109.168349
 21
-540.2833870000002
 31
0.0
  0
ARC
  5
304
330
36
100
AcDbEntity
  8
001
100
AcDbCircle
 10
-106.168349
 20
-540.2833870000002
 30
0.0
 40
3.0
100
AcDbArc
 50
180.0
 51
270.0
  0
CIRCLE
  5
305
330
36
100
AcDbEntity
  8
001
100
AcDbCircle
 10
-106.168349
 20
-540.2833870000002
 30
0.0
 40
2.0
  0
CIRCLE
  5
306
330
36
100
AcDbEntity
  8
001
 62
     3
100
AcDbCircle
 10
-36.993302
 20
-534.9895639999998
 30
0.0
 40
2.0
  0
CIRCLE
  5
307
330
36
100
AcDbEntity
  8
001
 62
     3
100
AcDbCircle
 10
-101.219165
 20
-535.374278
 30
0.0
 40
2.0
  0
CIRCLE
  5
308
330
36
100
AcDbEntity
  8
001
100
AcDbCircle
 10
-32.168349
 20
-503.283387
 30
0.0
 40
2.0
  0
CIRCLE
  5
309
330
36
100
AcDbEntity
  8
001
100
AcDbCircle
 10
-42.168349
 20
-503.283387
 30
0.0
 40
2.0
  0
CIRCLE
  5
30A
330
36
100
AcDbEntity
  8
001
100
AcDbCircle
 10
-106.168349
 20
-503.283387
 30
0.0
 40
2.0
  0
CIRCLE
  5
30B
330
36
100
AcDbEntity
  8
001
100
AcDbCircle
 10
-96.168349
 20
-503.283387
 30
0.0
 40
2.0
  0
LINE
  5
30C
330
36
100
AcDbEntity
  8
001
 62
     3
100
AcDbLine
 10
-22.168349
 20
-503.283387
 30
0.0
 11
-22.168349
 21
-545.283387
 31
0.0
  0
ARC
  5
30D
330
36
100
AcDbEntity
  8
001
 62
     3
100
AcDbCircle
 10
-27.168349
 20
-545.283387
 30
0.0
 40
5.0
100
AcDbArc
 50
270.0
 51
0.0
  0
LINE
  5
30E
330
36
100
AcDbEntity
  8
001
 62
     3
100
AcDbLine
 10
-111.168349
 20
-550.283387
 30
0.0
 11
-27.168349
 21
-550.283387
 31
0.0
  0
ARC
  5
30F
330
36
100
AcDbEntity
  8
001
 62
     3
100
AcDbCircle
 10
-111.168349
 20
-545.283387
 30
0.0
 40
5.0
100
AcDbArc
 50
180.0
 51
270.0
  0
LINE
  5
310
330
36
100
AcDbEntity
  8
001
 62
     3
100
AcDbLine
 10
-116.168349
 20
-503.283387
 30
0.0
 11
-116.168349
 21
-545.283387
 31
0.0
  0
LINE
  5
316
330
36
100
AcDbEntity
  8
001
100
AcDbLine
 10
-35.754135
 20
-469.869174
 30
0.0
 11
-12.886907
 21
-464.883965
 31
0.0
  0
LINE
  5
317
330
36
100
AcDbEntity
  8
001
 62
     3
100
AcDbLine
 10
-49.155908
 20
-491.8287089999998
 30
0.0
 11
-49.025269
 21
-491.894029
 31
0.0
  0
LINE
  5
31D
330
36
100
AcDbEntity
  8
001
100
AcDbLine
 10
-49.025269
 20
-491.894029
 30
0.0
 11
-13.208697
 21
-485.866035
 31
0.0
  0
LINE
  5
323
330
36
100
AcDbEntity
  8
001
100
AcDbLine
 10
-39.83153400000001
 20
-483.932035
 30
0.0
 11
-13.028543
 21
-475.6053399999998
 31
0.0
  0
TEXT
  5
324
330
36
100
AcDbEntity
  8
001
 62
     3
100
AcDbText
 10
48.71204486398561
 20
-496.1993105549508
 30
0.0
 40
2.5
  1
G7.6/B7.8/W7.0/R6.5/O4.5/Y3.4
  7
高2.5
100
AcDbText
  0
LINE
  5
325
330
36
100
AcDbEntity
  8
001
 62
     3
100
AcDbLine
 10
89.81198340999208
 20
-547.4640257852094
 30
0.0
 11
89.81198340999208
 21
-569.8640257852092
 31
0.0
  0
LINE
  5
326
330
36
100
AcDbEntity
  8
001
 62
     3
100
AcDbLine
 10
89.81198340999208
 20
-569.8640257852091
 30
0.0
 11
35.45936346094975
 21
-569.8640257852092
 31
0.0
  0
LINE
  5
327
330
36
100
AcDbEntity
  8
001
 62
     3
100
AcDbLine
 10
35.45936346094975
 20
-547.4640257852094
 30
0.0
 11
35.45936346094975
 21
-569.8640257852092
 31
0.0
  0
TEXT
  5
328
330
36
100
AcDbEntity
  8
001
 62
     3
100
AcDbText
 10
54.61198340999207
 20
-566.2640257852094
 30
0.0
 40
2.0
  1
緑
  7
高2.5
100
AcDbText
  0
TEXT
  5
329
330
36
100
AcDbEntity
  8
001
 62
     3
100
AcDbText
 10
54.61198340999207
 20
-563.0640257852093
 30
0.0
 40
2.0
  1
青
  7
高2.5
100
AcDbText
  0
TEXT
  5
32A
330
36
100
AcDbEntity
  8
001
 62
     3
100
AcDbText
 10
54.61198340999207
 20
-559.8640257852093
 30
0.0
 40
2.0
  1
白
  7
高2.5
100
AcDbText
  0
TEXT
  5
32B
330
36
100
AcDbEntity
  8
001
 62
     3
100
AcDbText
 10
54.61198340999207
 20
-556.6640257852093
 30
0.0
 40
2.0
  1
赤
  7
高2.5
100
AcDbText
  0
TEXT
  5
32C
330
36
100
AcDbEntity
  8
001
 62
     3
100
AcDbText
 10
53.2480564295389
 20
-552.7148201812694
 30
0.0
 40
2.0
  1
オレンジ
 41
0.6
  7
高2.5
100
AcDbText
  0
TEXT
  5
32D
330
36
100
AcDbEntity
  8
001
 62
     3
100
AcDbText
 10
54.61198340999207
 20
-550.2640257852093
 30
0.0
 40
2.0
  1
黄
  7
高2.5
100
AcDbText
  0
TEXT
  5
336
330
36
100
AcDbEntity
  8
001
 62
     3
100
AcDbText
 10
54.61198340999207
 20
-569.4640257852094
 30
0.0
 40
2.0
  1
色
  7
高2.5
100
AcDbText
  0
TEXT
  5
337
330
36
100
AcDbEntity
  8
001
 62
     3
100
AcDbText
 10
61.01198340999207
 20
-569.4640257852094
 30
0.0
 40
2.0
  1
商品コード
  7
高2.5
100
AcDbText
  0
TEXT
  5
338
330
36
100
AcDbEntity
  8
001
 62
     3
100
AcDbText
 10
38.77038408670842
 20
-569.3975945852094
 30
0.0
 40
2.0
  1
型　　式
  7
高2.5
100
AcDbText
  0
LINE
  5
339
330
36
100
AcDbEntity
  8
001
 62
     3
100
AcDbLine
 10
35.45936346094975
 20
-547.4640257852094
 30
0.0
 11
89.81198340999208
 21
-547.4640257852094
 31
0.0
  0
LINE
  5
33A
330
36
100
AcDbEntity
  8
001
 62
     7
100
AcDbLine
 10
35.45936346094975
 20
-553.8640257852093
 30
0.0
 11
89.81198340999208
 21
-553.8640257852093
 31
0.0
  0
LINE
  5
33B
330
36
100
AcDbEntity
  8
001
 62
     7
100
AcDbLine
 10
35.45936346094975
 20
-560.2640257852093
 30
0.0
 11
89.81198340999208
 21
-560.2640257852093
 31
0.0
  0
LINE
  5
33C
330
36
100
AcDbEntity
  8
001
 62
     7
100
AcDbLine
 10
35.45936346094975
 20
-557.0640257852093
 30
0.0
 11
89.81198340999208
 21
-557.064025785209
 31
0.0
  0
LINE
  5
33D
330
36
100
AcDbEntity
  8
001
 62
     7
100
AcDbLine
 10
35.45936346094975
 20
-563.4640257852094
 30
0.0
 11
89.81198340999208
 21
-563.4640257852094
 31
0.0
  0
LINE
  5
33E
330
36
100
AcDbEntity
  8
001
 62
     7
100
AcDbLine
 10
35.45936346094975
 20
-550.6640257852093
 30
0.0
 11
89.81198340999208
 21
-550.6640257852092
 31
0.0
  0
LINE
  5
33F
330
36
100
AcDbEntity
  8
001
 62
     7
100
AcDbLine
 10
35.45936346094975
 20
-566.6640257852092
 30
0.0
 11
89.81198340999208
 21
-566.6640257852092
 31
0.0
  0
LINE
  5
340
330
36
100
AcDbEntity
  8
001
 62
     7
100
AcDbLine
 10
53.01198340999206
 20
-547.4640257852094
 30
0.0
 11
53.01198340999206
 21
-569.8640257852092
 31
0.0
  0
LINE
  5
341
330
36
100
AcDbEntity
  8
001
 62
     7
100
AcDbLine
 10
59.4119834099921
 20
-547.4640257852094
 30
0.0
 11
59.4119834099921
 21
-569.8640257852092
 31
0.0
  0
LINE
  5
342
330
36
100
AcDbEntity
  8
001
 62
     7
100
AcDbLine
 10
74.75864180999207
 20
-547.4528457852093
 30
0.0
 11
74.75864180999207
 21
-569.8640257852092
 31
0.0
  0
TEXT
  5
343
330
36
100
AcDbEntity
  8
001
 62
     3
100
AcDbText
 10
75.77599220999207
 20
-569.4228273852092
 30
0.0
 40
2.0
  1
スロー点滅
  7
高2.5
100
AcDbText
  0
TEXT
  5
345
330
36
100
AcDbEntity
  8
001
 62
     3
100
AcDbText
 10
36.25936346094975
 20
-550.2640257852093
 30
0.0
 40
2.0
  1
NFT0404Y
  7
高2.5
100
AcDbText
  0
TEXT
  5
346
330
36
100
AcDbEntity
  8
001
 62
     3
100
AcDbText
 10
36.25936346094975
 20
-553.4640257852093
 30
0.0
 40
2.0
  1
NFT0404Ｏ
  7
高2.5
100
AcDbText
  0
TEXT
  5
347
330
36
100
AcDbEntity
  8
001
 62
     3
100
AcDbText
 10
36.25936346094975
 20
-556.6640257852093
 30
0.0
 40
2.0
  1
NFT0404R
  7
高2.5
100
AcDbText
  0
TEXT
  5
348
330
36
100
AcDbEntity
  8
001
 62
     3
100
AcDbText
 10
36.25936346094975
 20
-559.8640257852093
 30
0.0
 40
2.0
  1
NFT0404W
  7
高2.5
100
AcDbText
  0
TEXT
  5
349
330
36
100
AcDbEntity
  8
001
 62
     3
100
AcDbText
 10
36.25936346094975
 20
-563.0640257852093
 30
0.0
 40
2.0
  1
NFT0404B
  7
高2.5
100
AcDbText
  0
TEXT
  5
34A
330
36
100
AcDbEntity
  8
001
 62
     3
100
AcDbText
 10
36.25936346094975
 20
-566.2640257852094
 30
0.0
 40
2.0
  1
NFT0404G
  7
高2.5
100
AcDbText
  0
TEXT
  5
34B
330
36
100
AcDbEntity
  8
001
 62
     3
100
AcDbText
 10
61.01198340999207
 20
-550.2640257852093
 30
0.0
 40
2.0
  1
25099
  7
高2.5
100
AcDbText
  0
TEXT
  5
34C
330
36
100
AcDbEntity
  8
001
 62
     3
100
AcDbText
 10
61.01198340999207
 20
-553.4640257852093
 30
0.0
 40
2.0
  1
25098
  7
高2.5
100
AcDbText
  0
TEXT
  5
34D
330
36
100
AcDbEntity
  8
001
 62
     3
100
AcDbText
 10
61.01198340999207
 20
-556.6640257852093
 30
0.0
 40
2.0
  1
25097
  7
高2.5
100
AcDbText
  0
TEXT
  5
34E
330
36
100
AcDbEntity
  8
001
 62
     3
100
AcDbText
 10
61.01198340999207
 20
-559.8640257852093
 30
0.0
 40
2.0
  1
25096
  7
高2.5
100
AcDbText
  0
TEXT
  5
34F
330
36
100
AcDbEntity
  8
001
 62
     3
100
AcDbText
 10
61.01198340999207
 20
-563.0640257852093
 30
0.0
 40
2.0
  1
25095
  7
高2.5
100
AcDbText
  0
TEXT
  5
350
330
36
100
AcDbEntity
  8
001
 62
     3
100
AcDbText
 10
61.01198340999207
 20
-566.2640257852094
 30
0.0
 40
2.0
  1
25094
  7
高2.5
100
AcDbText
  0
TEXT
  5
351
330
36
100
AcDbEntity
  8
001
100
AcDbText
 10
32.359945
 20
-573.5555636980839
 30
0.0
 40
2.5
  1
注：スロー点滅型式　NFT0404S　　　　（色記号）
  7
高2.5
100
AcDbText
  0
TEXT
  5
352
330
36
100
AcDbEntity
  8
001
 62
     3
100
AcDbText
 10
76.56882500999206
 20
-566.037732985209
 30
0.0
 40
2.0
  1
25114
  7
高2.5
100
AcDbText
  0
TEXT
  5
353
330
36
100
AcDbEntity
  8
001
 62
     3
100
AcDbText
 10
76.56882500999206
 20
-562.837732985209
 30
0.0
 40
2.0
  1
25115
  7
高2.5
100
AcDbText
  0
TEXT
  5
354
330
36
100
AcDbEntity
  8
001
 62
     3
100
AcDbText
 10
76.56882500999206
 20
-559.6377329852093
 30
0.0
 40
2.0
  1
25116
  7
高2.5
100
AcDbText
  0
TEXT
  5
355
330
36
100
AcDbEntity
  8
001
 62
     3
100
AcDbText
 10
76.41121780999206
 20
-556.3799121852095
 30
0.0
 40
2.0
  1
25117
  7
高2.5
100
AcDbText
  0
TEXT
  5
356
330
36
100
AcDbEntity
  8
001
 62
     3
100
AcDbText
 10
76.41121780999206
 20
-553.1799121852093
 30
0.0
 40
2.0
  1
25118
  7
高2.5
100
AcDbText
  0
TEXT
  5
357
330
36
100
AcDbEntity
  8
001
 62
     3
100
AcDbText
 10
76.41121780999206
 20
-549.9799121852094
 30
0.0
 40
2.0
  1
25119
  7
高2.5
100
AcDbText
  0
TEXT
  5
372
330
36
100
AcDbEntity
  8
001
 62
     3
100
AcDbText
 10
34.95515342666988
 20
-594.4589372569695
 30
0.0
 40
3.2
  1
別掲
  7
高3.2
100
AcDbText
  0
TEXT
  5
475
330
36
100
AcDbEntity
  8
0
100
AcDbText
 10
35.23461135827496
 20
-543.1890119423833
 30
0.0
 40
2.5
  1
注）照度は反射率などを含む当社実測値の為、
  7
高2.5
100
AcDbText
  0
TEXT
  5
476
330
36
100
AcDbEntity
  8
0
100
AcDbText
 10
35.23461135827496
 20
-546.1041783457203
 30
0.0
 40
2.5
  1
　　使用環境下により異なります。
  7
高2.5
100
AcDbText
  0
LINE
  5
599
330
36
100
AcDbEntity
  8
001
 62
     3
100
AcDbLine
 10
-111.168349
 20
-453.783387
 30
0.0
 11
-27.168349
 21
-453.783387
 31
0.0
  0
ARC
  5
59C
330
36
100
AcDbEntity
  8
001
 62
     3
100
AcDbCircle
 10
-27.168349
 20
-461.283387
 30
0.0
 40
7.5
100
AcDbArc
 50
0.0
 51
90.0
  0
LINE
  5
59D
330
36
100
AcDbEntity
  8
001
 62
     3
100
AcDbLine
 10
-19.668349
 20
-545.283387
 30
0.0
 11
-19.668349
 21
-461.283387
 31
0.0
  0
ARC
  5
59E
330
36
100
AcDbEntity
  8
001
 62
     3
100
AcDbCircle
 10
-27.168349
 20
-545.283387
 30
0.0
 40
7.5
100
AcDbArc
 50
270.0
 51
0.0
  0
LINE
  5
59F
330
36
100
AcDbEntity
  8
001
 62
     3
100
AcDbLine
 10
-27.168349
 20
-552.7833870000002
 30
0.0
 11
-111.168349
 21
-552.7833870000002
 31
0.0
  0
ARC
  5
5A0
330
36
100
AcDbEntity
  8
001
 62
     3
100
AcDbCircle
 10
-111.168349
 20
-545.283387
 30
0.0
 40
7.5
100
AcDbArc
 50
180.0
 51
270.0
  0
LINE
  5
5A1
330
36
100
AcDbEntity
  8
001
 62
     3
100
AcDbLine
 10
-118.668349
 20
-545.283387
 30
0.0
 11
-118.668349
 21
-461.283387
 31
0.0
  0
ARC
  5
5A2
330
36
100
AcDbEntity
  8
001
 62
     3
100
AcDbCircle
 10
-111.168349
 20
-461.283387
 30
0.0
 40
7.5
100
AcDbArc
 50
90.0
 51
180.0
  0
LINE
  5
6F0
330
36
100
AcDbEntity
  8
0
  6
Continuous
100
AcDbLine
 10
83.05724255076894
 20
-571.0859610664278
 30
0.0
 11
86.4922503303517
 21
-571.0859610664278
 31
0.0
  0
LINE
  5
6F1
330
36
100
AcDbEntity
  8
0
  6
Continuous
100
AcDbLine
 10
86.4922503303517
 20
-571.0859610664278
 30
0.0
 11
86.4922503303517
 21
-573.4570276939232
 31
0.0
  0
LINE
  5
6F2
330
36
100
AcDbEntity
  8
0
  6
Continuous
100
AcDbLine
 10
86.4922503303517
 20
-573.4570276939232
 30
0.0
 11
83.05724255076894
 21
-573.4570276939232
 31
0.0
  0
LINE
  5
6F3
330
36
100
AcDbEntity
  8
0
  6
Continuous
100
AcDbLine
 10
83.05724255076894
 20
-573.4570276939232
 30
0.0
 11
83.05724255076894
 21
-571.0859610664278
 31
0.0
  0
LINE
  5
6F4
330
36
100
AcDbEntity
  8
001
100
AcDbLine
 10
-38.080567
 20
-482.8269119999998
 30
0.0
 11
-39.83153400000001
 21
-483.932035
 31
0.0
  0
LINE
  5
6F5
330
36
100
AcDbEntity
  8
001
100
AcDbLine
 10
-39.83153400000001
 20
-483.932035
 30
0.0
 11
-37.76259
 21
-483.850454
 31
0.0
  0
LINE
  5
6F6
330
36
100
AcDbEntity
  8
001
100
AcDbLine
 10
-47.14194899999998
 20
-491.033628
 30
0.0
 11
-49.025269
 21
-491.894029
 31
0.0
  0
LINE
  5
6F7
330
36
100
AcDbEntity
  8
001
100
AcDbLine
 10
-49.025269
 20
-491.894029
 30
0.0
 11
-46.96406500000001
 21
-492.09056
 31
0.0
  0
LINE
  5
6F8
330
36
100
AcDbEntity
  8
001
100
AcDbLine
 10
-33.914181
 20
-468.919566
 30
0.0
 11
-35.754135
 21
-469.869174
 31
0.0
  0
LINE
  5
6F9
330
36
100
AcDbEntity
  8
001
100
AcDbLine
 10
-35.754135
 20
-469.869174
 30
0.0
 11
-33.685884
 21
-469.966767
 31
0.0
  0
LINE
  5
6FA
330
36
100
AcDbEntity
  8
001
100
AcDbLine
 10
-117.711285
 20
-573.0156779999997
 30
0.0
 11
-119.39615
 21
-574.2191809999998
 31
0.0
  0
LINE
  5
6FB
330
36
100
AcDbEntity
  8
001
100
AcDbLine
 10
-119.39615
 20
-574.2191809999998
 30
0.0
 11
-117.335263
 21
-574.019349
 31
0.0
  0
LINE
  5
6FC
330
36
100
AcDbEntity
  8
001
100
AcDbLine
 10
-123.577206
 20
-451.130747
 30
0.0
 11
-121.581633
 21
-451.682904
 31
0.0
  0
LINE
  5
6FD
330
36
100
AcDbEntity
  8
001
100
AcDbLine
 10
-121.581633
 20
-451.682904
 30
0.0
 11
-123.033771
 21
-450.206936
 31
0.0
  0
LINE
  5
6FE
330
36
100
AcDbEntity
  8
001
100
AcDbLine
 10
-75.57983
 20
-584.5905679999997
 30
0.0
 11
-76.257186
 21
-586.547192
 31
0.0
  0
LINE
  5
6FF
330
36
100
AcDbEntity
  8
001
100
AcDbLine
 10
-76.257186
 20
-586.547192
 30
0.0
 11
-74.692266
 21
-585.1913839999999
 31
0.0
  0
LINE
  5
700
330
36
100
AcDbEntity
  8
001
100
AcDbLine
 10
-118.024175
 20
-597.730948
 30
0.0
 11
-119.217855
 21
-599.4227860000002
 31
0.0
  0
LINE
  5
701
330
36
100
AcDbEntity
  8
001
100
AcDbLine
 10
-119.217855
 20
-599.4227860000002
 30
0.0
 11
-117.338179
 21
-598.5544519999997
 31
0.0
  0
LINE
  5
702
330
36
100
AcDbEntity
  8
001
100
AcDbLine
 10
-69.16834899999999
 20
-553.5333870000001
 30
0.0
 11
-69.16834899999999
 21
-563.9415309999998
 31
0.0
  0
LINE
  5
703
330
36
100
AcDbEntity
  8
001
100
AcDbLine
 10
-18.668349
 20
-558.533387
 30
0.0
 11
-18.668349
 21
-563.9415309999998
 31
0.0
  0
LINE
  5
704
330
36
100
AcDbEntity
  8
001
100
AcDbLine
 10
-66.66834899999999
 20
-562.6915309999998
 30
0.0
 11
-21.168349
 21
-562.6915309999998
 31
0.0
  0
LINE
  5
708
330
36
100
AcDbEntity
  8
001
100
AcDbLine
 10
-13.918349
 20
-553.783387
 30
0.0
 11
-8.288439000000009
 21
-553.783387
 31
0.0
  0
LINE
  5
709
330
36
100
AcDbEntity
  8
001
100
AcDbLine
 10
-18.918349
 20
-503.283387
 30
0.0
 11
-8.288439
 21
-503.283387
 31
0.0
  0
LINE
  5
70A
330
36
100
AcDbEntity
  8
001
100
AcDbLine
 10
-9.538439000000009
 20
-551.283387
 30
0.0
 11
-9.538439
 21
-505.783387
 31
0.0
  0
LINE
  5
70E
330
36
100
AcDbEntity
  8
001
100
AcDbLine
 10
-111.418349
 20
-552.7833870000002
 30
0.0
 11
-129.414207
 21
-552.7833870000002
 31
0.0
  0
LINE
  5
70F
330
36
100
AcDbEntity
  8
001
100
AcDbLine
 10
-111.418349
 20
-453.783387
 30
0.0
 11
-129.414207
 21
-453.7833869999998
 31
0.0
  0
LINE
  5
710
330
36
100
AcDbEntity
  8
001
100
AcDbLine
 10
-128.164207
 20
-550.2833870000001
 30
0.0
 11
-128.164207
 21
-456.2833869999998
 31
0.0
  0
LINE
  5
714
330
36
100
AcDbEntity
  8
001
100
AcDbLine
 10
-118.668349
 20
-461.0333869999998
 30
0.0
 11
-118.668349
 21
-444.323067
 31
0.0
  0
LINE
  5
715
330
36
100
AcDbEntity
  8
001
100
AcDbLine
 10
-19.668349
 20
-461.0333869999998
 30
0.0
 11
-19.668349
 21
-444.323067
 31
0.0
  0
LINE
  5
716
330
36
100
AcDbEntity
  8
001
100
AcDbLine
 10
-116.168349
 20
-445.573067
 30
0.0
 11
-22.168349
 21
-445.573067
 31
0.0
  0
LINE
  5
71A
330
36
100
AcDbEntity
  8
001
100
AcDbLine
 10
-24.50361
 20
-571.605303
 30
0.0
 11
-24.50361
 21
-567.255543
 31
0.0
  0
LINE
  5
71B
330
36
100
AcDbEntity
  8
001
100
AcDbLine
 10
3.511005
 20
-571.605303
 30
0.0
 11
3.511005
 21
-567.255543
 31
0.0
  0
LINE
  5
71C
330
36
100
AcDbEntity
  8
001
100
AcDbLine
 10
-24.50361
 20
-568.2555429999998
 30
0.0
 11
3.511005
 21
-568.2555429999998
 31
0.0
  0
TEXT
  5
71F
330
36
100
AcDbEntity
  8
001
 62
     4
100
AcDbText
 10
-14.621302
 20
-567.255543
 30
0.0
 40
3.2
  1
115
 41
1.10491
100
AcDbText
  0
LINE
  5
720
330
36
100
AcDbEntity
  8
001
100
AcDbLine
 10
4.511004999999999
 20
-600.619918
 30
0.0
 11
10.565408
 21
-600.619918
 31
0.0
  0
LINE
  5
721
330
36
100
AcDbEntity
  8
001
100
AcDbLine
 10
4.511004999999999
 20
-572.605303
 30
0.0
 11
10.565408
 21
-572.605303
 31
0.0
  0
LINE
  5
722
330
36
100
AcDbEntity
  8
001
100
AcDbLine
 10
9.565407999999999
 20
-600.619918
 30
0.0
 11
9.565407999999999
 21
-572.605303
 31
0.0
  0
TEXT
  5
725
330
36
100
AcDbEntity
  8
001
 62
     4
100
AcDbText
 10
8.565407999999999
 20
-590.737611
 30
0.0
 40
3.2
  1
115
 50
90.00000300000001
 41
1.10491
100
AcDbText
  0
LINE
  5
726
330
36
100
AcDbEntity
  8
001
100
AcDbLine
 10
-48.452481
 20
-595.0637280000002
 30
0.0
 11
-39.220202
 21
-595.0637280000002
 31
0.0
  0
LINE
  5
727
330
36
100
AcDbEntity
  8
001
100
AcDbLine
 10
-48.791582
 20
-594.0191009999997
 30
0.0
 11
-39.220202
 21
-594.0191009999997
 31
0.0
  0
LINE
  5
728
330
36
100
AcDbEntity
  8
001
100
AcDbLine
 10
-40.220202
 20
-595.0637280000002
 30
0.0
 11
-40.220202
 21
-594.0191009999997
 31
0.0
  0
TEXT
  5
72B
330
36
100
AcDbEntity
  8
001
 62
     4
100
AcDbText
 10
-41.220202
 20
-601.997642
 30
0.0
 40
3.2
  1
5
 50
90.00000300000001
 41
0.859375
100
AcDbText
  0
LINE
  5
72C
330
36
100
AcDbEntity
  8
001
100
AcDbLine
 10
-40.220202
 20
-595.0637280000002
 30
0.0
 11
-40.220202
 21
-601.997642
 31
0.0
  0
LINE
  5
72D
330
36
100
AcDbEntity
  8
001
100
AcDbLine
 10
-40.220202
 20
-594.0191009999997
 30
0.0
 11
-40.220202
 21
-591.019101
 31
0.0
  0
LINE
  5
72E
330
36
100
AcDbEntity
  8
001
100
AcDbLine
 10
-76.876755
 20
-596.0637280000002
 30
0.0
 11
-76.876755
 21
-603.591046
 31
0.0
  0
LINE
  5
72F
330
36
100
AcDbEntity
  8
001
100
AcDbLine
 10
-75.539618
 20
-594.589996
 30
0.0
 11
-75.539618
 21
-603.591046
 31
0.0
  0
LINE
  5
730
330
36
100
AcDbEntity
  8
001
100
AcDbLine
 10
-76.876755
 20
-602.591046
 30
0.0
 11
-75.539618
 21
-602.591046
 31
0.0
  0
TEXT
  5
733
330
36
100
AcDbEntity
  8
001
 62
     4
100
AcDbText
 10
-85.59803
 20
-601.591046
 30
0.0
 40
3.2
  1
10
 41
1.145833
100
AcDbText
  0
LINE
  5
734
330
36
100
AcDbEntity
  8
001
100
AcDbLine
 10
-76.876755
 20
-602.591046
 30
0.0
 11
-85.59803
 21
-602.591046
 31
0.0
  0
LINE
  5
735
330
36
100
AcDbEntity
  8
001
100
AcDbLine
 10
-75.539618
 20
-602.591046
 30
0.0
 11
-72.539618
 21
-602.591046
 31
0.0
  0
LINE
  5
736
330
36
100
AcDbEntity
  8
001
100
AcDbLine
 10
-48.452481
 20
-595.0637280000002
 30
0.0
 11
-33.088146
 21
-595.0637280000002
 31
0.0
  0
LINE
  5
737
330
36
100
AcDbEntity
  8
001
100
AcDbLine
 10
-43.359681
 20
-586.365882
 30
0.0
 11
-33.088146
 21
-586.365882
 31
0.0
  0
LINE
  5
738
330
36
100
AcDbEntity
  8
001
100
AcDbLine
 10
-34.088146
 20
-595.0637280000002
 30
0.0
 11
-34.088146
 21
-586.365882
 31
0.0
  0
TEXT
  5
73B
330
36
100
AcDbEntity
  8
001
 62
     4
100
AcDbText
 10
-35.08814500000001
 20
-593.473645
 30
0.0
 40
3.2
  1
65
 50
90.00000300000001
 41
0.859375
100
AcDbText
  0
LINE
  5
73C
330
36
100
AcDbEntity
  8
0
  6
Continuous
100
AcDbLine
 10
90.53425486587968
 20
-572.2714943801756
 30
0.0
 11
93.15102724314
 21
-572.2714943801756
 31
0.0
1001
ACAD
1000
DSTYLE
1002
{
1070
    41
1040
2.5
1070
   340
1005
26
1070
   147
1040
0.09
1070
    77
1070
     0
1070
   341
1005
3AD
1002
}
  0
LINE
  5
73D
330
36
100
AcDbEntity
  8
0
  6
ByBlock
 62
     0
370
    -2
100
AcDbLine
 10
90.53425486587968
 20
-572.9413668801758
 30
0.0
 11
88.03425486587968
 21
-572.2714943801756
 31
0.0
  0
LINE
  5
73E
330
36
100
AcDbEntity
  8
0
  6
ByBlock
 62
     0
370
    -2
100
AcDbLine
 10
88.03425486587968
 20
-572.2714943801756
 30
0.0
 11
90.53425486587968
 21
-571.6016218801756
 31
0.0
  0
LINE
  5
73F
330
36
100
AcDbEntity
  8
0
  6
ByBlock
 62
     0
370
    -2
100
AcDbLine
 10
88.03425486587968
 20
-572.2714943801756
 30
0.0
 11
90.53425486587968
 21
-572.2714943801756
 31
0.0
  0
TEXT
  5
740
330
36
100
AcDbEntity
  8
001
  6
Continuous
 62
     4
100
AcDbText
 10
-58.96834899999999
 20
-562.0665309999998
 30
0.0
 40
3.0
  1
取付穴ピッチ50.5
100
AcDbText
  0
LINE
  5
741
330
36
100
AcDbEntity
  8
0
  6
ByBlock
 62
     0
370
    -2
100
AcDbLine
 10
-21.168349
 20
-562.0216584999998
 30
0.0
 11
-18.668349
 21
-562.6915309999998
 31
0.0
  0
LINE
  5
742
330
36
100
AcDbEntity
  8
0
  6
ByBlock
 62
     0
370
    -2
100
AcDbLine
 10
-18.668349
 20
-562.6915309999998
 30
0.0
 11
-21.168349
 21
-563.3614034999998
 31
0.0
  0
LINE
  5
743
330
36
100
AcDbEntity
  8
0
  6
ByBlock
 62
     0
370
    -2
100
AcDbLine
 10
-18.668349
 20
-562.6915309999998
 30
0.0
 11
-21.168349
 21
-562.6915309999998
 31
0.0
  0
LINE
  5
744
330
36
100
AcDbEntity
  8
0
  6
ByBlock
 62
     0
370
    -2
100
AcDbLine
 10
-66.66834899999999
 20
-563.3614034999998
 30
0.0
 11
-69.16834899999999
 21
-562.6915309999998
 31
0.0
  0
LINE
  5
745
330
36
100
AcDbEntity
  8
0
  6
ByBlock
 62
     0
370
    -2
100
AcDbLine
 10
-69.16834899999999
 20
-562.6915309999998
 30
0.0
 11
-66.66834899999999
 21
-562.0216584999998
 31
0.0
  0
LINE
  5
746
330
36
100
AcDbEntity
  8
0
  6
ByBlock
 62
     0
370
    -2
100
AcDbLine
 10
-69.16834899999999
 20
-562.6915309999998
 30
0.0
 11
-66.66834899999999
 21
-562.6915309999998
 31
0.0
  0
TEXT
  5
747
330
36
100
AcDbEntity
  8
001
  6
Continuous
 62
     4
100
AcDbText
 10
-10.16343899999992
 20
-543.583387
 30
0.0
 40
3.0
  1
取付穴ピッチ50.5
 50
90.0
100
AcDbText
  0
LINE
  5
748
330
36
100
AcDbEntity
  8
0
  6
ByBlock
 62
     0
370
    -2
100
AcDbLine
 10
-10.2083115
 20
-505.783387
 30
0.0
 11
-9.538439
 21
-503.283387
 31
0.0
  0
LINE
  5
749
330
36
100
AcDbEntity
  8
0
  6
ByBlock
 62
     0
370
    -2
100
AcDbLine
 10
-9.538439
 20
-503.283387
 30
0.0
 11
-8.8685665
 21
-505.783387
 31
0.0
  0
LINE
  5
74A
330
36
100
AcDbEntity
  8
0
  6
ByBlock
 62
     0
370
    -2
100
AcDbLine
 10
-9.538439
 20
-503.283387
 30
0.0
 11
-9.538439
 21
-505.783387
 31
0.0
  0
LINE
  5
74B
330
36
100
AcDbEntity
  8
0
  6
ByBlock
 62
     0
370
    -2
100
AcDbLine
 10
-8.868566500000008
 20
-551.283387
 30
0.0
 11
-9.538439000000009
 21
-553.783387
 31
0.0
  0
LINE
  5
74C
330
36
100
AcDbEntity
  8
0
  6
ByBlock
 62
     0
370
    -2
100
AcDbLine
 10
-9.538439000000009
 20
-553.783387
 30
0.0
 11
-10.20831150000001
 21
-551.283387
 31
0.0
  0
LINE
  5
74D
330
36
100
AcDbEntity
  8
0
  6
ByBlock
 62
     0
370
    -2
100
AcDbLine
 10
-9.538439000000009
 20
-553.783387
 30
0.0
 11
-9.538439000000009
 21
-551.283387
 31
0.0
  0
TEXT
  5
74E
330
36
100
AcDbEntity
  8
001
  6
Continuous
 62
     4
100
AcDbText
 10
-128.7892069999999
 20
-505.783387
 30
0.0
 40
3.0
  1
99
 50
90.0
100
AcDbText
  0
LINE
  5
74F
330
36
100
AcDbEntity
  8
0
  6
ByBlock
 62
     0
370
    -2
100
AcDbLine
 10
-128.8340795
 20
-456.2833869999998
 30
0.0
 11
-128.164207
 21
-453.7833869999998
 31
0.0
  0
LINE
  5
750
330
36
100
AcDbEntity
  8
0
  6
ByBlock
 62
     0
370
    -2
100
AcDbLine
 10
-128.164207
 20
-453.7833869999998
 30
0.0
 11
-127.4943345
 21
-456.2833869999998
 31
0.0
  0
LINE
  5
751
330
36
100
AcDbEntity
  8
0
  6
ByBlock
 62
     0
370
    -2
100
AcDbLine
 10
-128.164207
 20
-453.7833869999998
 30
0.0
 11
-128.164207
 21
-456.2833869999998
 31
0.0
  0
LINE
  5
752
330
36
100
AcDbEntity
  8
0
  6
ByBlock
 62
     0
370
    -2
100
AcDbLine
 10
-127.4943345
 20
-550.2833870000001
 30
0.0
 11
-128.164207
 21
-552.7833870000002
 31
0.0
  0
LINE
  5
753
330
36
100
AcDbEntity
  8
0
  6
ByBlock
 62
     0
370
    -2
100
AcDbLine
 10
-128.164207
 20
-552.7833870000002
 30
0.0
 11
-128.8340795
 21
-550.2833870000001
 31
0.0
  0
LINE
  5
754
330
36
100
AcDbEntity
  8
0
  6
ByBlock
 62
     0
370
    -2
100
AcDbLine
 10
-128.164207
 20
-552.7833870000002
 30
0.0
 11
-128.164207
 21
-550.2833870000001
 31
0.0
  0
TEXT
  5
755
330
36
100
AcDbEntity
  8
001
  6
Continuous
 62
     4
100
AcDbText
 10
-71.66834899999997
 20
-444.9480669999998
 30
0.0
 40
3.0
  1
99
100
AcDbText
  0
LINE
  5
756
330
36
100
AcDbEntity
  8
0
  6
ByBlock
 62
     0
370
    -2
100
AcDbLine
 10
-22.168349
 20
-444.9031944999998
 30
0.0
 11
-19.668349
 21
-445.573067
 31
0.0
  0
LINE
  5
757
330
36
100
AcDbEntity
  8
0
  6
ByBlock
 62
     0
370
    -2
100
AcDbLine
 10
-19.668349
 20
-445.573067
 30
0.0
 11
-22.168349
 21
-446.2429395
 31
0.0
  0
LINE
  5
758
330
36
100
AcDbEntity
  8
0
  6
ByBlock
 62
     0
370
    -2
100
AcDbLine
 10
-19.668349
 20
-445.573067
 30
0.0
 11
-22.168349
 21
-445.573067
 31
0.0
  0
LINE
  5
759
330
36
100
AcDbEntity
  8
0
  6
ByBlock
 62
     0
370
    -2
100
AcDbLine
 10
-116.168349
 20
-446.2429395
 30
0.0
 11
-118.668349
 21
-445.573067
 31
0.0
  0
LINE
  5
75A
330
36
100
AcDbEntity
  8
0
  6
ByBlock
 62
     0
370
    -2
100
AcDbLine
 10
-118.668349
 20
-445.573067
 30
0.0
 11
-116.168349
 21
-444.9031944999998
 31
0.0
  0
LINE
  5
75B
330
36
100
AcDbEntity
  8
0
  6
ByBlock
 62
     0
370
    -2
100
AcDbLine
 10
-118.668349
 20
-445.573067
 30
0.0
 11
-116.168349
 21
-445.573067
 31
0.0
  0
LINE
  5
766
330
36
100
AcDbEntity
  8
0
  6
Continuous
 62
     0
100
AcDbLine
 10
1.511004999999999
 20
-568.7914409999997
 30
0.0
 11
3.511005
 21
-568.2555429999998
 31
0.0
  0
LINE
  5
767
330
36
100
AcDbEntity
  8
0
  6
Continuous
 62
     0
100
AcDbLine
 10
3.511005
 20
-568.2555429999998
 30
0.0
 11
1.511004999999999
 21
-567.7196449999997
 31
0.0
  0
LINE
  5
768
330
36
100
AcDbEntity
  8
0
  6
Continuous
 62
     0
100
AcDbLine
 10
-22.50361
 20
-567.7196449999997
 30
0.0
 11
-24.50361
 21
-568.2555429999998
 31
0.0
  0
LINE
  5
769
330
36
100
AcDbEntity
  8
0
  6
Continuous
 62
     0
100
AcDbLine
 10
-24.50361
 20
-568.2555429999998
 30
0.0
 11
-22.50361
 21
-568.7914409999997
 31
0.0
  0
LINE
  5
76A
330
36
100
AcDbEntity
  8
0
  6
Continuous
 62
     0
100
AcDbLine
 10
10.101306
 20
-574.605303
 30
0.0
 11
9.565407999999999
 21
-572.605303
 31
0.0
  0
LINE
  5
76B
330
36
100
AcDbEntity
  8
0
  6
Continuous
 62
     0
100
AcDbLine
 10
9.565407999999999
 20
-572.605303
 30
0.0
 11
9.02951
 21
-574.605303
 31
0.0
  0
LINE
  5
76C
330
36
100
AcDbEntity
  8
0
  6
Continuous
 62
     0
100
AcDbLine
 10
9.02951
 20
-598.6199179999998
 30
0.0
 11
9.565407999999999
 21
-600.619918
 31
0.0
  0
LINE
  5
76D
330
36
100
AcDbEntity
  8
0
  6
Continuous
 62
     0
100
AcDbLine
 10
9.565407999999999
 20
-600.619918
 30
0.0
 11
10.101306
 21
-598.6199179999998
 31
0.0
  0
LINE
  5
76E
330
36
100
AcDbEntity
  8
0
  6
Continuous
 62
     0
100
AcDbLine
 10
-40.7561
 20
-592.0191009999997
 30
0.0
 11
-40.220202
 21
-594.0191009999997
 31
0.0
  0
LINE
  5
76F
330
36
100
AcDbEntity
  8
0
  6
Continuous
 62
     0
100
AcDbLine
 10
-40.220202
 20
-594.0191009999997
 30
0.0
 11
-39.684304
 21
-592.0191009999997
 31
0.0
  0
LINE
  5
770
330
36
100
AcDbEntity
  8
0
  6
Continuous
 62
     0
100
AcDbLine
 10
-39.684304
 20
-597.0637280000001
 30
0.0
 11
-40.220202
 21
-595.0637280000002
 31
0.0
  0
LINE
  5
771
330
36
100
AcDbEntity
  8
0
  6
Continuous
 62
     0
100
AcDbLine
 10
-40.220202
 20
-595.0637280000002
 30
0.0
 11
-40.7561
 21
-597.0637280000001
 31
0.0
  0
LINE
  5
772
330
36
100
AcDbEntity
  8
0
  6
Continuous
 62
     0
100
AcDbLine
 10
-73.539618
 20
-602.055148
 30
0.0
 11
-75.539618
 21
-602.591046
 31
0.0
  0
LINE
  5
773
330
36
100
AcDbEntity
  8
0
  6
Continuous
 62
     0
100
AcDbLine
 10
-75.539618
 20
-602.591046
 30
0.0
 11
-73.539618
 21
-603.1269439999999
 31
0.0
  0
LINE
  5
774
330
36
100
AcDbEntity
  8
0
  6
Continuous
 62
     0
100
AcDbLine
 10
-78.876755
 20
-603.1269439999999
 30
0.0
 11
-76.876755
 21
-602.591046
 31
0.0
  0
LINE
  5
775
330
36
100
AcDbEntity
  8
0
  6
Continuous
 62
     0
100
AcDbLine
 10
-76.876755
 20
-602.591046
 30
0.0
 11
-78.876755
 21
-602.055148
 31
0.0
  0
LINE
  5
776
330
36
100
AcDbEntity
  8
0
  6
Continuous
 62
     0
100
AcDbLine
 10
-33.552248
 20
-588.365882
 30
0.0
 11
-34.088146
 21
-586.365882
 31
0.0
  0
LINE
  5
777
330
36
100
AcDbEntity
  8
0
  6
Continuous
 62
     0
100
AcDbLine
 10
-34.088146
 20
-586.365882
 30
0.0
 11
-34.624044
 21
-588.365882
 31
0.0
  0
LINE
  5
778
330
36
100
AcDbEntity
  8
0
  6
Continuous
 62
     0
100
AcDbLine
 10
-34.624044
 20
-593.0637280000001
 30
0.0
 11
-34.088146
 21
-595.0637280000002
 31
0.0
  0
LINE
  5
779
330
36
100
AcDbEntity
  8
0
  6
Continuous
 62
     0
100
AcDbLine
 10
-34.088146
 20
-595.0637280000002
 30
0.0
 11
-33.552248
 21
-593.0637280000001
 31
0.0
  0
TEXT
  5
7A1
330
36
100
AcDbEntity
  8
001
 62
     3
100
AcDbText
 10
112.2464188866965
 20
-593.059050586798
 30
0.0
 40
6.299999999999998
  1
M
  7
高6.3
100
AcDbText
  0
TEXT
  5
869
330
36
100
AcDbEntity
  8
001
 62
     3
100
AcDbText
 10
107.809357
 20
-442.0519269999998
 30
0.0
 40
3.2
  1
担　当
  7
高3.2
100
AcDbText
  0
TEXT
  5
86A
330
36
100
AcDbEntity
  8
001
 62
     3
100
AcDbText
 10
63.80935700000001
 20
-442.0519269999998
 30
0.0
 40
3.2
  1
変更・追記内容
  7
高3.2
100
AcDbText
  0
TEXT
  5
86B
330
36
100
AcDbEntity
  8
001
 62
     3
100
AcDbText
 10
38.92287200033925
 20
-446.7224655099082
 30
0.0
 40
2.0
  1
1
  7
高2
100
AcDbText
  0
TEXT
  5
86C
330
36
100
AcDbEntity
  8
001
 62
     3
100
AcDbText
 10
38.61436052358195
 20
-451.8922822221811
 30
0.0
 40
2.0
  1
2
  7
高2
100
AcDbText
  0
TEXT
  5
86D
330
36
100
AcDbEntity
  8
001
 62
     3
100
AcDbText
 10
45.809357
 20
-442.0519269999998
 30
0.0
 40
3.2
  1
日　付
  7
高3.2
100
AcDbText
  0
TEXT
  5
86E
330
36
100
AcDbEntity
  8
001
 62
     3
100
AcDbText
 10
45.809357
 20
-437.0519269999999
 30
0.0
 40
3.2
  1
図　　　　面　　　　略　　　　歴
  7
高3.2
100
AcDbText
  0
TEXT
  5
86F
330
36
100
AcDbEntity
  8
001
 62
     3
100
AcDbText
 10
35.80935700000001
 20
-442.0519269999998
 30
0.0
 40
3.2
  1
記号
  7
高3.2
100
AcDbText
  0
LINE
  5
870
330
36
100
AcDbEntity
  8
001
100
AcDbLine
 10
39.30935700000001
 20
-448.7610309999998
 30
0.0
 11
37.40935700000004
 21
-452.051927
 31
0.0
  0
LINE
  5
871
330
36
100
AcDbEntity
  8
001
100
AcDbLine
 10
39.30935700000001
 20
-448.7610309999998
 30
0.0
 11
41.20935699999997
 21
-452.051927
 31
0.0
  0
LINE
  5
872
330
36
100
AcDbEntity
  8
001
100
AcDbLine
 10
37.40935700000004
 20
-452.051927
 30
0.0
 11
41.20935699999997
 21
-452.051927
 31
0.0
  0
LINE
  5
873
330
36
100
AcDbEntity
  8
001
100
AcDbLine
 10
39.30935700000001
 20
-443.7610299999998
 30
0.0
 11
37.40935700000004
 21
-447.0519269999998
 31
0.0
  0
LINE
  5
874
330
36
100
AcDbEntity
  8
001
100
AcDbLine
 10
39.30935700000001
 20
-443.7610299999998
 30
0.0
 11
41.20935699999997
 21
-447.0519269999998
 31
0.0
  0
LINE
  5
875
330
36
100
AcDbEntity
  8
001
100
AcDbLine
 10
37.40935700000004
 20
-447.0519269999998
 30
0.0
 11
41.20935699999997
 21
-447.0519269999998
 31
0.0
  0
LINE
  5
876
330
36
100
AcDbEntity
  8
001
 62
     3
100
AcDbLine
 10
34.30935700000001
 20
-437.5519269999998
 30
0.0
 11
120.309357
 21
-437.5519269999998
 31
0.0
  0
LINE
  5
877
330
36
100
AcDbEntity
  8
001
 62
     3
100
AcDbLine
 10
34.30935700000001
 20
-442.5519269999998
 30
0.0
 11
120.309357
 21
-442.5519269999998
 31
0.0
  0
LINE
  5
878
330
36
100
AcDbEntity
  8
001
 62
     7
100
AcDbLine
 10
34.30935700000001
 20
-447.5519269999998
 30
0.0
 11
120.309357
 21
-447.5519269999998
 31
0.0
  0
LINE
  5
879
330
36
100
AcDbEntity
  8
001
 62
     3
100
AcDbLine
 10
34.30935700000001
 20
-452.551927
 30
0.0
 11
120.309357
 21
-452.551927
 31
0.0
  0
LINE
  5
87A
330
36
100
AcDbEntity
  8
001
 62
     7
100
AcDbLine
 10
106.3093569999999
 20
-452.551927
 30
0.0
 11
106.309357
 21
-437.5519269999998
 31
0.0
  0
LINE
  5
87B
330
36
100
AcDbEntity
  8
001
 62
     7
100
AcDbLine
 10
62.30935699999999
 20
-452.551927
 30
0.0
 11
62.30935699999999
 21
-437.5519269999998
 31
0.0
  0
LINE
  5
87C
330
36
100
AcDbEntity
  8
001
 62
     7
100
AcDbLine
 10
44.309357
 20
-452.551927
 30
0.0
 11
44.309357
 21
-437.5519269999998
 31
0.0
  0
LINE
  5
87D
330
36
100
AcDbEntity
  8
001
 62
     3
100
AcDbLine
 10
34.30935700000001
 20
-452.551927
 30
0.0
 11
34.30935700000001
 21
-432.551927
 31
0.0
  0
TEXT
  5
974
330
36
100
AcDbEntity
  8
001
 62
     7
100
AcDbText
 10
107.809357
 20
-447.0519269999998
 30
0.0
 40
2.5
  1
牧田
  7
高2.5
100
AcDbText
  0
TEXT
  5
975
330
36
100
AcDbEntity
  8
001
 62
     7
100
AcDbText
 10
63.80935700000001
 20
-447.0519269999998
 30
0.0
 40
2.5
  1
圧縮荷重値　破壊値の60％に変更
 41
0.9
  7
高2.5
100
AcDbText
  0
TEXT
  5
976
330
36
100
AcDbEntity
  8
001
 62
     7
100
AcDbText
 10
45.809357
 20
-447.0519269999998
 30
0.0
 40
2.5
  1
`12.11.13
  7
高2.5
100
AcDbText
  0
TEXT
  5
977
330
36
100
AcDbEntity
  8
001
 62
     7
100
AcDbText
 10
107.809357
 20
-452.051927
 30
0.0
 40
2.5
  1
牧田
  7
高2.5
100
AcDbText
  0
TEXT
  5
978
330
36
100
AcDbEntity
  8
001
 62
     7
100
AcDbText
 10
63.80935700000001
 20
-452.051927
 30
0.0
 40
2.5
  1
充電時間及び点灯時間変更
  7
高2.5
100
AcDbText
  0
TEXT
  5
979
330
36
100
AcDbEntity
  8
001
 62
     7
100
AcDbText
 10
45.809357
 20
-452.051927
 30
0.0
 40
2.5
  1
`12.11.27
  7
高2.5
100
AcDbText
  0
ENDSEC
  0
SECTION
  2
OBJECTS
  0
DICTIONARY
  5
C
330
0
100
AcDbDictionary
281
     1
  3
ACAD_2007HEADERVARS_RT
350
A21
  3
ACAD_COLOR
350
2F
  3
ACAD_GROUP
350
D
  3
ACAD_LAYOUT
350
2E
  3
ACAD_MATERIAL
350
10
  3
ACAD_MLEADERSTYLE
350
3AA
  3
ACAD_MLINESTYLE
350
2B
  3
ACAD_PLOTSETTINGS
350
2D
  3
ACAD_PLOTSTYLENAME
350
E
  3
ACAD_SCALELIST
350
398
  3
ACAD_TABLESTYLE
350
30
  3
ACAD_VISUALSTYLE
350
14
  3
ACDB_RECOMPOSE_DATA
350
9CF
  3
AcDbVariableDictionary
350
35A
  3
DWGPROPS
350
A20
  0
DICTIONARY
  5
451
330
2
100
AcDbDictionary
280
     1
281
     1
  3
ACAD_LAYERSTATES
360
452
  0
DICTIONARY
  5
62E
330
25
100
AcDbDictionary
280
     1
281
     1
  3
ADSK_XREC_LAYER_RECONCILED
360
62F
  0
DICTIONARY
  5
630
330
52
100
AcDbDictionary
280
     1
281
     1
  3
ADSK_XREC_LAYER_RECONCILED
360
631
  0
DICTIONARY
  5
59A
330
36
100
AcDbDictionary
280
     1
281
     1
  3
ACAD_SORTENTS
360
59B
  0
DICTIONARY
  5
A21
102
{ACAD_REACTORS
330
C
102
}
330
C
100
AcDbDictionary
281
     1
  3
DIMARCSYM
350
A23
  3
DIMFXL
350
A22
  3
DIMJOGANG
350
A24
  0
DICTIONARY
  5
2F
102
{ACAD_REACTORS
330
C
102
}
330
C
100
AcDbDictionary
281
     1
  0
DICTIONARY
  5
D
102
{ACAD_REACTORS
330
C
102
}
330
C
100
AcDbDictionary
281
     1
  0
DICTIONARY
  5
2E
102
{ACAD_REACTORS
330
C
102
}
330
C
100
AcDbDictionary
281
     1
  3
Model
350
39
  3
レイアウト1
350
35
  0
DICTIONARY
  5
10
102
{ACAD_REACTORS
330
C
102
}
330
C
100
AcDbDictionary
281
     1
  3
ByBlock
350
12
  3
ByLayer
350
11
  3
Global
350
13
  0
DICTIONARY
  5
3AA
102
{ACAD_REACTORS
330
C
102
}
330
C
100
AcDbDictionary
281
     1
  3
Standard
350
3AB
  0
DICTIONARY
  5
2B
102
{ACAD_REACTORS
330
C
102
}
330
C
100
AcDbDictionary
281
     1
  3
Standard
350
2C
  0
DICTIONARY
  5
2D
102
{ACAD_REACTORS
330
C
102
}
330
C
100
AcDbDictionary
281
     1
  0
ACDBDICTIONARYWDFLT
  5
E
102
{ACAD_REACTORS
330
C
102
}
330
C
100
AcDbDictionary
281
     1
  3
Normal
350
F
100
AcDbDictionaryWithDefault
340
F
  0
DICTIONARY
  5
398
102
{ACAD_REACTORS
330
C
102
}
330
C
100
AcDbDictionary
281
     1
  3
A0
350
399
  3
A1
350
39A
  3
A2
350
39B
  3
A3
350
39C
  3
A4
350
39D
  3
A5
350
39E
  3
A6
350
39F
  3
A7
350
3A0
  3
A8
350
3A1
  3
A9
350
3A2
  3
B0
350
3A3
  3
B1
350
3A4
  3
B2
350
3A5
  3
B3
350
3A6
  3
B4
350
3A7
  3
B5
350
3A8
  3
B6
350
3A9
  0
DICTIONARY
  5
30
102
{ACAD_REACTORS
330
C
102
}
330
C
100
AcDbDictionary
281
     1
  3
Standard
350
31
  0
DICTIONARY
  5
14
102
{ACAD_REACTORS
330
C
102
}
330
C
100
AcDbDictionary
281
     1
  3
2dWireframe
350
1A
  3
3D Hidden
350
1C
  3
3dWireframe
350
1B
  3
Basic
350
19
  3
Brighten
350
20
  3
ColorChange
350
24
  3
Conceptual
350
1D
  3
Dim
350
1F
  3
EdgeColorOff
350
397
  3
Facepattern
350
23
  3
Flat
350
15
  3
FlatWithEdges
350
16
  3
Gouraud
350
17
  3
GouraudWithEdges
350
18
  3
Hidden
350
38F
  3
JitterOff
350
395
  3
Linepattern
350
22
  3
OverhangOff
350
396
  3
Realistic
350
1E
  3
Shaded
350
394
  3
Shaded with edges
350
393
  3
Shades of Gray
350
390
  3
Sketchy
350
391
  3
Thicken
350
21
  3
Wireframe
350
38E
  3
X-Ray
350
392
  0
XRECORD
  5
9CF
102
{ACAD_REACTORS
330
C
102
}
330
C
100
AcDbXrecord
280
     1
 90
        1
330
31
  0
DICTIONARY
  5
35A
102
{ACAD_REACTORS
330
C
102
}
330
C
100
AcDbDictionary
281
     1
  3
CANNOSCALE
350
633
  3
CMLEADERSTYLE
350
632
  3
CTABLESTYLE
350
35B
  3
DIMASSOC
350
35E
  3
INDEXCTL
350
35D
  3
LOFTANG1
350
A14
  3
LOFTANG2
350
A15
  3
LONGITUDE
350
983
  3
SORTENTS
350
35C
  3
XCLIPFRAME
350
984
  0
XRECORD
  5
A20
102
{ACAD_REACTORS
330
C
102
}
330
C
100
AcDbXrecord
280
     1
  1
DWGPROPS COOKIE
  2

  3

  4

  6

  7

  8
日動片岡
  9

300
=
301
=
302
=
303
=
304
=
305
=
306
=
307
=
308
=
309
=
 40
0.0473932986111111
 41
2455475.658025347
 42
2456265.702762628
  1

 90
        0
  0
DICTIONARY
  5
452
102
{ACAD_REACTORS
330
451
102
}
330
451
100
AcDbDictionary
281
     1
  0
XRECORD
  5
62F
102
{ACAD_REACTORS
330
62E
102
}
330
62E
100
AcDbXrecord
280
     1
290
     1
  0
XRECORD
  5
631
102
{ACAD_REACTORS
330
630
102
}
330
630
100
AcDbXrecord
280
     1
290
     1
  0
SORTENTSTABLE
  5
59B
102
{ACAD_REACTORS
330
59A
102
}
330
59A
100
AcDbSortentsTable
330
36
331
1E9
  5
26F
331
173
  5
1F2
331
1AA
  5
226
331
FD
  5
179
331
134
  5
1B3
331
1F1
  5
277
331
13C
  5
1BB
331
17B
  5
1FA
331
105
  5
181
331
1B2
  5
22E
331
1BA
  5
236
331
1F9
  5
27F
331
10D
  5
18A
331
144
  5
1C3
331
183
  5
202
331
1C2
  5
23E
331
14C
  5
1CB
331
310
  5
714
331
263
  5
2EF
331
29A
  5
33A
331
224
  5
2AF
331
2D9
  5
6DD
331
70E
  5
136
331
74D
  5
145
331
2E1
  5
6E5
331
22C
  5
2B7
331
26B
  5
2F7
331
2A2
  5
342
331
357
  5
74B
331
2E9
  5
6ED
331
716
  5
12E
331
755
  5
135
331
234
  5
2BF
331
273
  5
2FF
331
2AA
  5
34B
331
2B2
  5
353
331
23C
  5
2CB
331
328
  5
725
331
726
  5
FA
331
18B
  5
209
331
1CA
  5
246
331
DE
  5
15A
331
115
  5
192
331
154
  5
1D3
331
15C
  5
1DB
331
193
  5
211
331
E6
  5
162
331
11D
  5
19C
331
1D2
  5
24E
331
1DA
  5
25E
331
125
  5
1A4
331
164
  5
1E3
331
EE
  5
16A
331
19B
  5
217
331
1E2
  5
268
331
12D
  5
1AC
331
16C
  5
1EB
331
F6
  5
172
331
1A3
  5
21F
331
76B
  5
11E
331
27B
  5
307
331
205
  5
28B
331
2BA
  5
46C
331
773
  5
F4
331
2F1
  5
6F5
331
72E
  5
E8
331
2F9
  5
6FD
331
338
  5
72D
331
283
  5
30F
331
2C2
  5
6CB
331
20D
  5
297
331
24C
  5
2DD
331
736
  5
D8
331
301
  5
705
331
340
  5
735
331
28B
  5
323
331
215
  5
2A0
331
2CA
  5
6D0
331
6F7
  5
71C
331
6FF
  5
2E9
331
73E
  5
754
331
21D
  5
2A8
331
2D2
  5
6D8
331
309
  5
70D
331
348
  5
73C
331
746
  5
14F
331
1AB
  5
227
331
1EA
  5
270
331
FE
  5
17A
331
135
  5
1B4
331
174
  5
1F3
331
17C
  5
1FB
331
1B3
  5
22F
331
106
  5
182
331
13D
  5
1BC
331
1F2
  5
278
331
1FA
  5
280
331
184
  5
203
331
1BB
  5
237
331
145
  5
1C4
331
14D
  5
1CC
331
1C3
  5
23F
331
350
  5
744
331
29B
  5
33B
331
2DA
  5
6DE
331
225
  5
2B0
331
264
  5
2F0
331
74E
  5
13F
331
2A3
  5
343
331
2E2
  5
6E6
331
70F
  5
137
331
22D
  5
2B8
331
26C
  5
2F8
331
756
  5
132
331
274
  5
300
331
2AB
  5
34C
331
235
  5
2C0
331
2EA
  5
6EE
331
71F
  5
12B
331
329
  5
726
331
23D
  5
2CC
331
2B3
  5
354
331
727
  5
100
331
1CB
  5
247
331
116
  5
193
331
155
  5
1D4
331
DF
  5
15B
331
18C
  5
20A
331
194
  5
212
331
1D3
  5
24F
331
11E
  5
19D
331
15D
  5
1DC
331
E7
  5
163
331
19C
  5
218
331
1DB
  5
25F
331
EF
  5
16B
331
126
  5
1A5
331
165
  5
1E4
331
16D
  5
1EC
331
1A4
  5
220
331
F7
  5
173
331
12E
  5
1AD
331
1E3
  5
269
331
76C
  5
11B
331
5A0
  5
1A1
331
2F2
  5
6F6
331
245
  5
2D6
331
27C
  5
308
331
774
  5
ED
331
206
  5
28C
331
2BB
  5
46D
331
6F0
  5
74F
331
72F
  5
EB
331
2FA
  5
6FE
331
20E
  5
298
331
24D
  5
2DF
331
284
  5
310
331
339
  5
72E
331
341
  5
736
331
6F8
  5
715
331
28C
  5
324
331
216
  5
2A1
331
2CB
  5
6D1
331
302
  5
706
331
737
  5
D9
331
73F
  5
755
331
30A
  5
70E
331
349
  5
73D
331
21E
  5
2A9
331
2D3
  5
6D9
331
700
  5
2E3
331
747
  5
149
331
1EB
  5
271
331
136
  5
1B5
331
175
  5
1F4
331
FF
  5
17B
331
1AC
  5
228
331
1F3
  5
279
331
13E
  5
1BD
331
17D
  5
1FC
331
107
  5
183
331
1B4
  5
230
331
1BC
  5
238
331
1FB
  5
281
331
146
  5
1C5
331
185
  5
204
331
1C4
  5
240
331
14E
  5
1CD
331
59C
  5
19F
331
351
  5
745
331
265
  5
2F1
331
29C
  5
33C
331
226
  5
2B1
331
2DB
  5
6DF
331
708
  5
140
331
2E3
  5
6E7
331
710
  5
138
331
74F
  5
13C
331
22E
  5
2B9
331
26D
  5
2F9
331
2A4
  5
345
331
2AC
  5
34D
331
2EB
  5
6EF
331
236
  5
2C1
331
275
  5
301
331
757
  5
133
331
720
  5
118
331
2B4
  5
355
331
23E
  5
2CD
331
32A
  5
727
331
D8
  5
154
331
18D
  5
20B
331
1CC
  5
248
331
E0
  5
15C
331
117
  5
194
331
156
  5
1D5
331
15E
  5
1DD
331
195
  5
213
331
E8
  5
164
331
11F
  5
19E
331
1D4
  5
250
331
1DC
  5
260
331
127
  5
1A6
331
166
  5
1E5
331
F0
  5
16C
331
19D
  5
219
331
1A5
  5
221
331
1E4
  5
26A
331
12F
  5
1AE
331
16E
  5
1ED
331
76D
  5
11C
331
5A1
  5
18B
331
27D
  5
309
331
2BC
  5
46E
331
207
  5
28D
331
775
  5
EE
331
246
  5
2D7
331
2F3
  5
6F7
331
728
  5
101
331
730
  5
EC
331
2FB
  5
6FF
331
24E
  5
2E0
331
285
  5
311
331
33A
  5
72F
331
20F
  5
299
331
6F1
  5
750
331
6F9
  5
716
331
738
  5
DA
331
303
  5
707
331
342
  5
737
331
256
  5
2E5
331
28D
  5
326
331
217
  5
2A2
331
2CC
  5
6D2
331
701
  5
2E4
331
740
  5
153
331
21F
  5
2AA
331
25E
  5
2EA
331
30B
  5
70F
331
34A
  5
73E
331
F8
  5
174
331
1AD
  5
229
331
1EC
  5
272
331
100
  5
17C
331
137
  5
1B6
331
176
  5
1F5
331
17E
  5
1FD
331
1B5
  5
231
331
108
  5
184
331
13F
  5
1BE
331
1F4
  5
27A
331
1FC
  5
282
331
147
  5
1C6
331
186
  5
205
331
1BD
  5
239
331
14F
  5
1CE
331
1C5
  5
241
331
59D
  5
18C
331
352
  5
746
331
29D
  5
33D
331
2DC
  5
6E0
331
709
  5
141
331
227
  5
2B2
331
266
  5
2F2
331
748
  5
146
331
750
  5
13D
331
372
  5
74C
331
2A5
  5
346
331
2E4
  5
6E8
331
22F
  5
2BA
331
26E
  5
2FA
331
323
  5
720
331
758
  5
134
331
276
  5
302
331
2AD
  5
34E
331
237
  5
2C2
331
2EC
  5
6F0
331
721
  5
119
331
32B
  5
728
331
23F
  5
2CE
331
2B5
  5
356
331
D9
  5
155
331
1CD
  5
249
331
118
  5
195
331
157
  5
1D6
331
E1
  5
15D
331
18E
  5
20C
331
196
  5
214
331
1D5
  5
251
331
E9
  5
165
331
15F
  5
1DE
331
19E
  5
21A
331
1DD
  5
262
331
F1
  5
16D
331
128
  5
1A7
331
167
  5
1E6
331
16F
  5
1EE
331
1A6
  5
222
331
1E5
  5
26B
331
766
  5
127
331
200
  5
286
331
76E
  5
10C
331
5A2
  5
1A0
331
2BD
  5
46F
331
2F4
  5
6F8
331
247
  5
2D8
331
27E
  5
30A
331
776
  5
E3
331
208
  5
28E
331
6F2
  5
751
331
2FC
  5
700
331
210
  5
29A
331
24F
  5
2E1
331
286
  5
316
331
33B
  5
730
331
343
  5
738
331
6FA
  5
6CC
331
28E
  5
327
331
2CD
  5
6D3
331
218
  5
2A3
331
257
  5
2E6
331
304
  5
708
331
741
  5
150
331
30C
  5
710
331
34B
  5
73F
331
25F
  5
2EB
331
2D5
  5
6DA
331
702
  5
14A
331
F9
  5
175
331
130
  5
1AF
331
1ED
  5
273
331
138
  5
1B7
331
177
  5
1F6
331
101
  5
17D
331
1AE
  5
22A
331
1B6
  5
232
331
1F5
  5
27B
331
140
  5
1BF
331
17F
  5
1FE
331
109
  5
185
331
1BE
  5
23A
331
1FD
  5
283
331
148
  5
1C7
331
187
  5
206
331
1C6
  5
242
331
59E
  5
1A2
331
220
  5
2AB
331
70A
  5
142
331
749
  5
147
331
353
  5
747
331
267
  5
2F3
331
29E
  5
33E
331
228
  5
2B3
331
2DD
  5
6E1
331
2E5
  5
6E9
331
751
  5
13E
331
230
  5
2BB
331
26F
  5
2FB
331
2A6
  5
347
331
71A
  5
120
331
2AE
  5
34F
331
2ED
  5
6F1
331
238
  5
2C3
331
277
  5
303
331
324
  5
721
331
759
  5
12F
331
32C
  5
729
331
2B6
  5
357
331
722
  5
11A
331
DA
  5
156
331
150
  5
1CF
331
158
  5
1D7
331
18F
  5
20D
331
E2
  5
15E
331
119
  5
196
331
1CE
  5
24A
331
160
  5
1DF
331
EA
  5
166
331
1D6
  5
256
331
1DE
  5
263
331
129
  5
1A8
331
168
  5
1E7
331
F2
  5
16E
331
19F
  5
21B
331
1A7
  5
223
331
1E6
  5
26C
331
767
  5
129
331
201
  5
287
331
76F
  5
10D
331
240
  5
2D0
331
27F
  5
30B
331
2BE
  5
470
331
209
  5
28F
331
777
  5
E4
331
248
  5
2D9
331
2F5
  5
6F9
331
2FD
  5
701
331
250
  5
2E2
331
287
  5
317
331
33C
  5
731
331
211
  5
29B
331
6F3
  5
752
331
6FB
  5
6CD
331
2CE
  5
6D4
331
305
  5
709
331
258
  5
2E7
331
28F
  5
329
331
219
  5
2A4
331
703
  5
14B
331
742
  5
151
331
30D
  5
711
331
297
  5
337
331
34C
  5
740
331
FA
  5
176
331
131
  5
1B0
331
170
  5
1EF
331
1AF
  5
22B
331
1EE
  5
274
331
102
  5
17E
331
139
  5
1B8
331
178
  5
1F7
331
180
  5
1FF
331
1B7
  5
233
331
10A
  5
186
331
141
  5
1C0
331
1F6
  5
27C
331
1FE
  5
284
331
149
  5
1C8
331
1BF
  5
23B
331
1C7
  5
243
331
59F
  5
18E
331
221
  5
2AC
331
260
  5
2EC
331
354
  5
748
331
29F
  5
33F
331
2DE
  5
6E2
331
229
  5
2B4
331
268
  5
2F4
331
74A
  5
148
331
31D
  5
71D
331
752
  5
139
331
270
  5
2FC
331
2A7
  5
348
331
231
  5
2BC
331
2E6
  5
6EA
331
71B
  5
121
331
325
  5
722
331
75A
  5
130
331
2AF
  5
350
331
239
  5
2C8
331
2EE
  5
6F2
331
32D
  5
72A
331
2B7
  5
372
331
151
  5
1D0
331
188
  5
207
331
DB
  5
157
331
112
  5
18F
331
1CF
  5
24B
331
11A
  5
199
331
159
  5
1D8
331
E3
  5
15F
331
190
  5
20E
331
1D7
  5
257
331
EB
  5
167
331
161
  5
1E0
331
169
  5
1E8
331
1A0
  5
21C
331
F3
  5
16F
331
12A
  5
1A9
331
1DF
  5
264
331
1E7
  5
26D
331
768
  5
123
331
241
  5
2D1
331
278
  5
304
331
770
  5
102
331
202
  5
288
331
2BF
  5
471
331
2F6
  5
6FA
331
72B
  5
10F
331
20A
  5
290
331
778
  5
DF
331
249
  5
2DA
331
280
  5
30C
331
33D
  5
732
331
6F4
  5
71E
331
2FE
  5
702
331
733
  5
F5
331
212
  5
29C
331
288
  5
318
331
345
  5
739
331
6FC
  5
32D
331
290
  5
32B
331
21A
  5
2A5
331
2CF
  5
6D5
331
306
  5
70A
331
73B
  5
E7
331
743
  5
152
331
30E
  5
712
331
34D
  5
741
331
2D7
  5
6DB
331
704
  5
14C
331
171
  5
1F0
331
1A8
  5
224
331
FB
  5
177
331
132
  5
1B1
331
1EF
  5
275
331
13A
  5
1B9
331
179
  5
1F8
331
103
  5
17F
331
1B0
  5
22C
331
1B8
  5
234
331
1F7
  5
27D
331
10B
  5
187
331
142
  5
1C1
331
181
  5
200
331
1C0
  5
23C
331
14A
  5
1C9
331
1FF
  5
285
331
261
  5
2ED
331
298
  5
338
331
222
  5
2AD
331
74B
  5
143
331
2DF
  5
6E3
331
316
  5
719
331
269
  5
2F5
331
2A0
  5
340
331
355
  5
749
331
22A
  5
2B5
331
2E7
  5
6EB
331
714
  5
12C
331
753
  5
13A
331
232
  5
2BD
331
271
  5
2FD
331
2A8
  5
349
331
475
  5
74D
331
71C
  5
122
331
2B0
  5
351
331
23A
  5
2C9
331
2EF
  5
6F3
331
326
  5
723
331
75B
  5
131
331
1C8
  5
244
331
DC
  5
158
331
113
  5
190
331
152
  5
1D1
331
15A
  5
1D9
331
191
  5
20F
331
E4
  5
160
331
11B
  5
19A
331
1D0
  5
24C
331
1D8
  5
258
331
162
  5
1E1
331
EC
  5
168
331
199
  5
215
331
1E0
  5
266
331
12B
  5
1AA
331
16A
  5
1E9
331
F4
  5
170
331
1A1
  5
21D
331
769
  5
125
331
279
  5
305
331
2B8
  5
46A
331
203
  5
289
331
771
  5
106
331
242
  5
2D2
331
72C
  5
116
331
336
  5
72B
331
281
  5
30D
331
2C0
  5
582
331
20B
  5
291
331
779
  5
E0
331
24A
  5
2DB
331
2F7
  5
6FB
331
734
  5
F6
331
2FF
  5
703
331
33E
  5
733
331
289
  5
31D
331
213
  5
29D
331
2C8
  5
6CE
331
6F5
  5
71F
331
6FD
  5
336
331
73C
  5
756
331
2D0
  5
6D6
331
307
  5
70B
331
21B
  5
2A6
331
291
  5
32C
331
346
  5
73A
331
34E
  5
742
331
30F
  5
713
331
744
  5
14D
331
1A9
  5
225
331
1E8
  5
26E
331
FC
  5
178
331
133
  5
1B2
331
172
  5
1F1
331
17A
  5
1F9
331
1B1
  5
22D
331
104
  5
180
331
13B
  5
1BA
331
1F0
  5
276
331
182
  5
201
331
1B9
  5
235
331
10C
  5
188
331
143
  5
1C2
331
1F8
  5
27E
331
14B
  5
1CA
331
1C1
  5
23D
331
599
  5
18D
331
2D8
  5
6DC
331
223
  5
2AE
331
262
  5
2EE
331
299
  5
339
331
356
  5
74A
331
2A1
  5
341
331
2E0
  5
6E4
331
22B
  5
2B6
331
26A
  5
2F6
331
317
  5
71A
331
74C
  5
144
331
754
  5
13B
331
272
  5
2FE
331
2A9
  5
34A
331
233
  5
2BE
331
2E8
  5
6EC
331
715
  5
12D
331
327
  5
724
331
2B1
  5
352
331
476
  5
74E
331
23B
  5
2CA
331
725
  5
11F
331
1C9
  5
245
331
114
  5
191
331
153
  5
1D2
331
DD
  5
159
331
18A
  5
208
331
1D1
  5
24D
331
11C
  5
19B
331
15B
  5
1DA
331
E5
  5
161
331
192
  5
210
331
19A
  5
216
331
1D9
  5
259
331
ED
  5
169
331
124
  5
1A3
331
163
  5
1E2
331
16B
  5
1EA
331
1A2
  5
21E
331
F5
  5
171
331
12C
  5
1AB
331
1E1
  5
267
331
76A
  5
11D
331
2F0
  5
6F4
331
243
  5
2D3
331
27A
  5
306
331
772
  5
F3
331
204
  5
28A
331
2B9
  5
46B
331
72D
  5
117
331
2C1
  5
599
331
2F8
  5
6FC
331
20C
  5
292
331
24B
  5
2DC
331
282
  5
30E
331
337
  5
72C
331
33F
  5
734
331
6F6
  5
71B
331
28A
  5
31E
331
214
  5
29F
331
2C9
  5
6CF
331
300
  5
704
331
735
  5
F9
331
73D
  5
753
331
347
  5
73B
331
6FE
  5
2E8
331
21C
  5
2A7
331
2D1
  5
6D7
331
308
  5
70C
331
745
  5
14E
331
34F
  5
743
  0
XRECORD
  5
A23
102
{ACAD_REACTORS
330
A21
102
}
330
A21
100
AcDbXrecord
280
     1
 70
     2
  0
XRECORD
  5
A22
102
{ACAD_REACTORS
330
A21
102
}
330
A21
100
AcDbXrecord
280
     1
 40
1.25
  0
XRECORD
  5
A24
102
{ACAD_REACTORS
330
A21
102
}
330
A21
100
AcDbXrecord
280
     1
 40
1.570796326794896
  0
LAYOUT
  5
39
102
{ACAD_XDICTIONARY
360
A28
102
}
102
{ACAD_REACTORS
330
2E
102
}
330
2E
100
AcDbPlotSettings
  1

  2
PDF Complete
  4
A4
  6

 40
3.174999952316281
 41
3.174999952316281
 42
3.175003051757812
 43
3.17498779296875
 44
209.9733276367186
 45
297.0106506347656
 46
0.0
 47
0.0
 48
0.0
 49
0.0
140
0.0
141
0.0
142
1.0
143
27.5735439516759
 70
 11952
 72
     0
 73
     1
 74
     0
  7

 75
     0
147
0.0362666475427516
148
4469.314581038942
149
15579.50476058936
100
AcDbLayout
  1
Model
 70
     1
 71
     0
 10
0.0
 20
0.0
 11
12.0
 21
9.0
 12
0.0
 22
0.0
 32
0.0
 14
0.0
 24
0.0
 34
0.0
 15
0.0
 25
0.0
 35
0.0
146
0.0
 13
0.0
 23
0.0
 33
0.0
 16
1.0
 26
0.0
 36
0.0
 17
0.0
 27
1.0
 37
0.0
 76
     0
330
36
331
56
1001
ACAD_PSEXT
1000
PDF Complete
1000
PDF Complete Converter
1000
PDFC
1000
PDF Document Creator
1070
     0
  0
LAYOUT
  5
35
102
{ACAD_XDICTIONARY
360
A26
102
}
102
{ACAD_REACTORS
330
2E
102
}
330
2E
100
AcDbPlotSettings
  1

  2
PDF Complete
  4

  6

 40
0.0
 41
0.0
 42
0.0
 43
0.0
 44
0.0
 45
0.0
 46
0.0
 47
0.0
 48
0.0
 49
0.0
140
0.0
141
0.0
142
1.0
143
1.0
 70
   688
 72
     0
 73
     0
 74
     5
  7

 75
    16
147
1.0
148
0.0
149
0.0
100
AcDbLayout
  1
レイアウト1
 70
     1
 71
     1
 10
0.0
 20
0.0
 11
12.0
 21
9.0
 12
0.0
 22
0.0
 32
0.0
 14
1.000000000000000E+20
 24
1.000000000000000E+20
 34
1.000000000000000E+20
 15
-1.000000000000000E+20
 25
-1.000000000000000E+20
 35
-1.000000000000000E+20
146
0.0
 13
0.0
 23
0.0
 33
0.0
 16
1.0
 26
0.0
 36
0.0
 17
0.0
 27
1.0
 37
0.0
 76
     0
330
32
  0
MATERIAL
  5
12
102
{ACAD_XDICTIONARY
360
362
102
}
102
{ACAD_REACTORS
330
10
102
}
330
10
100
AcDbMaterial
  1
ByBlock
  0
MATERIAL
  5
11
102
{ACAD_XDICTIONARY
360
360
102
}
102
{ACAD_REACTORS
330
10
102
}
330
10
100
AcDbMaterial
  1
ByLayer
  0
MATERIAL
  5
13
102
{ACAD_XDICTIONARY
360
364
102
}
102
{ACAD_REACTORS
330
10
102
}
330
10
100
AcDbMaterial
  1
Global
  0
MLEADERSTYLE
  5
3AB
102
{ACAD_REACTORS
330
3AA
102
}
330
3AA
100
AcDbMLeaderStyle
170
     2
171
     1
172
     0
 90
        2
 40
0.0
 41
0.0
173
     1
 91
-1056964608
340
28
 92
       -2
290
     1
 42
0.09
291
     1
 43
0.36
  3
Standard
 44
0.18
300

342
26
174
     1
178
     6
175
     1
176
     0
 93
-1056964608
 45
0.18
292
     0
297
     0
 46
0.18
 94
-1056964608
 47
1.0
 49
1.0
140
1.0
293
     1
141
0.0
294
     1
177
     0
142
1.0
295
     0
296
     0
143
0.125
1001
ACAD_MLEADERVER
1070
     2
1001
ACAD
1000
AcRTDxfName
1000
MLEADERSTYLE
  0
MLINESTYLE
  5
2C
102
{ACAD_REACTORS
330
2B
102
}
330
2B
100
AcDbMlineStyle
  2
STANDARD
 70
     0
  3

 62
   256
 51
90.0
 52
90.0
 71
     2
 49
0.5
 62
   256
  6
BYLAYER
 49
-0.5
 62
   256
  6
BYLAYER
  0
ACDBPLACEHOLDER
  5
F
102
{ACAD_REACTORS
330
E
102
}
330
E
  0
SCALE
  5
399
102
{ACAD_REACTORS
330
398
102
}
330
398
100
AcDbScale
 70
     0
300
1:1
140
1.0
141
1.0
290
     1
1001
ACAD
1000
AcRTDxfName
1000
SCALE
  0
SCALE
  5
39A
102
{ACAD_REACTORS
330
398
102
}
330
398
100
AcDbScale
 70
     0
300
1/128" = 1'-0"
140
0.0078125
141
12.0
290
     0
1001
ACAD
1000
AcRTDxfName
1000
SCALE
  0
SCALE
  5
39B
102
{ACAD_REACTORS
330
398
102
}
330
398
100
AcDbScale
 70
     0
300
1/64" = 1'-0"
140
0.015625
141
12.0
290
     0
1001
ACAD
1000
AcRTDxfName
1000
SCALE
  0
SCALE
  5
39C
102
{ACAD_REACTORS
330
398
102
}
330
398
100
AcDbScale
 70
     0
300
1/32" = 1'-0"
140
0.03125
141
12.0
290
     0
1001
ACAD
1000
AcRTDxfName
1000
SCALE
  0
SCALE
  5
39D
102
{ACAD_REACTORS
330
398
102
}
330
398
100
AcDbScale
 70
     0
300
1/16" = 1'-0"
140
0.0625
141
12.0
290
     0
1001
ACAD
1000
AcRTDxfName
1000
SCALE
  0
SCALE
  5
39E
102
{ACAD_REACTORS
330
398
102
}
330
398
100
AcDbScale
 70
     0
300
3/32" = 1'-0"
140
0.09375
141
12.0
290
     0
1001
ACAD
1000
AcRTDxfName
1000
SCALE
  0
SCALE
  5
39F
102
{ACAD_REACTORS
330
398
102
}
330
398
100
AcDbScale
 70
     0
300
1/8" = 1'-0"
140
0.125
141
12.0
290
     0
1001
ACAD
1000
AcRTDxfName
1000
SCALE
  0
SCALE
  5
3A0
102
{ACAD_REACTORS
330
398
102
}
330
398
100
AcDbScale
 70
     0
300
3/16" = 1'-0"
140
0.1875
141
12.0
290
     0
1001
ACAD
1000
AcRTDxfName
1000
SCALE
  0
SCALE
  5
3A1
102
{ACAD_REACTORS
330
398
102
}
330
398
100
AcDbScale
 70
     0
300
1/4" = 1'-0"
140
0.25
141
12.0
290
     0
1001
ACAD
1000
AcRTDxfName
1000
SCALE
  0
SCALE
  5
3A2
102
{ACAD_REACTORS
330
398
102
}
330
398
100
AcDbScale
 70
     0
300
3/8" = 1'-0"
140
0.375
141
12.0
290
     0
1001
ACAD
1000
AcRTDxfName
1000
SCALE
  0
SCALE
  5
3A3
102
{ACAD_REACTORS
330
398
102
}
330
398
100
AcDbScale
 70
     0
300
1/2" = 1'-0"
140
0.5
141
12.0
290
     0
1001
ACAD
1000
AcRTDxfName
1000
SCALE
  0
SCALE
  5
3A4
102
{ACAD_REACTORS
330
398
102
}
330
398
100
AcDbScale
 70
     0
300
3/4" = 1'-0"
140
0.75
141
12.0
290
     0
1001
ACAD
1000
AcRTDxfName
1000
SCALE
  0
SCALE
  5
3A5
102
{ACAD_REACTORS
330
398
102
}
330
398
100
AcDbScale
 70
     0
300
1" = 1'-0"
140
1.0
141
12.0
290
     0
1001
ACAD
1000
AcRTDxfName
1000
SCALE
  0
SCALE
  5
3A6
102
{ACAD_REACTORS
330
398
102
}
330
398
100
AcDbScale
 70
     0
300
1-1/2" = 1'-0"
140
1.5
141
12.0
290
     0
1001
ACAD
1000
AcRTDxfName
1000
SCALE
  0
SCALE
  5
3A7
102
{ACAD_REACTORS
330
398
102
}
330
398
100
AcDbScale
 70
     0
300
3" = 1'-0"
140
3.0
141
12.0
290
     0
1001
ACAD
1000
AcRTDxfName
1000
SCALE
  0
SCALE
  5
3A8
102
{ACAD_REACTORS
330
398
102
}
330
398
100
AcDbScale
 70
     0
300
6" = 1'-0"
140
6.0
141
12.0
290
     0
1001
ACAD
1000
AcRTDxfName
1000
SCALE
  0
SCALE
  5
3A9
102
{ACAD_REACTORS
330
398
102
}
330
398
100
AcDbScale
 70
     0
300
1'-0" = 1'-0"
140
12.0
141
12.0
290
     0
1001
ACAD
1000
AcRTDxfName
1000
SCALE
  0
TABLESTYLE
  5
31
102
{ACAD_XDICTIONARY
360
635
102
}
102
{ACAD_REACTORS
330
30
102
}
330
30
100
AcDbTableStyle
  3
Standard
 70
     0
 71
     0
 40
0.06
 41
0.06
280
     0
281
     0
  7
STANDARD
140
0.18
170
     2
 62
     0
 63
     7
283
     0
274
    -2
284
     1
 64
     0
275
    -2
285
     1
 65
     0
276
    -2
286
     1
 66
     0
277
    -2
287
     1
 67
     0
278
    -2
288
     1
 68
     0
279
    -2
289
     1
 69
     0
  7
STANDARD
140
0.25
170
     5
 62
     0
 63
     7
283
     0
274
    -2
284
     1
 64
     0
275
    -2
285
     1
 65
     0
276
    -2
286
     1
 66
     0
277
    -2
287
     1
 67
     0
278
    -2
288
     1
 68
     0
279
    -2
289
     1
 69
     0
  7
STANDARD
140
0.18
170
     5
 62
     0
 63
     7
283
     0
274
    -2
284
     1
 64
     0
275
    -2
285
     1
 65
     0
276
    -2
286
     1
 66
     0
277
    -2
287
     1
 67
     0
278
    -2
288
     1
 68
     0
279
    -2
289
     1
 69
     0
  0
VISUALSTYLE
  5
1A
102
{ACAD_XDICTIONARY
360
9E0
102
}
102
{ACAD_REACTORS
330
14
102
}
330
14
100
AcDbVisualStyle
  2

 70
     4
 71
     0
 72
     2
 73
     0
 90
        0
 40
-0.6
 41
-30.0
 62
     5
 63
     7
 74
     1
 91
        4
 64
     7
 65
   257
 75
     1
175
     1
 42
1.0
 92
        0
 66
   257
 43
1.0
 76
     1
 77
     6
 78
     2
 67
     7
 79
     5
170
     0
171
     0
290
     0
174
     0
 93
        1
 44
0.0
173
     0
291
     0
 45
0.0
1001
ACAD
1000
AcDbSavedByObjectVersion
1070
     0
1000
AcDbSavedByObjectVersion
1070
     0
  0
VISUALSTYLE
  5
1C
102
{ACAD_XDICTIONARY
360
9E4
102
}
102
{ACAD_REACTORS
330
14
102
}
330
14
100
AcDbVisualStyle
  2

 70
     6
 71
     1
 72
     2
 73
     2
 90
        0
 40
-0.6
 41
-30.0
 62
     5
 63
     7
 74
     2
 91
        2
 64
     7
 65
   257
 75
     2
175
     1
 42
40.0
 92
        0
 66
   257
 43
1.0
 76
     1
 77
     6
 78
     2
 67
     7
 79
     3
170
     0
171
     0
290
     0
174
     0
 93
        1
 44
0.0
173
     0
291
     0
 45
0.0
1001
ACAD
1000
AcDbSavedByObjectVersion
1070
     0
1000
AcDbSavedByObjectVersion
1070
     0
  0
VISUALSTYLE
  5
1B
102
{ACAD_XDICTIONARY
360
9E2
102
}
102
{ACAD_REACTORS
330
14
102
}
330
14
100
AcDbVisualStyle
  2

 70
     5
 71
     0
 72
     2
 73
     0
 90
        0
 40
-0.6
 41
-30.0
 62
     5
 63
     7
 74
     1
 91
        4
 64
     7
 65
   257
 75
     1
175
     1
 42
1.0
 92
        0
 66
   257
 43
1.0
 76
     1
 77
     6
 78
     2
 67
     7
 79
     5
170
     0
171
     0
290
     0
174
     0
 93
        1
 44
0.0
173
     0
291
     0
 45
0.0
1001
ACAD
1000
AcDbSavedByObjectVersion
1070
     0
1000
AcDbSavedByObjectVersion
1070
     0
  0
VISUALSTYLE
  5
19
102
{ACAD_XDICTIONARY
360
9DE
102
}
102
{ACAD_REACTORS
330
14
102
}
330
14
100
AcDbVisualStyle
  2

 70
     7
 71
     1
 72
     0
 73
     1
 90
        0
 40
-0.6
 41
-30.0
 62
     5
 63
     7
 74
     0
 91
        4
 64
     7
 65
   257
 75
     1
175
     1
 42
1.0
 92
        8
 66
     7
 43
1.0
 76
     1
 77
     6
 78
     2
 67
     7
 79
     5
170
     0
171
     0
290
     0
174
     0
 93
        1
 44
0.0
173
     0
291
     1
 45
0.0
1001
ACAD
1000
AcDbSavedByObjectVersion
1070
     0
1000
AcDbSavedByObjectVersion
1070
     0
  0
VISUALSTYLE
  5
20
102
{ACAD_XDICTIONARY
360
9EC
102
}
102
{ACAD_REACTORS
330
14
102
}
330
14
100
AcDbVisualStyle
  2

 70
    12
 71
     2
 72
     2
 73
     0
 90
        0
 40
-0.6
 41
-30.0
 62
     5
 63
     7
 74
     1
 91
        4
 64
     7
 65
   257
 75
     1
175
     1
 42
1.0
 92
        8
 66
     7
 43
1.0
 76
     1
 77
     6
 78
     2
 67
     7
 79
     5
170
     0
171
     0
290
     0
174
     0
 93
        1
 44
50.0
173
     0
291
     1
 45
0.0
1001
ACAD
1000
AcDbSavedByObjectVersion
1070
     0
1000
AcDbSavedByObjectVersion
1070
     0
  0
VISUALSTYLE
  5
24
102
{ACAD_XDICTIONARY
360
9F4
102
}
102
{ACAD_REACTORS
330
14
102
}
330
14
100
AcDbVisualStyle
  2

 70
    16
 71
     2
 72
     2
 73
     3
 90
        0
 40
-0.6
 41
-30.0
 62
     5
 63
     8
 74
     1
 91
        4
 64
     7
 65
   257
 75
     1
175
     1
 42
1.0
 92
        8
 66
     8
 43
1.0
 76
     1
 77
     6
 78
     2
 67
     7
 79
     5
170
     0
171
     0
290
     0
174
     0
 93
        1
 44
0.0
173
     0
291
     1
 45
0.0
1001
ACAD
1000
AcDbSavedByObjectVersion
1070
     0
1000
AcDbSavedByObjectVersion
1070
     0
  0
VISUALSTYLE
  5
1D
102
{ACAD_XDICTIONARY
360
9E6
102
}
102
{ACAD_REACTORS
330
14
102
}
330
14
100
AcDbVisualStyle
  2

 70
     9
 71
     3
 72
     2
 73
     0
 90
        0
 40
-0.6
 41
-30.0
 62
     5
 63
     7
 74
     2
 91
        2
 64
     7
 65
   257
 75
     1
175
     1
 42
40.0
 92
        8
 66
     7
 43
1.0
 76
     1
 77
     6
 78
     2
 67
     7
 79
     3
170
     0
171
     0
290
     0
174
     0
 93
        1
 44
0.0
173
     0
291
     0
 45
0.0
1001
ACAD
1000
AcDbSavedByObjectVersion
1070
     0
1000
AcDbSavedByObjectVersion
1070
     0
  0
VISUALSTYLE
  5
1F
102
{ACAD_XDICTIONARY
360
9EA
102
}
102
{ACAD_REACTORS
330
14
102
}
330
14
100
AcDbVisualStyle
  2

 70
    11
 71
     2
 72
     2
 73
     0
 90
        0
 40
-0.6
 41
-30.0
 62
     5
 63
     7
 74
     1
 91
        4
 64
     7
 65
   257
 75
     1
175
     1
 42
1.0
 92
        8
 66
     7
 43
1.0
 76
     1
 77
     6
 78
     2
 67
     7
 79
     5
170
     0
171
     0
290
     0
174
     0
 93
        1
 44
-50.0
173
     0
291
     1
 45
0.0
1001
ACAD
1000
AcDbSavedByObjectVersion
1070
     0
1000
AcDbSavedByObjectVersion
1070
     0
  0
VISUALSTYLE
  5
397
102
{ACAD_XDICTIONARY
360
A0D
102
}
102
{ACAD_REACTORS
330
14
102
}
330
14
100
AcDbVisualStyle
  2

 70
    22
 71
     2
 72
     2
 73
     0
 90
        0
 40
-0.6
 41
-30.0
 62
     5
 63
     7
 74
     1
 91
        4
 64
     7
 65
   257
 75
     1
175
     1
 42
1.0
 92
        8
 66
     7
 43
1.0
 76
     1
 77
     6
 78
     2
 67
     7
 79
     5
170
     0
171
     0
290
     0
174
     0
 93
        1
 44
0.0
173
     0
291
     1
 45
0.0
1001
ACAD
1000
AcDbSavedByObjectVersion
1070
     0
1000
AcDbSavedByObjectVersion
1070
     0
  0
VISUALSTYLE
  5
23
102
{ACAD_XDICTIONARY
360
9F2
102
}
102
{ACAD_REACTORS
330
14
102
}
330
14
100
AcDbVisualStyle
  2

 70
    15
 71
     2
 72
     2
 73
     0
 90
        0
 40
-0.6
 41
-30.0
 62
     5
 63
     7
 74
     1
 91
        4
 64
     7
 65
   257
 75
     1
175
     1
 42
1.0
 92
        8
 66
     7
 43
1.0
 76
     1
 77
     6
 78
     2
 67
     7
 79
     5
170
     0
171
     0
290
     0
174
     0
 93
        1
 44
0.0
173
     0
291
     1
 45
0.0
1001
ACAD
1000
AcDbSavedByObjectVersion
1070
     0
1000
AcDbSavedByObjectVersion
1070
     0
  0
VISUALSTYLE
  5
15
102
{ACAD_XDICTIONARY
360
9D6
102
}
102
{ACAD_REACTORS
330
14
102
}
330
14
100
AcDbVisualStyle
  2

 70
     0
 71
     2
 72
     1
 73
     1
 90
        2
 40
-0.6
 41
30.0
 62
     5
 63
     7
 74
     0
 91
        4
 64
     7
 65
   257
 75
     1
175
     1
 42
1.0
 92
        8
 66
     7
 43
1.0
 76
     1
 77
     6
 78
     2
 67
     7
 79
     5
170
     0
171
     0
290
     0
174
     0
 93
       13
 44
0.0
173
     0
291
     1
 45
0.0
1001
ACAD
1000
AcDbSavedByObjectVersion
1070
     0
1000
AcDbSavedByObjectVersion
1070
     0
  0
VISUALSTYLE
  5
16
102
{ACAD_XDICTIONARY
360
9D8
102
}
102
{ACAD_REACTORS
330
14
102
}
330
14
100
AcDbVisualStyle
  2

 70
     1
 71
     2
 72
     1
 73
     1
 90
        2
 40
-0.6
 41
30.0
 62
     5
 63
     7
 74
     1
 91
        4
 64
     7
 65
   257
 75
     1
175
     1
 42
1.0
 92
        0
 66
   257
 43
1.0
 76
     1
 77
     6
 78
     2
 67
     7
 79
     5
170
     0
171
     0
290
     0
174
     0
 93
       13
 44
0.0
173
     0
291
     1
 45
0.0
1001
ACAD
1000
AcDbSavedByObjectVersion
1070
     0
1000
AcDbSavedByObjectVersion
1070
     0
  0
VISUALSTYLE
  5
17
102
{ACAD_XDICTIONARY
360
9DA
102
}
102
{ACAD_REACTORS
330
14
102
}
330
14
100
AcDbVisualStyle
  2

 70
     2
 71
     2
 72
     2
 73
     1
 90
        2
 40
-0.6
 41
30.0
 62
     5
 63
     7
 74
     0
 91
        4
 64
     7
 65
   257
 75
     1
175
     1
 42
1.0
 92
        0
 66
     7
 43
1.0
 76
     1
 77
     6
 78
     2
 67
     7
 79
     5
170
     0
171
     0
290
     0
174
     0
 93
       13
 44
0.0
173
     0
291
     1
 45
0.0
1001
ACAD
1000
AcDbSavedByObjectVersion
1070
     0
1000
AcDbSavedByObjectVersion
1070
     0
  0
VISUALSTYLE
  5
18
102
{ACAD_XDICTIONARY
360
9DC
102
}
102
{ACAD_REACTORS
330
14
102
}
330
14
100
AcDbVisualStyle
  2

 70
     3
 71
     2
 72
     2
 73
     1
 90
        2
 40
-0.6
 41
30.0
 62
     5
 63
     7
 74
     1
 91
        4
 64
     7
 65
   257
 75
     1
175
     1
 42
1.0
 92
        0
 66
   257
 43
1.0
 76
     1
 77
     6
 78
     2
 67
     7
 79
     5
170
     0
171
     0
290
     0
174
     0
 93
       13
 44
0.0
173
     0
291
     1
 45
0.0
1001
ACAD
1000
AcDbSavedByObjectVersion
1070
     0
1000
AcDbSavedByObjectVersion
1070
     0
  0
VISUALSTYLE
  5
38F
102
{ACAD_XDICTIONARY
360
9FD
102
}
102
{ACAD_REACTORS
330
14
102
}
330
14
100
AcDbVisualStyle
  2

 70
     6
 71
     1
 72
     2
 73
     2
 90
        0
 40
-0.6
 41
-30.0
 62
     5
 63
     7
 74
     2
 91
        2
 64
     7
 65
   257
 75
     2
175
     1
 42
40.0
 92
        0
 66
   257
 43
1.0
 76
     1
 77
     6
 78
     2
 67
     7
 79
     3
170
     0
171
     0
290
     0
174
     0
 93
        1
 44
0.0
173
     0
291
     0
 45
0.0
1001
ACAD
1000
AcDbSavedByObjectVersion
1070
     0
1000
AcDbSavedByObjectVersion
1070
     0
  0
VISUALSTYLE
  5
395
102
{ACAD_XDICTIONARY
360
A09
102
}
102
{ACAD_REACTORS
330
14
102
}
330
14
100
AcDbVisualStyle
  2

 70
    20
 71
     2
 72
     2
 73
     0
 90
        0
 40
-0.6
 41
-30.0
 62
     5
 63
     7
 74
     1
 91
        4
 64
     7
 65
   257
 75
     1
175
     1
 42
1.0
 92
       10
 66
     7
 43
1.0
 76
     1
 77
     6
 78
     2
 67
     7
 79
     5
170
     0
171
     0
290
     0
174
     0
 93
        1
 44
0.0
173
     0
291
     1
 45
0.0
1001
ACAD
1000
AcDbSavedByObjectVersion
1070
     0
1000
AcDbSavedByObjectVersion
1070
     0
  0
VISUALSTYLE
  5
22
102
{ACAD_XDICTIONARY
360
9F0
102
}
102
{ACAD_REACTORS
330
14
102
}
330
14
100
AcDbVisualStyle
  2

 70
    14
 71
     2
 72
     2
 73
     0
 90
        0
 40
-0.6
 41
-30.0
 62
     5
 63
     7
 74
     1
 91
        4
 64
     7
 65
   257
 75
     7
175
     7
 42
1.0
 92
        8
 66
     7
 43
1.0
 76
     1
 77
     6
 78
     2
 67
     7
 79
     5
170
     0
171
     0
290
     0
174
     0
 93
        1
 44
0.0
173
     0
291
     1
 45
0.0
1001
ACAD
1000
AcDbSavedByObjectVersion
1070
     0
1000
AcDbSavedByObjectVersion
1070
     0
  0
VISUALSTYLE
  5
396
102
{ACAD_XDICTIONARY
360
A0B
102
}
102
{ACAD_REACTORS
330
14
102
}
330
14
100
AcDbVisualStyle
  2

 70
    21
 71
     2
 72
     2
 73
     0
 90
        0
 40
-0.6
 41
-30.0
 62
     5
 63
     7
 74
     1
 91
        4
 64
     7
 65
   257
 75
     1
175
     1
 42
1.0
 92
        9
 66
     7
 43
1.0
 76
     1
 77
     6
 78
     2
 67
     7
 79
     5
170
     0
171
     0
290
     0
174
     0
 93
        1
 44
0.0
173
     0
291
     1
 45
0.0
1001
ACAD
1000
AcDbSavedByObjectVersion
1070
     0
1000
AcDbSavedByObjectVersion
1070
     0
  0
VISUALSTYLE
  5
1E
102
{ACAD_XDICTIONARY
360
9E8
102
}
102
{ACAD_REACTORS
330
14
102
}
330
14
100
AcDbVisualStyle
  2

 70
     8
 71
     2
 72
     2
 73
     0
 90
        0
 40
-0.6
 41
-30.0
 62
     5
 63
     7
 74
     1
 91
        0
 64
     7
 65
   257
 75
     1
175
     1
 42
1.0
 92
        8
 66
     8
 43
1.0
 76
     1
 77
     6
 78
     2
 67
     7
 79
     5
170
     0
171
     0
290
     0
174
     0
 93
       13
 44
0.0
173
     0
291
     0
 45
0.0
1001
ACAD
1000
AcDbSavedByObjectVersion
1070
     0
1000
AcDbSavedByObjectVersion
1070
     0
  0
VISUALSTYLE
  5
394
102
{ACAD_XDICTIONARY
360
A07
102
}
102
{ACAD_REACTORS
330
14
102
}
330
14
100
AcDbVisualStyle
  2

 70
    27
 71
     2
 72
     2
 73
     1
 90
        2
 40
-0.6
 41
30.0
 62
     5
 63
     7
 74
     0
 91
        4
 64
     7
 65
   257
 75
     1
175
     1
 42
1.0
 92
        8
 66
   257
 43
1.0
 76
     1
 77
     6
 78
     2
 67
     8
 79
     3
170
     0
171
     0
290
     0
174
     0
 93
        5
 44
0.0
173
     0
291
     0
 45
0.0
1001
ACAD
1000
AcDbSavedByObjectVersion
1070
     0
1000
AcDbSavedByObjectVersion
1070
     0
  0
VISUALSTYLE
  5
393
102
{ACAD_XDICTIONARY
360
A05
102
}
102
{ACAD_REACTORS
330
14
102
}
330
14
100
AcDbVisualStyle
  2

 70
    26
 71
     2
 72
     2
 73
     1
 90
        2
 40
-0.6
 41
30.0
 62
     5
 63
     7
 74
     1
 91
       10
 64
     7
 65
   257
 75
     2
175
     1
 42
1.0
 92
        8
 66
   257
 43
1.0
 76
     1
 77
     6
 78
     2
 67
     7
 79
     3
170
     0
171
     0
290
     0
174
     0
 93
        5
 44
0.0
173
     0
291
     0
 45
0.0
1001
ACAD
1000
AcDbSavedByObjectVersion
1070
     0
1000
AcDbSavedByObjectVersion
1070
     0
  0
VISUALSTYLE
  5
390
102
{ACAD_XDICTIONARY
360
9FF
102
}
102
{ACAD_REACTORS
330
14
102
}
330
14
100
AcDbVisualStyle
  2

 70
    23
 71
     2
 72
     2
 73
     3
 90
        0
 40
-0.6
 41
-30.0
 62
     5
 63
     7
 74
     2
 91
        2
 64
     7
 65
     7
 75
     1
175
     1
 42
40.0
 92
        8
 66
     7
 43
1.0
 76
     1
 77
     6
 78
     2
 67
     7
 79
     3
170
     0
171
     0
290
     0
174
     0
 93
        1
 44
0.0
173
     0
291
     0
 45
0.0
1001
ACAD
1000
AcDbSavedByObjectVersion
1070
     0
1000
AcDbSavedByObjectVersion
1070
     0
  0
VISUALSTYLE
  5
391
102
{ACAD_XDICTIONARY
360
A01
102
}
102
{ACAD_REACTORS
330
14
102
}
330
14
100
AcDbVisualStyle
  2

 70
    24
 71
     1
 72
     2
 73
     2
 90
        0
 40
-0.6
 41
-30.0
 62
     5
 63
     7
 74
     2
 91
        2
 64
     7
 65
     7
 75
     1
175
     1
 42
40.0
 92
       11
 66
     7
 43
1.0
 76
     1
 77
     6
 78
     2
 67
     7
 79
     6
170
     0
171
     0
290
     0
174
     0
 93
        1
 44
0.0
173
     0
291
     0
 45
0.0
1001
ACAD
1000
AcDbSavedByObjectVersion
1070
     0
1000
AcDbSavedByObjectVersion
1070
     0
  0
VISUALSTYLE
  5
21
102
{ACAD_XDICTIONARY
360
9EE
102
}
102
{ACAD_REACTORS
330
14
102
}
330
14
100
AcDbVisualStyle
  2

 70
    13
 71
     2
 72
     2
 73
     0
 90
        0
 40
-0.6
 41
-30.0
 62
     5
 63
     7
 74
     1
 91
        4
 64
     7
 65
   257
 75
     1
175
     1
 42
1.0
 92
       12
 66
     7
 43
1.0
 76
     1
 77
     6
 78
     2
 67
     7
 79
     5
170
     0
171
     0
290
     0
174
     0
 93
        1
 44
0.0
173
     0
291
     1
 45
0.0
1001
ACAD
1000
AcDbSavedByObjectVersion
1070
     0
1000
AcDbSavedByObjectVersion
1070
     0
  0
VISUALSTYLE
  5
38E
102
{ACAD_XDICTIONARY
360
9FB
102
}
102
{ACAD_REACTORS
330
14
102
}
330
14
100
AcDbVisualStyle
  2

 70
     5
 71
     0
 72
     2
 73
     0
 90
        0
 40
-0.6
 41
-30.0
 62
     5
 63
     7
 74
     1
 91
        4
 64
     7
 65
   257
 75
     1
175
     1
 42
1.0
 92
        0
 66
   257
 43
1.0
 76
     1
 77
     6
 78
     2
 67
     7
 79
     3
170
     0
171
     0
290
     0
174
     0
 93
        1
 44
0.0
173
     0
291
     0
 45
0.0
1001
ACAD
1000
AcDbSavedByObjectVersion
1070
     0
1000
AcDbSavedByObjectVersion
1070
     0
  0
VISUALSTYLE
  5
392
102
{ACAD_XDICTIONARY
360
A03
102
}
102
{ACAD_REACTORS
330
14
102
}
330
14
100
AcDbVisualStyle
  2

 70
    25
 71
     2
 72
     2
 73
     1
 90
        1
 40
0.5
 41
-30.0
 62
     5
 63
     7
 74
     1
 91
        0
 64
     7
 65
   257
 75
     1
175
     1
 42
1.0
 92
        8
 66
     7
 43
1.0
 76
     1
 77
     6
 78
     2
 67
     7
 79
     3
170
     0
171
     0
290
     0
174
     0
 93
       13
 44
0.0
173
     0
291
     0
 45
0.0
1001
ACAD
1000
AcDbSavedByObjectVersion
1070
     0
1000
AcDbSavedByObjectVersion
1070
     0
  0
DICTIONARYVAR
  5
633
102
{ACAD_REACTORS
330
35A
102
}
330
35A
100
DictionaryVariables
280
     0
  1
1:1
  0
DICTIONARYVAR
  5
632
102
{ACAD_REACTORS
330
35A
102
}
330
35A
100
DictionaryVariables
280
     0
  1
STANDARD
  0
DICTIONARYVAR
  5
35B
102
{ACAD_REACTORS
330
35A
102
}
330
35A
100
DictionaryVariables
280
     0
  1
STANDARD
  0
DICTIONARYVAR
  5
35E
102
{ACAD_REACTORS
330
35A
102
}
330
35A
100
DictionaryVariables
280
     0
  1
1
  0
DICTIONARYVAR
  5
35D
102
{ACAD_REACTORS
330
35A
102
}
330
35A
100
DictionaryVariables
280
     0
  1
0
  0
DICTIONARYVAR
  5
A14
102
{ACAD_REACTORS
330
35A
102
}
330
35A
100
DictionaryVariables
280
     0
  1
1.570796
  0
DICTIONARYVAR
  5
A15
102
{ACAD_REACTORS
330
35A
102
}
330
35A
100
DictionaryVariables
280
     0
  1
1.570796
  0
DICTIONARYVAR
  5
983
102
{ACAD_REACTORS
330
35A
102
}
330
35A
100
DictionaryVariables
280
     0
  1
-122.394000
  0
DICTIONARYVAR
  5
35C
102
{ACAD_REACTORS
330
35A
102
}
330
35A
100
DictionaryVariables
280
     0
  1
127
  0
DICTIONARYVAR
  5
984
102
{ACAD_REACTORS
330
35A
102
}
330
35A
100
DictionaryVariables
280
     0
  1
0
  0
DICTIONARY
  5
A28
330
39
100
AcDbDictionary
280
     1
281
     1
  3
ACAD_XREC_ROUNDTRIP
360
A29
  0
DICTIONARY
  5
A26
330
35
100
AcDbDictionary
280
     1
281
     1
  3
ACAD_XREC_ROUNDTRIP
360
A27
  0
DICTIONARY
  5
362
330
12
100
AcDbDictionary
280
     1
281
     1
  3
ACAD_XREC_ROUNDTRIP
360
363
  0
DICTIONARY
  5
360
330
11
100
AcDbDictionary
280
     1
281
     1
  3
ACAD_XREC_ROUNDTRIP
360
361
  0
DICTIONARY
  5
364
330
13
100
AcDbDictionary
280
     1
281
     1
  3
ACAD_XREC_ROUNDTRIP
360
365
  0
DICTIONARY
  5
635
330
31
100
AcDbDictionary
280
     1
281
     1
  3
ACAD_ROUNDTRIP_2008_TABLESTYLE_CELLSTYLEMAP
360
9CE
  3
ACAD_XREC_ROUNDTRIP
360
A25
  0
DICTIONARY
  5
9E0
330
1A
100
AcDbDictionary
280
     1
281
     1
  3
ACAD_XREC_ROUNDTRIP
360
9E1
  0
DICTIONARY
  5
9E4
330
1C
100
AcDbDictionary
280
     1
281
     1
  3
ACAD_XREC_ROUNDTRIP
360
9E5
  0
DICTIONARY
  5
9E2
330
1B
100
AcDbDictionary
280
     1
281
     1
  3
ACAD_XREC_ROUNDTRIP
360
9E3
  0
DICTIONARY
  5
9DE
330
19
100
AcDbDictionary
280
     1
281
     1
  3
ACAD_XREC_ROUNDTRIP
360
9DF
  0
DICTIONARY
  5
9EC
330
20
100
AcDbDictionary
280
     1
281
     1
  3
ACAD_XREC_ROUNDTRIP
360
9ED
  0
DICTIONARY
  5
9F4
330
24
100
AcDbDictionary
280
     1
281
     1
  3
ACAD_XREC_ROUNDTRIP
360
9F5
  0
DICTIONARY
  5
9E6
330
1D
100
AcDbDictionary
280
     1
281
     1
  3
ACAD_XREC_ROUNDTRIP
360
9E7
  0
DICTIONARY
  5
9EA
330
1F
100
AcDbDictionary
280
     1
281
     1
  3
ACAD_XREC_ROUNDTRIP
360
9EB
  0
DICTIONARY
  5
A0D
330
397
100
AcDbDictionary
280
     1
281
     1
  3
ACAD_XREC_ROUNDTRIP
360
A0E
  0
DICTIONARY
  5
9F2
330
23
100
AcDbDictionary
280
     1
281
     1
  3
ACAD_XREC_ROUNDTRIP
360
9F3
  0
DICTIONARY
  5
9D6
330
15
100
AcDbDictionary
280
     1
281
     1
  3
ACAD_XREC_ROUNDTRIP
360
9D7
  0
DICTIONARY
  5
9D8
330
16
100
AcDbDictionary
280
     1
281
     1
  3
ACAD_XREC_ROUNDTRIP
360
9D9
  0
DICTIONARY
  5
9DA
330
17
100
AcDbDictionary
280
     1
281
     1
  3
ACAD_XREC_ROUNDTRIP
360
9DB
  0
DICTIONARY
  5
9DC
330
18
100
AcDbDictionary
280
     1
281
     1
  3
ACAD_XREC_ROUNDTRIP
360
9DD
  0
DICTIONARY
  5
9FD
330
38F
100
AcDbDictionary
280
     1
281
     1
  3
ACAD_XREC_ROUNDTRIP
360
9FE
  0
DICTIONARY
  5
A09
330
395
100
AcDbDictionary
280
     1
281
     1
  3
ACAD_XREC_ROUNDTRIP
360
A0A
  0
DICTIONARY
  5
9F0
330
22
100
AcDbDictionary
280
     1
281
     1
  3
ACAD_XREC_ROUNDTRIP
360
9F1
  0
DICTIONARY
  5
A0B
330
396
100
AcDbDictionary
280
     1
281
     1
  3
ACAD_XREC_ROUNDTRIP
360
A0C
  0
DICTIONARY
  5
9E8
330
1E
100
AcDbDictionary
280
     1
281
     1
  3
ACAD_XREC_ROUNDTRIP
360
9E9
  0
DICTIONARY
  5
A07
330
394
100
AcDbDictionary
280
     1
281
     1
  3
ACAD_XREC_ROUNDTRIP
360
A08
  0
DICTIONARY
  5
A05
330
393
100
AcDbDictionary
280
     1
281
     1
  3
ACAD_XREC_ROUNDTRIP
360
A06
  0
DICTIONARY
  5
9FF
330
390
100
AcDbDictionary
280
     1
281
     1
  3
ACAD_XREC_ROUNDTRIP
360
A00
  0
DICTIONARY
  5
A01
330
391
100
AcDbDictionary
280
     1
281
     1
  3
ACAD_XREC_ROUNDTRIP
360
A02
  0
DICTIONARY
  5
9EE
330
21
100
AcDbDictionary
280
     1
281
     1
  3
ACAD_XREC_ROUNDTRIP
360
9EF
  0
DICTIONARY
  5
9FB
330
38E
100
AcDbDictionary
280
     1
281
     1
  3
ACAD_XREC_ROUNDTRIP
360
9FC
  0
DICTIONARY
  5
A03
330
392
100
AcDbDictionary
280
     1
281
     1
  3
ACAD_XREC_ROUNDTRIP
360
A04
  0
XRECORD
  5
A29
102
{ACAD_REACTORS
330
A28
102
}
330
A28
100
AcDbXrecord
280
     1
102
SHADEPLOT
 70
     0
102
SHADEPLOTRESLEVEL
 70
     2
102
SHADEPLOTCUSTOMDPI
 70
   300
  0
XRECORD
  5
A27
102
{ACAD_REACTORS
330
A26
102
}
330
A26
100
AcDbXrecord
280
     1
102
SHADEPLOT
 70
     0
102
SHADEPLOTRESLEVEL
 70
     2
102
SHADEPLOTCUSTOMDPI
 70
   300
  0
XRECORD
  5
363
102
{ACAD_REACTORS
330
362
102
}
330
362
100
AcDbXrecord
280
     1
102
MATERIAL
148
0.0
149
0.0
149
0.0
 93
        0
 94
       63
282
     0
 72
     1
 77
     1
171
     1
175
     1
179
     1
273
     0
  0
XRECORD
  5
361
102
{ACAD_REACTORS
330
360
102
}
330
360
100
AcDbXrecord
280
     1
102
MATERIAL
148
0.0
149
0.0
149
0.0
 93
        0
 94
       63
282
     0
 72
     1
 77
     1
171
     1
175
     1
179
     1
273
     0
  0
XRECORD
  5
365
102
{ACAD_REACTORS
330
364
102
}
330
364
100
AcDbXrecord
280
     1
102
MATERIAL
148
0.0
149
0.0
149
0.0
 93
        0
 94
       63
282
     0
 72
     1
 77
     1
171
     1
175
     1
179
     1
273
     0
  0
CELLSTYLEMAP
  5
9CE
102
{ACAD_REACTORS
330
635
102
}
330
635
100
AcDbCellStyleMap
 90
        3
300
CELLSTYLE
  1
TABLEFORMAT_BEGIN
 90
        5
170
     1
 91
        0
 92
    32768
 62
   257
 93
        1
300
CONTENTFORMAT
  1
CONTENTFORMAT_BEGIN
 90
        0
 91
        0
 92
      512
 93
        0
300

 40
0.0
140
1.0
 94
        5
 62
     0
340
26
144
0.25
309
CONTENTFORMAT_END
171
     1
301
MARGIN
  1
CELLMARGIN_BEGIN
 40
0.06
 40
0.06
 40
0.06
 40
0.06
 40
0.18
 40
0.18
309
CELLMARGIN_END
 94
        6
 95
        1
302
GRIDFORMAT
  1
GRIDFORMAT_BEGIN
 90
        0
 91
        1
 62
     0
 92
       -2
340
0
 93
        0
 40
0.045
309
GRIDFORMAT_END
 95
        2
302
GRIDFORMAT
  1
GRIDFORMAT_BEGIN
 90
        0
 91
        1
 62
     0
 92
       -2
340
0
 93
        0
 40
0.045
309
GRIDFORMAT_END
 95
        4
302
GRIDFORMAT
  1
GRIDFORMAT_BEGIN
 90
        0
 91
        1
 62
     0
 92
       -2
340
0
 93
        0
 40
0.045
309
GRIDFORMAT_END
 95
        8
302
GRIDFORMAT
  1
GRIDFORMAT_BEGIN
 90
        0
 91
        1
 62
     0
 92
       -2
340
0
 93
        0
 40
0.045
309
GRIDFORMAT_END
 95
       16
302
GRIDFORMAT
  1
GRIDFORMAT_BEGIN
 90
        0
 91
        1
 62
     0
 92
       -2
340
0
 93
        0
 40
0.045
309
GRIDFORMAT_END
 95
       32
302
GRIDFORMAT
  1
GRIDFORMAT_BEGIN
 90
        0
 91
        1
 62
     0
 92
       -2
340
0
 93
        0
 40
0.045
309
GRIDFORMAT_END
309
TABLEFORMAT_END
  1
CELLSTYLE_BEGIN
 90
        1
 91
        1
300
_TITLE
309
CELLSTYLE_END
300
CELLSTYLE
  1
TABLEFORMAT_BEGIN
 90
        5
170
     1
 91
        0
 92
        0
 62
   257
 93
        1
300
CONTENTFORMAT
  1
CONTENTFORMAT_BEGIN
 90
        0
 91
        0
 92
      512
 93
        0
300

 40
0.0
140
1.0
 94
        5
 62
     0
340
26
144
0.18
309
CONTENTFORMAT_END
171
     1
301
MARGIN
  1
CELLMARGIN_BEGIN
 40
0.06
 40
0.06
 40
0.06
 40
0.06
 40
0.18
 40
0.18
309
CELLMARGIN_END
 94
        6
 95
        1
302
GRIDFORMAT
  1
GRIDFORMAT_BEGIN
 90
        0
 91
        1
 62
     0
 92
       -2
340
0
 93
        0
 40
0.045
309
GRIDFORMAT_END
 95
        2
302
GRIDFORMAT
  1
GRIDFORMAT_BEGIN
 90
        0
 91
        1
 62
     0
 92
       -2
340
0
 93
        0
 40
0.045
309
GRIDFORMAT_END
 95
        4
302
GRIDFORMAT
  1
GRIDFORMAT_BEGIN
 90
        0
 91
        1
 62
     0
 92
       -2
340
0
 93
        0
 40
0.045
309
GRIDFORMAT_END
 95
        8
302
GRIDFORMAT
  1
GRIDFORMAT_BEGIN
 90
        0
 91
        1
 62
     0
 92
       -2
340
0
 93
        0
 40
0.045
309
GRIDFORMAT_END
 95
       16
302
GRIDFORMAT
  1
GRIDFORMAT_BEGIN
 90
        0
 91
        1
 62
     0
 92
       -2
340
0
 93
        0
 40
0.045
309
GRIDFORMAT_END
 95
       32
302
GRIDFORMAT
  1
GRIDFORMAT_BEGIN
 90
        0
 91
        1
 62
     0
 92
       -2
340
0
 93
        0
 40
0.045
309
GRIDFORMAT_END
309
TABLEFORMAT_END
  1
CELLSTYLE_BEGIN
 90
        2
 91
        1
300
_HEADER
309
CELLSTYLE_END
300
CELLSTYLE
  1
TABLEFORMAT_BEGIN
 90
        5
170
     1
 91
        0
 92
        0
 62
   257
 93
        1
300
CONTENTFORMAT
  1
CONTENTFORMAT_BEGIN
 90
        0
 91
        0
 92
      512
 93
        0
300

 40
0.0
140
1.0
 94
        2
 62
     0
340
26
144
0.18
309
CONTENTFORMAT_END
171
     1
301
MARGIN
  1
CELLMARGIN_BEGIN
 40
0.06
 40
0.06
 40
0.06
 40
0.06
 40
0.18
 40
0.18
309
CELLMARGIN_END
 94
        6
 95
        1
302
GRIDFORMAT
  1
GRIDFORMAT_BEGIN
 90
        0
 91
        1
 62
     0
 92
       -2
340
0
 93
        0
 40
0.045
309
GRIDFORMAT_END
 95
        2
302
GRIDFORMAT
  1
GRIDFORMAT_BEGIN
 90
        0
 91
        1
 62
     0
 92
       -2
340
0
 93
        0
 40
0.045
309
GRIDFORMAT_END
 95
        4
302
GRIDFORMAT
  1
GRIDFORMAT_BEGIN
 90
        0
 91
        1
 62
     0
 92
       -2
340
0
 93
        0
 40
0.045
309
GRIDFORMAT_END
 95
        8
302
GRIDFORMAT
  1
GRIDFORMAT_BEGIN
 90
        0
 91
        1
 62
     0
 92
       -2
340
0
 93
        0
 40
0.045
309
GRIDFORMAT_END
 95
       16
302
GRIDFORMAT
  1
GRIDFORMAT_BEGIN
 90
        0
 91
        1
 62
     0
 92
       -2
340
0
 93
        0
 40
0.045
309
GRIDFORMAT_END
 95
       32
302
GRIDFORMAT
  1
GRIDFORMAT_BEGIN
 90
        0
 91
        1
 62
     0
 92
       -2
340
0
 93
        0
 40
0.045
309
GRIDFORMAT_END
309
TABLEFORMAT_END
  1
CELLSTYLE_BEGIN
 90
        3
 91
        2
300
_DATA
309
CELLSTYLE_END
1001
ACAD
1000
AcRTDxfName
1000
CELLSTYLEMAP
  0
XRECORD
  5
A25
102
{ACAD_REACTORS
330
635
102
}
330
635
100
AcDbXrecord
280
     1
102
ACAD_ROUNDTRIP_PRE2007_TABLESTYLE
 90
      512
 91
        0
  1

 92
      512
 93
        0
  2

 94
      512
 95
        0
  3

  0
XRECORD
  5
9E1
102
{ACAD_REACTORS
330
9E0
102
}
330
9E0
100
AcDbXrecord
280
     1
102
RTVSPropertyOp0
 70
     1
102
RTVSPropertyOp1
 70
     1
102
RTVSPropertyOp2
 70
     1
102
RTVSPropertyOp3
 70
     1
102
RTVSPropertyOp4
 70
     1
102
RTVSPropertyOp5
 70
     1
102
RTVSPropertyOp6
 70
     1
102
RTVSPropertyOp7
 70
     1
102
RTVSPropertyOp8
 70
     1
102
RTVSPropertyOp9
 70
     1
102
RTVSPropertyOp10
 70
     1
102
RTVSPropertyOp11
 70
     1
102
RTVSPropertyOp12
 70
     1
102
RTVSPropertyOp13
 70
     1
102
RTVSPropertyOp14
 70
     1
102
RTVSPropertyOp15
 70
     1
102
RTVSPropertyOp16
 70
     1
102
RTVSPropertyOp17
 70
     1
102
RTVSPropertyOp18
 70
     1
102
RTVSPropertyOp19
 70
     1
102
RTVSPropertyOp20
 70
     1
102
RTVSPropertyOp21
 70
     1
102
RTVSPropertyOp22
 70
     1
102
RTVSPropertyOp23
 70
     1
102
RTVSPropertyOp24
 70
     1
102
RTVSPropertyOp25
 70
     1
102
RTVSPropertyOp26
 70
     1
102
RTVSPropertyOp27
 70
     1
102
RTVSPropertyOp28
 70
     1
102
RTVSPropertyOp29
 70
     1
102
RTVSPropertyOp30
 70
     1
102
RTVSPropertyOp31
 70
     1
102
RTVSPropertyOp32
 70
     1
  0
XRECORD
  5
9E5
102
{ACAD_REACTORS
330
9E4
102
}
330
9E4
100
AcDbXrecord
280
     1
102
RTVSPropertyOp0
 70
     1
102
RTVSPropertyOp1
 70
     1
102
RTVSPropertyOp2
 70
     1
102
RTVSPropertyOp3
 70
     1
102
RTVSPropertyOp4
 70
     1
102
RTVSPropertyOp5
 70
     1
102
RTVSPropertyOp6
 70
     1
102
RTVSPropertyOp7
 70
     1
102
RTVSPropertyOp8
 70
     1
102
RTVSPropertyOp9
 70
     1
102
RTVSPropertyOp10
 70
     1
102
RTVSPropertyOp11
 70
     1
102
RTVSPropertyOp12
 70
     1
102
RTVSPropertyOp13
 70
     1
102
RTVSPropertyOp14
 70
     1
102
RTVSPropertyOp15
 70
     1
102
RTVSPropertyOp16
 70
     1
102
RTVSPropertyOp17
 70
     1
102
RTVSPropertyOp18
 70
     1
102
RTVSPropertyOp19
 70
     1
102
RTVSPropertyOp20
 70
     1
102
RTVSPropertyOp21
 70
     1
102
RTVSPropertyOp22
 70
     1
102
RTVSPropertyOp23
 70
     1
102
RTVSPropertyOp24
 70
     1
102
RTVSPropertyOp25
 70
     1
102
RTVSPropertyOp26
 70
     1
102
RTVSPropertyOp27
 70
     1
102
RTVSPropertyOp28
 70
     1
102
RTVSPropertyOp29
 70
     1
102
RTVSPropertyOp30
 70
     1
102
RTVSPropertyOp31
 70
     1
102
RTVSPropertyOp32
 70
     1
  0
XRECORD
  5
9E3
102
{ACAD_REACTORS
330
9E2
102
}
330
9E2
100
AcDbXrecord
280
     1
102
RTVSPropertyOp0
 70
     1
102
RTVSPropertyOp1
 70
     1
102
RTVSPropertyOp2
 70
     1
102
RTVSPropertyOp3
 70
     1
102
RTVSPropertyOp4
 70
     1
102
RTVSPropertyOp5
 70
     1
102
RTVSPropertyOp6
 70
     1
102
RTVSPropertyOp7
 70
     1
102
RTVSPropertyOp8
 70
     1
102
RTVSPropertyOp9
 70
     1
102
RTVSPropertyOp10
 70
     1
102
RTVSPropertyOp11
 70
     1
102
RTVSPropertyOp12
 70
     1
102
RTVSPropertyOp13
 70
     1
102
RTVSPropertyOp14
 70
     1
102
RTVSPropertyOp15
 70
     1
102
RTVSPropertyOp16
 70
     1
102
RTVSPropertyOp17
 70
     1
102
RTVSPropertyOp18
 70
     1
102
RTVSPropertyOp19
 70
     1
102
RTVSPropertyOp20
 70
     1
102
RTVSPropertyOp21
 70
     1
102
RTVSPropertyOp22
 70
     1
102
RTVSPropertyOp23
 70
     1
102
RTVSPropertyOp24
 70
     1
102
RTVSPropertyOp25
 70
     1
102
RTVSPropertyOp26
 70
     1
102
RTVSPropertyOp27
 70
     1
102
RTVSPropertyOp28
 70
     1
102
RTVSPropertyOp29
 70
     1
102
RTVSPropertyOp30
 70
     1
102
RTVSPropertyOp31
 70
     1
102
RTVSPropertyOp32
 70
     1
  0
XRECORD
  5
9DF
102
{ACAD_REACTORS
330
9DE
102
}
330
9DE
100
AcDbXrecord
280
     1
102
RTVSPropertyOp0
 70
     1
102
RTVSPropertyOp1
 70
     1
102
RTVSPropertyOp2
 70
     1
102
RTVSPropertyOp3
 70
     1
102
RTVSPropertyOp4
 70
     1
102
RTVSPropertyOp5
 70
     1
102
RTVSPropertyOp6
 70
     1
102
RTVSPropertyOp7
 70
     1
102
RTVSPropertyOp8
 70
     1
102
RTVSPropertyOp9
 70
     1
102
RTVSPropertyOp10
 70
     1
102
RTVSPropertyOp11
 70
     1
102
RTVSPropertyOp12
 70
     1
102
RTVSPropertyOp13
 70
     1
102
RTVSPropertyOp14
 70
     1
102
RTVSPropertyOp15
 70
     1
102
RTVSPropertyOp16
 70
     1
102
RTVSPropertyOp17
 70
     1
102
RTVSPropertyOp18
 70
     1
102
RTVSPropertyOp19
 70
     1
102
RTVSPropertyOp20
 70
     1
102
RTVSPropertyOp21
 70
     1
102
RTVSPropertyOp22
 70
     1
102
RTVSPropertyOp23
 70
     1
102
RTVSPropertyOp24
 70
     1
102
RTVSPropertyOp25
 70
     1
102
RTVSPropertyOp26
 70
     1
102
RTVSPropertyOp27
 70
     1
102
RTVSPropertyOp28
 70
     1
102
RTVSPropertyOp29
 70
     1
102
RTVSPropertyOp30
 70
     1
102
RTVSPropertyOp31
 70
     1
102
RTVSPropertyOp32
 70
     1
  0
XRECORD
  5
9ED
102
{ACAD_REACTORS
330
9EC
102
}
330
9EC
100
AcDbXrecord
280
     1
102
RTVSPropertyOp0
 70
     1
102
RTVSPropertyOp1
 70
     1
102
RTVSPropertyOp2
 70
     1
102
RTVSPropertyOp3
 70
     1
102
RTVSPropertyOp4
 70
     1
102
RTVSPropertyOp5
 70
     1
102
RTVSPropertyOp6
 70
     1
102
RTVSPropertyOp7
 70
     1
102
RTVSPropertyOp8
 70
     1
102
RTVSPropertyOp9
 70
     1
102
RTVSPropertyOp10
 70
     1
102
RTVSPropertyOp11
 70
     1
102
RTVSPropertyOp12
 70
     1
102
RTVSPropertyOp13
 70
     1
102
RTVSPropertyOp14
 70
     1
102
RTVSPropertyOp15
 70
     1
102
RTVSPropertyOp16
 70
     1
102
RTVSPropertyOp17
 70
     1
102
RTVSPropertyOp18
 70
     1
102
RTVSPropertyOp19
 70
     1
102
RTVSPropertyOp20
 70
     1
102
RTVSPropertyOp21
 70
     1
102
RTVSPropertyOp22
 70
     1
102
RTVSPropertyOp23
 70
     1
102
RTVSPropertyOp24
 70
     1
102
RTVSPropertyOp25
 70
     1
102
RTVSPropertyOp26
 70
     1
102
RTVSPropertyOp27
 70
     1
102
RTVSPropertyOp28
 70
     1
102
RTVSPropertyOp29
 70
     1
102
RTVSPropertyOp30
 70
     1
102
RTVSPropertyOp31
 70
     1
102
RTVSPropertyOp32
 70
     1
  0
XRECORD
  5
9F5
102
{ACAD_REACTORS
330
9F4
102
}
330
9F4
100
AcDbXrecord
280
     1
102
RTVSPropertyOp0
 70
     1
102
RTVSPropertyOp1
 70
     1
102
RTVSPropertyOp2
 70
     1
102
RTVSPropertyOp3
 70
     1
102
RTVSPropertyOp4
 70
     1
102
RTVSPropertyOp5
 70
     1
102
RTVSPropertyOp6
 70
     1
102
RTVSPropertyOp7
 70
     1
102
RTVSPropertyOp8
 70
     1
102
RTVSPropertyOp9
 70
     1
102
RTVSPropertyOp10
 70
     1
102
RTVSPropertyOp11
 70
     1
102
RTVSPropertyOp12
 70
     1
102
RTVSPropertyOp13
 70
     1
102
RTVSPropertyOp14
 70
     1
102
RTVSPropertyOp15
 70
     1
102
RTVSPropertyOp16
 70
     1
102
RTVSPropertyOp17
 70
     1
102
RTVSPropertyOp18
 70
     1
102
RTVSPropertyOp19
 70
     1
102
RTVSPropertyOp20
 70
     1
102
RTVSPropertyOp21
 70
     1
102
RTVSPropertyOp22
 70
     1
102
RTVSPropertyOp23
 70
     1
102
RTVSPropertyOp24
 70
     1
102
RTVSPropertyOp25
 70
     1
102
RTVSPropertyOp26
 70
     1
102
RTVSPropertyOp27
 70
     1
102
RTVSPropertyOp28
 70
     1
102
RTVSPropertyOp29
 70
     1
102
RTVSPropertyOp30
 70
     1
102
RTVSPropertyOp31
 70
     1
102
RTVSPropertyOp32
 70
     1
  0
XRECORD
  5
9E7
102
{ACAD_REACTORS
330
9E6
102
}
330
9E6
100
AcDbXrecord
280
     1
102
RTVSPropertyOp0
 70
     1
102
RTVSPropertyOp1
 70
     1
102
RTVSPropertyOp2
 70
     1
102
RTVSPropertyOp3
 70
     1
102
RTVSPropertyOp4
 70
     1
102
RTVSPropertyOp5
 70
     1
102
RTVSPropertyOp6
 70
     1
102
RTVSPropertyOp7
 70
     1
102
RTVSPropertyOp8
 70
     1
102
RTVSPropertyOp9
 70
     1
102
RTVSPropertyOp10
 70
     1
102
RTVSPropertyOp11
 70
     1
102
RTVSPropertyOp12
 70
     1
102
RTVSPropertyOp13
 70
     1
102
RTVSPropertyOp14
 70
     1
102
RTVSPropertyOp15
 70
     1
102
RTVSPropertyOp16
 70
     1
102
RTVSPropertyOp17
 70
     1
102
RTVSPropertyOp18
 70
     1
102
RTVSPropertyOp19
 70
     1
102
RTVSPropertyOp20
 70
     1
102
RTVSPropertyOp21
 70
     1
102
RTVSPropertyOp22
 70
     1
102
RTVSPropertyOp23
 70
     1
102
RTVSPropertyOp24
 70
     1
102
RTVSPropertyOp25
 70
     1
102
RTVSPropertyOp26
 70
     1
102
RTVSPropertyOp27
 70
     1
102
RTVSPropertyOp28
 70
     1
102
RTVSPropertyOp29
 70
     1
102
RTVSPropertyOp30
 70
     1
102
RTVSPropertyOp31
 70
     1
102
RTVSPropertyOp32
 70
     1
  0
XRECORD
  5
9EB
102
{ACAD_REACTORS
330
9EA
102
}
330
9EA
100
AcDbXrecord
280
     1
102
RTVSPropertyOp0
 70
     1
102
RTVSPropertyOp1
 70
     1
102
RTVSPropertyOp2
 70
     1
102
RTVSPropertyOp3
 70
     1
102
RTVSPropertyOp4
 70
     1
102
RTVSPropertyOp5
 70
     1
102
RTVSPropertyOp6
 70
     1
102
RTVSPropertyOp7
 70
     1
102
RTVSPropertyOp8
 70
     1
102
RTVSPropertyOp9
 70
     1
102
RTVSPropertyOp10
 70
     1
102
RTVSPropertyOp11
 70
     1
102
RTVSPropertyOp12
 70
     1
102
RTVSPropertyOp13
 70
     1
102
RTVSPropertyOp14
 70
     1
102
RTVSPropertyOp15
 70
     1
102
RTVSPropertyOp16
 70
     1
102
RTVSPropertyOp17
 70
     1
102
RTVSPropertyOp18
 70
     1
102
RTVSPropertyOp19
 70
     1
102
RTVSPropertyOp20
 70
     1
102
RTVSPropertyOp21
 70
     1
102
RTVSPropertyOp22
 70
     1
102
RTVSPropertyOp23
 70
     1
102
RTVSPropertyOp24
 70
     1
102
RTVSPropertyOp25
 70
     1
102
RTVSPropertyOp26
 70
     1
102
RTVSPropertyOp27
 70
     1
102
RTVSPropertyOp28
 70
     1
102
RTVSPropertyOp29
 70
     1
102
RTVSPropertyOp30
 70
     1
102
RTVSPropertyOp31
 70
     1
102
RTVSPropertyOp32
 70
     1
  0
XRECORD
  5
A0E
102
{ACAD_REACTORS
330
A0D
102
}
330
A0D
100
AcDbXrecord
280
     1
102
RTVSPropertyOp0
 70
     0
102
RTVSPropertyOp1
 70
     0
102
RTVSPropertyOp2
 70
     0
102
RTVSPropertyOp3
 70
     0
102
RTVSPropertyOp4
 70
     0
102
RTVSPropertyOp5
 70
     0
102
RTVSPropertyOp6
 70
     0
102
RTVSPropertyOp7
 70
     0
102
RTVSPropertyOp8
 70
     0
102
RTVSPropertyOp9
 70
     0
102
RTVSPropertyOp10
 70
     0
102
RTVSPropertyOp11
 70
     0
102
RTVSPropertyOp12
 70
     0
102
RTVSPropertyOp13
 70
     0
102
RTVSPropertyOp14
 70
     2
102
RTVSPropertyOp15
 70
     0
102
RTVSPropertyOp16
 70
     0
102
RTVSPropertyOp17
 70
     0
102
RTVSPropertyOp18
 70
     0
102
RTVSPropertyOp19
 70
     0
102
RTVSPropertyOp20
 70
     0
102
RTVSPropertyOp21
 70
     0
102
RTVSPropertyOp22
 70
     0
102
RTVSPropertyOp23
 70
     0
102
RTVSPropertyOp24
 70
     0
102
RTVSPropertyOp25
 70
     0
102
RTVSPropertyOp26
 70
     0
102
RTVSPropertyOp27
 70
     0
102
RTVSPropertyOp28
 70
     0
102
RTVSPropertyOp29
 70
     0
102
RTVSPropertyOp30
 70
     0
102
RTVSPropertyOp31
 70
     0
102
RTVSPropertyOp32
 70
     0
  0
XRECORD
  5
9F3
102
{ACAD_REACTORS
330
9F2
102
}
330
9F2
100
AcDbXrecord
280
     1
102
RTVSPropertyOp0
 70
     1
102
RTVSPropertyOp1
 70
     1
102
RTVSPropertyOp2
 70
     1
102
RTVSPropertyOp3
 70
     1
102
RTVSPropertyOp4
 70
     1
102
RTVSPropertyOp5
 70
     1
102
RTVSPropertyOp6
 70
     1
102
RTVSPropertyOp7
 70
     1
102
RTVSPropertyOp8
 70
     1
102
RTVSPropertyOp9
 70
     1
102
RTVSPropertyOp10
 70
     1
102
RTVSPropertyOp11
 70
     1
102
RTVSPropertyOp12
 70
     1
102
RTVSPropertyOp13
 70
     1
102
RTVSPropertyOp14
 70
     1
102
RTVSPropertyOp15
 70
     1
102
RTVSPropertyOp16
 70
     1
102
RTVSPropertyOp17
 70
     1
102
RTVSPropertyOp18
 70
     1
102
RTVSPropertyOp19
 70
     1
102
RTVSPropertyOp20
 70
     1
102
RTVSPropertyOp21
 70
     1
102
RTVSPropertyOp22
 70
     1
102
RTVSPropertyOp23
 70
     1
102
RTVSPropertyOp24
 70
     1
102
RTVSPropertyOp25
 70
     1
102
RTVSPropertyOp26
 70
     1
102
RTVSPropertyOp27
 70
     1
102
RTVSPropertyOp28
 70
     1
102
RTVSPropertyOp29
 70
     1
102
RTVSPropertyOp30
 70
     1
102
RTVSPropertyOp31
 70
     1
102
RTVSPropertyOp32
 70
     1
  0
XRECORD
  5
9D7
102
{ACAD_REACTORS
330
9D6
102
}
330
9D6
100
AcDbXrecord
280
     1
102
RTVSPropertyOp0
 70
     1
102
RTVSPropertyOp1
 70
     1
102
RTVSPropertyOp2
 70
     1
102
RTVSPropertyOp3
 70
     1
102
RTVSPropertyOp4
 70
     1
102
RTVSPropertyOp5
 70
     1
102
RTVSPropertyOp6
 70
     1
102
RTVSPropertyOp7
 70
     1
102
RTVSPropertyOp8
 70
     1
102
RTVSPropertyOp9
 70
     1
102
RTVSPropertyOp10
 70
     1
102
RTVSPropertyOp11
 70
     1
102
RTVSPropertyOp12
 70
     1
102
RTVSPropertyOp13
 70
     1
102
RTVSPropertyOp14
 70
     1
102
RTVSPropertyOp15
 70
     1
102
RTVSPropertyOp16
 70
     1
102
RTVSPropertyOp17
 70
     1
102
RTVSPropertyOp18
 70
     1
102
RTVSPropertyOp19
 70
     1
102
RTVSPropertyOp20
 70
     1
102
RTVSPropertyOp21
 70
     1
102
RTVSPropertyOp22
 70
     1
102
RTVSPropertyOp23
 70
     1
102
RTVSPropertyOp24
 70
     1
102
RTVSPropertyOp25
 70
     1
102
RTVSPropertyOp26
 70
     1
102
RTVSPropertyOp27
 70
     1
102
RTVSPropertyOp28
 70
     1
102
RTVSPropertyOp29
 70
     1
102
RTVSPropertyOp30
 70
     1
102
RTVSPropertyOp31
 70
     1
102
RTVSPropertyOp32
 70
     1
  0
XRECORD
  5
9D9
102
{ACAD_REACTORS
330
9D8
102
}
330
9D8
100
AcDbXrecord
280
     1
102
RTVSPropertyOp0
 70
     1
102
RTVSPropertyOp1
 70
     1
102
RTVSPropertyOp2
 70
     1
102
RTVSPropertyOp3
 70
     1
102
RTVSPropertyOp4
 70
     1
102
RTVSPropertyOp5
 70
     1
102
RTVSPropertyOp6
 70
     1
102
RTVSPropertyOp7
 70
     1
102
RTVSPropertyOp8
 70
     1
102
RTVSPropertyOp9
 70
     1
102
RTVSPropertyOp10
 70
     1
102
RTVSPropertyOp11
 70
     1
102
RTVSPropertyOp12
 70
     1
102
RTVSPropertyOp13
 70
     1
102
RTVSPropertyOp14
 70
     1
102
RTVSPropertyOp15
 70
     1
102
RTVSPropertyOp16
 70
     1
102
RTVSPropertyOp17
 70
     1
102
RTVSPropertyOp18
 70
     1
102
RTVSPropertyOp19
 70
     1
102
RTVSPropertyOp20
 70
     1
102
RTVSPropertyOp21
 70
     1
102
RTVSPropertyOp22
 70
     1
102
RTVSPropertyOp23
 70
     1
102
RTVSPropertyOp24
 70
     1
102
RTVSPropertyOp25
 70
     1
102
RTVSPropertyOp26
 70
     1
102
RTVSPropertyOp27
 70
     1
102
RTVSPropertyOp28
 70
     1
102
RTVSPropertyOp29
 70
     1
102
RTVSPropertyOp30
 70
     1
102
RTVSPropertyOp31
 70
     1
102
RTVSPropertyOp32
 70
     1
  0
XRECORD
  5
9DB
102
{ACAD_REACTORS
330
9DA
102
}
330
9DA
100
AcDbXrecord
280
     1
102
RTVSPropertyOp0
 70
     1
102
RTVSPropertyOp1
 70
     1
102
RTVSPropertyOp2
 70
     1
102
RTVSPropertyOp3
 70
     1
102
RTVSPropertyOp4
 70
     1
102
RTVSPropertyOp5
 70
     1
102
RTVSPropertyOp6
 70
     1
102
RTVSPropertyOp7
 70
     1
102
RTVSPropertyOp8
 70
     1
102
RTVSPropertyOp9
 70
     1
102
RTVSPropertyOp10
 70
     1
102
RTVSPropertyOp11
 70
     1
102
RTVSPropertyOp12
 70
     1
102
RTVSPropertyOp13
 70
     1
102
RTVSPropertyOp14
 70
     1
102
RTVSPropertyOp15
 70
     1
102
RTVSPropertyOp16
 70
     1
102
RTVSPropertyOp17
 70
     1
102
RTVSPropertyOp18
 70
     1
102
RTVSPropertyOp19
 70
     1
102
RTVSPropertyOp20
 70
     1
102
RTVSPropertyOp21
 70
     1
102
RTVSPropertyOp22
 70
     1
102
RTVSPropertyOp23
 70
     1
102
RTVSPropertyOp24
 70
     1
102
RTVSPropertyOp25
 70
     1
102
RTVSPropertyOp26
 70
     1
102
RTVSPropertyOp27
 70
     1
102
RTVSPropertyOp28
 70
     1
102
RTVSPropertyOp29
 70
     1
102
RTVSPropertyOp30
 70
     1
102
RTVSPropertyOp31
 70
     1
102
RTVSPropertyOp32
 70
     1
  0
XRECORD
  5
9DD
102
{ACAD_REACTORS
330
9DC
102
}
330
9DC
100
AcDbXrecord
280
     1
102
RTVSPropertyOp0
 70
     1
102
RTVSPropertyOp1
 70
     1
102
RTVSPropertyOp2
 70
     1
102
RTVSPropertyOp3
 70
     1
102
RTVSPropertyOp4
 70
     1
102
RTVSPropertyOp5
 70
     1
102
RTVSPropertyOp6
 70
     1
102
RTVSPropertyOp7
 70
     1
102
RTVSPropertyOp8
 70
     1
102
RTVSPropertyOp9
 70
     1
102
RTVSPropertyOp10
 70
     1
102
RTVSPropertyOp11
 70
     1
102
RTVSPropertyOp12
 70
     1
102
RTVSPropertyOp13
 70
     1
102
RTVSPropertyOp14
 70
     1
102
RTVSPropertyOp15
 70
     1
102
RTVSPropertyOp16
 70
     1
102
RTVSPropertyOp17
 70
     1
102
RTVSPropertyOp18
 70
     1
102
RTVSPropertyOp19
 70
     1
102
RTVSPropertyOp20
 70
     1
102
RTVSPropertyOp21
 70
     1
102
RTVSPropertyOp22
 70
     1
102
RTVSPropertyOp23
 70
     1
102
RTVSPropertyOp24
 70
     1
102
RTVSPropertyOp25
 70
     1
102
RTVSPropertyOp26
 70
     1
102
RTVSPropertyOp27
 70
     1
102
RTVSPropertyOp28
 70
     1
102
RTVSPropertyOp29
 70
     1
102
RTVSPropertyOp30
 70
     1
102
RTVSPropertyOp31
 70
     1
102
RTVSPropertyOp32
 70
     1
  0
XRECORD
  5
9FE
102
{ACAD_REACTORS
330
9FD
102
}
330
9FD
100
AcDbXrecord
280
     1
102
RTVSPropertyOp0
 70
     1
102
RTVSPropertyOp1
 70
     1
102
RTVSPropertyOp2
 70
     1
102
RTVSPropertyOp3
 70
     1
102
RTVSPropertyOp4
 70
     1
102
RTVSPropertyOp5
 70
     1
102
RTVSPropertyOp6
 70
     1
102
RTVSPropertyOp7
 70
     1
102
RTVSPropertyOp8
 70
     1
102
RTVSPropertyOp9
 70
     1
102
RTVSPropertyOp10
 70
     1
102
RTVSPropertyOp11
 70
     1
102
RTVSPropertyOp12
 70
     1
102
RTVSPropertyOp13
 70
     1
102
RTVSPropertyOp14
 70
     1
102
RTVSPropertyOp15
 70
     1
102
RTVSPropertyOp16
 70
     1
102
RTVSPropertyOp17
 70
     1
102
RTVSPropertyOp18
 70
     1
102
RTVSPropertyOp19
 70
     1
102
RTVSPropertyOp20
 70
     1
102
RTVSPropertyOp21
 70
     1
102
RTVSPropertyOp22
 70
     1
102
RTVSPropertyOp23
 70
     1
102
RTVSPropertyOp24
 70
     1
102
RTVSPropertyOp25
 70
     1
102
RTVSPropertyOp26
 70
     1
102
RTVSPropertyOp27
 70
     1
102
RTVSPropertyOp28
 70
     1
102
RTVSPropertyOp29
 70
     1
102
RTVSPropertyOp30
 70
     1
102
RTVSPropertyOp31
 70
     1
102
RTVSPropertyOp32
 70
     1
  0
XRECORD
  5
A0A
102
{ACAD_REACTORS
330
A09
102
}
330
A09
100
AcDbXrecord
280
     1
102
RTVSPropertyOp0
 70
     0
102
RTVSPropertyOp1
 70
     0
102
RTVSPropertyOp2
 70
     0
102
RTVSPropertyOp3
 70
     0
102
RTVSPropertyOp4
 70
     0
102
RTVSPropertyOp5
 70
     0
102
RTVSPropertyOp6
 70
     0
102
RTVSPropertyOp7
 70
     0
102
RTVSPropertyOp8
 70
     0
102
RTVSPropertyOp9
 70
     0
102
RTVSPropertyOp10
 70
     0
102
RTVSPropertyOp11
 70
     0
102
RTVSPropertyOp12
 70
     0
102
RTVSPropertyOp13
 70
     0
102
RTVSPropertyOp14
 70
     2
102
RTVSPropertyOp15
 70
     0
102
RTVSPropertyOp16
 70
     0
102
RTVSPropertyOp17
 70
     0
102
RTVSPropertyOp18
 70
     0
102
RTVSPropertyOp19
 70
     0
102
RTVSPropertyOp20
 70
     0
102
RTVSPropertyOp21
 70
     0
102
RTVSPropertyOp22
 70
     0
102
RTVSPropertyOp23
 70
     0
102
RTVSPropertyOp24
 70
     0
102
RTVSPropertyOp25
 70
     0
102
RTVSPropertyOp26
 70
     0
102
RTVSPropertyOp27
 70
     0
102
RTVSPropertyOp28
 70
     0
102
RTVSPropertyOp29
 70
     0
102
RTVSPropertyOp30
 70
     0
102
RTVSPropertyOp31
 70
     0
102
RTVSPropertyOp32
 70
     0
  0
XRECORD
  5
9F1
102
{ACAD_REACTORS
330
9F0
102
}
330
9F0
100
AcDbXrecord
280
     1
102
RTVSPropertyOp0
 70
     1
102
RTVSPropertyOp1
 70
     1
102
RTVSPropertyOp2
 70
     1
102
RTVSPropertyOp3
 70
     1
102
RTVSPropertyOp4
 70
     1
102
RTVSPropertyOp5
 70
     1
102
RTVSPropertyOp6
 70
     1
102
RTVSPropertyOp7
 70
     1
102
RTVSPropertyOp8
 70
     1
102
RTVSPropertyOp9
 70
     1
102
RTVSPropertyOp10
 70
     1
102
RTVSPropertyOp11
 70
     1
102
RTVSPropertyOp12
 70
     1
102
RTVSPropertyOp13
 70
     1
102
RTVSPropertyOp14
 70
     1
102
RTVSPropertyOp15
 70
     1
102
RTVSPropertyOp16
 70
     1
102
RTVSPropertyOp17
 70
     1
102
RTVSPropertyOp18
 70
     1
102
RTVSPropertyOp19
 70
     1
102
RTVSPropertyOp20
 70
     1
102
RTVSPropertyOp21
 70
     1
102
RTVSPropertyOp22
 70
     1
102
RTVSPropertyOp23
 70
     1
102
RTVSPropertyOp24
 70
     1
102
RTVSPropertyOp25
 70
     1
102
RTVSPropertyOp26
 70
     1
102
RTVSPropertyOp27
 70
     1
102
RTVSPropertyOp28
 70
     1
102
RTVSPropertyOp29
 70
     1
102
RTVSPropertyOp30
 70
     1
102
RTVSPropertyOp31
 70
     1
102
RTVSPropertyOp32
 70
     1
  0
XRECORD
  5
A0C
102
{ACAD_REACTORS
330
A0B
102
}
330
A0B
100
AcDbXrecord
280
     1
102
RTVSPropertyOp0
 70
     0
102
RTVSPropertyOp1
 70
     0
102
RTVSPropertyOp2
 70
     0
102
RTVSPropertyOp3
 70
     0
102
RTVSPropertyOp4
 70
     0
102
RTVSPropertyOp5
 70
     0
102
RTVSPropertyOp6
 70
     0
102
RTVSPropertyOp7
 70
     0
102
RTVSPropertyOp8
 70
     0
102
RTVSPropertyOp9
 70
     0
102
RTVSPropertyOp10
 70
     0
102
RTVSPropertyOp11
 70
     0
102
RTVSPropertyOp12
 70
     0
102
RTVSPropertyOp13
 70
     0
102
RTVSPropertyOp14
 70
     2
102
RTVSPropertyOp15
 70
     0
102
RTVSPropertyOp16
 70
     0
102
RTVSPropertyOp17
 70
     0
102
RTVSPropertyOp18
 70
     0
102
RTVSPropertyOp19
 70
     0
102
RTVSPropertyOp20
 70
     0
102
RTVSPropertyOp21
 70
     0
102
RTVSPropertyOp22
 70
     0
102
RTVSPropertyOp23
 70
     0
102
RTVSPropertyOp24
 70
     0
102
RTVSPropertyOp25
 70
     0
102
RTVSPropertyOp26
 70
     0
102
RTVSPropertyOp27
 70
     0
102
RTVSPropertyOp28
 70
     0
102
RTVSPropertyOp29
 70
     0
102
RTVSPropertyOp30
 70
     0
102
RTVSPropertyOp31
 70
     0
102
RTVSPropertyOp32
 70
     0
  0
XRECORD
  5
9E9
102
{ACAD_REACTORS
330
9E8
102
}
330
9E8
100
AcDbXrecord
280
     1
102
RTVSPropertyOp0
 70
     1
102
RTVSPropertyOp1
 70
     1
102
RTVSPropertyOp2
 70
     1
102
RTVSPropertyOp3
 70
     1
102
RTVSPropertyOp4
 70
     1
102
RTVSPropertyOp5
 70
     1
102
RTVSPropertyOp6
 70
     1
102
RTVSPropertyOp7
 70
     1
102
RTVSPropertyOp8
 70
     1
102
RTVSPropertyOp9
 70
     1
102
RTVSPropertyOp10
 70
     1
102
RTVSPropertyOp11
 70
     1
102
RTVSPropertyOp12
 70
     1
102
RTVSPropertyOp13
 70
     1
102
RTVSPropertyOp14
 70
     1
102
RTVSPropertyOp15
 70
     1
102
RTVSPropertyOp16
 70
     1
102
RTVSPropertyOp17
 70
     1
102
RTVSPropertyOp18
 70
     1
102
RTVSPropertyOp19
 70
     1
102
RTVSPropertyOp20
 70
     1
102
RTVSPropertyOp21
 70
     1
102
RTVSPropertyOp22
 70
     1
102
RTVSPropertyOp23
 70
     1
102
RTVSPropertyOp24
 70
     1
102
RTVSPropertyOp25
 70
     1
102
RTVSPropertyOp26
 70
     1
102
RTVSPropertyOp27
 70
     1
102
RTVSPropertyOp28
 70
     1
102
RTVSPropertyOp29
 70
     1
102
RTVSPropertyOp30
 70
     1
102
RTVSPropertyOp31
 70
     1
102
RTVSPropertyOp32
 70
     1
  0
XRECORD
  5
A08
102
{ACAD_REACTORS
330
A07
102
}
330
A07
100
AcDbXrecord
280
     1
102
RTVSPropertyOp0
 70
     1
102
RTVSPropertyOp1
 70
     1
102
RTVSPropertyOp2
 70
     1
102
RTVSPropertyOp3
 70
     1
102
RTVSPropertyOp4
 70
     1
102
RTVSPropertyOp5
 70
     1
102
RTVSPropertyOp6
 70
     1
102
RTVSPropertyOp7
 70
     1
102
RTVSPropertyOp8
 70
     1
102
RTVSPropertyOp9
 70
     1
102
RTVSPropertyOp10
 70
     1
102
RTVSPropertyOp11
 70
     1
102
RTVSPropertyOp12
 70
     1
102
RTVSPropertyOp13
 70
     1
102
RTVSPropertyOp14
 70
     1
102
RTVSPropertyOp15
 70
     1
102
RTVSPropertyOp16
 70
     1
102
RTVSPropertyOp17
 70
     1
102
RTVSPropertyOp18
 70
     1
102
RTVSPropertyOp19
 70
     1
102
RTVSPropertyOp20
 70
     1
102
RTVSPropertyOp21
 70
     1
102
RTVSPropertyOp22
 70
     1
102
RTVSPropertyOp23
 70
     1
102
RTVSPropertyOp24
 70
     1
102
RTVSPropertyOp25
 70
     1
102
RTVSPropertyOp26
 70
     1
102
RTVSPropertyOp27
 70
     1
102
RTVSPropertyOp28
 70
     1
102
RTVSPropertyOp29
 70
     1
102
RTVSPropertyOp30
 70
     1
102
RTVSPropertyOp31
 70
     1
102
RTVSPropertyOp32
 70
     1
  0
XRECORD
  5
A06
102
{ACAD_REACTORS
330
A05
102
}
330
A05
100
AcDbXrecord
280
     1
102
RTVSPropertyOp0
 70
     1
102
RTVSPropertyOp1
 70
     1
102
RTVSPropertyOp2
 70
     1
102
RTVSPropertyOp3
 70
     1
102
RTVSPropertyOp4
 70
     1
102
RTVSPropertyOp5
 70
     1
102
RTVSPropertyOp6
 70
     1
102
RTVSPropertyOp7
 70
     1
102
RTVSPropertyOp8
 70
     1
102
RTVSPropertyOp9
 70
     1
102
RTVSPropertyOp10
 70
     1
102
RTVSPropertyOp11
 70
     1
102
RTVSPropertyOp12
 70
     1
102
RTVSPropertyOp13
 70
     1
102
RTVSPropertyOp14
 70
     1
102
RTVSPropertyOp15
 70
     1
102
RTVSPropertyOp16
 70
     1
102
RTVSPropertyOp17
 70
     1
102
RTVSPropertyOp18
 70
     1
102
RTVSPropertyOp19
 70
     1
102
RTVSPropertyOp20
 70
     1
102
RTVSPropertyOp21
 70
     1
102
RTVSPropertyOp22
 70
     1
102
RTVSPropertyOp23
 70
     1
102
RTVSPropertyOp24
 70
     1
102
RTVSPropertyOp25
 70
     1
102
RTVSPropertyOp26
 70
     1
102
RTVSPropertyOp27
 70
     1
102
RTVSPropertyOp28
 70
     1
102
RTVSPropertyOp29
 70
     1
102
RTVSPropertyOp30
 70
     1
102
RTVSPropertyOp31
 70
     1
102
RTVSPropertyOp32
 70
     1
  0
XRECORD
  5
A00
102
{ACAD_REACTORS
330
9FF
102
}
330
9FF
100
AcDbXrecord
280
     1
102
RTVSPropertyOp0
 70
     1
102
RTVSPropertyOp1
 70
     1
102
RTVSPropertyOp2
 70
     1
102
RTVSPropertyOp3
 70
     1
102
RTVSPropertyOp4
 70
     1
102
RTVSPropertyOp5
 70
     1
102
RTVSPropertyOp6
 70
     1
102
RTVSPropertyOp7
 70
     1
102
RTVSPropertyOp8
 70
     1
102
RTVSPropertyOp9
 70
     1
102
RTVSPropertyOp10
 70
     1
102
RTVSPropertyOp11
 70
     1
102
RTVSPropertyOp12
 70
     1
102
RTVSPropertyOp13
 70
     1
102
RTVSPropertyOp14
 70
     1
102
RTVSPropertyOp15
 70
     1
102
RTVSPropertyOp16
 70
     1
102
RTVSPropertyOp17
 70
     1
102
RTVSPropertyOp18
 70
     1
102
RTVSPropertyOp19
 70
     1
102
RTVSPropertyOp20
 70
     1
102
RTVSPropertyOp21
 70
     1
102
RTVSPropertyOp22
 70
     1
102
RTVSPropertyOp23
 70
     1
102
RTVSPropertyOp24
 70
     1
102
RTVSPropertyOp25
 70
     1
102
RTVSPropertyOp26
 70
     1
102
RTVSPropertyOp27
 70
     1
102
RTVSPropertyOp28
 70
     1
102
RTVSPropertyOp29
 70
     1
102
RTVSPropertyOp30
 70
     1
102
RTVSPropertyOp31
 70
     1
102
RTVSPropertyOp32
 70
     1
  0
XRECORD
  5
A02
102
{ACAD_REACTORS
330
A01
102
}
330
A01
100
AcDbXrecord
280
     1
102
RTVSPropertyOp0
 70
     1
102
RTVSPropertyOp1
 70
     1
102
RTVSPropertyOp2
 70
     1
102
RTVSPropertyOp3
 70
     1
102
RTVSPropertyOp4
 70
     1
102
RTVSPropertyOp5
 70
     1
102
RTVSPropertyOp6
 70
     1
102
RTVSPropertyOp7
 70
     1
102
RTVSPropertyOp8
 70
     1
102
RTVSPropertyOp9
 70
     1
102
RTVSPropertyOp10
 70
     1
102
RTVSPropertyOp11
 70
     1
102
RTVSPropertyOp12
 70
     1
102
RTVSPropertyOp13
 70
     1
102
RTVSPropertyOp14
 70
     1
102
RTVSPropertyOp15
 70
     1
102
RTVSPropertyOp16
 70
     1
102
RTVSPropertyOp17
 70
     1
102
RTVSPropertyOp18
 70
     1
102
RTVSPropertyOp19
 70
     1
102
RTVSPropertyOp20
 70
     1
102
RTVSPropertyOp21
 70
     1
102
RTVSPropertyOp22
 70
     1
102
RTVSPropertyOp23
 70
     1
102
RTVSPropertyOp24
 70
     1
102
RTVSPropertyOp25
 70
     1
102
RTVSPropertyOp26
 70
     1
102
RTVSPropertyOp27
 70
     1
102
RTVSPropertyOp28
 70
     1
102
RTVSPropertyOp29
 70
     1
102
RTVSPropertyOp30
 70
     1
102
RTVSPropertyOp31
 70
     1
102
RTVSPropertyOp32
 70
     1
  0
XRECORD
  5
9EF
102
{ACAD_REACTORS
330
9EE
102
}
330
9EE
100
AcDbXrecord
280
     1
102
RTVSPropertyOp0
 70
     1
102
RTVSPropertyOp1
 70
     1
102
RTVSPropertyOp2
 70
     1
102
RTVSPropertyOp3
 70
     1
102
RTVSPropertyOp4
 70
     1
102
RTVSPropertyOp5
 70
     1
102
RTVSPropertyOp6
 70
     1
102
RTVSPropertyOp7
 70
     1
102
RTVSPropertyOp8
 70
     1
102
RTVSPropertyOp9
 70
     1
102
RTVSPropertyOp10
 70
     1
102
RTVSPropertyOp11
 70
     1
102
RTVSPropertyOp12
 70
     1
102
RTVSPropertyOp13
 70
     1
102
RTVSPropertyOp14
 70
     1
102
RTVSPropertyOp15
 70
     1
102
RTVSPropertyOp16
 70
     1
102
RTVSPropertyOp17
 70
     1
102
RTVSPropertyOp18
 70
     1
102
RTVSPropertyOp19
 70
     1
102
RTVSPropertyOp20
 70
     1
102
RTVSPropertyOp21
 70
     1
102
RTVSPropertyOp22
 70
     1
102
RTVSPropertyOp23
 70
     1
102
RTVSPropertyOp24
 70
     1
102
RTVSPropertyOp25
 70
     1
102
RTVSPropertyOp26
 70
     1
102
RTVSPropertyOp27
 70
     1
102
RTVSPropertyOp28
 70
     1
102
RTVSPropertyOp29
 70
     1
102
RTVSPropertyOp30
 70
     1
102
RTVSPropertyOp31
 70
     1
102
RTVSPropertyOp32
 70
     1
  0
XRECORD
  5
9FC
102
{ACAD_REACTORS
330
9FB
102
}
330
9FB
100
AcDbXrecord
280
     1
102
RTVSPropertyOp0
 70
     1
102
RTVSPropertyOp1
 70
     1
102
RTVSPropertyOp2
 70
     1
102
RTVSPropertyOp3
 70
     1
102
RTVSPropertyOp4
 70
     1
102
RTVSPropertyOp5
 70
     1
102
RTVSPropertyOp6
 70
     1
102
RTVSPropertyOp7
 70
     1
102
RTVSPropertyOp8
 70
     1
102
RTVSPropertyOp9
 70
     1
102
RTVSPropertyOp10
 70
     1
102
RTVSPropertyOp11
 70
     1
102
RTVSPropertyOp12
 70
     1
102
RTVSPropertyOp13
 70
     1
102
RTVSPropertyOp14
 70
     1
102
RTVSPropertyOp15
 70
     1
102
RTVSPropertyOp16
 70
     1
102
RTVSPropertyOp17
 70
     1
102
RTVSPropertyOp18
 70
     1
102
RTVSPropertyOp19
 70
     1
102
RTVSPropertyOp20
 70
     1
102
RTVSPropertyOp21
 70
     1
102
RTVSPropertyOp22
 70
     1
102
RTVSPropertyOp23
 70
     1
102
RTVSPropertyOp24
 70
     1
102
RTVSPropertyOp25
 70
     1
102
RTVSPropertyOp26
 70
     1
102
RTVSPropertyOp27
 70
     1
102
RTVSPropertyOp28
 70
     1
102
RTVSPropertyOp29
 70
     1
102
RTVSPropertyOp30
 70
     1
102
RTVSPropertyOp31
 70
     1
102
RTVSPropertyOp32
 70
     1
  0
XRECORD
  5
A04
102
{ACAD_REACTORS
330
A03
102
}
330
A03
100
AcDbXrecord
280
     1
102
RTVSPropertyOp0
 70
     1
102
RTVSPropertyOp1
 70
     1
102
RTVSPropertyOp2
 70
     1
102
RTVSPropertyOp3
 70
     1
102
RTVSPropertyOp4
 70
     1
102
RTVSPropertyOp5
 70
     1
102
RTVSPropertyOp6
 70
     1
102
RTVSPropertyOp7
 70
     1
102
RTVSPropertyOp8
 70
     1
102
RTVSPropertyOp9
 70
     1
102
RTVSPropertyOp10
 70
     1
102
RTVSPropertyOp11
 70
     1
102
RTVSPropertyOp12
 70
     1
102
RTVSPropertyOp13
 70
     1
102
RTVSPropertyOp14
 70
     1
102
RTVSPropertyOp15
 70
     1
102
RTVSPropertyOp16
 70
     1
102
RTVSPropertyOp17
 70
     1
102
RTVSPropertyOp18
 70
     1
102
RTVSPropertyOp19
 70
     1
102
RTVSPropertyOp20
 70
     1
102
RTVSPropertyOp21
 70
     1
102
RTVSPropertyOp22
 70
     1
102
RTVSPropertyOp23
 70
     1
102
RTVSPropertyOp24
 70
     1
102
RTVSPropertyOp25
 70
     1
102
RTVSPropertyOp26
 70
     1
102
RTVSPropertyOp27
 70
     1
102
RTVSPropertyOp28
 70
     1
102
RTVSPropertyOp29
 70
     1
102
RTVSPropertyOp30
 70
     1
102
RTVSPropertyOp31
 70
     1
102
RTVSPropertyOp32
 70
     1
  0
ENDSEC
  0
EOF
