  0
SECTION
  2
HEADER
  9
$ACADVER
  1
AC1015
  9
$ACADMAINTVER
 70
    20
  9
$DWGCODEPAGE
  3
ANSI_932
  9
$INSBASE
 10
0.0
 20
0.0
 30
0.0
  9
$EXTMIN
 10
-27.853
 20
-14.4155
 30
0.0
  9
$EXTMAX
 10
377.147
 20
262.5845
 30
0.0
  9
$LIMMIN
 10
-27.854001
 20
-14.4165
  9
$LIMMAX
 10
377.148003
 20
262.585503
  9
$ORTHOMODE
 70
     1
  9
$REGENMODE
 70
     1
  9
$FILLMODE
 70
     1
  9
$QTEXTMODE
 70
     0
  9
$MIRRTEXT
 70
     0
  9
$LTSCALE
 40
6.75
  9
$ATTMODE
 70
     1
  9
$TEXTSIZE
 40
0.2
  9
$TRACEWID
 40
0.05
  9
$TEXTSTYLE
  7
STANDARD
  9
$CLAYER
  8
0
  9
$CELTYPE
  6
ByLayer
  9
$CECOLOR
 62
   256
  9
$CELTSCALE
 40
1.0
  9
$DISPSILH
 70
     0
  9
$DIMSCALE
 40
1.0
  9
$DIMASZ
 40
2.5
  9
$DIMEXO
 40
0.25
  9
$DIMDLI
 40
0.2
  9
$DIMRND
 40
0.0
  9
$DIMDLE
 40
0.0
  9
$DIMEXE
 40
1.25
  9
$DIMTP
 40
0.0
  9
$DIMTM
 40
0.0
  9
$DIMTXT
 40
3.0
  9
$DIMCEN
 40
0.0
  9
$DIMTSZ
 40
0.0
  9
$DIMTOL
 70
     0
  9
$DIMLIM
 70
     0
  9
$DIMTIH
 70
     0
  9
$DIMTOH
 70
     0
  9
$DIMSE1
 70
     0
  9
$DIMSE2
 70
     0
  9
$DIMTAD
 70
     3
  9
$DIMZIN
 70
     8
  9
$DIMBLK
  1

  9
$DIMASO
 70
     1
  9
$DIMSHO
 70
     1
  9
$DIMPOST
  1

  9
$DIMAPOST
  1

  9
$DIMALT
 70
     0
  9
$DIMALTD
 70
     3
  9
$DIMALTF
 40
0.03937007874016
  9
$DIMLFAC
 40
1.0
  9
$DIMTOFL
 70
     1
  9
$DIMTVP
 40
0.0
  9
$DIMTIX
 70
     0
  9
$DIMSOXD
 70
     0
  9
$DIMSAH
 70
     0
  9
$DIMBLK1
  1

  9
$DIMBLK2
  1

  9
$DIMSTYLE
  2
1：1
  9
$DIMCLRD
 70
     0
  9
$DIMCLRE
 70
     0
  9
$DIMCLRT
 70
     4
  9
$DIMTFAC
 40
1.0
  9
$DIMGAP
 40
0.625
  9
$DIMJUST
 70
     0
  9
$DIMSD1
 70
     0
  9
$DIMSD2
 70
     0
  9
$DIMTOLJ
 70
     0
  9
$DIMTZIN
 70
     8
  9
$DIMALTZ
 70
     0
  9
$DIMALTTZ
 70
     0
  9
$DIMUPT
 70
     1
  9
$DIMDEC
 70
     2
  9
$DIMTDEC
 70
     2
  9
$DIMALTU
 70
     2
  9
$DIMALTTD
 70
     3
  9
$DIMTXSTY
  7
STANDARD
  9
$DIMAUNIT
 70
     0
  9
$DIMADEC
 70
     1
  9
$DIMALTRND
 40
0.0
  9
$DIMAZIN
 70
     2
  9
$DIMDSEP
 70
    46
  9
$DIMATFIT
 70
     0
  9
$DIMFRAC
 70
     0
  9
$DIMLDRBLK
  1
Open30
  9
$DIMLUNIT
 70
     2
  9
$DIMLWD
 70
    -2
  9
$DIMLWE
 70
    -2
  9
$DIMTMOVE
 70
     0
  9
$LUNITS
 70
     2
  9
$LUPREC
 70
     4
  9
$SKETCHINC
 40
0.1
  9
$FILLETRAD
 40
0.0
  9
$AUNITS
 70
     0
  9
$AUPREC
 70
     0
  9
$MENU
  1
.
  9
$ELEVATION
 40
0.0
  9
$PELEVATION
 40
0.0
  9
$THICKNESS
 40
0.0
  9
$LIMCHECK
 70
     0
  9
$CHAMFERA
 40
0.0
  9
$CHAMFERB
 40
0.0
  9
$CHAMFERC
 40
0.0
  9
$CHAMFERD
 40
0.0
  9
$SKPOLY
 70
     0
  9
$TDCREATE
 40
2455467.751124491
  9
$TDUCREATE
 40
2455467.376124491
  9
$TDUPDATE
 40
2459893.499737025
  9
$TDUUPDATE
 40
2459893.124737025
  9
$TDINDWG
 40
0.0608216319
  9
$TDUSRTIMER
 40
0.0608208102
  9
$USRTIMER
 70
     1
  9
$ANGBASE
 50
0.0
  9
$ANGDIR
 70
     0
  9
$PDMODE
 70
     0
  9
$PDSIZE
 40
0.0
  9
$PLINEWID
 40
0.0
  9
$SPLFRAME
 70
     0
  9
$SPLINETYPE
 70
     6
  9
$SPLINESEGS
 70
     8
  9
$HANDSEED
  5
C59
  9
$SURFTAB1
 70
     6
  9
$SURFTAB2
 70
     6
  9
$SURFTYPE
 70
     6
  9
$SURFU
 70
     6
  9
$SURFV
 70
     6
  9
$UCSBASE
  2

  9
$UCSNAME
  2

  9
$UCSORG
 10
0.0
 20
0.0
 30
0.0
  9
$UCSXDIR
 10
1.0
 20
0.0
 30
0.0
  9
$UCSYDIR
 10
0.0
 20
1.0
 30
0.0
  9
$UCSORTHOREF
  2

  9
$UCSORTHOVIEW
 70
     0
  9
$UCSORGTOP
 10
0.0
 20
0.0
 30
0.0
  9
$UCSORGBOTTOM
 10
0.0
 20
0.0
 30
0.0
  9
$UCSORGLEFT
 10
0.0
 20
0.0
 30
0.0
  9
$UCSORGRIGHT
 10
0.0
 20
0.0
 30
0.0
  9
$UCSORGFRONT
 10
0.0
 20
0.0
 30
0.0
  9
$UCSORGBACK
 10
0.0
 20
0.0
 30
0.0
  9
$PUCSBASE
  2

  9
$PUCSNAME
  2

  9
$PUCSORG
 10
0.0
 20
0.0
 30
0.0
  9
$PUCSXDIR
 10
1.0
 20
0.0
 30
0.0
  9
$PUCSYDIR
 10
0.0
 20
1.0
 30
0.0
  9
$PUCSORTHOREF
  2

  9
$PUCSORTHOVIEW
 70
     0
  9
$PUCSORGTOP
 10
0.0
 20
0.0
 30
0.0
  9
$PUCSORGBOTTOM
 10
0.0
 20
0.0
 30
0.0
  9
$PUCSORGLEFT
 10
0.0
 20
0.0
 30
0.0
  9
$PUCSORGRIGHT
 10
0.0
 20
0.0
 30
0.0
  9
$PUCSORGFRONT
 10
0.0
 20
0.0
 30
0.0
  9
$PUCSORGBACK
 10
0.0
 20
0.0
 30
0.0
  9
$USERI1
 70
     0
  9
$USERI2
 70
     0
  9
$USERI3
 70
     0
  9
$USERI4
 70
     0
  9
$USERI5
 70
     0
  9
$USERR1
 40
0.0
  9
$USERR2
 40
0.0
  9
$USERR3
 40
0.0
  9
$USERR4
 40
0.0
  9
$USERR5
 40
0.0
  9
$WORLDVIEW
 70
     1
  9
$SHADEDGE
 70
     3
  9
$SHADEDIF
 70
    70
  9
$TILEMODE
 70
     1
  9
$MAXACTVP
 70
    64
  9
$PINSBASE
 10
0.0
 20
0.0
 30
0.0
  9
$PLIMCHECK
 70
     0
  9
$PEXTMIN
 10
1.000000000000000E+20
 20
1.000000000000000E+20
 30
1.000000000000000E+20
  9
$PEXTMAX
 10
-1.000000000000000E+20
 20
-1.000000000000000E+20
 30
-1.000000000000000E+20
  9
$PLIMMIN
 10
0.0
 20
0.0
  9
$PLIMMAX
 10
12.0
 20
9.0
  9
$UNITMODE
 70
     0
  9
$VISRETAIN
 70
     1
  9
$PLINEGEN
 70
     0
  9
$PSLTSCALE
 70
     1
  9
$TREEDEPTH
 70
  3020
  9
$CMLSTYLE
  2
Standard
  9
$CMLJUST
 70
     0
  9
$CMLSCALE
 40
1.0
  9
$PROXYGRAPHICS
 70
     1
  9
$MEASUREMENT
 70
     0
  9
$CELWEIGHT
370
    -1
  9
$ENDCAPS
280
     0
  9
$JOINSTYLE
280
     0
  9
$LWDISPLAY
290
     0
  9
$INSUNITS
 70
     0
  9
$HYPERLINKBASE
  1

  9
$STYLESHEET
  1
N-PLOT.CTB
  9
$XEDIT
290
     1
  9
$CEPSNTYPE
380
     0
  9
$PSTYLEMODE
290
     1
  9
$FINGERPRINTGUID
  2
{6FDD18EE-40DE-4B48-9ACB-BB5A2363FEE0}
  9
$VERSIONGUID
  2
{C3DA5A7B-1B23-408E-B4FA-3FE068DF79F7}
  9
$EXTNAMES
290
     1
  9
$PSVPSCALE
 40
0.0
  9
$OLESTARTUP
290
     0
  0
ENDSEC
  0
SECTION
  2
CLASSES
  0
CLASS
  1
ACDBDICTIONARYWDFLT
  2
AcDbDictionaryWithDefault
  3
ObjectDBX Classes
 90
        0
280
     0
281
     0
  0
CLASS
  1
MATERIAL
  2
AcDbMaterial
  3
ObjectDBX Classes
 90
     1153
280
     0
281
     0
  0
CLASS
  1
VISUALSTYLE
  2
AcDbVisualStyle
  3
ObjectDBX Classes
 90
     4095
280
     0
281
     0
  0
CLASS
  1
TABLESTYLE
  2
AcDbTableStyle
  3
ObjectDBX Classes
 90
     4095
280
     0
281
     0
  0
CLASS
  1
SORTENTSTABLE
  2
AcDbSortentsTable
  3
ObjectDBX Classes
 90
        0
280
     0
281
     0
  0
CLASS
  1
DICTIONARYVAR
  2
AcDbDictionaryVar
  3
ObjectDBX Classes
 90
        0
280
     0
281
     0
  0
CLASS
  1
ACDBPLACEHOLDER
  2
AcDbPlaceHolder
  3
ObjectDBX Classes
 90
        0
280
     0
281
     0
  0
CLASS
  1
LAYOUT
  2
AcDbLayout
  3
ObjectDBX Classes
 90
        0
280
     0
281
     0
  0
CLASS
  1
SCALE
  2
AcDbScale
  3
ObjectDBX Classes
 90
     1153
280
     0
281
     0
  0
CLASS
  1
MLEADERSTYLE
  2
AcDbMLeaderStyle
  3
ACDB_MLEADERSTYLE_CLASS
 90
     4095
280
     0
281
     0
  0
CLASS
  1
CELLSTYLEMAP
  2
AcDbCellStyleMap
  3
ObjectDBX Classes
 90
     1152
280
     0
281
     0
  0
ENDSEC
  0
SECTION
  2
TABLES
  0
TABLE
  2
VPORT
  5
8
330
0
100
AcDbSymbolTable
 70
     1
  0
VPORT
  5
56
330
8
100
AcDbSymbolTableRecord
100
AcDbViewportTableRecord
  2
*Active
 70
     0
 10
0.0
 20
0.0
 11
1.0
 21
1.0
 12
188.71415050608
 22
120.0140272877252
 13
0.0
 23
0.0
 14
1.0
 24
1.0
 15
0.0
 25
0.0
 16
0.0
 26
0.0
 36
1.0
 17
0.0
 27
0.0
 37
0.0
 40
494.5398422316729
 41
1.3099173553719
 42
50.0
 43
0.0
 44
0.0
 50
0.0
 51
0.0
 71
     0
 72
   100
 73
     1
 74
     1
 75
     0
 76
     0
 77
     0
 78
     0
281
     0
 65
     1
110
0.0
120
0.0
130
0.0
111
1.0
121
0.0
131
0.0
112
0.0
122
1.0
132
0.0
 79
     0
146
0.0
  0
ENDTAB
  0
TABLE
  2
LTYPE
  5
5
330
0
100
AcDbSymbolTable
 70
     2
  0
LTYPE
  5
28
330
5
100
AcDbSymbolTableRecord
100
AcDbLinetypeTableRecord
  2
ByBlock
 70
     0
  3

 72
    65
 73
     0
 40
0.0
  0
LTYPE
  5
29
330
5
100
AcDbSymbolTableRecord
100
AcDbLinetypeTableRecord
  2
ByLayer
 70
     0
  3

 72
    65
 73
     0
 40
0.0
  0
LTYPE
  5
2A
330
5
100
AcDbSymbolTableRecord
100
AcDbLinetypeTableRecord
  2
CONTINUOUS
 70
     0
  3
Solid-line
 72
    65
 73
     0
 40
0.0
  0
ENDTAB
  0
TABLE
  2
LAYER
  5
2
102
{ACAD_XDICTIONARY
360
51F
102
}
330
0
100
AcDbSymbolTable
 70
     2
  0
LAYER
  5
25
102
{ACAD_XDICTIONARY
360
946
102
}
330
2
100
AcDbSymbolTableRecord
100
AcDbLayerTableRecord
  2
0
 70
     0
 62
     7
  6
CONTINUOUS
370
    -3
390
F
  0
LAYER
  5
512
330
2
100
AcDbSymbolTableRecord
100
AcDbLayerTableRecord
  2
Defpoints
 70
     0
 62
     7
  6
CONTINUOUS
290
     0
370
    -3
390
F
  0
ENDTAB
  0
TABLE
  2
STYLE
  5
3
330
0
100
AcDbSymbolTable
 70
     5
  0
STYLE
  5
26
330
3
100
AcDbSymbolTableRecord
100
AcDbTextStyleTableRecord
  2
STANDARD
 70
     0
 40
0.0
 41
1.0
 50
0.0
 71
     0
 42
0.2
  3
TXT
  4
BIGFONT
  0
STYLE
  5
513
330
3
100
AcDbSymbolTableRecord
100
AcDbTextStyleTableRecord
  2
高3.2
 70
     0
 40
3.2
 41
1.0
 50
0.0
 71
     0
 42
3.2
  3
txt.shx
  4
bigfont.shx
  0
STYLE
  5
514
330
3
100
AcDbSymbolTableRecord
100
AcDbTextStyleTableRecord
  2
高6.3
 70
     0
 40
6.299999999999998
 41
1.0
 50
0.0
 71
     0
 42
6.299999999999998
  3
txt.shx
  4
bigfont.shx
  0
STYLE
  5
516
330
3
100
AcDbSymbolTableRecord
100
AcDbTextStyleTableRecord
  2
高4.5
 70
     0
 40
4.5
 41
1.0
 50
0.0
 71
     0
 42
6.299999999999998
  3
txt.shx
  4
bigfont.shx
  0
STYLE
  5
7DD
330
3
100
AcDbSymbolTableRecord
100
AcDbTextStyleTableRecord
  2
高2
 70
     0
 40
2.0
 41
1.0
 50
0.0
 71
     0
 42
2.0
  3
txt.shx
  4
bigfont.shx
  0
ENDTAB
  0
TABLE
  2
VIEW
  5
6
330
0
100
AcDbSymbolTable
 70
     0
  0
ENDTAB
  0
TABLE
  2
UCS
  5
7
330
0
100
AcDbSymbolTable
 70
     0
  0
ENDTAB
  0
TABLE
  2
APPID
  5
9
330
0
100
AcDbSymbolTable
 70
    10
  0
APPID
  5
27
330
9
100
AcDbSymbolTableRecord
100
AcDbRegAppTableRecord
  2
ACAD
 70
     0
  0
APPID
  5
51E
330
9
100
AcDbSymbolTableRecord
100
AcDbRegAppTableRecord
  2
ACAD_DSTYLE_DIMJOGGED_JOGANGLE_SYMBOL
 70
     0
  0
APPID
  5
66C
330
9
100
AcDbSymbolTableRecord
100
AcDbRegAppTableRecord
  2
ACAD_EXEMPT_FROM_CAD_STANDARDS
 70
     0
  0
APPID
  5
6B7
330
9
100
AcDbSymbolTableRecord
100
AcDbRegAppTableRecord
  2
ACAD_DSTYLE_DIMARC_LENGTH_SYMBOL
 70
     0
  0
APPID
  5
6B8
330
9
100
AcDbSymbolTableRecord
100
AcDbRegAppTableRecord
  2
ACAD_DSTYLE_DIMEXT_LENGTH
 70
     0
  0
APPID
  5
7E1
330
9
100
AcDbSymbolTableRecord
100
AcDbRegAppTableRecord
  2
ACAD_DSTYLE_DIMJAG
 70
     0
  0
APPID
  5
7E2
330
9
100
AcDbSymbolTableRecord
100
AcDbRegAppTableRecord
  2
ACAD_DSTYLE_DIMBREAK
 70
     0
  0
APPID
  5
7E3
330
9
100
AcDbSymbolTableRecord
100
AcDbRegAppTableRecord
  2
ACAD_DSTYLE_DIMTALN
 70
     0
  0
APPID
  5
98C
330
9
100
AcDbSymbolTableRecord
100
AcDbRegAppTableRecord
  2
ACAD_MLEADERVER
 70
     0
  0
APPID
  5
9FF
330
9
100
AcDbSymbolTableRecord
100
AcDbRegAppTableRecord
  2
ACAD_PSEXT
 70
     0
  0
ENDTAB
  0
TABLE
  2
DIMSTYLE
  5
A
330
0
100
AcDbSymbolTable
 70
     2
100
AcDbDimStyleTable
 71
     2
340
517
340
4A0
  0
DIMSTYLE
105
4A0
330
A
100
AcDbSymbolTableRecord
100
AcDbDimStyleTableRecord
  2
Standard
 70
     0
340
26
  0
DIMSTYLE
105
517
330
A
100
AcDbSymbolTableRecord
100
AcDbDimStyleTableRecord
  2
1：1
 70
     0
 41
2.5
 42
0.25
 43
0.2
 44
1.25
 73
     0
 74
     0
 77
     3
 78
     8
 79
     2
140
3.0
141
0.0
143
0.03937007874016
147
0.625
171
     3
172
     1
178
     4
179
     1
271
     2
272
     2
274
     3
283
     0
284
     8
288
     1
289
     0
340
26
341
4A2
342
4A2
1001
ACAD_DSTYLE_DIMARC_LENGTH_SYMBOL
1070
   379
1070
     2
1001
ACAD_DSTYLE_DIMEXT_LENGTH
1070
   378
1040
1.25
1001
ACAD_DSTYLE_DIMJOGGED_JOGANGLE_SYMBOL
1070
   384
1040
1.570796326794896
  0
ENDTAB
  0
TABLE
  2
BLOCK_RECORD
  5
1
330
0
100
AcDbSymbolTable
 70
     4
  0
BLOCK_RECORD
  5
36
102
{ACAD_XDICTIONARY
360
68A
102
}
330
1
100
AcDbSymbolTableRecord
100
AcDbBlockTableRecord
  2
*Model_Space
340
39
  0
BLOCK_RECORD
  5
32
330
1
100
AcDbSymbolTableRecord
100
AcDbBlockTableRecord
  2
*Paper_Space
340
35
  0
BLOCK_RECORD
  5
4A2
330
1
100
AcDbSymbolTableRecord
100
AcDbBlockTableRecord
  2
_Open30
340
0
102
{BLKREFS
331
AF4
331
AF5
331
AFD
331
AFE
331
B06
331
B07
102
}
  0
BLOCK_RECORD
  5
614
330
1
100
AcDbSymbolTableRecord
100
AcDbBlockTableRecord
  2
*D1
340
0
  0
BLOCK_RECORD
  5
61F
330
1
100
AcDbSymbolTableRecord
100
AcDbBlockTableRecord
  2
*D2
340
0
  0
BLOCK_RECORD
  5
62A
330
1
100
AcDbSymbolTableRecord
100
AcDbBlockTableRecord
  2
*D3
340
0
  0
ENDTAB
  0
ENDSEC
  0
SECTION
  2
BLOCKS
  0
BLOCK
  5
37
330
36
100
AcDbEntity
  8
0
100
AcDbBlockBegin
  2
*Model_Space
 70
     0
 10
0.0
 20
0.0
 30
0.0
  3
*Model_Space
  1

  0
ENDBLK
  5
38
330
36
100
AcDbEntity
  8
0
100
AcDbBlockEnd
  0
BLOCK
  5
33
330
32
100
AcDbEntity
 67
     1
  8
0
100
AcDbBlockBegin
  2
*Paper_Space
 70
     0
 10
0.0
 20
0.0
 30
0.0
  3
*Paper_Space
  1

  0
ENDBLK
  5
34
330
32
100
AcDbEntity
 67
     1
  8
0
100
AcDbBlockEnd
  0
BLOCK
  5
4A3
330
4A2
100
AcDbEntity
  8
0
100
AcDbBlockBegin
  2
_Open30
 70
     0
 10
0.0
 20
0.0
 30
0.0
  3
_Open30
  1

  0
LINE
  5
4A4
330
4A2
100
AcDbEntity
  8
0
  6
ByBlock
 62
     0
370
    -2
100
AcDbLine
 10
-1.0
 20
0.267949
 30
0.0
 11
0.0
 21
0.0
 31
0.0
  0
LINE
  5
4A5
330
4A2
100
AcDbEntity
  8
0
  6
ByBlock
 62
     0
370
    -2
100
AcDbLine
 10
0.0
 20
0.0
 30
0.0
 11
-1.0
 21
-0.267949
 31
0.0
  0
LINE
  5
4A6
330
4A2
100
AcDbEntity
  8
0
  6
ByBlock
 62
     0
370
    -2
100
AcDbLine
 10
0.0
 20
0.0
 30
0.0
 11
-1.0
 21
0.0
 31
0.0
  0
ENDBLK
  5
4A7
330
4A2
100
AcDbEntity
  8
0
100
AcDbBlockEnd
  0
BLOCK
  5
61D
330
614
100
AcDbEntity
  8
0
100
AcDbBlockBegin
  2
*D1
 70
     1
 10
0.0
 20
0.0
 30
0.0
  3
*D1
  1

  0
LINE
  5
B03
330
614
100
AcDbEntity
  8
0
 62
     0
370
    -2
100
AcDbLine
 10
130.501886
 20
149.610048
 30
0.0
 11
130.501886
 21
135.667822
 31
0.0
  0
LINE
  5
B04
330
614
100
AcDbEntity
  8
0
 62
     0
370
    -2
100
AcDbLine
 10
211.282886
 20
149.138575
 30
0.0
 11
211.282886
 21
135.667822
 31
0.0
  0
LINE
  5
B05
330
614
100
AcDbEntity
  8
0
 62
     0
370
    -2
100
AcDbLine
 10
133.001886
 20
136.917822
 30
0.0
 11
208.782886
 21
136.917822
 31
0.0
  0
INSERT
  5
B06
330
614
100
AcDbEntity
  8
0
 62
     0
370
    -2
100
AcDbBlockReference
  2
_Open30
 10
130.501886
 20
136.917822
 30
0.0
 41
2.5
 42
2.5
 43
2.5
 50
180.0
  0
INSERT
  5
B07
330
614
100
AcDbEntity
  8
0
 62
     0
370
    -2
100
AcDbBlockReference
  2
_Open30
 10
211.282886
 20
136.917822
 30
0.0
 41
2.5
 42
2.5
 43
2.5
  0
MTEXT
  5
B08
330
614
100
AcDbEntity
  8
0
 62
     4
100
AcDbMText
 10
170.892386
 20
139.042822
 30
0.0
 40
3.0
 41
0.0
 71
     5
 72
     1
  1
235
 73
     1
 44
1.0
1001
ACAD
1000
MTEXTBEGIN
1070
    73
1070
     1
1070
    44
1040
1.0
1070
    74
1070
     0
1000
MTEXTEND
  0
POINT
  5
B09
330
614
100
AcDbEntity
  8
Defpoints
 62
     0
100
AcDbPoint
 10
130.501886
 20
149.860048
 30
0.0
  0
POINT
  5
B0A
330
614
100
AcDbEntity
  8
Defpoints
 62
     0
100
AcDbPoint
 10
211.282886
 20
149.388575
 30
0.0
  0
POINT
  5
B0B
330
614
100
AcDbEntity
  8
Defpoints
 62
     0
100
AcDbPoint
 10
211.282886
 20
136.917822
 30
0.0
  0
ENDBLK
  5
61E
330
614
100
AcDbEntity
  8
0
100
AcDbBlockEnd
  0
BLOCK
  5
628
330
61F
100
AcDbEntity
  8
0
100
AcDbBlockBegin
  2
*D2
 70
     1
 10
0.0
 20
0.0
 30
0.0
  3
*D2
  1

  0
LINE
  5
AFA
330
61F
100
AcDbEntity
  8
0
 62
     0
370
    -2
100
AcDbLine
 10
23.869886
 20
154.364422
 30
0.0
 11
23.869886
 21
135.667822
 31
0.0
  0
LINE
  5
AFB
330
61F
100
AcDbEntity
  8
0
 62
     0
370
    -2
100
AcDbLine
 10
113.588886
 20
154.364422
 30
0.0
 11
113.588886
 21
135.667822
 31
0.0
  0
LINE
  5
AFC
330
61F
100
AcDbEntity
  8
0
 62
     0
370
    -2
100
AcDbLine
 10
26.369886
 20
136.917822
 30
0.0
 11
111.088886
 21
136.917822
 31
0.0
  0
INSERT
  5
AFD
330
61F
100
AcDbEntity
  8
0
 62
     0
370
    -2
100
AcDbBlockReference
  2
_Open30
 10
23.869886
 20
136.917822
 30
0.0
 41
2.5
 42
2.5
 43
2.5
 50
180.0
  0
INSERT
  5
AFE
330
61F
100
AcDbEntity
  8
0
 62
     0
370
    -2
100
AcDbBlockReference
  2
_Open30
 10
113.588886
 20
136.917822
 30
0.0
 41
2.5
 42
2.5
 43
2.5
  0
MTEXT
  5
AFF
330
61F
100
AcDbEntity
  8
0
 62
     4
100
AcDbMText
 10
68.72938600000001
 20
139.042822
 30
0.0
 40
3.0
 41
0.0
 71
     5
 72
     1
  1
260
 73
     1
 44
1.0
1001
ACAD
1000
MTEXTBEGIN
1070
    73
1070
     1
1070
    44
1040
1.0
1070
    74
1070
     0
1000
MTEXTEND
  0
POINT
  5
B00
330
61F
100
AcDbEntity
  8
Defpoints
 62
     0
100
AcDbPoint
 10
23.869886
 20
154.614422
 30
0.0
  0
POINT
  5
B01
330
61F
100
AcDbEntity
  8
Defpoints
 62
     0
100
AcDbPoint
 10
113.588886
 20
154.614422
 30
0.0
  0
POINT
  5
B02
330
61F
100
AcDbEntity
  8
Defpoints
 62
     0
100
AcDbPoint
 10
113.588886
 20
136.917822
 30
0.0
  0
ENDBLK
  5
629
330
61F
100
AcDbEntity
  8
0
100
AcDbBlockEnd
  0
BLOCK
  5
633
330
62A
100
AcDbEntity
  8
0
100
AcDbBlockBegin
  2
*D3
 70
     1
 10
0.0
 20
0.0
 30
0.0
  3
*D3
  1

  0
LINE
  5
AF1
330
62A
100
AcDbEntity
  8
0
 62
     0
370
    -2
100
AcDbLine
 10
32.21388599999999
 20
143.957422
 30
0.0
 11
13.50348199999998
 21
143.957422
 31
0.0
  0
LINE
  5
AF2
330
62A
100
AcDbEntity
  8
0
 62
     0
370
    -2
100
AcDbLine
 10
64.35488599999999
 20
223.3674220000001
 30
0.0
 11
13.503482
 21
223.3674220000001
 31
0.0
  0
LINE
  5
AF3
330
62A
100
AcDbEntity
  8
0
 62
     0
370
    -2
100
AcDbLine
 10
14.75348199999998
 20
146.457422
 30
0.0
 11
14.753482
 21
220.8674220000001
 31
0.0
  0
INSERT
  5
AF4
330
62A
100
AcDbEntity
  8
0
 62
     0
370
    -2
100
AcDbBlockReference
  2
_Open30
 10
14.75348199999998
 20
143.957422
 30
0.0
 41
2.5
 42
2.5
 43
2.5
 50
270.0
  0
INSERT
  5
AF5
330
62A
100
AcDbEntity
  8
0
 62
     0
370
    -2
100
AcDbBlockReference
  2
_Open30
 10
14.753482
 20
223.3674220000001
 30
0.0
 41
2.5
 42
2.5
 43
2.5
 50
90.0
  0
MTEXT
  5
AF6
330
62A
100
AcDbEntity
  8
0
 62
     4
100
AcDbMText
 10
12.62848199999996
 20
183.662422
 30
0.0
 40
3.0
 41
0.0
 71
     5
 72
     1
  1
230
 11
0.0000000000000001
 21
1.0
 31
0.0
 73
     1
 44
1.0
1001
ACAD
1000
MTEXTBEGIN
1070
    73
1070
     1
1070
    44
1040
1.0
1070
    74
1070
     0
1000
MTEXTEND
  0
POINT
  5
AF7
330
62A
100
AcDbEntity
  8
Defpoints
 62
     0
100
AcDbPoint
 10
32.46388599999999
 20
143.957422
 30
0.0
  0
POINT
  5
AF8
330
62A
100
AcDbEntity
  8
Defpoints
 62
     0
100
AcDbPoint
 10
64.60488599999999
 20
223.3674220000001
 30
0.0
  0
POINT
  5
AF9
330
62A
100
AcDbEntity
  8
Defpoints
 62
     0
100
AcDbPoint
 10
14.753482
 20
223.3674220000001
 30
0.0
  0
ENDBLK
  5
634
330
62A
100
AcDbEntity
  8
0
100
AcDbBlockEnd
  0
ENDSEC
  0
SECTION
  2
ENTITIES
  0
ARC
  5
86
330
36
100
AcDbEntity
  8
0
 62
     3
100
AcDbCircle
 10
309.079185
 20
125.217797
 30
0.0
 40
1.719
100
AcDbArc
 50
270.0
 51
0.0
  0
ARC
  5
87
330
36
100
AcDbEntity
  8
0
 62
     3
100
AcDbCircle
 10
309.509185
 20
124.787797
 30
0.0
 40
5.155999999999997
100
AcDbArc
 50
270.0
 51
0.0
  0
LINE
  5
88
330
36
100
AcDbEntity
  8
0
 62
     3
100
AcDbLine
 10
310.798185
 20
135.264839
 30
0.0
 11
310.798185
 21
125.217797
 31
0.0
  0
ARC
  5
89
330
36
100
AcDbEntity
  8
0
 62
     3
100
AcDbCircle
 10
309.509185
 20
105.281797
 30
0.0
 40
5.155999999999997
100
AcDbArc
 50
270.0
 51
0.0
  0
ARC
  5
8A
330
36
100
AcDbEntity
  8
0
 62
     3
100
AcDbCircle
 10
309.079185
 20
105.711797
 30
0.0
 40
1.719
100
AcDbArc
 50
270.0
 51
0.0
  0
LINE
  5
8B
330
36
100
AcDbEntity
  8
0
 62
     3
100
AcDbLine
 10
310.798185
 20
120.058797
 30
0.0
 11
310.798185
 21
105.711797
 31
0.0
  0
LINE
  5
8C
330
36
100
AcDbEntity
  8
0
 62
     3
100
AcDbLine
 10
314.665185
 20
134.942839
 30
0.0
 11
314.665185
 21
105.281797
 31
0.0
  0
TEXT
  5
9A
330
36
100
AcDbEntity
  8
0
 62
     3
100
AcDbText
 10
339.326686
 20
-3.269878999999998
 30
0.0
 40
3.2
  1
1999.11.4
  7
高3.2
100
AcDbText
  0
TEXT
  5
9B
330
36
100
AcDbEntity
  8
0
 62
     3
100
AcDbText
 10
215.2203466613641
 20
48.04648099999999
 30
0.0
 40
3.2
  1
セルスタート時電流
 41
0.8
  7
高3.2
100
AcDbText
  0
TEXT
  5
9C
330
36
100
AcDbEntity
  8
0
 62
     3
100
AcDbText
 10
215.2203466613641
 20
42.502481
 30
0.0
 40
3.2
  1
保　護　機　能
  7
高3.2
100
AcDbText
  0
LINE
  5
A5
330
36
100
AcDbEntity
  8
0
100
AcDbLine
 10
312.611974
 20
131.102204
 30
0.0
 11
322.8036830000001
 21
120.910494
 31
0.0
  0
LINE
  5
A6
330
36
100
AcDbEntity
  8
0
100
AcDbLine
 10
322.8036830000001
 20
120.910494
 30
0.0
 11
361.303683
 21
120.910494
 31
0.0
  0
TEXT
  5
A7
330
36
100
AcDbEntity
  8
0
 62
     4
100
AcDbText
 10
325.553683
 20
121.910494
 30
0.0
 40
3.2
  1
黒コード、クリップ（－）
 41
0.716146
100
AcDbText
  0
LINE
  5
AD
330
36
100
AcDbEntity
  8
0
100
AcDbLine
 10
312.787693
 20
110.543065
 30
0.0
 11
324.209436
 21
96.661254
 31
0.0
  0
LINE
  5
AE
330
36
100
AcDbEntity
  8
0
100
AcDbLine
 10
324.209436
 20
96.661254
 30
0.0
 11
362.709436
 21
96.661254
 31
0.0
  0
TEXT
  5
AF
330
36
100
AcDbEntity
  8
0
 62
     4
100
AcDbText
 10
326.959436
 20
97.66125399999999
 30
0.0
 40
3.2
  1
赤コード、クリップ（＋）
 41
0.716146
100
AcDbText
  0
TEXT
  5
B0
330
36
100
AcDbEntity
  8
0
 62
     3
100
AcDbText
 10
245.5432742128741
 20
42.502481
 30
0.0
 40
3.2
  1
ノーヒューズブレーカー
  7
高3.2
100
AcDbText
  0
LINE
  5
B1
330
36
100
AcDbEntity
  8
0
 62
     3
100
AcDbLine
 10
213.7203466613641
 20
80.76648099999998
 30
0.0
 11
294.5625938513074
 21
80.76648099999998
 31
0.0
  0
LINE
  5
B2
330
36
100
AcDbEntity
  8
0
100
AcDbLine
 10
213.7203466613641
 20
75.222481
 30
0.0
 11
294.5625938513074
 21
75.222481
 31
0.0
  0
LINE
  5
B3
330
36
100
AcDbEntity
  8
0
100
AcDbLine
 10
213.7203466613641
 20
69.67848100000001
 30
0.0
 11
294.5625938513074
 21
69.67848100000001
 31
0.0
  0
LINE
  5
B4
330
36
100
AcDbEntity
  8
0
100
AcDbLine
 10
213.7203466613641
 20
64.134481
 30
0.0
 11
294.5625938513074
 21
64.134481
 31
0.0
  0
LINE
  5
B5
330
36
100
AcDbEntity
  8
0
100
AcDbLine
 10
213.7203466613641
 20
53.090481
 30
0.0
 11
294.5625938513074
 21
53.09048100000001
 31
0.0
  0
LINE
  5
B6
330
36
100
AcDbEntity
  8
0
100
AcDbLine
 10
213.7203466613641
 20
47.54648099999999
 30
0.0
 11
294.5625938513074
 21
47.54648099999999
 31
0.0
  0
LINE
  5
B7
330
36
100
AcDbEntity
  8
0
100
AcDbLine
 10
213.7203466613641
 20
42.002481
 30
0.0
 11
294.5625938513074
 21
42.00248100000001
 31
0.0
  0
LINE
  5
B8
330
36
100
AcDbEntity
  8
0
100
AcDbLine
 10
213.7203466613641
 20
58.590481
 30
0.0
 11
294.5625938513074
 21
58.59048100000001
 31
0.0
  0
LINE
  5
B9
330
36
100
AcDbEntity
  8
0
 62
     3
100
AcDbLine
 10
294.5625938513074
 20
80.76648099999998
 30
0.0
 11
294.5625938513074
 21
36.458481
 31
0.0
  0
LINE
  5
BA
330
36
100
AcDbEntity
  8
0
 62
     3
100
AcDbLine
 10
213.7203466613641
 20
80.76648099999998
 30
0.0
 11
213.7203466613641
 21
36.458481
 31
0.0
  0
LINE
  5
BB
330
36
100
AcDbEntity
  8
0
100
AcDbLine
 10
244.043274212874
 20
36.458481
 30
0.0
 11
244.043274212874
 21
80.76648099999998
 31
0.0
  0
TEXT
  5
BF
330
36
100
AcDbEntity
  8
0
 62
     3
100
AcDbText
 10
283.961861
 20
3.854845999999998
 30
0.0
 40
3.2
  1
別　掲
  7
高3.2
100
AcDbText
  0
ARC
  5
C0
330
36
100
AcDbEntity
  8
0
 62
     3
100
AcDbCircle
 10
30.572886
 20
154.614422
 30
0.0
 40
6.702999999999997
100
AcDbArc
 50
180.0
 51
270.0
  0
ARC
  5
C1
330
36
100
AcDbEntity
  8
0
 62
     3
100
AcDbCircle
 10
30.572886
 20
154.614422
 30
0.0
 40
3.266
100
AcDbArc
 50
180.0
 51
270.0
  0
LINE
  5
C2
330
36
100
AcDbEntity
  8
0
 62
     3
100
AcDbLine
 10
27.307886
 20
198.957422
 30
0.0
 11
27.307886
 21
154.614422
 31
0.0
  0
ARC
  5
C3
330
36
100
AcDbEntity
  8
0
 62
     3
100
AcDbCircle
 10
30.572886
 20
198.957422
 30
0.0
 40
3.266
100
AcDbArc
 50
90.0
 51
180.0
  0
LINE
  5
C4
330
36
100
AcDbEntity
  8
0
 62
     3
100
AcDbLine
 10
106.885886
 20
202.223422
 30
0.0
 11
30.572886
 21
202.223422
 31
0.0
  0
ARC
  5
C5
330
36
100
AcDbEntity
  8
0
 62
     3
100
AcDbCircle
 10
106.885886
 20
198.957422
 30
0.0
 40
3.266
100
AcDbArc
 50
0.0
 51
90.0
  0
LINE
  5
C6
330
36
100
AcDbEntity
  8
0
 62
     3
100
AcDbLine
 10
30.572886
 20
151.348422
 30
0.0
 11
106.885886
 21
151.348422
 31
0.0
  0
LINE
  5
C7
330
36
100
AcDbEntity
  8
0
 62
     3
100
AcDbLine
 10
110.151886
 20
154.614422
 30
0.0
 11
110.151886
 21
198.957422
 31
0.0
  0
ARC
  5
C8
330
36
100
AcDbEntity
  8
0
 62
     3
100
AcDbCircle
 10
106.885886
 20
154.614422
 30
0.0
 40
3.266
100
AcDbArc
 50
270.0
 51
0.0
  0
LINE
  5
C9
330
36
100
AcDbEntity
  8
0
 62
     3
100
AcDbLine
 10
30.572886
 20
147.910422
 30
0.0
 11
106.885886
 21
147.910422
 31
0.0
  0
ARC
  5
CA
330
36
100
AcDbEntity
  8
0
 62
     3
100
AcDbCircle
 10
106.885886
 20
154.614422
 30
0.0
 40
6.702999999999997
100
AcDbArc
 50
270.0
 51
0.0
  0
LINE
  5
CB
330
36
100
AcDbEntity
  8
0
 62
     3
100
AcDbLine
 10
113.588886
 20
154.614422
 30
0.0
 11
113.588886
 21
198.957422
 31
0.0
  0
ARC
  5
CC
330
36
100
AcDbEntity
  8
0
 62
     3
100
AcDbCircle
 10
106.885886
 20
198.957422
 30
0.0
 40
6.702999999999997
100
AcDbArc
 50
0.0
 51
90.0
  0
LINE
  5
CD
330
36
100
AcDbEntity
  8
0
 62
     3
100
AcDbLine
 10
23.869886
 20
198.957422
 30
0.0
 11
23.869886
 21
154.614422
 31
0.0
  0
LINE
  5
CE
330
36
100
AcDbEntity
  8
0
 62
     3
100
AcDbLine
 10
106.885886
 20
205.660422
 30
0.0
 11
30.572886
 21
205.660422
 31
0.0
  0
ARC
  5
CF
330
36
100
AcDbEntity
  8
0
 62
     3
100
AcDbCircle
 10
30.572886
 20
198.957422
 30
0.0
 40
6.702999999999997
100
AcDbArc
 50
90.0
 51
180.0
  0
LINE
  5
D0
330
36
100
AcDbEntity
  8
0
 62
     3
100
AcDbLine
 10
39.682886
 20
143.957422
 30
0.0
 11
32.46388599999999
 21
143.957422
 31
0.0
  0
LINE
  5
D1
330
36
100
AcDbEntity
  8
0
 62
     3
100
AcDbLine
 10
40.17688599999996
 20
147.910422
 30
0.0
 11
39.682886
 21
143.957422
 31
0.0
  0
LINE
  5
D2
330
36
100
AcDbEntity
  8
0
 62
     3
100
AcDbLine
 10
32.46388599999999
 20
143.957422
 30
0.0
 11
31.969886
 21
147.910422
 31
0.0
  0
LINE
  5
D3
330
36
100
AcDbEntity
  8
0
 62
     3
100
AcDbLine
 10
97.77688600000001
 20
143.957422
 30
0.0
 11
104.994886
 21
143.957422
 31
0.0
  0
LINE
  5
D4
330
36
100
AcDbEntity
  8
0
 62
     3
100
AcDbLine
 10
97.28188600000001
 20
147.910422
 30
0.0
 11
97.77688600000001
 21
143.957422
 31
0.0
  0
LINE
  5
D5
330
36
100
AcDbEntity
  8
0
 62
     3
100
AcDbLine
 10
104.994886
 20
143.957422
 30
0.0
 11
105.488886
 21
147.910422
 31
0.0
  0
LINE
  5
D6
330
36
100
AcDbEntity
  8
0
 62
     3
100
AcDbLine
 10
211.282886
 20
149.801422
 30
0.0
 11
211.282886
 21
204.457422
 31
0.0
  0
LINE
  5
D7
330
36
100
AcDbEntity
  8
0
 62
     3
100
AcDbLine
 10
198.047886
 20
143.957422
 30
0.0
 11
205.266886
 21
143.957422
 31
0.0
  0
LINE
  5
D8
330
36
100
AcDbEntity
  8
0
 62
     3
100
AcDbLine
 10
197.317886
 20
149.801422
 30
0.0
 11
198.047886
 21
143.957422
 31
0.0
  0
LINE
  5
D9
330
36
100
AcDbEntity
  8
0
 62
     3
100
AcDbLine
 10
205.266886
 20
143.957422
 30
0.0
 11
205.997886
 21
149.801422
 31
0.0
  0
LINE
  5
DA
330
36
100
AcDbEntity
  8
0
 62
     3
100
AcDbLine
 10
149.922886
 20
143.957422
 30
0.0
 11
157.141886
 21
143.957422
 31
0.0
  0
LINE
  5
DB
330
36
100
AcDbEntity
  8
0
 62
     3
100
AcDbLine
 10
149.192886
 20
149.801422
 30
0.0
 11
149.922886
 21
143.957422
 31
0.0
  0
LINE
  5
DC
330
36
100
AcDbEntity
  8
0
 62
     3
100
AcDbLine
 10
157.141886
 20
143.957422
 30
0.0
 11
157.872886
 21
149.801422
 31
0.0
  0
LINE
  5
DD
330
36
100
AcDbEntity
  8
0
 62
     3
100
AcDbLine
 10
139.438886
 20
149.801422
 30
0.0
 11
211.282886
 21
149.801422
 31
0.0
  0
LINE
  5
DE
330
36
100
AcDbEntity
  8
0
 62
     3
100
AcDbLine
 10
139.438886
 20
204.457422
 30
0.0
 11
211.282886
 21
204.457422
 31
0.0
  0
ARC
  5
DF
330
36
100
AcDbEntity
  8
0
 62
     3
100
AcDbCircle
 10
132.219886
 20
149.801422
 30
0.0
 40
1.719
100
AcDbArc
 50
180.0
 51
270.0
  0
LINE
  5
E0
330
36
100
AcDbEntity
  8
0
 62
     3
100
AcDbLine
 10
130.501886
 20
149.801422
 30
0.0
 11
130.501886
 21
204.457422
 31
0.0
  0
ARC
  5
E1
330
36
100
AcDbEntity
  8
0
 62
     3
100
AcDbCircle
 10
132.219886
 20
204.457422
 30
0.0
 40
1.719
100
AcDbArc
 50
90.0
 51
180.0
  0
LINE
  5
E2
330
36
100
AcDbEntity
  8
0
 62
     3
100
AcDbLine
 10
138.751886
 20
206.176422
 30
0.0
 11
132.219886
 21
206.176422
 31
0.0
  0
ARC
  5
E3
330
36
100
AcDbEntity
  8
0
 62
     3
100
AcDbCircle
 10
138.751886
 20
205.489422
 30
0.0
 40
0.6879999999999999
100
AcDbArc
 50
0.0
 51
90.0
  0
LINE
  5
E4
330
36
100
AcDbEntity
  8
0
 62
     3
100
AcDbLine
 10
132.219886
 20
148.082422
 30
0.0
 11
138.751886
 21
148.082422
 31
0.0
  0
LINE
  5
E5
330
36
100
AcDbEntity
  8
0
 62
     3
100
AcDbLine
 10
139.438886
 20
148.770422
 30
0.0
 11
139.438886
 21
205.489422
 31
0.0
  0
ARC
  5
E6
330
36
100
AcDbEntity
  8
0
 62
     3
100
AcDbCircle
 10
138.751886
 20
148.770422
 30
0.0
 40
0.6879999999999999
100
AcDbArc
 50
270.0
 51
0.0
  0
ARC
  5
E7
330
36
100
AcDbEntity
  8
0
 62
     3
100
AcDbCircle
 10
320.147886
 20
154.614422
 30
0.0
 40
6.702999999999997
100
AcDbArc
 50
270.0
 51
0.0
  0
ARC
  5
E8
330
36
100
AcDbEntity
  8
0
 62
     3
100
AcDbCircle
 10
243.835886
 20
154.614422
 30
0.0
 40
6.702999999999997
100
AcDbArc
 50
180.0
 51
270.0
  0
LINE
  5
E9
330
36
100
AcDbEntity
  8
0
 62
     3
100
AcDbLine
 10
237.132886
 20
154.614422
 30
0.0
 11
237.132886
 21
198.957422
 31
0.0
  0
ARC
  5
EA
330
36
100
AcDbEntity
  8
0
 62
     3
100
AcDbCircle
 10
243.835886
 20
198.957422
 30
0.0
 40
6.702999999999997
100
AcDbArc
 50
90.0
 51
180.0
  0
LINE
  5
EB
330
36
100
AcDbEntity
  8
0
 62
     3
100
AcDbLine
 10
326.851886
 20
198.957422
 30
0.0
 11
326.851886
 21
154.614422
 31
0.0
  0
LINE
  5
EC
330
36
100
AcDbEntity
  8
0
 62
     3
100
AcDbLine
 10
243.835886
 20
205.660422
 30
0.0
 11
320.147886
 21
205.660422
 31
0.0
  0
ARC
  5
ED
330
36
100
AcDbEntity
  8
0
 62
     3
100
AcDbCircle
 10
320.147886
 20
198.957422
 30
0.0
 40
6.702999999999997
100
AcDbArc
 50
0.0
 51
90.0
  0
LINE
  5
EE
330
36
100
AcDbEntity
  8
0
 62
     3
100
AcDbLine
 10
310.544886
 20
147.910422
 30
0.0
 11
311.038886
 21
143.957422
 31
0.0
  0
LINE
  5
EF
330
36
100
AcDbEntity
  8
0
 62
     3
100
AcDbLine
 10
318.257886
 20
143.957422
 30
0.0
 11
318.751886
 21
147.910422
 31
0.0
  0
LINE
  5
F0
330
36
100
AcDbEntity
  8
0
 62
     3
100
AcDbLine
 10
253.438886
 20
147.910422
 30
0.0
 11
252.944886
 21
143.957422
 31
0.0
  0
LINE
  5
F1
330
36
100
AcDbEntity
  8
0
 62
     3
100
AcDbLine
 10
245.726886
 20
143.957422
 30
0.0
 11
245.231886
 21
147.910422
 31
0.0
  0
ARC
  5
F2
330
36
100
AcDbEntity
  8
0
 62
     3
100
AcDbCircle
 10
320.147886
 20
198.957422
 30
0.0
 40
4.812999999999997
100
AcDbArc
 50
0.0
 51
90.0
  0
LINE
  5
F3
330
36
100
AcDbEntity
  8
0
 62
     3
100
AcDbLine
 10
324.9608859999999
 20
198.957422
 30
0.0
 11
324.9608859999999
 21
154.614422
 31
0.0
  0
ARC
  5
F4
330
36
100
AcDbEntity
  8
0
 62
     3
100
AcDbCircle
 10
320.147886
 20
154.614422
 30
0.0
 40
4.812999999999997
100
AcDbArc
 50
270.0
 51
0.0
  0
ARC
  5
F5
330
36
100
AcDbEntity
  8
0
 62
     3
100
AcDbCircle
 10
243.835886
 20
154.614422
 30
0.0
 40
4.812999999999997
100
AcDbArc
 50
180.0
 51
270.0
  0
LINE
  5
F6
330
36
100
AcDbEntity
  8
0
 62
     3
100
AcDbLine
 10
243.835886
 20
203.770422
 30
0.0
 11
320.147886
 21
203.770422
 31
0.0
  0
LINE
  5
F7
330
36
100
AcDbEntity
  8
0
 62
     3
100
AcDbLine
 10
239.022886
 20
154.614422
 30
0.0
 11
239.022886
 21
198.957422
 31
0.0
  0
ARC
  5
F8
330
36
100
AcDbEntity
  8
0
 62
     3
100
AcDbCircle
 10
243.835886
 20
198.957422
 30
0.0
 40
4.812999999999997
100
AcDbArc
 50
90.0
 51
180.0
  0
LINE
  5
F9
330
36
100
AcDbEntity
  8
0
 62
     3
100
AcDbLine
 10
320.147886
 20
149.801422
 30
0.0
 11
314.852886
 21
149.801422
 31
0.0
  0
LINE
  5
FA
330
36
100
AcDbEntity
  8
0
 62
     3
100
AcDbLine
 10
320.147886
 20
147.910422
 30
0.0
 11
314.852886
 21
147.910422
 31
0.0
  0
LINE
  5
FB
330
36
100
AcDbEntity
  8
0
 62
     3
100
AcDbLine
 10
314.852886
 20
143.957422
 30
0.0
 11
318.257886
 21
143.957422
 31
0.0
  0
LINE
  5
FC
330
36
100
AcDbEntity
  8
0
 62
     3
100
AcDbLine
 10
251.741886
 20
161.043422
 30
0.0
 11
251.741886
 21
159.191422
 31
0.0
  0
LINE
  5
FD
330
36
100
AcDbEntity
  8
0
 62
     3
100
AcDbLine
 10
246.929886
 20
161.043422
 30
0.0
 11
246.929886
 21
159.191422
 31
0.0
  0
ARC
  5
FE
330
36
100
AcDbEntity
  8
0
 62
     3
100
AcDbCircle
 10
249.335886
 20
160.117422
 30
0.0
 40
2.577999999999998
100
AcDbArc
 50
295.233
 51
338.961
  0
LINE
  5
FF
330
36
100
AcDbEntity
  8
0
 62
     3
100
AcDbLine
 10
248.286886
 20
143.957422
 30
0.0
 11
245.726886
 21
143.957422
 31
0.0
  0
LINE
  5
100
330
36
100
AcDbEntity
  8
0
 62
     3
100
AcDbLine
 10
248.286886
 20
149.801422
 30
0.0
 11
243.835886
 21
149.801422
 31
0.0
  0
LINE
  5
101
330
36
100
AcDbEntity
  8
0
 62
     3
100
AcDbLine
 10
248.286886
 20
147.910422
 30
0.0
 11
243.835886
 21
147.910422
 31
0.0
  0
LINE
  5
102
330
36
100
AcDbEntity
  8
0
 62
     3
100
AcDbLine
 10
252.944886
 20
143.957422
 30
0.0
 11
250.434886
 21
143.957422
 31
0.0
  0
LINE
  5
103
330
36
100
AcDbEntity
  8
0
 62
     3
100
AcDbLine
 10
310.985886
 20
149.801422
 30
0.0
 11
250.434886
 21
149.801422
 31
0.0
  0
LINE
  5
104
330
36
100
AcDbEntity
  8
0
 62
     3
100
AcDbLine
 10
310.985886
 20
147.910422
 30
0.0
 11
250.434886
 21
147.910422
 31
0.0
  0
LINE
  5
105
330
36
100
AcDbEntity
  8
0
 62
     3
100
AcDbLine
 10
314.852886
 20
136.377422
 30
0.0
 11
314.852886
 21
171.461422
 31
0.0
  0
LINE
  5
106
330
36
100
AcDbEntity
  8
0
 62
     3
100
AcDbLine
 10
310.985886
 20
136.699422
 30
0.0
 11
310.985886
 21
171.461422
 31
0.0
  0
ARC
  5
107
330
36
100
AcDbEntity
  8
0
 62
     3
100
AcDbCircle
 10
312.919886
 20
171.461422
 30
0.0
 40
2.063
100
AcDbArc
 50
0.0
 51
180.0
  0
ARC
  5
108
330
36
100
AcDbEntity
  8
0
 62
     3
100
AcDbCircle
 10
312.919886
 20
171.461422
 30
0.0
 40
3.266
100
AcDbArc
 50
309.1670000000001
 51
230.833
  0
ARC
  5
109
330
36
100
AcDbEntity
  8
0
 62
     3
100
AcDbCircle
 10
312.919886
 20
160.117422
 30
0.0
 40
3.266
100
AcDbArc
 50
126.307
 51
230.833
  0
ARC
  5
10A
330
36
100
AcDbEntity
  8
0
 62
     3
100
AcDbCircle
 10
312.919886
 20
160.117422
 30
0.0
 40
3.266
100
AcDbArc
 50
309.1670000000001
 51
53.69299999999999
  0
ARC
  5
10B
330
36
100
AcDbEntity
  8
0
 62
     3
100
AcDbCircle
 10
312.919886
 20
160.117422
 30
0.0
 40
2.063
100
AcDbArc
 50
159.636
 51
180.0
  0
LINE
  5
10C
330
36
100
AcDbEntity
  8
0
 62
     3
100
AcDbLine
 10
64.60488599999999
 20
221.648422
 30
0.0
 11
64.60488599999999
 21
223.3674220000001
 31
0.0
  0
LINE
  5
10D
330
36
100
AcDbEntity
  8
0
 62
     3
100
AcDbLine
 10
72.85488599999998
 20
223.3674220000001
 30
0.0
 11
64.60488599999999
 21
223.3674220000001
 31
0.0
  0
LINE
  5
10E
330
36
100
AcDbEntity
  8
0
 62
     3
100
AcDbLine
 10
72.85488599999998
 20
221.648422
 30
0.0
 11
72.85488599999998
 21
223.3674220000001
 31
0.0
  0
LINE
  5
10F
330
36
100
AcDbEntity
  8
0
 62
     3
100
AcDbLine
 10
58.416886
 20
205.660422
 30
0.0
 11
58.416886
 21
207.895422
 31
0.0
  0
ARC
  5
110
330
36
100
AcDbEntity
  8
0
 62
     3
100
AcDbCircle
 10
46.95888599999999
 20
221.318422
 30
0.0
 40
17.649
100
AcDbArc
 50
310.484
 51
1.06
  0
ARC
  5
111
330
36
100
AcDbEntity
  8
0
 62
     3
100
AcDbCircle
 10
90.500886
 20
221.318422
 30
0.0
 40
17.649
100
AcDbArc
 50
178.94
 51
229.516
  0
LINE
  5
112
330
36
100
AcDbEntity
  8
0
 62
     3
100
AcDbLine
 10
79.04188600000002
 20
205.660422
 30
0.0
 11
79.04188600000002
 21
207.895422
 31
0.0
  0
ARC
  5
113
330
36
100
AcDbEntity
  8
0
 62
     3
100
AcDbCircle
 10
163.846886
 20
213.269422
 30
0.0
 40
1.857
100
AcDbArc
 50
95.56099999999998
 51
165.239
  0
LINE
  5
114
330
36
100
AcDbEntity
  8
0
 62
     3
100
AcDbLine
 10
159.740886
 20
206.523422
 30
0.0
 11
162.050886
 21
213.742422
 31
0.0
  0
LINE
  5
115
330
36
100
AcDbEntity
  8
0
 62
     3
100
AcDbLine
 10
177.099886
 20
223.3674220000001
 30
0.0
 11
168.849886
 21
223.3674220000001
 31
0.0
  0
LINE
  5
116
330
36
100
AcDbEntity
  8
0
 62
     3
100
AcDbLine
 10
194.459886
 20
206.523422
 30
0.0
 11
192.149886
 21
213.742422
 31
0.0
  0
LINE
  5
117
330
36
100
AcDbEntity
  8
0
 62
     3
100
AcDbLine
 10
177.099886
 20
223.3674220000001
 30
0.0
 11
185.349886
 21
223.3674220000001
 31
0.0
  0
LINE
  5
118
330
36
100
AcDbEntity
  8
0
 62
     3
100
AcDbLine
 10
152.865886
 20
206.523422
 30
0.0
 11
152.865886
 21
205.492422
 31
0.0
  0
LINE
  5
119
330
36
100
AcDbEntity
  8
0
 62
     3
100
AcDbLine
 10
144.271886
 20
223.364422
 30
0.0
 11
144.271886
 21
221.989422
 31
0.0
  0
ARC
  5
11A
330
36
100
AcDbEntity
  8
0
 62
     3
100
AcDbCircle
 10
175.266886
 20
207.265422
 30
0.0
 40
22.471
100
AcDbArc
 50
152.847
 51
184.5329999999999
  0
LINE
  5
11B
330
36
100
AcDbEntity
  8
0
 62
     3
100
AcDbLine
 10
144.271886
 20
221.989422
 30
0.0
 11
149.771886
 21
221.989422
 31
0.0
  0
ARC
  5
11C
330
36
100
AcDbEntity
  8
0
 62
     3
100
AcDbCircle
 10
147.663886
 20
217.232422
 30
0.0
 40
5.202999999999998
100
AcDbArc
 50
3.003999999999998
 51
66.09999999999999
  0
ARC
  5
11D
330
36
100
AcDbEntity
  8
0
 62
     3
100
AcDbCircle
 10
224.069886
 20
190.669422
 30
0.0
 40
76.09799999999999
100
AcDbArc
 50
159.351
 51
168.77
  0
LINE
  5
11E
330
36
100
AcDbEntity
  8
0
 62
     3
100
AcDbLine
 10
149.427886
 20
205.489422
 30
0.0
 11
149.427886
 21
204.461422
 31
0.0
  0
LINE
  5
11F
330
36
100
AcDbEntity
  8
0
 62
     3
100
AcDbLine
 10
144.271886
 20
223.364422
 30
0.0
 11
150.115886
 21
223.364422
 31
0.0
  0
ARC
  5
120
330
36
100
AcDbEntity
  8
0
 62
     3
100
AcDbCircle
 10
148.954886
 20
217.143422
 30
0.0
 40
6.327999999999997
100
AcDbArc
 50
3.418
 51
79.43000000000002
  0
LINE
  5
121
330
36
100
AcDbEntity
  8
0
 62
     3
100
AcDbLine
 10
159.740886
 20
206.523422
 30
0.0
 11
159.740886
 21
204.457422
 31
0.0
  0
ARC
  5
122
330
36
100
AcDbEntity
  8
0
 62
     3
100
AcDbCircle
 10
190.353886
 20
213.269422
 30
0.0
 40
1.857
100
AcDbArc
 50
14.761
 51
84.43899999999997
  0
LINE
  5
123
330
36
100
AcDbEntity
  8
0
 62
     3
100
AcDbLine
 10
163.666886
 20
215.1174220000001
 30
0.0
 11
190.533886
 21
215.1174220000001
 31
0.0
  0
LINE
  5
124
330
36
100
AcDbEntity
  8
0
 62
     3
100
AcDbLine
 10
209.927886
 20
223.364422
 30
0.0
 11
209.927886
 21
221.989422
 31
0.0
  0
LINE
  5
125
330
36
100
AcDbEntity
  8
0
 62
     3
100
AcDbLine
 10
209.927886
 20
221.989422
 30
0.0
 11
204.427886
 21
221.989422
 31
0.0
  0
ARC
  5
126
330
36
100
AcDbEntity
  8
0
 62
     3
100
AcDbCircle
 10
206.535886
 20
217.232422
 30
0.0
 40
5.202999999999998
100
AcDbArc
 50
113.9
 51
176.996
  0
LINE
  5
127
330
36
100
AcDbEntity
  8
0
 62
     3
100
AcDbLine
 10
209.927886
 20
223.364422
 30
0.0
 11
204.084886
 21
223.364422
 31
0.0
  0
ARC
  5
128
330
36
100
AcDbEntity
  8
0
 62
     3
100
AcDbCircle
 10
205.245886
 20
217.143422
 30
0.0
 40
6.327999999999997
100
AcDbArc
 50
100.57
 51
176.582
  0
ARC
  5
129
330
36
100
AcDbEntity
  8
0
 62
     3
100
AcDbCircle
 10
178.933886
 20
207.265422
 30
0.0
 40
22.471
100
AcDbArc
 50
355.467
 51
27.153
  0
ARC
  5
12A
330
36
100
AcDbEntity
  8
0
 62
     3
100
AcDbCircle
 10
130.130886
 20
190.669422
 30
0.0
 40
76.09799999999999
100
AcDbArc
 50
11.23
 51
20.649
  0
LINE
  5
12B
330
36
100
AcDbEntity
  8
0
 62
     3
100
AcDbLine
 10
204.771886
 20
205.489422
 30
0.0
 11
204.771886
 21
204.461422
 31
0.0
  0
LINE
  5
12C
330
36
100
AcDbEntity
  8
0
 62
     3
100
AcDbLine
 10
194.459886
 20
206.523422
 30
0.0
 11
194.459886
 21
204.457422
 31
0.0
  0
ARC
  5
12D
330
36
100
AcDbEntity
  8
0
 62
     3
100
AcDbCircle
 10
169.558886
 20
204.117422
 30
0.0
 40
19.25
100
AcDbArc
 50
89.66700000000001
 51
140.354
  0
ARC
  5
12E
330
36
100
AcDbEntity
  8
0
 62
     3
100
AcDbCircle
 10
184.641886
 20
204.117422
 30
0.0
 40
19.25
100
AcDbArc
 50
39.646
 51
90.333
  0
LINE
  5
12F
330
36
100
AcDbEntity
  8
0
 62
     3
100
AcDbLine
 10
277.866886
 20
221.648422
 30
0.0
 11
277.866886
 21
223.3674220000001
 31
0.0
  0
LINE
  5
130
330
36
100
AcDbEntity
  8
0
 62
     3
100
AcDbLine
 10
286.116886
 20
223.3674220000001
 30
0.0
 11
277.866886
 21
223.3674220000001
 31
0.0
  0
LINE
  5
131
330
36
100
AcDbEntity
  8
0
 62
     3
100
AcDbLine
 10
286.116886
 20
221.648422
 30
0.0
 11
286.116886
 21
223.3674220000001
 31
0.0
  0
LINE
  5
132
330
36
100
AcDbEntity
  8
0
 62
     3
100
AcDbLine
 10
286.116886
 20
221.648422
 30
0.0
 11
277.866886
 21
221.648422
 31
0.0
  0
LINE
  5
133
330
36
100
AcDbEntity
  8
0
 62
     3
100
AcDbLine
 10
271.679886
 20
205.660422
 30
0.0
 11
271.679886
 21
207.895422
 31
0.0
  0
ARC
  5
134
330
36
100
AcDbEntity
  8
0
 62
     3
100
AcDbCircle
 10
260.220886
 20
221.318422
 30
0.0
 40
17.649
100
AcDbArc
 50
310.484
 51
1.06
  0
ARC
  5
135
330
36
100
AcDbEntity
  8
0
 62
     3
100
AcDbCircle
 10
303.762886
 20
221.318422
 30
0.0
 40
17.649
100
AcDbArc
 50
178.94
 51
229.516
  0
LINE
  5
136
330
36
100
AcDbEntity
  8
0
 62
     3
100
AcDbLine
 10
292.304886
 20
205.660422
 30
0.0
 11
292.304886
 21
207.895422
 31
0.0
  0
TEXT
  5
137
330
36
100
AcDbEntity
  8
0
 62
     3
100
AcDbText
 10
31.129564
 20
152.920423
 30
0.0
 40
2.85012
  1
型式ＮＢー１２０
 41
0.833333
100
AcDbText
  0
LINE
  5
13C
330
36
100
AcDbEntity
  8
0
100
AcDbLine
 10
295.460744
 20
168.088698
 30
0.0
 11
332.557395
 21
192.752958
 31
0.0
  0
LINE
  5
13D
330
36
100
AcDbEntity
  8
0
100
AcDbLine
 10
332.557395
 20
192.752958
 30
0.0
 11
349.057395
 21
192.752958
 31
0.0
  0
TEXT
  5
13E
330
36
100
AcDbEntity
  8
0
 62
     4
100
AcDbText
 10
335.3073950000001
 20
193.752958
 30
0.0
 40
3.2
  1
型式銘板
 41
0.716146
100
AcDbText
  0
TEXT
  5
13F
330
36
100
AcDbEntity
  8
0
 62
     3
100
AcDbText
 10
245.5432742128741
 20
48.04648099999999
 30
0.0
 40
3.2
  1
120A(10sec)MAX
  7
高3.2
100
AcDbText
  0
LINE
  5
140
330
36
100
AcDbEntity
  8
0
 62
     3
100
AcDbLine
 10
213.7203466613641
 20
36.458481
 30
0.0
 11
294.5625938513074
 21
36.458481
 31
0.0
  0
CIRCLE
  5
147
330
36
100
AcDbEntity
  8
0
100
AcDbCircle
 10
335.181105
 20
148.119657
 30
0.0
 40
5.0
  0
TEXT
  5
148
330
36
100
AcDbEntity
  8
0
 62
     4
100
AcDbText
 10
332.181105
 20
145.8625072259684
 30
0.0
 40
4.5
  1
13
  7
高4.5
100
AcDbText
  0
CIRCLE
  5
14F
330
36
100
AcDbEntity
  8
0
100
AcDbCircle
 10
156.42492
 20
231.925246
 30
0.0
 40
5.0
  0
TEXT
  5
150
330
36
100
AcDbEntity
  8
0
 62
     4
100
AcDbText
 10
154.4425366493678
 20
228.434337
 30
0.0
 40
6.299999999999998
  1
2
  7
高6.3
100
AcDbText
  0
CIRCLE
  5
157
330
36
100
AcDbEntity
  8
0
100
AcDbCircle
 10
134.218872
 20
231.925246
 30
0.0
 40
5.0
  0
TEXT
  5
158
330
36
100
AcDbEntity
  8
0
 62
     4
100
AcDbText
 10
132.8917258686731
 20
228.9633123779643
 30
0.0
 40
6.299999999999998
  1
1
  7
高6.3
100
AcDbText
  0
CIRCLE
  5
15F
330
36
100
AcDbEntity
  8
0
100
AcDbCircle
 10
106.229347
 20
231.925246
 30
0.0
 40
5.0
  0
TEXT
  5
160
330
36
100
AcDbEntity
  8
0
 62
     4
100
AcDbText
 10
104.1114692710684
 20
228.434337
 30
0.0
 40
6.299999999999998
  1
4
  7
高6.3
100
AcDbText
  0
CIRCLE
  5
167
330
36
100
AcDbEntity
  8
0
100
AcDbCircle
 10
90.00972
 20
231.925246
 30
0.0
 40
5.0
  0
TEXT
  5
168
330
36
100
AcDbEntity
  8
0
 62
     4
100
AcDbText
 10
88.90918810178526
 20
228.434337
 30
0.0
 40
6.299999999999998
  1
1
  7
高6.3
100
AcDbText
  0
CIRCLE
  5
16F
330
36
100
AcDbEntity
  8
0
100
AcDbCircle
 10
58.57774499999999
 20
231.925246
 30
0.0
 40
5.0
  0
TEXT
  5
170
330
36
100
AcDbEntity
  8
0
 62
     4
100
AcDbText
 10
56.54557073972727
 20
228.434337
 30
0.0
 40
6.299999999999998
  1
3
  7
高6.3
100
AcDbText
  0
CIRCLE
  5
177
330
36
100
AcDbEntity
  8
0
100
AcDbCircle
 10
39.62761500000001
 20
123.143466
 30
0.0
 40
5.0
  0
TEXT
  5
178
330
36
100
AcDbEntity
  8
0
 62
     4
100
AcDbText
 10
37.90218116881306
 20
119.652557
 30
0.0
 40
6.299999999999998
  1
5
  7
高6.3
100
AcDbText
  0
CIRCLE
  5
17F
330
36
100
AcDbEntity
  8
0
100
AcDbCircle
 10
73.49616800000003
 20
123.143466
 30
0.0
 40
5.0
  0
TEXT
  5
180
330
36
100
AcDbEntity
  8
0
 62
     4
100
AcDbText
 10
71.61607604292431
 20
119.652557
 30
0.0
 40
6.299999999999998
  1
6
  7
高6.3
100
AcDbText
  0
CIRCLE
  5
187
330
36
100
AcDbEntity
  8
0
100
AcDbCircle
 10
85.301586
 20
123.143466
 30
0.0
 40
5.0
  0
TEXT
  5
188
330
36
100
AcDbEntity
  8
0
 62
     4
100
AcDbText
 10
83.43783021678881
 20
119.652557
 30
0.0
 40
6.299999999999998
  1
7
  7
高6.3
100
AcDbText
  0
CIRCLE
  5
18F
330
36
100
AcDbEntity
  8
0
100
AcDbCircle
 10
97.281759
 20
123.143466
 30
0.0
 40
5.0
  0
TEXT
  5
190
330
36
100
AcDbEntity
  8
0
 62
     4
100
AcDbText
 10
95.31431551786885
 20
119.652557
 30
0.0
 40
6.299999999999998
  1
8
  7
高6.3
100
AcDbText
  0
CIRCLE
  5
197
330
36
100
AcDbEntity
  8
0
100
AcDbCircle
 10
108.560787
 20
123.143466
 30
0.0
 40
5.0
  0
TEXT
  5
198
330
36
100
AcDbEntity
  8
0
 62
     4
100
AcDbText
 10
106.6212426683603
 20
119.8344580883318
 30
0.0
 40
6.299999999999998
  1
9
  7
高6.3
100
AcDbText
  0
CIRCLE
  5
19F
330
36
100
AcDbEntity
  8
0
100
AcDbCircle
 10
143.349734
 20
123.143466
 30
0.0
 40
5.0
  0
TEXT
  5
1A0
330
36
100
AcDbEntity
  8
0
 62
     4
100
AcDbText
 10
140.70003108478
 20
120.8170448832456
 30
0.0
 40
4.5
  1
10
  7
高4.5
100
AcDbText
  0
CIRCLE
  5
1A7
330
36
100
AcDbEntity
  8
0
100
AcDbCircle
 10
160.99946
 20
123.143466
 30
0.0
 40
5.0
  0
TEXT
  5
1A8
330
36
100
AcDbEntity
  8
0
 62
     4
100
AcDbText
 10
158.6894153219605
 20
121.0229441973627
 30
0.0
 40
4.5
  1
11
  7
高4.5
100
AcDbText
  0
CIRCLE
  5
1AF
330
36
100
AcDbEntity
  8
0
100
AcDbCircle
 10
234.094375
 20
123.143466
 30
0.0
 40
5.0
  0
TEXT
  5
1B0
330
36
100
AcDbEntity
  8
0
 62
     4
100
AcDbText
 10
230.7397448137922
 20
120.942793523254
 30
0.0
 40
4.5
  1
12
  7
高4.5
100
AcDbText
  0
TEXT
  5
1B1
330
36
100
AcDbEntity
  8
0
 62
     3
100
AcDbText
 10
332.653661232167
 20
-13.421457
 30
0.0
 40
6.299999999999998
  1
NB-120
  7
高6.3
100
AcDbText
  0
TEXT
  5
1B2
330
36
100
AcDbEntity
  8
0
100
AcDbText
 10
34.055127
 20
164.617318
 30
0.0
 40
1.113599999999999
  1
電圧切替
 41
0.833333
100
AcDbText
  0
TEXT
  5
1B3
330
36
100
AcDbEntity
  8
0
100
AcDbText
 10
39.355192
 20
159.528667
 30
0.0
 40
1.113599999999999
  1
24V
 41
0.9
100
AcDbText
  0
TEXT
  5
1B4
330
36
100
AcDbEntity
  8
0
100
AcDbText
 10
27.544379
 20
159.528667
 30
0.0
 40
1.113599999999999
  1
12V
100
AcDbText
  0
TEXT
  5
1B5
330
36
100
AcDbEntity
  8
0
100
AcDbText
 10
70.033534
 20
164.61522
 30
0.0
 40
1.113599999999999
  1
バッテリーチェック
 41
0.833333
100
AcDbText
  0
TEXT
  5
1B6
330
36
100
AcDbEntity
  8
0
100
AcDbText
 10
82.08365200000001
 20
164.546029
 30
0.0
 40
1.113599999999999
  1
電源ランプ
 41
0.833333
100
AcDbText
  0
TEXT
  5
1B7
330
36
100
AcDbEntity
  8
0
100
AcDbText
 10
90.04516999999998
 20
164.639332
 30
0.0
 40
1.113599999999999
  1
異常ランプ
 41
0.833333
100
AcDbText
  0
TEXT
  5
1B8
330
36
100
AcDbEntity
  8
0
100
AcDbText
 10
98.13458799999999
 20
164.643526
 30
0.0
 40
1.113599999999999
  1
ブレーカー
 41
0.833333
100
AcDbText
  0
TEXT
  5
1B9
330
36
100
AcDbEntity
  8
0
100
AcDbText
 10
87.96761899999998
 20
174.830347
 30
0.0
 40
1.113599999999999
  1
１２時間タイマー
 41
0.833333
100
AcDbText
  0
TEXT
  5
1BA
330
36
100
AcDbEntity
  8
0
100
AcDbText
 10
80.04168599999998
 20
184.942098
 30
0.0
 40
1.113599999999999
  1
OFF
100
AcDbText
  0
TEXT
  5
1BB
330
36
100
AcDbEntity
  8
0
100
AcDbText
 10
86.44319499999998
 20
198.802239
 30
0.0
 40
0.8908799999999999
  1
CHARGER SWICH
 41
1.048387
100
AcDbText
  0
CIRCLE
  5
1BD
330
36
100
AcDbEntity
  8
0
100
AcDbCircle
 10
99.135886
 20
160.114422
 30
0.0
 40
2.063
  0
CIRCLE
  5
1BE
330
36
100
AcDbEntity
  8
0
100
AcDbCircle
 10
99.135886
 20
160.114422
 30
0.0
 40
0.6450000000000001
  0
CIRCLE
  5
1BF
330
36
100
AcDbEntity
  8
0
100
AcDbCircle
 10
91.22988599999999
 20
160.114422
 30
0.0
 40
1.719
  0
CIRCLE
  5
1C0
330
36
100
AcDbEntity
  8
0
100
AcDbCircle
 10
83.322886
 20
160.114422
 30
0.0
 40
1.719
  0
LINE
  5
1C1
330
36
100
AcDbEntity
  8
0
100
AcDbLine
 10
87.03588600000001
 20
185.890422
 30
0.0
 11
87.03588600000001
 21
185.212422
 31
0.0
  0
LINE
  5
1C2
330
36
100
AcDbEntity
  8
0
100
AcDbLine
 10
87.03588600000001
 20
185.212422
 30
0.0
 11
87.71488599999996
 21
185.212422
 31
0.0
  0
LINE
  5
1C3
330
36
100
AcDbEntity
  8
0
100
AcDbLine
 10
87.71488599999996
 20
185.212422
 30
0.0
 11
87.71488599999996
 21
185.890422
 31
0.0
  0
LINE
  5
1C4
330
36
100
AcDbEntity
  8
0
100
AcDbLine
 10
87.71488599999996
 20
185.890422
 30
0.0
 11
87.03588600000001
 21
185.890422
 31
0.0
  0
LINE
  5
1C5
330
36
100
AcDbEntity
  8
0
100
AcDbLine
 10
87.680886
 20
185.212422
 30
0.0
 11
87.680886
 21
185.890422
 31
0.0
  0
LINE
  5
1C6
330
36
100
AcDbEntity
  8
0
100
AcDbLine
 10
87.64688599999997
 20
185.212422
 30
0.0
 11
87.64688599999997
 21
185.890422
 31
0.0
  0
LINE
  5
1C7
330
36
100
AcDbEntity
  8
0
100
AcDbLine
 10
87.612886
 20
185.212422
 30
0.0
 11
87.612886
 21
185.890422
 31
0.0
  0
LINE
  5
1C8
330
36
100
AcDbEntity
  8
0
100
AcDbLine
 10
87.57888599999999
 20
185.212422
 30
0.0
 11
87.57888599999999
 21
185.890422
 31
0.0
  0
LINE
  5
1C9
330
36
100
AcDbEntity
  8
0
100
AcDbLine
 10
87.54588599999998
 20
185.212422
 30
0.0
 11
87.54588599999998
 21
185.890422
 31
0.0
  0
LINE
  5
1CA
330
36
100
AcDbEntity
  8
0
100
AcDbLine
 10
87.511886
 20
185.212422
 30
0.0
 11
87.511886
 21
185.890422
 31
0.0
  0
LINE
  5
1CB
330
36
100
AcDbEntity
  8
0
100
AcDbLine
 10
87.47788599999998
 20
185.212422
 30
0.0
 11
87.47788599999998
 21
185.890422
 31
0.0
  0
LINE
  5
1CC
330
36
100
AcDbEntity
  8
0
100
AcDbLine
 10
87.44388599999998
 20
185.212422
 30
0.0
 11
87.44388599999998
 21
185.890422
 31
0.0
  0
LINE
  5
1CD
330
36
100
AcDbEntity
  8
0
100
AcDbLine
 10
87.40988599999999
 20
185.212422
 30
0.0
 11
87.40988599999999
 21
185.890422
 31
0.0
  0
LINE
  5
1CE
330
36
100
AcDbEntity
  8
0
100
AcDbLine
 10
87.375886
 20
185.212422
 30
0.0
 11
87.375886
 21
185.890422
 31
0.0
  0
LINE
  5
1CF
330
36
100
AcDbEntity
  8
0
100
AcDbLine
 10
87.34188600000001
 20
185.212422
 30
0.0
 11
87.34188600000001
 21
185.890422
 31
0.0
  0
LINE
  5
1D0
330
36
100
AcDbEntity
  8
0
100
AcDbLine
 10
87.307886
 20
185.212422
 30
0.0
 11
87.307886
 21
185.890422
 31
0.0
  0
LINE
  5
1D1
330
36
100
AcDbEntity
  8
0
100
AcDbLine
 10
87.27388600000002
 20
185.212422
 30
0.0
 11
87.27388600000002
 21
185.890422
 31
0.0
  0
LINE
  5
1D2
330
36
100
AcDbEntity
  8
0
100
AcDbLine
 10
87.239886
 20
185.212422
 30
0.0
 11
87.239886
 21
185.890422
 31
0.0
  0
LINE
  5
1D3
330
36
100
AcDbEntity
  8
0
100
AcDbLine
 10
87.20588599999997
 20
185.212422
 30
0.0
 11
87.20588599999997
 21
185.890422
 31
0.0
  0
LINE
  5
1D4
330
36
100
AcDbEntity
  8
0
100
AcDbLine
 10
87.171886
 20
185.212422
 30
0.0
 11
87.171886
 21
185.890422
 31
0.0
  0
LINE
  5
1D5
330
36
100
AcDbEntity
  8
0
100
AcDbLine
 10
87.13788599999999
 20
185.212422
 30
0.0
 11
87.13788599999999
 21
185.890422
 31
0.0
  0
LINE
  5
1D6
330
36
100
AcDbEntity
  8
0
100
AcDbLine
 10
87.10388599999998
 20
185.212422
 30
0.0
 11
87.10388599999998
 21
185.890422
 31
0.0
  0
LINE
  5
1D7
330
36
100
AcDbEntity
  8
0
100
AcDbLine
 10
87.069886
 20
185.212422
 30
0.0
 11
87.069886
 21
185.890422
 31
0.0
  0
CIRCLE
  5
1D8
330
36
100
AcDbEntity
  8
0
100
AcDbCircle
 10
33.838886
 20
160.114422
 30
0.0
 40
1.044999999999999
  0
LINE
  5
1D9
330
36
100
AcDbEntity
  8
0
100
AcDbLine
 10
33.838886
 20
161.145422
 30
0.0
 11
35.385886
 21
160.801422
 31
0.0
  0
LINE
  5
1DA
330
36
100
AcDbEntity
  8
0
100
AcDbLine
 10
33.838886
 20
159.082422
 30
0.0
 11
35.385886
 21
159.426422
 31
0.0
  0
ARC
  5
1DB
330
36
100
AcDbEntity
  8
0
100
AcDbCircle
 10
34.869886
 20
160.114422
 30
0.0
 40
0.8589999999999998
100
AcDbArc
 50
306.87
 51
53.13
  0
LINE
  5
1DC
330
36
100
AcDbEntity
  8
0
100
AcDbLine
 10
40.57188599999999
 20
194.803422
 30
0.0
 11
39.886886
 21
195.494422
 31
0.0
  0
LINE
  5
1DD
330
36
100
AcDbEntity
  8
0
100
AcDbLine
 10
43.855886
 20
194.803422
 30
0.0
 11
43.38888599999999
 21
195.494422
 31
0.0
  0
TEXT
  5
1DE
330
36
100
AcDbEntity
  8
0
100
AcDbText
 10
35.946886
 20
195.469422
 30
0.0
 40
1.105999999999998
  1
0
 41
1.728000999999999
100
AcDbText
  0
TEXT
  5
1DF
330
36
100
AcDbEntity
  8
0
100
AcDbText
 10
42.360886
 20
195.494422
 30
0.0
 40
1.105999999999998
  1
20
 41
1.428218
100
AcDbText
  0
LINE
  5
1E0
330
36
100
AcDbEntity
  8
0
100
AcDbLine
 10
38.196886
 20
194.347422
 30
0.0
 11
35.758886
 21
194.347422
 31
0.0
  0
LINE
  5
1E1
330
36
100
AcDbEntity
  8
0
100
AcDbLine
 10
35.758886
 20
194.347422
 30
0.0
 11
35.758886
 21
188.817422
 31
0.0
  0
LINE
  5
1E2
330
36
100
AcDbEntity
  8
0
100
AcDbLine
 10
38.196886
 20
188.817422
 30
0.0
 11
35.758886
 21
188.817422
 31
0.0
  0
TEXT
  5
1E3
330
36
100
AcDbEntity
  8
0
100
AcDbText
 10
41.598886
 20
190.278422
 30
0.0
 40
1.105999999999998
  1
0
 41
1.728000999999999
100
AcDbText
  0
LINE
  5
1E4
330
36
100
AcDbEntity
  8
0
100
AcDbLine
 10
37.626886
 20
193.939422
 30
0.0
 11
36.424886
 21
194.803422
 31
0.0
  0
LINE
  5
1E5
330
36
100
AcDbEntity
  8
0
100
AcDbLine
 10
36.424886
 20
196.704422
 30
0.0
 11
36.424886
 21
197.568422
 31
0.0
  0
LINE
  5
1E6
330
36
100
AcDbEntity
  8
0
100
AcDbLine
 10
36.424886
 20
194.803422
 30
0.0
 11
36.424886
 21
195.494422
 31
0.0
  0
LINE
  5
1E7
330
36
100
AcDbEntity
  8
0
100
AcDbLine
 10
43.077886
 20
191.692422
 30
0.0
 11
43.077886
 21
192.383422
 31
0.0
  0
LINE
  5
1E8
330
36
100
AcDbEntity
  8
0
100
AcDbLine
 10
43.035886
 20
189.335422
 30
0.0
 11
38.196886
 21
189.335422
 31
0.0
  0
LINE
  5
1E9
330
36
100
AcDbEntity
  8
0
100
AcDbLine
 10
43.035886
 20
188.299422
 30
0.0
 11
38.196886
 21
188.299422
 31
0.0
  0
LINE
  5
1EA
330
36
100
AcDbEntity
  8
0
100
AcDbLine
 10
38.196886
 20
189.335422
 30
0.0
 11
38.196886
 21
188.299422
 31
0.0
  0
LINE
  5
1EB
330
36
100
AcDbEntity
  8
0
100
AcDbLine
 10
43.035886
 20
189.335422
 30
0.0
 11
43.035886
 21
188.299422
 31
0.0
  0
TEXT
  5
1EC
330
36
100
AcDbEntity
  8
0
100
AcDbText
 10
38.524886
 20
188.299422
 30
0.0
 40
1.105999999999998
  1
アンペア
 41
0.8339999999999998
100
AcDbText
  0
LINE
  5
1ED
330
36
100
AcDbEntity
  8
0
100
AcDbLine
 10
48.694886
 20
194.803422
 30
0.0
 11
48.550886
 21
195.494422
 31
0.0
  0
LINE
  5
1EE
330
36
100
AcDbEntity
  8
0
100
AcDbLine
 10
61.13688599999999
 20
194.803422
 30
0.0
 11
61.82288599999999
 21
195.494422
 31
0.0
  0
LINE
  5
1EF
330
36
100
AcDbEntity
  8
0
100
AcDbLine
 10
57.853886
 20
194.803422
 30
0.0
 11
58.31988599999998
 21
195.494422
 31
0.0
  0
LINE
  5
1F0
330
36
100
AcDbEntity
  8
0
100
AcDbLine
 10
55.433886
 20
194.803422
 30
0.0
 11
55.73988599999999
 21
195.494422
 31
0.0
  0
TEXT
  5
1F1
330
36
100
AcDbEntity
  8
0
100
AcDbText
 10
47.521886
 20
195.494422
 30
0.0
 40
1.105999999999998
  1
40
 41
1.428218
100
AcDbText
  0
TEXT
  5
1F2
330
36
100
AcDbEntity
  8
0
100
AcDbText
 10
52.13088599999998
 20
195.494422
 30
0.0
 40
1.105999999999998
  1
60
 41
1.428218
100
AcDbText
  0
TEXT
  5
1F3
330
36
100
AcDbEntity
  8
0
100
AcDbText
 10
57.291886
 20
195.494422
 30
0.0
 40
1.105999999999998
  1
80
 41
1.428218
100
AcDbText
  0
LINE
  5
1F4
330
36
100
AcDbEntity
  8
0
100
AcDbLine
 10
46.27488599999998
 20
194.803422
 30
0.0
 11
45.96988599999998
 21
195.494422
 31
0.0
  0
LINE
  5
1F5
330
36
100
AcDbEntity
  8
0
100
AcDbLine
 10
53.01488599999998
 20
194.803422
 30
0.0
 11
53.158886
 21
195.494422
 31
0.0
  0
LINE
  5
1F6
330
36
100
AcDbEntity
  8
0
100
AcDbLine
 10
63.511886
 20
188.817422
 30
0.0
 11
65.94988599999999
 21
188.817422
 31
0.0
  0
TEXT
  5
1F7
330
36
100
AcDbEntity
  8
0
100
AcDbText
 10
58.41188599999998
 20
191.001422
 30
0.0
 40
1.105999999999998
  1
40V
 41
1.077727
100
AcDbText
  0
LINE
  5
1F8
330
36
100
AcDbEntity
  8
0
100
AcDbLine
 10
59.99388599999999
 20
191.001422
 30
0.0
 11
63.360886
 21
193.420422
 31
0.0
  0
LINE
  5
1F9
330
36
100
AcDbEntity
  8
0
100
AcDbLine
 10
47.64888599999999
 20
191.692422
 30
0.0
 11
47.34388599999999
 21
192.383422
 31
0.0
  0
LINE
  5
1FA
330
36
100
AcDbEntity
  8
0
100
AcDbLine
 10
49.990886
 20
191.692422
 30
0.0
 11
49.990886
 21
192.383422
 31
0.0
  0
LINE
  5
1FB
330
36
100
AcDbEntity
  8
0
100
AcDbLine
 10
50.335886
 20
191.692422
 30
0.0
 11
50.335886
 21
192.383422
 31
0.0
  0
LINE
  5
1FC
330
36
100
AcDbEntity
  8
0
100
AcDbLine
 10
55.86588599999998
 20
192.383422
 30
0.0
 11
50.335886
 21
192.383422
 31
0.0
  0
LINE
  5
1FD
330
36
100
AcDbEntity
  8
0
100
AcDbLine
 10
55.86588599999998
 20
191.692422
 30
0.0
 11
50.335886
 21
191.692422
 31
0.0
  0
LINE
  5
1FE
330
36
100
AcDbEntity
  8
0
100
AcDbLine
 10
52.366886
 20
191.692422
 30
0.0
 11
52.510886
 21
192.383422
 31
0.0
  0
LINE
  5
1FF
330
36
100
AcDbEntity
  8
0
100
AcDbLine
 10
55.86588599999998
 20
191.692422
 30
0.0
 11
55.86588599999998
 21
192.383422
 31
0.0
  0
LINE
  5
200
330
36
100
AcDbEntity
  8
0
100
AcDbLine
 10
58.672886
 20
188.299422
 30
0.0
 11
63.511886
 21
188.299422
 31
0.0
  0
LINE
  5
201
330
36
100
AcDbEntity
  8
0
100
AcDbLine
 10
58.672886
 20
189.335422
 30
0.0
 11
58.672886
 21
188.299422
 31
0.0
  0
LINE
  5
202
330
36
100
AcDbEntity
  8
0
100
AcDbLine
 10
58.672886
 20
189.335422
 30
0.0
 11
63.511886
 21
189.335422
 31
0.0
  0
LINE
  5
203
330
36
100
AcDbEntity
  8
0
100
AcDbLine
 10
63.511886
 20
189.335422
 30
0.0
 11
63.511886
 21
188.299422
 31
0.0
  0
TEXT
  5
204
330
36
100
AcDbEntity
  8
0
100
AcDbText
 10
48.428886
 20
185.271422
 30
0.0
 40
2.177
  1
A
 41
1.199999999999999
100
AcDbText
  0
TEXT
  5
205
330
36
100
AcDbEntity
  8
0
100
AcDbText
 10
51.101886
 20
185.298422
 30
0.0
 40
2.177
  1
V
 41
0.675
100
AcDbText
  0
LINE
  5
206
330
36
100
AcDbEntity
  8
0
100
AcDbLine
 10
48.78088599999998
 20
189.335422
 30
0.0
 11
45.32488599999999
 21
189.335422
 31
0.0
  0
LINE
  5
207
330
36
100
AcDbEntity
  8
0
100
AcDbLine
 10
48.78088599999998
 20
188.461422
 30
0.0
 11
45.32488599999999
 21
188.461422
 31
0.0
  0
LINE
  5
208
330
36
100
AcDbEntity
  8
0
100
AcDbLine
 10
48.78088599999998
 20
188.461422
 30
0.0
 11
48.78088599999998
 21
189.335422
 31
0.0
  0
LINE
  5
209
330
36
100
AcDbEntity
  8
0
100
AcDbLine
 10
45.32488599999999
 20
188.461422
 30
0.0
 11
45.32488599999999
 21
189.335422
 31
0.0
  0
LINE
  5
20A
330
36
100
AcDbEntity
  8
0
100
AcDbLine
 10
52.927886
 20
188.461422
 30
0.0
 11
52.927886
 21
189.335422
 31
0.0
  0
LINE
  5
20B
330
36
100
AcDbEntity
  8
0
100
AcDbLine
 10
52.927886
 20
188.461422
 30
0.0
 11
56.384886
 21
188.461422
 31
0.0
  0
LINE
  5
20C
330
36
100
AcDbEntity
  8
0
100
AcDbLine
 10
52.927886
 20
189.335422
 30
0.0
 11
56.384886
 21
189.335422
 31
0.0
  0
LINE
  5
20D
330
36
100
AcDbEntity
  8
0
100
AcDbLine
 10
56.384886
 20
188.461422
 30
0.0
 11
56.384886
 21
189.335422
 31
0.0
  0
TEXT
  5
20E
330
36
100
AcDbEntity
  8
0
100
AcDbText
 10
59.515886
 20
188.299422
 30
0.0
 40
1.105999999999998
  1
ボルト
 41
0.8339999999999998
100
AcDbText
  0
LINE
  5
20F
330
36
100
AcDbEntity
  8
0
100
AcDbLine
 10
51.101886
 20
185.298422
 30
0.0
 11
52.96888599999999
 21
185.298422
 31
0.0
  0
LINE
  5
210
330
36
100
AcDbEntity
  8
0
100
AcDbLine
 10
50.260886
 20
185.298422
 30
0.0
 11
48.394886
 21
185.298422
 31
0.0
  0
LINE
  5
211
330
36
100
AcDbEntity
  8
0
100
AcDbLine
 10
50.854886
 20
184.434422
 30
0.0
 11
38.348886
 21
193.420422
 31
0.0
  0
LINE
  5
212
330
36
100
AcDbEntity
  8
0
100
AcDbLine
 10
64.08188599999999
 20
193.939422
 30
0.0
 11
37.626886
 21
193.939422
 31
0.0
  0
LINE
  5
213
330
36
100
AcDbEntity
  8
0
100
AcDbLine
 10
63.360886
 20
193.420422
 30
0.0
 11
38.348886
 21
193.420422
 31
0.0
  0
LINE
  5
214
330
36
100
AcDbEntity
  8
0
100
AcDbLine
 10
62.398886
 20
192.729422
 30
0.0
 11
39.310886
 21
192.729422
 31
0.0
  0
LINE
  5
215
330
36
100
AcDbEntity
  8
0
100
AcDbLine
 10
49.990886
 20
192.383422
 30
0.0
 11
43.077886
 21
192.383422
 31
0.0
  0
LINE
  5
216
330
36
100
AcDbEntity
  8
0
100
AcDbLine
 10
49.990886
 20
191.692422
 30
0.0
 11
43.077886
 21
191.692422
 31
0.0
  0
LINE
  5
217
330
36
100
AcDbEntity
  8
0
100
AcDbLine
 10
65.284886
 20
196.735422
 30
0.0
 11
65.284886
 21
197.568422
 31
0.0
  0
LINE
  5
218
330
36
100
AcDbEntity
  8
0
100
AcDbLine
 10
65.284886
 20
197.568422
 30
0.0
 11
36.424886
 21
197.568422
 31
0.0
  0
LINE
  5
219
330
36
100
AcDbEntity
  8
0
100
AcDbLine
 10
65.94988599999999
 20
193.036422
 30
0.0
 11
65.94988599999999
 21
188.817422
 31
0.0
  0
LINE
  5
21A
330
36
100
AcDbEntity
  8
0
100
AcDbLine
 10
61.925886
 20
193.036422
 30
0.0
 11
65.94988599999999
 21
193.036422
 31
0.0
  0
LINE
  5
21B
330
36
100
AcDbEntity
  8
0
100
AcDbLine
 10
64.08188599999999
 20
193.939422
 30
0.0
 11
65.284886
 21
194.803422
 31
0.0
  0
LINE
  5
21C
330
36
100
AcDbEntity
  8
0
100
AcDbLine
 10
65.284886
 20
194.803422
 30
0.0
 11
65.284886
 21
195.494422
 31
0.0
  0
TEXT
  5
21D
330
36
100
AcDbEntity
  8
0
100
AcDbText
 10
62.216886
 20
195.494422
 30
0.0
 40
1.105999999999998
  1
100A
 41
0.9100799999999999
100
AcDbText
  0
LINE
  5
21E
330
36
100
AcDbEntity
  8
0
100
AcDbLine
 10
65.284886
 20
194.803422
 30
0.0
 11
36.424886
 21
194.803422
 31
0.0
  0
CIRCLE
  5
21F
330
36
100
AcDbEntity
  8
0
100
AcDbCircle
 10
38.217886
 20
160.114422
 30
0.0
 40
0.5220000000000004
  0
CIRCLE
  5
220
330
36
100
AcDbEntity
  8
0
100
AcDbCircle
 10
31.865886
 20
160.114422
 30
0.0
 40
0.5220000000000004
  0
LINE
  5
221
330
36
100
AcDbEntity
  8
0
100
AcDbLine
 10
110.151886
 20
166.047162
 30
0.0
 11
28.156244
 21
166.047162
 31
0.0
  0
LINE
  5
222
330
36
100
AcDbEntity
  8
0
100
AcDbLine
 10
110.151886
 20
164.307162
 30
0.0
 11
28.156244
 21
164.307162
 31
0.0
  0
LINE
  5
223
330
36
100
AcDbEntity
  8
0
100
AcDbLine
 10
110.151886
 20
163.246422
 30
0.0
 11
27.307886
 21
163.246422
 31
0.0
  0
LINE
  5
224
330
36
100
AcDbEntity
  8
0
100
AcDbLine
 10
92.44788599999999
 20
192.511422
 30
0.0
 11
92.44788599999999
 21
195.265664
 31
0.0
  0
LINE
  5
225
330
36
100
AcDbEntity
  8
0
100
AcDbLine
 10
87.03006399999997
 20
187.453468
 30
0.0
 11
85.85077199999998
 21
187.769458
 31
0.0
  0
LINE
  5
226
330
36
100
AcDbEntity
  8
0
100
AcDbLine
 10
86.80489200000002
 20
186.613112
 30
0.0
 11
85.625599
 21
186.929103
 31
0.0
  0
TEXT
  5
227
330
36
100
AcDbEntity
  8
0
100
AcDbText
 10
102.835773
 20
191.876498
 30
0.0
 40
1.113599999999999
  1
5
100
AcDbText
  0
TEXT
  5
228
330
36
100
AcDbEntity
  8
0
100
AcDbText
 10
97.230193
 20
194.109452
 30
0.0
 40
1.113599999999999
  1
4
100
AcDbText
  0
TEXT
  5
229
330
36
100
AcDbEntity
  8
0
100
AcDbText
 10
92.31043900000001
 20
194.677116
 30
0.0
 40
1.113599999999999
  1
3
100
AcDbText
  0
TEXT
  5
22A
330
36
100
AcDbEntity
  8
0
100
AcDbText
 10
84.83755999999997
 20
193.415921
 30
0.0
 40
1.113599999999999
  1
2
100
AcDbText
  0
TEXT
  5
22B
330
36
100
AcDbEntity
  8
0
100
AcDbText
 10
78.455341
 20
189.099162
 30
0.0
 40
1.113599999999999
  1
1
 41
1.499999
100
AcDbText
  0
LINE
  5
22C
330
36
100
AcDbEntity
  8
0
100
AcDbLine
 10
92.795886
 20
192.502716
 30
0.0
 11
92.795886
 21
194.048597
 31
0.0
  0
LINE
  5
22D
330
36
100
AcDbEntity
  8
0
100
AcDbLine
 10
92.099886
 20
192.502716
 30
0.0
 11
92.099886
 21
194.048597
 31
0.0
  0
LINE
  5
22E
330
36
100
AcDbEntity
  8
0
100
AcDbLine
 10
87.77865099999997
 20
190.712803
 30
0.0
 11
85.61076099999999
 21
192.880693
 31
0.0
  0
LINE
  5
22F
330
36
100
AcDbEntity
  8
0
100
AcDbLine
 10
87.286505
 20
190.220656
 30
0.0
 11
84.90589900000001
 21
192.601262
 31
0.0
  0
LINE
  5
230
330
36
100
AcDbEntity
  8
0
100
AcDbLine
 10
97.00319499999999
 20
176.27628
 30
0.0
 11
87.892576
 21
176.27628
 31
0.0
  0
LINE
  5
231
330
36
100
AcDbEntity
  8
0
100
AcDbLine
 10
27.307886
 20
186.587887
 30
0.0
 11
35.041886
 21
186.587887
 31
0.0
  0
LINE
  5
232
330
36
100
AcDbEntity
  8
0
100
AcDbLine
 10
66.666886
 20
186.587887
 30
0.0
 11
79.048625
 21
186.587887
 31
0.0
  0
ARC
  5
233
330
36
100
AcDbEntity
  8
0
100
AcDbCircle
 10
87.892576
 20
175.4009209999999
 30
0.0
 40
0.8753589999999999
100
AcDbArc
 50
90.0
 51
270.0
  0
ARC
  5
234
330
36
100
AcDbEntity
  8
0
100
AcDbCircle
 10
97.00319499999999
 20
175.4009209999999
 30
0.0
 40
0.8753589999999999
100
AcDbArc
 50
270.0
 51
90.0
  0
LINE
  5
235
330
36
100
AcDbEntity
  8
0
100
AcDbLine
 10
87.892576
 20
174.525562
 30
0.0
 11
97.00319499999999
 21
174.525562
 31
0.0
  0
LINE
  5
236
330
36
100
AcDbEntity
  8
0
100
AcDbLine
 10
101.557265
 20
187.149971
 30
0.0
 11
106.326958
 21
187.149971
 31
0.0
  0
LINE
  5
237
330
36
100
AcDbEntity
  8
0
100
AcDbLine
 10
101.557265
 20
183.952873
 30
0.0
 11
106.326958
 21
183.952873
 31
0.0
  0
ARC
  5
238
330
36
100
AcDbEntity
  8
0
100
AcDbCircle
 10
101.557265
 20
185.551422
 30
0.0
 40
1.598549
100
AcDbArc
 50
90.0
 51
270.0
  0
ARC
  5
239
330
36
100
AcDbEntity
  8
0
100
AcDbCircle
 10
106.326958
 20
185.551422
 30
0.0
 40
1.598549
100
AcDbArc
 50
270.0
 51
90.0
  0
LINE
  5
280
330
36
100
AcDbEntity
  8
0
100
AcDbLine
 10
85.64338199999998
 20
187.014407
 30
0.0
 11
79.82923199999998
 21
188.572304
 31
0.0
  0
LINE
  5
281
330
36
100
AcDbEntity
  8
0
100
AcDbLine
 10
85.82352
 20
187.686691
 30
0.0
 11
80.24157399999998
 21
189.182369
 31
0.0
  0
LINE
  5
282
330
36
100
AcDbEntity
  8
0
100
AcDbLine
 10
98.29388299999999
 20
189.328446
 30
0.0
 11
102.074021
 21
191.510909
 31
0.0
  0
LINE
  5
283
330
36
100
AcDbEntity
  8
0
100
AcDbLine
 10
98.641883
 20
188.725692
 30
0.0
 11
102.70984
 21
191.074328
 31
0.0
  0
LINE
  5
284
330
36
100
AcDbEntity
  8
0
100
AcDbLine
 10
96.22491
 20
191.39742
 30
0.0
 11
97.41320600000001
 21
193.455609
 31
0.0
  0
LINE
  5
285
330
36
100
AcDbEntity
  8
0
100
AcDbLine
 10
95.622156
 20
191.74542
 30
0.0
 11
96.70333900000001
 21
193.618084
 31
0.0
  0
LINE
  5
286
330
36
100
AcDbEntity
  8
0
100
AcDbLine
 10
27.307886
 20
196.587887
 30
0.0
 11
35.041886
 21
196.587887
 31
0.0
  0
ARC
  5
287
330
36
100
AcDbEntity
  8
0
100
AcDbCircle
 10
68.92461400000001
 20
188.087887
 30
0.0
 40
0.5
100
AcDbArc
 50
180.0
 51
270.0
  0
ARC
  5
288
330
36
100
AcDbEntity
  8
0
100
AcDbCircle
 10
76.924614
 20
188.087887
 30
0.0
 40
0.5
100
AcDbArc
 50
270.0
 51
0.0
  0
ARC
  5
289
330
36
100
AcDbEntity
  8
0
100
AcDbCircle
 10
97.60117200000001
 20
199.226667
 30
0.0
 40
0.8753589999999999
100
AcDbArc
 50
270.0
 51
90.0
  0
LINE
  5
28A
330
36
100
AcDbEntity
  8
0
100
AcDbLine
 10
86.99055300000003
 20
198.351308
 30
0.0
 11
97.60117200000001
 21
198.351308
 31
0.0
  0
ARC
  5
28B
330
36
100
AcDbEntity
  8
0
100
AcDbCircle
 10
86.99055300000003
 20
199.226667
 30
0.0
 40
0.8753589999999999
100
AcDbArc
 50
90.0
 51
270.0
  0
ARC
  5
28C
330
36
100
AcDbEntity
  8
0
100
AcDbCircle
 10
88.28784399999998
 20
182.79795
 30
0.0
 40
14.011396
100
AcDbArc
 50
114.370629
 51
138.955833
  0
ARC
  5
28D
330
36
100
AcDbEntity
  8
0
100
AcDbCircle
 10
88.28784399999998
 20
182.79795
 30
0.0
 40
12.511396
100
AcDbArc
 50
114.370629
 51
138.955833
  0
ARC
  5
28E
330
36
100
AcDbEntity
  8
0
100
AcDbCircle
 10
82.815694
 20
194.877694
 30
0.0
 40
0.75
100
AcDbArc
 50
294.370629
 51
114.370629
  0
ARC
  5
28F
330
36
100
AcDbEntity
  8
0
100
AcDbCircle
 10
78.286051
 20
191.505922
 30
0.0
 40
0.75
100
AcDbArc
 50
138.955833
 51
318.955833
  0
ARC
  5
290
330
36
100
AcDbEntity
  8
0
100
AcDbCircle
 10
94.61575100000001
 20
180.355777
 30
0.0
 40
17.176234
100
AcDbArc
 50
52.477939
 51
97.607072
  0
ARC
  5
291
330
36
100
AcDbEntity
  8
0
100
AcDbCircle
 10
94.61575100000001
 20
180.355777
 30
0.0
 40
15.576234
100
AcDbArc
 50
52.477939
 51
97.607072
  0
ARC
  5
292
330
36
100
AcDbEntity
  8
0
100
AcDbCircle
 10
104.589972
 20
193.344077
 30
0.0
 40
0.8
100
AcDbArc
 50
232.477939
 51
52.47794200000001
  0
ARC
  5
293
330
36
100
AcDbEntity
  8
0
100
AcDbCircle
 10
92.44788599999999
 20
196.587887
 30
0.0
 40
0.8067680000000001
100
AcDbArc
 50
90.0
 51
284.849179
  0
LINE
  5
294
330
36
100
AcDbEntity
  8
0
100
AcDbLine
 10
91.64111699999999
 20
196.587887
 30
0.0
 11
66.666886
 21
196.587887
 31
0.0
  0
LINE
  5
295
330
36
100
AcDbEntity
  8
0
100
AcDbLine
 10
100.231943
 20
196.587887
 30
0.0
 11
110.151886
 21
196.587887
 31
0.0
  0
LINE
  5
296
330
36
100
AcDbEntity
  8
0
100
AcDbLine
 10
28.156244
 20
164.307162
 30
0.0
 11
28.156244
 21
166.047162
 31
0.0
  0
LINE
  5
297
330
36
100
AcDbEntity
  8
0
100
AcDbLine
 10
97.60117200000001
 20
200.102026
 30
0.0
 11
86.99055300000003
 21
200.102026
 31
0.0
  0
LINE
  5
298
330
36
100
AcDbEntity
  8
0
100
AcDbLine
 10
107.543962
 20
186.587887
 30
0.0
 11
110.151886
 21
186.587887
 31
0.0
  0
LINE
  5
299
330
36
100
AcDbEntity
  8
0
100
AcDbLine
 10
211.282886
 20
166.989422
 30
0.0
 11
139.438886
 21
166.989422
 31
0.0
  0
ARC
  5
29A
330
36
100
AcDbEntity
  8
0
100
AcDbCircle
 10
198.669886
 20
177.003422
 30
0.0
 40
4.022999999999997
100
AcDbArc
 50
4.785
 51
69.685
  0
ARC
  5
29B
330
36
100
AcDbEntity
  8
0
100
AcDbCircle
 10
185.994886
 20
177.003422
 30
0.0
 40
4.022999999999997
100
AcDbArc
 50
110.315
 51
175.215
  0
LINE
  5
29C
330
36
100
AcDbEntity
  8
0
100
AcDbLine
 10
200.066886
 20
180.776422
 30
0.0
 11
184.597886
 21
180.776422
 31
0.0
  0
ARC
  5
29D
330
36
100
AcDbEntity
  8
0
100
AcDbCircle
 10
198.669886
 20
181.472422
 30
0.0
 40
4.022999999999997
100
AcDbArc
 50
4.785
 51
69.685
  0
ARC
  5
29E
330
36
100
AcDbEntity
  8
0
100
AcDbCircle
 10
185.994886
 20
181.472422
 30
0.0
 40
4.022999999999997
100
AcDbArc
 50
110.315
 51
175.215
  0
LINE
  5
29F
330
36
100
AcDbEntity
  8
0
100
AcDbLine
 10
200.066886
 20
185.245422
 30
0.0
 11
184.597886
 21
185.245422
 31
0.0
  0
ARC
  5
2A0
330
36
100
AcDbEntity
  8
0
100
AcDbCircle
 10
198.669886
 20
185.941422
 30
0.0
 40
4.022999999999997
100
AcDbArc
 50
4.785
 51
69.685
  0
ARC
  5
2A1
330
36
100
AcDbEntity
  8
0
100
AcDbCircle
 10
185.994886
 20
185.941422
 30
0.0
 40
4.022999999999997
100
AcDbArc
 50
110.315
 51
175.215
  0
LINE
  5
2A2
330
36
100
AcDbEntity
  8
0
100
AcDbLine
 10
200.066886
 20
189.714422
 30
0.0
 11
184.597886
 21
189.714422
 31
0.0
  0
ARC
  5
2A3
330
36
100
AcDbEntity
  8
0
100
AcDbCircle
 10
198.669886
 20
190.409422
 30
0.0
 40
4.022999999999997
100
AcDbArc
 50
4.785
 51
69.685
  0
ARC
  5
2A4
330
36
100
AcDbEntity
  8
0
100
AcDbCircle
 10
185.994886
 20
190.409422
 30
0.0
 40
4.022999999999997
100
AcDbArc
 50
110.315
 51
175.215
  0
LINE
  5
2A5
330
36
100
AcDbEntity
  8
0
100
AcDbLine
 10
200.066886
 20
194.183422
 30
0.0
 11
184.597886
 21
194.183422
 31
0.0
  0
ARC
  5
2A6
330
36
100
AcDbEntity
  8
0
100
AcDbCircle
 10
167.731886
 20
177.003422
 30
0.0
 40
4.022999999999997
100
AcDbArc
 50
4.785
 51
69.685
  0
ARC
  5
2A7
330
36
100
AcDbEntity
  8
0
100
AcDbCircle
 10
155.056886
 20
177.003422
 30
0.0
 40
4.022999999999997
100
AcDbArc
 50
110.315
 51
175.215
  0
LINE
  5
2A8
330
36
100
AcDbEntity
  8
0
100
AcDbLine
 10
169.128886
 20
180.776422
 30
0.0
 11
153.659886
 21
180.776422
 31
0.0
  0
ARC
  5
2A9
330
36
100
AcDbEntity
  8
0
100
AcDbCircle
 10
167.731886
 20
181.472422
 30
0.0
 40
4.022999999999997
100
AcDbArc
 50
4.785
 51
69.685
  0
ARC
  5
2AA
330
36
100
AcDbEntity
  8
0
100
AcDbCircle
 10
155.056886
 20
181.472422
 30
0.0
 40
4.022999999999997
100
AcDbArc
 50
110.315
 51
175.215
  0
LINE
  5
2AB
330
36
100
AcDbEntity
  8
0
100
AcDbLine
 10
169.128886
 20
185.245422
 30
0.0
 11
153.659886
 21
185.245422
 31
0.0
  0
ARC
  5
2AC
330
36
100
AcDbEntity
  8
0
100
AcDbCircle
 10
167.731886
 20
185.941422
 30
0.0
 40
4.022999999999997
100
AcDbArc
 50
4.785
 51
69.685
  0
ARC
  5
2AD
330
36
100
AcDbEntity
  8
0
100
AcDbCircle
 10
155.056886
 20
185.941422
 30
0.0
 40
4.022999999999997
100
AcDbArc
 50
110.315
 51
175.215
  0
LINE
  5
2AE
330
36
100
AcDbEntity
  8
0
100
AcDbLine
 10
169.128886
 20
189.714422
 30
0.0
 11
153.659886
 21
189.714422
 31
0.0
  0
ARC
  5
2AF
330
36
100
AcDbEntity
  8
0
100
AcDbCircle
 10
167.731886
 20
190.409422
 30
0.0
 40
4.022999999999997
100
AcDbArc
 50
4.785
 51
69.685
  0
ARC
  5
2B0
330
36
100
AcDbEntity
  8
0
100
AcDbCircle
 10
155.056886
 20
190.409422
 30
0.0
 40
4.022999999999997
100
AcDbArc
 50
110.315
 51
175.215
  0
LINE
  5
2B1
330
36
100
AcDbEntity
  8
0
100
AcDbLine
 10
169.128886
 20
194.183422
 30
0.0
 11
153.659886
 21
194.183422
 31
0.0
  0
CIRCLE
  5
2B2
330
36
100
AcDbEntity
  8
0
100
AcDbCircle
 10
145.100886
 20
177.304422
 30
0.0
 40
1.546999999999995
  0
LINE
  5
2B3
330
36
100
AcDbEntity
  8
0
100
AcDbLine
 10
144.216886
 20
177.150422
 30
0.0
 11
144.547886
 21
177.150422
 31
0.0
  0
LINE
  5
2B4
330
36
100
AcDbEntity
  8
0
100
AcDbLine
 10
144.945886
 20
176.421422
 30
0.0
 11
144.945886
 21
176.752422
 31
0.0
  0
ARC
  5
2B5
330
36
100
AcDbEntity
  8
0
100
AcDbCircle
 10
144.547886
 20
176.752422
 30
0.0
 40
0.398
100
AcDbArc
 50
0.0
 51
90.0
  0
LINE
  5
2B6
330
36
100
AcDbEntity
  8
0
100
AcDbLine
 10
145.255886
 20
176.421422
 30
0.0
 11
145.255886
 21
176.752422
 31
0.0
  0
LINE
  5
2B7
330
36
100
AcDbEntity
  8
0
100
AcDbLine
 10
145.984886
 20
177.459422
 30
0.0
 11
145.984886
 21
177.150422
 31
0.0
  0
LINE
  5
2B8
330
36
100
AcDbEntity
  8
0
100
AcDbLine
 10
145.984886
 20
177.150422
 30
0.0
 11
145.652886
 21
177.150422
 31
0.0
  0
ARC
  5
2B9
330
36
100
AcDbEntity
  8
0
100
AcDbCircle
 10
145.652886
 20
176.752422
 30
0.0
 40
0.398
100
AcDbArc
 50
90.0
 51
180.0
  0
LINE
  5
2BA
330
36
100
AcDbEntity
  8
0
100
AcDbLine
 10
145.255886
 20
176.421422
 30
0.0
 11
144.945886
 21
176.421422
 31
0.0
  0
LINE
  5
2BB
330
36
100
AcDbEntity
  8
0
100
AcDbLine
 10
145.255886
 20
178.188422
 30
0.0
 11
145.255886
 21
177.857422
 31
0.0
  0
ARC
  5
2BC
330
36
100
AcDbEntity
  8
0
100
AcDbCircle
 10
145.652886
 20
177.857422
 30
0.0
 40
0.398
100
AcDbArc
 50
180.0
 51
270.0
  0
LINE
  5
2BD
330
36
100
AcDbEntity
  8
0
100
AcDbLine
 10
144.945886
 20
178.188422
 30
0.0
 11
145.255886
 21
178.188422
 31
0.0
  0
LINE
  5
2BE
330
36
100
AcDbEntity
  8
0
100
AcDbLine
 10
145.984886
 20
177.459422
 30
0.0
 11
145.652886
 21
177.459422
 31
0.0
  0
LINE
  5
2BF
330
36
100
AcDbEntity
  8
0
100
AcDbLine
 10
144.216886
 20
177.459422
 30
0.0
 11
144.547886
 21
177.459422
 31
0.0
  0
ARC
  5
2C0
330
36
100
AcDbEntity
  8
0
100
AcDbCircle
 10
144.547886
 20
177.857422
 30
0.0
 40
0.398
100
AcDbArc
 50
270.0
 51
0.0
  0
LINE
  5
2C1
330
36
100
AcDbEntity
  8
0
100
AcDbLine
 10
144.945886
 20
178.188422
 30
0.0
 11
144.945886
 21
177.857422
 31
0.0
  0
LINE
  5
2C2
330
36
100
AcDbEntity
  8
0
100
AcDbLine
 10
144.216886
 20
177.150422
 30
0.0
 11
144.216886
 21
177.459422
 31
0.0
  0
CIRCLE
  5
2C3
330
36
100
AcDbEntity
  8
0
100
AcDbCircle
 10
145.100886
 20
192.773422
 30
0.0
 40
1.546999999999995
  0
LINE
  5
2C4
330
36
100
AcDbEntity
  8
0
100
AcDbLine
 10
144.216886
 20
192.619422
 30
0.0
 11
144.547886
 21
192.619422
 31
0.0
  0
LINE
  5
2C5
330
36
100
AcDbEntity
  8
0
100
AcDbLine
 10
144.945886
 20
191.889422
 30
0.0
 11
144.945886
 21
192.221422
 31
0.0
  0
ARC
  5
2C6
330
36
100
AcDbEntity
  8
0
100
AcDbCircle
 10
144.547886
 20
192.221422
 30
0.0
 40
0.398
100
AcDbArc
 50
0.0
 51
90.0
  0
LINE
  5
2C7
330
36
100
AcDbEntity
  8
0
100
AcDbLine
 10
145.255886
 20
191.889422
 30
0.0
 11
145.255886
 21
192.221422
 31
0.0
  0
LINE
  5
2C8
330
36
100
AcDbEntity
  8
0
100
AcDbLine
 10
145.984886
 20
192.9284219999999
 30
0.0
 11
145.984886
 21
192.619422
 31
0.0
  0
LINE
  5
2C9
330
36
100
AcDbEntity
  8
0
100
AcDbLine
 10
145.984886
 20
192.619422
 30
0.0
 11
145.652886
 21
192.619422
 31
0.0
  0
ARC
  5
2CA
330
36
100
AcDbEntity
  8
0
100
AcDbCircle
 10
145.652886
 20
192.221422
 30
0.0
 40
0.398
100
AcDbArc
 50
90.0
 51
180.0
  0
LINE
  5
2CB
330
36
100
AcDbEntity
  8
0
100
AcDbLine
 10
145.255886
 20
191.889422
 30
0.0
 11
144.945886
 21
191.889422
 31
0.0
  0
LINE
  5
2CC
330
36
100
AcDbEntity
  8
0
100
AcDbLine
 10
145.255886
 20
193.657422
 30
0.0
 11
145.255886
 21
193.326422
 31
0.0
  0
ARC
  5
2CD
330
36
100
AcDbEntity
  8
0
100
AcDbCircle
 10
145.652886
 20
193.326422
 30
0.0
 40
0.398
100
AcDbArc
 50
180.0
 51
270.0
  0
LINE
  5
2CE
330
36
100
AcDbEntity
  8
0
100
AcDbLine
 10
144.945886
 20
193.657422
 30
0.0
 11
145.255886
 21
193.657422
 31
0.0
  0
LINE
  5
2CF
330
36
100
AcDbEntity
  8
0
100
AcDbLine
 10
145.984886
 20
192.9284219999999
 30
0.0
 11
145.652886
 21
192.9284219999999
 31
0.0
  0
LINE
  5
2D0
330
36
100
AcDbEntity
  8
0
100
AcDbLine
 10
144.216886
 20
192.9284219999999
 30
0.0
 11
144.547886
 21
192.9284219999999
 31
0.0
  0
ARC
  5
2D1
330
36
100
AcDbEntity
  8
0
100
AcDbCircle
 10
144.547886
 20
193.326422
 30
0.0
 40
0.398
100
AcDbArc
 50
270.0
 51
0.0
  0
LINE
  5
2D2
330
36
100
AcDbEntity
  8
0
100
AcDbLine
 10
144.945886
 20
193.657422
 30
0.0
 11
144.945886
 21
193.326422
 31
0.0
  0
LINE
  5
2D3
330
36
100
AcDbEntity
  8
0
100
AcDbLine
 10
144.216886
 20
192.619422
 30
0.0
 11
144.216886
 21
192.9284219999999
 31
0.0
  0
CIRCLE
  5
2D4
330
36
100
AcDbEntity
  8
0
100
AcDbCircle
 10
145.100886
 20
161.836422
 30
0.0
 40
1.546999999999995
  0
LINE
  5
2D5
330
36
100
AcDbEntity
  8
0
100
AcDbLine
 10
144.216886
 20
161.681422
 30
0.0
 11
144.547886
 21
161.681422
 31
0.0
  0
LINE
  5
2D6
330
36
100
AcDbEntity
  8
0
100
AcDbLine
 10
144.945886
 20
160.952422
 30
0.0
 11
144.945886
 21
161.283422
 31
0.0
  0
ARC
  5
2D7
330
36
100
AcDbEntity
  8
0
100
AcDbCircle
 10
144.547886
 20
161.283422
 30
0.0
 40
0.398
100
AcDbArc
 50
0.0
 51
90.0
  0
LINE
  5
2D8
330
36
100
AcDbEntity
  8
0
100
AcDbLine
 10
145.255886
 20
160.952422
 30
0.0
 11
145.255886
 21
161.283422
 31
0.0
  0
LINE
  5
2D9
330
36
100
AcDbEntity
  8
0
100
AcDbLine
 10
145.984886
 20
161.990422
 30
0.0
 11
145.984886
 21
161.681422
 31
0.0
  0
LINE
  5
2DA
330
36
100
AcDbEntity
  8
0
100
AcDbLine
 10
145.984886
 20
161.681422
 30
0.0
 11
145.652886
 21
161.681422
 31
0.0
  0
ARC
  5
2DB
330
36
100
AcDbEntity
  8
0
100
AcDbCircle
 10
145.652886
 20
161.283422
 30
0.0
 40
0.398
100
AcDbArc
 50
90.0
 51
180.0
  0
LINE
  5
2DC
330
36
100
AcDbEntity
  8
0
100
AcDbLine
 10
145.255886
 20
160.952422
 30
0.0
 11
144.945886
 21
160.952422
 31
0.0
  0
LINE
  5
2DD
330
36
100
AcDbEntity
  8
0
100
AcDbLine
 10
145.255886
 20
162.720422
 30
0.0
 11
145.255886
 21
162.388422
 31
0.0
  0
ARC
  5
2DE
330
36
100
AcDbEntity
  8
0
100
AcDbCircle
 10
145.652886
 20
162.388422
 30
0.0
 40
0.398
100
AcDbArc
 50
180.0
 51
270.0
  0
LINE
  5
2DF
330
36
100
AcDbEntity
  8
0
100
AcDbLine
 10
144.945886
 20
162.720422
 30
0.0
 11
145.255886
 21
162.720422
 31
0.0
  0
LINE
  5
2E0
330
36
100
AcDbEntity
  8
0
100
AcDbLine
 10
145.984886
 20
161.990422
 30
0.0
 11
145.652886
 21
161.990422
 31
0.0
  0
LINE
  5
2E1
330
36
100
AcDbEntity
  8
0
100
AcDbLine
 10
144.216886
 20
161.990422
 30
0.0
 11
144.547886
 21
161.990422
 31
0.0
  0
ARC
  5
2E2
330
36
100
AcDbEntity
  8
0
100
AcDbCircle
 10
144.547886
 20
162.388422
 30
0.0
 40
0.398
100
AcDbArc
 50
270.0
 51
0.0
  0
LINE
  5
2E3
330
36
100
AcDbEntity
  8
0
100
AcDbLine
 10
144.945886
 20
162.720422
 30
0.0
 11
144.945886
 21
162.388422
 31
0.0
  0
LINE
  5
2E4
330
36
100
AcDbEntity
  8
0
100
AcDbLine
 10
144.216886
 20
161.681422
 30
0.0
 11
144.216886
 21
161.990422
 31
0.0
  0
CIRCLE
  5
2E5
330
36
100
AcDbEntity
  8
0
100
AcDbCircle
 10
208.694886
 20
177.304422
 30
0.0
 40
1.546999999999995
  0
LINE
  5
2E6
330
36
100
AcDbEntity
  8
0
100
AcDbLine
 10
207.810886
 20
177.150422
 30
0.0
 11
208.141886
 21
177.150422
 31
0.0
  0
LINE
  5
2E7
330
36
100
AcDbEntity
  8
0
100
AcDbLine
 10
208.539886
 20
176.421422
 30
0.0
 11
208.539886
 21
176.752422
 31
0.0
  0
ARC
  5
2E8
330
36
100
AcDbEntity
  8
0
100
AcDbCircle
 10
208.141886
 20
176.752422
 30
0.0
 40
0.398
100
AcDbArc
 50
0.0
 51
90.0
  0
LINE
  5
2E9
330
36
100
AcDbEntity
  8
0
100
AcDbLine
 10
208.848886
 20
176.421422
 30
0.0
 11
208.848886
 21
176.752422
 31
0.0
  0
LINE
  5
2EA
330
36
100
AcDbEntity
  8
0
100
AcDbLine
 10
209.578886
 20
177.459422
 30
0.0
 11
209.578886
 21
177.150422
 31
0.0
  0
LINE
  5
2EB
330
36
100
AcDbEntity
  8
0
100
AcDbLine
 10
209.578886
 20
177.150422
 30
0.0
 11
209.246886
 21
177.150422
 31
0.0
  0
ARC
  5
2EC
330
36
100
AcDbEntity
  8
0
100
AcDbCircle
 10
209.246886
 20
176.752422
 30
0.0
 40
0.398
100
AcDbArc
 50
90.0
 51
180.0
  0
LINE
  5
2ED
330
36
100
AcDbEntity
  8
0
100
AcDbLine
 10
208.848886
 20
176.421422
 30
0.0
 11
208.539886
 21
176.421422
 31
0.0
  0
LINE
  5
2EE
330
36
100
AcDbEntity
  8
0
100
AcDbLine
 10
208.848886
 20
178.188422
 30
0.0
 11
208.848886
 21
177.857422
 31
0.0
  0
ARC
  5
2EF
330
36
100
AcDbEntity
  8
0
100
AcDbCircle
 10
209.246886
 20
177.857422
 30
0.0
 40
0.398
100
AcDbArc
 50
180.0
 51
270.0
  0
LINE
  5
2F0
330
36
100
AcDbEntity
  8
0
100
AcDbLine
 10
208.539886
 20
178.188422
 30
0.0
 11
208.848886
 21
178.188422
 31
0.0
  0
LINE
  5
2F1
330
36
100
AcDbEntity
  8
0
100
AcDbLine
 10
209.578886
 20
177.459422
 30
0.0
 11
209.246886
 21
177.459422
 31
0.0
  0
LINE
  5
2F2
330
36
100
AcDbEntity
  8
0
100
AcDbLine
 10
207.810886
 20
177.459422
 30
0.0
 11
208.141886
 21
177.459422
 31
0.0
  0
ARC
  5
2F3
330
36
100
AcDbEntity
  8
0
100
AcDbCircle
 10
208.141886
 20
177.857422
 30
0.0
 40
0.398
100
AcDbArc
 50
270.0
 51
0.0
  0
LINE
  5
2F4
330
36
100
AcDbEntity
  8
0
100
AcDbLine
 10
208.539886
 20
178.188422
 30
0.0
 11
208.539886
 21
177.857422
 31
0.0
  0
LINE
  5
2F5
330
36
100
AcDbEntity
  8
0
100
AcDbLine
 10
207.810886
 20
177.150422
 30
0.0
 11
207.810886
 21
177.459422
 31
0.0
  0
CIRCLE
  5
2F6
330
36
100
AcDbEntity
  8
0
100
AcDbCircle
 10
208.694886
 20
192.773422
 30
0.0
 40
1.546999999999995
  0
LINE
  5
2F7
330
36
100
AcDbEntity
  8
0
100
AcDbLine
 10
207.810886
 20
192.619422
 30
0.0
 11
208.141886
 21
192.619422
 31
0.0
  0
LINE
  5
2F8
330
36
100
AcDbEntity
  8
0
100
AcDbLine
 10
208.539886
 20
191.889422
 30
0.0
 11
208.539886
 21
192.221422
 31
0.0
  0
ARC
  5
2F9
330
36
100
AcDbEntity
  8
0
100
AcDbCircle
 10
208.141886
 20
192.221422
 30
0.0
 40
0.398
100
AcDbArc
 50
0.0
 51
90.0
  0
LINE
  5
2FA
330
36
100
AcDbEntity
  8
0
100
AcDbLine
 10
208.848886
 20
191.889422
 30
0.0
 11
208.848886
 21
192.221422
 31
0.0
  0
LINE
  5
2FB
330
36
100
AcDbEntity
  8
0
100
AcDbLine
 10
209.578886
 20
192.9284219999999
 30
0.0
 11
209.578886
 21
192.619422
 31
0.0
  0
LINE
  5
2FC
330
36
100
AcDbEntity
  8
0
100
AcDbLine
 10
209.578886
 20
192.619422
 30
0.0
 11
209.246886
 21
192.619422
 31
0.0
  0
ARC
  5
2FD
330
36
100
AcDbEntity
  8
0
100
AcDbCircle
 10
209.246886
 20
192.221422
 30
0.0
 40
0.398
100
AcDbArc
 50
90.0
 51
180.0
  0
LINE
  5
2FE
330
36
100
AcDbEntity
  8
0
100
AcDbLine
 10
208.848886
 20
191.889422
 30
0.0
 11
208.539886
 21
191.889422
 31
0.0
  0
LINE
  5
2FF
330
36
100
AcDbEntity
  8
0
100
AcDbLine
 10
208.848886
 20
193.657422
 30
0.0
 11
208.848886
 21
193.326422
 31
0.0
  0
ARC
  5
300
330
36
100
AcDbEntity
  8
0
100
AcDbCircle
 10
209.246886
 20
193.326422
 30
0.0
 40
0.398
100
AcDbArc
 50
180.0
 51
270.0
  0
LINE
  5
301
330
36
100
AcDbEntity
  8
0
100
AcDbLine
 10
208.539886
 20
193.657422
 30
0.0
 11
208.848886
 21
193.657422
 31
0.0
  0
LINE
  5
302
330
36
100
AcDbEntity
  8
0
100
AcDbLine
 10
209.578886
 20
192.9284219999999
 30
0.0
 11
209.246886
 21
192.9284219999999
 31
0.0
  0
LINE
  5
303
330
36
100
AcDbEntity
  8
0
100
AcDbLine
 10
207.810886
 20
192.9284219999999
 30
0.0
 11
208.141886
 21
192.9284219999999
 31
0.0
  0
ARC
  5
304
330
36
100
AcDbEntity
  8
0
100
AcDbCircle
 10
208.141886
 20
193.326422
 30
0.0
 40
0.398
100
AcDbArc
 50
270.0
 51
0.0
  0
LINE
  5
305
330
36
100
AcDbEntity
  8
0
100
AcDbLine
 10
208.539886
 20
193.657422
 30
0.0
 11
208.539886
 21
193.326422
 31
0.0
  0
LINE
  5
306
330
36
100
AcDbEntity
  8
0
100
AcDbLine
 10
207.810886
 20
192.619422
 30
0.0
 11
207.810886
 21
192.9284219999999
 31
0.0
  0
CIRCLE
  5
307
330
36
100
AcDbEntity
  8
0
100
AcDbCircle
 10
208.694886
 20
161.836422
 30
0.0
 40
1.546999999999995
  0
LINE
  5
308
330
36
100
AcDbEntity
  8
0
100
AcDbLine
 10
207.810886
 20
161.681422
 30
0.0
 11
208.141886
 21
161.681422
 31
0.0
  0
LINE
  5
309
330
36
100
AcDbEntity
  8
0
100
AcDbLine
 10
208.539886
 20
160.952422
 30
0.0
 11
208.539886
 21
161.283422
 31
0.0
  0
ARC
  5
30A
330
36
100
AcDbEntity
  8
0
100
AcDbCircle
 10
208.141886
 20
161.283422
 30
0.0
 40
0.398
100
AcDbArc
 50
0.0
 51
90.0
  0
LINE
  5
30B
330
36
100
AcDbEntity
  8
0
100
AcDbLine
 10
208.848886
 20
160.952422
 30
0.0
 11
208.848886
 21
161.283422
 31
0.0
  0
LINE
  5
30C
330
36
100
AcDbEntity
  8
0
100
AcDbLine
 10
209.578886
 20
161.990422
 30
0.0
 11
209.578886
 21
161.681422
 31
0.0
  0
LINE
  5
30D
330
36
100
AcDbEntity
  8
0
100
AcDbLine
 10
209.578886
 20
161.681422
 30
0.0
 11
209.246886
 21
161.681422
 31
0.0
  0
ARC
  5
30E
330
36
100
AcDbEntity
  8
0
100
AcDbCircle
 10
209.246886
 20
161.283422
 30
0.0
 40
0.398
100
AcDbArc
 50
90.0
 51
180.0
  0
LINE
  5
30F
330
36
100
AcDbEntity
  8
0
100
AcDbLine
 10
208.848886
 20
160.952422
 30
0.0
 11
208.539886
 21
160.952422
 31
0.0
  0
LINE
  5
310
330
36
100
AcDbEntity
  8
0
100
AcDbLine
 10
208.848886
 20
162.720422
 30
0.0
 11
208.848886
 21
162.388422
 31
0.0
  0
ARC
  5
311
330
36
100
AcDbEntity
  8
0
100
AcDbCircle
 10
209.246886
 20
162.388422
 30
0.0
 40
0.398
100
AcDbArc
 50
180.0
 51
270.0
  0
LINE
  5
312
330
36
100
AcDbEntity
  8
0
100
AcDbLine
 10
208.539886
 20
162.720422
 30
0.0
 11
208.848886
 21
162.720422
 31
0.0
  0
LINE
  5
313
330
36
100
AcDbEntity
  8
0
100
AcDbLine
 10
209.578886
 20
161.990422
 30
0.0
 11
209.246886
 21
161.990422
 31
0.0
  0
LINE
  5
314
330
36
100
AcDbEntity
  8
0
100
AcDbLine
 10
207.810886
 20
161.990422
 30
0.0
 11
208.141886
 21
161.990422
 31
0.0
  0
ARC
  5
315
330
36
100
AcDbEntity
  8
0
100
AcDbCircle
 10
208.141886
 20
162.388422
 30
0.0
 40
0.398
100
AcDbArc
 50
270.0
 51
0.0
  0
LINE
  5
316
330
36
100
AcDbEntity
  8
0
100
AcDbLine
 10
208.539886
 20
162.720422
 30
0.0
 11
208.539886
 21
162.388422
 31
0.0
  0
LINE
  5
317
330
36
100
AcDbEntity
  8
0
100
AcDbLine
 10
207.810886
 20
161.681422
 30
0.0
 11
207.810886
 21
161.990422
 31
0.0
  0
ARC
  5
318
330
36
100
AcDbEntity
  8
0
100
AcDbCircle
 10
208.694886
 20
203.498422
 30
0.0
 40
1.821999999999999
100
AcDbArc
 50
31.891
 51
148.109
  0
ARC
  5
319
330
36
100
AcDbEntity
  8
0
100
AcDbCircle
 10
204.724886
 20
190.342422
 30
0.0
 40
7.599999999999997
100
AcDbArc
 50
3.041999999999998
 51
30.357
  0
LINE
  5
31A
330
36
100
AcDbEntity
  8
0
100
AcDbLine
 10
211.282886
 20
190.745422
 30
0.0
 11
212.313886
 21
190.745422
 31
0.0
  0
ARC
  5
31B
330
36
100
AcDbEntity
  8
0
100
AcDbCircle
 10
204.724886
 20
185.873422
 30
0.0
 40
7.599999999999997
100
AcDbArc
 50
3.041999999999998
 51
30.357
  0
LINE
  5
31C
330
36
100
AcDbEntity
  8
0
100
AcDbLine
 10
211.282886
 20
186.276422
 30
0.0
 11
212.313886
 21
186.276422
 31
0.0
  0
ARC
  5
31D
330
36
100
AcDbEntity
  8
0
100
AcDbCircle
 10
145.100886
 20
203.498422
 30
0.0
 40
1.821999999999999
100
AcDbArc
 50
31.891
 51
148.109
  0
LINE
  5
31E
330
36
100
AcDbEntity
  8
0
100
AcDbLine
 10
149.427886
 20
205.489422
 30
0.0
 11
159.740886
 21
205.489422
 31
0.0
  0
LINE
  5
31F
330
36
100
AcDbEntity
  8
0
100
AcDbLine
 10
152.865886
 20
206.523422
 30
0.0
 11
159.740886
 21
206.523422
 31
0.0
  0
LINE
  5
320
330
36
100
AcDbEntity
  8
0
100
AcDbLine
 10
204.771886
 20
205.489422
 30
0.0
 11
194.459886
 21
205.489422
 31
0.0
  0
LINE
  5
321
330
36
100
AcDbEntity
  8
0
100
AcDbLine
 10
201.392886
 20
206.523422
 30
0.0
 11
194.459886
 21
206.523422
 31
0.0
  0
ARC
  5
322
330
36
100
AcDbEntity
  8
0
100
AcDbCircle
 10
303.822886
 20
181.472422
 30
0.0
 40
4.022999999999997
100
AcDbArc
 50
4.785
 51
69.685
  0
ARC
  5
323
330
36
100
AcDbEntity
  8
0
100
AcDbCircle
 10
291.147886
 20
181.472422
 30
0.0
 40
4.022999999999997
100
AcDbArc
 50
110.315
 51
175.215
  0
LINE
  5
324
330
36
100
AcDbEntity
  8
0
100
AcDbLine
 10
305.219886
 20
185.245422
 30
0.0
 11
289.750886
 21
185.245422
 31
0.0
  0
ARC
  5
325
330
36
100
AcDbEntity
  8
0
100
AcDbCircle
 10
303.822886
 20
185.941422
 30
0.0
 40
4.022999999999997
100
AcDbArc
 50
4.785
 51
69.685
  0
ARC
  5
326
330
36
100
AcDbEntity
  8
0
100
AcDbCircle
 10
291.147886
 20
185.941422
 30
0.0
 40
4.022999999999997
100
AcDbArc
 50
110.315
 51
175.215
  0
LINE
  5
327
330
36
100
AcDbEntity
  8
0
100
AcDbLine
 10
305.219886
 20
189.714422
 30
0.0
 11
289.750886
 21
189.714422
 31
0.0
  0
ARC
  5
328
330
36
100
AcDbEntity
  8
0
100
AcDbCircle
 10
272.884886
 20
181.472422
 30
0.0
 40
4.022999999999997
100
AcDbArc
 50
4.785
 51
69.685
  0
ARC
  5
329
330
36
100
AcDbEntity
  8
0
100
AcDbCircle
 10
260.209886
 20
181.472422
 30
0.0
 40
4.022999999999997
100
AcDbArc
 50
110.315
 51
175.215
  0
LINE
  5
32A
330
36
100
AcDbEntity
  8
0
100
AcDbLine
 10
274.281886
 20
185.245422
 30
0.0
 11
258.812886
 21
185.245422
 31
0.0
  0
ARC
  5
32B
330
36
100
AcDbEntity
  8
0
100
AcDbCircle
 10
272.884886
 20
185.941422
 30
0.0
 40
4.022999999999997
100
AcDbArc
 50
4.785
 51
69.685
  0
ARC
  5
32C
330
36
100
AcDbEntity
  8
0
100
AcDbCircle
 10
260.209886
 20
185.941422
 30
0.0
 40
4.022999999999997
100
AcDbArc
 50
110.315
 51
175.215
  0
LINE
  5
32D
330
36
100
AcDbEntity
  8
0
100
AcDbLine
 10
274.281886
 20
189.714422
 30
0.0
 11
258.812886
 21
189.714422
 31
0.0
  0
LINE
  5
32E
330
36
100
AcDbEntity
  8
0
100
AcDbLine
 10
289.802185
 20
115.729797
 30
0.0
 11
291.795185
 21
111.252797
 31
0.0
  0
LINE
  5
32F
330
36
100
AcDbEntity
  8
0
100
AcDbLine
 10
288.523185
 20
115.159797
 30
0.0
 11
290.516185
 21
110.683797
 31
0.0
  0
LINE
  5
330
330
36
100
AcDbEntity
  8
0
100
AcDbLine
 10
287.244185
 20
114.590797
 30
0.0
 11
289.237185
 21
110.113797
 31
0.0
  0
LINE
  5
331
330
36
100
AcDbEntity
  8
0
100
AcDbLine
 10
285.965185
 20
114.020797
 30
0.0
 11
287.958185
 21
109.544797
 31
0.0
  0
LINE
  5
332
330
36
100
AcDbEntity
  8
0
100
AcDbLine
 10
284.686185
 20
113.451797
 30
0.0
 11
286.679185
 21
108.975797
 31
0.0
  0
LINE
  5
333
330
36
100
AcDbEntity
  8
0
100
AcDbLine
 10
283.407185
 20
112.881797
 30
0.0
 11
285.400185
 21
108.405797
 31
0.0
  0
LINE
  5
334
330
36
100
AcDbEntity
  8
0
100
AcDbLine
 10
282.128185
 20
112.312797
 30
0.0
 11
284.121185
 21
107.836797
 31
0.0
  0
LINE
  5
335
330
36
100
AcDbEntity
  8
0
100
AcDbLine
 10
280.849185
 20
111.743797
 30
0.0
 11
282.842185
 21
107.266797
 31
0.0
  0
LINE
  5
336
330
36
100
AcDbEntity
  8
0
100
AcDbLine
 10
288.760185
 20
119.115797
 30
0.0
 11
288.760185
 21
124.015797
 31
0.0
  0
LINE
  5
337
330
36
100
AcDbEntity
  8
0
100
AcDbLine
 10
287.360185
 20
119.115797
 30
0.0
 11
287.360185
 21
124.015797
 31
0.0
  0
LINE
  5
338
330
36
100
AcDbEntity
  8
0
100
AcDbLine
 10
285.960185
 20
119.115797
 30
0.0
 11
285.960185
 21
124.015797
 31
0.0
  0
LINE
  5
339
330
36
100
AcDbEntity
  8
0
100
AcDbLine
 10
284.560185
 20
119.115797
 30
0.0
 11
284.560185
 21
124.015797
 31
0.0
  0
LINE
  5
33A
330
36
100
AcDbEntity
  8
0
100
AcDbLine
 10
283.160185
 20
119.115797
 30
0.0
 11
283.160185
 21
124.015797
 31
0.0
  0
LINE
  5
33B
330
36
100
AcDbEntity
  8
0
100
AcDbLine
 10
281.760185
 20
119.115797
 30
0.0
 11
281.760185
 21
124.015797
 31
0.0
  0
LINE
  5
33C
330
36
100
AcDbEntity
  8
0
100
AcDbLine
 10
280.360185
 20
119.115797
 30
0.0
 11
280.360185
 21
124.015797
 31
0.0
  0
LINE
  5
33D
330
36
100
AcDbEntity
  8
0
100
AcDbLine
 10
278.960185
 20
119.115797
 30
0.0
 11
278.960185
 21
124.015797
 31
0.0
  0
LINE
  5
33E
330
36
100
AcDbEntity
  8
0
100
AcDbLine
 10
285.333185
 20
135.235797
 30
0.0
 11
287.326185
 21
130.759797
 31
0.0
  0
LINE
  5
33F
330
36
100
AcDbEntity
  8
0
100
AcDbLine
 10
284.054185
 20
134.665797
 30
0.0
 11
286.047185
 21
130.189797
 31
0.0
  0
LINE
  5
340
330
36
100
AcDbEntity
  8
0
100
AcDbLine
 10
282.775185
 20
134.096797
 30
0.0
 11
284.768185
 21
129.620797
 31
0.0
  0
LINE
  5
341
330
36
100
AcDbEntity
  8
0
100
AcDbLine
 10
281.496185
 20
133.527797
 30
0.0
 11
283.489185
 21
129.050797
 31
0.0
  0
LINE
  5
342
330
36
100
AcDbEntity
  8
0
100
AcDbLine
 10
280.218185
 20
132.957797
 30
0.0
 11
282.211185
 21
128.481797
 31
0.0
  0
LINE
  5
343
330
36
100
AcDbEntity
  8
0
100
AcDbLine
 10
278.939185
 20
132.388797
 30
0.0
 11
280.932185
 21
127.911797
 31
0.0
  0
LINE
  5
344
330
36
100
AcDbEntity
  8
0
100
AcDbLine
 10
277.660185
 20
131.818797
 30
0.0
 11
279.653185
 21
127.342797
 31
0.0
  0
LINE
  5
345
330
36
100
AcDbEntity
  8
0
100
AcDbLine
 10
276.381185
 20
131.249797
 30
0.0
 11
278.374185
 21
126.772797
 31
0.0
  0
LINE
  5
346
330
36
100
AcDbEntity
  8
0
100
AcDbLine
 10
246.797886
 20
111.804422
 30
0.0
 11
251.873886
 21
111.804422
 31
0.0
  0
LINE
  5
347
330
36
100
AcDbEntity
  8
0
100
AcDbLine
 10
246.381886
 20
118.302422
 30
0.0
 11
252.289886
 21
120.988422
 31
0.0
  0
LINE
  5
348
330
36
100
AcDbEntity
  8
0
100
AcDbLine
 10
246.381886
 20
119.376422
 30
0.0
 11
251.752886
 21
122.062422
 31
0.0
  0
LINE
  5
349
330
36
100
AcDbEntity
  8
0
100
AcDbLine
 10
316.786886
 20
136.216422
 30
0.0
 11
309.052886
 21
136.860422
 31
0.0
  0
LINE
  5
34A
330
36
100
AcDbEntity
  8
0
100
AcDbLine
 10
316.786886
 20
134.927422
 30
0.0
 11
309.052886
 21
135.571422
 31
0.0
  0
LINE
  5
34B
330
36
100
AcDbEntity
  8
0
100
AcDbLine
 10
110.151886
 20
156.982422
 30
0.0
 11
27.307886
 21
156.982422
 31
0.0
  0
LINE
  5
34C
330
36
100
AcDbEntity
  8
0
100
AcDbLine
 10
72.85488599999998
 20
221.648422
 30
0.0
 11
64.60488599999999
 21
221.648422
 31
0.0
  0
LINE
  5
34D
330
36
100
AcDbEntity
  8
0
100
AcDbLine
 10
293.229185
 20
99.60879699999999
 30
0.0
 11
293.229185
 21
104.508797
 31
0.0
  0
LINE
  5
34E
330
36
100
AcDbEntity
  8
0
100
AcDbLine
 10
291.829185
 20
99.60879699999999
 30
0.0
 11
291.829185
 21
104.508797
 31
0.0
  0
LINE
  5
34F
330
36
100
AcDbEntity
  8
0
100
AcDbLine
 10
290.429185
 20
99.60879699999999
 30
0.0
 11
290.429185
 21
104.508797
 31
0.0
  0
LINE
  5
350
330
36
100
AcDbEntity
  8
0
100
AcDbLine
 10
289.029185
 20
99.60879699999999
 30
0.0
 11
289.029185
 21
104.508797
 31
0.0
  0
LINE
  5
351
330
36
100
AcDbEntity
  8
0
100
AcDbLine
 10
287.629185
 20
99.60879699999999
 30
0.0
 11
287.629185
 21
104.508797
 31
0.0
  0
LINE
  5
352
330
36
100
AcDbEntity
  8
0
100
AcDbLine
 10
286.229185
 20
99.60879699999999
 30
0.0
 11
286.229185
 21
104.508797
 31
0.0
  0
LINE
  5
353
330
36
100
AcDbEntity
  8
0
100
AcDbLine
 10
284.829185
 20
99.60879699999999
 30
0.0
 11
284.829185
 21
104.508797
 31
0.0
  0
LINE
  5
354
330
36
100
AcDbEntity
  8
0
100
AcDbLine
 10
283.429185
 20
99.60879699999999
 30
0.0
 11
283.429185
 21
104.508797
 31
0.0
  0
LINE
  5
355
330
36
100
AcDbEntity
  8
0
100
AcDbLine
 10
247.703886
 20
104.372422
 30
0.0
 11
247.703886
 21
99.659422
 31
0.0
  0
LINE
  5
356
330
36
100
AcDbEntity
  8
0
100
AcDbLine
 10
247.703886
 20
99.659422
 30
0.0
 11
246.978886
 21
99.659422
 31
0.0
  0
LINE
  5
357
330
36
100
AcDbEntity
  8
0
100
AcDbLine
 10
246.978886
 20
99.659422
 30
0.0
 11
246.978886
 21
104.372422
 31
0.0
  0
LINE
  5
358
330
36
100
AcDbEntity
  8
0
100
AcDbLine
 10
251.692886
 20
104.372422
 30
0.0
 11
251.692886
 21
99.659422
 31
0.0
  0
LINE
  5
359
330
36
100
AcDbEntity
  8
0
100
AcDbLine
 10
251.692886
 20
99.659422
 30
0.0
 11
250.966886
 21
99.659422
 31
0.0
  0
LINE
  5
35A
330
36
100
AcDbEntity
  8
0
100
AcDbLine
 10
250.966886
 20
99.659422
 30
0.0
 11
250.966886
 21
104.372422
 31
0.0
  0
LINE
  5
35B
330
36
100
AcDbEntity
  8
0
 62
     3
100
AcDbLine
 10
309.509185
 20
119.631797
 30
0.0
 11
293.310185
 21
119.631797
 31
0.0
  0
LINE
  5
35C
330
36
100
AcDbEntity
  8
0
 62
     3
100
AcDbLine
 10
309.079185
 20
123.498797
 30
0.0
 11
293.310185
 21
123.498797
 31
0.0
  0
LINE
  5
35D
330
36
100
AcDbEntity
  8
0
 62
     3
100
AcDbLine
 10
309.509185
 20
100.125797
 30
0.0
 11
297.779185
 21
100.125797
 31
0.0
  0
LINE
  5
35E
330
36
100
AcDbEntity
  8
0
 62
     3
100
AcDbLine
 10
309.079185
 20
103.992797
 30
0.0
 11
297.779185
 21
103.992797
 31
0.0
  0
LINE
  5
35F
330
36
100
AcDbEntity
  8
0
 62
     3
100
AcDbLine
 10
297.779185
 20
99.60879699999999
 30
0.0
 11
297.779185
 21
104.508797
 31
0.0
  0
LINE
  5
360
330
36
100
AcDbEntity
  8
0
 62
     3
100
AcDbLine
 10
297.779185
 20
104.508797
 30
0.0
 11
280.279185
 21
104.508797
 31
0.0
  0
LINE
  5
361
330
36
100
AcDbEntity
  8
0
 62
     3
100
AcDbLine
 10
297.779185
 20
99.60879699999999
 30
0.0
 11
280.279185
 21
99.60879699999999
 31
0.0
  0
LINE
  5
362
330
36
100
AcDbEntity
  8
0
 62
     3
100
AcDbLine
 10
280.279185
 20
99.60879699999999
 30
0.0
 11
280.279185
 21
104.508797
 31
0.0
  0
LINE
  5
363
330
36
100
AcDbEntity
  8
0
 62
     3
100
AcDbLine
 10
280.279185
 20
103.753797
 30
0.0
 11
274.465185
 21
104.906797
 31
0.0
  0
LINE
  5
364
330
36
100
AcDbEntity
  8
0
 62
     3
100
AcDbLine
 10
279.657185
 20
106.675797
 30
0.0
 11
276.5631850000001
 21
104.490797
 31
0.0
  0
LINE
  5
365
330
36
100
AcDbEntity
  8
0
 62
     3
100
AcDbLine
 10
295.952185
 20
113.103797
 30
0.0
 11
279.965185
 21
105.985797
 31
0.0
  0
LINE
  5
366
330
36
100
AcDbEntity
  8
0
 62
     3
100
AcDbLine
 10
277.972185
 20
110.461797
 30
0.0
 11
279.965185
 21
105.985797
 31
0.0
  0
LINE
  5
367
330
36
100
AcDbEntity
  8
0
 62
     3
100
AcDbLine
 10
293.959185
 20
117.579797
 30
0.0
 11
277.972185
 21
110.461797
 31
0.0
  0
LINE
  5
368
330
36
100
AcDbEntity
  8
0
 62
     3
100
AcDbLine
 10
293.959185
 20
117.579797
 30
0.0
 11
295.952185
 21
113.103797
 31
0.0
  0
LINE
  5
369
330
36
100
AcDbEntity
  8
0
 62
     3
100
AcDbLine
 10
278.383185
 20
109.379797
 30
0.0
 11
273.006185
 21
106.985797
 31
0.0
  0
LINE
  5
36A
330
36
100
AcDbEntity
  8
0
 62
     3
100
AcDbLine
 10
280.214185
 20
100.765797
 30
0.0
 11
274.329185
 21
100.765797
 31
0.0
  0
LINE
  5
36B
330
36
100
AcDbEntity
  8
0
 62
     3
100
AcDbLine
 10
274.329185
 20
100.765797
 30
0.0
 11
265.844185
 21
99.156797
 31
0.0
  0
LINE
  5
36C
330
36
100
AcDbEntity
  8
0
 62
     3
100
AcDbLine
 10
265.798185
 20
99.201797
 30
0.0
 11
263.296185
 21
101.617797
 31
0.0
  0
LINE
  5
36D
330
36
100
AcDbEntity
  8
0
 62
     3
100
AcDbLine
 10
264.577185
 20
104.943797
 30
0.0
 11
263.274185
 21
101.719797
 31
0.0
  0
LINE
  5
36E
330
36
100
AcDbEntity
  8
0
 62
     3
100
AcDbLine
 10
273.006185
 20
106.985797
 30
0.0
 11
264.601185
 21
105.003797
 31
0.0
  0
LINE
  5
36F
330
36
100
AcDbEntity
  8
0
 62
     3
100
AcDbLine
 10
266.230185
 20
101.258797
 30
0.0
 11
274.465185
 21
104.906797
 31
0.0
  0
LINE
  5
370
330
36
100
AcDbEntity
  8
0
 62
     3
100
AcDbLine
 10
266.230185
 20
101.258797
 30
0.0
 11
263.296185
 21
101.617797
 31
0.0
  0
LINE
  5
371
330
36
100
AcDbEntity
  8
0
 62
     3
100
AcDbLine
 10
265.809185
 20
103.240797
 30
0.0
 11
263.274185
 21
101.719797
 31
0.0
  0
LINE
  5
372
330
36
100
AcDbEntity
  8
0
 62
     3
100
AcDbLine
 10
265.809185
 20
103.240797
 30
0.0
 11
270.724185
 21
103.249797
 31
0.0
  0
LINE
  5
373
330
36
100
AcDbEntity
  8
0
 62
     3
100
AcDbLine
 10
275.746185
 20
120.271797
 30
0.0
 11
269.860185
 21
120.271797
 31
0.0
  0
LINE
  5
374
330
36
100
AcDbEntity
  8
0
 62
     3
100
AcDbLine
 10
269.860185
 20
120.271797
 30
0.0
 11
261.375185
 21
118.663797
 31
0.0
  0
LINE
  5
375
330
36
100
AcDbEntity
  8
0
 62
     3
100
AcDbLine
 10
261.329185
 20
118.708797
 30
0.0
 11
258.827185
 21
121.123797
 31
0.0
  0
LINE
  5
376
330
36
100
AcDbEntity
  8
0
 62
     3
100
AcDbLine
 10
260.108185
 20
124.450797
 30
0.0
 11
258.806185
 21
121.226797
 31
0.0
  0
LINE
  5
377
330
36
100
AcDbEntity
  8
0
 62
     3
100
AcDbLine
 10
268.538185
 20
126.491797
 30
0.0
 11
260.133185
 21
124.510797
 31
0.0
  0
LINE
  5
378
330
36
100
AcDbEntity
  8
0
 62
     3
100
AcDbLine
 10
273.915185
 20
128.885797
 30
0.0
 11
268.538185
 21
126.491797
 31
0.0
  0
LINE
  5
379
330
36
100
AcDbEntity
  8
0
 62
     3
100
AcDbLine
 10
275.810185
 20
123.259797
 30
0.0
 11
269.996185
 21
124.413797
 31
0.0
  0
LINE
  5
37A
330
36
100
AcDbEntity
  8
0
 62
     3
100
AcDbLine
 10
261.761185
 20
120.764797
 30
0.0
 11
269.996185
 21
124.413797
 31
0.0
  0
LINE
  5
37B
330
36
100
AcDbEntity
  8
0
 62
     3
100
AcDbLine
 10
261.761185
 20
120.764797
 30
0.0
 11
258.827185
 21
121.123797
 31
0.0
  0
LINE
  5
37C
330
36
100
AcDbEntity
  8
0
 62
     3
100
AcDbLine
 10
261.340185
 20
122.746797
 30
0.0
 11
258.806185
 21
121.226797
 31
0.0
  0
LINE
  5
37D
330
36
100
AcDbEntity
  8
0
 62
     3
100
AcDbLine
 10
261.340185
 20
122.746797
 30
0.0
 11
266.255185
 21
122.755797
 31
0.0
  0
LINE
  5
37E
330
36
100
AcDbEntity
  8
0
 62
     3
100
AcDbLine
 10
275.189185
 20
126.181797
 30
0.0
 11
272.094185
 21
123.996797
 31
0.0
  0
LINE
  5
37F
330
36
100
AcDbEntity
  8
0
 62
     3
100
AcDbLine
 10
273.503185
 20
129.968797
 30
0.0
 11
275.496185
 21
125.491797
 31
0.0
  0
LINE
  5
380
330
36
100
AcDbEntity
  8
0
 62
     3
100
AcDbLine
 10
289.490185
 20
137.086797
 30
0.0
 11
273.503185
 21
129.968797
 31
0.0
  0
LINE
  5
381
330
36
100
AcDbEntity
  8
0
 62
     3
100
AcDbLine
 10
291.483185
 20
132.609797
 30
0.0
 11
275.496185
 21
125.491797
 31
0.0
  0
LINE
  5
382
330
36
100
AcDbEntity
  8
0
 62
     3
100
AcDbLine
 10
289.490185
 20
137.086797
 30
0.0
 11
291.483185
 21
132.609797
 31
0.0
  0
LINE
  5
383
330
36
100
AcDbEntity
  8
0
 62
     3
100
AcDbLine
 10
293.310185
 20
124.015797
 30
0.0
 11
275.810185
 21
124.015797
 31
0.0
  0
LINE
  5
384
330
36
100
AcDbEntity
  8
0
 62
     3
100
AcDbLine
 10
293.310185
 20
119.115797
 30
0.0
 11
293.310185
 21
124.015797
 31
0.0
  0
LINE
  5
385
330
36
100
AcDbEntity
  8
0
 62
     3
100
AcDbLine
 10
293.310185
 20
119.115797
 30
0.0
 11
275.810185
 21
119.115797
 31
0.0
  0
LINE
  5
386
330
36
100
AcDbEntity
  8
0
 62
     3
100
AcDbLine
 10
275.810185
 20
119.115797
 30
0.0
 11
275.810185
 21
124.015797
 31
0.0
  0
LINE
  5
387
330
36
100
AcDbEntity
  8
0
 62
     3
100
AcDbLine
 10
250.434886
 20
121.365422
 30
0.0
 11
250.434886
 21
160.117422
 31
0.0
  0
LINE
  5
388
330
36
100
AcDbEntity
  8
0
 62
     3
100
AcDbLine
 10
248.286886
 20
160.117422
 30
0.0
 11
250.434886
 21
160.117422
 31
0.0
  0
ARC
  5
389
330
36
100
AcDbEntity
  8
0
 62
     3
100
AcDbCircle
 10
249.335886
 20
160.117422
 30
0.0
 40
2.577999999999998
100
AcDbArc
 50
201.039
 51
246.438
  0
ARC
  5
38A
330
36
100
AcDbEntity
  8
0
 62
     3
100
AcDbCircle
 10
249.335886
 20
160.117422
 30
0.0
 40
2.577999999999998
100
AcDbArc
 50
21.039
 51
158.961
  0
LINE
  5
38B
330
36
100
AcDbEntity
  8
0
 62
     3
100
AcDbLine
 10
248.286886
 20
120.291422
 30
0.0
 11
248.286886
 21
160.117422
 31
0.0
  0
LINE
  5
38C
330
36
100
AcDbEntity
  8
0
 62
     3
100
AcDbLine
 10
250.423886
 20
120.139422
 30
0.0
 11
250.423886
 21
115.429422
 31
0.0
  0
LINE
  5
38D
330
36
100
AcDbEntity
  8
0
 62
     3
100
AcDbLine
 10
250.604886
 20
115.429422
 30
0.0
 11
250.966886
 21
112.167422
 31
0.0
  0
LINE
  5
38E
330
36
100
AcDbEntity
  8
0
 62
     3
100
AcDbLine
 10
248.066886
 20
115.429422
 30
0.0
 11
250.604886
 21
115.429422
 31
0.0
  0
LINE
  5
38F
330
36
100
AcDbEntity
  8
0
 62
     3
100
AcDbLine
 10
248.247886
 20
119.151422
 30
0.0
 11
248.247886
 21
115.429422
 31
0.0
  0
LINE
  5
390
330
36
100
AcDbEntity
  8
0
 62
     3
100
AcDbLine
 10
247.703886
 20
112.167422
 30
0.0
 11
248.066886
 21
115.429422
 31
0.0
  0
LINE
  5
391
330
36
100
AcDbEntity
  8
0
 62
     3
100
AcDbLine
 10
250.966886
 20
112.167422
 30
0.0
 11
247.703886
 21
112.167422
 31
0.0
  0
LINE
  5
392
330
36
100
AcDbEntity
  8
0
 62
     3
100
AcDbLine
 10
251.873886
 20
112.167422
 30
0.0
 11
250.966886
 21
112.167422
 31
0.0
  0
LINE
  5
393
330
36
100
AcDbEntity
  8
0
 62
     3
100
AcDbLine
 10
247.703886
 20
112.167422
 30
0.0
 11
246.797886
 21
112.167422
 31
0.0
  0
LINE
  5
394
330
36
100
AcDbEntity
  8
0
 62
     3
100
AcDbLine
 10
246.797886
 20
112.167422
 30
0.0
 11
246.797886
 21
111.804422
 31
0.0
  0
LINE
  5
395
330
36
100
AcDbEntity
  8
0
 62
     3
100
AcDbLine
 10
251.873886
 20
111.804422
 30
0.0
 11
251.873886
 21
112.167422
 31
0.0
  0
ARC
  5
396
330
36
100
AcDbEntity
  8
0
 62
     3
100
AcDbCircle
 10
252.303886
 20
110.716422
 30
0.0
 40
1.169999999999999
100
AcDbArc
 50
111.595
 51
248.405
  0
ARC
  5
397
330
36
100
AcDbEntity
  8
0
 62
     3
100
AcDbCircle
 10
245.119886
 20
104.651422
 30
0.0
 40
8.39
100
AcDbArc
 50
358.093
 51
36.39
  0
LINE
  5
398
330
36
100
AcDbEntity
  8
0
 62
     3
100
AcDbLine
 10
245.166886
 20
104.372422
 30
0.0
 11
253.504886
 21
104.372422
 31
0.0
  0
ARC
  5
399
330
36
100
AcDbEntity
  8
0
 62
     3
100
AcDbCircle
 10
253.551886
 20
104.651422
 30
0.0
 40
8.39
100
AcDbArc
 50
143.61
 51
181.907
  0
ARC
  5
39A
330
36
100
AcDbEntity
  8
0
 62
     3
100
AcDbCircle
 10
246.367886
 20
110.716422
 30
0.0
 40
1.169999999999999
100
AcDbArc
 50
291.595
 51
68.405
  0
LINE
  5
39B
330
36
100
AcDbEntity
  8
0
100
AcDbLine
 10
306.54991
 20
154.283886
 30
0.0
 11
306.54991
 21
178.750865
 31
0.0
  0
LINE
  5
39C
330
36
100
AcDbEntity
  8
0
100
AcDbLine
 10
306.54991
 20
173.750865
 30
0.0
 11
254.540868
 21
173.750865
 31
0.0
  0
LINE
  5
39D
330
36
100
AcDbEntity
  8
0
100
AcDbLine
 10
306.54991
 20
178.750865
 30
0.0
 11
254.540868
 21
178.750865
 31
0.0
  0
LINE
  5
39E
330
36
100
AcDbEntity
  8
0
100
AcDbLine
 10
306.54991
 20
154.283886
 30
0.0
 11
254.540868
 21
154.283886
 31
0.0
  0
LINE
  5
39F
330
36
100
AcDbEntity
  8
0
100
AcDbLine
 10
254.540868
 20
178.750865
 30
0.0
 11
254.540868
 21
154.283886
 31
0.0
  0
LINE
  5
3A0
330
36
100
AcDbEntity
  8
0
 62
     3
100
AcDbLine
 10
182.019886
 20
177.339422
 30
0.0
 11
202.644886
 21
177.339422
 31
0.0
  0
LINE
  5
3A1
330
36
100
AcDbEntity
  8
0
 62
     3
100
AcDbLine
 10
182.019886
 20
181.808422
 30
0.0
 11
202.644886
 21
181.808422
 31
0.0
  0
LINE
  5
3A2
330
36
100
AcDbEntity
  8
0
 62
     3
100
AcDbLine
 10
182.019886
 20
186.276422
 30
0.0
 11
202.644886
 21
186.276422
 31
0.0
  0
LINE
  5
3A3
330
36
100
AcDbEntity
  8
0
 62
     3
100
AcDbLine
 10
182.019886
 20
190.745422
 30
0.0
 11
202.644886
 21
190.745422
 31
0.0
  0
LINE
  5
3A4
330
36
100
AcDbEntity
  8
0
 62
     3
100
AcDbLine
 10
151.081886
 20
190.745422
 30
0.0
 11
171.706886
 21
190.745422
 31
0.0
  0
LINE
  5
3A5
330
36
100
AcDbEntity
  8
0
 62
     3
100
AcDbLine
 10
151.081886
 20
186.276422
 30
0.0
 11
171.706886
 21
186.276422
 31
0.0
  0
LINE
  5
3A6
330
36
100
AcDbEntity
  8
0
 62
     3
100
AcDbLine
 10
151.081886
 20
181.808422
 30
0.0
 11
171.706886
 21
181.808422
 31
0.0
  0
LINE
  5
3A7
330
36
100
AcDbEntity
  8
0
 62
     3
100
AcDbLine
 10
151.081886
 20
177.339422
 30
0.0
 11
171.706886
 21
177.339422
 31
0.0
  0
LINE
  5
3A8
330
36
100
AcDbEntity
  8
0
 62
     3
100
AcDbLine
 10
76.924614
 20
187.587887
 30
0.0
 11
68.92461400000001
 21
187.587887
 31
0.0
  0
LINE
  5
3A9
330
36
100
AcDbEntity
  8
0
 62
     3
100
AcDbLine
 10
68.42461400000001
 20
188.087887
 30
0.0
 11
68.42461400000001
 21
195.087887
 31
0.0
  0
ARC
  5
3AA
330
36
100
AcDbEntity
  8
0
 62
     3
100
AcDbCircle
 10
68.92461400000001
 20
195.087887
 30
0.0
 40
0.5
100
AcDbArc
 50
90.0
 51
180.0
  0
LINE
  5
3AB
330
36
100
AcDbEntity
  8
0
 62
     3
100
AcDbLine
 10
68.92461400000001
 20
195.587887
 30
0.0
 11
76.924614
 21
195.587887
 31
0.0
  0
ARC
  5
3AC
330
36
100
AcDbEntity
  8
0
 62
     3
100
AcDbCircle
 10
76.924614
 20
195.087887
 30
0.0
 40
0.5
100
AcDbArc
 50
0.0
 51
90.0
  0
LINE
  5
3AD
330
36
100
AcDbEntity
  8
0
 62
     3
100
AcDbLine
 10
77.424614
 20
188.087887
 30
0.0
 11
77.424614
 21
195.087887
 31
0.0
  0
TEXT
  5
3AE
330
36
100
AcDbEntity
  8
0
 62
     3
100
AcDbText
 10
68.42461400000001
 20
191.587887
 30
0.0
 40
3.2
  1
12V
 41
0.976562
100
AcDbText
  0
TEXT
  5
3AF
330
36
100
AcDbEntity
  8
0
 62
     3
100
AcDbText
 10
68.42461400000001
 20
188.087887
 30
0.0
 40
3.2
  1
24V
 41
0.8789059999999999
100
AcDbText
  0
TEXT
  5
3B0
330
36
100
AcDbEntity
  8
0
 62
     3
100
AcDbText
 10
34.194177
 20
172.416428
 30
0.0
 40
3.2
  1
急
 41
0.859375
100
AcDbText
  0
TEXT
  5
3B1
330
36
100
AcDbEntity
  8
0
 62
     3
100
AcDbText
 10
40.06272599999999
 20
172.416428
 30
0.0
 40
3.2
  1
速
 41
0.859375
100
AcDbText
  0
TEXT
  5
3B2
330
36
100
AcDbEntity
  8
0
 62
     3
100
AcDbText
 10
45.931274
 20
172.416428
 30
0.0
 40
3.2
  1
充
 41
0.859375
100
AcDbText
  0
TEXT
  5
3B3
330
36
100
AcDbEntity
  8
0
 62
     3
100
AcDbText
 10
51.79982299999998
 20
172.416428
 30
0.0
 40
3.2
  1
電
 41
0.859375
100
AcDbText
  0
TEXT
  5
3B4
330
36
100
AcDbEntity
  8
0
 62
     3
100
AcDbText
 10
57.668372
 20
172.416428
 30
0.0
 40
3.2
  1
器
 41
0.859375
100
AcDbText
  0
TEXT
  5
3B5
330
36
100
AcDbEntity
  8
0
 62
     3
100
AcDbText
 10
34.30223
 20
168.526884
 30
0.0
 40
2.630879999999998
  1
エンジンスターター付
 41
0.833333
100
AcDbText
  0
CIRCLE
  5
3B6
330
36
100
AcDbEntity
  8
0
 62
     3
100
AcDbCircle
 10
35.041886
 20
160.114422
 30
0.0
 40
2.544
  0
CIRCLE
  5
3B7
330
36
100
AcDbEntity
  8
0
 62
     3
100
AcDbCircle
 10
75.416886
 20
160.114422
 30
0.0
 40
1.719
  0
CIRCLE
  5
3B8
330
36
100
AcDbEntity
  8
0
 62
     3
100
AcDbCircle
 10
83.322886
 20
160.114422
 30
0.0
 40
2.319999999999998
  0
CIRCLE
  5
3B9
330
36
100
AcDbEntity
  8
0
 62
     3
100
AcDbCircle
 10
91.22988599999999
 20
160.114422
 30
0.0
 40
2.319999999999998
  0
CIRCLE
  5
3BA
330
36
100
AcDbEntity
  8
0
 62
     3
100
AcDbCircle
 10
99.135886
 20
160.114422
 30
0.0
 40
2.577999999999998
  0
LINE
  5
3BB
330
36
100
AcDbEntity
  8
0
 62
     3
100
AcDbLine
 10
85.67888600000001
 20
185.042422
 30
0.0
 11
98.19688599999999
 21
185.042422
 31
0.0
  0
LINE
  5
3BC
330
36
100
AcDbEntity
  8
0
 62
     3
100
AcDbLine
 10
85.67888600000001
 20
186.060422
 30
0.0
 11
98.19688599999999
 21
186.060422
 31
0.0
  0
ARC
  5
3BD
330
36
100
AcDbEntity
  8
0
 62
     3
100
AcDbCircle
 10
92.44788599999999
 20
185.551422
 30
0.0
 40
6.788999999999997
100
AcDbArc
 50
184.3009999999999
 51
175.699
  0
LINE
  5
3BE
330
36
100
AcDbEntity
  8
0
 62
     3
100
AcDbLine
 10
66.666886
 20
184.434422
 30
0.0
 11
35.041886
 21
184.434422
 31
0.0
  0
LINE
  5
3BF
330
36
100
AcDbEntity
  8
0
 62
     3
100
AcDbLine
 10
66.666886
 20
184.434422
 30
0.0
 11
66.666886
 21
198.259422
 31
0.0
  0
LINE
  5
3C0
330
36
100
AcDbEntity
  8
0
 62
     3
100
AcDbLine
 10
66.666886
 20
198.259422
 30
0.0
 11
35.041886
 21
198.259422
 31
0.0
  0
LINE
  5
3C1
330
36
100
AcDbEntity
  8
0
 62
     3
100
AcDbLine
 10
35.041886
 20
198.259422
 30
0.0
 11
35.041886
 21
184.434422
 31
0.0
  0
CIRCLE
  5
3C2
330
36
100
AcDbEntity
  8
0
100
AcDbCircle
 10
92.44788599999999
 20
185.551422
 30
0.0
 40
5.770999999999999
  0
LINE
  5
3C8
330
36
100
AcDbEntity
  8
0
100
AcDbLine
 10
239.4931956613641
 20
82.375629
 30
0.0
 11
276.121689843186
 21
82.375629
 31
0.0
  0
LINE
  5
3CB
330
36
100
AcDbEntity
  8
0
 62
     3
100
AcDbLine
 10
351.447637
 20
2.250223
 30
0.0
 11
351.447637
 21
25.250223
 31
0.0
  0
LINE
  5
3CD
330
36
100
AcDbEntity
  8
0
 62
     3
100
AcDbLine
 10
298.394027
 20
-4.749776999999999
 30
0.0
 11
298.394027
 21
9.250223
 31
0.0
  0
TEXT
  5
3CF
330
36
100
AcDbEntity
  8
0
 62
     3
100
AcDbText
 10
327.457955
 20
21.455339
 30
0.0
 40
2.0
  1
A
 41
0.7
100
AcDbText
  0
TEXT
  5
3D0
330
36
100
AcDbEntity
  8
0
 62
     3
100
AcDbText
 10
329.993241
 20
21.455339
 30
0.0
 40
2.0
  1
P
 41
0.7
100
AcDbText
  0
TEXT
  5
3D1
330
36
100
AcDbEntity
  8
0
 62
     3
100
AcDbText
 10
332.528527
 20
21.455339
 30
0.0
 40
2.0
  1
P
 41
0.7
100
AcDbText
  0
TEXT
  5
3D2
330
36
100
AcDbEntity
  8
0
 62
     3
100
AcDbText
 10
335.063813
 20
21.455339
 30
0.0
 40
2.0
  1
D
 41
0.7
100
AcDbText
  0
TEXT
  5
3D3
330
36
100
AcDbEntity
  8
0
 62
     3
100
AcDbText
 10
340.432496
 20
21.455339
 30
0.0
 40
2.0
  1
C
 41
0.7
100
AcDbText
  0
TEXT
  5
3D4
330
36
100
AcDbEntity
  8
0
 62
     3
100
AcDbText
 10
342.967783
 20
21.455339
 30
0.0
 40
2.0
  1
H
 41
0.7
100
AcDbText
  0
TEXT
  5
3D5
330
36
100
AcDbEntity
  8
0
 62
     3
100
AcDbText
 10
345.503069
 20
21.455339
 30
0.0
 40
2.0
  1
C
 41
0.7
100
AcDbText
  0
TEXT
  5
3D6
330
36
100
AcDbEntity
  8
0
 62
     3
100
AcDbText
 10
348.0383549999999
 20
21.455339
 30
0.0
 40
2.0
  1
K
 41
0.7
100
AcDbText
  0
TEXT
  5
3D7
330
36
100
AcDbEntity
  8
0
 62
     3
100
AcDbText
 10
353.712322
 20
21.455339
 30
0.0
 40
2.0
  1
DESN
 41
1.216762999999998
100
AcDbText
  0
TEXT
  5
3D8
330
36
100
AcDbEntity
  8
0
 62
     3
100
AcDbText
 10
268.705963
 20
-7.891159
 30
0.0
 40
2.0
  1
NICHIDO IND.CO.LTD
 41
1.274876
100
AcDbText
  0
LINE
  5
3D9
330
36
100
AcDbEntity
  8
0
 62
     3
100
AcDbLine
 10
279.088992
 20
25.25022300000001
 30
0.0
 11
279.088992
 21
2.250223
 31
0.0
  0
LINE
  5
3DA
330
36
100
AcDbEntity
  8
0
 62
     3
100
AcDbLine
 10
325.447637
 20
25.250223
 30
0.0
 11
325.447637
 21
-14.4155
 31
0.0
  0
LINE
  5
3DF
330
36
100
AcDbEntity
  8
0
 62
     3
100
AcDbLine
 10
338.447637
 20
25.250223
 30
0.0
 11
338.447637
 21
-4.749776999999999
 31
0.0
  0
TEXT
  5
3E0
330
36
100
AcDbEntity
  8
0
 62
     3
100
AcDbText
 10
326.560081
 20
-3.885091
 30
0.0
 40
3.2
  1
作成日
 41
1.017225999999997
100
AcDbText
  0
LINE
  5
3E1
330
36
100
AcDbEntity
  8
0
 62
     3
100
AcDbLine
 10
377.147
 20
25.250223
 30
0.0
 11
265.843558
 21
25.250223
 31
0.0
  0
LINE
  5
3E2
330
36
100
AcDbEntity
  8
0
 62
     3
100
AcDbLine
 10
364.447637
 20
2.250223
 30
0.0
 11
364.447637
 21
25.250223
 31
0.0
  0
TEXT
  5
3E3
330
36
100
AcDbEntity
  8
0
 62
     3
100
AcDbText
 10
367.77144
 20
21.541157
 30
0.0
 40
1.8
  1
D
 41
0.666667
100
AcDbText
  0
TEXT
  5
3E4
330
36
100
AcDbEntity
  8
0
 62
     3
100
AcDbText
 10
370.588068
 20
21.541157
 30
0.0
 40
1.8
  1
E
 41
0.666667
100
AcDbText
  0
TEXT
  5
3E5
330
36
100
AcDbEntity
  8
0
 62
     3
100
AcDbText
 10
373.404696
 20
21.541157
 30
0.0
 40
1.8
  1
F
 41
0.666667
100
AcDbText
  0
TEXT
  5
3E6
330
36
100
AcDbEntity
  8
0
 62
     3
100
AcDbText
 10
367.77144
 20
17.548604
 30
0.0
 40
3.2
  1
製図
 41
1.076369
100
AcDbText
  0
LINE
  5
3E7
330
36
100
AcDbEntity
  8
0
 62
     3
100
AcDbLine
 10
265.843558
 20
25.250223
 30
0.0
 11
265.843558
 21
-14.4155
 31
0.0
  0
TEXT
  5
3E8
330
36
100
AcDbEntity
  8
0
 62
     3
100
AcDbText
 10
267.22021
 20
-14.083035
 30
0.0
 40
5.0
  1
日動工業株式会社
 41
0.833333
100
AcDbText
  0
LINE
  5
3E9
330
36
100
AcDbEntity
  8
0
 62
     3
100
AcDbLine
 10
308.725961
 20
9.250223
 30
0.0
 11
308.725961
 21
-14.4155
 31
0.0
  0
LINE
  5
3EA
330
36
100
AcDbEntity
  8
0
 62
     3
100
AcDbLine
 10
308.725961
 20
-9.582639
 30
0.0
 11
325.447637
 21
-9.582639
 31
0.0
  0
TEXT
  5
3EB
330
36
100
AcDbEntity
  8
0
 62
     3
100
AcDbText
 10
309.312563
 20
-8.766208
 30
0.0
 40
3.2
  1
出図コード
 41
0.8356860000000001
100
AcDbText
  0
LINE
  5
3ED
330
36
100
AcDbEntity
  8
0
 62
     3
100
AcDbLine
 10
265.843558
 20
-4.749776999999999
 30
0.0
 11
377.147
 21
-4.749776999999999
 31
0.0
  0
LINE
  5
3EF
330
36
100
AcDbEntity
  8
0
 62
     3
100
AcDbLine
 10
265.843558
 20
16.250223
 30
0.0
 11
377.147
 21
16.250223
 31
0.0
  0
LINE
  5
3F5
330
36
100
AcDbEntity
  8
0
 62
     3
100
AcDbLine
 10
265.843558
 20
9.250223
 30
0.0
 11
325.447637
 21
9.250223
 31
0.0
  0
LINE
  5
3FB
330
36
100
AcDbEntity
  8
0
 62
     3
100
AcDbLine
 10
265.843558
 20
2.250223
 30
0.0
 11
377.147
 21
2.250223
 31
0.0
  0
TEXT
  5
3FC
330
36
100
AcDbEntity
  8
0
 62
     3
100
AcDbText
 10
309.180015
 20
-14.06537481893417
 30
0.0
 40
3.2
  1
ZK-A3X
 41
0.8112849999999999
100
AcDbText
  0
TEXT
  5
3FD
330
36
100
AcDbEntity
  8
0
 62
     3
100
AcDbText
 10
267.660954
 20
21.419748
 30
0.0
 40
2.0
  1
CONPONENTS
 41
0.5331600000000001
100
AcDbText
  0
TEXT
  5
3FE
330
36
100
AcDbEntity
  8
0
 62
     3
100
AcDbText
 10
267.311228
 20
2.487572
 30
0.0
 40
3.0
  1
材
 41
0.833333
100
AcDbText
  0
TEXT
  5
3FF
330
36
100
AcDbEntity
  8
0
 62
     3
100
AcDbText
 10
274.84687
 20
2.487572
 30
0.0
 40
3.0
  1
質
 41
0.833333
100
AcDbText
  0
TEXT
  5
400
330
36
100
AcDbEntity
  8
0
 62
     3
100
AcDbText
 10
267.399298
 20
13.112096
 30
0.0
 40
2.0
  1
MODEL
 41
1.031072999999999
100
AcDbText
  0
TEXT
  5
401
330
36
100
AcDbEntity
  8
0
 62
     3
100
AcDbText
 10
267.311228
 20
6.16988
 30
0.0
 40
2.0
  1
MATERIAL
 41
0.659278
100
AcDbText
  0
TEXT
  5
402
330
36
100
AcDbEntity
  8
0
 62
     3
100
AcDbText
 10
298.618508
 20
2.487572
 30
0.0
 40
3.0
  1
備
 41
0.833333
100
AcDbText
  0
TEXT
  5
403
330
36
100
AcDbEntity
  8
0
 62
     3
100
AcDbText
 10
305.35151
 20
2.487572
 30
0.0
 40
3.0
  1
考
 41
0.833333
100
AcDbText
  0
TEXT
  5
404
330
36
100
AcDbEntity
  8
0
 62
     3
100
AcDbText
 10
298.9995774757663
 20
6.16988
 30
0.0
 40
2.0
  1
REMARKS
 41
0.675794
100
AcDbText
  0
TEXT
  5
405
330
36
100
AcDbEntity
  8
0
 62
     3
100
AcDbText
 10
268.900957
 20
-0.750241
 30
0.0
 40
2.0
  1
3AD
 41
1.42614
100
AcDbText
  0
TEXT
  5
406
330
36
100
AcDbEntity
  8
0
 62
     3
100
AcDbText
 10
278.211937
 20
-0.584507
 30
0.0
 40
2.0
  1
ANGLE
 41
1.669883999999995
100
AcDbText
  0
TEXT
  5
407
330
36
100
AcDbEntity
  8
0
 62
     3
100
AcDbText
 10
299.145824
 20
-0.9613479999999999
 30
0.0
 40
2.0
  1
SCALE
 41
0.7719630000000001
100
AcDbText
  0
TEXT
  5
408
330
36
100
AcDbEntity
  8
0
 62
     3
100
AcDbText
 10
268.587087
 20
-4.749776999999999
 30
0.0
 40
3.0
  1
第
 41
0.833333
100
AcDbText
  0
TEXT
  5
409
330
36
100
AcDbEntity
  8
0
 62
     3
100
AcDbText
 10
276.373937
 20
-4.749776999999999
 30
0.0
 40
3.0
  1
三
 41
0.833333
100
AcDbText
  0
TEXT
  5
40A
330
36
100
AcDbEntity
  8
0
 62
     3
100
AcDbText
 10
284.160787
 20
-4.749776999999999
 30
0.0
 40
3.0
  1
角
 41
0.833333
100
AcDbText
  0
TEXT
  5
40B
330
36
100
AcDbEntity
  8
0
 62
     3
100
AcDbText
 10
291.947637
 20
-4.749776999999999
 30
0.0
 40
3.0
  1
法
 41
0.833333
100
AcDbText
  0
TEXT
  5
40C
330
36
100
AcDbEntity
  8
0
 62
     3
100
AcDbText
 10
299.009029
 20
-4.461348
 30
0.0
 40
3.0
  1
尺
 41
0.833333
100
AcDbText
  0
TEXT
  5
40D
330
36
100
AcDbEntity
  8
0
 62
     3
100
AcDbText
 10
305.74203
 20
-4.461348
 30
0.0
 40
3.0
  1
度
 41
0.833333
100
AcDbText
  0
TEXT
  5
40E
330
36
100
AcDbEntity
  8
0
 62
     3
100
AcDbText
 10
328.325301
 20
17.707951
 30
0.0
 40
3.0
  1
承認
 41
1.089472999999999
100
AcDbText
  0
TEXT
  5
40F
330
36
100
AcDbEntity
  8
0
 62
     3
100
AcDbText
 10
341.568181
 20
17.650223
 30
0.0
 40
3.0
  1
検図
 41
0.931761
100
AcDbText
  0
TEXT
  5
410
330
36
100
AcDbEntity
  8
0
 62
     3
100
AcDbText
 10
354.568578
 20
17.650223
 30
0.0
 40
3.0
  1
設
 41
0.833333
100
AcDbText
  0
TEXT
  5
411
330
36
100
AcDbEntity
  8
0
 62
     3
100
AcDbText
 10
359.058446
 20
17.650223
 30
0.0
 40
3.0
  1
計
 41
0.833333
100
AcDbText
  0
TEXT
  5
412
330
36
100
AcDbEntity
  8
0
 62
     3
100
AcDbText
 10
267.731061
 20
17.822775
 30
0.0
 40
3.0
  1
品
 41
0.833333
100
AcDbText
  0
TEXT
  5
413
330
36
100
AcDbEntity
  8
0
 62
     3
100
AcDbText
 10
275.266703
 20
17.822775
 30
0.0
 40
3.0
  1
名
 41
0.833333
100
AcDbText
  0
TEXT
  5
414
330
36
100
AcDbEntity
  8
0
 62
     3
100
AcDbText
 10
267.399298
 20
9.5514794073789
 30
0.0
 40
3.0
  1
型
 41
0.833333
100
AcDbText
  0
TEXT
  5
415
330
36
100
AcDbEntity
  8
0
 62
     3
100
AcDbText
 10
274.947389
 20
9.5514794073789
 30
0.0
 40
3.0
  1
式
 41
0.833333
100
AcDbText
  0
LINE
  5
416
330
36
100
AcDbEntity
  8
0
 62
     3
100
AcDbLine
 10
-25.254924
 20
126.0845
 30
0.0
 11
-27.853
 21
124.5845
 31
0.0
  0
LINE
  5
417
330
36
100
AcDbEntity
  8
0
 62
     3
100
AcDbLine
 10
-25.254924
 20
126.0845
 30
0.0
 11
-27.853
 21
127.5845
 31
0.0
  0
LINE
  5
418
330
36
100
AcDbEntity
  8
0
 62
     3
100
AcDbLine
 10
-27.853
 20
124.5845
 30
0.0
 11
-27.853
 21
127.5845
 31
0.0
  0
LINE
  5
419
330
36
100
AcDbEntity
  8
0
 62
     3
100
AcDbLine
 10
287.172886
 20
181.808422
 30
0.0
 11
307.797886
 21
181.808422
 31
0.0
  0
LINE
  5
41A
330
36
100
AcDbEntity
  8
0
 62
     3
100
AcDbLine
 10
287.172886
 20
186.276422
 30
0.0
 11
307.797886
 21
186.276422
 31
0.0
  0
LINE
  5
41B
330
36
100
AcDbEntity
  8
0
 62
     3
100
AcDbLine
 10
256.234886
 20
186.276422
 30
0.0
 11
276.8598859999999
 21
186.276422
 31
0.0
  0
LINE
  5
41C
330
36
100
AcDbEntity
  8
0
 62
     3
100
AcDbLine
 10
256.234886
 20
181.808422
 30
0.0
 11
276.8598859999999
 21
181.808422
 31
0.0
  0
TEXT
  5
41D
330
36
100
AcDbEntity
  8
0
 62
     3
100
AcDbText
 10
311.284281
 20
-3.272626999999998
 30
0.0
 40
3.2
  1
FREE
  7
高3.2
100
AcDbText
  0
LINE
  5
41E
330
36
100
AcDbEntity
  8
0
 62
     3
100
AcDbLine
 10
-12.853
 20
262.5845
 30
0.0
 11
-12.853
 21
-14.4155
 31
0.0
  0
LINE
  5
41F
330
36
100
AcDbEntity
  8
0
 62
     3
100
AcDbLine
 10
377.147
 20
-14.4155
 30
0.0
 11
377.147
 21
262.5845
 31
0.0
  0
LINE
  5
420
330
36
100
AcDbEntity
  8
0
 62
     3
100
AcDbLine
 10
-12.853
 20
262.5845
 30
0.0
 11
377.147
 21
262.5845
 31
0.0
  0
LINE
  5
421
330
36
100
AcDbEntity
  8
0
 62
     3
100
AcDbLine
 10
-12.853
 20
-14.4155
 30
0.0
 11
377.147
 21
-14.4155
 31
0.0
  0
TEXT
  5
422
330
36
100
AcDbEntity
  8
0
 62
     3
100
AcDbText
 10
288.1367387586297
 20
18.00965088861108
 30
0.0
 40
4.5
  1
急速充電器
  7
高4.5
100
AcDbText
  0
TEXT
  5
423
330
36
100
AcDbEntity
  8
0
 62
     3
100
AcDbText
 10
289.367808
 20
10.01468823992559
 30
0.0
 40
4.5
  1
NB-120
  7
高4.5
100
AcDbText
  0
TEXT
  5
424
330
36
100
AcDbEntity
  8
0
100
AcDbText
 10
101.30508
 20
184.420456
 30
0.0
 40
1.113599999999999
  1
BOOST
100
AcDbText
  0
TEXT
  5
425
330
36
100
AcDbEntity
  8
0
100
AcDbText
 10
100.713018
 20
185.75456
 30
0.0
 40
1.113599999999999
  1
エンジン始動
 41
0.833333
100
AcDbText
  0
TEXT
  5
426
330
36
100
AcDbEntity
  8
0
 62
     3
100
AcDbText
 10
32.481309
 20
178.771372
 30
0.0
 40
2.806272
  1
SUPERBOOSTER
100
AcDbText
  0
TEXT
  5
427
330
36
100
AcDbEntity
  8
0
 62
     3
100
AcDbText
 10
65.898715
 20
178.661241
 30
0.0
 40
4.209408999999999
  1
120
 41
1.199999999999999
100
AcDbText
  0
TEXT
  5
428
330
36
100
AcDbEntity
  8
0
 62
     3
100
AcDbText
 10
215.2203466613641
 20
75.722481
 30
0.0
 40
3.2
  1
型　　　　　式
  7
高3.2
100
AcDbText
  0
TEXT
  5
429
330
36
100
AcDbEntity
  8
0
 62
     3
100
AcDbText
 10
215.2203466613641
 20
70.17848100000001
 30
0.0
 40
3.2
  1
入　力　電　圧
  7
高3.2
100
AcDbText
  0
TEXT
  5
42A
330
36
100
AcDbEntity
  8
0
 62
     3
100
AcDbText
 10
215.2203466613641
 20
64.634481
 30
0.0
 40
3.2
  1
適応バッテリー
  7
高3.2
100
AcDbText
  0
TEXT
  5
42B
330
36
100
AcDbEntity
  8
0
 62
     3
100
AcDbText
 10
215.2203466613641
 20
53.590481
 30
0.0
 40
3.2
  1
最大充電電流
  7
高3.2
100
AcDbText
  0
TEXT
  5
42C
330
36
100
AcDbEntity
  8
0
 62
     3
100
AcDbText
 10
245.5432742128741
 20
70.17848100000001
 30
0.0
 40
3.2
  1
AC100V 50/60Hz
  7
高3.2
100
AcDbText
  0
TEXT
  5
42D
330
36
100
AcDbEntity
  8
0
 62
     3
100
AcDbText
 10
239.4931956613641
 20
83.07094657279538
 30
0.0
 40
4.5
  1
主　　仕　　様
  7
高4.5
100
AcDbText
  0
TEXT
  5
42E
330
36
100
AcDbEntity
  8
0
 62
     3
100
AcDbText
 10
245.5432742128741
 20
64.634481
 30
0.0
 40
3.2
  1
12V/24V
  7
高3.2
100
AcDbText
  0
TEXT
  5
42F
330
36
100
AcDbEntity
  8
0
 62
     3
100
AcDbText
 10
215.2203466613641
 20
36.958481
 30
0.0
 40
3.2
  1
質　　　　　量
  7
高3.2
100
AcDbText
  0
TEXT
  5
430
330
36
100
AcDbEntity
  8
0
 62
     3
100
AcDbText
 10
215.2203466613641
 20
59.11248099999999
 30
0.0
 40
3.2
  1
連続充電電流
  7
高3.2
100
AcDbText
  0
TEXT
  5
431
330
36
100
AcDbEntity
  8
0
 62
     3
100
AcDbText
 10
245.5432742128741
 20
59.11248099999999
 30
0.0
 40
3.2
  1
12V/20A  24V/10A
  7
高3.2
100
AcDbText
  0
TEXT
  5
432
330
36
100
AcDbEntity
  8
0
 62
     3
100
AcDbText
 10
245.5432742128741
 20
75.722481
 30
0.0
 40
3.2
  1
NB-120
  7
高3.2
100
AcDbText
  0
TEXT
  5
433
330
36
100
AcDbEntity
  8
0
 62
     3
100
AcDbText
 10
245.5432742128741
 20
53.590481
 30
0.0
 40
3.2
  1
12V/30A  24V/15A
  7
高3.2
100
AcDbText
  0
TEXT
  5
434
330
36
100
AcDbEntity
  8
0
 62
     3
100
AcDbText
 10
245.5432742128741
 20
36.958481
 30
0.0
 40
3.2
  1
11.5kg
  7
高3.2
100
AcDbText
  0
TEXT
  5
435
330
36
100
AcDbEntity
  8
0
 62
     3
100
AcDbText
 10
84.34934365508878
 20
-13.9155
 30
0.0
 40
3.2
  1
個数
 41
0.8
  7
高3.2
100
AcDbText
  0
TEXT
  5
436
330
36
100
AcDbEntity
  8
0
 62
     3
100
AcDbText
 10
-4.050962340093531
 20
-13.9155
 30
0.0
 40
3.2
  1
部　　品　　名
 41
0.8
  7
高3.2
100
AcDbText
  0
TEXT
  5
437
330
36
100
AcDbEntity
  8
0
 62
     3
100
AcDbText
 10
52.06910332375946
 20
-13.9155
 30
0.0
 40
3.2
  1
備　　　考
 41
0.8
  7
高3.2
100
AcDbText
  0
TEXT
  5
438
330
36
100
AcDbEntity
  8
0
 62
     3
100
AcDbText
 10
-11.353
 20
-13.9155
 30
0.0
 40
3.2
  1
No
 41
0.8
  7
高3.2
100
AcDbText
  0
TEXT
  5
439
330
36
100
AcDbEntity
  8
0
 62
     3
100
AcDbText
 10
35.7586085554806
 20
-13.9155
 30
0.0
 40
3.2
  1
材　　質
 41
0.8
  7
高3.2
100
AcDbText
  0
LINE
  5
43A
330
36
100
AcDbEntity
  8
0
100
AcDbLine
 10
91.47180757407161
 20
-14.4155
 30
0.0
 11
91.47180757407161
 21
65.58449999999999
 31
0.0
  0
TEXT
  5
43B
330
36
100
AcDbEntity
  8
0
 62
     3
100
AcDbText
 10
84.34934365508878
 20
-8.915499999999997
 30
0.0
 40
3.2
  1
1
 41
0.8
  7
高3.2
100
AcDbText
  0
TEXT
  5
43C
330
36
100
AcDbEntity
  8
0
 62
     3
100
AcDbText
 10
84.34934365508878
 20
26.08449999999999
 30
0.0
 40
3.2
  1
1
 41
0.8
  7
高3.2
100
AcDbText
  0
TEXT
  5
43D
330
36
100
AcDbEntity
  8
0
 62
     3
100
AcDbText
 10
84.34934365508878
 20
11.0845
 30
0.0
 40
3.2
  1
1
 41
0.8
  7
高3.2
100
AcDbText
  0
TEXT
  5
43E
330
36
100
AcDbEntity
  8
0
 62
     3
100
AcDbText
 10
84.34934365508878
 20
21.0845
 30
0.0
 40
3.2
  1
1
 41
0.8
  7
高3.2
100
AcDbText
  0
TEXT
  5
43F
330
36
100
AcDbEntity
  8
0
 62
     3
100
AcDbText
 10
84.34934365508878
 20
31.08450000000001
 30
0.0
 40
3.2
  1
1
 41
0.8
  7
高3.2
100
AcDbText
  0
TEXT
  5
440
330
36
100
AcDbEntity
  8
0
 62
     3
100
AcDbText
 10
35.75860855548061
 20
51.0845
 30
0.0
 40
3.2
  1
VCTFK
 41
0.8
  7
高3.2
100
AcDbText
  0
TEXT
  5
441
330
36
100
AcDbEntity
  8
0
 62
     3
100
AcDbText
 10
52.06910332375946
 20
-3.915499999999998
 30
0.0
 40
3.2
  1
焼付塗装
 41
0.8
  7
高3.2
100
AcDbText
  0
TEXT
  5
442
330
36
100
AcDbEntity
  8
0
 62
     3
100
AcDbText
 10
52.06910332375946
 20
-8.915499999999997
 30
0.0
 40
3.2
  1
焼付塗装
 41
0.8
  7
高3.2
100
AcDbText
  0
TEXT
  5
443
330
36
100
AcDbEntity
  8
0
 62
     3
100
AcDbText
 10
84.34934365508878
 20
16.0845
 30
0.0
 40
3.2
  1
1
 41
0.8
  7
高3.2
100
AcDbText
  0
TEXT
  5
444
330
36
100
AcDbEntity
  8
0
 62
     3
100
AcDbText
 10
84.34934365508878
 20
-3.915499999999997
 30
0.0
 40
3.2
  1
1
 41
0.8
  7
高3.2
100
AcDbText
  0
TEXT
  5
445
330
36
100
AcDbEntity
  8
0
 62
     3
100
AcDbText
 10
84.34934365508878
 20
6.0845
 30
0.0
 40
3.2
  1
1
 41
0.8
  7
高3.2
100
AcDbText
  0
TEXT
  5
447
330
36
100
AcDbEntity
  8
0
 62
     3
100
AcDbText
 10
84.34934365508878
 20
36.08450000000001
 30
0.0
 40
3.2
  1
1
 41
0.8
  7
高3.2
100
AcDbText
  0
TEXT
  5
448
330
36
100
AcDbEntity
  8
0
 62
     3
100
AcDbText
 10
84.34934365508878
 20
41.08449999999999
 30
0.0
 40
3.2
  1
1
 41
0.8
  7
高3.2
100
AcDbText
  0
TEXT
  5
449
330
36
100
AcDbEntity
  8
0
 62
     3
100
AcDbText
 10
84.34934365508878
 20
51.0845
 30
0.0
 40
3.2
  1
1
 41
0.8
  7
高3.2
100
AcDbText
  0
TEXT
  5
44A
330
36
100
AcDbEntity
  8
0
 62
     3
100
AcDbText
 10
84.34934365508878
 20
1.0845
 30
0.0
 40
3.2
  1
1
 41
0.8
  7
高3.2
100
AcDbText
  0
TEXT
  5
44B
330
36
100
AcDbEntity
  8
0
 62
     3
100
AcDbText
 10
84.34934365508878
 20
46.08449999999998
 30
0.0
 40
3.2
  1
4
 41
0.8
  7
高3.2
100
AcDbText
  0
TEXT
  5
44C
330
36
100
AcDbEntity
  8
0
 62
     3
100
AcDbText
 10
52.06910332375946
 20
21.0845
 30
0.0
 40
3.2
  1
DS-299R
 41
0.8
  7
高3.2
100
AcDbText
  0
LINE
  5
44D
330
36
100
AcDbEntity
  8
0
100
AcDbLine
 10
82.84934365508878
 20
-14.4155
 30
0.0
 11
82.84934365508878
 21
65.58449999999999
 31
0.0
  0
LINE
  5
44E
330
36
100
AcDbEntity
  8
0
100
AcDbLine
 10
50.56910332375946
 20
-14.4155
 30
0.0
 11
50.56910332375946
 21
65.58449999999999
 31
0.0
  0
TEXT
  5
450
330
36
100
AcDbEntity
  8
0
 62
     3
100
AcDbText
 10
52.06910332375946
 20
11.0845
 30
0.0
 40
3.2
  1
HS-16-IN
 41
0.8
  7
高3.2
100
AcDbText
  0
TEXT
  5
451
330
36
100
AcDbEntity
  8
0
 62
     3
100
AcDbText
 10
52.06910332375946
 20
56.0845
 30
0.0
 40
3.2
  1
8.0sqx2m 赤、黒
 41
0.8
  7
高3.2
100
AcDbText
  0
TEXT
  5
452
330
36
100
AcDbEntity
  8
0
 62
     3
100
AcDbText
 10
52.06910332375946
 20
51.0845
 30
0.0
 40
3.2
  1
1.25sqx2m
 41
0.8
  7
高3.2
100
AcDbText
  0
TEXT
  5
453
330
36
100
AcDbEntity
  8
0
 62
     3
100
AcDbText
 10
52.06910332375946
 20
26.0845
 30
0.0
 40
3.2
  1
100V（緑）
 41
0.8
  7
高3.2
100
AcDbText
  0
TEXT
  5
454
330
36
100
AcDbEntity
  8
0
 62
     3
100
AcDbText
 10
52.06910332375946
 20
31.0845
 30
0.0
 40
3.2
  1
100V（赤）
 41
0.8
  7
高3.2
100
AcDbText
  0
TEXT
  5
455
330
36
100
AcDbEntity
  8
0
 62
     3
100
AcDbText
 10
52.06910332375946
 20
36.0845
 30
0.0
 40
3.2
  1
15A
 41
0.8
  7
高3.2
100
AcDbText
  0
TEXT
  5
456
330
36
100
AcDbEntity
  8
0
 62
     3
100
AcDbText
 10
52.06910332375946
 20
16.0845
 30
0.0
 40
3.2
  1
S-6A
 41
0.8
  7
高3.2
100
AcDbText
  0
TEXT
  5
457
330
36
100
AcDbEntity
  8
0
 62
     3
100
AcDbText
 10
52.06910332375946
 20
6.0845
 30
0.0
 40
3.2
  1
EX-35
 41
0.8
  7
高3.2
100
AcDbText
  0
TEXT
  5
458
330
36
100
AcDbEntity
  8
0
 62
     3
100
AcDbText
 10
35.75860855548061
 20
-3.915499999999998
 30
0.0
 40
3.2
  1
SPCC
 41
0.8
  7
高3.2
100
AcDbText
  0
TEXT
  5
459
330
36
100
AcDbEntity
  8
0
 62
     3
100
AcDbText
 10
35.75860855548061
 20
-8.915499999999997
 30
0.0
 40
3.2
  1
SPCC
 41
0.8
  7
高3.2
100
AcDbText
  0
TEXT
  5
45A
330
36
100
AcDbEntity
  8
0
 62
     3
100
AcDbText
 10
-4.050962340093533
 20
-8.915499999999997
 30
0.0
 40
3.2
  1
本体カバー
 41
0.8
  7
高3.2
100
AcDbText
  0
TEXT
  5
45B
330
36
100
AcDbEntity
  8
0
 62
     3
100
AcDbText
 10
-4.050962340093533
 20
1.0845
 30
0.0
 40
3.2
  1
ハンドル取手
 41
0.8
  7
高3.2
100
AcDbText
  0
TEXT
  5
45C
330
36
100
AcDbEntity
  8
0
 62
     3
100
AcDbText
 10
-4.050962340093533
 20
46.0845
 30
0.0
 40
3.2
  1
ゴム足
 41
0.8
  7
高3.2
100
AcDbText
  0
TEXT
  5
45D
330
36
100
AcDbEntity
  8
0
 62
     3
100
AcDbText
 10
-4.050962340093533
 20
56.0845
 30
0.0
 40
3.2
  1
クリップ付き出力コード
 41
0.8
  7
高3.2
100
AcDbText
  0
TEXT
  5
45E
330
36
100
AcDbEntity
  8
0
 62
     3
100
AcDbText
 10
-4.050962340093533
 20
-3.915499999999998
 30
0.0
 40
3.2
  1
前面パネル
 41
0.8
  7
高3.2
100
AcDbText
  0
TEXT
  5
45F
330
36
100
AcDbEntity
  8
0
 62
     3
100
AcDbText
 10
-4.050962340093533
 20
6.0845
 30
0.0
 40
3.2
  1
電圧電流計
 41
0.8
  7
高3.2
100
AcDbText
  0
TEXT
  5
460
330
36
100
AcDbEntity
  8
0
 62
     3
100
AcDbText
 10
-4.050962340093533
 20
16.0845
 30
0.0
 40
3.2
  1
電圧切替スイッチ
 41
0.8
  7
高3.2
100
AcDbText
  0
TEXT
  5
461
330
36
100
AcDbEntity
  8
0
 62
     3
100
AcDbText
 10
-4.050962340093533
 20
21.0845
 30
0.0
 40
3.2
  1
バッテリーチェックボタン
 41
0.8
  7
高3.2
100
AcDbText
  0
TEXT
  5
462
330
36
100
AcDbEntity
  8
0
 62
     3
100
AcDbText
 10
-11.353
 20
-8.915499999999997
 30
0.0
 40
3.2
  1
1
 41
0.8
  7
高3.2
100
AcDbText
  0
TEXT
  5
463
330
36
100
AcDbEntity
  8
0
 62
     3
100
AcDbText
 10
-11.353
 20
1.0845
 30
0.0
 40
3.2
  1
2
 41
0.8
  7
高3.2
100
AcDbText
  0
TEXT
  5
464
330
36
100
AcDbEntity
  8
0
 62
     3
100
AcDbText
 10
-11.353
 20
6.0845
 30
0.0
 40
3.2
  1
3
 41
0.8
  7
高3.2
100
AcDbText
  0
TEXT
  5
465
330
36
100
AcDbEntity
  8
0
 62
     3
100
AcDbText
 10
-11.353
 20
11.0845
 30
0.0
 40
3.2
  1
4
 41
0.8
  7
高3.2
100
AcDbText
  0
TEXT
  5
466
330
36
100
AcDbEntity
  8
0
 62
     3
100
AcDbText
 10
-11.353
 20
16.0845
 30
0.0
 40
3.2
  1
5
 41
0.8
  7
高3.2
100
AcDbText
  0
TEXT
  5
467
330
36
100
AcDbEntity
  8
0
 62
     3
100
AcDbText
 10
-11.353
 20
21.0845
 30
0.0
 40
3.2
  1
6
 41
0.8
  7
高3.2
100
AcDbText
  0
TEXT
  5
468
330
36
100
AcDbEntity
  8
0
 62
     3
100
AcDbText
 10
-11.353
 20
26.0845
 30
0.0
 40
3.2
  1
7
 41
0.8
  7
高3.2
100
AcDbText
  0
TEXT
  5
469
330
36
100
AcDbEntity
  8
0
 62
     3
100
AcDbText
 10
-11.353
 20
31.0845
 30
0.0
 40
3.2
  1
8
 41
0.8
  7
高3.2
100
AcDbText
  0
TEXT
  5
46A
330
36
100
AcDbEntity
  8
0
 62
     3
100
AcDbText
 10
-11.353
 20
36.0845
 30
0.0
 40
3.2
  1
9
 41
0.8
  7
高3.2
100
AcDbText
  0
TEXT
  5
46B
330
36
100
AcDbEntity
  8
0
 62
     3
100
AcDbText
 10
-11.353
 20
41.0845
 30
0.0
 40
3.2
  1
10
 41
0.8
  7
高3.2
100
AcDbText
  0
TEXT
  5
46C
330
36
100
AcDbEntity
  8
0
 62
     3
100
AcDbText
 10
-11.353
 20
46.0845
 30
0.0
 40
3.2
  1
11
 41
0.8
  7
高3.2
100
AcDbText
  0
TEXT
  5
46D
330
36
100
AcDbEntity
  8
0
 62
     3
100
AcDbText
 10
-11.353
 20
51.0845
 30
0.0
 40
3.2
  1
12
 41
0.8
  7
高3.2
100
AcDbText
  0
TEXT
  5
46E
330
36
100
AcDbEntity
  8
0
 62
     3
100
AcDbText
 10
-11.353
 20
56.0845
 30
0.0
 40
3.2
  1
13
 41
0.8
  7
高3.2
100
AcDbText
  0
TEXT
  5
46F
330
36
100
AcDbEntity
  8
0
 62
     3
100
AcDbText
 10
-11.353
 20
61.0845
 30
0.0
 40
3.2
  1
14
 41
0.8
  7
高3.2
100
AcDbText
  0
TEXT
  5
470
330
36
100
AcDbEntity
  8
0
 62
     3
100
AcDbText
 10
-4.050962340093533
 20
26.0845
 30
0.0
 40
3.2
  1
電源ランプ
 41
0.8
  7
高3.2
100
AcDbText
  0
TEXT
  5
471
330
36
100
AcDbEntity
  8
0
 62
     3
100
AcDbText
 10
35.75860855548061
 20
1.0845
 30
0.0
 40
3.2
  1
PF樹脂
 41
0.8
  7
高3.2
100
AcDbText
  0
TEXT
  5
472
330
36
100
AcDbEntity
  8
0
 62
     3
100
AcDbText
 10
35.75860855548061
 20
46.0845
 30
0.0
 40
3.2
  1
PE樹脂
 41
0.8
  7
高3.2
100
AcDbText
  0
LINE
  5
473
330
36
100
AcDbEntity
  8
0
100
AcDbLine
 10
34.2586085554806
 20
-14.4155
 30
0.0
 11
34.2586085554806
 21
65.58449999999999
 31
0.0
  0
LINE
  5
474
330
36
100
AcDbEntity
  8
0
100
AcDbLine
 10
-5.550962340093533
 20
-14.4155
 30
0.0
 11
-5.550962340093533
 21
65.58449999999999
 31
0.0
  0
TEXT
  5
475
330
36
100
AcDbEntity
  8
0
 62
     3
100
AcDbText
 10
-4.050962340093533
 20
41.0845
 30
0.0
 40
3.2
  1
プロテクタ　－
 41
0.8
  7
高3.2
100
AcDbText
  0
TEXT
  5
476
330
36
100
AcDbEntity
  8
0
 62
     3
100
AcDbText
 10
-4.050962340093533
 20
36.0845
 30
0.0
 40
3.2
  1
サ－キットブレ－カ－
 41
0.8
  7
高3.2
100
AcDbText
  0
TEXT
  5
477
330
36
100
AcDbEntity
  8
0
 62
     3
100
AcDbText
 10
-4.050962340093533
 20
31.0845
 30
0.0
 40
3.2
  1
異常ランプ
 41
0.8
  7
高3.2
100
AcDbText
  0
TEXT
  5
478
330
36
100
AcDbEntity
  8
0
 62
     3
100
AcDbText
 10
-4.050962340093533
 20
51.0845
 30
0.0
 40
3.2
  1
プラグ付き入力電線
 41
0.8
  7
高3.2
100
AcDbText
  0
TEXT
  5
479
330
36
100
AcDbEntity
  8
0
 62
     3
100
AcDbText
 10
35.75860855548061
 20
56.0845
 30
0.0
 40
3.2
  1
KIV
 41
0.8
  7
高3.2
100
AcDbText
  0
TEXT
  5
47A
330
36
100
AcDbEntity
  8
0
 62
     3
100
AcDbText
 10
35.75860855548061
 20
41.0845
 30
0.0
 40
3.2
  1
PA樹脂
 41
0.8
  7
高3.2
100
AcDbText
  0
LINE
  5
47B
330
36
100
AcDbEntity
  8
0
 62
     3
100
AcDbLine
 10
377.046964
 20
31.250223
 30
0.0
 11
325.4476
 21
31.250223
 31
0.0
  0
TEXT
  5
47C
330
36
100
AcDbEntity
  8
0
 62
     3
100
AcDbText
 10
330.8519805525002
 20
25.806308
 30
0.0
 40
4.5
  1
コード
  7
高4.5
100
AcDbText
  0
LINE
  5
47D
330
36
100
AcDbEntity
  8
0
 62
     3
100
AcDbLine
 10
351.4476
 20
25.250223
 30
0.0
 11
351.4476
 21
31.250223
 31
0.0
  0
LINE
  5
47E
330
36
100
AcDbEntity
  8
0
 62
     3
100
AcDbLine
 10
325.4476
 20
25.250223
 30
0.0
 11
325.4476
 21
31.250223
 31
0.0
  0
TEXT
  5
47F
330
36
100
AcDbEntity
  8
0
 62
     3
100
AcDbText
 10
355.7464566849771
 20
25.748579
 30
0.0
 40
4.5
  1
6535
  7
高4.5
100
AcDbText
  0
TEXT
  5
480
330
36
100
AcDbEntity
  8
0
 62
     3
100
AcDbText
 10
92.9718075740716
 20
-13.9155
 30
0.0
 40
3.2
  1
コード
 41
0.8
  7
高3.2
100
AcDbText
  0
LINE
  5
481
330
36
100
AcDbEntity
  8
0
 62
     3
100
AcDbLine
 10
170.1499936602403
 20
-14.4155
 30
0.0
 11
170.1499936602403
 21
65.58449999999999
 31
0.0
  0
TEXT
  5
491
330
36
100
AcDbEntity
  8
0
 62
     3
100
AcDbText
 10
84.34934365508878
 20
56.0845
 30
0.0
 40
3.2
  1
1
 41
0.8
  7
高3.2
100
AcDbText
  0
TEXT
  5
492
330
36
100
AcDbEntity
  8
0
 62
     3
100
AcDbText
 10
-4.050962340093533
 20
11.0845
 30
0.0
 40
3.2
  1
充電スイッチ部ツマミ
 41
0.8
  7
高3.2
100
AcDbText
  0
TEXT
  5
493
330
36
100
AcDbEntity
  8
0
 62
     3
100
AcDbText
 10
92.9718075740716
 20
56.0845
 30
0.0
 40
3.2
  1
54255
 41
0.8
  7
高3.2
100
AcDbText
  0
TEXT
  5
494
330
36
100
AcDbEntity
  8
0
 62
     3
100
AcDbText
 10
92.9718075740716
 20
51.0845
 30
0.0
 40
3.2
  1
54261
 41
0.8
  7
高3.2
100
AcDbText
  0
TEXT
  5
495
330
36
100
AcDbEntity
  8
0
 62
     3
100
AcDbText
 10
92.9718075740716
 20
46.0845
 30
0.0
 40
3.2
  1
54262
 41
0.8
  7
高3.2
100
AcDbText
  0
TEXT
  5
496
330
36
100
AcDbEntity
  8
0
 62
     3
100
AcDbText
 10
92.9718075740716
 20
41.0845
 30
0.0
 40
3.2
  1
50105
 41
0.8
  7
高3.2
100
AcDbText
  0
TEXT
  5
497
330
36
100
AcDbEntity
  8
0
 62
     3
100
AcDbText
 10
92.9718075740716
 20
36.0845
 30
0.0
 40
3.2
  1
54263
 41
0.8
  7
高3.2
100
AcDbText
  0
TEXT
  5
498
330
36
100
AcDbEntity
  8
0
 62
     3
100
AcDbText
 10
92.9718075740716
 20
31.0845
 30
0.0
 40
3.2
  1
54257
 41
0.8
  7
高3.2
100
AcDbText
  0
TEXT
  5
499
330
36
100
AcDbEntity
  8
0
 62
     3
100
AcDbText
 10
92.9718075740716
 20
26.0845
 30
0.0
 40
3.2
  1
54258
 41
0.8
  7
高3.2
100
AcDbText
  0
TEXT
  5
49A
330
36
100
AcDbEntity
  8
0
 62
     3
100
AcDbText
 10
92.9718075740716
 20
21.0845
 30
0.0
 40
3.2
  1
54259
 41
0.8
  7
高3.2
100
AcDbText
  0
TEXT
  5
49B
330
36
100
AcDbEntity
  8
0
 62
     3
100
AcDbText
 10
92.9718075740716
 20
16.0845
 30
0.0
 40
3.2
  1
54260
 41
0.8
  7
高3.2
100
AcDbText
  0
TEXT
  5
49C
330
36
100
AcDbEntity
  8
0
 62
     3
100
AcDbText
 10
92.9718075740716
 20
11.0845
 30
0.0
 40
3.2
  1
54289
 41
0.8
  7
高3.2
100
AcDbText
  0
TEXT
  5
49D
330
36
100
AcDbEntity
  8
0
 62
     3
100
AcDbText
 10
92.9718075740716
 20
6.0845
 30
0.0
 40
3.2
  1
53821
 41
0.8
  7
高3.2
100
AcDbText
  0
TEXT
  5
49E
330
36
100
AcDbEntity
  8
0
 62
     3
100
AcDbText
 10
92.9718075740716
 20
1.0845
 30
0.0
 40
3.2
  1
50101
 41
0.8
  7
高3.2
100
AcDbText
  0
TEXT
  5
49F
330
36
100
AcDbEntity
  8
0
 62
     3
100
AcDbText
 10
92.9718075740716
 20
-8.915499999999997
 30
0.0
 40
3.2
  1
54264
 41
0.8
  7
高3.2
100
AcDbText
  0
CIRCLE
  5
672
330
36
100
AcDbEntity
  8
0
100
AcDbCircle
 10
217.5071082414543
 20
232.9420315583698
 30
0.0
 40
5.0
  0
TEXT
  5
673
330
36
100
AcDbEntity
  8
0
 62
     4
100
AcDbText
 10
214.5071082414542
 20
230.7013701772804
 30
0.0
 40
4.5
  1
14
  7
高4.5
100
AcDbText
  0
TEXT
  5
684
330
36
100
AcDbEntity
  8
0
 62
     3
100
AcDbText
 10
-4.050962340093533
 20
61.0845
 30
0.0
 40
3.2
  1
トラパック用コードフック
 41
0.8
  7
高3.2
100
AcDbText
  0
TEXT
  5
687
330
36
100
AcDbEntity
  8
0
 62
     3
100
AcDbText
 10
84.34934365508878
 20
61.0845
 30
0.0
 40
3.2
  1
2
 41
0.8
  7
高3.2
100
AcDbText
  0
TEXT
  5
688
330
36
100
AcDbEntity
  8
0
 62
     3
100
AcDbText
 10
92.9718075740716
 20
61.0845
 30
0.0
 40
3.2
  1
50519
 41
0.8
  7
高3.2
100
AcDbText
  0
LINE
  5
689
330
36
100
AcDbEntity
  8
0
100
AcDbLine
 10
-12.853
 20
-9.415499999999999
 30
0.0
 11
170.1499936602403
 21
-9.415499999999999
 31
0.0
  0
LINE
  5
68C
330
36
100
AcDbEntity
  8
0
100
AcDbLine
 10
-5.550962340093533
 20
-4.415499999999997
 30
0.0
 11
91.47180757407161
 21
-4.415499999999997
 31
0.0
  0
LINE
  5
68D
330
36
100
AcDbEntity
  8
0
100
AcDbLine
 10
-12.853
 20
0.5845000000000004
 30
0.0
 11
170.1499936602403
 21
0.5845000000000004
 31
0.0
  0
LINE
  5
68E
330
36
100
AcDbEntity
  8
0
100
AcDbLine
 10
-12.853
 20
5.5845
 30
0.0
 11
170.1499936602403
 21
5.5845
 31
0.0
  0
LINE
  5
68F
330
36
100
AcDbEntity
  8
0
100
AcDbLine
 10
-12.853
 20
10.5845
 30
0.0
 11
170.1499936602403
 21
10.5845
 31
0.0
  0
LINE
  5
690
330
36
100
AcDbEntity
  8
0
100
AcDbLine
 10
-12.853
 20
15.5845
 30
0.0
 11
170.1499936602403
 21
15.5845
 31
0.0
  0
LINE
  5
691
330
36
100
AcDbEntity
  8
0
100
AcDbLine
 10
-12.853
 20
20.5845
 30
0.0
 11
170.1499936602403
 21
20.5845
 31
0.0
  0
LINE
  5
692
330
36
100
AcDbEntity
  8
0
100
AcDbLine
 10
-12.853
 20
25.5845
 30
0.0
 11
170.1499936602403
 21
25.58450000000001
 31
0.0
  0
LINE
  5
693
330
36
100
AcDbEntity
  8
0
100
AcDbLine
 10
-12.853
 20
30.5845
 30
0.0
 11
170.1499936602403
 21
30.58450000000001
 31
0.0
  0
LINE
  5
694
330
36
100
AcDbEntity
  8
0
100
AcDbLine
 10
-12.853
 20
35.5845
 30
0.0
 11
170.1499936602403
 21
35.58450000000001
 31
0.0
  0
LINE
  5
695
330
36
100
AcDbEntity
  8
0
100
AcDbLine
 10
-12.853
 20
40.58449999999999
 30
0.0
 11
170.1499936602403
 21
40.58449999999999
 31
0.0
  0
LINE
  5
696
330
36
100
AcDbEntity
  8
0
100
AcDbLine
 10
-12.853
 20
45.58449999999999
 30
0.0
 11
170.1499936602403
 21
45.58449999999999
 31
0.0
  0
LINE
  5
697
330
36
100
AcDbEntity
  8
0
100
AcDbLine
 10
-12.853
 20
50.5845
 30
0.0
 11
170.1499936602403
 21
50.5845
 31
0.0
  0
LINE
  5
698
330
36
100
AcDbEntity
  8
0
100
AcDbLine
 10
-12.853
 20
55.5845
 30
0.0
 11
170.1499936602403
 21
55.5845
 31
0.0
  0
LINE
  5
699
330
36
100
AcDbEntity
  8
0
100
AcDbLine
 10
-12.853
 20
60.5845
 30
0.0
 11
170.1499936602403
 21
60.5845
 31
0.0
  0
LINE
  5
6A1
330
36
100
AcDbEntity
  8
0
 62
     3
100
AcDbLine
 10
-12.853
 20
65.58449999999999
 30
0.0
 11
170.1499936602403
 21
65.58449999999999
 31
0.0
  0
TEXT
  5
819
330
36
100
AcDbEntity
  8
0
 62
     3
100
AcDbText
 10
364.647
 20
253.0845
 30
0.0
 40
3.2
  1
担　当
  7
高3.2
100
AcDbText
  0
TEXT
  5
81A
330
36
100
AcDbEntity
  8
0
 62
     3
100
AcDbText
 10
320.647
 20
253.0845
 30
0.0
 40
3.2
  1
変更・追記内容
  7
高3.2
100
AcDbText
  0
TEXT
  5
81B
330
36
100
AcDbEntity
  8
0
 62
     3
100
AcDbText
 10
295.7605150003392
 20
248.4139614900917
 30
0.0
 40
2.0
  1
1
  7
高2
100
AcDbText
  0
TEXT
  5
81C
330
36
100
AcDbEntity
  8
0
 62
     3
100
AcDbText
 10
295.452003523582
 20
243.2441447778188
 30
0.0
 40
2.0
  1
2
  7
高2
100
AcDbText
  0
TEXT
  5
81D
330
36
100
AcDbEntity
  8
0
 62
     3
100
AcDbText
 10
302.647
 20
253.0845
 30
0.0
 40
3.2
  1
日　付
  7
高3.2
100
AcDbText
  0
TEXT
  5
81E
330
36
100
AcDbEntity
  8
0
 62
     3
100
AcDbText
 10
302.647
 20
258.0845
 30
0.0
 40
3.2
  1
図　　　　面　　　　略　　　　歴
  7
高3.2
100
AcDbText
  0
TEXT
  5
81F
330
36
100
AcDbEntity
  8
0
 62
     3
100
AcDbText
 10
292.647
 20
253.0845
 30
0.0
 40
3.2
  1
記号
  7
高3.2
100
AcDbText
  0
LINE
  5
820
330
36
100
AcDbEntity
  8
0
100
AcDbLine
 10
296.147
 20
246.3753960000001
 30
0.0
 11
294.247
 21
243.0845
 31
0.0
  0
LINE
  5
821
330
36
100
AcDbEntity
  8
0
100
AcDbLine
 10
296.147
 20
246.3753960000001
 30
0.0
 11
298.047
 21
243.0845
 31
0.0
  0
LINE
  5
822
330
36
100
AcDbEntity
  8
0
100
AcDbLine
 10
294.247
 20
243.0845
 30
0.0
 11
298.047
 21
243.0845
 31
0.0
  0
LINE
  5
823
330
36
100
AcDbEntity
  8
0
100
AcDbLine
 10
296.147
 20
251.3753970000001
 30
0.0
 11
294.247
 21
248.0845
 31
0.0
  0
LINE
  5
824
330
36
100
AcDbEntity
  8
0
100
AcDbLine
 10
296.147
 20
251.3753970000001
 30
0.0
 11
298.047
 21
248.0845
 31
0.0
  0
LINE
  5
825
330
36
100
AcDbEntity
  8
0
100
AcDbLine
 10
294.247
 20
248.0845
 30
0.0
 11
298.047
 21
248.0845
 31
0.0
  0
LINE
  5
826
330
36
100
AcDbEntity
  8
0
 62
     3
100
AcDbLine
 10
291.147
 20
257.5845
 30
0.0
 11
377.147
 21
257.5845
 31
0.0
  0
LINE
  5
827
330
36
100
AcDbEntity
  8
0
 62
     3
100
AcDbLine
 10
291.147
 20
252.5845
 30
0.0
 11
377.147
 21
252.5845
 31
0.0
  0
LINE
  5
828
330
36
100
AcDbEntity
  8
0
 62
     7
100
AcDbLine
 10
291.147
 20
247.5845
 30
0.0
 11
377.147
 21
247.5845
 31
0.0
  0
LINE
  5
829
330
36
100
AcDbEntity
  8
0
 62
     3
100
AcDbLine
 10
291.147
 20
242.5845
 30
0.0
 11
377.147
 21
242.5845
 31
0.0
  0
LINE
  5
82A
330
36
100
AcDbEntity
  8
0
 62
     7
100
AcDbLine
 10
363.1469999999998
 20
242.5845
 30
0.0
 11
363.147
 21
257.5845
 31
0.0
  0
LINE
  5
82B
330
36
100
AcDbEntity
  8
0
 62
     7
100
AcDbLine
 10
319.147
 20
242.5845
 30
0.0
 11
319.147
 21
257.5845
 31
0.0
  0
LINE
  5
82C
330
36
100
AcDbEntity
  8
0
 62
     7
100
AcDbLine
 10
301.147
 20
242.5845
 30
0.0
 11
301.147
 21
257.5845
 31
0.0
  0
LINE
  5
82D
330
36
100
AcDbEntity
  8
0
 62
     3
100
AcDbLine
 10
291.147
 20
242.5845
 30
0.0
 11
291.147
 21
262.5845
 31
0.0
  0
LINE
  5
9AD
330
36
100
AcDbEntity
  8
0
100
AcDbLine
 10
107.7408878172564
 20
-14.4155
 30
0.0
 11
107.7408878172564
 21
65.58449999999999
 31
0.0
  0
TEXT
  5
9AE
330
36
100
AcDbEntity
  8
0
 62
     3
100
AcDbText
 10
109.2408878172564
 20
-13.9155
 30
0.0
 40
3.2
  1
コード番号名称
 41
0.6
  7
高3.2
100
AcDbText
  0
TEXT
  5
9AF
330
36
100
AcDbEntity
  8
0
 62
     3
100
AcDbText
 10
109.2408878172564
 20
56.0845
 30
0.0
 40
3.2
  1
NB-120/150用 出力コード クリップ付(赤黒セット)
 41
0.6
  7
高3.2
100
AcDbText
  0
TEXT
  5
9B0
330
36
100
AcDbEntity
  8
0
 62
     3
100
AcDbText
 10
109.2408878172564
 20
51.0845
 30
0.0
 40
3.2
  1
NB-120/150用 入力電線 プラグ付
 41
0.6
  7
高3.2
100
AcDbText
  0
TEXT
  5
9B1
330
36
100
AcDbEntity
  8
0
 62
     3
100
AcDbText
 10
109.2408878172564
 20
46.0845
 30
0.0
 40
3.2
  1
NB-120/150用 脚ゴム
 41
0.6
  7
高3.2
100
AcDbText
  0
TEXT
  5
9B2
330
36
100
AcDbEntity
  8
0
 62
     3
100
AcDbText
 10
109.2408878172564
 20
41.0845
 30
0.0
 40
3.2
  1
トラパックプロテクター
 41
0.6
  7
高3.2
100
AcDbText
  0
TEXT
  5
9B3
330
36
100
AcDbEntity
  8
0
 62
     3
100
AcDbText
 10
109.2408878172564
 20
36.0845
 30
0.0
 40
3.2
  1
NB-120/150用 サーキットブレーカー 15A
 41
0.6
  7
高3.2
100
AcDbText
  0
TEXT
  5
9B4
330
36
100
AcDbEntity
  8
0
 62
     3
100
AcDbText
 10
109.2408878172564
 20
31.0845
 30
0.0
 40
3.2
  1
NB-120/150用 異常ランプ
 41
0.6
  7
高3.2
100
AcDbText
  0
TEXT
  5
9B5
330
36
100
AcDbEntity
  8
0
 62
     3
100
AcDbText
 10
109.2408878172564
 20
26.0845
 30
0.0
 40
3.2
  1
NB-120/150用 電源ランプ
 41
0.6
  7
高3.2
100
AcDbText
  0
TEXT
  5
9B6
330
36
100
AcDbEntity
  8
0
 62
     3
100
AcDbText
 10
109.2408878172564
 20
21.0845
 30
0.0
 40
3.2
  1
NB-120/150用 バッテリーチェックボタン
 41
0.6
  7
高3.2
100
AcDbText
  0
TEXT
  5
9B7
330
36
100
AcDbEntity
  8
0
 62
     3
100
AcDbText
 10
109.2408878172564
 20
16.0845
 30
0.0
 40
3.2
  1
NB-120/150用 電圧切替スイッチ
 41
0.6
  7
高3.2
100
AcDbText
  0
TEXT
  5
9B8
330
36
100
AcDbEntity
  8
0
 62
     3
100
AcDbText
 10
109.2408878172564
 20
11.0845
 30
0.0
 40
3.2
  1
NB-120/150用 ロータリースイッチ部ツマミ
 41
0.6
  7
高3.2
100
AcDbText
  0
TEXT
  5
9B9
330
36
100
AcDbEntity
  8
0
 62
     3
100
AcDbText
 10
109.2408878172564
 20
6.0845
 30
0.0
 40
3.2
  1
NB-120,150,200用電流計
 41
0.6
  7
高3.2
100
AcDbText
  0
TEXT
  5
9BA
330
36
100
AcDbEntity
  8
0
 62
     3
100
AcDbText
 10
109.2408878172564
 20
1.0845
 30
0.0
 40
3.2
  1
トラパック取手
 41
0.6
  7
高3.2
100
AcDbText
  0
TEXT
  5
9BB
330
36
100
AcDbEntity
  8
0
 62
     3
100
AcDbText
 10
109.2408878172564
 20
-8.915499999999997
 30
0.0
 40
3.2
  1
NB-120用 本体カバー 一式
 41
0.6
  7
高3.2
100
AcDbText
  0
TEXT
  5
9BC
330
36
100
AcDbEntity
  8
0
 62
     3
100
AcDbText
 10
109.2408878172564
 20
61.0845
 30
0.0
 40
3.2
  1
トラパック用コードフック
 41
0.6
  7
高3.2
100
AcDbText
  0
LINE
  5
B6D
330
36
100
AcDbEntity
  8
0
100
AcDbLine
 10
105.707
 20
187.149971
 30
0.0
 11
105.432076
 21
187.878565
 31
0.0
  0
LINE
  5
B6E
330
36
100
AcDbEntity
  8
0
100
AcDbLine
 10
105.432076
 20
187.878565
 30
0.0
 11
105.056367
 21
188.589095
 31
0.0
  0
LINE
  5
B6F
330
36
100
AcDbEntity
  8
0
100
AcDbLine
 10
105.056367
 20
188.589095
 30
0.0
 11
104.58279
 21
189.276047
 31
0.0
  0
LINE
  5
B70
330
36
100
AcDbEntity
  8
0
100
AcDbLine
 10
104.58279
 20
189.276047
 30
0.0
 11
104.01502
 21
189.934087
 31
0.0
  0
LINE
  5
B71
330
36
100
AcDbEntity
  8
0
100
AcDbLine
 10
104.01502
 20
189.934087
 30
0.0
 11
103.357465
 21
190.558109
 31
0.0
  0
LINE
  5
B72
330
36
100
AcDbEntity
  8
0
100
AcDbLine
 10
103.357465
 20
190.558109
 30
0.0
 11
102.615228
 21
191.143269
 31
0.0
  0
LINE
  5
B73
330
36
100
AcDbEntity
  8
0
100
AcDbLine
 10
102.615228
 20
191.143269
 30
0.0
 11
101.794071
 21
191.685023
 31
0.0
  0
LINE
  5
B74
330
36
100
AcDbEntity
  8
0
100
AcDbLine
 10
101.794071
 20
191.685023
 30
0.0
 11
100.900368
 21
192.179169
 31
0.0
  0
LINE
  5
B75
330
36
100
AcDbEntity
  8
0
100
AcDbLine
 10
100.900368
 20
192.179169
 30
0.0
 11
99.94105600000001
 21
192.621868
 31
0.0
  0
LINE
  5
B76
330
36
100
AcDbEntity
  8
0
100
AcDbLine
 10
99.94105600000001
 20
192.621868
 30
0.0
 11
98.923581
 21
193.009686
 31
0.0
  0
LINE
  5
B77
330
36
100
AcDbEntity
  8
0
100
AcDbLine
 10
98.923581
 20
193.009686
 30
0.0
 11
97.85584
 21
193.339613
 31
0.0
  0
LINE
  5
B78
330
36
100
AcDbEntity
  8
0
100
AcDbLine
 10
97.85584
 20
193.339613
 30
0.0
 11
96.74612299999999
 21
193.609086
 31
0.0
  0
LINE
  5
B79
330
36
100
AcDbEntity
  8
0
100
AcDbLine
 10
96.74612299999999
 20
193.609086
 30
0.0
 11
95.603042
 21
193.816015
 31
0.0
  0
LINE
  5
B7A
330
36
100
AcDbEntity
  8
0
100
AcDbLine
 10
95.603042
 20
193.816015
 30
0.0
 11
94.43547100000001
 21
193.958793
 31
0.0
  0
LINE
  5
B7B
330
36
100
AcDbEntity
  8
0
100
AcDbLine
 10
94.43547100000001
 20
193.958793
 30
0.0
 11
93.25247199999999
 21
194.036312
 31
0.0
  0
LINE
  5
B7C
330
36
100
AcDbEntity
  8
0
100
AcDbLine
 10
93.25247199999999
 20
194.036312
 30
0.0
 11
92.06322699999999
 21
194.047971
 31
0.0
  0
LINE
  5
B7D
330
36
100
AcDbEntity
  8
0
100
AcDbLine
 10
92.06322699999999
 20
194.047971
 30
0.0
 11
90.87696800000001
 21
193.993678
 31
0.0
  0
LINE
  5
B7E
330
36
100
AcDbEntity
  8
0
100
AcDbLine
 10
90.87696800000001
 20
193.993678
 30
0.0
 11
89.702903
 21
193.873856
 31
0.0
  0
LINE
  5
B7F
330
36
100
AcDbEntity
  8
0
100
AcDbLine
 10
89.702903
 20
193.873856
 30
0.0
 11
88.55014500000001
 21
193.689433
 31
0.0
  0
LINE
  5
B80
330
36
100
AcDbEntity
  8
0
100
AcDbLine
 10
88.55014500000001
 20
193.689433
 30
0.0
 11
87.427641
 21
193.441843
 31
0.0
  0
LINE
  5
B81
330
36
100
AcDbEntity
  8
0
100
AcDbLine
 10
87.427641
 20
193.441843
 30
0.0
 11
86.344106
 21
193.133006
 31
0.0
  0
LINE
  5
B82
330
36
100
AcDbEntity
  8
0
100
AcDbLine
 10
86.344106
 20
193.133006
 30
0.0
 11
85.307948
 21
192.76532
 31
0.0
  0
LINE
  5
B83
330
36
100
AcDbEntity
  8
0
100
AcDbLine
 10
85.307948
 20
192.76532
 30
0.0
 11
84.327211
 21
192.3416399999999
 31
0.0
  0
LINE
  5
B84
330
36
100
AcDbEntity
  8
0
100
AcDbLine
 10
84.327211
 20
192.3416399999999
 30
0.0
 11
83.40950799999998
 21
191.865252
 31
0.0
  0
LINE
  5
B85
330
36
100
AcDbEntity
  8
0
100
AcDbLine
 10
83.40950799999998
 20
191.865252
 30
0.0
 11
82.56196199999996
 21
191.339856
 31
0.0
  0
LINE
  5
B86
330
36
100
AcDbEntity
  8
0
100
AcDbLine
 10
82.56196199999996
 20
191.339856
 30
0.0
 11
81.791152
 21
190.769529
 31
0.0
  0
LINE
  5
B87
330
36
100
AcDbEntity
  8
0
100
AcDbLine
 10
81.791152
 20
190.769529
 30
0.0
 11
81.10305999999999
 21
190.158699
 31
0.0
  0
LINE
  5
B88
330
36
100
AcDbEntity
  8
0
100
AcDbLine
 10
81.10305999999999
 20
190.158699
 30
0.0
 11
80.503028
 21
189.512107
 31
0.0
  0
LINE
  5
B89
330
36
100
AcDbEntity
  8
0
100
AcDbLine
 10
80.503028
 20
189.512107
 30
0.0
 11
79.995714
 21
188.834771
 31
0.0
  0
LINE
  5
B8A
330
36
100
AcDbEntity
  8
0
100
AcDbLine
 10
79.995714
 20
188.834771
 30
0.0
 11
79.58505500000002
 21
188.13195
 31
0.0
  0
LINE
  5
B8B
330
36
100
AcDbEntity
  8
0
100
AcDbLine
 10
79.58505500000002
 20
188.13195
 30
0.0
 11
79.27423799999998
 21
187.409098
 31
0.0
  0
LINE
  5
B8C
330
36
100
AcDbEntity
  8
0
100
AcDbLine
 10
79.27423799999998
 20
187.409098
 30
0.0
 11
79.065677
 21
186.671827
 31
0.0
  0
LINE
  5
B8D
330
36
100
AcDbEntity
  8
0
100
AcDbLine
 10
79.065677
 20
186.671827
 30
0.0
 11
78.960991
 21
185.925859
 31
0.0
  0
LINE
  5
B8E
330
36
100
AcDbEntity
  8
0
100
AcDbLine
 10
78.960991
 20
185.925859
 30
0.0
 11
78.960991
 21
185.176985
 31
0.0
  0
LINE
  5
B8F
330
36
100
AcDbEntity
  8
0
100
AcDbLine
 10
78.960991
 20
185.176985
 30
0.0
 11
79.065677
 21
184.431017
 31
0.0
  0
LINE
  5
B90
330
36
100
AcDbEntity
  8
0
100
AcDbLine
 10
79.065677
 20
184.431017
 30
0.0
 11
79.27423799999998
 21
183.693746
 31
0.0
  0
LINE
  5
B91
330
36
100
AcDbEntity
  8
0
100
AcDbLine
 10
79.27423799999998
 20
183.693746
 30
0.0
 11
79.58505500000002
 21
182.970894
 31
0.0
  0
LINE
  5
B92
330
36
100
AcDbEntity
  8
0
100
AcDbLine
 10
79.58505500000002
 20
182.970894
 30
0.0
 11
79.995714
 21
182.268072
 31
0.0
  0
LINE
  5
B93
330
36
100
AcDbEntity
  8
0
100
AcDbLine
 10
79.995714
 20
182.268072
 30
0.0
 11
80.503028
 21
181.590737
 31
0.0
  0
LINE
  5
B94
330
36
100
AcDbEntity
  8
0
100
AcDbLine
 10
80.503028
 20
181.590737
 30
0.0
 11
81.10305999999999
 21
180.944144
 31
0.0
  0
LINE
  5
B95
330
36
100
AcDbEntity
  8
0
100
AcDbLine
 10
81.10305999999999
 20
180.944144
 30
0.0
 11
81.791152
 21
180.333314
 31
0.0
  0
LINE
  5
B96
330
36
100
AcDbEntity
  8
0
100
AcDbLine
 10
81.791152
 20
180.333314
 30
0.0
 11
82.56196199999996
 21
179.762988
 31
0.0
  0
LINE
  5
B97
330
36
100
AcDbEntity
  8
0
100
AcDbLine
 10
82.56196199999996
 20
179.762988
 30
0.0
 11
83.40950799999998
 21
179.237592
 31
0.0
  0
LINE
  5
B98
330
36
100
AcDbEntity
  8
0
100
AcDbLine
 10
83.40950799999998
 20
179.237592
 30
0.0
 11
84.327211
 21
178.761204
 31
0.0
  0
LINE
  5
B99
330
36
100
AcDbEntity
  8
0
100
AcDbLine
 10
84.327211
 20
178.761204
 30
0.0
 11
85.307948
 21
178.337523
 31
0.0
  0
LINE
  5
B9A
330
36
100
AcDbEntity
  8
0
100
AcDbLine
 10
85.307948
 20
178.337523
 30
0.0
 11
86.344106
 21
177.969837
 31
0.0
  0
LINE
  5
B9B
330
36
100
AcDbEntity
  8
0
100
AcDbLine
 10
86.344106
 20
177.969837
 30
0.0
 11
87.427641
 21
177.661001
 31
0.0
  0
LINE
  5
B9C
330
36
100
AcDbEntity
  8
0
100
AcDbLine
 10
87.427641
 20
177.661001
 30
0.0
 11
88.55014500000001
 21
177.41341
 31
0.0
  0
LINE
  5
B9D
330
36
100
AcDbEntity
  8
0
100
AcDbLine
 10
88.55014500000001
 20
177.41341
 30
0.0
 11
89.702903
 21
177.228988
 31
0.0
  0
LINE
  5
B9E
330
36
100
AcDbEntity
  8
0
100
AcDbLine
 10
89.702903
 20
177.228988
 30
0.0
 11
90.87696800000001
 21
177.109166
 31
0.0
  0
LINE
  5
B9F
330
36
100
AcDbEntity
  8
0
100
AcDbLine
 10
90.87696800000001
 20
177.109166
 30
0.0
 11
92.06322699999999
 21
177.0548729999999
 31
0.0
  0
LINE
  5
BA0
330
36
100
AcDbEntity
  8
0
100
AcDbLine
 10
92.06322699999999
 20
177.0548729999999
 30
0.0
 11
93.25247199999999
 21
177.066531
 31
0.0
  0
LINE
  5
BA1
330
36
100
AcDbEntity
  8
0
100
AcDbLine
 10
93.25247199999999
 20
177.066531
 30
0.0
 11
94.43547100000001
 21
177.144051
 31
0.0
  0
LINE
  5
BA2
330
36
100
AcDbEntity
  8
0
100
AcDbLine
 10
94.43547100000001
 20
177.144051
 30
0.0
 11
95.603042
 21
177.286829
 31
0.0
  0
LINE
  5
BA3
330
36
100
AcDbEntity
  8
0
100
AcDbLine
 10
95.603042
 20
177.286829
 30
0.0
 11
96.74612299999999
 21
177.493758
 31
0.0
  0
LINE
  5
BA4
330
36
100
AcDbEntity
  8
0
100
AcDbLine
 10
96.74612299999999
 20
177.493758
 30
0.0
 11
97.85584
 21
177.763231
 31
0.0
  0
LINE
  5
BA5
330
36
100
AcDbEntity
  8
0
100
AcDbLine
 10
97.85584
 20
177.763231
 30
0.0
 11
98.923581
 21
178.093157
 31
0.0
  0
LINE
  5
BA6
330
36
100
AcDbEntity
  8
0
100
AcDbLine
 10
98.923581
 20
178.093157
 30
0.0
 11
99.94105600000001
 21
178.480975
 31
0.0
  0
LINE
  5
BA7
330
36
100
AcDbEntity
  8
0
100
AcDbLine
 10
99.94105600000001
 20
178.480975
 30
0.0
 11
100.900368
 21
178.923675
 31
0.0
  0
LINE
  5
BA8
330
36
100
AcDbEntity
  8
0
100
AcDbLine
 10
100.900368
 20
178.923675
 30
0.0
 11
101.794071
 21
179.41782
 31
0.0
  0
LINE
  5
BA9
330
36
100
AcDbEntity
  8
0
100
AcDbLine
 10
101.794071
 20
179.41782
 30
0.0
 11
102.615228
 21
179.959575
 31
0.0
  0
LINE
  5
BAA
330
36
100
AcDbEntity
  8
0
100
AcDbLine
 10
102.615228
 20
179.959575
 30
0.0
 11
103.357465
 21
180.544734
 31
0.0
  0
LINE
  5
BAB
330
36
100
AcDbEntity
  8
0
100
AcDbLine
 10
103.357465
 20
180.544734
 30
0.0
 11
104.01502
 21
181.168756
 31
0.0
  0
LINE
  5
BAC
330
36
100
AcDbEntity
  8
0
100
AcDbLine
 10
104.01502
 20
181.168756
 30
0.0
 11
104.58279
 21
181.826797
 31
0.0
  0
LINE
  5
BAD
330
36
100
AcDbEntity
  8
0
100
AcDbLine
 10
104.58279
 20
181.826797
 30
0.0
 11
105.056367
 21
182.513749
 31
0.0
  0
LINE
  5
BAE
330
36
100
AcDbEntity
  8
0
100
AcDbLine
 10
105.056367
 20
182.513749
 30
0.0
 11
105.432076
 21
183.224279
 31
0.0
  0
LINE
  5
BAF
330
36
100
AcDbEntity
  8
0
100
AcDbLine
 10
105.432076
 20
183.224279
 30
0.0
 11
105.707
 21
183.952873
 31
0.0
  0
ARC
  5
BB0
330
36
100
AcDbEntity
  8
0
100
AcDbCircle
 10
295.460744
 20
168.088698
 30
0.0
 40
0.25
100
AcDbArc
 50
0.0
 51
180.0
  0
ARC
  5
BB1
330
36
100
AcDbEntity
  8
0
100
AcDbCircle
 10
295.460744
 20
168.088698
 30
0.0
 40
0.25
100
AcDbArc
 50
180.0
 51
0.0
  0
LINE
  5
BB2
330
36
100
AcDbEntity
  8
0
100
AcDbLine
 10
314.472249
 20
109.339131
 30
0.0
 11
312.787693
 21
110.543065
 31
0.0
  0
LINE
  5
BB3
330
36
100
AcDbEntity
  8
0
100
AcDbLine
 10
312.787693
 20
110.543065
 30
0.0
 11
313.6445950000001
 21
108.65815
 31
0.0
  0
LINE
  5
BB4
330
36
100
AcDbEntity
  8
0
100
AcDbLine
 10
314.405125
 20
130.066928
 30
0.0
 11
312.611974
 21
131.102204
 31
0.0
  0
LINE
  5
BB5
330
36
100
AcDbEntity
  8
0
100
AcDbLine
 10
312.611974
 20
131.102204
 30
0.0
 11
313.64725
 21
129.309053
 31
0.0
  0
LINE
  5
BB6
330
36
100
AcDbEntity
  8
0
100
AcDbLine
 10
130.501886
 20
149.610048
 30
0.0
 11
130.501886
 21
135.667822
 31
0.0
  0
LINE
  5
BB7
330
36
100
AcDbEntity
  8
0
100
AcDbLine
 10
211.282886
 20
149.138575
 30
0.0
 11
211.282886
 21
135.667822
 31
0.0
  0
LINE
  5
BB8
330
36
100
AcDbEntity
  8
0
100
AcDbLine
 10
133.001886
 20
136.917822
 30
0.0
 11
208.782886
 21
136.917822
 31
0.0
  0
LINE
  5
BBC
330
36
100
AcDbEntity
  8
0
100
AcDbLine
 10
23.869886
 20
154.364422
 30
0.0
 11
23.869886
 21
135.667822
 31
0.0
  0
LINE
  5
BBD
330
36
100
AcDbEntity
  8
0
100
AcDbLine
 10
113.588886
 20
154.364422
 30
0.0
 11
113.588886
 21
135.667822
 31
0.0
  0
LINE
  5
BBE
330
36
100
AcDbEntity
  8
0
100
AcDbLine
 10
26.369886
 20
136.917822
 30
0.0
 11
111.088886
 21
136.917822
 31
0.0
  0
LINE
  5
BC2
330
36
100
AcDbEntity
  8
0
100
AcDbLine
 10
32.21388599999999
 20
143.957422
 30
0.0
 11
13.50348199999998
 21
143.957422
 31
0.0
  0
LINE
  5
BC3
330
36
100
AcDbEntity
  8
0
100
AcDbLine
 10
64.35488599999999
 20
223.3674220000001
 30
0.0
 11
13.503482
 21
223.3674220000001
 31
0.0
  0
LINE
  5
BC4
330
36
100
AcDbEntity
  8
0
100
AcDbLine
 10
14.75348199999998
 20
146.457422
 30
0.0
 11
14.753482
 21
220.8674220000001
 31
0.0
  0
LINE
  5
BC8
330
36
100
AcDbEntity
  8
0
100
AcDbLine
 10
316.7118626492643
 20
135.1642732526431
 30
0.0
 11
331.0877497014713
 21
145.2483432936962
 31
0.0
1001
ACAD
1000
DSTYLE
1002
{
1070
   147
1040
0.625
1070
    77
1070
     0
1070
   342
1005
0
1002
}
  0
LINE
  5
BC9
330
36
100
AcDbEntity
  8
0
  6
ByBlock
 62
     0
370
    -2
100
AcDbLine
 10
317.0965454674095
 20
134.6158680232004
 30
0.0
 11
314.665185
 21
133.7286163994912
 31
0.0
  0
LINE
  5
BCA
330
36
100
AcDbEntity
  8
0
  6
ByBlock
 62
     0
370
    -2
100
AcDbLine
 10
314.665185
 20
133.7286163994912
 30
0.0
 11
316.3271798311191
 21
135.7126784820858
 31
0.0
  0
LINE
  5
BCB
330
36
100
AcDbEntity
  8
0
  6
ByBlock
 62
     0
370
    -2
100
AcDbLine
 10
314.665185
 20
133.7286163994912
 30
0.0
 11
316.7118626492643
 21
135.1642732526431
 31
0.0
  0
LINE
  5
BCC
330
36
100
AcDbEntity
  8
0
100
AcDbLine
 10
246.6880844937929
 20
138.2824871041854
 30
0.0
 11
237.2919780124142
 21
126.9873357916292
 31
0.0
1001
ACAD
1000
DSTYLE
1002
{
1070
   147
1040
0.625
1070
    77
1070
     0
1070
   342
1005
0
1002
}
  0
LINE
  5
BCD
330
36
100
AcDbEntity
  8
0
  6
ByBlock
 62
     0
370
    -2
100
AcDbLine
 10
246.1731039603943
 20
138.710884368972
 30
0.0
 11
248.286886
 21
140.204422
 31
0.0
  0
LINE
  5
BCE
330
36
100
AcDbEntity
  8
0
  6
ByBlock
 62
     0
370
    -2
100
AcDbLine
 10
248.286886
 20
140.204422
 30
0.0
 11
247.2030650271916
 21
137.8540898393987
 31
0.0
  0
LINE
  5
BCF
330
36
100
AcDbEntity
  8
0
  6
ByBlock
 62
     0
370
    -2
100
AcDbLine
 10
248.286886
 20
140.204422
 30
0.0
 11
246.6880844937929
 21
138.2824871041854
 31
0.0
  0
LINE
  5
BD0
330
36
100
AcDbEntity
  8
0
100
AcDbLine
 10
154.3765869226136
 20
141.6042699007386
 30
0.0
 11
159.3110581547727
 21
127.8497701985227
 31
0.0
1001
ACAD
1000
DSTYLE
1002
{
1070
   147
1040
0.625
1070
    77
1070
     0
1070
   342
1005
0
1002
}
  0
LINE
  5
BD1
330
36
100
AcDbEntity
  8
0
  6
ByBlock
 62
     0
370
    -2
100
AcDbLine
 10
153.7460621707687
 20
141.3780671077252
 30
0.0
 11
153.532386
 21
143.957422
 31
0.0
  0
LINE
  5
BD2
330
36
100
AcDbEntity
  8
0
  6
ByBlock
 62
     0
370
    -2
100
AcDbLine
 10
153.532386
 20
143.957422
 30
0.0
 11
155.0071116744586
 21
141.830472693752
 31
0.0
  0
LINE
  5
BD3
330
36
100
AcDbEntity
  8
0
  6
ByBlock
 62
     0
370
    -2
100
AcDbLine
 10
153.532386
 20
143.957422
 30
0.0
 11
154.3765869226136
 21
141.6042699007386
 31
0.0
  0
LINE
  5
BD4
330
36
100
AcDbEntity
  8
0
100
AcDbLine
 10
136.2377048810728
 20
145.6981467704884
 30
0.0
 11
141.8460962378544
 21
127.9120164590231
 31
0.0
1001
ACAD
1000
DSTYLE
1002
{
1070
   147
1040
0.625
1070
    77
1070
     0
1070
   342
1005
0
1002
}
  0
LINE
  5
BD5
330
36
100
AcDbEntity
  8
0
  6
ByBlock
 62
     0
370
    -2
100
AcDbLine
 10
135.5988407176004
 20
145.4966976531238
 30
0.0
 11
135.485886
 21
148.082422
 31
0.0
  0
LINE
  5
BD6
330
36
100
AcDbEntity
  8
0
  6
ByBlock
 62
     0
370
    -2
100
AcDbLine
 10
135.485886
 20
148.082422
 30
0.0
 11
136.8765690445452
 21
145.899595887853
 31
0.0
  0
LINE
  5
BD7
330
36
100
AcDbEntity
  8
0
  6
ByBlock
 62
     0
370
    -2
100
AcDbLine
 10
135.485886
 20
148.082422
 30
0.0
 11
136.2377048810728
 21
145.6981467704884
 31
0.0
  0
LINE
  5
BD8
330
36
100
AcDbEntity
  8
0
100
AcDbLine
 10
100.3902872679367
 20
155.1937958753082
 30
0.0
 11
107.3256538098299
 21
127.9885094469197
 31
0.0
1001
ACAD
1000
DSTYLE
1002
{
1070
   147
1040
0.625
1070
    77
1070
     0
1070
   342
1005
0
1002
}
  0
LINE
  5
BD9
330
36
100
AcDbEntity
  8
0
  6
ByBlock
 62
     0
370
    -2
100
AcDbLine
 10
99.74117499465737
 20
155.0283195237217
 30
0.0
 11
99.7727206728517
 21
157.6163175987681
 31
0.0
  0
LINE
  5
BDA
330
36
100
AcDbEntity
  8
0
  6
ByBlock
 62
     0
370
    -2
100
AcDbLine
 10
99.7727206728517
 20
157.6163175987681
 30
0.0
 11
101.0393995412161
 21
155.3592722268946
 31
0.0
  0
LINE
  5
BDB
330
36
100
AcDbEntity
  8
0
  6
ByBlock
 62
     0
370
    -2
100
AcDbLine
 10
99.7727206728517
 20
157.6163175987681
 30
0.0
 11
100.3902872679367
 21
155.1937958753082
 31
0.0
  0
LINE
  5
BDC
330
36
100
AcDbEntity
  8
0
100
AcDbLine
 10
92.00852155655697
 20
155.3577291709363
 30
0.0
 11
96.47404576705708
 21
128.0777946608543
 31
0.0
1001
ACAD
1000
DSTYLE
1002
{
1070
   147
1040
0.625
1070
    77
1070
     0
1070
   342
1005
0
1002
}
  0
LINE
  5
BDD
330
36
100
AcDbEntity
  8
0
  6
ByBlock
 62
     0
370
    -2
100
AcDbLine
 10
91.34744734138335
 20
155.2495161944094
 30
0.0
 11
91.6046649400855
 21
157.8248935013635
 31
0.0
  0
LINE
  5
BDE
330
36
100
AcDbEntity
  8
0
  6
ByBlock
 62
     0
370
    -2
100
AcDbLine
 10
91.6046649400855
 20
157.8248935013635
 30
0.0
 11
92.66959577173061
 21
155.4659421474632
 31
0.0
  0
LINE
  5
BDF
330
36
100
AcDbEntity
  8
0
  6
ByBlock
 62
     0
370
    -2
100
AcDbLine
 10
91.6046649400855
 20
157.8248935013635
 30
0.0
 11
92.00852155655697
 21
155.3577291709363
 31
0.0
  0
LINE
  5
BE0
330
36
100
AcDbEntity
  8
0
100
AcDbLine
 10
83.58048560743078
 20
155.3013104864101
 30
0.0
 11
85.03436649021706
 21
128.1363202672094
 31
0.0
1001
ACAD
1000
DSTYLE
1002
{
1070
   147
1040
0.625
1070
    77
1070
     0
1070
   342
1005
0
1002
}
  0
LINE
  5
BE1
330
36
100
AcDbEntity
  8
0
  6
ByBlock
 62
     0
370
    -2
100
AcDbLine
 10
82.91157045340854
 20
155.2655098861967
 30
0.0
 11
83.44687585253931
 21
157.7977376200148
 31
0.0
  0
LINE
  5
BE2
330
36
100
AcDbEntity
  8
0
  6
ByBlock
 62
     0
370
    -2
100
AcDbLine
 10
83.44687585253931
 20
157.7977376200148
 30
0.0
 11
84.24940076145302
 21
155.3371110866235
 31
0.0
  0
LINE
  5
BE3
330
36
100
AcDbEntity
  8
0
  6
ByBlock
 62
     0
370
    -2
100
AcDbLine
 10
83.44687585253931
 20
157.7977376200148
 30
0.0
 11
83.58048560743078
 21
155.3013104864101
 31
0.0
  0
LINE
  5
BE4
330
36
100
AcDbEntity
  8
0
100
AcDbLine
 10
75.19799537762153
 20
155.9011040799475
 30
0.0
 11
73.75557855034187
 21
128.136732082072
 31
0.0
1001
ACAD
1000
DSTYLE
1002
{
1070
   147
1040
0.625
1070
    77
1070
     0
1070
   342
1005
0
1002
}
  0
LINE
  5
BE5
330
36
100
AcDbEntity
  8
0
  6
ByBlock
 62
     0
370
    -2
100
AcDbLine
 10
74.52902505090897
 20
155.9358584787243
 30
0.0
 11
75.32770065279247
 21
158.3977371209836
 31
0.0
  0
LINE
  5
BE6
330
36
100
AcDbEntity
  8
0
  6
ByBlock
 62
     0
370
    -2
100
AcDbLine
 10
75.32770065279247
 20
158.3977371209836
 30
0.0
 11
75.86696570433409
 21
155.8663496811708
 31
0.0
  0
LINE
  5
BE7
330
36
100
AcDbEntity
  8
0
  6
ByBlock
 62
     0
370
    -2
100
AcDbLine
 10
75.32770065279247
 20
158.3977371209836
 30
0.0
 11
75.19799537762153
 21
155.9011040799475
 31
0.0
  0
LINE
  5
BE8
330
36
100
AcDbEntity
  8
0
100
AcDbLine
 10
34.5763499754159
 20
155.2484599536454
 30
0.0
 11
38.85049580121296
 21
128.0827053899138
 31
0.0
1001
ACAD
1000
DSTYLE
1002
{
1070
   147
1040
0.625
1070
    77
1070
     0
1070
   342
1005
0
1002
}
  0
LINE
  5
BE9
330
36
100
AcDbEntity
  8
0
  6
ByBlock
 62
     0
370
    -2
100
AcDbLine
 10
33.91461784777189
 20
155.1443457975475
 30
0.0
 11
34.18779037602238
 21
157.7180796486023
 31
0.0
  0
LINE
  5
BEA
330
36
100
AcDbEntity
  8
0
  6
ByBlock
 62
     0
370
    -2
100
AcDbLine
 10
34.18779037602238
 20
157.7180796486023
 30
0.0
 11
35.23808210305992
 21
155.3525741097433
 31
0.0
  0
LINE
  5
BEB
330
36
100
AcDbEntity
  8
0
  6
ByBlock
 62
     0
370
    -2
100
AcDbLine
 10
34.18779037602238
 20
157.7180796486023
 30
0.0
 11
34.5763499754159
 21
155.2484599536454
 31
0.0
  0
LINE
  5
BEC
330
36
100
AcDbEntity
  8
0
100
AcDbLine
 10
51.41339538130124
 20
200.6961223327486
 30
0.0
 11
57.45972623739748
 21
227.0518453345029
 31
0.0
1001
ACAD
1000
DSTYLE
1002
{
1070
   147
1040
0.625
1070
    77
1070
     0
1070
   342
1005
0
1002
}
  0
LINE
  5
BED
330
36
100
AcDbEntity
  8
0
  6
ByBlock
 62
     0
370
    -2
100
AcDbLine
 10
52.06630679876091
 20
200.5463363280383
 30
0.0
 11
50.85438599999999
 21
198.259422
 31
0.0
  0
LINE
  5
BEE
330
36
100
AcDbEntity
  8
0
  6
ByBlock
 62
     0
370
    -2
100
AcDbLine
 10
50.85438599999999
 20
198.259422
 30
0.0
 11
50.76048396384159
 21
200.8459083374589
 31
0.0
  0
LINE
  5
BEF
330
36
100
AcDbEntity
  8
0
  6
ByBlock
 62
     0
370
    -2
100
AcDbLine
 10
50.85438599999999
 20
198.259422
 30
0.0
 11
51.41339538130124
 21
200.6961223327486
 31
0.0
  0
LINE
  5
BF0
330
36
100
AcDbEntity
  8
0
100
AcDbLine
 10
79.76025914390412
 20
202.244547276616
 30
0.0
 11
88.37766948178318
 21
227.1991047509483
 31
0.0
1001
ACAD
1000
DSTYLE
1002
{
1070
   147
1040
0.625
1070
    77
1070
     0
1070
   342
1005
0
1002
}
  0
LINE
  5
BF1
330
36
100
AcDbEntity
  8
0
  6
ByBlock
 62
     0
370
    -2
100
AcDbLine
 10
80.39344155467521
 20
202.0258941244631
 30
0.0
 11
78.94423388479572
 21
199.8814766520901
 31
0.0
  0
LINE
  5
BF2
330
36
100
AcDbEntity
  8
0
  6
ByBlock
 62
     0
370
    -2
100
AcDbLine
 10
78.94423388479572
 20
199.8814766520901
 30
0.0
 11
79.12707673313303
 21
202.4632004287688
 31
0.0
  0
LINE
  5
BF3
330
36
100
AcDbEntity
  8
0
  6
ByBlock
 62
     0
370
    -2
100
AcDbLine
 10
78.94423388479572
 20
199.8814766520901
 30
0.0
 11
79.76025914390412
 21
202.244547276616
 31
0.0
  0
LINE
  5
BF4
330
36
100
AcDbEntity
  8
0
100
AcDbLine
 10
95.72597715779489
 20
196.2854335894434
 30
0.0
 11
104.8159056844102
 21
227.1291868211132
 31
0.0
1001
ACAD
1000
DSTYLE
1002
{
1070
   147
1040
0.625
1070
    77
1070
     0
1070
   342
1005
0
1002
}
  0
LINE
  5
BF5
330
36
100
AcDbEntity
  8
0
  6
ByBlock
 62
     0
370
    -2
100
AcDbLine
 10
96.36852678825665
 20
196.0960684959079
 30
0.0
 11
95.0192565
 21
193.887404
 31
0.0
  0
LINE
  5
BF6
330
36
100
AcDbEntity
  8
0
  6
ByBlock
 62
     0
370
    -2
100
AcDbLine
 10
95.0192565
 20
193.887404
 30
0.0
 11
95.08342752733312
 21
196.4747986829788
 31
0.0
  0
LINE
  5
BF7
330
36
100
AcDbEntity
  8
0
  6
ByBlock
 62
     0
370
    -2
100
AcDbLine
 10
95.0192565
 20
193.887404
 30
0.0
 11
95.72597715779489
 21
196.2854335894434
 31
0.0
  0
LINE
  5
BF8
330
36
100
AcDbEntity
  8
0
100
AcDbLine
 10
144.3157153729291
 20
201.3346957014352
 30
0.0
 11
135.7860338585238
 21
227.1771933771673
 31
0.0
1001
ACAD
1000
DSTYLE
1002
{
1070
   147
1040
0.625
1070
    77
1070
     0
1070
   342
1005
0
1002
}
  0
LINE
  5
BF9
330
36
100
AcDbEntity
  8
0
  6
ByBlock
 62
     0
370
    -2
100
AcDbLine
 10
144.9518333490467
 20
201.54465542785
 30
0.0
 11
145.099296302191
 21
198.9606693900189
 31
0.0
  0
LINE
  5
BFA
330
36
100
AcDbEntity
  8
0
  6
ByBlock
 62
     0
370
    -2
100
AcDbLine
 10
145.099296302191
 20
198.9606693900189
 30
0.0
 11
143.6795973968114
 21
201.1247359750204
 31
0.0
  0
LINE
  5
BFB
330
36
100
AcDbEntity
  8
0
  6
ByBlock
 62
     0
370
    -2
100
AcDbLine
 10
145.099296302191
 20
198.9606693900189
 30
0.0
 11
144.3157153729291
 21
201.3346957014352
 31
0.0
  0
LINE
  5
BFC
330
36
100
AcDbEntity
  8
0
100
AcDbLine
 10
160.3347203507522
 20
223.8143646512419
 30
0.0
 11
158.5960540460327
 21
227.4212281321227
 31
0.0
1001
ACAD
1000
DSTYLE
1002
{
1070
   147
1040
0.625
1070
    77
1070
     0
1070
   342
1005
0
1002
}
  0
LINE
  5
BFD
330
36
100
AcDbEntity
  8
0
  6
ByBlock
 62
     0
370
    -2
100
AcDbLine
 10
160.9381438925921
 20
224.1052412494922
 30
0.0
 11
161.4202873737686
 21
221.5623557173033
 31
0.0
  0
LINE
  5
BFE
330
36
100
AcDbEntity
  8
0
  6
ByBlock
 62
     0
370
    -2
100
AcDbLine
 10
161.4202873737686
 20
221.5623557173033
 30
0.0
 11
159.7312968089122
 21
223.5234880529917
 31
0.0
  0
LINE
  5
BFF
330
36
100
AcDbEntity
  8
0
  6
ByBlock
 62
     0
370
    -2
100
AcDbLine
 10
161.4202873737686
 20
221.5623557173033
 30
0.0
 11
160.3347203507522
 21
223.8143646512419
 31
0.0
  0
LINE
  5
C00
330
36
100
AcDbEntity
  8
0
100
AcDbLine
 10
208.8534759252494
 20
225.0491352717594
 30
0.0
 11
213.8129283909555
 21
229.572605014851
 31
0.0
1001
ACAD
1000
DSTYLE
1002
{
1070
   147
1040
0.625
1070
    77
1070
     0
1070
   342
1005
0
1002
}
  0
LINE
  5
C01
330
36
100
AcDbEntity
  8
0
  6
ByBlock
 62
     0
370
    -2
100
AcDbLine
 10
209.304893161704
 20
224.5542093733788
 30
0.0
 11
207.006386
 21
223.364422
 31
0.0
  0
LINE
  5
C02
330
36
100
AcDbEntity
  8
0
  6
ByBlock
 62
     0
370
    -2
100
AcDbLine
 10
207.006386
 20
223.364422
 30
0.0
 11
208.4020586887947
 21
225.5440611701401
 31
0.0
  0
LINE
  5
C03
330
36
100
AcDbEntity
  8
0
  6
ByBlock
 62
     0
370
    -2
100
AcDbLine
 10
207.006386
 20
223.364422
 30
0.0
 11
208.8534759252494
 21
225.0491352717594
 31
0.0
  0
TEXT
  5
C04
330
36
100
AcDbEntity
  8
0
 62
     4
100
AcDbText
 10
166.892386
 20
137.542822
 30
0.0
 40
3.0
  1
235
100
AcDbText
  0
LINE
  5
C05
330
36
100
AcDbEntity
  8
0
  6
ByBlock
 62
     0
370
    -2
100
AcDbLine
 10
208.782886
 20
137.5876945
 30
0.0
 11
211.282886
 21
136.917822
 31
0.0
  0
LINE
  5
C06
330
36
100
AcDbEntity
  8
0
  6
ByBlock
 62
     0
370
    -2
100
AcDbLine
 10
211.282886
 20
136.917822
 30
0.0
 11
208.782886
 21
136.2479495
 31
0.0
  0
LINE
  5
C07
330
36
100
AcDbEntity
  8
0
  6
ByBlock
 62
     0
370
    -2
100
AcDbLine
 10
211.282886
 20
136.917822
 30
0.0
 11
208.782886
 21
136.917822
 31
0.0
  0
LINE
  5
C08
330
36
100
AcDbEntity
  8
0
  6
ByBlock
 62
     0
370
    -2
100
AcDbLine
 10
133.001886
 20
136.2479495
 30
0.0
 11
130.501886
 21
136.917822
 31
0.0
  0
LINE
  5
C09
330
36
100
AcDbEntity
  8
0
  6
ByBlock
 62
     0
370
    -2
100
AcDbLine
 10
130.501886
 20
136.917822
 30
0.0
 11
133.001886
 21
137.5876945
 31
0.0
  0
LINE
  5
C0A
330
36
100
AcDbEntity
  8
0
  6
ByBlock
 62
     0
370
    -2
100
AcDbLine
 10
130.501886
 20
136.917822
 30
0.0
 11
133.001886
 21
136.917822
 31
0.0
  0
TEXT
  5
C0B
330
36
100
AcDbEntity
  8
0
 62
     4
100
AcDbText
 10
64.97938600000001
 20
137.542822
 30
0.0
 40
3.0
  1
260
100
AcDbText
  0
LINE
  5
C0C
330
36
100
AcDbEntity
  8
0
  6
ByBlock
 62
     0
370
    -2
100
AcDbLine
 10
111.088886
 20
137.5876945
 30
0.0
 11
113.588886
 21
136.917822
 31
0.0
  0
LINE
  5
C0D
330
36
100
AcDbEntity
  8
0
  6
ByBlock
 62
     0
370
    -2
100
AcDbLine
 10
113.588886
 20
136.917822
 30
0.0
 11
111.088886
 21
136.2479495
 31
0.0
  0
LINE
  5
C0E
330
36
100
AcDbEntity
  8
0
  6
ByBlock
 62
     0
370
    -2
100
AcDbLine
 10
113.588886
 20
136.917822
 30
0.0
 11
111.088886
 21
136.917822
 31
0.0
  0
LINE
  5
C0F
330
36
100
AcDbEntity
  8
0
  6
ByBlock
 62
     0
370
    -2
100
AcDbLine
 10
26.369886
 20
136.2479495
 30
0.0
 11
23.869886
 21
136.917822
 31
0.0
  0
LINE
  5
C10
330
36
100
AcDbEntity
  8
0
  6
ByBlock
 62
     0
370
    -2
100
AcDbLine
 10
23.869886
 20
136.917822
 30
0.0
 11
26.369886
 21
137.5876945
 31
0.0
  0
LINE
  5
C11
330
36
100
AcDbEntity
  8
0
  6
ByBlock
 62
     0
370
    -2
100
AcDbLine
 10
23.869886
 20
136.917822
 30
0.0
 11
26.369886
 21
136.917822
 31
0.0
  0
TEXT
  5
C12
330
36
100
AcDbEntity
  8
0
 62
     4
100
AcDbText
 10
14.12848199999996
 20
179.912422
 30
0.0
 40
3.0
  1
230
 50
90.0
100
AcDbText
  0
LINE
  5
C13
330
36
100
AcDbEntity
  8
0
  6
ByBlock
 62
     0
370
    -2
100
AcDbLine
 10
14.0836095
 20
220.8674220000001
 30
0.0
 11
14.753482
 21
223.3674220000001
 31
0.0
  0
LINE
  5
C14
330
36
100
AcDbEntity
  8
0
  6
ByBlock
 62
     0
370
    -2
100
AcDbLine
 10
14.753482
 20
223.3674220000001
 30
0.0
 11
15.4233545
 21
220.8674220000001
 31
0.0
  0
LINE
  5
C15
330
36
100
AcDbEntity
  8
0
  6
ByBlock
 62
     0
370
    -2
100
AcDbLine
 10
14.753482
 20
223.3674220000001
 30
0.0
 11
14.753482
 21
220.8674220000001
 31
0.0
  0
LINE
  5
C16
330
36
100
AcDbEntity
  8
0
  6
ByBlock
 62
     0
370
    -2
100
AcDbLine
 10
15.42335449999998
 20
146.457422
 30
0.0
 11
14.75348199999998
 21
143.957422
 31
0.0
  0
LINE
  5
C17
330
36
100
AcDbEntity
  8
0
  6
ByBlock
 62
     0
370
    -2
100
AcDbLine
 10
14.75348199999998
 20
143.957422
 30
0.0
 11
14.08360949999998
 21
146.457422
 31
0.0
  0
LINE
  5
C18
330
36
100
AcDbEntity
  8
0
  6
ByBlock
 62
     0
370
    -2
100
AcDbLine
 10
14.75348199999998
 20
143.957422
 30
0.0
 11
14.75348199999998
 21
146.457422
 31
0.0
  0
ENDSEC
  0
SECTION
  2
OBJECTS
  0
DICTIONARY
  5
C
330
0
100
AcDbDictionary
281
     1
  3
ACAD_2007HEADERVARS_RT
350
C1C
  3
ACAD_COLOR
350
2F
  3
ACAD_GROUP
350
D
  3
ACAD_LAYOUT
350
2E
  3
ACAD_MATERIAL
350
10
  3
ACAD_MLEADERSTYLE
350
735
  3
ACAD_MLINESTYLE
350
2B
  3
ACAD_PLOTSETTINGS
350
2D
  3
ACAD_PLOTSTYLENAME
350
E
  3
ACAD_SCALELIST
350
723
  3
ACAD_TABLESTYLE
350
30
  3
ACAD_VISUALSTYLE
350
14
  3
ACDB_RECOMPOSE_DATA
350
C1A
  3
AcDbVariableDictionary
350
69F
  3
DWGPROPS
350
C1B
  0
DICTIONARY
  5
51F
330
2
100
AcDbDictionary
280
     1
281
     1
  3
ACAD_LAYERSTATES
360
520
  0
DICTIONARY
  5
946
330
25
100
AcDbDictionary
280
     1
281
     1
  3
ADSK_XREC_LAYER_RECONCILED
360
947
  0
DICTIONARY
  5
68A
330
36
100
AcDbDictionary
280
     1
281
     1
  3
ACAD_SORTENTS
360
68B
  0
DICTIONARY
  5
C1C
102
{ACAD_REACTORS
330
C
102
}
330
C
100
AcDbDictionary
281
     1
  3
DIMARCSYM
350
C1E
  3
DIMFXL
350
C1D
  3
DIMJOGANG
350
C1F
  0
DICTIONARY
  5
2F
102
{ACAD_REACTORS
330
C
102
}
330
C
100
AcDbDictionary
281
     1
  0
DICTIONARY
  5
D
102
{ACAD_REACTORS
330
C
102
}
330
C
100
AcDbDictionary
281
     1
  0
DICTIONARY
  5
2E
102
{ACAD_REACTORS
330
C
102
}
330
C
100
AcDbDictionary
281
     1
  3
Model
350
39
  3
レイアウト1
350
35
  0
DICTIONARY
  5
10
102
{ACAD_REACTORS
330
C
102
}
330
C
100
AcDbDictionary
281
     1
  3
ByBlock
350
12
  3
ByLayer
350
11
  3
Global
350
13
  0
DICTIONARY
  5
735
102
{ACAD_REACTORS
330
C
102
}
330
C
100
AcDbDictionary
281
     1
  3
Standard
350
736
  0
DICTIONARY
  5
2B
102
{ACAD_REACTORS
330
C
102
}
330
C
100
AcDbDictionary
281
     1
  3
Standard
350
2C
  0
DICTIONARY
  5
2D
102
{ACAD_REACTORS
330
C
102
}
330
C
100
AcDbDictionary
281
     1
  0
ACDBDICTIONARYWDFLT
  5
E
102
{ACAD_REACTORS
330
C
102
}
330
C
100
AcDbDictionary
281
     1
  3
Normal
350
F
100
AcDbDictionaryWithDefault
340
F
  0
DICTIONARY
  5
723
102
{ACAD_REACTORS
330
C
102
}
330
C
100
AcDbDictionary
281
     1
  3
A0
350
724
  3
A1
350
725
  3
A2
350
726
  3
A3
350
727
  3
A4
350
728
  3
A5
350
729
  3
A6
350
72A
  3
A7
350
72B
  3
A8
350
72C
  3
A9
350
72D
  3
B0
350
72E
  3
B1
350
72F
  3
B2
350
730
  3
B3
350
731
  3
B4
350
732
  3
B5
350
733
  3
B6
350
734
  0
DICTIONARY
  5
30
102
{ACAD_REACTORS
330
C
102
}
330
C
100
AcDbDictionary
281
     1
  3
Standard
350
31
  0
DICTIONARY
  5
14
102
{ACAD_REACTORS
330
C
102
}
330
C
100
AcDbDictionary
281
     1
  3
2dWireframe
350
1A
  3
3D Hidden
350
1C
  3
3dWireframe
350
1B
  3
Basic
350
19
  3
Brighten
350
20
  3
ColorChange
350
24
  3
Conceptual
350
1D
  3
Dim
350
1F
  3
EdgeColorOff
350
722
  3
Facepattern
350
23
  3
Flat
350
15
  3
FlatWithEdges
350
16
  3
Gouraud
350
17
  3
GouraudWithEdges
350
18
  3
Hidden
350
71A
  3
JitterOff
350
720
  3
Linepattern
350
22
  3
OverhangOff
350
721
  3
Realistic
350
1E
  3
Shaded
350
71F
  3
Shaded with edges
350
71E
  3
Shades of Gray
350
71B
  3
Sketchy
350
71C
  3
Thicken
350
21
  3
Wireframe
350
719
  3
X-Ray
350
71D
  0
XRECORD
  5
C1A
102
{ACAD_REACTORS
330
C
102
}
330
C
100
AcDbXrecord
280
     1
 90
        1
330
31
  0
DICTIONARY
  5
69F
102
{ACAD_REACTORS
330
C
102
}
330
C
100
AcDbDictionary
281
     1
  3
CANNOSCALE
350
949
  3
CMLEADERSTYLE
350
948
  3
CTABLESTYLE
350
6A0
  3
DIMASSOC
350
6A5
  3
INDEXCTL
350
6A4
  3
SORTENTS
350
6A3
  3
XCLIPFRAME
350
B0E
  0
XRECORD
  5
C1B
102
{ACAD_REACTORS
330
C
102
}
330
C
100
AcDbXrecord
280
     1
  1
DWGPROPS COOKIE
  2

  3

  4

  6

  7

  8
imamura
  9

300
=
301
=
302
=
303
=
304
=
305
=
306
=
307
=
308
=
309
=
 40
0.0608215277777778
 41
2455467.751124491
 42
2459893.499737025
  1

 90
        0
  0
DICTIONARY
  5
520
102
{ACAD_REACTORS
330
51F
102
}
330
51F
100
AcDbDictionary
281
     1
  0
XRECORD
  5
947
102
{ACAD_REACTORS
330
946
102
}
330
946
100
AcDbXrecord
280
     1
290
     1
  0
SORTENTSTABLE
  5
68B
102
{ACAD_REACTORS
330
68A
102
}
330
68A
100
AcDbSortentsTable
330
36
331
9B5
  5
C11
331
BFD
  5
BB9
331
477
  5
B7B
331
B87
  5
2C7
331
9B1
  5
C0D
331
BF9
  5
BBD
331
473
  5
B77
331
434
  5
829
331
B83
  5
2C3
331
3FD
  5
473
331
3BE
  5
449
331
BC2
  5
86
331
9AD
  5
C09
331
BF5
  5
BC1
331
46F
  5
B73
331
BBE
  5
B5
331
430
  5
825
331
B7F
  5
2BF
331
3BA
  5
445
331
347
  5
3B7
331
386
  5
40F
331
BF1
  5
BC5
331
46B
  5
B6F
331
42C
  5
821
331
B7B
  5
2BB
331
3F5
  5
470
331
3B6
  5
441
331
382
  5
40B
331
343
  5
3B3
331
30C
  5
37C
331
127
  5
198
331
2CD
  5
33D
331
428
  5
81D
331
3B2
  5
43D
331
37E
  5
407
331
33F
  5
3AF
331
308
  5
378
331
2C9
  5
339
331
123
  5
188
331
EC
  5
117
331
AD
  5
DB
331
37A
  5
403
331
33B
  5
3AB
331
304
  5
374
331
2C5
  5
335
331
11F
  5
178
331
E8
  5
113
331
300
  5
370
331
2C1
  5
331
331
11B
  5
168
331
E4
  5
10F
331
A5
  5
D6
331
296
  5
306
331
E0
  5
10B
331
217
  5
28A
331
292
  5
302
331
213
  5
286
331
1DC
  5
209
331
28E
  5
2FE
331
20F
  5
282
331
1D8
  5
205
331
28A
  5
2FA
331
20B
  5
238
331
1D4
  5
201
331
1D0
  5
1FD
331
B75
  5
2B5
331
B71
  5
2B1
331
82D
  5
C08
331
467
  5
B6B
331
BB6
  5
C0
331
829
  5
C04
331
463
  5
B67
331
BB2
  5
D9
331
3ED
  5
46E
331
825
  5
C00
331
BED
  5
BC9
331
45F
  5
B63
331
BAE
  5
2EE
331
3E9
  5
46B
331
376
  5
3FF
331
821
  5
BFC
331
BE9
  5
BCD
331
672
  5
BB3
331
45B
  5
B5F
331
BAA
  5
2EA
331
424
  5
819
331
3E5
  5
467
331
372
  5
3FB
331
2FC
  5
36C
331
420
  5
534
331
3E1
  5
461
331
3AD
  5
438
331
36E
  5
3EB
331
337
  5
3A7
331
2F8
  5
368
331
DC
  5
107
331
3A9
  5
434
331
36A
  5
3E7
331
333
  5
3A3
331
2F4
  5
364
331
117
  5
158
331
D8
  5
103
331
2F0
  5
360
331
113
  5
148
331
D4
  5
FF
331
286
  5
2F6
331
D0
  5
FB
331
282
  5
2F2
331
1CC
  5
1F9
331
2BD
  5
32D
331
207
  5
234
331
1C8
  5
1F5
331
2B9
  5
329
331
203
  5
230
331
1C4
  5
1F1
331
1C0
  5
1ED
331
9B
  5
D2
331
B6D
  5
2AD
331
81D
  5
BF8
331
BE5
  5
BD1
331
49E
  5
BB1
331
457
  5
B5B
331
BA6
  5
2E6
331
819
  5
BF4
331
C18
  5
9B
331
BE1
  5
BD5
331
49A
  5
BAD
331
453
  5
B57
331
BA2
  5
2E2
331
41C
  5
530
331
BDD
  5
BD9
331
C14
  5
AD
331
496
  5
BA9
331
418
  5
49F
331
B9E
  5
2DE
331
3D9
  5
45D
331
3A5
  5
42F
331
366
  5
3E3
331
32F
  5
39F
331
BD9
  5
BDD
331
6A1
  5
69D
331
C10
  5
B7
331
492
  5
BA5
331
44B
  5
B50
331
B9A
  5
2DA
331
414
  5
49B
331
3D5
  5
458
331
3A1
  5
42B
331
362
  5
3DF
331
32B
  5
39B
331
2EC
  5
35C
331
10F
  5
13E
331
410
  5
495
331
3D1
  5
454
331
39D
  5
427
331
35E
  5
3D7
331
327
  5
397
331
2E8
  5
358
331
10B
  5
136
331
CC
  5
F7
331
399
  5
423
331
35A
  5
3D3
331
323
  5
393
331
2E4
  5
354
331
13E
  5
1C0
331
107
  5
132
331
C8
  5
F3
331
2E0
  5
350
331
103
  5
12E
331
C4
  5
EF
331
2B5
  5
325
331
C0
  5
EB
331
236
  5
2A9
331
1FF
  5
22C
331
2B1
  5
321
331
232
  5
2A5
331
1FB
  5
228
331
2AD
  5
31D
331
22E
  5
2A1
331
1F7
  5
224
331
1B8
  5
1E6
331
8B
  5
CF
331
2A9
  5
319
331
22A
  5
29D
331
1F3
  5
220
331
1B4
  5
1E2
331
1B0
  5
1DE
331
BD5
  5
BE1
331
C0C
  5
B9
331
447
  5
9BA
331
B96
  5
2D6
331
BD1
  5
BE5
331
699
  5
68C
331
C08
  5
C3
331
443
  5
9B7
331
B92
  5
2D2
331
40C
  5
491
331
3CD
  5
451
331
9BC
  5
C18
331
BCD
  5
BE9
331
695
  5
67D
331
C04
  5
C9
331
47E
  5
BA0
331
43F
  5
9B3
331
B8E
  5
2CE
331
408
  5
47E
331
395
  5
41E
331
356
  5
3CF
331
31F
  5
38F
331
9B8
  5
C14
331
C00
  5
BB8
331
BC9
  5
BED
331
691
  5
679
331
47A
  5
B7E
331
43B
  5
9AF
331
B8A
  5
2CA
331
404
  5
47A
331
391
  5
41A
331
352
  5
3C2
331
31B
  5
38B
331
2DC
  5
34C
331
136
  5
1B9
331
FF
  5
12A
331
400
  5
476
331
3C1
  5
44C
331
38D
  5
416
331
34E
  5
3BE
331
317
  5
387
331
2D8
  5
348
331
132
  5
1B5
331
FB
  5
126
331
389
  5
412
331
34A
  5
3BA
331
313
  5
383
331
2D4
  5
344
331
12E
  5
1B1
331
F7
  5
122
331
B8
  5
E6
331
2D0
  5
340
331
12A
  5
1A7
331
F3
  5
11E
331
B4
  5
E2
331
2A5
  5
315
331
B0
  5
DE
331
226
  5
299
331
1EF
  5
21C
331
2A1
  5
311
331
222
  5
295
331
1EB
  5
218
331
29D
  5
30D
331
21E
  5
291
331
1E7
  5
214
331
1A8
  5
1DC
331
299
  5
309
331
21A
  5
28D
331
1E3
  5
210
331
68C
  5
674
331
1A0
  5
1DA
331
688
  5
BF3
331
9B4
  5
C10
331
BFC
  5
BBC
331
476
  5
B7A
331
437
  5
82C
331
B86
  5
2C6
331
9B0
  5
C0C
331
BF8
  5
BC0
331
472
  5
B76
331
433
  5
828
331
B82
  5
2C2
331
3FC
  5
472
331
3BD
  5
448
331
BF4
  5
BC4
331
46E
  5
B72
331
BBD
  5
B4
331
42F
  5
824
331
B7E
  5
2BE
331
3B9
  5
444
331
346
  5
3B6
331
30F
  5
37F
331
385
  5
40E
331
BF0
  5
BC8
331
46A
  5
B6E
331
42B
  5
820
331
B7A
  5
2BA
331
3B5
  5
440
331
381
  5
40A
331
342
  5
3B2
331
30B
  5
37B
331
126
  5
197
331
EF
  5
11A
331
2CC
  5
33C
331
3B1
  5
43C
331
37D
  5
406
331
33E
  5
3AE
331
307
  5
377
331
2C8
  5
338
331
122
  5
187
331
EB
  5
116
331
379
  5
402
331
33A
  5
3AA
331
303
  5
373
331
2C4
  5
334
331
11E
  5
177
331
E7
  5
112
331
2C0
  5
330
331
11A
  5
167
331
E3
  5
10E
331
295
  5
305
331
216
  5
289
331
1DF
  5
20C
331
291
  5
301
331
212
  5
285
331
1DB
  5
208
331
28D
  5
2FD
331
20E
  5
281
331
1D7
  5
204
331
198
  5
1D8
331
289
  5
2F9
331
20A
  5
237
331
1D3
  5
200
331
190
  5
1D6
331
B74
  5
2B4
331
B70
  5
2B0
331
82C
  5
C07
331
466
  5
B6A
331
BB5
  5
D5
331
828
  5
C03
331
462
  5
B66
331
BB1
  5
1BD
331
824
  5
BFF
331
BEC
  5
BCC
331
45E
  5
B62
331
BAD
  5
2ED
331
427
  5
81C
331
3E8
  5
46A
331
375
  5
3FE
331
2FF
  5
36F
331
820
  5
BFB
331
BE8
  5
BD0
331
45A
  5
B5E
331
BA9
  5
2E9
331
423
  5
6A2
331
3E4
  5
466
331
371
  5
3F5
331
2FB
  5
36B
331
DF
  5
10A
331
3E0
  5
460
331
3AC
  5
437
331
36D
  5
3EA
331
336
  5
3A6
331
2F7
  5
367
331
DB
  5
106
331
3A8
  5
432
331
369
  5
3E6
331
332
  5
3A2
331
2F3
  5
363
331
116
  5
157
331
D7
  5
102
331
188
  5
1D4
331
112
  5
147
331
D3
  5
FE
331
285
  5
2F5
331
1CF
  5
1FC
331
281
  5
2F1
331
1CB
  5
1F8
331
2BC
  5
32C
331
206
  5
233
331
1C7
  5
1F4
331
2B8
  5
328
331
239
  5
2AC
331
202
  5
22F
331
1C3
  5
1F0
331
9A
  5
D1
331
81C
  5
BF7
331
BE4
  5
BD4
331
49D
  5
BB0
331
456
  5
B5A
331
BA5
  5
2E5
331
41F
  5
533
331
BE0
  5
BD8
331
C17
  5
9A
331
499
  5
BAC
331
452
  5
B56
331
BA1
  5
2E1
331
41B
  5
52F
331
C13
  5
A7
331
495
  5
BA8
331
44E
  5
B53
331
B9D
  5
2DD
331
417
  5
49E
331
3D8
  5
45C
331
3A4
  5
42E
331
365
  5
3E2
331
32E
  5
39E
331
2EF
  5
35F
331
BD8
  5
BE0
331
491
  5
BA4
331
44A
  5
B4F
331
B99
  5
2D9
331
413
  5
49A
331
3D4
  5
457
331
3A0
  5
42A
331
361
  5
3DA
331
32A
  5
39A
331
2EB
  5
35B
331
10E
  5
13D
331
CF
  5
FA
331
3D0
  5
453
331
39C
  5
426
331
35D
  5
3D6
331
326
  5
396
331
2E7
  5
357
331
180
  5
1D2
331
10A
  5
135
331
CB
  5
F6
331
398
  5
422
331
359
  5
3D2
331
322
  5
392
331
2E3
  5
353
331
13D
  5
1BF
331
106
  5
131
331
C7
  5
F2
331
178
  5
1D0
331
102
  5
12D
331
C3
  5
EE
331
2B4
  5
324
331
235
  5
2A8
331
1FE
  5
22B
331
1BF
  5
1EC
331
2B0
  5
320
331
231
  5
2A4
331
1FA
  5
227
331
1BB
  5
1E9
331
2AC
  5
31C
331
22D
  5
2A0
331
1F6
  5
223
331
1B7
  5
1E5
331
8A
  5
CE
331
2A8
  5
318
331
229
  5
29C
331
1F2
  5
21F
331
1B3
  5
1E1
331
C0F
  5
B6
331
BD4
  5
BE4
331
C0B
  5
BF
331
40F
  5
494
331
B95
  5
2D5
331
BD0
  5
BE8
331
698
  5
689
331
C07
  5
C8
331
481
  5
BA3
331
442
  5
9B6
331
B91
  5
2D1
331
40B
  5
481
331
9BB
  5
C17
331
C03
  5
BB7
331
BCC
  5
BEC
331
694
  5
67C
331
47D
  5
B81
331
43E
  5
9B2
331
B8D
  5
2CD
331
407
  5
47D
331
3C8
  5
44F
331
394
  5
41D
331
355
  5
3CD
331
31E
  5
38E
331
2DF
  5
34F
331
BC8
  5
BF0
331
690
  5
678
331
479
  5
B7D
331
43A
  5
9AE
331
B89
  5
2C9
331
403
  5
479
331
390
  5
419
331
351
  5
3C1
331
31A
  5
38A
331
2DB
  5
34B
331
135
  5
1B8
331
FE
  5
129
331
BF
  5
EA
331
3C0
  5
44B
331
38C
  5
415
331
34D
  5
3BD
331
316
  5
386
331
2D7
  5
347
331
170
  5
1CE
331
131
  5
1B4
331
FA
  5
125
331
BB
  5
E9
331
388
  5
411
331
349
  5
3B9
331
312
  5
382
331
2D3
  5
343
331
12D
  5
1B0
331
F6
  5
121
331
B7
  5
E5
331
168
  5
1CC
331
129
  5
1A0
331
F2
  5
11D
331
B3
  5
E1
331
2A4
  5
314
331
225
  5
298
331
1EE
  5
21B
331
1AF
  5
1DD
331
2A0
  5
310
331
221
  5
294
331
1EA
  5
217
331
29C
  5
30C
331
21D
  5
290
331
1E6
  5
213
331
1A7
  5
1DB
331
298
  5
308
331
219
  5
28C
331
68F
  5
677
331
1E2
  5
20F
331
9B7
  5
C13
331
BFF
  5
BBB
331
9B3
  5
C0F
331
684
  5
BF1
331
BFB
  5
BBF
331
475
  5
B79
331
436
  5
82B
331
B85
  5
2C5
331
3FF
  5
475
331
BC4
  5
88
331
9AF
  5
C0B
331
BF7
  5
BC3
331
471
  5
B75
331
432
  5
827
331
B81
  5
2C1
331
3FB
  5
471
331
3BC
  5
447
331
BF3
  5
BC7
331
46D
  5
B71
331
BBC
  5
B3
331
42E
  5
823
331
B7D
  5
2BD
331
3B8
  5
443
331
345
  5
3B5
331
30E
  5
37E
331
2CF
  5
33F
331
384
  5
40D
331
469
  5
B6D
331
BB8
  5
C2
331
42A
  5
81F
331
B79
  5
2B9
331
3B4
  5
43F
331
380
  5
409
331
341
  5
3B1
331
30A
  5
37A
331
2CB
  5
33B
331
125
  5
190
331
EE
  5
119
331
AF
  5
DD
331
3B0
  5
43B
331
37C
  5
405
331
33D
  5
3AD
331
306
  5
376
331
2C7
  5
337
331
160
  5
1CA
331
121
  5
180
331
EA
  5
115
331
378
  5
401
331
339
  5
3A9
331
302
  5
372
331
2C3
  5
333
331
11D
  5
170
331
E6
  5
111
331
A7
  5
D8
331
158
  5
1C8
331
119
  5
160
331
E2
  5
10D
331
294
  5
304
331
215
  5
288
331
1DE
  5
20B
331
19F
  5
1D9
331
290
  5
300
331
211
  5
284
331
1DA
  5
207
331
87
  5
CB
331
28C
  5
2FC
331
20D
  5
280
331
1D6
  5
203
331
197
  5
1D7
331
288
  5
2F8
331
209
  5
236
331
1D2
  5
1FF
331
B77
  5
2B7
331
B73
  5
2B3
331
82B
  5
C06
331
465
  5
B69
331
BB4
  5
D4
331
3EF
  5
46F
331
827
  5
C02
331
BEF
  5
BCB
331
461
  5
B65
331
BB0
  5
1BB
331
3EB
  5
46D
331
823
  5
BFE
331
BEB
  5
BCF
331
45D
  5
B61
331
BAC
  5
2EC
331
426
  5
81B
331
3E7
  5
469
331
374
  5
3FD
331
2FE
  5
36E
331
459
  5
B5D
331
BA8
  5
2E8
331
422
  5
6A1
331
3E3
  5
465
331
3AF
  5
43A
331
370
  5
3EF
331
2FA
  5
36A
331
DE
  5
109
331
3AB
  5
436
331
36C
  5
3E9
331
335
  5
3A5
331
2F6
  5
366
331
18F
  5
1D5
331
150
  5
1C6
331
DA
  5
105
331
368
  5
3E5
331
331
  5
3A1
331
2F2
  5
362
331
115
  5
150
331
D6
  5
101
331
148
  5
1C4
331
111
  5
140
331
D2
  5
FD
331
284
  5
2F4
331
1CE
  5
1FB
331
2BF
  5
32F
331
280
  5
2F0
331
1CA
  5
1F7
331
2BB
  5
32B
331
205
  5
232
331
1C6
  5
1F3
331
238
  5
2AB
331
201
  5
22E
331
1C2
  5
1EF
331
B6F
  5
2AF
331
81F
  5
BFA
331
BE7
  5
BD3
331
81B
  5
BF6
331
BE3
  5
BD7
331
49C
  5
BAF
331
455
  5
B59
331
BA4
  5
2E4
331
41E
  5
532
331
3DF
  5
45F
331
BDF
  5
BDB
331
C16
  5
8C
331
498
  5
BAB
331
451
  5
B55
331
BA0
  5
2E0
331
41A
  5
52E
331
3A7
  5
431
331
BDB
  5
BDF
331
C12
  5
B2
331
494
  5
BA7
331
44D
  5
B52
331
B9C
  5
2DC
331
416
  5
49D
331
3D7
  5
45B
331
3A3
  5
42D
331
364
  5
3E1
331
32D
  5
39D
331
2EE
  5
35E
331
187
  5
1D3
331
449
  5
9BC
331
B98
  5
2D8
331
412
  5
498
331
3D3
  5
456
331
39F
  5
429
331
360
  5
3D9
331
329
  5
399
331
2EA
  5
35A
331
10D
  5
13C
331
CE
  5
F9
331
39B
  5
425
331
35C
  5
3D5
331
325
  5
395
331
2E6
  5
356
331
17F
  5
1D1
331
140
  5
1C2
331
109
  5
134
331
CA
  5
F5
331
358
  5
3D1
331
321
  5
391
331
2E2
  5
352
331
13C
  5
1BE
331
105
  5
130
331
C6
  5
F1
331
101
  5
12C
331
2B7
  5
327
331
C2
  5
ED
331
2B3
  5
323
331
234
  5
2A7
331
1FD
  5
22A
331
1BE
  5
1EB
331
2AF
  5
31F
331
230
  5
2A3
331
1F9
  5
226
331
1BA
  5
1E8
331
2AB
  5
31B
331
22C
  5
29F
331
1F5
  5
222
331
1B6
  5
1E4
331
89
  5
CD
331
228
  5
29B
331
1F1
  5
21E
331
1B2
  5
1E0
331
BD7
  5
BE3
331
C0E
  5
BB
331
BD3
  5
BE7
331
C0A
  5
C5
331
445
  5
9B9
331
B94
  5
2D4
331
40E
  5
493
331
3CF
  5
452
331
BCF
  5
BEB
331
697
  5
67F
331
C06
  5
C7
331
480
  5
BA2
331
441
  5
9B5
331
B90
  5
2D0
331
40A
  5
480
331
3CB
  5
450
331
397
  5
421
331
9BA
  5
C16
331
C02
  5
BB6
331
BCB
  5
BEF
331
693
  5
67B
331
47C
  5
B80
331
43D
  5
9B1
331
B8C
  5
2CC
331
406
  5
47C
331
393
  5
41C
331
354
  5
3CB
331
31D
  5
38D
331
2DE
  5
34E
331
177
  5
1CF
331
478
  5
B7C
331
439
  5
9AD
331
B88
  5
2C8
331
402
  5
478
331
38F
  5
418
331
350
  5
3C0
331
319
  5
389
331
2DA
  5
34A
331
134
  5
1B7
331
FD
  5
128
331
38B
  5
414
331
34C
  5
3BC
331
315
  5
385
331
2D6
  5
346
331
16F
  5
1CD
331
130
  5
1B3
331
F9
  5
124
331
BA
  5
E8
331
348
  5
3B8
331
311
  5
381
331
2D2
  5
342
331
12C
  5
1AF
331
F5
  5
120
331
B6
  5
E4
331
128
  5
19F
331
F1
  5
11C
331
2A7
  5
317
331
B2
  5
E0
331
2A3
  5
313
331
224
  5
297
331
1ED
  5
21A
331
29F
  5
30F
331
220
  5
293
331
1E9
  5
216
331
29B
  5
30B
331
21C
  5
28F
331
1E5
  5
212
331
218
  5
28B
331
68E
  5
676
331
1E1
  5
20E
331
9B6
  5
C12
331
687
  5
BF2
331
BFE
  5
BBA
331
9B2
  5
C0E
331
BFA
  5
BBE
331
474
  5
B78
331
435
  5
82A
331
B84
  5
2C4
331
3FE
  5
474
331
3BF
  5
44A
331
BC3
  5
87
331
9AE
  5
C0A
331
BF6
  5
BC2
331
470
  5
B74
331
431
  5
826
331
B80
  5
2C0
331
3BB
  5
446
331
387
  5
410
331
BF2
  5
BC6
331
46C
  5
B70
331
42D
  5
822
331
B7C
  5
2BC
331
3B7
  5
442
331
383
  5
40C
331
344
  5
3B4
331
30D
  5
37D
331
2CE
  5
33E
331
167
  5
1CB
331
468
  5
B6C
331
429
  5
81E
331
B78
  5
2B8
331
3B3
  5
43E
331
37F
  5
408
331
340
  5
3B0
331
309
  5
379
331
2CA
  5
33A
331
124
  5
18F
331
ED
  5
118
331
AE
  5
DC
331
37B
  5
404
331
33C
  5
3AC
331
305
  5
375
331
2C6
  5
336
331
15F
  5
1C9
331
120
  5
17F
331
E9
  5
114
331
338
  5
3A8
331
301
  5
371
331
2C2
  5
332
331
11C
  5
16F
331
E5
  5
110
331
A6
  5
D7
331
118
  5
15F
331
297
  5
307
331
E1
  5
10C
331
293
  5
303
331
214
  5
287
331
1DD
  5
20A
331
28F
  5
2FF
331
210
  5
283
331
1D9
  5
206
331
86
  5
CA
331
28B
  5
2FB
331
20C
  5
239
331
1D5
  5
202
331
208
  5
235
331
1D1
  5
1FE
331
B76
  5
2B6
331
B72
  5
2B2
331
BB7
  5
C1
331
82A
  5
C05
331
464
  5
B68
331
BB3
  5
DA
331
826
  5
C01
331
BEE
  5
BCA
331
460
  5
B64
331
BAF
  5
2EF
331
3EA
  5
46C
331
377
  5
400
331
822
  5
BFD
331
BEA
  5
BCE
331
673
  5
BB4
331
45C
  5
B60
331
BAB
  5
2EB
331
425
  5
81A
331
3E6
  5
468
331
373
  5
3FC
331
2FD
  5
36D
331
157
  5
1C7
331
458
  5
B5C
331
421
  5
672
331
3E2
  5
464
331
3AE
  5
439
331
36F
  5
3ED
331
2F9
  5
369
331
DD
  5
108
331
3AA
  5
435
331
36B
  5
3E8
331
334
  5
3A4
331
2F5
  5
365
331
14F
  5
1C5
331
D9
  5
104
331
330
  5
3A0
331
2F1
  5
361
331
114
  5
14F
331
D5
  5
100
331
110
  5
13F
331
287
  5
2F7
331
D1
  5
FC
331
283
  5
2F3
331
1CD
  5
1FA
331
2BE
  5
32E
331
1C9
  5
1F6
331
2BA
  5
32A
331
204
  5
231
331
1C5
  5
1F2
331
200
  5
22D
331
1C1
  5
1EE
331
9C
  5
D3
331
B6E
  5
2AE
331
81E
  5
BF9
331
BE6
  5
BD2
331
49F
  5
BB2
331
BA7
  5
2E7
331
81A
  5
BF5
331
BE2
  5
BD6
331
49B
  5
BAE
331
454
  5
B58
331
BA3
  5
2E3
331
41D
  5
531
331
BDE
  5
BDA
331
C15
  5
AE
331
497
  5
BAA
331
450
  5
B54
331
B9F
  5
2DF
331
419
  5
52D
331
3DA
  5
45E
331
3A6
  5
430
331
367
  5
3E4
331
BDA
  5
BDE
331
C11
  5
B8
331
493
  5
BA6
331
44C
  5
B51
331
B9B
  5
2DB
331
415
  5
49C
331
3D6
  5
45A
331
3A2
  5
42C
331
363
  5
3E0
331
32C
  5
39C
331
2ED
  5
35D
331
147
  5
1C3
331
448
  5
9BB
331
411
  5
496
331
3D2
  5
455
331
39E
  5
428
331
35F
  5
3D8
331
328
  5
398
331
2E9
  5
359
331
10C
  5
137
331
CD
  5
F8
331
39A
  5
424
331
35B
  5
3D4
331
324
  5
394
331
2E5
  5
355
331
13F
  5
1C1
331
108
  5
133
331
C9
  5
F4
331
320
  5
390
331
2E1
  5
351
331
104
  5
12F
331
C5
  5
F0
331
100
  5
12B
331
2B6
  5
326
331
C1
  5
EC
331
237
  5
2AA
331
2B2
  5
322
331
233
  5
2A6
331
1FC
  5
229
331
1BD
  5
1EA
331
2AE
  5
31E
331
22F
  5
2A2
331
1F8
  5
225
331
1B9
  5
1E7
331
8C
  5
D0
331
2AA
  5
31A
331
22B
  5
29E
331
1F4
  5
221
331
1B5
  5
1E3
331
88
  5
CC
331
1F0
  5
21D
331
1B1
  5
1DF
331
BD6
  5
BE2
331
C0D
  5
BA
331
B97
  5
2D7
331
BD2
  5
BE6
331
C09
  5
C4
331
444
  5
9B8
331
B93
  5
2D3
331
40D
  5
492
331
BCE
  5
BEA
331
696
  5
67E
331
C05
  5
C6
331
47F
  5
BA1
331
440
  5
9B4
331
B8F
  5
2CF
331
409
  5
47F
331
396
  5
420
331
357
  5
3D0
331
9B9
  5
C15
331
C01
  5
BB5
331
BCA
  5
BEE
331
692
  5
67A
331
47B
  5
B7F
331
43C
  5
9B0
331
B8B
  5
2CB
331
405
  5
47B
331
392
  5
41B
331
353
  5
3C8
331
31C
  5
38C
331
2DD
  5
34D
331
137
  5
1BA
331
438
  5
82D
331
401
  5
477
331
3C2
  5
44E
331
38E
  5
417
331
34F
  5
3BF
331
318
  5
388
331
2D9
  5
349
331
133
  5
1B6
331
FC
  5
127
331
38A
  5
413
331
34B
  5
3BB
331
314
  5
384
331
2D5
  5
345
331
12F
  5
1B2
331
F8
  5
123
331
B9
  5
E7
331
310
  5
380
331
2D1
  5
341
331
12B
  5
1A8
331
F4
  5
11F
331
B5
  5
E3
331
F0
  5
11B
331
2A6
  5
316
331
B1
  5
DF
331
227
  5
29A
331
2A2
  5
312
331
223
  5
296
331
1EC
  5
219
331
29E
  5
30E
331
21F
  5
292
331
1E8
  5
215
331
29A
  5
30A
331
21B
  5
28E
331
1E4
  5
211
331
68D
  5
675
331
1E0
  5
20D
331
689
  5
673
  0
XRECORD
  5
C1E
102
{ACAD_REACTORS
330
C1C
102
}
330
C1C
100
AcDbXrecord
280
     1
 70
     2
  0
XRECORD
  5
C1D
102
{ACAD_REACTORS
330
C1C
102
}
330
C1C
100
AcDbXrecord
280
     1
 40
1.25
  0
XRECORD
  5
C1F
102
{ACAD_REACTORS
330
C1C
102
}
330
C1C
100
AcDbXrecord
280
     1
 40
1.570796326794896
  0
LAYOUT
  5
39
102
{ACAD_XDICTIONARY
360
C43
102
}
102
{ACAD_REACTORS
330
2E
102
}
330
2E
100
AcDbPlotSettings
  1

  2
none_device
  4
Letter_(8.50_x_11.00_Inches)
  6

 40
6.349999904632567
 41
6.349999904632567
 42
6.350006103515625
 43
6.350006103515625
 44
215.8999938964844
 45
279.3999938964844
 46
0.0
 47
0.0
 48
0.0
 49
0.0
140
0.0
141
0.0
142
1.0
143
90.04561625843818
 70
 11952
 72
     0
 73
     1
 74
     0
  7

 75
     0
147
0.0111054823272009
148
6804.227354426074
149
4635.057116440292
100
AcDbLayout
  1
Model
 70
     1
 71
     0
 10
0.0
 20
0.0
 11
12.0
 21
9.0
 12
0.0
 22
0.0
 32
0.0
 14
0.0
 24
0.0
 34
0.0
 15
0.0
 25
0.0
 35
0.0
146
0.0
 13
0.0
 23
0.0
 33
0.0
 16
1.0
 26
0.0
 36
0.0
 17
0.0
 27
1.0
 37
0.0
 76
     0
330
36
331
56
1001
ACAD_PSEXT
1000
なし
1000
なし
1000
適切ではありません
1000
新しいプロッタ環境設定名を選択しない限り、レイアウトは印刷されません。
1070
     0
  0
LAYOUT
  5
35
102
{ACAD_XDICTIONARY
360
C41
102
}
102
{ACAD_REACTORS
330
2E
102
}
330
2E
100
AcDbPlotSettings
  1

  2
DocuPrint 305
  4

  6

 40
0.0
 41
0.0
 42
0.0
 43
0.0
 44
0.0
 45
0.0
 46
0.0
 47
0.0
 48
0.0
 49
0.0
140
0.0
141
0.0
142
1.0
143
1.0
 70
   688
 72
     0
 73
     0
 74
     5
  7

 75
    16
147
1.0
148
0.0
149
0.0
100
AcDbLayout
  1
レイアウト1
 70
     1
 71
     1
 10
0.0
 20
0.0
 11
12.0
 21
9.0
 12
0.0
 22
0.0
 32
0.0
 14
1.000000000000000E+20
 24
1.000000000000000E+20
 34
1.000000000000000E+20
 15
-1.000000000000000E+20
 25
-1.000000000000000E+20
 35
-1.000000000000000E+20
146
0.0
 13
0.0
 23
0.0
 33
0.0
 16
1.0
 26
0.0
 36
0.0
 17
0.0
 27
1.0
 37
0.0
 76
     0
330
32
  0
MATERIAL
  5
12
102
{ACAD_XDICTIONARY
360
6AD
102
}
102
{ACAD_REACTORS
330
10
102
}
330
10
100
AcDbMaterial
  1
ByBlock
  0
MATERIAL
  5
11
102
{ACAD_XDICTIONARY
360
6AB
102
}
102
{ACAD_REACTORS
330
10
102
}
330
10
100
AcDbMaterial
  1
ByLayer
  0
MATERIAL
  5
13
102
{ACAD_XDICTIONARY
360
6AF
102
}
102
{ACAD_REACTORS
330
10
102
}
330
10
100
AcDbMaterial
  1
Global
  0
MLEADERSTYLE
  5
736
102
{ACAD_REACTORS
330
735
102
}
330
735
100
AcDbMLeaderStyle
170
     2
171
     1
172
     0
 90
        2
 40
0.0
 41
0.0
173
     1
 91
-1056964608
340
28
 92
       -2
290
     1
 42
0.09
291
     1
 43
0.36
  3
Standard
 44
0.18
300

342
26
174
     1
178
     6
175
     1
176
     0
 93
-1056964608
 45
0.18
292
     0
297
     0
 46
0.18
 94
-1056964608
 47
1.0
 49
1.0
140
1.0
293
     1
141
0.0
294
     1
177
     0
142
1.0
295
     0
296
     0
143
0.125
1001
ACAD_MLEADERVER
1070
     2
  0
MLINESTYLE
  5
2C
102
{ACAD_REACTORS
330
2B
102
}
330
2B
100
AcDbMlineStyle
  2
STANDARD
 70
     0
  3

 62
   256
 51
90.0
 52
90.0
 71
     2
 49
0.5
 62
   256
  6
BYLAYER
 49
-0.5
 62
   256
  6
BYLAYER
  0
ACDBPLACEHOLDER
  5
F
102
{ACAD_REACTORS
330
E
102
}
330
E
  0
SCALE
  5
724
102
{ACAD_REACTORS
330
723
102
}
330
723
100
AcDbScale
 70
     0
300
1:1
140
1.0
141
1.0
290
     1
  0
SCALE
  5
725
102
{ACAD_REACTORS
330
723
102
}
330
723
100
AcDbScale
 70
     0
300
1/128" = 1'-0"
140
0.0078125
141
12.0
290
     0
  0
SCALE
  5
726
102
{ACAD_REACTORS
330
723
102
}
330
723
100
AcDbScale
 70
     0
300
1/64" = 1'-0"
140
0.015625
141
12.0
290
     0
  0
SCALE
  5
727
102
{ACAD_REACTORS
330
723
102
}
330
723
100
AcDbScale
 70
     0
300
1/32" = 1'-0"
140
0.03125
141
12.0
290
     0
  0
SCALE
  5
728
102
{ACAD_REACTORS
330
723
102
}
330
723
100
AcDbScale
 70
     0
300
1/16" = 1'-0"
140
0.0625
141
12.0
290
     0
  0
SCALE
  5
729
102
{ACAD_REACTORS
330
723
102
}
330
723
100
AcDbScale
 70
     0
300
3/32" = 1'-0"
140
0.09375
141
12.0
290
     0
  0
SCALE
  5
72A
102
{ACAD_REACTORS
330
723
102
}
330
723
100
AcDbScale
 70
     0
300
1/8" = 1'-0"
140
0.125
141
12.0
290
     0
  0
SCALE
  5
72B
102
{ACAD_REACTORS
330
723
102
}
330
723
100
AcDbScale
 70
     0
300
3/16" = 1'-0"
140
0.1875
141
12.0
290
     0
  0
SCALE
  5
72C
102
{ACAD_REACTORS
330
723
102
}
330
723
100
AcDbScale
 70
     0
300
1/4" = 1'-0"
140
0.25
141
12.0
290
     0
  0
SCALE
  5
72D
102
{ACAD_REACTORS
330
723
102
}
330
723
100
AcDbScale
 70
     0
300
3/8" = 1'-0"
140
0.375
141
12.0
290
     0
  0
SCALE
  5
72E
102
{ACAD_REACTORS
330
723
102
}
330
723
100
AcDbScale
 70
     0
300
1/2" = 1'-0"
140
0.5
141
12.0
290
     0
  0
SCALE
  5
72F
102
{ACAD_REACTORS
330
723
102
}
330
723
100
AcDbScale
 70
     0
300
3/4" = 1'-0"
140
0.75
141
12.0
290
     0
  0
SCALE
  5
730
102
{ACAD_REACTORS
330
723
102
}
330
723
100
AcDbScale
 70
     0
300
1" = 1'-0"
140
1.0
141
12.0
290
     0
  0
SCALE
  5
731
102
{ACAD_REACTORS
330
723
102
}
330
723
100
AcDbScale
 70
     0
300
1-1/2" = 1'-0"
140
1.5
141
12.0
290
     0
  0
SCALE
  5
732
102
{ACAD_REACTORS
330
723
102
}
330
723
100
AcDbScale
 70
     0
300
3" = 1'-0"
140
3.0
141
12.0
290
     0
  0
SCALE
  5
733
102
{ACAD_REACTORS
330
723
102
}
330
723
100
AcDbScale
 70
     0
300
6" = 1'-0"
140
6.0
141
12.0
290
     0
  0
SCALE
  5
734
102
{ACAD_REACTORS
330
723
102
}
330
723
100
AcDbScale
 70
     0
300
1'-0" = 1'-0"
140
12.0
141
12.0
290
     0
  0
TABLESTYLE
  5
31
102
{ACAD_XDICTIONARY
360
94B
102
}
102
{ACAD_REACTORS
330
30
102
}
330
30
100
AcDbTableStyle
  3
Standard
 70
     0
 71
     0
 40
0.06
 41
0.06
280
     0
281
     0
  7
STANDARD
140
0.18
170
     2
 62
     0
 63
     7
283
     0
274
    -2
284
     1
 64
     0
275
    -2
285
     1
 65
     0
276
    -2
286
     1
 66
     0
277
    -2
287
     1
 67
     0
278
    -2
288
     1
 68
     0
279
    -2
289
     1
 69
     0
  7
STANDARD
140
0.25
170
     5
 62
     0
 63
     7
283
     0
274
    -2
284
     1
 64
     0
275
    -2
285
     1
 65
     0
276
    -2
286
     1
 66
     0
277
    -2
287
     1
 67
     0
278
    -2
288
     1
 68
     0
279
    -2
289
     1
 69
     0
  7
STANDARD
140
0.18
170
     5
 62
     0
 63
     7
283
     0
274
    -2
284
     1
 64
     0
275
    -2
285
     1
 65
     0
276
    -2
286
     1
 66
     0
277
    -2
287
     1
 67
     0
278
    -2
288
     1
 68
     0
279
    -2
289
     1
 69
     0
  0
VISUALSTYLE
  5
1A
102
{ACAD_XDICTIONARY
360
C2A
102
}
102
{ACAD_REACTORS
330
14
102
}
330
14
100
AcDbVisualStyle
  2

 70
     4
 71
     0
 72
     2
 73
     0
 90
        0
 40
-0.6
 41
-30.0
 62
     5
 63
     7
 74
     1
 91
        4
 64
     7
 65
   257
 75
     1
175
     1
 42
1.0
 92
        0
 66
   257
 43
1.0
 76
     1
 77
     6
 78
     2
 67
     7
 79
     5
170
     0
171
     0
290
     0
174
     0
 93
        1
 44
0.0
173
     0
291
     0
 45
0.0
1001
ACAD
1000
AcDbSavedByObjectVersion
1070
     0
  0
VISUALSTYLE
  5
1C
102
{ACAD_XDICTIONARY
360
C2E
102
}
102
{ACAD_REACTORS
330
14
102
}
330
14
100
AcDbVisualStyle
  2

 70
     6
 71
     1
 72
     2
 73
     2
 90
        0
 40
-0.6
 41
-30.0
 62
     5
 63
     7
 74
     2
 91
        2
 64
     7
 65
   257
 75
     2
175
     1
 42
40.0
 92
        0
 66
   257
 43
1.0
 76
     1
 77
     6
 78
     2
 67
     7
 79
     3
170
     0
171
     0
290
     0
174
     0
 93
        1
 44
0.0
173
     0
291
     0
 45
0.0
1001
ACAD
1000
AcDbSavedByObjectVersion
1070
     0
  0
VISUALSTYLE
  5
1B
102
{ACAD_XDICTIONARY
360
C2C
102
}
102
{ACAD_REACTORS
330
14
102
}
330
14
100
AcDbVisualStyle
  2

 70
     5
 71
     0
 72
     2
 73
     0
 90
        0
 40
-0.6
 41
-30.0
 62
     5
 63
     7
 74
     1
 91
        4
 64
     7
 65
   257
 75
     1
175
     1
 42
1.0
 92
        0
 66
   257
 43
1.0
 76
     1
 77
     6
 78
     2
 67
     7
 79
     5
170
     0
171
     0
290
     0
174
     0
 93
        1
 44
0.0
173
     0
291
     0
 45
0.0
1001
ACAD
1000
AcDbSavedByObjectVersion
1070
     0
  0
VISUALSTYLE
  5
19
102
{ACAD_XDICTIONARY
360
C28
102
}
102
{ACAD_REACTORS
330
14
102
}
330
14
100
AcDbVisualStyle
  2

 70
     7
 71
     1
 72
     0
 73
     1
 90
        0
 40
-0.6
 41
-30.0
 62
     5
 63
     7
 74
     0
 91
        4
 64
     7
 65
   257
 75
     1
175
     1
 42
1.0
 92
        8
 66
     7
 43
1.0
 76
     1
 77
     6
 78
     2
 67
     7
 79
     5
170
     0
171
     0
290
     0
174
     0
 93
        1
 44
0.0
173
     0
291
     1
 45
0.0
1001
ACAD
1000
AcDbSavedByObjectVersion
1070
     0
  0
VISUALSTYLE
  5
20
102
{ACAD_XDICTIONARY
360
C36
102
}
102
{ACAD_REACTORS
330
14
102
}
330
14
100
AcDbVisualStyle
  2

 70
    12
 71
     2
 72
     2
 73
     0
 90
        0
 40
-0.6
 41
-30.0
 62
     5
 63
     7
 74
     1
 91
        4
 64
     7
 65
   257
 75
     1
175
     1
 42
1.0
 92
        8
 66
     7
 43
1.0
 76
     1
 77
     6
 78
     2
 67
     7
 79
     5
170
     0
171
     0
290
     0
174
     0
 93
        1
 44
50.0
173
     0
291
     1
 45
0.0
1001
ACAD
1000
AcDbSavedByObjectVersion
1070
     0
  0
VISUALSTYLE
  5
24
102
{ACAD_XDICTIONARY
360
C3E
102
}
102
{ACAD_REACTORS
330
14
102
}
330
14
100
AcDbVisualStyle
  2

 70
    16
 71
     2
 72
     2
 73
     3
 90
        0
 40
-0.6
 41
-30.0
 62
     5
 63
     8
 74
     1
 91
        4
 64
     7
 65
   257
 75
     1
175
     1
 42
1.0
 92
        8
 66
     8
 43
1.0
 76
     1
 77
     6
 78
     2
 67
     7
 79
     5
170
     0
171
     0
290
     0
174
     0
 93
        1
 44
0.0
173
     0
291
     1
 45
0.0
1001
ACAD
1000
AcDbSavedByObjectVersion
1070
     0
  0
VISUALSTYLE
  5
1D
102
{ACAD_XDICTIONARY
360
C30
102
}
102
{ACAD_REACTORS
330
14
102
}
330
14
100
AcDbVisualStyle
  2

 70
     9
 71
     3
 72
     2
 73
     0
 90
        0
 40
-0.6
 41
-30.0
 62
     5
 63
     7
 74
     2
 91
        2
 64
     7
 65
   257
 75
     1
175
     1
 42
40.0
 92
        8
 66
     7
 43
1.0
 76
     1
 77
     6
 78
     2
 67
     7
 79
     3
170
     0
171
     0
290
     0
174
     0
 93
        1
 44
0.0
173
     0
291
     0
 45
0.0
1001
ACAD
1000
AcDbSavedByObjectVersion
1070
     0
  0
VISUALSTYLE
  5
1F
102
{ACAD_XDICTIONARY
360
C34
102
}
102
{ACAD_REACTORS
330
14
102
}
330
14
100
AcDbVisualStyle
  2

 70
    11
 71
     2
 72
     2
 73
     0
 90
        0
 40
-0.6
 41
-30.0
 62
     5
 63
     7
 74
     1
 91
        4
 64
     7
 65
   257
 75
     1
175
     1
 42
1.0
 92
        8
 66
     7
 43
1.0
 76
     1
 77
     6
 78
     2
 67
     7
 79
     5
170
     0
171
     0
290
     0
174
     0
 93
        1
 44
-50.0
173
     0
291
     1
 45
0.0
1001
ACAD
1000
AcDbSavedByObjectVersion
1070
     0
  0
VISUALSTYLE
  5
722
102
{ACAD_XDICTIONARY
360
C57
102
}
102
{ACAD_REACTORS
330
14
102
}
330
14
100
AcDbVisualStyle
  2

 70
    22
 71
     2
 72
     2
 73
     0
 90
        0
 40
-0.6
 41
-30.0
 62
     5
 63
     7
 74
     1
 91
        4
 64
     7
 65
   257
 75
     1
175
     1
 42
1.0
 92
        8
 66
     7
 43
1.0
 76
     1
 77
     6
 78
     2
 67
     7
 79
     5
170
     0
171
     0
290
     0
174
     0
 93
        1
 44
0.0
173
     0
291
     1
 45
0.0
1001
ACAD
1000
AcDbSavedByObjectVersion
1070
     0
  0
VISUALSTYLE
  5
23
102
{ACAD_XDICTIONARY
360
C3C
102
}
102
{ACAD_REACTORS
330
14
102
}
330
14
100
AcDbVisualStyle
  2

 70
    15
 71
     2
 72
     2
 73
     0
 90
        0
 40
-0.6
 41
-30.0
 62
     5
 63
     7
 74
     1
 91
        4
 64
     7
 65
   257
 75
     1
175
     1
 42
1.0
 92
        8
 66
     7
 43
1.0
 76
     1
 77
     6
 78
     2
 67
     7
 79
     5
170
     0
171
     0
290
     0
174
     0
 93
        1
 44
0.0
173
     0
291
     1
 45
0.0
1001
ACAD
1000
AcDbSavedByObjectVersion
1070
     0
  0
VISUALSTYLE
  5
15
102
{ACAD_XDICTIONARY
360
C20
102
}
102
{ACAD_REACTORS
330
14
102
}
330
14
100
AcDbVisualStyle
  2

 70
     0
 71
     2
 72
     1
 73
     1
 90
        2
 40
-0.6
 41
30.0
 62
     5
 63
     7
 74
     0
 91
        4
 64
     7
 65
   257
 75
     1
175
     1
 42
1.0
 92
        8
 66
     7
 43
1.0
 76
     1
 77
     6
 78
     2
 67
     7
 79
     5
170
     0
171
     0
290
     0
174
     0
 93
       13
 44
0.0
173
     0
291
     1
 45
0.0
1001
ACAD
1000
AcDbSavedByObjectVersion
1070
     0
  0
VISUALSTYLE
  5
16
102
{ACAD_XDICTIONARY
360
C22
102
}
102
{ACAD_REACTORS
330
14
102
}
330
14
100
AcDbVisualStyle
  2

 70
     1
 71
     2
 72
     1
 73
     1
 90
        2
 40
-0.6
 41
30.0
 62
     5
 63
     7
 74
     1
 91
        4
 64
     7
 65
   257
 75
     1
175
     1
 42
1.0
 92
        0
 66
   257
 43
1.0
 76
     1
 77
     6
 78
     2
 67
     7
 79
     5
170
     0
171
     0
290
     0
174
     0
 93
       13
 44
0.0
173
     0
291
     1
 45
0.0
1001
ACAD
1000
AcDbSavedByObjectVersion
1070
     0
  0
VISUALSTYLE
  5
17
102
{ACAD_XDICTIONARY
360
C24
102
}
102
{ACAD_REACTORS
330
14
102
}
330
14
100
AcDbVisualStyle
  2

 70
     2
 71
     2
 72
     2
 73
     1
 90
        2
 40
-0.6
 41
30.0
 62
     5
 63
     7
 74
     0
 91
        4
 64
     7
 65
   257
 75
     1
175
     1
 42
1.0
 92
        0
 66
     7
 43
1.0
 76
     1
 77
     6
 78
     2
 67
     7
 79
     5
170
     0
171
     0
290
     0
174
     0
 93
       13
 44
0.0
173
     0
291
     1
 45
0.0
1001
ACAD
1000
AcDbSavedByObjectVersion
1070
     0
  0
VISUALSTYLE
  5
18
102
{ACAD_XDICTIONARY
360
C26
102
}
102
{ACAD_REACTORS
330
14
102
}
330
14
100
AcDbVisualStyle
  2

 70
     3
 71
     2
 72
     2
 73
     1
 90
        2
 40
-0.6
 41
30.0
 62
     5
 63
     7
 74
     1
 91
        4
 64
     7
 65
   257
 75
     1
175
     1
 42
1.0
 92
        0
 66
   257
 43
1.0
 76
     1
 77
     6
 78
     2
 67
     7
 79
     5
170
     0
171
     0
290
     0
174
     0
 93
       13
 44
0.0
173
     0
291
     1
 45
0.0
1001
ACAD
1000
AcDbSavedByObjectVersion
1070
     0
  0
VISUALSTYLE
  5
71A
102
{ACAD_XDICTIONARY
360
C47
102
}
102
{ACAD_REACTORS
330
14
102
}
330
14
100
AcDbVisualStyle
  2

 70
     6
 71
     1
 72
     2
 73
     2
 90
        0
 40
-0.6
 41
-30.0
 62
     5
 63
     7
 74
     2
 91
        2
 64
     7
 65
   257
 75
     2
175
     1
 42
40.0
 92
        0
 66
   257
 43
1.0
 76
     1
 77
     6
 78
     2
 67
     7
 79
     3
170
     0
171
     0
290
     0
174
     0
 93
        1
 44
0.0
173
     0
291
     0
 45
0.0
1001
ACAD
1000
AcDbSavedByObjectVersion
1070
     0
  0
VISUALSTYLE
  5
720
102
{ACAD_XDICTIONARY
360
C53
102
}
102
{ACAD_REACTORS
330
14
102
}
330
14
100
AcDbVisualStyle
  2

 70
    20
 71
     2
 72
     2
 73
     0
 90
        0
 40
-0.6
 41
-30.0
 62
     5
 63
     7
 74
     1
 91
        4
 64
     7
 65
   257
 75
     1
175
     1
 42
1.0
 92
       10
 66
     7
 43
1.0
 76
     1
 77
     6
 78
     2
 67
     7
 79
     5
170
     0
171
     0
290
     0
174
     0
 93
        1
 44
0.0
173
     0
291
     1
 45
0.0
1001
ACAD
1000
AcDbSavedByObjectVersion
1070
     0
  0
VISUALSTYLE
  5
22
102
{ACAD_XDICTIONARY
360
C3A
102
}
102
{ACAD_REACTORS
330
14
102
}
330
14
100
AcDbVisualStyle
  2

 70
    14
 71
     2
 72
     2
 73
     0
 90
        0
 40
-0.6
 41
-30.0
 62
     5
 63
     7
 74
     1
 91
        4
 64
     7
 65
   257
 75
     7
175
     7
 42
1.0
 92
        8
 66
     7
 43
1.0
 76
     1
 77
     6
 78
     2
 67
     7
 79
     5
170
     0
171
     0
290
     0
174
     0
 93
        1
 44
0.0
173
     0
291
     1
 45
0.0
1001
ACAD
1000
AcDbSavedByObjectVersion
1070
     0
  0
VISUALSTYLE
  5
721
102
{ACAD_XDICTIONARY
360
C55
102
}
102
{ACAD_REACTORS
330
14
102
}
330
14
100
AcDbVisualStyle
  2

 70
    21
 71
     2
 72
     2
 73
     0
 90
        0
 40
-0.6
 41
-30.0
 62
     5
 63
     7
 74
     1
 91
        4
 64
     7
 65
   257
 75
     1
175
     1
 42
1.0
 92
        9
 66
     7
 43
1.0
 76
     1
 77
     6
 78
     2
 67
     7
 79
     5
170
     0
171
     0
290
     0
174
     0
 93
        1
 44
0.0
173
     0
291
     1
 45
0.0
1001
ACAD
1000
AcDbSavedByObjectVersion
1070
     0
  0
VISUALSTYLE
  5
1E
102
{ACAD_XDICTIONARY
360
C32
102
}
102
{ACAD_REACTORS
330
14
102
}
330
14
100
AcDbVisualStyle
  2

 70
     8
 71
     2
 72
     2
 73
     0
 90
        0
 40
-0.6
 41
-30.0
 62
     5
 63
     7
 74
     1
 91
        0
 64
     7
 65
   257
 75
     1
175
     1
 42
1.0
 92
        8
 66
     8
 43
1.0
 76
     1
 77
     6
 78
     2
 67
     7
 79
     5
170
     0
171
     0
290
     0
174
     0
 93
       13
 44
0.0
173
     0
291
     0
 45
0.0
1001
ACAD
1000
AcDbSavedByObjectVersion
1070
     0
  0
VISUALSTYLE
  5
71F
102
{ACAD_XDICTIONARY
360
C51
102
}
102
{ACAD_REACTORS
330
14
102
}
330
14
100
AcDbVisualStyle
  2

 70
    27
 71
     2
 72
     2
 73
     1
 90
        2
 40
-0.6
 41
30.0
 62
     5
 63
     7
 74
     0
 91
        4
 64
     7
 65
   257
 75
     1
175
     1
 42
1.0
 92
        8
 66
   257
 43
1.0
 76
     1
 77
     6
 78
     2
 67
     8
 79
     3
170
     0
171
     0
290
     0
174
     0
 93
        5
 44
0.0
173
     0
291
     0
 45
0.0
1001
ACAD
1000
AcDbSavedByObjectVersion
1070
     0
  0
VISUALSTYLE
  5
71E
102
{ACAD_XDICTIONARY
360
C4F
102
}
102
{ACAD_REACTORS
330
14
102
}
330
14
100
AcDbVisualStyle
  2

 70
    26
 71
     2
 72
     2
 73
     1
 90
        2
 40
-0.6
 41
30.0
 62
     5
 63
     7
 74
     1
 91
       10
 64
     7
 65
   257
 75
     2
175
     1
 42
1.0
 92
        8
 66
   257
 43
1.0
 76
     1
 77
     6
 78
     2
 67
     7
 79
     3
170
     0
171
     0
290
     0
174
     0
 93
        5
 44
0.0
173
     0
291
     0
 45
0.0
1001
ACAD
1000
AcDbSavedByObjectVersion
1070
     0
  0
VISUALSTYLE
  5
71B
102
{ACAD_XDICTIONARY
360
C49
102
}
102
{ACAD_REACTORS
330
14
102
}
330
14
100
AcDbVisualStyle
  2

 70
    23
 71
     2
 72
     2
 73
     3
 90
        0
 40
-0.6
 41
-30.0
 62
     5
 63
     7
 74
     2
 91
        2
 64
     7
 65
     7
 75
     1
175
     1
 42
40.0
 92
        8
 66
     7
 43
1.0
 76
     1
 77
     6
 78
     2
 67
     7
 79
     3
170
     0
171
     0
290
     0
174
     0
 93
        1
 44
0.0
173
     0
291
     0
 45
0.0
1001
ACAD
1000
AcDbSavedByObjectVersion
1070
     0
  0
VISUALSTYLE
  5
71C
102
{ACAD_XDICTIONARY
360
C4B
102
}
102
{ACAD_REACTORS
330
14
102
}
330
14
100
AcDbVisualStyle
  2

 70
    24
 71
     1
 72
     2
 73
     2
 90
        0
 40
-0.6
 41
-30.0
 62
     5
 63
     7
 74
     2
 91
        2
 64
     7
 65
     7
 75
     1
175
     1
 42
40.0
 92
       11
 66
     7
 43
1.0
 76
     1
 77
     6
 78
     2
 67
     7
 79
     6
170
     0
171
     0
290
     0
174
     0
 93
        1
 44
0.0
173
     0
291
     0
 45
0.0
1001
ACAD
1000
AcDbSavedByObjectVersion
1070
     0
  0
VISUALSTYLE
  5
21
102
{ACAD_XDICTIONARY
360
C38
102
}
102
{ACAD_REACTORS
330
14
102
}
330
14
100
AcDbVisualStyle
  2

 70
    13
 71
     2
 72
     2
 73
     0
 90
        0
 40
-0.6
 41
-30.0
 62
     5
 63
     7
 74
     1
 91
        4
 64
     7
 65
   257
 75
     1
175
     1
 42
1.0
 92
       12
 66
     7
 43
1.0
 76
     1
 77
     6
 78
     2
 67
     7
 79
     5
170
     0
171
     0
290
     0
174
     0
 93
        1
 44
0.0
173
     0
291
     1
 45
0.0
1001
ACAD
1000
AcDbSavedByObjectVersion
1070
     0
  0
VISUALSTYLE
  5
719
102
{ACAD_XDICTIONARY
360
C45
102
}
102
{ACAD_REACTORS
330
14
102
}
330
14
100
AcDbVisualStyle
  2

 70
     5
 71
     0
 72
     2
 73
     0
 90
        0
 40
-0.6
 41
-30.0
 62
     5
 63
     7
 74
     1
 91
        4
 64
     7
 65
   257
 75
     1
175
     1
 42
1.0
 92
        0
 66
   257
 43
1.0
 76
     1
 77
     6
 78
     2
 67
     7
 79
     3
170
     0
171
     0
290
     0
174
     0
 93
        1
 44
0.0
173
     0
291
     0
 45
0.0
1001
ACAD
1000
AcDbSavedByObjectVersion
1070
     0
  0
VISUALSTYLE
  5
71D
102
{ACAD_XDICTIONARY
360
C4D
102
}
102
{ACAD_REACTORS
330
14
102
}
330
14
100
AcDbVisualStyle
  2

 70
    25
 71
     2
 72
     2
 73
     1
 90
        1
 40
0.5
 41
-30.0
 62
     5
 63
     7
 74
     1
 91
        0
 64
     7
 65
   257
 75
     1
175
     1
 42
1.0
 92
        8
 66
     7
 43
1.0
 76
     1
 77
     6
 78
     2
 67
     7
 79
     3
170
     0
171
     0
290
     0
174
     0
 93
       13
 44
0.0
173
     0
291
     0
 45
0.0
1001
ACAD
1000
AcDbSavedByObjectVersion
1070
     0
  0
DICTIONARYVAR
  5
949
102
{ACAD_REACTORS
330
69F
102
}
330
69F
100
DictionaryVariables
280
     0
  1
1:1
  0
DICTIONARYVAR
  5
948
102
{ACAD_REACTORS
330
69F
102
}
330
69F
100
DictionaryVariables
280
     0
  1
STANDARD
  0
DICTIONARYVAR
  5
6A0
102
{ACAD_REACTORS
330
69F
102
}
330
69F
100
DictionaryVariables
280
     0
  1
STANDARD
  0
DICTIONARYVAR
  5
6A5
102
{ACAD_REACTORS
330
69F
102
}
330
69F
100
DictionaryVariables
280
     0
  1
1
  0
DICTIONARYVAR
  5
6A4
102
{ACAD_REACTORS
330
69F
102
}
330
69F
100
DictionaryVariables
280
     0
  1
0
  0
DICTIONARYVAR
  5
6A3
102
{ACAD_REACTORS
330
69F
102
}
330
69F
100
DictionaryVariables
280
     0
  1
127
  0
DICTIONARYVAR
  5
B0E
102
{ACAD_REACTORS
330
69F
102
}
330
69F
100
DictionaryVariables
280
     0
  1
2
  0
DICTIONARY
  5
C43
330
39
100
AcDbDictionary
280
     1
281
     1
  3
ACAD_XREC_ROUNDTRIP
360
C44
  0
DICTIONARY
  5
C41
330
35
100
AcDbDictionary
280
     1
281
     1
  3
ACAD_XREC_ROUNDTRIP
360
C42
  0
DICTIONARY
  5
6AD
330
12
100
AcDbDictionary
280
     1
281
     1
  3
ACAD_XREC_ROUNDTRIP
360
6AE
  0
DICTIONARY
  5
6AB
330
11
100
AcDbDictionary
280
     1
281
     1
  3
ACAD_XREC_ROUNDTRIP
360
6AC
  0
DICTIONARY
  5
6AF
330
13
100
AcDbDictionary
280
     1
281
     1
  3
ACAD_XREC_ROUNDTRIP
360
6B0
  0
DICTIONARY
  5
94B
330
31
100
AcDbDictionary
280
     1
281
     1
  3
ACAD_ROUNDTRIP_2008_TABLESTYLE_CELLSTYLEMAP
360
C19
  3
ACAD_XREC_ROUNDTRIP
360
C40
  0
DICTIONARY
  5
C2A
330
1A
100
AcDbDictionary
280
     1
281
     1
  3
ACAD_XREC_ROUNDTRIP
360
C2B
  0
DICTIONARY
  5
C2E
330
1C
100
AcDbDictionary
280
     1
281
     1
  3
ACAD_XREC_ROUNDTRIP
360
C2F
  0
DICTIONARY
  5
C2C
330
1B
100
AcDbDictionary
280
     1
281
     1
  3
ACAD_XREC_ROUNDTRIP
360
C2D
  0
DICTIONARY
  5
C28
330
19
100
AcDbDictionary
280
     1
281
     1
  3
ACAD_XREC_ROUNDTRIP
360
C29
  0
DICTIONARY
  5
C36
330
20
100
AcDbDictionary
280
     1
281
     1
  3
ACAD_XREC_ROUNDTRIP
360
C37
  0
DICTIONARY
  5
C3E
330
24
100
AcDbDictionary
280
     1
281
     1
  3
ACAD_XREC_ROUNDTRIP
360
C3F
  0
DICTIONARY
  5
C30
330
1D
100
AcDbDictionary
280
     1
281
     1
  3
ACAD_XREC_ROUNDTRIP
360
C31
  0
DICTIONARY
  5
C34
330
1F
100
AcDbDictionary
280
     1
281
     1
  3
ACAD_XREC_ROUNDTRIP
360
C35
  0
DICTIONARY
  5
C57
330
722
100
AcDbDictionary
280
     1
281
     1
  3
ACAD_XREC_ROUNDTRIP
360
C58
  0
DICTIONARY
  5
C3C
330
23
100
AcDbDictionary
280
     1
281
     1
  3
ACAD_XREC_ROUNDTRIP
360
C3D
  0
DICTIONARY
  5
C20
330
15
100
AcDbDictionary
280
     1
281
     1
  3
ACAD_XREC_ROUNDTRIP
360
C21
  0
DICTIONARY
  5
C22
330
16
100
AcDbDictionary
280
     1
281
     1
  3
ACAD_XREC_ROUNDTRIP
360
C23
  0
DICTIONARY
  5
C24
330
17
100
AcDbDictionary
280
     1
281
     1
  3
ACAD_XREC_ROUNDTRIP
360
C25
  0
DICTIONARY
  5
C26
330
18
100
AcDbDictionary
280
     1
281
     1
  3
ACAD_XREC_ROUNDTRIP
360
C27
  0
DICTIONARY
  5
C47
330
71A
100
AcDbDictionary
280
     1
281
     1
  3
ACAD_XREC_ROUNDTRIP
360
C48
  0
DICTIONARY
  5
C53
330
720
100
AcDbDictionary
280
     1
281
     1
  3
ACAD_XREC_ROUNDTRIP
360
C54
  0
DICTIONARY
  5
C3A
330
22
100
AcDbDictionary
280
     1
281
     1
  3
ACAD_XREC_ROUNDTRIP
360
C3B
  0
DICTIONARY
  5
C55
330
721
100
AcDbDictionary
280
     1
281
     1
  3
ACAD_XREC_ROUNDTRIP
360
C56
  0
DICTIONARY
  5
C32
330
1E
100
AcDbDictionary
280
     1
281
     1
  3
ACAD_XREC_ROUNDTRIP
360
C33
  0
DICTIONARY
  5
C51
330
71F
100
AcDbDictionary
280
     1
281
     1
  3
ACAD_XREC_ROUNDTRIP
360
C52
  0
DICTIONARY
  5
C4F
330
71E
100
AcDbDictionary
280
     1
281
     1
  3
ACAD_XREC_ROUNDTRIP
360
C50
  0
DICTIONARY
  5
C49
330
71B
100
AcDbDictionary
280
     1
281
     1
  3
ACAD_XREC_ROUNDTRIP
360
C4A
  0
DICTIONARY
  5
C4B
330
71C
100
AcDbDictionary
280
     1
281
     1
  3
ACAD_XREC_ROUNDTRIP
360
C4C
  0
DICTIONARY
  5
C38
330
21
100
AcDbDictionary
280
     1
281
     1
  3
ACAD_XREC_ROUNDTRIP
360
C39
  0
DICTIONARY
  5
C45
330
719
100
AcDbDictionary
280
     1
281
     1
  3
ACAD_XREC_ROUNDTRIP
360
C46
  0
DICTIONARY
  5
C4D
330
71D
100
AcDbDictionary
280
     1
281
     1
  3
ACAD_XREC_ROUNDTRIP
360
C4E
  0
XRECORD
  5
C44
102
{ACAD_REACTORS
330
C43
102
}
330
C43
100
AcDbXrecord
280
     1
102
SHADEPLOT
 70
     0
102
SHADEPLOTRESLEVEL
 70
     2
102
SHADEPLOTCUSTOMDPI
 70
   300
  0
XRECORD
  5
C42
102
{ACAD_REACTORS
330
C41
102
}
330
C41
100
AcDbXrecord
280
     1
102
SHADEPLOT
 70
     0
102
SHADEPLOTRESLEVEL
 70
     2
102
SHADEPLOTCUSTOMDPI
 70
   300
  0
XRECORD
  5
6AE
102
{ACAD_REACTORS
330
6AD
102
}
330
6AD
100
AcDbXrecord
280
     1
102
MATERIAL
148
0.0
149
0.0
149
0.0
 93
        0
 94
      127
282
     0
 72
     1
 77
     1
171
     1
175
     1
179
     1
273
     0
  0
XRECORD
  5
6AC
102
{ACAD_REACTORS
330
6AB
102
}
330
6AB
100
AcDbXrecord
280
     1
102
MATERIAL
148
0.0
149
0.0
149
0.0
 93
        0
 94
      127
282
     0
 72
     1
 77
     1
171
     1
175
     1
179
     1
273
     0
  0
XRECORD
  5
6B0
102
{ACAD_REACTORS
330
6AF
102
}
330
6AF
100
AcDbXrecord
280
     1
102
MATERIAL
148
0.0
149
0.0
149
0.0
 93
        0
 94
      127
282
     0
 72
     1
 77
     1
171
     1
175
     1
179
     1
273
     0
  0
CELLSTYLEMAP
  5
C19
102
{ACAD_REACTORS
330
94B
102
}
330
94B
100
AcDbCellStyleMap
 90
        3
300
CELLSTYLE
  1
TABLEFORMAT_BEGIN
 90
        5
170
     1
 91
        0
 92
    32768
 62
   257
 93
        1
300
CONTENTFORMAT
  1
CONTENTFORMAT_BEGIN
 90
        0
 91
        0
 92
      512
 93
        0
300

 40
0.0
140
1.0
 94
        5
 62
     0
340
26
144
0.25
309
CONTENTFORMAT_END
171
     1
301
MARGIN
  1
CELLMARGIN_BEGIN
 40
0.06
 40
0.06
 40
0.06
 40
0.06
 40
0.18
 40
0.18
309
CELLMARGIN_END
 94
        6
 95
        1
302
GRIDFORMAT
  1
GRIDFORMAT_BEGIN
 90
        0
 91
        1
 62
     0
 92
       -2
340
0
 93
        0
 40
0.045
309
GRIDFORMAT_END
 95
        2
302
GRIDFORMAT
  1
GRIDFORMAT_BEGIN
 90
        0
 91
        1
 62
     0
 92
       -2
340
0
 93
        0
 40
0.045
309
GRIDFORMAT_END
 95
        4
302
GRIDFORMAT
  1
GRIDFORMAT_BEGIN
 90
        0
 91
        1
 62
     0
 92
       -2
340
0
 93
        0
 40
0.045
309
GRIDFORMAT_END
 95
        8
302
GRIDFORMAT
  1
GRIDFORMAT_BEGIN
 90
        0
 91
        1
 62
     0
 92
       -2
340
0
 93
        0
 40
0.045
309
GRIDFORMAT_END
 95
       16
302
GRIDFORMAT
  1
GRIDFORMAT_BEGIN
 90
        0
 91
        1
 62
     0
 92
       -2
340
0
 93
        0
 40
0.045
309
GRIDFORMAT_END
 95
       32
302
GRIDFORMAT
  1
GRIDFORMAT_BEGIN
 90
        0
 91
        1
 62
     0
 92
       -2
340
0
 93
        0
 40
0.045
309
GRIDFORMAT_END
309
TABLEFORMAT_END
  1
CELLSTYLE_BEGIN
 90
        1
 91
        1
300
_TITLE
309
CELLSTYLE_END
300
CELLSTYLE
  1
TABLEFORMAT_BEGIN
 90
        5
170
     1
 91
        0
 92
        0
 62
   257
 93
        1
300
CONTENTFORMAT
  1
CONTENTFORMAT_BEGIN
 90
        0
 91
        0
 92
      512
 93
        0
300

 40
0.0
140
1.0
 94
        5
 62
     0
340
26
144
0.18
309
CONTENTFORMAT_END
171
     1
301
MARGIN
  1
CELLMARGIN_BEGIN
 40
0.06
 40
0.06
 40
0.06
 40
0.06
 40
0.18
 40
0.18
309
CELLMARGIN_END
 94
        6
 95
        1
302
GRIDFORMAT
  1
GRIDFORMAT_BEGIN
 90
        0
 91
        1
 62
     0
 92
       -2
340
0
 93
        0
 40
0.045
309
GRIDFORMAT_END
 95
        2
302
GRIDFORMAT
  1
GRIDFORMAT_BEGIN
 90
        0
 91
        1
 62
     0
 92
       -2
340
0
 93
        0
 40
0.045
309
GRIDFORMAT_END
 95
        4
302
GRIDFORMAT
  1
GRIDFORMAT_BEGIN
 90
        0
 91
        1
 62
     0
 92
       -2
340
0
 93
        0
 40
0.045
309
GRIDFORMAT_END
 95
        8
302
GRIDFORMAT
  1
GRIDFORMAT_BEGIN
 90
        0
 91
        1
 62
     0
 92
       -2
340
0
 93
        0
 40
0.045
309
GRIDFORMAT_END
 95
       16
302
GRIDFORMAT
  1
GRIDFORMAT_BEGIN
 90
        0
 91
        1
 62
     0
 92
       -2
340
0
 93
        0
 40
0.045
309
GRIDFORMAT_END
 95
       32
302
GRIDFORMAT
  1
GRIDFORMAT_BEGIN
 90
        0
 91
        1
 62
     0
 92
       -2
340
0
 93
        0
 40
0.045
309
GRIDFORMAT_END
309
TABLEFORMAT_END
  1
CELLSTYLE_BEGIN
 90
        2
 91
        1
300
_HEADER
309
CELLSTYLE_END
300
CELLSTYLE
  1
TABLEFORMAT_BEGIN
 90
        5
170
     1
 91
        0
 92
        0
 62
   257
 93
        1
300
CONTENTFORMAT
  1
CONTENTFORMAT_BEGIN
 90
        0
 91
        0
 92
      512
 93
        0
300

 40
0.0
140
1.0
 94
        2
 62
     0
340
26
144
0.18
309
CONTENTFORMAT_END
171
     1
301
MARGIN
  1
CELLMARGIN_BEGIN
 40
0.06
 40
0.06
 40
0.06
 40
0.06
 40
0.18
 40
0.18
309
CELLMARGIN_END
 94
        6
 95
        1
302
GRIDFORMAT
  1
GRIDFORMAT_BEGIN
 90
        0
 91
        1
 62
     0
 92
       -2
340
0
 93
        0
 40
0.045
309
GRIDFORMAT_END
 95
        2
302
GRIDFORMAT
  1
GRIDFORMAT_BEGIN
 90
        0
 91
        1
 62
     0
 92
       -2
340
0
 93
        0
 40
0.045
309
GRIDFORMAT_END
 95
        4
302
GRIDFORMAT
  1
GRIDFORMAT_BEGIN
 90
        0
 91
        1
 62
     0
 92
       -2
340
0
 93
        0
 40
0.045
309
GRIDFORMAT_END
 95
        8
302
GRIDFORMAT
  1
GRIDFORMAT_BEGIN
 90
        0
 91
        1
 62
     0
 92
       -2
340
0
 93
        0
 40
0.045
309
GRIDFORMAT_END
 95
       16
302
GRIDFORMAT
  1
GRIDFORMAT_BEGIN
 90
        0
 91
        1
 62
     0
 92
       -2
340
0
 93
        0
 40
0.045
309
GRIDFORMAT_END
 95
       32
302
GRIDFORMAT
  1
GRIDFORMAT_BEGIN
 90
        0
 91
        1
 62
     0
 92
       -2
340
0
 93
        0
 40
0.045
309
GRIDFORMAT_END
309
TABLEFORMAT_END
  1
CELLSTYLE_BEGIN
 90
        3
 91
        2
300
_DATA
309
CELLSTYLE_END
  0
XRECORD
  5
C40
102
{ACAD_REACTORS
330
94B
102
}
330
94B
100
AcDbXrecord
280
     1
102
ACAD_ROUNDTRIP_PRE2007_TABLESTYLE
 90
      512
 91
        0
  1

 92
      512
 93
        0
  2

 94
      512
 95
        0
  3

  0
XRECORD
  5
C2B
102
{ACAD_REACTORS
330
C2A
102
}
330
C2A
100
AcDbXrecord
280
     1
102
RTVSPropertyOp0
 70
     1
102
RTVSPropertyOp1
 70
     1
102
RTVSPropertyOp2
 70
     1
102
RTVSPropertyOp3
 70
     1
102
RTVSPropertyOp4
 70
     1
102
RTVSPropertyOp5
 70
     1
102
RTVSPropertyOp6
 70
     1
102
RTVSPropertyOp7
 70
     1
102
RTVSPropertyOp8
 70
     1
102
RTVSPropertyOp9
 70
     1
102
RTVSPropertyOp10
 70
     1
102
RTVSPropertyOp11
 70
     1
102
RTVSPropertyOp12
 70
     1
102
RTVSPropertyOp13
 70
     1
102
RTVSPropertyOp14
 70
     1
102
RTVSPropertyOp15
 70
     1
102
RTVSPropertyOp16
 70
     1
102
RTVSPropertyOp17
 70
     1
102
RTVSPropertyOp18
 70
     1
102
RTVSPropertyOp19
 70
     1
102
RTVSPropertyOp20
 70
     1
102
RTVSPropertyOp21
 70
     1
102
RTVSPropertyOp22
 70
     1
102
RTVSPropertyOp23
 70
     1
102
RTVSPropertyOp24
 70
     1
102
RTVSPropertyOp25
 70
     1
102
RTVSPropertyOp26
 70
     1
102
RTVSPropertyOp27
 70
     1
102
RTVSPropertyOp28
 70
     1
102
RTVSPropertyOp29
 70
     1
102
RTVSPropertyOp30
 70
     1
102
RTVSPropertyOp31
 70
     1
102
RTVSPropertyOp32
 70
     1
  0
XRECORD
  5
C2F
102
{ACAD_REACTORS
330
C2E
102
}
330
C2E
100
AcDbXrecord
280
     1
102
RTVSPropertyOp0
 70
     1
102
RTVSPropertyOp1
 70
     1
102
RTVSPropertyOp2
 70
     1
102
RTVSPropertyOp3
 70
     1
102
RTVSPropertyOp4
 70
     1
102
RTVSPropertyOp5
 70
     1
102
RTVSPropertyOp6
 70
     1
102
RTVSPropertyOp7
 70
     1
102
RTVSPropertyOp8
 70
     1
102
RTVSPropertyOp9
 70
     1
102
RTVSPropertyOp10
 70
     1
102
RTVSPropertyOp11
 70
     1
102
RTVSPropertyOp12
 70
     1
102
RTVSPropertyOp13
 70
     1
102
RTVSPropertyOp14
 70
     1
102
RTVSPropertyOp15
 70
     1
102
RTVSPropertyOp16
 70
     1
102
RTVSPropertyOp17
 70
     1
102
RTVSPropertyOp18
 70
     1
102
RTVSPropertyOp19
 70
     1
102
RTVSPropertyOp20
 70
     1
102
RTVSPropertyOp21
 70
     1
102
RTVSPropertyOp22
 70
     1
102
RTVSPropertyOp23
 70
     1
102
RTVSPropertyOp24
 70
     1
102
RTVSPropertyOp25
 70
     1
102
RTVSPropertyOp26
 70
     1
102
RTVSPropertyOp27
 70
     1
102
RTVSPropertyOp28
 70
     1
102
RTVSPropertyOp29
 70
     1
102
RTVSPropertyOp30
 70
     1
102
RTVSPropertyOp31
 70
     1
102
RTVSPropertyOp32
 70
     1
  0
XRECORD
  5
C2D
102
{ACAD_REACTORS
330
C2C
102
}
330
C2C
100
AcDbXrecord
280
     1
102
RTVSPropertyOp0
 70
     1
102
RTVSPropertyOp1
 70
     1
102
RTVSPropertyOp2
 70
     1
102
RTVSPropertyOp3
 70
     1
102
RTVSPropertyOp4
 70
     1
102
RTVSPropertyOp5
 70
     1
102
RTVSPropertyOp6
 70
     1
102
RTVSPropertyOp7
 70
     1
102
RTVSPropertyOp8
 70
     1
102
RTVSPropertyOp9
 70
     1
102
RTVSPropertyOp10
 70
     1
102
RTVSPropertyOp11
 70
     1
102
RTVSPropertyOp12
 70
     1
102
RTVSPropertyOp13
 70
     1
102
RTVSPropertyOp14
 70
     1
102
RTVSPropertyOp15
 70
     1
102
RTVSPropertyOp16
 70
     1
102
RTVSPropertyOp17
 70
     1
102
RTVSPropertyOp18
 70
     1
102
RTVSPropertyOp19
 70
     1
102
RTVSPropertyOp20
 70
     1
102
RTVSPropertyOp21
 70
     1
102
RTVSPropertyOp22
 70
     1
102
RTVSPropertyOp23
 70
     1
102
RTVSPropertyOp24
 70
     1
102
RTVSPropertyOp25
 70
     1
102
RTVSPropertyOp26
 70
     1
102
RTVSPropertyOp27
 70
     1
102
RTVSPropertyOp28
 70
     1
102
RTVSPropertyOp29
 70
     1
102
RTVSPropertyOp30
 70
     1
102
RTVSPropertyOp31
 70
     1
102
RTVSPropertyOp32
 70
     1
  0
XRECORD
  5
C29
102
{ACAD_REACTORS
330
C28
102
}
330
C28
100
AcDbXrecord
280
     1
102
RTVSPropertyOp0
 70
     1
102
RTVSPropertyOp1
 70
     1
102
RTVSPropertyOp2
 70
     1
102
RTVSPropertyOp3
 70
     1
102
RTVSPropertyOp4
 70
     1
102
RTVSPropertyOp5
 70
     1
102
RTVSPropertyOp6
 70
     1
102
RTVSPropertyOp7
 70
     1
102
RTVSPropertyOp8
 70
     1
102
RTVSPropertyOp9
 70
     1
102
RTVSPropertyOp10
 70
     1
102
RTVSPropertyOp11
 70
     1
102
RTVSPropertyOp12
 70
     1
102
RTVSPropertyOp13
 70
     1
102
RTVSPropertyOp14
 70
     1
102
RTVSPropertyOp15
 70
     1
102
RTVSPropertyOp16
 70
     1
102
RTVSPropertyOp17
 70
     1
102
RTVSPropertyOp18
 70
     1
102
RTVSPropertyOp19
 70
     1
102
RTVSPropertyOp20
 70
     1
102
RTVSPropertyOp21
 70
     1
102
RTVSPropertyOp22
 70
     1
102
RTVSPropertyOp23
 70
     1
102
RTVSPropertyOp24
 70
     1
102
RTVSPropertyOp25
 70
     1
102
RTVSPropertyOp26
 70
     1
102
RTVSPropertyOp27
 70
     1
102
RTVSPropertyOp28
 70
     1
102
RTVSPropertyOp29
 70
     1
102
RTVSPropertyOp30
 70
     1
102
RTVSPropertyOp31
 70
     1
102
RTVSPropertyOp32
 70
     1
  0
XRECORD
  5
C37
102
{ACAD_REACTORS
330
C36
102
}
330
C36
100
AcDbXrecord
280
     1
102
RTVSPropertyOp0
 70
     1
102
RTVSPropertyOp1
 70
     1
102
RTVSPropertyOp2
 70
     1
102
RTVSPropertyOp3
 70
     1
102
RTVSPropertyOp4
 70
     1
102
RTVSPropertyOp5
 70
     1
102
RTVSPropertyOp6
 70
     1
102
RTVSPropertyOp7
 70
     1
102
RTVSPropertyOp8
 70
     1
102
RTVSPropertyOp9
 70
     1
102
RTVSPropertyOp10
 70
     1
102
RTVSPropertyOp11
 70
     1
102
RTVSPropertyOp12
 70
     1
102
RTVSPropertyOp13
 70
     1
102
RTVSPropertyOp14
 70
     1
102
RTVSPropertyOp15
 70
     1
102
RTVSPropertyOp16
 70
     1
102
RTVSPropertyOp17
 70
     1
102
RTVSPropertyOp18
 70
     1
102
RTVSPropertyOp19
 70
     1
102
RTVSPropertyOp20
 70
     1
102
RTVSPropertyOp21
 70
     1
102
RTVSPropertyOp22
 70
     1
102
RTVSPropertyOp23
 70
     1
102
RTVSPropertyOp24
 70
     1
102
RTVSPropertyOp25
 70
     1
102
RTVSPropertyOp26
 70
     1
102
RTVSPropertyOp27
 70
     1
102
RTVSPropertyOp28
 70
     1
102
RTVSPropertyOp29
 70
     1
102
RTVSPropertyOp30
 70
     1
102
RTVSPropertyOp31
 70
     1
102
RTVSPropertyOp32
 70
     1
  0
XRECORD
  5
C3F
102
{ACAD_REACTORS
330
C3E
102
}
330
C3E
100
AcDbXrecord
280
     1
102
RTVSPropertyOp0
 70
     1
102
RTVSPropertyOp1
 70
     1
102
RTVSPropertyOp2
 70
     1
102
RTVSPropertyOp3
 70
     1
102
RTVSPropertyOp4
 70
     1
102
RTVSPropertyOp5
 70
     1
102
RTVSPropertyOp6
 70
     1
102
RTVSPropertyOp7
 70
     1
102
RTVSPropertyOp8
 70
     1
102
RTVSPropertyOp9
 70
     1
102
RTVSPropertyOp10
 70
     1
102
RTVSPropertyOp11
 70
     1
102
RTVSPropertyOp12
 70
     1
102
RTVSPropertyOp13
 70
     1
102
RTVSPropertyOp14
 70
     1
102
RTVSPropertyOp15
 70
     1
102
RTVSPropertyOp16
 70
     1
102
RTVSPropertyOp17
 70
     1
102
RTVSPropertyOp18
 70
     1
102
RTVSPropertyOp19
 70
     1
102
RTVSPropertyOp20
 70
     1
102
RTVSPropertyOp21
 70
     1
102
RTVSPropertyOp22
 70
     1
102
RTVSPropertyOp23
 70
     1
102
RTVSPropertyOp24
 70
     1
102
RTVSPropertyOp25
 70
     1
102
RTVSPropertyOp26
 70
     1
102
RTVSPropertyOp27
 70
     1
102
RTVSPropertyOp28
 70
     1
102
RTVSPropertyOp29
 70
     1
102
RTVSPropertyOp30
 70
     1
102
RTVSPropertyOp31
 70
     1
102
RTVSPropertyOp32
 70
     1
  0
XRECORD
  5
C31
102
{ACAD_REACTORS
330
C30
102
}
330
C30
100
AcDbXrecord
280
     1
102
RTVSPropertyOp0
 70
     1
102
RTVSPropertyOp1
 70
     1
102
RTVSPropertyOp2
 70
     1
102
RTVSPropertyOp3
 70
     1
102
RTVSPropertyOp4
 70
     1
102
RTVSPropertyOp5
 70
     1
102
RTVSPropertyOp6
 70
     1
102
RTVSPropertyOp7
 70
     1
102
RTVSPropertyOp8
 70
     1
102
RTVSPropertyOp9
 70
     1
102
RTVSPropertyOp10
 70
     1
102
RTVSPropertyOp11
 70
     1
102
RTVSPropertyOp12
 70
     1
102
RTVSPropertyOp13
 70
     1
102
RTVSPropertyOp14
 70
     1
102
RTVSPropertyOp15
 70
     1
102
RTVSPropertyOp16
 70
     1
102
RTVSPropertyOp17
 70
     1
102
RTVSPropertyOp18
 70
     1
102
RTVSPropertyOp19
 70
     1
102
RTVSPropertyOp20
 70
     1
102
RTVSPropertyOp21
 70
     1
102
RTVSPropertyOp22
 70
     1
102
RTVSPropertyOp23
 70
     1
102
RTVSPropertyOp24
 70
     1
102
RTVSPropertyOp25
 70
     1
102
RTVSPropertyOp26
 70
     1
102
RTVSPropertyOp27
 70
     1
102
RTVSPropertyOp28
 70
     1
102
RTVSPropertyOp29
 70
     1
102
RTVSPropertyOp30
 70
     1
102
RTVSPropertyOp31
 70
     1
102
RTVSPropertyOp32
 70
     1
  0
XRECORD
  5
C35
102
{ACAD_REACTORS
330
C34
102
}
330
C34
100
AcDbXrecord
280
     1
102
RTVSPropertyOp0
 70
     1
102
RTVSPropertyOp1
 70
     1
102
RTVSPropertyOp2
 70
     1
102
RTVSPropertyOp3
 70
     1
102
RTVSPropertyOp4
 70
     1
102
RTVSPropertyOp5
 70
     1
102
RTVSPropertyOp6
 70
     1
102
RTVSPropertyOp7
 70
     1
102
RTVSPropertyOp8
 70
     1
102
RTVSPropertyOp9
 70
     1
102
RTVSPropertyOp10
 70
     1
102
RTVSPropertyOp11
 70
     1
102
RTVSPropertyOp12
 70
     1
102
RTVSPropertyOp13
 70
     1
102
RTVSPropertyOp14
 70
     1
102
RTVSPropertyOp15
 70
     1
102
RTVSPropertyOp16
 70
     1
102
RTVSPropertyOp17
 70
     1
102
RTVSPropertyOp18
 70
     1
102
RTVSPropertyOp19
 70
     1
102
RTVSPropertyOp20
 70
     1
102
RTVSPropertyOp21
 70
     1
102
RTVSPropertyOp22
 70
     1
102
RTVSPropertyOp23
 70
     1
102
RTVSPropertyOp24
 70
     1
102
RTVSPropertyOp25
 70
     1
102
RTVSPropertyOp26
 70
     1
102
RTVSPropertyOp27
 70
     1
102
RTVSPropertyOp28
 70
     1
102
RTVSPropertyOp29
 70
     1
102
RTVSPropertyOp30
 70
     1
102
RTVSPropertyOp31
 70
     1
102
RTVSPropertyOp32
 70
     1
  0
XRECORD
  5
C58
102
{ACAD_REACTORS
330
C57
102
}
330
C57
100
AcDbXrecord
280
     1
102
RTVSPropertyOp0
 70
     0
102
RTVSPropertyOp1
 70
     0
102
RTVSPropertyOp2
 70
     0
102
RTVSPropertyOp3
 70
     0
102
RTVSPropertyOp4
 70
     0
102
RTVSPropertyOp5
 70
     0
102
RTVSPropertyOp6
 70
     0
102
RTVSPropertyOp7
 70
     0
102
RTVSPropertyOp8
 70
     0
102
RTVSPropertyOp9
 70
     0
102
RTVSPropertyOp10
 70
     0
102
RTVSPropertyOp11
 70
     0
102
RTVSPropertyOp12
 70
     0
102
RTVSPropertyOp13
 70
     0
102
RTVSPropertyOp14
 70
     2
102
RTVSPropertyOp15
 70
     0
102
RTVSPropertyOp16
 70
     0
102
RTVSPropertyOp17
 70
     0
102
RTVSPropertyOp18
 70
     0
102
RTVSPropertyOp19
 70
     0
102
RTVSPropertyOp20
 70
     0
102
RTVSPropertyOp21
 70
     0
102
RTVSPropertyOp22
 70
     0
102
RTVSPropertyOp23
 70
     0
102
RTVSPropertyOp24
 70
     0
102
RTVSPropertyOp25
 70
     0
102
RTVSPropertyOp26
 70
     0
102
RTVSPropertyOp27
 70
     0
102
RTVSPropertyOp28
 70
     0
102
RTVSPropertyOp29
 70
     0
102
RTVSPropertyOp30
 70
     0
102
RTVSPropertyOp31
 70
     0
102
RTVSPropertyOp32
 70
     0
  0
XRECORD
  5
C3D
102
{ACAD_REACTORS
330
C3C
102
}
330
C3C
100
AcDbXrecord
280
     1
102
RTVSPropertyOp0
 70
     1
102
RTVSPropertyOp1
 70
     1
102
RTVSPropertyOp2
 70
     1
102
RTVSPropertyOp3
 70
     1
102
RTVSPropertyOp4
 70
     1
102
RTVSPropertyOp5
 70
     1
102
RTVSPropertyOp6
 70
     1
102
RTVSPropertyOp7
 70
     1
102
RTVSPropertyOp8
 70
     1
102
RTVSPropertyOp9
 70
     1
102
RTVSPropertyOp10
 70
     1
102
RTVSPropertyOp11
 70
     1
102
RTVSPropertyOp12
 70
     1
102
RTVSPropertyOp13
 70
     1
102
RTVSPropertyOp14
 70
     1
102
RTVSPropertyOp15
 70
     1
102
RTVSPropertyOp16
 70
     1
102
RTVSPropertyOp17
 70
     1
102
RTVSPropertyOp18
 70
     1
102
RTVSPropertyOp19
 70
     1
102
RTVSPropertyOp20
 70
     1
102
RTVSPropertyOp21
 70
     1
102
RTVSPropertyOp22
 70
     1
102
RTVSPropertyOp23
 70
     1
102
RTVSPropertyOp24
 70
     1
102
RTVSPropertyOp25
 70
     1
102
RTVSPropertyOp26
 70
     1
102
RTVSPropertyOp27
 70
     1
102
RTVSPropertyOp28
 70
     1
102
RTVSPropertyOp29
 70
     1
102
RTVSPropertyOp30
 70
     1
102
RTVSPropertyOp31
 70
     1
102
RTVSPropertyOp32
 70
     1
  0
XRECORD
  5
C21
102
{ACAD_REACTORS
330
C20
102
}
330
C20
100
AcDbXrecord
280
     1
102
RTVSPropertyOp0
 70
     1
102
RTVSPropertyOp1
 70
     1
102
RTVSPropertyOp2
 70
     1
102
RTVSPropertyOp3
 70
     1
102
RTVSPropertyOp4
 70
     1
102
RTVSPropertyOp5
 70
     1
102
RTVSPropertyOp6
 70
     1
102
RTVSPropertyOp7
 70
     1
102
RTVSPropertyOp8
 70
     1
102
RTVSPropertyOp9
 70
     1
102
RTVSPropertyOp10
 70
     1
102
RTVSPropertyOp11
 70
     1
102
RTVSPropertyOp12
 70
     1
102
RTVSPropertyOp13
 70
     1
102
RTVSPropertyOp14
 70
     1
102
RTVSPropertyOp15
 70
     1
102
RTVSPropertyOp16
 70
     1
102
RTVSPropertyOp17
 70
     1
102
RTVSPropertyOp18
 70
     1
102
RTVSPropertyOp19
 70
     1
102
RTVSPropertyOp20
 70
     1
102
RTVSPropertyOp21
 70
     1
102
RTVSPropertyOp22
 70
     1
102
RTVSPropertyOp23
 70
     1
102
RTVSPropertyOp24
 70
     1
102
RTVSPropertyOp25
 70
     1
102
RTVSPropertyOp26
 70
     1
102
RTVSPropertyOp27
 70
     1
102
RTVSPropertyOp28
 70
     1
102
RTVSPropertyOp29
 70
     1
102
RTVSPropertyOp30
 70
     1
102
RTVSPropertyOp31
 70
     1
102
RTVSPropertyOp32
 70
     1
  0
XRECORD
  5
C23
102
{ACAD_REACTORS
330
C22
102
}
330
C22
100
AcDbXrecord
280
     1
102
RTVSPropertyOp0
 70
     1
102
RTVSPropertyOp1
 70
     1
102
RTVSPropertyOp2
 70
     1
102
RTVSPropertyOp3
 70
     1
102
RTVSPropertyOp4
 70
     1
102
RTVSPropertyOp5
 70
     1
102
RTVSPropertyOp6
 70
     1
102
RTVSPropertyOp7
 70
     1
102
RTVSPropertyOp8
 70
     1
102
RTVSPropertyOp9
 70
     1
102
RTVSPropertyOp10
 70
     1
102
RTVSPropertyOp11
 70
     1
102
RTVSPropertyOp12
 70
     1
102
RTVSPropertyOp13
 70
     1
102
RTVSPropertyOp14
 70
     1
102
RTVSPropertyOp15
 70
     1
102
RTVSPropertyOp16
 70
     1
102
RTVSPropertyOp17
 70
     1
102
RTVSPropertyOp18
 70
     1
102
RTVSPropertyOp19
 70
     1
102
RTVSPropertyOp20
 70
     1
102
RTVSPropertyOp21
 70
     1
102
RTVSPropertyOp22
 70
     1
102
RTVSPropertyOp23
 70
     1
102
RTVSPropertyOp24
 70
     1
102
RTVSPropertyOp25
 70
     1
102
RTVSPropertyOp26
 70
     1
102
RTVSPropertyOp27
 70
     1
102
RTVSPropertyOp28
 70
     1
102
RTVSPropertyOp29
 70
     1
102
RTVSPropertyOp30
 70
     1
102
RTVSPropertyOp31
 70
     1
102
RTVSPropertyOp32
 70
     1
  0
XRECORD
  5
C25
102
{ACAD_REACTORS
330
C24
102
}
330
C24
100
AcDbXrecord
280
     1
102
RTVSPropertyOp0
 70
     1
102
RTVSPropertyOp1
 70
     1
102
RTVSPropertyOp2
 70
     1
102
RTVSPropertyOp3
 70
     1
102
RTVSPropertyOp4
 70
     1
102
RTVSPropertyOp5
 70
     1
102
RTVSPropertyOp6
 70
     1
102
RTVSPropertyOp7
 70
     1
102
RTVSPropertyOp8
 70
     1
102
RTVSPropertyOp9
 70
     1
102
RTVSPropertyOp10
 70
     1
102
RTVSPropertyOp11
 70
     1
102
RTVSPropertyOp12
 70
     1
102
RTVSPropertyOp13
 70
     1
102
RTVSPropertyOp14
 70
     1
102
RTVSPropertyOp15
 70
     1
102
RTVSPropertyOp16
 70
     1
102
RTVSPropertyOp17
 70
     1
102
RTVSPropertyOp18
 70
     1
102
RTVSPropertyOp19
 70
     1
102
RTVSPropertyOp20
 70
     1
102
RTVSPropertyOp21
 70
     1
102
RTVSPropertyOp22
 70
     1
102
RTVSPropertyOp23
 70
     1
102
RTVSPropertyOp24
 70
     1
102
RTVSPropertyOp25
 70
     1
102
RTVSPropertyOp26
 70
     1
102
RTVSPropertyOp27
 70
     1
102
RTVSPropertyOp28
 70
     1
102
RTVSPropertyOp29
 70
     1
102
RTVSPropertyOp30
 70
     1
102
RTVSPropertyOp31
 70
     1
102
RTVSPropertyOp32
 70
     1
  0
XRECORD
  5
C27
102
{ACAD_REACTORS
330
C26
102
}
330
C26
100
AcDbXrecord
280
     1
102
RTVSPropertyOp0
 70
     1
102
RTVSPropertyOp1
 70
     1
102
RTVSPropertyOp2
 70
     1
102
RTVSPropertyOp3
 70
     1
102
RTVSPropertyOp4
 70
     1
102
RTVSPropertyOp5
 70
     1
102
RTVSPropertyOp6
 70
     1
102
RTVSPropertyOp7
 70
     1
102
RTVSPropertyOp8
 70
     1
102
RTVSPropertyOp9
 70
     1
102
RTVSPropertyOp10
 70
     1
102
RTVSPropertyOp11
 70
     1
102
RTVSPropertyOp12
 70
     1
102
RTVSPropertyOp13
 70
     1
102
RTVSPropertyOp14
 70
     1
102
RTVSPropertyOp15
 70
     1
102
RTVSPropertyOp16
 70
     1
102
RTVSPropertyOp17
 70
     1
102
RTVSPropertyOp18
 70
     1
102
RTVSPropertyOp19
 70
     1
102
RTVSPropertyOp20
 70
     1
102
RTVSPropertyOp21
 70
     1
102
RTVSPropertyOp22
 70
     1
102
RTVSPropertyOp23
 70
     1
102
RTVSPropertyOp24
 70
     1
102
RTVSPropertyOp25
 70
     1
102
RTVSPropertyOp26
 70
     1
102
RTVSPropertyOp27
 70
     1
102
RTVSPropertyOp28
 70
     1
102
RTVSPropertyOp29
 70
     1
102
RTVSPropertyOp30
 70
     1
102
RTVSPropertyOp31
 70
     1
102
RTVSPropertyOp32
 70
     1
  0
XRECORD
  5
C48
102
{ACAD_REACTORS
330
C47
102
}
330
C47
100
AcDbXrecord
280
     1
102
RTVSPropertyOp0
 70
     1
102
RTVSPropertyOp1
 70
     1
102
RTVSPropertyOp2
 70
     1
102
RTVSPropertyOp3
 70
     1
102
RTVSPropertyOp4
 70
     1
102
RTVSPropertyOp5
 70
     1
102
RTVSPropertyOp6
 70
     1
102
RTVSPropertyOp7
 70
     1
102
RTVSPropertyOp8
 70
     1
102
RTVSPropertyOp9
 70
     1
102
RTVSPropertyOp10
 70
     1
102
RTVSPropertyOp11
 70
     1
102
RTVSPropertyOp12
 70
     1
102
RTVSPropertyOp13
 70
     1
102
RTVSPropertyOp14
 70
     1
102
RTVSPropertyOp15
 70
     1
102
RTVSPropertyOp16
 70
     1
102
RTVSPropertyOp17
 70
     1
102
RTVSPropertyOp18
 70
     1
102
RTVSPropertyOp19
 70
     1
102
RTVSPropertyOp20
 70
     1
102
RTVSPropertyOp21
 70
     1
102
RTVSPropertyOp22
 70
     1
102
RTVSPropertyOp23
 70
     1
102
RTVSPropertyOp24
 70
     1
102
RTVSPropertyOp25
 70
     1
102
RTVSPropertyOp26
 70
     1
102
RTVSPropertyOp27
 70
     1
102
RTVSPropertyOp28
 70
     1
102
RTVSPropertyOp29
 70
     1
102
RTVSPropertyOp30
 70
     1
102
RTVSPropertyOp31
 70
     1
102
RTVSPropertyOp32
 70
     1
  0
XRECORD
  5
C54
102
{ACAD_REACTORS
330
C53
102
}
330
C53
100
AcDbXrecord
280
     1
102
RTVSPropertyOp0
 70
     0
102
RTVSPropertyOp1
 70
     0
102
RTVSPropertyOp2
 70
     0
102
RTVSPropertyOp3
 70
     0
102
RTVSPropertyOp4
 70
     0
102
RTVSPropertyOp5
 70
     0
102
RTVSPropertyOp6
 70
     0
102
RTVSPropertyOp7
 70
     0
102
RTVSPropertyOp8
 70
     0
102
RTVSPropertyOp9
 70
     0
102
RTVSPropertyOp10
 70
     0
102
RTVSPropertyOp11
 70
     0
102
RTVSPropertyOp12
 70
     0
102
RTVSPropertyOp13
 70
     0
102
RTVSPropertyOp14
 70
     2
102
RTVSPropertyOp15
 70
     0
102
RTVSPropertyOp16
 70
     0
102
RTVSPropertyOp17
 70
     0
102
RTVSPropertyOp18
 70
     0
102
RTVSPropertyOp19
 70
     0
102
RTVSPropertyOp20
 70
     0
102
RTVSPropertyOp21
 70
     0
102
RTVSPropertyOp22
 70
     0
102
RTVSPropertyOp23
 70
     0
102
RTVSPropertyOp24
 70
     0
102
RTVSPropertyOp25
 70
     0
102
RTVSPropertyOp26
 70
     0
102
RTVSPropertyOp27
 70
     0
102
RTVSPropertyOp28
 70
     0
102
RTVSPropertyOp29
 70
     0
102
RTVSPropertyOp30
 70
     0
102
RTVSPropertyOp31
 70
     0
102
RTVSPropertyOp32
 70
     0
  0
XRECORD
  5
C3B
102
{ACAD_REACTORS
330
C3A
102
}
330
C3A
100
AcDbXrecord
280
     1
102
RTVSPropertyOp0
 70
     1
102
RTVSPropertyOp1
 70
     1
102
RTVSPropertyOp2
 70
     1
102
RTVSPropertyOp3
 70
     1
102
RTVSPropertyOp4
 70
     1
102
RTVSPropertyOp5
 70
     1
102
RTVSPropertyOp6
 70
     1
102
RTVSPropertyOp7
 70
     1
102
RTVSPropertyOp8
 70
     1
102
RTVSPropertyOp9
 70
     1
102
RTVSPropertyOp10
 70
     1
102
RTVSPropertyOp11
 70
     1
102
RTVSPropertyOp12
 70
     1
102
RTVSPropertyOp13
 70
     1
102
RTVSPropertyOp14
 70
     1
102
RTVSPropertyOp15
 70
     1
102
RTVSPropertyOp16
 70
     1
102
RTVSPropertyOp17
 70
     1
102
RTVSPropertyOp18
 70
     1
102
RTVSPropertyOp19
 70
     1
102
RTVSPropertyOp20
 70
     1
102
RTVSPropertyOp21
 70
     1
102
RTVSPropertyOp22
 70
     1
102
RTVSPropertyOp23
 70
     1
102
RTVSPropertyOp24
 70
     1
102
RTVSPropertyOp25
 70
     1
102
RTVSPropertyOp26
 70
     1
102
RTVSPropertyOp27
 70
     1
102
RTVSPropertyOp28
 70
     1
102
RTVSPropertyOp29
 70
     1
102
RTVSPropertyOp30
 70
     1
102
RTVSPropertyOp31
 70
     1
102
RTVSPropertyOp32
 70
     1
  0
XRECORD
  5
C56
102
{ACAD_REACTORS
330
C55
102
}
330
C55
100
AcDbXrecord
280
     1
102
RTVSPropertyOp0
 70
     0
102
RTVSPropertyOp1
 70
     0
102
RTVSPropertyOp2
 70
     0
102
RTVSPropertyOp3
 70
     0
102
RTVSPropertyOp4
 70
     0
102
RTVSPropertyOp5
 70
     0
102
RTVSPropertyOp6
 70
     0
102
RTVSPropertyOp7
 70
     0
102
RTVSPropertyOp8
 70
     0
102
RTVSPropertyOp9
 70
     0
102
RTVSPropertyOp10
 70
     0
102
RTVSPropertyOp11
 70
     0
102
RTVSPropertyOp12
 70
     0
102
RTVSPropertyOp13
 70
     0
102
RTVSPropertyOp14
 70
     2
102
RTVSPropertyOp15
 70
     0
102
RTVSPropertyOp16
 70
     0
102
RTVSPropertyOp17
 70
     0
102
RTVSPropertyOp18
 70
     0
102
RTVSPropertyOp19
 70
     0
102
RTVSPropertyOp20
 70
     0
102
RTVSPropertyOp21
 70
     0
102
RTVSPropertyOp22
 70
     0
102
RTVSPropertyOp23
 70
     0
102
RTVSPropertyOp24
 70
     0
102
RTVSPropertyOp25
 70
     0
102
RTVSPropertyOp26
 70
     0
102
RTVSPropertyOp27
 70
     0
102
RTVSPropertyOp28
 70
     0
102
RTVSPropertyOp29
 70
     0
102
RTVSPropertyOp30
 70
     0
102
RTVSPropertyOp31
 70
     0
102
RTVSPropertyOp32
 70
     0
  0
XRECORD
  5
C33
102
{ACAD_REACTORS
330
C32
102
}
330
C32
100
AcDbXrecord
280
     1
102
RTVSPropertyOp0
 70
     1
102
RTVSPropertyOp1
 70
     1
102
RTVSPropertyOp2
 70
     1
102
RTVSPropertyOp3
 70
     1
102
RTVSPropertyOp4
 70
     1
102
RTVSPropertyOp5
 70
     1
102
RTVSPropertyOp6
 70
     1
102
RTVSPropertyOp7
 70
     1
102
RTVSPropertyOp8
 70
     1
102
RTVSPropertyOp9
 70
     1
102
RTVSPropertyOp10
 70
     1
102
RTVSPropertyOp11
 70
     1
102
RTVSPropertyOp12
 70
     1
102
RTVSPropertyOp13
 70
     1
102
RTVSPropertyOp14
 70
     1
102
RTVSPropertyOp15
 70
     1
102
RTVSPropertyOp16
 70
     1
102
RTVSPropertyOp17
 70
     1
102
RTVSPropertyOp18
 70
     1
102
RTVSPropertyOp19
 70
     1
102
RTVSPropertyOp20
 70
     1
102
RTVSPropertyOp21
 70
     1
102
RTVSPropertyOp22
 70
     1
102
RTVSPropertyOp23
 70
     1
102
RTVSPropertyOp24
 70
     1
102
RTVSPropertyOp25
 70
     1
102
RTVSPropertyOp26
 70
     1
102
RTVSPropertyOp27
 70
     1
102
RTVSPropertyOp28
 70
     1
102
RTVSPropertyOp29
 70
     1
102
RTVSPropertyOp30
 70
     1
102
RTVSPropertyOp31
 70
     1
102
RTVSPropertyOp32
 70
     1
  0
XRECORD
  5
C52
102
{ACAD_REACTORS
330
C51
102
}
330
C51
100
AcDbXrecord
280
     1
102
RTVSPropertyOp0
 70
     1
102
RTVSPropertyOp1
 70
     1
102
RTVSPropertyOp2
 70
     1
102
RTVSPropertyOp3
 70
     1
102
RTVSPropertyOp4
 70
     1
102
RTVSPropertyOp5
 70
     1
102
RTVSPropertyOp6
 70
     1
102
RTVSPropertyOp7
 70
     1
102
RTVSPropertyOp8
 70
     1
102
RTVSPropertyOp9
 70
     1
102
RTVSPropertyOp10
 70
     1
102
RTVSPropertyOp11
 70
     1
102
RTVSPropertyOp12
 70
     1
102
RTVSPropertyOp13
 70
     1
102
RTVSPropertyOp14
 70
     1
102
RTVSPropertyOp15
 70
     1
102
RTVSPropertyOp16
 70
     1
102
RTVSPropertyOp17
 70
     1
102
RTVSPropertyOp18
 70
     1
102
RTVSPropertyOp19
 70
     1
102
RTVSPropertyOp20
 70
     1
102
RTVSPropertyOp21
 70
     1
102
RTVSPropertyOp22
 70
     1
102
RTVSPropertyOp23
 70
     1
102
RTVSPropertyOp24
 70
     1
102
RTVSPropertyOp25
 70
     1
102
RTVSPropertyOp26
 70
     1
102
RTVSPropertyOp27
 70
     1
102
RTVSPropertyOp28
 70
     1
102
RTVSPropertyOp29
 70
     1
102
RTVSPropertyOp30
 70
     1
102
RTVSPropertyOp31
 70
     1
102
RTVSPropertyOp32
 70
     1
  0
XRECORD
  5
C50
102
{ACAD_REACTORS
330
C4F
102
}
330
C4F
100
AcDbXrecord
280
     1
102
RTVSPropertyOp0
 70
     1
102
RTVSPropertyOp1
 70
     1
102
RTVSPropertyOp2
 70
     1
102
RTVSPropertyOp3
 70
     1
102
RTVSPropertyOp4
 70
     1
102
RTVSPropertyOp5
 70
     1
102
RTVSPropertyOp6
 70
     1
102
RTVSPropertyOp7
 70
     1
102
RTVSPropertyOp8
 70
     1
102
RTVSPropertyOp9
 70
     1
102
RTVSPropertyOp10
 70
     1
102
RTVSPropertyOp11
 70
     1
102
RTVSPropertyOp12
 70
     1
102
RTVSPropertyOp13
 70
     1
102
RTVSPropertyOp14
 70
     1
102
RTVSPropertyOp15
 70
     1
102
RTVSPropertyOp16
 70
     1
102
RTVSPropertyOp17
 70
     1
102
RTVSPropertyOp18
 70
     1
102
RTVSPropertyOp19
 70
     1
102
RTVSPropertyOp20
 70
     1
102
RTVSPropertyOp21
 70
     1
102
RTVSPropertyOp22
 70
     1
102
RTVSPropertyOp23
 70
     1
102
RTVSPropertyOp24
 70
     1
102
RTVSPropertyOp25
 70
     1
102
RTVSPropertyOp26
 70
     1
102
RTVSPropertyOp27
 70
     1
102
RTVSPropertyOp28
 70
     1
102
RTVSPropertyOp29
 70
     1
102
RTVSPropertyOp30
 70
     1
102
RTVSPropertyOp31
 70
     1
102
RTVSPropertyOp32
 70
     1
  0
XRECORD
  5
C4A
102
{ACAD_REACTORS
330
C49
102
}
330
C49
100
AcDbXrecord
280
     1
102
RTVSPropertyOp0
 70
     1
102
RTVSPropertyOp1
 70
     1
102
RTVSPropertyOp2
 70
     1
102
RTVSPropertyOp3
 70
     1
102
RTVSPropertyOp4
 70
     1
102
RTVSPropertyOp5
 70
     1
102
RTVSPropertyOp6
 70
     1
102
RTVSPropertyOp7
 70
     1
102
RTVSPropertyOp8
 70
     1
102
RTVSPropertyOp9
 70
     1
102
RTVSPropertyOp10
 70
     1
102
RTVSPropertyOp11
 70
     1
102
RTVSPropertyOp12
 70
     1
102
RTVSPropertyOp13
 70
     1
102
RTVSPropertyOp14
 70
     1
102
RTVSPropertyOp15
 70
     1
102
RTVSPropertyOp16
 70
     1
102
RTVSPropertyOp17
 70
     1
102
RTVSPropertyOp18
 70
     1
102
RTVSPropertyOp19
 70
     1
102
RTVSPropertyOp20
 70
     1
102
RTVSPropertyOp21
 70
     1
102
RTVSPropertyOp22
 70
     1
102
RTVSPropertyOp23
 70
     1
102
RTVSPropertyOp24
 70
     1
102
RTVSPropertyOp25
 70
     1
102
RTVSPropertyOp26
 70
     1
102
RTVSPropertyOp27
 70
     1
102
RTVSPropertyOp28
 70
     1
102
RTVSPropertyOp29
 70
     1
102
RTVSPropertyOp30
 70
     1
102
RTVSPropertyOp31
 70
     1
102
RTVSPropertyOp32
 70
     1
  0
XRECORD
  5
C4C
102
{ACAD_REACTORS
330
C4B
102
}
330
C4B
100
AcDbXrecord
280
     1
102
RTVSPropertyOp0
 70
     1
102
RTVSPropertyOp1
 70
     1
102
RTVSPropertyOp2
 70
     1
102
RTVSPropertyOp3
 70
     1
102
RTVSPropertyOp4
 70
     1
102
RTVSPropertyOp5
 70
     1
102
RTVSPropertyOp6
 70
     1
102
RTVSPropertyOp7
 70
     1
102
RTVSPropertyOp8
 70
     1
102
RTVSPropertyOp9
 70
     1
102
RTVSPropertyOp10
 70
     1
102
RTVSPropertyOp11
 70
     1
102
RTVSPropertyOp12
 70
     1
102
RTVSPropertyOp13
 70
     1
102
RTVSPropertyOp14
 70
     1
102
RTVSPropertyOp15
 70
     1
102
RTVSPropertyOp16
 70
     1
102
RTVSPropertyOp17
 70
     1
102
RTVSPropertyOp18
 70
     1
102
RTVSPropertyOp19
 70
     1
102
RTVSPropertyOp20
 70
     1
102
RTVSPropertyOp21
 70
     1
102
RTVSPropertyOp22
 70
     1
102
RTVSPropertyOp23
 70
     1
102
RTVSPropertyOp24
 70
     1
102
RTVSPropertyOp25
 70
     1
102
RTVSPropertyOp26
 70
     1
102
RTVSPropertyOp27
 70
     1
102
RTVSPropertyOp28
 70
     1
102
RTVSPropertyOp29
 70
     1
102
RTVSPropertyOp30
 70
     1
102
RTVSPropertyOp31
 70
     1
102
RTVSPropertyOp32
 70
     1
  0
XRECORD
  5
C39
102
{ACAD_REACTORS
330
C38
102
}
330
C38
100
AcDbXrecord
280
     1
102
RTVSPropertyOp0
 70
     1
102
RTVSPropertyOp1
 70
     1
102
RTVSPropertyOp2
 70
     1
102
RTVSPropertyOp3
 70
     1
102
RTVSPropertyOp4
 70
     1
102
RTVSPropertyOp5
 70
     1
102
RTVSPropertyOp6
 70
     1
102
RTVSPropertyOp7
 70
     1
102
RTVSPropertyOp8
 70
     1
102
RTVSPropertyOp9
 70
     1
102
RTVSPropertyOp10
 70
     1
102
RTVSPropertyOp11
 70
     1
102
RTVSPropertyOp12
 70
     1
102
RTVSPropertyOp13
 70
     1
102
RTVSPropertyOp14
 70
     1
102
RTVSPropertyOp15
 70
     1
102
RTVSPropertyOp16
 70
     1
102
RTVSPropertyOp17
 70
     1
102
RTVSPropertyOp18
 70
     1
102
RTVSPropertyOp19
 70
     1
102
RTVSPropertyOp20
 70
     1
102
RTVSPropertyOp21
 70
     1
102
RTVSPropertyOp22
 70
     1
102
RTVSPropertyOp23
 70
     1
102
RTVSPropertyOp24
 70
     1
102
RTVSPropertyOp25
 70
     1
102
RTVSPropertyOp26
 70
     1
102
RTVSPropertyOp27
 70
     1
102
RTVSPropertyOp28
 70
     1
102
RTVSPropertyOp29
 70
     1
102
RTVSPropertyOp30
 70
     1
102
RTVSPropertyOp31
 70
     1
102
RTVSPropertyOp32
 70
     1
  0
XRECORD
  5
C46
102
{ACAD_REACTORS
330
C45
102
}
330
C45
100
AcDbXrecord
280
     1
102
RTVSPropertyOp0
 70
     1
102
RTVSPropertyOp1
 70
     1
102
RTVSPropertyOp2
 70
     1
102
RTVSPropertyOp3
 70
     1
102
RTVSPropertyOp4
 70
     1
102
RTVSPropertyOp5
 70
     1
102
RTVSPropertyOp6
 70
     1
102
RTVSPropertyOp7
 70
     1
102
RTVSPropertyOp8
 70
     1
102
RTVSPropertyOp9
 70
     1
102
RTVSPropertyOp10
 70
     1
102
RTVSPropertyOp11
 70
     1
102
RTVSPropertyOp12
 70
     1
102
RTVSPropertyOp13
 70
     1
102
RTVSPropertyOp14
 70
     1
102
RTVSPropertyOp15
 70
     1
102
RTVSPropertyOp16
 70
     1
102
RTVSPropertyOp17
 70
     1
102
RTVSPropertyOp18
 70
     1
102
RTVSPropertyOp19
 70
     1
102
RTVSPropertyOp20
 70
     1
102
RTVSPropertyOp21
 70
     1
102
RTVSPropertyOp22
 70
     1
102
RTVSPropertyOp23
 70
     1
102
RTVSPropertyOp24
 70
     1
102
RTVSPropertyOp25
 70
     1
102
RTVSPropertyOp26
 70
     1
102
RTVSPropertyOp27
 70
     1
102
RTVSPropertyOp28
 70
     1
102
RTVSPropertyOp29
 70
     1
102
RTVSPropertyOp30
 70
     1
102
RTVSPropertyOp31
 70
     1
102
RTVSPropertyOp32
 70
     1
  0
XRECORD
  5
C4E
102
{ACAD_REACTORS
330
C4D
102
}
330
C4D
100
AcDbXrecord
280
     1
102
RTVSPropertyOp0
 70
     1
102
RTVSPropertyOp1
 70
     1
102
RTVSPropertyOp2
 70
     1
102
RTVSPropertyOp3
 70
     1
102
RTVSPropertyOp4
 70
     1
102
RTVSPropertyOp5
 70
     1
102
RTVSPropertyOp6
 70
     1
102
RTVSPropertyOp7
 70
     1
102
RTVSPropertyOp8
 70
     1
102
RTVSPropertyOp9
 70
     1
102
RTVSPropertyOp10
 70
     1
102
RTVSPropertyOp11
 70
     1
102
RTVSPropertyOp12
 70
     1
102
RTVSPropertyOp13
 70
     1
102
RTVSPropertyOp14
 70
     1
102
RTVSPropertyOp15
 70
     1
102
RTVSPropertyOp16
 70
     1
102
RTVSPropertyOp17
 70
     1
102
RTVSPropertyOp18
 70
     1
102
RTVSPropertyOp19
 70
     1
102
RTVSPropertyOp20
 70
     1
102
RTVSPropertyOp21
 70
     1
102
RTVSPropertyOp22
 70
     1
102
RTVSPropertyOp23
 70
     1
102
RTVSPropertyOp24
 70
     1
102
RTVSPropertyOp25
 70
     1
102
RTVSPropertyOp26
 70
     1
102
RTVSPropertyOp27
 70
     1
102
RTVSPropertyOp28
 70
     1
102
RTVSPropertyOp29
 70
     1
102
RTVSPropertyOp30
 70
     1
102
RTVSPropertyOp31
 70
     1
102
RTVSPropertyOp32
 70
     1
  0
ENDSEC
  0
EOF
