  0
SECTION
  2
HEADER
  9
$ACADVER
  1
AC1015
  9
$ACADMAINTVER
 70
    20
  9
$DWGCODEPAGE
  3
ANSI_932
  9
$INSBASE
 10
0.0
 20
0.0
 30
0.0
  9
$EXTMIN
 10
1403.005211919597
 20
550.9775147176385
 30
-0.0015258207003583
  9
$EXTMAX
 10
1680.051155167832
 20
739.4737609559897
 30
0.0000000349246037
  9
$LIMMIN
 10
1090.627296
 20
548.6730719999997
  9
$LIMMAX
 10
1367.638695
 20
737.1476669999997
  9
$ORTHOMODE
 70
     1
  9
$REGENMODE
 70
     1
  9
$FILLMODE
 70
     1
  9
$QTEXTMODE
 70
     0
  9
$MIRRTEXT
 70
     0
  9
$LTSCALE
 40
4.616823
  9
$ATTMODE
 70
     1
  9
$TEXTSIZE
 40
3.2
  9
$TRACEWID
 40
0.05
  9
$TEXTSTYLE
  7
高3.2
  9
$CLAYER
  8
0
  9
$CELTYPE
  6
CONTINUOUS
  9
$CECOLOR
 62
   256
  9
$CELTSCALE
 40
1.0
  9
$DISPSILH
 70
     0
  9
$DIMSCALE
 40
1.0
  9
$DIMASZ
 40
2.5
  9
$DIMEXO
 40
0.25
  9
$DIMDLI
 40
0.2
  9
$DIMRND
 40
0.0
  9
$DIMDLE
 40
0.0
  9
$DIMEXE
 40
1.25
  9
$DIMTP
 40
0.0
  9
$DIMTM
 40
0.0
  9
$DIMTXT
 40
3.0
  9
$DIMCEN
 40
0.0
  9
$DIMTSZ
 40
0.0
  9
$DIMTOL
 70
     0
  9
$DIMLIM
 70
     0
  9
$DIMTIH
 70
     0
  9
$DIMTOH
 70
     0
  9
$DIMSE1
 70
     0
  9
$DIMSE2
 70
     0
  9
$DIMTAD
 70
     3
  9
$DIMZIN
 70
     8
  9
$DIMBLK
  1
Open30
  9
$DIMASO
 70
     1
  9
$DIMSHO
 70
     1
  9
$DIMPOST
  1

  9
$DIMAPOST
  1

  9
$DIMALT
 70
     0
  9
$DIMALTD
 70
     3
  9
$DIMALTF
 40
0.03937007874016
  9
$DIMLFAC
 40
1.0
  9
$DIMTOFL
 70
     1
  9
$DIMTVP
 40
0.0
  9
$DIMTIX
 70
     0
  9
$DIMSOXD
 70
     0
  9
$DIMSAH
 70
     0
  9
$DIMBLK1
  1

  9
$DIMBLK2
  1

  9
$DIMSTYLE
  2
FREE
  9
$DIMCLRD
 70
     0
  9
$DIMCLRE
 70
     0
  9
$DIMCLRT
 70
     4
  9
$DIMTFAC
 40
1.0
  9
$DIMGAP
 40
0.625
  9
$DIMJUST
 70
     0
  9
$DIMSD1
 70
     0
  9
$DIMSD2
 70
     0
  9
$DIMTOLJ
 70
     0
  9
$DIMTZIN
 70
     8
  9
$DIMALTZ
 70
     0
  9
$DIMALTTZ
 70
     0
  9
$DIMUPT
 70
     1
  9
$DIMDEC
 70
     2
  9
$DIMTDEC
 70
     2
  9
$DIMALTU
 70
     2
  9
$DIMALTTD
 70
     3
  9
$DIMTXSTY
  7
STANDARD
  9
$DIMAUNIT
 70
     0
  9
$DIMADEC
 70
     1
  9
$DIMALTRND
 40
0.0
  9
$DIMAZIN
 70
     2
  9
$DIMDSEP
 70
    46
  9
$DIMATFIT
 70
     0
  9
$DIMFRAC
 70
     0
  9
$DIMLDRBLK
  1
Open30
  9
$DIMLUNIT
 70
     2
  9
$DIMLWD
 70
    -2
  9
$DIMLWE
 70
    -2
  9
$DIMTMOVE
 70
     0
  9
$LUNITS
 70
     2
  9
$LUPREC
 70
     4
  9
$SKETCHINC
 40
0.1
  9
$FILLETRAD
 40
0.0
  9
$AUNITS
 70
     0
  9
$AUPREC
 70
     0
  9
$MENU
  1
.
  9
$ELEVATION
 40
0.0
  9
$PELEVATION
 40
0.0
  9
$THICKNESS
 40
0.0
  9
$LIMCHECK
 70
     0
  9
$CHAMFERA
 40
0.0
  9
$CHAMFERB
 40
0.0
  9
$CHAMFERC
 40
0.0
  9
$CHAMFERD
 40
0.0
  9
$SKPOLY
 70
     0
  9
$TDCREATE
 40
2456202.564599676
  9
$TDUCREATE
 40
2456202.189599676
  9
$TDUPDATE
 40
2456994.602669896
  9
$TDUUPDATE
 40
2456994.227669896
  9
$TDINDWG
 40
0.1385476042
  9
$TDUSRTIMER
 40
0.1385476042
  9
$USRTIMER
 70
     1
  9
$ANGBASE
 50
0.0
  9
$ANGDIR
 70
     0
  9
$PDMODE
 70
     0
  9
$PDSIZE
 40
0.0
  9
$PLINEWID
 40
0.0
  9
$SPLFRAME
 70
     0
  9
$SPLINETYPE
 70
     6
  9
$SPLINESEGS
 70
     8
  9
$HANDSEED
  5
C10
  9
$SURFTAB1
 70
     6
  9
$SURFTAB2
 70
     6
  9
$SURFTYPE
 70
     6
  9
$SURFU
 70
     6
  9
$SURFV
 70
     6
  9
$UCSBASE
  2

  9
$UCSNAME
  2

  9
$UCSORG
 10
0.0
 20
0.0
 30
0.0
  9
$UCSXDIR
 10
1.0
 20
0.0
 30
0.0
  9
$UCSYDIR
 10
0.0
 20
1.0
 30
0.0
  9
$UCSORTHOREF
  2

  9
$UCSORTHOVIEW
 70
     0
  9
$UCSORGTOP
 10
0.0
 20
0.0
 30
0.0
  9
$UCSORGBOTTOM
 10
0.0
 20
0.0
 30
0.0
  9
$UCSORGLEFT
 10
0.0
 20
0.0
 30
0.0
  9
$UCSORGRIGHT
 10
0.0
 20
0.0
 30
0.0
  9
$UCSORGFRONT
 10
0.0
 20
0.0
 30
0.0
  9
$UCSORGBACK
 10
0.0
 20
0.0
 30
0.0
  9
$PUCSBASE
  2

  9
$PUCSNAME
  2

  9
$PUCSORG
 10
0.0
 20
0.0
 30
0.0
  9
$PUCSXDIR
 10
1.0
 20
0.0
 30
0.0
  9
$PUCSYDIR
 10
0.0
 20
1.0
 30
0.0
  9
$PUCSORTHOREF
  2

  9
$PUCSORTHOVIEW
 70
     0
  9
$PUCSORGTOP
 10
0.0
 20
0.0
 30
0.0
  9
$PUCSORGBOTTOM
 10
0.0
 20
0.0
 30
0.0
  9
$PUCSORGLEFT
 10
0.0
 20
0.0
 30
0.0
  9
$PUCSORGRIGHT
 10
0.0
 20
0.0
 30
0.0
  9
$PUCSORGFRONT
 10
0.0
 20
0.0
 30
0.0
  9
$PUCSORGBACK
 10
0.0
 20
0.0
 30
0.0
  9
$USERI1
 70
     0
  9
$USERI2
 70
     0
  9
$USERI3
 70
     0
  9
$USERI4
 70
     0
  9
$USERI5
 70
     0
  9
$USERR1
 40
0.0
  9
$USERR2
 40
0.0
  9
$USERR3
 40
0.0
  9
$USERR4
 40
0.0
  9
$USERR5
 40
0.0
  9
$WORLDVIEW
 70
     1
  9
$SHADEDGE
 70
     3
  9
$SHADEDIF
 70
    70
  9
$TILEMODE
 70
     1
  9
$MAXACTVP
 70
    64
  9
$PINSBASE
 10
0.0
 20
0.0
 30
0.0
  9
$PLIMCHECK
 70
     0
  9
$PEXTMIN
 10
1.000000000000000E+20
 20
1.000000000000000E+20
 30
1.000000000000000E+20
  9
$PEXTMAX
 10
-1.000000000000000E+20
 20
-1.000000000000000E+20
 30
-1.000000000000000E+20
  9
$PLIMMIN
 10
0.0
 20
0.0
  9
$PLIMMAX
 10
12.0
 20
9.0
  9
$UNITMODE
 70
     0
  9
$VISRETAIN
 70
     1
  9
$PLINEGEN
 70
     0
  9
$PSLTSCALE
 70
     1
  9
$TREEDEPTH
 70
  3020
  9
$CMLSTYLE
  2
Standard
  9
$CMLJUST
 70
     0
  9
$CMLSCALE
 40
1.0
  9
$PROXYGRAPHICS
 70
     1
  9
$MEASUREMENT
 70
     0
  9
$CELWEIGHT
370
    -1
  9
$ENDCAPS
280
     0
  9
$JOINSTYLE
280
     0
  9
$LWDISPLAY
290
     0
  9
$INSUNITS
 70
     0
  9
$HYPERLINKBASE
  1

  9
$STYLESHEET
  1
n-plot.ctb
  9
$XEDIT
290
     1
  9
$CEPSNTYPE
380
     0
  9
$PSTYLEMODE
290
     1
  9
$FINGERPRINTGUID
  2
{32FBA44C-28FB-41EE-BFDD-5155D1CE9BA7}
  9
$VERSIONGUID
  2
{F93E5ABB-4290-4C10-97F3-F2959C7D1E9A}
  9
$EXTNAMES
290
     1
  9
$PSVPSCALE
 40
0.0
  9
$OLESTARTUP
290
     0
  0
ENDSEC
  0
SECTION
  2
CLASSES
  0
CLASS
  1
ACDBDICTIONARYWDFLT
  2
AcDbDictionaryWithDefault
  3
ObjectDBX Classes
 90
        0
280
     0
281
     0
  0
CLASS
  1
MATERIAL
  2
AcDbMaterial
  3
ObjectDBX Classes
 90
     1153
280
     0
281
     0
  0
CLASS
  1
VISUALSTYLE
  2
AcDbVisualStyle
  3
ObjectDBX Classes
 90
     4095
280
     0
281
     0
  0
CLASS
  1
SCALE
  2
AcDbScale
  3
ObjectDBX Classes
 90
     1153
280
     0
281
     0
  0
CLASS
  1
TABLESTYLE
  2
AcDbTableStyle
  3
ObjectDBX Classes
 90
     4095
280
     0
281
     0
  0
CLASS
  1
MLEADERSTYLE
  2
AcDbMLeaderStyle
  3
ACDB_MLEADERSTYLE_CLASS
 90
     4095
280
     0
281
     0
  0
CLASS
  1
DICTIONARYVAR
  2
AcDbDictionaryVar
  3
ObjectDBX Classes
 90
        0
280
     0
281
     0
  0
CLASS
  1
SORTENTSTABLE
  2
AcDbSortentsTable
  3
ObjectDBX Classes
 90
        0
280
     0
281
     0
  0
CLASS
  1
CELLSTYLEMAP
  2
AcDbCellStyleMap
  3
ObjectDBX Classes
 90
     1152
280
     0
281
     0
  0
CLASS
  1
ACDBPLACEHOLDER
  2
AcDbPlaceHolder
  3
ObjectDBX Classes
 90
        0
280
     0
281
     0
  0
CLASS
  1
LAYOUT
  2
AcDbLayout
  3
ObjectDBX Classes
 90
        0
280
     0
281
     0
  0
ENDSEC
  0
SECTION
  2
TABLES
  0
TABLE
  2
VPORT
  5
8
330
0
100
AcDbSymbolTable
 70
     1
  0
VPORT
  5
8B
330
8
100
AcDbSymbolTableRecord
100
AcDbViewportTableRecord
  2
*Active
 70
     0
 10
0.0
 20
0.0
 11
1.0
 21
1.0
 12
1620.492381322821
 22
596.9469156426633
 13
0.0
 23
0.0
 14
1.0
 24
1.0
 15
0.0
 25
0.0
 16
0.0
 26
0.0
 36
1.0
 17
0.0
 27
0.0
 37
0.0
 40
486.2780024678185
 41
1.494535519125683
 42
50.0
 43
0.0
 44
0.0
 50
0.0
 51
0.0
 71
     0
 72
   100
 73
     1
 74
     1
 75
     0
 76
     0
 77
     0
 78
     0
281
     0
 65
     1
110
0.0
120
0.0
130
0.0
111
1.0
121
0.0
131
0.0
112
0.0
122
1.0
132
0.0
 79
     0
146
0.0
  0
ENDTAB
  0
TABLE
  2
LTYPE
  5
5
330
0
100
AcDbSymbolTable
 70
     5
  0
LTYPE
  5
5A
330
5
100
AcDbSymbolTableRecord
100
AcDbLinetypeTableRecord
  2
ByBlock
 70
     0
  3

 72
    65
 73
     0
 40
0.0
  0
LTYPE
  5
5B
330
5
100
AcDbSymbolTableRecord
100
AcDbLinetypeTableRecord
  2
ByLayer
 70
     0
  3

 72
    65
 73
     0
 40
0.0
  0
LTYPE
  5
5C
330
5
100
AcDbSymbolTableRecord
100
AcDbLinetypeTableRecord
  2
CONTINUOUS
 70
     0
  3
Solid-line
 72
    65
 73
     0
 40
0.0
  0
LTYPE
  5
72
330
5
100
AcDbSymbolTableRecord
100
AcDbLinetypeTableRecord
  2
CENTER
 70
     0
  3
CENTER
 72
    65
 73
     4
 40
2.0
 49
1.25
 74
     0
 49
-0.25
 74
     0
 49
0.25
 74
     0
 49
-0.25
 74
     0
  0
LTYPE
  5
90E
330
5
100
AcDbSymbolTableRecord
100
AcDbLinetypeTableRecord
  2
HIDDEN
 70
     0
  3
Hidden __ __ __ __ __ __ __ __ __ __ __ __ __ _
 72
    65
 73
     2
 40
0.375
 49
0.25
 74
     0
 49
-0.125
 74
     0
  0
ENDTAB
  0
TABLE
  2
LAYER
  5
2
102
{ACAD_XDICTIONARY
360
280
102
}
330
0
100
AcDbSymbolTable
 70
     2
  0
LAYER
  5
54
102
{ACAD_XDICTIONARY
360
643
102
}
330
2
100
AcDbSymbolTableRecord
100
AcDbLayerTableRecord
  2
0
 70
     0
 62
     7
  6
CONTINUOUS
370
    -3
390
F
  0
LAYER
  5
277
330
2
100
AcDbSymbolTableRecord
100
AcDbLayerTableRecord
  2
Defpoints
 70
     0
 62
     7
  6
CONTINUOUS
290
     0
370
    -3
390
F
  0
ENDTAB
  0
TABLE
  2
STYLE
  5
3
330
0
100
AcDbSymbolTable
 70
     8
  0
STYLE
  5
55
330
3
100
AcDbSymbolTableRecord
100
AcDbTextStyleTableRecord
  2
STANDARD
 70
     0
 40
0.0
 41
1.0
 50
0.0
 71
     0
 42
0.2
  3
TXT
  4
BIGFONT
  0
STYLE
  5
278
330
3
100
AcDbSymbolTableRecord
100
AcDbTextStyleTableRecord
  2
高3.2
 70
     0
 40
3.2
 41
1.0
 50
0.0
 71
     0
 42
3.2
  3
txt.shx
  4
bigfont.shx
  0
STYLE
  5
279
330
3
100
AcDbSymbolTableRecord
100
AcDbTextStyleTableRecord
  2
高6.3
 70
     0
 40
6.299999999999998
 41
1.0
 50
0.0
 71
     0
 42
6.299999999999998
  3
txt.shx
  4
bigfont.shx
  0
STYLE
  5
27A
330
3
100
AcDbSymbolTableRecord
100
AcDbTextStyleTableRecord
  2
高2.5
 70
     0
 40
2.5
 41
1.0
 50
0.0
 71
     0
 42
0.2
  3
txt.shx
  4
bigfont.shx
  0
STYLE
  5
27B
330
3
100
AcDbSymbolTableRecord
100
AcDbTextStyleTableRecord
  2
高4.5
 70
     0
 40
4.5
 41
1.0
 50
0.0
 71
     0
 42
6.299999999999998
  3
txt.shx
  4
bigfont.shx
  0
STYLE
  5
27C
330
3
100
AcDbSymbolTableRecord
100
AcDbTextStyleTableRecord
  2
高2
 70
     0
 40
2.0
 41
1.0
 50
0.0
 71
     0
 42
6.299999999999998
  3
txt.shx
  4
bigfont.shx
  0
STYLE
  5
90D
330
3
100
AcDbSymbolTableRecord
100
AcDbTextStyleTableRecord
  2

 70
     1
 40
0.0
 41
1.0
 50
0.0
 71
     0
 42
3.2
  3
ltypeshp.shx
  4

  0
ENDTAB
  0
TABLE
  2
VIEW
  5
6
330
0
100
AcDbSymbolTable
 70
     0
  0
ENDTAB
  0
TABLE
  2
UCS
  5
7
330
0
100
AcDbSymbolTable
 70
     0
  0
ENDTAB
  0
TABLE
  2
APPID
  5
9
330
0
100
AcDbSymbolTable
 70
    11
  0
APPID
  5
56
330
9
100
AcDbSymbolTableRecord
100
AcDbRegAppTableRecord
  2
ACAD
 70
     0
  0
APPID
  5
5D
330
9
100
AcDbSymbolTableRecord
100
AcDbRegAppTableRecord
  2
AcadAnnotative
 70
     0
  0
APPID
  5
27E
330
9
100
AcDbSymbolTableRecord
100
AcDbRegAppTableRecord
  2
ACAD_DSTYLE_DIMJOGGED_JOGANGLE_SYMBOL
 70
     0
  0
APPID
  5
27F
330
9
100
AcDbSymbolTableRecord
100
AcDbRegAppTableRecord
  2
ACAD_PSEXT
 70
     0
  0
APPID
  5
630
330
9
100
AcDbSymbolTableRecord
100
AcDbRegAppTableRecord
  2
ACAD_EXEMPT_FROM_CAD_STANDARDS
 70
     0
  0
APPID
  5
687
330
9
100
AcDbSymbolTableRecord
100
AcDbRegAppTableRecord
  2
ACAD_MLEADERVER
 70
     0
  0
APPID
  5
68C
330
9
100
AcDbSymbolTableRecord
100
AcDbRegAppTableRecord
  2
ACAD_DSTYLE_DIMARC_LENGTH_SYMBOL
 70
     0
  0
APPID
  5
68D
330
9
100
AcDbSymbolTableRecord
100
AcDbRegAppTableRecord
  2
ACAD_DSTYLE_DIMEXT_LENGTH
 70
     0
  0
APPID
  5
74A
330
9
100
AcDbSymbolTableRecord
100
AcDbRegAppTableRecord
  2
ACAD_DSTYLE_DIMJAG
 70
     0
  0
APPID
  5
74B
330
9
100
AcDbSymbolTableRecord
100
AcDbRegAppTableRecord
  2
ACAD_DSTYLE_DIMBREAK
 70
     0
  0
APPID
  5
74C
330
9
100
AcDbSymbolTableRecord
100
AcDbRegAppTableRecord
  2
ACAD_DSTYLE_DIMTALN
 70
     0
  0
ENDTAB
  0
TABLE
  2
DIMSTYLE
  5
A
330
0
100
AcDbSymbolTable
 70
    13
100
AcDbDimStyleTable
 71
     1
340
749
  0
DIMSTYLE
105
57
330
A
100
AcDbSymbolTableRecord
100
AcDbDimStyleTableRecord
  2
Standard
 70
     0
340
55
  0
DIMSTYLE
105
27D
330
A
100
AcDbSymbolTableRecord
100
AcDbDimStyleTableRecord
  2
1：1
 70
     0
 41
2.5
 42
0.25
 43
0.2
 44
1.25
 73
     0
 74
     0
 77
     3
 78
     8
 79
     2
140
3.0
141
0.0
143
0.03937007874016
147
0.625
171
     3
172
     1
178
     4
179
     1
271
     2
272
     2
274
     3
283
     0
284
     8
288
     1
289
     0
340
55
341
233
342
233
1001
ACAD_DSTYLE_DIMARC_LENGTH_SYMBOL
1070
   379
1070
     2
1001
ACAD_DSTYLE_DIMEXT_LENGTH
1070
   378
1040
1.25
1001
ACAD_DSTYLE_DIMJOGGED_JOGANGLE_SYMBOL
1070
   384
1040
1.570796326794896
  0
DIMSTYLE
105
741
330
A
100
AcDbSymbolTableRecord
100
AcDbDimStyleTableRecord
  2
2：1
 70
     0
 41
2.5
 42
0.25
 43
0.2
 44
1.25
 73
     0
 74
     0
 77
     3
 78
     8
 79
     2
140
3.0
141
0.0
143
0.03937007874016
144
0.5
147
0.625
171
     3
172
     1
178
     4
179
     1
271
     2
272
     2
274
     3
283
     0
284
     8
288
     1
289
     0
340
55
341
233
342
233
1001
ACAD_DSTYLE_DIMARC_LENGTH_SYMBOL
1070
   379
1070
     2
1001
ACAD_DSTYLE_DIMEXT_LENGTH
1070
   378
1040
1.25
1001
ACAD_DSTYLE_DIMJOGGED_JOGANGLE_SYMBOL
1070
   384
1040
1.570796326794896
  0
DIMSTYLE
105
742
330
A
100
AcDbSymbolTableRecord
100
AcDbDimStyleTableRecord
  2
5：1
 70
     0
 41
2.5
 42
0.25
 43
0.2
 44
1.25
 73
     0
 74
     0
 77
     3
 78
     8
 79
     2
140
3.0
141
0.0
143
0.03937007874016
144
0.2
147
0.625
171
     3
172
     1
178
     4
179
     1
271
     2
272
     2
274
     3
283
     0
284
     8
288
     1
289
     0
340
55
341
233
342
233
1001
ACAD_DSTYLE_DIMARC_LENGTH_SYMBOL
1070
   379
1070
     2
1001
ACAD_DSTYLE_DIMEXT_LENGTH
1070
   378
1040
1.25
1001
ACAD_DSTYLE_DIMJOGGED_JOGANGLE_SYMBOL
1070
   384
1040
1.570796326794896
  0
DIMSTYLE
105
743
330
A
100
AcDbSymbolTableRecord
100
AcDbDimStyleTableRecord
  2
10：1
 70
     0
 41
2.5
 42
0.25
 43
0.2
 44
1.25
 73
     0
 74
     0
 77
     3
 78
     8
 79
     2
140
3.0
141
0.0
143
0.03937007874016
144
0.1
147
0.625
171
     3
172
     1
178
     4
179
     1
271
     2
272
     2
274
     3
283
     0
284
     8
288
     1
289
     0
340
55
341
233
342
233
1001
ACAD_DSTYLE_DIMARC_LENGTH_SYMBOL
1070
   379
1070
     2
1001
ACAD_DSTYLE_DIMEXT_LENGTH
1070
   378
1040
1.25
1001
ACAD_DSTYLE_DIMJOGGED_JOGANGLE_SYMBOL
1070
   384
1040
1.570796326794896
  0
DIMSTYLE
105
744
330
A
100
AcDbSymbolTableRecord
100
AcDbDimStyleTableRecord
  2
1／2
 70
     0
 41
2.5
 42
0.25
 43
0.2
 44
1.25
 73
     0
 74
     0
 77
     3
 78
     8
 79
     2
140
3.0
141
0.0
143
0.03937007874016
144
2.0
147
0.625
171
     3
172
     1
178
     4
179
     1
271
     2
272
     2
274
     3
283
     0
284
     8
288
     1
289
     0
340
55
341
233
342
233
1001
ACAD_DSTYLE_DIMARC_LENGTH_SYMBOL
1070
   379
1070
     2
1001
ACAD_DSTYLE_DIMEXT_LENGTH
1070
   378
1040
1.25
1001
ACAD_DSTYLE_DIMJOGGED_JOGANGLE_SYMBOL
1070
   384
1040
1.570796326794896
  0
DIMSTYLE
105
745
330
A
100
AcDbSymbolTableRecord
100
AcDbDimStyleTableRecord
  2
1／5
 70
     0
 41
2.5
 42
0.25
 43
0.2
 44
1.25
 73
     0
 74
     0
 77
     3
 78
     8
 79
     2
140
3.0
141
0.0
143
0.03937007874016
144
5.0
147
0.625
171
     3
172
     1
178
     4
179
     1
271
     2
272
     2
274
     3
283
     0
284
     8
288
     1
289
     0
340
55
341
233
342
233
1001
ACAD_DSTYLE_DIMARC_LENGTH_SYMBOL
1070
   379
1070
     2
1001
ACAD_DSTYLE_DIMEXT_LENGTH
1070
   378
1040
1.25
1001
ACAD_DSTYLE_DIMJOGGED_JOGANGLE_SYMBOL
1070
   384
1040
1.570796326794896
  0
DIMSTYLE
105
746
330
A
100
AcDbSymbolTableRecord
100
AcDbDimStyleTableRecord
  2
1／10
 70
     0
 41
2.5
 42
0.25
 43
0.2
 44
1.25
 73
     0
 74
     0
 77
     3
 78
     8
 79
     2
140
3.0
141
0.0
143
0.03937007874016
144
10.0
147
0.625
171
     3
172
     1
178
     4
179
     1
271
     2
272
     2
274
     3
283
     0
284
     8
288
     1
289
     0
340
55
341
233
342
233
1001
ACAD_DSTYLE_DIMARC_LENGTH_SYMBOL
1070
   379
1070
     2
1001
ACAD_DSTYLE_DIMEXT_LENGTH
1070
   378
1040
1.25
1001
ACAD_DSTYLE_DIMJOGGED_JOGANGLE_SYMBOL
1070
   384
1040
1.570796326794896
  0
DIMSTYLE
105
747
330
A
100
AcDbSymbolTableRecord
100
AcDbDimStyleTableRecord
  2
1／4
 70
     0
 41
2.5
 42
0.25
 43
0.2
 44
1.25
 73
     0
 74
     0
 77
     3
 78
     8
 79
     2
140
3.0
141
0.0
143
0.03937007874016
144
4.0
147
0.625
171
     3
172
     1
178
     4
179
     1
271
     2
272
     2
274
     3
283
     0
284
     8
288
     1
289
     0
340
55
341
233
342
233
1001
ACAD_DSTYLE_DIMARC_LENGTH_SYMBOL
1070
   379
1070
     2
1001
ACAD_DSTYLE_DIMEXT_LENGTH
1070
   378
1040
1.25
1001
ACAD_DSTYLE_DIMJOGGED_JOGANGLE_SYMBOL
1070
   384
1040
1.570796326794896
  0
DIMSTYLE
105
748
330
A
100
AcDbSymbolTableRecord
100
AcDbDimStyleTableRecord
  2
1／3
 70
     0
 41
2.5
 42
0.25
 43
0.2
 44
1.25
 73
     0
 74
     0
 77
     3
 78
     8
 79
     2
140
3.0
141
0.0
143
0.03937007874016
144
3.0
147
0.625
171
     3
172
     1
178
     4
179
     1
271
     2
272
     2
274
     3
283
     0
284
     8
288
     1
289
     0
340
55
341
233
342
233
1001
ACAD_DSTYLE_DIMARC_LENGTH_SYMBOL
1070
   379
1070
     2
1001
ACAD_DSTYLE_DIMEXT_LENGTH
1070
   378
1040
1.25
1001
ACAD_DSTYLE_DIMJOGGED_JOGANGLE_SYMBOL
1070
   384
1040
1.570796326794896
  0
DIMSTYLE
105
749
330
A
100
AcDbSymbolTableRecord
100
AcDbDimStyleTableRecord
  2
FREE
 70
     0
 41
2.5
 42
0.25
 43
0.2
 44
1.25
 73
     0
 74
     0
 77
     3
 78
     8
 79
     2
140
3.0
141
0.0
143
0.03937007874016
147
0.625
171
     3
172
     1
178
     4
179
     1
271
     2
272
     2
274
     3
283
     0
284
     8
288
     1
289
     0
340
55
341
233
342
233
1001
ACAD_DSTYLE_DIMBREAK
1070
   391
1040
3.75
1001
ACAD_DSTYLE_DIMJAG
1070
   388
1040
1.5
1001
ACAD_DSTYLE_DIMTALN
1070
   392
1070
     0
1001
ACAD_DSTYLE_DIMARC_LENGTH_SYMBOL
1070
   379
1070
     2
1001
ACAD_DSTYLE_DIMEXT_LENGTH
1070
   378
1040
1.25
1001
ACAD_DSTYLE_DIMJOGGED_JOGANGLE_SYMBOL
1070
   384
1040
1.570796326794896
  0
ENDTAB
  0
TABLE
  2
BLOCK_RECORD
  5
1
330
0
100
AcDbSymbolTable
 70
    20
  0
BLOCK_RECORD
  5
6B
102
{ACAD_XDICTIONARY
360
58C
102
}
330
1
100
AcDbSymbolTableRecord
100
AcDbBlockTableRecord
  2
*Model_Space
340
6E
  0
BLOCK_RECORD
  5
67
330
1
100
AcDbSymbolTableRecord
100
AcDbBlockTableRecord
  2
*Paper_Space
340
6A
  0
BLOCK_RECORD
  5
233
330
1
100
AcDbSymbolTableRecord
100
AcDbBlockTableRecord
  2
_Open30
340
0
102
{BLKREFS
331
827
331
828
331
832
331
833
331
83D
331
83E
331
848
331
849
331
853
331
854
331
85E
331
85F
331
869
331
86A
331
874
331
875
331
87F
331
880
331
888
331
889
331
A57
331
A58
331
A60
331
A61
331
A69
331
A6A
331
A72
331
A73
331
A7B
331
A7C
331
A84
331
A85
331
A8D
331
A8E
102
}
  0
BLOCK_RECORD
  5
52A
330
1
100
AcDbSymbolTableRecord
100
AcDbBlockTableRecord
  2
*D1
340
0
  0
BLOCK_RECORD
  5
550
330
1
100
AcDbSymbolTableRecord
100
AcDbBlockTableRecord
  2
*D2
340
0
  0
BLOCK_RECORD
  5
798
330
1
100
AcDbSymbolTableRecord
100
AcDbBlockTableRecord
  2
*D3
340
0
  0
BLOCK_RECORD
  5
7A6
330
1
100
AcDbSymbolTableRecord
100
AcDbBlockTableRecord
  2
*D4
340
0
  0
BLOCK_RECORD
  5
7B4
330
1
100
AcDbSymbolTableRecord
100
AcDbBlockTableRecord
  2
*D5
340
0
  0
BLOCK_RECORD
  5
7C2
330
1
100
AcDbSymbolTableRecord
100
AcDbBlockTableRecord
  2
*D6
340
0
  0
BLOCK_RECORD
  5
7D0
330
1
100
AcDbSymbolTableRecord
100
AcDbBlockTableRecord
  2
*D7
340
0
  0
BLOCK_RECORD
  5
7DE
330
1
100
AcDbSymbolTableRecord
100
AcDbBlockTableRecord
  2
*D8
340
0
  0
BLOCK_RECORD
  5
7EC
330
1
100
AcDbSymbolTableRecord
100
AcDbBlockTableRecord
  2
*D9
340
0
  0
BLOCK_RECORD
  5
7FA
330
1
100
AcDbSymbolTableRecord
100
AcDbBlockTableRecord
  2
*D10
340
0
  0
BLOCK_RECORD
  5
808
330
1
100
AcDbSymbolTableRecord
100
AcDbBlockTableRecord
  2
*D11
340
0
  0
BLOCK_RECORD
  5
816
330
1
100
AcDbSymbolTableRecord
100
AcDbBlockTableRecord
  2
*D12
340
0
  0
BLOCK_RECORD
  5
961
330
1
100
AcDbSymbolTableRecord
100
AcDbBlockTableRecord
  2
*D14
340
0
  0
BLOCK_RECORD
  5
96E
330
1
100
AcDbSymbolTableRecord
100
AcDbBlockTableRecord
  2
*D15
340
0
  0
BLOCK_RECORD
  5
97B
330
1
100
AcDbSymbolTableRecord
100
AcDbBlockTableRecord
  2
*D16
340
0
  0
BLOCK_RECORD
  5
988
330
1
100
AcDbSymbolTableRecord
100
AcDbBlockTableRecord
  2
*D17
340
0
  0
BLOCK_RECORD
  5
9E9
330
1
100
AcDbSymbolTableRecord
100
AcDbBlockTableRecord
  2
*D18
340
0
  0
ENDTAB
  0
ENDSEC
  0
SECTION
  2
BLOCKS
  0
BLOCK
  5
6C
330
6B
100
AcDbEntity
  8
0
100
AcDbBlockBegin
  2
*Model_Space
 70
     0
 10
0.0
 20
0.0
 30
0.0
  3
*Model_Space
  1

  0
ENDBLK
  5
6D
330
6B
100
AcDbEntity
  8
0
100
AcDbBlockEnd
  0
BLOCK
  5
68
330
67
100
AcDbEntity
 67
     1
  8
0
100
AcDbBlockBegin
  2
*Paper_Space
 70
     0
 10
0.0
 20
0.0
 30
0.0
  3
*Paper_Space
  1

  0
ENDBLK
  5
69
330
67
100
AcDbEntity
 67
     1
  8
0
100
AcDbBlockEnd
  0
BLOCK
  5
234
330
233
100
AcDbEntity
  8
0
100
AcDbBlockBegin
  2
_Open30
 70
     0
 10
0.0
 20
0.0
 30
0.0
  3
_Open30
  1

  0
LINE
  5
235
330
233
100
AcDbEntity
  8
0
  6
ByBlock
 62
     0
370
    -2
100
AcDbLine
 10
-1.0
 20
0.267949
 30
0.0
 11
0.0
 21
0.0
 31
0.0
  0
LINE
  5
236
330
233
100
AcDbEntity
  8
0
  6
ByBlock
 62
     0
370
    -2
100
AcDbLine
 10
0.0
 20
0.0
 30
0.0
 11
-1.0
 21
-0.267949
 31
0.0
  0
LINE
  5
237
330
233
100
AcDbEntity
  8
0
  6
ByBlock
 62
     0
370
    -2
100
AcDbLine
 10
0.0
 20
0.0
 30
0.0
 11
-1.0
 21
0.0
 31
0.0
  0
ENDBLK
  5
238
330
233
100
AcDbEntity
  8
0
100
AcDbBlockEnd
  0
BLOCK
  5
52B
330
52A
100
AcDbEntity
  8
0
100
AcDbBlockBegin
  2
*D1
 70
     1
 10
0.0
 20
0.0
 30
0.0
  3
*D1
  1

  0
LINE
  5
A54
330
52A
100
AcDbEntity
  8
0
  6
Continuous
 62
     0
370
    -2
100
AcDbLine
 10
1630.11685563488
 20
669.5448808532271
 30
0.0
 11
1630.11685563488
 21
698.8168076951093
 31
0.0
  0
LINE
  5
A55
330
52A
100
AcDbEntity
  8
0
  6
Continuous
 62
     0
370
    -2
100
AcDbLine
 10
1430.116855634881
 20
655.0448808532271
 30
0.0
 11
1430.116855634881
 21
698.8168076951093
 31
0.0
  0
LINE
  5
A56
330
52A
100
AcDbEntity
  8
0
  6
Continuous
 62
     0
370
    -2
100
AcDbLine
 10
1627.616855634881
 20
697.5668076951093
 30
0.0
 11
1432.616855634881
 21
697.5668076951093
 31
0.0
  0
INSERT
  5
A57
330
52A
100
AcDbEntity
  8
0
  6
Continuous
 62
     0
370
    -2
100
AcDbBlockReference
  2
_Open30
 10
1630.11685563488
 20
697.5668076951093
 30
0.0
 41
2.5
 42
2.5
 43
2.5
  0
INSERT
  5
A58
330
52A
100
AcDbEntity
  8
0
  6
Continuous
 62
     0
370
    -2
100
AcDbBlockReference
  2
_Open30
 10
1430.116855634881
 20
697.5668076951093
 30
0.0
 41
2.5
 42
2.5
 43
2.5
 50
180.0
  0
MTEXT
  5
A59
330
52A
100
AcDbEntity
  8
0
  6
Continuous
 62
     4
100
AcDbMText
 10
1538.755983857656
 20
699.6918076951093
 30
0.0
 40
3.0
 41
0.0
 71
     5
 72
     1
  1
(200)
 73
     1
 44
1.0
1001
ACAD
1000
MTEXTBEGIN
1070
    73
1070
     1
1070
    44
1040
1.0
1070
    74
1070
     0
1000
MTEXTEND
  0
POINT
  5
A5A
330
52A
100
AcDbEntity
  8
Defpoints
  6
Continuous
 62
     0
100
AcDbPoint
 10
1630.11685563488
 20
669.2948808532271
 30
0.0
  0
POINT
  5
A5B
330
52A
100
AcDbEntity
  8
Defpoints
  6
Continuous
 62
     0
100
AcDbPoint
 10
1430.116855634881
 20
654.7948808532271
 30
0.0
  0
POINT
  5
A5C
330
52A
100
AcDbEntity
  8
Defpoints
  6
Continuous
 62
     0
100
AcDbPoint
 10
1430.116855634881
 20
697.5668076951093
 30
0.0
  0
ENDBLK
  5
52C
330
52A
100
AcDbEntity
  8
0
100
AcDbBlockEnd
  0
BLOCK
  5
551
330
550
100
AcDbEntity
  8
0
100
AcDbBlockBegin
  2
*D2
 70
     1
 10
0.0
 20
0.0
 30
0.0
  3
*D2
  1

  0
LINE
  5
A5D
330
550
100
AcDbEntity
  8
0
  6
Continuous
 62
     0
370
    -2
100
AcDbLine
 10
1628.366855634881
 20
671.2948808532271
 30
0.0
 11
1653.471287105922
 21
671.2948808532271
 31
0.0
  0
LINE
  5
A5E
330
550
100
AcDbEntity
  8
0
  6
Continuous
 62
     0
370
    -2
100
AcDbLine
 10
1628.366855634881
 20
638.2948808532271
 30
0.0
 11
1653.471287105922
 21
638.2948808532271
 31
0.0
  0
LINE
  5
A5F
330
550
100
AcDbEntity
  8
0
  6
Continuous
 62
     0
370
    -2
100
AcDbLine
 10
1652.221287105922
 20
668.7948808532271
 30
0.0
 11
1652.221287105922
 21
640.7948808532271
 31
0.0
  0
INSERT
  5
A60
330
550
100
AcDbEntity
  8
0
  6
Continuous
 62
     0
370
    -2
100
AcDbBlockReference
  2
_Open30
 10
1652.221287105922
 20
671.2948808532271
 30
0.0
 41
2.5
 42
2.5
 43
2.5
 50
90.0
  0
INSERT
  5
A61
330
550
100
AcDbEntity
  8
0
  6
Continuous
 62
     0
370
    -2
100
AcDbBlockReference
  2
_Open30
 10
1652.221287105922
 20
638.2948808532271
 30
0.0
 41
2.5
 42
2.5
 43
2.5
 50
270.0
  0
MTEXT
  5
A62
330
550
100
AcDbEntity
  8
0
  6
Continuous
 62
     4
100
AcDbMText
 10
1650.096287105922
 20
654.8617445983978
 30
0.0
 40
3.0
 41
0.0
 71
     5
 72
     1
  1
%%C33
 11
0.0000000000000001
 21
1.0
 31
0.0
 73
     1
 44
1.0
1001
ACAD
1000
MTEXTBEGIN
1070
    73
1070
     1
1070
    44
1040
1.0
1070
    74
1070
     0
1000
MTEXTEND
  0
POINT
  5
A63
330
550
100
AcDbEntity
  8
Defpoints
  6
Continuous
 62
     0
100
AcDbPoint
 10
1628.11685563488
 20
671.2948808532271
 30
0.0
  0
POINT
  5
A64
330
550
100
AcDbEntity
  8
Defpoints
  6
Continuous
 62
     0
100
AcDbPoint
 10
1628.11685563488
 20
638.2948808532271
 30
0.0
  0
POINT
  5
A65
330
550
100
AcDbEntity
  8
Defpoints
  6
Continuous
 62
     0
100
AcDbPoint
 10
1652.221287105922
 20
638.2948808532271
 30
0.0
  0
ENDBLK
  5
552
330
550
100
AcDbEntity
  8
0
100
AcDbBlockEnd
  0
BLOCK
  5
799
330
798
100
AcDbEntity
  8
0
100
AcDbBlockBegin
  2
*D3
 70
     1
 10
0.0
 20
0.0
 30
0.0
  3
*D3
  1

  0
LINE
  5
822
330
798
100
AcDbEntity
  8
0
 62
     0
370
    -2
100
AcDbLine
 10
1978.921174257133
 20
722.7142517539638
 30
0.0
 11
1978.921174257133
 21
719.8046203319547
 31
0.0
  0
LINE
  5
823
330
798
100
AcDbEntity
  8
0
 62
     0
370
    -2
100
AcDbLine
 10
1976.463987203013
 20
722.7142517539638
 30
0.0
 11
1976.463987203013
 21
719.8046203319547
 31
0.0
  0
LINE
  5
824
330
798
100
AcDbEntity
  8
0
 62
     0
370
    -2
100
AcDbLine
 10
1981.421174257133
 20
721.0546203319547
 30
0.0
 11
1983.921174257133
 21
721.0546203319547
 31
0.0
  0
LINE
  5
825
330
798
100
AcDbEntity
  8
0
 62
     0
370
    -2
100
AcDbLine
 10
1973.963987203013
 20
721.0546203319547
 30
0.0
 11
1961.213987203013
 21
721.0546203319547
 31
0.0
  0
LINE
  5
826
330
798
100
AcDbEntity
  8
0
 62
     0
370
    -2
100
AcDbLine
 10
1978.921174257133
 20
721.0546203319547
 30
0.0
 11
1976.463987203013
 21
721.0546203319547
 31
0.0
  0
INSERT
  5
827
330
798
100
AcDbEntity
  8
0
 62
     0
370
    -2
100
AcDbBlockReference
  2
_Open30
 10
1978.921174257133
 20
721.0546203319547
 30
0.0
 41
2.5
 42
2.5
 43
2.5
 50
180.0
  0
INSERT
  5
828
330
798
100
AcDbEntity
  8
0
 62
     0
370
    -2
100
AcDbBlockReference
  2
_Open30
 10
1976.463987203013
 20
721.0546203319547
 30
0.0
 41
2.5
 42
2.5
 43
2.5
  0
MTEXT
  5
829
330
798
100
AcDbEntity
  8
0
 62
     4
100
AcDbMText
 10
1966.338987203013
 20
723.1796203319547
 30
0.0
 40
3.0
 41
0.0
 71
     5
 72
     1
  1
2.46
 73
     1
 44
1.0
1001
ACAD
1000
MTEXTBEGIN
1070
    73
1070
     1
1070
    44
1040
1.0
1070
    74
1070
     0
1000
MTEXTEND
  0
POINT
  5
82A
330
798
100
AcDbEntity
  8
Defpoints
 62
     0
100
AcDbPoint
 10
1978.921174257133
 20
722.9642517539637
 30
0.0
  0
POINT
  5
82B
330
798
100
AcDbEntity
  8
Defpoints
 62
     0
100
AcDbPoint
 10
1976.463987203013
 20
722.9642517539637
 30
0.0
  0
POINT
  5
82C
330
798
100
AcDbEntity
  8
Defpoints
 62
     0
100
AcDbPoint
 10
1976.463987203013
 20
721.0546203319547
 30
0.0
  0
ENDBLK
  5
79A
330
798
100
AcDbEntity
  8
0
100
AcDbBlockEnd
  0
BLOCK
  5
7A7
330
7A6
100
AcDbEntity
  8
0
100
AcDbBlockBegin
  2
*D4
 70
     1
 10
0.0
 20
0.0
 30
0.0
  3
*D4
  1

  0
LINE
  5
82D
330
7A6
100
AcDbEntity
  8
0
 62
     0
370
    -2
100
AcDbLine
 10
1980.559299163206
 20
717.2581621812013
 30
0.0
 11
1980.559299163206
 21
714.712270111738
 31
0.0
  0
LINE
  5
82E
330
7A6
100
AcDbEntity
  8
0
 62
     0
370
    -2
100
AcDbLine
 10
1977.465063365064
 20
717.2581621812013
 30
0.0
 11
1977.465063365064
 21
714.712270111738
 31
0.0
  0
LINE
  5
82F
330
7A6
100
AcDbEntity
  8
0
 62
     0
370
    -2
100
AcDbLine
 10
1983.059299163206
 20
715.9622701117378
 30
0.0
 11
1985.559299163206
 21
715.9622701117378
 31
0.0
  0
LINE
  5
830
330
7A6
100
AcDbEntity
  8
0
 62
     0
370
    -2
100
AcDbLine
 10
1974.965063365063
 20
715.9622701117378
 30
0.0
 11
1961.13173003173
 21
715.9622701117378
 31
0.0
  0
LINE
  5
831
330
7A6
100
AcDbEntity
  8
0
 62
     0
370
    -2
100
AcDbLine
 10
1980.559299163206
 20
715.9622701117378
 30
0.0
 11
1977.465063365064
 21
715.9622701117378
 31
0.0
  0
INSERT
  5
832
330
7A6
100
AcDbEntity
  8
0
 62
     0
370
    -2
100
AcDbBlockReference
  2
_Open30
 10
1980.559299163206
 20
715.9622701117378
 30
0.0
 41
2.5
 42
2.5
 43
2.5
 50
180.0
  0
INSERT
  5
833
330
7A6
100
AcDbEntity
  8
0
 62
     0
370
    -2
100
AcDbBlockReference
  2
_Open30
 10
1977.465063365064
 20
715.9622701117378
 30
0.0
 41
2.5
 42
2.5
 43
2.5
  0
MTEXT
  5
834
330
7A6
100
AcDbEntity
  8
0
 62
     4
100
AcDbMText
 10
1966.340063365063
 20
717.837270111738
 30
0.0
 40
2.5
 41
0.0
 71
     5
 72
     1
  1
15.47
  7
高2.5
 73
     1
 44
1.0
1001
ACAD
1000
MTEXTBEGIN
1070
    73
1070
     1
1070
    44
1040
1.0
1070
    74
1070
     0
1000
MTEXTEND
  0
POINT
  5
835
330
7A6
100
AcDbEntity
  8
Defpoints
 62
     0
100
AcDbPoint
 10
1980.559299163206
 20
717.5081621812013
 30
0.0
  0
POINT
  5
836
330
7A6
100
AcDbEntity
  8
Defpoints
 62
     0
100
AcDbPoint
 10
1977.465063365064
 20
717.5081621812013
 30
0.0
  0
POINT
  5
837
330
7A6
100
AcDbEntity
  8
Defpoints
 62
     0
100
AcDbPoint
 10
1977.465063365064
 20
715.9622701117378
 30
0.0
  0
ENDBLK
  5
7A8
330
7A6
100
AcDbEntity
  8
0
100
AcDbBlockEnd
  0
BLOCK
  5
7B5
330
7B4
100
AcDbEntity
  8
0
100
AcDbBlockBegin
  2
*D5
 70
     1
 10
0.0
 20
0.0
 30
0.0
  3
*D5
  1

  0
LINE
  5
838
330
7B4
100
AcDbEntity
  8
0
 62
     0
370
    -2
100
AcDbLine
 10
1982.288430771292
 20
711.8020724653547
 30
0.0
 11
1982.288430771292
 21
709.5289848029873
 31
0.0
  0
LINE
  5
839
330
7B4
100
AcDbEntity
  8
0
 62
     0
370
    -2
100
AcDbLine
 10
1978.2841258181
 20
711.8020724653547
 30
0.0
 11
1978.2841258181
 21
709.5289848029873
 31
0.0
  0
LINE
  5
83A
330
7B4
100
AcDbEntity
  8
0
 62
     0
370
    -2
100
AcDbLine
 10
1984.788430771292
 20
710.7789848029873
 30
0.0
 11
1987.288430771292
 21
710.7789848029873
 31
0.0
  0
LINE
  5
83B
330
7B4
100
AcDbEntity
  8
0
 62
     0
370
    -2
100
AcDbLine
 10
1975.7841258181
 20
710.7789848029873
 30
0.0
 11
1964.0341258181
 21
710.7789848029873
 31
0.0
  0
LINE
  5
83C
330
7B4
100
AcDbEntity
  8
0
 62
     0
370
    -2
100
AcDbLine
 10
1982.288430771292
 20
710.7789848029873
 30
0.0
 11
1978.2841258181
 21
710.7789848029873
 31
0.0
  0
INSERT
  5
83D
330
7B4
100
AcDbEntity
  8
0
 62
     0
370
    -2
100
AcDbBlockReference
  2
_Open30
 10
1982.288430771292
 20
710.7789848029873
 30
0.0
 41
2.5
 42
2.5
 43
2.5
 50
180.0
  0
INSERT
  5
83E
330
7B4
100
AcDbEntity
  8
0
 62
     0
370
    -2
100
AcDbBlockReference
  2
_Open30
 10
1978.2841258181
 20
710.7789848029873
 30
0.0
 41
2.5
 42
2.5
 43
2.5
  0
MTEXT
  5
83F
330
7B4
100
AcDbEntity
  8
0
 62
     4
100
AcDbMText
 10
1968.6591258181
 20
713.0039848029873
 30
0.0
 40
3.2
 41
0.0
 71
     5
 72
     1
  1
8.01
  7
高3.2
 73
     1
 44
1.0
1001
ACAD
1000
MTEXTBEGIN
1070
    73
1070
     1
1070
    44
1040
1.0
1070
    74
1070
     0
1000
MTEXTEND
  0
POINT
  5
840
330
7B4
100
AcDbEntity
  8
Defpoints
 62
     0
100
AcDbPoint
 10
1982.288430771292
 20
712.0520724653547
 30
0.0
  0
POINT
  5
841
330
7B4
100
AcDbEntity
  8
Defpoints
 62
     0
100
AcDbPoint
 10
1978.2841258181
 20
712.0520724653547
 30
0.0
  0
POINT
  5
842
330
7B4
100
AcDbEntity
  8
Defpoints
 62
     0
100
AcDbPoint
 10
1978.2841258181
 20
710.7789848029873
 30
0.0
  0
ENDBLK
  5
7B6
330
7B4
100
AcDbEntity
  8
0
100
AcDbBlockEnd
  0
BLOCK
  5
7C3
330
7C2
100
AcDbEntity
  8
0
100
AcDbBlockBegin
  2
*D6
 70
     1
 10
0.0
 20
0.0
 30
0.0
  3
*D6
  1

  0
LINE
  5
843
330
7C2
100
AcDbEntity
  8
0
 62
     0
370
    -2
100
AcDbLine
 10
1982.197424069279
 20
706.5278524973233
 30
0.0
 11
1982.197424069279
 21
704.7094389898668
 31
0.0
  0
LINE
  5
844
330
7C2
100
AcDbEntity
  8
0
 62
     0
370
    -2
100
AcDbLine
 10
1977.465063365064
 20
706.5278524973233
 30
0.0
 11
1977.465063365064
 21
704.7094389898668
 31
0.0
  0
LINE
  5
845
330
7C2
100
AcDbEntity
  8
0
 62
     0
370
    -2
100
AcDbLine
 10
1984.697424069279
 20
705.9594389898668
 30
0.0
 11
1987.19742406928
 21
705.9594389898668
 31
0.0
  0
LINE
  5
846
330
7C2
100
AcDbEntity
  8
0
 62
     0
370
    -2
100
AcDbLine
 10
1974.965063365063
 20
705.9594389898668
 30
0.0
 11
1953.215063365064
 21
705.9594389898668
 31
0.0
  0
LINE
  5
847
330
7C2
100
AcDbEntity
  8
0
 62
     0
370
    -2
100
AcDbLine
 10
1982.197424069279
 20
705.9594389898668
 30
0.0
 11
1977.465063365064
 21
705.9594389898668
 31
0.0
  0
INSERT
  5
848
330
7C2
100
AcDbEntity
  8
0
 62
     0
370
    -2
100
AcDbBlockReference
  2
_Open30
 10
1982.197424069279
 20
705.9594389898668
 30
0.0
 41
2.5
 42
2.5
 43
2.5
 50
180.0
  0
INSERT
  5
849
330
7C2
100
AcDbEntity
  8
0
 62
     0
370
    -2
100
AcDbBlockReference
  2
_Open30
 10
1977.465063365064
 20
705.9594389898668
 30
0.0
 41
2.5
 42
2.5
 43
2.5
  0
MTEXT
  5
84A
330
7C2
100
AcDbEntity
  8
0
 62
     4
100
AcDbMText
 10
1962.840063365063
 20
708.8344389898668
 30
0.0
 40
4.5
 41
0.0
 71
     5
 72
     1
  1
47.32
  7
高4.5
 73
     1
 44
1.0
1001
ACAD
1000
MTEXTBEGIN
1070
    73
1070
     1
1070
    44
1040
1.0
1070
    74
1070
     0
1000
MTEXTEND
  0
POINT
  5
84B
330
7C2
100
AcDbEntity
  8
Defpoints
 62
     0
100
AcDbPoint
 10
1982.197424069279
 20
706.7778524973233
 30
0.0
  0
POINT
  5
84C
330
7C2
100
AcDbEntity
  8
Defpoints
 62
     0
100
AcDbPoint
 10
1977.465063365064
 20
706.7778524973233
 30
0.0
  0
POINT
  5
84D
330
7C2
100
AcDbEntity
  8
Defpoints
 62
     0
100
AcDbPoint
 10
1977.465063365064
 20
705.9594389898668
 30
0.0
  0
ENDBLK
  5
7C4
330
7C2
100
AcDbEntity
  8
0
100
AcDbBlockEnd
  0
BLOCK
  5
7D1
330
7D0
100
AcDbEntity
  8
0
100
AcDbBlockBegin
  2
*D7
 70
     1
 10
0.0
 20
0.0
 30
0.0
  3
*D7
  1

  0
LINE
  5
84E
330
7D0
100
AcDbEntity
  8
0
 62
     0
370
    -2
100
AcDbLine
 10
2003.675060337287
 20
722.7142517539638
 30
0.0
 11
2003.675060337287
 21
719.8046203319547
 31
0.0
  0
LINE
  5
84F
330
7D0
100
AcDbEntity
  8
0
 62
     0
370
    -2
100
AcDbLine
 10
2001.217873283167
 20
722.7142517539638
 30
0.0
 11
2001.217873283167
 21
719.8046203319547
 31
0.0
  0
LINE
  5
850
330
7D0
100
AcDbEntity
  8
0
 62
     0
370
    -2
100
AcDbLine
 10
2006.175060337287
 20
721.0546203319547
 30
0.0
 11
2008.675060337287
 21
721.0546203319547
 31
0.0
  0
LINE
  5
851
330
7D0
100
AcDbEntity
  8
0
 62
     0
370
    -2
100
AcDbLine
 10
1998.717873283166
 20
721.0546203319547
 30
0.0
 11
1977.117873283167
 21
721.0546203319547
 31
0.0
  0
LINE
  5
852
330
7D0
100
AcDbEntity
  8
0
 62
     0
370
    -2
100
AcDbLine
 10
2003.675060337287
 20
721.0546203319547
 30
0.0
 11
2001.217873283167
 21
721.0546203319547
 31
0.0
  0
INSERT
  5
853
330
7D0
100
AcDbEntity
  8
0
 62
     0
370
    -2
100
AcDbBlockReference
  2
_Open30
 10
2003.675060337287
 20
721.0546203319547
 30
0.0
 41
2.5
 42
2.5
 43
2.5
 50
180.0
  0
INSERT
  5
854
330
7D0
100
AcDbEntity
  8
0
 62
     0
370
    -2
100
AcDbBlockReference
  2
_Open30
 10
2001.217873283167
 20
721.0546203319547
 30
0.0
 41
2.5
 42
2.5
 43
2.5
  0
MTEXT
  5
855
330
7D0
100
AcDbEntity
  8
0
 62
     4
100
AcDbMText
 10
1986.667873283167
 20
724.8296203319548
 30
0.0
 40
6.299999999999998
 41
0.0
 71
     5
 72
     1
  1
0.25
  7
高6.3
 73
     1
 44
1.0
1001
ACAD
1000
MTEXTBEGIN
1070
    73
1070
     1
1070
    44
1040
1.0
1070
    74
1070
     0
1000
MTEXTEND
  0
POINT
  5
856
330
7D0
100
AcDbEntity
  8
Defpoints
 62
     0
100
AcDbPoint
 10
2003.675060337287
 20
722.9642517539637
 30
0.0
  0
POINT
  5
857
330
7D0
100
AcDbEntity
  8
Defpoints
 62
     0
100
AcDbPoint
 10
2001.217873283167
 20
722.9642517539637
 30
0.0
  0
POINT
  5
858
330
7D0
100
AcDbEntity
  8
Defpoints
 62
     0
100
AcDbPoint
 10
2001.217873283167
 20
721.0546203319547
 30
0.0
  0
ENDBLK
  5
7D2
330
7D0
100
AcDbEntity
  8
0
100
AcDbBlockEnd
  0
BLOCK
  5
7DF
330
7DE
100
AcDbEntity
  8
0
100
AcDbBlockBegin
  2
*D8
 70
     1
 10
0.0
 20
0.0
 30
0.0
  3
*D8
  1

  0
LINE
  5
859
330
7DE
100
AcDbEntity
  8
0
 62
     0
370
    -2
100
AcDbLine
 10
2005.313185243361
 20
717.2581621812013
 30
0.0
 11
2005.313185243361
 21
714.712270111738
 31
0.0
  0
LINE
  5
85A
330
7DE
100
AcDbEntity
  8
0
 62
     0
370
    -2
100
AcDbLine
 10
2002.218949445218
 20
717.2581621812013
 30
0.0
 11
2002.218949445218
 21
714.712270111738
 31
0.0
  0
LINE
  5
85B
330
7DE
100
AcDbEntity
  8
0
 62
     0
370
    -2
100
AcDbLine
 10
2007.81318524336
 20
715.9622701117378
 30
0.0
 11
2010.31318524336
 21
715.9622701117378
 31
0.0
  0
LINE
  5
85C
330
7DE
100
AcDbEntity
  8
0
 62
     0
370
    -2
100
AcDbLine
 10
1999.718949445217
 20
715.9622701117378
 30
0.0
 11
1987.718949445217
 21
715.9622701117378
 31
0.0
  0
LINE
  5
85D
330
7DE
100
AcDbEntity
  8
0
 62
     0
370
    -2
100
AcDbLine
 10
2005.313185243361
 20
715.9622701117378
 30
0.0
 11
2002.218949445218
 21
715.9622701117378
 31
0.0
  0
INSERT
  5
85E
330
7DE
100
AcDbEntity
  8
0
 62
     0
370
    -2
100
AcDbBlockReference
  2
_Open30
 10
2005.313185243361
 20
715.9622701117378
 30
0.0
 41
2.5
 42
2.5
 43
2.5
 50
180.0
  0
INSERT
  5
85F
330
7DE
100
AcDbEntity
  8
0
 62
     0
370
    -2
100
AcDbBlockReference
  2
_Open30
 10
2002.218949445218
 20
715.9622701117378
 30
0.0
 41
2.5
 42
2.5
 43
2.5
  0
MTEXT
  5
860
330
7DE
100
AcDbEntity
  8
0
 62
     4
100
AcDbMText
 10
1992.343949445217
 20
718.087270111738
 30
0.0
 40
3.0
 41
0.0
 71
     5
 72
     1
  1
1.55
 73
     1
 44
1.0
1001
ACAD
1000
MTEXTBEGIN
1070
    73
1070
     1
1070
    44
1040
1.0
1070
    74
1070
     0
1000
MTEXTEND
  0
POINT
  5
861
330
7DE
100
AcDbEntity
  8
Defpoints
 62
     0
100
AcDbPoint
 10
2005.313185243361
 20
717.5081621812013
 30
0.0
  0
POINT
  5
862
330
7DE
100
AcDbEntity
  8
Defpoints
 62
     0
100
AcDbPoint
 10
2002.218949445218
 20
717.5081621812013
 30
0.0
  0
POINT
  5
863
330
7DE
100
AcDbEntity
  8
Defpoints
 62
     0
100
AcDbPoint
 10
2002.218949445218
 20
715.9622701117378
 30
0.0
  0
ENDBLK
  5
7E0
330
7DE
100
AcDbEntity
  8
0
100
AcDbBlockEnd
  0
BLOCK
  5
7ED
330
7EC
100
AcDbEntity
  8
0
100
AcDbBlockBegin
  2
*D9
 70
     1
 10
0.0
 20
0.0
 30
0.0
  3
*D9
  1

  0
LINE
  5
864
330
7EC
100
AcDbEntity
  8
0
 62
     0
370
    -2
100
AcDbLine
 10
2007.042316851446
 20
711.8020724653547
 30
0.0
 11
2007.042316851446
 21
709.5289848029873
 31
0.0
  0
LINE
  5
865
330
7EC
100
AcDbEntity
  8
0
 62
     0
370
    -2
100
AcDbLine
 10
2003.038011898254
 20
711.8020724653547
 30
0.0
 11
2003.038011898254
 21
709.5289848029873
 31
0.0
  0
LINE
  5
866
330
7EC
100
AcDbEntity
  8
0
 62
     0
370
    -2
100
AcDbLine
 10
2009.542316851446
 20
710.7789848029873
 30
0.0
 11
2012.042316851446
 21
710.7789848029873
 31
0.0
  0
LINE
  5
867
330
7EC
100
AcDbEntity
  8
0
 62
     0
370
    -2
100
AcDbLine
 10
2000.538011898254
 20
710.7789848029873
 30
0.0
 11
1992.20467856492
 21
710.7789848029873
 31
0.0
  0
LINE
  5
868
330
7EC
100
AcDbEntity
  8
0
 62
     0
370
    -2
100
AcDbLine
 10
2007.042316851446
 20
710.7789848029873
 30
0.0
 11
2003.038011898254
 21
710.7789848029873
 31
0.0
  0
INSERT
  5
869
330
7EC
100
AcDbEntity
  8
0
 62
     0
370
    -2
100
AcDbBlockReference
  2
_Open30
 10
2007.042316851446
 20
710.7789848029873
 30
0.0
 41
2.5
 42
2.5
 43
2.5
 50
180.0
  0
INSERT
  5
86A
330
7EC
100
AcDbEntity
  8
0
 62
     0
370
    -2
100
AcDbBlockReference
  2
_Open30
 10
2003.038011898254
 20
710.7789848029873
 30
0.0
 41
2.5
 42
2.5
 43
2.5
  0
MTEXT
  5
86B
330
7EC
100
AcDbEntity
  8
0
 62
     4
100
AcDbMText
 10
1994.663011898254
 20
712.4039848029873
 30
0.0
 40
2.0
 41
0.0
 71
     5
 72
     1
  1
0.8
  7
高2
 73
     1
 44
1.0
1001
ACAD
1000
MTEXTBEGIN
1070
    73
1070
     1
1070
    44
1040
1.0
1070
    74
1070
     0
1000
MTEXTEND
  0
POINT
  5
86C
330
7EC
100
AcDbEntity
  8
Defpoints
 62
     0
100
AcDbPoint
 10
2007.042316851446
 20
712.0520724653547
 30
0.0
  0
POINT
  5
86D
330
7EC
100
AcDbEntity
  8
Defpoints
 62
     0
100
AcDbPoint
 10
2003.038011898254
 20
712.0520724653547
 30
0.0
  0
POINT
  5
86E
330
7EC
100
AcDbEntity
  8
Defpoints
 62
     0
100
AcDbPoint
 10
2003.038011898254
 20
710.7789848029873
 30
0.0
  0
ENDBLK
  5
7EE
330
7EC
100
AcDbEntity
  8
0
100
AcDbBlockEnd
  0
BLOCK
  5
7FB
330
7FA
100
AcDbEntity
  8
0
100
AcDbBlockBegin
  2
*D10
 70
     1
 10
0.0
 20
0.0
 30
0.0
  3
*D10
  1

  0
LINE
  5
86F
330
7FA
100
AcDbEntity
  8
0
 62
     0
370
    -2
100
AcDbLine
 10
2006.951310149434
 20
706.5278524973233
 30
0.0
 11
2006.951310149434
 21
704.7094389898668
 31
0.0
  0
LINE
  5
870
330
7FA
100
AcDbEntity
  8
0
 62
     0
370
    -2
100
AcDbLine
 10
2002.218949445218
 20
706.5278524973233
 30
0.0
 11
2002.218949445218
 21
704.7094389898668
 31
0.0
  0
LINE
  5
871
330
7FA
100
AcDbEntity
  8
0
 62
     0
370
    -2
100
AcDbLine
 10
2009.451310149433
 20
705.9594389898668
 30
0.0
 11
2011.951310149433
 21
705.9594389898668
 31
0.0
  0
LINE
  5
872
330
7FA
100
AcDbEntity
  8
0
 62
     0
370
    -2
100
AcDbLine
 10
1999.718949445217
 20
705.9594389898668
 30
0.0
 11
1984.968949445217
 21
705.9594389898668
 31
0.0
  0
LINE
  5
873
330
7FA
100
AcDbEntity
  8
0
 62
     0
370
    -2
100
AcDbLine
 10
2006.951310149434
 20
705.9594389898668
 30
0.0
 11
2002.218949445218
 21
705.9594389898668
 31
0.0
  0
INSERT
  5
874
330
7FA
100
AcDbEntity
  8
0
 62
     0
370
    -2
100
AcDbBlockReference
  2
_Open30
 10
2006.951310149434
 20
705.9594389898668
 30
0.0
 41
2.5
 42
2.5
 43
2.5
 50
180.0
  0
INSERT
  5
875
330
7FA
100
AcDbEntity
  8
0
 62
     0
370
    -2
100
AcDbBlockReference
  2
_Open30
 10
2002.218949445218
 20
705.9594389898668
 30
0.0
 41
2.5
 42
2.5
 43
2.5
  0
MTEXT
  5
876
330
7FA
100
AcDbEntity
  8
0
 62
     4
100
AcDbMText
 10
1991.093949445217
 20
708.0844389898668
 30
0.0
 40
3.0
 41
0.0
 71
     5
 72
     1
  1
18.93
 73
     1
 44
1.0
1001
ACAD
1000
MTEXTBEGIN
1070
    73
1070
     1
1070
    44
1040
1.0
1070
    74
1070
     0
1000
MTEXTEND
  0
POINT
  5
877
330
7FA
100
AcDbEntity
  8
Defpoints
 62
     0
100
AcDbPoint
 10
2006.951310149434
 20
706.7778524973233
 30
0.0
  0
POINT
  5
878
330
7FA
100
AcDbEntity
  8
Defpoints
 62
     0
100
AcDbPoint
 10
2002.218949445218
 20
706.7778524973233
 30
0.0
  0
POINT
  5
879
330
7FA
100
AcDbEntity
  8
Defpoints
 62
     0
100
AcDbPoint
 10
2002.218949445218
 20
705.9594389898668
 30
0.0
  0
ENDBLK
  5
7FC
330
7FA
100
AcDbEntity
  8
0
100
AcDbBlockEnd
  0
BLOCK
  5
809
330
808
100
AcDbEntity
  8
0
100
AcDbBlockBegin
  2
*D11
 70
     1
 10
0.0
 20
0.0
 30
0.0
  3
*D11
  1

  0
LINE
  5
87A
330
808
100
AcDbEntity
  8
0
 62
     0
370
    -2
100
AcDbLine
 10
2004.146883298295
 20
701.4720122907332
 30
0.0
 11
2004.146883298295
 21
699.1620912138577
 31
0.0
  0
LINE
  5
87B
330
808
100
AcDbEntity
  8
0
 62
     0
370
    -2
100
AcDbLine
 10
1999.558208096147
 20
701.4720122907332
 30
0.0
 11
1999.558208096147
 21
699.1620912138577
 31
0.0
  0
LINE
  5
87C
330
808
100
AcDbEntity
  8
0
 62
     0
370
    -2
100
AcDbLine
 10
2006.646883298295
 20
700.4120912138577
 30
0.0
 11
2009.146883298295
 21
700.4120912138577
 31
0.0
  0
LINE
  5
87D
330
808
100
AcDbEntity
  8
0
 62
     0
370
    -2
100
AcDbLine
 10
1997.058208096147
 20
700.4120912138577
 30
0.0
 11
1982.308208096147
 21
700.4120912138577
 31
0.0
  0
LINE
  5
87E
330
808
100
AcDbEntity
  8
0
 62
     0
370
    -2
100
AcDbLine
 10
2004.146883298295
 20
700.4120912138577
 30
0.0
 11
1999.558208096147
 21
700.4120912138577
 31
0.0
  0
INSERT
  5
87F
330
808
100
AcDbEntity
  8
0
 62
     0
370
    -2
100
AcDbBlockReference
  2
_Open30
 10
2004.146883298295
 20
700.4120912138577
 30
0.0
 41
2.5
 42
2.5
 43
2.5
 50
180.0
  0
INSERT
  5
880
330
808
100
AcDbEntity
  8
0
 62
     0
370
    -2
100
AcDbBlockReference
  2
_Open30
 10
1999.558208096147
 20
700.4120912138577
 30
0.0
 41
2.5
 42
2.5
 43
2.5
  0
MTEXT
  5
881
330
808
100
AcDbEntity
  8
0
 62
     4
100
AcDbMText
 10
1988.433208096147
 20
702.5370912138576
 30
0.0
 40
3.0
 41
0.0
 71
     5
 72
     1
  1
13.77
 73
     1
 44
1.0
1001
ACAD
1000
MTEXTBEGIN
1070
    73
1070
     1
1070
    44
1040
1.0
1070
    74
1070
     0
1000
MTEXTEND
  0
POINT
  5
882
330
808
100
AcDbEntity
  8
Defpoints
 62
     0
100
AcDbPoint
 10
2004.146883298295
 20
701.7220122907332
 30
0.0
  0
POINT
  5
883
330
808
100
AcDbEntity
  8
Defpoints
 62
     0
100
AcDbPoint
 10
1999.558208096147
 20
701.7220122907332
 30
0.0
  0
POINT
  5
884
330
808
100
AcDbEntity
  8
Defpoints
 62
     0
100
AcDbPoint
 10
1999.558208096147
 20
700.4120912138577
 30
0.0
  0
ENDBLK
  5
80A
330
808
100
AcDbEntity
  8
0
100
AcDbBlockEnd
  0
BLOCK
  5
817
330
816
100
AcDbEntity
  8
0
100
AcDbBlockBegin
  2
*D12
 70
     1
 10
0.0
 20
0.0
 30
0.0
  3
*D12
  1

  0
LINE
  5
885
330
816
100
AcDbEntity
  8
0
 62
     0
370
    -2
100
AcDbLine
 10
1997.050600465145
 20
732.4015036090075
 30
0.0
 11
1997.050600465145
 21
739.7980370869453
 31
0.0
  0
LINE
  5
886
330
816
100
AcDbEntity
  8
0
 62
     0
370
    -2
100
AcDbLine
 10
1987.112126095655
 20
732.4015036090075
 30
0.0
 11
1987.112126095655
 21
739.7980370869453
 31
0.0
  0
LINE
  5
887
330
816
100
AcDbEntity
  8
0
 62
     0
370
    -2
100
AcDbLine
 10
1994.550600465145
 20
738.5480370869453
 30
0.0
 11
1989.612126095655
 21
738.5480370869453
 31
0.0
  0
INSERT
  5
888
330
816
100
AcDbEntity
  8
0
 62
     0
370
    -2
100
AcDbBlockReference
  2
_Open30
 10
1997.050600465145
 20
738.5480370869453
 30
0.0
 41
2.5
 42
2.5
 43
2.5
  0
INSERT
  5
889
330
816
100
AcDbEntity
  8
0
 62
     0
370
    -2
100
AcDbBlockReference
  2
_Open30
 10
1987.112126095655
 20
738.5480370869453
 30
0.0
 41
2.5
 42
2.5
 43
2.5
 50
180.0
  0
MTEXT
  5
88A
330
816
100
AcDbEntity
  8
0
 62
     4
100
AcDbMText
 10
1992.0813632804
 20
741.6230370869453
 30
0.0
 40
3.0
 41
0.0
 71
     5
 72
     1
  1
9.94\H0.7X;\S+0^ -0.02;
 73
     1
 44
1.0
1001
ACAD
1000
MTEXTBEGIN
1070
    73
1070
     1
1070
    44
1040
1.0
1070
    74
1070
     0
1000
MTEXTEND
  0
POINT
  5
88B
330
816
100
AcDbEntity
  8
Defpoints
 62
     0
100
AcDbPoint
 10
1997.050600465145
 20
732.1515036090077
 30
0.0
  0
POINT
  5
88C
330
816
100
AcDbEntity
  8
Defpoints
 62
     0
100
AcDbPoint
 10
1987.112126095655
 20
732.1515036090077
 30
0.0
  0
POINT
  5
88D
330
816
100
AcDbEntity
  8
Defpoints
 62
     0
100
AcDbPoint
 10
1987.112126095655
 20
738.5480370869453
 30
0.0
  0
ENDBLK
  5
818
330
816
100
AcDbEntity
  8
0
100
AcDbBlockEnd
  0
BLOCK
  5
962
330
961
100
AcDbEntity
  8
0
100
AcDbBlockBegin
  2
*D14
 70
     1
 10
0.0
 20
0.0
 30
0.0
  3
*D14
  1

  0
LINE
  5
A66
330
961
100
AcDbEntity
  8
0
  6
Continuous
 62
     0
370
    -2
100
AcDbLine
 10
1617.36685563488
 20
661.4448808532271
 30
0.0
 11
1647.184420586988
 21
661.4448808532271
 31
0.0
  0
LINE
  5
A67
330
961
100
AcDbEntity
  8
0
  6
Continuous
 62
     0
370
    -2
100
AcDbLine
 10
1617.36685563488
 20
648.1448808532271
 30
0.0
 11
1647.184420586988
 21
648.1448808532271
 31
0.0
  0
LINE
  5
A68
330
961
100
AcDbEntity
  8
0
  6
Continuous
 62
     0
370
    -2
100
AcDbLine
 10
1645.934420586988
 20
658.9448808532271
 30
0.0
 11
1645.934420586988
 21
650.6448808532272
 31
0.0
  0
INSERT
  5
A69
330
961
100
AcDbEntity
  8
0
  6
Continuous
 62
     0
370
    -2
100
AcDbBlockReference
  2
_Open30
 10
1645.934420586988
 20
661.4448808532271
 30
0.0
 41
2.5
 42
2.5
 43
2.5
 50
90.0
  0
INSERT
  5
A6A
330
961
100
AcDbEntity
  8
0
  6
Continuous
 62
     0
370
    -2
100
AcDbBlockReference
  2
_Open30
 10
1645.934420586988
 20
648.1448808532271
 30
0.0
 41
2.5
 42
2.5
 43
2.5
 50
270.0
  0
MTEXT
  5
A6B
330
961
100
AcDbEntity
  8
0
  6
Continuous
 62
     4
100
AcDbMText
 10
1644.059420586988
 20
654.7948808532271
 30
0.0
 40
2.5
 41
0.0
 71
     5
 72
     1
  1
%%C13.3
 11
0.0000000000000001
 21
1.0
 31
0.0
 73
     1
 44
1.0
1001
ACAD
1000
MTEXTBEGIN
1070
    73
1070
     1
1070
    44
1040
1.0
1070
    74
1070
     0
1000
MTEXTEND
  0
POINT
  5
A6C
330
961
100
AcDbEntity
  8
Defpoints
  6
Continuous
 62
     0
100
AcDbPoint
 10
1617.11685563488
 20
661.4448808532271
 30
0.0
  0
POINT
  5
A6D
330
961
100
AcDbEntity
  8
Defpoints
  6
Continuous
 62
     0
100
AcDbPoint
 10
1617.11685563488
 20
648.1448808532271
 30
0.0
  0
POINT
  5
A6E
330
961
100
AcDbEntity
  8
Defpoints
  6
Continuous
 62
     0
100
AcDbPoint
 10
1645.934420586988
 20
648.1448808532271
 30
0.0
  0
ENDBLK
  5
963
330
961
100
AcDbEntity
  8
0
100
AcDbBlockEnd
  0
BLOCK
  5
96F
330
96E
100
AcDbEntity
  8
0
100
AcDbBlockBegin
  2
*D15
 70
     1
 10
0.0
 20
0.0
 30
0.0
  3
*D15
  1

  0
LINE
  5
A6F
330
96E
100
AcDbEntity
  8
0
  6
Continuous
 62
     0
370
    -2
100
AcDbLine
 10
1590.657752169262
 20
660.4948808532271
 30
0.0
 11
1641.312142197903
 21
660.4948808532271
 31
0.0
  0
LINE
  5
A70
330
96E
100
AcDbEntity
  8
0
  6
Continuous
 62
     0
370
    -2
100
AcDbLine
 10
1590.657752169262
 20
649.094880853227
 30
0.0
 11
1641.312142197903
 21
649.094880853227
 31
0.0
  0
LINE
  5
A71
330
96E
100
AcDbEntity
  8
0
  6
Continuous
 62
     0
370
    -2
100
AcDbLine
 10
1640.062142197903
 20
657.9948808532272
 30
0.0
 11
1640.062142197903
 21
651.5948808532271
 31
0.0
  0
INSERT
  5
A72
330
96E
100
AcDbEntity
  8
0
  6
Continuous
 62
     0
370
    -2
100
AcDbBlockReference
  2
_Open30
 10
1640.062142197903
 20
660.4948808532271
 30
0.0
 41
2.5
 42
2.5
 43
2.5
 50
90.0
  0
INSERT
  5
A73
330
96E
100
AcDbEntity
  8
0
  6
Continuous
 62
     0
370
    -2
100
AcDbBlockReference
  2
_Open30
 10
1640.062142197903
 20
649.094880853227
 30
0.0
 41
2.5
 42
2.5
 43
2.5
 50
270.0
  0
MTEXT
  5
A74
330
96E
100
AcDbEntity
  8
0
  6
Continuous
 62
     4
100
AcDbMText
 10
1638.187142197903
 20
654.7948808532271
 30
0.0
 40
2.5
 41
0.0
 71
     5
 72
     1
  1
%%C11.4
 11
0.0000000000000001
 21
1.0
 31
0.0
 73
     1
 44
1.0
1001
ACAD
1000
MTEXTBEGIN
1070
    73
1070
     1
1070
    44
1040
1.0
1070
    74
1070
     0
1000
MTEXTEND
  0
POINT
  5
A75
330
96E
100
AcDbEntity
  8
Defpoints
  6
Continuous
 62
     0
100
AcDbPoint
 10
1590.407752169261
 20
660.4948808532271
 30
0.0
  0
POINT
  5
A76
330
96E
100
AcDbEntity
  8
Defpoints
  6
Continuous
 62
     0
100
AcDbPoint
 10
1590.407752169261
 20
649.094880853227
 30
0.0
  0
POINT
  5
A77
330
96E
100
AcDbEntity
  8
Defpoints
  6
Continuous
 62
     0
100
AcDbPoint
 10
1640.062142197903
 20
649.094880853227
 30
0.0
  0
ENDBLK
  5
970
330
96E
100
AcDbEntity
  8
0
100
AcDbBlockEnd
  0
BLOCK
  5
97C
330
97B
100
AcDbEntity
  8
0
100
AcDbBlockBegin
  2
*D16
 70
     1
 10
0.0
 20
0.0
 30
0.0
  3
*D16
  1

  0
LINE
  5
A78
330
97B
100
AcDbEntity
  8
0
  6
Continuous
 62
     0
370
    -2
100
AcDbLine
 10
1630.11685563488
 20
669.5448808532271
 30
0.0
 11
1630.11685563488
 21
682.7526136412871
 31
0.0
  0
LINE
  5
A79
330
97B
100
AcDbEntity
  8
0
  6
Continuous
 62
     0
370
    -2
100
AcDbLine
 10
1618.116855634881
 20
667.5448808532271
 30
0.0
 11
1618.116855634881
 21
682.7526136412871
 31
0.0
  0
LINE
  5
A7A
330
97B
100
AcDbEntity
  8
0
  6
Continuous
 62
     0
370
    -2
100
AcDbLine
 10
1627.616855634881
 20
681.5026136412872
 30
0.0
 11
1620.616855634881
 21
681.5026136412872
 31
0.0
  0
INSERT
  5
A7B
330
97B
100
AcDbEntity
  8
0
  6
Continuous
 62
     0
370
    -2
100
AcDbBlockReference
  2
_Open30
 10
1630.11685563488
 20
681.5026136412872
 30
0.0
 41
2.5
 42
2.5
 43
2.5
  0
INSERT
  5
A7C
330
97B
100
AcDbEntity
  8
0
  6
Continuous
 62
     0
370
    -2
100
AcDbBlockReference
  2
_Open30
 10
1618.116855634881
 20
681.5026136412872
 30
0.0
 41
2.5
 42
2.5
 43
2.5
 50
180.0
  0
MTEXT
  5
A7D
330
97B
100
AcDbEntity
  8
0
  6
Continuous
 62
     4
100
AcDbMText
 10
1623.883742685572
 20
683.6276136412871
 30
0.0
 40
3.0
 41
0.0
 71
     5
 72
     1
  1
12
 73
     1
 44
1.0
1001
ACAD
1000
MTEXTBEGIN
1070
    73
1070
     1
1070
    44
1040
1.0
1070
    74
1070
     0
1000
MTEXTEND
  0
POINT
  5
A7E
330
97B
100
AcDbEntity
  8
Defpoints
  6
Continuous
 62
     0
100
AcDbPoint
 10
1630.11685563488
 20
669.2948808532271
 30
0.0
  0
POINT
  5
A7F
330
97B
100
AcDbEntity
  8
Defpoints
  6
Continuous
 62
     0
100
AcDbPoint
 10
1618.116855634881
 20
667.2948808532271
 30
0.0
  0
POINT
  5
A80
330
97B
100
AcDbEntity
  8
Defpoints
  6
Continuous
 62
     0
100
AcDbPoint
 10
1618.116855634881
 20
681.5026136412872
 30
0.0
  0
ENDBLK
  5
97D
330
97B
100
AcDbEntity
  8
0
100
AcDbBlockEnd
  0
BLOCK
  5
989
330
988
100
AcDbEntity
  8
0
100
AcDbBlockBegin
  2
*D17
 70
     1
 10
0.0
 20
0.0
 30
0.0
  3
*D17
  1

  0
LINE
  5
A81
330
988
100
AcDbEntity
  8
0
  6
Continuous
 62
     0
370
    -2
100
AcDbLine
 10
1618.116855634881
 20
667.5448808532271
 30
0.0
 11
1618.116855634881
 21
682.7526136412871
 31
0.0
  0
LINE
  5
A82
330
988
100
AcDbEntity
  8
0
  6
Continuous
 62
     0
370
    -2
100
AcDbLine
 10
1587.116855634881
 20
655.0448808532271
 30
0.0
 11
1587.116855634881
 21
682.7526136412871
 31
0.0
  0
LINE
  5
A83
330
988
100
AcDbEntity
  8
0
  6
Continuous
 62
     0
370
    -2
100
AcDbLine
 10
1615.61685563488
 20
681.5026136412872
 30
0.0
 11
1589.616855634881
 21
681.5026136412872
 31
0.0
  0
INSERT
  5
A84
330
988
100
AcDbEntity
  8
0
  6
Continuous
 62
     0
370
    -2
100
AcDbBlockReference
  2
_Open30
 10
1618.116855634881
 20
681.5026136412872
 30
0.0
 41
2.5
 42
2.5
 43
2.5
  0
INSERT
  5
A85
330
988
100
AcDbEntity
  8
0
  6
Continuous
 62
     0
370
    -2
100
AcDbBlockReference
  2
_Open30
 10
1587.116855634881
 20
681.5026136412872
 30
0.0
 41
2.5
 42
2.5
 43
2.5
 50
180.0
  0
MTEXT
  5
A86
330
988
100
AcDbEntity
  8
0
  6
Continuous
 62
     4
100
AcDbMText
 10
1602.61685563488
 20
683.6276136412871
 30
0.0
 40
3.0
 41
0.0
 71
     5
 72
     1
  1
31
 73
     1
 44
1.0
1001
ACAD
1000
MTEXTBEGIN
1070
    73
1070
     1
1070
    44
1040
1.0
1070
    74
1070
     0
1000
MTEXTEND
  0
POINT
  5
A87
330
988
100
AcDbEntity
  8
Defpoints
  6
Continuous
 62
     0
100
AcDbPoint
 10
1618.116855634881
 20
667.2948808532271
 30
0.0
  0
POINT
  5
A88
330
988
100
AcDbEntity
  8
Defpoints
  6
Continuous
 62
     0
100
AcDbPoint
 10
1587.116855634881
 20
654.7948808532271
 30
0.0
  0
POINT
  5
A89
330
988
100
AcDbEntity
  8
Defpoints
  6
Continuous
 62
     0
100
AcDbPoint
 10
1587.116855634881
 20
681.5026136412872
 30
0.0
  0
ENDBLK
  5
98A
330
988
100
AcDbEntity
  8
0
100
AcDbBlockEnd
  0
BLOCK
  5
9EA
330
9E9
100
AcDbEntity
  8
0
100
AcDbBlockBegin
  2
*D18
 70
     1
 10
0.0
 20
0.0
 30
0.0
  3
*D18
  1

  0
LINE
  5
A8A
330
9E9
100
AcDbEntity
  8
0
  6
Continuous
 62
     0
370
    -2
100
AcDbLine
 10
1501.616855634881
 20
663.0448808532271
 30
0.0
 11
1501.616855634881
 21
688.6275145779694
 31
0.0
  0
LINE
  5
A8B
330
9E9
100
AcDbEntity
  8
0
  6
Continuous
 62
     0
370
    -2
100
AcDbLine
 10
1630.11685563488
 20
669.5448808532271
 30
0.0
 11
1630.11685563488
 21
688.6275145779694
 31
0.0
  0
LINE
  5
A8C
330
9E9
100
AcDbEntity
  8
0
  6
Continuous
 62
     0
370
    -2
100
AcDbLine
 10
1504.116855634881
 20
687.3775145779695
 30
0.0
 11
1627.616855634881
 21
687.3775145779695
 31
0.0
  0
INSERT
  5
A8D
330
9E9
100
AcDbEntity
  8
0
  6
Continuous
 62
     0
370
    -2
100
AcDbBlockReference
  2
_Open30
 10
1501.616855634881
 20
687.3775145779695
 30
0.0
 41
2.5
 42
2.5
 43
2.5
 50
180.0
  0
INSERT
  5
A8E
330
9E9
100
AcDbEntity
  8
0
  6
Continuous
 62
     0
370
    -2
100
AcDbBlockReference
  2
_Open30
 10
1630.11685563488
 20
687.3775145779695
 30
0.0
 41
2.5
 42
2.5
 43
2.5
  0
MTEXT
  5
A8F
330
9E9
100
AcDbEntity
  8
0
  6
Continuous
 62
     4
100
AcDbMText
 10
1567.550468837437
 20
689.5025145779694
 30
0.0
 40
3.0
 41
0.0
 71
     5
 72
     1
  1
128.5
 73
     1
 44
1.0
1001
ACAD
1000
MTEXTBEGIN
1070
    73
1070
     1
1070
    44
1040
1.0
1070
    74
1070
     0
1000
MTEXTEND
  0
POINT
  5
A90
330
9E9
100
AcDbEntity
  8
Defpoints
  6
Continuous
 62
     0
100
AcDbPoint
 10
1501.616855634881
 20
662.7948808532271
 30
0.0
  0
POINT
  5
A91
330
9E9
100
AcDbEntity
  8
Defpoints
  6
Continuous
 62
     0
100
AcDbPoint
 10
1630.11685563488
 20
669.2948808532271
 30
0.0
  0
POINT
  5
A92
330
9E9
100
AcDbEntity
  8
Defpoints
  6
Continuous
 62
     0
100
AcDbPoint
 10
1630.11685563488
 20
687.3775145779695
 30
0.0
  0
ENDBLK
  5
9EB
330
9E9
100
AcDbEntity
  8
0
100
AcDbBlockEnd
  0
ENDSEC
  0
SECTION
  2
ENTITIES
  0
LINE
  5
3D3
330
6B
100
AcDbEntity
  8
0
 62
     3
100
AcDbLine
 10
1596.433281977379
 20
726.4833961568315
 30
0.0
 11
1680.033281977379
 21
726.4833961568315
 31
0.0
  0
TEXT
  5
3D4
330
6B
100
AcDbEntity
  8
0
 62
     3
100
AcDbText
 10
1669.308281977379
 20
722.3383961568315
 30
0.0
 40
3.2
  1
担
  7
高3.2
100
AcDbText
  0
TEXT
  5
3D5
330
6B
100
AcDbEntity
  8
0
 62
     3
100
AcDbText
 10
1676.195781977378
 20
722.3383961568315
 30
0.0
 40
3.2
  1
当
  7
高3.2
100
AcDbText
  0
TEXT
  5
3D6
330
6B
100
AcDbEntity
  8
0
 62
     3
100
AcDbText
 10
1629.112505977379
 20
722.3212341568317
 30
0.0
 40
3.2
  1
変更・追記内容
  7
高3.2
100
AcDbText
  0
LINE
  5
3D7
330
6B
100
AcDbEntity
  8
0
 62
     3
100
AcDbLine
 10
1596.433281977379
 20
730.9887851568316
 30
0.0
 11
1596.433281977379
 21
711.6333961568315
 31
0.0
  0
TEXT
  5
3D8
330
6B
100
AcDbEntity
  8
0
 62
     3
100
AcDbText
 10
1600.97110348982
 20
717.7527059763792
 30
0.0
 40
2.0
  1
1
  7
高2
100
AcDbText
  0
TEXT
  5
3D9
330
6B
100
AcDbEntity
  8
0
 62
     3
100
AcDbText
 10
1600.573267415805
 20
712.5021238902084
 30
0.0
 40
2.0
  1
2
  7
高2
100
AcDbText
  0
TEXT
  5
3DA
330
6B
100
AcDbEntity
  8
0
 62
     3
100
AcDbText
 10
1609.392231977379
 20
722.2333056200365
 30
0.0
 40
3.2
  1
日
  7
高3.2
100
AcDbText
  0
TEXT
  5
3DB
330
6B
100
AcDbEntity
  8
0
 62
     3
100
AcDbText
 10
1618.269105977379
 20
722.2333056200365
 30
0.0
 40
3.2
  1
付
  7
高3.2
100
AcDbText
  0
TEXT
  5
3DC
330
6B
100
AcDbEntity
  8
0
 62
     3
100
AcDbText
 10
1609.218072977379
 20
727.1333961568315
 30
0.0
 40
3.2
  1
図
  7
高3.2
100
AcDbText
  0
TEXT
  5
3DD
330
6B
100
AcDbEntity
  8
0
 62
     3
100
AcDbText
 10
1627.873967977378
 20
727.1333961568315
 30
0.0
 40
3.2
  1
面
  7
高3.2
100
AcDbText
  0
TEXT
  5
3DE
330
6B
100
AcDbEntity
  8
0
 62
     3
100
AcDbText
 10
1646.529862977379
 20
727.1333961568315
 30
0.0
 40
3.2
  1
略
  7
高3.2
100
AcDbText
  0
TEXT
  5
3DF
330
6B
100
AcDbEntity
  8
0
 62
     3
100
AcDbText
 10
1665.185757977379
 20
727.1333961568315
 30
0.0
 40
3.2
  1
歴
  7
高3.2
100
AcDbText
  0
TEXT
  5
3E0
330
6B
100
AcDbEntity
  8
0
 62
     3
100
AcDbText
 10
1597.035645977378
 20
722.2583961568314
 30
0.0
 40
3.2
  1
記
  7
高3.2
100
AcDbText
  0
TEXT
  5
3E1
330
6B
100
AcDbEntity
  8
0
 62
     3
100
AcDbText
 10
1603.288553977378
 20
722.2583961568314
 30
0.0
 40
3.2
  1
号
  7
高3.2
100
AcDbText
  0
LINE
  5
3E2
330
6B
100
AcDbEntity
  8
0
 62
     3
100
AcDbLine
 10
1541.523872977379
 20
739.4614021568316
 30
0.0
 11
1541.523872977379
 21
738.2128431568315
 31
0.0
  0
LINE
  5
3E3
330
6B
100
AcDbEntity
  8
0
 62
     3
100
AcDbLine
 10
1670.434637977379
 20
711.6333961568315
 30
0.0
 11
1596.433281977379
 21
711.6333961568315
 31
0.0
  0
LINE
  5
3E4
330
6B
100
AcDbEntity
  8
0
 62
     3
100
AcDbLine
 10
1678.584973977379
 20
711.6333961568315
 30
0.0
 11
1670.434637977379
 21
711.6333961568315
 31
0.0
  0
LINE
  5
3E5
330
6B
100
AcDbEntity
  8
0
 62
     3
100
AcDbLine
 10
1678.584973977379
 20
711.6333961568315
 30
0.0
 11
1680.033281977379
 21
711.6333961568315
 31
0.0
  0
LINE
  5
3E6
330
6B
100
AcDbEntity
  8
0
 62
     2
100
AcDbLine
 10
1529.610533977379
 20
732.8221131568315
 30
0.0
 11
1530.046281977378
 21
732.5946451568317
 31
0.0
  0
LINE
  5
3E7
330
6B
100
AcDbEntity
  8
0
 62
     2
100
AcDbLine
 10
1529.610533977379
 20
729.0914821568318
 30
0.0
 11
1530.046281977378
 21
729.3189511568319
 31
0.0
  0
LINE
  5
3E8
330
6B
100
AcDbEntity
  8
0
 62
     2
100
AcDbLine
 10
1530.046281977378
 20
732.5946451568317
 30
0.0
 11
1530.046281977378
 21
729.3189511568319
 31
0.0
  0
LINE
  5
3E9
330
6B
100
AcDbEntity
  8
0
 62
     2
100
AcDbLine
 10
1531.149798977379
 20
729.0914821568318
 30
0.0
 11
1530.714050977379
 21
729.3189511568319
 31
0.0
  0
LINE
  5
3EA
330
6B
100
AcDbEntity
  8
0
 62
     2
100
AcDbLine
 10
1530.714050977379
 20
731.3158091568318
 30
0.0
 11
1530.714050977379
 21
729.3189511568319
 31
0.0
  0
LINE
  5
3EB
330
6B
100
AcDbEntity
  8
0
 62
     2
100
AcDbLine
 10
1533.691661977379
 20
732.8221131568315
 30
0.0
 11
1533.255913977379
 21
732.5946451568317
 31
0.0
  0
LINE
  5
3EC
330
6B
100
AcDbEntity
  8
0
 62
     2
100
AcDbLine
 10
1532.152396977379
 20
732.8221131568315
 30
0.0
 11
1532.588144977379
 21
732.5946451568317
 31
0.0
  0
LINE
  5
3ED
330
6B
100
AcDbEntity
  8
0
 62
     2
100
AcDbLine
 10
1532.588144977379
 20
732.5946451568317
 30
0.0
 11
1532.588144977379
 21
731.1523081568318
 31
0.0
  0
LINE
  5
3EE
330
6B
100
AcDbEntity
  8
0
 62
     2
100
AcDbLine
 10
1533.255913977379
 20
732.5946451568317
 30
0.0
 11
1533.255913977379
 21
728.8799211568315
 31
0.0
  0
LINE
  5
3EF
330
6B
100
AcDbEntity
  8
0
 62
     2
100
AcDbLine
 10
1533.906958977379
 20
732.8221101568318
 30
0.0
 11
1534.342705977379
 21
732.5946391568318
 31
0.0
  0
LINE
  5
3F0
330
6B
100
AcDbEntity
  8
0
 62
     2
100
AcDbLine
 10
1533.906880977379
 20
729.0915321568316
 30
0.0
 11
1534.342636977379
 21
729.3189851568318
 31
0.0
  0
LINE
  5
3F1
330
6B
100
AcDbEntity
  8
0
 62
     2
100
AcDbLine
 10
1534.342705977379
 20
732.5946391568318
 30
0.0
 11
1534.342705977379
 21
729.3189851568318
 31
0.0
  0
LINE
  5
3F2
330
6B
100
AcDbEntity
  8
0
 62
     2
100
AcDbLine
 10
1535.836495977379
 20
732.8220871568317
 30
0.0
 11
1535.400744977378
 21
732.5946251568315
 31
0.0
  0
LINE
  5
3F3
330
6B
100
AcDbEntity
  8
0
 62
     2
100
AcDbLine
 10
1535.400744977378
 20
732.5946251568315
 30
0.0
 11
1535.400744977378
 21
729.3189711568317
 31
0.0
  0
LINE
  5
3F4
330
6B
100
AcDbEntity
  8
0
 62
     2
100
AcDbLine
 10
1535.836495977379
 20
729.0915091568317
 30
0.0
 11
1535.400744977378
 21
729.3189711568317
 31
0.0
  0
LINE
  5
3F5
330
6B
100
AcDbEntity
  8
0
 62
     2
100
AcDbLine
 10
1539.526748977379
 20
732.8220461568315
 30
0.0
 11
1539.962495977379
 21
732.5945761568318
 31
0.0
  0
LINE
  5
3F6
330
6B
100
AcDbEntity
  8
0
 62
     2
100
AcDbLine
 10
1539.962495977379
 20
732.5945761568318
 30
0.0
 11
1539.962438977379
 21
729.3189221568318
 31
0.0
  0
LINE
  5
3F7
330
6B
100
AcDbEntity
  8
0
 62
     2
100
AcDbLine
 10
1539.526683977379
 20
729.0914681568319
 30
0.0
 11
1539.962438977379
 21
729.3189221568318
 31
0.0
  0
LINE
  5
3F8
330
6B
100
AcDbEntity
  8
0
 62
     2
100
AcDbLine
 10
1541.479009977379
 20
732.8220461568315
 30
0.0
 11
1541.043262977378
 21
732.5945761568318
 31
0.0
  0
LINE
  5
3F9
330
6B
100
AcDbEntity
  8
0
 62
     2
100
AcDbLine
 10
1541.479074977378
 20
729.0914681568319
 30
0.0
 11
1541.043319977379
 21
729.3189221568318
 31
0.0
  0
LINE
  5
3FA
330
6B
100
AcDbEntity
  8
0
 62
     2
100
AcDbLine
 10
1541.682737977379
 20
732.8220461568315
 30
0.0
 11
1542.118484977379
 21
732.5945761568318
 31
0.0
  0
LINE
  5
3FB
330
6B
100
AcDbEntity
  8
0
 62
     2
100
AcDbLine
 10
1541.682672977379
 20
729.0914681568319
 30
0.0
 11
1542.118427977379
 21
729.3189221568318
 31
0.0
  0
LINE
  5
3FC
330
6B
100
AcDbEntity
  8
0
 62
     2
100
AcDbLine
 10
1543.634998977379
 20
732.8220461568315
 30
0.0
 11
1543.199251977379
 21
732.5945761568318
 31
0.0
  0
LINE
  5
3FD
330
6B
100
AcDbEntity
  8
0
 62
     2
100
AcDbLine
 10
1543.199251977379
 20
732.5945761568318
 30
0.0
 11
1543.199308977379
 21
729.3189221568318
 31
0.0
  0
LINE
  5
3FE
330
6B
100
AcDbEntity
  8
0
 62
     2
100
AcDbLine
 10
1543.635063977379
 20
729.0914681568319
 30
0.0
 11
1543.199308977379
 21
729.3189221568318
 31
0.0
  0
LINE
  5
3FF
330
6B
100
AcDbEntity
  8
0
 62
     2
100
AcDbLine
 10
1542.118459977379
 20
731.1674431568318
 30
0.0
 11
1541.043287977378
 21
731.1674431568318
 31
0.0
  0
LINE
  5
400
330
6B
100
AcDbEntity
  8
0
 62
     2
100
AcDbLine
 10
1542.118452977378
 20
730.7461521568318
 30
0.0
 11
1541.043294977379
 21
730.7461521568318
 31
0.0
  0
LINE
  5
401
330
6B
100
AcDbEntity
  8
0
 62
     2
100
AcDbLine
 10
1542.118484977379
 20
732.5945761568318
 30
0.0
 11
1542.118459977379
 21
731.1674431568318
 31
0.0
  0
LINE
  5
402
330
6B
100
AcDbEntity
  8
0
 62
     2
100
AcDbLine
 10
1542.118452977378
 20
730.7461521568318
 30
0.0
 11
1542.118427977379
 21
729.3189221568318
 31
0.0
  0
LINE
  5
403
330
6B
100
AcDbEntity
  8
0
 62
     2
100
AcDbLine
 10
1541.043262977378
 20
732.5945761568318
 30
0.0
 11
1541.043287977378
 21
731.1674431568318
 31
0.0
  0
LINE
  5
404
330
6B
100
AcDbEntity
  8
0
 62
     2
100
AcDbLine
 10
1541.043294977379
 20
730.7461521568318
 30
0.0
 11
1541.043319977379
 21
729.3189221568318
 31
0.0
  0
LINE
  5
405
330
6B
100
AcDbEntity
  8
0
 62
     2
100
AcDbLine
 10
1543.841957977378
 20
732.8220461568315
 30
0.0
 11
1544.277704977378
 21
732.5945761568318
 31
0.0
  0
LINE
  5
406
330
6B
100
AcDbEntity
  8
0
 62
     2
100
AcDbLine
 10
1544.277704977378
 20
732.5945761568318
 30
0.0
 11
1544.277647977379
 21
729.3189221568318
 31
0.0
  0
LINE
  5
407
330
6B
100
AcDbEntity
  8
0
 62
     2
100
AcDbLine
 10
1543.841892977379
 20
729.0914681568319
 30
0.0
 11
1544.277647977379
 21
729.3189221568318
 31
0.0
  0
LINE
  5
408
330
6B
100
AcDbEntity
  8
0
 62
     2
100
AcDbLine
 10
1545.771467977379
 20
732.8220461568315
 30
0.0
 11
1545.335720977378
 21
732.5945761568318
 31
0.0
  0
LINE
  5
409
330
6B
100
AcDbEntity
  8
0
 62
     2
100
AcDbLine
 10
1545.335720977378
 20
732.5945761568318
 30
0.0
 11
1545.335777977379
 21
729.3189221568318
 31
0.0
  0
LINE
  5
40A
330
6B
100
AcDbEntity
  8
0
 62
     2
100
AcDbLine
 10
1545.771533977379
 20
729.0914681568319
 30
0.0
 11
1545.335777977379
 21
729.3189221568318
 31
0.0
  0
LINE
  5
40B
330
6B
100
AcDbEntity
  8
0
 62
     2
100
AcDbLine
 10
1545.985827977379
 20
732.8220461568315
 30
0.0
 11
1546.421574977379
 21
732.5945761568318
 31
0.0
  0
LINE
  5
40C
330
6B
100
AcDbEntity
  8
0
 62
     2
100
AcDbLine
 10
1546.421574977379
 20
732.5945761568318
 30
0.0
 11
1546.421517977378
 21
729.3189221568318
 31
0.0
  0
LINE
  5
40D
330
6B
100
AcDbEntity
  8
0
 62
     2
100
AcDbLine
 10
1545.985762977379
 20
729.0914681568319
 30
0.0
 11
1546.421517977378
 21
729.3189221568318
 31
0.0
  0
ARC
  5
40E
330
6B
100
AcDbEntity
  8
0
 62
     2
100
AcDbCircle
 10
1538.134837977379
 20
730.9661871568315
 30
0.0
 40
2.086285999999998
100
AcDbArc
 50
97.70152400000622
 51
270.0
  0
ARC
  5
40F
330
6B
100
AcDbEntity
  8
0
 62
     2
100
AcDbCircle
 10
1551.015438977379
 20
730.9452311568318
 30
0.0
 40
2.108943
100
AcDbArc
 50
0.3142500000008597
 51
69.0055820000051
  0
ARC
  5
410
330
6B
100
AcDbEntity
  8
0
 62
     2
100
AcDbCircle
 10
1551.476113977379
 20
730.9452311568318
 30
0.0
 40
2.108943
100
AcDbArc
 50
110.9944179999948
 51
148.1166110000029
  0
ARC
  5
411
330
6B
100
AcDbEntity
  8
0
 62
     2
100
AcDbCircle
 10
1551.015438977379
 20
730.9683651568319
 30
0.0
 40
2.108943
100
AcDbArc
 50
290.9944179999949
 51
359.6857499999992
  0
ARC
  5
412
330
6B
100
AcDbEntity
  8
0
 62
     2
100
AcDbCircle
 10
1551.476113977379
 20
730.9683651568319
 30
0.0
 40
2.108943
100
AcDbArc
 50
211.8833889999971
 51
249.0055820000051
  0
ARC
  5
413
330
6B
100
AcDbEntity
  8
0
 62
     2
100
AcDbCircle
 10
1551.245775977379
 20
731.8196031568318
 30
0.0
 40
1.214070999999999
100
AcDbArc
 50
64.36517200000719
 51
115.6348279999928
  0
ARC
  5
414
330
6B
100
AcDbEntity
  8
0
 62
     2
100
AcDbCircle
 10
1551.245775977379
 20
730.0939921568315
 30
0.0
 40
1.214070999999999
100
AcDbArc
 50
244.3651720000072
 51
295.6348279999928
  0
ARC
  5
415
330
6B
100
AcDbEntity
  8
0
 62
     2
100
AcDbCircle
 10
1551.245775977379
 20
731.8426651568318
 30
0.0
 40
0.5958560000000001
100
AcDbArc
 50
19.48660600000383
 51
160.5133939999961
  0
ARC
  5
416
330
6B
100
AcDbEntity
  8
0
 62
     2
100
AcDbCircle
 10
1551.245775977379
 20
730.0709311568318
 30
0.0
 40
0.5958560000000001
100
AcDbArc
 50
199.4866060000038
 51
340.5133939999962
  0
ARC
  5
417
330
6B
100
AcDbEntity
  8
0
 62
     3
100
AcDbCircle
 10
1546.503303977378
 20
708.7287381568318
 30
0.0
 40
26.04
100
AcDbArc
 50
69.5057150000017
 51
81.68998799999512
  0
ARC
  5
418
330
6B
100
AcDbEntity
  8
0
 62
     3
100
AcDbCircle
 10
1546.503303977378
 20
753.1848581568314
 30
0.0
 40
26.04
100
AcDbArc
 50
278.3100120000049
 51
290.4942849999983
  0
ARC
  5
419
330
6B
100
AcDbEntity
  8
0
 62
     3
100
AcDbCircle
 10
1554.811507977379
 20
730.9567981568318
 30
0.0
 40
2.31
100
AcDbArc
 50
290.4942849999983
 51
69.5057150000017
  0
ARC
  5
41A
330
6B
100
AcDbEntity
  8
0
 62
     3
100
AcDbCircle
 10
1527.511507977379
 20
730.9567981568318
 30
0.0
 40
2.31
100
AcDbArc
 50
110.4942849999983
 51
249.5057150000017
  0
ARC
  5
41B
330
6B
100
AcDbEntity
  8
0
 62
     3
100
AcDbCircle
 10
1535.819711977379
 20
708.7287381568318
 30
0.0
 40
26.04
100
AcDbArc
 50
98.31001200000486
 51
110.4942849999983
  0
ARC
  5
41C
330
6B
100
AcDbEntity
  8
0
 62
     3
100
AcDbCircle
 10
1535.819711977379
 20
753.1848581568314
 30
0.0
 40
26.04
100
AcDbArc
 50
249.5057150000017
 51
261.6899879999952
  0
ARC
  5
41D
330
6B
100
AcDbEntity
  8
0
 62
     3
100
AcDbCircle
 10
1541.161507977379
 20
672.1567981568317
 30
0.0
 40
63.0
100
AcDbArc
 50
81.68998799999512
 51
98.31001200000486
  0
ARC
  5
41E
330
6B
100
AcDbEntity
  8
0
 62
     3
100
AcDbCircle
 10
1541.161507977379
 20
789.7567981568315
 30
0.0
 40
63.0
100
AcDbArc
 50
261.6899879999952
 51
278.3100120000049
  0
ARC
  5
41F
330
6B
100
AcDbEntity
  8
0
 62
     3
100
AcDbCircle
 10
1541.161507977379
 20
672.1567981568317
 30
0.0
 40
62.37
100
AcDbArc
 50
81.68998799999512
 51
98.31001200000486
  0
ARC
  5
420
330
6B
100
AcDbEntity
  8
0
 62
     3
100
AcDbCircle
 10
1541.161507977379
 20
789.7567981568315
 30
0.0
 40
62.37
100
AcDbArc
 50
261.6899879999952
 51
278.3100120000049
  0
ARC
  5
421
330
6B
100
AcDbEntity
  8
0
 62
     3
100
AcDbCircle
 10
1546.503303977378
 20
753.1848581568314
 30
0.0
 40
25.41
100
AcDbArc
 50
278.3100120000049
 51
290.4942849999983
  0
ARC
  5
422
330
6B
100
AcDbEntity
  8
0
 62
     3
100
AcDbCircle
 10
1546.503303977378
 20
708.7287381568318
 30
0.0
 40
25.41
100
AcDbArc
 50
69.5057150000017
 51
81.68998799999512
  0
ARC
  5
423
330
6B
100
AcDbEntity
  8
0
 62
     3
100
AcDbCircle
 10
1554.811507977379
 20
730.9567981568318
 30
0.0
 40
1.679999999999999
100
AcDbArc
 50
290.4942849999983
 51
69.5057150000017
  0
ARC
  5
424
330
6B
100
AcDbEntity
  8
0
 62
     3
100
AcDbCircle
 10
1527.511507977379
 20
730.9567981568318
 30
0.0
 40
1.679999999999999
100
AcDbArc
 50
110.4942849999983
 51
249.5057150000017
  0
ARC
  5
425
330
6B
100
AcDbEntity
  8
0
 62
     3
100
AcDbCircle
 10
1535.819711977379
 20
708.7287381568318
 30
0.0
 40
25.41
100
AcDbArc
 50
98.31001200000486
 51
110.4942849999983
  0
ARC
  5
426
330
6B
100
AcDbEntity
  8
0
 62
     3
100
AcDbCircle
 10
1535.819711977379
 20
753.1848581568314
 30
0.0
 40
25.41
100
AcDbArc
 50
249.5057150000017
 51
261.6899879999952
  0
LINE
  5
427
330
6B
100
AcDbEntity
  8
0
 62
     2
100
AcDbLine
 10
1545.771468977379
 20
728.8799211568315
 30
0.0
 11
1543.841956977379
 21
728.8799211568315
 31
0.0
  0
LINE
  5
428
330
6B
100
AcDbEntity
  8
0
 62
     2
100
AcDbLine
 10
1545.771468977379
 20
729.0914821568318
 30
0.0
 11
1545.771468977379
 21
728.8799211568315
 31
0.0
  0
LINE
  5
429
330
6B
100
AcDbEntity
  8
0
 62
     2
100
AcDbLine
 10
1543.634999977379
 20
733.0335751568318
 30
0.0
 11
1541.682736977378
 21
733.0335751568318
 31
0.0
  0
LINE
  5
42A
330
6B
100
AcDbEntity
  8
0
 62
     2
100
AcDbLine
 10
1543.634999977379
 20
733.0335751568318
 30
0.0
 11
1543.634999977379
 21
732.8221131568315
 31
0.0
  0
LINE
  5
42B
330
6B
100
AcDbEntity
  8
0
 62
     2
100
AcDbLine
 10
1543.634999977379
 20
729.0914821568318
 30
0.0
 11
1543.634999977379
 21
728.8798231568318
 31
0.0
  0
LINE
  5
42C
330
6B
100
AcDbEntity
  8
0
 62
     2
100
AcDbLine
 10
1543.634999977379
 20
728.8798231568318
 30
0.0
 11
1541.682736977378
 21
728.8798231568318
 31
0.0
  0
LINE
  5
42D
330
6B
100
AcDbEntity
  8
0
 62
     2
100
AcDbLine
 10
1545.771468977379
 20
733.0336741568316
 30
0.0
 11
1545.771468977379
 21
732.8221131568315
 31
0.0
  0
LINE
  5
42E
330
6B
100
AcDbEntity
  8
0
 62
     2
100
AcDbLine
 10
1545.771468977379
 20
733.0336741568316
 30
0.0
 11
1543.841956977379
 21
733.0336741568316
 31
0.0
  0
LINE
  5
42F
330
6B
100
AcDbEntity
  8
0
 62
     2
100
AcDbLine
 10
1543.841956977379
 20
733.0336741568316
 30
0.0
 11
1543.841956977379
 21
732.8221131568315
 31
0.0
  0
LINE
  5
430
330
6B
100
AcDbEntity
  8
0
 62
     2
100
AcDbLine
 10
1545.985826977379
 20
729.0914821568318
 30
0.0
 11
1545.985826977379
 21
728.8799211568315
 31
0.0
  0
LINE
  5
431
330
6B
100
AcDbEntity
  8
0
 62
     2
100
AcDbLine
 10
1547.970127977379
 20
728.8799211568315
 30
0.0
 11
1545.985826977379
 21
728.8799211568315
 31
0.0
  0
LINE
  5
432
330
6B
100
AcDbEntity
  8
0
 62
     2
100
AcDbLine
 10
1547.479590977379
 20
732.3659051568317
 30
0.0
 11
1547.479590977379
 21
729.5476911568315
 31
0.0
  0
LINE
  5
433
330
6B
100
AcDbEntity
  8
0
 62
     2
100
AcDbLine
 10
1547.479590977379
 20
729.5476911568315
 30
0.0
 11
1547.669639977379
 21
729.5476911568315
 31
0.0
  0
ARC
  5
434
330
6B
100
AcDbEntity
  8
0
 62
     2
100
AcDbCircle
 10
1546.697853977379
 20
730.9567981568318
 30
0.0
 40
1.711709999999999
100
AcDbArc
 50
304.5919549999957
 51
55.40804500000434
  0
LINE
  5
435
330
6B
100
AcDbEntity
  8
0
 62
     2
100
AcDbLine
 10
1547.970127977379
 20
733.0336741568316
 30
0.0
 11
1545.985826977379
 21
733.0336741568316
 31
0.0
  0
LINE
  5
436
330
6B
100
AcDbEntity
  8
0
 62
     2
100
AcDbLine
 10
1545.985826977379
 20
733.0336741568316
 30
0.0
 11
1545.985826977379
 21
732.8221131568315
 31
0.0
  0
LINE
  5
437
330
6B
100
AcDbEntity
  8
0
 62
     2
100
AcDbLine
 10
1543.841956977379
 20
729.0914821568318
 30
0.0
 11
1543.841956977379
 21
728.8799211568315
 31
0.0
  0
LINE
  5
438
330
6B
100
AcDbEntity
  8
0
 62
     2
100
AcDbLine
 10
1547.479590977379
 20
732.3659051568317
 30
0.0
 11
1547.669639977379
 21
732.3659051568317
 31
0.0
  0
LINE
  5
439
330
6B
100
AcDbEntity
  8
0
 62
     2
100
AcDbLine
 10
1535.836430977379
 20
729.0914821568318
 30
0.0
 11
1535.836427977378
 21
728.8799021568316
 31
0.0
  0
LINE
  5
43A
330
6B
100
AcDbEntity
  8
0
 62
     2
100
AcDbLine
 10
1533.906915977379
 20
728.8799411568318
 30
0.0
 11
1535.836427977378
 21
728.8799071568316
 31
0.0
  0
LINE
  5
43B
330
6B
100
AcDbEntity
  8
0
 62
     2
100
AcDbLine
 10
1529.610533977379
 20
728.8799211568315
 30
0.0
 11
1531.149798977379
 21
728.8799211568315
 31
0.0
  0
ARC
  5
43C
330
6B
100
AcDbEntity
  8
0
 62
     2
100
AcDbCircle
 10
1524.628590977379
 20
731.0057041568318
 30
0.0
 40
14.713566
100
AcDbArc
 50
353.8660060000017
 51
357.6940340000007
  0
LINE
  5
43D
330
6B
100
AcDbEntity
  8
0
 62
     2
100
AcDbLine
 10
1538.345170977378
 20
730.4173371568315
 30
0.0
 11
1539.330241977379
 21
730.4136921568315
 31
0.0
  0
LINE
  5
43F
330
6B
100
AcDbEntity
  8
0
 62
     2
100
AcDbLine
 10
1538.349149977379
 20
731.4925511568316
 30
0.0
 11
1539.334220977378
 21
731.4889071568318
 31
0.0
  0
ARC
  5
440
330
6B
100
AcDbEntity
  8
0
 62
     2
100
AcDbCircle
 10
1524.628590977379
 20
731.0057041568318
 30
0.0
 40
14.713566
100
AcDbArc
 50
1.881965999999014
 51
5.709994000000348
  0
LINE
  5
441
330
6B
100
AcDbEntity
  8
0
 62
     2
100
AcDbLine
 10
1535.836499977379
 20
733.0336541568315
 30
0.0
 11
1535.836496977379
 21
732.8221131568315
 31
0.0
  0
LINE
  5
442
330
6B
100
AcDbEntity
  8
0
 62
     2
100
AcDbLine
 10
1533.906987977379
 20
733.0336941568319
 30
0.0
 11
1535.836499977379
 21
733.0336601568318
 31
0.0
  0
LINE
  5
443
330
6B
100
AcDbEntity
  8
0
 62
     2
100
AcDbLine
 10
1533.906919977378
 20
729.0914821568318
 30
0.0
 11
1533.906915977379
 21
728.8799411568318
 31
0.0
  0
LINE
  5
444
330
6B
100
AcDbEntity
  8
0
 62
     2
100
AcDbLine
 10
1533.906987977379
 20
733.0336941568319
 30
0.0
 11
1533.906984977378
 21
732.8221131568315
 31
0.0
  0
LINE
  5
445
330
6B
100
AcDbEntity
  8
0
 62
     2
100
AcDbLine
 10
1531.149798977379
 20
729.0914821568318
 30
0.0
 11
1531.149798977379
 21
728.8799211568315
 31
0.0
  0
LINE
  5
446
330
6B
100
AcDbEntity
  8
0
 62
     2
100
AcDbLine
 10
1530.714050977379
 20
731.3158091568318
 30
0.0
 11
1532.236481977379
 21
728.8799211568315
 31
0.0
  0
LINE
  5
447
330
6B
100
AcDbEntity
  8
0
 62
     2
100
AcDbLine
 10
1532.236481977379
 20
728.8799211568315
 30
0.0
 11
1533.255913977379
 21
728.8799211568315
 31
0.0
  0
LINE
  5
448
330
6B
100
AcDbEntity
  8
0
 62
     2
100
AcDbLine
 10
1533.691661977379
 20
733.0336741568316
 30
0.0
 11
1533.691661977379
 21
732.8221131568315
 31
0.0
  0
LINE
  5
449
330
6B
100
AcDbEntity
  8
0
 62
     2
100
AcDbLine
 10
1532.152396977379
 20
733.0336741568316
 30
0.0
 11
1533.691661977379
 21
733.0336741568316
 31
0.0
  0
LINE
  5
44A
330
6B
100
AcDbEntity
  8
0
 62
     2
100
AcDbLine
 10
1532.152396977379
 20
733.0336741568316
 30
0.0
 11
1532.152396977379
 21
732.8221131568315
 31
0.0
  0
LINE
  5
44B
330
6B
100
AcDbEntity
  8
0
 62
     2
100
AcDbLine
 10
1532.588144977379
 20
731.1523081568318
 30
0.0
 11
1531.353497977379
 21
733.0336741568316
 31
0.0
  0
LINE
  5
44C
330
6B
100
AcDbEntity
  8
0
 62
     2
100
AcDbLine
 10
1529.610533977379
 20
733.0336741568316
 30
0.0
 11
1531.353497977379
 21
733.0336741568316
 31
0.0
  0
LINE
  5
44D
330
6B
100
AcDbEntity
  8
0
 62
     2
100
AcDbLine
 10
1539.526747977379
 20
733.0335751568318
 30
0.0
 11
1541.479010977379
 21
733.0335751568318
 31
0.0
  0
LINE
  5
44E
330
6B
100
AcDbEntity
  8
0
 62
     2
100
AcDbLine
 10
1539.526747977379
 20
732.8221131568315
 30
0.0
 11
1539.526747977379
 21
733.0335751568318
 31
0.0
  0
LINE
  5
44F
330
6B
100
AcDbEntity
  8
0
 62
     2
100
AcDbLine
 10
1539.526747977379
 20
728.8798231568318
 30
0.0
 11
1539.526747977379
 21
729.0914821568318
 31
0.0
  0
LINE
  5
450
330
6B
100
AcDbEntity
  8
0
 62
     2
100
AcDbLine
 10
1539.526747977379
 20
728.8798231568318
 30
0.0
 11
1541.479010977379
 21
728.8798231568318
 31
0.0
  0
LINE
  5
451
330
6B
100
AcDbEntity
  8
0
 62
     2
100
AcDbLine
 10
1541.682736977378
 20
729.0914821568318
 30
0.0
 11
1541.682736977378
 21
728.8798231568318
 31
0.0
  0
LINE
  5
452
330
6B
100
AcDbEntity
  8
0
 62
     2
100
AcDbLine
 10
1541.479010977379
 20
729.0914821568318
 30
0.0
 11
1541.479010977379
 21
728.8798231568318
 31
0.0
  0
LINE
  5
453
330
6B
100
AcDbEntity
  8
0
 62
     2
100
AcDbLine
 10
1541.479010977379
 20
732.8221131568315
 30
0.0
 11
1541.479010977379
 21
733.0335751568318
 31
0.0
  0
LINE
  5
454
330
6B
100
AcDbEntity
  8
0
 62
     2
100
AcDbLine
 10
1541.682736977378
 20
732.8221131568315
 30
0.0
 11
1541.682736977378
 21
733.0335751568318
 31
0.0
  0
LINE
  5
455
330
6B
100
AcDbEntity
  8
0
 62
     2
100
AcDbLine
 10
1529.610533977379
 20
729.0914821568318
 30
0.0
 11
1529.610533977379
 21
728.8799211568315
 31
0.0
  0
LINE
  5
456
330
6B
100
AcDbEntity
  8
0
 62
     2
100
AcDbLine
 10
1529.610533977379
 20
733.0336741568316
 30
0.0
 11
1529.610533977379
 21
732.8221131568315
 31
0.0
  0
ARC
  5
457
330
6B
100
AcDbEntity
  8
0
 62
     2
100
AcDbCircle
 10
1548.180127977379
 20
731.3925461568318
 30
0.0
 40
1.641127999999999
100
AcDbArc
 50
17.3087490000009
 51
23.76507100000167
  0
ARC
  5
458
330
6B
100
AcDbEntity
  8
0
 62
     2
100
AcDbCircle
 10
1546.781853977378
 20
730.9567981568318
 30
0.0
 40
3.105725999999998
100
AcDbArc
 50
342.691250999999
 51
17.30856600000303
  0
ARC
  5
459
330
6B
100
AcDbEntity
  8
0
 62
     2
100
AcDbCircle
 10
1548.180127977379
 20
730.5210501568315
 30
0.0
 40
1.641127999999999
100
AcDbArc
 50
336.2349289999984
 51
342.691250999999
  0
ARC
  5
45A
330
6B
100
AcDbEntity
  8
0
 62
     2
100
AcDbCircle
 10
1547.970127977379
 20
731.3925461568318
 30
0.0
 40
1.641127999999999
100
AcDbArc
 50
17.3087490000009
 51
90.0
  0
ARC
  5
45B
330
6B
100
AcDbEntity
  8
0
 62
     2
100
AcDbCircle
 10
1546.571853977378
 20
730.9567981568318
 30
0.0
 40
3.105725999999998
100
AcDbArc
 50
342.691250999999
 51
17.30856600000303
  0
ARC
  5
45C
330
6B
100
AcDbEntity
  8
0
 62
     2
100
AcDbCircle
 10
1547.970127977379
 20
730.5210501568315
 30
0.0
 40
1.641127999999999
100
AcDbArc
 50
270.0
 51
342.691250999999
  0
ARC
  5
45D
330
6B
100
AcDbEntity
  8
0
 62
     2
100
AcDbCircle
 10
1537.846186977378
 20
730.9567981568318
 30
0.0
 40
2.076875999999999
100
AcDbArc
 50
46.75287999999379
 51
89.74999799999961
  0
ARC
  5
45E
330
6B
100
AcDbEntity
  8
0
 62
     2
100
AcDbCircle
 10
1537.846186977378
 20
730.9567981568318
 30
0.0
 40
2.076875999999999
100
AcDbArc
 50
273.9763330000014
 51
312.8231200000024
  0
ARC
  5
45F
330
6B
100
AcDbEntity
  8
0
 62
     2
100
AcDbCircle
 10
1549.287994977379
 20
730.9247361568318
 30
0.0
 40
2.755888999999998
100
AcDbArc
 50
0.6665840000022973
 51
23.90392800000231
  0
ARC
  5
460
330
6B
100
AcDbEntity
  8
0
 62
     2
100
AcDbCircle
 10
1553.203557977379
 20
730.9247361568318
 30
0.0
 40
2.755888999999998
100
AcDbArc
 50
156.0960719999977
 51
179.3334159999977
  0
ARC
  5
461
330
6B
100
AcDbEntity
  8
0
 62
     2
100
AcDbCircle
 10
1549.287994977379
 20
730.9888591568316
 30
0.0
 40
2.755888999999998
100
AcDbArc
 50
336.0960719999976
 51
359.3334159999977
  0
ARC
  5
462
330
6B
100
AcDbEntity
  8
0
 62
     2
100
AcDbCircle
 10
1553.203557977379
 20
730.9888591568316
 30
0.0
 40
2.755888999999998
100
AcDbArc
 50
180.6665840000023
 51
203.9039280000023
  0
LINE
  5
465
330
6B
100
AcDbEntity
  8
0
 62
     3
100
AcDbLine
 10
1654.224472977379
 20
567.7176521568317
 30
0.0
 11
1654.224472977379
 21
590.7176521568316
 31
0.0
  0
LINE
  5
467
330
6B
100
AcDbEntity
  8
0
 62
     3
100
AcDbLine
 10
1601.170863977379
 20
560.7176521568317
 30
0.0
 11
1601.170863977379
 21
574.7176521568316
 31
0.0
  0
TEXT
  5
469
330
6B
100
AcDbEntity
  8
0
 62
     3
100
AcDbText
 10
1630.234790977379
 20
586.9227681568315
 30
0.0
 40
2.0
  1
A
 41
0.7
100
AcDbText
  0
TEXT
  5
46A
330
6B
100
AcDbEntity
  8
0
 62
     3
100
AcDbText
 10
1632.770076977379
 20
586.9227681568315
 30
0.0
 40
2.0
  1
P
 41
0.7
100
AcDbText
  0
TEXT
  5
46B
330
6B
100
AcDbEntity
  8
0
 62
     3
100
AcDbText
 10
1635.305363977379
 20
586.9227681568315
 30
0.0
 40
2.0
  1
P
 41
0.7
100
AcDbText
  0
TEXT
  5
46C
330
6B
100
AcDbEntity
  8
0
 62
     3
100
AcDbText
 10
1637.840649977379
 20
586.9227681568315
 30
0.0
 40
2.0
  1
D
 41
0.7
100
AcDbText
  0
TEXT
  5
46D
330
6B
100
AcDbEntity
  8
0
 62
     3
100
AcDbText
 10
1643.209332977379
 20
586.9227681568315
 30
0.0
 40
2.0
  1
C
 41
0.7
100
AcDbText
  0
TEXT
  5
46E
330
6B
100
AcDbEntity
  8
0
 62
     3
100
AcDbText
 10
1645.744618977379
 20
586.9227681568315
 30
0.0
 40
2.0
  1
H
 41
0.7
100
AcDbText
  0
TEXT
  5
46F
330
6B
100
AcDbEntity
  8
0
 62
     3
100
AcDbText
 10
1648.279904977379
 20
586.9227681568315
 30
0.0
 40
2.0
  1
C
 41
0.7
100
AcDbText
  0
TEXT
  5
470
330
6B
100
AcDbEntity
  8
0
 62
     3
100
AcDbText
 10
1650.815191977379
 20
586.9227681568315
 30
0.0
 40
2.0
  1
K
 41
0.7
100
AcDbText
  0
TEXT
  5
471
330
6B
100
AcDbEntity
  8
0
 62
     3
100
AcDbText
 10
1656.489157977379
 20
586.9227681568315
 30
0.0
 40
2.0
  1
DESN
 41
1.216762999999998
100
AcDbText
  0
TEXT
  5
472
330
6B
100
AcDbEntity
  8
0
 62
     3
100
AcDbText
 10
1571.482798977379
 20
557.5762701568317
 30
0.0
 40
2.0
  1
NICHIDO IND.CO.LTD
 41
1.274876
100
AcDbText
  0
LINE
  5
473
330
6B
100
AcDbEntity
  8
0
 62
     3
100
AcDbLine
 10
1581.865828977378
 20
590.7176521568316
 30
0.0
 11
1581.865828977378
 21
567.7176521568317
 31
0.0
  0
LINE
  5
474
330
6B
100
AcDbEntity
  8
0
 62
     3
100
AcDbLine
 10
1628.224472977378
 20
590.7176521568316
 30
0.0
 11
1628.224472977378
 21
551.0519291568315
 31
0.0
  0
LINE
  5
479
330
6B
100
AcDbEntity
  8
0
 62
     3
100
AcDbLine
 10
1641.224472977379
 20
590.7176521568316
 30
0.0
 11
1641.224472977379
 21
560.7176521568317
 31
0.0
  0
TEXT
  5
47A
330
6B
100
AcDbEntity
  8
0
 62
     3
100
AcDbText
 10
1629.336917977379
 20
561.5823391568316
 30
0.0
 40
3.2
  1
作成日
 41
1.017225999999997
100
AcDbText
  0
LINE
  5
47B
330
6B
100
AcDbEntity
  8
0
 62
     3
100
AcDbLine
 10
1679.923836977378
 20
590.7176521568316
 30
0.0
 11
1568.620393977379
 21
590.7176521568316
 31
0.0
  0
LINE
  5
47C
330
6B
100
AcDbEntity
  8
0
 62
     3
100
AcDbLine
 10
1667.224472977379
 20
567.7176521568317
 30
0.0
 11
1667.224472977379
 21
590.7176521568316
 31
0.0
  0
TEXT
  5
47D
330
6B
100
AcDbEntity
  8
0
 62
     3
100
AcDbText
 10
1670.548275977379
 20
587.0085871568317
 30
0.0
 40
1.8
  1
D
 41
0.666667
100
AcDbText
  0
TEXT
  5
47E
330
6B
100
AcDbEntity
  8
0
 62
     3
100
AcDbText
 10
1673.364904977379
 20
587.0085871568317
 30
0.0
 40
1.8
  1
E
 41
0.666667
100
AcDbText
  0
TEXT
  5
47F
330
6B
100
AcDbEntity
  8
0
 62
     3
100
AcDbText
 10
1676.181532977379
 20
587.0085871568317
 30
0.0
 40
1.8
  1
F
 41
0.666667
100
AcDbText
  0
TEXT
  5
480
330
6B
100
AcDbEntity
  8
0
 62
     3
100
AcDbText
 10
1670.548275977379
 20
583.0160331568315
 30
0.0
 40
3.2
  1
製図
 41
1.076369
100
AcDbText
  0
LINE
  5
481
330
6B
100
AcDbEntity
  8
0
 62
     3
100
AcDbLine
 10
1568.620393977379
 20
590.7176521568316
 30
0.0
 11
1568.620393977379
 21
551.0519291568315
 31
0.0
  0
TEXT
  5
482
330
6B
100
AcDbEntity
  8
0
 62
     3
100
AcDbText
 10
1569.997046977379
 20
551.3843951568316
 30
0.0
 40
5.0
  1
日動工業株式会社
 41
0.833333
100
AcDbText
  0
LINE
  5
483
330
6B
100
AcDbEntity
  8
0
 62
     3
100
AcDbLine
 10
1611.502797977379
 20
574.7176521568316
 30
0.0
 11
1611.502797977379
 21
551.0519291568315
 31
0.0
  0
LINE
  5
484
330
6B
100
AcDbEntity
  8
0
 62
     3
100
AcDbLine
 10
1611.502797977379
 20
555.8847911568316
 30
0.0
 11
1628.224472977378
 21
555.8847911568316
 31
0.0
  0
TEXT
  5
485
330
6B
100
AcDbEntity
  8
0
 62
     3
100
AcDbText
 10
1612.089399977379
 20
556.7012211568317
 30
0.0
 40
3.2
  1
出図コード
 41
0.8356860000000001
100
AcDbText
  0
LINE
  5
487
330
6B
100
AcDbEntity
  8
0
 62
     3
100
AcDbLine
 10
1568.620393977379
 20
560.7176521568316
 30
0.0
 11
1679.923836977378
 21
560.7176521568317
 31
0.0
  0
LINE
  5
489
330
6B
100
AcDbEntity
  8
0
 62
     3
100
AcDbLine
 10
1568.620393977379
 20
581.7176521568317
 30
0.0
 11
1679.923836977378
 21
581.7176521568317
 31
0.0
  0
LINE
  5
48F
330
6B
100
AcDbEntity
  8
0
 62
     3
100
AcDbLine
 10
1568.620393977379
 20
574.7176521568316
 30
0.0
 11
1628.224472977378
 21
574.7176521568316
 31
0.0
  0
LINE
  5
495
330
6B
100
AcDbEntity
  8
0
 62
     3
100
AcDbLine
 10
1568.620393977379
 20
567.7176521568317
 30
0.0
 11
1679.923836977378
 21
567.7176521568317
 31
0.0
  0
TEXT
  5
496
330
6B
100
AcDbEntity
  8
0
 62
     3
100
AcDbText
 10
1611.956851977379
 20
551.6541241568317
 30
0.0
 40
3.2
  1
ZK-A4X
 41
0.8112849999999999
100
AcDbText
  0
LINE
  5
497
330
6B
100
AcDbEntity
  8
0
 62
     3
100
AcDbLine
 10
1523.780317977379
 20
730.9887851568316
 30
0.0
 11
1403.023872977379
 21
730.9887851568316
 31
0.0
  0
LINE
  5
498
330
6B
100
AcDbEntity
  8
0
 62
     3
100
AcDbLine
 10
1680.023872977379
 20
730.9887851568316
 30
0.0
 11
1558.585410977379
 21
730.9887851568316
 31
0.0
  0
LINE
  5
499
330
6B
100
AcDbEntity
  8
0
 62
     3
100
AcDbLine
 10
1680.023872977379
 20
550.9887851568315
 30
0.0
 11
1680.023872977379
 21
730.9887851568316
 31
0.0
  0
LINE
  5
49A
330
6B
100
AcDbEntity
  8
0
 62
     3
100
AcDbLine
 10
1680.023872977379
 20
550.9887851568315
 30
0.0
 11
1403.023872977379
 21
550.9887851568315
 31
0.0
  0
LINE
  5
49F
330
6B
100
AcDbEntity
  8
0
 62
     3
100
AcDbLine
 10
1403.023872977379
 20
730.9887851568316
 30
0.0
 11
1403.023872977379
 21
550.9887851568315
 31
0.0
  0
TEXT
  5
4A0
330
6B
100
AcDbEntity
  8
0
 62
     3
100
AcDbText
 10
1570.437790977379
 20
586.8871781568317
 30
0.0
 40
2.0
  1
CONPONENTS
 41
0.5331600000000001
100
AcDbText
  0
TEXT
  5
4A1
330
6B
100
AcDbEntity
  8
0
 62
     3
100
AcDbText
 10
1570.088063977379
 20
567.9550011568315
 30
0.0
 40
3.0
  1
材
 41
0.833333
100
AcDbText
  0
TEXT
  5
4A2
330
6B
100
AcDbEntity
  8
0
 62
     3
100
AcDbText
 10
1577.623706977379
 20
567.9550011568315
 30
0.0
 40
3.0
  1
質
 41
0.833333
100
AcDbText
  0
TEXT
  5
4A3
330
6B
100
AcDbEntity
  8
0
 62
     3
100
AcDbText
 10
1570.176134977379
 20
578.5795261568319
 30
0.0
 40
2.0
  1
MODEL
 41
1.031072999999999
100
AcDbText
  0
TEXT
  5
4A4
330
6B
100
AcDbEntity
  8
0
 62
     3
100
AcDbText
 10
1570.088063977379
 20
571.6373091568317
 30
0.0
 40
2.0
  1
MATERIAL
 41
0.659278
100
AcDbText
  0
TEXT
  5
4A5
330
6B
100
AcDbEntity
  8
0
 62
     3
100
AcDbText
 10
1601.395344977379
 20
567.9550011568315
 30
0.0
 40
3.0
  1
備
 41
0.833333
100
AcDbText
  0
TEXT
  5
4A6
330
6B
100
AcDbEntity
  8
0
 62
     3
100
AcDbText
 10
1608.128346977379
 20
567.9550011568315
 30
0.0
 40
3.0
  1
考
 41
0.833333
100
AcDbText
  0
TEXT
  5
4A7
330
6B
100
AcDbEntity
  8
0
 62
     3
100
AcDbText
 10
1601.811831573645
 20
571.6373091568317
 30
0.0
 40
2.0
  1
REMARKS
 41
0.675794
100
AcDbText
  0
TEXT
  5
4A8
330
6B
100
AcDbEntity
  8
0
 62
     3
100
AcDbText
 10
1571.677792977379
 20
564.7171891568318
 30
0.0
 40
2.0
  1
3AD
 41
1.42614
100
AcDbText
  0
TEXT
  5
4A9
330
6B
100
AcDbEntity
  8
0
 62
     3
100
AcDbText
 10
1580.988772977379
 20
564.8829221568319
 30
0.0
 40
2.0
  1
ANGLE
 41
1.669883999999996
100
AcDbText
  0
TEXT
  5
4AA
330
6B
100
AcDbEntity
  8
0
 62
     3
100
AcDbText
 10
1601.922659977379
 20
564.5060811568318
 30
0.0
 40
2.0
  1
SCALE
 41
0.7719630000000001
100
AcDbText
  0
TEXT
  5
4AB
330
6B
100
AcDbEntity
  8
0
 62
     3
100
AcDbText
 10
1571.363922977379
 20
560.7176521568317
 30
0.0
 40
3.0
  1
第
 41
0.833333
100
AcDbText
  0
TEXT
  5
4AC
330
6B
100
AcDbEntity
  8
0
 62
     3
100
AcDbText
 10
1579.150772977379
 20
560.7176521568317
 30
0.0
 40
3.0
  1
三
 41
0.833333
100
AcDbText
  0
TEXT
  5
4AD
330
6B
100
AcDbEntity
  8
0
 62
     3
100
AcDbText
 10
1586.937622977379
 20
560.7176521568317
 30
0.0
 40
3.0
  1
角
 41
0.833333
100
AcDbText
  0
TEXT
  5
4AE
330
6B
100
AcDbEntity
  8
0
 62
     3
100
AcDbText
 10
1594.724472977379
 20
560.7176521568317
 30
0.0
 40
3.0
  1
法
 41
0.833333
100
AcDbText
  0
TEXT
  5
4AF
330
6B
100
AcDbEntity
  8
0
 62
     3
100
AcDbText
 10
1601.785864977379
 20
561.0060811568318
 30
0.0
 40
3.0
  1
尺
 41
0.833333
100
AcDbText
  0
TEXT
  5
4B0
330
6B
100
AcDbEntity
  8
0
 62
     3
100
AcDbText
 10
1608.518866977379
 20
561.0060811568318
 30
0.0
 40
3.0
  1
度
 41
0.833333
100
AcDbText
  0
TEXT
  5
4B1
330
6B
100
AcDbEntity
  8
0
 62
     3
100
AcDbText
 10
1631.102136977379
 20
583.1753811568317
 30
0.0
 40
3.0
  1
承認
 41
1.089472999999999
100
AcDbText
  0
TEXT
  5
4B2
330
6B
100
AcDbEntity
  8
0
 62
     3
100
AcDbText
 10
1644.345017977379
 20
583.1176521568314
 30
0.0
 40
3.0
  1
検図
 41
0.931761
100
AcDbText
  0
TEXT
  5
4B3
330
6B
100
AcDbEntity
  8
0
 62
     3
100
AcDbText
 10
1657.345413977379
 20
583.1176521568314
 30
0.0
 40
3.0
  1
設
 41
0.833333
100
AcDbText
  0
TEXT
  5
4B4
330
6B
100
AcDbEntity
  8
0
 62
     3
100
AcDbText
 10
1661.835281977379
 20
583.1176521568314
 30
0.0
 40
3.0
  1
計
 41
0.833333
100
AcDbText
  0
TEXT
  5
4B5
330
6B
100
AcDbEntity
  8
0
 62
     3
100
AcDbText
 10
1570.369262977379
 20
582.4064081568317
 30
0.0
 40
3.0
  1
品
 41
0.833333
100
AcDbText
  0
TEXT
  5
4B6
330
6B
100
AcDbEntity
  8
0
 62
     3
100
AcDbText
 10
1577.904904977379
 20
582.4064081568317
 30
0.0
 40
3.0
  1
名
 41
0.833333
100
AcDbText
  0
TEXT
  5
4B7
330
6B
100
AcDbEntity
  8
0
 62
     3
100
AcDbText
 10
1570.176134977379
 20
574.9472661568317
 30
0.0
 40
3.0
  1
型
 41
0.833333
100
AcDbText
  0
TEXT
  5
4B8
330
6B
100
AcDbEntity
  8
0
 62
     3
100
AcDbText
 10
1577.724225977379
 20
574.9472661568317
 30
0.0
 40
3.0
  1
式
 41
0.833333
100
AcDbText
  0
LINE
  5
4B9
330
6B
100
AcDbEntity
  8
0
100
AcDbLine
 10
1678.348408977378
 20
716.5833961568315
 30
0.0
 11
1680.033281977379
 21
716.5833961568315
 31
0.0
  0
LINE
  5
4BA
330
6B
100
AcDbEntity
  8
0
100
AcDbLine
 10
1606.538715977379
 20
726.4833961568315
 30
0.0
 11
1606.538715977379
 21
711.6333961568315
 31
0.0
  0
LINE
  5
4BB
330
6B
100
AcDbEntity
  8
0
100
AcDbLine
 10
1670.099875977379
 20
716.5833961568315
 30
0.0
 11
1596.433281977379
 21
716.5833961568315
 31
0.0
  0
LINE
  5
4BC
330
6B
100
AcDbEntity
  8
0
100
AcDbLine
 10
1668.435757977379
 20
726.4833961568315
 30
0.0
 11
1668.435757977379
 21
711.6333961568315
 31
0.0
  0
LINE
  5
4BD
330
6B
100
AcDbEntity
  8
0
100
AcDbLine
 10
1624.144041977379
 20
726.4833961568315
 30
0.0
 11
1624.144041977379
 21
711.6333961568315
 31
0.0
  0
LINE
  5
4BE
330
6B
100
AcDbEntity
  8
0
100
AcDbLine
 10
1678.348408977378
 20
716.5833961568315
 30
0.0
 11
1670.099875977379
 21
716.5833961568315
 31
0.0
  0
LINE
  5
4BF
330
6B
100
AcDbEntity
  8
0
100
AcDbLine
 10
1596.433281977379
 20
721.5333961568318
 30
0.0
 11
1680.033281977379
 21
721.5333961568318
 31
0.0
  0
TEXT
  5
4C0
330
6B
100
AcDbEntity
  8
0
 62
     3
100
AcDbText
 10
1404.523872977379
 20
551.4887851568316
 30
0.0
 40
3.2
  1
No
 41
0.8
  7
高3.2
100
AcDbText
  0
TEXT
  5
4C1
330
6B
100
AcDbEntity
  8
0
 62
     3
100
AcDbText
 10
1413.063645285071
 20
551.4887851568316
 30
0.0
 40
3.2
  1
部品名
 41
0.8
  7
高3.2
100
AcDbText
  0
TEXT
  5
4C2
330
6B
100
AcDbEntity
  8
0
 62
     3
100
AcDbText
 10
1435.770144515841
 20
551.4887851568316
 30
0.0
 40
3.2
  1
材質
 41
0.8
  7
高3.2
100
AcDbText
  0
TEXT
  5
4C3
330
6B
100
AcDbEntity
  8
0
 62
     3
100
AcDbText
 10
1452.486945285072
 20
551.4887851568316
 30
0.0
 40
3.2
  1
備考
 41
0.8
  7
高3.2
100
AcDbText
  0
TEXT
  5
4C4
330
6B
100
AcDbEntity
  8
0
 62
     3
100
AcDbText
 10
1498.932259604136
 20
551.4887851568316
 30
0.0
 40
3.2
  1
数
 41
0.8
  7
高3.2
100
AcDbText
  0
LINE
  5
4C5
330
6B
100
AcDbEntity
  8
0
 62
     3
100
AcDbLine
 10
1502.751241142599
 20
570.9887851568315
 30
0.0
 11
1502.751241142599
 21
550.9887851568315
 31
0.0
  0
TEXT
  5
4C6
330
6B
100
AcDbEntity
  8
0
 62
     3
100
AcDbText
 10
1498.932259604136
 20
556.4887851568316
 30
0.0
 40
3.2
  1
1
 41
0.8
  7
高3.2
100
AcDbText
  0
TEXT
  5
4C7
330
6B
100
AcDbEntity
  8
0
 62
     3
100
AcDbText
 10
1498.932259604136
 20
561.4887851568315
 30
0.0
 40
3.2
  1
1
 41
0.8
  7
高3.2
100
AcDbText
  0
TEXT
  5
4C8
330
6B
100
AcDbEntity
  8
0
 62
     3
100
AcDbText
 10
1498.932259604136
 20
566.4887851568315
 30
0.0
 40
3.2
  1
1
 41
0.8
  7
高3.2
100
AcDbText
  0
LINE
  5
4C9
330
6B
100
AcDbEntity
  8
0
100
AcDbLine
 10
1450.986945285072
 20
570.9887851568315
 30
0.0
 11
1450.986945285072
 21
550.9887851568315
 31
0.0
  0
LINE
  5
4CA
330
6B
100
AcDbEntity
  8
0
100
AcDbLine
 10
1497.432259604136
 20
570.9887851568315
 30
0.0
 11
1497.432259604136
 21
550.9887851568315
 31
0.0
  0
TEXT
  5
4CB
330
6B
100
AcDbEntity
  8
0
 62
     3
100
AcDbText
 10
1404.523872977379
 20
556.4887851568316
 30
0.0
 40
3.2
  1
1
 41
0.8
  7
高3.2
100
AcDbText
  0
TEXT
  5
4CC
330
6B
100
AcDbEntity
  8
0
 62
     3
100
AcDbText
 10
1404.523872977379
 20
561.4887851568315
 30
0.0
 40
3.2
  1
2
 41
0.8
  7
高3.2
100
AcDbText
  0
TEXT
  5
4CD
330
6B
100
AcDbEntity
  8
0
 62
     3
100
AcDbText
 10
1404.523872977379
 20
566.4887851568315
 30
0.0
 40
3.2
  1
3
 41
0.8
  7
高3.2
100
AcDbText
  0
TEXT
  5
4CE
330
6B
100
AcDbEntity
  8
0
 62
     3
100
AcDbText
 10
1413.063645285071
 20
556.4887851568316
 30
0.0
 40
3.2
  1
電線
 41
0.8
  7
高3.2
100
AcDbText
  0
TEXT
  5
4CF
330
6B
100
AcDbEntity
  8
0
 62
     3
100
AcDbText
 10
1413.063645285071
 20
566.4887851568315
 30
0.0
 40
3.2
  1
ジョイント
 41
0.8
  7
高3.2
100
AcDbText
  0
TEXT
  5
4D0
330
6B
100
AcDbEntity
  8
0
 62
     3
100
AcDbText
 10
1435.770144515841
 20
561.4887851568315
 30
0.0
 40
3.2
  1
-
 41
0.8
  7
高3.2
100
AcDbText
  0
TEXT
  5
4D1
330
6B
100
AcDbEntity
  8
0
 62
     3
100
AcDbText
 10
1435.770144515841
 20
566.4887851568315
 30
0.0
 40
3.2
  1
-
 41
0.8
  7
高3.2
100
AcDbText
  0
LINE
  5
4D2
330
6B
100
AcDbEntity
  8
0
100
AcDbLine
 10
1411.563645285071
 20
570.9887851568315
 30
0.0
 11
1411.563645285071
 21
550.9887851568315
 31
0.0
  0
LINE
  5
4D3
330
6B
100
AcDbEntity
  8
0
100
AcDbLine
 10
1434.270144515841
 20
570.9887851568315
 30
0.0
 11
1434.270144515841
 21
550.9887851568315
 31
0.0
  0
TEXT
  5
4D4
330
6B
100
AcDbEntity
  8
0
 62
     3
100
AcDbText
 10
1645.276988977379
 20
562.1180531568316
 30
0.0
 40
3.2
  1
2008.10.01
  7
高3.2
100
AcDbText
  0
TEXT
  5
4D5
330
6B
100
AcDbEntity
  8
0
 62
     3
100
AcDbText
 10
1613.968548977379
 20
562.2610141568316
 30
0.0
 40
3.2
  1
FREE
100
AcDbText
  0
LINE
  5
4D6
330
6B
100
AcDbEntity
  8
0
 62
     3
100
AcDbLine
 10
1654.224472977379
 20
590.7176521568316
 30
0.0
 11
1654.224472977379
 21
596.7176521568317
 31
0.0
  0
LINE
  5
4D7
330
6B
100
AcDbEntity
  8
0
 62
     3
100
AcDbLine
 10
1628.224472977378
 20
590.7176521568316
 30
0.0
 11
1628.224472977378
 21
596.7176521568317
 31
0.0
  0
LINE
  5
4D8
330
6B
100
AcDbEntity
  8
0
 62
     3
100
AcDbLine
 10
1680.023872977379
 20
596.7176521568317
 30
0.0
 11
1628.224472977378
 21
596.7176521568317
 31
0.0
  0
TEXT
  5
4D9
330
6B
100
AcDbEntity
  8
0
 62
     3
100
AcDbText
 10
1634.320107977378
 20
591.5140011568317
 30
0.0
 40
4.5
  1
コード
  7
高4.5
100
AcDbText
  0
TEXT
  5
4DA
330
6B
100
AcDbEntity
  8
0
 62
     3
100
AcDbText
 10
1435.770144515841
 20
556.4887851568316
 30
0.0
 40
3.2
  1
WCT
 41
0.8
  7
高3.2
100
AcDbText
  0
LINE
  5
4DB
330
6B
100
AcDbEntity
  8
0
100
AcDbLine
 10
1601.250986977379
 20
720.7941511568318
 30
0.0
 11
1599.350986977379
 21
717.5032551568318
 31
0.0
  0
LINE
  5
4DC
330
6B
100
AcDbEntity
  8
0
100
AcDbLine
 10
1601.250986977379
 20
720.7941511568318
 30
0.0
 11
1603.150986977379
 21
717.5032551568318
 31
0.0
  0
LINE
  5
4DD
330
6B
100
AcDbEntity
  8
0
100
AcDbLine
 10
1599.350986977379
 20
717.5032551568318
 30
0.0
 11
1603.150986977379
 21
717.5032551568318
 31
0.0
  0
LINE
  5
4DE
330
6B
100
AcDbEntity
  8
0
100
AcDbLine
 10
1601.250986977379
 20
715.6379411568318
 30
0.0
 11
1599.350986977379
 21
712.3470441568318
 31
0.0
  0
LINE
  5
4DF
330
6B
100
AcDbEntity
  8
0
100
AcDbLine
 10
1601.250986977379
 20
715.6379411568318
 30
0.0
 11
1603.150986977379
 21
712.3470441568318
 31
0.0
  0
LINE
  5
4E0
330
6B
100
AcDbEntity
  8
0
100
AcDbLine
 10
1599.350986977379
 20
712.3470441568318
 30
0.0
 11
1603.150986977379
 21
712.3470441568318
 31
0.0
  0
CIRCLE
  5
4E1
330
6B
100
AcDbEntity
  8
0
100
AcDbCircle
 10
1591.596958136682
 20
613.0270873890991
 30
0.0
 40
5.0
  0
TEXT
  5
4E2
330
6B
100
AcDbEntity
  8
0
 62
     4
100
AcDbText
 10
1589.380293095995
 20
609.692755025687
 30
0.0
 40
6.299999999999998
  1
3
  7
高6.3
100
AcDbText
  0
CIRCLE
  5
4E3
330
6B
100
AcDbEntity
  8
0
100
AcDbCircle
 10
1505.709641136682
 20
614.647752389099
 30
0.0
 40
5.0
  0
TEXT
  5
4E4
330
6B
100
AcDbEntity
  8
0
 62
     4
100
AcDbText
 10
1504.501443773965
 20
611.6764351781523
 30
0.0
 40
6.299999999999998
  1
1
  7
高6.3
100
AcDbText
  0
CIRCLE
  5
4E5
330
6B
100
AcDbEntity
  8
0
100
AcDbCircle
 10
1452.562240136682
 20
615.972149389099
 30
0.0
 40
5.0
  0
TEXT
  5
4E6
330
6B
100
AcDbEntity
  8
0
 62
     4
100
AcDbText
 10
1450.345575095995
 20
612.6378170256872
 30
0.0
 40
6.299999999999998
  1
2
  7
高6.3
100
AcDbText
  0
TEXT
  5
4E7
330
6B
100
AcDbEntity
  8
0
 62
     3
100
AcDbText
 10
1413.063645285071
 20
561.4887851568315
 30
0.0
 40
3.2
  1
丸端子
 41
0.8
  7
高3.2
100
AcDbText
  0
TEXT
  5
4E8
330
6B
100
AcDbEntity
  8
0
 62
     3
100
AcDbText
 10
1452.486945285072
 20
566.4887851568315
 30
0.0
 40
3.2
  1
三立電器工業JA-300メス側
 41
0.8
  7
高3.2
100
AcDbText
  0
TEXT
  5
4E9
330
6B
100
AcDbEntity
  8
0
 62
     3
100
AcDbText
 10
1452.486945285072
 20
561.4887851568315
 30
0.0
 40
3.2
  1
M8用
 41
0.8
  7
高3.2
100
AcDbText
  0
TEXT
  5
4EA
330
6B
100
AcDbEntity
  8
0
 62
     3
100
AcDbText
 10
1452.486945285072
 20
556.4887851568316
 30
0.0
 40
3.2
  1
22sq
 41
0.8
  7
高3.2
100
AcDbText
  0
LINE
  5
4EB
330
6B
100
AcDbEntity
  8
0
 62
     3
100
AcDbLine
 10
1502.751241142599
 20
555.9887851568316
 30
0.0
 11
1403.023872977379
 21
555.9887851568316
 31
0.0
  0
LINE
  5
4EC
330
6B
100
AcDbEntity
  8
0
 62
     3
100
AcDbLine
 10
1502.751241142599
 20
570.9887851568315
 30
0.0
 11
1403.023872977379
 21
570.9887851568315
 31
0.0
  0
LINE
  5
4ED
330
6B
100
AcDbEntity
  8
0
100
AcDbLine
 10
1502.751241142599
 20
560.9887851568315
 30
0.0
 11
1403.023872977379
 21
560.9887851568315
 31
0.0
  0
LINE
  5
4EE
330
6B
100
AcDbEntity
  8
0
100
AcDbLine
 10
1502.751241142599
 20
565.9887851568315
 30
0.0
 11
1403.023872977379
 21
565.9887851568315
 31
0.0
  0
TEXT
  5
4EF
330
6B
100
AcDbEntity
  8
0
 62
     3
100
AcDbText
 10
1592.238489977379
 20
583.5621901568315
 30
0.0
 40
4.5
  1
アダプター
  7
高4.5
100
AcDbText
  0
TEXT
  5
4F0
330
6B
100
AcDbEntity
  8
0
 62
     3
100
AcDbText
 10
1589.606297977379
 20
575.8423011568317
 30
0.0
 40
4.5
  1
NA-J03
  7
高4.5
100
AcDbText
  0
TEXT
  5
4F1
330
6B
100
AcDbEntity
  8
0
 62
     3
100
AcDbText
 10
1634.349914217398
 20
552.4031981568318
 30
0.0
 40
6.299999999999998
  1
NA-J03
  7
高6.3
100
AcDbText
  0
TEXT
  5
4F2
330
6B
100
AcDbEntity
  8
0
 62
     3
100
AcDbText
 10
1656.311655977379
 20
591.3617891568316
 30
0.0
 40
4.5
  1
52642
  7
高4.5
100
AcDbText
  0
LINE
  5
4F3
330
6B
100
AcDbEntity
  8
0
  6
CENTER
100
AcDbLine
 10
1419.183801546569
 20
654.7948808532271
 30
0.0
 11
1633.602636501508
 21
654.7948808532271
 31
0.0
  0
LINE
  5
4F4
330
6B
100
AcDbEntity
  8
0
  6
Continuous
 62
     3
100
AcDbLine
 10
1480.223998492024
 20
649.0448808532271
 30
0.0
 11
1501.616855634881
 21
649.044880853227
 31
0.0
  0
LINE
  5
4F5
330
6B
100
AcDbEntity
  8
0
  6
Continuous
 62
     3
100
AcDbLine
 10
1480.223998492024
 20
660.5448808532271
 30
0.0
 11
1501.616855634881
 21
660.544880853227
 31
0.0
  0
LINE
  5
4F6
330
6B
100
AcDbEntity
  8
0
  6
Continuous
 62
     3
100
AcDbLine
 10
1452.295427063452
 20
647.196666567513
 30
0.0
 11
1480.223998492024
 21
647.196666567513
 31
0.0
  0
LINE
  5
4F7
330
6B
100
AcDbEntity
  8
0
  6
Continuous
 62
     3
100
AcDbLine
 10
1480.223998492024
 20
662.3930951389414
 30
0.0
 11
1452.295427063452
 21
662.3930951389414
 31
0.0
  0
LINE
  5
4F8
330
6B
100
AcDbEntity
  8
0
  6
Continuous
 62
     3
100
AcDbLine
 10
1610.116855634881
 20
641.2948808532271
 30
0.0
 11
1546.11685563488
 21
641.2948808532271
 31
0.0
  0
LINE
  5
4F9
330
6B
100
AcDbEntity
  8
0
  6
Continuous
 62
     3
100
AcDbLine
 10
1610.116855634881
 20
668.294880853227
 30
0.0
 11
1546.11685563488
 21
668.294880853227
 31
0.0
  0
LINE
  5
4FA
330
6B
100
AcDbEntity
  8
0
  6
Continuous
 62
     3
100
AcDbLine
 10
1615.11685563488
 20
638.2948808532271
 30
0.0
 11
1628.11685563488
 21
638.2948808532271
 31
0.0
  0
LINE
  5
4FB
330
6B
100
AcDbEntity
  8
0
  6
Continuous
 62
     3
100
AcDbLine
 10
1615.11685563488
 20
671.2948808532271
 30
0.0
 11
1628.11685563488
 21
671.2948808532271
 31
0.0
  0
LINE
  5
4FC
330
6B
100
AcDbEntity
  8
0
  6
Continuous
 62
     3
100
AcDbLine
 10
1630.11685563488
 20
669.2948808532271
 30
0.0
 11
1630.11685563488
 21
640.2948808532271
 31
0.0
  0
LINE
  5
4FE
330
6B
100
AcDbEntity
  8
0
  6
Continuous
100
AcDbLine
 10
1546.11685563488
 20
641.2948808532271
 30
0.0
 11
1546.11685563488
 21
668.294880853227
 31
0.0
  0
LINE
  5
4FF
330
6B
100
AcDbEntity
  8
0
  6
Continuous
 62
     3
100
AcDbLine
 10
1452.295427063452
 20
662.3930951389414
 30
0.0
 11
1452.295427063452
 21
647.196666567513
 31
0.0
  0
LINE
  5
500
330
6B
100
AcDbEntity
  8
0
  6
Continuous
 62
     3
100
AcDbLine
 10
1480.223998492024
 20
662.3930951389414
 30
0.0
 11
1480.223998492024
 21
647.196666567513
 31
0.0
  0
LINE
  5
502
330
6B
100
AcDbEntity
  8
0
  6
Continuous
 62
     3
100
AcDbLine
 10
1546.11685563488
 20
668.294880853227
 30
0.0
 11
1501.616855634881
 21
662.7948808532271
 31
0.0
  0
LINE
  5
503
330
6B
100
AcDbEntity
  8
0
  6
Continuous
 62
     3
100
AcDbLine
 10
1501.616855634881
 20
646.7948808532271
 30
0.0
 11
1546.11685563488
 21
641.2948808532271
 31
0.0
  0
LINE
  5
504
330
6B
100
AcDbEntity
  8
0
  6
Continuous
 62
     3
100
AcDbLine
 10
1615.11685563488
 20
671.2948808532271
 30
0.0
 11
1610.116855634881
 21
668.294880853227
 31
0.0
  0
LINE
  5
506
330
6B
100
AcDbEntity
  8
0
  6
Continuous
 62
     3
100
AcDbLine
 10
1610.116855634881
 20
641.2948808532271
 30
0.0
 11
1615.11685563488
 21
638.2948808532271
 31
0.0
  0
ARC
  5
507
330
6B
100
AcDbEntity
  8
0
  6
Continuous
 62
     3
100
AcDbCircle
 10
1439.152569920595
 20
654.7948808532271
 30
0.0
 40
9.035714285714183
100
AcDbArc
 50
56.37130954772205
 51
303.6286904522779
  0
ARC
  5
508
330
6B
100
AcDbEntity
  8
0
  6
Continuous
 62
     3
100
AcDbCircle
 10
1446.431196698746
 20
643.8515593235486
 30
0.0
 40
4.107142857142856
100
AcDbArc
 50
96.32772295576016
 51
123.6286904522779
  0
ARC
  5
509
330
6B
100
AcDbEntity
  8
0
  6
Continuous
 62
     3
100
AcDbCircle
 10
1446.431196698747
 20
665.7382023829054
 30
0.0
 40
4.107142857142856
100
AcDbArc
 50
236.371309547722
 51
263.6722770442398
  0
CIRCLE
  5
50A
330
6B
100
AcDbEntity
  8
0
  6
Continuous
 62
     3
100
AcDbCircle
 10
1439.152569920595
 20
654.7948808532271
 30
0.0
 40
4.3125
  0
LINE
  5
50B
330
6B
100
AcDbEntity
  8
0
  6
Continuous
 62
     3
100
AcDbLine
 10
1445.978526991577
 20
661.6560812939139
 30
0.0
 11
1452.295427063452
 21
660.9555951389414
 31
0.0
  0
LINE
  5
50C
330
6B
100
AcDbEntity
  8
0
  6
Continuous
 62
     3
100
AcDbLine
 10
1452.295427063452
 20
648.6341665675126
 30
0.0
 11
1445.978526991577
 21
647.93368041254
 31
0.0
  0
ARC
  5
50D
330
6B
100
AcDbEntity
  8
0
  6
Continuous
 62
     3
100
AcDbCircle
 10
1628.11685563488
 20
669.2948808532271
 30
0.0
 40
2.0
100
AcDbArc
 50
0.0
 51
90.00000000001303
  0
ARC
  5
50E
330
6B
100
AcDbEntity
  8
0
  6
Continuous
 62
     3
100
AcDbCircle
 10
1628.116855634882
 20
640.2948808532268
 30
0.0
 40
2.0
100
AcDbArc
 50
269.9999999999739
 51
0.0000000000065138
  0
TEXT
  5
518
330
6B
100
AcDbEntity
  8
0
  6
Continuous
100
AcDbText
 10
1607.729755161201
 20
717.3192329744835
 30
0.0
 40
2.5
  1
'12.10.01
  7
高2.5
100
AcDbText
  0
TEXT
  5
519
330
6B
100
AcDbEntity
  8
0
  6
Continuous
100
AcDbText
 10
1625.335081161201
 20
717.3192329744835
 30
0.0
 40
2.5
  1
寸法追記
  7
高2.5
100
AcDbText
  0
TEXT
  5
51A
330
6B
100
AcDbEntity
  8
0
  6
Continuous
100
AcDbText
 10
1669.626797161201
 20
717.3192329744835
 30
0.0
 40
2.5
  1
今村
  7
高2.5
100
AcDbText
  0
TEXT
  5
51C
330
6B
100
AcDbEntity
  8
0
  6
Continuous
 62
     4
100
AcDbText
 10
1628.077777275307
 20
605.6287066817117
 30
0.0
 40
3.2
  1
質量：211g
  7
高3.2
100
AcDbText
  0
LINE
  5
51D
330
6B
100
AcDbEntity
  8
0
  6
Continuous
100
AcDbLine
 10
1627.582270235253
 20
604.3327157386173
 30
0.0
 11
1649.241147580324
 21
604.3327157386173
 31
0.0
  0
LINE
  5
8FA
330
6B
100
AcDbEntity
  8
0
  6
Continuous
 62
     3
100
AcDbLine
 10
1501.616855634881
 20
662.7948808532271
 30
0.0
 11
1501.616855634881
 21
646.7948808532271
 31
0.0
  0
LINE
  5
8FC
330
6B
100
AcDbEntity
  8
0
  6
Continuous
 62
     3
100
AcDbLine
 10
1615.11685563488
 20
671.2948808532271
 30
0.0
 11
1615.11685563488
 21
638.2948808532271
 31
0.0
  0
LINE
  5
8FF
330
6B
100
AcDbEntity
  8
0
  6
Continuous
 62
     3
100
AcDbLine
 10
1610.116855634881
 20
668.294880853227
 30
0.0
 11
1610.116855634881
 21
641.2948808532271
 31
0.0
  0
LINE
  5
909
330
6B
100
AcDbEntity
  8
0
  6
HIDDEN
 62
     7
100
AcDbLine
 10
1618.116855634881
 20
664.7948808532271
 30
0.0
 11
1587.616855634881
 21
664.7948808532271
 31
0.0
  0
LINE
  5
90A
330
6B
100
AcDbEntity
  8
0
  6
HIDDEN
 62
     7
100
AcDbLine
 10
1618.116855634881
 20
644.7948808532271
 30
0.0
 11
1587.616855634881
 21
644.7948808532271
 31
0.0
  0
LINE
  5
90B
330
6B
100
AcDbEntity
  8
0
  6
HIDDEN
 62
     7
100
AcDbLine
 10
1618.116855634881
 20
667.2948808532271
 30
0.0
 11
1618.116855634881
 21
642.2948808532271
 31
0.0
  0
LINE
  5
90F
330
6B
100
AcDbEntity
  8
0
  6
HIDDEN
100
AcDbLine
 10
1618.116855634881
 20
667.2948808532271
 30
0.0
 11
1630.11685563488
 21
667.2948808532271
 31
0.0
  0
LINE
  5
910
330
6B
100
AcDbEntity
  8
0
  6
HIDDEN
100
AcDbLine
 10
1618.116855634881
 20
642.2948808532271
 30
0.0
 11
1630.11685563488
 21
642.2948808532271
 31
0.0
  0
LINE
  5
915
330
6B
100
AcDbEntity
  8
0
  6
HIDDEN
 62
     7
100
AcDbLine
 10
1553.116855634881
 20
664.7948808532272
 30
0.0
 11
1553.116855634881
 21
644.7948808532271
 31
0.0
  0
LINE
  5
918
330
6B
100
AcDbEntity
  8
0
  6
HIDDEN
100
AcDbLine
 10
1583.616855634881
 20
663.5948808532271
 30
0.0
 11
1587.616855634881
 21
663.5948808532269
 31
0.0
  0
LINE
  5
919
330
6B
100
AcDbEntity
  8
0
  6
HIDDEN
100
AcDbLine
 10
1583.616855634881
 20
645.9948808532272
 30
0.0
 11
1587.616855634881
 21
645.9948808532272
 31
0.0
  0
LINE
  5
91A
330
6B
100
AcDbEntity
  8
0
  6
HIDDEN
 62
     7
100
AcDbLine
 10
1587.61685563488
 20
664.7948808532272
 30
0.0
 11
1587.61685563488
 21
663.5948808532271
 31
0.0
  0
LINE
  5
91B
330
6B
100
AcDbEntity
  8
0
  6
HIDDEN
 62
     7
100
AcDbLine
 10
1583.616855634881
 20
664.7948808532272
 30
0.0
 11
1583.61685563488
 21
663.5948808532271
 31
0.0
  0
LINE
  5
91C
330
6B
100
AcDbEntity
  8
0
  6
HIDDEN
 62
     7
100
AcDbLine
 10
1583.616855634881
 20
644.7948808532271
 30
0.0
 11
1553.116855634881
 21
644.7948808532271
 31
0.0
  0
LINE
  5
91D
330
6B
100
AcDbEntity
  8
0
  6
HIDDEN
 62
     7
100
AcDbLine
 10
1583.61685563488
 20
645.9948808532272
 30
0.0
 11
1583.616855634881
 21
644.7948808532271
 31
0.0
  0
LINE
  5
91E
330
6B
100
AcDbEntity
  8
0
  6
HIDDEN
 62
     7
100
AcDbLine
 10
1587.61685563488
 20
645.9948808532272
 30
0.0
 11
1587.616855634881
 21
644.7948808532271
 31
0.0
  0
LINE
  5
91F
330
6B
100
AcDbEntity
  8
0
  6
HIDDEN
 62
     7
100
AcDbLine
 10
1583.616855634881
 20
664.7948808532271
 30
0.0
 11
1553.116855634881
 21
664.7948808532272
 31
0.0
  0
LINE
  5
920
330
6B
100
AcDbEntity
  8
0
  6
HIDDEN
 62
     7
100
AcDbLine
 10
1617.11685563488
 20
661.4448808532271
 30
0.0
 11
1617.11685563488
 21
648.1448808532269
 31
0.0
  0
LINE
  5
923
330
6B
100
AcDbEntity
  8
0
  6
Continuous
100
AcDbLine
 10
1617.11685563488
 20
661.4448808532271
 30
0.0
 11
1618.116855634881
 21
662.4448808532271
 31
0.0
  0
LINE
  5
924
330
6B
100
AcDbEntity
  8
0
  6
Continuous
100
AcDbLine
 10
1617.11685563488
 20
648.1448808532269
 30
0.0
 11
1618.116855634881
 21
647.1448808532269
 31
0.0
  0
LINE
  5
927
330
6B
100
AcDbEntity
  8
0
  6
HIDDEN
 62
     7
100
AcDbLine
 10
1590.407752169261
 20
660.4948808532271
 30
0.0
 11
1587.116855634881
 21
654.7948808532271
 31
0.0
  0
LINE
  5
928
330
6B
100
AcDbEntity
  8
0
  6
HIDDEN
 62
     7
100
AcDbLine
 10
1590.407752169261
 20
649.094880853227
 30
0.0
 11
1587.116855634881
 21
654.7948808532271
 31
0.0
  0
LINE
  5
929
330
6B
100
AcDbEntity
  8
0
  6
HIDDEN
 62
     7
100
AcDbLine
 10
1590.407752169261
 20
660.4948808532271
 30
0.0
 11
1590.407752169261
 21
649.094880853227
 31
0.0
  0
LINE
  5
92A
330
6B
100
AcDbEntity
  8
0
  6
HIDDEN
 62
     7
100
AcDbLine
 10
1590.407752169261
 20
649.094880853227
 30
0.0
 11
1617.11685563488
 21
648.1448808532271
 31
0.0
  0
LINE
  5
92B
330
6B
100
AcDbEntity
  8
0
  6
HIDDEN
 62
     7
100
AcDbLine
 10
1617.11685563488
 20
661.4448808532271
 30
0.0
 11
1590.407752169261
 21
660.4948808532271
 31
0.0
  0
LINE
  5
930
330
6B
100
AcDbEntity
  8
0
  6
HIDDEN
100
AcDbLine
 10
1581.79709158704
 20
647.9448808532269
 30
0.0
 11
1585.116855634881
 21
653.694880853227
 31
0.0
  0
LINE
  5
931
330
6B
100
AcDbEntity
  8
0
  6
HIDDEN
100
AcDbLine
 10
1581.79709158704
 20
659.4448808532271
 30
0.0
 11
1585.116855634881
 21
653.694880853227
 31
0.0
  0
LINE
  5
932
330
6B
100
AcDbEntity
  8
0
  6
HIDDEN
100
AcDbLine
 10
1554.11685563488
 20
659.444880853227
 30
0.0
 11
1581.79709158704
 21
659.444880853227
 31
0.0
  0
LINE
  5
933
330
6B
100
AcDbEntity
  8
0
  6
HIDDEN
100
AcDbLine
 10
1554.11685563488
 20
647.944880853227
 30
0.0
 11
1581.79709158704
 21
647.944880853227
 31
0.0
  0
LINE
  5
934
330
6B
100
AcDbEntity
  8
0
  6
HIDDEN
100
AcDbLine
 10
1581.79709158704
 20
659.444880853227
 30
0.0
 11
1581.79709158704
 21
647.944880853227
 31
0.0
  0
LINE
  5
937
330
6B
100
AcDbEntity
  8
0
  6
CENTER
 62
     7
100
AcDbLine
 10
1577.116855634881
 20
666.1965861404797
 30
0.0
 11
1577.116855634881
 21
657.3359277770101
 31
0.0
  0
LINE
  5
938
330
6B
100
AcDbEntity
  8
0
  6
CENTER
 62
     7
100
AcDbLine
 10
1563.116855634881
 20
666.1965861404797
 30
0.0
 11
1563.116855634881
 21
657.3359277770101
 31
0.0
  0
LINE
  5
939
330
6B
100
AcDbEntity
  8
0
  6
HIDDEN
 62
     7
100
AcDbLine
 10
1554.11685563488
 20
659.4448808532269
 30
0.0
 11
1554.11685563488
 21
647.9448808532271
 31
0.0
  0
LINE
  5
93A
330
6B
100
AcDbEntity
  8
0
  6
HIDDEN
100
AcDbLine
 10
1554.11685563488
 20
647.9448808532271
 30
0.0
 11
1553.116855634881
 21
646.9448808532271
 31
0.0
  0
LINE
  5
93B
330
6B
100
AcDbEntity
  8
0
  6
HIDDEN
100
AcDbLine
 10
1554.11685563488
 20
659.4448808532267
 30
0.0
 11
1553.116855634881
 21
660.4448808532268
 31
0.0
  0
LINE
  5
B18
330
6B
100
AcDbEntity
  8
0
  6
Continuous
100
AcDbLine
 10
1501.616855634881
 20
663.0448808532271
 30
0.0
 11
1501.616855634881
 21
688.6275145779694
 31
0.0
  0
LINE
  5
B19
330
6B
100
AcDbEntity
  8
0
  6
Continuous
100
AcDbLine
 10
1630.11685563488
 20
669.5448808532271
 30
0.0
 11
1630.11685563488
 21
688.6275145779694
 31
0.0
  0
LINE
  5
B1A
330
6B
100
AcDbEntity
  8
0
  6
Continuous
100
AcDbLine
 10
1504.116855634881
 20
687.3775145779695
 30
0.0
 11
1627.616855634881
 21
687.3775145779695
 31
0.0
  0
TEXT
  5
B20
330
6B
100
AcDbEntity
  8
0
  6
Continuous
 62
     4
100
AcDbText
 10
1541.279310888379
 20
671.6800924169614
 30
0.0
 40
3.0
  1
5/16W
100
AcDbText
  0
LINE
  5
B23
330
6B
100
AcDbEntity
  8
0
  6
Continuous
100
AcDbLine
 10
1618.116855634881
 20
667.5448808532271
 30
0.0
 11
1618.116855634881
 21
682.7526136412871
 31
0.0
  0
LINE
  5
B24
330
6B
100
AcDbEntity
  8
0
  6
Continuous
100
AcDbLine
 10
1587.116855634881
 20
655.0448808532271
 30
0.0
 11
1587.116855634881
 21
682.7526136412871
 31
0.0
  0
LINE
  5
B25
330
6B
100
AcDbEntity
  8
0
  6
Continuous
100
AcDbLine
 10
1615.61685563488
 20
681.5026136412872
 30
0.0
 11
1589.616855634881
 21
681.5026136412872
 31
0.0
  0
LINE
  5
B29
330
6B
100
AcDbEntity
  8
0
  6
Continuous
100
AcDbLine
 10
1630.11685563488
 20
669.5448808532271
 30
0.0
 11
1630.11685563488
 21
682.7526136412871
 31
0.0
  0
LINE
  5
B2A
330
6B
100
AcDbEntity
  8
0
  6
Continuous
100
AcDbLine
 10
1618.116855634881
 20
667.5448808532271
 30
0.0
 11
1618.116855634881
 21
682.7526136412871
 31
0.0
  0
LINE
  5
B2B
330
6B
100
AcDbEntity
  8
0
  6
Continuous
100
AcDbLine
 10
1627.616855634881
 20
681.5026136412872
 30
0.0
 11
1620.616855634881
 21
681.5026136412872
 31
0.0
  0
LINE
  5
B2F
330
6B
100
AcDbEntity
  8
0
  6
Continuous
100
AcDbLine
 10
1590.657752169262
 20
660.4948808532271
 30
0.0
 11
1641.312142197903
 21
660.4948808532271
 31
0.0
  0
LINE
  5
B30
330
6B
100
AcDbEntity
  8
0
  6
Continuous
100
AcDbLine
 10
1590.657752169262
 20
649.094880853227
 30
0.0
 11
1641.312142197903
 21
649.094880853227
 31
0.0
  0
LINE
  5
B31
330
6B
100
AcDbEntity
  8
0
  6
Continuous
100
AcDbLine
 10
1640.062142197903
 20
657.9948808532272
 30
0.0
 11
1640.062142197903
 21
651.5948808532271
 31
0.0
  0
LINE
  5
B35
330
6B
100
AcDbEntity
  8
0
  6
Continuous
100
AcDbLine
 10
1617.36685563488
 20
661.4448808532271
 30
0.0
 11
1647.184420586988
 21
661.4448808532271
 31
0.0
  0
LINE
  5
B36
330
6B
100
AcDbEntity
  8
0
  6
Continuous
100
AcDbLine
 10
1617.36685563488
 20
648.1448808532271
 30
0.0
 11
1647.184420586988
 21
648.1448808532271
 31
0.0
  0
LINE
  5
B37
330
6B
100
AcDbEntity
  8
0
  6
Continuous
100
AcDbLine
 10
1645.934420586988
 20
658.9448808532271
 30
0.0
 11
1645.934420586988
 21
650.6448808532272
 31
0.0
  0
LINE
  5
B41
330
6B
100
AcDbEntity
  8
0
  6
Continuous
100
AcDbLine
 10
1628.366855634881
 20
671.2948808532271
 30
0.0
 11
1653.471287105922
 21
671.2948808532271
 31
0.0
  0
LINE
  5
B42
330
6B
100
AcDbEntity
  8
0
  6
Continuous
100
AcDbLine
 10
1628.366855634881
 20
638.2948808532271
 30
0.0
 11
1653.471287105922
 21
638.2948808532271
 31
0.0
  0
LINE
  5
B43
330
6B
100
AcDbEntity
  8
0
  6
Continuous
100
AcDbLine
 10
1652.221287105922
 20
668.7948808532271
 30
0.0
 11
1652.221287105922
 21
640.7948808532271
 31
0.0
  0
LINE
  5
B47
330
6B
100
AcDbEntity
  8
0
  6
Continuous
100
AcDbLine
 10
1630.11685563488
 20
669.5448808532271
 30
0.0
 11
1630.11685563488
 21
698.8168076951093
 31
0.0
  0
LINE
  5
B48
330
6B
100
AcDbEntity
  8
0
  6
Continuous
100
AcDbLine
 10
1430.116855634881
 20
655.0448808532271
 30
0.0
 11
1430.116855634881
 21
698.8168076951093
 31
0.0
  0
LINE
  5
B49
330
6B
100
AcDbEntity
  8
0
  6
Continuous
100
AcDbLine
 10
1627.616855634881
 20
697.5668076951093
 30
0.0
 11
1432.616855634881
 21
697.5668076951093
 31
0.0
  0
LINE
  5
B4D
330
6B
100
AcDbEntity
  8
0
 62
     2
100
AcDbLine
 10
1538.349149977379
 20
731.4925511568316
 30
0.0
 11
1538.330521977379
 21
731.6118191568318
 31
0.0
  0
LINE
  5
B4E
330
6B
100
AcDbEntity
  8
0
 62
     2
100
AcDbLine
 10
1538.330521977379
 20
731.6118191568318
 30
0.0
 11
1538.308150977379
 21
731.7260241568318
 31
0.0
  0
LINE
  5
B4F
330
6B
100
AcDbEntity
  8
0
 62
     2
100
AcDbLine
 10
1538.308150977379
 20
731.7260241568318
 30
0.0
 11
1538.282208977379
 21
731.8342831568316
 31
0.0
  0
LINE
  5
B50
330
6B
100
AcDbEntity
  8
0
 62
     2
100
AcDbLine
 10
1538.282208977379
 20
731.8342831568316
 30
0.0
 11
1538.252896977378
 21
731.9357601568318
 31
0.0
  0
LINE
  5
B51
330
6B
100
AcDbEntity
  8
0
 62
     2
100
AcDbLine
 10
1538.252896977378
 20
731.9357601568318
 30
0.0
 11
1538.220440977379
 21
732.0296691568318
 31
0.0
  0
LINE
  5
B52
330
6B
100
AcDbEntity
  8
0
 62
     2
100
AcDbLine
 10
1538.220440977379
 20
732.0296691568318
 30
0.0
 11
1538.185091977379
 21
732.1152861568318
 31
0.0
  0
LINE
  5
B53
330
6B
100
AcDbEntity
  8
0
 62
     2
100
AcDbLine
 10
1538.185091977379
 20
732.1152861568318
 30
0.0
 11
1538.147123977379
 21
732.1919491568317
 31
0.0
  0
LINE
  5
B54
330
6B
100
AcDbEntity
  8
0
 62
     2
100
AcDbLine
 10
1538.147123977379
 20
732.1919491568317
 30
0.0
 11
1538.106829977379
 21
732.2590641568318
 31
0.0
  0
LINE
  5
B55
330
6B
100
AcDbEntity
  8
0
 62
     2
100
AcDbLine
 10
1538.106829977379
 20
732.2590641568318
 30
0.0
 11
1538.064520977379
 21
732.3161131568315
 31
0.0
  0
LINE
  5
B56
330
6B
100
AcDbEntity
  8
0
 62
     2
100
AcDbLine
 10
1538.064520977379
 20
732.3161131568315
 30
0.0
 11
1538.020524977379
 21
732.3626561568318
 31
0.0
  0
LINE
  5
B57
330
6B
100
AcDbEntity
  8
0
 62
     2
100
AcDbLine
 10
1538.020524977379
 20
732.3626561568318
 30
0.0
 11
1537.975180977379
 21
732.3983321568315
 31
0.0
  0
LINE
  5
B58
330
6B
100
AcDbEntity
  8
0
 62
     2
100
AcDbLine
 10
1537.975180977379
 20
732.3983321568315
 30
0.0
 11
1537.928839977379
 21
732.4228661568315
 31
0.0
  0
LINE
  5
B59
330
6B
100
AcDbEntity
  8
0
 62
     2
100
AcDbLine
 10
1537.928839977379
 20
732.4228661568315
 30
0.0
 11
1537.881859977379
 21
732.4360681568317
 31
0.0
  0
LINE
  5
B5A
330
6B
100
AcDbEntity
  8
0
 62
     2
100
AcDbLine
 10
1537.881859977379
 20
732.4360681568317
 30
0.0
 11
1537.834603977379
 21
732.4378361568318
 31
0.0
  0
LINE
  5
B5B
330
6B
100
AcDbEntity
  8
0
 62
     2
100
AcDbLine
 10
1537.834603977379
 20
732.4378361568318
 30
0.0
 11
1537.787437977379
 21
732.4281561568315
 31
0.0
  0
LINE
  5
B5C
330
6B
100
AcDbEntity
  8
0
 62
     2
100
AcDbLine
 10
1537.787437977379
 20
732.4281561568315
 30
0.0
 11
1537.740725977379
 21
732.4071031568315
 31
0.0
  0
LINE
  5
B5D
330
6B
100
AcDbEntity
  8
0
 62
     2
100
AcDbLine
 10
1537.740725977379
 20
732.4071031568315
 30
0.0
 11
1537.694828977378
 21
732.3748401568318
 31
0.0
  0
LINE
  5
B5E
330
6B
100
AcDbEntity
  8
0
 62
     2
100
AcDbLine
 10
1537.694828977378
 20
732.3748401568318
 30
0.0
 11
1537.650101977379
 21
732.3316171568318
 31
0.0
  0
LINE
  5
B5F
330
6B
100
AcDbEntity
  8
0
 62
     2
100
AcDbLine
 10
1537.650101977379
 20
732.3316171568318
 30
0.0
 11
1537.606890977379
 21
732.2777671568318
 31
0.0
  0
LINE
  5
B60
330
6B
100
AcDbEntity
  8
0
 62
     2
100
AcDbLine
 10
1537.606890977379
 20
732.2777671568318
 30
0.0
 11
1537.565528977379
 21
732.2137061568315
 31
0.0
  0
LINE
  5
B61
330
6B
100
AcDbEntity
  8
0
 62
     2
100
AcDbLine
 10
1537.565528977379
 20
732.2137061568315
 30
0.0
 11
1537.526336977379
 21
732.1399301568318
 31
0.0
  0
LINE
  5
B62
330
6B
100
AcDbEntity
  8
0
 62
     2
100
AcDbLine
 10
1537.526336977379
 20
732.1399301568318
 30
0.0
 11
1537.489616977379
 21
732.0570101568318
 31
0.0
  0
LINE
  5
B63
330
6B
100
AcDbEntity
  8
0
 62
     2
100
AcDbLine
 10
1537.489616977379
 20
732.0570101568318
 30
0.0
 11
1537.455652977379
 21
731.9655851568318
 31
0.0
  0
LINE
  5
B64
330
6B
100
AcDbEntity
  8
0
 62
     2
100
AcDbLine
 10
1537.455652977379
 20
731.9655851568318
 30
0.0
 11
1537.424707977379
 21
731.8663621568315
 31
0.0
  0
LINE
  5
B65
330
6B
100
AcDbEntity
  8
0
 62
     2
100
AcDbLine
 10
1537.424707977379
 20
731.8663621568315
 30
0.0
 11
1537.397019977379
 21
731.7601101568318
 31
0.0
  0
LINE
  5
B66
330
6B
100
AcDbEntity
  8
0
 62
     2
100
AcDbLine
 10
1537.397019977379
 20
731.7601101568318
 30
0.0
 11
1537.372803977379
 21
731.6476481568316
 31
0.0
  0
LINE
  5
B67
330
6B
100
AcDbEntity
  8
0
 62
     2
100
AcDbLine
 10
1537.372803977379
 20
731.6476481568316
 30
0.0
 11
1537.352247977379
 21
731.5298461568318
 31
0.0
  0
LINE
  5
B68
330
6B
100
AcDbEntity
  8
0
 62
     2
100
AcDbLine
 10
1537.352247977379
 20
731.5298461568318
 30
0.0
 11
1537.335508977379
 21
731.4076141568318
 31
0.0
  0
LINE
  5
B69
330
6B
100
AcDbEntity
  8
0
 62
     2
100
AcDbLine
 10
1537.335508977379
 20
731.4076141568318
 30
0.0
 11
1537.322717977378
 21
731.2818991568319
 31
0.0
  0
LINE
  5
B6A
330
6B
100
AcDbEntity
  8
0
 62
     2
100
AcDbLine
 10
1537.322717977378
 20
731.2818991568319
 30
0.0
 11
1537.313971977378
 21
731.1536701568318
 31
0.0
  0
LINE
  5
B6B
330
6B
100
AcDbEntity
  8
0
 62
     2
100
AcDbLine
 10
1537.313971977378
 20
731.1536701568318
 30
0.0
 11
1537.309340977379
 21
731.0239201568315
 31
0.0
  0
LINE
  5
B6C
330
6B
100
AcDbEntity
  8
0
 62
     2
100
AcDbLine
 10
1537.309340977379
 20
731.0239201568315
 30
0.0
 11
1537.308858977379
 21
730.8936501568315
 31
0.0
  0
LINE
  5
B6D
330
6B
100
AcDbEntity
  8
0
 62
     2
100
AcDbLine
 10
1537.308858977379
 20
730.8936501568315
 30
0.0
 11
1537.312529977379
 21
730.7638691568315
 31
0.0
  0
LINE
  5
B6E
330
6B
100
AcDbEntity
  8
0
 62
     2
100
AcDbLine
 10
1537.312529977379
 20
730.7638691568315
 30
0.0
 11
1537.320325977379
 21
730.6355791568316
 31
0.0
  0
LINE
  5
B6F
330
6B
100
AcDbEntity
  8
0
 62
     2
100
AcDbLine
 10
1537.320325977379
 20
730.6355791568316
 30
0.0
 11
1537.332186977379
 21
730.5097721568317
 31
0.0
  0
LINE
  5
B70
330
6B
100
AcDbEntity
  8
0
 62
     2
100
AcDbLine
 10
1537.332186977379
 20
730.5097721568317
 30
0.0
 11
1537.348020977378
 21
730.3874211568317
 31
0.0
  0
LINE
  5
B71
330
6B
100
AcDbEntity
  8
0
 62
     2
100
AcDbLine
 10
1537.348020977378
 20
730.3874211568317
 30
0.0
 11
1537.367704977379
 21
730.2694701568318
 31
0.0
  0
LINE
  5
B72
330
6B
100
AcDbEntity
  8
0
 62
     2
100
AcDbLine
 10
1537.367704977379
 20
730.2694701568318
 30
0.0
 11
1537.391087977378
 21
730.1568321568318
 31
0.0
  0
LINE
  5
B73
330
6B
100
AcDbEntity
  8
0
 62
     2
100
AcDbLine
 10
1537.391087977378
 20
730.1568321568318
 30
0.0
 11
1537.417987977379
 21
730.0503771568316
 31
0.0
  0
LINE
  5
B74
330
6B
100
AcDbEntity
  8
0
 62
     2
100
AcDbLine
 10
1537.417987977379
 20
730.0503771568316
 30
0.0
 11
1537.448197977379
 21
729.9509281568315
 31
0.0
  0
LINE
  5
B75
330
6B
100
AcDbEntity
  8
0
 62
     2
100
AcDbLine
 10
1537.448197977379
 20
729.9509281568315
 30
0.0
 11
1537.481484977378
 21
729.8592551568319
 31
0.0
  0
LINE
  5
B76
330
6B
100
AcDbEntity
  8
0
 62
     2
100
AcDbLine
 10
1537.481484977378
 20
729.8592551568319
 30
0.0
 11
1537.517589977379
 21
729.7760641568316
 31
0.0
  0
LINE
  5
B77
330
6B
100
AcDbEntity
  8
0
 62
     2
100
AcDbLine
 10
1537.517589977379
 20
729.7760641568316
 30
0.0
 11
1537.556235977379
 21
729.7020001568315
 31
0.0
  0
LINE
  5
B78
330
6B
100
AcDbEntity
  8
0
 62
     2
100
AcDbLine
 10
1537.556235977379
 20
729.7020001568315
 30
0.0
 11
1537.597121977379
 21
729.6376361568318
 31
0.0
  0
LINE
  5
B79
330
6B
100
AcDbEntity
  8
0
 62
     2
100
AcDbLine
 10
1537.597121977379
 20
729.6376361568318
 30
0.0
 11
1537.639933977379
 21
729.5834671568318
 31
0.0
  0
LINE
  5
B7A
330
6B
100
AcDbEntity
  8
0
 62
     2
100
AcDbLine
 10
1537.639933977379
 20
729.5834671568318
 30
0.0
 11
1537.684338977379
 21
729.5399141568318
 31
0.0
  0
LINE
  5
B7B
330
6B
100
AcDbEntity
  8
0
 62
     2
100
AcDbLine
 10
1537.684338977379
 20
729.5399141568318
 30
0.0
 11
1537.729995977378
 21
729.5073121568318
 31
0.0
  0
LINE
  5
B7C
330
6B
100
AcDbEntity
  8
0
 62
     2
100
AcDbLine
 10
1537.729995977378
 20
729.5073121568318
 30
0.0
 11
1537.776550977379
 21
729.4859151568317
 31
0.0
  0
LINE
  5
B7D
330
6B
100
AcDbEntity
  8
0
 62
     2
100
AcDbLine
 10
1537.776550977379
 20
729.4859151568317
 30
0.0
 11
1537.823643977378
 21
729.4758861568318
 31
0.0
  0
LINE
  5
B7E
330
6B
100
AcDbEntity
  8
0
 62
     2
100
AcDbLine
 10
1537.823643977378
 20
729.4758861568318
 30
0.0
 11
1537.870911977378
 21
729.4773041568316
 31
0.0
  0
LINE
  5
B7F
330
6B
100
AcDbEntity
  8
0
 62
     2
100
AcDbLine
 10
1537.870911977378
 20
729.4773041568316
 30
0.0
 11
1537.917987977379
 21
729.4901581568318
 31
0.0
  0
LINE
  5
B80
330
6B
100
AcDbEntity
  8
0
 62
     2
100
AcDbLine
 10
1537.917987977379
 20
729.4901581568318
 30
0.0
 11
1537.964509977379
 21
729.5143481568318
 31
0.0
  0
LINE
  5
B81
330
6B
100
AcDbEntity
  8
0
 62
     2
100
AcDbLine
 10
1537.964509977379
 20
729.5143481568318
 30
0.0
 11
1538.010115977379
 21
729.5496881568314
 31
0.0
  0
LINE
  5
B82
330
6B
100
AcDbEntity
  8
0
 62
     2
100
AcDbLine
 10
1538.010115977379
 20
729.5496881568314
 30
0.0
 11
1538.054455977379
 21
729.5959031568316
 31
0.0
  0
LINE
  5
B83
330
6B
100
AcDbEntity
  8
0
 62
     2
100
AcDbLine
 10
1538.054455977379
 20
729.5959031568316
 30
0.0
 11
1538.097185977379
 21
729.6526381568318
 31
0.0
  0
LINE
  5
B84
330
6B
100
AcDbEntity
  8
0
 62
     2
100
AcDbLine
 10
1538.097185977379
 20
729.6526381568318
 30
0.0
 11
1538.137975977378
 21
729.7194541568318
 31
0.0
  0
LINE
  5
B85
330
6B
100
AcDbEntity
  8
0
 62
     2
100
AcDbLine
 10
1538.137975977378
 20
729.7194541568318
 30
0.0
 11
1538.176509977379
 21
729.7958331568318
 31
0.0
  0
LINE
  5
B86
330
6B
100
AcDbEntity
  8
0
 62
     2
100
AcDbLine
 10
1538.176509977379
 20
729.7958331568318
 30
0.0
 11
1538.212490977379
 21
729.8811861568318
 31
0.0
  0
LINE
  5
B87
330
6B
100
AcDbEntity
  8
0
 62
     2
100
AcDbLine
 10
1538.212490977379
 20
729.8811861568318
 30
0.0
 11
1538.245640977379
 21
729.9748531568318
 31
0.0
  0
LINE
  5
B88
330
6B
100
AcDbEntity
  8
0
 62
     2
100
AcDbLine
 10
1538.245640977379
 20
729.9748531568318
 30
0.0
 11
1538.275703977379
 21
730.0761101568318
 31
0.0
  0
LINE
  5
B89
330
6B
100
AcDbEntity
  8
0
 62
     2
100
AcDbLine
 10
1538.275703977379
 20
730.0761101568318
 30
0.0
 11
1538.302445977379
 21
730.1841741568315
 31
0.0
  0
LINE
  5
B8A
330
6B
100
AcDbEntity
  8
0
 62
     2
100
AcDbLine
 10
1538.302445977379
 20
730.1841741568315
 30
0.0
 11
1538.325661977379
 21
730.2982101568318
 31
0.0
  0
LINE
  5
B8B
330
6B
100
AcDbEntity
  8
0
 62
     2
100
AcDbLine
 10
1538.325661977379
 20
730.2982101568318
 30
0.0
 11
1538.345170977378
 21
730.4173371568315
 31
0.0
  0
TEXT
  5
B8C
330
6B
100
AcDbEntity
  8
0
  6
Continuous
 62
     4
100
AcDbText
 10
1562.050468837437
 20
688.0025145779694
 30
0.0
 40
3.0
  1
128.5
100
AcDbText
  0
LINE
  5
B8D
330
6B
100
AcDbEntity
  8
0
  6
ByBlock
 62
     0
370
    -2
100
AcDbLine
 10
1627.616855634881
 20
688.0473870779694
 30
0.0
 11
1630.11685563488
 21
687.3775145779695
 31
0.0
  0
LINE
  5
B8E
330
6B
100
AcDbEntity
  8
0
  6
ByBlock
 62
     0
370
    -2
100
AcDbLine
 10
1630.11685563488
 20
687.3775145779695
 30
0.0
 11
1627.616855634881
 21
686.7076420779694
 31
0.0
  0
LINE
  5
B8F
330
6B
100
AcDbEntity
  8
0
  6
ByBlock
 62
     0
370
    -2
100
AcDbLine
 10
1630.11685563488
 20
687.3775145779695
 30
0.0
 11
1627.616855634881
 21
687.3775145779695
 31
0.0
  0
LINE
  5
B90
330
6B
100
AcDbEntity
  8
0
  6
ByBlock
 62
     0
370
    -2
100
AcDbLine
 10
1504.116855634881
 20
686.7076420779694
 30
0.0
 11
1501.616855634881
 21
687.3775145779695
 31
0.0
  0
LINE
  5
B91
330
6B
100
AcDbEntity
  8
0
  6
ByBlock
 62
     0
370
    -2
100
AcDbLine
 10
1501.616855634881
 20
687.3775145779695
 30
0.0
 11
1504.116855634881
 21
688.0473870779694
 31
0.0
  0
LINE
  5
B92
330
6B
100
AcDbEntity
  8
0
  6
ByBlock
 62
     0
370
    -2
100
AcDbLine
 10
1501.616855634881
 20
687.3775145779695
 30
0.0
 11
1504.116855634881
 21
687.3775145779695
 31
0.0
  0
LINE
  5
B93
330
6B
100
AcDbEntity
  8
0
  6
Continuous
100
AcDbLine
 10
1574.835438058892
 20
665.8171987313695
 30
0.0
 11
1558.404310888379
 21
673.1800924169614
 31
0.0
1001
ACAD
1000
DSTYLE
1002
{
1070
   147
1040
0.625
1070
    77
1070
     0
1002
}
  0
LINE
  5
B94
330
6B
100
AcDbEntity
  8
0
  6
ByBlock
 62
     0
370
    -2
100
AcDbLine
 10
1575.109367112022
 20
666.4285022894381
 30
0.0
 11
1577.116855634881
 21
664.7948808532271
 31
0.0
  0
LINE
  5
B95
330
6B
100
AcDbEntity
  8
0
  6
ByBlock
 62
     0
370
    -2
100
AcDbLine
 10
1577.116855634881
 20
664.7948808532271
 30
0.0
 11
1574.561509005761
 21
665.2058951733009
 31
0.0
  0
LINE
  5
B96
330
6B
100
AcDbEntity
  8
0
  6
ByBlock
 62
     0
370
    -2
100
AcDbLine
 10
1577.116855634881
 20
664.7948808532271
 30
0.0
 11
1574.835438058892
 21
665.8171987313695
 31
0.0
  0
LINE
  5
B97
330
6B
100
AcDbEntity
  8
0
  6
Continuous
100
AcDbLine
 10
1561.892019378663
 20
666.9742789686379
 30
0.0
 11
1558.404310888379
 21
673.1800924169614
 31
0.0
1001
ACAD
1000
DSTYLE
1002
{
1070
   147
1040
0.625
1070
    77
1070
     0
1002
}
  0
LINE
  5
B98
330
6B
100
AcDbEntity
  8
0
  6
Continuous
100
AcDbLine
 10
1558.404310888379
 20
673.1800924169614
 30
0.0
 11
1555.904310888379
 21
673.1800924169614
 31
0.0
1001
ACAD
1000
DSTYLE
1002
{
1070
   147
1040
0.625
1070
    77
1070
     0
1002
}
  0
LINE
  5
B99
330
6B
100
AcDbEntity
  8
0
  6
ByBlock
 62
     0
370
    -2
100
AcDbLine
 10
1562.475986924289
 20
667.302472618655
 30
0.0
 11
1563.116855634881
 21
664.7948808532272
 31
0.0
  0
LINE
  5
B9A
330
6B
100
AcDbEntity
  8
0
  6
ByBlock
 62
     0
370
    -2
100
AcDbLine
 10
1563.116855634881
 20
664.7948808532272
 30
0.0
 11
1561.308051833037
 21
666.6460853186207
 31
0.0
  0
LINE
  5
B9B
330
6B
100
AcDbEntity
  8
0
  6
ByBlock
 62
     0
370
    -2
100
AcDbLine
 10
1563.116855634881
 20
664.7948808532272
 30
0.0
 11
1561.892019378663
 21
666.9742789686379
 31
0.0
  0
TEXT
  5
B9C
330
6B
100
AcDbEntity
  8
0
  6
Continuous
 62
     4
100
AcDbText
 10
1600.61685563488
 20
682.1276136412872
 30
0.0
 40
3.0
  1
31
100
AcDbText
  0
LINE
  5
B9D
330
6B
100
AcDbEntity
  8
0
  6
ByBlock
 62
     0
370
    -2
100
AcDbLine
 10
1589.616855634881
 20
680.8327411412872
 30
0.0
 11
1587.116855634881
 21
681.5026136412872
 31
0.0
  0
LINE
  5
B9E
330
6B
100
AcDbEntity
  8
0
  6
ByBlock
 62
     0
370
    -2
100
AcDbLine
 10
1587.116855634881
 20
681.5026136412872
 30
0.0
 11
1589.616855634881
 21
682.1724861412872
 31
0.0
  0
LINE
  5
B9F
330
6B
100
AcDbEntity
  8
0
  6
ByBlock
 62
     0
370
    -2
100
AcDbLine
 10
1587.116855634881
 20
681.5026136412872
 30
0.0
 11
1589.616855634881
 21
681.5026136412872
 31
0.0
  0
LINE
  5
BA0
330
6B
100
AcDbEntity
  8
0
  6
ByBlock
 62
     0
370
    -2
100
AcDbLine
 10
1615.61685563488
 20
682.1724861412872
 30
0.0
 11
1618.116855634881
 21
681.5026136412872
 31
0.0
  0
LINE
  5
BA1
330
6B
100
AcDbEntity
  8
0
  6
ByBlock
 62
     0
370
    -2
100
AcDbLine
 10
1618.116855634881
 20
681.5026136412872
 30
0.0
 11
1615.61685563488
 21
680.8327411412872
 31
0.0
  0
LINE
  5
BA2
330
6B
100
AcDbEntity
  8
0
  6
ByBlock
 62
     0
370
    -2
100
AcDbLine
 10
1618.116855634881
 20
681.5026136412872
 30
0.0
 11
1615.61685563488
 21
681.5026136412872
 31
0.0
  0
TEXT
  5
BA3
330
6B
100
AcDbEntity
  8
0
  6
Continuous
 62
     4
100
AcDbText
 10
1621.883742685572
 20
682.1276136412872
 30
0.0
 40
3.0
  1
12
100
AcDbText
  0
LINE
  5
BA4
330
6B
100
AcDbEntity
  8
0
  6
ByBlock
 62
     0
370
    -2
100
AcDbLine
 10
1620.616855634881
 20
680.8327411412872
 30
0.0
 11
1618.116855634881
 21
681.5026136412872
 31
0.0
  0
LINE
  5
BA5
330
6B
100
AcDbEntity
  8
0
  6
ByBlock
 62
     0
370
    -2
100
AcDbLine
 10
1618.116855634881
 20
681.5026136412872
 30
0.0
 11
1620.616855634881
 21
682.1724861412872
 31
0.0
  0
LINE
  5
BA6
330
6B
100
AcDbEntity
  8
0
  6
ByBlock
 62
     0
370
    -2
100
AcDbLine
 10
1618.116855634881
 20
681.5026136412872
 30
0.0
 11
1620.616855634881
 21
681.5026136412872
 31
0.0
  0
LINE
  5
BA7
330
6B
100
AcDbEntity
  8
0
  6
ByBlock
 62
     0
370
    -2
100
AcDbLine
 10
1627.616855634881
 20
682.1724861412872
 30
0.0
 11
1630.11685563488
 21
681.5026136412872
 31
0.0
  0
LINE
  5
BA8
330
6B
100
AcDbEntity
  8
0
  6
ByBlock
 62
     0
370
    -2
100
AcDbLine
 10
1630.11685563488
 20
681.5026136412872
 30
0.0
 11
1627.616855634881
 21
680.8327411412872
 31
0.0
  0
LINE
  5
BA9
330
6B
100
AcDbEntity
  8
0
  6
ByBlock
 62
     0
370
    -2
100
AcDbLine
 10
1630.11685563488
 20
681.5026136412872
 30
0.0
 11
1627.616855634881
 21
681.5026136412872
 31
0.0
  0
TEXT
  5
BAA
330
6B
100
AcDbEntity
  8
0
  6
Continuous
 62
     4
100
AcDbText
 10
1639.437142197903
 20
650.6282141865605
 30
0.0
 40
2.5
  1
\U+220511.4
 50
90.0
100
AcDbText
  0
LINE
  5
BAB
330
6B
100
AcDbEntity
  8
0
  6
ByBlock
 62
     0
370
    -2
100
AcDbLine
 10
1640.732014697903
 20
651.5948808532271
 30
0.0
 11
1640.062142197903
 21
649.094880853227
 31
0.0
  0
LINE
  5
BAC
330
6B
100
AcDbEntity
  8
0
  6
ByBlock
 62
     0
370
    -2
100
AcDbLine
 10
1640.062142197903
 20
649.094880853227
 30
0.0
 11
1639.392269697903
 21
651.5948808532271
 31
0.0
  0
LINE
  5
BAD
330
6B
100
AcDbEntity
  8
0
  6
ByBlock
 62
     0
370
    -2
100
AcDbLine
 10
1640.062142197903
 20
649.094880853227
 30
0.0
 11
1640.062142197903
 21
651.5948808532271
 31
0.0
  0
LINE
  5
BAE
330
6B
100
AcDbEntity
  8
0
  6
ByBlock
 62
     0
370
    -2
100
AcDbLine
 10
1639.392269697903
 20
657.9948808532272
 30
0.0
 11
1640.062142197903
 21
660.4948808532271
 31
0.0
  0
LINE
  5
BAF
330
6B
100
AcDbEntity
  8
0
  6
ByBlock
 62
     0
370
    -2
100
AcDbLine
 10
1640.062142197903
 20
660.4948808532271
 30
0.0
 11
1640.732014697903
 21
657.9948808532272
 31
0.0
  0
LINE
  5
BB0
330
6B
100
AcDbEntity
  8
0
  6
ByBlock
 62
     0
370
    -2
100
AcDbLine
 10
1640.062142197903
 20
660.4948808532271
 30
0.0
 11
1640.062142197903
 21
657.9948808532272
 31
0.0
  0
TEXT
  5
BB1
330
6B
100
AcDbEntity
  8
0
  6
Continuous
 62
     4
100
AcDbText
 10
1645.309420586988
 20
650.2115475198937
 30
0.0
 40
2.5
  1
\U+220513.3
 50
90.0
100
AcDbText
  0
LINE
  5
BB2
330
6B
100
AcDbEntity
  8
0
  6
ByBlock
 62
     0
370
    -2
100
AcDbLine
 10
1646.604293086988
 20
650.6448808532272
 30
0.0
 11
1645.934420586988
 21
648.1448808532271
 31
0.0
  0
LINE
  5
BB3
330
6B
100
AcDbEntity
  8
0
  6
ByBlock
 62
     0
370
    -2
100
AcDbLine
 10
1645.934420586988
 20
648.1448808532271
 30
0.0
 11
1645.264548086988
 21
650.6448808532272
 31
0.0
  0
LINE
  5
BB4
330
6B
100
AcDbEntity
  8
0
  6
ByBlock
 62
     0
370
    -2
100
AcDbLine
 10
1645.934420586988
 20
648.1448808532271
 30
0.0
 11
1645.934420586988
 21
650.6448808532272
 31
0.0
  0
LINE
  5
BB5
330
6B
100
AcDbEntity
  8
0
  6
ByBlock
 62
     0
370
    -2
100
AcDbLine
 10
1645.264548086988
 20
658.9448808532271
 30
0.0
 11
1645.934420586988
 21
661.4448808532271
 31
0.0
  0
LINE
  5
BB6
330
6B
100
AcDbEntity
  8
0
  6
ByBlock
 62
     0
370
    -2
100
AcDbLine
 10
1645.934420586988
 20
661.4448808532271
 30
0.0
 11
1646.604293086988
 21
658.9448808532271
 31
0.0
  0
LINE
  5
BB7
330
6B
100
AcDbEntity
  8
0
  6
ByBlock
 62
     0
370
    -2
100
AcDbLine
 10
1645.934420586988
 20
661.4448808532271
 30
0.0
 11
1645.934420586988
 21
658.9448808532271
 31
0.0
  0
LINE
  5
BB8
330
6B
100
AcDbEntity
  8
0
  6
Continuous
100
AcDbLine
 10
1444.805042237804
 20
644.8568999190787
 30
0.0
 11
1451.265407322218
 21
620.8010441540872
 31
0.0
1001
ACAD
1000
DSTYLE
1002
{
1070
   147
1040
0.625
1070
    77
1070
     0
1002
}
  0
LINE
  5
BB9
330
6B
100
AcDbEntity
  8
0
  6
ByBlock
 62
     0
370
    -2
100
AcDbLine
 10
1444.158093476112
 20
644.6831573911773
 30
0.0
 11
1444.156625830573
 21
647.2713473015728
 31
0.0
  0
LINE
  5
BBA
330
6B
100
AcDbEntity
  8
0
  6
ByBlock
 62
     0
370
    -2
100
AcDbLine
 10
1444.156625830573
 20
647.2713473015728
 30
0.0
 11
1445.451990999496
 21
645.03064244698
 31
0.0
  0
LINE
  5
BBB
330
6B
100
AcDbEntity
  8
0
  6
ByBlock
 62
     0
370
    -2
100
AcDbLine
 10
1444.156625830573
 20
647.2713473015728
 30
0.0
 11
1444.805042237804
 21
644.8568999190787
 31
0.0
  0
LINE
  5
BBC
330
6B
100
AcDbEntity
  8
0
  6
Continuous
100
AcDbLine
 10
1495.902815111694
 20
646.6545654458401
 30
0.0
 11
1504.244865040197
 21
619.4283832038729
 31
0.0
1001
ACAD
1000
DSTYLE
1002
{
1070
   147
1040
0.625
1070
    77
1070
     0
1002
}
  0
LINE
  5
BBD
330
6B
100
AcDbEntity
  8
0
  6
ByBlock
 62
     0
370
    -2
100
AcDbLine
 10
1495.2623324886
 20
646.4583228007017
 30
0.0
 11
1495.170427063452
 21
649.0448808532271
 31
0.0
  0
LINE
  5
BBE
330
6B
100
AcDbEntity
  8
0
  6
ByBlock
 62
     0
370
    -2
100
AcDbLine
 10
1495.170427063452
 20
649.0448808532271
 30
0.0
 11
1496.543297734788
 21
646.8508080909787
 31
0.0
  0
LINE
  5
BBF
330
6B
100
AcDbEntity
  8
0
  6
ByBlock
 62
     0
370
    -2
100
AcDbLine
 10
1495.170427063452
 20
649.0448808532271
 30
0.0
 11
1495.902815111694
 21
646.6545654458401
 31
0.0
  0
LINE
  5
BC0
330
6B
100
AcDbEntity
  8
0
  6
Continuous
100
AcDbLine
 10
1579.192941960028
 20
639.0383263511532
 30
0.0
 11
1589.444785486385
 21
617.5401963932465
 31
0.0
1001
ACAD
1000
DSTYLE
1002
{
1070
   147
1040
0.625
1070
    77
1070
     0
1002
}
  0
LINE
  5
BC1
330
6B
100
AcDbEntity
  8
0
  6
ByBlock
 62
     0
370
    -2
100
AcDbLine
 10
1578.588300437752
 20
638.7499900964162
 30
0.0
 11
1578.11685563488
 21
641.2948808532271
 31
0.0
  0
LINE
  5
BC2
330
6B
100
AcDbEntity
  8
0
  6
ByBlock
 62
     0
370
    -2
100
AcDbLine
 10
1578.11685563488
 20
641.2948808532271
 30
0.0
 11
1579.797583482305
 21
639.3266626058903
 31
0.0
  0
LINE
  5
BC3
330
6B
100
AcDbEntity
  8
0
  6
ByBlock
 62
     0
370
    -2
100
AcDbLine
 10
1578.11685563488
 20
641.2948808532271
 30
0.0
 11
1579.192941960028
 21
639.0383263511532
 31
0.0
  0
TEXT
  5
BC4
330
6B
100
AcDbEntity
  8
0
  6
Continuous
 62
     4
100
AcDbText
 10
1651.596287105922
 20
650.8617445983978
 30
0.0
 40
3.0
  1
\U+220533
 50
90.0
100
AcDbText
  0
LINE
  5
BC5
330
6B
100
AcDbEntity
  8
0
  6
ByBlock
 62
     0
370
    -2
100
AcDbLine
 10
1652.891159605922
 20
640.7948808532271
 30
0.0
 11
1652.221287105922
 21
638.2948808532271
 31
0.0
  0
LINE
  5
BC6
330
6B
100
AcDbEntity
  8
0
  6
ByBlock
 62
     0
370
    -2
100
AcDbLine
 10
1652.221287105922
 20
638.2948808532271
 30
0.0
 11
1651.551414605922
 21
640.7948808532271
 31
0.0
  0
LINE
  5
BC7
330
6B
100
AcDbEntity
  8
0
  6
ByBlock
 62
     0
370
    -2
100
AcDbLine
 10
1652.221287105922
 20
638.2948808532271
 30
0.0
 11
1652.221287105922
 21
640.7948808532271
 31
0.0
  0
LINE
  5
BC8
330
6B
100
AcDbEntity
  8
0
  6
ByBlock
 62
     0
370
    -2
100
AcDbLine
 10
1651.551414605922
 20
668.7948808532271
 30
0.0
 11
1652.221287105922
 21
671.2948808532271
 31
0.0
  0
LINE
  5
BC9
330
6B
100
AcDbEntity
  8
0
  6
ByBlock
 62
     0
370
    -2
100
AcDbLine
 10
1652.221287105922
 20
671.2948808532271
 30
0.0
 11
1652.891159605922
 21
668.7948808532271
 31
0.0
  0
LINE
  5
BCA
330
6B
100
AcDbEntity
  8
0
  6
ByBlock
 62
     0
370
    -2
100
AcDbLine
 10
1652.221287105922
 20
671.2948808532271
 30
0.0
 11
1652.221287105922
 21
668.7948808532271
 31
0.0
  0
TEXT
  5
BCB
330
6B
100
AcDbEntity
  8
0
  6
Continuous
 62
     4
100
AcDbText
 10
1533.255983857656
 20
698.1918076951093
 30
0.0
 40
3.0
  1
(200)
100
AcDbText
  0
LINE
  5
BCC
330
6B
100
AcDbEntity
  8
0
  6
ByBlock
 62
     0
370
    -2
100
AcDbLine
 10
1432.616855634881
 20
696.8969351951093
 30
0.0
 11
1430.116855634881
 21
697.5668076951093
 31
0.0
  0
LINE
  5
BCD
330
6B
100
AcDbEntity
  8
0
  6
ByBlock
 62
     0
370
    -2
100
AcDbLine
 10
1430.116855634881
 20
697.5668076951093
 30
0.0
 11
1432.616855634881
 21
698.2366801951093
 31
0.0
  0
LINE
  5
BCE
330
6B
100
AcDbEntity
  8
0
  6
ByBlock
 62
     0
370
    -2
100
AcDbLine
 10
1430.116855634881
 20
697.5668076951093
 30
0.0
 11
1432.616855634881
 21
697.5668076951093
 31
0.0
  0
LINE
  5
BCF
330
6B
100
AcDbEntity
  8
0
  6
ByBlock
 62
     0
370
    -2
100
AcDbLine
 10
1627.616855634881
 20
698.2366801951093
 30
0.0
 11
1630.11685563488
 21
697.5668076951093
 31
0.0
  0
LINE
  5
BD0
330
6B
100
AcDbEntity
  8
0
  6
ByBlock
 62
     0
370
    -2
100
AcDbLine
 10
1630.11685563488
 20
697.5668076951093
 30
0.0
 11
1627.616855634881
 21
696.8969351951093
 31
0.0
  0
LINE
  5
BD1
330
6B
100
AcDbEntity
  8
0
  6
ByBlock
 62
     0
370
    -2
100
AcDbLine
 10
1630.11685563488
 20
697.5668076951093
 30
0.0
 11
1627.616855634881
 21
697.5668076951093
 31
0.0
  0
ENDSEC
  0
SECTION
  2
OBJECTS
  0
DICTIONARY
  5
C
330
0
100
AcDbDictionary
281
     1
  3
ACAD_2007HEADERVARS_RT
350
BD5
  3
ACAD_COLOR
350
62
  3
ACAD_GROUP
350
D
  3
ACAD_LAYOUT
350
61
  3
ACAD_MATERIAL
350
10
  3
ACAD_MLEADERSTYLE
350
65
  3
ACAD_MLINESTYLE
350
5E
  3
ACAD_PLOTSETTINGS
350
60
  3
ACAD_PLOTSTYLENAME
350
E
  3
ACAD_SCALELIST
350
42
  3
ACAD_TABLESTYLE
350
63
  3
ACAD_VISUALSTYLE
350
29
  3
ACDB_RECOMPOSE_DATA
350
BD3
  3
AcDbVariableDictionary
350
647
  3
DWGPROPS
350
BD4
  0
DICTIONARY
  5
280
330
2
100
AcDbDictionary
280
     1
281
     1
  3
ACAD_LAYERSTATES
360
281
  0
DICTIONARY
  5
643
330
54
100
AcDbDictionary
280
     1
281
     1
  3
ADSK_XREC_LAYER_RECONCILED
360
644
  0
DICTIONARY
  5
58C
330
6B
100
AcDbDictionary
280
     1
281
     1
  3
ACAD_SORTENTS
360
58D
  0
DICTIONARY
  5
BD5
102
{ACAD_REACTORS
330
C
102
}
330
C
100
AcDbDictionary
281
     1
  3
DIMARCSYM
350
BD7
  3
DIMFXL
350
BD6
  3
DIMJOGANG
350
BD8
  0
DICTIONARY
  5
62
102
{ACAD_REACTORS
330
C
102
}
330
C
100
AcDbDictionary
281
     1
  0
DICTIONARY
  5
D
102
{ACAD_REACTORS
330
C
102
}
330
C
100
AcDbDictionary
281
     1
  0
DICTIONARY
  5
61
102
{ACAD_REACTORS
330
C
102
}
330
C
100
AcDbDictionary
281
     1
  3
Model
350
6E
  3
レイアウト1
350
6A
  0
DICTIONARY
  5
10
102
{ACAD_REACTORS
330
C
102
}
330
C
100
AcDbDictionary
281
     1
  3
ByBlock
350
19
  3
ByLayer
350
11
  3
Global
350
21
  0
DICTIONARY
  5
65
102
{ACAD_REACTORS
330
C
102
}
330
C
100
AcDbDictionary
281
     1
  3
Standard
350
66
  0
DICTIONARY
  5
5E
102
{ACAD_REACTORS
330
C
102
}
330
C
100
AcDbDictionary
281
     1
  3
Standard
350
5F
  0
DICTIONARY
  5
60
102
{ACAD_REACTORS
330
C
102
}
330
C
100
AcDbDictionary
281
     1
  0
ACDBDICTIONARYWDFLT
  5
E
102
{ACAD_REACTORS
330
C
102
}
330
C
100
AcDbDictionary
281
     1
  3
Normal
350
F
100
AcDbDictionaryWithDefault
340
F
  0
DICTIONARY
  5
42
102
{ACAD_REACTORS
330
C
102
}
330
C
100
AcDbDictionary
281
     1
  3
A0
350
43
  3
A1
350
44
  3
A2
350
45
  3
A3
350
46
  3
A4
350
47
  3
A5
350
48
  3
A6
350
49
  3
A7
350
4A
  3
A8
350
4B
  3
A9
350
4C
  3
B0
350
4D
  3
B1
350
4E
  3
B2
350
4F
  3
B3
350
50
  3
B4
350
51
  3
B5
350
52
  3
B6
350
53
  0
DICTIONARY
  5
63
102
{ACAD_REACTORS
330
C
102
}
330
C
100
AcDbDictionary
281
     1
  3
Standard
350
64
  0
DICTIONARY
  5
29
102
{ACAD_REACTORS
330
C
102
}
330
C
100
AcDbDictionary
281
     1
  3
2dWireframe
350
2F
  3
3dWireframe
350
74D
  3
Basic
350
2E
  3
Brighten
350
35
  3
ColorChange
350
39
  3
Conceptual
350
32
  3
Dim
350
34
  3
EdgeColorOff
350
41
  3
Facepattern
350
38
  3
Flat
350
2A
  3
FlatWithEdges
350
2B
  3
Gouraud
350
2C
  3
GouraudWithEdges
350
2D
  3
Hidden
350
31
  3
JitterOff
350
3F
  3
Linepattern
350
37
  3
OverhangOff
350
40
  3
Realistic
350
33
  3
Shaded
350
3E
  3
Shaded with edges
350
3D
  3
Shades of Gray
350
3A
  3
Sketchy
350
3B
  3
Thicken
350
36
  3
Wireframe
350
30
  3
X-Ray
350
3C
  0
XRECORD
  5
BD3
102
{ACAD_REACTORS
330
C
102
}
330
C
100
AcDbXrecord
280
     1
 90
        1
330
64
  0
DICTIONARY
  5
647
102
{ACAD_REACTORS
330
C
102
}
330
C
100
AcDbDictionary
281
     1
  3
CANNOSCALE
350
64A
  3
CMLEADERSTYLE
350
649
  3
CTABLESTYLE
350
648
  3
DIMASSOC
350
64D
  3
INDEXCTL
350
64C
  3
SORTENTS
350
64B
  3
XCLIPFRAME
350
A93
  0
XRECORD
  5
BD4
102
{ACAD_REACTORS
330
C
102
}
330
C
100
AcDbXrecord
280
     1
  1
DWGPROPS COOKIE
  2

  3

  4

  6

  7

  8
imamura
  9

300
=
301
=
302
=
303
=
304
=
305
=
306
=
307
=
308
=
309
=
 40
0.1385476041666667
 41
2456202.564599676
 42
2456994.602669896
  1

 90
        0
  0
DICTIONARY
  5
281
102
{ACAD_REACTORS
330
280
102
}
330
280
100
AcDbDictionary
281
     1
  0
XRECORD
  5
644
102
{ACAD_REACTORS
330
643
102
}
330
643
100
AcDbXrecord
280
     1
290
     1
  0
SORTENTSTABLE
  5
58D
102
{ACAD_REACTORS
330
58C
102
}
330
58C
100
AcDbSortentsTable
330
6B
331
B95
  5
BC5
331
44D
  5
4A4
331
40E
  5
40E
331
B91
  5
BCC
331
449
  5
4A0
331
3D7
  5
3D7
331
40A
  5
40A
331
BCC
  5
B57
331
484
  5
4D3
331
B8D
  5
BCE
331
445
  5
498
331
3D3
  5
3D3
331
BC8
  5
B5E
331
480
  5
4CF
331
441
  5
48F
331
B89
  5
483
331
4C6
  5
51A
331
4C2
  5
514
331
927
  5
B88
331
4BE
  5
50B
331
4F9
  5
B26
331
923
  5
B86
331
4BA
  5
505
331
938
  5
B93
331
B19
  5
BC9
331
B54
  5
446
331
B50
  5
442
331
406
  5
406
331
BC4
  5
B64
331
47C
  5
4CB
331
402
  5
402
331
B85
  5
47F
331
43D
  5
43D
331
BC0
  5
B68
331
B81
  5
47B
331
439
  5
439
331
3FE
  5
3FE
331
BBC
  5
B6F
331
474
  5
4C7
331
3FA
  5
3FA
331
B7D
  5
473
331
435
  5
435
331
BB8
  5
B76
331
470
  5
4C3
331
B79
  5
46F
331
431
  5
431
331
4F5
  5
B22
331
91F
  5
B20
331
4B6
  5
4FD
331
4F1
  5
938
331
91B
  5
B2E
331
4B2
  5
4F1
331
4ED
  5
934
331
934
  5
B92
331
4AE
  5
4ED
331
4E9
  5
930
331
930
  5
B90
331
4AA
  5
4E9
331
928
  5
B8C
331
B48
  5
B46
331
3F6
  5
3F6
331
BB4
  5
B9E
331
46C
  5
4BF
331
3F2
  5
3F2
331
B75
  5
46B
331
42D
  5
42D
331
BB0
  5
BA5
331
B71
  5
465
331
429
  5
429
331
3EE
  5
3EE
331
BAC
  5
BA7
331
3EA
  5
3EA
331
B6D
  5
45F
331
425
  5
425
331
BA8
  5
BAE
331
460
  5
4B7
331
B69
  5
45B
331
421
  5
421
331
4E5
  5
928
331
90F
  5
B1C
331
4A6
  5
4E5
331
4E1
  5
91F
331
90B
  5
B2A
331
4A2
  5
4E1
331
4DD
  5
91B
331
4D9
  5
917
331
51C
  5
B7D
331
49A
  5
4DD
331
518
  5
B77
331
B30
  5
BA1
331
3E6
  5
3E6
331
BA4
  5
BB0
331
45C
  5
4B3
331
3E2
  5
3E2
331
B65
  5
457
331
41D
  5
41D
331
BA0
  5
BB7
331
458
  5
4AF
331
3DE
  5
3DE
331
B61
  5
453
331
419
  5
419
331
B9C
  5
BBD
331
454
  5
4AB
331
3DA
  5
3DA
331
B5D
  5
44F
331
415
  5
415
331
B98
  5
BC2
331
450
  5
4A7
331
B59
  5
44B
331
411
  5
411
331
4D5
  5
90F
331
8FF
  5
B34
331
496
  5
4D9
331
50C
  5
B42
331
4D1
  5
908
331
508
  5
B3E
331
4CD
  5
8FC
331
504
  5
B3B
331
4C9
  5
51D
331
500
  5
B38
331
B24
  5
BB5
331
B20
  5
BC3
331
B94
  5
BC4
331
44C
  5
4A3
331
40D
  5
40D
331
BCF
  5
B4B
331
487
  5
4D5
331
B90
  5
BCB
331
448
  5
49F
331
3D6
  5
3D6
331
BCB
  5
B5A
331
483
  5
4D2
331
409
  5
409
331
B8C
  5
BD1
331
444
  5
497
331
440
  5
489
331
B88
  5
482
331
4C5
  5
519
331
4C1
  5
510
331
4FC
  5
B29
331
4BD
  5
50A
331
4F8
  5
B25
331
4B9
  5
504
331
93B
  5
B95
331
B18
  5
BC8
331
B57
  5
449
331
B53
  5
445
331
BC7
  5
B63
331
47F
  5
4CE
331
405
  5
405
331
BC3
  5
B67
331
47B
  5
4CA
331
401
  5
401
331
B84
  5
47E
331
43C
  5
43C
331
BBF
  5
B6B
331
3FD
  5
3FD
331
B80
  5
47A
331
438
  5
438
331
BBB
  5
B75
331
473
  5
4C6
331
3F9
  5
3F9
331
B7C
  5
472
331
434
  5
434
331
B78
  5
46E
331
430
  5
430
331
4F4
  5
B21
331
91E
  5
B2D
331
4B5
  5
4FC
331
4F0
  5
937
331
937
  5
B32
331
91A
  5
B2C
331
4B1
  5
4F0
331
4EC
  5
933
331
933
  5
93B
331
4AD
  5
4EC
331
4E8
  5
92B
331
4A9
  5
4E8
331
92B
  5
B8F
331
B4F
  5
441
331
B47
  5
B45
331
B43
  5
B5D
331
BB7
  5
B9B
331
46F
  5
4C2
331
3F5
  5
3F5
331
BB3
  5
B9D
331
46B
  5
4BE
331
3F1
  5
3F1
331
B74
  5
46A
331
42C
  5
42C
331
BAF
  5
BA4
331
467
  5
4BB
331
B70
  5
462
331
428
  5
428
331
3ED
  5
3ED
331
BAB
  5
BA6
331
3E9
  5
3E9
331
B6C
  5
45E
331
424
  5
424
331
B68
  5
45A
331
420
  5
420
331
4E4
  5
927
331
4A5
  5
4E4
331
4E0
  5
91E
331
90A
  5
B1D
331
4A1
  5
4E0
331
4DC
  5
91A
331
4D8
  5
916
331
499
  5
4DC
331
B37
  5
B98
331
BA7
  5
BAD
331
45F
  5
4B6
331
3E5
  5
3E5
331
BA3
  5
BB3
331
45B
  5
4B2
331
3E1
  5
3E1
331
B64
  5
456
331
41C
  5
41C
331
B9F
  5
BBC
331
457
  5
4AE
331
B60
  5
452
331
418
  5
418
331
3DD
  5
3DD
331
B9B
  5
BC0
331
453
  5
4AA
331
3D9
  5
3D9
331
B5C
  5
44E
331
414
  5
414
331
B58
  5
44A
331
410
  5
410
331
4D4
  5
90B
331
495
  5
4D8
331
50B
  5
B41
331
8FA
  5
B35
331
4D0
  5
907
331
507
  5
B3D
331
4CC
  5
8FB
331
4C8
  5
51C
331
503
  5
B3A
331
489
  5
4D6
331
B2F
  5
BA0
331
B2B
  5
BAC
331
B23
  5
BB4
331
B97
  5
BC1
331
44F
  5
4A6
331
B93
  5
BC7
331
44B
  5
4A2
331
40C
  5
40C
331
BCE
  5
B59
331
B8F
  5
BD0
331
447
  5
49A
331
3D5
  5
3D5
331
BCA
  5
B60
331
482
  5
4D1
331
408
  5
408
331
B8B
  5
485
331
443
  5
496
331
4C4
  5
518
331
4FF
  5
B37
331
4C0
  5
50F
331
4FB
  5
B28
331
4BC
  5
508
331
4B8
  5
503
331
93A
  5
B94
331
B56
  5
448
331
B52
  5
444
331
BC6
  5
B62
331
47E
  5
4CD
331
43F
  5
487
331
404
  5
404
331
B87
  5
481
331
BC2
  5
B66
331
47A
  5
4C9
331
400
  5
400
331
B83
  5
47D
331
43B
  5
43B
331
BBE
  5
B6A
331
3FC
  5
3FC
331
B7F
  5
479
331
437
  5
437
331
BBA
  5
B71
331
472
  5
4C5
331
3F8
  5
3F8
331
B7B
  5
471
331
433
  5
433
331
4F7
  5
B24
331
4F3
  5
93A
331
91D
  5
B2F
331
4B4
  5
4F3
331
4EF
  5
936
331
919
  5
B19
331
4B0
  5
4EF
331
4EB
  5
932
331
915
  5
B30
331
4AC
  5
4EB
331
932
  5
B18
331
4A8
  5
4E7
331
92A
  5
B8E
331
B4E
  5
440
331
B42
  5
B5C
331
BB6
  5
B9A
331
46E
  5
4C1
331
3F4
  5
3F4
331
B77
  5
46D
331
42F
  5
42F
331
BB2
  5
B9C
331
46A
  5
4BD
331
3F0
  5
3F0
331
B73
  5
469
331
42B
  5
42B
331
BAE
  5
BA3
331
3EC
  5
3EC
331
B6F
  5
461
331
427
  5
427
331
BAA
  5
BA9
331
462
  5
4B9
331
3E8
  5
3E8
331
B6B
  5
45D
331
423
  5
423
331
4E7
  5
92A
331
4E3
  5
926
331
4A4
  5
4E3
331
4DF
  5
91D
331
909
  5
B1F
331
4A0
  5
4DF
331
4DB
  5
919
331
51A
  5
B7C
331
498
  5
4DB
331
B36
  5
B97
331
BA6
  5
BB2
331
45E
  5
4B5
331
3E4
  5
3E4
331
B67
  5
459
331
41F
  5
41F
331
BA2
  5
BB9
331
45A
  5
4B1
331
3E0
  5
3E0
331
B63
  5
455
331
41B
  5
41B
331
B9E
  5
BBB
331
456
  5
4AD
331
B5F
  5
451
331
417
  5
417
331
3DC
  5
3DC
331
B9A
  5
BBF
331
452
  5
4A9
331
3D8
  5
3D8
331
B5B
  5
44D
331
413
  5
413
331
BD1
  5
B4D
331
4D7
  5
915
331
50E
  5
B44
331
4D3
  5
90A
331
50A
  5
B40
331
4CF
  5
906
331
506
  5
B3C
331
4CB
  5
8FA
331
502
  5
B39
331
B2A
  5
BAB
331
B96
  5
BC6
331
44E
  5
4A5
331
B92
  5
BCD
331
44A
  5
4A1
331
40F
  5
40F
331
40B
  5
40B
331
BCD
  5
B58
331
485
  5
4D4
331
B8E
  5
BCF
331
446
  5
499
331
3D4
  5
3D4
331
BC9
  5
B5F
331
481
  5
4D0
331
442
  5
495
331
B8A
  5
484
331
4C7
  5
51B
331
4C3
  5
517
331
4FE
  5
B36
331
4BF
  5
50E
331
4FA
  5
B27
331
924
  5
B87
331
4BB
  5
507
331
920
  5
B2B
331
939
  5
B31
331
B1A
  5
BCA
331
B55
  5
447
331
B51
  5
443
331
407
  5
407
331
BC5
  5
B61
331
47D
  5
4CC
331
403
  5
403
331
B86
  5
480
331
BC1
  5
B65
331
479
  5
4C8
331
B82
  5
47C
331
43A
  5
43A
331
3FF
  5
3FF
331
BBD
  5
B69
331
3FB
  5
3FB
331
B7E
  5
474
331
436
  5
436
331
BB9
  5
B70
331
471
  5
4C4
331
B7A
  5
470
331
432
  5
432
331
4F6
  5
B23
331
4B7
  5
4FE
331
4F2
  5
939
331
91C
  5
B1E
331
4B3
  5
4F2
331
4EE
  5
935
331
918
  5
B1A
331
4AF
  5
4EE
331
4EA
  5
931
331
931
  5
B91
331
4AB
  5
4EA
331
910
  5
B1B
331
929
  5
B8D
331
B4D
  5
43F
331
B49
  5
B47
331
B41
  5
B5B
331
3F7
  5
3F7
331
BB5
  5
B99
331
46D
  5
4C0
331
3F3
  5
3F3
331
B76
  5
46C
331
42E
  5
42E
331
BB1
  5
B9F
331
469
  5
4BC
331
3EF
  5
3EF
331
B72
  5
467
331
42A
  5
42A
331
BAD
  5
BA8
331
465
  5
4BA
331
3EB
  5
3EB
331
B6E
  5
460
331
426
  5
426
331
BA9
  5
BAF
331
461
  5
4B8
331
B6A
  5
45C
331
422
  5
422
331
4E6
  5
929
331
4A7
  5
4E6
331
4E2
  5
920
331
4A3
  5
4E2
331
4DE
  5
91C
331
49F
  5
4DE
331
51D
  5
B83
331
4DA
  5
918
331
519
  5
B7B
331
B35
  5
B96
331
B31
  5
BA2
331
3E7
  5
3E7
331
BA5
  5
BB1
331
45D
  5
4B4
331
3E3
  5
3E3
331
B66
  5
458
331
41E
  5
41E
331
BA1
  5
BB8
331
459
  5
4B0
331
3DF
  5
3DF
331
B62
  5
454
331
41A
  5
41A
331
B9D
  5
BBA
331
455
  5
4AC
331
3DB
  5
3DB
331
B5E
  5
450
331
416
  5
416
331
B99
  5
BBE
331
451
  5
4A8
331
B5A
  5
44C
331
412
  5
412
331
BD0
  5
B4C
331
4D6
  5
910
331
497
  5
4DA
331
50D
  5
B43
331
8FC
  5
B33
331
4D2
  5
909
331
4CE
  5
8FE
331
509
  5
B3F
331
48F
  5
4D7
331
4CA
  5
58E
331
B29
  5
BAA
331
B25
  5
BB6
  0
XRECORD
  5
BD7
102
{ACAD_REACTORS
330
BD5
102
}
330
BD5
100
AcDbXrecord
280
     1
 70
     2
  0
XRECORD
  5
BD6
102
{ACAD_REACTORS
330
BD5
102
}
330
BD5
100
AcDbXrecord
280
     1
 40
1.25
  0
XRECORD
  5
BD8
102
{ACAD_REACTORS
330
BD5
102
}
330
BD5
100
AcDbXrecord
280
     1
 40
1.570796326794896
  0
LAYOUT
  5
6E
102
{ACAD_XDICTIONARY
360
C0C
102
}
102
{ACAD_REACTORS
330
61
102
}
330
61
100
AcDbPlotSettings
  1

  2
none_device
  4
Letter_(8.50_x_11.00_Inches)
  6

 40
6.349999904632568
 41
6.349999904632568
 42
6.350006103515625
 43
6.350006103515625
 44
215.8999938964844
 45
279.3999938964844
 46
0.0
 47
0.0
 48
0.0
 49
0.0
140
0.0
141
0.0
142
1.0
143
69.21521712971702
 70
 11952
 72
     0
 73
     1
 74
     0
  7

 75
     0
147
0.0144476899946133
148
-31930.65770050762
149
-8986.721025982353
100
AcDbLayout
  1
Model
 70
     1
 71
     0
 10
0.0
 20
0.0
 11
12.0
 21
9.0
 12
0.0
 22
0.0
 32
0.0
 14
0.0
 24
0.0
 34
0.0
 15
0.0
 25
0.0
 35
0.0
146
0.0
 13
0.0
 23
0.0
 33
0.0
 16
1.0
 26
0.0
 36
0.0
 17
0.0
 27
1.0
 37
0.0
 76
     0
330
6B
331
8B
1001
ACAD_PSEXT
1000
なし
1000
なし
1000
適切ではありません
1000
新しいプロッタ環境設定名を選択しない限り、レイアウトは印刷されません。
1070
     0
  0
LAYOUT
  5
6A
102
{ACAD_XDICTIONARY
360
C0A
102
}
102
{ACAD_REACTORS
330
61
102
}
330
61
100
AcDbPlotSettings
  1

  2
FX DP 205
  4

  6

 40
0.0
 41
0.0
 42
0.0
 43
0.0
 44
0.0
 45
0.0
 46
0.0
 47
0.0
 48
0.0
 49
0.0
140
0.0
141
0.0
142
1.0
143
1.0
 70
   688
 72
     0
 73
     0
 74
     5
  7

 75
    16
147
1.0
148
0.0
149
0.0
100
AcDbLayout
  1
レイアウト1
 70
     1
 71
     1
 10
0.0
 20
0.0
 11
12.0
 21
9.0
 12
0.0
 22
0.0
 32
0.0
 14
1.000000000000000E+20
 24
1.000000000000000E+20
 34
1.000000000000000E+20
 15
-1.000000000000000E+20
 25
-1.000000000000000E+20
 35
-1.000000000000000E+20
146
0.0
 13
0.0
 23
0.0
 33
0.0
 16
1.0
 26
0.0
 36
0.0
 17
0.0
 27
1.0
 37
0.0
 76
     0
330
67
  0
MATERIAL
  5
19
102
{ACAD_XDICTIONARY
360
1A
102
}
102
{ACAD_REACTORS
330
10
102
}
330
10
100
AcDbMaterial
  1
ByBlock
 72
     0
 43
0.0208333333333333
 43
0.0
 43
0.0
 43
0.0
 43
0.0
 43
0.0208333333333333
 43
0.0
 43
0.0
 43
0.0
 43
0.0
 43
1.0
 43
0.0
 43
0.0
 43
0.0
 43
0.0
 43
1.0
 77
     0
 47
0.0208333333333333
 47
0.0
 47
0.0
 47
0.0
 47
0.0
 47
0.0208333333333333
 47
0.0
 47
0.0
 47
0.0
 47
0.0
 47
1.0
 47
0.0
 47
0.0
 47
0.0
 47
0.0
 47
1.0
171
     0
 49
0.0208333333333333
 49
0.0
 49
0.0
 49
0.0
 49
0.0
 49
0.0208333333333333
 49
0.0
 49
0.0
 49
0.0
 49
0.0
 49
1.0
 49
0.0
 49
0.0
 49
0.0
 49
0.0
 49
1.0
175
     0
142
0.0208333333333333
142
0.0
142
0.0
142
0.0
142
0.0
142
0.0208333333333333
142
0.0
142
0.0
142
0.0
142
0.0
142
1.0
142
0.0
142
0.0
142
0.0
142
0.0
142
1.0
179
     0
144
0.0208333333333333
144
0.0
144
0.0
144
0.0
144
0.0
144
0.0208333333333333
144
0.0
144
0.0
144
0.0
144
0.0
144
1.0
144
0.0
144
0.0
144
0.0
144
0.0
144
1.0
147
0.0208333333333333
147
0.0
147
0.0
147
0.0
147
0.0
147
0.0208333333333333
147
0.0
147
0.0
147
0.0
147
0.0
147
1.0
147
0.0
147
0.0
147
0.0
147
0.0
147
1.0
  0
MATERIAL
  5
11
102
{ACAD_XDICTIONARY
360
12
102
}
102
{ACAD_REACTORS
330
10
102
}
330
10
100
AcDbMaterial
  1
ByLayer
 72
     0
 43
0.0208333333333333
 43
0.0
 43
0.0
 43
0.0
 43
0.0
 43
0.0208333333333333
 43
0.0
 43
0.0
 43
0.0
 43
0.0
 43
1.0
 43
0.0
 43
0.0
 43
0.0
 43
0.0
 43
1.0
 77
     0
 47
0.0208333333333333
 47
0.0
 47
0.0
 47
0.0
 47
0.0
 47
0.0208333333333333
 47
0.0
 47
0.0
 47
0.0
 47
0.0
 47
1.0
 47
0.0
 47
0.0
 47
0.0
 47
0.0
 47
1.0
171
     0
 49
0.0208333333333333
 49
0.0
 49
0.0
 49
0.0
 49
0.0
 49
0.0208333333333333
 49
0.0
 49
0.0
 49
0.0
 49
0.0
 49
1.0
 49
0.0
 49
0.0
 49
0.0
 49
0.0
 49
1.0
175
     0
142
0.0208333333333333
142
0.0
142
0.0
142
0.0
142
0.0
142
0.0208333333333333
142
0.0
142
0.0
142
0.0
142
0.0
142
1.0
142
0.0
142
0.0
142
0.0
142
0.0
142
1.0
179
     0
144
0.0208333333333333
144
0.0
144
0.0
144
0.0
144
0.0
144
0.0208333333333333
144
0.0
144
0.0
144
0.0
144
0.0
144
1.0
144
0.0
144
0.0
144
0.0
144
0.0
144
1.0
147
0.0208333333333333
147
0.0
147
0.0
147
0.0
147
0.0
147
0.0208333333333333
147
0.0
147
0.0
147
0.0
147
0.0
147
1.0
147
0.0
147
0.0
147
0.0
147
0.0
147
1.0
  0
MATERIAL
  5
21
102
{ACAD_XDICTIONARY
360
22
102
}
102
{ACAD_REACTORS
330
10
102
}
330
10
100
AcDbMaterial
  1
Global
 72
     0
 43
0.0208333333333333
 43
0.0
 43
0.0
 43
0.0
 43
0.0
 43
0.0208333333333333
 43
0.0
 43
0.0
 43
0.0
 43
0.0
 43
1.0
 43
0.0
 43
0.0
 43
0.0
 43
0.0
 43
1.0
 77
     0
 47
0.0208333333333333
 47
0.0
 47
0.0
 47
0.0
 47
0.0
 47
0.0208333333333333
 47
0.0
 47
0.0
 47
0.0
 47
0.0
 47
1.0
 47
0.0
 47
0.0
 47
0.0
 47
0.0
 47
1.0
171
     0
 49
0.0208333333333333
 49
0.0
 49
0.0
 49
0.0
 49
0.0
 49
0.0208333333333333
 49
0.0
 49
0.0
 49
0.0
 49
0.0
 49
1.0
 49
0.0
 49
0.0
 49
0.0
 49
0.0
 49
1.0
175
     0
142
0.0208333333333333
142
0.0
142
0.0
142
0.0
142
0.0
142
0.0208333333333333
142
0.0
142
0.0
142
0.0
142
0.0
142
1.0
142
0.0
142
0.0
142
0.0
142
0.0
142
1.0
179
     0
144
0.0208333333333333
144
0.0
144
0.0
144
0.0
144
0.0
144
0.0208333333333333
144
0.0
144
0.0
144
0.0
144
0.0
144
1.0
144
0.0
144
0.0
144
0.0
144
0.0
144
1.0
147
0.0208333333333333
147
0.0
147
0.0
147
0.0
147
0.0
147
0.0208333333333333
147
0.0
147
0.0
147
0.0
147
0.0
147
1.0
147
0.0
147
0.0
147
0.0
147
0.0
147
1.0
  0
MLEADERSTYLE
  5
66
102
{ACAD_REACTORS
330
65
102
}
330
65
100
AcDbMLeaderStyle
170
     2
171
     1
172
     0
 90
        2
 40
0.0
 41
0.0
173
     1
 91
-1056964608
340
5A
 92
       -2
290
     1
 42
0.09
291
     1
 43
0.36
  3
Standard
 44
0.18
300

342
55
174
     1
178
     6
175
     1
176
     0
 93
-1056964608
 45
0.18
292
     0
297
     0
 46
0.18
 94
-1056964608
 47
1.0
 49
1.0
140
1.0
293
     1
141
0.0
294
     1
177
     0
142
1.0
295
     0
296
     0
143
0.125
1001
ACAD_MLEADERVER
1070
     2
  0
MLINESTYLE
  5
5F
102
{ACAD_REACTORS
330
5E
102
}
330
5E
100
AcDbMlineStyle
  2
STANDARD
 70
     0
  3

 62
   256
 51
90.0
 52
90.0
 71
     2
 49
0.5
 62
   256
  6
BYLAYER
 49
-0.5
 62
   256
  6
BYLAYER
  0
ACDBPLACEHOLDER
  5
F
102
{ACAD_REACTORS
330
E
102
}
330
E
  0
SCALE
  5
43
102
{ACAD_REACTORS
330
42
102
}
330
42
100
AcDbScale
 70
     0
300
1:1
140
1.0
141
1.0
290
     1
  0
SCALE
  5
44
102
{ACAD_REACTORS
330
42
102
}
330
42
100
AcDbScale
 70
     0
300
1/128" = 1'-0"
140
0.0078125
141
12.0
290
     0
  0
SCALE
  5
45
102
{ACAD_REACTORS
330
42
102
}
330
42
100
AcDbScale
 70
     0
300
1/64" = 1'-0"
140
0.015625
141
12.0
290
     0
  0
SCALE
  5
46
102
{ACAD_REACTORS
330
42
102
}
330
42
100
AcDbScale
 70
     0
300
1/32" = 1'-0"
140
0.03125
141
12.0
290
     0
  0
SCALE
  5
47
102
{ACAD_REACTORS
330
42
102
}
330
42
100
AcDbScale
 70
     0
300
1/16" = 1'-0"
140
0.0625
141
12.0
290
     0
  0
SCALE
  5
48
102
{ACAD_REACTORS
330
42
102
}
330
42
100
AcDbScale
 70
     0
300
3/32" = 1'-0"
140
0.09375
141
12.0
290
     0
  0
SCALE
  5
49
102
{ACAD_REACTORS
330
42
102
}
330
42
100
AcDbScale
 70
     0
300
1/8" = 1'-0"
140
0.125
141
12.0
290
     0
  0
SCALE
  5
4A
102
{ACAD_REACTORS
330
42
102
}
330
42
100
AcDbScale
 70
     0
300
3/16" = 1'-0"
140
0.1875
141
12.0
290
     0
  0
SCALE
  5
4B
102
{ACAD_REACTORS
330
42
102
}
330
42
100
AcDbScale
 70
     0
300
1/4" = 1'-0"
140
0.25
141
12.0
290
     0
  0
SCALE
  5
4C
102
{ACAD_REACTORS
330
42
102
}
330
42
100
AcDbScale
 70
     0
300
3/8" = 1'-0"
140
0.375
141
12.0
290
     0
  0
SCALE
  5
4D
102
{ACAD_REACTORS
330
42
102
}
330
42
100
AcDbScale
 70
     0
300
1/2" = 1'-0"
140
0.5
141
12.0
290
     0
  0
SCALE
  5
4E
102
{ACAD_REACTORS
330
42
102
}
330
42
100
AcDbScale
 70
     0
300
3/4" = 1'-0"
140
0.75
141
12.0
290
     0
  0
SCALE
  5
4F
102
{ACAD_REACTORS
330
42
102
}
330
42
100
AcDbScale
 70
     0
300
1" = 1'-0"
140
1.0
141
12.0
290
     0
  0
SCALE
  5
50
102
{ACAD_REACTORS
330
42
102
}
330
42
100
AcDbScale
 70
     0
300
1-1/2" = 1'-0"
140
1.5
141
12.0
290
     0
  0
SCALE
  5
51
102
{ACAD_REACTORS
330
42
102
}
330
42
100
AcDbScale
 70
     0
300
3" = 1'-0"
140
3.0
141
12.0
290
     0
  0
SCALE
  5
52
102
{ACAD_REACTORS
330
42
102
}
330
42
100
AcDbScale
 70
     0
300
6" = 1'-0"
140
6.0
141
12.0
290
     0
  0
SCALE
  5
53
102
{ACAD_REACTORS
330
42
102
}
330
42
100
AcDbScale
 70
     0
300
1'-0" = 1'-0"
140
12.0
141
12.0
290
     0
  0
TABLESTYLE
  5
64
102
{ACAD_XDICTIONARY
360
64F
102
}
102
{ACAD_REACTORS
330
63
102
}
330
63
100
AcDbTableStyle
  3
Standard
 70
     0
 71
     0
 40
0.06
 41
0.06
280
     0
281
     0
  7
STANDARD
140
0.18
170
     2
 62
     0
 63
     7
283
     0
274
    -2
284
     1
 64
     0
275
    -2
285
     1
 65
     0
276
    -2
286
     1
 66
     0
277
    -2
287
     1
 67
     0
278
    -2
288
     1
 68
     0
279
    -2
289
     1
 69
     0
  7
STANDARD
140
0.25
170
     5
 62
     0
 63
     7
283
     0
274
    -2
284
     1
 64
     0
275
    -2
285
     1
 65
     0
276
    -2
286
     1
 66
     0
277
    -2
287
     1
 67
     0
278
    -2
288
     1
 68
     0
279
    -2
289
     1
 69
     0
  7
STANDARD
140
0.18
170
     5
 62
     0
 63
     7
283
     0
274
    -2
284
     1
 64
     0
275
    -2
285
     1
 65
     0
276
    -2
286
     1
 66
     0
277
    -2
287
     1
 67
     0
278
    -2
288
     1
 68
     0
279
    -2
289
     1
 69
     0
  0
VISUALSTYLE
  5
2F
102
{ACAD_XDICTIONARY
360
BE3
102
}
102
{ACAD_REACTORS
330
29
102
}
330
29
100
AcDbVisualStyle
  2

 70
     4
 71
     0
 72
     2
 73
     0
 90
        0
 40
-0.6
 41
-30.0
 62
     5
 63
     7
 74
     1
 91
        4
 64
     7
 65
   257
 75
     1
175
     1
 42
1.0
 92
        0
 66
   257
 43
1.0
 76
     1
 77
     6
 78
     2
 67
     7
 79
     5
170
     0
171
     0
290
     0
174
     0
 93
        1
 44
0.0
173
     0
291
     0
 45
0.0
1001
ACAD
1000
AcDbSavedByObjectVersion
1070
     0
  0
VISUALSTYLE
  5
74D
102
{ACAD_XDICTIONARY
360
C0E
102
}
102
{ACAD_REACTORS
330
29
102
}
330
29
100
AcDbVisualStyle
  2

 70
     5
 71
     0
 72
     2
 73
     1
 90
        0
 40
-0.6
 41
-30.0
 62
     5
 63
     7
 74
     1
 91
        4
 64
     7
 65
   257
 75
     1
175
     1
 42
1.0
 92
        0
 66
   257
 43
1.0
 76
     1
 77
     6
 78
     2
 67
     7
 79
     5
170
     0
171
     0
290
     0
174
     0
 93
        1
 44
0.0
173
     0
291
     0
 45
0.0
1001
ACAD
1000
AcDbSavedByObjectVersion
1070
     0
  0
VISUALSTYLE
  5
2E
102
{ACAD_XDICTIONARY
360
BE1
102
}
102
{ACAD_REACTORS
330
29
102
}
330
29
100
AcDbVisualStyle
  2

 70
     7
 71
     1
 72
     0
 73
     1
 90
        0
 40
-0.6
 41
-30.0
 62
     5
 63
     7
 74
     0
 91
        4
 64
     7
 65
   257
 75
     1
175
     1
 42
1.0
 92
        8
 66
     7
 43
1.0
 76
     1
 77
     6
 78
     2
 67
     7
 79
     5
170
     0
171
     0
290
     0
174
     0
 93
        1
 44
0.0
173
     0
291
     1
 45
0.0
1001
ACAD
1000
AcDbSavedByObjectVersion
1070
     0
  0
VISUALSTYLE
  5
35
102
{ACAD_XDICTIONARY
360
BEF
102
}
102
{ACAD_REACTORS
330
29
102
}
330
29
100
AcDbVisualStyle
  2

 70
    12
 71
     2
 72
     2
 73
     0
 90
        0
 40
-0.6
 41
-30.0
 62
     5
 63
     7
 74
     1
 91
        4
 64
     7
 65
   257
 75
     1
175
     1
 42
1.0
 92
        8
 66
     7
 43
1.0
 76
     1
 77
     6
 78
     2
 67
     7
 79
     5
170
     0
171
     0
290
     0
174
     0
 93
        1
 44
50.0
173
     0
291
     1
 45
0.0
1001
ACAD
1000
AcDbSavedByObjectVersion
1070
     0
  0
VISUALSTYLE
  5
39
102
{ACAD_XDICTIONARY
360
BF7
102
}
102
{ACAD_REACTORS
330
29
102
}
330
29
100
AcDbVisualStyle
  2

 70
    16
 71
     2
 72
     2
 73
     3
 90
        0
 40
-0.6
 41
-30.0
 62
     5
 63
     8
 74
     1
 91
        4
 64
     7
 65
   257
 75
     1
175
     1
 42
1.0
 92
        8
 66
     8
 43
1.0
 76
     1
 77
     6
 78
     2
 67
     7
 79
     5
170
     0
171
     0
290
     0
174
     0
 93
        1
 44
0.0
173
     0
291
     1
 45
0.0
1001
ACAD
1000
AcDbSavedByObjectVersion
1070
     0
  0
VISUALSTYLE
  5
32
102
{ACAD_XDICTIONARY
360
BE9
102
}
102
{ACAD_REACTORS
330
29
102
}
330
29
100
AcDbVisualStyle
  2

 70
     9
 71
     3
 72
     2
 73
     0
 90
        0
 40
-0.6
 41
-30.0
 62
     5
 63
     7
 74
     2
 91
        2
 64
     7
 65
   257
 75
     1
175
     1
 42
179.0
 92
        8
 66
     7
 43
1.0
 76
     1
 77
     6
 78
     2
 67
     7
 79
     3
170
     0
171
     0
290
     0
174
     0
 93
        1
 44
0.0
173
     0
291
     0
 45
0.0
1001
ACAD
1000
AcDbSavedByObjectVersion
1070
     0
  0
VISUALSTYLE
  5
34
102
{ACAD_XDICTIONARY
360
BED
102
}
102
{ACAD_REACTORS
330
29
102
}
330
29
100
AcDbVisualStyle
  2

 70
    11
 71
     2
 72
     2
 73
     0
 90
        0
 40
-0.6
 41
-30.0
 62
     5
 63
     7
 74
     1
 91
        4
 64
     7
 65
   257
 75
     1
175
     1
 42
1.0
 92
        8
 66
     7
 43
1.0
 76
     1
 77
     6
 78
     2
 67
     7
 79
     5
170
     0
171
     0
290
     0
174
     0
 93
        1
 44
-50.0
173
     0
291
     1
 45
0.0
1001
ACAD
1000
AcDbSavedByObjectVersion
1070
     0
  0
VISUALSTYLE
  5
41
102
{ACAD_XDICTIONARY
360
C07
102
}
102
{ACAD_REACTORS
330
29
102
}
330
29
100
AcDbVisualStyle
  2

 70
    22
 71
     2
 72
     2
 73
     0
 90
        0
 40
-0.6
 41
-30.0
 62
     5
 63
     7
 74
     1
 91
        4
 64
     7
 65
   257
 75
     1
175
     1
 42
1.0
 92
        8
 66
     7
 43
1.0
 76
     1
 77
     6
 78
     2
 67
     7
 79
     5
170
     0
171
     0
290
     0
174
     0
 93
        1
 44
0.0
173
     0
291
     1
 45
0.0
1001
ACAD
1000
AcDbSavedByObjectVersion
1070
     0
  0
VISUALSTYLE
  5
38
102
{ACAD_XDICTIONARY
360
BF5
102
}
102
{ACAD_REACTORS
330
29
102
}
330
29
100
AcDbVisualStyle
  2

 70
    15
 71
     2
 72
     2
 73
     0
 90
        0
 40
-0.6
 41
-30.0
 62
     5
 63
     7
 74
     1
 91
        4
 64
     7
 65
   257
 75
     1
175
     1
 42
1.0
 92
        8
 66
     7
 43
1.0
 76
     1
 77
     6
 78
     2
 67
     7
 79
     5
170
     0
171
     0
290
     0
174
     0
 93
        1
 44
0.0
173
     0
291
     1
 45
0.0
1001
ACAD
1000
AcDbSavedByObjectVersion
1070
     0
  0
VISUALSTYLE
  5
2A
102
{ACAD_XDICTIONARY
360
BD9
102
}
102
{ACAD_REACTORS
330
29
102
}
330
29
100
AcDbVisualStyle
  2

 70
     0
 71
     2
 72
     1
 73
     1
 90
        2
 40
-0.6
 41
30.0
 62
     5
 63
     7
 74
     0
 91
        0
 64
     7
 65
   257
 75
     1
175
     1
 42
1.0
 92
        8
 66
     7
 43
1.0
 76
     1
 77
     6
 78
     2
 67
     7
 79
     5
170
     0
171
     0
290
     0
174
     0
 93
       13
 44
0.0
173
     0
291
     1
 45
0.0
1001
ACAD
1000
AcDbSavedByObjectVersion
1070
     0
  0
VISUALSTYLE
  5
2B
102
{ACAD_XDICTIONARY
360
BDB
102
}
102
{ACAD_REACTORS
330
29
102
}
330
29
100
AcDbVisualStyle
  2

 70
     1
 71
     2
 72
     1
 73
     1
 90
        2
 40
-0.6
 41
30.0
 62
     5
 63
     7
 74
     1
 91
        0
 64
     7
 65
   257
 75
     1
175
     1
 42
1.0
 92
        0
 66
   257
 43
1.0
 76
     1
 77
     6
 78
     2
 67
     7
 79
     5
170
     0
171
     0
290
     0
174
     0
 93
       13
 44
0.0
173
     0
291
     1
 45
0.0
1001
ACAD
1000
AcDbSavedByObjectVersion
1070
     0
  0
VISUALSTYLE
  5
2C
102
{ACAD_XDICTIONARY
360
BDD
102
}
102
{ACAD_REACTORS
330
29
102
}
330
29
100
AcDbVisualStyle
  2

 70
     2
 71
     2
 72
     2
 73
     1
 90
        2
 40
-0.6
 41
30.0
 62
     5
 63
     7
 74
     0
 91
        0
 64
     7
 65
   257
 75
     1
175
     1
 42
1.0
 92
        0
 66
     7
 43
1.0
 76
     1
 77
     6
 78
     2
 67
     7
 79
     5
170
     0
171
     0
290
     0
174
     0
 93
       13
 44
0.0
173
     0
291
     1
 45
0.0
1001
ACAD
1000
AcDbSavedByObjectVersion
1070
     0
  0
VISUALSTYLE
  5
2D
102
{ACAD_XDICTIONARY
360
BDF
102
}
102
{ACAD_REACTORS
330
29
102
}
330
29
100
AcDbVisualStyle
  2

 70
     3
 71
     2
 72
     2
 73
     1
 90
        2
 40
-0.6
 41
30.0
 62
     5
 63
     7
 74
     1
 91
        0
 64
     7
 65
   257
 75
     1
175
     1
 42
1.0
 92
        0
 66
   257
 43
1.0
 76
     1
 77
     6
 78
     2
 67
     7
 79
     5
170
     0
171
     0
290
     0
174
     0
 93
       13
 44
0.0
173
     0
291
     1
 45
0.0
1001
ACAD
1000
AcDbSavedByObjectVersion
1070
     0
  0
VISUALSTYLE
  5
31
102
{ACAD_XDICTIONARY
360
BE7
102
}
102
{ACAD_REACTORS
330
29
102
}
330
29
100
AcDbVisualStyle
  2

 70
     6
 71
     1
 72
     2
 73
     2
 90
        0
 40
-0.6
 41
-30.0
 62
     5
 63
     7
 74
     2
 91
        2
 64
     7
 65
   257
 75
     2
175
     1
 42
40.0
 92
        0
 66
   257
 43
1.0
 76
     1
 77
     6
 78
     2
 67
     7
 79
     3
170
     0
171
     0
290
     0
174
     0
 93
        1
 44
0.0
173
     0
291
     0
 45
0.0
1001
ACAD
1000
AcDbSavedByObjectVersion
1070
     0
  0
VISUALSTYLE
  5
3F
102
{ACAD_XDICTIONARY
360
C03
102
}
102
{ACAD_REACTORS
330
29
102
}
330
29
100
AcDbVisualStyle
  2

 70
    20
 71
     2
 72
     2
 73
     0
 90
        0
 40
-0.6
 41
-30.0
 62
     5
 63
     7
 74
     1
 91
        4
 64
     7
 65
   257
 75
     1
175
     1
 42
1.0
 92
       10
 66
     7
 43
1.0
 76
     1
 77
     6
 78
     2
 67
     7
 79
     5
170
     0
171
     0
290
     0
174
     0
 93
        1
 44
0.0
173
     0
291
     1
 45
0.0
1001
ACAD
1000
AcDbSavedByObjectVersion
1070
     0
  0
VISUALSTYLE
  5
37
102
{ACAD_XDICTIONARY
360
BF3
102
}
102
{ACAD_REACTORS
330
29
102
}
330
29
100
AcDbVisualStyle
  2

 70
    14
 71
     2
 72
     2
 73
     0
 90
        0
 40
-0.6
 41
-30.0
 62
     5
 63
     7
 74
     1
 91
        4
 64
     7
 65
   257
 75
     7
175
     7
 42
1.0
 92
        8
 66
     7
 43
1.0
 76
     1
 77
     6
 78
     2
 67
     7
 79
     5
170
     0
171
     0
290
     0
174
     0
 93
        1
 44
0.0
173
     0
291
     1
 45
0.0
1001
ACAD
1000
AcDbSavedByObjectVersion
1070
     0
  0
VISUALSTYLE
  5
40
102
{ACAD_XDICTIONARY
360
C05
102
}
102
{ACAD_REACTORS
330
29
102
}
330
29
100
AcDbVisualStyle
  2

 70
    21
 71
     2
 72
     2
 73
     0
 90
        0
 40
-0.6
 41
-30.0
 62
     5
 63
     7
 74
     1
 91
        4
 64
     7
 65
   257
 75
     1
175
     1
 42
1.0
 92
        9
 66
     7
 43
1.0
 76
     1
 77
     6
 78
     2
 67
     7
 79
     5
170
     0
171
     0
290
     0
174
     0
 93
        1
 44
0.0
173
     0
291
     1
 45
0.0
1001
ACAD
1000
AcDbSavedByObjectVersion
1070
     0
  0
VISUALSTYLE
  5
33
102
{ACAD_XDICTIONARY
360
BEB
102
}
102
{ACAD_REACTORS
330
29
102
}
330
29
100
AcDbVisualStyle
  2

 70
     8
 71
     2
 72
     3
 73
     0
 90
        2
 40
-0.6
 41
30.0
 62
     5
 63
     7
 74
     0
 91
        0
 64
     7
 65
   257
 75
     1
175
     1
 42
1.0
 92
        8
 66
   257
 43
1.0
 76
     1
 77
     6
 78
     2
 67
     7
 79
     3
170
     0
171
     0
290
     0
174
     0
 93
       13
 44
0.0
173
     0
291
     0
 45
0.0
1001
ACAD
1000
AcDbSavedByObjectVersion
1070
     0
  0
VISUALSTYLE
  5
3E
102
{ACAD_XDICTIONARY
360
C01
102
}
102
{ACAD_REACTORS
330
29
102
}
330
29
100
AcDbVisualStyle
  2

 70
    27
 71
     2
 72
     2
 73
     1
 90
        2
 40
-0.6
 41
30.0
 62
     5
 63
     7
 74
     0
 91
        4
 64
     7
 65
   257
 75
     1
175
     1
 42
1.0
 92
        8
 66
   257
 43
1.0
 76
     1
 77
     6
 78
     2
 67
     8
 79
     3
170
     0
171
     0
290
     0
174
     0
 93
        5
 44
0.0
173
     0
291
     0
 45
0.0
1001
ACAD
1000
AcDbSavedByObjectVersion
1070
     0
  0
VISUALSTYLE
  5
3D
102
{ACAD_XDICTIONARY
360
BFF
102
}
102
{ACAD_REACTORS
330
29
102
}
330
29
100
AcDbVisualStyle
  2

 70
    26
 71
     2
 72
     2
 73
     1
 90
        2
 40
-0.6
 41
30.0
 62
     5
 63
     7
 74
     1
 91
       10
 64
     7
 65
   257
 75
     2
175
     1
 42
1.0
 92
        8
 66
   257
 43
1.0
 76
     1
 77
     6
 78
     2
 67
     7
 79
     3
170
     0
171
     0
290
     0
174
     0
 93
        5
 44
0.0
173
     0
291
     0
 45
0.0
1001
ACAD
1000
AcDbSavedByObjectVersion
1070
     0
  0
VISUALSTYLE
  5
3A
102
{ACAD_XDICTIONARY
360
BF9
102
}
102
{ACAD_REACTORS
330
29
102
}
330
29
100
AcDbVisualStyle
  2

 70
    23
 71
     2
 72
     2
 73
     3
 90
        0
 40
-0.6
 41
-30.0
 62
     5
 63
     7
 74
     2
 91
        2
 64
     7
 65
     7
 75
     1
175
     1
 42
40.0
 92
        8
 66
     7
 43
1.0
 76
     1
 77
     6
 78
     2
 67
     7
 79
     3
170
     0
171
     0
290
     0
174
     0
 93
        1
 44
0.0
173
     0
291
     0
 45
0.0
1001
ACAD
1000
AcDbSavedByObjectVersion
1070
     0
  0
VISUALSTYLE
  5
3B
102
{ACAD_XDICTIONARY
360
BFB
102
}
102
{ACAD_REACTORS
330
29
102
}
330
29
100
AcDbVisualStyle
  2

 70
    24
 71
     1
 72
     2
 73
     2
 90
        0
 40
-0.6
 41
-30.0
 62
     5
 63
     7
 74
     2
 91
        2
 64
     7
 65
     7
 75
     1
175
     1
 42
40.0
 92
       11
 66
     7
 43
1.0
 76
     1
 77
     6
 78
     2
 67
     7
 79
     6
170
     0
171
     0
290
     0
174
     0
 93
        1
 44
0.0
173
     0
291
     0
 45
0.0
1001
ACAD
1000
AcDbSavedByObjectVersion
1070
     0
  0
VISUALSTYLE
  5
36
102
{ACAD_XDICTIONARY
360
BF1
102
}
102
{ACAD_REACTORS
330
29
102
}
330
29
100
AcDbVisualStyle
  2

 70
    13
 71
     2
 72
     2
 73
     0
 90
        0
 40
-0.6
 41
-30.0
 62
     5
 63
     7
 74
     1
 91
        4
 64
     7
 65
   257
 75
     1
175
     1
 42
1.0
 92
       12
 66
     7
 43
1.0
 76
     1
 77
     6
 78
     2
 67
     7
 79
     5
170
     0
171
     0
290
     0
174
     0
 93
        1
 44
0.0
173
     0
291
     1
 45
0.0
1001
ACAD
1000
AcDbSavedByObjectVersion
1070
     0
  0
VISUALSTYLE
  5
30
102
{ACAD_XDICTIONARY
360
BE5
102
}
102
{ACAD_REACTORS
330
29
102
}
330
29
100
AcDbVisualStyle
  2

 70
     5
 71
     0
 72
     2
 73
     0
 90
        0
 40
-0.6
 41
-30.0
 62
     5
 63
     7
 74
     1
 91
        4
 64
     7
 65
   257
 75
     1
175
     1
 42
1.0
 92
        0
 66
   257
 43
1.0
 76
     1
 77
     6
 78
     2
 67
     7
 79
     3
170
     0
171
     0
290
     0
174
     0
 93
        1
 44
0.0
173
     0
291
     0
 45
0.0
1001
ACAD
1000
AcDbSavedByObjectVersion
1070
     0
  0
VISUALSTYLE
  5
3C
102
{ACAD_XDICTIONARY
360
BFD
102
}
102
{ACAD_REACTORS
330
29
102
}
330
29
100
AcDbVisualStyle
  2

 70
    25
 71
     2
 72
     2
 73
     1
 90
        1
 40
0.5
 41
-30.0
 62
     5
 63
     7
 74
     1
 91
        0
 64
     7
 65
   257
 75
     1
175
     1
 42
1.0
 92
        8
 66
     7
 43
1.0
 76
     1
 77
     6
 78
     2
 67
     7
 79
     3
170
     0
171
     0
290
     0
174
     0
 93
       13
 44
0.0
173
     0
291
     0
 45
0.0
1001
ACAD
1000
AcDbSavedByObjectVersion
1070
     0
  0
DICTIONARYVAR
  5
64A
102
{ACAD_REACTORS
330
647
102
}
330
647
100
DictionaryVariables
280
     0
  1
1:1
  0
DICTIONARYVAR
  5
649
102
{ACAD_REACTORS
330
647
102
}
330
647
100
DictionaryVariables
280
     0
  1
STANDARD
  0
DICTIONARYVAR
  5
648
102
{ACAD_REACTORS
330
647
102
}
330
647
100
DictionaryVariables
280
     0
  1
STANDARD
  0
DICTIONARYVAR
  5
64D
102
{ACAD_REACTORS
330
647
102
}
330
647
100
DictionaryVariables
280
     0
  1
1
  0
DICTIONARYVAR
  5
64C
102
{ACAD_REACTORS
330
647
102
}
330
647
100
DictionaryVariables
280
     0
  1
0
  0
DICTIONARYVAR
  5
64B
102
{ACAD_REACTORS
330
647
102
}
330
647
100
DictionaryVariables
280
     0
  1
127
  0
DICTIONARYVAR
  5
A93
102
{ACAD_REACTORS
330
647
102
}
330
647
100
DictionaryVariables
280
     0
  1
2
  0
DICTIONARY
  5
C0C
330
6E
100
AcDbDictionary
280
     1
281
     1
  3
ACAD_XREC_ROUNDTRIP
360
C0D
  0
DICTIONARY
  5
C0A
330
6A
100
AcDbDictionary
280
     1
281
     1
  3
ACAD_XREC_ROUNDTRIP
360
C0B
  0
DICTIONARY
  5
1A
330
19
100
AcDbDictionary
280
     1
281
     1
  3
ACAD_XREC_ROUNDTRIP
360
654
  3
BUMPTILE
360
1C
  3
DIFFUSETILE
360
1B
  3
OPACITYTILE
360
1F
  3
REFLECTIONTILE
360
1E
  3
REFRACTIONTILE
360
20
  3
SPECULARTILE
360
1D
  0
DICTIONARY
  5
12
330
11
100
AcDbDictionary
280
     1
281
     1
  3
ACAD_XREC_ROUNDTRIP
360
653
  3
BUMPTILE
360
14
  3
DIFFUSETILE
360
13
  3
OPACITYTILE
360
17
  3
REFLECTIONTILE
360
16
  3
REFRACTIONTILE
360
18
  3
SPECULARTILE
360
15
  0
DICTIONARY
  5
22
330
21
100
AcDbDictionary
280
     1
281
     1
  3
ACAD_XREC_ROUNDTRIP
360
655
  3
BUMPTILE
360
24
  3
DIFFUSETILE
360
23
  3
OPACITYTILE
360
27
  3
REFLECTIONTILE
360
26
  3
REFRACTIONTILE
360
28
  3
SPECULARTILE
360
25
  0
DICTIONARY
  5
64F
330
64
100
AcDbDictionary
280
     1
281
     1
  3
ACAD_ROUNDTRIP_2008_TABLESTYLE_CELLSTYLEMAP
360
BD2
  3
ACAD_XREC_ROUNDTRIP
360
C09
  0
DICTIONARY
  5
BE3
330
2F
100
AcDbDictionary
280
     1
281
     1
  3
ACAD_XREC_ROUNDTRIP
360
BE4
  0
DICTIONARY
  5
C0E
330
74D
100
AcDbDictionary
280
     1
281
     1
  3
ACAD_XREC_ROUNDTRIP
360
C0F
  0
DICTIONARY
  5
BE1
330
2E
100
AcDbDictionary
280
     1
281
     1
  3
ACAD_XREC_ROUNDTRIP
360
BE2
  0
DICTIONARY
  5
BEF
330
35
100
AcDbDictionary
280
     1
281
     1
  3
ACAD_XREC_ROUNDTRIP
360
BF0
  0
DICTIONARY
  5
BF7
330
39
100
AcDbDictionary
280
     1
281
     1
  3
ACAD_XREC_ROUNDTRIP
360
BF8
  0
DICTIONARY
  5
BE9
330
32
100
AcDbDictionary
280
     1
281
     1
  3
ACAD_XREC_ROUNDTRIP
360
BEA
  0
DICTIONARY
  5
BED
330
34
100
AcDbDictionary
280
     1
281
     1
  3
ACAD_XREC_ROUNDTRIP
360
BEE
  0
DICTIONARY
  5
C07
330
41
100
AcDbDictionary
280
     1
281
     1
  3
ACAD_XREC_ROUNDTRIP
360
C08
  0
DICTIONARY
  5
BF5
330
38
100
AcDbDictionary
280
     1
281
     1
  3
ACAD_XREC_ROUNDTRIP
360
BF6
  0
DICTIONARY
  5
BD9
330
2A
100
AcDbDictionary
280
     1
281
     1
  3
ACAD_XREC_ROUNDTRIP
360
BDA
  0
DICTIONARY
  5
BDB
330
2B
100
AcDbDictionary
280
     1
281
     1
  3
ACAD_XREC_ROUNDTRIP
360
BDC
  0
DICTIONARY
  5
BDD
330
2C
100
AcDbDictionary
280
     1
281
     1
  3
ACAD_XREC_ROUNDTRIP
360
BDE
  0
DICTIONARY
  5
BDF
330
2D
100
AcDbDictionary
280
     1
281
     1
  3
ACAD_XREC_ROUNDTRIP
360
BE0
  0
DICTIONARY
  5
BE7
330
31
100
AcDbDictionary
280
     1
281
     1
  3
ACAD_XREC_ROUNDTRIP
360
BE8
  0
DICTIONARY
  5
C03
330
3F
100
AcDbDictionary
280
     1
281
     1
  3
ACAD_XREC_ROUNDTRIP
360
C04
  0
DICTIONARY
  5
BF3
330
37
100
AcDbDictionary
280
     1
281
     1
  3
ACAD_XREC_ROUNDTRIP
360
BF4
  0
DICTIONARY
  5
C05
330
40
100
AcDbDictionary
280
     1
281
     1
  3
ACAD_XREC_ROUNDTRIP
360
C06
  0
DICTIONARY
  5
BEB
330
33
100
AcDbDictionary
280
     1
281
     1
  3
ACAD_XREC_ROUNDTRIP
360
BEC
  0
DICTIONARY
  5
C01
330
3E
100
AcDbDictionary
280
     1
281
     1
  3
ACAD_XREC_ROUNDTRIP
360
C02
  0
DICTIONARY
  5
BFF
330
3D
100
AcDbDictionary
280
     1
281
     1
  3
ACAD_XREC_ROUNDTRIP
360
C00
  0
DICTIONARY
  5
BF9
330
3A
100
AcDbDictionary
280
     1
281
     1
  3
ACAD_XREC_ROUNDTRIP
360
BFA
  0
DICTIONARY
  5
BFB
330
3B
100
AcDbDictionary
280
     1
281
     1
  3
ACAD_XREC_ROUNDTRIP
360
BFC
  0
DICTIONARY
  5
BF1
330
36
100
AcDbDictionary
280
     1
281
     1
  3
ACAD_XREC_ROUNDTRIP
360
BF2
  0
DICTIONARY
  5
BE5
330
30
100
AcDbDictionary
280
     1
281
     1
  3
ACAD_XREC_ROUNDTRIP
360
BE6
  0
DICTIONARY
  5
BFD
330
3C
100
AcDbDictionary
280
     1
281
     1
  3
ACAD_XREC_ROUNDTRIP
360
BFE
  0
XRECORD
  5
C0D
102
{ACAD_REACTORS
330
C0C
102
}
330
C0C
100
AcDbXrecord
280
     1
102
SHADEPLOT
 70
     0
102
SHADEPLOTRESLEVEL
 70
     2
102
SHADEPLOTCUSTOMDPI
 70
   300
  0
XRECORD
  5
C0B
102
{ACAD_REACTORS
330
C0A
102
}
330
C0A
100
AcDbXrecord
280
     1
102
SHADEPLOT
 70
     0
102
SHADEPLOTRESLEVEL
 70
     2
102
SHADEPLOTCUSTOMDPI
 70
   300
  0
XRECORD
  5
654
102
{ACAD_REACTORS
330
1A
102
}
330
1A
100
AcDbXrecord
280
     1
102
MATERIAL
148
0.0
149
0.0
149
0.0
 93
        0
 94
      127
282
     0
 72
     0
 77
     0
171
     0
175
     0
179
     0
273
     0
  0
XRECORD
  5
1C
102
{ACAD_REACTORS
330
1A
102
}
330
1A
100
AcDbXrecord
280
     1
270
     1
271
     1
  0
XRECORD
  5
1B
102
{ACAD_REACTORS
330
1A
102
}
330
1A
100
AcDbXrecord
280
     1
270
     1
271
     1
  0
XRECORD
  5
1F
102
{ACAD_REACTORS
330
1A
102
}
330
1A
100
AcDbXrecord
280
     1
270
     1
271
     1
  0
XRECORD
  5
1E
102
{ACAD_REACTORS
330
1A
102
}
330
1A
100
AcDbXrecord
280
     1
270
     1
271
     1
  0
XRECORD
  5
20
102
{ACAD_REACTORS
330
1A
102
}
330
1A
100
AcDbXrecord
280
     1
270
     1
271
     1
  0
XRECORD
  5
1D
102
{ACAD_REACTORS
330
1A
102
}
330
1A
100
AcDbXrecord
280
     1
270
     1
271
     1
  0
XRECORD
  5
653
102
{ACAD_REACTORS
330
12
102
}
330
12
100
AcDbXrecord
280
     1
102
MATERIAL
148
0.0
149
0.0
149
0.0
 93
        0
 94
      127
282
     0
 72
     0
 77
     0
171
     0
175
     0
179
     0
273
     0
  0
XRECORD
  5
14
102
{ACAD_REACTORS
330
12
102
}
330
12
100
AcDbXrecord
280
     1
270
     1
271
     1
  0
XRECORD
  5
13
102
{ACAD_REACTORS
330
12
102
}
330
12
100
AcDbXrecord
280
     1
270
     1
271
     1
  0
XRECORD
  5
17
102
{ACAD_REACTORS
330
12
102
}
330
12
100
AcDbXrecord
280
     1
270
     1
271
     1
  0
XRECORD
  5
16
102
{ACAD_REACTORS
330
12
102
}
330
12
100
AcDbXrecord
280
     1
270
     1
271
     1
  0
XRECORD
  5
18
102
{ACAD_REACTORS
330
12
102
}
330
12
100
AcDbXrecord
280
     1
270
     1
271
     1
  0
XRECORD
  5
15
102
{ACAD_REACTORS
330
12
102
}
330
12
100
AcDbXrecord
280
     1
270
     1
271
     1
  0
XRECORD
  5
655
102
{ACAD_REACTORS
330
22
102
}
330
22
100
AcDbXrecord
280
     1
102
MATERIAL
148
0.0
149
0.0
149
0.0
 93
        0
 94
      127
282
     0
 72
     0
 77
     0
171
     0
175
     0
179
     0
273
     0
  0
XRECORD
  5
24
102
{ACAD_REACTORS
330
22
102
}
330
22
100
AcDbXrecord
280
     1
270
     1
271
     1
  0
XRECORD
  5
23
102
{ACAD_REACTORS
330
22
102
}
330
22
100
AcDbXrecord
280
     1
270
     1
271
     1
  0
XRECORD
  5
27
102
{ACAD_REACTORS
330
22
102
}
330
22
100
AcDbXrecord
280
     1
270
     1
271
     1
  0
XRECORD
  5
26
102
{ACAD_REACTORS
330
22
102
}
330
22
100
AcDbXrecord
280
     1
270
     1
271
     1
  0
XRECORD
  5
28
102
{ACAD_REACTORS
330
22
102
}
330
22
100
AcDbXrecord
280
     1
270
     1
271
     1
  0
XRECORD
  5
25
102
{ACAD_REACTORS
330
22
102
}
330
22
100
AcDbXrecord
280
     1
270
     1
271
     1
  0
CELLSTYLEMAP
  5
BD2
102
{ACAD_REACTORS
330
64F
102
}
330
64F
100
AcDbCellStyleMap
 90
        3
300
CELLSTYLE
  1
TABLEFORMAT_BEGIN
 90
        5
170
     1
 91
        0
 92
    32768
 62
   257
 93
        1
300
CONTENTFORMAT
  1
CONTENTFORMAT_BEGIN
 90
        0
 91
        0
 92
      512
 93
        0
300

 40
0.0
140
1.0
 94
        5
 62
     0
340
55
144
0.25
309
CONTENTFORMAT_END
171
     1
301
MARGIN
  1
CELLMARGIN_BEGIN
 40
0.06
 40
0.06
 40
0.06
 40
0.06
 40
0.18
 40
0.18
309
CELLMARGIN_END
 94
        6
 95
        1
302
GRIDFORMAT
  1
GRIDFORMAT_BEGIN
 90
        0
 91
        1
 62
     0
 92
       -2
340
0
 93
        0
 40
0.045
309
GRIDFORMAT_END
 95
        2
302
GRIDFORMAT
  1
GRIDFORMAT_BEGIN
 90
        0
 91
        1
 62
     0
 92
       -2
340
0
 93
        0
 40
0.045
309
GRIDFORMAT_END
 95
        4
302
GRIDFORMAT
  1
GRIDFORMAT_BEGIN
 90
        0
 91
        1
 62
     0
 92
       -2
340
0
 93
        0
 40
0.045
309
GRIDFORMAT_END
 95
        8
302
GRIDFORMAT
  1
GRIDFORMAT_BEGIN
 90
        0
 91
        1
 62
     0
 92
       -2
340
0
 93
        0
 40
0.045
309
GRIDFORMAT_END
 95
       16
302
GRIDFORMAT
  1
GRIDFORMAT_BEGIN
 90
        0
 91
        1
 62
     0
 92
       -2
340
0
 93
        0
 40
0.045
309
GRIDFORMAT_END
 95
       32
302
GRIDFORMAT
  1
GRIDFORMAT_BEGIN
 90
        0
 91
        1
 62
     0
 92
       -2
340
0
 93
        0
 40
0.045
309
GRIDFORMAT_END
309
TABLEFORMAT_END
  1
CELLSTYLE_BEGIN
 90
        1
 91
        1
300
_TITLE
309
CELLSTYLE_END
300
CELLSTYLE
  1
TABLEFORMAT_BEGIN
 90
        5
170
     1
 91
        0
 92
        0
 62
   257
 93
        1
300
CONTENTFORMAT
  1
CONTENTFORMAT_BEGIN
 90
        0
 91
        0
 92
      512
 93
        0
300

 40
0.0
140
1.0
 94
        5
 62
     0
340
55
144
0.18
309
CONTENTFORMAT_END
171
     1
301
MARGIN
  1
CELLMARGIN_BEGIN
 40
0.06
 40
0.06
 40
0.06
 40
0.06
 40
0.18
 40
0.18
309
CELLMARGIN_END
 94
        6
 95
        1
302
GRIDFORMAT
  1
GRIDFORMAT_BEGIN
 90
        0
 91
        1
 62
     0
 92
       -2
340
0
 93
        0
 40
0.045
309
GRIDFORMAT_END
 95
        2
302
GRIDFORMAT
  1
GRIDFORMAT_BEGIN
 90
        0
 91
        1
 62
     0
 92
       -2
340
0
 93
        0
 40
0.045
309
GRIDFORMAT_END
 95
        4
302
GRIDFORMAT
  1
GRIDFORMAT_BEGIN
 90
        0
 91
        1
 62
     0
 92
       -2
340
0
 93
        0
 40
0.045
309
GRIDFORMAT_END
 95
        8
302
GRIDFORMAT
  1
GRIDFORMAT_BEGIN
 90
        0
 91
        1
 62
     0
 92
       -2
340
0
 93
        0
 40
0.045
309
GRIDFORMAT_END
 95
       16
302
GRIDFORMAT
  1
GRIDFORMAT_BEGIN
 90
        0
 91
        1
 62
     0
 92
       -2
340
0
 93
        0
 40
0.045
309
GRIDFORMAT_END
 95
       32
302
GRIDFORMAT
  1
GRIDFORMAT_BEGIN
 90
        0
 91
        1
 62
     0
 92
       -2
340
0
 93
        0
 40
0.045
309
GRIDFORMAT_END
309
TABLEFORMAT_END
  1
CELLSTYLE_BEGIN
 90
        2
 91
        1
300
_HEADER
309
CELLSTYLE_END
300
CELLSTYLE
  1
TABLEFORMAT_BEGIN
 90
        5
170
     1
 91
        0
 92
        0
 62
   257
 93
        1
300
CONTENTFORMAT
  1
CONTENTFORMAT_BEGIN
 90
        0
 91
        0
 92
      512
 93
        0
300

 40
0.0
140
1.0
 94
        2
 62
     0
340
55
144
0.18
309
CONTENTFORMAT_END
171
     1
301
MARGIN
  1
CELLMARGIN_BEGIN
 40
0.06
 40
0.06
 40
0.06
 40
0.06
 40
0.18
 40
0.18
309
CELLMARGIN_END
 94
        6
 95
        1
302
GRIDFORMAT
  1
GRIDFORMAT_BEGIN
 90
        0
 91
        1
 62
     0
 92
       -2
340
0
 93
        0
 40
0.045
309
GRIDFORMAT_END
 95
        2
302
GRIDFORMAT
  1
GRIDFORMAT_BEGIN
 90
        0
 91
        1
 62
     0
 92
       -2
340
0
 93
        0
 40
0.045
309
GRIDFORMAT_END
 95
        4
302
GRIDFORMAT
  1
GRIDFORMAT_BEGIN
 90
        0
 91
        1
 62
     0
 92
       -2
340
0
 93
        0
 40
0.045
309
GRIDFORMAT_END
 95
        8
302
GRIDFORMAT
  1
GRIDFORMAT_BEGIN
 90
        0
 91
        1
 62
     0
 92
       -2
340
0
 93
        0
 40
0.045
309
GRIDFORMAT_END
 95
       16
302
GRIDFORMAT
  1
GRIDFORMAT_BEGIN
 90
        0
 91
        1
 62
     0
 92
       -2
340
0
 93
        0
 40
0.045
309
GRIDFORMAT_END
 95
       32
302
GRIDFORMAT
  1
GRIDFORMAT_BEGIN
 90
        0
 91
        1
 62
     0
 92
       -2
340
0
 93
        0
 40
0.045
309
GRIDFORMAT_END
309
TABLEFORMAT_END
  1
CELLSTYLE_BEGIN
 90
        3
 91
        2
300
_DATA
309
CELLSTYLE_END
  0
XRECORD
  5
C09
102
{ACAD_REACTORS
330
64F
102
}
330
64F
100
AcDbXrecord
280
     1
102
ACAD_ROUNDTRIP_PRE2007_TABLESTYLE
 90
      512
 91
        0
  1

 92
      512
 93
        0
  2

 94
      512
 95
        0
  3

  0
XRECORD
  5
BE4
102
{ACAD_REACTORS
330
BE3
102
}
330
BE3
100
AcDbXrecord
280
     1
102
RTVSPropertyOp0
 70
     1
102
RTVSPropertyOp1
 70
     1
102
RTVSPropertyOp2
 70
     1
102
RTVSPropertyOp3
 70
     1
102
RTVSPropertyOp4
 70
     1
102
RTVSPropertyOp5
 70
     1
102
RTVSPropertyOp6
 70
     1
102
RTVSPropertyOp7
 70
     1
102
RTVSPropertyOp8
 70
     1
102
RTVSPropertyOp9
 70
     1
102
RTVSPropertyOp10
 70
     1
102
RTVSPropertyOp11
 70
     1
102
RTVSPropertyOp12
 70
     1
102
RTVSPropertyOp13
 70
     1
102
RTVSPropertyOp14
 70
     1
102
RTVSPropertyOp15
 70
     1
102
RTVSPropertyOp16
 70
     1
102
RTVSPropertyOp17
 70
     1
102
RTVSPropertyOp18
 70
     1
102
RTVSPropertyOp19
 70
     1
102
RTVSPropertyOp20
 70
     1
102
RTVSPropertyOp21
 70
     1
102
RTVSPropertyOp22
 70
     1
102
RTVSPropertyOp23
 70
     1
102
RTVSPropertyOp24
 70
     1
102
RTVSPropertyOp25
 70
     1
102
RTVSPropertyOp26
 70
     1
102
RTVSPropertyOp27
 70
     1
102
RTVSPropertyOp28
 70
     1
102
RTVSPropertyOp29
 70
     1
102
RTVSPropertyOp30
 70
     1
102
RTVSPropertyOp31
 70
     1
102
RTVSPropertyOp32
 70
     1
  0
XRECORD
  5
C0F
102
{ACAD_REACTORS
330
C0E
102
}
330
C0E
100
AcDbXrecord
280
     1
102
RTVSPropertyOp0
 70
     1
102
RTVSPropertyOp1
 70
     1
102
RTVSPropertyOp2
 70
     1
102
RTVSPropertyOp3
 70
     1
102
RTVSPropertyOp4
 70
     1
102
RTVSPropertyOp5
 70
     1
102
RTVSPropertyOp6
 70
     1
102
RTVSPropertyOp7
 70
     1
102
RTVSPropertyOp8
 70
     1
102
RTVSPropertyOp9
 70
     1
102
RTVSPropertyOp10
 70
     1
102
RTVSPropertyOp11
 70
     1
102
RTVSPropertyOp12
 70
     1
102
RTVSPropertyOp13
 70
     1
102
RTVSPropertyOp14
 70
     1
102
RTVSPropertyOp15
 70
     1
102
RTVSPropertyOp16
 70
     1
102
RTVSPropertyOp17
 70
     1
102
RTVSPropertyOp18
 70
     1
102
RTVSPropertyOp19
 70
     1
102
RTVSPropertyOp20
 70
     1
102
RTVSPropertyOp21
 70
     1
102
RTVSPropertyOp22
 70
     1
102
RTVSPropertyOp23
 70
     1
102
RTVSPropertyOp24
 70
     1
102
RTVSPropertyOp25
 70
     1
102
RTVSPropertyOp26
 70
     1
102
RTVSPropertyOp27
 70
     1
102
RTVSPropertyOp28
 70
     1
102
RTVSPropertyOp29
 70
     1
102
RTVSPropertyOp30
 70
     1
102
RTVSPropertyOp31
 70
     1
102
RTVSPropertyOp32
 70
     1
  0
XRECORD
  5
BE2
102
{ACAD_REACTORS
330
BE1
102
}
330
BE1
100
AcDbXrecord
280
     1
102
RTVSPropertyOp0
 70
     1
102
RTVSPropertyOp1
 70
     1
102
RTVSPropertyOp2
 70
     1
102
RTVSPropertyOp3
 70
     1
102
RTVSPropertyOp4
 70
     1
102
RTVSPropertyOp5
 70
     1
102
RTVSPropertyOp6
 70
     1
102
RTVSPropertyOp7
 70
     1
102
RTVSPropertyOp8
 70
     1
102
RTVSPropertyOp9
 70
     1
102
RTVSPropertyOp10
 70
     1
102
RTVSPropertyOp11
 70
     1
102
RTVSPropertyOp12
 70
     1
102
RTVSPropertyOp13
 70
     1
102
RTVSPropertyOp14
 70
     1
102
RTVSPropertyOp15
 70
     1
102
RTVSPropertyOp16
 70
     1
102
RTVSPropertyOp17
 70
     1
102
RTVSPropertyOp18
 70
     1
102
RTVSPropertyOp19
 70
     1
102
RTVSPropertyOp20
 70
     1
102
RTVSPropertyOp21
 70
     1
102
RTVSPropertyOp22
 70
     1
102
RTVSPropertyOp23
 70
     1
102
RTVSPropertyOp24
 70
     1
102
RTVSPropertyOp25
 70
     1
102
RTVSPropertyOp26
 70
     1
102
RTVSPropertyOp27
 70
     1
102
RTVSPropertyOp28
 70
     1
102
RTVSPropertyOp29
 70
     1
102
RTVSPropertyOp30
 70
     1
102
RTVSPropertyOp31
 70
     1
102
RTVSPropertyOp32
 70
     1
  0
XRECORD
  5
BF0
102
{ACAD_REACTORS
330
BEF
102
}
330
BEF
100
AcDbXrecord
280
     1
102
RTVSPropertyOp0
 70
     1
102
RTVSPropertyOp1
 70
     1
102
RTVSPropertyOp2
 70
     1
102
RTVSPropertyOp3
 70
     1
102
RTVSPropertyOp4
 70
     1
102
RTVSPropertyOp5
 70
     1
102
RTVSPropertyOp6
 70
     1
102
RTVSPropertyOp7
 70
     1
102
RTVSPropertyOp8
 70
     1
102
RTVSPropertyOp9
 70
     1
102
RTVSPropertyOp10
 70
     1
102
RTVSPropertyOp11
 70
     1
102
RTVSPropertyOp12
 70
     1
102
RTVSPropertyOp13
 70
     1
102
RTVSPropertyOp14
 70
     1
102
RTVSPropertyOp15
 70
     1
102
RTVSPropertyOp16
 70
     1
102
RTVSPropertyOp17
 70
     1
102
RTVSPropertyOp18
 70
     1
102
RTVSPropertyOp19
 70
     1
102
RTVSPropertyOp20
 70
     1
102
RTVSPropertyOp21
 70
     1
102
RTVSPropertyOp22
 70
     1
102
RTVSPropertyOp23
 70
     1
102
RTVSPropertyOp24
 70
     1
102
RTVSPropertyOp25
 70
     1
102
RTVSPropertyOp26
 70
     1
102
RTVSPropertyOp27
 70
     1
102
RTVSPropertyOp28
 70
     1
102
RTVSPropertyOp29
 70
     1
102
RTVSPropertyOp30
 70
     1
102
RTVSPropertyOp31
 70
     1
102
RTVSPropertyOp32
 70
     1
  0
XRECORD
  5
BF8
102
{ACAD_REACTORS
330
BF7
102
}
330
BF7
100
AcDbXrecord
280
     1
102
RTVSPropertyOp0
 70
     1
102
RTVSPropertyOp1
 70
     1
102
RTVSPropertyOp2
 70
     1
102
RTVSPropertyOp3
 70
     1
102
RTVSPropertyOp4
 70
     1
102
RTVSPropertyOp5
 70
     1
102
RTVSPropertyOp6
 70
     1
102
RTVSPropertyOp7
 70
     1
102
RTVSPropertyOp8
 70
     1
102
RTVSPropertyOp9
 70
     1
102
RTVSPropertyOp10
 70
     1
102
RTVSPropertyOp11
 70
     1
102
RTVSPropertyOp12
 70
     1
102
RTVSPropertyOp13
 70
     1
102
RTVSPropertyOp14
 70
     1
102
RTVSPropertyOp15
 70
     1
102
RTVSPropertyOp16
 70
     1
102
RTVSPropertyOp17
 70
     1
102
RTVSPropertyOp18
 70
     1
102
RTVSPropertyOp19
 70
     1
102
RTVSPropertyOp20
 70
     1
102
RTVSPropertyOp21
 70
     1
102
RTVSPropertyOp22
 70
     1
102
RTVSPropertyOp23
 70
     1
102
RTVSPropertyOp24
 70
     1
102
RTVSPropertyOp25
 70
     1
102
RTVSPropertyOp26
 70
     1
102
RTVSPropertyOp27
 70
     1
102
RTVSPropertyOp28
 70
     1
102
RTVSPropertyOp29
 70
     1
102
RTVSPropertyOp30
 70
     1
102
RTVSPropertyOp31
 70
     1
102
RTVSPropertyOp32
 70
     1
  0
XRECORD
  5
BEA
102
{ACAD_REACTORS
330
BE9
102
}
330
BE9
100
AcDbXrecord
280
     1
102
RTVSPropertyOp0
 70
     1
102
RTVSPropertyOp1
 70
     1
102
RTVSPropertyOp2
 70
     1
102
RTVSPropertyOp3
 70
     1
102
RTVSPropertyOp4
 70
     1
102
RTVSPropertyOp5
 70
     1
102
RTVSPropertyOp6
 70
     1
102
RTVSPropertyOp7
 70
     1
102
RTVSPropertyOp8
 70
     1
102
RTVSPropertyOp9
 70
     1
102
RTVSPropertyOp10
 70
     1
102
RTVSPropertyOp11
 70
     1
102
RTVSPropertyOp12
 70
     1
102
RTVSPropertyOp13
 70
     1
102
RTVSPropertyOp14
 70
     1
102
RTVSPropertyOp15
 70
     1
102
RTVSPropertyOp16
 70
     1
102
RTVSPropertyOp17
 70
     1
102
RTVSPropertyOp18
 70
     1
102
RTVSPropertyOp19
 70
     1
102
RTVSPropertyOp20
 70
     1
102
RTVSPropertyOp21
 70
     1
102
RTVSPropertyOp22
 70
     1
102
RTVSPropertyOp23
 70
     1
102
RTVSPropertyOp24
 70
     1
102
RTVSPropertyOp25
 70
     1
102
RTVSPropertyOp26
 70
     1
102
RTVSPropertyOp27
 70
     1
102
RTVSPropertyOp28
 70
     1
102
RTVSPropertyOp29
 70
     1
102
RTVSPropertyOp30
 70
     1
102
RTVSPropertyOp31
 70
     1
102
RTVSPropertyOp32
 70
     1
  0
XRECORD
  5
BEE
102
{ACAD_REACTORS
330
BED
102
}
330
BED
100
AcDbXrecord
280
     1
102
RTVSPropertyOp0
 70
     1
102
RTVSPropertyOp1
 70
     1
102
RTVSPropertyOp2
 70
     1
102
RTVSPropertyOp3
 70
     1
102
RTVSPropertyOp4
 70
     1
102
RTVSPropertyOp5
 70
     1
102
RTVSPropertyOp6
 70
     1
102
RTVSPropertyOp7
 70
     1
102
RTVSPropertyOp8
 70
     1
102
RTVSPropertyOp9
 70
     1
102
RTVSPropertyOp10
 70
     1
102
RTVSPropertyOp11
 70
     1
102
RTVSPropertyOp12
 70
     1
102
RTVSPropertyOp13
 70
     1
102
RTVSPropertyOp14
 70
     1
102
RTVSPropertyOp15
 70
     1
102
RTVSPropertyOp16
 70
     1
102
RTVSPropertyOp17
 70
     1
102
RTVSPropertyOp18
 70
     1
102
RTVSPropertyOp19
 70
     1
102
RTVSPropertyOp20
 70
     1
102
RTVSPropertyOp21
 70
     1
102
RTVSPropertyOp22
 70
     1
102
RTVSPropertyOp23
 70
     1
102
RTVSPropertyOp24
 70
     1
102
RTVSPropertyOp25
 70
     1
102
RTVSPropertyOp26
 70
     1
102
RTVSPropertyOp27
 70
     1
102
RTVSPropertyOp28
 70
     1
102
RTVSPropertyOp29
 70
     1
102
RTVSPropertyOp30
 70
     1
102
RTVSPropertyOp31
 70
     1
102
RTVSPropertyOp32
 70
     1
  0
XRECORD
  5
C08
102
{ACAD_REACTORS
330
C07
102
}
330
C07
100
AcDbXrecord
280
     1
102
RTVSPropertyOp0
 70
     0
102
RTVSPropertyOp1
 70
     0
102
RTVSPropertyOp2
 70
     0
102
RTVSPropertyOp3
 70
     0
102
RTVSPropertyOp4
 70
     0
102
RTVSPropertyOp5
 70
     0
102
RTVSPropertyOp6
 70
     0
102
RTVSPropertyOp7
 70
     0
102
RTVSPropertyOp8
 70
     0
102
RTVSPropertyOp9
 70
     0
102
RTVSPropertyOp10
 70
     0
102
RTVSPropertyOp11
 70
     0
102
RTVSPropertyOp12
 70
     0
102
RTVSPropertyOp13
 70
     0
102
RTVSPropertyOp14
 70
     2
102
RTVSPropertyOp15
 70
     0
102
RTVSPropertyOp16
 70
     0
102
RTVSPropertyOp17
 70
     0
102
RTVSPropertyOp18
 70
     0
102
RTVSPropertyOp19
 70
     0
102
RTVSPropertyOp20
 70
     0
102
RTVSPropertyOp21
 70
     0
102
RTVSPropertyOp22
 70
     0
102
RTVSPropertyOp23
 70
     0
102
RTVSPropertyOp24
 70
     0
102
RTVSPropertyOp25
 70
     0
102
RTVSPropertyOp26
 70
     0
102
RTVSPropertyOp27
 70
     0
102
RTVSPropertyOp28
 70
     0
102
RTVSPropertyOp29
 70
     0
102
RTVSPropertyOp30
 70
     0
102
RTVSPropertyOp31
 70
     0
102
RTVSPropertyOp32
 70
     0
  0
XRECORD
  5
BF6
102
{ACAD_REACTORS
330
BF5
102
}
330
BF5
100
AcDbXrecord
280
     1
102
RTVSPropertyOp0
 70
     1
102
RTVSPropertyOp1
 70
     1
102
RTVSPropertyOp2
 70
     1
102
RTVSPropertyOp3
 70
     1
102
RTVSPropertyOp4
 70
     1
102
RTVSPropertyOp5
 70
     1
102
RTVSPropertyOp6
 70
     1
102
RTVSPropertyOp7
 70
     1
102
RTVSPropertyOp8
 70
     1
102
RTVSPropertyOp9
 70
     1
102
RTVSPropertyOp10
 70
     1
102
RTVSPropertyOp11
 70
     1
102
RTVSPropertyOp12
 70
     1
102
RTVSPropertyOp13
 70
     1
102
RTVSPropertyOp14
 70
     1
102
RTVSPropertyOp15
 70
     1
102
RTVSPropertyOp16
 70
     1
102
RTVSPropertyOp17
 70
     1
102
RTVSPropertyOp18
 70
     1
102
RTVSPropertyOp19
 70
     1
102
RTVSPropertyOp20
 70
     1
102
RTVSPropertyOp21
 70
     1
102
RTVSPropertyOp22
 70
     1
102
RTVSPropertyOp23
 70
     1
102
RTVSPropertyOp24
 70
     1
102
RTVSPropertyOp25
 70
     1
102
RTVSPropertyOp26
 70
     1
102
RTVSPropertyOp27
 70
     1
102
RTVSPropertyOp28
 70
     1
102
RTVSPropertyOp29
 70
     1
102
RTVSPropertyOp30
 70
     1
102
RTVSPropertyOp31
 70
     1
102
RTVSPropertyOp32
 70
     1
  0
XRECORD
  5
BDA
102
{ACAD_REACTORS
330
BD9
102
}
330
BD9
100
AcDbXrecord
280
     1
102
RTVSPropertyOp0
 70
     1
102
RTVSPropertyOp1
 70
     1
102
RTVSPropertyOp2
 70
     1
102
RTVSPropertyOp3
 70
     1
102
RTVSPropertyOp4
 70
     1
102
RTVSPropertyOp5
 70
     1
102
RTVSPropertyOp6
 70
     1
102
RTVSPropertyOp7
 70
     1
102
RTVSPropertyOp8
 70
     1
102
RTVSPropertyOp9
 70
     1
102
RTVSPropertyOp10
 70
     1
102
RTVSPropertyOp11
 70
     1
102
RTVSPropertyOp12
 70
     1
102
RTVSPropertyOp13
 70
     1
102
RTVSPropertyOp14
 70
     1
102
RTVSPropertyOp15
 70
     1
102
RTVSPropertyOp16
 70
     1
102
RTVSPropertyOp17
 70
     1
102
RTVSPropertyOp18
 70
     1
102
RTVSPropertyOp19
 70
     1
102
RTVSPropertyOp20
 70
     1
102
RTVSPropertyOp21
 70
     1
102
RTVSPropertyOp22
 70
     1
102
RTVSPropertyOp23
 70
     1
102
RTVSPropertyOp24
 70
     1
102
RTVSPropertyOp25
 70
     1
102
RTVSPropertyOp26
 70
     1
102
RTVSPropertyOp27
 70
     1
102
RTVSPropertyOp28
 70
     1
102
RTVSPropertyOp29
 70
     1
102
RTVSPropertyOp30
 70
     1
102
RTVSPropertyOp31
 70
     1
102
RTVSPropertyOp32
 70
     1
  0
XRECORD
  5
BDC
102
{ACAD_REACTORS
330
BDB
102
}
330
BDB
100
AcDbXrecord
280
     1
102
RTVSPropertyOp0
 70
     1
102
RTVSPropertyOp1
 70
     1
102
RTVSPropertyOp2
 70
     1
102
RTVSPropertyOp3
 70
     1
102
RTVSPropertyOp4
 70
     1
102
RTVSPropertyOp5
 70
     1
102
RTVSPropertyOp6
 70
     1
102
RTVSPropertyOp7
 70
     1
102
RTVSPropertyOp8
 70
     1
102
RTVSPropertyOp9
 70
     1
102
RTVSPropertyOp10
 70
     1
102
RTVSPropertyOp11
 70
     1
102
RTVSPropertyOp12
 70
     1
102
RTVSPropertyOp13
 70
     1
102
RTVSPropertyOp14
 70
     1
102
RTVSPropertyOp15
 70
     1
102
RTVSPropertyOp16
 70
     1
102
RTVSPropertyOp17
 70
     1
102
RTVSPropertyOp18
 70
     1
102
RTVSPropertyOp19
 70
     1
102
RTVSPropertyOp20
 70
     1
102
RTVSPropertyOp21
 70
     1
102
RTVSPropertyOp22
 70
     1
102
RTVSPropertyOp23
 70
     1
102
RTVSPropertyOp24
 70
     1
102
RTVSPropertyOp25
 70
     1
102
RTVSPropertyOp26
 70
     1
102
RTVSPropertyOp27
 70
     1
102
RTVSPropertyOp28
 70
     1
102
RTVSPropertyOp29
 70
     1
102
RTVSPropertyOp30
 70
     1
102
RTVSPropertyOp31
 70
     1
102
RTVSPropertyOp32
 70
     1
  0
XRECORD
  5
BDE
102
{ACAD_REACTORS
330
BDD
102
}
330
BDD
100
AcDbXrecord
280
     1
102
RTVSPropertyOp0
 70
     1
102
RTVSPropertyOp1
 70
     1
102
RTVSPropertyOp2
 70
     1
102
RTVSPropertyOp3
 70
     1
102
RTVSPropertyOp4
 70
     1
102
RTVSPropertyOp5
 70
     1
102
RTVSPropertyOp6
 70
     1
102
RTVSPropertyOp7
 70
     1
102
RTVSPropertyOp8
 70
     1
102
RTVSPropertyOp9
 70
     1
102
RTVSPropertyOp10
 70
     1
102
RTVSPropertyOp11
 70
     1
102
RTVSPropertyOp12
 70
     1
102
RTVSPropertyOp13
 70
     1
102
RTVSPropertyOp14
 70
     1
102
RTVSPropertyOp15
 70
     1
102
RTVSPropertyOp16
 70
     1
102
RTVSPropertyOp17
 70
     1
102
RTVSPropertyOp18
 70
     1
102
RTVSPropertyOp19
 70
     1
102
RTVSPropertyOp20
 70
     1
102
RTVSPropertyOp21
 70
     1
102
RTVSPropertyOp22
 70
     1
102
RTVSPropertyOp23
 70
     1
102
RTVSPropertyOp24
 70
     1
102
RTVSPropertyOp25
 70
     1
102
RTVSPropertyOp26
 70
     1
102
RTVSPropertyOp27
 70
     1
102
RTVSPropertyOp28
 70
     1
102
RTVSPropertyOp29
 70
     1
102
RTVSPropertyOp30
 70
     1
102
RTVSPropertyOp31
 70
     1
102
RTVSPropertyOp32
 70
     1
  0
XRECORD
  5
BE0
102
{ACAD_REACTORS
330
BDF
102
}
330
BDF
100
AcDbXrecord
280
     1
102
RTVSPropertyOp0
 70
     1
102
RTVSPropertyOp1
 70
     1
102
RTVSPropertyOp2
 70
     1
102
RTVSPropertyOp3
 70
     1
102
RTVSPropertyOp4
 70
     1
102
RTVSPropertyOp5
 70
     1
102
RTVSPropertyOp6
 70
     1
102
RTVSPropertyOp7
 70
     1
102
RTVSPropertyOp8
 70
     1
102
RTVSPropertyOp9
 70
     1
102
RTVSPropertyOp10
 70
     1
102
RTVSPropertyOp11
 70
     1
102
RTVSPropertyOp12
 70
     1
102
RTVSPropertyOp13
 70
     1
102
RTVSPropertyOp14
 70
     1
102
RTVSPropertyOp15
 70
     1
102
RTVSPropertyOp16
 70
     1
102
RTVSPropertyOp17
 70
     1
102
RTVSPropertyOp18
 70
     1
102
RTVSPropertyOp19
 70
     1
102
RTVSPropertyOp20
 70
     1
102
RTVSPropertyOp21
 70
     1
102
RTVSPropertyOp22
 70
     1
102
RTVSPropertyOp23
 70
     1
102
RTVSPropertyOp24
 70
     1
102
RTVSPropertyOp25
 70
     1
102
RTVSPropertyOp26
 70
     1
102
RTVSPropertyOp27
 70
     1
102
RTVSPropertyOp28
 70
     1
102
RTVSPropertyOp29
 70
     1
102
RTVSPropertyOp30
 70
     1
102
RTVSPropertyOp31
 70
     1
102
RTVSPropertyOp32
 70
     1
  0
XRECORD
  5
BE8
102
{ACAD_REACTORS
330
BE7
102
}
330
BE7
100
AcDbXrecord
280
     1
102
RTVSPropertyOp0
 70
     1
102
RTVSPropertyOp1
 70
     1
102
RTVSPropertyOp2
 70
     1
102
RTVSPropertyOp3
 70
     1
102
RTVSPropertyOp4
 70
     1
102
RTVSPropertyOp5
 70
     1
102
RTVSPropertyOp6
 70
     1
102
RTVSPropertyOp7
 70
     1
102
RTVSPropertyOp8
 70
     1
102
RTVSPropertyOp9
 70
     1
102
RTVSPropertyOp10
 70
     1
102
RTVSPropertyOp11
 70
     1
102
RTVSPropertyOp12
 70
     1
102
RTVSPropertyOp13
 70
     1
102
RTVSPropertyOp14
 70
     1
102
RTVSPropertyOp15
 70
     1
102
RTVSPropertyOp16
 70
     1
102
RTVSPropertyOp17
 70
     1
102
RTVSPropertyOp18
 70
     1
102
RTVSPropertyOp19
 70
     1
102
RTVSPropertyOp20
 70
     1
102
RTVSPropertyOp21
 70
     1
102
RTVSPropertyOp22
 70
     1
102
RTVSPropertyOp23
 70
     1
102
RTVSPropertyOp24
 70
     1
102
RTVSPropertyOp25
 70
     1
102
RTVSPropertyOp26
 70
     1
102
RTVSPropertyOp27
 70
     1
102
RTVSPropertyOp28
 70
     1
102
RTVSPropertyOp29
 70
     1
102
RTVSPropertyOp30
 70
     1
102
RTVSPropertyOp31
 70
     1
102
RTVSPropertyOp32
 70
     1
  0
XRECORD
  5
C04
102
{ACAD_REACTORS
330
C03
102
}
330
C03
100
AcDbXrecord
280
     1
102
RTVSPropertyOp0
 70
     0
102
RTVSPropertyOp1
 70
     0
102
RTVSPropertyOp2
 70
     0
102
RTVSPropertyOp3
 70
     0
102
RTVSPropertyOp4
 70
     0
102
RTVSPropertyOp5
 70
     0
102
RTVSPropertyOp6
 70
     0
102
RTVSPropertyOp7
 70
     0
102
RTVSPropertyOp8
 70
     0
102
RTVSPropertyOp9
 70
     0
102
RTVSPropertyOp10
 70
     0
102
RTVSPropertyOp11
 70
     0
102
RTVSPropertyOp12
 70
     0
102
RTVSPropertyOp13
 70
     0
102
RTVSPropertyOp14
 70
     2
102
RTVSPropertyOp15
 70
     0
102
RTVSPropertyOp16
 70
     0
102
RTVSPropertyOp17
 70
     0
102
RTVSPropertyOp18
 70
     0
102
RTVSPropertyOp19
 70
     0
102
RTVSPropertyOp20
 70
     0
102
RTVSPropertyOp21
 70
     0
102
RTVSPropertyOp22
 70
     0
102
RTVSPropertyOp23
 70
     0
102
RTVSPropertyOp24
 70
     0
102
RTVSPropertyOp25
 70
     0
102
RTVSPropertyOp26
 70
     0
102
RTVSPropertyOp27
 70
     0
102
RTVSPropertyOp28
 70
     0
102
RTVSPropertyOp29
 70
     0
102
RTVSPropertyOp30
 70
     0
102
RTVSPropertyOp31
 70
     0
102
RTVSPropertyOp32
 70
     0
  0
XRECORD
  5
BF4
102
{ACAD_REACTORS
330
BF3
102
}
330
BF3
100
AcDbXrecord
280
     1
102
RTVSPropertyOp0
 70
     1
102
RTVSPropertyOp1
 70
     1
102
RTVSPropertyOp2
 70
     1
102
RTVSPropertyOp3
 70
     1
102
RTVSPropertyOp4
 70
     1
102
RTVSPropertyOp5
 70
     1
102
RTVSPropertyOp6
 70
     1
102
RTVSPropertyOp7
 70
     1
102
RTVSPropertyOp8
 70
     1
102
RTVSPropertyOp9
 70
     1
102
RTVSPropertyOp10
 70
     1
102
RTVSPropertyOp11
 70
     1
102
RTVSPropertyOp12
 70
     1
102
RTVSPropertyOp13
 70
     1
102
RTVSPropertyOp14
 70
     1
102
RTVSPropertyOp15
 70
     1
102
RTVSPropertyOp16
 70
     1
102
RTVSPropertyOp17
 70
     1
102
RTVSPropertyOp18
 70
     1
102
RTVSPropertyOp19
 70
     1
102
RTVSPropertyOp20
 70
     1
102
RTVSPropertyOp21
 70
     1
102
RTVSPropertyOp22
 70
     1
102
RTVSPropertyOp23
 70
     1
102
RTVSPropertyOp24
 70
     1
102
RTVSPropertyOp25
 70
     1
102
RTVSPropertyOp26
 70
     1
102
RTVSPropertyOp27
 70
     1
102
RTVSPropertyOp28
 70
     1
102
RTVSPropertyOp29
 70
     1
102
RTVSPropertyOp30
 70
     1
102
RTVSPropertyOp31
 70
     1
102
RTVSPropertyOp32
 70
     1
  0
XRECORD
  5
C06
102
{ACAD_REACTORS
330
C05
102
}
330
C05
100
AcDbXrecord
280
     1
102
RTVSPropertyOp0
 70
     0
102
RTVSPropertyOp1
 70
     0
102
RTVSPropertyOp2
 70
     0
102
RTVSPropertyOp3
 70
     0
102
RTVSPropertyOp4
 70
     0
102
RTVSPropertyOp5
 70
     0
102
RTVSPropertyOp6
 70
     0
102
RTVSPropertyOp7
 70
     0
102
RTVSPropertyOp8
 70
     0
102
RTVSPropertyOp9
 70
     0
102
RTVSPropertyOp10
 70
     0
102
RTVSPropertyOp11
 70
     0
102
RTVSPropertyOp12
 70
     0
102
RTVSPropertyOp13
 70
     0
102
RTVSPropertyOp14
 70
     2
102
RTVSPropertyOp15
 70
     0
102
RTVSPropertyOp16
 70
     0
102
RTVSPropertyOp17
 70
     0
102
RTVSPropertyOp18
 70
     0
102
RTVSPropertyOp19
 70
     0
102
RTVSPropertyOp20
 70
     0
102
RTVSPropertyOp21
 70
     0
102
RTVSPropertyOp22
 70
     0
102
RTVSPropertyOp23
 70
     0
102
RTVSPropertyOp24
 70
     0
102
RTVSPropertyOp25
 70
     0
102
RTVSPropertyOp26
 70
     0
102
RTVSPropertyOp27
 70
     0
102
RTVSPropertyOp28
 70
     0
102
RTVSPropertyOp29
 70
     0
102
RTVSPropertyOp30
 70
     0
102
RTVSPropertyOp31
 70
     0
102
RTVSPropertyOp32
 70
     0
  0
XRECORD
  5
BEC
102
{ACAD_REACTORS
330
BEB
102
}
330
BEB
100
AcDbXrecord
280
     1
102
RTVSPropertyOp0
 70
     1
102
RTVSPropertyOp1
 70
     1
102
RTVSPropertyOp2
 70
     1
102
RTVSPropertyOp3
 70
     1
102
RTVSPropertyOp4
 70
     1
102
RTVSPropertyOp5
 70
     1
102
RTVSPropertyOp6
 70
     1
102
RTVSPropertyOp7
 70
     1
102
RTVSPropertyOp8
 70
     1
102
RTVSPropertyOp9
 70
     1
102
RTVSPropertyOp10
 70
     1
102
RTVSPropertyOp11
 70
     1
102
RTVSPropertyOp12
 70
     1
102
RTVSPropertyOp13
 70
     1
102
RTVSPropertyOp14
 70
     1
102
RTVSPropertyOp15
 70
     1
102
RTVSPropertyOp16
 70
     1
102
RTVSPropertyOp17
 70
     1
102
RTVSPropertyOp18
 70
     1
102
RTVSPropertyOp19
 70
     1
102
RTVSPropertyOp20
 70
     1
102
RTVSPropertyOp21
 70
     1
102
RTVSPropertyOp22
 70
     1
102
RTVSPropertyOp23
 70
     1
102
RTVSPropertyOp24
 70
     1
102
RTVSPropertyOp25
 70
     1
102
RTVSPropertyOp26
 70
     1
102
RTVSPropertyOp27
 70
     1
102
RTVSPropertyOp28
 70
     1
102
RTVSPropertyOp29
 70
     1
102
RTVSPropertyOp30
 70
     1
102
RTVSPropertyOp31
 70
     1
102
RTVSPropertyOp32
 70
     1
  0
XRECORD
  5
C02
102
{ACAD_REACTORS
330
C01
102
}
330
C01
100
AcDbXrecord
280
     1
102
RTVSPropertyOp0
 70
     1
102
RTVSPropertyOp1
 70
     1
102
RTVSPropertyOp2
 70
     1
102
RTVSPropertyOp3
 70
     1
102
RTVSPropertyOp4
 70
     1
102
RTVSPropertyOp5
 70
     1
102
RTVSPropertyOp6
 70
     1
102
RTVSPropertyOp7
 70
     1
102
RTVSPropertyOp8
 70
     1
102
RTVSPropertyOp9
 70
     1
102
RTVSPropertyOp10
 70
     1
102
RTVSPropertyOp11
 70
     1
102
RTVSPropertyOp12
 70
     1
102
RTVSPropertyOp13
 70
     1
102
RTVSPropertyOp14
 70
     1
102
RTVSPropertyOp15
 70
     1
102
RTVSPropertyOp16
 70
     1
102
RTVSPropertyOp17
 70
     1
102
RTVSPropertyOp18
 70
     1
102
RTVSPropertyOp19
 70
     1
102
RTVSPropertyOp20
 70
     1
102
RTVSPropertyOp21
 70
     1
102
RTVSPropertyOp22
 70
     1
102
RTVSPropertyOp23
 70
     1
102
RTVSPropertyOp24
 70
     1
102
RTVSPropertyOp25
 70
     1
102
RTVSPropertyOp26
 70
     1
102
RTVSPropertyOp27
 70
     1
102
RTVSPropertyOp28
 70
     1
102
RTVSPropertyOp29
 70
     1
102
RTVSPropertyOp30
 70
     1
102
RTVSPropertyOp31
 70
     1
102
RTVSPropertyOp32
 70
     1
  0
XRECORD
  5
C00
102
{ACAD_REACTORS
330
BFF
102
}
330
BFF
100
AcDbXrecord
280
     1
102
RTVSPropertyOp0
 70
     1
102
RTVSPropertyOp1
 70
     1
102
RTVSPropertyOp2
 70
     1
102
RTVSPropertyOp3
 70
     1
102
RTVSPropertyOp4
 70
     1
102
RTVSPropertyOp5
 70
     1
102
RTVSPropertyOp6
 70
     1
102
RTVSPropertyOp7
 70
     1
102
RTVSPropertyOp8
 70
     1
102
RTVSPropertyOp9
 70
     1
102
RTVSPropertyOp10
 70
     1
102
RTVSPropertyOp11
 70
     1
102
RTVSPropertyOp12
 70
     1
102
RTVSPropertyOp13
 70
     1
102
RTVSPropertyOp14
 70
     1
102
RTVSPropertyOp15
 70
     1
102
RTVSPropertyOp16
 70
     1
102
RTVSPropertyOp17
 70
     1
102
RTVSPropertyOp18
 70
     1
102
RTVSPropertyOp19
 70
     1
102
RTVSPropertyOp20
 70
     1
102
RTVSPropertyOp21
 70
     1
102
RTVSPropertyOp22
 70
     1
102
RTVSPropertyOp23
 70
     1
102
RTVSPropertyOp24
 70
     1
102
RTVSPropertyOp25
 70
     1
102
RTVSPropertyOp26
 70
     1
102
RTVSPropertyOp27
 70
     1
102
RTVSPropertyOp28
 70
     1
102
RTVSPropertyOp29
 70
     1
102
RTVSPropertyOp30
 70
     1
102
RTVSPropertyOp31
 70
     1
102
RTVSPropertyOp32
 70
     1
  0
XRECORD
  5
BFA
102
{ACAD_REACTORS
330
BF9
102
}
330
BF9
100
AcDbXrecord
280
     1
102
RTVSPropertyOp0
 70
     1
102
RTVSPropertyOp1
 70
     1
102
RTVSPropertyOp2
 70
     1
102
RTVSPropertyOp3
 70
     1
102
RTVSPropertyOp4
 70
     1
102
RTVSPropertyOp5
 70
     1
102
RTVSPropertyOp6
 70
     1
102
RTVSPropertyOp7
 70
     1
102
RTVSPropertyOp8
 70
     1
102
RTVSPropertyOp9
 70
     1
102
RTVSPropertyOp10
 70
     1
102
RTVSPropertyOp11
 70
     1
102
RTVSPropertyOp12
 70
     1
102
RTVSPropertyOp13
 70
     1
102
RTVSPropertyOp14
 70
     1
102
RTVSPropertyOp15
 70
     1
102
RTVSPropertyOp16
 70
     1
102
RTVSPropertyOp17
 70
     1
102
RTVSPropertyOp18
 70
     1
102
RTVSPropertyOp19
 70
     1
102
RTVSPropertyOp20
 70
     1
102
RTVSPropertyOp21
 70
     1
102
RTVSPropertyOp22
 70
     1
102
RTVSPropertyOp23
 70
     1
102
RTVSPropertyOp24
 70
     1
102
RTVSPropertyOp25
 70
     1
102
RTVSPropertyOp26
 70
     1
102
RTVSPropertyOp27
 70
     1
102
RTVSPropertyOp28
 70
     1
102
RTVSPropertyOp29
 70
     1
102
RTVSPropertyOp30
 70
     1
102
RTVSPropertyOp31
 70
     1
102
RTVSPropertyOp32
 70
     1
  0
XRECORD
  5
BFC
102
{ACAD_REACTORS
330
BFB
102
}
330
BFB
100
AcDbXrecord
280
     1
102
RTVSPropertyOp0
 70
     1
102
RTVSPropertyOp1
 70
     1
102
RTVSPropertyOp2
 70
     1
102
RTVSPropertyOp3
 70
     1
102
RTVSPropertyOp4
 70
     1
102
RTVSPropertyOp5
 70
     1
102
RTVSPropertyOp6
 70
     1
102
RTVSPropertyOp7
 70
     1
102
RTVSPropertyOp8
 70
     1
102
RTVSPropertyOp9
 70
     1
102
RTVSPropertyOp10
 70
     1
102
RTVSPropertyOp11
 70
     1
102
RTVSPropertyOp12
 70
     1
102
RTVSPropertyOp13
 70
     1
102
RTVSPropertyOp14
 70
     1
102
RTVSPropertyOp15
 70
     1
102
RTVSPropertyOp16
 70
     1
102
RTVSPropertyOp17
 70
     1
102
RTVSPropertyOp18
 70
     1
102
RTVSPropertyOp19
 70
     1
102
RTVSPropertyOp20
 70
     1
102
RTVSPropertyOp21
 70
     1
102
RTVSPropertyOp22
 70
     1
102
RTVSPropertyOp23
 70
     1
102
RTVSPropertyOp24
 70
     1
102
RTVSPropertyOp25
 70
     1
102
RTVSPropertyOp26
 70
     1
102
RTVSPropertyOp27
 70
     1
102
RTVSPropertyOp28
 70
     1
102
RTVSPropertyOp29
 70
     1
102
RTVSPropertyOp30
 70
     1
102
RTVSPropertyOp31
 70
     1
102
RTVSPropertyOp32
 70
     1
  0
XRECORD
  5
BF2
102
{ACAD_REACTORS
330
BF1
102
}
330
BF1
100
AcDbXrecord
280
     1
102
RTVSPropertyOp0
 70
     1
102
RTVSPropertyOp1
 70
     1
102
RTVSPropertyOp2
 70
     1
102
RTVSPropertyOp3
 70
     1
102
RTVSPropertyOp4
 70
     1
102
RTVSPropertyOp5
 70
     1
102
RTVSPropertyOp6
 70
     1
102
RTVSPropertyOp7
 70
     1
102
RTVSPropertyOp8
 70
     1
102
RTVSPropertyOp9
 70
     1
102
RTVSPropertyOp10
 70
     1
102
RTVSPropertyOp11
 70
     1
102
RTVSPropertyOp12
 70
     1
102
RTVSPropertyOp13
 70
     1
102
RTVSPropertyOp14
 70
     1
102
RTVSPropertyOp15
 70
     1
102
RTVSPropertyOp16
 70
     1
102
RTVSPropertyOp17
 70
     1
102
RTVSPropertyOp18
 70
     1
102
RTVSPropertyOp19
 70
     1
102
RTVSPropertyOp20
 70
     1
102
RTVSPropertyOp21
 70
     1
102
RTVSPropertyOp22
 70
     1
102
RTVSPropertyOp23
 70
     1
102
RTVSPropertyOp24
 70
     1
102
RTVSPropertyOp25
 70
     1
102
RTVSPropertyOp26
 70
     1
102
RTVSPropertyOp27
 70
     1
102
RTVSPropertyOp28
 70
     1
102
RTVSPropertyOp29
 70
     1
102
RTVSPropertyOp30
 70
     1
102
RTVSPropertyOp31
 70
     1
102
RTVSPropertyOp32
 70
     1
  0
XRECORD
  5
BE6
102
{ACAD_REACTORS
330
BE5
102
}
330
BE5
100
AcDbXrecord
280
     1
102
RTVSPropertyOp0
 70
     1
102
RTVSPropertyOp1
 70
     1
102
RTVSPropertyOp2
 70
     1
102
RTVSPropertyOp3
 70
     1
102
RTVSPropertyOp4
 70
     1
102
RTVSPropertyOp5
 70
     1
102
RTVSPropertyOp6
 70
     1
102
RTVSPropertyOp7
 70
     1
102
RTVSPropertyOp8
 70
     1
102
RTVSPropertyOp9
 70
     1
102
RTVSPropertyOp10
 70
     1
102
RTVSPropertyOp11
 70
     1
102
RTVSPropertyOp12
 70
     1
102
RTVSPropertyOp13
 70
     1
102
RTVSPropertyOp14
 70
     1
102
RTVSPropertyOp15
 70
     1
102
RTVSPropertyOp16
 70
     1
102
RTVSPropertyOp17
 70
     1
102
RTVSPropertyOp18
 70
     1
102
RTVSPropertyOp19
 70
     1
102
RTVSPropertyOp20
 70
     1
102
RTVSPropertyOp21
 70
     1
102
RTVSPropertyOp22
 70
     1
102
RTVSPropertyOp23
 70
     1
102
RTVSPropertyOp24
 70
     1
102
RTVSPropertyOp25
 70
     1
102
RTVSPropertyOp26
 70
     1
102
RTVSPropertyOp27
 70
     1
102
RTVSPropertyOp28
 70
     1
102
RTVSPropertyOp29
 70
     1
102
RTVSPropertyOp30
 70
     1
102
RTVSPropertyOp31
 70
     1
102
RTVSPropertyOp32
 70
     1
  0
XRECORD
  5
BFE
102
{ACAD_REACTORS
330
BFD
102
}
330
BFD
100
AcDbXrecord
280
     1
102
RTVSPropertyOp0
 70
     1
102
RTVSPropertyOp1
 70
     1
102
RTVSPropertyOp2
 70
     1
102
RTVSPropertyOp3
 70
     1
102
RTVSPropertyOp4
 70
     1
102
RTVSPropertyOp5
 70
     1
102
RTVSPropertyOp6
 70
     1
102
RTVSPropertyOp7
 70
     1
102
RTVSPropertyOp8
 70
     1
102
RTVSPropertyOp9
 70
     1
102
RTVSPropertyOp10
 70
     1
102
RTVSPropertyOp11
 70
     1
102
RTVSPropertyOp12
 70
     1
102
RTVSPropertyOp13
 70
     1
102
RTVSPropertyOp14
 70
     1
102
RTVSPropertyOp15
 70
     1
102
RTVSPropertyOp16
 70
     1
102
RTVSPropertyOp17
 70
     1
102
RTVSPropertyOp18
 70
     1
102
RTVSPropertyOp19
 70
     1
102
RTVSPropertyOp20
 70
     1
102
RTVSPropertyOp21
 70
     1
102
RTVSPropertyOp22
 70
     1
102
RTVSPropertyOp23
 70
     1
102
RTVSPropertyOp24
 70
     1
102
RTVSPropertyOp25
 70
     1
102
RTVSPropertyOp26
 70
     1
102
RTVSPropertyOp27
 70
     1
102
RTVSPropertyOp28
 70
     1
102
RTVSPropertyOp29
 70
     1
102
RTVSPropertyOp30
 70
     1
102
RTVSPropertyOp31
 70
     1
102
RTVSPropertyOp32
 70
     1
  0
ENDSEC
  0
EOF
