  0
SECTION
  2
HEADER
  9
$ACADVER
  1
AC1015
  9
$ACADMAINTVER
 70
    20
  9
$DWGCODEPAGE
  3
ANSI_932
  9
$INSBASE
 10
0.0
 20
0.0
 30
0.0
  9
$EXTMIN
 10
1090.618842927947
 20
548.667320650642
 30
-0.0015258207003583
  9
$EXTMAX
 10
1367.647149361987
 20
737.1534192270105
 30
0.0000000349246037
  9
$LIMMIN
 10
1090.627296
 20
548.6730719999997
  9
$LIMMAX
 10
1367.638695
 20
737.1476669999997
  9
$ORTHOMODE
 70
     1
  9
$REGENMODE
 70
     1
  9
$FILLMODE
 70
     1
  9
$QTEXTMODE
 70
     0
  9
$MIRRTEXT
 70
     0
  9
$LTSCALE
 40
4.616823
  9
$ATTMODE
 70
     1
  9
$TEXTSIZE
 40
3.2
  9
$TRACEWID
 40
0.05
  9
$TEXTSTYLE
  7
高3.2
  9
$CLAYER
  8
0
  9
$CELTYPE
  6
CONTINUOUS
  9
$CECOLOR
 62
   256
  9
$CELTSCALE
 40
1.0
  9
$DISPSILH
 70
     0
  9
$DIMSCALE
 40
1.0
  9
$DIMASZ
 40
2.5
  9
$DIMEXO
 40
0.25
  9
$DIMDLI
 40
0.2
  9
$DIMRND
 40
0.0
  9
$DIMDLE
 40
0.0
  9
$DIMEXE
 40
1.25
  9
$DIMTP
 40
0.0
  9
$DIMTM
 40
0.0
  9
$DIMTXT
 40
3.0
  9
$DIMCEN
 40
0.0
  9
$DIMTSZ
 40
0.0
  9
$DIMTOL
 70
     0
  9
$DIMLIM
 70
     0
  9
$DIMTIH
 70
     0
  9
$DIMTOH
 70
     0
  9
$DIMSE1
 70
     0
  9
$DIMSE2
 70
     0
  9
$DIMTAD
 70
     3
  9
$DIMZIN
 70
     8
  9
$DIMBLK
  1
Open30
  9
$DIMASO
 70
     1
  9
$DIMSHO
 70
     1
  9
$DIMPOST
  1

  9
$DIMAPOST
  1

  9
$DIMALT
 70
     0
  9
$DIMALTD
 70
     3
  9
$DIMALTF
 40
0.03937007874016
  9
$DIMLFAC
 40
1.0
  9
$DIMTOFL
 70
     1
  9
$DIMTVP
 40
0.0
  9
$DIMTIX
 70
     0
  9
$DIMSOXD
 70
     0
  9
$DIMSAH
 70
     0
  9
$DIMBLK1
  1

  9
$DIMBLK2
  1

  9
$DIMSTYLE
  2
1：1
  9
$DIMCLRD
 70
     0
  9
$DIMCLRE
 70
     0
  9
$DIMCLRT
 70
     4
  9
$DIMTFAC
 40
1.0
  9
$DIMGAP
 40
0.625
  9
$DIMJUST
 70
     0
  9
$DIMSD1
 70
     0
  9
$DIMSD2
 70
     0
  9
$DIMTOLJ
 70
     0
  9
$DIMTZIN
 70
     8
  9
$DIMALTZ
 70
     0
  9
$DIMALTTZ
 70
     0
  9
$DIMUPT
 70
     1
  9
$DIMDEC
 70
     2
  9
$DIMTDEC
 70
     2
  9
$DIMALTU
 70
     2
  9
$DIMALTTD
 70
     3
  9
$DIMTXSTY
  7
STANDARD
  9
$DIMAUNIT
 70
     0
  9
$DIMADEC
 70
     1
  9
$DIMALTRND
 40
0.0
  9
$DIMAZIN
 70
     2
  9
$DIMDSEP
 70
    46
  9
$DIMATFIT
 70
     0
  9
$DIMFRAC
 70
     0
  9
$DIMLDRBLK
  1
Open30
  9
$DIMLUNIT
 70
     2
  9
$DIMLWD
 70
    -2
  9
$DIMLWE
 70
    -2
  9
$DIMTMOVE
 70
     0
  9
$LUNITS
 70
     2
  9
$LUPREC
 70
     4
  9
$SKETCHINC
 40
0.1
  9
$FILLETRAD
 40
0.0
  9
$AUNITS
 70
     0
  9
$AUPREC
 70
     0
  9
$MENU
  1
.
  9
$ELEVATION
 40
0.0
  9
$PELEVATION
 40
0.0
  9
$THICKNESS
 40
0.0
  9
$LIMCHECK
 70
     0
  9
$CHAMFERA
 40
0.0
  9
$CHAMFERB
 40
0.0
  9
$CHAMFERC
 40
0.0
  9
$CHAMFERD
 40
0.0
  9
$SKPOLY
 70
     0
  9
$TDCREATE
 40
2455946.811813217
  9
$TDUCREATE
 40
2455946.436813218
  9
$TDUPDATE
 40
2456994.602128866
  9
$TDUUPDATE
 40
2456994.227128866
  9
$TDINDWG
 40
0.1082432755
  9
$TDUSRTIMER
 40
0.1082432755
  9
$USRTIMER
 70
     1
  9
$ANGBASE
 50
0.0
  9
$ANGDIR
 70
     0
  9
$PDMODE
 70
     0
  9
$PDSIZE
 40
0.0
  9
$PLINEWID
 40
0.0
  9
$SPLFRAME
 70
     0
  9
$SPLINETYPE
 70
     6
  9
$SPLINESEGS
 70
     8
  9
$HANDSEED
  5
C90
  9
$SURFTAB1
 70
     6
  9
$SURFTAB2
 70
     6
  9
$SURFTYPE
 70
     6
  9
$SURFU
 70
     6
  9
$SURFV
 70
     6
  9
$UCSBASE
  2

  9
$UCSNAME
  2

  9
$UCSORG
 10
0.0
 20
0.0
 30
0.0
  9
$UCSXDIR
 10
1.0
 20
0.0
 30
0.0
  9
$UCSYDIR
 10
0.0
 20
1.0
 30
0.0
  9
$UCSORTHOREF
  2

  9
$UCSORTHOVIEW
 70
     0
  9
$UCSORGTOP
 10
0.0
 20
0.0
 30
0.0
  9
$UCSORGBOTTOM
 10
0.0
 20
0.0
 30
0.0
  9
$UCSORGLEFT
 10
0.0
 20
0.0
 30
0.0
  9
$UCSORGRIGHT
 10
0.0
 20
0.0
 30
0.0
  9
$UCSORGFRONT
 10
0.0
 20
0.0
 30
0.0
  9
$UCSORGBACK
 10
0.0
 20
0.0
 30
0.0
  9
$PUCSBASE
  2

  9
$PUCSNAME
  2

  9
$PUCSORG
 10
0.0
 20
0.0
 30
0.0
  9
$PUCSXDIR
 10
1.0
 20
0.0
 30
0.0
  9
$PUCSYDIR
 10
0.0
 20
1.0
 30
0.0
  9
$PUCSORTHOREF
  2

  9
$PUCSORTHOVIEW
 70
     0
  9
$PUCSORGTOP
 10
0.0
 20
0.0
 30
0.0
  9
$PUCSORGBOTTOM
 10
0.0
 20
0.0
 30
0.0
  9
$PUCSORGLEFT
 10
0.0
 20
0.0
 30
0.0
  9
$PUCSORGRIGHT
 10
0.0
 20
0.0
 30
0.0
  9
$PUCSORGFRONT
 10
0.0
 20
0.0
 30
0.0
  9
$PUCSORGBACK
 10
0.0
 20
0.0
 30
0.0
  9
$USERI1
 70
     0
  9
$USERI2
 70
     0
  9
$USERI3
 70
     0
  9
$USERI4
 70
     0
  9
$USERI5
 70
     0
  9
$USERR1
 40
0.0
  9
$USERR2
 40
0.0
  9
$USERR3
 40
0.0
  9
$USERR4
 40
0.0
  9
$USERR5
 40
0.0
  9
$WORLDVIEW
 70
     1
  9
$SHADEDGE
 70
     3
  9
$SHADEDIF
 70
    70
  9
$TILEMODE
 70
     1
  9
$MAXACTVP
 70
    64
  9
$PINSBASE
 10
0.0
 20
0.0
 30
0.0
  9
$PLIMCHECK
 70
     0
  9
$PEXTMIN
 10
1.000000000000000E+20
 20
1.000000000000000E+20
 30
1.000000000000000E+20
  9
$PEXTMAX
 10
-1.000000000000000E+20
 20
-1.000000000000000E+20
 30
-1.000000000000000E+20
  9
$PLIMMIN
 10
0.0
 20
0.0
  9
$PLIMMAX
 10
12.0
 20
9.0
  9
$UNITMODE
 70
     0
  9
$VISRETAIN
 70
     1
  9
$PLINEGEN
 70
     0
  9
$PSLTSCALE
 70
     1
  9
$TREEDEPTH
 70
  3020
  9
$CMLSTYLE
  2
Standard
  9
$CMLJUST
 70
     0
  9
$CMLSCALE
 40
1.0
  9
$PROXYGRAPHICS
 70
     1
  9
$MEASUREMENT
 70
     0
  9
$CELWEIGHT
370
    -1
  9
$ENDCAPS
280
     0
  9
$JOINSTYLE
280
     0
  9
$LWDISPLAY
290
     0
  9
$INSUNITS
 70
     0
  9
$HYPERLINKBASE
  1

  9
$STYLESHEET
  1
n-plot.ctb
  9
$XEDIT
290
     1
  9
$CEPSNTYPE
380
     0
  9
$PSTYLEMODE
290
     1
  9
$FINGERPRINTGUID
  2
{11E3E7C3-2ED5-4FA2-BCBA-B51BA5E9BCE0}
  9
$VERSIONGUID
  2
{790BB4F9-8C8B-4F59-8B80-D051A75354C9}
  9
$EXTNAMES
290
     1
  9
$PSVPSCALE
 40
0.0
  9
$OLESTARTUP
290
     0
  0
ENDSEC
  0
SECTION
  2
CLASSES
  0
CLASS
  1
ACDBDICTIONARYWDFLT
  2
AcDbDictionaryWithDefault
  3
ObjectDBX Classes
 90
        0
280
     0
281
     0
  0
CLASS
  1
MATERIAL
  2
AcDbMaterial
  3
ObjectDBX Classes
 90
     1153
280
     0
281
     0
  0
CLASS
  1
VISUALSTYLE
  2
AcDbVisualStyle
  3
ObjectDBX Classes
 90
     4095
280
     0
281
     0
  0
CLASS
  1
SCALE
  2
AcDbScale
  3
ObjectDBX Classes
 90
     1153
280
     0
281
     0
  0
CLASS
  1
TABLESTYLE
  2
AcDbTableStyle
  3
ObjectDBX Classes
 90
     4095
280
     0
281
     0
  0
CLASS
  1
MLEADERSTYLE
  2
AcDbMLeaderStyle
  3
ACDB_MLEADERSTYLE_CLASS
 90
     4095
280
     0
281
     0
  0
CLASS
  1
DICTIONARYVAR
  2
AcDbDictionaryVar
  3
ObjectDBX Classes
 90
        0
280
     0
281
     0
  0
CLASS
  1
SORTENTSTABLE
  2
AcDbSortentsTable
  3
ObjectDBX Classes
 90
        0
280
     0
281
     0
  0
CLASS
  1
CELLSTYLEMAP
  2
AcDbCellStyleMap
  3
ObjectDBX Classes
 90
     1152
280
     0
281
     0
  0
CLASS
  1
ACDBPLACEHOLDER
  2
AcDbPlaceHolder
  3
ObjectDBX Classes
 90
        0
280
     0
281
     0
  0
CLASS
  1
LAYOUT
  2
AcDbLayout
  3
ObjectDBX Classes
 90
        0
280
     0
281
     0
  0
ENDSEC
  0
SECTION
  2
TABLES
  0
TABLE
  2
VPORT
  5
8
330
0
100
AcDbSymbolTable
 70
     1
  0
VPORT
  5
8B
330
8
100
AcDbSymbolTableRecord
100
AcDbViewportTableRecord
  2
*Active
 70
     0
 10
0.0
 20
0.0
 11
1.0
 21
1.0
 12
1232.290657131803
 22
643.7809856183039
 13
0.0
 23
0.0
 14
1.0
 24
1.0
 15
0.0
 25
0.0
 16
0.0
 26
0.0
 36
1.0
 17
0.0
 27
0.0
 37
0.0
 40
486.2364045414917
 41
1.565963060686015
 42
50.0
 43
0.0
 44
0.0
 50
0.0
 51
0.0
 71
     0
 72
   100
 73
     1
 74
     1
 75
     0
 76
     0
 77
     0
 78
     0
281
     0
 65
     1
110
0.0
120
0.0
130
0.0
111
1.0
121
0.0
131
0.0
112
0.0
122
1.0
132
0.0
 79
     0
146
0.0
  0
ENDTAB
  0
TABLE
  2
LTYPE
  5
5
330
0
100
AcDbSymbolTable
 70
    12
  0
LTYPE
  5
5A
330
5
100
AcDbSymbolTableRecord
100
AcDbLinetypeTableRecord
  2
ByBlock
 70
     0
  3

 72
    65
 73
     0
 40
0.0
  0
LTYPE
  5
5B
330
5
100
AcDbSymbolTableRecord
100
AcDbLinetypeTableRecord
  2
ByLayer
 70
     0
  3

 72
    65
 73
     0
 40
0.0
  0
LTYPE
  5
5C
330
5
100
AcDbSymbolTableRecord
100
AcDbLinetypeTableRecord
  2
CONTINUOUS
 70
     0
  3
Solid-line
 72
    65
 73
     0
 40
0.0
  0
LTYPE
  5
72
330
5
100
AcDbSymbolTableRecord
100
AcDbLinetypeTableRecord
  2
CENTER
 70
     0
  3
CENTER
 72
    65
 73
     4
 40
2.0
 49
1.25
 74
     0
 49
-0.25
 74
     0
 49
0.25
 74
     0
 49
-0.25
 74
     0
  0
LTYPE
  5
73
330
5
100
AcDbSymbolTableRecord
100
AcDbLinetypeTableRecord
  2
CENTER2
 70
     0
  3
CENTER2
 72
    65
 73
     4
 40
1.125
 49
0.75
 74
     0
 49
-0.125
 74
     0
 49
0.125
 74
     0
 49
-0.125
 74
     0
  0
LTYPE
  5
74
330
5
100
AcDbSymbolTableRecord
100
AcDbLinetypeTableRecord
  2
CENTERX2
 70
     0
  3
CENTERX2
 72
    65
 73
     4
 40
4.0
 49
2.5
 74
     0
 49
-0.5
 74
     0
 49
0.5
 74
     0
 49
-0.5
 74
     0
  0
LTYPE
  5
81
330
5
100
AcDbSymbolTableRecord
100
AcDbLinetypeTableRecord
  2
HIDDEN
 70
     0
  3
HIDDEN
 72
    65
 73
     2
 40
0.375
 49
0.25
 74
     0
 49
-0.125
 74
     0
  0
LTYPE
  5
82
330
5
100
AcDbSymbolTableRecord
100
AcDbLinetypeTableRecord
  2
HIDDEN2
 70
     0
  3
HIDDEN2
 72
    65
 73
     2
 40
0.1875
 49
0.125
 74
     0
 49
-0.0625
 74
     0
  0
LTYPE
  5
83
330
5
100
AcDbSymbolTableRecord
100
AcDbLinetypeTableRecord
  2
HIDDENX2
 70
     0
  3
HIDDENX2
 72
    65
 73
     2
 40
0.75
 49
0.5
 74
     0
 49
-0.25
 74
     0
  0
LTYPE
  5
84
330
5
100
AcDbSymbolTableRecord
100
AcDbLinetypeTableRecord
  2
PHANTOM
 70
     0
  3
PHANTOM
 72
    65
 73
     6
 40
2.5
 49
1.25
 74
     0
 49
-0.25
 74
     0
 49
0.25
 74
     0
 49
-0.25
 74
     0
 49
0.25
 74
     0
 49
-0.25
 74
     0
  0
LTYPE
  5
85
330
5
100
AcDbSymbolTableRecord
100
AcDbLinetypeTableRecord
  2
PHANTOM2
 70
     0
  3
PHANTOM2
 72
    65
 73
     6
 40
1.25
 49
0.625
 74
     0
 49
-0.125
 74
     0
 49
0.125
 74
     0
 49
-0.125
 74
     0
 49
0.125
 74
     0
 49
-0.125
 74
     0
  0
LTYPE
  5
86
330
5
100
AcDbSymbolTableRecord
100
AcDbLinetypeTableRecord
  2
PHANTOMX2
 70
     0
  3
PHANTOMX2
 72
    65
 73
     6
 40
5.0
 49
2.5
 74
     0
 49
-0.5
 74
     0
 49
0.5
 74
     0
 49
-0.5
 74
     0
 49
0.5
 74
     0
 49
-0.5
 74
     0
  0
ENDTAB
  0
TABLE
  2
LAYER
  5
2
102
{ACAD_XDICTIONARY
360
321
102
}
330
0
100
AcDbSymbolTable
 70
     2
  0
LAYER
  5
54
102
{ACAD_XDICTIONARY
360
4ED
102
}
330
2
100
AcDbSymbolTableRecord
100
AcDbLayerTableRecord
  2
0
 70
     0
 62
     7
  6
CONTINUOUS
370
    -3
390
F
  0
LAYER
  5
30C
330
2
100
AcDbSymbolTableRecord
100
AcDbLayerTableRecord
  2
Defpoints
 70
     0
 62
     7
  6
CONTINUOUS
290
     0
370
    -3
390
F
  0
ENDTAB
  0
TABLE
  2
STYLE
  5
3
330
0
100
AcDbSymbolTable
 70
     7
  0
STYLE
  5
55
330
3
100
AcDbSymbolTableRecord
100
AcDbTextStyleTableRecord
  2
STANDARD
 70
     0
 40
0.0
 41
1.0
 50
0.0
 71
     0
 42
0.2
  3
TXT
  4
BIGFONT
  0
STYLE
  5
30D
330
3
100
AcDbSymbolTableRecord
100
AcDbTextStyleTableRecord
  2
高3.2
 70
     0
 40
3.2
 41
1.0
 50
0.0
 71
     0
 42
3.2
  3
txt.shx
  4
bigfont.shx
  0
STYLE
  5
30E
330
3
100
AcDbSymbolTableRecord
100
AcDbTextStyleTableRecord
  2
高6.3
 70
     0
 40
6.299999999999998
 41
1.0
 50
0.0
 71
     0
 42
6.299999999999998
  3
txt.shx
  4
bigfont.shx
  0
STYLE
  5
30F
330
3
100
AcDbSymbolTableRecord
100
AcDbTextStyleTableRecord
  2
高2.5
 70
     0
 40
2.5
 41
1.0
 50
0.0
 71
     0
 42
0.2
  3
txt.shx
  4
bigfont.shx
  0
STYLE
  5
310
330
3
100
AcDbSymbolTableRecord
100
AcDbTextStyleTableRecord
  2
高4.5
 70
     0
 40
4.5
 41
1.0
 50
0.0
 71
     0
 42
6.299999999999998
  3
txt.shx
  4
bigfont.shx
  0
STYLE
  5
311
330
3
100
AcDbSymbolTableRecord
100
AcDbTextStyleTableRecord
  2
高2
 70
     0
 40
2.0
 41
1.0
 50
0.0
 71
     0
 42
6.299999999999998
  3
txt.shx
  4
bigfont.shx
  0
ENDTAB
  0
TABLE
  2
VIEW
  5
6
330
0
100
AcDbSymbolTable
 70
     0
  0
ENDTAB
  0
TABLE
  2
UCS
  5
7
330
0
100
AcDbSymbolTable
 70
     0
  0
ENDTAB
  0
TABLE
  2
APPID
  5
9
330
0
100
AcDbSymbolTable
 70
    11
  0
APPID
  5
56
330
9
100
AcDbSymbolTableRecord
100
AcDbRegAppTableRecord
  2
ACAD
 70
     0
  0
APPID
  5
5D
330
9
100
AcDbSymbolTableRecord
100
AcDbRegAppTableRecord
  2
AcadAnnotative
 70
     0
  0
APPID
  5
22B
330
9
100
AcDbSymbolTableRecord
100
AcDbRegAppTableRecord
  2
ACAD_EXEMPT_FROM_CAD_STANDARDS
 70
     0
  0
APPID
  5
31C
330
9
100
AcDbSymbolTableRecord
100
AcDbRegAppTableRecord
  2
ACAD_DSTYLE_DIMJOGGED_JOGANGLE_SYMBOL
 70
     0
  0
APPID
  5
31D
330
9
100
AcDbSymbolTableRecord
100
AcDbRegAppTableRecord
  2
ACAD_DSTYLE_DIMJAG
 70
     0
  0
APPID
  5
31E
330
9
100
AcDbSymbolTableRecord
100
AcDbRegAppTableRecord
  2
ACAD_DSTYLE_DIMBREAK
 70
     0
  0
APPID
  5
31F
330
9
100
AcDbSymbolTableRecord
100
AcDbRegAppTableRecord
  2
ACAD_DSTYLE_DIMTALN
 70
     0
  0
APPID
  5
53E
330
9
100
AcDbSymbolTableRecord
100
AcDbRegAppTableRecord
  2
ACAD_PSEXT
 70
     0
  0
APPID
  5
62D
330
9
100
AcDbSymbolTableRecord
100
AcDbRegAppTableRecord
  2
ACAD_MLEADERVER
 70
     0
  0
APPID
  5
632
330
9
100
AcDbSymbolTableRecord
100
AcDbRegAppTableRecord
  2
ACAD_DSTYLE_DIMARC_LENGTH_SYMBOL
 70
     0
  0
APPID
  5
633
330
9
100
AcDbSymbolTableRecord
100
AcDbRegAppTableRecord
  2
ACAD_DSTYLE_DIMEXT_LENGTH
 70
     0
  0
ENDTAB
  0
TABLE
  2
DIMSTYLE
  5
A
330
0
100
AcDbSymbolTable
 70
    13
100
AcDbDimStyleTable
 71
     2
340
312
340
57
  0
DIMSTYLE
105
57
330
A
100
AcDbSymbolTableRecord
100
AcDbDimStyleTableRecord
  2
Standard
 70
     0
340
55
  0
DIMSTYLE
105
312
330
A
100
AcDbSymbolTableRecord
100
AcDbDimStyleTableRecord
  2
1：1
 70
     0
 41
2.5
 42
0.25
 43
0.2
 44
1.25
 73
     0
 74
     0
 77
     3
 78
     8
 79
     2
140
3.0
141
0.0
143
0.03937007874016
147
0.625
171
     3
172
     1
178
     4
179
     1
271
     2
272
     2
274
     3
283
     0
284
     8
288
     1
289
     0
340
55
341
27C
342
27C
1001
ACAD_DSTYLE_DIMARC_LENGTH_SYMBOL
1070
   379
1070
     2
1001
ACAD_DSTYLE_DIMEXT_LENGTH
1070
   378
1040
1.25
1001
ACAD_DSTYLE_DIMJOGGED_JOGANGLE_SYMBOL
1070
   384
1040
1.570796326794896
  0
DIMSTYLE
105
313
330
A
100
AcDbSymbolTableRecord
100
AcDbDimStyleTableRecord
  2
2：1
 70
     0
 41
2.5
 42
0.25
 43
0.2
 44
1.25
 73
     0
 74
     0
 77
     3
 78
     8
 79
     2
140
3.0
141
0.0
143
0.03937007874016
144
0.5
147
0.625
171
     3
172
     1
178
     4
179
     1
271
     2
272
     2
274
     3
283
     0
284
     8
288
     1
289
     0
340
55
341
27C
342
27C
1001
ACAD_DSTYLE_DIMARC_LENGTH_SYMBOL
1070
   379
1070
     2
1001
ACAD_DSTYLE_DIMEXT_LENGTH
1070
   378
1040
1.25
1001
ACAD_DSTYLE_DIMJOGGED_JOGANGLE_SYMBOL
1070
   384
1040
1.570796326794896
  0
DIMSTYLE
105
314
330
A
100
AcDbSymbolTableRecord
100
AcDbDimStyleTableRecord
  2
5：1
 70
     0
 41
2.5
 42
0.25
 43
0.2
 44
1.25
 73
     0
 74
     0
 77
     3
 78
     8
 79
     2
140
3.0
141
0.0
143
0.03937007874016
144
0.2
147
0.625
171
     3
172
     1
178
     4
179
     1
271
     2
272
     2
274
     3
283
     0
284
     8
288
     1
289
     0
340
55
341
27C
342
27C
1001
ACAD_DSTYLE_DIMARC_LENGTH_SYMBOL
1070
   379
1070
     2
1001
ACAD_DSTYLE_DIMEXT_LENGTH
1070
   378
1040
1.25
1001
ACAD_DSTYLE_DIMJOGGED_JOGANGLE_SYMBOL
1070
   384
1040
1.570796326794896
  0
DIMSTYLE
105
315
330
A
100
AcDbSymbolTableRecord
100
AcDbDimStyleTableRecord
  2
10：1
 70
     0
 41
2.5
 42
0.25
 43
0.2
 44
1.25
 73
     0
 74
     0
 77
     3
 78
     8
 79
     2
140
3.0
141
0.0
143
0.03937007874016
144
0.1
147
0.625
171
     3
172
     1
178
     4
179
     1
271
     2
272
     2
274
     3
283
     0
284
     8
288
     1
289
     0
340
55
341
27C
342
27C
1001
ACAD_DSTYLE_DIMARC_LENGTH_SYMBOL
1070
   379
1070
     2
1001
ACAD_DSTYLE_DIMEXT_LENGTH
1070
   378
1040
1.25
1001
ACAD_DSTYLE_DIMJOGGED_JOGANGLE_SYMBOL
1070
   384
1040
1.570796326794896
  0
DIMSTYLE
105
316
330
A
100
AcDbSymbolTableRecord
100
AcDbDimStyleTableRecord
  2
1／2
 70
     0
 41
2.5
 42
0.25
 43
0.2
 44
1.25
 73
     0
 74
     0
 77
     3
 78
     8
 79
     2
140
3.0
141
0.0
143
0.03937007874016
144
2.0
147
0.625
171
     3
172
     1
178
     4
179
     1
271
     2
272
     2
274
     3
283
     0
284
     8
288
     1
289
     0
340
55
341
27C
342
27C
1001
ACAD_DSTYLE_DIMARC_LENGTH_SYMBOL
1070
   379
1070
     2
1001
ACAD_DSTYLE_DIMEXT_LENGTH
1070
   378
1040
1.25
1001
ACAD_DSTYLE_DIMJOGGED_JOGANGLE_SYMBOL
1070
   384
1040
1.570796326794896
  0
DIMSTYLE
105
317
330
A
100
AcDbSymbolTableRecord
100
AcDbDimStyleTableRecord
  2
1／5
 70
     0
 41
2.5
 42
0.25
 43
0.2
 44
1.25
 73
     0
 74
     0
 77
     3
 78
     8
 79
     2
140
3.0
141
0.0
143
0.03937007874016
144
5.0
147
0.625
171
     3
172
     1
178
     4
179
     1
271
     2
272
     2
274
     3
283
     0
284
     8
288
     1
289
     0
340
55
341
27C
342
27C
1001
ACAD_DSTYLE_DIMARC_LENGTH_SYMBOL
1070
   379
1070
     2
1001
ACAD_DSTYLE_DIMEXT_LENGTH
1070
   378
1040
1.25
1001
ACAD_DSTYLE_DIMJOGGED_JOGANGLE_SYMBOL
1070
   384
1040
1.570796326794896
  0
DIMSTYLE
105
318
330
A
100
AcDbSymbolTableRecord
100
AcDbDimStyleTableRecord
  2
1／10
 70
     0
 41
2.5
 42
0.25
 43
0.2
 44
1.25
 73
     0
 74
     0
 77
     3
 78
     8
 79
     2
140
3.0
141
0.0
143
0.03937007874016
144
10.0
147
0.625
171
     3
172
     1
178
     4
179
     1
271
     2
272
     2
274
     3
283
     0
284
     8
288
     1
289
     0
340
55
341
27C
342
27C
1001
ACAD_DSTYLE_DIMARC_LENGTH_SYMBOL
1070
   379
1070
     2
1001
ACAD_DSTYLE_DIMEXT_LENGTH
1070
   378
1040
1.25
1001
ACAD_DSTYLE_DIMJOGGED_JOGANGLE_SYMBOL
1070
   384
1040
1.570796326794896
  0
DIMSTYLE
105
319
330
A
100
AcDbSymbolTableRecord
100
AcDbDimStyleTableRecord
  2
1／4
 70
     0
 41
2.5
 42
0.25
 43
0.2
 44
1.25
 73
     0
 74
     0
 77
     3
 78
     8
 79
     2
140
3.0
141
0.0
143
0.03937007874016
144
4.0
147
0.625
171
     3
172
     1
178
     4
179
     1
271
     2
272
     2
274
     3
283
     0
284
     8
288
     1
289
     0
340
55
341
27C
342
27C
1001
ACAD_DSTYLE_DIMARC_LENGTH_SYMBOL
1070
   379
1070
     2
1001
ACAD_DSTYLE_DIMEXT_LENGTH
1070
   378
1040
1.25
1001
ACAD_DSTYLE_DIMJOGGED_JOGANGLE_SYMBOL
1070
   384
1040
1.570796326794896
  0
DIMSTYLE
105
31A
330
A
100
AcDbSymbolTableRecord
100
AcDbDimStyleTableRecord
  2
1／3
 70
     0
 41
2.5
 42
0.25
 43
0.2
 44
1.25
 73
     0
 74
     0
 77
     3
 78
     8
 79
     2
140
3.0
141
0.0
143
0.03937007874016
144
3.0
147
0.625
171
     3
172
     1
178
     4
179
     1
271
     2
272
     2
274
     3
283
     0
284
     8
288
     1
289
     0
340
55
341
27C
342
27C
1001
ACAD_DSTYLE_DIMARC_LENGTH_SYMBOL
1070
   379
1070
     2
1001
ACAD_DSTYLE_DIMEXT_LENGTH
1070
   378
1040
1.25
1001
ACAD_DSTYLE_DIMJOGGED_JOGANGLE_SYMBOL
1070
   384
1040
1.570796326794896
  0
DIMSTYLE
105
31B
330
A
100
AcDbSymbolTableRecord
100
AcDbDimStyleTableRecord
  2
FREE
 70
     0
 41
2.5
 42
0.25
 43
0.2
 44
1.25
 73
     0
 74
     0
 77
     3
 78
     8
 79
     2
140
3.0
141
0.0
143
0.03937007874016
147
0.625
171
     3
172
     1
178
     4
179
     1
271
     2
272
     2
274
     3
283
     0
284
     8
288
     1
289
     0
340
55
341
27C
342
27C
1001
ACAD_DSTYLE_DIMBREAK
1070
   391
1040
3.75
1001
ACAD_DSTYLE_DIMJAG
1070
   388
1040
1.5
1001
ACAD_DSTYLE_DIMTALN
1070
   392
1070
     0
1001
ACAD_DSTYLE_DIMARC_LENGTH_SYMBOL
1070
   379
1070
     2
1001
ACAD_DSTYLE_DIMEXT_LENGTH
1070
   378
1040
1.25
1001
ACAD_DSTYLE_DIMJOGGED_JOGANGLE_SYMBOL
1070
   384
1040
1.570796326794896
  0
ENDTAB
  0
TABLE
  2
BLOCK_RECORD
  5
1
330
0
100
AcDbSymbolTable
 70
    34
  0
BLOCK_RECORD
  5
6B
102
{ACAD_XDICTIONARY
360
238
102
}
330
1
100
AcDbSymbolTableRecord
100
AcDbBlockTableRecord
  2
*Model_Space
340
6E
  0
BLOCK_RECORD
  5
67
330
1
100
AcDbSymbolTableRecord
100
AcDbBlockTableRecord
  2
*Paper_Space
340
6A
  0
BLOCK_RECORD
  5
27C
330
1
100
AcDbSymbolTableRecord
100
AcDbBlockTableRecord
  2
_Open30
340
0
102
{BLKREFS
331
734
331
735
331
744
331
745
331
750
331
751
331
75C
331
75D
331
768
331
769
331
774
331
775
331
780
331
781
331
848
331
849
331
851
331
852
331
85A
331
85B
331
863
331
864
331
86C
331
86D
331
875
331
876
331
880
331
881
331
88C
331
88D
331
898
331
899
331
8A4
331
8A5
331
8B0
331
8B1
331
8BC
331
8BD
331
A14
331
A15
331
A1D
331
A1E
331
A26
331
A27
331
A31
331
A32
331
A3A
331
A3B
331
A43
331
A44
331
A4C
331
A4D
331
A55
331
A56
331
A5E
331
A5F
331
A67
331
A68
102
}
  0
BLOCK_RECORD
  5
432
330
1
100
AcDbSymbolTableRecord
100
AcDbBlockTableRecord
  2
*D1
340
0
  0
BLOCK_RECORD
  5
43F
330
1
100
AcDbSymbolTableRecord
100
AcDbBlockTableRecord
  2
*D2
340
0
  0
BLOCK_RECORD
  5
44C
330
1
100
AcDbSymbolTableRecord
100
AcDbBlockTableRecord
  2
*D3
340
0
  0
BLOCK_RECORD
  5
459
330
1
100
AcDbSymbolTableRecord
100
AcDbBlockTableRecord
  2
*D4
340
0
  0
BLOCK_RECORD
  5
468
330
1
100
AcDbSymbolTableRecord
100
AcDbBlockTableRecord
  2
*D5
340
0
  0
BLOCK_RECORD
  5
73F
330
1
100
AcDbSymbolTableRecord
100
AcDbBlockTableRecord
  2
*D6
340
0
  0
BLOCK_RECORD
  5
74B
330
1
100
AcDbSymbolTableRecord
100
AcDbBlockTableRecord
  2
*D7
340
0
  0
BLOCK_RECORD
  5
757
330
1
100
AcDbSymbolTableRecord
100
AcDbBlockTableRecord
  2
*D8
340
0
  0
BLOCK_RECORD
  5
763
330
1
100
AcDbSymbolTableRecord
100
AcDbBlockTableRecord
  2
*D9
340
0
  0
BLOCK_RECORD
  5
76F
330
1
100
AcDbSymbolTableRecord
100
AcDbBlockTableRecord
  2
*D10
340
0
  0
BLOCK_RECORD
  5
77B
330
1
100
AcDbSymbolTableRecord
100
AcDbBlockTableRecord
  2
*D11
340
0
  0
BLOCK_RECORD
  5
7FD
330
1
100
AcDbSymbolTableRecord
100
AcDbBlockTableRecord
  2
*D13
340
0
  0
BLOCK_RECORD
  5
809
330
1
100
AcDbSymbolTableRecord
100
AcDbBlockTableRecord
  2
*D14
340
0
  0
BLOCK_RECORD
  5
815
330
1
100
AcDbSymbolTableRecord
100
AcDbBlockTableRecord
  2
*D15
340
0
  0
BLOCK_RECORD
  5
821
330
1
100
AcDbSymbolTableRecord
100
AcDbBlockTableRecord
  2
*D16
340
0
  0
BLOCK_RECORD
  5
82D
330
1
100
AcDbSymbolTableRecord
100
AcDbBlockTableRecord
  2
*D17
340
0
  0
BLOCK_RECORD
  5
839
330
1
100
AcDbSymbolTableRecord
100
AcDbBlockTableRecord
  2
*D18
340
0
  0
BLOCK_RECORD
  5
87B
330
1
100
AcDbSymbolTableRecord
100
AcDbBlockTableRecord
  2
*D19
340
0
  0
BLOCK_RECORD
  5
887
330
1
100
AcDbSymbolTableRecord
100
AcDbBlockTableRecord
  2
*D20
340
0
  0
BLOCK_RECORD
  5
893
330
1
100
AcDbSymbolTableRecord
100
AcDbBlockTableRecord
  2
*D21
340
0
  0
BLOCK_RECORD
  5
89F
330
1
100
AcDbSymbolTableRecord
100
AcDbBlockTableRecord
  2
*D22
340
0
  0
BLOCK_RECORD
  5
8AB
330
1
100
AcDbSymbolTableRecord
100
AcDbBlockTableRecord
  2
*D23
340
0
  0
BLOCK_RECORD
  5
8B7
330
1
100
AcDbSymbolTableRecord
100
AcDbBlockTableRecord
  2
*D24
340
0
  0
BLOCK_RECORD
  5
939
330
1
100
AcDbSymbolTableRecord
100
AcDbBlockTableRecord
  2
*D26
340
0
  0
BLOCK_RECORD
  5
945
330
1
100
AcDbSymbolTableRecord
100
AcDbBlockTableRecord
  2
*D27
340
0
  0
BLOCK_RECORD
  5
951
330
1
100
AcDbSymbolTableRecord
100
AcDbBlockTableRecord
  2
*D28
340
0
  0
BLOCK_RECORD
  5
95D
330
1
100
AcDbSymbolTableRecord
100
AcDbBlockTableRecord
  2
*D29
340
0
  0
BLOCK_RECORD
  5
969
330
1
100
AcDbSymbolTableRecord
100
AcDbBlockTableRecord
  2
*D30
340
0
  0
BLOCK_RECORD
  5
975
330
1
100
AcDbSymbolTableRecord
100
AcDbBlockTableRecord
  2
*D31
340
0
  0
ENDTAB
  0
ENDSEC
  0
SECTION
  2
BLOCKS
  0
BLOCK
  5
6C
330
6B
100
AcDbEntity
  8
0
100
AcDbBlockBegin
  2
*Model_Space
 70
     0
 10
0.0
 20
0.0
 30
0.0
  3
*Model_Space
  1

  0
ENDBLK
  5
6D
330
6B
100
AcDbEntity
  8
0
100
AcDbBlockEnd
  0
BLOCK
  5
68
330
67
100
AcDbEntity
 67
     1
  8
0
100
AcDbBlockBegin
  2
*Paper_Space
 70
     0
 10
0.0
 20
0.0
 30
0.0
  3
*Paper_Space
  1

  0
ENDBLK
  5
69
330
67
100
AcDbEntity
 67
     1
  8
0
100
AcDbBlockEnd
  0
BLOCK
  5
27D
330
27C
100
AcDbEntity
  8
0
100
AcDbBlockBegin
  2
_Open30
 70
     0
 10
0.0
 20
0.0
 30
0.0
  3
_Open30
  1

  0
LINE
  5
27E
330
27C
100
AcDbEntity
  8
0
  6
ByBlock
 62
     0
370
    -2
100
AcDbLine
 10
-1.0
 20
0.267949
 30
0.0
 11
0.0
 21
0.0
 31
0.0
  0
LINE
  5
27F
330
27C
100
AcDbEntity
  8
0
  6
ByBlock
 62
     0
370
    -2
100
AcDbLine
 10
0.0
 20
0.0
 30
0.0
 11
-1.0
 21
-0.267949
 31
0.0
  0
LINE
  5
280
330
27C
100
AcDbEntity
  8
0
  6
ByBlock
 62
     0
370
    -2
100
AcDbLine
 10
0.0
 20
0.0
 30
0.0
 11
-1.0
 21
0.0
 31
0.0
  0
ENDBLK
  5
281
330
27C
100
AcDbEntity
  8
0
100
AcDbBlockEnd
  0
BLOCK
  5
433
330
432
100
AcDbEntity
  8
0
100
AcDbBlockBegin
  2
*D1
 70
     1
 10
0.0
 20
0.0
 30
0.0
  3
*D1
  1

  0
LINE
  5
A11
330
432
100
AcDbEntity
  8
0
  6
Continuous
 62
     0
370
    -2
100
AcDbLine
 10
1336.870839002554
 20
670.7780526910414
 30
0.0
 11
1336.870839002554
 21
694.9126885539843
 31
0.0
  0
LINE
  5
A12
330
432
100
AcDbEntity
  8
0
  6
Continuous
 62
     0
370
    -2
100
AcDbLine
 10
1137.870839002554
 20
676.303279251539
 30
0.0
 11
1137.870839002554
 21
694.9126885539843
 31
0.0
  0
LINE
  5
A13
330
432
100
AcDbEntity
  8
0
  6
Continuous
 62
     0
370
    -2
100
AcDbLine
 10
1334.370839002554
 20
693.6626885539843
 30
0.0
 11
1140.370839002554
 21
693.6626885539843
 31
0.0
  0
INSERT
  5
A14
330
432
100
AcDbEntity
  8
0
  6
Continuous
 62
     0
370
    -2
100
AcDbBlockReference
  2
_Open30
 10
1336.870839002554
 20
693.6626885539843
 30
0.0
 41
2.5
 42
2.5
 43
2.5
  0
INSERT
  5
A15
330
432
100
AcDbEntity
  8
0
  6
Continuous
 62
     0
370
    -2
100
AcDbBlockReference
  2
_Open30
 10
1137.870839002554
 20
693.6626885539843
 30
0.0
 41
2.5
 42
2.5
 43
2.5
 50
180.0
  0
MTEXT
  5
A16
330
432
100
AcDbEntity
  8
0
  6
Continuous
 62
     4
100
AcDbMText
 10
1239.582549786649
 20
695.7876885539843
 30
0.0
 40
3.0
 41
0.0
 71
     5
 72
     1
  1
199
 73
     1
 44
1.0
1001
ACAD
1000
MTEXTBEGIN
1070
    73
1070
     1
1070
    44
1040
1.0
1070
    74
1070
     0
1000
MTEXTEND
  0
POINT
  5
A17
330
432
100
AcDbEntity
  8
Defpoints
  6
Continuous
 62
     0
100
AcDbPoint
 10
1336.870839002554
 20
670.5280526910414
 30
0.0
  0
POINT
  5
A18
330
432
100
AcDbEntity
  8
Defpoints
  6
Continuous
 62
     0
100
AcDbPoint
 10
1137.870839002554
 20
676.053279251539
 30
0.0
  0
POINT
  5
A19
330
432
100
AcDbEntity
  8
Defpoints
  6
Continuous
 62
     0
100
AcDbPoint
 10
1137.870839002554
 20
693.6626885539843
 30
0.0
  0
ENDBLK
  5
434
330
432
100
AcDbEntity
  8
0
100
AcDbBlockEnd
  0
BLOCK
  5
440
330
43F
100
AcDbEntity
  8
0
100
AcDbBlockBegin
  2
*D2
 70
     1
 10
0.0
 20
0.0
 30
0.0
  3
*D2
  1

  0
LINE
  5
A1A
330
43F
100
AcDbEntity
  8
0
  6
Continuous
 62
     0
370
    -2
100
AcDbLine
 10
1336.870839002554
 20
670.7780526910414
 30
0.0
 11
1336.870839002554
 21
701.2338512866168
 31
0.0
  0
LINE
  5
A1B
330
43F
100
AcDbEntity
  8
0
  6
Continuous
 62
     0
370
    -2
100
AcDbLine
 10
1126.870839002554
 20
656.2780526910414
 30
0.0
 11
1126.870839002554
 21
701.2338512866168
 31
0.0
  0
LINE
  5
A1C
330
43F
100
AcDbEntity
  8
0
  6
Continuous
 62
     0
370
    -2
100
AcDbLine
 10
1334.370839002554
 20
699.9838512866168
 30
0.0
 11
1129.370839002554
 21
699.9838512866168
 31
0.0
  0
INSERT
  5
A1D
330
43F
100
AcDbEntity
  8
0
  6
Continuous
 62
     0
370
    -2
100
AcDbBlockReference
  2
_Open30
 10
1336.870839002554
 20
699.9838512866168
 30
0.0
 41
2.5
 42
2.5
 43
2.5
  0
INSERT
  5
A1E
330
43F
100
AcDbEntity
  8
0
  6
Continuous
 62
     0
370
    -2
100
AcDbBlockReference
  2
_Open30
 10
1126.870839002554
 20
699.9838512866168
 30
0.0
 41
2.5
 42
2.5
 43
2.5
 50
180.0
  0
MTEXT
  5
A1F
330
43F
100
AcDbEntity
  8
0
  6
Continuous
 62
     4
100
AcDbMText
 10
1234.676070365083
 20
702.1088512866168
 30
0.0
 40
3.0
 41
0.0
 71
     5
 72
     1
  1
210
 73
     1
 44
1.0
1001
ACAD
1000
MTEXTBEGIN
1070
    73
1070
     1
1070
    44
1040
1.0
1070
    74
1070
     0
1000
MTEXTEND
  0
POINT
  5
A20
330
43F
100
AcDbEntity
  8
Defpoints
  6
Continuous
 62
     0
100
AcDbPoint
 10
1336.870839002554
 20
670.5280526910414
 30
0.0
  0
POINT
  5
A21
330
43F
100
AcDbEntity
  8
Defpoints
  6
Continuous
 62
     0
100
AcDbPoint
 10
1126.870839002554
 20
656.0280526910414
 30
0.0
  0
POINT
  5
A22
330
43F
100
AcDbEntity
  8
Defpoints
  6
Continuous
 62
     0
100
AcDbPoint
 10
1126.870839002554
 20
699.9838512866168
 30
0.0
  0
ENDBLK
  5
441
330
43F
100
AcDbEntity
  8
0
100
AcDbBlockEnd
  0
BLOCK
  5
44D
330
44C
100
AcDbEntity
  8
0
100
AcDbBlockBegin
  2
*D3
 70
     1
 10
0.0
 20
0.0
 30
0.0
  3
*D3
  1

  0
LINE
  5
A23
330
44C
100
AcDbEntity
  8
0
  6
Continuous
 62
     0
370
    -2
100
AcDbLine
 10
1137.620839002554
 20
667.0280526910414
 30
0.0
 11
1105.204480979648
 21
667.0280526910414
 31
0.0
  0
LINE
  5
A24
330
44C
100
AcDbEntity
  8
0
  6
Continuous
 62
     0
370
    -2
100
AcDbLine
 10
1137.620839002554
 20
645.0280526910416
 30
0.0
 11
1105.204480979648
 21
645.0280526910416
 31
0.0
  0
LINE
  5
A25
330
44C
100
AcDbEntity
  8
0
  6
Continuous
 62
     0
370
    -2
100
AcDbLine
 10
1106.454480979648
 20
664.5280526910414
 30
0.0
 11
1106.454480979648
 21
647.5280526910417
 31
0.0
  0
INSERT
  5
A26
330
44C
100
AcDbEntity
  8
0
  6
Continuous
 62
     0
370
    -2
100
AcDbBlockReference
  2
_Open30
 10
1106.454480979648
 20
667.0280526910414
 30
0.0
 41
2.5
 42
2.5
 43
2.5
 50
90.0
  0
INSERT
  5
A27
330
44C
100
AcDbEntity
  8
0
  6
Continuous
 62
     0
370
    -2
100
AcDbBlockReference
  2
_Open30
 10
1106.454480979648
 20
645.0280526910416
 30
0.0
 41
2.5
 42
2.5
 43
2.5
 50
270.0
  0
MTEXT
  5
A28
330
44C
100
AcDbEntity
  8
0
  6
Continuous
 62
     4
100
AcDbMText
 10
1104.329480979648
 20
656.538290792025
 30
0.0
 40
3.0
 41
0.0
 71
     5
 72
     1
  1
%%C22
 11
0.0000000000000001
 21
1.0
 31
0.0
 73
     1
 44
1.0
1001
ACAD
1000
MTEXTBEGIN
1070
    73
1070
     1
1070
    44
1040
1.0
1070
    74
1070
     0
1000
MTEXTEND
  0
POINT
  5
A29
330
44C
100
AcDbEntity
  8
Defpoints
  6
Continuous
 62
     0
100
AcDbPoint
 10
1137.870839002554
 20
667.0280526910414
 30
0.0
  0
POINT
  5
A2A
330
44C
100
AcDbEntity
  8
Defpoints
  6
Continuous
 62
     0
100
AcDbPoint
 10
1137.870839002554
 20
645.0280526910416
 30
0.0
  0
POINT
  5
A2B
330
44C
100
AcDbEntity
  8
Defpoints
  6
Continuous
 62
     0
100
AcDbPoint
 10
1106.454480979648
 20
645.0280526910416
 30
0.0
  0
ENDBLK
  5
44E
330
44C
100
AcDbEntity
  8
0
100
AcDbBlockEnd
  0
BLOCK
  5
45A
330
459
100
AcDbEntity
  8
0
100
AcDbBlockBegin
  2
*D4
 70
     1
 10
0.0
 20
0.0
 30
0.0
  3
*D4
  1

  0
LINE
  5
A2C
330
459
100
AcDbEntity
  8
0
  6
Continuous
 62
     0
370
    -2
100
AcDbLine
 10
1137.620839002554
 20
661.2780526910414
 30
0.0
 11
1111.780038318401
 21
661.2780526910414
 31
0.0
  0
LINE
  5
A2D
330
459
100
AcDbEntity
  8
0
  6
Continuous
 62
     0
370
    -2
100
AcDbLine
 10
1137.620839002554
 20
650.7780526910415
 30
0.0
 11
1111.780038318401
 21
650.7780526910415
 31
0.0
  0
LINE
  5
A2E
330
459
100
AcDbEntity
  8
0
  6
Continuous
 62
     0
370
    -2
100
AcDbLine
 10
1113.030038318401
 20
648.2780526910414
 30
0.0
 11
1113.030038318401
 21
645.7780526910414
 31
0.0
  0
LINE
  5
A2F
330
459
100
AcDbEntity
  8
0
  6
Continuous
 62
     0
370
    -2
100
AcDbLine
 10
1113.030038318401
 20
663.7780526910415
 30
0.0
 11
1113.030038318401
 21
680.6167986708819
 31
0.0
  0
LINE
  5
A30
330
459
100
AcDbEntity
  8
0
  6
Continuous
 62
     0
370
    -2
100
AcDbLine
 10
1113.030038318401
 20
650.7780526910415
 30
0.0
 11
1113.030038318401
 21
661.2780526910414
 31
0.0
  0
INSERT
  5
A31
330
459
100
AcDbEntity
  8
0
  6
Continuous
 62
     0
370
    -2
100
AcDbBlockReference
  2
_Open30
 10
1113.030038318401
 20
650.7780526910415
 30
0.0
 41
2.5
 42
2.5
 43
2.5
 50
90.0
  0
INSERT
  5
A32
330
459
100
AcDbEntity
  8
0
  6
Continuous
 62
     0
370
    -2
100
AcDbBlockReference
  2
_Open30
 10
1113.030038318401
 20
661.2780526910414
 30
0.0
 41
2.5
 42
2.5
 43
2.5
 50
270.0
  0
MTEXT
  5
A33
330
459
100
AcDbEntity
  8
0
  6
Continuous
 62
     4
100
AcDbMText
 10
1110.905038318401
 20
674.741798670882
 30
0.0
 40
3.0
 41
0.0
 71
     5
 72
     1
  1
%%C10.5
 11
0.0000000000000001
 21
1.0
 31
0.0
 73
     1
 44
1.0
1001
ACAD
1000
MTEXTBEGIN
1070
    73
1070
     1
1070
    44
1040
1.0
1070
    74
1070
     0
1000
MTEXTEND
  0
POINT
  5
A34
330
459
100
AcDbEntity
  8
Defpoints
  6
Continuous
 62
     0
100
AcDbPoint
 10
1137.870839002554
 20
661.2780526910414
 30
0.0
  0
POINT
  5
A35
330
459
100
AcDbEntity
  8
Defpoints
  6
Continuous
 62
     0
100
AcDbPoint
 10
1137.870839002554
 20
650.7780526910415
 30
0.0
  0
POINT
  5
A36
330
459
100
AcDbEntity
  8
Defpoints
  6
Continuous
 62
     0
100
AcDbPoint
 10
1113.030038318401
 20
650.7780526910415
 30
0.0
  0
ENDBLK
  5
45B
330
459
100
AcDbEntity
  8
0
100
AcDbBlockEnd
  0
BLOCK
  5
469
330
468
100
AcDbEntity
  8
0
100
AcDbBlockBegin
  2
*D5
 70
     1
 10
0.0
 20
0.0
 30
0.0
  3
*D5
  1

  0
LINE
  5
731
330
468
100
AcDbEntity
  8
0
  6
Continuous
 62
     0
370
    -2
100
AcDbLine
 10
1335.120839002554
 20
678.0058175951166
 30
0.0
 11
1351.988350524983
 21
678.0058175951166
 31
0.0
  0
LINE
  5
732
330
468
100
AcDbEntity
  8
0
  6
Continuous
 62
     0
370
    -2
100
AcDbLine
 10
1335.120839002554
 20
645.0058175951166
 30
0.0
 11
1351.988350524983
 21
645.0058175951166
 31
0.0
  0
LINE
  5
733
330
468
100
AcDbEntity
  8
0
  6
Continuous
 62
     0
370
    -2
100
AcDbLine
 10
1350.738350524983
 20
675.5058175951167
 30
0.0
 11
1350.738350524983
 21
647.5058175951167
 31
0.0
  0
INSERT
  5
734
330
468
100
AcDbEntity
  8
0
  6
Continuous
 62
     0
370
    -2
100
AcDbBlockReference
  2
_Open30
 10
1350.738350524983
 20
678.0058175951166
 30
0.0
 41
2.5
 42
2.5
 43
2.5
 50
90.0
  0
INSERT
  5
735
330
468
100
AcDbEntity
  8
0
  6
Continuous
 62
     0
370
    -2
100
AcDbBlockReference
  2
_Open30
 10
1350.738350524983
 20
645.0058175951166
 30
0.0
 41
2.5
 42
2.5
 43
2.5
 50
270.0
  0
MTEXT
  5
736
330
468
100
AcDbEntity
  8
0
  6
Continuous
 62
     4
100
AcDbMText
 10
1348.613350524983
 20
661.5726813402874
 30
0.0
 40
3.0
 41
0.0
 71
     5
 72
     1
  1
%%C33
 11
0.0000000000000001
 21
1.0
 31
0.0
 73
     1
 44
1.0
1001
ACAD
1000
MTEXTBEGIN
1070
    73
1070
     1
1070
    44
1040
1.0
1070
    74
1070
     0
1000
MTEXTEND
  0
POINT
  5
737
330
468
100
AcDbEntity
  8
Defpoints
  6
Continuous
 62
     0
100
AcDbPoint
 10
1334.870839002554
 20
678.0058175951166
 30
0.0
  0
POINT
  5
738
330
468
100
AcDbEntity
  8
Defpoints
  6
Continuous
 62
     0
100
AcDbPoint
 10
1334.870839002554
 20
645.0058175951166
 30
0.0
  0
POINT
  5
739
330
468
100
AcDbEntity
  8
Defpoints
  6
Continuous
 62
     0
100
AcDbPoint
 10
1350.738350524983
 20
645.0058175951166
 30
0.0
  0
ENDBLK
  5
46A
330
468
100
AcDbEntity
  8
0
100
AcDbBlockEnd
  0
BLOCK
  5
740
330
73F
100
AcDbEntity
  8
0
100
AcDbBlockBegin
  2
*D6
 70
     1
 10
0.0
 20
0.0
 30
0.0
  3
*D6
  1

  0
LINE
  5
741
330
73F
100
AcDbEntity
  8
0
  6
Continuous
 62
     0
370
    -2
100
AcDbLine
 10
1621.638212395524
 20
671.2948808532271
 30
0.0
 11
1660.159996687566
 21
671.2948808532271
 31
0.0
  0
LINE
  5
742
330
73F
100
AcDbEntity
  8
0
  6
Continuous
 62
     0
370
    -2
100
AcDbLine
 10
1621.638212395524
 20
638.2948808532271
 30
0.0
 11
1660.159996687566
 21
638.2948808532271
 31
0.0
  0
LINE
  5
743
330
73F
100
AcDbEntity
  8
0
  6
Continuous
 62
     0
370
    -2
100
AcDbLine
 10
1658.909996687566
 20
668.7948808532271
 30
0.0
 11
1658.909996687566
 21
640.7948808532271
 31
0.0
  0
INSERT
  5
744
330
73F
100
AcDbEntity
  8
0
  6
Continuous
 62
     0
370
    -2
100
AcDbBlockReference
  2
_Open30
 10
1658.909996687566
 20
671.2948808532271
 30
0.0
 41
2.5
 42
2.5
 43
2.5
 50
90.0
  0
INSERT
  5
745
330
73F
100
AcDbEntity
  8
0
  6
Continuous
 62
     0
370
    -2
100
AcDbBlockReference
  2
_Open30
 10
1658.909996687566
 20
638.2948808532271
 30
0.0
 41
2.5
 42
2.5
 43
2.5
 50
270.0
  0
MTEXT
  5
746
330
73F
100
AcDbEntity
  8
0
  6
Continuous
 62
     4
100
AcDbMText
 10
1656.784996687566
 20
654.8617445983978
 30
0.0
 40
3.0
 41
0.0
 71
     5
 72
     1
  1
%%C33
 11
0.0000000000000001
 21
1.0
 31
0.0
 73
     1
 44
1.0
1001
ACAD
1000
MTEXTBEGIN
1070
    73
1070
     1
1070
    44
1040
1.0
1070
    74
1070
     0
1000
MTEXTEND
  0
POINT
  5
747
330
73F
100
AcDbEntity
  8
Defpoints
  6
Continuous
 62
     0
100
AcDbPoint
 10
1621.388212395524
 20
671.2948808532271
 30
0.0
  0
POINT
  5
748
330
73F
100
AcDbEntity
  8
Defpoints
  6
Continuous
 62
     0
100
AcDbPoint
 10
1621.388212395524
 20
638.2948808532271
 30
0.0
  0
POINT
  5
749
330
73F
100
AcDbEntity
  8
Defpoints
  6
Continuous
 62
     0
100
AcDbPoint
 10
1658.909996687566
 20
638.2948808532271
 30
0.0
  0
ENDBLK
  5
74A
330
73F
100
AcDbEntity
  8
0
100
AcDbBlockEnd
  0
BLOCK
  5
74C
330
74B
100
AcDbEntity
  8
0
100
AcDbBlockBegin
  2
*D7
 70
     1
 10
0.0
 20
0.0
 30
0.0
  3
*D7
  1

  0
LINE
  5
74D
330
74B
100
AcDbEntity
  8
0
  6
Continuous
 62
     0
370
    -2
100
AcDbLine
 10
1610.638212395524
 20
661.4448808532271
 30
0.0
 11
1652.357338999835
 21
661.4448808532271
 31
0.0
  0
LINE
  5
74E
330
74B
100
AcDbEntity
  8
0
  6
Continuous
 62
     0
370
    -2
100
AcDbLine
 10
1610.638212395524
 20
648.1448808532271
 30
0.0
 11
1652.357338999835
 21
648.1448808532271
 31
0.0
  0
LINE
  5
74F
330
74B
100
AcDbEntity
  8
0
  6
Continuous
 62
     0
370
    -2
100
AcDbLine
 10
1651.107338999835
 20
658.9448808532271
 30
0.0
 11
1651.107338999835
 21
650.6448808532272
 31
0.0
  0
INSERT
  5
750
330
74B
100
AcDbEntity
  8
0
  6
Continuous
 62
     0
370
    -2
100
AcDbBlockReference
  2
_Open30
 10
1651.107338999835
 20
661.4448808532271
 30
0.0
 41
2.5
 42
2.5
 43
2.5
 50
90.0
  0
INSERT
  5
751
330
74B
100
AcDbEntity
  8
0
  6
Continuous
 62
     0
370
    -2
100
AcDbBlockReference
  2
_Open30
 10
1651.107338999835
 20
648.1448808532271
 30
0.0
 41
2.5
 42
2.5
 43
2.5
 50
270.0
  0
MTEXT
  5
752
330
74B
100
AcDbEntity
  8
0
  6
Continuous
 62
     4
100
AcDbMText
 10
1649.232338999835
 20
654.7948808532271
 30
0.0
 40
2.5
 41
0.0
 71
     5
 72
     1
  1
%%C13.3
 11
0.0000000000000001
 21
1.0
 31
0.0
 73
     1
 44
1.0
1001
ACAD
1000
MTEXTBEGIN
1070
    73
1070
     1
1070
    44
1040
1.0
1070
    74
1070
     0
1000
MTEXTEND
  0
POINT
  5
753
330
74B
100
AcDbEntity
  8
Defpoints
  6
Continuous
 62
     0
100
AcDbPoint
 10
1610.388212395524
 20
661.4448808532271
 30
0.0
  0
POINT
  5
754
330
74B
100
AcDbEntity
  8
Defpoints
  6
Continuous
 62
     0
100
AcDbPoint
 10
1610.388212395524
 20
648.1448808532271
 30
0.0
  0
POINT
  5
755
330
74B
100
AcDbEntity
  8
Defpoints
  6
Continuous
 62
     0
100
AcDbPoint
 10
1651.107338999835
 20
648.1448808532271
 30
0.0
  0
ENDBLK
  5
756
330
74B
100
AcDbEntity
  8
0
100
AcDbBlockEnd
  0
BLOCK
  5
758
330
757
100
AcDbEntity
  8
0
100
AcDbBlockBegin
  2
*D8
 70
     1
 10
0.0
 20
0.0
 30
0.0
  3
*D8
  1

  0
LINE
  5
759
330
757
100
AcDbEntity
  8
0
  6
Continuous
 62
     0
370
    -2
100
AcDbLine
 10
1583.929108929905
 20
660.4948808532271
 30
0.0
 11
1646.159241408394
 21
660.4948808532271
 31
0.0
  0
LINE
  5
75A
330
757
100
AcDbEntity
  8
0
  6
Continuous
 62
     0
370
    -2
100
AcDbLine
 10
1583.929108929905
 20
649.094880853227
 30
0.0
 11
1646.159241408394
 21
649.094880853227
 31
0.0
  0
LINE
  5
75B
330
757
100
AcDbEntity
  8
0
  6
Continuous
 62
     0
370
    -2
100
AcDbLine
 10
1644.909241408394
 20
657.9948808532272
 30
0.0
 11
1644.909241408394
 21
651.5948808532271
 31
0.0
  0
INSERT
  5
75C
330
757
100
AcDbEntity
  8
0
  6
Continuous
 62
     0
370
    -2
100
AcDbBlockReference
  2
_Open30
 10
1644.909241408394
 20
660.4948808532271
 30
0.0
 41
2.5
 42
2.5
 43
2.5
 50
90.0
  0
INSERT
  5
75D
330
757
100
AcDbEntity
  8
0
  6
Continuous
 62
     0
370
    -2
100
AcDbBlockReference
  2
_Open30
 10
1644.909241408394
 20
649.094880853227
 30
0.0
 41
2.5
 42
2.5
 43
2.5
 50
270.0
  0
MTEXT
  5
75E
330
757
100
AcDbEntity
  8
0
  6
Continuous
 62
     4
100
AcDbMText
 10
1643.034241408394
 20
654.7948808532271
 30
0.0
 40
2.5
 41
0.0
 71
     5
 72
     1
  1
%%C11.4
 11
0.0000000000000001
 21
1.0
 31
0.0
 73
     1
 44
1.0
1001
ACAD
1000
MTEXTBEGIN
1070
    73
1070
     1
1070
    44
1040
1.0
1070
    74
1070
     0
1000
MTEXTEND
  0
POINT
  5
75F
330
757
100
AcDbEntity
  8
Defpoints
  6
Continuous
 62
     0
100
AcDbPoint
 10
1583.679108929905
 20
660.4948808532271
 30
0.0
  0
POINT
  5
760
330
757
100
AcDbEntity
  8
Defpoints
  6
Continuous
 62
     0
100
AcDbPoint
 10
1583.679108929905
 20
649.094880853227
 30
0.0
  0
POINT
  5
761
330
757
100
AcDbEntity
  8
Defpoints
  6
Continuous
 62
     0
100
AcDbPoint
 10
1644.909241408394
 20
649.094880853227
 30
0.0
  0
ENDBLK
  5
762
330
757
100
AcDbEntity
  8
0
100
AcDbBlockEnd
  0
BLOCK
  5
764
330
763
100
AcDbEntity
  8
0
100
AcDbBlockBegin
  2
*D9
 70
     1
 10
0.0
 20
0.0
 30
0.0
  3
*D9
  1

  0
LINE
  5
765
330
763
100
AcDbEntity
  8
0
  6
Continuous
 62
     0
370
    -2
100
AcDbLine
 10
1623.388212395524
 20
669.5448808532271
 30
0.0
 11
1623.388212395524
 21
682.7526136412871
 31
0.0
  0
LINE
  5
766
330
763
100
AcDbEntity
  8
0
  6
Continuous
 62
     0
370
    -2
100
AcDbLine
 10
1611.388212395524
 20
667.5448808532271
 30
0.0
 11
1611.388212395524
 21
682.7526136412871
 31
0.0
  0
LINE
  5
767
330
763
100
AcDbEntity
  8
0
  6
Continuous
 62
     0
370
    -2
100
AcDbLine
 10
1620.888212395524
 20
681.5026136412872
 30
0.0
 11
1613.888212395524
 21
681.5026136412872
 31
0.0
  0
INSERT
  5
768
330
763
100
AcDbEntity
  8
0
  6
Continuous
 62
     0
370
    -2
100
AcDbBlockReference
  2
_Open30
 10
1623.388212395524
 20
681.5026136412872
 30
0.0
 41
2.5
 42
2.5
 43
2.5
  0
INSERT
  5
769
330
763
100
AcDbEntity
  8
0
  6
Continuous
 62
     0
370
    -2
100
AcDbBlockReference
  2
_Open30
 10
1611.388212395524
 20
681.5026136412872
 30
0.0
 41
2.5
 42
2.5
 43
2.5
 50
180.0
  0
MTEXT
  5
76A
330
763
100
AcDbEntity
  8
0
  6
Continuous
 62
     4
100
AcDbMText
 10
1617.155099446216
 20
683.6276136412871
 30
0.0
 40
3.0
 41
0.0
 71
     5
 72
     1
  1
12
 73
     1
 44
1.0
1001
ACAD
1000
MTEXTBEGIN
1070
    73
1070
     1
1070
    44
1040
1.0
1070
    74
1070
     0
1000
MTEXTEND
  0
POINT
  5
76B
330
763
100
AcDbEntity
  8
Defpoints
  6
Continuous
 62
     0
100
AcDbPoint
 10
1623.388212395524
 20
669.2948808532271
 30
0.0
  0
POINT
  5
76C
330
763
100
AcDbEntity
  8
Defpoints
  6
Continuous
 62
     0
100
AcDbPoint
 10
1611.388212395524
 20
667.2948808532271
 30
0.0
  0
POINT
  5
76D
330
763
100
AcDbEntity
  8
Defpoints
  6
Continuous
 62
     0
100
AcDbPoint
 10
1611.388212395524
 20
681.5026136412872
 30
0.0
  0
ENDBLK
  5
76E
330
763
100
AcDbEntity
  8
0
100
AcDbBlockEnd
  0
BLOCK
  5
770
330
76F
100
AcDbEntity
  8
0
100
AcDbBlockBegin
  2
*D10
 70
     1
 10
0.0
 20
0.0
 30
0.0
  3
*D10
  1

  0
LINE
  5
771
330
76F
100
AcDbEntity
  8
0
  6
Continuous
 62
     0
370
    -2
100
AcDbLine
 10
1611.388212395524
 20
667.5448808532271
 30
0.0
 11
1611.388212395524
 21
682.7526136412871
 31
0.0
  0
LINE
  5
772
330
76F
100
AcDbEntity
  8
0
  6
Continuous
 62
     0
370
    -2
100
AcDbLine
 10
1580.388212395524
 20
655.0448808532271
 30
0.0
 11
1580.388212395524
 21
682.7526136412871
 31
0.0
  0
LINE
  5
773
330
76F
100
AcDbEntity
  8
0
  6
Continuous
 62
     0
370
    -2
100
AcDbLine
 10
1608.888212395524
 20
681.5026136412872
 30
0.0
 11
1582.888212395524
 21
681.5026136412872
 31
0.0
  0
INSERT
  5
774
330
76F
100
AcDbEntity
  8
0
  6
Continuous
 62
     0
370
    -2
100
AcDbBlockReference
  2
_Open30
 10
1611.388212395524
 20
681.5026136412872
 30
0.0
 41
2.5
 42
2.5
 43
2.5
  0
INSERT
  5
775
330
76F
100
AcDbEntity
  8
0
  6
Continuous
 62
     0
370
    -2
100
AcDbBlockReference
  2
_Open30
 10
1580.388212395524
 20
681.5026136412872
 30
0.0
 41
2.5
 42
2.5
 43
2.5
 50
180.0
  0
MTEXT
  5
776
330
76F
100
AcDbEntity
  8
0
  6
Continuous
 62
     4
100
AcDbMText
 10
1595.888212395524
 20
683.6276136412871
 30
0.0
 40
3.0
 41
0.0
 71
     5
 72
     1
  1
31
 73
     1
 44
1.0
1001
ACAD
1000
MTEXTBEGIN
1070
    73
1070
     1
1070
    44
1040
1.0
1070
    74
1070
     0
1000
MTEXTEND
  0
POINT
  5
777
330
76F
100
AcDbEntity
  8
Defpoints
  6
Continuous
 62
     0
100
AcDbPoint
 10
1611.388212395524
 20
667.2948808532271
 30
0.0
  0
POINT
  5
778
330
76F
100
AcDbEntity
  8
Defpoints
  6
Continuous
 62
     0
100
AcDbPoint
 10
1580.388212395524
 20
654.7948808532271
 30
0.0
  0
POINT
  5
779
330
76F
100
AcDbEntity
  8
Defpoints
  6
Continuous
 62
     0
100
AcDbPoint
 10
1580.388212395524
 20
681.5026136412872
 30
0.0
  0
ENDBLK
  5
77A
330
76F
100
AcDbEntity
  8
0
100
AcDbBlockEnd
  0
BLOCK
  5
77C
330
77B
100
AcDbEntity
  8
0
100
AcDbBlockBegin
  2
*D11
 70
     1
 10
0.0
 20
0.0
 30
0.0
  3
*D11
  1

  0
LINE
  5
77D
330
77B
100
AcDbEntity
  8
0
  6
Continuous
 62
     0
370
    -2
100
AcDbLine
 10
1494.888212395524
 20
663.0448808532271
 30
0.0
 11
1494.888212395524
 21
688.6275145779694
 31
0.0
  0
LINE
  5
77E
330
77B
100
AcDbEntity
  8
0
  6
Continuous
 62
     0
370
    -2
100
AcDbLine
 10
1623.388212395524
 20
669.5448808532271
 30
0.0
 11
1623.388212395524
 21
688.6275145779694
 31
0.0
  0
LINE
  5
77F
330
77B
100
AcDbEntity
  8
0
  6
Continuous
 62
     0
370
    -2
100
AcDbLine
 10
1497.388212395524
 20
687.3775145779695
 30
0.0
 11
1620.888212395524
 21
687.3775145779695
 31
0.0
  0
INSERT
  5
780
330
77B
100
AcDbEntity
  8
0
  6
Continuous
 62
     0
370
    -2
100
AcDbBlockReference
  2
_Open30
 10
1494.888212395524
 20
687.3775145779695
 30
0.0
 41
2.5
 42
2.5
 43
2.5
 50
180.0
  0
INSERT
  5
781
330
77B
100
AcDbEntity
  8
0
  6
Continuous
 62
     0
370
    -2
100
AcDbBlockReference
  2
_Open30
 10
1623.388212395524
 20
687.3775145779695
 30
0.0
 41
2.5
 42
2.5
 43
2.5
  0
MTEXT
  5
782
330
77B
100
AcDbEntity
  8
0
  6
Continuous
 62
     4
100
AcDbMText
 10
1560.821825598081
 20
689.5025145779694
 30
0.0
 40
3.0
 41
0.0
 71
     5
 72
     1
  1
128.5
 73
     1
 44
1.0
1001
ACAD
1000
MTEXTBEGIN
1070
    73
1070
     1
1070
    44
1040
1.0
1070
    74
1070
     0
1000
MTEXTEND
  0
POINT
  5
783
330
77B
100
AcDbEntity
  8
Defpoints
  6
Continuous
 62
     0
100
AcDbPoint
 10
1494.888212395524
 20
662.7948808532271
 30
0.0
  0
POINT
  5
784
330
77B
100
AcDbEntity
  8
Defpoints
  6
Continuous
 62
     0
100
AcDbPoint
 10
1623.388212395524
 20
669.2948808532271
 30
0.0
  0
POINT
  5
785
330
77B
100
AcDbEntity
  8
Defpoints
  6
Continuous
 62
     0
100
AcDbPoint
 10
1623.388212395524
 20
687.3775145779695
 30
0.0
  0
ENDBLK
  5
786
330
77B
100
AcDbEntity
  8
0
100
AcDbBlockEnd
  0
BLOCK
  5
7FE
330
7FD
100
AcDbEntity
  8
0
100
AcDbBlockBegin
  2
*D13
 70
     1
 10
0.0
 20
0.0
 30
0.0
  3
*D13
  1

  0
LINE
  5
845
330
7FD
100
AcDbEntity
  8
0
  6
Continuous
 62
     0
370
    -2
100
AcDbLine
 10
1344.793731355895
 20
511.841648334823
 30
0.0
 11
1383.315515647937
 21
511.841648334823
 31
0.0
  0
LINE
  5
846
330
7FD
100
AcDbEntity
  8
0
  6
Continuous
 62
     0
370
    -2
100
AcDbLine
 10
1344.793731355895
 20
478.841648334823
 30
0.0
 11
1383.315515647937
 21
478.841648334823
 31
0.0
  0
LINE
  5
847
330
7FD
100
AcDbEntity
  8
0
  6
Continuous
 62
     0
370
    -2
100
AcDbLine
 10
1382.065515647937
 20
509.341648334823
 30
0.0
 11
1382.065515647937
 21
481.341648334823
 31
0.0
  0
INSERT
  5
848
330
7FD
100
AcDbEntity
  8
0
  6
Continuous
 62
     0
370
    -2
100
AcDbBlockReference
  2
_Open30
 10
1382.065515647937
 20
511.841648334823
 30
0.0
 41
2.5
 42
2.5
 43
2.5
 50
90.0
  0
INSERT
  5
849
330
7FD
100
AcDbEntity
  8
0
  6
Continuous
 62
     0
370
    -2
100
AcDbBlockReference
  2
_Open30
 10
1382.065515647937
 20
478.841648334823
 30
0.0
 41
2.5
 42
2.5
 43
2.5
 50
270.0
  0
MTEXT
  5
84A
330
7FD
100
AcDbEntity
  8
0
  6
Continuous
 62
     4
100
AcDbMText
 10
1379.940515647937
 20
495.4085120799938
 30
0.0
 40
3.0
 41
0.0
 71
     5
 72
     1
  1
%%C33
 11
0.0000000000000001
 21
1.0
 31
0.0
 73
     1
 44
1.0
1001
ACAD
1000
MTEXTBEGIN
1070
    73
1070
     1
1070
    44
1040
1.0
1070
    74
1070
     0
1000
MTEXTEND
  0
POINT
  5
84B
330
7FD
100
AcDbEntity
  8
Defpoints
  6
Continuous
 62
     0
100
AcDbPoint
 10
1344.543731355895
 20
511.841648334823
 30
0.0
  0
POINT
  5
84C
330
7FD
100
AcDbEntity
  8
Defpoints
  6
Continuous
 62
     0
100
AcDbPoint
 10
1344.543731355895
 20
478.841648334823
 30
0.0
  0
POINT
  5
84D
330
7FD
100
AcDbEntity
  8
Defpoints
  6
Continuous
 62
     0
100
AcDbPoint
 10
1382.065515647937
 20
478.841648334823
 30
0.0
  0
ENDBLK
  5
7FF
330
7FD
100
AcDbEntity
  8
0
100
AcDbBlockEnd
  0
BLOCK
  5
80A
330
809
100
AcDbEntity
  8
0
100
AcDbBlockBegin
  2
*D14
 70
     1
 10
0.0
 20
0.0
 30
0.0
  3
*D14
  1

  0
LINE
  5
84E
330
809
100
AcDbEntity
  8
0
  6
Continuous
 62
     0
370
    -2
100
AcDbLine
 10
1333.793731355895
 20
501.991648334823
 30
0.0
 11
1375.512857960206
 21
501.991648334823
 31
0.0
  0
LINE
  5
84F
330
809
100
AcDbEntity
  8
0
  6
Continuous
 62
     0
370
    -2
100
AcDbLine
 10
1333.793731355895
 20
488.6916483348231
 30
0.0
 11
1375.512857960206
 21
488.6916483348231
 31
0.0
  0
LINE
  5
850
330
809
100
AcDbEntity
  8
0
  6
Continuous
 62
     0
370
    -2
100
AcDbLine
 10
1374.262857960206
 20
499.491648334823
 30
0.0
 11
1374.262857960206
 21
491.191648334823
 31
0.0
  0
INSERT
  5
851
330
809
100
AcDbEntity
  8
0
  6
Continuous
 62
     0
370
    -2
100
AcDbBlockReference
  2
_Open30
 10
1374.262857960206
 20
501.991648334823
 30
0.0
 41
2.5
 42
2.5
 43
2.5
 50
90.0
  0
INSERT
  5
852
330
809
100
AcDbEntity
  8
0
  6
Continuous
 62
     0
370
    -2
100
AcDbBlockReference
  2
_Open30
 10
1374.262857960206
 20
488.6916483348231
 30
0.0
 41
2.5
 42
2.5
 43
2.5
 50
270.0
  0
MTEXT
  5
853
330
809
100
AcDbEntity
  8
0
  6
Continuous
 62
     4
100
AcDbMText
 10
1372.387857960206
 20
495.341648334823
 30
0.0
 40
2.5
 41
0.0
 71
     5
 72
     1
  1
%%C13.3
 11
0.0000000000000001
 21
1.0
 31
0.0
 73
     1
 44
1.0
1001
ACAD
1000
MTEXTBEGIN
1070
    73
1070
     1
1070
    44
1040
1.0
1070
    74
1070
     0
1000
MTEXTEND
  0
POINT
  5
854
330
809
100
AcDbEntity
  8
Defpoints
  6
Continuous
 62
     0
100
AcDbPoint
 10
1333.543731355895
 20
501.991648334823
 30
0.0
  0
POINT
  5
855
330
809
100
AcDbEntity
  8
Defpoints
  6
Continuous
 62
     0
100
AcDbPoint
 10
1333.543731355895
 20
488.6916483348231
 30
0.0
  0
POINT
  5
856
330
809
100
AcDbEntity
  8
Defpoints
  6
Continuous
 62
     0
100
AcDbPoint
 10
1374.262857960206
 20
488.6916483348231
 30
0.0
  0
ENDBLK
  5
80B
330
809
100
AcDbEntity
  8
0
100
AcDbBlockEnd
  0
BLOCK
  5
816
330
815
100
AcDbEntity
  8
0
100
AcDbBlockBegin
  2
*D15
 70
     1
 10
0.0
 20
0.0
 30
0.0
  3
*D15
  1

  0
LINE
  5
857
330
815
100
AcDbEntity
  8
0
  6
Continuous
 62
     0
370
    -2
100
AcDbLine
 10
1307.084627890276
 20
501.041648334823
 30
0.0
 11
1369.314760368765
 21
501.041648334823
 31
0.0
  0
LINE
  5
858
330
815
100
AcDbEntity
  8
0
  6
Continuous
 62
     0
370
    -2
100
AcDbLine
 10
1307.084627890276
 20
489.641648334823
 30
0.0
 11
1369.314760368765
 21
489.641648334823
 31
0.0
  0
LINE
  5
859
330
815
100
AcDbEntity
  8
0
  6
Continuous
 62
     0
370
    -2
100
AcDbLine
 10
1368.064760368765
 20
498.541648334823
 30
0.0
 11
1368.064760368765
 21
492.141648334823
 31
0.0
  0
INSERT
  5
85A
330
815
100
AcDbEntity
  8
0
  6
Continuous
 62
     0
370
    -2
100
AcDbBlockReference
  2
_Open30
 10
1368.064760368765
 20
501.041648334823
 30
0.0
 41
2.5
 42
2.5
 43
2.5
 50
90.0
  0
INSERT
  5
85B
330
815
100
AcDbEntity
  8
0
  6
Continuous
 62
     0
370
    -2
100
AcDbBlockReference
  2
_Open30
 10
1368.064760368765
 20
489.641648334823
 30
0.0
 41
2.5
 42
2.5
 43
2.5
 50
270.0
  0
MTEXT
  5
85C
330
815
100
AcDbEntity
  8
0
  6
Continuous
 62
     4
100
AcDbMText
 10
1366.189760368765
 20
495.341648334823
 30
0.0
 40
2.5
 41
0.0
 71
     5
 72
     1
  1
%%C11.4
 11
0.0000000000000001
 21
1.0
 31
0.0
 73
     1
 44
1.0
1001
ACAD
1000
MTEXTBEGIN
1070
    73
1070
     1
1070
    44
1040
1.0
1070
    74
1070
     0
1000
MTEXTEND
  0
POINT
  5
85D
330
815
100
AcDbEntity
  8
Defpoints
  6
Continuous
 62
     0
100
AcDbPoint
 10
1306.834627890276
 20
501.041648334823
 30
0.0
  0
POINT
  5
85E
330
815
100
AcDbEntity
  8
Defpoints
  6
Continuous
 62
     0
100
AcDbPoint
 10
1306.834627890276
 20
489.641648334823
 30
0.0
  0
POINT
  5
85F
330
815
100
AcDbEntity
  8
Defpoints
  6
Continuous
 62
     0
100
AcDbPoint
 10
1368.064760368765
 20
489.641648334823
 30
0.0
  0
ENDBLK
  5
817
330
815
100
AcDbEntity
  8
0
100
AcDbBlockEnd
  0
BLOCK
  5
822
330
821
100
AcDbEntity
  8
0
100
AcDbBlockBegin
  2
*D16
 70
     1
 10
0.0
 20
0.0
 30
0.0
  3
*D16
  1

  0
LINE
  5
860
330
821
100
AcDbEntity
  8
0
  6
Continuous
 62
     0
370
    -2
100
AcDbLine
 10
1346.543731355895
 20
510.091648334823
 30
0.0
 11
1346.543731355895
 21
523.2993811228831
 31
0.0
  0
LINE
  5
861
330
821
100
AcDbEntity
  8
0
  6
Continuous
 62
     0
370
    -2
100
AcDbLine
 10
1334.543731355895
 20
508.091648334823
 30
0.0
 11
1334.543731355895
 21
523.2993811228831
 31
0.0
  0
LINE
  5
862
330
821
100
AcDbEntity
  8
0
  6
Continuous
 62
     0
370
    -2
100
AcDbLine
 10
1344.043731355895
 20
522.0493811228831
 30
0.0
 11
1337.043731355895
 21
522.0493811228831
 31
0.0
  0
INSERT
  5
863
330
821
100
AcDbEntity
  8
0
  6
Continuous
 62
     0
370
    -2
100
AcDbBlockReference
  2
_Open30
 10
1346.543731355895
 20
522.0493811228831
 30
0.0
 41
2.5
 42
2.5
 43
2.5
  0
INSERT
  5
864
330
821
100
AcDbEntity
  8
0
  6
Continuous
 62
     0
370
    -2
100
AcDbBlockReference
  2
_Open30
 10
1334.543731355895
 20
522.0493811228831
 30
0.0
 41
2.5
 42
2.5
 43
2.5
 50
180.0
  0
MTEXT
  5
865
330
821
100
AcDbEntity
  8
0
  6
Continuous
 62
     4
100
AcDbMText
 10
1340.310618406586
 20
524.1743811228831
 30
0.0
 40
3.0
 41
0.0
 71
     5
 72
     1
  1
12
 73
     1
 44
1.0
1001
ACAD
1000
MTEXTBEGIN
1070
    73
1070
     1
1070
    44
1040
1.0
1070
    74
1070
     0
1000
MTEXTEND
  0
POINT
  5
866
330
821
100
AcDbEntity
  8
Defpoints
  6
Continuous
 62
     0
100
AcDbPoint
 10
1346.543731355895
 20
509.841648334823
 30
0.0
  0
POINT
  5
867
330
821
100
AcDbEntity
  8
Defpoints
  6
Continuous
 62
     0
100
AcDbPoint
 10
1334.543731355895
 20
507.841648334823
 30
0.0
  0
POINT
  5
868
330
821
100
AcDbEntity
  8
Defpoints
  6
Continuous
 62
     0
100
AcDbPoint
 10
1334.543731355895
 20
522.0493811228831
 30
0.0
  0
ENDBLK
  5
823
330
821
100
AcDbEntity
  8
0
100
AcDbBlockEnd
  0
BLOCK
  5
82E
330
82D
100
AcDbEntity
  8
0
100
AcDbBlockBegin
  2
*D17
 70
     1
 10
0.0
 20
0.0
 30
0.0
  3
*D17
  1

  0
LINE
  5
869
330
82D
100
AcDbEntity
  8
0
  6
Continuous
 62
     0
370
    -2
100
AcDbLine
 10
1334.543731355895
 20
508.091648334823
 30
0.0
 11
1334.543731355895
 21
523.2993811228831
 31
0.0
  0
LINE
  5
86A
330
82D
100
AcDbEntity
  8
0
  6
Continuous
 62
     0
370
    -2
100
AcDbLine
 10
1303.543731355895
 20
495.591648334823
 30
0.0
 11
1303.543731355895
 21
523.2993811228831
 31
0.0
  0
LINE
  5
86B
330
82D
100
AcDbEntity
  8
0
  6
Continuous
 62
     0
370
    -2
100
AcDbLine
 10
1332.043731355895
 20
522.0493811228831
 30
0.0
 11
1306.043731355895
 21
522.0493811228831
 31
0.0
  0
INSERT
  5
86C
330
82D
100
AcDbEntity
  8
0
  6
Continuous
 62
     0
370
    -2
100
AcDbBlockReference
  2
_Open30
 10
1334.543731355895
 20
522.0493811228831
 30
0.0
 41
2.5
 42
2.5
 43
2.5
  0
INSERT
  5
86D
330
82D
100
AcDbEntity
  8
0
  6
Continuous
 62
     0
370
    -2
100
AcDbBlockReference
  2
_Open30
 10
1303.543731355895
 20
522.0493811228831
 30
0.0
 41
2.5
 42
2.5
 43
2.5
 50
180.0
  0
MTEXT
  5
86E
330
82D
100
AcDbEntity
  8
0
  6
Continuous
 62
     4
100
AcDbMText
 10
1319.043731355895
 20
524.1743811228831
 30
0.0
 40
3.0
 41
0.0
 71
     5
 72
     1
  1
31
 73
     1
 44
1.0
1001
ACAD
1000
MTEXTBEGIN
1070
    73
1070
     1
1070
    44
1040
1.0
1070
    74
1070
     0
1000
MTEXTEND
  0
POINT
  5
86F
330
82D
100
AcDbEntity
  8
Defpoints
  6
Continuous
 62
     0
100
AcDbPoint
 10
1334.543731355895
 20
507.841648334823
 30
0.0
  0
POINT
  5
870
330
82D
100
AcDbEntity
  8
Defpoints
  6
Continuous
 62
     0
100
AcDbPoint
 10
1303.543731355895
 20
495.341648334823
 30
0.0
  0
POINT
  5
871
330
82D
100
AcDbEntity
  8
Defpoints
  6
Continuous
 62
     0
100
AcDbPoint
 10
1303.543731355895
 20
522.0493811228831
 30
0.0
  0
ENDBLK
  5
82F
330
82D
100
AcDbEntity
  8
0
100
AcDbBlockEnd
  0
BLOCK
  5
83A
330
839
100
AcDbEntity
  8
0
100
AcDbBlockBegin
  2
*D18
 70
     1
 10
0.0
 20
0.0
 30
0.0
  3
*D18
  1

  0
LINE
  5
872
330
839
100
AcDbEntity
  8
0
  6
Continuous
 62
     0
370
    -2
100
AcDbLine
 10
1218.043731355895
 20
503.591648334823
 30
0.0
 11
1218.043731355895
 21
529.1742820595653
 31
0.0
  0
LINE
  5
873
330
839
100
AcDbEntity
  8
0
  6
Continuous
 62
     0
370
    -2
100
AcDbLine
 10
1346.543731355895
 20
510.091648334823
 30
0.0
 11
1346.543731355895
 21
529.1742820595653
 31
0.0
  0
LINE
  5
874
330
839
100
AcDbEntity
  8
0
  6
Continuous
 62
     0
370
    -2
100
AcDbLine
 10
1220.543731355895
 20
527.9242820595653
 30
0.0
 11
1344.043731355895
 21
527.9242820595653
 31
0.0
  0
INSERT
  5
875
330
839
100
AcDbEntity
  8
0
  6
Continuous
 62
     0
370
    -2
100
AcDbBlockReference
  2
_Open30
 10
1218.043731355895
 20
527.9242820595653
 30
0.0
 41
2.5
 42
2.5
 43
2.5
 50
180.0
  0
INSERT
  5
876
330
839
100
AcDbEntity
  8
0
  6
Continuous
 62
     0
370
    -2
100
AcDbBlockReference
  2
_Open30
 10
1346.543731355895
 20
527.9242820595653
 30
0.0
 41
2.5
 42
2.5
 43
2.5
  0
MTEXT
  5
877
330
839
100
AcDbEntity
  8
0
  6
Continuous
 62
     4
100
AcDbMText
 10
1283.977344558452
 20
530.0492820595653
 30
0.0
 40
3.0
 41
0.0
 71
     5
 72
     1
  1
128.5
 73
     1
 44
1.0
1001
ACAD
1000
MTEXTBEGIN
1070
    73
1070
     1
1070
    44
1040
1.0
1070
    74
1070
     0
1000
MTEXTEND
  0
POINT
  5
878
330
839
100
AcDbEntity
  8
Defpoints
  6
Continuous
 62
     0
100
AcDbPoint
 10
1218.043731355895
 20
503.341648334823
 30
0.0
  0
POINT
  5
879
330
839
100
AcDbEntity
  8
Defpoints
  6
Continuous
 62
     0
100
AcDbPoint
 10
1346.543731355895
 20
509.841648334823
 30
0.0
  0
POINT
  5
87A
330
839
100
AcDbEntity
  8
Defpoints
  6
Continuous
 62
     0
100
AcDbPoint
 10
1346.543731355895
 20
527.9242820595653
 30
0.0
  0
ENDBLK
  5
83B
330
839
100
AcDbEntity
  8
0
100
AcDbBlockEnd
  0
BLOCK
  5
87C
330
87B
100
AcDbEntity
  8
0
100
AcDbBlockBegin
  2
*D19
 70
     1
 10
0.0
 20
0.0
 30
0.0
  3
*D19
  1

  0
LINE
  5
87D
330
87B
100
AcDbEntity
  8
0
  6
Continuous
 62
     0
370
    -2
100
AcDbLine
 10
1628.366855634881
 20
671.2948808532271
 30
0.0
 11
1653.471287105922
 21
671.2948808532271
 31
0.0
  0
LINE
  5
87E
330
87B
100
AcDbEntity
  8
0
  6
Continuous
 62
     0
370
    -2
100
AcDbLine
 10
1628.366855634881
 20
638.2948808532271
 30
0.0
 11
1653.471287105922
 21
638.2948808532271
 31
0.0
  0
LINE
  5
87F
330
87B
100
AcDbEntity
  8
0
  6
Continuous
 62
     0
370
    -2
100
AcDbLine
 10
1652.221287105922
 20
668.7948808532271
 30
0.0
 11
1652.221287105922
 21
640.7948808532271
 31
0.0
  0
INSERT
  5
880
330
87B
100
AcDbEntity
  8
0
  6
Continuous
 62
     0
370
    -2
100
AcDbBlockReference
  2
_Open30
 10
1652.221287105922
 20
671.2948808532271
 30
0.0
 41
2.5
 42
2.5
 43
2.5
 50
90.0
  0
INSERT
  5
881
330
87B
100
AcDbEntity
  8
0
  6
Continuous
 62
     0
370
    -2
100
AcDbBlockReference
  2
_Open30
 10
1652.221287105922
 20
638.2948808532271
 30
0.0
 41
2.5
 42
2.5
 43
2.5
 50
270.0
  0
MTEXT
  5
882
330
87B
100
AcDbEntity
  8
0
  6
Continuous
 62
     4
100
AcDbMText
 10
1650.096287105922
 20
654.8617445983978
 30
0.0
 40
3.0
 41
0.0
 71
     5
 72
     1
  1
%%C33
 11
0.0000000000000001
 21
1.0
 31
0.0
 73
     1
 44
1.0
1001
ACAD
1000
MTEXTBEGIN
1070
    73
1070
     1
1070
    44
1040
1.0
1070
    74
1070
     0
1000
MTEXTEND
  0
POINT
  5
883
330
87B
100
AcDbEntity
  8
Defpoints
  6
Continuous
 62
     0
100
AcDbPoint
 10
1628.11685563488
 20
671.2948808532271
 30
0.0
  0
POINT
  5
884
330
87B
100
AcDbEntity
  8
Defpoints
  6
Continuous
 62
     0
100
AcDbPoint
 10
1628.11685563488
 20
638.2948808532271
 30
0.0
  0
POINT
  5
885
330
87B
100
AcDbEntity
  8
Defpoints
  6
Continuous
 62
     0
100
AcDbPoint
 10
1652.221287105922
 20
638.2948808532271
 30
0.0
  0
ENDBLK
  5
886
330
87B
100
AcDbEntity
  8
0
100
AcDbBlockEnd
  0
BLOCK
  5
888
330
887
100
AcDbEntity
  8
0
100
AcDbBlockBegin
  2
*D20
 70
     1
 10
0.0
 20
0.0
 30
0.0
  3
*D20
  1

  0
LINE
  5
889
330
887
100
AcDbEntity
  8
0
  6
Continuous
 62
     0
370
    -2
100
AcDbLine
 10
1617.36685563488
 20
661.4448808532271
 30
0.0
 11
1647.184420586988
 21
661.4448808532271
 31
0.0
  0
LINE
  5
88A
330
887
100
AcDbEntity
  8
0
  6
Continuous
 62
     0
370
    -2
100
AcDbLine
 10
1617.36685563488
 20
648.1448808532271
 30
0.0
 11
1647.184420586988
 21
648.1448808532271
 31
0.0
  0
LINE
  5
88B
330
887
100
AcDbEntity
  8
0
  6
Continuous
 62
     0
370
    -2
100
AcDbLine
 10
1645.934420586988
 20
658.9448808532271
 30
0.0
 11
1645.934420586988
 21
650.6448808532272
 31
0.0
  0
INSERT
  5
88C
330
887
100
AcDbEntity
  8
0
  6
Continuous
 62
     0
370
    -2
100
AcDbBlockReference
  2
_Open30
 10
1645.934420586988
 20
661.4448808532271
 30
0.0
 41
2.5
 42
2.5
 43
2.5
 50
90.0
  0
INSERT
  5
88D
330
887
100
AcDbEntity
  8
0
  6
Continuous
 62
     0
370
    -2
100
AcDbBlockReference
  2
_Open30
 10
1645.934420586988
 20
648.1448808532271
 30
0.0
 41
2.5
 42
2.5
 43
2.5
 50
270.0
  0
MTEXT
  5
88E
330
887
100
AcDbEntity
  8
0
  6
Continuous
 62
     4
100
AcDbMText
 10
1644.059420586988
 20
654.7948808532271
 30
0.0
 40
2.5
 41
0.0
 71
     5
 72
     1
  1
%%C13.3
 11
0.0000000000000001
 21
1.0
 31
0.0
 73
     1
 44
1.0
1001
ACAD
1000
MTEXTBEGIN
1070
    73
1070
     1
1070
    44
1040
1.0
1070
    74
1070
     0
1000
MTEXTEND
  0
POINT
  5
88F
330
887
100
AcDbEntity
  8
Defpoints
  6
Continuous
 62
     0
100
AcDbPoint
 10
1617.11685563488
 20
661.4448808532271
 30
0.0
  0
POINT
  5
890
330
887
100
AcDbEntity
  8
Defpoints
  6
Continuous
 62
     0
100
AcDbPoint
 10
1617.11685563488
 20
648.1448808532271
 30
0.0
  0
POINT
  5
891
330
887
100
AcDbEntity
  8
Defpoints
  6
Continuous
 62
     0
100
AcDbPoint
 10
1645.934420586988
 20
648.1448808532271
 30
0.0
  0
ENDBLK
  5
892
330
887
100
AcDbEntity
  8
0
100
AcDbBlockEnd
  0
BLOCK
  5
894
330
893
100
AcDbEntity
  8
0
100
AcDbBlockBegin
  2
*D21
 70
     1
 10
0.0
 20
0.0
 30
0.0
  3
*D21
  1

  0
LINE
  5
895
330
893
100
AcDbEntity
  8
0
  6
Continuous
 62
     0
370
    -2
100
AcDbLine
 10
1590.657752169262
 20
660.4948808532271
 30
0.0
 11
1641.312142197903
 21
660.4948808532271
 31
0.0
  0
LINE
  5
896
330
893
100
AcDbEntity
  8
0
  6
Continuous
 62
     0
370
    -2
100
AcDbLine
 10
1590.657752169262
 20
649.094880853227
 30
0.0
 11
1641.312142197903
 21
649.094880853227
 31
0.0
  0
LINE
  5
897
330
893
100
AcDbEntity
  8
0
  6
Continuous
 62
     0
370
    -2
100
AcDbLine
 10
1640.062142197903
 20
657.9948808532272
 30
0.0
 11
1640.062142197903
 21
651.5948808532271
 31
0.0
  0
INSERT
  5
898
330
893
100
AcDbEntity
  8
0
  6
Continuous
 62
     0
370
    -2
100
AcDbBlockReference
  2
_Open30
 10
1640.062142197903
 20
660.4948808532271
 30
0.0
 41
2.5
 42
2.5
 43
2.5
 50
90.0
  0
INSERT
  5
899
330
893
100
AcDbEntity
  8
0
  6
Continuous
 62
     0
370
    -2
100
AcDbBlockReference
  2
_Open30
 10
1640.062142197903
 20
649.094880853227
 30
0.0
 41
2.5
 42
2.5
 43
2.5
 50
270.0
  0
MTEXT
  5
89A
330
893
100
AcDbEntity
  8
0
  6
Continuous
 62
     4
100
AcDbMText
 10
1638.187142197903
 20
654.7948808532271
 30
0.0
 40
2.5
 41
0.0
 71
     5
 72
     1
  1
%%C11.4
 11
0.0000000000000001
 21
1.0
 31
0.0
 73
     1
 44
1.0
1001
ACAD
1000
MTEXTBEGIN
1070
    73
1070
     1
1070
    44
1040
1.0
1070
    74
1070
     0
1000
MTEXTEND
  0
POINT
  5
89B
330
893
100
AcDbEntity
  8
Defpoints
  6
Continuous
 62
     0
100
AcDbPoint
 10
1590.407752169261
 20
660.4948808532271
 30
0.0
  0
POINT
  5
89C
330
893
100
AcDbEntity
  8
Defpoints
  6
Continuous
 62
     0
100
AcDbPoint
 10
1590.407752169261
 20
649.094880853227
 30
0.0
  0
POINT
  5
89D
330
893
100
AcDbEntity
  8
Defpoints
  6
Continuous
 62
     0
100
AcDbPoint
 10
1640.062142197903
 20
649.094880853227
 30
0.0
  0
ENDBLK
  5
89E
330
893
100
AcDbEntity
  8
0
100
AcDbBlockEnd
  0
BLOCK
  5
8A0
330
89F
100
AcDbEntity
  8
0
100
AcDbBlockBegin
  2
*D22
 70
     1
 10
0.0
 20
0.0
 30
0.0
  3
*D22
  1

  0
LINE
  5
8A1
330
89F
100
AcDbEntity
  8
0
  6
Continuous
 62
     0
370
    -2
100
AcDbLine
 10
1630.11685563488
 20
669.5448808532271
 30
0.0
 11
1630.11685563488
 21
682.7526136412871
 31
0.0
  0
LINE
  5
8A2
330
89F
100
AcDbEntity
  8
0
  6
Continuous
 62
     0
370
    -2
100
AcDbLine
 10
1618.116855634881
 20
667.5448808532271
 30
0.0
 11
1618.116855634881
 21
682.7526136412871
 31
0.0
  0
LINE
  5
8A3
330
89F
100
AcDbEntity
  8
0
  6
Continuous
 62
     0
370
    -2
100
AcDbLine
 10
1627.616855634881
 20
681.5026136412872
 30
0.0
 11
1620.616855634881
 21
681.5026136412872
 31
0.0
  0
INSERT
  5
8A4
330
89F
100
AcDbEntity
  8
0
  6
Continuous
 62
     0
370
    -2
100
AcDbBlockReference
  2
_Open30
 10
1630.11685563488
 20
681.5026136412872
 30
0.0
 41
2.5
 42
2.5
 43
2.5
  0
INSERT
  5
8A5
330
89F
100
AcDbEntity
  8
0
  6
Continuous
 62
     0
370
    -2
100
AcDbBlockReference
  2
_Open30
 10
1618.116855634881
 20
681.5026136412872
 30
0.0
 41
2.5
 42
2.5
 43
2.5
 50
180.0
  0
MTEXT
  5
8A6
330
89F
100
AcDbEntity
  8
0
  6
Continuous
 62
     4
100
AcDbMText
 10
1623.883742685572
 20
683.6276136412871
 30
0.0
 40
3.0
 41
0.0
 71
     5
 72
     1
  1
12
 73
     1
 44
1.0
1001
ACAD
1000
MTEXTBEGIN
1070
    73
1070
     1
1070
    44
1040
1.0
1070
    74
1070
     0
1000
MTEXTEND
  0
POINT
  5
8A7
330
89F
100
AcDbEntity
  8
Defpoints
  6
Continuous
 62
     0
100
AcDbPoint
 10
1630.11685563488
 20
669.2948808532271
 30
0.0
  0
POINT
  5
8A8
330
89F
100
AcDbEntity
  8
Defpoints
  6
Continuous
 62
     0
100
AcDbPoint
 10
1618.116855634881
 20
667.2948808532271
 30
0.0
  0
POINT
  5
8A9
330
89F
100
AcDbEntity
  8
Defpoints
  6
Continuous
 62
     0
100
AcDbPoint
 10
1618.116855634881
 20
681.5026136412872
 30
0.0
  0
ENDBLK
  5
8AA
330
89F
100
AcDbEntity
  8
0
100
AcDbBlockEnd
  0
BLOCK
  5
8AC
330
8AB
100
AcDbEntity
  8
0
100
AcDbBlockBegin
  2
*D23
 70
     1
 10
0.0
 20
0.0
 30
0.0
  3
*D23
  1

  0
LINE
  5
8AD
330
8AB
100
AcDbEntity
  8
0
  6
Continuous
 62
     0
370
    -2
100
AcDbLine
 10
1618.116855634881
 20
667.5448808532271
 30
0.0
 11
1618.116855634881
 21
682.7526136412871
 31
0.0
  0
LINE
  5
8AE
330
8AB
100
AcDbEntity
  8
0
  6
Continuous
 62
     0
370
    -2
100
AcDbLine
 10
1587.116855634881
 20
655.0448808532271
 30
0.0
 11
1587.116855634881
 21
682.7526136412871
 31
0.0
  0
LINE
  5
8AF
330
8AB
100
AcDbEntity
  8
0
  6
Continuous
 62
     0
370
    -2
100
AcDbLine
 10
1615.61685563488
 20
681.5026136412872
 30
0.0
 11
1589.616855634881
 21
681.5026136412872
 31
0.0
  0
INSERT
  5
8B0
330
8AB
100
AcDbEntity
  8
0
  6
Continuous
 62
     0
370
    -2
100
AcDbBlockReference
  2
_Open30
 10
1618.116855634881
 20
681.5026136412872
 30
0.0
 41
2.5
 42
2.5
 43
2.5
  0
INSERT
  5
8B1
330
8AB
100
AcDbEntity
  8
0
  6
Continuous
 62
     0
370
    -2
100
AcDbBlockReference
  2
_Open30
 10
1587.116855634881
 20
681.5026136412872
 30
0.0
 41
2.5
 42
2.5
 43
2.5
 50
180.0
  0
MTEXT
  5
8B2
330
8AB
100
AcDbEntity
  8
0
  6
Continuous
 62
     4
100
AcDbMText
 10
1602.61685563488
 20
683.6276136412871
 30
0.0
 40
3.0
 41
0.0
 71
     5
 72
     1
  1
31
 73
     1
 44
1.0
1001
ACAD
1000
MTEXTBEGIN
1070
    73
1070
     1
1070
    44
1040
1.0
1070
    74
1070
     0
1000
MTEXTEND
  0
POINT
  5
8B3
330
8AB
100
AcDbEntity
  8
Defpoints
  6
Continuous
 62
     0
100
AcDbPoint
 10
1618.116855634881
 20
667.2948808532271
 30
0.0
  0
POINT
  5
8B4
330
8AB
100
AcDbEntity
  8
Defpoints
  6
Continuous
 62
     0
100
AcDbPoint
 10
1587.116855634881
 20
654.7948808532271
 30
0.0
  0
POINT
  5
8B5
330
8AB
100
AcDbEntity
  8
Defpoints
  6
Continuous
 62
     0
100
AcDbPoint
 10
1587.116855634881
 20
681.5026136412872
 30
0.0
  0
ENDBLK
  5
8B6
330
8AB
100
AcDbEntity
  8
0
100
AcDbBlockEnd
  0
BLOCK
  5
8B8
330
8B7
100
AcDbEntity
  8
0
100
AcDbBlockBegin
  2
*D24
 70
     1
 10
0.0
 20
0.0
 30
0.0
  3
*D24
  1

  0
LINE
  5
8B9
330
8B7
100
AcDbEntity
  8
0
  6
Continuous
 62
     0
370
    -2
100
AcDbLine
 10
1501.616855634881
 20
663.0448808532271
 30
0.0
 11
1501.616855634881
 21
688.6275145779694
 31
0.0
  0
LINE
  5
8BA
330
8B7
100
AcDbEntity
  8
0
  6
Continuous
 62
     0
370
    -2
100
AcDbLine
 10
1630.11685563488
 20
669.5448808532271
 30
0.0
 11
1630.11685563488
 21
688.6275145779694
 31
0.0
  0
LINE
  5
8BB
330
8B7
100
AcDbEntity
  8
0
  6
Continuous
 62
     0
370
    -2
100
AcDbLine
 10
1504.116855634881
 20
687.3775145779695
 30
0.0
 11
1627.616855634881
 21
687.3775145779695
 31
0.0
  0
INSERT
  5
8BC
330
8B7
100
AcDbEntity
  8
0
  6
Continuous
 62
     0
370
    -2
100
AcDbBlockReference
  2
_Open30
 10
1501.616855634881
 20
687.3775145779695
 30
0.0
 41
2.5
 42
2.5
 43
2.5
 50
180.0
  0
INSERT
  5
8BD
330
8B7
100
AcDbEntity
  8
0
  6
Continuous
 62
     0
370
    -2
100
AcDbBlockReference
  2
_Open30
 10
1630.11685563488
 20
687.3775145779695
 30
0.0
 41
2.5
 42
2.5
 43
2.5
  0
MTEXT
  5
8BE
330
8B7
100
AcDbEntity
  8
0
  6
Continuous
 62
     4
100
AcDbMText
 10
1567.550468837437
 20
689.5025145779694
 30
0.0
 40
3.0
 41
0.0
 71
     5
 72
     1
  1
128.5
 73
     1
 44
1.0
1001
ACAD
1000
MTEXTBEGIN
1070
    73
1070
     1
1070
    44
1040
1.0
1070
    74
1070
     0
1000
MTEXTEND
  0
POINT
  5
8BF
330
8B7
100
AcDbEntity
  8
Defpoints
  6
Continuous
 62
     0
100
AcDbPoint
 10
1501.616855634881
 20
662.7948808532271
 30
0.0
  0
POINT
  5
8C0
330
8B7
100
AcDbEntity
  8
Defpoints
  6
Continuous
 62
     0
100
AcDbPoint
 10
1630.11685563488
 20
669.2948808532271
 30
0.0
  0
POINT
  5
8C1
330
8B7
100
AcDbEntity
  8
Defpoints
  6
Continuous
 62
     0
100
AcDbPoint
 10
1630.11685563488
 20
687.3775145779695
 30
0.0
  0
ENDBLK
  5
8C2
330
8B7
100
AcDbEntity
  8
0
100
AcDbBlockEnd
  0
BLOCK
  5
93A
330
939
100
AcDbEntity
  8
0
100
AcDbBlockBegin
  2
*D26
 70
     1
 10
0.0
 20
0.0
 30
0.0
  3
*D26
  1

  0
LINE
  5
A37
330
939
100
AcDbEntity
  8
0
  6
Continuous
 62
     0
370
    -2
100
AcDbLine
 10
1335.120839002554
 20
672.5280526910414
 30
0.0
 11
1360.225270473595
 21
672.5280526910414
 31
0.0
  0
LINE
  5
A38
330
939
100
AcDbEntity
  8
0
  6
Continuous
 62
     0
370
    -2
100
AcDbLine
 10
1335.120839002554
 20
639.5280526910414
 30
0.0
 11
1360.225270473595
 21
639.5280526910414
 31
0.0
  0
LINE
  5
A39
330
939
100
AcDbEntity
  8
0
  6
Continuous
 62
     0
370
    -2
100
AcDbLine
 10
1358.975270473596
 20
670.0280526910415
 30
0.0
 11
1358.975270473596
 21
642.0280526910414
 31
0.0
  0
INSERT
  5
A3A
330
939
100
AcDbEntity
  8
0
  6
Continuous
 62
     0
370
    -2
100
AcDbBlockReference
  2
_Open30
 10
1358.975270473596
 20
672.5280526910414
 30
0.0
 41
2.5
 42
2.5
 43
2.5
 50
90.0
  0
INSERT
  5
A3B
330
939
100
AcDbEntity
  8
0
  6
Continuous
 62
     0
370
    -2
100
AcDbBlockReference
  2
_Open30
 10
1358.975270473596
 20
639.5280526910414
 30
0.0
 41
2.5
 42
2.5
 43
2.5
 50
270.0
  0
MTEXT
  5
A3C
330
939
100
AcDbEntity
  8
0
  6
Continuous
 62
     4
100
AcDbMText
 10
1356.850270473595
 20
656.0949164362122
 30
0.0
 40
3.0
 41
0.0
 71
     5
 72
     1
  1
%%C33
 11
0.0000000000000001
 21
1.0
 31
0.0
 73
     1
 44
1.0
1001
ACAD
1000
MTEXTBEGIN
1070
    73
1070
     1
1070
    44
1040
1.0
1070
    74
1070
     0
1000
MTEXTEND
  0
POINT
  5
A3D
330
939
100
AcDbEntity
  8
Defpoints
  6
Continuous
 62
     0
100
AcDbPoint
 10
1334.870839002554
 20
672.5280526910414
 30
0.0
  0
POINT
  5
A3E
330
939
100
AcDbEntity
  8
Defpoints
  6
Continuous
 62
     0
100
AcDbPoint
 10
1334.870839002554
 20
639.5280526910414
 30
0.0
  0
POINT
  5
A3F
330
939
100
AcDbEntity
  8
Defpoints
  6
Continuous
 62
     0
100
AcDbPoint
 10
1358.975270473596
 20
639.5280526910414
 30
0.0
  0
ENDBLK
  5
93B
330
939
100
AcDbEntity
  8
0
100
AcDbBlockEnd
  0
BLOCK
  5
946
330
945
100
AcDbEntity
  8
0
100
AcDbBlockBegin
  2
*D27
 70
     1
 10
0.0
 20
0.0
 30
0.0
  3
*D27
  1

  0
LINE
  5
A40
330
945
100
AcDbEntity
  8
0
  6
Continuous
 62
     0
370
    -2
100
AcDbLine
 10
1324.120839002554
 20
662.6780526910414
 30
0.0
 11
1353.938403954661
 21
662.6780526910414
 31
0.0
  0
LINE
  5
A41
330
945
100
AcDbEntity
  8
0
  6
Continuous
 62
     0
370
    -2
100
AcDbLine
 10
1324.120839002554
 20
649.3780526910414
 30
0.0
 11
1353.938403954661
 21
649.3780526910414
 31
0.0
  0
LINE
  5
A42
330
945
100
AcDbEntity
  8
0
  6
Continuous
 62
     0
370
    -2
100
AcDbLine
 10
1352.688403954661
 20
660.1780526910414
 30
0.0
 11
1352.688403954661
 21
651.8780526910415
 31
0.0
  0
INSERT
  5
A43
330
945
100
AcDbEntity
  8
0
  6
Continuous
 62
     0
370
    -2
100
AcDbBlockReference
  2
_Open30
 10
1352.688403954661
 20
662.6780526910414
 30
0.0
 41
2.5
 42
2.5
 43
2.5
 50
90.0
  0
INSERT
  5
A44
330
945
100
AcDbEntity
  8
0
  6
Continuous
 62
     0
370
    -2
100
AcDbBlockReference
  2
_Open30
 10
1352.688403954661
 20
649.3780526910414
 30
0.0
 41
2.5
 42
2.5
 43
2.5
 50
270.0
  0
MTEXT
  5
A45
330
945
100
AcDbEntity
  8
0
  6
Continuous
 62
     4
100
AcDbMText
 10
1350.813403954661
 20
656.0280526910414
 30
0.0
 40
2.5
 41
0.0
 71
     5
 72
     1
  1
%%C13.3
 11
0.0000000000000001
 21
1.0
 31
0.0
 73
     1
 44
1.0
1001
ACAD
1000
MTEXTBEGIN
1070
    73
1070
     1
1070
    44
1040
1.0
1070
    74
1070
     0
1000
MTEXTEND
  0
POINT
  5
A46
330
945
100
AcDbEntity
  8
Defpoints
  6
Continuous
 62
     0
100
AcDbPoint
 10
1323.870839002554
 20
662.6780526910414
 30
0.0
  0
POINT
  5
A47
330
945
100
AcDbEntity
  8
Defpoints
  6
Continuous
 62
     0
100
AcDbPoint
 10
1323.870839002554
 20
649.3780526910414
 30
0.0
  0
POINT
  5
A48
330
945
100
AcDbEntity
  8
Defpoints
  6
Continuous
 62
     0
100
AcDbPoint
 10
1352.688403954661
 20
649.3780526910414
 30
0.0
  0
ENDBLK
  5
947
330
945
100
AcDbEntity
  8
0
100
AcDbBlockEnd
  0
BLOCK
  5
952
330
951
100
AcDbEntity
  8
0
100
AcDbBlockBegin
  2
*D28
 70
     1
 10
0.0
 20
0.0
 30
0.0
  3
*D28
  1

  0
LINE
  5
A49
330
951
100
AcDbEntity
  8
0
  6
Continuous
 62
     0
370
    -2
100
AcDbLine
 10
1297.411735536935
 20
661.7280526910414
 30
0.0
 11
1348.066125565577
 21
661.7280526910414
 31
0.0
  0
LINE
  5
A4A
330
951
100
AcDbEntity
  8
0
  6
Continuous
 62
     0
370
    -2
100
AcDbLine
 10
1297.411735536935
 20
650.3280526910414
 30
0.0
 11
1348.066125565577
 21
650.3280526910414
 31
0.0
  0
LINE
  5
A4B
330
951
100
AcDbEntity
  8
0
  6
Continuous
 62
     0
370
    -2
100
AcDbLine
 10
1346.816125565577
 20
659.2280526910415
 30
0.0
 11
1346.816125565577
 21
652.8280526910414
 31
0.0
  0
INSERT
  5
A4C
330
951
100
AcDbEntity
  8
0
  6
Continuous
 62
     0
370
    -2
100
AcDbBlockReference
  2
_Open30
 10
1346.816125565577
 20
661.7280526910414
 30
0.0
 41
2.5
 42
2.5
 43
2.5
 50
90.0
  0
INSERT
  5
A4D
330
951
100
AcDbEntity
  8
0
  6
Continuous
 62
     0
370
    -2
100
AcDbBlockReference
  2
_Open30
 10
1346.816125565577
 20
650.3280526910414
 30
0.0
 41
2.5
 42
2.5
 43
2.5
 50
270.0
  0
MTEXT
  5
A4E
330
951
100
AcDbEntity
  8
0
  6
Continuous
 62
     4
100
AcDbMText
 10
1344.941125565576
 20
656.0280526910414
 30
0.0
 40
2.5
 41
0.0
 71
     5
 72
     1
  1
%%C11.4
 11
0.0000000000000001
 21
1.0
 31
0.0
 73
     1
 44
1.0
1001
ACAD
1000
MTEXTBEGIN
1070
    73
1070
     1
1070
    44
1040
1.0
1070
    74
1070
     0
1000
MTEXTEND
  0
POINT
  5
A4F
330
951
100
AcDbEntity
  8
Defpoints
  6
Continuous
 62
     0
100
AcDbPoint
 10
1297.161735536935
 20
661.7280526910414
 30
0.0
  0
POINT
  5
A50
330
951
100
AcDbEntity
  8
Defpoints
  6
Continuous
 62
     0
100
AcDbPoint
 10
1297.161735536935
 20
650.3280526910414
 30
0.0
  0
POINT
  5
A51
330
951
100
AcDbEntity
  8
Defpoints
  6
Continuous
 62
     0
100
AcDbPoint
 10
1346.816125565577
 20
650.3280526910414
 30
0.0
  0
ENDBLK
  5
953
330
951
100
AcDbEntity
  8
0
100
AcDbBlockEnd
  0
BLOCK
  5
95E
330
95D
100
AcDbEntity
  8
0
100
AcDbBlockBegin
  2
*D29
 70
     1
 10
0.0
 20
0.0
 30
0.0
  3
*D29
  1

  0
LINE
  5
A52
330
95D
100
AcDbEntity
  8
0
  6
Continuous
 62
     0
370
    -2
100
AcDbLine
 10
1336.870839002554
 20
670.7780526910414
 30
0.0
 11
1336.870839002554
 21
683.9857854791015
 31
0.0
  0
LINE
  5
A53
330
95D
100
AcDbEntity
  8
0
  6
Continuous
 62
     0
370
    -2
100
AcDbLine
 10
1324.870839002554
 20
668.7780526910414
 30
0.0
 11
1324.870839002554
 21
683.9857854791015
 31
0.0
  0
LINE
  5
A54
330
95D
100
AcDbEntity
  8
0
  6
Continuous
 62
     0
370
    -2
100
AcDbLine
 10
1334.370839002554
 20
682.7357854791015
 30
0.0
 11
1327.370839002554
 21
682.7357854791015
 31
0.0
  0
INSERT
  5
A55
330
95D
100
AcDbEntity
  8
0
  6
Continuous
 62
     0
370
    -2
100
AcDbBlockReference
  2
_Open30
 10
1336.870839002554
 20
682.7357854791015
 30
0.0
 41
2.5
 42
2.5
 43
2.5
  0
INSERT
  5
A56
330
95D
100
AcDbEntity
  8
0
  6
Continuous
 62
     0
370
    -2
100
AcDbBlockReference
  2
_Open30
 10
1324.870839002554
 20
682.7357854791015
 30
0.0
 41
2.5
 42
2.5
 43
2.5
 50
180.0
  0
MTEXT
  5
A57
330
95D
100
AcDbEntity
  8
0
  6
Continuous
 62
     4
100
AcDbMText
 10
1330.637726053245
 20
684.8607854791015
 30
0.0
 40
3.0
 41
0.0
 71
     5
 72
     1
  1
12
 73
     1
 44
1.0
1001
ACAD
1000
MTEXTBEGIN
1070
    73
1070
     1
1070
    44
1040
1.0
1070
    74
1070
     0
1000
MTEXTEND
  0
POINT
  5
A58
330
95D
100
AcDbEntity
  8
Defpoints
  6
Continuous
 62
     0
100
AcDbPoint
 10
1336.870839002554
 20
670.5280526910414
 30
0.0
  0
POINT
  5
A59
330
95D
100
AcDbEntity
  8
Defpoints
  6
Continuous
 62
     0
100
AcDbPoint
 10
1324.870839002554
 20
668.5280526910414
 30
0.0
  0
POINT
  5
A5A
330
95D
100
AcDbEntity
  8
Defpoints
  6
Continuous
 62
     0
100
AcDbPoint
 10
1324.870839002554
 20
682.7357854791015
 30
0.0
  0
ENDBLK
  5
95F
330
95D
100
AcDbEntity
  8
0
100
AcDbBlockEnd
  0
BLOCK
  5
96A
330
969
100
AcDbEntity
  8
0
100
AcDbBlockBegin
  2
*D30
 70
     1
 10
0.0
 20
0.0
 30
0.0
  3
*D30
  1

  0
LINE
  5
A5B
330
969
100
AcDbEntity
  8
0
  6
Continuous
 62
     0
370
    -2
100
AcDbLine
 10
1324.870839002554
 20
668.7780526910414
 30
0.0
 11
1324.870839002554
 21
683.9857854791015
 31
0.0
  0
LINE
  5
A5C
330
969
100
AcDbEntity
  8
0
  6
Continuous
 62
     0
370
    -2
100
AcDbLine
 10
1293.870839002554
 20
656.2780526910414
 30
0.0
 11
1293.870839002554
 21
683.9857854791015
 31
0.0
  0
LINE
  5
A5D
330
969
100
AcDbEntity
  8
0
  6
Continuous
 62
     0
370
    -2
100
AcDbLine
 10
1322.370839002554
 20
682.7357854791015
 30
0.0
 11
1296.370839002554
 21
682.7357854791015
 31
0.0
  0
INSERT
  5
A5E
330
969
100
AcDbEntity
  8
0
  6
Continuous
 62
     0
370
    -2
100
AcDbBlockReference
  2
_Open30
 10
1324.870839002554
 20
682.7357854791015
 30
0.0
 41
2.5
 42
2.5
 43
2.5
  0
INSERT
  5
A5F
330
969
100
AcDbEntity
  8
0
  6
Continuous
 62
     0
370
    -2
100
AcDbBlockReference
  2
_Open30
 10
1293.870839002554
 20
682.7357854791015
 30
0.0
 41
2.5
 42
2.5
 43
2.5
 50
180.0
  0
MTEXT
  5
A60
330
969
100
AcDbEntity
  8
0
  6
Continuous
 62
     4
100
AcDbMText
 10
1309.370839002554
 20
684.8607854791015
 30
0.0
 40
3.0
 41
0.0
 71
     5
 72
     1
  1
31
 73
     1
 44
1.0
1001
ACAD
1000
MTEXTBEGIN
1070
    73
1070
     1
1070
    44
1040
1.0
1070
    74
1070
     0
1000
MTEXTEND
  0
POINT
  5
A61
330
969
100
AcDbEntity
  8
Defpoints
  6
Continuous
 62
     0
100
AcDbPoint
 10
1324.870839002554
 20
668.5280526910414
 30
0.0
  0
POINT
  5
A62
330
969
100
AcDbEntity
  8
Defpoints
  6
Continuous
 62
     0
100
AcDbPoint
 10
1293.870839002554
 20
656.0280526910414
 30
0.0
  0
POINT
  5
A63
330
969
100
AcDbEntity
  8
Defpoints
  6
Continuous
 62
     0
100
AcDbPoint
 10
1293.870839002554
 20
682.7357854791015
 30
0.0
  0
ENDBLK
  5
96B
330
969
100
AcDbEntity
  8
0
100
AcDbBlockEnd
  0
BLOCK
  5
976
330
975
100
AcDbEntity
  8
0
100
AcDbBlockBegin
  2
*D31
 70
     1
 10
0.0
 20
0.0
 30
0.0
  3
*D31
  1

  0
LINE
  5
A64
330
975
100
AcDbEntity
  8
0
  6
Continuous
 62
     0
370
    -2
100
AcDbLine
 10
1218.370839002554
 20
665.5140077472212
 30
0.0
 11
1218.370839002554
 21
689.8606864157837
 31
0.0
  0
LINE
  5
A65
330
975
100
AcDbEntity
  8
0
  6
Continuous
 62
     0
370
    -2
100
AcDbLine
 10
1336.870839002554
 20
670.7780526910414
 30
0.0
 11
1336.870839002554
 21
689.8606864157837
 31
0.0
  0
LINE
  5
A66
330
975
100
AcDbEntity
  8
0
  6
Continuous
 62
     0
370
    -2
100
AcDbLine
 10
1220.870839002554
 20
688.6106864157838
 30
0.0
 11
1334.370839002554
 21
688.6106864157838
 31
0.0
  0
INSERT
  5
A67
330
975
100
AcDbEntity
  8
0
  6
Continuous
 62
     0
370
    -2
100
AcDbBlockReference
  2
_Open30
 10
1218.370839002554
 20
688.6106864157838
 30
0.0
 41
2.5
 42
2.5
 43
2.5
 50
180.0
  0
INSERT
  5
A68
330
975
100
AcDbEntity
  8
0
  6
Continuous
 62
     0
370
    -2
100
AcDbBlockReference
  2
_Open30
 10
1336.870839002554
 20
688.6106864157838
 30
0.0
 41
2.5
 42
2.5
 43
2.5
  0
MTEXT
  5
A69
330
975
100
AcDbEntity
  8
0
  6
Continuous
 62
     4
100
AcDbMText
 10
1274.304452205111
 20
690.7356864157837
 30
0.0
 40
3.0
 41
0.0
 71
     5
 72
     1
  1
118.5
 73
     1
 44
1.0
1001
ACAD
1000
MTEXTBEGIN
1070
    73
1070
     1
1070
    44
1040
1.0
1070
    74
1070
     0
1000
MTEXTEND
  0
POINT
  5
A6A
330
975
100
AcDbEntity
  8
Defpoints
  6
Continuous
 62
     0
100
AcDbPoint
 10
1218.370839002554
 20
665.2640077472211
 30
0.0
  0
POINT
  5
A6B
330
975
100
AcDbEntity
  8
Defpoints
  6
Continuous
 62
     0
100
AcDbPoint
 10
1336.870839002554
 20
670.5280526910414
 30
0.0
  0
POINT
  5
A6C
330
975
100
AcDbEntity
  8
Defpoints
  6
Continuous
 62
     0
100
AcDbPoint
 10
1336.870839002554
 20
688.6106864157838
 30
0.0
  0
ENDBLK
  5
977
330
975
100
AcDbEntity
  8
0
100
AcDbBlockEnd
  0
ENDSEC
  0
SECTION
  2
ENTITIES
  0
LINE
  5
9D
330
6B
100
AcDbEntity
  8
0
 62
     3
100
AcDbLine
 10
1284.037689
 20
724.1686599999996
 30
0.0
 11
1367.637689
 21
724.1686599999996
 31
0.0
  0
TEXT
  5
9E
330
6B
100
AcDbEntity
  8
0
 62
     3
100
AcDbText
 10
1356.912689
 20
720.0236599999997
 30
0.0
 40
3.2
  1
担
  7
高3.2
100
AcDbText
  0
TEXT
  5
9F
330
6B
100
AcDbEntity
  8
0
 62
     3
100
AcDbText
 10
1363.800189
 20
720.0236599999997
 30
0.0
 40
3.2
  1
当
  7
高3.2
100
AcDbText
  0
TEXT
  5
A0
330
6B
100
AcDbEntity
  8
0
 62
     3
100
AcDbText
 10
1316.716913
 20
720.006498
 30
0.0
 40
3.2
  1
変更・追記内容
  7
高3.2
100
AcDbText
  0
LINE
  5
A1
330
6B
100
AcDbEntity
  8
0
 62
     3
100
AcDbLine
 10
1284.037689
 20
728.6740489999997
 30
0.0
 11
1284.037689
 21
709.3186599999996
 31
0.0
  0
TEXT
  5
A2
330
6B
100
AcDbEntity
  8
0
 62
     3
100
AcDbText
 10
1288.575510512441
 20
715.4379698195476
 30
0.0
 40
2.0
  1
1
  7
高2
100
AcDbText
  0
TEXT
  5
A3
330
6B
100
AcDbEntity
  8
0
 62
     3
100
AcDbText
 10
1288.177674438426
 20
710.1873877333769
 30
0.0
 40
2.0
  1
2
  7
高2
100
AcDbText
  0
TEXT
  5
A4
330
6B
100
AcDbEntity
  8
0
 62
     3
100
AcDbText
 10
1296.996639
 20
719.9185694632047
 30
0.0
 40
3.2
  1
日
  7
高3.2
100
AcDbText
  0
TEXT
  5
A5
330
6B
100
AcDbEntity
  8
0
 62
     3
100
AcDbText
 10
1305.873513
 20
719.9185694632047
 30
0.0
 40
3.2
  1
付
  7
高3.2
100
AcDbText
  0
TEXT
  5
A6
330
6B
100
AcDbEntity
  8
0
 62
     3
100
AcDbText
 10
1296.82248
 20
724.8186599999996
 30
0.0
 40
3.2
  1
図
  7
高3.2
100
AcDbText
  0
TEXT
  5
A7
330
6B
100
AcDbEntity
  8
0
 62
     3
100
AcDbText
 10
1315.478375
 20
724.8186599999996
 30
0.0
 40
3.2
  1
面
  7
高3.2
100
AcDbText
  0
TEXT
  5
A8
330
6B
100
AcDbEntity
  8
0
 62
     3
100
AcDbText
 10
1334.13427
 20
724.8186599999996
 30
0.0
 40
3.2
  1
略
  7
高3.2
100
AcDbText
  0
TEXT
  5
A9
330
6B
100
AcDbEntity
  8
0
 62
     3
100
AcDbText
 10
1352.790165
 20
724.8186599999996
 30
0.0
 40
3.2
  1
歴
  7
高3.2
100
AcDbText
  0
TEXT
  5
AA
330
6B
100
AcDbEntity
  8
0
 62
     3
100
AcDbText
 10
1284.640053
 20
719.9436599999996
 30
0.0
 40
3.2
  1
記
  7
高3.2
100
AcDbText
  0
TEXT
  5
AB
330
6B
100
AcDbEntity
  8
0
 62
     3
100
AcDbText
 10
1290.892961
 20
719.9436599999996
 30
0.0
 40
3.2
  1
号
  7
高3.2
100
AcDbText
  0
LINE
  5
AC
330
6B
100
AcDbEntity
  8
0
 62
     3
100
AcDbLine
 10
1229.12828
 20
737.146666
 30
0.0
 11
1229.12828
 21
735.8981069999996
 31
0.0
  0
LINE
  5
AD
330
6B
100
AcDbEntity
  8
0
 62
     3
100
AcDbLine
 10
1358.039045
 20
709.3186599999996
 30
0.0
 11
1284.037689
 21
709.3186599999996
 31
0.0
  0
LINE
  5
AE
330
6B
100
AcDbEntity
  8
0
 62
     3
100
AcDbLine
 10
1366.189381
 20
709.3186599999996
 30
0.0
 11
1358.039045
 21
709.3186599999996
 31
0.0
  0
LINE
  5
AF
330
6B
100
AcDbEntity
  8
0
 62
     3
100
AcDbLine
 10
1366.189381
 20
709.3186599999996
 30
0.0
 11
1367.637689
 21
709.3186599999996
 31
0.0
  0
LINE
  5
B0
330
6B
100
AcDbEntity
  8
0
 62
     2
100
AcDbLine
 10
1217.214941
 20
730.5073769999997
 30
0.0
 11
1217.650689
 21
730.2799089999997
 31
0.0
  0
LINE
  5
B1
330
6B
100
AcDbEntity
  8
0
 62
     2
100
AcDbLine
 10
1217.214941
 20
726.7767459999999
 30
0.0
 11
1217.650689
 21
727.004215
 31
0.0
  0
LINE
  5
B2
330
6B
100
AcDbEntity
  8
0
 62
     2
100
AcDbLine
 10
1217.650689
 20
730.2799089999997
 30
0.0
 11
1217.650689
 21
727.004215
 31
0.0
  0
LINE
  5
B3
330
6B
100
AcDbEntity
  8
0
 62
     2
100
AcDbLine
 10
1218.754206
 20
726.7767459999999
 30
0.0
 11
1218.318458
 21
727.004215
 31
0.0
  0
LINE
  5
B4
330
6B
100
AcDbEntity
  8
0
 62
     2
100
AcDbLine
 10
1218.318458
 20
729.001073
 30
0.0
 11
1218.318458
 21
727.004215
 31
0.0
  0
LINE
  5
B5
330
6B
100
AcDbEntity
  8
0
 62
     2
100
AcDbLine
 10
1221.296069
 20
730.5073769999997
 30
0.0
 11
1220.860321
 21
730.2799089999997
 31
0.0
  0
LINE
  5
B6
330
6B
100
AcDbEntity
  8
0
 62
     2
100
AcDbLine
 10
1219.756804
 20
730.5073769999997
 30
0.0
 11
1220.192552
 21
730.2799089999997
 31
0.0
  0
LINE
  5
B7
330
6B
100
AcDbEntity
  8
0
 62
     2
100
AcDbLine
 10
1220.192552
 20
730.2799089999997
 30
0.0
 11
1220.192552
 21
728.837572
 31
0.0
  0
LINE
  5
B8
330
6B
100
AcDbEntity
  8
0
 62
     2
100
AcDbLine
 10
1220.860321
 20
730.2799089999997
 30
0.0
 11
1220.860321
 21
726.5651849999997
 31
0.0
  0
LINE
  5
B9
330
6B
100
AcDbEntity
  8
0
 62
     2
100
AcDbLine
 10
1221.511366
 20
730.507374
 30
0.0
 11
1221.947113
 21
730.279903
 31
0.0
  0
LINE
  5
BA
330
6B
100
AcDbEntity
  8
0
 62
     2
100
AcDbLine
 10
1221.511288
 20
726.776796
 30
0.0
 11
1221.947044
 21
727.004249
 31
0.0
  0
LINE
  5
BB
330
6B
100
AcDbEntity
  8
0
 62
     2
100
AcDbLine
 10
1221.947113
 20
730.279903
 30
0.0
 11
1221.947113
 21
727.004249
 31
0.0
  0
LINE
  5
BC
330
6B
100
AcDbEntity
  8
0
 62
     2
100
AcDbLine
 10
1223.440903
 20
730.5073509999997
 30
0.0
 11
1223.005152
 21
730.2798889999997
 31
0.0
  0
LINE
  5
BD
330
6B
100
AcDbEntity
  8
0
 62
     2
100
AcDbLine
 10
1223.005152
 20
730.2798889999997
 30
0.0
 11
1223.005152
 21
727.0042349999997
 31
0.0
  0
LINE
  5
BE
330
6B
100
AcDbEntity
  8
0
 62
     2
100
AcDbLine
 10
1223.440903
 20
726.776773
 30
0.0
 11
1223.005152
 21
727.0042349999997
 31
0.0
  0
LINE
  5
BF
330
6B
100
AcDbEntity
  8
0
 62
     2
100
AcDbLine
 10
1227.131156
 20
730.5073099999997
 30
0.0
 11
1227.566903
 21
730.27984
 31
0.0
  0
LINE
  5
C0
330
6B
100
AcDbEntity
  8
0
 62
     2
100
AcDbLine
 10
1227.566903
 20
730.27984
 30
0.0
 11
1227.566846
 21
727.004186
 31
0.0
  0
LINE
  5
C1
330
6B
100
AcDbEntity
  8
0
 62
     2
100
AcDbLine
 10
1227.131091
 20
726.776732
 30
0.0
 11
1227.566846
 21
727.004186
 31
0.0
  0
LINE
  5
C2
330
6B
100
AcDbEntity
  8
0
 62
     2
100
AcDbLine
 10
1229.083417
 20
730.5073099999997
 30
0.0
 11
1228.64767
 21
730.27984
 31
0.0
  0
LINE
  5
C3
330
6B
100
AcDbEntity
  8
0
 62
     2
100
AcDbLine
 10
1229.083482
 20
726.776732
 30
0.0
 11
1228.647727
 21
727.004186
 31
0.0
  0
LINE
  5
C4
330
6B
100
AcDbEntity
  8
0
 62
     2
100
AcDbLine
 10
1229.287145
 20
730.5073099999997
 30
0.0
 11
1229.722892
 21
730.27984
 31
0.0
  0
LINE
  5
C5
330
6B
100
AcDbEntity
  8
0
 62
     2
100
AcDbLine
 10
1229.28708
 20
726.776732
 30
0.0
 11
1229.722835
 21
727.004186
 31
0.0
  0
LINE
  5
C6
330
6B
100
AcDbEntity
  8
0
 62
     2
100
AcDbLine
 10
1231.239406
 20
730.5073099999997
 30
0.0
 11
1230.803659
 21
730.27984
 31
0.0
  0
LINE
  5
C7
330
6B
100
AcDbEntity
  8
0
 62
     2
100
AcDbLine
 10
1230.803659
 20
730.27984
 30
0.0
 11
1230.803716
 21
727.004186
 31
0.0
  0
LINE
  5
C8
330
6B
100
AcDbEntity
  8
0
 62
     2
100
AcDbLine
 10
1231.239471
 20
726.776732
 30
0.0
 11
1230.803716
 21
727.004186
 31
0.0
  0
LINE
  5
C9
330
6B
100
AcDbEntity
  8
0
 62
     2
100
AcDbLine
 10
1229.722867
 20
728.852707
 30
0.0
 11
1228.647695
 21
728.852707
 31
0.0
  0
LINE
  5
CA
330
6B
100
AcDbEntity
  8
0
 62
     2
100
AcDbLine
 10
1229.72286
 20
728.431416
 30
0.0
 11
1228.647702
 21
728.431416
 31
0.0
  0
LINE
  5
CB
330
6B
100
AcDbEntity
  8
0
 62
     2
100
AcDbLine
 10
1229.722892
 20
730.27984
 30
0.0
 11
1229.722867
 21
728.852707
 31
0.0
  0
LINE
  5
CC
330
6B
100
AcDbEntity
  8
0
 62
     2
100
AcDbLine
 10
1229.72286
 20
728.431416
 30
0.0
 11
1229.722835
 21
727.004186
 31
0.0
  0
LINE
  5
CD
330
6B
100
AcDbEntity
  8
0
 62
     2
100
AcDbLine
 10
1228.64767
 20
730.27984
 30
0.0
 11
1228.647695
 21
728.852707
 31
0.0
  0
LINE
  5
CE
330
6B
100
AcDbEntity
  8
0
 62
     2
100
AcDbLine
 10
1228.647702
 20
728.431416
 30
0.0
 11
1228.647727
 21
727.004186
 31
0.0
  0
LINE
  5
CF
330
6B
100
AcDbEntity
  8
0
 62
     2
100
AcDbLine
 10
1231.446365
 20
730.5073099999997
 30
0.0
 11
1231.882112
 21
730.27984
 31
0.0
  0
LINE
  5
D0
330
6B
100
AcDbEntity
  8
0
 62
     2
100
AcDbLine
 10
1231.882112
 20
730.27984
 30
0.0
 11
1231.882055
 21
727.004186
 31
0.0
  0
LINE
  5
D1
330
6B
100
AcDbEntity
  8
0
 62
     2
100
AcDbLine
 10
1231.4463
 20
726.776732
 30
0.0
 11
1231.882055
 21
727.004186
 31
0.0
  0
LINE
  5
D2
330
6B
100
AcDbEntity
  8
0
 62
     2
100
AcDbLine
 10
1233.375875
 20
730.5073099999997
 30
0.0
 11
1232.940128
 21
730.27984
 31
0.0
  0
LINE
  5
D3
330
6B
100
AcDbEntity
  8
0
 62
     2
100
AcDbLine
 10
1232.940128
 20
730.27984
 30
0.0
 11
1232.940185
 21
727.004186
 31
0.0
  0
LINE
  5
D4
330
6B
100
AcDbEntity
  8
0
 62
     2
100
AcDbLine
 10
1233.375941
 20
726.776732
 30
0.0
 11
1232.940185
 21
727.004186
 31
0.0
  0
LINE
  5
D5
330
6B
100
AcDbEntity
  8
0
 62
     2
100
AcDbLine
 10
1233.590235
 20
730.5073099999997
 30
0.0
 11
1234.025982
 21
730.27984
 31
0.0
  0
LINE
  5
D6
330
6B
100
AcDbEntity
  8
0
 62
     2
100
AcDbLine
 10
1234.025982
 20
730.27984
 30
0.0
 11
1234.025925
 21
727.004186
 31
0.0
  0
LINE
  5
D7
330
6B
100
AcDbEntity
  8
0
 62
     2
100
AcDbLine
 10
1233.59017
 20
726.776732
 30
0.0
 11
1234.025925
 21
727.004186
 31
0.0
  0
ARC
  5
D8
330
6B
100
AcDbEntity
  8
0
 62
     2
100
AcDbCircle
 10
1225.739245
 20
728.6514509999997
 30
0.0
 40
2.086285999999998
100
AcDbArc
 50
97.701524
 51
270.0
  0
ARC
  5
D9
330
6B
100
AcDbEntity
  8
0
 62
     2
100
AcDbCircle
 10
1238.619846
 20
728.6304949999999
 30
0.0
 40
2.108943
100
AcDbArc
 50
0.31425
 51
69.00558199999998
  0
ARC
  5
DA
330
6B
100
AcDbEntity
  8
0
 62
     2
100
AcDbCircle
 10
1239.080521
 20
728.6304949999999
 30
0.0
 40
2.108943
100
AcDbArc
 50
110.994418
 51
148.116611
  0
ARC
  5
DB
330
6B
100
AcDbEntity
  8
0
 62
     2
100
AcDbCircle
 10
1238.619846
 20
728.653629
 30
0.0
 40
2.108943
100
AcDbArc
 50
290.994418
 51
359.68575
  0
ARC
  5
DC
330
6B
100
AcDbEntity
  8
0
 62
     2
100
AcDbCircle
 10
1239.080521
 20
728.653629
 30
0.0
 40
2.108943
100
AcDbArc
 50
211.883389
 51
249.005582
  0
ARC
  5
DD
330
6B
100
AcDbEntity
  8
0
 62
     2
100
AcDbCircle
 10
1238.850183
 20
729.5048669999999
 30
0.0
 40
1.214070999999999
100
AcDbArc
 50
64.365172
 51
115.634828
  0
ARC
  5
DE
330
6B
100
AcDbEntity
  8
0
 62
     2
100
AcDbCircle
 10
1238.850183
 20
727.7792559999997
 30
0.0
 40
1.214070999999999
100
AcDbArc
 50
244.365172
 51
295.634828
  0
ARC
  5
DF
330
6B
100
AcDbEntity
  8
0
 62
     2
100
AcDbCircle
 10
1238.850183
 20
729.5279289999997
 30
0.0
 40
0.5958560000000001
100
AcDbArc
 50
19.486606
 51
160.513394
  0
ARC
  5
E0
330
6B
100
AcDbEntity
  8
0
 62
     2
100
AcDbCircle
 10
1238.850183
 20
727.756195
 30
0.0
 40
0.5958560000000001
100
AcDbArc
 50
199.4866059999999
 51
340.513394
  0
ARC
  5
E1
330
6B
100
AcDbEntity
  8
0
 62
     3
100
AcDbCircle
 10
1234.107711
 20
706.4140019999999
 30
0.0
 40
26.04
100
AcDbArc
 50
69.50571500000001
 51
81.689988
  0
ARC
  5
E2
330
6B
100
AcDbEntity
  8
0
 62
     3
100
AcDbCircle
 10
1234.107711
 20
750.8701219999997
 30
0.0
 40
26.04
100
AcDbArc
 50
278.310012
 51
290.494285
  0
ARC
  5
E3
330
6B
100
AcDbEntity
  8
0
 62
     3
100
AcDbCircle
 10
1242.415915
 20
728.642062
 30
0.0
 40
2.31
100
AcDbArc
 50
290.494285
 51
69.50571500000001
  0
ARC
  5
E4
330
6B
100
AcDbEntity
  8
0
 62
     3
100
AcDbCircle
 10
1215.115915
 20
728.642062
 30
0.0
 40
2.31
100
AcDbArc
 50
110.494285
 51
249.505715
  0
ARC
  5
E5
330
6B
100
AcDbEntity
  8
0
 62
     3
100
AcDbCircle
 10
1223.424119
 20
706.4140019999999
 30
0.0
 40
26.04
100
AcDbArc
 50
98.31001200000001
 51
110.494285
  0
ARC
  5
E6
330
6B
100
AcDbEntity
  8
0
 62
     3
100
AcDbCircle
 10
1223.424119
 20
750.8701219999997
 30
0.0
 40
26.04
100
AcDbArc
 50
249.505715
 51
261.689988
  0
ARC
  5
E7
330
6B
100
AcDbEntity
  8
0
 62
     3
100
AcDbCircle
 10
1228.765915
 20
669.842062
 30
0.0
 40
63.0
100
AcDbArc
 50
81.689988
 51
98.31001200000001
  0
ARC
  5
E8
330
6B
100
AcDbEntity
  8
0
 62
     3
100
AcDbCircle
 10
1228.765915
 20
787.4420619999997
 30
0.0
 40
63.0
100
AcDbArc
 50
261.689988
 51
278.310012
  0
ARC
  5
E9
330
6B
100
AcDbEntity
  8
0
 62
     3
100
AcDbCircle
 10
1228.765915
 20
669.842062
 30
0.0
 40
62.37
100
AcDbArc
 50
81.689988
 51
98.31001200000001
  0
ARC
  5
EA
330
6B
100
AcDbEntity
  8
0
 62
     3
100
AcDbCircle
 10
1228.765915
 20
787.4420619999997
 30
0.0
 40
62.37
100
AcDbArc
 50
261.689988
 51
278.310012
  0
ARC
  5
EB
330
6B
100
AcDbEntity
  8
0
 62
     3
100
AcDbCircle
 10
1234.107711
 20
750.8701219999997
 30
0.0
 40
25.41
100
AcDbArc
 50
278.310012
 51
290.494285
  0
ARC
  5
EC
330
6B
100
AcDbEntity
  8
0
 62
     3
100
AcDbCircle
 10
1234.107711
 20
706.4140019999999
 30
0.0
 40
25.41
100
AcDbArc
 50
69.50571500000001
 51
81.689988
  0
ARC
  5
ED
330
6B
100
AcDbEntity
  8
0
 62
     3
100
AcDbCircle
 10
1242.415915
 20
728.642062
 30
0.0
 40
1.679999999999999
100
AcDbArc
 50
290.494285
 51
69.50571500000001
  0
ARC
  5
EE
330
6B
100
AcDbEntity
  8
0
 62
     3
100
AcDbCircle
 10
1215.115915
 20
728.642062
 30
0.0
 40
1.679999999999999
100
AcDbArc
 50
110.494285
 51
249.505715
  0
ARC
  5
EF
330
6B
100
AcDbEntity
  8
0
 62
     3
100
AcDbCircle
 10
1223.424119
 20
706.4140019999999
 30
0.0
 40
25.41
100
AcDbArc
 50
98.31001200000001
 51
110.494285
  0
ARC
  5
F0
330
6B
100
AcDbEntity
  8
0
 62
     3
100
AcDbCircle
 10
1223.424119
 20
750.8701219999997
 30
0.0
 40
25.41
100
AcDbArc
 50
249.505715
 51
261.689988
  0
LINE
  5
F1
330
6B
100
AcDbEntity
  8
0
 62
     2
100
AcDbLine
 10
1233.375876
 20
726.5651849999997
 30
0.0
 11
1231.446364
 21
726.5651849999997
 31
0.0
  0
LINE
  5
F2
330
6B
100
AcDbEntity
  8
0
 62
     2
100
AcDbLine
 10
1233.375876
 20
726.7767459999999
 30
0.0
 11
1233.375876
 21
726.5651849999997
 31
0.0
  0
LINE
  5
F3
330
6B
100
AcDbEntity
  8
0
 62
     2
100
AcDbLine
 10
1231.239407
 20
730.718839
 30
0.0
 11
1229.287144
 21
730.718839
 31
0.0
  0
LINE
  5
F4
330
6B
100
AcDbEntity
  8
0
 62
     2
100
AcDbLine
 10
1231.239407
 20
730.718839
 30
0.0
 11
1231.239407
 21
730.5073769999997
 31
0.0
  0
LINE
  5
F5
330
6B
100
AcDbEntity
  8
0
 62
     2
100
AcDbLine
 10
1231.239407
 20
726.7767459999999
 30
0.0
 11
1231.239407
 21
726.565087
 31
0.0
  0
LINE
  5
F6
330
6B
100
AcDbEntity
  8
0
 62
     2
100
AcDbLine
 10
1231.239407
 20
726.565087
 30
0.0
 11
1229.287144
 21
726.565087
 31
0.0
  0
LINE
  5
F7
330
6B
100
AcDbEntity
  8
0
 62
     2
100
AcDbLine
 10
1233.375876
 20
730.7189379999996
 30
0.0
 11
1233.375876
 21
730.5073769999997
 31
0.0
  0
LINE
  5
F8
330
6B
100
AcDbEntity
  8
0
 62
     2
100
AcDbLine
 10
1233.375876
 20
730.7189379999996
 30
0.0
 11
1231.446364
 21
730.7189379999996
 31
0.0
  0
LINE
  5
F9
330
6B
100
AcDbEntity
  8
0
 62
     2
100
AcDbLine
 10
1231.446364
 20
730.7189379999996
 30
0.0
 11
1231.446364
 21
730.5073769999997
 31
0.0
  0
LINE
  5
FA
330
6B
100
AcDbEntity
  8
0
 62
     2
100
AcDbLine
 10
1233.590234
 20
726.7767459999999
 30
0.0
 11
1233.590234
 21
726.5651849999997
 31
0.0
  0
LINE
  5
FB
330
6B
100
AcDbEntity
  8
0
 62
     2
100
AcDbLine
 10
1235.574535
 20
726.5651849999997
 30
0.0
 11
1233.590234
 21
726.5651849999997
 31
0.0
  0
LINE
  5
FC
330
6B
100
AcDbEntity
  8
0
 62
     2
100
AcDbLine
 10
1235.083998
 20
730.051169
 30
0.0
 11
1235.083998
 21
727.2329549999997
 31
0.0
  0
LINE
  5
FD
330
6B
100
AcDbEntity
  8
0
 62
     2
100
AcDbLine
 10
1235.083998
 20
727.2329549999997
 30
0.0
 11
1235.274047
 21
727.2329549999997
 31
0.0
  0
ARC
  5
FE
330
6B
100
AcDbEntity
  8
0
 62
     2
100
AcDbCircle
 10
1234.302261
 20
728.642062
 30
0.0
 40
1.711709999999999
100
AcDbArc
 50
304.591955
 51
55.408045
  0
LINE
  5
FF
330
6B
100
AcDbEntity
  8
0
 62
     2
100
AcDbLine
 10
1235.574535
 20
730.7189379999996
 30
0.0
 11
1233.590234
 21
730.7189379999996
 31
0.0
  0
LINE
  5
100
330
6B
100
AcDbEntity
  8
0
 62
     2
100
AcDbLine
 10
1233.590234
 20
730.7189379999996
 30
0.0
 11
1233.590234
 21
730.5073769999997
 31
0.0
  0
LINE
  5
101
330
6B
100
AcDbEntity
  8
0
 62
     2
100
AcDbLine
 10
1231.446364
 20
726.7767459999999
 30
0.0
 11
1231.446364
 21
726.5651849999997
 31
0.0
  0
LINE
  5
102
330
6B
100
AcDbEntity
  8
0
 62
     2
100
AcDbLine
 10
1235.083998
 20
730.051169
 30
0.0
 11
1235.274047
 21
730.051169
 31
0.0
  0
LINE
  5
103
330
6B
100
AcDbEntity
  8
0
 62
     2
100
AcDbLine
 10
1223.440838
 20
726.7767459999999
 30
0.0
 11
1223.440835
 21
726.5651659999997
 31
0.0
  0
LINE
  5
104
330
6B
100
AcDbEntity
  8
0
 62
     2
100
AcDbLine
 10
1221.511323
 20
726.5652049999999
 30
0.0
 11
1223.440835
 21
726.565171
 31
0.0
  0
LINE
  5
105
330
6B
100
AcDbEntity
  8
0
 62
     2
100
AcDbLine
 10
1217.214941
 20
726.5651849999997
 30
0.0
 11
1218.754206
 21
726.5651849999997
 31
0.0
  0
ARC
  5
106
330
6B
100
AcDbEntity
  8
0
 62
     2
100
AcDbCircle
 10
1212.232998
 20
728.6909679999999
 30
0.0
 40
14.713566
100
AcDbArc
 50
353.866006
 51
357.694034
  0
LINE
  5
107
330
6B
100
AcDbEntity
  8
0
 62
     2
100
AcDbLine
 10
1225.949578
 20
728.1026009999997
 30
0.0
 11
1226.934649
 21
728.0989559999997
 31
0.0
  0
LINE
  5
14A
330
6B
100
AcDbEntity
  8
0
 62
     2
100
AcDbLine
 10
1225.953557
 20
729.1778149999997
 30
0.0
 11
1226.938628
 21
729.174171
 31
0.0
  0
ARC
  5
14B
330
6B
100
AcDbEntity
  8
0
 62
     2
100
AcDbCircle
 10
1212.232998
 20
728.6909679999999
 30
0.0
 40
14.713566
100
AcDbArc
 50
1.881965999999999
 51
5.709994
  0
LINE
  5
14C
330
6B
100
AcDbEntity
  8
0
 62
     2
100
AcDbLine
 10
1223.440907
 20
730.7189179999997
 30
0.0
 11
1223.440904
 21
730.5073769999997
 31
0.0
  0
LINE
  5
14D
330
6B
100
AcDbEntity
  8
0
 62
     2
100
AcDbLine
 10
1221.511395
 20
730.718958
 30
0.0
 11
1223.440907
 21
730.718924
 31
0.0
  0
LINE
  5
14E
330
6B
100
AcDbEntity
  8
0
 62
     2
100
AcDbLine
 10
1221.511327
 20
726.7767459999999
 30
0.0
 11
1221.511323
 21
726.5652049999999
 31
0.0
  0
LINE
  5
14F
330
6B
100
AcDbEntity
  8
0
 62
     2
100
AcDbLine
 10
1221.511395
 20
730.718958
 30
0.0
 11
1221.511392
 21
730.5073769999997
 31
0.0
  0
LINE
  5
150
330
6B
100
AcDbEntity
  8
0
 62
     2
100
AcDbLine
 10
1218.754206
 20
726.7767459999999
 30
0.0
 11
1218.754206
 21
726.5651849999997
 31
0.0
  0
LINE
  5
151
330
6B
100
AcDbEntity
  8
0
 62
     2
100
AcDbLine
 10
1218.318458
 20
729.001073
 30
0.0
 11
1219.840889
 21
726.5651849999997
 31
0.0
  0
LINE
  5
152
330
6B
100
AcDbEntity
  8
0
 62
     2
100
AcDbLine
 10
1219.840889
 20
726.5651849999997
 30
0.0
 11
1220.860321
 21
726.5651849999997
 31
0.0
  0
LINE
  5
153
330
6B
100
AcDbEntity
  8
0
 62
     2
100
AcDbLine
 10
1221.296069
 20
730.7189379999996
 30
0.0
 11
1221.296069
 21
730.5073769999997
 31
0.0
  0
LINE
  5
154
330
6B
100
AcDbEntity
  8
0
 62
     2
100
AcDbLine
 10
1219.756804
 20
730.7189379999996
 30
0.0
 11
1221.296069
 21
730.7189379999996
 31
0.0
  0
LINE
  5
155
330
6B
100
AcDbEntity
  8
0
 62
     2
100
AcDbLine
 10
1219.756804
 20
730.7189379999996
 30
0.0
 11
1219.756804
 21
730.5073769999997
 31
0.0
  0
LINE
  5
156
330
6B
100
AcDbEntity
  8
0
 62
     2
100
AcDbLine
 10
1220.192552
 20
728.837572
 30
0.0
 11
1218.957905
 21
730.7189379999996
 31
0.0
  0
LINE
  5
157
330
6B
100
AcDbEntity
  8
0
 62
     2
100
AcDbLine
 10
1217.214941
 20
730.7189379999996
 30
0.0
 11
1218.957905
 21
730.7189379999996
 31
0.0
  0
LINE
  5
158
330
6B
100
AcDbEntity
  8
0
 62
     2
100
AcDbLine
 10
1227.131155
 20
730.718839
 30
0.0
 11
1229.083418
 21
730.718839
 31
0.0
  0
LINE
  5
159
330
6B
100
AcDbEntity
  8
0
 62
     2
100
AcDbLine
 10
1227.131155
 20
730.5073769999997
 30
0.0
 11
1227.131155
 21
730.718839
 31
0.0
  0
LINE
  5
15A
330
6B
100
AcDbEntity
  8
0
 62
     2
100
AcDbLine
 10
1227.131155
 20
726.565087
 30
0.0
 11
1227.131155
 21
726.7767459999999
 31
0.0
  0
LINE
  5
15B
330
6B
100
AcDbEntity
  8
0
 62
     2
100
AcDbLine
 10
1227.131155
 20
726.565087
 30
0.0
 11
1229.083418
 21
726.565087
 31
0.0
  0
LINE
  5
15C
330
6B
100
AcDbEntity
  8
0
 62
     2
100
AcDbLine
 10
1229.287144
 20
726.7767459999999
 30
0.0
 11
1229.287144
 21
726.565087
 31
0.0
  0
LINE
  5
15D
330
6B
100
AcDbEntity
  8
0
 62
     2
100
AcDbLine
 10
1229.083418
 20
726.7767459999999
 30
0.0
 11
1229.083418
 21
726.565087
 31
0.0
  0
LINE
  5
15E
330
6B
100
AcDbEntity
  8
0
 62
     2
100
AcDbLine
 10
1229.083418
 20
730.5073769999997
 30
0.0
 11
1229.083418
 21
730.718839
 31
0.0
  0
LINE
  5
15F
330
6B
100
AcDbEntity
  8
0
 62
     2
100
AcDbLine
 10
1229.287144
 20
730.5073769999997
 30
0.0
 11
1229.287144
 21
730.718839
 31
0.0
  0
LINE
  5
160
330
6B
100
AcDbEntity
  8
0
 62
     2
100
AcDbLine
 10
1217.214941
 20
726.7767459999999
 30
0.0
 11
1217.214941
 21
726.5651849999997
 31
0.0
  0
LINE
  5
161
330
6B
100
AcDbEntity
  8
0
 62
     2
100
AcDbLine
 10
1217.214941
 20
730.7189379999996
 30
0.0
 11
1217.214941
 21
730.5073769999997
 31
0.0
  0
ARC
  5
162
330
6B
100
AcDbEntity
  8
0
 62
     2
100
AcDbCircle
 10
1235.784535
 20
729.0778099999997
 30
0.0
 40
1.641127999999999
100
AcDbArc
 50
17.308749
 51
23.765071
  0
ARC
  5
163
330
6B
100
AcDbEntity
  8
0
 62
     2
100
AcDbCircle
 10
1234.386261
 20
728.642062
 30
0.0
 40
3.105725999999998
100
AcDbArc
 50
342.691251
 51
17.308566
  0
ARC
  5
164
330
6B
100
AcDbEntity
  8
0
 62
     2
100
AcDbCircle
 10
1235.784535
 20
728.2063139999997
 30
0.0
 40
1.641127999999999
100
AcDbArc
 50
336.234929
 51
342.691251
  0
ARC
  5
165
330
6B
100
AcDbEntity
  8
0
 62
     2
100
AcDbCircle
 10
1235.574535
 20
729.0778099999997
 30
0.0
 40
1.641127999999999
100
AcDbArc
 50
17.308749
 51
90.0
  0
ARC
  5
166
330
6B
100
AcDbEntity
  8
0
 62
     2
100
AcDbCircle
 10
1234.176261
 20
728.642062
 30
0.0
 40
3.105725999999998
100
AcDbArc
 50
342.691251
 51
17.308566
  0
ARC
  5
167
330
6B
100
AcDbEntity
  8
0
 62
     2
100
AcDbCircle
 10
1235.574535
 20
728.2063139999997
 30
0.0
 40
1.641127999999999
100
AcDbArc
 50
270.0
 51
342.691251
  0
ARC
  5
168
330
6B
100
AcDbEntity
  8
0
 62
     2
100
AcDbCircle
 10
1225.450594
 20
728.642062
 30
0.0
 40
2.076875999999999
100
AcDbArc
 50
46.75287999999999
 51
89.749998
  0
ARC
  5
169
330
6B
100
AcDbEntity
  8
0
 62
     2
100
AcDbCircle
 10
1225.450594
 20
728.642062
 30
0.0
 40
2.076875999999999
100
AcDbArc
 50
273.976333
 51
312.82312
  0
ARC
  5
16A
330
6B
100
AcDbEntity
  8
0
 62
     2
100
AcDbCircle
 10
1236.892402
 20
728.61
 30
0.0
 40
2.755888999999998
100
AcDbArc
 50
0.6665840000000001
 51
23.903928
  0
ARC
  5
16B
330
6B
100
AcDbEntity
  8
0
 62
     2
100
AcDbCircle
 10
1240.807965
 20
728.61
 30
0.0
 40
2.755888999999998
100
AcDbArc
 50
156.096072
 51
179.333416
  0
ARC
  5
16C
330
6B
100
AcDbEntity
  8
0
 62
     2
100
AcDbCircle
 10
1236.892402
 20
728.674123
 30
0.0
 40
2.755888999999998
100
AcDbArc
 50
336.096072
 51
359.333416
  0
ARC
  5
16D
330
6B
100
AcDbEntity
  8
0
 62
     2
100
AcDbCircle
 10
1240.807965
 20
728.674123
 30
0.0
 40
2.755888999999998
100
AcDbArc
 50
180.666584
 51
203.903928
  0
LINE
  5
170
330
6B
100
AcDbEntity
  8
0
 62
     3
100
AcDbLine
 10
1341.82888
 20
565.402916
 30
0.0
 11
1341.82888
 21
588.4029159999998
 31
0.0
  0
LINE
  5
172
330
6B
100
AcDbEntity
  8
0
 62
     3
100
AcDbLine
 10
1288.775271
 20
558.402916
 30
0.0
 11
1288.775271
 21
572.4029159999997
 31
0.0
  0
TEXT
  5
174
330
6B
100
AcDbEntity
  8
0
 62
     3
100
AcDbText
 10
1317.839198
 20
584.6080319999997
 30
0.0
 40
2.0
  1
A
 41
0.7
100
AcDbText
  0
TEXT
  5
175
330
6B
100
AcDbEntity
  8
0
 62
     3
100
AcDbText
 10
1320.374484
 20
584.6080319999997
 30
0.0
 40
2.0
  1
P
 41
0.7
100
AcDbText
  0
TEXT
  5
176
330
6B
100
AcDbEntity
  8
0
 62
     3
100
AcDbText
 10
1322.909771
 20
584.6080319999997
 30
0.0
 40
2.0
  1
P
 41
0.7
100
AcDbText
  0
TEXT
  5
177
330
6B
100
AcDbEntity
  8
0
 62
     3
100
AcDbText
 10
1325.445057
 20
584.6080319999997
 30
0.0
 40
2.0
  1
D
 41
0.7
100
AcDbText
  0
TEXT
  5
178
330
6B
100
AcDbEntity
  8
0
 62
     3
100
AcDbText
 10
1330.81374
 20
584.6080319999997
 30
0.0
 40
2.0
  1
C
 41
0.7
100
AcDbText
  0
TEXT
  5
179
330
6B
100
AcDbEntity
  8
0
 62
     3
100
AcDbText
 10
1333.349026
 20
584.6080319999997
 30
0.0
 40
2.0
  1
H
 41
0.7
100
AcDbText
  0
TEXT
  5
17A
330
6B
100
AcDbEntity
  8
0
 62
     3
100
AcDbText
 10
1335.884312
 20
584.6080319999997
 30
0.0
 40
2.0
  1
C
 41
0.7
100
AcDbText
  0
TEXT
  5
17B
330
6B
100
AcDbEntity
  8
0
 62
     3
100
AcDbText
 10
1338.419599
 20
584.6080319999997
 30
0.0
 40
2.0
  1
K
 41
0.7
100
AcDbText
  0
TEXT
  5
17C
330
6B
100
AcDbEntity
  8
0
 62
     3
100
AcDbText
 10
1344.093565
 20
584.6080319999997
 30
0.0
 40
2.0
  1
DESN
 41
1.216762999999998
100
AcDbText
  0
TEXT
  5
17D
330
6B
100
AcDbEntity
  8
0
 62
     3
100
AcDbText
 10
1259.087206
 20
555.261534
 30
0.0
 40
2.0
  1
NICHIDO IND.CO.LTD
 41
1.274876
100
AcDbText
  0
LINE
  5
17E
330
6B
100
AcDbEntity
  8
0
 62
     3
100
AcDbLine
 10
1269.470236
 20
588.4029159999998
 30
0.0
 11
1269.470236
 21
565.402916
 31
0.0
  0
LINE
  5
17F
330
6B
100
AcDbEntity
  8
0
 62
     3
100
AcDbLine
 10
1315.828879999999
 20
588.4029159999998
 30
0.0
 11
1315.82888
 21
548.7371929999998
 31
0.0
  0
LINE
  5
184
330
6B
100
AcDbEntity
  8
0
 62
     3
100
AcDbLine
 10
1328.82888
 20
588.4029159999998
 30
0.0
 11
1328.82888
 21
558.402916
 31
0.0
  0
TEXT
  5
185
330
6B
100
AcDbEntity
  8
0
 62
     3
100
AcDbText
 10
1316.941325
 20
559.2676029999998
 30
0.0
 40
3.2
  1
作成日
 41
1.017225999999997
100
AcDbText
  0
LINE
  5
186
330
6B
100
AcDbEntity
  8
0
 62
     3
100
AcDbLine
 10
1367.528244
 20
588.4029159999998
 30
0.0
 11
1256.224801
 21
588.4029159999998
 31
0.0
  0
LINE
  5
187
330
6B
100
AcDbEntity
  8
0
 62
     3
100
AcDbLine
 10
1354.82888
 20
565.402916
 30
0.0
 11
1354.82888
 21
588.4029159999998
 31
0.0
  0
TEXT
  5
188
330
6B
100
AcDbEntity
  8
0
 62
     3
100
AcDbText
 10
1358.152683
 20
584.693851
 30
0.0
 40
1.8
  1
D
 41
0.666667
100
AcDbText
  0
TEXT
  5
189
330
6B
100
AcDbEntity
  8
0
 62
     3
100
AcDbText
 10
1360.969312
 20
584.693851
 30
0.0
 40
1.8
  1
E
 41
0.666667
100
AcDbText
  0
TEXT
  5
18A
330
6B
100
AcDbEntity
  8
0
 62
     3
100
AcDbText
 10
1363.78594
 20
584.693851
 30
0.0
 40
1.8
  1
F
 41
0.666667
100
AcDbText
  0
TEXT
  5
18B
330
6B
100
AcDbEntity
  8
0
 62
     3
100
AcDbText
 10
1358.152683
 20
580.7012969999997
 30
0.0
 40
3.2
  1
製図
 41
1.076369
100
AcDbText
  0
LINE
  5
18C
330
6B
100
AcDbEntity
  8
0
 62
     3
100
AcDbLine
 10
1256.224801
 20
588.4029159999998
 30
0.0
 11
1256.224801
 21
548.7371929999998
 31
0.0
  0
TEXT
  5
18D
330
6B
100
AcDbEntity
  8
0
 62
     3
100
AcDbText
 10
1257.601454
 20
549.0696589999998
 30
0.0
 40
5.0
  1
日動工業株式会社
 41
0.833333
100
AcDbText
  0
LINE
  5
18E
330
6B
100
AcDbEntity
  8
0
 62
     3
100
AcDbLine
 10
1299.107205
 20
572.4029159999998
 30
0.0
 11
1299.107205
 21
548.7371929999998
 31
0.0
  0
LINE
  5
18F
330
6B
100
AcDbEntity
  8
0
 62
     3
100
AcDbLine
 10
1299.107205
 20
553.570055
 30
0.0
 11
1315.82888
 21
553.570055
 31
0.0
  0
TEXT
  5
190
330
6B
100
AcDbEntity
  8
0
 62
     3
100
AcDbText
 10
1299.693807
 20
554.386485
 30
0.0
 40
3.2
  1
出図コード
 41
0.8356860000000001
100
AcDbText
  0
LINE
  5
192
330
6B
100
AcDbEntity
  8
0
 62
     3
100
AcDbLine
 10
1256.224801
 20
558.402916
 30
0.0
 11
1367.528244
 21
558.402916
 31
0.0
  0
LINE
  5
194
330
6B
100
AcDbEntity
  8
0
 62
     3
100
AcDbLine
 10
1256.224801
 20
579.402916
 30
0.0
 11
1367.528244
 21
579.402916
 31
0.0
  0
LINE
  5
19A
330
6B
100
AcDbEntity
  8
0
 62
     3
100
AcDbLine
 10
1256.224801
 20
572.4029159999997
 30
0.0
 11
1315.82888
 21
572.4029159999997
 31
0.0
  0
LINE
  5
1A0
330
6B
100
AcDbEntity
  8
0
 62
     3
100
AcDbLine
 10
1256.224801
 20
565.402916
 30
0.0
 11
1367.528244
 21
565.402916
 31
0.0
  0
TEXT
  5
1A1
330
6B
100
AcDbEntity
  8
0
 62
     3
100
AcDbText
 10
1299.561259
 20
549.339388
 30
0.0
 40
3.2
  1
ZK-A4X
 41
0.8112849999999999
100
AcDbText
  0
LINE
  5
1A2
330
6B
100
AcDbEntity
  8
0
 62
     3
100
AcDbLine
 10
1211.384725
 20
728.6740489999997
 30
0.0
 11
1090.62828
 21
728.6740489999997
 31
0.0
  0
LINE
  5
1A3
330
6B
100
AcDbEntity
  8
0
 62
     3
100
AcDbLine
 10
1367.62828
 20
728.6740489999997
 30
0.0
 11
1246.189818
 21
728.6740489999997
 31
0.0
  0
LINE
  5
1A4
330
6B
100
AcDbEntity
  8
0
 62
     3
100
AcDbLine
 10
1367.62828
 20
548.6740489999998
 30
0.0
 11
1367.62828
 21
728.6740489999997
 31
0.0
  0
LINE
  5
1A5
330
6B
100
AcDbEntity
  8
0
 62
     3
100
AcDbLine
 10
1367.62828
 20
548.6740489999998
 30
0.0
 11
1090.62828
 21
548.6740489999998
 31
0.0
  0
LINE
  5
1AA
330
6B
100
AcDbEntity
  8
0
 62
     3
100
AcDbLine
 10
1090.62828
 20
728.6740489999997
 30
0.0
 11
1090.62828
 21
548.6740489999998
 31
0.0
  0
TEXT
  5
1AB
330
6B
100
AcDbEntity
  8
0
 62
     3
100
AcDbText
 10
1258.042198
 20
584.572442
 30
0.0
 40
2.0
  1
CONPONENTS
 41
0.5331600000000001
100
AcDbText
  0
TEXT
  5
1AC
330
6B
100
AcDbEntity
  8
0
 62
     3
100
AcDbText
 10
1257.692471
 20
565.640265
 30
0.0
 40
3.0
  1
材
 41
0.833333
100
AcDbText
  0
TEXT
  5
1AD
330
6B
100
AcDbEntity
  8
0
 62
     3
100
AcDbText
 10
1265.228114
 20
565.640265
 30
0.0
 40
3.0
  1
質
 41
0.833333
100
AcDbText
  0
TEXT
  5
1AE
330
6B
100
AcDbEntity
  8
0
 62
     3
100
AcDbText
 10
1257.780542
 20
576.2647900000001
 30
0.0
 40
2.0
  1
MODEL
 41
1.031072999999999
100
AcDbText
  0
TEXT
  5
1AF
330
6B
100
AcDbEntity
  8
0
 62
     3
100
AcDbText
 10
1257.692471
 20
569.322573
 30
0.0
 40
2.0
  1
MATERIAL
 41
0.659278
100
AcDbText
  0
TEXT
  5
1B0
330
6B
100
AcDbEntity
  8
0
 62
     3
100
AcDbText
 10
1288.999752
 20
565.640265
 30
0.0
 40
3.0
  1
備
 41
0.833333
100
AcDbText
  0
TEXT
  5
1B1
330
6B
100
AcDbEntity
  8
0
 62
     3
100
AcDbText
 10
1295.732754
 20
565.640265
 30
0.0
 40
3.0
  1
考
 41
0.833333
100
AcDbText
  0
TEXT
  5
1B2
330
6B
100
AcDbEntity
  8
0
 62
     3
100
AcDbText
 10
1289.416238596266
 20
569.322573
 30
0.0
 40
2.0
  1
REMARKS
 41
0.675794
100
AcDbText
  0
TEXT
  5
1B3
330
6B
100
AcDbEntity
  8
0
 62
     3
100
AcDbText
 10
1259.2822
 20
562.402453
 30
0.0
 40
2.0
  1
3AD
 41
1.42614
100
AcDbText
  0
TEXT
  5
1B4
330
6B
100
AcDbEntity
  8
0
 62
     3
100
AcDbText
 10
1268.59318
 20
562.5681860000002
 30
0.0
 40
2.0
  1
ANGLE
 41
1.669883999999997
100
AcDbText
  0
TEXT
  5
1B5
330
6B
100
AcDbEntity
  8
0
 62
     3
100
AcDbText
 10
1289.527067
 20
562.191345
 30
0.0
 40
2.0
  1
SCALE
 41
0.7719630000000001
100
AcDbText
  0
TEXT
  5
1B6
330
6B
100
AcDbEntity
  8
0
 62
     3
100
AcDbText
 10
1258.96833
 20
558.402916
 30
0.0
 40
3.0
  1
第
 41
0.833333
100
AcDbText
  0
TEXT
  5
1B7
330
6B
100
AcDbEntity
  8
0
 62
     3
100
AcDbText
 10
1266.75518
 20
558.402916
 30
0.0
 40
3.0
  1
三
 41
0.833333
100
AcDbText
  0
TEXT
  5
1B8
330
6B
100
AcDbEntity
  8
0
 62
     3
100
AcDbText
 10
1274.54203
 20
558.402916
 30
0.0
 40
3.0
  1
角
 41
0.833333
100
AcDbText
  0
TEXT
  5
1B9
330
6B
100
AcDbEntity
  8
0
 62
     3
100
AcDbText
 10
1282.32888
 20
558.402916
 30
0.0
 40
3.0
  1
法
 41
0.833333
100
AcDbText
  0
TEXT
  5
1BA
330
6B
100
AcDbEntity
  8
0
 62
     3
100
AcDbText
 10
1289.390272
 20
558.691345
 30
0.0
 40
3.0
  1
尺
 41
0.833333
100
AcDbText
  0
TEXT
  5
1BB
330
6B
100
AcDbEntity
  8
0
 62
     3
100
AcDbText
 10
1296.123274
 20
558.691345
 30
0.0
 40
3.0
  1
度
 41
0.833333
100
AcDbText
  0
TEXT
  5
1BC
330
6B
100
AcDbEntity
  8
0
 62
     3
100
AcDbText
 10
1318.706544
 20
580.860645
 30
0.0
 40
3.0
  1
承認
 41
1.089472999999999
100
AcDbText
  0
TEXT
  5
1BD
330
6B
100
AcDbEntity
  8
0
 62
     3
100
AcDbText
 10
1331.949425
 20
580.802916
 30
0.0
 40
3.0
  1
検図
 41
0.931761
100
AcDbText
  0
TEXT
  5
1BE
330
6B
100
AcDbEntity
  8
0
 62
     3
100
AcDbText
 10
1344.949821
 20
580.802916
 30
0.0
 40
3.0
  1
設
 41
0.833333
100
AcDbText
  0
TEXT
  5
1BF
330
6B
100
AcDbEntity
  8
0
 62
     3
100
AcDbText
 10
1349.439689
 20
580.802916
 30
0.0
 40
3.0
  1
計
 41
0.833333
100
AcDbText
  0
TEXT
  5
1C0
330
6B
100
AcDbEntity
  8
0
 62
     3
100
AcDbText
 10
1257.97367
 20
580.091672
 30
0.0
 40
3.0
  1
品
 41
0.833333
100
AcDbText
  0
TEXT
  5
1C1
330
6B
100
AcDbEntity
  8
0
 62
     3
100
AcDbText
 10
1265.509312
 20
580.091672
 30
0.0
 40
3.0
  1
名
 41
0.833333
100
AcDbText
  0
TEXT
  5
1C2
330
6B
100
AcDbEntity
  8
0
 62
     3
100
AcDbText
 10
1257.780542
 20
572.63253
 30
0.0
 40
3.0
  1
型
 41
0.833333
100
AcDbText
  0
TEXT
  5
1C3
330
6B
100
AcDbEntity
  8
0
 62
     3
100
AcDbText
 10
1265.328633
 20
572.63253
 30
0.0
 40
3.0
  1
式
 41
0.833333
100
AcDbText
  0
LINE
  5
1C4
330
6B
100
AcDbEntity
  8
0
100
AcDbLine
 10
1365.952816
 20
714.2686599999997
 30
0.0
 11
1367.637689
 21
714.2686599999997
 31
0.0
  0
LINE
  5
1C5
330
6B
100
AcDbEntity
  8
0
100
AcDbLine
 10
1294.143123
 20
724.1686599999996
 30
0.0
 11
1294.143123
 21
709.3186599999996
 31
0.0
  0
LINE
  5
1C6
330
6B
100
AcDbEntity
  8
0
100
AcDbLine
 10
1357.704283
 20
714.2686599999997
 30
0.0
 11
1284.037689
 21
714.2686599999997
 31
0.0
  0
LINE
  5
1C7
330
6B
100
AcDbEntity
  8
0
100
AcDbLine
 10
1356.040165
 20
724.1686599999996
 30
0.0
 11
1356.040165
 21
709.3186599999996
 31
0.0
  0
LINE
  5
1C8
330
6B
100
AcDbEntity
  8
0
100
AcDbLine
 10
1311.748449
 20
724.1686599999996
 30
0.0
 11
1311.748449
 21
709.3186599999996
 31
0.0
  0
LINE
  5
1C9
330
6B
100
AcDbEntity
  8
0
100
AcDbLine
 10
1365.952816
 20
714.2686599999997
 30
0.0
 11
1357.704283
 21
714.2686599999997
 31
0.0
  0
LINE
  5
1CA
330
6B
100
AcDbEntity
  8
0
100
AcDbLine
 10
1284.037689
 20
719.21866
 30
0.0
 11
1367.637689
 21
719.21866
 31
0.0
  0
TEXT
  5
1CB
330
6B
100
AcDbEntity
  8
0
 62
     3
100
AcDbText
 10
1092.12828
 20
549.1740489999998
 30
0.0
 40
3.2
  1
No
 41
0.8
  7
高3.2
100
AcDbText
  0
TEXT
  5
1CC
330
6B
100
AcDbEntity
  8
0
 62
     3
100
AcDbText
 10
1100.668052307692
 20
549.1740489999998
 30
0.0
 40
3.2
  1
部品名
 41
0.8
  7
高3.2
100
AcDbText
  0
TEXT
  5
1CD
330
6B
100
AcDbEntity
  8
0
 62
     3
100
AcDbText
 10
1123.374551538461
 20
549.1740489999998
 30
0.0
 40
3.2
  1
材質
 41
0.8
  7
高3.2
100
AcDbText
  0
TEXT
  5
1CE
330
6B
100
AcDbEntity
  8
0
 62
     3
100
AcDbText
 10
1140.091352307692
 20
549.1740489999998
 30
0.0
 40
3.2
  1
備考
 41
0.8
  7
高3.2
100
AcDbText
  0
TEXT
  5
1CF
330
6B
100
AcDbEntity
  8
0
 62
     3
100
AcDbText
 10
1185.95589477568
 20
549.1740489999998
 30
0.0
 40
3.2
  1
数
 41
0.8
  7
高3.2
100
AcDbText
  0
LINE
  5
1D0
330
6B
100
AcDbEntity
  8
0
 62
     3
100
AcDbLine
 10
1189.774876314141
 20
568.6740489999997
 30
0.0
 11
1189.774876314141
 21
548.6740489999998
 31
0.0
  0
TEXT
  5
1D1
330
6B
100
AcDbEntity
  8
0
 62
     3
100
AcDbText
 10
1185.95589477568
 20
554.1740489999998
 30
0.0
 40
3.2
  1
1
 41
0.8
  7
高3.2
100
AcDbText
  0
TEXT
  5
1D2
330
6B
100
AcDbEntity
  8
0
 62
     3
100
AcDbText
 10
1185.95589477568
 20
559.1740489999998
 30
0.0
 40
3.2
  1
1
 41
0.8
  7
高3.2
100
AcDbText
  0
TEXT
  5
1D3
330
6B
100
AcDbEntity
  8
0
 62
     3
100
AcDbText
 10
1185.95589477568
 20
564.174049
 30
0.0
 40
3.2
  1
1
 41
0.8
  7
高3.2
100
AcDbText
  0
LINE
  5
1D4
330
6B
100
AcDbEntity
  8
0
100
AcDbLine
 10
1138.591352307692
 20
568.6740489999997
 30
0.0
 11
1138.591352307692
 21
548.6740489999998
 31
0.0
  0
LINE
  5
1D5
330
6B
100
AcDbEntity
  8
0
100
AcDbLine
 10
1184.45589477568
 20
568.6740489999997
 30
0.0
 11
1184.45589477568
 21
548.6740489999998
 31
0.0
  0
TEXT
  5
1D6
330
6B
100
AcDbEntity
  8
0
 62
     3
100
AcDbText
 10
1092.12828
 20
554.1740489999998
 30
0.0
 40
3.2
  1
1
 41
0.8
  7
高3.2
100
AcDbText
  0
TEXT
  5
1D7
330
6B
100
AcDbEntity
  8
0
 62
     3
100
AcDbText
 10
1092.12828
 20
559.1740489999998
 30
0.0
 40
3.2
  1
2
 41
0.8
  7
高3.2
100
AcDbText
  0
TEXT
  5
1D8
330
6B
100
AcDbEntity
  8
0
 62
     3
100
AcDbText
 10
1092.12828
 20
564.174049
 30
0.0
 40
3.2
  1
3
 41
0.8
  7
高3.2
100
AcDbText
  0
TEXT
  5
1D9
330
6B
100
AcDbEntity
  8
0
 62
     3
100
AcDbText
 10
1100.668052307692
 20
554.1740489999998
 30
0.0
 40
3.2
  1
電線
 41
0.8
  7
高3.2
100
AcDbText
  0
TEXT
  5
1DA
330
6B
100
AcDbEntity
  8
0
 62
     3
100
AcDbText
 10
1100.668052307692
 20
564.174049
 30
0.0
 40
3.2
  1
ジョイント
 41
0.8
  7
高3.2
100
AcDbText
  0
TEXT
  5
1DB
330
6B
100
AcDbEntity
  8
0
 62
     3
100
AcDbText
 10
1123.374551538461
 20
559.1740489999998
 30
0.0
 40
3.2
  1
-
 41
0.8
  7
高3.2
100
AcDbText
  0
TEXT
  5
1DC
330
6B
100
AcDbEntity
  8
0
 62
     3
100
AcDbText
 10
1123.374551538461
 20
564.174049
 30
0.0
 40
3.2
  1
-
 41
0.8
  7
高3.2
100
AcDbText
  0
LINE
  5
1DD
330
6B
100
AcDbEntity
  8
0
100
AcDbLine
 10
1099.168052307692
 20
568.6740489999997
 30
0.0
 11
1099.168052307692
 21
548.6740489999998
 31
0.0
  0
LINE
  5
1DE
330
6B
100
AcDbEntity
  8
0
100
AcDbLine
 10
1121.874551538461
 20
568.6740489999997
 30
0.0
 11
1121.874551538461
 21
548.6740489999998
 31
0.0
  0
TEXT
  5
1DF
330
6B
100
AcDbEntity
  8
0
 62
     3
100
AcDbText
 10
1332.881396
 20
559.8033169999999
 30
0.0
 40
3.2
  1
2008.10.01
  7
高3.2
100
AcDbText
  0
TEXT
  5
1E0
330
6B
100
AcDbEntity
  8
0
 62
     3
100
AcDbText
 10
1301.572956
 20
559.946278
 30
0.0
 40
3.2
  1
1/1
100
AcDbText
  0
LINE
  5
1E1
330
6B
100
AcDbEntity
  8
0
 62
     3
100
AcDbLine
 10
1341.82888
 20
588.4029159999998
 30
0.0
 11
1341.82888
 21
594.402916
 31
0.0
  0
LINE
  5
1E2
330
6B
100
AcDbEntity
  8
0
 62
     3
100
AcDbLine
 10
1315.82888
 20
588.4029159999998
 30
0.0
 11
1315.82888
 21
594.402916
 31
0.0
  0
LINE
  5
1E3
330
6B
100
AcDbEntity
  8
0
 62
     3
100
AcDbLine
 10
1367.62828
 20
594.402916
 30
0.0
 11
1315.82888
 21
594.402916
 31
0.0
  0
TEXT
  5
1E4
330
6B
100
AcDbEntity
  8
0
 62
     3
100
AcDbText
 10
1321.924515
 20
589.199265
 30
0.0
 40
4.5
  1
コード
  7
高4.5
100
AcDbText
  0
TEXT
  5
1E5
330
6B
100
AcDbEntity
  8
0
 62
     3
100
AcDbText
 10
1123.374551538461
 20
554.1740489999998
 30
0.0
 40
3.2
  1
WCT
 41
0.8
  7
高3.2
100
AcDbText
  0
LINE
  5
1E6
330
6B
100
AcDbEntity
  8
0
100
AcDbLine
 10
1288.855394
 20
718.479415
 30
0.0
 11
1286.955394
 21
715.188519
 31
0.0
  0
LINE
  5
1E7
330
6B
100
AcDbEntity
  8
0
100
AcDbLine
 10
1288.855394
 20
718.479415
 30
0.0
 11
1290.755394
 21
715.188519
 31
0.0
  0
LINE
  5
1E8
330
6B
100
AcDbEntity
  8
0
100
AcDbLine
 10
1286.955394
 20
715.188519
 30
0.0
 11
1290.755394
 21
715.188519
 31
0.0
  0
LINE
  5
1E9
330
6B
100
AcDbEntity
  8
0
100
AcDbLine
 10
1288.855394
 20
713.323205
 30
0.0
 11
1286.955394
 21
710.032308
 31
0.0
  0
LINE
  5
1EA
330
6B
100
AcDbEntity
  8
0
100
AcDbLine
 10
1288.855394
 20
713.323205
 30
0.0
 11
1290.755394
 21
710.032308
 31
0.0
  0
LINE
  5
1EB
330
6B
100
AcDbEntity
  8
0
100
AcDbLine
 10
1286.955394
 20
710.032308
 30
0.0
 11
1290.755394
 21
710.032308
 31
0.0
  0
CIRCLE
  5
1F2
330
6B
100
AcDbEntity
  8
0
100
AcDbCircle
 10
1298.350941504355
 20
614.2602592269135
 30
0.0
 40
5.0
  0
TEXT
  5
1F3
330
6B
100
AcDbEntity
  8
0
 62
     4
100
AcDbText
 10
1296.134276463668
 20
610.9259268635013
 30
0.0
 40
6.299999999999998
  1
3
  7
高6.3
100
AcDbText
  0
CIRCLE
  5
1FA
330
6B
100
AcDbEntity
  8
0
100
AcDbCircle
 10
1202.463624504355
 20
615.8809242269135
 30
0.0
 40
5.0
  0
TEXT
  5
1FB
330
6B
100
AcDbEntity
  8
0
 62
     4
100
AcDbText
 10
1201.255427141639
 20
612.9096070159667
 30
0.0
 40
6.299999999999998
  1
1
  7
高6.3
100
AcDbText
  0
CIRCLE
  5
202
330
6B
100
AcDbEntity
  8
0
100
AcDbCircle
 10
1149.316223504355
 20
617.2053212269134
 30
0.0
 40
5.0
  0
TEXT
  5
203
330
6B
100
AcDbEntity
  8
0
 62
     4
100
AcDbText
 10
1147.099558463668
 20
613.8709888635015
 30
0.0
 40
6.299999999999998
  1
2
  7
高6.3
100
AcDbText
  0
TEXT
  5
21E
330
6B
100
AcDbEntity
  8
0
 62
     3
100
AcDbText
 10
1100.668052307692
 20
559.1740489999998
 30
0.0
 40
3.2
  1
丸端子
 41
0.8
  7
高3.2
100
AcDbText
  0
TEXT
  5
21F
330
6B
100
AcDbEntity
  8
0
 62
     3
100
AcDbText
 10
1140.091352307692
 20
564.174049
 30
0.0
 40
3.2
  1
三立電器工業JA-300メス側
 41
0.8
  7
高3.2
100
AcDbText
  0
TEXT
  5
220
330
6B
100
AcDbEntity
  8
0
 62
     3
100
AcDbText
 10
1140.091352307692
 20
559.1740489999998
 30
0.0
 40
3.2
  1
M10用
 41
0.8
  7
高3.2
100
AcDbText
  0
TEXT
  5
221
330
6B
100
AcDbEntity
  8
0
 62
     3
100
AcDbText
 10
1140.091352307692
 20
554.1740489999998
 30
0.0
 40
3.2
  1
38sq
 41
0.8
  7
高3.2
100
AcDbText
  0
LINE
  5
222
330
6B
100
AcDbEntity
  8
0
 62
     3
100
AcDbLine
 10
1189.774876314141
 20
553.6740489999998
 30
0.0
 11
1090.62828
 21
553.6740489999998
 31
0.0
  0
LINE
  5
223
330
6B
100
AcDbEntity
  8
0
 62
     3
100
AcDbLine
 10
1189.774876314141
 20
568.6740489999997
 30
0.0
 11
1090.62828
 21
568.6740489999997
 31
0.0
  0
LINE
  5
224
330
6B
100
AcDbEntity
  8
0
100
AcDbLine
 10
1189.774876314141
 20
558.6740489999998
 30
0.0
 11
1090.62828
 21
558.6740489999998
 31
0.0
  0
LINE
  5
225
330
6B
100
AcDbEntity
  8
0
100
AcDbLine
 10
1189.774876314141
 20
563.674049
 30
0.0
 11
1090.62828
 21
563.674049
 31
0.0
  0
TEXT
  5
226
330
6B
100
AcDbEntity
  8
0
 62
     3
100
AcDbText
 10
1279.842897
 20
581.2474539999997
 30
0.0
 40
4.5
  1
アダプター
  7
高4.5
100
AcDbText
  0
TEXT
  5
227
330
6B
100
AcDbEntity
  8
0
 62
     3
100
AcDbText
 10
1277.210705
 20
573.527565
 30
0.0
 40
4.5
  1
NA-J03K
  7
高4.5
100
AcDbText
  0
TEXT
  5
228
330
6B
100
AcDbEntity
  8
0
 62
     3
100
AcDbText
 10
1318.03955
 20
550.088462
 30
0.0
 40
6.299999999999998
  1
NA-J03K
  7
高6.3
100
AcDbText
  0
TEXT
  5
229
330
6B
100
AcDbEntity
  8
0
 62
     3
100
AcDbText
 10
1343.916063
 20
589.0470529999999
 30
0.0
 40
4.5
  1
52757
  7
高4.5
100
AcDbText
  0
LINE
  5
235
330
6B
100
AcDbEntity
  8
0
  6
CENTER
100
AcDbLine
 10
1115.937784914242
 20
656.0280526910414
 30
0.0
 11
1344.118816054531
 21
656.0280526910414
 31
0.0
  0
ARC
  5
252
330
6B
100
AcDbEntity
  8
0
  6
Continuous
 62
     3
100
AcDbCircle
 10
1137.870839002554
 20
656.0280526910414
 30
0.0
 40
10.99999999999988
100
AcDbArc
 50
56.37130954772626
 51
303.6286904522708
  0
CIRCLE
  5
253
330
6B
100
AcDbEntity
  8
0
  6
Continuous
 62
     3
100
AcDbCircle
 10
1137.870839002554
 20
656.0280526910414
 30
0.0
 40
5.25
  0
LINE
  5
258
330
6B
100
AcDbEntity
  8
0
  6
Continuous
 62
     3
100
AcDbLine
 10
1153.870839002554
 20
665.2780526910414
 30
0.0
 11
1153.870839002554
 21
646.7780526910415
 31
0.0
  0
LINE
  5
259
330
6B
100
AcDbEntity
  8
0
  6
Continuous
 62
     3
100
AcDbLine
 10
1146.180699784618
 20
664.380818444921
 30
0.0
 11
1153.870839002554
 21
663.5280526910414
 31
0.0
  0
LINE
  5
25A
330
6B
100
AcDbEntity
  8
0
  6
Continuous
 62
     3
100
AcDbLine
 10
1153.870839002554
 20
648.5280526910415
 30
0.0
 11
1146.180699784618
 21
647.6752869371614
 31
0.0
  0
ARC
  5
25B
330
6B
100
AcDbEntity
  8
0
  6
Continuous
 62
     3
100
AcDbCircle
 10
1146.731775949869
 20
669.3503571619543
 30
0.0
 40
5.0
100
AcDbArc
 50
236.3713095477282
 51
263.6722770442398
  0
ARC
  5
25C
330
6B
100
AcDbEntity
  8
0
  6
Continuous
 62
     3
100
AcDbCircle
 10
1146.731775949868
 20
642.7057482201283
 30
0.0
 40
5.0
100
AcDbArc
 50
96.32772295575772
 51
123.6286904522687
  0
LINE
  5
25D
330
6B
100
AcDbEntity
  8
0
  6
Continuous
 62
     3
100
AcDbLine
 10
1187.870839002554
 20
665.2780526910414
 30
0.0
 11
1153.870839002554
 21
665.2780526910414
 31
0.0
  0
LINE
  5
25E
330
6B
100
AcDbEntity
  8
0
  6
Continuous
 62
     3
100
AcDbLine
 10
1153.870839002554
 20
646.7780526910415
 30
0.0
 11
1187.870839002554
 21
646.7780526910415
 31
0.0
  0
LINE
  5
25F
330
6B
100
AcDbEntity
  8
0
  6
Continuous
 62
     3
100
AcDbLine
 10
1187.870839002554
 20
665.2780526910414
 30
0.0
 11
1187.870839002554
 21
646.7780526910415
 31
0.0
  0
LINE
  5
262
330
6B
100
AcDbEntity
  8
0
  6
Continuous
 62
     3
100
AcDbLine
 10
1187.870839002554
 20
663.0280526910414
 30
0.0
 11
1218.370839002554
 21
663.0280526910414
 31
0.0
  0
LINE
  5
263
330
6B
100
AcDbEntity
  8
0
  6
Continuous
 62
     3
100
AcDbLine
 10
1187.870839002554
 20
649.0280526910415
 30
0.0
 11
1218.370839002554
 21
649.0280526910415
 31
0.0
  0
LINE
  5
27B
330
6B
100
AcDbEntity
  8
0
  6
CENTER
100
AcDbLine
 10
1137.870839002554
 20
676.053279251539
 30
0.0
 11
1137.870839002554
 21
636.0028261305443
 31
0.0
  0
TEXT
  5
4D7
330
6B
100
AcDbEntity
  8
0
  6
Continuous
100
AcDbText
 10
1295.334162183823
 20
715.0044968176517
 30
0.0
 40
2.5
  1
'12.01.19
  7
高2.5
100
AcDbText
  0
TEXT
  5
4D8
330
6B
100
AcDbEntity
  8
0
  6
Continuous
100
AcDbText
 10
1312.939488183823
 20
715.0044968176517
 30
0.0
 40
2.5
  1
寸法追記
  7
高2.5
100
AcDbText
  0
TEXT
  5
4D9
330
6B
100
AcDbEntity
  8
0
  6
Continuous
100
AcDbText
 10
1357.231204183823
 20
715.0044968176517
 30
0.0
 40
2.5
  1
今村
  7
高2.5
100
AcDbText
  0
TEXT
  5
4E2
330
6B
100
AcDbEntity
  8
0
  6
Continuous
100
AcDbText
 10
1359.559338107418
 20
568.2248869320442
 30
0.0
 40
4.5
  1
I
  7
高4.5
100
AcDbText
  0
TEXT
  5
4EB
330
6B
100
AcDbEntity
  8
0
  6
Continuous
 62
     4
100
AcDbText
 10
1315.682184297929
 20
603.31397052488
 30
0.0
 40
3.2
  1
質量：211g
  7
高3.2
100
AcDbText
  0
LINE
  5
4EC
330
6B
100
AcDbEntity
  8
0
  6
Continuous
100
AcDbLine
 10
1315.186677257874
 20
602.0179795817857
 30
0.0
 11
1336.845554602945
 21
602.0179795817857
 31
0.0
  0
LINE
  5
901
330
6B
100
AcDbEntity
  8
0
  6
HIDDEN
100
AcDbLine
 10
1260.870839002554
 20
649.1780526910413
 30
0.0
 11
1288.551074954713
 21
649.1780526910413
 31
0.0
  0
LINE
  5
902
330
6B
100
AcDbEntity
  8
0
  6
HIDDEN
100
AcDbLine
 10
1260.870839002553
 20
660.6780526910413
 30
0.0
 11
1288.551074954713
 21
660.6780526910413
 31
0.0
  0
LINE
  5
903
330
6B
100
AcDbEntity
  8
0
  6
HIDDEN
100
AcDbLine
 10
1290.370839002554
 20
647.2280526910415
 30
0.0
 11
1294.370839002554
 21
647.2280526910415
 31
0.0
  0
LINE
  5
904
330
6B
100
AcDbEntity
  8
0
  6
HIDDEN
100
AcDbLine
 10
1290.370839002554
 20
664.8280526910414
 30
0.0
 11
1294.370839002554
 21
664.8280526910412
 31
0.0
  0
LINE
  5
905
330
6B
100
AcDbEntity
  8
0
  6
HIDDEN
100
AcDbLine
 10
1324.870839002554
 20
643.5280526910414
 30
0.0
 11
1336.870839002554
 21
643.5280526910414
 31
0.0
  0
LINE
  5
906
330
6B
100
AcDbEntity
  8
0
  6
HIDDEN
100
AcDbLine
 10
1324.870839002554
 20
668.5280526910414
 30
0.0
 11
1336.870839002554
 21
668.5280526910414
 31
0.0
  0
LINE
  5
907
330
6B
100
AcDbEntity
  8
0
  6
HIDDEN
 62
     7
100
AcDbLine
 10
1324.870839002554
 20
646.0280526910414
 30
0.0
 11
1294.370839002554
 21
646.0280526910414
 31
0.0
  0
LINE
  5
908
330
6B
100
AcDbEntity
  8
0
  6
HIDDEN
 62
     7
100
AcDbLine
 10
1290.370839002554
 20
646.0280526910414
 30
0.0
 11
1259.870839002554
 21
646.0280526910414
 31
0.0
  0
LINE
  5
909
330
6B
100
AcDbEntity
  8
0
  6
HIDDEN
 62
     7
100
AcDbLine
 10
1324.870839002554
 20
666.0280526910415
 30
0.0
 11
1294.370839002554
 21
666.0280526910415
 31
0.0
  0
LINE
  5
90A
330
6B
100
AcDbEntity
  8
0
  6
HIDDEN
 62
     7
100
AcDbLine
 10
1290.370839002554
 20
666.0280526910415
 30
0.0
 11
1259.870839002554
 21
666.0280526910415
 31
0.0
  0
LINE
  5
90B
330
6B
100
AcDbEntity
  8
0
  6
Continuous
 62
     3
100
AcDbLine
 10
1316.870839002554
 20
642.5280526910414
 30
0.0
 11
1252.870839002554
 21
642.5280526910414
 31
0.0
  0
LINE
  5
90C
330
6B
100
AcDbEntity
  8
0
  6
Continuous
 62
     3
100
AcDbLine
 10
1316.870839002554
 20
669.5280526910413
 30
0.0
 11
1252.870839002554
 21
669.5280526910413
 31
0.0
  0
LINE
  5
90D
330
6B
100
AcDbEntity
  8
0
  6
Continuous
 62
     3
100
AcDbLine
 10
1321.870839002554
 20
639.5280526910414
 30
0.0
 11
1334.870839002554
 21
639.5280526910414
 31
0.0
  0
LINE
  5
90E
330
6B
100
AcDbEntity
  8
0
  6
Continuous
 62
     3
100
AcDbLine
 10
1321.870839002554
 20
672.5280526910414
 30
0.0
 11
1334.870839002554
 21
672.5280526910414
 31
0.0
  0
LINE
  5
90F
330
6B
100
AcDbEntity
  8
0
  6
Continuous
 62
     3
100
AcDbLine
 10
1336.870839002554
 20
670.5280526910414
 30
0.0
 11
1336.870839002554
 21
641.5280526910414
 31
0.0
  0
LINE
  5
910
330
6B
100
AcDbEntity
  8
0
  6
HIDDEN
 62
     7
100
AcDbLine
 10
1324.870839002554
 20
668.5280526910414
 30
0.0
 11
1324.870839002554
 21
643.5280526910414
 31
0.0
  0
LINE
  5
911
330
6B
100
AcDbEntity
  8
0
  6
HIDDEN
 62
     7
100
AcDbLine
 10
1323.870839002554
 20
662.6780526910414
 30
0.0
 11
1323.870839002554
 21
649.3780526910413
 31
0.0
  0
LINE
  5
912
330
6B
100
AcDbEntity
  8
0
  6
HIDDEN
 62
     7
100
AcDbLine
 10
1294.370839002554
 20
666.0280526910415
 30
0.0
 11
1294.370839002554
 21
664.8280526910414
 31
0.0
  0
LINE
  5
913
330
6B
100
AcDbEntity
  8
0
  6
HIDDEN
 62
     7
100
AcDbLine
 10
1294.370839002554
 20
647.2280526910415
 30
0.0
 11
1294.370839002554
 21
646.0280526910414
 31
0.0
  0
LINE
  5
914
330
6B
100
AcDbEntity
  8
0
  6
HIDDEN
 62
     7
100
AcDbLine
 10
1290.370839002554
 20
666.0280526910415
 30
0.0
 11
1290.370839002554
 21
664.8280526910414
 31
0.0
  0
LINE
  5
915
330
6B
100
AcDbEntity
  8
0
  6
HIDDEN
 62
     7
100
AcDbLine
 10
1290.370839002554
 20
647.2280526910415
 30
0.0
 11
1290.370839002554
 21
646.0280526910414
 31
0.0
  0
LINE
  5
916
330
6B
100
AcDbEntity
  8
0
  6
HIDDEN
 62
     7
100
AcDbLine
 10
1259.870839002554
 20
666.0280526910415
 30
0.0
 11
1259.870839002554
 21
646.0280526910414
 31
0.0
  0
LINE
  5
917
330
6B
100
AcDbEntity
  8
0
  6
HIDDEN
 62
     7
100
AcDbLine
 10
1260.870839002554
 20
660.6780526910412
 30
0.0
 11
1260.870839002554
 21
649.1780526910414
 31
0.0
  0
LINE
  5
918
330
6B
100
AcDbEntity
  8
0
  6
CENTER
 62
     7
100
AcDbLine
 10
1283.870839002554
 20
667.429757978294
 30
0.0
 11
1283.870839002554
 21
658.5690996148245
 31
0.0
  0
LINE
  5
919
330
6B
100
AcDbEntity
  8
0
  6
Continuous
 62
     3
100
AcDbLine
 10
1321.870839002554
 20
672.5280526910414
 30
0.0
 11
1321.870839002554
 21
639.5280526910414
 31
0.0
  0
LINE
  5
91A
330
6B
100
AcDbEntity
  8
0
  6
Continuous
 62
     3
100
AcDbLine
 10
1316.870839002554
 20
669.5280526910413
 30
0.0
 11
1316.870839002554
 21
642.5280526910414
 31
0.0
  0
LINE
  5
91C
330
6B
100
AcDbEntity
  8
0
  6
Continuous
100
AcDbLine
 10
1252.870839002554
 20
642.5280526910414
 30
0.0
 11
1252.870839002554
 21
669.5280526910413
 31
0.0
  0
LINE
  5
91D
330
6B
100
AcDbEntity
  8
0
  6
Continuous
 62
     3
100
AcDbLine
 10
1252.870839002554
 20
669.5280526910413
 30
0.0
 11
1218.370839002554
 21
665.2640077472211
 31
0.0
  0
LINE
  5
91E
330
6B
100
AcDbEntity
  8
0
  6
Continuous
 62
     3
100
AcDbLine
 10
1218.370839002554
 20
646.7920976348616
 30
0.0
 11
1252.870839002554
 21
642.5280526910414
 31
0.0
  0
LINE
  5
91F
330
6B
100
AcDbEntity
  8
0
  6
Continuous
 62
     3
100
AcDbLine
 10
1321.870839002554
 20
672.5280526910414
 30
0.0
 11
1316.870839002554
 21
669.5280526910413
 31
0.0
  0
LINE
  5
920
330
6B
100
AcDbEntity
  8
0
  6
Continuous
 62
     3
100
AcDbLine
 10
1316.870839002554
 20
642.5280526910414
 30
0.0
 11
1321.870839002554
 21
639.5280526910414
 31
0.0
  0
ARC
  5
921
330
6B
100
AcDbEntity
  8
0
  6
Continuous
 62
     3
100
AcDbCircle
 10
1334.870839002554
 20
670.5280526910414
 30
0.0
 40
2.0
100
AcDbArc
 50
0.0
 51
90.00000000001302
  0
ARC
  5
922
330
6B
100
AcDbEntity
  8
0
  6
Continuous
 62
     3
100
AcDbCircle
 10
1334.870839002555
 20
641.5280526910411
 30
0.0
 40
2.0
100
AcDbArc
 50
269.9999999999739
 51
0.0000000000065138
  0
LINE
  5
924
330
6B
100
AcDbEntity
  8
0
  6
Continuous
100
AcDbLine
 10
1323.870839002554
 20
662.6780526910414
 30
0.0
 11
1324.870839002554
 21
663.6780526910414
 31
0.0
  0
LINE
  5
925
330
6B
100
AcDbEntity
  8
0
  6
Continuous
100
AcDbLine
 10
1323.870839002554
 20
649.3780526910413
 30
0.0
 11
1324.870839002554
 21
648.3780526910412
 31
0.0
  0
LINE
  5
926
330
6B
100
AcDbEntity
  8
0
  6
HIDDEN
 62
     7
100
AcDbLine
 10
1297.161735536935
 20
661.7280526910414
 30
0.0
 11
1293.870839002554
 21
656.0280526910414
 31
0.0
  0
LINE
  5
927
330
6B
100
AcDbEntity
  8
0
  6
HIDDEN
 62
     7
100
AcDbLine
 10
1297.161735536935
 20
650.3280526910414
 30
0.0
 11
1293.870839002554
 21
656.0280526910414
 31
0.0
  0
LINE
  5
928
330
6B
100
AcDbEntity
  8
0
  6
HIDDEN
 62
     7
100
AcDbLine
 10
1297.161735536935
 20
661.7280526910414
 30
0.0
 11
1297.161735536935
 21
650.3280526910414
 31
0.0
  0
LINE
  5
929
330
6B
100
AcDbEntity
  8
0
  6
HIDDEN
 62
     7
100
AcDbLine
 10
1297.161735536935
 20
650.3280526910414
 30
0.0
 11
1323.870839002554
 21
649.3780526910414
 31
0.0
  0
LINE
  5
92A
330
6B
100
AcDbEntity
  8
0
  6
HIDDEN
 62
     7
100
AcDbLine
 10
1323.870839002554
 20
662.6780526910414
 30
0.0
 11
1297.161735536935
 21
661.7280526910414
 31
0.0
  0
LINE
  5
92B
330
6B
100
AcDbEntity
  8
0
  6
HIDDEN
100
AcDbLine
 10
1288.551074954713
 20
649.1780526910412
 30
0.0
 11
1291.870839002554
 21
654.9280526910413
 31
0.0
  0
LINE
  5
92C
330
6B
100
AcDbEntity
  8
0
  6
HIDDEN
100
AcDbLine
 10
1288.551074954713
 20
660.6780526910414
 30
0.0
 11
1291.870839002554
 21
654.9280526910413
 31
0.0
  0
LINE
  5
92D
330
6B
100
AcDbEntity
  8
0
  6
HIDDEN
100
AcDbLine
 10
1288.551074954713
 20
660.6780526910413
 30
0.0
 11
1288.551074954713
 21
649.1780526910413
 31
0.0
  0
LINE
  5
92E
330
6B
100
AcDbEntity
  8
0
  6
CENTER
 62
     7
100
AcDbLine
 10
1269.870839002554
 20
667.429757978294
 30
0.0
 11
1269.870839002554
 21
658.5690996148245
 31
0.0
  0
LINE
  5
92F
330
6B
100
AcDbEntity
  8
0
  6
HIDDEN
100
AcDbLine
 10
1260.870839002554
 20
649.1780526910414
 30
0.0
 11
1259.870839002554
 21
648.1780526910414
 31
0.0
  0
LINE
  5
930
330
6B
100
AcDbEntity
  8
0
  6
HIDDEN
100
AcDbLine
 10
1260.870839002554
 20
660.678052691041
 30
0.0
 11
1259.870839002554
 21
661.678052691041
 31
0.0
  0
LINE
  5
9EF
330
6B
100
AcDbEntity
  8
0
  6
Continuous
 62
     3
100
AcDbLine
 10
1218.370839002554
 20
665.2640077472211
 30
0.0
 11
1218.370839002554
 21
646.7920976348616
 31
0.0
  0
LINE
  5
B6F
330
6B
100
AcDbEntity
  8
0
  6
Continuous
100
AcDbLine
 10
1218.370839002554
 20
665.5140077472212
 30
0.0
 11
1218.370839002554
 21
689.8606864157837
 31
0.0
  0
LINE
  5
B70
330
6B
100
AcDbEntity
  8
0
  6
Continuous
100
AcDbLine
 10
1336.870839002554
 20
670.7780526910414
 30
0.0
 11
1336.870839002554
 21
689.8606864157837
 31
0.0
  0
LINE
  5
B71
330
6B
100
AcDbEntity
  8
0
  6
Continuous
100
AcDbLine
 10
1220.870839002554
 20
688.6106864157838
 30
0.0
 11
1334.370839002554
 21
688.6106864157838
 31
0.0
  0
TEXT
  5
B77
330
6B
100
AcDbEntity
  8
0
  6
Continuous
 62
     4
100
AcDbText
 10
1248.033294256052
 20
672.9132642547758
 30
0.0
 40
3.0
  1
5/16W
100
AcDbText
  0
LINE
  5
B7A
330
6B
100
AcDbEntity
  8
0
  6
Continuous
100
AcDbLine
 10
1324.870839002554
 20
668.7780526910414
 30
0.0
 11
1324.870839002554
 21
683.9857854791015
 31
0.0
  0
LINE
  5
B7B
330
6B
100
AcDbEntity
  8
0
  6
Continuous
100
AcDbLine
 10
1293.870839002554
 20
656.2780526910414
 30
0.0
 11
1293.870839002554
 21
683.9857854791015
 31
0.0
  0
LINE
  5
B7C
330
6B
100
AcDbEntity
  8
0
  6
Continuous
100
AcDbLine
 10
1322.370839002554
 20
682.7357854791015
 30
0.0
 11
1296.370839002554
 21
682.7357854791015
 31
0.0
  0
LINE
  5
B80
330
6B
100
AcDbEntity
  8
0
  6
Continuous
100
AcDbLine
 10
1336.870839002554
 20
670.7780526910414
 30
0.0
 11
1336.870839002554
 21
683.9857854791015
 31
0.0
  0
LINE
  5
B81
330
6B
100
AcDbEntity
  8
0
  6
Continuous
100
AcDbLine
 10
1324.870839002554
 20
668.7780526910414
 30
0.0
 11
1324.870839002554
 21
683.9857854791015
 31
0.0
  0
LINE
  5
B82
330
6B
100
AcDbEntity
  8
0
  6
Continuous
100
AcDbLine
 10
1334.370839002554
 20
682.7357854791015
 30
0.0
 11
1327.370839002554
 21
682.7357854791015
 31
0.0
  0
LINE
  5
B86
330
6B
100
AcDbEntity
  8
0
  6
Continuous
100
AcDbLine
 10
1297.411735536935
 20
661.7280526910414
 30
0.0
 11
1348.066125565577
 21
661.7280526910414
 31
0.0
  0
LINE
  5
B87
330
6B
100
AcDbEntity
  8
0
  6
Continuous
100
AcDbLine
 10
1297.411735536935
 20
650.3280526910414
 30
0.0
 11
1348.066125565577
 21
650.3280526910414
 31
0.0
  0
LINE
  5
B88
330
6B
100
AcDbEntity
  8
0
  6
Continuous
100
AcDbLine
 10
1346.816125565577
 20
659.2280526910415
 30
0.0
 11
1346.816125565577
 21
652.8280526910414
 31
0.0
  0
LINE
  5
B8C
330
6B
100
AcDbEntity
  8
0
  6
Continuous
100
AcDbLine
 10
1324.120839002554
 20
662.6780526910414
 30
0.0
 11
1353.938403954661
 21
662.6780526910414
 31
0.0
  0
LINE
  5
B8D
330
6B
100
AcDbEntity
  8
0
  6
Continuous
100
AcDbLine
 10
1324.120839002554
 20
649.3780526910414
 30
0.0
 11
1353.938403954661
 21
649.3780526910414
 31
0.0
  0
LINE
  5
B8E
330
6B
100
AcDbEntity
  8
0
  6
Continuous
100
AcDbLine
 10
1352.688403954661
 20
660.1780526910414
 30
0.0
 11
1352.688403954661
 21
651.8780526910415
 31
0.0
  0
LINE
  5
B92
330
6B
100
AcDbEntity
  8
0
  6
Continuous
100
AcDbLine
 10
1335.120839002554
 20
672.5280526910414
 30
0.0
 11
1360.225270473595
 21
672.5280526910414
 31
0.0
  0
LINE
  5
B93
330
6B
100
AcDbEntity
  8
0
  6
Continuous
100
AcDbLine
 10
1335.120839002554
 20
639.5280526910414
 30
0.0
 11
1360.225270473595
 21
639.5280526910414
 31
0.0
  0
LINE
  5
B94
330
6B
100
AcDbEntity
  8
0
  6
Continuous
100
AcDbLine
 10
1358.975270473596
 20
670.0280526910415
 30
0.0
 11
1358.975270473596
 21
642.0280526910414
 31
0.0
  0
LINE
  5
B9E
330
6B
100
AcDbEntity
  8
0
  6
Continuous
100
AcDbLine
 10
1137.620839002554
 20
661.2780526910414
 30
0.0
 11
1111.780038318401
 21
661.2780526910414
 31
0.0
  0
LINE
  5
B9F
330
6B
100
AcDbEntity
  8
0
  6
Continuous
100
AcDbLine
 10
1137.620839002554
 20
650.7780526910415
 30
0.0
 11
1111.780038318401
 21
650.7780526910415
 31
0.0
  0
LINE
  5
BA0
330
6B
100
AcDbEntity
  8
0
  6
Continuous
100
AcDbLine
 10
1113.030038318401
 20
648.2780526910414
 30
0.0
 11
1113.030038318401
 21
645.7780526910414
 31
0.0
  0
LINE
  5
BA1
330
6B
100
AcDbEntity
  8
0
  6
Continuous
100
AcDbLine
 10
1113.030038318401
 20
663.7780526910415
 30
0.0
 11
1113.030038318401
 21
680.6167986708819
 31
0.0
  0
LINE
  5
BA2
330
6B
100
AcDbEntity
  8
0
  6
Continuous
100
AcDbLine
 10
1113.030038318401
 20
650.7780526910415
 30
0.0
 11
1113.030038318401
 21
661.2780526910414
 31
0.0
  0
LINE
  5
BA6
330
6B
100
AcDbEntity
  8
0
  6
Continuous
100
AcDbLine
 10
1137.620839002554
 20
667.0280526910414
 30
0.0
 11
1105.204480979648
 21
667.0280526910414
 31
0.0
  0
LINE
  5
BA7
330
6B
100
AcDbEntity
  8
0
  6
Continuous
100
AcDbLine
 10
1137.620839002554
 20
645.0280526910416
 30
0.0
 11
1105.204480979648
 21
645.0280526910416
 31
0.0
  0
LINE
  5
BA8
330
6B
100
AcDbEntity
  8
0
  6
Continuous
100
AcDbLine
 10
1106.454480979648
 20
664.5280526910414
 30
0.0
 11
1106.454480979648
 21
647.5280526910417
 31
0.0
  0
LINE
  5
BAC
330
6B
100
AcDbEntity
  8
0
  6
Continuous
100
AcDbLine
 10
1336.870839002554
 20
670.7780526910414
 30
0.0
 11
1336.870839002554
 21
701.2338512866168
 31
0.0
  0
LINE
  5
BAD
330
6B
100
AcDbEntity
  8
0
  6
Continuous
100
AcDbLine
 10
1126.870839002554
 20
656.2780526910414
 30
0.0
 11
1126.870839002554
 21
701.2338512866168
 31
0.0
  0
LINE
  5
BAE
330
6B
100
AcDbEntity
  8
0
  6
Continuous
100
AcDbLine
 10
1334.370839002554
 20
699.9838512866168
 30
0.0
 11
1129.370839002554
 21
699.9838512866168
 31
0.0
  0
LINE
  5
BB2
330
6B
100
AcDbEntity
  8
0
  6
Continuous
100
AcDbLine
 10
1336.870839002554
 20
670.7780526910414
 30
0.0
 11
1336.870839002554
 21
694.9126885539843
 31
0.0
  0
LINE
  5
BB3
330
6B
100
AcDbEntity
  8
0
  6
Continuous
100
AcDbLine
 10
1137.870839002554
 20
676.303279251539
 30
0.0
 11
1137.870839002554
 21
694.9126885539843
 31
0.0
  0
LINE
  5
BB4
330
6B
100
AcDbEntity
  8
0
  6
Continuous
100
AcDbLine
 10
1334.370839002554
 20
693.6626885539843
 30
0.0
 11
1140.370839002554
 21
693.6626885539843
 31
0.0
  0
LINE
  5
BB8
330
6B
100
AcDbEntity
  8
0
 62
     2
100
AcDbLine
 10
1225.953557
 20
729.1778149999997
 30
0.0
 11
1225.934929
 21
729.297083
 31
0.0
  0
LINE
  5
BB9
330
6B
100
AcDbEntity
  8
0
 62
     2
100
AcDbLine
 10
1225.934929
 20
729.297083
 30
0.0
 11
1225.912558
 21
729.411288
 31
0.0
  0
LINE
  5
BBA
330
6B
100
AcDbEntity
  8
0
 62
     2
100
AcDbLine
 10
1225.912558
 20
729.411288
 30
0.0
 11
1225.886616
 21
729.519547
 31
0.0
  0
LINE
  5
BBB
330
6B
100
AcDbEntity
  8
0
 62
     2
100
AcDbLine
 10
1225.886616
 20
729.519547
 30
0.0
 11
1225.857304
 21
729.621024
 31
0.0
  0
LINE
  5
BBC
330
6B
100
AcDbEntity
  8
0
 62
     2
100
AcDbLine
 10
1225.857304
 20
729.621024
 30
0.0
 11
1225.824848
 21
729.7149329999997
 31
0.0
  0
LINE
  5
BBD
330
6B
100
AcDbEntity
  8
0
 62
     2
100
AcDbLine
 10
1225.824848
 20
729.7149329999997
 30
0.0
 11
1225.789499
 21
729.80055
 31
0.0
  0
LINE
  5
BBE
330
6B
100
AcDbEntity
  8
0
 62
     2
100
AcDbLine
 10
1225.789499
 20
729.80055
 30
0.0
 11
1225.751531
 21
729.8772129999996
 31
0.0
  0
LINE
  5
BBF
330
6B
100
AcDbEntity
  8
0
 62
     2
100
AcDbLine
 10
1225.751531
 20
729.8772129999996
 30
0.0
 11
1225.711237
 21
729.944328
 31
0.0
  0
LINE
  5
BC0
330
6B
100
AcDbEntity
  8
0
 62
     2
100
AcDbLine
 10
1225.711237
 20
729.944328
 30
0.0
 11
1225.668928
 21
730.0013769999996
 31
0.0
  0
LINE
  5
BC1
330
6B
100
AcDbEntity
  8
0
 62
     2
100
AcDbLine
 10
1225.668928
 20
730.0013769999996
 30
0.0
 11
1225.624932
 21
730.0479199999998
 31
0.0
  0
LINE
  5
BC2
330
6B
100
AcDbEntity
  8
0
 62
     2
100
AcDbLine
 10
1225.624932
 20
730.0479199999998
 30
0.0
 11
1225.579588
 21
730.0835959999997
 31
0.0
  0
LINE
  5
BC3
330
6B
100
AcDbEntity
  8
0
 62
     2
100
AcDbLine
 10
1225.579588
 20
730.0835959999997
 30
0.0
 11
1225.533247
 21
730.1081299999997
 31
0.0
  0
LINE
  5
BC4
330
6B
100
AcDbEntity
  8
0
 62
     2
100
AcDbLine
 10
1225.533247
 20
730.1081299999997
 30
0.0
 11
1225.486267
 21
730.121332
 31
0.0
  0
LINE
  5
BC5
330
6B
100
AcDbEntity
  8
0
 62
     2
100
AcDbLine
 10
1225.486267
 20
730.121332
 30
0.0
 11
1225.439011
 21
730.1231
 31
0.0
  0
LINE
  5
BC6
330
6B
100
AcDbEntity
  8
0
 62
     2
100
AcDbLine
 10
1225.439011
 20
730.1231
 30
0.0
 11
1225.391845
 21
730.1134199999997
 31
0.0
  0
LINE
  5
BC7
330
6B
100
AcDbEntity
  8
0
 62
     2
100
AcDbLine
 10
1225.391845
 20
730.1134199999997
 30
0.0
 11
1225.345133
 21
730.0923669999997
 31
0.0
  0
LINE
  5
BC8
330
6B
100
AcDbEntity
  8
0
 62
     2
100
AcDbLine
 10
1225.345133
 20
730.0923669999997
 30
0.0
 11
1225.299236
 21
730.060104
 31
0.0
  0
LINE
  5
BC9
330
6B
100
AcDbEntity
  8
0
 62
     2
100
AcDbLine
 10
1225.299236
 20
730.060104
 30
0.0
 11
1225.254509
 21
730.016881
 31
0.0
  0
LINE
  5
BCA
330
6B
100
AcDbEntity
  8
0
 62
     2
100
AcDbLine
 10
1225.254509
 20
730.016881
 30
0.0
 11
1225.211298
 21
729.963031
 31
0.0
  0
LINE
  5
BCB
330
6B
100
AcDbEntity
  8
0
 62
     2
100
AcDbLine
 10
1225.211298
 20
729.963031
 30
0.0
 11
1225.169936
 21
729.8989699999999
 31
0.0
  0
LINE
  5
BCC
330
6B
100
AcDbEntity
  8
0
 62
     2
100
AcDbLine
 10
1225.169936
 20
729.8989699999999
 30
0.0
 11
1225.130744
 21
729.825194
 31
0.0
  0
LINE
  5
BCD
330
6B
100
AcDbEntity
  8
0
 62
     2
100
AcDbLine
 10
1225.130744
 20
729.825194
 30
0.0
 11
1225.094024
 21
729.742274
 31
0.0
  0
LINE
  5
BCE
330
6B
100
AcDbEntity
  8
0
 62
     2
100
AcDbLine
 10
1225.094024
 20
729.742274
 30
0.0
 11
1225.06006
 21
729.6508489999999
 31
0.0
  0
LINE
  5
BCF
330
6B
100
AcDbEntity
  8
0
 62
     2
100
AcDbLine
 10
1225.06006
 20
729.6508489999999
 30
0.0
 11
1225.029115
 21
729.5516259999997
 31
0.0
  0
LINE
  5
BD0
330
6B
100
AcDbEntity
  8
0
 62
     2
100
AcDbLine
 10
1225.029115
 20
729.5516259999997
 30
0.0
 11
1225.001427
 21
729.445374
 31
0.0
  0
LINE
  5
BD1
330
6B
100
AcDbEntity
  8
0
 62
     2
100
AcDbLine
 10
1225.001427
 20
729.445374
 30
0.0
 11
1224.977211
 21
729.332912
 31
0.0
  0
LINE
  5
BD2
330
6B
100
AcDbEntity
  8
0
 62
     2
100
AcDbLine
 10
1224.977211
 20
729.332912
 30
0.0
 11
1224.956655
 21
729.2151099999996
 31
0.0
  0
LINE
  5
BD3
330
6B
100
AcDbEntity
  8
0
 62
     2
100
AcDbLine
 10
1224.956655
 20
729.2151099999996
 30
0.0
 11
1224.939916
 21
729.092878
 31
0.0
  0
LINE
  5
BD4
330
6B
100
AcDbEntity
  8
0
 62
     2
100
AcDbLine
 10
1224.939916
 20
729.092878
 30
0.0
 11
1224.927125
 21
728.967163
 31
0.0
  0
LINE
  5
BD5
330
6B
100
AcDbEntity
  8
0
 62
     2
100
AcDbLine
 10
1224.927125
 20
728.967163
 30
0.0
 11
1224.918379
 21
728.838934
 31
0.0
  0
LINE
  5
BD6
330
6B
100
AcDbEntity
  8
0
 62
     2
100
AcDbLine
 10
1224.918379
 20
728.838934
 30
0.0
 11
1224.913748
 21
728.7091839999996
 31
0.0
  0
LINE
  5
BD7
330
6B
100
AcDbEntity
  8
0
 62
     2
100
AcDbLine
 10
1224.913748
 20
728.7091839999996
 30
0.0
 11
1224.913266
 21
728.5789139999997
 31
0.0
  0
LINE
  5
BD8
330
6B
100
AcDbEntity
  8
0
 62
     2
100
AcDbLine
 10
1224.913266
 20
728.5789139999997
 30
0.0
 11
1224.916937
 21
728.4491329999997
 31
0.0
  0
LINE
  5
BD9
330
6B
100
AcDbEntity
  8
0
 62
     2
100
AcDbLine
 10
1224.916937
 20
728.4491329999997
 30
0.0
 11
1224.924733
 21
728.320843
 31
0.0
  0
LINE
  5
BDA
330
6B
100
AcDbEntity
  8
0
 62
     2
100
AcDbLine
 10
1224.924733
 20
728.320843
 30
0.0
 11
1224.936594
 21
728.195036
 31
0.0
  0
LINE
  5
BDB
330
6B
100
AcDbEntity
  8
0
 62
     2
100
AcDbLine
 10
1224.936594
 20
728.195036
 30
0.0
 11
1224.952428
 21
728.0726849999997
 31
0.0
  0
LINE
  5
BDC
330
6B
100
AcDbEntity
  8
0
 62
     2
100
AcDbLine
 10
1224.952428
 20
728.0726849999997
 30
0.0
 11
1224.972112
 21
727.954734
 31
0.0
  0
LINE
  5
BDD
330
6B
100
AcDbEntity
  8
0
 62
     2
100
AcDbLine
 10
1224.972112
 20
727.954734
 30
0.0
 11
1224.995495
 21
727.842096
 31
0.0
  0
LINE
  5
BDE
330
6B
100
AcDbEntity
  8
0
 62
     2
100
AcDbLine
 10
1224.995495
 20
727.842096
 30
0.0
 11
1225.022395
 21
727.735641
 31
0.0
  0
LINE
  5
BDF
330
6B
100
AcDbEntity
  8
0
 62
     2
100
AcDbLine
 10
1225.022395
 20
727.735641
 30
0.0
 11
1225.052605
 21
727.6361919999997
 31
0.0
  0
LINE
  5
BE0
330
6B
100
AcDbEntity
  8
0
 62
     2
100
AcDbLine
 10
1225.052605
 20
727.6361919999997
 30
0.0
 11
1225.085892
 21
727.544519
 31
0.0
  0
LINE
  5
BE1
330
6B
100
AcDbEntity
  8
0
 62
     2
100
AcDbLine
 10
1225.085892
 20
727.544519
 30
0.0
 11
1225.121997
 21
727.4613279999996
 31
0.0
  0
LINE
  5
BE2
330
6B
100
AcDbEntity
  8
0
 62
     2
100
AcDbLine
 10
1225.121997
 20
727.4613279999996
 30
0.0
 11
1225.160643
 21
727.3872639999997
 31
0.0
  0
LINE
  5
BE3
330
6B
100
AcDbEntity
  8
0
 62
     2
100
AcDbLine
 10
1225.160643
 20
727.3872639999997
 30
0.0
 11
1225.201529
 21
727.3229
 31
0.0
  0
LINE
  5
BE4
330
6B
100
AcDbEntity
  8
0
 62
     2
100
AcDbLine
 10
1225.201529
 20
727.3229
 30
0.0
 11
1225.244341
 21
727.268731
 31
0.0
  0
LINE
  5
BE5
330
6B
100
AcDbEntity
  8
0
 62
     2
100
AcDbLine
 10
1225.244341
 20
727.268731
 30
0.0
 11
1225.288746
 21
727.225178
 31
0.0
  0
LINE
  5
BE6
330
6B
100
AcDbEntity
  8
0
 62
     2
100
AcDbLine
 10
1225.288746
 20
727.225178
 30
0.0
 11
1225.334403
 21
727.192576
 31
0.0
  0
LINE
  5
BE7
330
6B
100
AcDbEntity
  8
0
 62
     2
100
AcDbLine
 10
1225.334403
 20
727.192576
 30
0.0
 11
1225.380958
 21
727.171179
 31
0.0
  0
LINE
  5
BE8
330
6B
100
AcDbEntity
  8
0
 62
     2
100
AcDbLine
 10
1225.380958
 20
727.171179
 30
0.0
 11
1225.428051
 21
727.16115
 31
0.0
  0
LINE
  5
BE9
330
6B
100
AcDbEntity
  8
0
 62
     2
100
AcDbLine
 10
1225.428051
 20
727.16115
 30
0.0
 11
1225.475319
 21
727.1625679999997
 31
0.0
  0
LINE
  5
BEA
330
6B
100
AcDbEntity
  8
0
 62
     2
100
AcDbLine
 10
1225.475319
 20
727.1625679999997
 30
0.0
 11
1225.522395
 21
727.175422
 31
0.0
  0
LINE
  5
BEB
330
6B
100
AcDbEntity
  8
0
 62
     2
100
AcDbLine
 10
1225.522395
 20
727.175422
 30
0.0
 11
1225.568917
 21
727.1996119999997
 31
0.0
  0
LINE
  5
BEC
330
6B
100
AcDbEntity
  8
0
 62
     2
100
AcDbLine
 10
1225.568917
 20
727.1996119999997
 30
0.0
 11
1225.614523
 21
727.2349519999997
 31
0.0
  0
LINE
  5
BED
330
6B
100
AcDbEntity
  8
0
 62
     2
100
AcDbLine
 10
1225.614523
 20
727.2349519999997
 30
0.0
 11
1225.658863
 21
727.281167
 31
0.0
  0
LINE
  5
BEE
330
6B
100
AcDbEntity
  8
0
 62
     2
100
AcDbLine
 10
1225.658863
 20
727.281167
 30
0.0
 11
1225.701593
 21
727.337902
 31
0.0
  0
LINE
  5
BEF
330
6B
100
AcDbEntity
  8
0
 62
     2
100
AcDbLine
 10
1225.701593
 20
727.337902
 30
0.0
 11
1225.742383
 21
727.404718
 31
0.0
  0
LINE
  5
BF0
330
6B
100
AcDbEntity
  8
0
 62
     2
100
AcDbLine
 10
1225.742383
 20
727.404718
 30
0.0
 11
1225.780917
 21
727.4810969999997
 31
0.0
  0
LINE
  5
BF1
330
6B
100
AcDbEntity
  8
0
 62
     2
100
AcDbLine
 10
1225.780917
 20
727.4810969999997
 30
0.0
 11
1225.816898
 21
727.56645
 31
0.0
  0
LINE
  5
BF2
330
6B
100
AcDbEntity
  8
0
 62
     2
100
AcDbLine
 10
1225.816898
 20
727.56645
 30
0.0
 11
1225.850048
 21
727.660117
 31
0.0
  0
LINE
  5
BF3
330
6B
100
AcDbEntity
  8
0
 62
     2
100
AcDbLine
 10
1225.850048
 20
727.660117
 30
0.0
 11
1225.880111
 21
727.761374
 31
0.0
  0
LINE
  5
BF4
330
6B
100
AcDbEntity
  8
0
 62
     2
100
AcDbLine
 10
1225.880111
 20
727.761374
 30
0.0
 11
1225.906853
 21
727.8694379999997
 31
0.0
  0
LINE
  5
BF5
330
6B
100
AcDbEntity
  8
0
 62
     2
100
AcDbLine
 10
1225.906853
 20
727.8694379999997
 30
0.0
 11
1225.930069
 21
727.983474
 31
0.0
  0
LINE
  5
BF6
330
6B
100
AcDbEntity
  8
0
 62
     2
100
AcDbLine
 10
1225.930069
 20
727.983474
 30
0.0
 11
1225.949578
 21
728.1026009999997
 31
0.0
  0
TEXT
  5
BF7
330
6B
100
AcDbEntity
  8
0
  6
Continuous
 62
     4
100
AcDbText
 10
1269.30445220511
 20
689.2356864157838
 30
0.0
 40
3.0
  1
118.5
100
AcDbText
  0
LINE
  5
BF8
330
6B
100
AcDbEntity
  8
0
  6
ByBlock
 62
     0
370
    -2
100
AcDbLine
 10
1334.370839002554
 20
689.2805589157838
 30
0.0
 11
1336.870839002554
 21
688.6106864157838
 31
0.0
  0
LINE
  5
BF9
330
6B
100
AcDbEntity
  8
0
  6
ByBlock
 62
     0
370
    -2
100
AcDbLine
 10
1336.870839002554
 20
688.6106864157838
 30
0.0
 11
1334.370839002554
 21
687.9408139157837
 31
0.0
  0
LINE
  5
BFA
330
6B
100
AcDbEntity
  8
0
  6
ByBlock
 62
     0
370
    -2
100
AcDbLine
 10
1336.870839002554
 20
688.6106864157838
 30
0.0
 11
1334.370839002554
 21
688.6106864157838
 31
0.0
  0
LINE
  5
BFB
330
6B
100
AcDbEntity
  8
0
  6
ByBlock
 62
     0
370
    -2
100
AcDbLine
 10
1220.870839002554
 20
687.9408139157837
 30
0.0
 11
1218.370839002554
 21
688.6106864157838
 31
0.0
  0
LINE
  5
BFC
330
6B
100
AcDbEntity
  8
0
  6
ByBlock
 62
     0
370
    -2
100
AcDbLine
 10
1218.370839002554
 20
688.6106864157838
 30
0.0
 11
1220.870839002554
 21
689.2805589157838
 31
0.0
  0
LINE
  5
BFD
330
6B
100
AcDbEntity
  8
0
  6
ByBlock
 62
     0
370
    -2
100
AcDbLine
 10
1218.370839002554
 20
688.6106864157838
 30
0.0
 11
1220.870839002554
 21
688.6106864157838
 31
0.0
  0
LINE
  5
BFE
330
6B
100
AcDbEntity
  8
0
  6
Continuous
100
AcDbLine
 10
1281.589421426565
 20
667.0503705691839
 30
0.0
 11
1265.158294256052
 21
674.4132642547757
 31
0.0
1001
ACAD
1000
DSTYLE
1002
{
1070
   147
1040
0.625
1070
    77
1070
     0
1002
}
  0
LINE
  5
BFF
330
6B
100
AcDbEntity
  8
0
  6
ByBlock
 62
     0
370
    -2
100
AcDbLine
 10
1281.863350479695
 20
667.6616741272525
 30
0.0
 11
1283.870839002554
 21
666.0280526910415
 31
0.0
  0
LINE
  5
C00
330
6B
100
AcDbEntity
  8
0
  6
ByBlock
 62
     0
370
    -2
100
AcDbLine
 10
1283.870839002554
 20
666.0280526910415
 30
0.0
 11
1281.315492373435
 21
666.4390670111152
 31
0.0
  0
LINE
  5
C01
330
6B
100
AcDbEntity
  8
0
  6
ByBlock
 62
     0
370
    -2
100
AcDbLine
 10
1283.870839002554
 20
666.0280526910415
 30
0.0
 11
1281.589421426565
 21
667.0503705691839
 31
0.0
  0
LINE
  5
C02
330
6B
100
AcDbEntity
  8
0
  6
Continuous
100
AcDbLine
 10
1268.646002746337
 20
668.2074508064522
 30
0.0
 11
1265.158294256052
 21
674.4132642547757
 31
0.0
1001
ACAD
1000
DSTYLE
1002
{
1070
   147
1040
0.625
1070
    77
1070
     0
1002
}
  0
LINE
  5
C03
330
6B
100
AcDbEntity
  8
0
  6
Continuous
100
AcDbLine
 10
1265.158294256052
 20
674.4132642547757
 30
0.0
 11
1262.658294256052
 21
674.4132642547757
 31
0.0
1001
ACAD
1000
DSTYLE
1002
{
1070
   147
1040
0.625
1070
    77
1070
     0
1002
}
  0
LINE
  5
C04
330
6B
100
AcDbEntity
  8
0
  6
ByBlock
 62
     0
370
    -2
100
AcDbLine
 10
1269.229970291963
 20
668.5356444564694
 30
0.0
 11
1269.870839002554
 21
666.0280526910415
 31
0.0
  0
LINE
  5
C05
330
6B
100
AcDbEntity
  8
0
  6
ByBlock
 62
     0
370
    -2
100
AcDbLine
 10
1269.870839002554
 20
666.0280526910415
 30
0.0
 11
1268.062035200711
 21
667.8792571564351
 31
0.0
  0
LINE
  5
C06
330
6B
100
AcDbEntity
  8
0
  6
ByBlock
 62
     0
370
    -2
100
AcDbLine
 10
1269.870839002554
 20
666.0280526910415
 30
0.0
 11
1268.646002746337
 21
668.2074508064522
 31
0.0
  0
TEXT
  5
C07
330
6B
100
AcDbEntity
  8
0
  6
Continuous
 62
     4
100
AcDbText
 10
1307.370839002554
 20
683.3607854791015
 30
0.0
 40
3.0
  1
31
100
AcDbText
  0
LINE
  5
C08
330
6B
100
AcDbEntity
  8
0
  6
ByBlock
 62
     0
370
    -2
100
AcDbLine
 10
1296.370839002554
 20
682.0659129791015
 30
0.0
 11
1293.870839002554
 21
682.7357854791015
 31
0.0
  0
LINE
  5
C09
330
6B
100
AcDbEntity
  8
0
  6
ByBlock
 62
     0
370
    -2
100
AcDbLine
 10
1293.870839002554
 20
682.7357854791015
 30
0.0
 11
1296.370839002554
 21
683.4056579791015
 31
0.0
  0
LINE
  5
C0A
330
6B
100
AcDbEntity
  8
0
  6
ByBlock
 62
     0
370
    -2
100
AcDbLine
 10
1293.870839002554
 20
682.7357854791015
 30
0.0
 11
1296.370839002554
 21
682.7357854791015
 31
0.0
  0
LINE
  5
C0B
330
6B
100
AcDbEntity
  8
0
  6
ByBlock
 62
     0
370
    -2
100
AcDbLine
 10
1322.370839002554
 20
683.4056579791015
 30
0.0
 11
1324.870839002554
 21
682.7357854791015
 31
0.0
  0
LINE
  5
C0C
330
6B
100
AcDbEntity
  8
0
  6
ByBlock
 62
     0
370
    -2
100
AcDbLine
 10
1324.870839002554
 20
682.7357854791015
 30
0.0
 11
1322.370839002554
 21
682.0659129791015
 31
0.0
  0
LINE
  5
C0D
330
6B
100
AcDbEntity
  8
0
  6
ByBlock
 62
     0
370
    -2
100
AcDbLine
 10
1324.870839002554
 20
682.7357854791015
 30
0.0
 11
1322.370839002554
 21
682.7357854791015
 31
0.0
  0
TEXT
  5
C0E
330
6B
100
AcDbEntity
  8
0
  6
Continuous
 62
     4
100
AcDbText
 10
1328.637726053245
 20
683.3607854791015
 30
0.0
 40
3.0
  1
12
100
AcDbText
  0
LINE
  5
C0F
330
6B
100
AcDbEntity
  8
0
  6
ByBlock
 62
     0
370
    -2
100
AcDbLine
 10
1327.370839002554
 20
682.0659129791015
 30
0.0
 11
1324.870839002554
 21
682.7357854791015
 31
0.0
  0
LINE
  5
C10
330
6B
100
AcDbEntity
  8
0
  6
ByBlock
 62
     0
370
    -2
100
AcDbLine
 10
1324.870839002554
 20
682.7357854791015
 30
0.0
 11
1327.370839002554
 21
683.4056579791015
 31
0.0
  0
LINE
  5
C11
330
6B
100
AcDbEntity
  8
0
  6
ByBlock
 62
     0
370
    -2
100
AcDbLine
 10
1324.870839002554
 20
682.7357854791015
 30
0.0
 11
1327.370839002554
 21
682.7357854791015
 31
0.0
  0
LINE
  5
C12
330
6B
100
AcDbEntity
  8
0
  6
ByBlock
 62
     0
370
    -2
100
AcDbLine
 10
1334.370839002554
 20
683.4056579791015
 30
0.0
 11
1336.870839002554
 21
682.7357854791015
 31
0.0
  0
LINE
  5
C13
330
6B
100
AcDbEntity
  8
0
  6
ByBlock
 62
     0
370
    -2
100
AcDbLine
 10
1336.870839002554
 20
682.7357854791015
 30
0.0
 11
1334.370839002554
 21
682.0659129791015
 31
0.0
  0
LINE
  5
C14
330
6B
100
AcDbEntity
  8
0
  6
ByBlock
 62
     0
370
    -2
100
AcDbLine
 10
1336.870839002554
 20
682.7357854791015
 30
0.0
 11
1334.370839002554
 21
682.7357854791015
 31
0.0
  0
TEXT
  5
C15
330
6B
100
AcDbEntity
  8
0
  6
Continuous
 62
     4
100
AcDbText
 10
1346.191125565576
 20
651.8613860243748
 30
0.0
 40
2.5
  1
\U+220511.4
 50
90.0
100
AcDbText
  0
LINE
  5
C16
330
6B
100
AcDbEntity
  8
0
  6
ByBlock
 62
     0
370
    -2
100
AcDbLine
 10
1347.485998065577
 20
652.8280526910414
 30
0.0
 11
1346.816125565577
 21
650.3280526910414
 31
0.0
  0
LINE
  5
C17
330
6B
100
AcDbEntity
  8
0
  6
ByBlock
 62
     0
370
    -2
100
AcDbLine
 10
1346.816125565577
 20
650.3280526910414
 30
0.0
 11
1346.146253065577
 21
652.8280526910414
 31
0.0
  0
LINE
  5
C18
330
6B
100
AcDbEntity
  8
0
  6
ByBlock
 62
     0
370
    -2
100
AcDbLine
 10
1346.816125565577
 20
650.3280526910414
 30
0.0
 11
1346.816125565577
 21
652.8280526910414
 31
0.0
  0
LINE
  5
C19
330
6B
100
AcDbEntity
  8
0
  6
ByBlock
 62
     0
370
    -2
100
AcDbLine
 10
1346.146253065577
 20
659.2280526910415
 30
0.0
 11
1346.816125565577
 21
661.7280526910414
 31
0.0
  0
LINE
  5
C1A
330
6B
100
AcDbEntity
  8
0
  6
ByBlock
 62
     0
370
    -2
100
AcDbLine
 10
1346.816125565577
 20
661.7280526910414
 30
0.0
 11
1347.485998065577
 21
659.2280526910415
 31
0.0
  0
LINE
  5
C1B
330
6B
100
AcDbEntity
  8
0
  6
ByBlock
 62
     0
370
    -2
100
AcDbLine
 10
1346.816125565577
 20
661.7280526910414
 30
0.0
 11
1346.816125565577
 21
659.2280526910415
 31
0.0
  0
TEXT
  5
C1C
330
6B
100
AcDbEntity
  8
0
  6
Continuous
 62
     4
100
AcDbText
 10
1352.063403954661
 20
651.4447193577081
 30
0.0
 40
2.5
  1
\U+220513.3
 50
90.0
100
AcDbText
  0
LINE
  5
C1D
330
6B
100
AcDbEntity
  8
0
  6
ByBlock
 62
     0
370
    -2
100
AcDbLine
 10
1353.358276454661
 20
651.8780526910415
 30
0.0
 11
1352.688403954661
 21
649.3780526910414
 31
0.0
  0
LINE
  5
C1E
330
6B
100
AcDbEntity
  8
0
  6
ByBlock
 62
     0
370
    -2
100
AcDbLine
 10
1352.688403954661
 20
649.3780526910414
 30
0.0
 11
1352.018531454661
 21
651.8780526910415
 31
0.0
  0
LINE
  5
C1F
330
6B
100
AcDbEntity
  8
0
  6
ByBlock
 62
     0
370
    -2
100
AcDbLine
 10
1352.688403954661
 20
649.3780526910414
 30
0.0
 11
1352.688403954661
 21
651.8780526910415
 31
0.0
  0
LINE
  5
C20
330
6B
100
AcDbEntity
  8
0
  6
ByBlock
 62
     0
370
    -2
100
AcDbLine
 10
1352.018531454661
 20
660.1780526910414
 30
0.0
 11
1352.688403954661
 21
662.6780526910414
 31
0.0
  0
LINE
  5
C21
330
6B
100
AcDbEntity
  8
0
  6
ByBlock
 62
     0
370
    -2
100
AcDbLine
 10
1352.688403954661
 20
662.6780526910414
 30
0.0
 11
1353.358276454661
 21
660.1780526910414
 31
0.0
  0
LINE
  5
C22
330
6B
100
AcDbEntity
  8
0
  6
ByBlock
 62
     0
370
    -2
100
AcDbLine
 10
1352.688403954661
 20
662.6780526910414
 30
0.0
 11
1352.688403954661
 21
660.1780526910414
 31
0.0
  0
TEXT
  5
C23
330
6B
100
AcDbEntity
  8
0
  6
Continuous
 62
     4
100
AcDbText
 10
1358.350270473595
 20
652.0949164362122
 30
0.0
 40
3.0
  1
\U+220533
 50
90.0
100
AcDbText
  0
LINE
  5
C24
330
6B
100
AcDbEntity
  8
0
  6
ByBlock
 62
     0
370
    -2
100
AcDbLine
 10
1359.645142973596
 20
642.0280526910414
 30
0.0
 11
1358.975270473596
 21
639.5280526910414
 31
0.0
  0
LINE
  5
C25
330
6B
100
AcDbEntity
  8
0
  6
ByBlock
 62
     0
370
    -2
100
AcDbLine
 10
1358.975270473596
 20
639.5280526910414
 30
0.0
 11
1358.305397973595
 21
642.0280526910414
 31
0.0
  0
LINE
  5
C26
330
6B
100
AcDbEntity
  8
0
  6
ByBlock
 62
     0
370
    -2
100
AcDbLine
 10
1358.975270473596
 20
639.5280526910414
 30
0.0
 11
1358.975270473596
 21
642.0280526910414
 31
0.0
  0
LINE
  5
C27
330
6B
100
AcDbEntity
  8
0
  6
ByBlock
 62
     0
370
    -2
100
AcDbLine
 10
1358.305397973595
 20
670.0280526910415
 30
0.0
 11
1358.975270473596
 21
672.5280526910414
 31
0.0
  0
LINE
  5
C28
330
6B
100
AcDbEntity
  8
0
  6
ByBlock
 62
     0
370
    -2
100
AcDbLine
 10
1358.975270473596
 20
672.5280526910414
 30
0.0
 11
1359.645142973596
 21
670.0280526910415
 31
0.0
  0
LINE
  5
C29
330
6B
100
AcDbEntity
  8
0
  6
ByBlock
 62
     0
370
    -2
100
AcDbLine
 10
1358.975270473596
 20
672.5280526910414
 30
0.0
 11
1358.975270473596
 21
670.0280526910415
 31
0.0
  0
LINE
  5
C2A
330
6B
100
AcDbEntity
  8
0
  6
Continuous
100
AcDbLine
 10
1144.40674302097
 20
644.4087132508656
 30
0.0
 11
1148.428203770081
 21
622.1258314597593
 31
0.0
1001
ACAD
1000
DSTYLE
1002
{
1070
   147
1040
0.625
1070
    77
1070
     0
1002
}
  0
LINE
  5
C2B
330
6B
100
AcDbEntity
  8
0
  6
ByBlock
 62
     0
370
    -2
100
AcDbLine
 10
1143.747520122779
 20
644.2897412509761
 30
0.0
 11
1143.962733153833
 21
646.8689683672884
 31
0.0
  0
LINE
  5
C2C
330
6B
100
AcDbEntity
  8
0
  6
ByBlock
 62
     0
370
    -2
100
AcDbLine
 10
1143.962733153833
 20
646.8689683672884
 30
0.0
 11
1145.06596591916
 21
644.5276852507551
 31
0.0
  0
LINE
  5
C2D
330
6B
100
AcDbEntity
  8
0
  6
ByBlock
 62
     0
370
    -2
100
AcDbLine
 10
1143.962733153833
 20
646.8689683672884
 30
0.0
 11
1144.40674302097
 21
644.4087132508656
 31
0.0
  0
LINE
  5
C2E
330
6B
100
AcDbEntity
  8
0
  6
Continuous
100
AcDbLine
 10
1202.377836979648
 20
646.5280624853972
 30
0.0
 11
1202.449628550166
 21
620.8809046382017
 31
0.0
1001
ACAD
1000
DSTYLE
1002
{
1070
   147
1040
0.625
1070
    77
1070
     0
1002
}
  0
LINE
  5
C2F
330
6B
100
AcDbEntity
  8
0
  6
ByBlock
 62
     0
370
    -2
100
AcDbLine
 10
1201.707967104036
 20
646.526187384433
 30
0.0
 11
1202.370839002554
 21
649.0280526910415
 31
0.0
  0
LINE
  5
C30
330
6B
100
AcDbEntity
  8
0
  6
ByBlock
 62
     0
370
    -2
100
AcDbLine
 10
1202.370839002554
 20
649.0280526910415
 30
0.0
 11
1203.04770685526
 21
646.5299375863617
 31
0.0
  0
LINE
  5
C31
330
6B
100
AcDbEntity
  8
0
  6
ByBlock
 62
     0
370
    -2
100
AcDbLine
 10
1202.370839002554
 20
649.0280526910415
 30
0.0
 11
1202.377836979648
 21
646.5280624853972
 31
0.0
  0
LINE
  5
C32
330
6B
100
AcDbEntity
  8
0
  6
Continuous
100
AcDbLine
 10
1285.946925327702
 20
640.2714981889677
 30
0.0
 11
1296.198768854059
 21
618.773368231061
 31
0.0
1001
ACAD
1000
DSTYLE
1002
{
1070
   147
1040
0.625
1070
    77
1070
     0
1002
}
  0
LINE
  5
C33
330
6B
100
AcDbEntity
  8
0
  6
ByBlock
 62
     0
370
    -2
100
AcDbLine
 10
1285.342283805426
 20
639.9831619342306
 30
0.0
 11
1284.870839002554
 21
642.5280526910414
 31
0.0
  0
LINE
  5
C34
330
6B
100
AcDbEntity
  8
0
  6
ByBlock
 62
     0
370
    -2
100
AcDbLine
 10
1284.870839002554
 20
642.5280526910414
 30
0.0
 11
1286.551566849978
 21
640.5598344437047
 31
0.0
  0
LINE
  5
C35
330
6B
100
AcDbEntity
  8
0
  6
ByBlock
 62
     0
370
    -2
100
AcDbLine
 10
1284.870839002554
 20
642.5280526910414
 30
0.0
 11
1285.946925327702
 21
640.2714981889677
 31
0.0
  0
TEXT
  5
C36
330
6B
100
AcDbEntity
  8
0
  6
Continuous
 62
     4
100
AcDbText
 10
1112.405038318401
 20
669.491798670882
 30
0.0
 40
3.0
  1
\U+220510.5
 50
90.0
100
AcDbText
  0
LINE
  5
C37
330
6B
100
AcDbEntity
  8
0
  6
ByBlock
 62
     0
370
    -2
100
AcDbLine
 10
1113.699910818401
 20
663.7780526910415
 30
0.0
 11
1113.030038318401
 21
661.2780526910414
 31
0.0
  0
LINE
  5
C38
330
6B
100
AcDbEntity
  8
0
  6
ByBlock
 62
     0
370
    -2
100
AcDbLine
 10
1113.030038318401
 20
661.2780526910414
 30
0.0
 11
1112.360165818401
 21
663.7780526910415
 31
0.0
  0
LINE
  5
C39
330
6B
100
AcDbEntity
  8
0
  6
ByBlock
 62
     0
370
    -2
100
AcDbLine
 10
1113.030038318401
 20
661.2780526910414
 30
0.0
 11
1113.030038318401
 21
663.7780526910415
 31
0.0
  0
LINE
  5
C3A
330
6B
100
AcDbEntity
  8
0
  6
ByBlock
 62
     0
370
    -2
100
AcDbLine
 10
1112.360165818401
 20
648.2780526910414
 30
0.0
 11
1113.030038318401
 21
650.7780526910415
 31
0.0
  0
LINE
  5
C3B
330
6B
100
AcDbEntity
  8
0
  6
ByBlock
 62
     0
370
    -2
100
AcDbLine
 10
1113.030038318401
 20
650.7780526910415
 30
0.0
 11
1113.699910818401
 21
648.2780526910414
 31
0.0
  0
LINE
  5
C3C
330
6B
100
AcDbEntity
  8
0
  6
ByBlock
 62
     0
370
    -2
100
AcDbLine
 10
1113.030038318401
 20
650.7780526910415
 30
0.0
 11
1113.030038318401
 21
648.2780526910414
 31
0.0
  0
TEXT
  5
C3D
330
6B
100
AcDbEntity
  8
0
  6
Continuous
 62
     4
100
AcDbText
 10
1105.829480979648
 20
652.538290792025
 30
0.0
 40
3.0
  1
\U+220522
 50
90.0
100
AcDbText
  0
LINE
  5
C3E
330
6B
100
AcDbEntity
  8
0
  6
ByBlock
 62
     0
370
    -2
100
AcDbLine
 10
1107.124353479648
 20
647.5280526910417
 30
0.0
 11
1106.454480979648
 21
645.0280526910416
 31
0.0
  0
LINE
  5
C3F
330
6B
100
AcDbEntity
  8
0
  6
ByBlock
 62
     0
370
    -2
100
AcDbLine
 10
1106.454480979648
 20
645.0280526910416
 30
0.0
 11
1105.784608479648
 21
647.5280526910417
 31
0.0
  0
LINE
  5
C40
330
6B
100
AcDbEntity
  8
0
  6
ByBlock
 62
     0
370
    -2
100
AcDbLine
 10
1106.454480979648
 20
645.0280526910416
 30
0.0
 11
1106.454480979648
 21
647.5280526910417
 31
0.0
  0
LINE
  5
C41
330
6B
100
AcDbEntity
  8
0
  6
ByBlock
 62
     0
370
    -2
100
AcDbLine
 10
1105.784608479648
 20
664.5280526910414
 30
0.0
 11
1106.454480979648
 21
667.0280526910414
 31
0.0
  0
LINE
  5
C42
330
6B
100
AcDbEntity
  8
0
  6
ByBlock
 62
     0
370
    -2
100
AcDbLine
 10
1106.454480979648
 20
667.0280526910414
 30
0.0
 11
1107.124353479648
 21
664.5280526910414
 31
0.0
  0
LINE
  5
C43
330
6B
100
AcDbEntity
  8
0
  6
ByBlock
 62
     0
370
    -2
100
AcDbLine
 10
1106.454480979648
 20
667.0280526910414
 30
0.0
 11
1106.454480979648
 21
664.5280526910414
 31
0.0
  0
TEXT
  5
C44
330
6B
100
AcDbEntity
  8
0
  6
Continuous
 62
     4
100
AcDbText
 10
1231.426070365083
 20
700.6088512866169
 30
0.0
 40
3.0
  1
210
100
AcDbText
  0
LINE
  5
C45
330
6B
100
AcDbEntity
  8
0
  6
ByBlock
 62
     0
370
    -2
100
AcDbLine
 10
1129.370839002554
 20
699.3139787866168
 30
0.0
 11
1126.870839002554
 21
699.9838512866168
 31
0.0
  0
LINE
  5
C46
330
6B
100
AcDbEntity
  8
0
  6
ByBlock
 62
     0
370
    -2
100
AcDbLine
 10
1126.870839002554
 20
699.9838512866168
 30
0.0
 11
1129.370839002554
 21
700.6537237866169
 31
0.0
  0
LINE
  5
C47
330
6B
100
AcDbEntity
  8
0
  6
ByBlock
 62
     0
370
    -2
100
AcDbLine
 10
1126.870839002554
 20
699.9838512866168
 30
0.0
 11
1129.370839002554
 21
699.9838512866168
 31
0.0
  0
LINE
  5
C48
330
6B
100
AcDbEntity
  8
0
  6
ByBlock
 62
     0
370
    -2
100
AcDbLine
 10
1334.370839002554
 20
700.6537237866169
 30
0.0
 11
1336.870839002554
 21
699.9838512866168
 31
0.0
  0
LINE
  5
C49
330
6B
100
AcDbEntity
  8
0
  6
ByBlock
 62
     0
370
    -2
100
AcDbLine
 10
1336.870839002554
 20
699.9838512866168
 30
0.0
 11
1334.370839002554
 21
699.3139787866168
 31
0.0
  0
LINE
  5
C4A
330
6B
100
AcDbEntity
  8
0
  6
ByBlock
 62
     0
370
    -2
100
AcDbLine
 10
1336.870839002554
 20
699.9838512866168
 30
0.0
 11
1334.370839002554
 21
699.9838512866168
 31
0.0
  0
TEXT
  5
C4B
330
6B
100
AcDbEntity
  8
0
  6
Continuous
 62
     4
100
AcDbText
 10
1236.082549786649
 20
694.2876885539844
 30
0.0
 40
3.0
  1
199
100
AcDbText
  0
LINE
  5
C4C
330
6B
100
AcDbEntity
  8
0
  6
ByBlock
 62
     0
370
    -2
100
AcDbLine
 10
1140.370839002554
 20
692.9928160539843
 30
0.0
 11
1137.870839002554
 21
693.6626885539843
 31
0.0
  0
LINE
  5
C4D
330
6B
100
AcDbEntity
  8
0
  6
ByBlock
 62
     0
370
    -2
100
AcDbLine
 10
1137.870839002554
 20
693.6626885539843
 30
0.0
 11
1140.370839002554
 21
694.3325610539844
 31
0.0
  0
LINE
  5
C4E
330
6B
100
AcDbEntity
  8
0
  6
ByBlock
 62
     0
370
    -2
100
AcDbLine
 10
1137.870839002554
 20
693.6626885539843
 30
0.0
 11
1140.370839002554
 21
693.6626885539843
 31
0.0
  0
LINE
  5
C4F
330
6B
100
AcDbEntity
  8
0
  6
ByBlock
 62
     0
370
    -2
100
AcDbLine
 10
1334.370839002554
 20
694.3325610539844
 30
0.0
 11
1336.870839002554
 21
693.6626885539843
 31
0.0
  0
LINE
  5
C50
330
6B
100
AcDbEntity
  8
0
  6
ByBlock
 62
     0
370
    -2
100
AcDbLine
 10
1336.870839002554
 20
693.6626885539843
 30
0.0
 11
1334.370839002554
 21
692.9928160539843
 31
0.0
  0
LINE
  5
C51
330
6B
100
AcDbEntity
  8
0
  6
ByBlock
 62
     0
370
    -2
100
AcDbLine
 10
1336.870839002554
 20
693.6626885539843
 30
0.0
 11
1334.370839002554
 21
693.6626885539843
 31
0.0
  0
ENDSEC
  0
SECTION
  2
OBJECTS
  0
DICTIONARY
  5
C
330
0
100
AcDbDictionary
281
     1
  3
ACAD_2007HEADERVARS_RT
350
C55
  3
ACAD_COLOR
350
62
  3
ACAD_GROUP
350
D
  3
ACAD_LAYOUT
350
61
  3
ACAD_MATERIAL
350
10
  3
ACAD_MLEADERSTYLE
350
65
  3
ACAD_MLINESTYLE
350
5E
  3
ACAD_PLOTSETTINGS
350
60
  3
ACAD_PLOTSTYLENAME
350
E
  3
ACAD_SCALELIST
350
42
  3
ACAD_TABLESTYLE
350
63
  3
ACAD_VISUALSTYLE
350
29
  3
ACDB_RECOMPOSE_DATA
350
C53
  3
AcDbVariableDictionary
350
4F1
  3
DWGPROPS
350
C54
  0
DICTIONARY
  5
321
330
2
100
AcDbDictionary
280
     1
281
     1
  3
ACAD_LAYERSTATES
360
322
  0
DICTIONARY
  5
4ED
330
54
100
AcDbDictionary
280
     1
281
     1
  3
ADSK_XREC_LAYER_RECONCILED
360
4EE
  0
DICTIONARY
  5
238
330
6B
100
AcDbDictionary
280
     1
281
     1
  3
ACAD_SORTENTS
360
239
  0
DICTIONARY
  5
C55
102
{ACAD_REACTORS
330
C
102
}
330
C
100
AcDbDictionary
281
     1
  3
DIMARCSYM
350
C57
  3
DIMFXL
350
C56
  3
DIMJOGANG
350
C58
  0
DICTIONARY
  5
62
102
{ACAD_REACTORS
330
C
102
}
330
C
100
AcDbDictionary
281
     1
  0
DICTIONARY
  5
D
102
{ACAD_REACTORS
330
C
102
}
330
C
100
AcDbDictionary
281
     1
  0
DICTIONARY
  5
61
102
{ACAD_REACTORS
330
C
102
}
330
C
100
AcDbDictionary
281
     1
  3
Model
350
6E
  3
レイアウト1
350
6A
  0
DICTIONARY
  5
10
102
{ACAD_REACTORS
330
C
102
}
330
C
100
AcDbDictionary
281
     1
  3
ByBlock
350
19
  3
ByLayer
350
11
  3
Global
350
21
  0
DICTIONARY
  5
65
102
{ACAD_REACTORS
330
C
102
}
330
C
100
AcDbDictionary
281
     1
  3
Standard
350
66
  0
DICTIONARY
  5
5E
102
{ACAD_REACTORS
330
C
102
}
330
C
100
AcDbDictionary
281
     1
  3
Standard
350
5F
  0
DICTIONARY
  5
60
102
{ACAD_REACTORS
330
C
102
}
330
C
100
AcDbDictionary
281
     1
  0
ACDBDICTIONARYWDFLT
  5
E
102
{ACAD_REACTORS
330
C
102
}
330
C
100
AcDbDictionary
281
     1
  3
Normal
350
F
100
AcDbDictionaryWithDefault
340
F
  0
DICTIONARY
  5
42
102
{ACAD_REACTORS
330
C
102
}
330
C
100
AcDbDictionary
281
     1
  3
A0
350
43
  3
A1
350
44
  3
A2
350
45
  3
A3
350
46
  3
A4
350
47
  3
A5
350
48
  3
A6
350
49
  3
A7
350
4A
  3
A8
350
4B
  3
A9
350
4C
  3
B0
350
4D
  3
B1
350
4E
  3
B2
350
4F
  3
B3
350
50
  3
B4
350
51
  3
B5
350
52
  3
B6
350
53
  0
DICTIONARY
  5
63
102
{ACAD_REACTORS
330
C
102
}
330
C
100
AcDbDictionary
281
     1
  3
Standard
350
64
  0
DICTIONARY
  5
29
102
{ACAD_REACTORS
330
C
102
}
330
C
100
AcDbDictionary
281
     1
  3
2dWireframe
350
2F
  3
3dWireframe
350
320
  3
Basic
350
2E
  3
Brighten
350
35
  3
ColorChange
350
39
  3
Conceptual
350
32
  3
Dim
350
34
  3
EdgeColorOff
350
41
  3
Facepattern
350
38
  3
Flat
350
2A
  3
FlatWithEdges
350
2B
  3
Gouraud
350
2C
  3
GouraudWithEdges
350
2D
  3
Hidden
350
31
  3
JitterOff
350
3F
  3
Linepattern
350
37
  3
OverhangOff
350
40
  3
Realistic
350
33
  3
Shaded
350
3E
  3
Shaded with edges
350
3D
  3
Shades of Gray
350
3A
  3
Sketchy
350
3B
  3
Thicken
350
36
  3
Wireframe
350
30
  3
X-Ray
350
3C
  0
XRECORD
  5
C53
102
{ACAD_REACTORS
330
C
102
}
330
C
100
AcDbXrecord
280
     1
 90
        1
330
64
  0
DICTIONARY
  5
4F1
102
{ACAD_REACTORS
330
C
102
}
330
C
100
AcDbDictionary
281
     1
  3
CANNOSCALE
350
4F4
  3
CMLEADERSTYLE
350
4F3
  3
CTABLESTYLE
350
4F2
  3
DIMASSOC
350
4F7
  3
INDEXCTL
350
4F6
  3
SORTENTS
350
4F5
  3
XCLIPFRAME
350
A6E
  0
XRECORD
  5
C54
102
{ACAD_REACTORS
330
C
102
}
330
C
100
AcDbXrecord
280
     1
  1
DWGPROPS COOKIE
  2

  3

  4

  6

  7

  8
imamura
  9

300
=
301
=
302
=
303
=
304
=
305
=
306
=
307
=
308
=
309
=
 40
0.1082431018518518
 41
2455946.811813217
 42
2456994.602128866
  1

 90
        0
  0
DICTIONARY
  5
322
102
{ACAD_REACTORS
330
321
102
}
330
321
100
AcDbDictionary
281
     1
  0
XRECORD
  5
4EE
102
{ACAD_REACTORS
330
4ED
102
}
330
4ED
100
AcDbXrecord
280
     1
290
     1
  0
SORTENTSTABLE
  5
239
102
{ACAD_REACTORS
330
238
102
}
330
238
100
AcDbSortentsTable
330
6B
331
27B
  5
B78
331
187
  5
1D6
331
D5
  5
D5
331
D1
  5
D1
331
1BE
  5
229
331
17F
  5
1D2
331
CD
  5
CD
331
1BA
  5
225
331
17B
  5
1CE
331
C9
  5
C9
331
BD6
  5
168
331
C4C
  5
B85
331
BD2
  5
164
331
C0D
  5
C39
331
C48
  5
B8F
331
BCE
  5
160
331
C09
  5
C3B
331
C44
  5
B9E
331
BCA
  5
15C
331
907
  5
BD0
331
C40
  5
BA7
331
903
  5
BCC
331
253
  5
B75
331
B93
  5
C00
331
229
  5
92D
331
1B6
  5
221
331
177
  5
1CA
331
C5
  5
C5
331
104
  5
104
331
100
  5
100
331
1B2
  5
203
331
C1
  5
C1
331
1AE
  5
1F3
331
BD
  5
BD
331
FC
  5
FC
331
1AA
  5
1E9
331
16B
  5
1C2
331
B9
  5
B9
331
F8
  5
F8
331
C05
  5
C3F
331
BC6
  5
158
331
C01
  5
C46
331
C3C
  5
BB0
331
BC2
  5
154
331
BFD
  5
C4D
331
C38
  5
BB2
331
BBE
  5
150
331
BF9
  5
C4F
331
C34
  5
BB6
331
BBA
  5
14C
331
C30
  5
BBA
331
1E8
  5
916
331
1E4
  5
912
331
B87
  5
C21
331
92E
  5
C13
331
4E2
  5
BC7
331
1E0
  5
90E
331
92A
  5
C0F
331
167
  5
1BE
331
B5
  5
B5
331
F4
  5
F4
331
F0
  5
F0
331
1A2
  5
1E5
331
163
  5
1BA
331
B1
  5
B1
331
EC
  5
EC
331
15F
  5
1B6
331
AD
  5
AD
331
19A
  5
1E2
331
15B
  5
1B2
331
A9
  5
A9
331
E8
  5
E8
331
BF5
  5
18F
331
C2C
  5
BBE
331
BB2
  5
B79
331
BF1
  5
18B
331
C28
  5
C03
331
BAE
  5
B8E
331
BED
  5
187
331
C24
  5
C05
331
BE9
  5
17F
331
1DC
  5
90A
331
C20
  5
C19
331
227
  5
92B
331
926
  5
C0B
331
1D8
  5
906
331
223
  5
927
331
B7B
  5
C35
331
922
  5
BFE
331
1D4
  5
902
331
B77
  5
C43
331
91E
  5
BFA
331
1D0
  5
4E2
331
91A
  5
BF3
331
157
  5
1AE
331
A5
  5
A5
331
E4
  5
E4
331
192
  5
1E0
331
153
  5
1AA
331
A1
  5
A1
331
E0
  5
E0
331
DC
  5
DC
331
18E
  5
1DD
331
14F
  5
1A2
331
9D
  5
9D
331
18A
  5
1D9
331
14B
  5
194
331
D8
  5
D8
331
BA6
  5
B9F
331
BE5
  5
17B
331
C1C
  5
C1F
331
BA2
  5
BAD
331
BE1
  5
177
331
C18
  5
C28
331
B9E
  5
BA9
331
BDD
  5
172
331
21F
  5
922
331
C14
  5
C2F
331
BD9
  5
16B
331
1CC
  5
27B
331
C10
  5
C31
331
B6F
  5
C48
331
916
  5
BE8
331
262
  5
930
331
1C8
  5
260
331
203
  5
920
331
912
  5
BE1
331
25E
  5
931
331
1C4
  5
256
331
90E
  5
BDA
331
25A
  5
B77
331
1C0
  5
241
331
90A
  5
BD3
331
186
  5
1D5
331
D4
  5
D4
331
D0
  5
D0
331
1BD
  5
228
331
17E
  5
1D1
331
CC
  5
CC
331
1B9
  5
224
331
17A
  5
1CD
331
C8
  5
C8
331
C4F
  5
B7F
331
BD5
  5
167
331
9EF
  5
BF7
331
C4B
  5
B8B
331
BD1
  5
163
331
C0C
  5
C38
331
C47
  5
B9D
331
BCD
  5
15F
331
C08
  5
C3A
331
C43
  5
BA4
331
1FB
  5
91E
331
BC9
  5
15B
331
906
  5
BCF
331
252
  5
B72
331
902
  5
BCB
331
1F3
  5
91C
331
B92
  5
BFF
331
228
  5
92C
331
107
  5
107
331
1B5
  5
220
331
176
  5
1C9
331
C4
  5
C4
331
103
  5
103
331
FF
  5
FF
331
1B1
  5
202
331
172
  5
1C6
331
C0
  5
C0
331
1AD
  5
1F2
331
BC
  5
BC
331
FB
  5
FB
331
16A
  5
1C1
331
B8
  5
B8
331
C04
  5
C3E
331
C3F
  5
BA6
331
BC5
  5
157
331
C00
  5
C45
331
C3B
  5
BAF
331
BC1
  5
153
331
BFC
  5
C4C
331
C37
  5
BB1
331
BBD
  5
14F
331
BF8
  5
C4E
331
C33
  5
BB5
331
1EB
  5
919
331
BB9
  5
14B
331
B8E
  5
C18
331
1E7
  5
915
331
1E3
  5
911
331
B86
  5
C20
331
92D
  5
C12
331
B82
  5
C2C
331
929
  5
C0E
331
F7
  5
F7
331
4EC
  5
BC9
331
1A5
  5
1E8
331
166
  5
1BD
331
B4
  5
B4
331
F3
  5
F3
331
EF
  5
EF
331
1A1
  5
1E4
331
162
  5
1B9
331
B0
  5
B0
331
15E
  5
1B5
331
AC
  5
AC
331
EB
  5
EB
331
15A
  5
1B1
331
A8
  5
A8
331
C2F
  5
BB9
331
BF4
  5
18E
331
C2B
  5
BBD
331
BF0
  5
18A
331
C27
  5
C02
331
BAD
  5
B8D
331
BEC
  5
186
331
1DF
  5
90D
331
C23
  5
C08
331
BE8
  5
17E
331
1DB
  5
909
331
226
  5
92A
331
925
  5
C0A
331
4D9
  5
BC3
331
1D7
  5
905
331
222
  5
926
331
B7A
  5
C34
331
921
  5
BFD
331
1D3
  5
901
331
91D
  5
BF9
331
919
  5
BF2
331
E7
  5
E7
331
156
  5
1AD
331
A4
  5
A4
331
E3
  5
E3
331
DF
  5
DF
331
152
  5
1A5
331
A0
  5
A0
331
18D
  5
1DC
331
14E
  5
1A1
331
DB
  5
DB
331
189
  5
1D8
331
14A
  5
192
331
C1F
  5
C1E
331
BE4
  5
17A
331
C1B
  5
C25
331
BA1
  5
BAC
331
BE0
  5
176
331
C17
  5
C27
331
BDC
  5
170
331
21E
  5
921
331
1CF
  5
4D9
331
C13
  5
C2E
331
BD8
  5
16A
331
1CB
  5
263
331
915
  5
BE7
331
1C7
  5
25F
331
202
  5
91F
331
911
  5
BE0
331
25D
  5
B6F
331
1C3
  5
245
331
90D
  5
BD6
331
259
  5
B76
331
909
  5
BD2
331
D7
  5
D7
331
185
  5
1D4
331
D3
  5
D3
331
CF
  5
CF
331
1BC
  5
227
331
17D
  5
1D0
331
CB
  5
CB
331
1B8
  5
223
331
179
  5
1CC
331
C4E
  5
B87
331
BD4
  5
166
331
C0F
  5
C30
331
C4A
  5
B9A
331
BD0
  5
162
331
C0B
  5
C37
331
C46
  5
B9C
331
BCC
  5
15E
331
C42
  5
BA3
331
1FA
  5
91D
331
BC8
  5
15A
331
905
  5
BCE
331
901
  5
BCA
331
1F2
  5
91A
331
C7
  5
C7
331
106
  5
106
331
1B4
  5
21F
331
175
  5
1C8
331
C3
  5
C3
331
102
  5
102
331
FE
  5
FE
331
1B0
  5
1FB
331
BF
  5
BF
331
1AC
  5
1EB
331
16D
  5
1C4
331
BB
  5
BB
331
FA
  5
FA
331
169
  5
1C0
331
C07
  5
C3D
331
C03
  5
C42
331
C3E
  5
BA5
331
BC4
  5
156
331
BFF
  5
C44
331
C3A
  5
BAE
331
BC0
  5
152
331
BFB
  5
C4B
331
C36
  5
BB4
331
BBC
  5
14E
331
C32
  5
BB8
331
1EA
  5
918
331
BB8
  5
14A
331
B8D
  5
C17
331
1E6
  5
914
331
930
  5
C15
331
1E2
  5
910
331
92C
  5
C11
331
B81
  5
C2B
331
928
  5
C0D
331
B7
  5
B7
331
F6
  5
F6
331
4EB
  5
BC8
331
1A4
  5
1E7
331
165
  5
1BC
331
B3
  5
B3
331
F2
  5
F2
331
EE
  5
EE
331
1A0
  5
1E3
331
161
  5
1B8
331
AF
  5
AF
331
15D
  5
1B4
331
AB
  5
AB
331
EA
  5
EA
331
159
  5
1B0
331
BF7
  5
C51
331
C2E
  5
BBC
331
BB4
  5
B7B
331
BF3
  5
18D
331
C2A
  5
BC0
331
BEF
  5
189
331
C26
  5
C07
331
BAC
  5
B8C
331
BEB
  5
185
331
235
  5
92E
331
1DE
  5
90C
331
C22
  5
C1B
331
BA8
  5
BA1
331
1DA
  5
908
331
225
  5
929
331
924
  5
C09
331
4D8
  5
BC2
331
1D6
  5
904
331
221
  5
925
331
920
  5
BFC
331
1D2
  5
4EC
331
91C
  5
BF8
331
B71
  5
C4A
331
918
  5
BF1
331
A7
  5
A7
331
E6
  5
E6
331
194
  5
1E1
331
155
  5
1AC
331
A3
  5
A3
331
E2
  5
E2
331
DE
  5
DE
331
190
  5
1DF
331
151
  5
1A4
331
9F
  5
9F
331
18C
  5
1DB
331
14D
  5
1A0
331
DA
  5
DA
331
188
  5
1D7
331
BE7
  5
17D
331
C1E
  5
C1D
331
BE3
  5
179
331
C1A
  5
C24
331
BA0
  5
BAB
331
BDF
  5
175
331
C16
  5
C26
331
BDB
  5
16D
331
1CE
  5
4D8
331
C12
  5
C2D
331
C51
  5
B81
331
1CA
  5
262
331
914
  5
BE6
331
1C6
  5
25E
331
910
  5
BDC
331
25C
  5
B73
331
1C2
  5
244
331
90C
  5
BD5
331
258
  5
B70
331
908
  5
BD1
331
D6
  5
D6
331
184
  5
1D3
331
D2
  5
D2
331
1BF
  5
235
331
CE
  5
CE
331
1BB
  5
226
331
17C
  5
1CF
331
CA
  5
CA
331
178
  5
1CB
331
BD7
  5
169
331
C4D
  5
B86
331
BD3
  5
165
331
C0E
  5
C33
331
C49
  5
B99
331
BCF
  5
161
331
C0A
  5
C3C
331
C45
  5
B9B
331
BCB
  5
15D
331
C41
  5
BA2
331
904
  5
BCD
331
B94
  5
C01
331
1B7
  5
222
331
C6
  5
C6
331
105
  5
105
331
101
  5
101
331
1B3
  5
21E
331
174
  5
1C7
331
C2
  5
C2
331
FD
  5
FD
331
1AF
  5
1FA
331
170
  5
1C5
331
BE
  5
BE
331
1AB
  5
1EA
331
16C
  5
1C3
331
BA
  5
BA
331
F9
  5
F9
331
168
  5
1BF
331
C06
  5
C40
331
BC7
  5
159
331
C02
  5
C41
331
C3D
  5
BA8
331
BC3
  5
155
331
BFE
  5
C47
331
C39
  5
BB3
331
BBF
  5
151
331
BFA
  5
C50
331
C35
  5
BB7
331
BBB
  5
14D
331
C31
  5
BBB
331
1E9
  5
917
331
B8C
  5
C16
331
1E5
  5
913
331
B88
  5
C22
331
92F
  5
C14
331
1E1
  5
90F
331
92B
  5
C10
331
B80
  5
C2A
331
B6
  5
B6
331
F5
  5
F5
331
1A3
  5
1E6
331
164
  5
1BB
331
B2
  5
B2
331
F1
  5
F1
331
ED
  5
ED
331
160
  5
1B7
331
AE
  5
AE
331
15C
  5
1B3
331
AA
  5
AA
331
E9
  5
E9
331
158
  5
1AF
331
BF6
  5
190
331
C2D
  5
BBF
331
BB3
  5
B7A
331
BF2
  5
18C
331
C29
  5
C04
331
BEE
  5
188
331
C25
  5
C06
331
BEA
  5
184
331
1DD
  5
90B
331
C21
  5
C1A
331
927
  5
C0C
331
1D9
  5
907
331
224
  5
928
331
B7C
  5
C36
331
4D7
  5
BC1
331
1D5
  5
903
331
220
  5
923
331
91F
  5
BFB
331
1D1
  5
4EB
331
B70
  5
C49
331
A6
  5
A6
331
E5
  5
E5
331
154
  5
1AB
331
A2
  5
A2
331
E1
  5
E1
331
DD
  5
DD
331
18F
  5
1DE
331
150
  5
1A3
331
9E
  5
9E
331
18B
  5
1DA
331
14C
  5
19A
331
D9
  5
D9
331
BA7
  5
BA0
331
BE6
  5
17C
331
C1D
  5
C1C
331
BE2
  5
178
331
C19
  5
C23
331
B9F
  5
BAA
331
BDE
  5
174
331
C15
  5
C29
331
BDA
  5
16C
331
1CD
  5
4D7
331
C11
  5
C32
331
C50
  5
B80
331
917
  5
BEE
331
263
  5
92F
331
1C9
  5
261
331
913
  5
BE2
331
25F
  5
B71
331
1C5
  5
257
331
90F
  5
BDB
331
25B
  5
B74
331
1C1
  5
243
331
90B
  5
BD4
  0
XRECORD
  5
C57
102
{ACAD_REACTORS
330
C55
102
}
330
C55
100
AcDbXrecord
280
     1
 70
     2
  0
XRECORD
  5
C56
102
{ACAD_REACTORS
330
C55
102
}
330
C55
100
AcDbXrecord
280
     1
 40
1.25
  0
XRECORD
  5
C58
102
{ACAD_REACTORS
330
C55
102
}
330
C55
100
AcDbXrecord
280
     1
 40
1.570796326794896
  0
LAYOUT
  5
6E
102
{ACAD_XDICTIONARY
360
C8C
102
}
102
{ACAD_REACTORS
330
61
102
}
330
61
100
AcDbPlotSettings
  1

  2
none_device
  4
Letter_(8.50_x_11.00_Inches)
  6

 40
6.349999904632567
 41
6.349999904632567
 42
6.350006103515625
 43
6.350006103515625
 44
215.8999938964844
 45
279.3999938964844
 46
0.0
 47
0.0
 48
0.0
 49
0.0
140
0.0
141
0.0
142
1.0
143
61.7122914576273
 70
 11952
 72
     0
 73
     1
 74
     0
  7

 75
     0
147
0.01620422733268
148
-23284.84490207032
149
-10392.31804010027
100
AcDbLayout
  1
Model
 70
     1
 71
     0
 10
0.0
 20
0.0
 11
12.0
 21
9.0
 12
0.0
 22
0.0
 32
0.0
 14
0.0
 24
0.0
 34
0.0
 15
0.0
 25
0.0
 35
0.0
146
0.0
 13
0.0
 23
0.0
 33
0.0
 16
1.0
 26
0.0
 36
0.0
 17
0.0
 27
1.0
 37
0.0
 76
     0
330
6B
331
8B
1001
ACAD_PSEXT
1000
なし
1000
なし
1000
適切ではありません
1000
新しいプロッタ環境設定名を選択しない限り、レイアウトは印刷されません。
1070
     0
  0
LAYOUT
  5
6A
102
{ACAD_XDICTIONARY
360
C8A
102
}
102
{ACAD_REACTORS
330
61
102
}
330
61
100
AcDbPlotSettings
  1

  2
FX DP 205
  4

  6

 40
0.0
 41
0.0
 42
0.0
 43
0.0
 44
0.0
 45
0.0
 46
0.0
 47
0.0
 48
0.0
 49
0.0
140
0.0
141
0.0
142
1.0
143
1.0
 70
   688
 72
     0
 73
     0
 74
     5
  7

 75
    16
147
1.0
148
0.0
149
0.0
100
AcDbLayout
  1
レイアウト1
 70
     1
 71
     1
 10
0.0
 20
0.0
 11
12.0
 21
9.0
 12
0.0
 22
0.0
 32
0.0
 14
1.000000000000000E+20
 24
1.000000000000000E+20
 34
1.000000000000000E+20
 15
-1.000000000000000E+20
 25
-1.000000000000000E+20
 35
-1.000000000000000E+20
146
0.0
 13
0.0
 23
0.0
 33
0.0
 16
1.0
 26
0.0
 36
0.0
 17
0.0
 27
1.0
 37
0.0
 76
     0
330
67
  0
MATERIAL
  5
19
102
{ACAD_XDICTIONARY
360
1A
102
}
102
{ACAD_REACTORS
330
10
102
}
330
10
100
AcDbMaterial
  1
ByBlock
 72
     0
 43
0.0208333333333333
 43
0.0
 43
0.0
 43
0.0
 43
0.0
 43
0.0208333333333333
 43
0.0
 43
0.0
 43
0.0
 43
0.0
 43
1.0
 43
0.0
 43
0.0
 43
0.0
 43
0.0
 43
1.0
 77
     0
 47
0.0208333333333333
 47
0.0
 47
0.0
 47
0.0
 47
0.0
 47
0.0208333333333333
 47
0.0
 47
0.0
 47
0.0
 47
0.0
 47
1.0
 47
0.0
 47
0.0
 47
0.0
 47
0.0
 47
1.0
171
     0
 49
0.0208333333333333
 49
0.0
 49
0.0
 49
0.0
 49
0.0
 49
0.0208333333333333
 49
0.0
 49
0.0
 49
0.0
 49
0.0
 49
1.0
 49
0.0
 49
0.0
 49
0.0
 49
0.0
 49
1.0
175
     0
142
0.0208333333333333
142
0.0
142
0.0
142
0.0
142
0.0
142
0.0208333333333333
142
0.0
142
0.0
142
0.0
142
0.0
142
1.0
142
0.0
142
0.0
142
0.0
142
0.0
142
1.0
179
     0
144
0.0208333333333333
144
0.0
144
0.0
144
0.0
144
0.0
144
0.0208333333333333
144
0.0
144
0.0
144
0.0
144
0.0
144
1.0
144
0.0
144
0.0
144
0.0
144
0.0
144
1.0
147
0.0208333333333333
147
0.0
147
0.0
147
0.0
147
0.0
147
0.0208333333333333
147
0.0
147
0.0
147
0.0
147
0.0
147
1.0
147
0.0
147
0.0
147
0.0
147
0.0
147
1.0
  0
MATERIAL
  5
11
102
{ACAD_XDICTIONARY
360
12
102
}
102
{ACAD_REACTORS
330
10
102
}
330
10
100
AcDbMaterial
  1
ByLayer
 72
     0
 43
0.0208333333333333
 43
0.0
 43
0.0
 43
0.0
 43
0.0
 43
0.0208333333333333
 43
0.0
 43
0.0
 43
0.0
 43
0.0
 43
1.0
 43
0.0
 43
0.0
 43
0.0
 43
0.0
 43
1.0
 77
     0
 47
0.0208333333333333
 47
0.0
 47
0.0
 47
0.0
 47
0.0
 47
0.0208333333333333
 47
0.0
 47
0.0
 47
0.0
 47
0.0
 47
1.0
 47
0.0
 47
0.0
 47
0.0
 47
0.0
 47
1.0
171
     0
 49
0.0208333333333333
 49
0.0
 49
0.0
 49
0.0
 49
0.0
 49
0.0208333333333333
 49
0.0
 49
0.0
 49
0.0
 49
0.0
 49
1.0
 49
0.0
 49
0.0
 49
0.0
 49
0.0
 49
1.0
175
     0
142
0.0208333333333333
142
0.0
142
0.0
142
0.0
142
0.0
142
0.0208333333333333
142
0.0
142
0.0
142
0.0
142
0.0
142
1.0
142
0.0
142
0.0
142
0.0
142
0.0
142
1.0
179
     0
144
0.0208333333333333
144
0.0
144
0.0
144
0.0
144
0.0
144
0.0208333333333333
144
0.0
144
0.0
144
0.0
144
0.0
144
1.0
144
0.0
144
0.0
144
0.0
144
0.0
144
1.0
147
0.0208333333333333
147
0.0
147
0.0
147
0.0
147
0.0
147
0.0208333333333333
147
0.0
147
0.0
147
0.0
147
0.0
147
1.0
147
0.0
147
0.0
147
0.0
147
0.0
147
1.0
  0
MATERIAL
  5
21
102
{ACAD_XDICTIONARY
360
22
102
}
102
{ACAD_REACTORS
330
10
102
}
330
10
100
AcDbMaterial
  1
Global
 72
     0
 43
0.0208333333333333
 43
0.0
 43
0.0
 43
0.0
 43
0.0
 43
0.0208333333333333
 43
0.0
 43
0.0
 43
0.0
 43
0.0
 43
1.0
 43
0.0
 43
0.0
 43
0.0
 43
0.0
 43
1.0
 77
     0
 47
0.0208333333333333
 47
0.0
 47
0.0
 47
0.0
 47
0.0
 47
0.0208333333333333
 47
0.0
 47
0.0
 47
0.0
 47
0.0
 47
1.0
 47
0.0
 47
0.0
 47
0.0
 47
0.0
 47
1.0
171
     0
 49
0.0208333333333333
 49
0.0
 49
0.0
 49
0.0
 49
0.0
 49
0.0208333333333333
 49
0.0
 49
0.0
 49
0.0
 49
0.0
 49
1.0
 49
0.0
 49
0.0
 49
0.0
 49
0.0
 49
1.0
175
     0
142
0.0208333333333333
142
0.0
142
0.0
142
0.0
142
0.0
142
0.0208333333333333
142
0.0
142
0.0
142
0.0
142
0.0
142
1.0
142
0.0
142
0.0
142
0.0
142
0.0
142
1.0
179
     0
144
0.0208333333333333
144
0.0
144
0.0
144
0.0
144
0.0
144
0.0208333333333333
144
0.0
144
0.0
144
0.0
144
0.0
144
1.0
144
0.0
144
0.0
144
0.0
144
0.0
144
1.0
147
0.0208333333333333
147
0.0
147
0.0
147
0.0
147
0.0
147
0.0208333333333333
147
0.0
147
0.0
147
0.0
147
0.0
147
1.0
147
0.0
147
0.0
147
0.0
147
0.0
147
1.0
  0
MLEADERSTYLE
  5
66
102
{ACAD_REACTORS
330
65
102
}
330
65
100
AcDbMLeaderStyle
170
     2
171
     1
172
     0
 90
        2
 40
0.0
 41
0.0
173
     1
 91
-1056964608
340
5A
 92
       -2
290
     1
 42
0.09
291
     1
 43
0.36
  3
Standard
 44
0.18
300

342
55
174
     1
178
     6
175
     1
176
     0
 93
-1056964608
 45
0.18
292
     0
297
     0
 46
0.18
 94
-1056964608
 47
1.0
 49
1.0
140
1.0
293
     1
141
0.0
294
     1
177
     0
142
1.0
295
     0
296
     0
143
0.125
1001
ACAD_MLEADERVER
1070
     2
  0
MLINESTYLE
  5
5F
102
{ACAD_REACTORS
330
5E
102
}
330
5E
100
AcDbMlineStyle
  2
STANDARD
 70
     0
  3

 62
   256
 51
90.0
 52
90.0
 71
     2
 49
0.5
 62
   256
  6
BYLAYER
 49
-0.5
 62
   256
  6
BYLAYER
  0
ACDBPLACEHOLDER
  5
F
102
{ACAD_REACTORS
330
E
102
}
330
E
  0
SCALE
  5
43
102
{ACAD_REACTORS
330
42
102
}
330
42
100
AcDbScale
 70
     0
300
1:1
140
1.0
141
1.0
290
     1
  0
SCALE
  5
44
102
{ACAD_REACTORS
330
42
102
}
330
42
100
AcDbScale
 70
     0
300
1/128" = 1'-0"
140
0.0078125
141
12.0
290
     0
  0
SCALE
  5
45
102
{ACAD_REACTORS
330
42
102
}
330
42
100
AcDbScale
 70
     0
300
1/64" = 1'-0"
140
0.015625
141
12.0
290
     0
  0
SCALE
  5
46
102
{ACAD_REACTORS
330
42
102
}
330
42
100
AcDbScale
 70
     0
300
1/32" = 1'-0"
140
0.03125
141
12.0
290
     0
  0
SCALE
  5
47
102
{ACAD_REACTORS
330
42
102
}
330
42
100
AcDbScale
 70
     0
300
1/16" = 1'-0"
140
0.0625
141
12.0
290
     0
  0
SCALE
  5
48
102
{ACAD_REACTORS
330
42
102
}
330
42
100
AcDbScale
 70
     0
300
3/32" = 1'-0"
140
0.09375
141
12.0
290
     0
  0
SCALE
  5
49
102
{ACAD_REACTORS
330
42
102
}
330
42
100
AcDbScale
 70
     0
300
1/8" = 1'-0"
140
0.125
141
12.0
290
     0
  0
SCALE
  5
4A
102
{ACAD_REACTORS
330
42
102
}
330
42
100
AcDbScale
 70
     0
300
3/16" = 1'-0"
140
0.1875
141
12.0
290
     0
  0
SCALE
  5
4B
102
{ACAD_REACTORS
330
42
102
}
330
42
100
AcDbScale
 70
     0
300
1/4" = 1'-0"
140
0.25
141
12.0
290
     0
  0
SCALE
  5
4C
102
{ACAD_REACTORS
330
42
102
}
330
42
100
AcDbScale
 70
     0
300
3/8" = 1'-0"
140
0.375
141
12.0
290
     0
  0
SCALE
  5
4D
102
{ACAD_REACTORS
330
42
102
}
330
42
100
AcDbScale
 70
     0
300
1/2" = 1'-0"
140
0.5
141
12.0
290
     0
  0
SCALE
  5
4E
102
{ACAD_REACTORS
330
42
102
}
330
42
100
AcDbScale
 70
     0
300
3/4" = 1'-0"
140
0.75
141
12.0
290
     0
  0
SCALE
  5
4F
102
{ACAD_REACTORS
330
42
102
}
330
42
100
AcDbScale
 70
     0
300
1" = 1'-0"
140
1.0
141
12.0
290
     0
  0
SCALE
  5
50
102
{ACAD_REACTORS
330
42
102
}
330
42
100
AcDbScale
 70
     0
300
1-1/2" = 1'-0"
140
1.5
141
12.0
290
     0
  0
SCALE
  5
51
102
{ACAD_REACTORS
330
42
102
}
330
42
100
AcDbScale
 70
     0
300
3" = 1'-0"
140
3.0
141
12.0
290
     0
  0
SCALE
  5
52
102
{ACAD_REACTORS
330
42
102
}
330
42
100
AcDbScale
 70
     0
300
6" = 1'-0"
140
6.0
141
12.0
290
     0
  0
SCALE
  5
53
102
{ACAD_REACTORS
330
42
102
}
330
42
100
AcDbScale
 70
     0
300
1'-0" = 1'-0"
140
12.0
141
12.0
290
     0
  0
TABLESTYLE
  5
64
102
{ACAD_XDICTIONARY
360
5F1
102
}
102
{ACAD_REACTORS
330
63
102
}
330
63
100
AcDbTableStyle
  3
Standard
 70
     0
 71
     0
 40
0.06
 41
0.06
280
     0
281
     0
  7
STANDARD
140
0.18
170
     2
 62
     0
 63
     7
283
     0
274
    -2
284
     1
 64
     0
275
    -2
285
     1
 65
     0
276
    -2
286
     1
 66
     0
277
    -2
287
     1
 67
     0
278
    -2
288
     1
 68
     0
279
    -2
289
     1
 69
     0
  7
STANDARD
140
0.25
170
     5
 62
     0
 63
     7
283
     0
274
    -2
284
     1
 64
     0
275
    -2
285
     1
 65
     0
276
    -2
286
     1
 66
     0
277
    -2
287
     1
 67
     0
278
    -2
288
     1
 68
     0
279
    -2
289
     1
 69
     0
  7
STANDARD
140
0.18
170
     5
 62
     0
 63
     7
283
     0
274
    -2
284
     1
 64
     0
275
    -2
285
     1
 65
     0
276
    -2
286
     1
 66
     0
277
    -2
287
     1
 67
     0
278
    -2
288
     1
 68
     0
279
    -2
289
     1
 69
     0
  0
VISUALSTYLE
  5
2F
102
{ACAD_XDICTIONARY
360
C63
102
}
102
{ACAD_REACTORS
330
29
102
}
330
29
100
AcDbVisualStyle
  2

 70
     4
 71
     0
 72
     2
 73
     0
 90
        0
 40
-0.6
 41
-30.0
 62
     5
 63
     7
 74
     1
 91
        4
 64
     7
 65
   257
 75
     1
175
     1
 42
1.0
 92
        0
 66
   257
 43
1.0
 76
     1
 77
     6
 78
     2
 67
     7
 79
     5
170
     0
171
     0
290
     0
174
     0
 93
        1
 44
0.0
173
     0
291
     0
 45
0.0
1001
ACAD
1000
AcDbSavedByObjectVersion
1070
     0
  0
VISUALSTYLE
  5
320
102
{ACAD_XDICTIONARY
360
C8E
102
}
102
{ACAD_REACTORS
330
29
102
}
330
29
100
AcDbVisualStyle
  2

 70
     5
 71
     0
 72
     2
 73
     1
 90
        0
 40
-0.6
 41
-30.0
 62
     5
 63
     7
 74
     1
 91
        4
 64
     7
 65
   257
 75
     1
175
     1
 42
1.0
 92
        0
 66
   257
 43
1.0
 76
     1
 77
     6
 78
     2
 67
     7
 79
     5
170
     0
171
     0
290
     0
174
     0
 93
        1
 44
0.0
173
     0
291
     0
 45
0.0
1001
ACAD
1000
AcDbSavedByObjectVersion
1070
     0
  0
VISUALSTYLE
  5
2E
102
{ACAD_XDICTIONARY
360
C61
102
}
102
{ACAD_REACTORS
330
29
102
}
330
29
100
AcDbVisualStyle
  2

 70
     7
 71
     1
 72
     0
 73
     1
 90
        0
 40
-0.6
 41
-30.0
 62
     5
 63
     7
 74
     0
 91
        4
 64
     7
 65
   257
 75
     1
175
     1
 42
1.0
 92
        8
 66
     7
 43
1.0
 76
     1
 77
     6
 78
     2
 67
     7
 79
     5
170
     0
171
     0
290
     0
174
     0
 93
        1
 44
0.0
173
     0
291
     1
 45
0.0
1001
ACAD
1000
AcDbSavedByObjectVersion
1070
     0
  0
VISUALSTYLE
  5
35
102
{ACAD_XDICTIONARY
360
C6F
102
}
102
{ACAD_REACTORS
330
29
102
}
330
29
100
AcDbVisualStyle
  2

 70
    12
 71
     2
 72
     2
 73
     0
 90
        0
 40
-0.6
 41
-30.0
 62
     5
 63
     7
 74
     1
 91
        4
 64
     7
 65
   257
 75
     1
175
     1
 42
1.0
 92
        8
 66
     7
 43
1.0
 76
     1
 77
     6
 78
     2
 67
     7
 79
     5
170
     0
171
     0
290
     0
174
     0
 93
        1
 44
50.0
173
     0
291
     1
 45
0.0
1001
ACAD
1000
AcDbSavedByObjectVersion
1070
     0
  0
VISUALSTYLE
  5
39
102
{ACAD_XDICTIONARY
360
C77
102
}
102
{ACAD_REACTORS
330
29
102
}
330
29
100
AcDbVisualStyle
  2

 70
    16
 71
     2
 72
     2
 73
     3
 90
        0
 40
-0.6
 41
-30.0
 62
     5
 63
     8
 74
     1
 91
        4
 64
     7
 65
   257
 75
     1
175
     1
 42
1.0
 92
        8
 66
     8
 43
1.0
 76
     1
 77
     6
 78
     2
 67
     7
 79
     5
170
     0
171
     0
290
     0
174
     0
 93
        1
 44
0.0
173
     0
291
     1
 45
0.0
1001
ACAD
1000
AcDbSavedByObjectVersion
1070
     0
  0
VISUALSTYLE
  5
32
102
{ACAD_XDICTIONARY
360
C69
102
}
102
{ACAD_REACTORS
330
29
102
}
330
29
100
AcDbVisualStyle
  2

 70
     9
 71
     3
 72
     2
 73
     0
 90
        0
 40
-0.6
 41
-30.0
 62
     5
 63
     7
 74
     2
 91
        2
 64
     7
 65
   257
 75
     1
175
     1
 42
179.0
 92
        8
 66
     7
 43
1.0
 76
     1
 77
     6
 78
     2
 67
     7
 79
     3
170
     0
171
     0
290
     0
174
     0
 93
        1
 44
0.0
173
     0
291
     0
 45
0.0
1001
ACAD
1000
AcDbSavedByObjectVersion
1070
     0
  0
VISUALSTYLE
  5
34
102
{ACAD_XDICTIONARY
360
C6D
102
}
102
{ACAD_REACTORS
330
29
102
}
330
29
100
AcDbVisualStyle
  2

 70
    11
 71
     2
 72
     2
 73
     0
 90
        0
 40
-0.6
 41
-30.0
 62
     5
 63
     7
 74
     1
 91
        4
 64
     7
 65
   257
 75
     1
175
     1
 42
1.0
 92
        8
 66
     7
 43
1.0
 76
     1
 77
     6
 78
     2
 67
     7
 79
     5
170
     0
171
     0
290
     0
174
     0
 93
        1
 44
-50.0
173
     0
291
     1
 45
0.0
1001
ACAD
1000
AcDbSavedByObjectVersion
1070
     0
  0
VISUALSTYLE
  5
41
102
{ACAD_XDICTIONARY
360
C87
102
}
102
{ACAD_REACTORS
330
29
102
}
330
29
100
AcDbVisualStyle
  2

 70
    22
 71
     2
 72
     2
 73
     0
 90
        0
 40
-0.6
 41
-30.0
 62
     5
 63
     7
 74
     1
 91
        4
 64
     7
 65
   257
 75
     1
175
     1
 42
1.0
 92
        8
 66
     7
 43
1.0
 76
     1
 77
     6
 78
     2
 67
     7
 79
     5
170
     0
171
     0
290
     0
174
     0
 93
        1
 44
0.0
173
     0
291
     1
 45
0.0
1001
ACAD
1000
AcDbSavedByObjectVersion
1070
     0
  0
VISUALSTYLE
  5
38
102
{ACAD_XDICTIONARY
360
C75
102
}
102
{ACAD_REACTORS
330
29
102
}
330
29
100
AcDbVisualStyle
  2

 70
    15
 71
     2
 72
     2
 73
     0
 90
        0
 40
-0.6
 41
-30.0
 62
     5
 63
     7
 74
     1
 91
        4
 64
     7
 65
   257
 75
     1
175
     1
 42
1.0
 92
        8
 66
     7
 43
1.0
 76
     1
 77
     6
 78
     2
 67
     7
 79
     5
170
     0
171
     0
290
     0
174
     0
 93
        1
 44
0.0
173
     0
291
     1
 45
0.0
1001
ACAD
1000
AcDbSavedByObjectVersion
1070
     0
  0
VISUALSTYLE
  5
2A
102
{ACAD_XDICTIONARY
360
C59
102
}
102
{ACAD_REACTORS
330
29
102
}
330
29
100
AcDbVisualStyle
  2

 70
     0
 71
     2
 72
     1
 73
     1
 90
        2
 40
-0.6
 41
30.0
 62
     5
 63
     7
 74
     0
 91
        0
 64
     7
 65
   257
 75
     1
175
     1
 42
1.0
 92
        8
 66
     7
 43
1.0
 76
     1
 77
     6
 78
     2
 67
     7
 79
     5
170
     0
171
     0
290
     0
174
     0
 93
       13
 44
0.0
173
     0
291
     1
 45
0.0
1001
ACAD
1000
AcDbSavedByObjectVersion
1070
     0
  0
VISUALSTYLE
  5
2B
102
{ACAD_XDICTIONARY
360
C5B
102
}
102
{ACAD_REACTORS
330
29
102
}
330
29
100
AcDbVisualStyle
  2

 70
     1
 71
     2
 72
     1
 73
     1
 90
        2
 40
-0.6
 41
30.0
 62
     5
 63
     7
 74
     1
 91
        0
 64
     7
 65
   257
 75
     1
175
     1
 42
1.0
 92
        0
 66
   257
 43
1.0
 76
     1
 77
     6
 78
     2
 67
     7
 79
     5
170
     0
171
     0
290
     0
174
     0
 93
       13
 44
0.0
173
     0
291
     1
 45
0.0
1001
ACAD
1000
AcDbSavedByObjectVersion
1070
     0
  0
VISUALSTYLE
  5
2C
102
{ACAD_XDICTIONARY
360
C5D
102
}
102
{ACAD_REACTORS
330
29
102
}
330
29
100
AcDbVisualStyle
  2

 70
     2
 71
     2
 72
     2
 73
     1
 90
        2
 40
-0.6
 41
30.0
 62
     5
 63
     7
 74
     0
 91
        0
 64
     7
 65
   257
 75
     1
175
     1
 42
1.0
 92
        0
 66
     7
 43
1.0
 76
     1
 77
     6
 78
     2
 67
     7
 79
     5
170
     0
171
     0
290
     0
174
     0
 93
       13
 44
0.0
173
     0
291
     1
 45
0.0
1001
ACAD
1000
AcDbSavedByObjectVersion
1070
     0
  0
VISUALSTYLE
  5
2D
102
{ACAD_XDICTIONARY
360
C5F
102
}
102
{ACAD_REACTORS
330
29
102
}
330
29
100
AcDbVisualStyle
  2

 70
     3
 71
     2
 72
     2
 73
     1
 90
        2
 40
-0.6
 41
30.0
 62
     5
 63
     7
 74
     1
 91
        0
 64
     7
 65
   257
 75
     1
175
     1
 42
1.0
 92
        0
 66
   257
 43
1.0
 76
     1
 77
     6
 78
     2
 67
     7
 79
     5
170
     0
171
     0
290
     0
174
     0
 93
       13
 44
0.0
173
     0
291
     1
 45
0.0
1001
ACAD
1000
AcDbSavedByObjectVersion
1070
     0
  0
VISUALSTYLE
  5
31
102
{ACAD_XDICTIONARY
360
C67
102
}
102
{ACAD_REACTORS
330
29
102
}
330
29
100
AcDbVisualStyle
  2

 70
     6
 71
     1
 72
     2
 73
     2
 90
        0
 40
-0.6
 41
-30.0
 62
     5
 63
     7
 74
     2
 91
        2
 64
     7
 65
   257
 75
     2
175
     1
 42
40.0
 92
        0
 66
   257
 43
1.0
 76
     1
 77
     6
 78
     2
 67
     7
 79
     3
170
     0
171
     0
290
     0
174
     0
 93
        1
 44
0.0
173
     0
291
     0
 45
0.0
1001
ACAD
1000
AcDbSavedByObjectVersion
1070
     0
  0
VISUALSTYLE
  5
3F
102
{ACAD_XDICTIONARY
360
C83
102
}
102
{ACAD_REACTORS
330
29
102
}
330
29
100
AcDbVisualStyle
  2

 70
    20
 71
     2
 72
     2
 73
     0
 90
        0
 40
-0.6
 41
-30.0
 62
     5
 63
     7
 74
     1
 91
        4
 64
     7
 65
   257
 75
     1
175
     1
 42
1.0
 92
       10
 66
     7
 43
1.0
 76
     1
 77
     6
 78
     2
 67
     7
 79
     5
170
     0
171
     0
290
     0
174
     0
 93
        1
 44
0.0
173
     0
291
     1
 45
0.0
1001
ACAD
1000
AcDbSavedByObjectVersion
1070
     0
  0
VISUALSTYLE
  5
37
102
{ACAD_XDICTIONARY
360
C73
102
}
102
{ACAD_REACTORS
330
29
102
}
330
29
100
AcDbVisualStyle
  2

 70
    14
 71
     2
 72
     2
 73
     0
 90
        0
 40
-0.6
 41
-30.0
 62
     5
 63
     7
 74
     1
 91
        4
 64
     7
 65
   257
 75
     7
175
     7
 42
1.0
 92
        8
 66
     7
 43
1.0
 76
     1
 77
     6
 78
     2
 67
     7
 79
     5
170
     0
171
     0
290
     0
174
     0
 93
        1
 44
0.0
173
     0
291
     1
 45
0.0
1001
ACAD
1000
AcDbSavedByObjectVersion
1070
     0
  0
VISUALSTYLE
  5
40
102
{ACAD_XDICTIONARY
360
C85
102
}
102
{ACAD_REACTORS
330
29
102
}
330
29
100
AcDbVisualStyle
  2

 70
    21
 71
     2
 72
     2
 73
     0
 90
        0
 40
-0.6
 41
-30.0
 62
     5
 63
     7
 74
     1
 91
        4
 64
     7
 65
   257
 75
     1
175
     1
 42
1.0
 92
        9
 66
     7
 43
1.0
 76
     1
 77
     6
 78
     2
 67
     7
 79
     5
170
     0
171
     0
290
     0
174
     0
 93
        1
 44
0.0
173
     0
291
     1
 45
0.0
1001
ACAD
1000
AcDbSavedByObjectVersion
1070
     0
  0
VISUALSTYLE
  5
33
102
{ACAD_XDICTIONARY
360
C6B
102
}
102
{ACAD_REACTORS
330
29
102
}
330
29
100
AcDbVisualStyle
  2

 70
     8
 71
     2
 72
     3
 73
     0
 90
        2
 40
-0.6
 41
30.0
 62
     5
 63
     7
 74
     0
 91
        0
 64
     7
 65
   257
 75
     1
175
     1
 42
1.0
 92
        8
 66
   257
 43
1.0
 76
     1
 77
     6
 78
     2
 67
     7
 79
     3
170
     0
171
     0
290
     0
174
     0
 93
       13
 44
0.0
173
     0
291
     0
 45
0.0
1001
ACAD
1000
AcDbSavedByObjectVersion
1070
     0
  0
VISUALSTYLE
  5
3E
102
{ACAD_XDICTIONARY
360
C81
102
}
102
{ACAD_REACTORS
330
29
102
}
330
29
100
AcDbVisualStyle
  2

 70
    27
 71
     2
 72
     2
 73
     1
 90
        2
 40
-0.6
 41
30.0
 62
     5
 63
     7
 74
     0
 91
        4
 64
     7
 65
   257
 75
     1
175
     1
 42
1.0
 92
        8
 66
   257
 43
1.0
 76
     1
 77
     6
 78
     2
 67
     8
 79
     3
170
     0
171
     0
290
     0
174
     0
 93
        5
 44
0.0
173
     0
291
     0
 45
0.0
1001
ACAD
1000
AcDbSavedByObjectVersion
1070
     0
  0
VISUALSTYLE
  5
3D
102
{ACAD_XDICTIONARY
360
C7F
102
}
102
{ACAD_REACTORS
330
29
102
}
330
29
100
AcDbVisualStyle
  2

 70
    26
 71
     2
 72
     2
 73
     1
 90
        2
 40
-0.6
 41
30.0
 62
     5
 63
     7
 74
     1
 91
       10
 64
     7
 65
   257
 75
     2
175
     1
 42
1.0
 92
        8
 66
   257
 43
1.0
 76
     1
 77
     6
 78
     2
 67
     7
 79
     3
170
     0
171
     0
290
     0
174
     0
 93
        5
 44
0.0
173
     0
291
     0
 45
0.0
1001
ACAD
1000
AcDbSavedByObjectVersion
1070
     0
  0
VISUALSTYLE
  5
3A
102
{ACAD_XDICTIONARY
360
C79
102
}
102
{ACAD_REACTORS
330
29
102
}
330
29
100
AcDbVisualStyle
  2

 70
    23
 71
     2
 72
     2
 73
     3
 90
        0
 40
-0.6
 41
-30.0
 62
     5
 63
     7
 74
     2
 91
        2
 64
     7
 65
     7
 75
     1
175
     1
 42
40.0
 92
        8
 66
     7
 43
1.0
 76
     1
 77
     6
 78
     2
 67
     7
 79
     3
170
     0
171
     0
290
     0
174
     0
 93
        1
 44
0.0
173
     0
291
     0
 45
0.0
1001
ACAD
1000
AcDbSavedByObjectVersion
1070
     0
  0
VISUALSTYLE
  5
3B
102
{ACAD_XDICTIONARY
360
C7B
102
}
102
{ACAD_REACTORS
330
29
102
}
330
29
100
AcDbVisualStyle
  2

 70
    24
 71
     1
 72
     2
 73
     2
 90
        0
 40
-0.6
 41
-30.0
 62
     5
 63
     7
 74
     2
 91
        2
 64
     7
 65
     7
 75
     1
175
     1
 42
40.0
 92
       11
 66
     7
 43
1.0
 76
     1
 77
     6
 78
     2
 67
     7
 79
     6
170
     0
171
     0
290
     0
174
     0
 93
        1
 44
0.0
173
     0
291
     0
 45
0.0
1001
ACAD
1000
AcDbSavedByObjectVersion
1070
     0
  0
VISUALSTYLE
  5
36
102
{ACAD_XDICTIONARY
360
C71
102
}
102
{ACAD_REACTORS
330
29
102
}
330
29
100
AcDbVisualStyle
  2

 70
    13
 71
     2
 72
     2
 73
     0
 90
        0
 40
-0.6
 41
-30.0
 62
     5
 63
     7
 74
     1
 91
        4
 64
     7
 65
   257
 75
     1
175
     1
 42
1.0
 92
       12
 66
     7
 43
1.0
 76
     1
 77
     6
 78
     2
 67
     7
 79
     5
170
     0
171
     0
290
     0
174
     0
 93
        1
 44
0.0
173
     0
291
     1
 45
0.0
1001
ACAD
1000
AcDbSavedByObjectVersion
1070
     0
  0
VISUALSTYLE
  5
30
102
{ACAD_XDICTIONARY
360
C65
102
}
102
{ACAD_REACTORS
330
29
102
}
330
29
100
AcDbVisualStyle
  2

 70
     5
 71
     0
 72
     2
 73
     0
 90
        0
 40
-0.6
 41
-30.0
 62
     5
 63
     7
 74
     1
 91
        4
 64
     7
 65
   257
 75
     1
175
     1
 42
1.0
 92
        0
 66
   257
 43
1.0
 76
     1
 77
     6
 78
     2
 67
     7
 79
     3
170
     0
171
     0
290
     0
174
     0
 93
        1
 44
0.0
173
     0
291
     0
 45
0.0
1001
ACAD
1000
AcDbSavedByObjectVersion
1070
     0
  0
VISUALSTYLE
  5
3C
102
{ACAD_XDICTIONARY
360
C7D
102
}
102
{ACAD_REACTORS
330
29
102
}
330
29
100
AcDbVisualStyle
  2

 70
    25
 71
     2
 72
     2
 73
     1
 90
        1
 40
0.5
 41
-30.0
 62
     5
 63
     7
 74
     1
 91
        0
 64
     7
 65
   257
 75
     1
175
     1
 42
1.0
 92
        8
 66
     7
 43
1.0
 76
     1
 77
     6
 78
     2
 67
     7
 79
     3
170
     0
171
     0
290
     0
174
     0
 93
       13
 44
0.0
173
     0
291
     0
 45
0.0
1001
ACAD
1000
AcDbSavedByObjectVersion
1070
     0
  0
DICTIONARYVAR
  5
4F4
102
{ACAD_REACTORS
330
4F1
102
}
330
4F1
100
DictionaryVariables
280
     0
  1
1:1
  0
DICTIONARYVAR
  5
4F3
102
{ACAD_REACTORS
330
4F1
102
}
330
4F1
100
DictionaryVariables
280
     0
  1
STANDARD
  0
DICTIONARYVAR
  5
4F2
102
{ACAD_REACTORS
330
4F1
102
}
330
4F1
100
DictionaryVariables
280
     0
  1
STANDARD
  0
DICTIONARYVAR
  5
4F7
102
{ACAD_REACTORS
330
4F1
102
}
330
4F1
100
DictionaryVariables
280
     0
  1
1
  0
DICTIONARYVAR
  5
4F6
102
{ACAD_REACTORS
330
4F1
102
}
330
4F1
100
DictionaryVariables
280
     0
  1
0
  0
DICTIONARYVAR
  5
4F5
102
{ACAD_REACTORS
330
4F1
102
}
330
4F1
100
DictionaryVariables
280
     0
  1
127
  0
DICTIONARYVAR
  5
A6E
102
{ACAD_REACTORS
330
4F1
102
}
330
4F1
100
DictionaryVariables
280
     0
  1
2
  0
DICTIONARY
  5
C8C
330
6E
100
AcDbDictionary
280
     1
281
     1
  3
ACAD_XREC_ROUNDTRIP
360
C8D
  0
DICTIONARY
  5
C8A
330
6A
100
AcDbDictionary
280
     1
281
     1
  3
ACAD_XREC_ROUNDTRIP
360
C8B
  0
DICTIONARY
  5
1A
330
19
100
AcDbDictionary
280
     1
281
     1
  3
ACAD_XREC_ROUNDTRIP
360
5FA
  3
BUMPTILE
360
1C
  3
DIFFUSETILE
360
1B
  3
OPACITYTILE
360
1F
  3
REFLECTIONTILE
360
1E
  3
REFRACTIONTILE
360
20
  3
SPECULARTILE
360
1D
  0
DICTIONARY
  5
12
330
11
100
AcDbDictionary
280
     1
281
     1
  3
ACAD_XREC_ROUNDTRIP
360
5F9
  3
BUMPTILE
360
14
  3
DIFFUSETILE
360
13
  3
OPACITYTILE
360
17
  3
REFLECTIONTILE
360
16
  3
REFRACTIONTILE
360
18
  3
SPECULARTILE
360
15
  0
DICTIONARY
  5
22
330
21
100
AcDbDictionary
280
     1
281
     1
  3
ACAD_XREC_ROUNDTRIP
360
5FB
  3
BUMPTILE
360
24
  3
DIFFUSETILE
360
23
  3
OPACITYTILE
360
27
  3
REFLECTIONTILE
360
26
  3
REFRACTIONTILE
360
28
  3
SPECULARTILE
360
25
  0
DICTIONARY
  5
5F1
330
64
100
AcDbDictionary
280
     1
281
     1
  3
ACAD_ROUNDTRIP_2008_TABLESTYLE_CELLSTYLEMAP
360
C52
  3
ACAD_XREC_ROUNDTRIP
360
C89
  0
DICTIONARY
  5
C63
330
2F
100
AcDbDictionary
280
     1
281
     1
  3
ACAD_XREC_ROUNDTRIP
360
C64
  0
DICTIONARY
  5
C8E
330
320
100
AcDbDictionary
280
     1
281
     1
  3
ACAD_XREC_ROUNDTRIP
360
C8F
  0
DICTIONARY
  5
C61
330
2E
100
AcDbDictionary
280
     1
281
     1
  3
ACAD_XREC_ROUNDTRIP
360
C62
  0
DICTIONARY
  5
C6F
330
35
100
AcDbDictionary
280
     1
281
     1
  3
ACAD_XREC_ROUNDTRIP
360
C70
  0
DICTIONARY
  5
C77
330
39
100
AcDbDictionary
280
     1
281
     1
  3
ACAD_XREC_ROUNDTRIP
360
C78
  0
DICTIONARY
  5
C69
330
32
100
AcDbDictionary
280
     1
281
     1
  3
ACAD_XREC_ROUNDTRIP
360
C6A
  0
DICTIONARY
  5
C6D
330
34
100
AcDbDictionary
280
     1
281
     1
  3
ACAD_XREC_ROUNDTRIP
360
C6E
  0
DICTIONARY
  5
C87
330
41
100
AcDbDictionary
280
     1
281
     1
  3
ACAD_XREC_ROUNDTRIP
360
C88
  0
DICTIONARY
  5
C75
330
38
100
AcDbDictionary
280
     1
281
     1
  3
ACAD_XREC_ROUNDTRIP
360
C76
  0
DICTIONARY
  5
C59
330
2A
100
AcDbDictionary
280
     1
281
     1
  3
ACAD_XREC_ROUNDTRIP
360
C5A
  0
DICTIONARY
  5
C5B
330
2B
100
AcDbDictionary
280
     1
281
     1
  3
ACAD_XREC_ROUNDTRIP
360
C5C
  0
DICTIONARY
  5
C5D
330
2C
100
AcDbDictionary
280
     1
281
     1
  3
ACAD_XREC_ROUNDTRIP
360
C5E
  0
DICTIONARY
  5
C5F
330
2D
100
AcDbDictionary
280
     1
281
     1
  3
ACAD_XREC_ROUNDTRIP
360
C60
  0
DICTIONARY
  5
C67
330
31
100
AcDbDictionary
280
     1
281
     1
  3
ACAD_XREC_ROUNDTRIP
360
C68
  0
DICTIONARY
  5
C83
330
3F
100
AcDbDictionary
280
     1
281
     1
  3
ACAD_XREC_ROUNDTRIP
360
C84
  0
DICTIONARY
  5
C73
330
37
100
AcDbDictionary
280
     1
281
     1
  3
ACAD_XREC_ROUNDTRIP
360
C74
  0
DICTIONARY
  5
C85
330
40
100
AcDbDictionary
280
     1
281
     1
  3
ACAD_XREC_ROUNDTRIP
360
C86
  0
DICTIONARY
  5
C6B
330
33
100
AcDbDictionary
280
     1
281
     1
  3
ACAD_XREC_ROUNDTRIP
360
C6C
  0
DICTIONARY
  5
C81
330
3E
100
AcDbDictionary
280
     1
281
     1
  3
ACAD_XREC_ROUNDTRIP
360
C82
  0
DICTIONARY
  5
C7F
330
3D
100
AcDbDictionary
280
     1
281
     1
  3
ACAD_XREC_ROUNDTRIP
360
C80
  0
DICTIONARY
  5
C79
330
3A
100
AcDbDictionary
280
     1
281
     1
  3
ACAD_XREC_ROUNDTRIP
360
C7A
  0
DICTIONARY
  5
C7B
330
3B
100
AcDbDictionary
280
     1
281
     1
  3
ACAD_XREC_ROUNDTRIP
360
C7C
  0
DICTIONARY
  5
C71
330
36
100
AcDbDictionary
280
     1
281
     1
  3
ACAD_XREC_ROUNDTRIP
360
C72
  0
DICTIONARY
  5
C65
330
30
100
AcDbDictionary
280
     1
281
     1
  3
ACAD_XREC_ROUNDTRIP
360
C66
  0
DICTIONARY
  5
C7D
330
3C
100
AcDbDictionary
280
     1
281
     1
  3
ACAD_XREC_ROUNDTRIP
360
C7E
  0
XRECORD
  5
C8D
102
{ACAD_REACTORS
330
C8C
102
}
330
C8C
100
AcDbXrecord
280
     1
102
SHADEPLOT
 70
     0
102
SHADEPLOTRESLEVEL
 70
     2
102
SHADEPLOTCUSTOMDPI
 70
   300
  0
XRECORD
  5
C8B
102
{ACAD_REACTORS
330
C8A
102
}
330
C8A
100
AcDbXrecord
280
     1
102
SHADEPLOT
 70
     0
102
SHADEPLOTRESLEVEL
 70
     2
102
SHADEPLOTCUSTOMDPI
 70
   300
  0
XRECORD
  5
5FA
102
{ACAD_REACTORS
330
1A
102
}
330
1A
100
AcDbXrecord
280
     1
102
MATERIAL
148
0.0
149
0.0
149
0.0
 93
        0
 94
      127
282
     0
 72
     0
 77
     0
171
     0
175
     0
179
     0
273
     0
  0
XRECORD
  5
1C
102
{ACAD_REACTORS
330
1A
102
}
330
1A
100
AcDbXrecord
280
     1
270
     1
271
     1
  0
XRECORD
  5
1B
102
{ACAD_REACTORS
330
1A
102
}
330
1A
100
AcDbXrecord
280
     1
270
     1
271
     1
  0
XRECORD
  5
1F
102
{ACAD_REACTORS
330
1A
102
}
330
1A
100
AcDbXrecord
280
     1
270
     1
271
     1
  0
XRECORD
  5
1E
102
{ACAD_REACTORS
330
1A
102
}
330
1A
100
AcDbXrecord
280
     1
270
     1
271
     1
  0
XRECORD
  5
20
102
{ACAD_REACTORS
330
1A
102
}
330
1A
100
AcDbXrecord
280
     1
270
     1
271
     1
  0
XRECORD
  5
1D
102
{ACAD_REACTORS
330
1A
102
}
330
1A
100
AcDbXrecord
280
     1
270
     1
271
     1
  0
XRECORD
  5
5F9
102
{ACAD_REACTORS
330
12
102
}
330
12
100
AcDbXrecord
280
     1
102
MATERIAL
148
0.0
149
0.0
149
0.0
 93
        0
 94
      127
282
     0
 72
     0
 77
     0
171
     0
175
     0
179
     0
273
     0
  0
XRECORD
  5
14
102
{ACAD_REACTORS
330
12
102
}
330
12
100
AcDbXrecord
280
     1
270
     1
271
     1
  0
XRECORD
  5
13
102
{ACAD_REACTORS
330
12
102
}
330
12
100
AcDbXrecord
280
     1
270
     1
271
     1
  0
XRECORD
  5
17
102
{ACAD_REACTORS
330
12
102
}
330
12
100
AcDbXrecord
280
     1
270
     1
271
     1
  0
XRECORD
  5
16
102
{ACAD_REACTORS
330
12
102
}
330
12
100
AcDbXrecord
280
     1
270
     1
271
     1
  0
XRECORD
  5
18
102
{ACAD_REACTORS
330
12
102
}
330
12
100
AcDbXrecord
280
     1
270
     1
271
     1
  0
XRECORD
  5
15
102
{ACAD_REACTORS
330
12
102
}
330
12
100
AcDbXrecord
280
     1
270
     1
271
     1
  0
XRECORD
  5
5FB
102
{ACAD_REACTORS
330
22
102
}
330
22
100
AcDbXrecord
280
     1
102
MATERIAL
148
0.0
149
0.0
149
0.0
 93
        0
 94
      127
282
     0
 72
     0
 77
     0
171
     0
175
     0
179
     0
273
     0
  0
XRECORD
  5
24
102
{ACAD_REACTORS
330
22
102
}
330
22
100
AcDbXrecord
280
     1
270
     1
271
     1
  0
XRECORD
  5
23
102
{ACAD_REACTORS
330
22
102
}
330
22
100
AcDbXrecord
280
     1
270
     1
271
     1
  0
XRECORD
  5
27
102
{ACAD_REACTORS
330
22
102
}
330
22
100
AcDbXrecord
280
     1
270
     1
271
     1
  0
XRECORD
  5
26
102
{ACAD_REACTORS
330
22
102
}
330
22
100
AcDbXrecord
280
     1
270
     1
271
     1
  0
XRECORD
  5
28
102
{ACAD_REACTORS
330
22
102
}
330
22
100
AcDbXrecord
280
     1
270
     1
271
     1
  0
XRECORD
  5
25
102
{ACAD_REACTORS
330
22
102
}
330
22
100
AcDbXrecord
280
     1
270
     1
271
     1
  0
CELLSTYLEMAP
  5
C52
102
{ACAD_REACTORS
330
5F1
102
}
330
5F1
100
AcDbCellStyleMap
 90
        3
300
CELLSTYLE
  1
TABLEFORMAT_BEGIN
 90
        5
170
     1
 91
        0
 92
    32768
 62
   257
 93
        1
300
CONTENTFORMAT
  1
CONTENTFORMAT_BEGIN
 90
        0
 91
        0
 92
      512
 93
        0
300

 40
0.0
140
1.0
 94
        5
 62
     0
340
55
144
0.25
309
CONTENTFORMAT_END
171
     1
301
MARGIN
  1
CELLMARGIN_BEGIN
 40
0.06
 40
0.06
 40
0.06
 40
0.06
 40
0.18
 40
0.18
309
CELLMARGIN_END
 94
        6
 95
        1
302
GRIDFORMAT
  1
GRIDFORMAT_BEGIN
 90
        0
 91
        1
 62
     0
 92
       -2
340
0
 93
        0
 40
0.045
309
GRIDFORMAT_END
 95
        2
302
GRIDFORMAT
  1
GRIDFORMAT_BEGIN
 90
        0
 91
        1
 62
     0
 92
       -2
340
0
 93
        0
 40
0.045
309
GRIDFORMAT_END
 95
        4
302
GRIDFORMAT
  1
GRIDFORMAT_BEGIN
 90
        0
 91
        1
 62
     0
 92
       -2
340
0
 93
        0
 40
0.045
309
GRIDFORMAT_END
 95
        8
302
GRIDFORMAT
  1
GRIDFORMAT_BEGIN
 90
        0
 91
        1
 62
     0
 92
       -2
340
0
 93
        0
 40
0.045
309
GRIDFORMAT_END
 95
       16
302
GRIDFORMAT
  1
GRIDFORMAT_BEGIN
 90
        0
 91
        1
 62
     0
 92
       -2
340
0
 93
        0
 40
0.045
309
GRIDFORMAT_END
 95
       32
302
GRIDFORMAT
  1
GRIDFORMAT_BEGIN
 90
        0
 91
        1
 62
     0
 92
       -2
340
0
 93
        0
 40
0.045
309
GRIDFORMAT_END
309
TABLEFORMAT_END
  1
CELLSTYLE_BEGIN
 90
        1
 91
        1
300
_TITLE
309
CELLSTYLE_END
300
CELLSTYLE
  1
TABLEFORMAT_BEGIN
 90
        5
170
     1
 91
        0
 92
        0
 62
   257
 93
        1
300
CONTENTFORMAT
  1
CONTENTFORMAT_BEGIN
 90
        0
 91
        0
 92
      512
 93
        0
300

 40
0.0
140
1.0
 94
        5
 62
     0
340
55
144
0.18
309
CONTENTFORMAT_END
171
     1
301
MARGIN
  1
CELLMARGIN_BEGIN
 40
0.06
 40
0.06
 40
0.06
 40
0.06
 40
0.18
 40
0.18
309
CELLMARGIN_END
 94
        6
 95
        1
302
GRIDFORMAT
  1
GRIDFORMAT_BEGIN
 90
        0
 91
        1
 62
     0
 92
       -2
340
0
 93
        0
 40
0.045
309
GRIDFORMAT_END
 95
        2
302
GRIDFORMAT
  1
GRIDFORMAT_BEGIN
 90
        0
 91
        1
 62
     0
 92
       -2
340
0
 93
        0
 40
0.045
309
GRIDFORMAT_END
 95
        4
302
GRIDFORMAT
  1
GRIDFORMAT_BEGIN
 90
        0
 91
        1
 62
     0
 92
       -2
340
0
 93
        0
 40
0.045
309
GRIDFORMAT_END
 95
        8
302
GRIDFORMAT
  1
GRIDFORMAT_BEGIN
 90
        0
 91
        1
 62
     0
 92
       -2
340
0
 93
        0
 40
0.045
309
GRIDFORMAT_END
 95
       16
302
GRIDFORMAT
  1
GRIDFORMAT_BEGIN
 90
        0
 91
        1
 62
     0
 92
       -2
340
0
 93
        0
 40
0.045
309
GRIDFORMAT_END
 95
       32
302
GRIDFORMAT
  1
GRIDFORMAT_BEGIN
 90
        0
 91
        1
 62
     0
 92
       -2
340
0
 93
        0
 40
0.045
309
GRIDFORMAT_END
309
TABLEFORMAT_END
  1
CELLSTYLE_BEGIN
 90
        2
 91
        1
300
_HEADER
309
CELLSTYLE_END
300
CELLSTYLE
  1
TABLEFORMAT_BEGIN
 90
        5
170
     1
 91
        0
 92
        0
 62
   257
 93
        1
300
CONTENTFORMAT
  1
CONTENTFORMAT_BEGIN
 90
        0
 91
        0
 92
      512
 93
        0
300

 40
0.0
140
1.0
 94
        2
 62
     0
340
55
144
0.18
309
CONTENTFORMAT_END
171
     1
301
MARGIN
  1
CELLMARGIN_BEGIN
 40
0.06
 40
0.06
 40
0.06
 40
0.06
 40
0.18
 40
0.18
309
CELLMARGIN_END
 94
        6
 95
        1
302
GRIDFORMAT
  1
GRIDFORMAT_BEGIN
 90
        0
 91
        1
 62
     0
 92
       -2
340
0
 93
        0
 40
0.045
309
GRIDFORMAT_END
 95
        2
302
GRIDFORMAT
  1
GRIDFORMAT_BEGIN
 90
        0
 91
        1
 62
     0
 92
       -2
340
0
 93
        0
 40
0.045
309
GRIDFORMAT_END
 95
        4
302
GRIDFORMAT
  1
GRIDFORMAT_BEGIN
 90
        0
 91
        1
 62
     0
 92
       -2
340
0
 93
        0
 40
0.045
309
GRIDFORMAT_END
 95
        8
302
GRIDFORMAT
  1
GRIDFORMAT_BEGIN
 90
        0
 91
        1
 62
     0
 92
       -2
340
0
 93
        0
 40
0.045
309
GRIDFORMAT_END
 95
       16
302
GRIDFORMAT
  1
GRIDFORMAT_BEGIN
 90
        0
 91
        1
 62
     0
 92
       -2
340
0
 93
        0
 40
0.045
309
GRIDFORMAT_END
 95
       32
302
GRIDFORMAT
  1
GRIDFORMAT_BEGIN
 90
        0
 91
        1
 62
     0
 92
       -2
340
0
 93
        0
 40
0.045
309
GRIDFORMAT_END
309
TABLEFORMAT_END
  1
CELLSTYLE_BEGIN
 90
        3
 91
        2
300
_DATA
309
CELLSTYLE_END
  0
XRECORD
  5
C89
102
{ACAD_REACTORS
330
5F1
102
}
330
5F1
100
AcDbXrecord
280
     1
102
ACAD_ROUNDTRIP_PRE2007_TABLESTYLE
 90
      512
 91
        0
  1

 92
      512
 93
        0
  2

 94
      512
 95
        0
  3

  0
XRECORD
  5
C64
102
{ACAD_REACTORS
330
C63
102
}
330
C63
100
AcDbXrecord
280
     1
102
RTVSPropertyOp0
 70
     1
102
RTVSPropertyOp1
 70
     1
102
RTVSPropertyOp2
 70
     1
102
RTVSPropertyOp3
 70
     1
102
RTVSPropertyOp4
 70
     1
102
RTVSPropertyOp5
 70
     1
102
RTVSPropertyOp6
 70
     1
102
RTVSPropertyOp7
 70
     1
102
RTVSPropertyOp8
 70
     1
102
RTVSPropertyOp9
 70
     1
102
RTVSPropertyOp10
 70
     1
102
RTVSPropertyOp11
 70
     1
102
RTVSPropertyOp12
 70
     1
102
RTVSPropertyOp13
 70
     1
102
RTVSPropertyOp14
 70
     1
102
RTVSPropertyOp15
 70
     1
102
RTVSPropertyOp16
 70
     1
102
RTVSPropertyOp17
 70
     1
102
RTVSPropertyOp18
 70
     1
102
RTVSPropertyOp19
 70
     1
102
RTVSPropertyOp20
 70
     1
102
RTVSPropertyOp21
 70
     1
102
RTVSPropertyOp22
 70
     1
102
RTVSPropertyOp23
 70
     1
102
RTVSPropertyOp24
 70
     1
102
RTVSPropertyOp25
 70
     1
102
RTVSPropertyOp26
 70
     1
102
RTVSPropertyOp27
 70
     1
102
RTVSPropertyOp28
 70
     1
102
RTVSPropertyOp29
 70
     1
102
RTVSPropertyOp30
 70
     1
102
RTVSPropertyOp31
 70
     1
102
RTVSPropertyOp32
 70
     1
  0
XRECORD
  5
C8F
102
{ACAD_REACTORS
330
C8E
102
}
330
C8E
100
AcDbXrecord
280
     1
102
RTVSPropertyOp0
 70
     1
102
RTVSPropertyOp1
 70
     1
102
RTVSPropertyOp2
 70
     1
102
RTVSPropertyOp3
 70
     1
102
RTVSPropertyOp4
 70
     1
102
RTVSPropertyOp5
 70
     1
102
RTVSPropertyOp6
 70
     1
102
RTVSPropertyOp7
 70
     1
102
RTVSPropertyOp8
 70
     1
102
RTVSPropertyOp9
 70
     1
102
RTVSPropertyOp10
 70
     1
102
RTVSPropertyOp11
 70
     1
102
RTVSPropertyOp12
 70
     1
102
RTVSPropertyOp13
 70
     1
102
RTVSPropertyOp14
 70
     1
102
RTVSPropertyOp15
 70
     1
102
RTVSPropertyOp16
 70
     1
102
RTVSPropertyOp17
 70
     1
102
RTVSPropertyOp18
 70
     1
102
RTVSPropertyOp19
 70
     1
102
RTVSPropertyOp20
 70
     1
102
RTVSPropertyOp21
 70
     1
102
RTVSPropertyOp22
 70
     1
102
RTVSPropertyOp23
 70
     1
102
RTVSPropertyOp24
 70
     1
102
RTVSPropertyOp25
 70
     1
102
RTVSPropertyOp26
 70
     1
102
RTVSPropertyOp27
 70
     1
102
RTVSPropertyOp28
 70
     1
102
RTVSPropertyOp29
 70
     1
102
RTVSPropertyOp30
 70
     1
102
RTVSPropertyOp31
 70
     1
102
RTVSPropertyOp32
 70
     1
  0
XRECORD
  5
C62
102
{ACAD_REACTORS
330
C61
102
}
330
C61
100
AcDbXrecord
280
     1
102
RTVSPropertyOp0
 70
     1
102
RTVSPropertyOp1
 70
     1
102
RTVSPropertyOp2
 70
     1
102
RTVSPropertyOp3
 70
     1
102
RTVSPropertyOp4
 70
     1
102
RTVSPropertyOp5
 70
     1
102
RTVSPropertyOp6
 70
     1
102
RTVSPropertyOp7
 70
     1
102
RTVSPropertyOp8
 70
     1
102
RTVSPropertyOp9
 70
     1
102
RTVSPropertyOp10
 70
     1
102
RTVSPropertyOp11
 70
     1
102
RTVSPropertyOp12
 70
     1
102
RTVSPropertyOp13
 70
     1
102
RTVSPropertyOp14
 70
     1
102
RTVSPropertyOp15
 70
     1
102
RTVSPropertyOp16
 70
     1
102
RTVSPropertyOp17
 70
     1
102
RTVSPropertyOp18
 70
     1
102
RTVSPropertyOp19
 70
     1
102
RTVSPropertyOp20
 70
     1
102
RTVSPropertyOp21
 70
     1
102
RTVSPropertyOp22
 70
     1
102
RTVSPropertyOp23
 70
     1
102
RTVSPropertyOp24
 70
     1
102
RTVSPropertyOp25
 70
     1
102
RTVSPropertyOp26
 70
     1
102
RTVSPropertyOp27
 70
     1
102
RTVSPropertyOp28
 70
     1
102
RTVSPropertyOp29
 70
     1
102
RTVSPropertyOp30
 70
     1
102
RTVSPropertyOp31
 70
     1
102
RTVSPropertyOp32
 70
     1
  0
XRECORD
  5
C70
102
{ACAD_REACTORS
330
C6F
102
}
330
C6F
100
AcDbXrecord
280
     1
102
RTVSPropertyOp0
 70
     1
102
RTVSPropertyOp1
 70
     1
102
RTVSPropertyOp2
 70
     1
102
RTVSPropertyOp3
 70
     1
102
RTVSPropertyOp4
 70
     1
102
RTVSPropertyOp5
 70
     1
102
RTVSPropertyOp6
 70
     1
102
RTVSPropertyOp7
 70
     1
102
RTVSPropertyOp8
 70
     1
102
RTVSPropertyOp9
 70
     1
102
RTVSPropertyOp10
 70
     1
102
RTVSPropertyOp11
 70
     1
102
RTVSPropertyOp12
 70
     1
102
RTVSPropertyOp13
 70
     1
102
RTVSPropertyOp14
 70
     1
102
RTVSPropertyOp15
 70
     1
102
RTVSPropertyOp16
 70
     1
102
RTVSPropertyOp17
 70
     1
102
RTVSPropertyOp18
 70
     1
102
RTVSPropertyOp19
 70
     1
102
RTVSPropertyOp20
 70
     1
102
RTVSPropertyOp21
 70
     1
102
RTVSPropertyOp22
 70
     1
102
RTVSPropertyOp23
 70
     1
102
RTVSPropertyOp24
 70
     1
102
RTVSPropertyOp25
 70
     1
102
RTVSPropertyOp26
 70
     1
102
RTVSPropertyOp27
 70
     1
102
RTVSPropertyOp28
 70
     1
102
RTVSPropertyOp29
 70
     1
102
RTVSPropertyOp30
 70
     1
102
RTVSPropertyOp31
 70
     1
102
RTVSPropertyOp32
 70
     1
  0
XRECORD
  5
C78
102
{ACAD_REACTORS
330
C77
102
}
330
C77
100
AcDbXrecord
280
     1
102
RTVSPropertyOp0
 70
     1
102
RTVSPropertyOp1
 70
     1
102
RTVSPropertyOp2
 70
     1
102
RTVSPropertyOp3
 70
     1
102
RTVSPropertyOp4
 70
     1
102
RTVSPropertyOp5
 70
     1
102
RTVSPropertyOp6
 70
     1
102
RTVSPropertyOp7
 70
     1
102
RTVSPropertyOp8
 70
     1
102
RTVSPropertyOp9
 70
     1
102
RTVSPropertyOp10
 70
     1
102
RTVSPropertyOp11
 70
     1
102
RTVSPropertyOp12
 70
     1
102
RTVSPropertyOp13
 70
     1
102
RTVSPropertyOp14
 70
     1
102
RTVSPropertyOp15
 70
     1
102
RTVSPropertyOp16
 70
     1
102
RTVSPropertyOp17
 70
     1
102
RTVSPropertyOp18
 70
     1
102
RTVSPropertyOp19
 70
     1
102
RTVSPropertyOp20
 70
     1
102
RTVSPropertyOp21
 70
     1
102
RTVSPropertyOp22
 70
     1
102
RTVSPropertyOp23
 70
     1
102
RTVSPropertyOp24
 70
     1
102
RTVSPropertyOp25
 70
     1
102
RTVSPropertyOp26
 70
     1
102
RTVSPropertyOp27
 70
     1
102
RTVSPropertyOp28
 70
     1
102
RTVSPropertyOp29
 70
     1
102
RTVSPropertyOp30
 70
     1
102
RTVSPropertyOp31
 70
     1
102
RTVSPropertyOp32
 70
     1
  0
XRECORD
  5
C6A
102
{ACAD_REACTORS
330
C69
102
}
330
C69
100
AcDbXrecord
280
     1
102
RTVSPropertyOp0
 70
     1
102
RTVSPropertyOp1
 70
     1
102
RTVSPropertyOp2
 70
     1
102
RTVSPropertyOp3
 70
     1
102
RTVSPropertyOp4
 70
     1
102
RTVSPropertyOp5
 70
     1
102
RTVSPropertyOp6
 70
     1
102
RTVSPropertyOp7
 70
     1
102
RTVSPropertyOp8
 70
     1
102
RTVSPropertyOp9
 70
     1
102
RTVSPropertyOp10
 70
     1
102
RTVSPropertyOp11
 70
     1
102
RTVSPropertyOp12
 70
     1
102
RTVSPropertyOp13
 70
     1
102
RTVSPropertyOp14
 70
     1
102
RTVSPropertyOp15
 70
     1
102
RTVSPropertyOp16
 70
     1
102
RTVSPropertyOp17
 70
     1
102
RTVSPropertyOp18
 70
     1
102
RTVSPropertyOp19
 70
     1
102
RTVSPropertyOp20
 70
     1
102
RTVSPropertyOp21
 70
     1
102
RTVSPropertyOp22
 70
     1
102
RTVSPropertyOp23
 70
     1
102
RTVSPropertyOp24
 70
     1
102
RTVSPropertyOp25
 70
     1
102
RTVSPropertyOp26
 70
     1
102
RTVSPropertyOp27
 70
     1
102
RTVSPropertyOp28
 70
     1
102
RTVSPropertyOp29
 70
     1
102
RTVSPropertyOp30
 70
     1
102
RTVSPropertyOp31
 70
     1
102
RTVSPropertyOp32
 70
     1
  0
XRECORD
  5
C6E
102
{ACAD_REACTORS
330
C6D
102
}
330
C6D
100
AcDbXrecord
280
     1
102
RTVSPropertyOp0
 70
     1
102
RTVSPropertyOp1
 70
     1
102
RTVSPropertyOp2
 70
     1
102
RTVSPropertyOp3
 70
     1
102
RTVSPropertyOp4
 70
     1
102
RTVSPropertyOp5
 70
     1
102
RTVSPropertyOp6
 70
     1
102
RTVSPropertyOp7
 70
     1
102
RTVSPropertyOp8
 70
     1
102
RTVSPropertyOp9
 70
     1
102
RTVSPropertyOp10
 70
     1
102
RTVSPropertyOp11
 70
     1
102
RTVSPropertyOp12
 70
     1
102
RTVSPropertyOp13
 70
     1
102
RTVSPropertyOp14
 70
     1
102
RTVSPropertyOp15
 70
     1
102
RTVSPropertyOp16
 70
     1
102
RTVSPropertyOp17
 70
     1
102
RTVSPropertyOp18
 70
     1
102
RTVSPropertyOp19
 70
     1
102
RTVSPropertyOp20
 70
     1
102
RTVSPropertyOp21
 70
     1
102
RTVSPropertyOp22
 70
     1
102
RTVSPropertyOp23
 70
     1
102
RTVSPropertyOp24
 70
     1
102
RTVSPropertyOp25
 70
     1
102
RTVSPropertyOp26
 70
     1
102
RTVSPropertyOp27
 70
     1
102
RTVSPropertyOp28
 70
     1
102
RTVSPropertyOp29
 70
     1
102
RTVSPropertyOp30
 70
     1
102
RTVSPropertyOp31
 70
     1
102
RTVSPropertyOp32
 70
     1
  0
XRECORD
  5
C88
102
{ACAD_REACTORS
330
C87
102
}
330
C87
100
AcDbXrecord
280
     1
102
RTVSPropertyOp0
 70
     0
102
RTVSPropertyOp1
 70
     0
102
RTVSPropertyOp2
 70
     0
102
RTVSPropertyOp3
 70
     0
102
RTVSPropertyOp4
 70
     0
102
RTVSPropertyOp5
 70
     0
102
RTVSPropertyOp6
 70
     0
102
RTVSPropertyOp7
 70
     0
102
RTVSPropertyOp8
 70
     0
102
RTVSPropertyOp9
 70
     0
102
RTVSPropertyOp10
 70
     0
102
RTVSPropertyOp11
 70
     0
102
RTVSPropertyOp12
 70
     0
102
RTVSPropertyOp13
 70
     0
102
RTVSPropertyOp14
 70
     2
102
RTVSPropertyOp15
 70
     0
102
RTVSPropertyOp16
 70
     0
102
RTVSPropertyOp17
 70
     0
102
RTVSPropertyOp18
 70
     0
102
RTVSPropertyOp19
 70
     0
102
RTVSPropertyOp20
 70
     0
102
RTVSPropertyOp21
 70
     0
102
RTVSPropertyOp22
 70
     0
102
RTVSPropertyOp23
 70
     0
102
RTVSPropertyOp24
 70
     0
102
RTVSPropertyOp25
 70
     0
102
RTVSPropertyOp26
 70
     0
102
RTVSPropertyOp27
 70
     0
102
RTVSPropertyOp28
 70
     0
102
RTVSPropertyOp29
 70
     0
102
RTVSPropertyOp30
 70
     0
102
RTVSPropertyOp31
 70
     0
102
RTVSPropertyOp32
 70
     0
  0
XRECORD
  5
C76
102
{ACAD_REACTORS
330
C75
102
}
330
C75
100
AcDbXrecord
280
     1
102
RTVSPropertyOp0
 70
     1
102
RTVSPropertyOp1
 70
     1
102
RTVSPropertyOp2
 70
     1
102
RTVSPropertyOp3
 70
     1
102
RTVSPropertyOp4
 70
     1
102
RTVSPropertyOp5
 70
     1
102
RTVSPropertyOp6
 70
     1
102
RTVSPropertyOp7
 70
     1
102
RTVSPropertyOp8
 70
     1
102
RTVSPropertyOp9
 70
     1
102
RTVSPropertyOp10
 70
     1
102
RTVSPropertyOp11
 70
     1
102
RTVSPropertyOp12
 70
     1
102
RTVSPropertyOp13
 70
     1
102
RTVSPropertyOp14
 70
     1
102
RTVSPropertyOp15
 70
     1
102
RTVSPropertyOp16
 70
     1
102
RTVSPropertyOp17
 70
     1
102
RTVSPropertyOp18
 70
     1
102
RTVSPropertyOp19
 70
     1
102
RTVSPropertyOp20
 70
     1
102
RTVSPropertyOp21
 70
     1
102
RTVSPropertyOp22
 70
     1
102
RTVSPropertyOp23
 70
     1
102
RTVSPropertyOp24
 70
     1
102
RTVSPropertyOp25
 70
     1
102
RTVSPropertyOp26
 70
     1
102
RTVSPropertyOp27
 70
     1
102
RTVSPropertyOp28
 70
     1
102
RTVSPropertyOp29
 70
     1
102
RTVSPropertyOp30
 70
     1
102
RTVSPropertyOp31
 70
     1
102
RTVSPropertyOp32
 70
     1
  0
XRECORD
  5
C5A
102
{ACAD_REACTORS
330
C59
102
}
330
C59
100
AcDbXrecord
280
     1
102
RTVSPropertyOp0
 70
     1
102
RTVSPropertyOp1
 70
     1
102
RTVSPropertyOp2
 70
     1
102
RTVSPropertyOp3
 70
     1
102
RTVSPropertyOp4
 70
     1
102
RTVSPropertyOp5
 70
     1
102
RTVSPropertyOp6
 70
     1
102
RTVSPropertyOp7
 70
     1
102
RTVSPropertyOp8
 70
     1
102
RTVSPropertyOp9
 70
     1
102
RTVSPropertyOp10
 70
     1
102
RTVSPropertyOp11
 70
     1
102
RTVSPropertyOp12
 70
     1
102
RTVSPropertyOp13
 70
     1
102
RTVSPropertyOp14
 70
     1
102
RTVSPropertyOp15
 70
     1
102
RTVSPropertyOp16
 70
     1
102
RTVSPropertyOp17
 70
     1
102
RTVSPropertyOp18
 70
     1
102
RTVSPropertyOp19
 70
     1
102
RTVSPropertyOp20
 70
     1
102
RTVSPropertyOp21
 70
     1
102
RTVSPropertyOp22
 70
     1
102
RTVSPropertyOp23
 70
     1
102
RTVSPropertyOp24
 70
     1
102
RTVSPropertyOp25
 70
     1
102
RTVSPropertyOp26
 70
     1
102
RTVSPropertyOp27
 70
     1
102
RTVSPropertyOp28
 70
     1
102
RTVSPropertyOp29
 70
     1
102
RTVSPropertyOp30
 70
     1
102
RTVSPropertyOp31
 70
     1
102
RTVSPropertyOp32
 70
     1
  0
XRECORD
  5
C5C
102
{ACAD_REACTORS
330
C5B
102
}
330
C5B
100
AcDbXrecord
280
     1
102
RTVSPropertyOp0
 70
     1
102
RTVSPropertyOp1
 70
     1
102
RTVSPropertyOp2
 70
     1
102
RTVSPropertyOp3
 70
     1
102
RTVSPropertyOp4
 70
     1
102
RTVSPropertyOp5
 70
     1
102
RTVSPropertyOp6
 70
     1
102
RTVSPropertyOp7
 70
     1
102
RTVSPropertyOp8
 70
     1
102
RTVSPropertyOp9
 70
     1
102
RTVSPropertyOp10
 70
     1
102
RTVSPropertyOp11
 70
     1
102
RTVSPropertyOp12
 70
     1
102
RTVSPropertyOp13
 70
     1
102
RTVSPropertyOp14
 70
     1
102
RTVSPropertyOp15
 70
     1
102
RTVSPropertyOp16
 70
     1
102
RTVSPropertyOp17
 70
     1
102
RTVSPropertyOp18
 70
     1
102
RTVSPropertyOp19
 70
     1
102
RTVSPropertyOp20
 70
     1
102
RTVSPropertyOp21
 70
     1
102
RTVSPropertyOp22
 70
     1
102
RTVSPropertyOp23
 70
     1
102
RTVSPropertyOp24
 70
     1
102
RTVSPropertyOp25
 70
     1
102
RTVSPropertyOp26
 70
     1
102
RTVSPropertyOp27
 70
     1
102
RTVSPropertyOp28
 70
     1
102
RTVSPropertyOp29
 70
     1
102
RTVSPropertyOp30
 70
     1
102
RTVSPropertyOp31
 70
     1
102
RTVSPropertyOp32
 70
     1
  0
XRECORD
  5
C5E
102
{ACAD_REACTORS
330
C5D
102
}
330
C5D
100
AcDbXrecord
280
     1
102
RTVSPropertyOp0
 70
     1
102
RTVSPropertyOp1
 70
     1
102
RTVSPropertyOp2
 70
     1
102
RTVSPropertyOp3
 70
     1
102
RTVSPropertyOp4
 70
     1
102
RTVSPropertyOp5
 70
     1
102
RTVSPropertyOp6
 70
     1
102
RTVSPropertyOp7
 70
     1
102
RTVSPropertyOp8
 70
     1
102
RTVSPropertyOp9
 70
     1
102
RTVSPropertyOp10
 70
     1
102
RTVSPropertyOp11
 70
     1
102
RTVSPropertyOp12
 70
     1
102
RTVSPropertyOp13
 70
     1
102
RTVSPropertyOp14
 70
     1
102
RTVSPropertyOp15
 70
     1
102
RTVSPropertyOp16
 70
     1
102
RTVSPropertyOp17
 70
     1
102
RTVSPropertyOp18
 70
     1
102
RTVSPropertyOp19
 70
     1
102
RTVSPropertyOp20
 70
     1
102
RTVSPropertyOp21
 70
     1
102
RTVSPropertyOp22
 70
     1
102
RTVSPropertyOp23
 70
     1
102
RTVSPropertyOp24
 70
     1
102
RTVSPropertyOp25
 70
     1
102
RTVSPropertyOp26
 70
     1
102
RTVSPropertyOp27
 70
     1
102
RTVSPropertyOp28
 70
     1
102
RTVSPropertyOp29
 70
     1
102
RTVSPropertyOp30
 70
     1
102
RTVSPropertyOp31
 70
     1
102
RTVSPropertyOp32
 70
     1
  0
XRECORD
  5
C60
102
{ACAD_REACTORS
330
C5F
102
}
330
C5F
100
AcDbXrecord
280
     1
102
RTVSPropertyOp0
 70
     1
102
RTVSPropertyOp1
 70
     1
102
RTVSPropertyOp2
 70
     1
102
RTVSPropertyOp3
 70
     1
102
RTVSPropertyOp4
 70
     1
102
RTVSPropertyOp5
 70
     1
102
RTVSPropertyOp6
 70
     1
102
RTVSPropertyOp7
 70
     1
102
RTVSPropertyOp8
 70
     1
102
RTVSPropertyOp9
 70
     1
102
RTVSPropertyOp10
 70
     1
102
RTVSPropertyOp11
 70
     1
102
RTVSPropertyOp12
 70
     1
102
RTVSPropertyOp13
 70
     1
102
RTVSPropertyOp14
 70
     1
102
RTVSPropertyOp15
 70
     1
102
RTVSPropertyOp16
 70
     1
102
RTVSPropertyOp17
 70
     1
102
RTVSPropertyOp18
 70
     1
102
RTVSPropertyOp19
 70
     1
102
RTVSPropertyOp20
 70
     1
102
RTVSPropertyOp21
 70
     1
102
RTVSPropertyOp22
 70
     1
102
RTVSPropertyOp23
 70
     1
102
RTVSPropertyOp24
 70
     1
102
RTVSPropertyOp25
 70
     1
102
RTVSPropertyOp26
 70
     1
102
RTVSPropertyOp27
 70
     1
102
RTVSPropertyOp28
 70
     1
102
RTVSPropertyOp29
 70
     1
102
RTVSPropertyOp30
 70
     1
102
RTVSPropertyOp31
 70
     1
102
RTVSPropertyOp32
 70
     1
  0
XRECORD
  5
C68
102
{ACAD_REACTORS
330
C67
102
}
330
C67
100
AcDbXrecord
280
     1
102
RTVSPropertyOp0
 70
     1
102
RTVSPropertyOp1
 70
     1
102
RTVSPropertyOp2
 70
     1
102
RTVSPropertyOp3
 70
     1
102
RTVSPropertyOp4
 70
     1
102
RTVSPropertyOp5
 70
     1
102
RTVSPropertyOp6
 70
     1
102
RTVSPropertyOp7
 70
     1
102
RTVSPropertyOp8
 70
     1
102
RTVSPropertyOp9
 70
     1
102
RTVSPropertyOp10
 70
     1
102
RTVSPropertyOp11
 70
     1
102
RTVSPropertyOp12
 70
     1
102
RTVSPropertyOp13
 70
     1
102
RTVSPropertyOp14
 70
     1
102
RTVSPropertyOp15
 70
     1
102
RTVSPropertyOp16
 70
     1
102
RTVSPropertyOp17
 70
     1
102
RTVSPropertyOp18
 70
     1
102
RTVSPropertyOp19
 70
     1
102
RTVSPropertyOp20
 70
     1
102
RTVSPropertyOp21
 70
     1
102
RTVSPropertyOp22
 70
     1
102
RTVSPropertyOp23
 70
     1
102
RTVSPropertyOp24
 70
     1
102
RTVSPropertyOp25
 70
     1
102
RTVSPropertyOp26
 70
     1
102
RTVSPropertyOp27
 70
     1
102
RTVSPropertyOp28
 70
     1
102
RTVSPropertyOp29
 70
     1
102
RTVSPropertyOp30
 70
     1
102
RTVSPropertyOp31
 70
     1
102
RTVSPropertyOp32
 70
     1
  0
XRECORD
  5
C84
102
{ACAD_REACTORS
330
C83
102
}
330
C83
100
AcDbXrecord
280
     1
102
RTVSPropertyOp0
 70
     0
102
RTVSPropertyOp1
 70
     0
102
RTVSPropertyOp2
 70
     0
102
RTVSPropertyOp3
 70
     0
102
RTVSPropertyOp4
 70
     0
102
RTVSPropertyOp5
 70
     0
102
RTVSPropertyOp6
 70
     0
102
RTVSPropertyOp7
 70
     0
102
RTVSPropertyOp8
 70
     0
102
RTVSPropertyOp9
 70
     0
102
RTVSPropertyOp10
 70
     0
102
RTVSPropertyOp11
 70
     0
102
RTVSPropertyOp12
 70
     0
102
RTVSPropertyOp13
 70
     0
102
RTVSPropertyOp14
 70
     2
102
RTVSPropertyOp15
 70
     0
102
RTVSPropertyOp16
 70
     0
102
RTVSPropertyOp17
 70
     0
102
RTVSPropertyOp18
 70
     0
102
RTVSPropertyOp19
 70
     0
102
RTVSPropertyOp20
 70
     0
102
RTVSPropertyOp21
 70
     0
102
RTVSPropertyOp22
 70
     0
102
RTVSPropertyOp23
 70
     0
102
RTVSPropertyOp24
 70
     0
102
RTVSPropertyOp25
 70
     0
102
RTVSPropertyOp26
 70
     0
102
RTVSPropertyOp27
 70
     0
102
RTVSPropertyOp28
 70
     0
102
RTVSPropertyOp29
 70
     0
102
RTVSPropertyOp30
 70
     0
102
RTVSPropertyOp31
 70
     0
102
RTVSPropertyOp32
 70
     0
  0
XRECORD
  5
C74
102
{ACAD_REACTORS
330
C73
102
}
330
C73
100
AcDbXrecord
280
     1
102
RTVSPropertyOp0
 70
     1
102
RTVSPropertyOp1
 70
     1
102
RTVSPropertyOp2
 70
     1
102
RTVSPropertyOp3
 70
     1
102
RTVSPropertyOp4
 70
     1
102
RTVSPropertyOp5
 70
     1
102
RTVSPropertyOp6
 70
     1
102
RTVSPropertyOp7
 70
     1
102
RTVSPropertyOp8
 70
     1
102
RTVSPropertyOp9
 70
     1
102
RTVSPropertyOp10
 70
     1
102
RTVSPropertyOp11
 70
     1
102
RTVSPropertyOp12
 70
     1
102
RTVSPropertyOp13
 70
     1
102
RTVSPropertyOp14
 70
     1
102
RTVSPropertyOp15
 70
     1
102
RTVSPropertyOp16
 70
     1
102
RTVSPropertyOp17
 70
     1
102
RTVSPropertyOp18
 70
     1
102
RTVSPropertyOp19
 70
     1
102
RTVSPropertyOp20
 70
     1
102
RTVSPropertyOp21
 70
     1
102
RTVSPropertyOp22
 70
     1
102
RTVSPropertyOp23
 70
     1
102
RTVSPropertyOp24
 70
     1
102
RTVSPropertyOp25
 70
     1
102
RTVSPropertyOp26
 70
     1
102
RTVSPropertyOp27
 70
     1
102
RTVSPropertyOp28
 70
     1
102
RTVSPropertyOp29
 70
     1
102
RTVSPropertyOp30
 70
     1
102
RTVSPropertyOp31
 70
     1
102
RTVSPropertyOp32
 70
     1
  0
XRECORD
  5
C86
102
{ACAD_REACTORS
330
C85
102
}
330
C85
100
AcDbXrecord
280
     1
102
RTVSPropertyOp0
 70
     0
102
RTVSPropertyOp1
 70
     0
102
RTVSPropertyOp2
 70
     0
102
RTVSPropertyOp3
 70
     0
102
RTVSPropertyOp4
 70
     0
102
RTVSPropertyOp5
 70
     0
102
RTVSPropertyOp6
 70
     0
102
RTVSPropertyOp7
 70
     0
102
RTVSPropertyOp8
 70
     0
102
RTVSPropertyOp9
 70
     0
102
RTVSPropertyOp10
 70
     0
102
RTVSPropertyOp11
 70
     0
102
RTVSPropertyOp12
 70
     0
102
RTVSPropertyOp13
 70
     0
102
RTVSPropertyOp14
 70
     2
102
RTVSPropertyOp15
 70
     0
102
RTVSPropertyOp16
 70
     0
102
RTVSPropertyOp17
 70
     0
102
RTVSPropertyOp18
 70
     0
102
RTVSPropertyOp19
 70
     0
102
RTVSPropertyOp20
 70
     0
102
RTVSPropertyOp21
 70
     0
102
RTVSPropertyOp22
 70
     0
102
RTVSPropertyOp23
 70
     0
102
RTVSPropertyOp24
 70
     0
102
RTVSPropertyOp25
 70
     0
102
RTVSPropertyOp26
 70
     0
102
RTVSPropertyOp27
 70
     0
102
RTVSPropertyOp28
 70
     0
102
RTVSPropertyOp29
 70
     0
102
RTVSPropertyOp30
 70
     0
102
RTVSPropertyOp31
 70
     0
102
RTVSPropertyOp32
 70
     0
  0
XRECORD
  5
C6C
102
{ACAD_REACTORS
330
C6B
102
}
330
C6B
100
AcDbXrecord
280
     1
102
RTVSPropertyOp0
 70
     1
102
RTVSPropertyOp1
 70
     1
102
RTVSPropertyOp2
 70
     1
102
RTVSPropertyOp3
 70
     1
102
RTVSPropertyOp4
 70
     1
102
RTVSPropertyOp5
 70
     1
102
RTVSPropertyOp6
 70
     1
102
RTVSPropertyOp7
 70
     1
102
RTVSPropertyOp8
 70
     1
102
RTVSPropertyOp9
 70
     1
102
RTVSPropertyOp10
 70
     1
102
RTVSPropertyOp11
 70
     1
102
RTVSPropertyOp12
 70
     1
102
RTVSPropertyOp13
 70
     1
102
RTVSPropertyOp14
 70
     1
102
RTVSPropertyOp15
 70
     1
102
RTVSPropertyOp16
 70
     1
102
RTVSPropertyOp17
 70
     1
102
RTVSPropertyOp18
 70
     1
102
RTVSPropertyOp19
 70
     1
102
RTVSPropertyOp20
 70
     1
102
RTVSPropertyOp21
 70
     1
102
RTVSPropertyOp22
 70
     1
102
RTVSPropertyOp23
 70
     1
102
RTVSPropertyOp24
 70
     1
102
RTVSPropertyOp25
 70
     1
102
RTVSPropertyOp26
 70
     1
102
RTVSPropertyOp27
 70
     1
102
RTVSPropertyOp28
 70
     1
102
RTVSPropertyOp29
 70
     1
102
RTVSPropertyOp30
 70
     1
102
RTVSPropertyOp31
 70
     1
102
RTVSPropertyOp32
 70
     1
  0
XRECORD
  5
C82
102
{ACAD_REACTORS
330
C81
102
}
330
C81
100
AcDbXrecord
280
     1
102
RTVSPropertyOp0
 70
     1
102
RTVSPropertyOp1
 70
     1
102
RTVSPropertyOp2
 70
     1
102
RTVSPropertyOp3
 70
     1
102
RTVSPropertyOp4
 70
     1
102
RTVSPropertyOp5
 70
     1
102
RTVSPropertyOp6
 70
     1
102
RTVSPropertyOp7
 70
     1
102
RTVSPropertyOp8
 70
     1
102
RTVSPropertyOp9
 70
     1
102
RTVSPropertyOp10
 70
     1
102
RTVSPropertyOp11
 70
     1
102
RTVSPropertyOp12
 70
     1
102
RTVSPropertyOp13
 70
     1
102
RTVSPropertyOp14
 70
     1
102
RTVSPropertyOp15
 70
     1
102
RTVSPropertyOp16
 70
     1
102
RTVSPropertyOp17
 70
     1
102
RTVSPropertyOp18
 70
     1
102
RTVSPropertyOp19
 70
     1
102
RTVSPropertyOp20
 70
     1
102
RTVSPropertyOp21
 70
     1
102
RTVSPropertyOp22
 70
     1
102
RTVSPropertyOp23
 70
     1
102
RTVSPropertyOp24
 70
     1
102
RTVSPropertyOp25
 70
     1
102
RTVSPropertyOp26
 70
     1
102
RTVSPropertyOp27
 70
     1
102
RTVSPropertyOp28
 70
     1
102
RTVSPropertyOp29
 70
     1
102
RTVSPropertyOp30
 70
     1
102
RTVSPropertyOp31
 70
     1
102
RTVSPropertyOp32
 70
     1
  0
XRECORD
  5
C80
102
{ACAD_REACTORS
330
C7F
102
}
330
C7F
100
AcDbXrecord
280
     1
102
RTVSPropertyOp0
 70
     1
102
RTVSPropertyOp1
 70
     1
102
RTVSPropertyOp2
 70
     1
102
RTVSPropertyOp3
 70
     1
102
RTVSPropertyOp4
 70
     1
102
RTVSPropertyOp5
 70
     1
102
RTVSPropertyOp6
 70
     1
102
RTVSPropertyOp7
 70
     1
102
RTVSPropertyOp8
 70
     1
102
RTVSPropertyOp9
 70
     1
102
RTVSPropertyOp10
 70
     1
102
RTVSPropertyOp11
 70
     1
102
RTVSPropertyOp12
 70
     1
102
RTVSPropertyOp13
 70
     1
102
RTVSPropertyOp14
 70
     1
102
RTVSPropertyOp15
 70
     1
102
RTVSPropertyOp16
 70
     1
102
RTVSPropertyOp17
 70
     1
102
RTVSPropertyOp18
 70
     1
102
RTVSPropertyOp19
 70
     1
102
RTVSPropertyOp20
 70
     1
102
RTVSPropertyOp21
 70
     1
102
RTVSPropertyOp22
 70
     1
102
RTVSPropertyOp23
 70
     1
102
RTVSPropertyOp24
 70
     1
102
RTVSPropertyOp25
 70
     1
102
RTVSPropertyOp26
 70
     1
102
RTVSPropertyOp27
 70
     1
102
RTVSPropertyOp28
 70
     1
102
RTVSPropertyOp29
 70
     1
102
RTVSPropertyOp30
 70
     1
102
RTVSPropertyOp31
 70
     1
102
RTVSPropertyOp32
 70
     1
  0
XRECORD
  5
C7A
102
{ACAD_REACTORS
330
C79
102
}
330
C79
100
AcDbXrecord
280
     1
102
RTVSPropertyOp0
 70
     1
102
RTVSPropertyOp1
 70
     1
102
RTVSPropertyOp2
 70
     1
102
RTVSPropertyOp3
 70
     1
102
RTVSPropertyOp4
 70
     1
102
RTVSPropertyOp5
 70
     1
102
RTVSPropertyOp6
 70
     1
102
RTVSPropertyOp7
 70
     1
102
RTVSPropertyOp8
 70
     1
102
RTVSPropertyOp9
 70
     1
102
RTVSPropertyOp10
 70
     1
102
RTVSPropertyOp11
 70
     1
102
RTVSPropertyOp12
 70
     1
102
RTVSPropertyOp13
 70
     1
102
RTVSPropertyOp14
 70
     1
102
RTVSPropertyOp15
 70
     1
102
RTVSPropertyOp16
 70
     1
102
RTVSPropertyOp17
 70
     1
102
RTVSPropertyOp18
 70
     1
102
RTVSPropertyOp19
 70
     1
102
RTVSPropertyOp20
 70
     1
102
RTVSPropertyOp21
 70
     1
102
RTVSPropertyOp22
 70
     1
102
RTVSPropertyOp23
 70
     1
102
RTVSPropertyOp24
 70
     1
102
RTVSPropertyOp25
 70
     1
102
RTVSPropertyOp26
 70
     1
102
RTVSPropertyOp27
 70
     1
102
RTVSPropertyOp28
 70
     1
102
RTVSPropertyOp29
 70
     1
102
RTVSPropertyOp30
 70
     1
102
RTVSPropertyOp31
 70
     1
102
RTVSPropertyOp32
 70
     1
  0
XRECORD
  5
C7C
102
{ACAD_REACTORS
330
C7B
102
}
330
C7B
100
AcDbXrecord
280
     1
102
RTVSPropertyOp0
 70
     1
102
RTVSPropertyOp1
 70
     1
102
RTVSPropertyOp2
 70
     1
102
RTVSPropertyOp3
 70
     1
102
RTVSPropertyOp4
 70
     1
102
RTVSPropertyOp5
 70
     1
102
RTVSPropertyOp6
 70
     1
102
RTVSPropertyOp7
 70
     1
102
RTVSPropertyOp8
 70
     1
102
RTVSPropertyOp9
 70
     1
102
RTVSPropertyOp10
 70
     1
102
RTVSPropertyOp11
 70
     1
102
RTVSPropertyOp12
 70
     1
102
RTVSPropertyOp13
 70
     1
102
RTVSPropertyOp14
 70
     1
102
RTVSPropertyOp15
 70
     1
102
RTVSPropertyOp16
 70
     1
102
RTVSPropertyOp17
 70
     1
102
RTVSPropertyOp18
 70
     1
102
RTVSPropertyOp19
 70
     1
102
RTVSPropertyOp20
 70
     1
102
RTVSPropertyOp21
 70
     1
102
RTVSPropertyOp22
 70
     1
102
RTVSPropertyOp23
 70
     1
102
RTVSPropertyOp24
 70
     1
102
RTVSPropertyOp25
 70
     1
102
RTVSPropertyOp26
 70
     1
102
RTVSPropertyOp27
 70
     1
102
RTVSPropertyOp28
 70
     1
102
RTVSPropertyOp29
 70
     1
102
RTVSPropertyOp30
 70
     1
102
RTVSPropertyOp31
 70
     1
102
RTVSPropertyOp32
 70
     1
  0
XRECORD
  5
C72
102
{ACAD_REACTORS
330
C71
102
}
330
C71
100
AcDbXrecord
280
     1
102
RTVSPropertyOp0
 70
     1
102
RTVSPropertyOp1
 70
     1
102
RTVSPropertyOp2
 70
     1
102
RTVSPropertyOp3
 70
     1
102
RTVSPropertyOp4
 70
     1
102
RTVSPropertyOp5
 70
     1
102
RTVSPropertyOp6
 70
     1
102
RTVSPropertyOp7
 70
     1
102
RTVSPropertyOp8
 70
     1
102
RTVSPropertyOp9
 70
     1
102
RTVSPropertyOp10
 70
     1
102
RTVSPropertyOp11
 70
     1
102
RTVSPropertyOp12
 70
     1
102
RTVSPropertyOp13
 70
     1
102
RTVSPropertyOp14
 70
     1
102
RTVSPropertyOp15
 70
     1
102
RTVSPropertyOp16
 70
     1
102
RTVSPropertyOp17
 70
     1
102
RTVSPropertyOp18
 70
     1
102
RTVSPropertyOp19
 70
     1
102
RTVSPropertyOp20
 70
     1
102
RTVSPropertyOp21
 70
     1
102
RTVSPropertyOp22
 70
     1
102
RTVSPropertyOp23
 70
     1
102
RTVSPropertyOp24
 70
     1
102
RTVSPropertyOp25
 70
     1
102
RTVSPropertyOp26
 70
     1
102
RTVSPropertyOp27
 70
     1
102
RTVSPropertyOp28
 70
     1
102
RTVSPropertyOp29
 70
     1
102
RTVSPropertyOp30
 70
     1
102
RTVSPropertyOp31
 70
     1
102
RTVSPropertyOp32
 70
     1
  0
XRECORD
  5
C66
102
{ACAD_REACTORS
330
C65
102
}
330
C65
100
AcDbXrecord
280
     1
102
RTVSPropertyOp0
 70
     1
102
RTVSPropertyOp1
 70
     1
102
RTVSPropertyOp2
 70
     1
102
RTVSPropertyOp3
 70
     1
102
RTVSPropertyOp4
 70
     1
102
RTVSPropertyOp5
 70
     1
102
RTVSPropertyOp6
 70
     1
102
RTVSPropertyOp7
 70
     1
102
RTVSPropertyOp8
 70
     1
102
RTVSPropertyOp9
 70
     1
102
RTVSPropertyOp10
 70
     1
102
RTVSPropertyOp11
 70
     1
102
RTVSPropertyOp12
 70
     1
102
RTVSPropertyOp13
 70
     1
102
RTVSPropertyOp14
 70
     1
102
RTVSPropertyOp15
 70
     1
102
RTVSPropertyOp16
 70
     1
102
RTVSPropertyOp17
 70
     1
102
RTVSPropertyOp18
 70
     1
102
RTVSPropertyOp19
 70
     1
102
RTVSPropertyOp20
 70
     1
102
RTVSPropertyOp21
 70
     1
102
RTVSPropertyOp22
 70
     1
102
RTVSPropertyOp23
 70
     1
102
RTVSPropertyOp24
 70
     1
102
RTVSPropertyOp25
 70
     1
102
RTVSPropertyOp26
 70
     1
102
RTVSPropertyOp27
 70
     1
102
RTVSPropertyOp28
 70
     1
102
RTVSPropertyOp29
 70
     1
102
RTVSPropertyOp30
 70
     1
102
RTVSPropertyOp31
 70
     1
102
RTVSPropertyOp32
 70
     1
  0
XRECORD
  5
C7E
102
{ACAD_REACTORS
330
C7D
102
}
330
C7D
100
AcDbXrecord
280
     1
102
RTVSPropertyOp0
 70
     1
102
RTVSPropertyOp1
 70
     1
102
RTVSPropertyOp2
 70
     1
102
RTVSPropertyOp3
 70
     1
102
RTVSPropertyOp4
 70
     1
102
RTVSPropertyOp5
 70
     1
102
RTVSPropertyOp6
 70
     1
102
RTVSPropertyOp7
 70
     1
102
RTVSPropertyOp8
 70
     1
102
RTVSPropertyOp9
 70
     1
102
RTVSPropertyOp10
 70
     1
102
RTVSPropertyOp11
 70
     1
102
RTVSPropertyOp12
 70
     1
102
RTVSPropertyOp13
 70
     1
102
RTVSPropertyOp14
 70
     1
102
RTVSPropertyOp15
 70
     1
102
RTVSPropertyOp16
 70
     1
102
RTVSPropertyOp17
 70
     1
102
RTVSPropertyOp18
 70
     1
102
RTVSPropertyOp19
 70
     1
102
RTVSPropertyOp20
 70
     1
102
RTVSPropertyOp21
 70
     1
102
RTVSPropertyOp22
 70
     1
102
RTVSPropertyOp23
 70
     1
102
RTVSPropertyOp24
 70
     1
102
RTVSPropertyOp25
 70
     1
102
RTVSPropertyOp26
 70
     1
102
RTVSPropertyOp27
 70
     1
102
RTVSPropertyOp28
 70
     1
102
RTVSPropertyOp29
 70
     1
102
RTVSPropertyOp30
 70
     1
102
RTVSPropertyOp31
 70
     1
102
RTVSPropertyOp32
 70
     1
  0
ENDSEC
  0
EOF
