 0
SECTION
 2
HEADER
 9
$ACADVER
 1
AC1003
 9
$EXTMIN
 10
1111.272095
 20
411.687286
 9
$EXTMAX
 10
1388.281494
 20
600.159912
 9
$LIMMIN
 10
1111.271095
 20
411.686286
 9
$LIMMAX
 10
1388.282494
 20
600.160912
 9
$SNAPUNIT
 10
1
 20
1
 9
$SNAPBASE
 10
0
 20
0
 9
$GRIDMODE
 70
0
 9
$GRIDUNIT
 10
0
 20
0
 9
$LTSCALE
 40
4.616823
 9
$TEXTSIZE
 40
3.2
 9
$DIMTAD
 70
0
 9
$LUNITS
 70
2
 9
$LUPREC
 70
4
 9
$FILLETRAD
 40
0
 9
$AUNITS
 70
0
 9
$AUPREC
 70
0
 0
ENDSEC
 0
SECTION
 2
TABLES
 0
TABLE
 2
LTYPE
 70
25
  0
LTYPE
  2
CONTINUOUS
 70
    64
  3
Solid-line
 72
    65
 73
     0
 40
0.0
  0
LTYPE
  2
BORDER
 70
    64
  3
BORDER
 72
    65
 73
     6
 40
1.75
 49
0.5
 49
-0.25
 49
0.5
 49
-0.25
 49
0.0
 49
-0.25
  0
LTYPE
  2
BORDER2
 70
    64
  3
BORDER2
 72
    65
 73
     6
 40
0.875
 49
0.25
 49
-0.125
 49
0.25
 49
-0.125
 49
0.0
 49
-0.125
  0
LTYPE
  2
BORDERX2
 70
    64
  3
BORDERX2
 72
    65
 73
     6
 40
3.5
 49
1.0
 49
-0.5
 49
1.0
 49
-0.5
 49
0.0
 49
-0.5
  0
LTYPE
  2
CENTER
 70
    64
  3
CENTER
 72
    65
 73
     4
 40
2.0
 49
1.25
 49
-0.25
 49
0.25
 49
-0.25
  0
LTYPE
  2
CENTER2
 70
    64
  3
CENTER2
 72
    65
 73
     4
 40
1.125
 49
0.75
 49
-0.125
 49
0.125
 49
-0.125
  0
LTYPE
  2
CENTERX2
 70
    64
  3
CENTERX2
 72
    65
 73
     4
 40
4.0
 49
2.5
 49
-0.5
 49
0.5
 49
-0.5
  0
LTYPE
  2
DASHDOT
 70
    64
  3
DASHDOT
 72
    65
 73
     4
 40
1.0
 49
0.5
 49
-0.25
 49
0.0
 49
-0.25
  0
LTYPE
  2
DASHDOT2
 70
    64
  3
DASHDOT2
 72
    65
 73
     4
 40
0.5
 49
0.25
 49
-0.125
 49
0.0
 49
-0.125
  0
LTYPE
  2
DASHDOTX2
 70
    64
  3
DASHDOTX2
 72
    65
 73
     4
 40
2.0
 49
1.0
 49
-0.5
 49
0.0
 49
-0.5
  0
LTYPE
  2
DASHED
 70
    64
  3
DASHED
 72
    65
 73
     2
 40
0.75
 49
0.5
 49
-0.25
  0
LTYPE
  2
DASHED2
 70
    64
  3
DASHED2
 72
    65
 73
     2
 40
0.375
 49
0.25
 49
-0.125
  0
LTYPE
  2
DASHEDX2
 70
    64
  3
DASHEDX2
 72
    65
 73
     2
 40
1.5
 49
1.0
 49
-0.5
  0
LTYPE
  2
DIVIDE
 70
    64
  3
DIVIDE
 72
    65
 73
     6
 40
1.25
 49
0.5
 49
-0.25
 49
0.0
 49
-0.25
 49
0.0
 49
-0.25
  0
LTYPE
  2
DIVIDE2
 70
    64
  3
DIVIDE2
 72
    65
 73
     6
 40
0.625
 49
0.25
 49
-0.125
 49
0.0
 49
-0.125
 49
0.0
 49
-0.125
  0
LTYPE
  2
DIVIDEX2
 70
    64
  3
DIVIDEX2
 72
    65
 73
     6
 40
2.5
 49
1.0
 49
-0.5
 49
0.0
 49
-0.5
 49
0.0
 49
-0.5
  0
LTYPE
  2
DOT
 70
    64
  3
DOT
 72
    65
 73
     2
 40
0.25
 49
0.0
 49
-0.25
  0
LTYPE
  2
DOT2
 70
    64
  3
DOT2
 72
    65
 73
     2
 40
0.125
 49
0.0
 49
-0.125
  0
LTYPE
  2
DOTX2
 70
    64
  3
DOTX2
 72
    65
 73
     2
 40
0.5
 49
0.0
 49
-0.5
  0
LTYPE
  2
HIDDEN
 70
    64
  3
HIDDEN
 72
    65
 73
     2
 40
0.375
 49
0.25
 49
-0.125
  0
LTYPE
  2
HIDDEN2
 70
    64
  3
HIDDEN2
 72
    65
 73
     2
 40
0.1875
 49
0.125
 49
-0.0625
  0
LTYPE
  2
HIDDENX2
 70
    64
  3
HIDDENX2
 72
    65
 73
     2
 40
0.75
 49
0.5
 49
-0.25
  0
LTYPE
  2
PHANTOM
 70
    64
  3
PHANTOM
 72
    65
 73
     6
 40
2.5
 49
1.25
 49
-0.25
 49
0.25
 49
-0.25
 49
0.25
 49
-0.25
  0
LTYPE
  2
PHANTOM2
 70
    64
  3
PHANTOM2
 72
    65
 73
     6
 40
1.25
 49
0.625
 49
-0.125
 49
0.125
 49
-0.125
 49
0.125
 49
-0.125
  0
LTYPE
  2
PHANTOMX2
 70
    64
  3
PHANTOMX2
 72
    65
 73
     6
 40
5.0
 49
2.5
 49
-0.5
 49
0.5
 49
-0.5
 49
0.5
 49
-0.5
 0
ENDTAB
 0
TABLE
 2
LAYER
 70
1
 0
LAYER
 2
001
 70
0
 62
7
 6
CONTINUOUS
 0
ENDTAB
 0
TABLE
 2
STYLE
 70
2
 0
STYLE
 2
STANDARD
 70
0
 40
0
 41
1
 50
0
 71
0
 42
.2
 3
TXT
 4
BIGFONT
 0
STYLE
 2
TATEGAKI
 70
4
 40
1
 41
1
 50
0
 71
0
 42
.2
 3
TXT
 4
BIGFONT
 0
ENDTAB
 0
ENDSEC
 0
SECTION
 2
ENTITIES
 0
LINE
 8
001
 62
3
 10
1185.900243
 20
520.368526
 11
1196.523572
 21
520.368526
 0
LINE
 8
001
 62
3
 10
1187.500748
 20
516.768526
 11
1191.954931
 21
516.768526
 0
LINE
 8
001
 62
3
 10
1201.304322
 20
521.775186
 11
1208.172442
 21
521.775186
 0
LINE
 8
001
 62
3
 10
1208.172442
 20
521.775186
 11
1208.172442
 21
511.450248
 0
LINE
 8
001
 62
3
 10
1191.319769
 20
504.147027
 11
1194.538661
 21
501.446056
 0
LINE
 8
001
 62
3
 10
1201.304322
 20
521.775186
 11
1196.523572
 21
520.368526
 0
LINE
 8
001
 62
3
 10
1179.449164
 20
523.334307
 11
1185.900243
 21
520.368526
 0
LINE
 8
001
 62
3
 10
1205.829399
 20
506.871789
 11
1202.165865
 21
504.517717
 0
LINE
 8
001
 62
3
 10
1205.752735
 20
506.314486
 11
1206.149231
 21
509.196798
 0
ARC
 8
001
 62
3
 10
1191.957618
 20
492.402704
 40
24.365822
 50
59.835232
 51
90.006317
 0
ARC
 8
001
 62
3
 10
1201.805112
 20
509.796186
 40
4.385274
 50
352.144107
 51
56.880631
 0
ARC
 8
001
 62
3
 10
1190.823914
 20
533.485266
 40
17.043851
 50
223.077205
 51
258.756595
 0
ARC
 8
001
 62
3
 10
1176.714113
 20
512.966808
 40
7.881934
 50
30.117784
 51
85.470403
 0
LINE
 8
001
 62
3
 10
1180.025149
 20
516.770494
 11
1176.807810
 21
519.562589
 0
ARC
 8
001
 62
3
 10
1214.945855
 20
538.840042
 40
38.304604
 50
214.904417
 51
245.270522
 0
ARC
 8
001
 62
3
 10
1199.814034
 20
509.325655
 40
5.352325
 50
260.403124
 51
296.065839
 0
ARC
 8
001
 62
3
 10
1222.345145
 20
543.270987
 40
49.932536
 50
212.054518
 51
231.585516
 0
LINE
 8
001
 62
3
 10
1204.265075
 20
499.048017
 11
1200.968530
 21
499.174756
 0
ARC
 8
001
 62
3
 10
1200.750965
 20
508.795716
 40
9.623420
 50
229.793815
 51
271.295446
 0
LINE
 8
001
 62
3
 10
1206.812980
 20
498.369145
 11
1208.738815
 21
496.676685
 0
ARC
 8
001
 62
3
 10
1204.754723
 20
495.764973
 40
3.319357
 50
51.678230
 51
98.482811
 0
ARC
 8
001
 62
3
 10
1179.058191
 20
522.483875
 40
0.936000
 50
65.310140
 51
223.077205
 0
ARC
 8
001
 62
3
 10
1177.279720
 20
520.106373
 40
0.720000
 50
85.470403
 51
229.047663
 0
ARC
 8
001
 62
3
 10
1208.172442
 20
505.981628
 40
2.442493
 50
172.167465
 51
310.775829
 0
LINE
 8
001
 62
3
 10
1212.640140
 20
506.609363
 11
1209.767637
 21
504.131999
 0
LINE
 8
001
 62
3
 10
1213.257658
 20
506.867933
 11
1214.311850
 21
506.953951
 0
LINE
 8
001
 62
3
 10
1209.630529
 20
501.797220
 11
1210.682186
 21
504.920743
 0
ARC
 8
001
 62
3
 10
1213.345489
 20
505.791511
 40
1.080000
 50
94.664763
 51
130.775829
 0
ARC
 8
001
 62
3
 10
1213.125812
 20
501.789500
 40
3.495292
 50
179.873447
 51
227.071840
 0
ARC
 8
001
 62
3
 10
1205.051591
 20
508.410726
 40
7.004952
 50
30.252629
 51
63.543344
 0
ARC
 8
001
 62
3
 10
1214.211769
 20
513.998447
 40
3.728909
 50
213.507524
 51
266.886367
 0
LINE
 8
001
 62
3
 10
1214.009228
 20
510.275043
 11
1215.606007
 21
510.212452
 0
LINE
 8
001
 62
3
 10
1216.719945
 20
513.017187
 11
1214.139865
 21
506.520916
 0
LINE
 8
001
 62
3
 10
1216.719945
 20
513.017187
 11
1217.732382
 21
512.396940
 0
LINE
 8
001
 62
3
 10
1217.732382
 20
512.396940
 11
1217.634404
 21
510.764711
 0
ARC
 8
001
 62
3
 10
1215.121272
 20
483.777907
 40
27.103569
 50
43.385302
 51
84.679703
 0
LINE
 8
001
 62
3
 10
1234.818814
 20
502.395378
 11
1236.399855
 21
501.693008
 0
ARC
 8
001
 62
3
 10
1234.204779
 20
500.792857
 40
2.372474
 50
291.154068
 51
22.297431
 0
ARC
 8
001
 62
3
 10
1213.366627
 20
472.953186
 40
33.576635
 50
49.750772
 51
88.680416
 0
LINE
 8
001
 62
3
 10
1207.947561
 20
493.776148
 11
1209.309277
 21
494.681411
 0
LINE
 8
001
 62
3
 10
1206.902412
 20
494.339530
 11
1211.221004
 21
499.835720
 0
LINE
 8
001
 62
3
 10
1206.902412
 20
494.339530
 11
1207.947561
 21
493.776148
 0
ARC
 8
001
 62
3
 10
1231.374465
 20
510.420882
 40
27.103569
 50
215.500904
 51
256.795305
 0
LINE
 8
001
 62
3
 10
1225.183179
 20
484.033926
 11
1226.585172
 21
483.020304
 0
ARC
 8
001
 62
3
 10
1226.259779
 20
485.370357
 40
2.372474
 50
277.883176
 51
9.026539
 0
ARC
 8
001
 62
3
 10
1239.849733
 20
517.379559
 40
33.576635
 50
211.500192
 51
250.429836
 0
ARC
 8
001
 62
3
 10
1161.179258
 20
527.281000
 40
69.004904
 50
327.872188
 51
329.629627
 0
ARC
 8
001
 62
3
 10
1189.697713
 20
514.081441
 40
34.168096
 50
322.106820
 51
324.503638
 0
ARC
 8
001
 62
3
 10
1161.179258
 20
527.281000
 40
69.850904
 50
330.224433
 51
337.979561
 0
ARC
 8
001
 62
3
 10
1189.697713
 20
514.081441
 40
33.322096
 50
325.606960
 51
340.607540
 0
LINE
 8
001
 62
3
 10
1221.046447
 20
503.826171
 11
1226.536760
 21
501.625598
 0
LINE
 8
001
 62
3
 10
1216.495845
 20
494.831061
 11
1221.760254
 21
491.788940
 0
ARC
 8
001
 62
3
 10
1220.912513
 20
503.492013
 40
0.360000
 50
68.158591
 51
248.158591
 0
ARC
 8
001
 62
3
 10
1226.402826
 20
501.291440
 40
0.360000
 50
248.158591
 51
68.158591
 0
ARC
 8
001
 62
3
 10
1216.675966
 20
495.142760
 40
0.360000
 50
59.977864
 51
239.977864
 0
ARC
 8
001
 62
3
 10
1221.940375
 20
492.100640
 40
0.360000
 50
239.977864
 51
59.977864
 0
ARC
 8
001
 62
3
 10
1189.697713
 20
514.081441
 40
34.168096
 50
341.755894
 51
344.948440
 0
ARC
 8
001
 62
3
 10
1161.179258
 20
527.281000
 40
69.004904
 50
338.575197
 51
340.287154
 0
LINE
 8
001
 62
3
 10
1319.196409
 20
522.618526
 11
1319.196409
 21
514.518526
 0
LINE
 8
001
 62
3
 10
1304.681524
 20
587.181898
 11
1388.281524
 21
587.181898
 0
TEXT
 8
001
 62
3
 10
1377.556524
 20
583.036898
 40
3.040000
 1
担
 41
0.859375
 7
STANDARD
 0
TEXT
 8
001
 62
3
 10
1384.444024
 20
583.036898
 40
3.040000
 1
当
 41
0.859375
 7
STANDARD
 0
TEXT
 8
001
 62
3
 10
1337.360747
 20
583.019735
 40
3.040000
 1
変更・追記内容
 41
1.182726
 7
STANDARD
 0
LINE
 8
001
 62
3
 10
1304.681524
 20
591.687287
 11
1304.681524
 21
572.331898
 0
TEXT
 8
001
 62
3
 10
1308.454228
 20
578.082722
 40
2.432000
 1
1
 41
1.499999
 7
STANDARD
 0
TEXT
 8
001
 62
3
 10
1308.454228
 20
572.926511
 40
2.432000
 1
2
 41
1.000000
 7
STANDARD
 0
TEXT
 8
001
 62
3
 10
1317.640473
 20
583.596263
 40
3.200000
 1
日
 41
0.859375
 7
STANDARD
 0
TEXT
 8
001
 62
3
 10
1326.517347
 20
583.596263
 40
3.200000
 1
付
 41
0.859375
 7
STANDARD
 0
TEXT
 8
001
 62
3
 10
1317.466314
 20
587.831898
 40
3.200000
 1
図
 41
0.859375
 7
STANDARD
 0
TEXT
 8
001
 62
3
 10
1336.122209
 20
587.831898
 40
3.200000
 1
面
 41
0.859375
 7
STANDARD
 0
TEXT
 8
001
 62
3
 10
1354.778105
 20
587.831898
 40
3.200000
 1
略
 41
0.859375
 7
STANDARD
 0
TEXT
 8
001
 62
3
 10
1373.434000
 20
587.831898
 40
3.200000
 1
歴
 41
0.859375
 7
STANDARD
 0
TEXT
 8
001
 62
3
 10
1305.283888
 20
582.956898
 40
3.200000
 1
記
 41
0.859375
 7
STANDARD
 0
TEXT
 8
001
 62
3
 10
1311.536796
 20
582.956898
 40
3.200000
 1
号
 41
0.859375
 7
STANDARD
 0
LINE
 8
001
 62
3
 10
1249.772114
 20
600.159904
 11
1249.772114
 21
598.911345
 0
LINE
 8
001
 62
3
 10
1378.682880
 20
572.331898
 11
1304.681524
 21
572.331898
 0
LINE
 8
001
 62
3
 10
1386.833215
 20
572.331898
 11
1378.682880
 21
572.331898
 0
LINE
 8
001
 62
3
 10
1386.833215
 20
572.331898
 11
1388.281524
 21
572.331898
 0
LINE
 8
001
 62
2
 10
1237.858775
 20
593.520614
 11
1238.294523
 21
593.293146
 0
LINE
 8
001
 62
2
 10
1237.858775
 20
589.789984
 11
1238.294523
 21
590.017452
 0
LINE
 8
001
 62
2
 10
1238.294523
 20
593.293146
 11
1238.294523
 21
590.017452
 0
LINE
 8
001
 62
2
 10
1239.398041
 20
589.789984
 11
1238.962293
 21
590.017452
 0
LINE
 8
001
 62
2
 10
1238.962293
 20
592.014311
 11
1238.962293
 21
590.017452
 0
LINE
 8
001
 62
2
 10
1241.939904
 20
593.520614
 11
1241.504156
 21
593.293146
 0
LINE
 8
001
 62
2
 10
1240.400638
 20
593.520614
 11
1240.836386
 21
593.293146
 0
LINE
 8
001
 62
2
 10
1240.836386
 20
593.293146
 11
1240.836386
 21
591.850809
 0
LINE
 8
001
 62
2
 10
1241.504156
 20
593.293146
 11
1241.504156
 21
589.578423
 0
LINE
 8
001
 62
2
 10
1242.155201
 20
593.520612
 11
1242.590947
 21
593.293141
 0
LINE
 8
001
 62
2
 10
1242.155123
 20
589.790034
 11
1242.590879
 21
590.017487
 0
LINE
 8
001
 62
2
 10
1242.590947
 20
593.293141
 11
1242.590947
 21
590.017487
 0
LINE
 8
001
 62
2
 10
1244.084737
 20
593.520588
 11
1243.648986
 21
593.293126
 0
LINE
 8
001
 62
2
 10
1243.648986
 20
593.293126
 11
1243.648986
 21
590.017472
 0
LINE
 8
001
 62
2
 10
1244.084737
 20
589.790010
 11
1243.648986
 21
590.017472
 0
LINE
 8
001
 62
2
 10
1247.774991
 20
593.520547
 11
1248.210738
 21
593.293078
 0
LINE
 8
001
 62
2
 10
1248.210738
 20
593.293078
 11
1248.210681
 21
590.017424
 0
LINE
 8
001
 62
2
 10
1247.774925
 20
589.789969
 11
1248.210681
 21
590.017424
 0
LINE
 8
001
 62
2
 10
1249.727252
 20
593.520547
 11
1249.291504
 21
593.293078
 0
LINE
 8
001
 62
2
 10
1249.727317
 20
589.789969
 11
1249.291562
 21
590.017424
 0
LINE
 8
001
 62
2
 10
1249.930979
 20
593.520547
 11
1250.366727
 21
593.293078
 0
LINE
 8
001
 62
2
 10
1249.930914
 20
589.789969
 11
1250.366669
 21
590.017424
 0
LINE
 8
001
 62
2
 10
1251.883240
 20
593.520547
 11
1251.447493
 21
593.293078
 0
LINE
 8
001
 62
2
 10
1251.447493
 20
593.293078
 11
1251.447550
 21
590.017424
 0
LINE
 8
001
 62
2
 10
1251.883306
 20
589.789969
 11
1251.447550
 21
590.017424
 0
LINE
 8
001
 62
2
 10
1250.366702
 20
591.865944
 11
1249.291529
 21
591.865944
 0
LINE
 8
001
 62
2
 10
1250.366694
 20
591.444654
 11
1249.291537
 21
591.444654
 0
LINE
 8
001
 62
2
 10
1250.366727
 20
593.293078
 11
1250.366702
 21
591.865944
 0
LINE
 8
001
 62
2
 10
1250.366694
 20
591.444654
 11
1250.366669
 21
590.017424
 0
LINE
 8
001
 62
2
 10
1249.291504
 20
593.293078
 11
1249.291529
 21
591.865944
 0
LINE
 8
001
 62
2
 10
1249.291537
 20
591.444654
 11
1249.291562
 21
590.017424
 0
LINE
 8
001
 62
2
 10
1252.090200
 20
593.520547
 11
1252.525947
 21
593.293078
 0
LINE
 8
001
 62
2
 10
1252.525947
 20
593.293078
 11
1252.525889
 21
590.017424
 0
LINE
 8
001
 62
2
 10
1252.090134
 20
589.789969
 11
1252.525889
 21
590.017424
 0
LINE
 8
001
 62
2
 10
1254.019710
 20
593.520547
 11
1253.583963
 21
593.293078
 0
LINE
 8
001
 62
2
 10
1253.583963
 20
593.293078
 11
1253.584020
 21
590.017424
 0
LINE
 8
001
 62
2
 10
1254.019775
 20
589.789969
 11
1253.584020
 21
590.017424
 0
LINE
 8
001
 62
2
 10
1254.234069
 20
593.520547
 11
1254.669816
 21
593.293078
 0
LINE
 8
001
 62
2
 10
1254.669816
 20
593.293078
 11
1254.669759
 21
590.017424
 0
LINE
 8
001
 62
2
 10
1254.234004
 20
589.789969
 11
1254.669759
 21
590.017424
 0
ARC
 8
001
 62
2
 10
1246.383079
 20
591.664689
 40
2.086286
 50
97.701524
 51
270.000000
 0
ARC
 8
001
 62
2
 10
1259.263680
 20
591.643732
 40
2.108943
 50
0.314250
 51
69.005582
 0
ARC
 8
001
 62
2
 10
1259.724355
 20
591.643732
 40
2.108943
 50
110.994418
 51
148.116611
 0
ARC
 8
001
 62
2
 10
1259.263680
 20
591.666866
 40
2.108943
 50
290.994418
 51
359.685750
 0
ARC
 8
001
 62
2
 10
1259.724355
 20
591.666866
 40
2.108943
 50
211.883389
 51
249.005582
 0
ARC
 8
001
 62
2
 10
1259.494018
 20
592.518105
 40
1.214071
 50
64.365172
 51
115.634828
 0
ARC
 8
001
 62
2
 10
1259.494018
 20
590.792494
 40
1.214071
 50
244.365172
 51
295.634828
 0
ARC
 8
001
 62
2
 10
1259.494018
 20
592.541166
 40
0.595856
 50
19.486606
 51
160.513394
 0
ARC
 8
001
 62
2
 10
1259.494018
 20
590.769432
 40
0.595856
 50
199.486606
 51
340.513394
 0
ARC
 8
001
 62
3
 10
1254.751545
 20
569.427239
 40
26.040000
 50
69.505715
 51
81.689988
 0
ARC
 8
001
 62
3
 10
1254.751545
 20
613.883359
 40
26.040000
 50
278.310012
 51
290.494285
 0
ARC
 8
001
 62
3
 10
1263.059749
 20
591.655299
 40
2.310000
 50
290.494285
 51
69.505715
 0
ARC
 8
001
 62
3
 10
1235.759749
 20
591.655299
 40
2.310000
 50
110.494285
 51
249.505715
 0
ARC
 8
001
 62
3
 10
1244.067954
 20
569.427239
 40
26.040000
 50
98.310012
 51
110.494285
 0
ARC
 8
001
 62
3
 10
1244.067954
 20
613.883359
 40
26.040000
 50
249.505715
 51
261.689988
 0
ARC
 8
001
 62
3
 10
1249.409749
 20
532.855299
 40
63.000000
 50
81.689988
 51
98.310012
 0
ARC
 8
001
 62
3
 10
1249.409749
 20
650.455299
 40
63.000000
 50
261.689988
 51
278.310012
 0
ARC
 8
001
 62
3
 10
1249.409749
 20
532.855299
 40
62.370000
 50
81.689988
 51
98.310012
 0
ARC
 8
001
 62
3
 10
1249.409749
 20
650.455299
 40
62.370000
 50
261.689988
 51
278.310012
 0
ARC
 8
001
 62
3
 10
1254.751545
 20
613.883359
 40
25.410000
 50
278.310012
 51
290.494285
 0
ARC
 8
001
 62
3
 10
1254.751545
 20
569.427239
 40
25.410000
 50
69.505715
 51
81.689988
 0
ARC
 8
001
 62
3
 10
1263.059749
 20
591.655299
 40
1.680000
 50
290.494285
 51
69.505715
 0
ARC
 8
001
 62
3
 10
1235.759749
 20
591.655299
 40
1.680000
 50
110.494285
 51
249.505715
 0
ARC
 8
001
 62
3
 10
1244.067954
 20
569.427239
 40
25.410000
 50
98.310012
 51
110.494285
 0
ARC
 8
001
 62
3
 10
1244.067954
 20
613.883359
 40
25.410000
 50
249.505715
 51
261.689988
 0
LINE
 8
001
 62
2
 10
1254.019711
 20
589.578423
 11
1252.090199
 21
589.578423
 0
LINE
 8
001
 62
2
 10
1254.019711
 20
589.789984
 11
1254.019711
 21
589.578423
 0
LINE
 8
001
 62
2
 10
1251.883241
 20
593.732077
 11
1249.930979
 21
593.732077
 0
LINE
 8
001
 62
2
 10
1251.883241
 20
593.732077
 11
1251.883241
 21
593.520614
 0
LINE
 8
001
 62
2
 10
1251.883241
 20
589.789984
 11
1251.883241
 21
589.578324
 0
LINE
 8
001
 62
2
 10
1251.883241
 20
589.578324
 11
1249.930979
 21
589.578324
 0
LINE
 8
001
 62
2
 10
1254.019711
 20
593.732176
 11
1254.019711
 21
593.520614
 0
LINE
 8
001
 62
2
 10
1254.019711
 20
593.732176
 11
1252.090199
 21
593.732176
 0
LINE
 8
001
 62
2
 10
1252.090199
 20
593.732176
 11
1252.090199
 21
593.520614
 0
LINE
 8
001
 62
2
 10
1254.234069
 20
589.789984
 11
1254.234069
 21
589.578423
 0
LINE
 8
001
 62
2
 10
1256.218369
 20
589.578423
 11
1254.234069
 21
589.578423
 0
LINE
 8
001
 62
2
 10
1255.727832
 20
593.064406
 11
1255.727832
 21
590.246192
 0
LINE
 8
001
 62
2
 10
1255.727832
 20
590.246192
 11
1255.917881
 21
590.246192
 0
ARC
 8
001
 62
2
 10
1254.946096
 20
591.655299
 40
1.711710
 50
304.591955
 51
55.408045
 0
LINE
 8
001
 62
2
 10
1256.218369
 20
593.732176
 11
1254.234069
 21
593.732176
 0
LINE
 8
001
 62
2
 10
1254.234069
 20
593.732176
 11
1254.234069
 21
593.520614
 0
LINE
 8
001
 62
2
 10
1252.090199
 20
589.789984
 11
1252.090199
 21
589.578423
 0
LINE
 8
001
 62
2
 10
1255.727832
 20
593.064406
 11
1255.917881
 21
593.064406
 0
LINE
 8
001
 62
2
 10
1244.084673
 20
589.789984
 11
1244.084669
 21
589.578403
 0
LINE
 8
001
 62
2
 10
1242.155157
 20
589.578443
 11
1244.084669
 21
589.578409
 0
LINE
 8
001
 62
2
 10
1237.858775
 20
589.578423
 11
1239.398041
 21
589.578423
 0
ARC
 8
001
 62
2
 10
1232.876833
 20
591.704206
 40
14.713566
 50
353.866006
 51
357.694034
 0
LINE
 8
001
 62
2
 10
1246.593413
 20
591.115838
 11
1247.578484
 21
591.112193
 0
POLYLINE
 8
001
 62
2
 66
1
 0
VERTEX
 8
001
 62
2
 10
1246.597391
 20
592.191053
 0
VERTEX
 8
001
 62
2
 10
1246.578764
 20
592.310321
 0
VERTEX
 8
001
 62
2
 10
1246.556392
 20
592.424526
 0
VERTEX
 8
001
 62
2
 10
1246.530450
 20
592.532785
 0
VERTEX
 8
001
 62
2
 10
1246.501138
 20
592.634261
 0
VERTEX
 8
001
 62
2
 10
1246.468682
 20
592.728171
 0
VERTEX
 8
001
 62
2
 10
1246.433334
 20
592.813788
 0
VERTEX
 8
001
 62
2
 10
1246.395366
 20
592.890450
 0
VERTEX
 8
001
 62
2
 10
1246.355071
 20
592.957565
 0
VERTEX
 8
001
 62
2
 10
1246.312763
 20
593.014615
 0
VERTEX
 8
001
 62
2
 10
1246.268766
 20
593.061158
 0
VERTEX
 8
001
 62
2
 10
1246.223422
 20
593.096834
 0
VERTEX
 8
001
 62
2
 10
1246.177081
 20
593.121368
 0
VERTEX
 8
001
 62
2
 10
1246.130101
 20
593.134569
 0
VERTEX
 8
001
 62
2
 10
1246.082845
 20
593.136337
 0
VERTEX
 8
001
 62
2
 10
1246.035679
 20
593.126657
 0
VERTEX
 8
001
 62
2
 10
1245.988967
 20
593.105605
 0
VERTEX
 8
001
 62
2
 10
1245.943070
 20
593.073342
 0
VERTEX
 8
001
 62
2
 10
1245.898343
 20
593.030118
 0
VERTEX
 8
001
 62
2
 10
1245.855132
 20
592.976268
 0
VERTEX
 8
001
 62
2
 10
1245.813770
 20
592.912208
 0
VERTEX
 8
001
 62
2
 10
1245.774578
 20
592.838432
 0
VERTEX
 8
001
 62
2
 10
1245.737858
 20
592.755511
 0
VERTEX
 8
001
 62
2
 10
1245.703894
 20
592.664086
 0
VERTEX
 8
001
 62
2
 10
1245.672949
 20
592.564864
 0
VERTEX
 8
001
 62
2
 10
1245.645261
 20
592.458611
 0
VERTEX
 8
001
 62
2
 10
1245.621046
 20
592.346149
 0
VERTEX
 8
001
 62
2
 10
1245.600489
 20
592.228347
 0
VERTEX
 8
001
 62
2
 10
1245.583750
 20
592.106116
 0
VERTEX
 8
001
 62
2
 10
1245.570959
 20
591.980400
 0
VERTEX
 8
001
 62
2
 10
1245.562214
 20
591.852172
 0
VERTEX
 8
001
 62
2
 10
1245.557582
 20
591.722421
 0
VERTEX
 8
001
 62
2
 10
1245.557100
 20
591.592152
 0
VERTEX
 8
001
 62
2
 10
1245.560771
 20
591.462371
 0
VERTEX
 8
001
 62
2
 10
1245.568567
 20
591.334081
 0
VERTEX
 8
001
 62
2
 10
1245.580428
 20
591.208274
 0
VERTEX
 8
001
 62
2
 10
1245.596262
 20
591.085922
 0
VERTEX
 8
001
 62
2
 10
1245.615946
 20
590.967971
 0
VERTEX
 8
001
 62
2
 10
1245.639329
 20
590.855333
 0
VERTEX
 8
001
 62
2
 10
1245.666230
 20
590.748879
 0
VERTEX
 8
001
 62
2
 10
1245.696440
 20
590.649430
 0
VERTEX
 8
001
 62
2
 10
1245.729726
 20
590.557756
 0
VERTEX
 8
001
 62
2
 10
1245.765832
 20
590.474566
 0
VERTEX
 8
001
 62
2
 10
1245.804477
 20
590.400502
 0
VERTEX
 8
001
 62
2
 10
1245.845363
 20
590.336137
 0
VERTEX
 8
001
 62
2
 10
1245.888175
 20
590.281969
 0
VERTEX
 8
001
 62
2
 10
1245.932581
 20
590.238415
 0
VERTEX
 8
001
 62
2
 10
1245.978238
 20
590.205814
 0
VERTEX
 8
001
 62
2
 10
1246.024793
 20
590.184416
 0
VERTEX
 8
001
 62
2
 10
1246.071886
 20
590.174388
 0
VERTEX
 8
001
 62
2
 10
1246.119153
 20
590.175806
 0
VERTEX
 8
001
 62
2
 10
1246.166230
 20
590.188659
 0
VERTEX
 8
001
 62
2
 10
1246.212751
 20
590.212850
 0
VERTEX
 8
001
 62
2
 10
1246.258358
 20
590.248189
 0
VERTEX
 8
001
 62
2
 10
1246.302698
 20
590.294405
 0
VERTEX
 8
001
 62
2
 10
1246.345427
 20
590.351140
 0
VERTEX
 8
001
 62
2
 10
1246.386217
 20
590.417955
 0
VERTEX
 8
001
 62
2
 10
1246.424752
 20
590.494335
 0
VERTEX
 8
001
 62
2
 10
1246.460733
 20
590.579688
 0
VERTEX
 8
001
 62
2
 10
1246.493883
 20
590.673354
 0
VERTEX
 8
001
 62
2
 10
1246.523945
 20
590.774611
 0
VERTEX
 8
001
 62
2
 10
1246.550687
 20
590.882675
 0
VERTEX
 8
001
 62
2
 10
1246.573903
 20
590.996712
 0
VERTEX
 8
001
 62
2
 10
1246.593413
 20
591.115838
 0
SEQEND
 8
001
 0
LINE
 8
001
 62
2
 10
1246.597391
 20
592.191053
 11
1247.582462
 21
592.187408
 0
ARC
 8
001
 62
2
 10
1232.876833
 20
591.704206
 40
14.713566
 50
1.881966
 51
5.709994
 0
LINE
 8
001
 62
2
 10
1244.084742
 20
593.732156
 11
1244.084738
 21
593.520614
 0
LINE
 8
001
 62
2
 10
1242.155230
 20
593.732195
 11
1244.084742
 21
593.732162
 0
LINE
 8
001
 62
2
 10
1242.155161
 20
589.789984
 11
1242.155157
 21
589.578443
 0
LINE
 8
001
 62
2
 10
1242.155230
 20
593.732195
 11
1242.155226
 21
593.520614
 0
LINE
 8
001
 62
2
 10
1239.398041
 20
589.789984
 11
1239.398041
 21
589.578423
 0
LINE
 8
001
 62
2
 10
1238.962293
 20
592.014311
 11
1240.484723
 21
589.578423
 0
LINE
 8
001
 62
2
 10
1240.484723
 20
589.578423
 11
1241.504156
 21
589.578423
 0
LINE
 8
001
 62
2
 10
1241.939904
 20
593.732176
 11
1241.939904
 21
593.520614
 0
LINE
 8
001
 62
2
 10
1240.400638
 20
593.732176
 11
1241.939904
 21
593.732176
 0
LINE
 8
001
 62
2
 10
1240.400638
 20
593.732176
 11
1240.400638
 21
593.520614
 0
LINE
 8
001
 62
2
 10
1240.836386
 20
591.850809
 11
1239.601739
 21
593.732176
 0
LINE
 8
001
 62
2
 10
1237.858775
 20
593.732176
 11
1239.601739
 21
593.732176
 0
LINE
 8
001
 62
2
 10
1247.774990
 20
593.732077
 11
1249.727252
 21
593.732077
 0
LINE
 8
001
 62
2
 10
1247.774990
 20
593.520614
 11
1247.774990
 21
593.732077
 0
LINE
 8
001
 62
2
 10
1247.774990
 20
589.578324
 11
1247.774990
 21
589.789984
 0
LINE
 8
001
 62
2
 10
1247.774990
 20
589.578324
 11
1249.727252
 21
589.578324
 0
LINE
 8
001
 62
2
 10
1249.930979
 20
589.789984
 11
1249.930979
 21
589.578324
 0
LINE
 8
001
 62
2
 10
1249.727252
 20
589.789984
 11
1249.727252
 21
589.578324
 0
LINE
 8
001
 62
2
 10
1249.727252
 20
593.520614
 11
1249.727252
 21
593.732077
 0
LINE
 8
001
 62
2
 10
1249.930979
 20
593.520614
 11
1249.930979
 21
593.732077
 0
LINE
 8
001
 62
2
 10
1237.858775
 20
589.789984
 11
1237.858775
 21
589.578423
 0
LINE
 8
001
 62
2
 10
1237.858775
 20
593.732176
 11
1237.858775
 21
593.520614
 0
ARC
 8
001
 62
2
 10
1256.428369
 20
592.091047
 40
1.641128
 50
17.308749
 51
23.765071
 0
ARC
 8
001
 62
2
 10
1255.030096
 20
591.655299
 40
3.105726
 50
342.691251
 51
17.308566
 0
ARC
 8
001
 62
2
 10
1256.428369
 20
591.219551
 40
1.641128
 50
336.234929
 51
342.691251
 0
ARC
 8
001
 62
2
 10
1256.218369
 20
592.091047
 40
1.641128
 50
17.308749
 51
90.000000
 0
ARC
 8
001
 62
2
 10
1254.820096
 20
591.655299
 40
3.105726
 50
342.691251
 51
17.308566
 0
ARC
 8
001
 62
2
 10
1256.218369
 20
591.219551
 40
1.641128
 50
270.000000
 51
342.691251
 0
ARC
 8
001
 62
2
 10
1246.094429
 20
591.655299
 40
2.076876
 50
46.752880
 51
89.749998
 0
ARC
 8
001
 62
2
 10
1246.094429
 20
591.655299
 40
2.076876
 50
273.976333
 51
312.823120
 0
ARC
 8
001
 62
2
 10
1257.536237
 20
591.623238
 40
2.755889
 50
0.666584
 51
23.903928
 0
ARC
 8
001
 62
2
 10
1261.451799
 20
591.623238
 40
2.755889
 50
156.096072
 51
179.333416
 0
ARC
 8
001
 62
2
 10
1257.536237
 20
591.687361
 40
2.755889
 50
336.096072
 51
359.333416
 0
ARC
 8
001
 62
2
 10
1261.451799
 20
591.687361
 40
2.755889
 50
180.666584
 51
203.903928
 0
LINE
 8
001
 62
3
 10
1336.472715
 20
428.416154
 11
1336.472715
 21
449.416154
 0
LINE
 8
001
 62
3
 10
1349.472715
 20
428.416154
 11
1349.472715
 21
449.416154
 0
LINE
 8
001
 62
3
 10
1362.472715
 20
428.416154
 11
1362.472715
 21
449.416154
 0
LINE
 8
001
 62
3
 10
1336.472715
 20
428.416154
 11
1336.472715
 21
421.416154
 0
LINE
 8
001
 62
3
 10
1309.419105
 20
421.416154
 11
1309.419105
 21
435.416154
 0
LINE
 8
001
 62
3
 10
1319.751039
 20
435.026130
 11
1319.751039
 21
421.416154
 0
TEXT
 8
001
 62
3
 10
1338.483033
 20
447.621270
 40
2.000000
 1
A
 41
0.700000
 7
STANDARD
 0
TEXT
 8
001
 62
3
 10
1341.018319
 20
447.621270
 40
2.000000
 1
P
 41
0.700000
 7
STANDARD
 0
TEXT
 8
001
 62
3
 10
1343.553605
 20
447.621270
 40
2.000000
 1
P
 41
0.700000
 7
STANDARD
 0
TEXT
 8
001
 62
3
 10
1346.088891
 20
447.621270
 40
2.000000
 1
D
 41
0.700000
 7
STANDARD
 0
TEXT
 8
001
 62
3
 10
1351.457574
 20
447.621270
 40
2.000000
 1
C
 41
0.700000
 7
STANDARD
 0
TEXT
 8
001
 62
3
 10
1353.992861
 20
447.621270
 40
2.000000
 1
H
 41
0.700000
 7
STANDARD
 0
TEXT
 8
001
 62
3
 10
1356.528147
 20
447.621270
 40
2.000000
 1
C
 41
0.700000
 7
STANDARD
 0
TEXT
 8
001
 62
3
 10
1359.063433
 20
447.621270
 40
2.000000
 1
K
 41
0.700000
 7
STANDARD
 0
TEXT
 8
001
 62
3
 10
1364.737400
 20
447.621270
 40
2.000000
 1
DESN
 41
1.216763
 7
STANDARD
 0
TEXT
 8
001
 62
3
 10
1279.731041
 20
418.274772
 40
2.000000
 1
NICHIDO IND.CO.LTD
 41
1.274876
 7
STANDARD
 0
LINE
 8
001
 62
3
 10
1290.114070
 20
449.056829
 11
1290.114070
 21
428.416154
 0
LINE
 8
001
 62
3
 10
1336.472715
 20
421.416154
 11
1336.472715
 21
411.750431
 0
LINE
 8
001
 62
3
 10
1290.114070
 20
449.416154
 11
1290.114070
 21
451.416154
 0
LINE
 8
001
 62
3
 10
1336.472715
 20
449.416154
 11
1336.472715
 21
451.416154
 0
LINE
 8
001
 62
3
 10
1349.472715
 20
449.416154
 11
1349.472715
 21
451.416154
 0
LINE
 8
001
 62
3
 10
1362.472715
 20
449.416154
 11
1362.472715
 21
451.416154
 0
LINE
 8
001
 62
3
 10
1349.472715
 20
428.416154
 11
1349.472715
 21
421.416154
 0
TEXT
 8
001
 62
3
 10
1337.585159
 20
422.280840
 40
3.200000
 1
作成日
 41
1.017226
 7
STANDARD
 0
LINE
 8
001
 62
3
 10
1388.172078
 20
451.416154
 11
1276.868636
 21
451.416154
 0
LINE
 8
001
 62
3
 10
1375.472715
 20
428.416154
 11
1375.472715
 21
451.416154
 0
TEXT
 8
001
 62
3
 10
1378.796518
 20
447.707088
 40
1.800000
 1
D
 41
0.666667
 7
STANDARD
 0
TEXT
 8
001
 62
3
 10
1381.613146
 20
447.707088
 40
1.800000
 1
E
 41
0.666667
 7
STANDARD
 0
TEXT
 8
001
 62
3
 10
1384.429774
 20
447.707088
 40
1.800000
 1
F
 41
0.666667
 7
STANDARD
 0
TEXT
 8
001
 62
3
 10
1378.796518
 20
443.714535
 40
3.200000
 1
製図
 41
1.076369
 7
STANDARD
 0
LINE
 8
001
 62
3
 10
1276.868636
 20
451.416154
 11
1276.868636
 21
411.750431
 0
TEXT
 8
001
 62
3
 10
1278.245288
 20
412.082896
 40
5.000000
 1
日動工業株式会社
 41
0.833333
 7
STANDARD
 0
LINE
 8
001
 62
3
 10
1319.751039
 20
421.416154
 11
1319.751039
 21
411.750431
 0
LINE
 8
001
 62
3
 10
1319.751039
 20
416.583292
 11
1336.472715
 21
416.583292
 0
TEXT
 8
001
 62
3
 10
1320.337641
 20
417.399723
 40
3.200000
 1
出図コード
 41
0.835686
 7
STANDARD
 0
LINE
 8
001
 62
3
 10
1384.535811
 20
421.416154
 11
1353.056264
 21
421.416154
 0
LINE
 8
001
 62
3
 10
1384.535811
 20
421.416154
 11
1388.172078
 21
421.416154
 0
LINE
 8
001
 62
3
 10
1292.015007
 20
442.416154
 11
1276.868636
 21
442.416154
 0
LINE
 8
001
 62
3
 10
1334.286861
 20
442.416154
 11
1388.172078
 21
442.416154
 0
LINE
 8
001
 62
3
 10
1295.600530
 20
442.416154
 11
1292.015007
 21
442.416154
 0
LINE
 8
001
 62
3
 10
1330.705308
 20
442.416154
 11
1295.600530
 21
442.416154
 0
LINE
 8
001
 62
3
 10
1330.705308
 20
442.416154
 11
1334.286861
 21
442.416154
 0
LINE
 8
001
 62
3
 10
1295.600530
 20
435.416154
 11
1276.868636
 21
435.416154
 0
LINE
 8
001
 62
3
 10
1330.617953
 20
435.416154
 11
1295.600530
 21
435.416154
 0
LINE
 8
001
 62
3
 10
1330.617953
 20
435.416154
 11
1336.472715
 21
435.416154
 0
LINE
 8
001
 62
3
 10
1323.069692
 20
421.416154
 11
1276.868636
 21
421.416154
 0
LINE
 8
001
 62
3
 10
1332.837563
 20
421.416154
 11
1323.069692
 21
421.416154
 0
LINE
 8
001
 62
3
 10
1332.837563
 20
421.416154
 11
1353.056264
 21
421.416154
 0
LINE
 8
001
 62
3
 10
1292.273101
 20
428.416154
 11
1276.868636
 21
428.416154
 0
LINE
 8
001
 62
3
 10
1306.730345
 20
428.416154
 11
1292.273101
 21
428.416154
 0
LINE
 8
001
 62
3
 10
1306.730345
 20
428.416154
 11
1388.172078
 21
428.416154
 0
TEXT
 8
001
 62
3
 10
1320.205093
 20
412.352625
 40
3.200000
 1
ZK-A4X
 41
0.811285
 7
STANDARD
 0
LINE
 8
001
 62
3
 10
1232.028559
 20
591.687287
 11
1111.272114
 21
591.687287
 0
LINE
 8
001
 62
3
 10
1388.272114
 20
591.687287
 11
1266.833652
 21
591.687287
 0
LINE
 8
001
 62
3
 10
1388.272114
 20
411.687287
 11
1388.272114
 21
591.687287
 0
LINE
 8
001
 62
3
 10
1341.811111
 20
411.687287
 11
1111.272114
 21
411.687287
 0
LINE
 8
001
 62
3
 10
1386.893219
 20
411.687287
 11
1388.272114
 21
411.687287
 0
LINE
 8
001
 62
3
 10
1382.764109
 20
411.687287
 11
1386.893219
 21
411.687287
 0
LINE
 8
001
 62
3
 10
1345.940221
 20
411.687287
 11
1382.764109
 21
411.687287
 0
LINE
 8
001
 62
3
 10
1345.940221
 20
411.687287
 11
1341.811111
 21
411.687287
 0
LINE
 8
001
 62
3
 10
1111.272114
 20
591.687287
 11
1111.272114
 21
411.687287
 0
TEXT
 8
001
 62
3
 10
1278.686032
 20
447.585679
 40
2.000000
 1
CONPONENTS
 41
0.533160
 7
STANDARD
 0
TEXT
 8
001
 62
3
 10
1278.336306
 20
428.653503
 40
3.000000
 1
材
 41
0.833333
 7
STANDARD
 0
TEXT
 8
001
 62
3
 10
1285.871949
 20
428.653503
 40
3.000000
 1
質
 41
0.833333
 7
STANDARD
 0
TEXT
 8
001
 62
3
 10
1278.424377
 20
439.278027
 40
2.000000
 1
MODEL
 41
1.031073
 7
STANDARD
 0
TEXT
 8
001
 62
3
 10
1278.336306
 20
432.335811
 40
2.000000
 1
MATERIAL
 41
0.659278
 7
STANDARD
 0
TEXT
 8
001
 62
3
 10
1309.643586
 20
428.653503
 40
3.000000
 1
備
 41
0.833333
 7
STANDARD
 0
TEXT
 8
001
 62
3
 10
1316.376588
 20
428.653503
 40
3.000000
 1
考
 41
0.833333
 7
STANDARD
 0
TEXT
 8
001
 62
3
 10
1309.396577
 20
432.335811
 40
2.000000
 1
REMARKS
 41
0.675794
 7
STANDARD
 0
TEXT
 8
001
 62
3
 10
1279.926035
 20
425.415690
 40
2.000000
 1
3AD
 41
1.426140
 7
STANDARD
 0
TEXT
 8
001
 62
3
 10
1289.237015
 20
425.581424
 40
2.000000
 1
ANGLE
 41
1.669884
 7
STANDARD
 0
TEXT
 8
001
 62
3
 10
1310.170902
 20
425.204583
 40
2.000000
 1
SCALE
 41
0.771963
 7
STANDARD
 0
TEXT
 8
001
 62
3
 10
1279.612165
 20
421.416154
 40
3.000000
 1
第
 41
0.833333
 7
STANDARD
 0
TEXT
 8
001
 62
3
 10
1287.399015
 20
421.416154
 40
3.000000
 1
三
 41
0.833333
 7
STANDARD
 0
TEXT
 8
001
 62
3
 10
1295.185865
 20
421.416154
 40
3.000000
 1
角
 41
0.833333
 7
STANDARD
 0
TEXT
 8
001
 62
3
 10
1302.972715
 20
421.416154
 40
3.000000
 1
法
 41
0.833333
 7
STANDARD
 0
TEXT
 8
001
 62
3
 10
1310.034107
 20
421.704583
 40
3.000000
 1
尺
 41
0.833333
 7
STANDARD
 0
TEXT
 8
001
 62
3
 10
1316.767108
 20
421.704583
 40
3.000000
 1
度
 41
0.833333
 7
STANDARD
 0
TEXT
 8
001
 62
3
 10
1339.350379
 20
443.873882
 40
3.000000
 1
承認
 41
1.089473
 7
STANDARD
 0
TEXT
 8
001
 62
3
 10
1352.593259
 20
443.816154
 40
3.000000
 1
検図
 41
0.931761
 7
STANDARD
 0
TEXT
 8
001
 62
3
 10
1365.593656
 20
443.816154
 40
3.000000
 1
設
 41
0.833333
 7
STANDARD
 0
TEXT
 8
001
 62
3
 10
1370.083524
 20
443.816154
 40
3.000000
 1
計
 41
0.833333
 7
STANDARD
 0
TEXT
 8
001
 62
3
 10
1278.617504
 20
443.104910
 40
3.000000
 1
品
 41
0.833333
 7
STANDARD
 0
TEXT
 8
001
 62
3
 10
1286.153146
 20
443.104910
 40
3.000000
 1
名
 41
0.833333
 7
STANDARD
 0
TEXT
 8
001
 62
3
 10
1278.424377
 20
435.645767
 40
3.000000
 1
型
 41
0.833333
 7
STANDARD
 0
TEXT
 8
001
 62
3
 10
1285.972467
 20
435.645767
 40
3.000000
 1
式
 41
0.833333
 7
STANDARD
 0
LINE
 8
001
 10
1386.596650
 20
577.281898
 11
1388.281524
 21
577.281898
 0
LINE
 8
001
 10
1314.786957
 20
587.181898
 11
1314.786957
 21
572.331898
 0
LINE
 8
001
 10
1378.348118
 20
577.281898
 11
1304.681524
 21
577.281898
 0
LINE
 8
001
 10
1376.683999
 20
587.181898
 11
1376.683999
 21
572.331898
 0
LINE
 8
001
 10
1332.392283
 20
587.181898
 11
1332.392283
 21
572.331898
 0
LINE
 8
001
 10
1386.596650
 20
577.281898
 11
1378.348118
 21
577.281898
 0
LINE
 8
001
 10
1304.681524
 20
582.231898
 11
1388.281524
 21
582.231898
 0
TEXT
 8
001
 62
3
 10
1112.660344
 20
412.357235
 40
4.500000
 1
No
 41
1.000000
 7
STANDARD
 0
TEXT
 8
001
 62
3
 10
1123.762048
 20
412.357235
 40
4.500000
 1
部品名
 41
0.833333
 7
STANDARD
 0
TEXT
 8
001
 62
3
 10
1153.280497
 20
412.357235
 40
4.500000
 1
材質
 41
0.833333
 7
STANDARD
 0
TEXT
 8
001
 62
3
 10
1175.012338
 20
412.357235
 40
4.500000
 1
備考
 41
0.833333
 7
STANDARD
 0
TEXT
 8
001
 62
3
 10
1213.914991
 20
412.357235
 40
4.500000
 1
数
 41
0.833333
 7
STANDARD
 0
LINE
 8
001
 62
3
 10
1219.441438
 20
437.687287
 11
1219.441438
 21
411.687287
 0
TEXT
 8
001
 10
1175.012338
 20
425.357235
 40
4.500000
 1
-
 41
1.000000
 7
STANDARD
 0
TEXT
 8
001
 10
1175.012338
 20
431.857235
 40
4.500000
 1
オス
 41
0.833333
 7
STANDARD
 0
TEXT
 8
001
 10
1213.914991
 20
418.857235
 40
4.500000
 1
1
 41
1.499999
 7
STANDARD
 0
TEXT
 8
001
 10
1213.914991
 20
425.357235
 40
4.500000
 1
1
 41
1.499999
 7
STANDARD
 0
TEXT
 8
001
 10
1213.914991
 20
431.857235
 40
4.500000
 1
1
 41
1.499999
 7
STANDARD
 0
LINE
 8
001
 10
1173.624108
 20
437.687287
 11
1173.624108
 21
411.687287
 0
LINE
 8
001
 10
1212.526761
 20
437.687287
 11
1212.526761
 21
411.687287
 0
TEXT
 8
001
 10
1117.160344
 20
418.857235
 40
4.500000
 1
1
 41
1.499999
 7
STANDARD
 0
TEXT
 8
001
 10
1117.160344
 20
425.357235
 40
4.500000
 1
2
 41
1.000000
 7
STANDARD
 0
TEXT
 8
001
 10
1117.160344
 20
431.857235
 40
4.500000
 1
3
 41
1.000000
 7
STANDARD
 0
TEXT
 8
001
 10
1123.762048
 20
418.857235
 40
4.500000
 1
電線
 41
0.833333
 7
STANDARD
 0
TEXT
 8
001
 10
1123.762048
 20
431.857235
 40
4.500000
 1
ジョイント
 41
0.833333
 7
STANDARD
 0
TEXT
 8
001
 10
1153.280497
 20
425.357235
 40
4.500000
 1
-
 41
1.000000
 7
STANDARD
 0
TEXT
 8
001
 10
1153.280497
 20
431.857235
 40
4.500000
 1
-
 41
1.000000
 7
STANDARD
 0
LINE
 8
001
 10
1122.373818
 20
437.687287
 11
1122.373818
 21
411.687287
 0
LINE
 8
001
 10
1151.892267
 20
437.687287
 11
1151.892267
 21
411.687287
 0
LINE
 8
001
 62
3
 10
1319.196409
 20
522.618526
 11
1305.696409
 21
521.118526
 0
LINE
 8
001
 62
3
 10
1319.196409
 20
514.518526
 11
1305.696409
 21
516.018526
 0
LINE
 8
001
 62
3
 10
1319.196409
 20
522.618526
 11
1332.696409
 21
522.618526
 0
LINE
 8
001
 62
3
 10
1343.396375
 20
520.308342
 11
1335.696409
 21
520.593526
 0
ARC
 8
001
 62
3
 10
1343.346409
 20
518.959267
 40
1.350000
 50
0.000000
 51
87.878904
 0
LINE
 8
001
 62
3
 10
1344.696409
 20
518.959267
 11
1344.696409
 21
518.177785
 0
ARC
 8
001
 62
3
 10
1343.346409
 20
518.177785
 40
1.350000
 50
272.121096
 51
0.000000
 0
LINE
 8
001
 62
3
 10
1343.396375
 20
516.828710
 11
1335.696409
 21
516.543526
 0
LINE
 8
001
 62
3
 10
1335.696409
 20
521.868526
 11
1335.696409
 21
515.268526
 0
ARC
 8
001
 62
3
 10
1335.246409
 20
515.268526
 40
0.450000
 50
270.000000
 51
0.000000
 0
LINE
 8
001
 62
3
 10
1332.696409
 20
514.818526
 11
1335.246409
 21
514.818526
 0
LINE
 8
001
 62
3
 10
1332.696409
 20
522.618526
 11
1332.696409
 21
514.518526
 0
LINE
 8
001
 62
3
 10
1332.696409
 20
522.318526
 11
1335.246409
 21
522.318526
 0
ARC
 8
001
 62
3
 10
1335.246409
 20
521.868526
 40
0.450000
 50
0.000000
 51
90.000000
 0
LINE
 8
001
 62
3
 10
1319.196409
 20
514.518526
 11
1332.696409
 21
514.518526
 0
LINE
 8
001
 62
3
 10
1305.696409
 20
521.118526
 11
1305.696409
 21
516.018526
 0
LINE
 8
001
 62
3
 10
1250.566733
 20
516.768526
 11
1208.172442
 21
516.768526
 0
LINE
 8
001
 62
3
 10
1259.790001
 20
516.768526
 11
1305.696409
 21
516.768526
 0
LINE
 8
001
 62
3
 10
1250.063863
 20
520.368526
 11
1208.172442
 21
520.368526
 0
LINE
 8
001
 62
3
 10
1259.234090
 20
520.368526
 11
1305.696409
 21
520.368526
  0
POLYLINE
  8
001
 66
1
  0
VERTEX
  8
001
 10
1251.112588
 20
521.712016
  0
VERTEX
  8
001
 10
1250.178954
 20
520.558349
  0
VERTEX
  8
001
 10
1249.753782
 20
519.317928
  0
VERTEX
  8
001
 10
1250.306104
 20
517.488681
  0
VERTEX
  8
001
 10
1250.594948
 20
515.759150
  0
VERTEX
  8
001
 10
1250.209416
 20
515.155078
  0
VERTEX
  8
001
 10
1249.624372
 20
514.594459
  0
SEQEND
  8
001
  0
POLYLINE
  8
001
 66
1
  0
VERTEX
  8
001
 10
1260.318417
 20
521.776721
  0
VERTEX
  8
001
 10
1259.384784
 20
520.623054
  0
VERTEX
  8
001
 10
1258.959611
 20
519.382633
  0
VERTEX
  8
001
 10
1259.511933
 20
517.553387
  0
VERTEX
  8
001
 10
1259.800777
 20
515.823855
  0
VERTEX
  8
001
 10
1259.415245
 20
515.219783
  0
VERTEX
  8
001
 10
1258.830201
 20
514.659164
  0
SEQEND
  8
001
 0
TEXT
 8
001
 62
3
 10
1353.525230
 20
422.816555
 40
3.200000
 1
2008.10.01
 41
1.363637
 7
STANDARD
 0
TEXT
 8
001
 62
3
 10
1322.216790
 20
422.959516
 40
3.200000
 1
FREE
 41
1.000000
 7
STANDARD
 0
LINE
 8
001
 62
3
 10
1362.572751
 20
451.416154
 11
1362.572751
 21
457.416154
 0
LINE
 8
001
 62
3
 10
1336.572751
 20
451.416154
 11
1336.572751
 21
457.416154
 0
LINE
 8
001
 62
3
 10
1388.272114
 20
457.416154
 11
1336.572751
 21
457.416154
 0
TEXT
 8
001
 62
3
 10
1342.568349
 20
452.212503
 40
4.500000
 1
コード
 41
0.833333
 7
STANDARD
 0
LINE
 8
001
 10
1309.499228
 20
581.492653
 11
1307.599228
 21
578.201756
 0
LINE
 8
001
 10
1309.499228
 20
581.492653
 11
1311.399228
 21
578.201756
 0
LINE
 8
001
 10
1307.599228
 20
578.201756
 11
1311.399228
 21
578.201756
 0
LINE
 8
001
 10
1309.499228
 20
576.336442
 11
1307.599228
 21
573.045546
 0
LINE
 8
001
 10
1309.499228
 20
576.336442
 11
1311.399228
 21
573.045546
 0
LINE
 8
001
 10
1307.599228
 20
573.045546
 11
1311.399228
 21
573.045546
 0
POLYLINE
 8
001
 66
1
 0
VERTEX
 8
001
 10
1326.630692
 20
524.670722
 0
VERTEX
 8
001
 10
1326.355596
 20
522.618526
 0
VERTEX
 8
001
 10
1327.619934
 20
524.258232
 0
SEQEND
 8
001
 0
LINE
 8
001
 10
1326.355596
 20
522.618526
 11
1329.287518
 21
529.649919
 0
CIRCLE
 8
001
 10
1331.211811
 20
534.264797
 40
5.000000
 0
TEXT
 8
001
 62
4
 10
1328.211811
 20
530.773888
 40
6.981818
 1
3
 41
1.000000
 7
STANDARD
 0
POLYLINE
 8
001
 66
1
 0
VERTEX
 8
001
 10
1236.139722
 20
522.412898
 0
VERTEX
 8
001
 10
1235.811499
 20
520.368526
 0
VERTEX
 8
001
 10
1237.117934
 20
521.974893
 0
SEQEND
 8
001
 0
LINE
 8
001
 10
1235.811499
 20
520.368526
 11
1240.492169
 21
530.822038
 0
CIRCLE
 8
001
 10
1242.535490
 20
535.385462
 40
5.000000
 0
TEXT
 8
001
 62
4
 10
1239.535490
 20
531.894553
 40
6.981818
 1
1
 41
1.499999
 7
STANDARD
 0
LINE
 8
001
 10
1200.012349
 20
517.740767
 11
1197.116816
 21
517.740767
 0
ARC
 8
001
 10
1197.116816
 20
520.620767
 40
2.880000
 50
259.638870
 51
270.000000
 0
ARC
 8
001
 10
1191.957618
 20
492.402704
 40
25.805822
 50
79.638870
 51
90.006317
 0
LINE
 8
001
 10
1187.500748
 20
518.208526
 11
1191.954931
 21
518.208526
 0
ARC
 8
001
 10
1188.361102
 20
530.134550
 40
11.957017
 50
220.870209
 51
265.873781
 0
ARC
 8
001
 10
1174.488033
 20
510.820413
 40
9.832358
 50
34.431831
 51
71.431556
 0
ARC
 8
001
 10
1214.945855
 20
538.840042
 40
39.384604
 50
214.904417
 51
245.470909
 0
ARC
 8
001
 10
1199.814034
 20
509.325655
 40
6.432325
 50
259.076611
 51
292.824200
 0
ARC
 8
001
 10
1203.426330
 20
500.742491
 40
2.880000
 50
60.016052
 51
112.824200
 0
LINE
 8
001
 10
1204.865632
 20
503.237047
 11
1208.021734
 21
501.416049
 0
ARC
 8
001
 10
1207.122171
 20
499.856952
 40
1.800000
 50
35.640106
 51
60.016052
 0
LINE
 8
001
 10
1208.585018
 20
500.905797
 11
1209.579764
 21
499.518404
 0
LINE
 8
001
 10
1213.551998
 20
508.544880
 11
1214.992373
 21
508.667409
 0
ARC
 8
001
 10
1212.917868
 20
512.100843
 40
3.612063
 50
248.472738
 51
280.111188
 0
LINE
 8
001
 10
1209.698208
 20
509.426283
 11
1211.592444
 21
508.740747
 0
ARC
 8
001
 10
1210.199092
 20
511.390957
 40
2.027518
 50
178.324262
 51
255.697400
 0
LINE
 8
001
 10
1220.778579
 20
503.157855
 11
1226.268892
 21
500.957282
 0
LINE
 8
001
 10
1216.856086
 20
495.454460
 11
1222.120495
 21
492.412339
 0
CIRCLE
 8
001
 10
1208.172442
 20
505.981628
 40
1.163255
 0
POLYLINE
 8
001
 66
1
 0
VERTEX
 8
001
 10
1192.420823
 20
521.212448
 0
VERTEX
 8
001
 10
1193.708280
 20
519.590831
 0
VERTEX
 8
001
 10
1193.404118
 20
521.638921
 0
SEQEND
 8
001
 0
LINE
 8
001
 10
1193.708280
 20
519.590831
 11
1189.262642
 21
529.840890
 0
CIRCLE
 8
001
 10
1187.273118
 20
534.428023
 40
5.000000
 0
TEXT
 8
001
 62
4
 10
1184.273118
 20
530.937114
 40
6.981818
 1
2
 41
1.000000
 7
STANDARD
 0
TEXT
 8
001
 10
1153.280497
 20
418.857235
 40
4.500000
 1
WCT
 41
0.900000
 7
STANDARD
 0
TEXT
 8
001
 10
1123.762048
 20
425.357235
 40
4.500000
 1
アースホルダ
 41
0.833333
 7
STANDARD
 0
LINE
 8
001
 62
3
 10
1219.441438
 20
418.187287
 11
1111.272114
 21
418.187287
 0
LINE
 8
001
 62
3
 10
1219.441438
 20
437.687287
 11
1111.272114
 21
437.687287
 0
LINE
 8
001
 10
1219.441438
 20
424.687287
 11
1111.272114
 21
424.687287
 0
LINE
 8
001
 10
1219.441438
 20
431.187287
 11
1111.272114
 21
431.187287
 0
TEXT
 8
001
 10
1175.012338
 20
418.857235
 40
4.500000
 1
３８ｓｑ×１０ｍ
 41
0.833333
 7
STANDARD
 0
TEXT
 8
001
 62
3
 10
1300.486731
 20
444.260692
 40
4.500000
 1
アースクリップ
 41
0.833333
 7
STANDARD
 0
TEXT
 8
001
 62
3
 10
1295.849857
 20
436.396520
 40
4.500000
 1
NA-EJ10K
 41
1.066667
 7
STANDARD
 0
TEXT
 8
001
 62
3
 10
1336.924492
 20
412.805326
 40
6.300000
 1
K-NA-EJ10K
 41
0.835422
 7
STANDARD
 0
TEXT
 8
001
 10
1364.559898
 20
452.060291
 40
4.500000
 1
52761
 41
1.071428
 7
STANDARD
 0
ENDSEC
 0
EOF
