  0
SECTION
  2
HEADER
  9
$ACADVER
  1
AC1015
  9
$ACADMAINTVER
 70
    20
  9
$DWGCODEPAGE
  3
ANSI_932
  9
$INSBASE
 10
0.0
 20
0.0
 30
0.0
  9
$EXTMIN
 10
1354.710012384285
 20
59.18449339721886
 30
0.0
  9
$EXTMAX
 10
1759.710012384285
 20
338.9597592972188
 30
0.0
  9
$LIMMIN
 10
0.0
 20
0.0
  9
$LIMMAX
 10
12.0
 20
9.0
  9
$ORTHOMODE
 70
     1
  9
$REGENMODE
 70
     1
  9
$FILLMODE
 70
     1
  9
$QTEXTMODE
 70
     0
  9
$MIRRTEXT
 70
     0
  9
$LTSCALE
 40
1.0
  9
$ATTMODE
 70
     1
  9
$TEXTSIZE
 40
3.2
  9
$TRACEWID
 40
0.05
  9
$TEXTSTYLE
  7
高3.2
  9
$CLAYER
  8
0
  9
$CELTYPE
  6
ByLayer
  9
$CECOLOR
 62
   256
  9
$CELTSCALE
 40
1.0
  9
$DISPSILH
 70
     0
  9
$DIMSCALE
 40
1.0
  9
$DIMASZ
 40
2.5
  9
$DIMEXO
 40
0.25
  9
$DIMDLI
 40
0.2
  9
$DIMRND
 40
0.0
  9
$DIMDLE
 40
0.0
  9
$DIMEXE
 40
1.25
  9
$DIMTP
 40
0.0
  9
$DIMTM
 40
0.0
  9
$DIMTXT
 40
3.0
  9
$DIMCEN
 40
0.0
  9
$DIMTSZ
 40
0.0
  9
$DIMTOL
 70
     0
  9
$DIMLIM
 70
     0
  9
$DIMTIH
 70
     0
  9
$DIMTOH
 70
     0
  9
$DIMSE1
 70
     0
  9
$DIMSE2
 70
     0
  9
$DIMTAD
 70
     3
  9
$DIMZIN
 70
     8
  9
$DIMBLK
  1
Open30
  9
$DIMASO
 70
     1
  9
$DIMSHO
 70
     1
  9
$DIMPOST
  1

  9
$DIMAPOST
  1

  9
$DIMALT
 70
     0
  9
$DIMALTD
 70
     3
  9
$DIMALTF
 40
0.03937007874016
  9
$DIMLFAC
 40
1.0
  9
$DIMTOFL
 70
     1
  9
$DIMTVP
 40
0.0
  9
$DIMTIX
 70
     0
  9
$DIMSOXD
 70
     0
  9
$DIMSAH
 70
     0
  9
$DIMBLK1
  1

  9
$DIMBLK2
  1

  9
$DIMSTYLE
  2
1：1
  9
$DIMCLRD
 70
     0
  9
$DIMCLRE
 70
     0
  9
$DIMCLRT
 70
     4
  9
$DIMTFAC
 40
1.0
  9
$DIMGAP
 40
0.625
  9
$DIMJUST
 70
     0
  9
$DIMSD1
 70
     0
  9
$DIMSD2
 70
     0
  9
$DIMTOLJ
 70
     0
  9
$DIMTZIN
 70
     8
  9
$DIMALTZ
 70
     0
  9
$DIMALTTZ
 70
     0
  9
$DIMUPT
 70
     1
  9
$DIMDEC
 70
     2
  9
$DIMTDEC
 70
     2
  9
$DIMALTU
 70
     2
  9
$DIMALTTD
 70
     3
  9
$DIMTXSTY
  7
Standard
  9
$DIMAUNIT
 70
     0
  9
$DIMADEC
 70
     1
  9
$DIMALTRND
 40
0.0
  9
$DIMAZIN
 70
     2
  9
$DIMDSEP
 70
    46
  9
$DIMATFIT
 70
     0
  9
$DIMFRAC
 70
     0
  9
$DIMLDRBLK
  1
Open30
  9
$DIMLUNIT
 70
     2
  9
$DIMLWD
 70
    -2
  9
$DIMLWE
 70
    -2
  9
$DIMTMOVE
 70
     0
  9
$LUNITS
 70
     2
  9
$LUPREC
 70
     4
  9
$SKETCHINC
 40
0.1
  9
$FILLETRAD
 40
0.0
  9
$AUNITS
 70
     0
  9
$AUPREC
 70
     0
  9
$MENU
  1
.
  9
$ELEVATION
 40
0.0
  9
$PELEVATION
 40
0.0
  9
$THICKNESS
 40
0.0
  9
$LIMCHECK
 70
     0
  9
$CHAMFERA
 40
0.0
  9
$CHAMFERB
 40
0.0
  9
$CHAMFERC
 40
0.0
  9
$CHAMFERD
 40
0.0
  9
$SKPOLY
 70
     0
  9
$TDCREATE
 40
2457647.723814780
  9
$TDUCREATE
 40
2457647.348814780
  9
$TDUPDATE
 40
2457658.619013056
  9
$TDUUPDATE
 40
2457658.244013056
  9
$TDINDWG
 40
0.2437216782
  9
$TDUSRTIMER
 40
0.2437212153
  9
$USRTIMER
 70
     1
  9
$ANGBASE
 50
0.0
  9
$ANGDIR
 70
     0
  9
$PDMODE
 70
     0
  9
$PDSIZE
 40
0.0
  9
$PLINEWID
 40
0.0
  9
$SPLFRAME
 70
     0
  9
$SPLINETYPE
 70
     6
  9
$SPLINESEGS
 70
     8
  9
$HANDSEED
  5
1A93
  9
$SURFTAB1
 70
     6
  9
$SURFTAB2
 70
     6
  9
$SURFTYPE
 70
     6
  9
$SURFU
 70
     6
  9
$SURFV
 70
     6
  9
$UCSBASE
  2

  9
$UCSNAME
  2

  9
$UCSORG
 10
0.0
 20
0.0
 30
0.0
  9
$UCSXDIR
 10
1.0
 20
0.0
 30
0.0
  9
$UCSYDIR
 10
0.0
 20
1.0
 30
0.0
  9
$UCSORTHOREF
  2

  9
$UCSORTHOVIEW
 70
     0
  9
$UCSORGTOP
 10
0.0
 20
0.0
 30
0.0
  9
$UCSORGBOTTOM
 10
0.0
 20
0.0
 30
0.0
  9
$UCSORGLEFT
 10
0.0
 20
0.0
 30
0.0
  9
$UCSORGRIGHT
 10
0.0
 20
0.0
 30
0.0
  9
$UCSORGFRONT
 10
0.0
 20
0.0
 30
0.0
  9
$UCSORGBACK
 10
0.0
 20
0.0
 30
0.0
  9
$PUCSBASE
  2

  9
$PUCSNAME
  2

  9
$PUCSORG
 10
0.0
 20
0.0
 30
0.0
  9
$PUCSXDIR
 10
1.0
 20
0.0
 30
0.0
  9
$PUCSYDIR
 10
0.0
 20
1.0
 30
0.0
  9
$PUCSORTHOREF
  2

  9
$PUCSORTHOVIEW
 70
     0
  9
$PUCSORGTOP
 10
0.0
 20
0.0
 30
0.0
  9
$PUCSORGBOTTOM
 10
0.0
 20
0.0
 30
0.0
  9
$PUCSORGLEFT
 10
0.0
 20
0.0
 30
0.0
  9
$PUCSORGRIGHT
 10
0.0
 20
0.0
 30
0.0
  9
$PUCSORGFRONT
 10
0.0
 20
0.0
 30
0.0
  9
$PUCSORGBACK
 10
0.0
 20
0.0
 30
0.0
  9
$USERI1
 70
     0
  9
$USERI2
 70
     0
  9
$USERI3
 70
     0
  9
$USERI4
 70
     0
  9
$USERI5
 70
     0
  9
$USERR1
 40
0.0
  9
$USERR2
 40
0.0
  9
$USERR3
 40
0.0
  9
$USERR4
 40
0.0
  9
$USERR5
 40
0.0
  9
$WORLDVIEW
 70
     1
  9
$SHADEDGE
 70
     3
  9
$SHADEDIF
 70
    70
  9
$TILEMODE
 70
     1
  9
$MAXACTVP
 70
    64
  9
$PINSBASE
 10
0.0
 20
0.0
 30
0.0
  9
$PLIMCHECK
 70
     0
  9
$PEXTMIN
 10
0.0
 20
0.0
 30
0.0
  9
$PEXTMAX
 10
0.0
 20
0.0
 30
0.0
  9
$PLIMMIN
 10
0.0
 20
0.0
  9
$PLIMMAX
 10
12.0
 20
9.0
  9
$UNITMODE
 70
     0
  9
$VISRETAIN
 70
     1
  9
$PLINEGEN
 70
     0
  9
$PSLTSCALE
 70
     1
  9
$TREEDEPTH
 70
  3020
  9
$CMLSTYLE
  2
Standard
  9
$CMLJUST
 70
     0
  9
$CMLSCALE
 40
1.0
  9
$PROXYGRAPHICS
 70
     1
  9
$MEASUREMENT
 70
     1
  9
$CELWEIGHT
370
    -1
  9
$ENDCAPS
280
     0
  9
$JOINSTYLE
280
     0
  9
$LWDISPLAY
290
     0
  9
$INSUNITS
 70
     1
  9
$HYPERLINKBASE
  1

  9
$STYLESHEET
  1

  9
$XEDIT
290
     1
  9
$CEPSNTYPE
380
     0
  9
$PSTYLEMODE
290
     1
  9
$FINGERPRINTGUID
  2
{9F0CE426-F687-422C-9E65-2A76E6EAAF6D}
  9
$VERSIONGUID
  2
{FC8053C4-3B69-4424-9B38-34582A31E6E4}
  9
$EXTNAMES
290
     1
  9
$PSVPSCALE
 40
0.0
  9
$OLESTARTUP
290
     0
  0
ENDSEC
  0
SECTION
  2
CLASSES
  0
CLASS
  1
ACDBDICTIONARYWDFLT
  2
AcDbDictionaryWithDefault
  3
ObjectDBX Classes
 90
        0
280
     0
281
     0
  0
CLASS
  1
ACDBPLACEHOLDER
  2
AcDbPlaceHolder
  3
ObjectDBX Classes
 90
        0
280
     0
281
     0
  0
CLASS
  1
LAYOUT
  2
AcDbLayout
  3
ObjectDBX Classes
 90
        0
280
     0
281
     0
  0
CLASS
  1
DICTIONARYVAR
  2
AcDbDictionaryVar
  3
ObjectDBX Classes
 90
        0
280
     0
281
     0
  0
CLASS
  1
TABLESTYLE
  2
AcDbTableStyle
  3
ObjectDBX Classes
 90
     4095
280
     0
281
     0
  0
CLASS
  1
MATERIAL
  2
AcDbMaterial
  3
ObjectDBX Classes
 90
     1153
280
     0
281
     0
  0
CLASS
  1
VISUALSTYLE
  2
AcDbVisualStyle
  3
ObjectDBX Classes
 90
     4095
280
     0
281
     0
  0
CLASS
  1
SORTENTSTABLE
  2
AcDbSortentsTable
  3
ObjectDBX Classes
 90
        0
280
     0
281
     0
  0
CLASS
  1
DIMASSOC
  2
AcDbDimAssoc
  3
"AcDbDimAssoc|Product Desc:     AcDim ARX App For Dimension|Company:          Autodesk, Inc.|WEB Address:      www.autodesk.com"
 90
        0
280
     0
281
     0
  0
CLASS
  1
SCALE
  2
AcDbScale
  3
ObjectDBX Classes
 90
     1153
280
     0
281
     0
  0
CLASS
  1
MLEADERSTYLE
  2
AcDbMLeaderStyle
  3
ACDB_MLEADERSTYLE_CLASS
 90
     4095
280
     0
281
     0
  0
CLASS
  1
CELLSTYLEMAP
  2
AcDbCellStyleMap
  3
ObjectDBX Classes
 90
     1152
280
     0
281
     0
  0
CLASS
  1
AEC_REFEDIT_STATUS_TRACKER
  2
AecDbRefEditStatusTracker
  3
AecArchBase60|Product Desc: Autodesk Architectural Desktop 2007 |Company: Autodesk,Inc. |WEB Address: www.autodesk.com
 90
      129
280
     0
281
     0
  0
CLASS
  1
NPOCOLLECTION
  2
AcDbImpNonPersistentObjectsCollection
  3
ObjectDBX Classes
 90
     1153
280
     0
281
     0
  0
CLASS
  1
IMAGEDEF
  2
AcDbRasterImageDef
  3
ISM
 90
        0
280
     0
281
     0
  0
CLASS
  1
RASTERVARIABLES
  2
AcDbRasterVariables
  3
ISM
 90
        0
280
     0
281
     0
  0
CLASS
  1
IMAGEDEF_REACTOR
  2
AcDbRasterImageDefReactor
  3
ISM
 90
    32769
280
     0
281
     0
  0
CLASS
  1
IMAGE
  2
AcDbRasterImage
  3
ISM
 90
    34943
280
     0
281
     1
  0
ENDSEC
  0
SECTION
  2
TABLES
  0
TABLE
  2
VPORT
  5
8
330
0
100
AcDbSymbolTable
 70
     1
  0
VPORT
  5
94
330
8
100
AcDbSymbolTableRecord
100
AcDbViewportTableRecord
  2
*Active
 70
     0
 10
0.0
 20
0.0
 11
1.0
 21
1.0
 12
1563.762953986159
 22
229.5081226311149
 13
0.0
 23
0.0
 14
0.5
 24
0.5
 15
0.5
 25
0.5
 16
0.0
 26
0.0
 36
1.0
 17
0.0
 27
0.0
 37
0.0
 40
712.8029284833039
 41
1.615384615384615
 42
50.0
 43
0.0
 44
0.0
 50
0.0
 51
0.0
 71
     0
 72
  1000
 73
     1
 74
     2
 75
     0
 76
     0
 77
     0
 78
     0
281
     0
 65
     1
110
0.0
120
0.0
130
0.0
111
1.0
121
0.0
131
0.0
112
0.0
122
1.0
132
0.0
 79
     0
146
0.0
  0
ENDTAB
  0
TABLE
  2
LTYPE
  5
5
330
0
100
AcDbSymbolTable
 70
     4
  0
LTYPE
  5
14
330
5
100
AcDbSymbolTableRecord
100
AcDbLinetypeTableRecord
  2
ByBlock
 70
     0
  3

 72
    65
 73
     0
 40
0.0
  0
LTYPE
  5
15
330
5
100
AcDbSymbolTableRecord
100
AcDbLinetypeTableRecord
  2
ByLayer
 70
     0
  3

 72
    65
 73
     0
 40
0.0
  0
LTYPE
  5
16
330
5
100
AcDbSymbolTableRecord
100
AcDbLinetypeTableRecord
  2
Continuous
 70
     0
  3
Solid line
 72
    65
 73
     0
 40
0.0
  0
LTYPE
  5
119D
330
5
100
AcDbSymbolTableRecord
100
AcDbLinetypeTableRecord
  2
CENTER
 70
     0
  3
Center ____ _ ____ _ ____ _ ____ _ ____ _ ____
 72
    65
 73
     4
 40
50.8
 49
31.75
 74
     0
 49
-6.349999999999997
 74
     0
 49
6.349999999999997
 74
     0
 49
-6.349999999999997
 74
     0
  0
LTYPE
  5
119E
330
5
100
AcDbSymbolTableRecord
100
AcDbLinetypeTableRecord
  2
HIDDEN
 70
     0
  3
Hidden __ __ __ __ __ __ __ __ __ __ __ __ __ _
 72
    65
 73
     2
 40
9.524999999999996
 49
6.349999999999997
 74
     0
 49
-3.174999999999998
 74
     0
  0
LTYPE
  5
119F
330
5
100
AcDbSymbolTableRecord
100
AcDbLinetypeTableRecord
  2
PHANTOM
 70
     0
  3
Phantom ______  __  __  ______  __  __  ______
 72
    65
 73
     6
 40
63.5
 49
31.75
 74
     0
 49
-6.349999999999997
 74
     0
 49
6.349999999999997
 74
     0
 49
-6.349999999999997
 74
     0
 49
6.349999999999997
 74
     0
 49
-6.349999999999997
 74
     0
  0
ENDTAB
  0
TABLE
  2
LAYER
  5
2
102
{ACAD_XDICTIONARY
360
DD
102
}
330
0
100
AcDbSymbolTable
 70
     2
  0
LAYER
  5
10
102
{ACAD_XDICTIONARY
360
8E9
102
}
330
2
100
AcDbSymbolTableRecord
100
AcDbLayerTableRecord
  2
0
 70
     0
 62
     7
  6
Continuous
370
    -3
390
F
  0
LAYER
  5
D8
330
2
100
AcDbSymbolTableRecord
100
AcDbLayerTableRecord
  2
Defpoints
 70
     0
 62
     7
  6
Continuous
290
     0
370
    -3
390
F
  0
ENDTAB
  0
TABLE
  2
STYLE
  5
3
330
0
100
AcDbSymbolTable
 70
     7
  0
STYLE
  5
11
330
3
100
AcDbSymbolTableRecord
100
AcDbTextStyleTableRecord
  2
Standard
 70
     0
 40
0.0
 41
1.0
 50
0.0
 71
     0
 42
0.2
  3
txt.shx
  4
bigfont.shx
  0
STYLE
  5
11D
330
3
100
AcDbSymbolTableRecord
100
AcDbTextStyleTableRecord
  2
高3.2
 70
     0
 40
3.2
 41
1.0
 50
0.0
 71
     0
 42
3.2
  3
txt.shx
  4
bigfont.shx
  0
STYLE
  5
11E
330
3
100
AcDbSymbolTableRecord
100
AcDbTextStyleTableRecord
  2
高6.3
 70
     0
 40
6.299999999999998
 41
1.0
 50
0.0
 71
     0
 42
6.299999999999998
  3
txt.shx
  4
bigfont.shx
  0
STYLE
  5
11F
330
3
100
AcDbSymbolTableRecord
100
AcDbTextStyleTableRecord
  2
高2.5
 70
     0
 40
2.5
 41
1.0
 50
0.0
 71
     0
 42
0.2
  3
txt.shx
  4
bigfont.shx
  0
STYLE
  5
146
330
3
100
AcDbSymbolTableRecord
100
AcDbTextStyleTableRecord
  2
高4.5
 70
     0
 40
4.5
 41
1.0
 50
0.0
 71
     0
 42
6.299999999999998
  3
txt.shx
  4
bigfont.shx
  0
STYLE
  5
171
330
3
100
AcDbSymbolTableRecord
100
AcDbTextStyleTableRecord
  2
高2
 70
     0
 40
2.0
 41
1.0
 50
0.0
 71
     0
 42
6.299999999999998
  3
txt.shx
  4
bigfont.shx
  0
STYLE
  5
119C
330
3
100
AcDbSymbolTableRecord
100
AcDbTextStyleTableRecord
  2

 70
     1
 40
0.0
 41
1.0
 50
0.0
 71
     0
 42
6.299999999999998
  3
ltypeshp.shx
  4

  0
ENDTAB
  0
TABLE
  2
VIEW
  5
6
330
0
100
AcDbSymbolTable
 70
     0
  0
ENDTAB
  0
TABLE
  2
UCS
  5
7
330
0
100
AcDbSymbolTable
 70
     0
  0
ENDTAB
  0
TABLE
  2
APPID
  5
9
330
0
100
AcDbSymbolTable
 70
     9
  0
APPID
  5
12
330
9
100
AcDbSymbolTableRecord
100
AcDbRegAppTableRecord
  2
ACAD
 70
     0
  0
APPID
  5
DC
330
9
100
AcDbSymbolTableRecord
100
AcDbRegAppTableRecord
  2
ACAD_DSTYLE_DIMJOGGED_JOGANGLE_SYMBOL
 70
     0
  0
APPID
  5
3A5
330
9
100
AcDbSymbolTableRecord
100
AcDbRegAppTableRecord
  2
ACAD_EXEMPT_FROM_CAD_STANDARDS
 70
     0
  0
APPID
  5
70D
330
9
100
AcDbSymbolTableRecord
100
AcDbRegAppTableRecord
  2
ACAD_DSTYLE_DIMJAG
 70
     0
  0
APPID
  5
70E
330
9
100
AcDbSymbolTableRecord
100
AcDbRegAppTableRecord
  2
ACAD_DSTYLE_DIMBREAK
 70
     0
  0
APPID
  5
70F
330
9
100
AcDbSymbolTableRecord
100
AcDbRegAppTableRecord
  2
ACAD_DSTYLE_DIMTALN
 70
     0
  0
APPID
  5
13E1
330
9
100
AcDbSymbolTableRecord
100
AcDbRegAppTableRecord
  2
ACAD_DSTYLE_DIMARC_LENGTH_SYMBOL
 70
     0
  0
APPID
  5
13E2
330
9
100
AcDbSymbolTableRecord
100
AcDbRegAppTableRecord
  2
ACAD_DSTYLE_DIMEXT_LENGTH
 70
     0
  0
APPID
  5
13F7
330
9
100
AcDbSymbolTableRecord
100
AcDbRegAppTableRecord
  2
ACAD_MLEADERVER
 70
     0
  0
ENDTAB
  0
TABLE
  2
DIMSTYLE
  5
A
330
0
100
AcDbSymbolTable
 70
    10
100
AcDbDimStyleTable
 71
     1
340
D9
  0
DIMSTYLE
105
D9
330
A
100
AcDbSymbolTableRecord
100
AcDbDimStyleTableRecord
  2
1：1
 70
     0
 41
2.5
 42
0.25
 43
0.2
 44
1.25
 73
     0
 74
     0
 77
     3
 78
     8
 79
     2
140
3.0
141
0.0
143
0.03937007874016
147
0.625
171
     3
172
     1
178
     4
179
     1
271
     2
272
     2
274
     3
283
     0
284
     8
288
     1
289
     0
340
11
341
C6
342
C6
1001
ACAD_DSTYLE_DIMARC_LENGTH_SYMBOL
1070
   379
1070
     2
1001
ACAD_DSTYLE_DIMEXT_LENGTH
1070
   378
1040
1.25
1001
ACAD_DSTYLE_DIMJOGGED_JOGANGLE_SYMBOL
1070
   384
1040
1.570796326794896
  0
DIMSTYLE
105
C3C
330
A
100
AcDbSymbolTableRecord
100
AcDbDimStyleTableRecord
  2
2：1
 70
     0
 41
2.5
 42
0.25
 43
0.2
 44
1.25
 73
     0
 74
     0
 77
     3
 78
     8
 79
     2
140
3.0
141
0.0
143
0.03937007874016
144
0.5
147
0.625
171
     3
172
     1
178
     4
179
     1
271
     2
272
     2
274
     3
283
     0
284
     8
288
     1
289
     0
340
11
341
C6
342
C6
1001
ACAD_DSTYLE_DIMARC_LENGTH_SYMBOL
1070
   379
1070
     2
1001
ACAD_DSTYLE_DIMEXT_LENGTH
1070
   378
1040
1.25
1001
ACAD_DSTYLE_DIMJOGGED_JOGANGLE_SYMBOL
1070
   384
1040
1.570796326794896
  0
DIMSTYLE
105
C3D
330
A
100
AcDbSymbolTableRecord
100
AcDbDimStyleTableRecord
  2
5：1
 70
     0
 41
2.5
 42
0.25
 43
0.2
 44
1.25
 73
     0
 74
     0
 77
     3
 78
     8
 79
     2
140
3.0
141
0.0
143
0.03937007874016
144
0.2
147
0.625
171
     3
172
     1
178
     4
179
     1
271
     2
272
     2
274
     3
283
     0
284
     8
288
     1
289
     0
340
11
341
C6
342
C6
1001
ACAD_DSTYLE_DIMARC_LENGTH_SYMBOL
1070
   379
1070
     2
1001
ACAD_DSTYLE_DIMEXT_LENGTH
1070
   378
1040
1.25
1001
ACAD_DSTYLE_DIMJOGGED_JOGANGLE_SYMBOL
1070
   384
1040
1.570796326794896
  0
DIMSTYLE
105
C3E
330
A
100
AcDbSymbolTableRecord
100
AcDbDimStyleTableRecord
  2
10：1
 70
     0
 41
2.5
 42
0.25
 43
0.2
 44
1.25
 73
     0
 74
     0
 77
     3
 78
     8
 79
     2
140
3.0
141
0.0
143
0.03937007874016
144
0.1
147
0.625
171
     3
172
     1
178
     4
179
     1
271
     2
272
     2
274
     3
283
     0
284
     8
288
     1
289
     0
340
11
341
C6
342
C6
1001
ACAD_DSTYLE_DIMARC_LENGTH_SYMBOL
1070
   379
1070
     2
1001
ACAD_DSTYLE_DIMEXT_LENGTH
1070
   378
1040
1.25
1001
ACAD_DSTYLE_DIMJOGGED_JOGANGLE_SYMBOL
1070
   384
1040
1.570796326794896
  0
DIMSTYLE
105
C3F
330
A
100
AcDbSymbolTableRecord
100
AcDbDimStyleTableRecord
  2
1／2
 70
     0
 41
2.5
 42
0.25
 43
0.2
 44
1.25
 73
     0
 74
     0
 77
     3
 78
     8
 79
     2
140
3.0
141
0.0
143
0.03937007874016
144
2.0
147
0.625
171
     3
172
     1
178
     4
179
     1
271
     2
272
     2
274
     3
283
     0
284
     8
288
     1
289
     0
340
11
341
C6
342
C6
1001
ACAD_DSTYLE_DIMARC_LENGTH_SYMBOL
1070
   379
1070
     2
1001
ACAD_DSTYLE_DIMEXT_LENGTH
1070
   378
1040
1.25
1001
ACAD_DSTYLE_DIMJOGGED_JOGANGLE_SYMBOL
1070
   384
1040
1.570796326794896
  0
DIMSTYLE
105
C40
330
A
100
AcDbSymbolTableRecord
100
AcDbDimStyleTableRecord
  2
1／5
 70
     0
 41
2.5
 42
0.25
 43
0.2
 44
1.25
 73
     0
 74
     0
 77
     3
 78
     8
 79
     2
140
3.0
141
0.0
143
0.03937007874016
144
5.0
147
0.625
171
     3
172
     1
178
     4
179
     1
271
     2
272
     2
274
     3
283
     0
284
     8
288
     1
289
     0
340
11
341
C6
342
C6
1001
ACAD_DSTYLE_DIMARC_LENGTH_SYMBOL
1070
   379
1070
     2
1001
ACAD_DSTYLE_DIMEXT_LENGTH
1070
   378
1040
1.25
1001
ACAD_DSTYLE_DIMJOGGED_JOGANGLE_SYMBOL
1070
   384
1040
1.570796326794896
  0
DIMSTYLE
105
C41
330
A
100
AcDbSymbolTableRecord
100
AcDbDimStyleTableRecord
  2
1／10
 70
     0
 41
2.5
 42
0.25
 43
0.2
 44
1.25
 73
     0
 74
     0
 77
     3
 78
     8
 79
     2
140
3.0
141
0.0
143
0.03937007874016
144
10.0
147
0.625
171
     3
172
     1
178
     4
179
     1
271
     2
272
     2
274
     3
283
     0
284
     8
288
     1
289
     0
340
11
341
C6
342
C6
1001
ACAD_DSTYLE_DIMARC_LENGTH_SYMBOL
1070
   379
1070
     2
1001
ACAD_DSTYLE_DIMEXT_LENGTH
1070
   378
1040
1.25
1001
ACAD_DSTYLE_DIMJOGGED_JOGANGLE_SYMBOL
1070
   384
1040
1.570796326794896
  0
DIMSTYLE
105
C42
330
A
100
AcDbSymbolTableRecord
100
AcDbDimStyleTableRecord
  2
1／4
 70
     0
 41
2.5
 42
0.25
 43
0.2
 44
1.25
 73
     0
 74
     0
 77
     3
 78
     8
 79
     2
140
3.0
141
0.0
143
0.03937007874016
144
4.0
147
0.625
171
     3
172
     1
178
     4
179
     1
271
     2
272
     2
274
     3
283
     0
284
     8
288
     1
289
     0
340
11
341
C6
342
C6
1001
ACAD_DSTYLE_DIMARC_LENGTH_SYMBOL
1070
   379
1070
     2
1001
ACAD_DSTYLE_DIMEXT_LENGTH
1070
   378
1040
1.25
1001
ACAD_DSTYLE_DIMJOGGED_JOGANGLE_SYMBOL
1070
   384
1040
1.570796326794896
  0
DIMSTYLE
105
C43
330
A
100
AcDbSymbolTableRecord
100
AcDbDimStyleTableRecord
  2
1／3
 70
     0
 41
2.5
 42
0.25
 43
0.2
 44
1.25
 73
     0
 74
     0
 77
     3
 78
     8
 79
     2
140
3.0
141
0.0
143
0.03937007874016
144
3.0
147
0.625
171
     3
172
     1
178
     4
179
     1
271
     2
272
     2
274
     3
283
     0
284
     8
288
     1
289
     0
340
11
341
C6
342
C6
1001
ACAD_DSTYLE_DIMARC_LENGTH_SYMBOL
1070
   379
1070
     2
1001
ACAD_DSTYLE_DIMEXT_LENGTH
1070
   378
1040
1.25
1001
ACAD_DSTYLE_DIMJOGGED_JOGANGLE_SYMBOL
1070
   384
1040
1.570796326794896
  0
DIMSTYLE
105
C44
330
A
100
AcDbSymbolTableRecord
100
AcDbDimStyleTableRecord
  2
FREE
 70
     0
 41
2.5
 42
0.25
 43
0.2
 44
1.25
 73
     0
 74
     0
 77
     3
 78
     8
 79
     2
140
3.0
141
0.0
143
0.03937007874016
147
0.625
171
     3
172
     1
178
     4
179
     1
271
     2
272
     2
274
     3
283
     0
284
     8
288
     1
289
     0
340
11
341
C6
342
C6
1001
ACAD_DSTYLE_DIMBREAK
1070
   391
1040
3.75
1001
ACAD_DSTYLE_DIMJAG
1070
   388
1040
1.5
1001
ACAD_DSTYLE_DIMTALN
1070
   392
1070
     0
1001
ACAD_DSTYLE_DIMARC_LENGTH_SYMBOL
1070
   379
1070
     2
1001
ACAD_DSTYLE_DIMEXT_LENGTH
1070
   378
1040
1.25
1001
ACAD_DSTYLE_DIMJOGGED_JOGANGLE_SYMBOL
1070
   384
1040
1.570796326794896
  0
ENDTAB
  0
TABLE
  2
BLOCK_RECORD
  5
1
330
0
100
AcDbSymbolTable
 70
     8
  0
BLOCK_RECORD
  5
1F
102
{ACAD_XDICTIONARY
360
324
102
}
330
1
100
AcDbSymbolTableRecord
100
AcDbBlockTableRecord
  2
*Model_Space
340
22
  0
BLOCK_RECORD
  5
58
330
1
100
AcDbSymbolTableRecord
100
AcDbBlockTableRecord
  2
*Paper_Space
340
59
  0
BLOCK_RECORD
  5
5D
330
1
100
AcDbSymbolTableRecord
100
AcDbBlockTableRecord
  2
*Paper_Space0
340
5E
  0
BLOCK_RECORD
  5
C6
330
1
100
AcDbSymbolTableRecord
100
AcDbBlockTableRecord
  2
_Open30
340
0
102
{BLKREFS
331
1946
331
1947
331
194F
331
1950
331
1958
331
1959
102
}
  0
BLOCK_RECORD
  5
D57
102
{ACAD_XDICTIONARY
360
E25
102
}
330
1
100
AcDbSymbolTableRecord
100
AcDbBlockTableRecord
  2
A$C7A1143B0
340
0
1001
ACAD
1000
DesignCenter Data
1002
{
1070
     1
1070
     1
1002
}
  0
BLOCK_RECORD
  5
10C4
102
{ACAD_XDICTIONARY
360
1191
102
}
330
1
100
AcDbSymbolTableRecord
100
AcDbBlockTableRecord
  2
A$C478E5F75
340
0
1001
ACAD
1000
DesignCenter Data
1002
{
1070
     1
1070
     1
1002
}
  0
BLOCK_RECORD
  5
1400
330
1
100
AcDbSymbolTableRecord
100
AcDbBlockTableRecord
  2
*D4
340
0
  0
BLOCK_RECORD
  5
1418
330
1
100
AcDbSymbolTableRecord
100
AcDbBlockTableRecord
  2
*D5
340
0
  0
BLOCK_RECORD
  5
145D
330
1
100
AcDbSymbolTableRecord
100
AcDbBlockTableRecord
  2
*D6
340
0
  0
BLOCK_RECORD
  5
14DA
330
1
100
AcDbSymbolTableRecord
100
AcDbBlockTableRecord
  2
_DotSmall
340
0
  0
ENDTAB
  0
ENDSEC
  0
SECTION
  2
BLOCKS
  0
BLOCK
  5
20
330
1F
100
AcDbEntity
  8
0
100
AcDbBlockBegin
  2
*Model_Space
 70
     0
 10
0.0
 20
0.0
 30
0.0
  3
*Model_Space
  1

  0
ENDBLK
  5
21
330
1F
100
AcDbEntity
  8
0
100
AcDbBlockEnd
  0
BLOCK
  5
5A
330
58
100
AcDbEntity
 67
     1
  8
0
100
AcDbBlockBegin
  2
*Paper_Space
 70
     0
 10
0.0
 20
0.0
 30
0.0
  3
*Paper_Space
  1

  0
ENDBLK
  5
5B
330
58
100
AcDbEntity
 67
     1
  8
0
100
AcDbBlockEnd
  0
BLOCK
  5
5F
330
5D
100
AcDbEntity
 67
     1
  8
0
100
AcDbBlockBegin
  2
*Paper_Space0
 70
     0
 10
0.0
 20
0.0
 30
0.0
  3
*Paper_Space0
  1

  0
ENDBLK
  5
60
330
5D
100
AcDbEntity
 67
     1
  8
0
100
AcDbBlockEnd
  0
BLOCK
  5
C7
330
C6
100
AcDbEntity
  8
0
100
AcDbBlockBegin
  2
_Open30
 70
     0
 10
0.0
 20
0.0
 30
0.0
  3
_Open30
  1

  0
LINE
  5
C8
330
C6
100
AcDbEntity
  8
0
  6
ByBlock
 62
     0
370
    -2
100
AcDbLine
 10
-1.0
 20
0.267949
 30
0.0
 11
0.0
 21
0.0
 31
0.0
  0
LINE
  5
C9
330
C6
100
AcDbEntity
  8
0
  6
ByBlock
 62
     0
370
    -2
100
AcDbLine
 10
0.0
 20
0.0
 30
0.0
 11
-1.0
 21
-0.267949
 31
0.0
  0
LINE
  5
CA
330
C6
100
AcDbEntity
  8
0
  6
ByBlock
 62
     0
370
    -2
100
AcDbLine
 10
0.0
 20
0.0
 30
0.0
 11
-1.0
 21
0.0
 31
0.0
  0
ENDBLK
  5
CB
330
C6
100
AcDbEntity
  8
0
100
AcDbBlockEnd
  0
BLOCK
  5
E27
330
D57
100
AcDbEntity
  8
0
100
AcDbBlockBegin
  2
A$C7A1143B0
 70
     0
 10
0.0
 20
0.0
 30
0.0
  3
A$C7A1143B0
  1

  0
LINE
  5
D58
330
D57
100
AcDbEntity
  8
0
 62
     3
100
AcDbLine
 10
20.00000057328668
 20
283.9999999862201
 30
0.0
 11
20.00000057328668
 21
9.99999998622016
 31
0.0
  0
LINE
  5
D59
330
D57
100
AcDbEntity
  8
0
 62
     3
100
AcDbLine
 10
410.0000005732868
 20
9.99999998622016
 30
0.0
 11
410.0000005732868
 21
283.9999999862201
 31
0.0
  0
LINE
  5
D5A
330
D57
100
AcDbEntity
  8
0
 62
     3
100
AcDbLine
 10
20.00000057328668
 20
9.99999998622016
 30
0.0
 11
410.0000005732868
 21
9.99999998622016
 31
0.0
  0
LINE
  5
D5B
330
D57
100
AcDbEntity
  8
0
 62
     3
100
AcDbLine
 10
197.7748900432866
 20
286.4400021262202
 30
0.0
 11
198.3973870532866
 21
286.1150476462201
 31
0.0
  0
LINE
  5
D5C
330
D57
100
AcDbEntity
  8
0
 62
     3
100
AcDbLine
 10
197.7748900432866
 20
281.1105300262201
 30
0.0
 11
198.3973870532866
 21
281.4354845062202
 31
0.0
  0
LINE
  5
D5D
330
D57
100
AcDbEntity
  8
0
 62
     3
100
AcDbLine
 10
198.3973870532866
 20
286.1150476462201
 30
0.0
 11
198.3973870532866
 21
281.4354845062202
 31
0.0
  0
LINE
  5
D5E
330
D57
100
AcDbEntity
  8
0
 62
     3
100
AcDbLine
 10
199.9738405132866
 20
281.1105300262201
 30
0.0
 11
199.3513435032865
 21
281.4354845062202
 31
0.0
  0
LINE
  5
D5F
330
D57
100
AcDbEntity
  8
0
 62
     3
100
AcDbLine
 10
199.3513435032865
 20
284.2881399562201
 30
0.0
 11
199.3513435032865
 21
281.4354845062202
 31
0.0
  0
LINE
  5
D60
330
D57
100
AcDbEntity
  8
0
 62
     3
100
AcDbLine
 10
203.6050730532868
 20
286.4400021262202
 30
0.0
 11
202.9825760532867
 21
286.1150476462201
 31
0.0
  0
LINE
  5
D61
330
D57
100
AcDbEntity
  8
0
 62
     3
100
AcDbLine
 10
201.4061225832868
 20
286.4400021262202
 30
0.0
 11
202.0286195932868
 21
286.1150476462201
 31
0.0
  0
LINE
  5
D62
330
D57
100
AcDbEntity
  8
0
 62
     3
100
AcDbLine
 10
202.0286195932868
 20
286.1150476462201
 30
0.0
 11
202.0286195932868
 21
284.0545661262201
 31
0.0
  0
LINE
  5
D63
330
D57
100
AcDbEntity
  8
0
 62
     3
100
AcDbLine
 10
202.9825760532867
 20
286.1150476462201
 30
0.0
 11
202.9825760532867
 21
280.8082998162202
 31
0.0
  0
LINE
  5
D64
330
D57
100
AcDbEntity
  8
0
 62
     3
100
AcDbLine
 10
203.9126404932868
 20
286.4399983762202
 30
0.0
 11
204.5351352532866
 21
286.1150396062202
 31
0.0
  0
LINE
  5
D65
330
D57
100
AcDbEntity
  8
0
 62
     3
100
AcDbLine
 10
203.9125291032867
 20
281.1106014162201
 30
0.0
 11
204.5350374532866
 21
281.4355341662201
 31
0.0
  0
LINE
  5
D66
330
D57
100
AcDbEntity
  8
0
 62
     3
100
AcDbLine
 10
204.5351352532866
 20
286.1150396062202
 30
0.0
 11
204.5351352532866
 21
281.4355341662201
 31
0.0
  0
LINE
  5
D67
330
D57
100
AcDbEntity
  8
0
 62
     3
100
AcDbLine
 10
206.6691210532868
 20
286.4399645562201
 30
0.0
 11
206.0466194932867
 21
286.1150187962202
 31
0.0
  0
LINE
  5
D68
330
D57
100
AcDbEntity
  8
0
 62
     3
100
AcDbLine
 10
206.0466194932867
 20
286.1150187962202
 30
0.0
 11
206.0466194932867
 21
281.4355133562201
 31
0.0
  0
LINE
  5
D69
330
D57
100
AcDbEntity
  8
0
 62
     3
100
AcDbLine
 10
206.6691210532868
 20
281.1105675962201
 30
0.0
 11
206.0466194932867
 21
281.4355133562201
 31
0.0
  0
LINE
  5
D6A
330
D57
100
AcDbEntity
  8
0
 62
     3
100
AcDbLine
 10
211.9409116832867
 20
286.4399059862202
 30
0.0
 11
212.5634075632868
 21
286.1149493662201
 31
0.0
  0
LINE
  5
D6B
330
D57
100
AcDbEntity
  8
0
 62
     3
100
AcDbLine
 10
212.5634075632868
 20
286.1149493662201
 30
0.0
 11
212.5633258932867
 21
281.4354439162201
 31
0.0
  0
LINE
  5
D6C
330
D57
100
AcDbEntity
  8
0
 62
     3
100
AcDbLine
 10
211.9408186632866
 20
281.1105090262202
 30
0.0
 11
212.5633258932867
 21
281.4354439162201
 31
0.0
  0
LINE
  5
D6D
330
D57
100
AcDbEntity
  8
0
 62
     3
100
AcDbLine
 10
214.7298559232865
 20
286.4399059862202
 30
0.0
 11
214.1073600332868
 21
286.1149493662201
 31
0.0
  0
LINE
  5
D6E
330
D57
100
AcDbEntity
  8
0
 62
     3
100
AcDbLine
 10
214.7299489332866
 20
281.1105090262202
 30
0.0
 11
214.1074417032867
 21
281.4354439162201
 31
0.0
  0
LINE
  5
D6F
330
D57
100
AcDbEntity
  8
0
 62
     3
100
AcDbLine
 10
215.0208957232867
 20
286.4399059862202
 30
0.0
 11
215.6433916032868
 21
286.1149493662201
 31
0.0
  0
LINE
  5
D70
330
D57
100
AcDbEntity
  8
0
 62
     3
100
AcDbLine
 10
215.0208027032866
 20
281.1105090262202
 30
0.0
 11
215.6433099332867
 21
281.4354439162201
 31
0.0
  0
LINE
  5
D71
330
D57
100
AcDbEntity
  8
0
 62
     3
100
AcDbLine
 10
217.8098399532867
 20
286.4399059862202
 30
0.0
 11
217.1873440732868
 21
286.1149493662201
 31
0.0
  0
LINE
  5
D72
330
D57
100
AcDbEntity
  8
0
 62
     3
100
AcDbLine
 10
217.1873440732868
 20
286.1149493662201
 30
0.0
 11
217.1874257432867
 21
281.4354439162201
 31
0.0
  0
LINE
  5
D73
330
D57
100
AcDbEntity
  8
0
 62
     3
100
AcDbLine
 10
217.8099329732865
 20
281.1105090262202
 30
0.0
 11
217.1874257432867
 21
281.4354439162201
 31
0.0
  0
LINE
  5
D74
330
D57
100
AcDbEntity
  8
0
 62
     3
100
AcDbLine
 10
215.6433560232867
 20
284.0761877662202
 30
0.0
 11
214.1073956132866
 21
284.0761877662202
 31
0.0
  0
LINE
  5
D75
330
D57
100
AcDbEntity
  8
0
 62
     3
100
AcDbLine
 10
215.6433455232866
 20
283.4743443862201
 30
0.0
 11
214.1074061132867
 21
283.4743443862201
 31
0.0
  0
LINE
  5
D76
330
D57
100
AcDbEntity
  8
0
 62
     3
100
AcDbLine
 10
215.6433916032868
 20
286.1149493662201
 30
0.0
 11
215.6433560232867
 21
284.0761877662202
 31
0.0
  0
LINE
  5
D77
330
D57
100
AcDbEntity
  8
0
 62
     3
100
AcDbLine
 10
215.6433455232866
 20
283.4743443862201
 30
0.0
 11
215.6433099332867
 21
281.4354439162201
 31
0.0
  0
LINE
  5
D78
330
D57
100
AcDbEntity
  8
0
 62
     3
100
AcDbLine
 10
214.1073600332868
 20
286.1149493662201
 30
0.0
 11
214.1073956132866
 21
284.0761877662202
 31
0.0
  0
LINE
  5
D79
330
D57
100
AcDbEntity
  8
0
 62
     3
100
AcDbLine
 10
214.1074061132867
 20
283.4743443862201
 30
0.0
 11
214.1074417032867
 21
281.4354439162201
 31
0.0
  0
LINE
  5
D7A
330
D57
100
AcDbEntity
  8
0
 62
     3
100
AcDbLine
 10
218.1054958432867
 20
286.4399059862202
 30
0.0
 11
218.7279917332867
 21
286.1149493662201
 31
0.0
  0
LINE
  5
D7B
330
D57
100
AcDbEntity
  8
0
 62
     3
100
AcDbLine
 10
218.7279917332867
 20
286.1149493662201
 30
0.0
 11
218.7279100532867
 21
281.4354439162201
 31
0.0
  0
LINE
  5
D7C
330
D57
100
AcDbEntity
  8
0
 62
     3
100
AcDbLine
 10
218.1054028232868
 20
281.1105090262202
 30
0.0
 11
218.7279100532867
 21
281.4354439162201
 31
0.0
  0
LINE
  5
D7D
330
D57
100
AcDbEntity
  8
0
 62
     3
100
AcDbLine
 10
220.8619390832867
 20
286.4399059862202
 30
0.0
 11
220.2394431932867
 21
286.1149493662201
 31
0.0
  0
LINE
  5
D7E
330
D57
100
AcDbEntity
  8
0
 62
     3
100
AcDbLine
 10
220.2394431932867
 20
286.1149493662201
 30
0.0
 11
220.2395248732866
 21
281.4354439162201
 31
0.0
  0
LINE
  5
D7F
330
D57
100
AcDbEntity
  8
0
 62
     3
100
AcDbLine
 10
220.8620321032865
 20
281.1105090262202
 30
0.0
 11
220.2395248732866
 21
281.4354439162201
 31
0.0
  0
LINE
  5
D80
330
D57
100
AcDbEntity
  8
0
 62
     3
100
AcDbLine
 10
221.1681670332867
 20
286.4399059862202
 30
0.0
 11
221.7906629232866
 21
286.1149493662201
 31
0.0
  0
LINE
  5
D81
330
D57
100
AcDbEntity
  8
0
 62
     3
100
AcDbLine
 10
221.7906629232866
 20
286.1149493662201
 30
0.0
 11
221.7905812532869
 21
281.4354439162201
 31
0.0
  0
LINE
  5
D82
330
D57
100
AcDbEntity
  8
0
 62
     3
100
AcDbLine
 10
221.1680740232866
 20
281.1105090262202
 30
0.0
 11
221.7905812532869
 21
281.4354439162201
 31
0.0
  0
ARC
  5
D83
330
D57
100
AcDbEntity
  8
0
 62
     3
100
AcDbCircle
 10
209.9524670132867
 20
283.7886800162202
 30
0.0
 40
2.98040844
100
AcDbArc
 50
97.70152351000378
 51
270.0
  0
ARC
  5
D84
330
D57
100
AcDbEntity
  8
0
 62
     3
100
AcDbCircle
 10
228.3533253532866
 20
283.7587419762201
 30
0.0
 40
3.012776259999998
100
AcDbArc
 50
0.3142502699992948
 51
69.00558244999621
  0
ARC
  5
D85
330
D57
100
AcDbEntity
  8
0
 62
     3
100
AcDbCircle
 10
229.0114329632868
 20
283.7587419762201
 30
0.0
 40
3.012776259999998
100
AcDbArc
 50
110.9944175500038
 51
148.1166110200028
  0
ARC
  5
D86
330
D57
100
AcDbEntity
  8
0
 62
     3
100
AcDbCircle
 10
228.3533253532866
 20
283.7917901762202
 30
0.0
 40
3.012776259999998
100
AcDbArc
 50
290.9944175500038
 51
359.6857497300007
  0
ARC
  5
D87
330
D57
100
AcDbEntity
  8
0
 62
     3
100
AcDbCircle
 10
229.0114329632868
 20
283.7917901762202
 30
0.0
 40
3.012776259999998
100
AcDbArc
 50
211.8833889799972
 51
249.0055824499962
  0
ARC
  5
D88
330
D57
100
AcDbEntity
  8
0
 62
     3
100
AcDbCircle
 10
228.6823791632867
 20
285.0078452062202
 30
0.0
 40
1.73438712
100
AcDbArc
 50
64.3651718999996
 51
115.6348281000004
  0
ARC
  5
D89
330
D57
100
AcDbEntity
  8
0
 62
     3
100
AcDbCircle
 10
228.6823791632867
 20
282.5426869462202
 30
0.0
 40
1.73438712
100
AcDbArc
 50
244.3651718999996
 51
295.6348281000004
  0
ARC
  5
D8A
330
D57
100
AcDbEntity
  8
0
 62
     3
100
AcDbCircle
 10
228.6823791632867
 20
285.0407904662201
 30
0.0
 40
0.85122233
100
AcDbArc
 50
19.48660554000209
 51
160.5133944599979
  0
ARC
  5
D8B
330
D57
100
AcDbEntity
  8
0
 62
     3
100
AcDbCircle
 10
228.6823791632867
 20
282.5426869462202
 30
0.0
 40
1.73438712
100
AcDbArc
 50
244.3651718999996
 51
295.6348281000004
  0
ARC
  5
D8C
330
D57
100
AcDbEntity
  8
0
 62
     3
100
AcDbCircle
 10
228.6823791632867
 20
282.5097416862202
 30
0.0
 40
0.85122233
100
AcDbArc
 50
199.4866055400021
 51
340.5133944599979
  0
ARC
  5
D8D
330
D57
100
AcDbEntity
  8
0
 62
     3
100
AcDbCircle
 10
221.9074184432868
 20
252.0208948762201
 30
0.0
 40
37.20000000000001
100
AcDbArc
 50
69.50571480000154
 51
81.68998807000397
  0
ARC
  5
D8E
330
D57
100
AcDbEntity
  8
0
 62
     3
100
AcDbCircle
 10
221.9074184432868
 20
315.5296372762201
 30
0.0
 40
37.20000000000001
100
AcDbArc
 50
278.3100119299961
 51
290.4942851999985
  0
ARC
  5
D8F
330
D57
100
AcDbEntity
  8
0
 62
     3
100
AcDbCircle
 10
233.7762814832865
 20
283.7752660762201
 30
0.0
 40
3.299999999999998
100
AcDbArc
 50
290.4942851999985
 51
69.50571480000154
  0
ARC
  5
D90
330
D57
100
AcDbEntity
  8
0
 62
     3
100
AcDbCircle
 10
194.7762814832865
 20
283.7752660762201
 30
0.0
 40
3.299999999999998
100
AcDbArc
 50
110.4942851999985
 51
249.5057148000015
  0
ARC
  5
D91
330
D57
100
AcDbEntity
  8
0
 62
     3
100
AcDbCircle
 10
206.6451445132868
 20
252.0208948762201
 30
0.0
 40
37.20000000000001
100
AcDbArc
 50
98.31001192999607
 51
110.4942851999985
  0
ARC
  5
D92
330
D57
100
AcDbEntity
  8
0
 62
     3
100
AcDbCircle
 10
206.6451445132868
 20
315.5296372762201
 30
0.0
 40
37.20000000000001
100
AcDbArc
 50
249.5057148000015
 51
261.6899880699973
  0
ARC
  5
D93
330
D57
100
AcDbEntity
  8
0
 62
     3
100
AcDbCircle
 10
214.2762814832865
 20
199.7752660762201
 30
0.0
 40
89.99999981
100
AcDbArc
 50
81.68998807000397
 51
98.31001192999607
  0
ARC
  5
D94
330
D57
100
AcDbEntity
  8
0
 62
     3
100
AcDbCircle
 10
214.2762814832865
 20
367.7752660762201
 30
0.0
 40
89.99999981
100
AcDbArc
 50
261.6899880699973
 51
278.3100119299961
  0
ARC
  5
D95
330
D57
100
AcDbEntity
  8
0
 62
     3
100
AcDbCircle
 10
214.2762814832865
 20
199.7752660762201
 30
0.0
 40
89.09999981
100
AcDbArc
 50
81.68998807000397
 51
98.31001192999607
  0
ARC
  5
D96
330
D57
100
AcDbEntity
  8
0
 62
     3
100
AcDbCircle
 10
214.2762814832865
 20
367.7752660762201
 30
0.0
 40
89.09999981
100
AcDbArc
 50
261.6899880699973
 51
278.3100119299961
  0
ARC
  5
D97
330
D57
100
AcDbEntity
  8
0
 62
     3
100
AcDbCircle
 10
221.9074184432868
 20
315.5296372762201
 30
0.0
 40
36.3
100
AcDbArc
 50
278.3100119299961
 51
290.4942851999985
  0
ARC
  5
D98
330
D57
100
AcDbEntity
  8
0
 62
     3
100
AcDbCircle
 10
221.9074184432868
 20
252.0208948762201
 30
0.0
 40
36.3
100
AcDbArc
 50
69.50571480000154
 51
81.68998807000397
  0
ARC
  5
D99
330
D57
100
AcDbEntity
  8
0
 62
     3
100
AcDbCircle
 10
233.7762814832865
 20
283.7752660762201
 30
0.0
 40
2.399999999999999
100
AcDbArc
 50
290.4942851999985
 51
69.50571480000154
  0
ARC
  5
D9A
330
D57
100
AcDbEntity
  8
0
 62
     3
100
AcDbCircle
 10
194.7762814832865
 20
283.7752660762201
 30
0.0
 40
2.399999999999999
100
AcDbArc
 50
110.4942851999985
 51
249.5057148000015
  0
ARC
  5
D9B
330
D57
100
AcDbEntity
  8
0
 62
     3
100
AcDbCircle
 10
206.6451445132868
 20
252.0208948762201
 30
0.0
 40
36.3
100
AcDbArc
 50
98.31001192999607
 51
110.4942851999985
  0
ARC
  5
D9C
330
D57
100
AcDbEntity
  8
0
 62
     3
100
AcDbCircle
 10
206.6451445132868
 20
315.5296372762201
 30
0.0
 40
36.3
100
AcDbArc
 50
249.5057148000015
 51
261.6899880699973
  0
LINE
  5
D9D
330
D57
100
AcDbEntity
  8
0
 62
     3
100
AcDbLine
 10
220.8619402032866
 20
280.8082998162202
 30
0.0
 11
218.1054947232867
 21
280.8082998162202
 31
0.0
  0
LINE
  5
D9E
330
D57
100
AcDbEntity
  8
0
 62
     3
100
AcDbLine
 10
220.8619402032866
 20
281.1105300262201
 30
0.0
 11
220.8619402032866
 21
280.8082998162202
 31
0.0
  0
LINE
  5
D9F
330
D57
100
AcDbEntity
  8
0
 62
     3
100
AcDbLine
 10
217.8098410732866
 20
286.7420913062201
 30
0.0
 11
215.0208946032867
 21
286.7420913062201
 31
0.0
  0
LINE
  5
DA0
330
D57
100
AcDbEntity
  8
0
 62
     3
100
AcDbLine
 10
217.8098410732866
 20
286.7420913062201
 30
0.0
 11
217.8098410732866
 21
286.4400021262202
 31
0.0
  0
LINE
  5
DA1
330
D57
100
AcDbEntity
  8
0
 62
     3
100
AcDbLine
 10
217.8098410732866
 20
281.1105300262201
 30
0.0
 11
217.8098410732866
 21
280.8081587962202
 31
0.0
  0
LINE
  5
DA2
330
D57
100
AcDbEntity
  8
0
 62
     3
100
AcDbLine
 10
217.8098410732866
 20
280.8081587962202
 30
0.0
 11
215.0208946032867
 21
280.8081587962202
 31
0.0
  0
LINE
  5
DA3
330
D57
100
AcDbEntity
  8
0
 62
     3
100
AcDbLine
 10
220.8619402032866
 20
286.7422323362201
 30
0.0
 11
220.8619402032866
 21
286.4400021262202
 31
0.0
  0
LINE
  5
DA4
330
D57
100
AcDbEntity
  8
0
 62
     3
100
AcDbLine
 10
220.8619402032866
 20
286.7422323362201
 30
0.0
 11
218.1054947232867
 21
286.7422323362201
 31
0.0
  0
LINE
  5
DA5
330
D57
100
AcDbEntity
  8
0
 62
     3
100
AcDbLine
 10
218.1054947232867
 20
286.7422323362201
 30
0.0
 11
218.1054947232867
 21
286.4400021262202
 31
0.0
  0
LINE
  5
DA6
330
D57
100
AcDbEntity
  8
0
 62
     3
100
AcDbLine
 10
221.1681659132866
 20
281.1105300262201
 30
0.0
 11
221.1681659132866
 21
280.8082998162202
 31
0.0
  0
LINE
  5
DA7
330
D57
100
AcDbEntity
  8
0
 62
     3
100
AcDbLine
 10
224.0028810032866
 20
280.8082998162202
 30
0.0
 11
221.1681659132866
 21
280.8082998162202
 31
0.0
  0
LINE
  5
DA8
330
D57
100
AcDbEntity
  8
0
 62
     3
100
AcDbLine
 10
223.3021143932867
 20
285.7882758762201
 30
0.0
 11
223.3021143932867
 21
281.7622562762201
 31
0.0
  0
LINE
  5
DA9
330
D57
100
AcDbEntity
  8
0
 62
     3
100
AcDbLine
 10
223.3021143932867
 20
281.7622562762201
 30
0.0
 11
223.5736129132868
 21
281.7622562762201
 31
0.0
  0
ARC
  5
DAA
330
D57
100
AcDbEntity
  8
0
 62
     3
100
AcDbCircle
 10
222.1853475732867
 20
283.7752660762201
 30
0.0
 40
2.44529939
100
AcDbArc
 50
304.5919552699948
 51
55.40804473000515
  0
LINE
  5
DAB
330
D57
100
AcDbEntity
  8
0
 62
     3
100
AcDbLine
 10
224.0028810032866
 20
286.7422323362201
 30
0.0
 11
221.1681659132866
 21
286.7422323362201
 31
0.0
  0
LINE
  5
DAC
330
D57
100
AcDbEntity
  8
0
 62
     3
100
AcDbLine
 10
221.1681659132866
 20
286.7422323362201
 30
0.0
 11
221.1681659132866
 21
286.4400021262202
 31
0.0
  0
LINE
  5
DAD
330
D57
100
AcDbEntity
  8
0
 62
     3
100
AcDbLine
 10
218.1054947232867
 20
281.1105300262201
 30
0.0
 11
218.1054947232867
 21
280.8082998162202
 31
0.0
  0
LINE
  5
DAE
330
D57
100
AcDbEntity
  8
0
 62
     3
100
AcDbLine
 10
223.3021143932867
 20
285.7882758762201
 30
0.0
 11
223.5736129132868
 21
285.7882758762201
 31
0.0
  0
LINE
  5
DAF
330
D57
100
AcDbEntity
  8
0
 62
     3
100
AcDbLine
 10
206.6690291532866
 20
281.1105300262201
 30
0.0
 11
206.6690238832866
 21
280.8082715762201
 31
0.0
  0
LINE
  5
DB0
330
D57
100
AcDbEntity
  8
0
 62
     3
100
AcDbLine
 10
203.9125784032867
 20
280.8083280662202
 30
0.0
 11
206.6690238832866
 21
280.8082799562201
 31
0.0
  0
LINE
  5
DB1
330
D57
100
AcDbEntity
  8
0
 62
     3
100
AcDbLine
 10
197.7748900432866
 20
280.8082998162202
 30
0.0
 11
199.9738405132866
 21
280.8082998162202
 31
0.0
  0
ARC
  5
DB2
330
D57
100
AcDbEntity
  8
0
 62
     3
100
AcDbCircle
 10
190.6578290732866
 20
283.8451326862202
 30
0.0
 40
21.01937947
100
AcDbArc
 50
353.8660061899995
 51
357.6940342600001
  0
LINE
  5
DB3
330
D57
100
AcDbEntity
  8
0
 62
     3
100
AcDbLine
 10
210.2529431632868
 20
283.0046074662202
 30
0.0
 11
211.6601872832866
 21
282.9994004962201
 31
0.0
  0
LWPOLYLINE
  5
DB4
330
D57
100
AcDbEntity
  8
0
 62
     3
100
AcDbPolyline
 90
       64
 70
     0
 43
0.0
 10
210.2586266132866
 20
284.5406285262201
 10
210.2320158632867
 20
284.7110110462202
 10
210.2000570332868
 20
284.8741607362201
 10
210.1629971332866
 20
285.0288165362201
 10
210.1211226332866
 20
285.1737830362201
 10
210.0747572032867
 20
285.3079397262202
 10
210.0242592132866
 20
285.4302496262201
 10
209.9700189932867
 20
285.5397673662201
 10
209.9124557932867
 20
285.6356464162201
 10
209.8520145432867
 20
285.71714568622
 10
209.7891624232868
 20
285.7836352262201
 10
209.7243852432866
 20
285.8346011062201
 10
209.6581837132867
 20
285.8696493862201
 10
209.5910695232867
 20
285.8885091562202
 10
209.5235614332866
 20
285.8910346562201
 10
209.4561812432867
 20
285.8772063462201
 10
209.3894497732867
 20
285.8471311162201
 10
209.3238828332867
 20
285.8010414462201
 10
209.2599871932866
 20
285.7392935662201
 10
209.1982567632868
 20
285.6623647762202
 10
209.1391686732866
 20
285.5708496762202
 10
209.0831796432867
 20
285.4654556462201
 10
209.0307224432865
 20
285.3469973162201
 10
208.9822025432866
 20
285.2163903062201
 10
208.9379949632867
 20
285.0746441562201
 10
208.8984414232866
 20
284.9228544862201
 10
208.8638476432868
 20
284.7621945462202
 10
208.8344810132867
 20
284.5939061562201
 10
208.8105685232867
 20
284.4192900962202
 10
208.7922950132868
 20
284.2396960662202
 10
208.7798017132866
 20
284.0565122262201
 10
208.7731852032866
 20
283.8711545062201
 10
208.7724966132867
 20
283.6850556062202
 10
208.7777412732866
 20
283.4996539962201
 10
208.7888786432866
 20
283.3163827262201
 10
208.8058226432865
 20
283.1366583862201
 10
208.8284422932868
 20
282.9618701562201
 10
208.8565627632868
 20
282.7933690562202
 10
208.8899666932866
 20
282.6324575162201
 10
208.9283958932867
 20
282.4803792962201
 10
208.9715533132867
 20
282.3383098862201
 10
209.0191053832866
 20
282.2073474062202
 10
209.0706845332868
 20
282.0885041262202
 10
209.1258921032866
 20
281.9826986562201
 10
209.1843013532866
 20
281.8907487962201
 10
209.2454608132866
 20
281.8133652962201
 10
209.3088977532868
 20
281.7511462762201
 10
209.3741218332868
 20
281.7045726662201
 10
209.4406289132867
 20
281.6740044362201
 10
209.5079049232865
 20
281.6596778862201
 10
209.5754298532868
 20
281.6617037462202
 10
209.6426817732865
 20
281.6800663462201
 10
209.7091408532867
 20
281.7146237662202
 10
209.7742934132866
 20
281.7651088962201
 10
209.8376358432868
 20
281.8311314962201
 10
209.8986785432867
 20
281.9121812562201
 10
209.9569496832867
 20
282.0076317062202
 10
210.0119988632866
 20
282.1167450662201
 10
210.0634005832867
 20
282.2386779262201
 10
210.1107575232866
 20
282.3724878362201
 10
210.1537036432867
 20
282.5171404862201
 10
210.1919069932867
 20
282.6715178062201
 10
210.2250722832866
 20
282.8344265362201
 10
210.2529431632868
 20
283.0046074662202
  0
LINE
  5
DB5
330
D57
100
AcDbEntity
  8
0
 62
     3
100
AcDbLine
 10
210.2586266132866
 20
284.5406285262201
 30
0.0
 11
211.6658707332867
 21
284.5354215562202
 31
0.0
  0
ARC
  5
DB6
330
D57
100
AcDbEntity
  8
0
 62
     3
100
AcDbCircle
 10
190.6578290732866
 20
283.8451326862202
 30
0.0
 40
21.01937947
100
AcDbArc
 50
1.881965739999571
 51
5.709993809999575
  0
LINE
  5
DB7
330
D57
100
AcDbEntity
  8
0
 62
     3
100
AcDbLine
 10
206.6691274432867
 20
286.7422040862201
 30
0.0
 11
206.6691221732867
 21
286.4400021262202
 31
0.0
  0
LINE
  5
DB8
330
D57
100
AcDbEntity
  8
0
 62
     3
100
AcDbLine
 10
203.9126819632868
 20
286.7422605762201
 30
0.0
 11
206.6691274432867
 21
286.7422124662202
 31
0.0
  0
LINE
  5
DB9
330
D57
100
AcDbEntity
  8
0
 62
     3
100
AcDbLine
 10
203.9125836732867
 20
281.1105300262201
 30
0.0
 11
203.9125784032867
 21
280.8083280662202
 31
0.0
  0
LINE
  5
DBA
330
D57
100
AcDbEntity
  8
0
 62
     3
100
AcDbLine
 10
203.9126819632868
 20
286.7422605762201
 30
0.0
 11
203.9126766932866
 21
286.4400021262202
 31
0.0
  0
LINE
  5
DBB
330
D57
100
AcDbEntity
  8
0
 62
     3
100
AcDbLine
 10
199.9738405132866
 20
281.1105300262201
 30
0.0
 11
199.9738405132866
 21
280.8082998162202
 31
0.0
  0
LINE
  5
DBC
330
D57
100
AcDbEntity
  8
0
 62
     3
100
AcDbLine
 10
199.3513435032865
 20
284.2881399562201
 30
0.0
 11
201.5262435832867
 21
280.8082998162202
 31
0.0
  0
LINE
  5
DBD
330
D57
100
AcDbEntity
  8
0
 62
     3
100
AcDbLine
 10
201.5262435832867
 20
280.8082998162202
 30
0.0
 11
202.9825760532867
 21
280.8082998162202
 31
0.0
  0
LINE
  5
DBE
330
D57
100
AcDbEntity
  8
0
 62
     3
100
AcDbLine
 10
203.6050730532868
 20
286.7422323362201
 30
0.0
 11
203.6050730532868
 21
286.4400021262202
 31
0.0
  0
LINE
  5
DBF
330
D57
100
AcDbEntity
  8
0
 62
     3
100
AcDbLine
 10
201.4061225832868
 20
286.7422323362201
 30
0.0
 11
203.6050730532868
 21
286.7422323362201
 31
0.0
  0
LINE
  5
DC0
330
D57
100
AcDbEntity
  8
0
 62
     3
100
AcDbLine
 10
201.4061225832868
 20
286.7422323362201
 30
0.0
 11
201.4061225832868
 21
286.4400021262202
 31
0.0
  0
LINE
  5
DC1
330
D57
100
AcDbEntity
  8
0
 62
     3
100
AcDbLine
 10
202.0286195932868
 20
284.0545661262201
 30
0.0
 11
200.2648386532867
 21
286.7422323362201
 31
0.0
  0
LINE
  5
DC2
330
D57
100
AcDbEntity
  8
0
 62
     3
100
AcDbLine
 10
197.7748900432866
 20
286.7422323362201
 30
0.0
 11
200.2648386532867
 21
286.7422323362201
 31
0.0
  0
LINE
  5
DC3
330
D57
100
AcDbEntity
  8
0
 62
     3
100
AcDbLine
 10
211.9409105632867
 20
286.7420913062201
 30
0.0
 11
214.7298570432865
 21
286.7420913062201
 31
0.0
  0
LINE
  5
DC4
330
D57
100
AcDbEntity
  8
0
 62
     3
100
AcDbLine
 10
211.9409105632867
 20
286.4400021262202
 30
0.0
 11
211.9409105632867
 21
286.7420913062201
 31
0.0
  0
LINE
  5
DC5
330
D57
100
AcDbEntity
  8
0
 62
     3
100
AcDbLine
 10
211.9409105632867
 20
280.8081587962202
 30
0.0
 11
211.9409105632867
 21
281.1105300262201
 31
0.0
  0
LINE
  5
DC6
330
D57
100
AcDbEntity
  8
0
 62
     3
100
AcDbLine
 10
211.9409105632867
 20
280.8081587962202
 30
0.0
 11
214.7298570432865
 21
280.8081587962202
 31
0.0
  0
LINE
  5
DC7
330
D57
100
AcDbEntity
  8
0
 62
     3
100
AcDbLine
 10
215.0208946032867
 20
281.1105300262201
 30
0.0
 11
215.0208946032867
 21
280.8081587962202
 31
0.0
  0
LINE
  5
DC8
330
D57
100
AcDbEntity
  8
0
 62
     3
100
AcDbLine
 10
214.7298570432865
 20
281.1105300262201
 30
0.0
 11
214.7298570432865
 21
280.8081587962202
 31
0.0
  0
LINE
  5
DC9
330
D57
100
AcDbEntity
  8
0
 62
     3
100
AcDbLine
 10
214.7298570432865
 20
286.4400021262202
 30
0.0
 11
214.7298570432865
 21
286.7420913062201
 31
0.0
  0
LINE
  5
DCA
330
D57
100
AcDbEntity
  8
0
 62
     3
100
AcDbLine
 10
215.0208946032867
 20
286.4400021262202
 30
0.0
 11
215.0208946032867
 21
286.7420913062201
 31
0.0
  0
LINE
  5
DCB
330
D57
100
AcDbEntity
  8
0
 62
     3
100
AcDbLine
 10
197.7748900432866
 20
281.1105300262201
 30
0.0
 11
197.7748900432866
 21
280.8082998162202
 31
0.0
  0
LINE
  5
DCC
330
D57
100
AcDbEntity
  8
0
 62
     3
100
AcDbLine
 10
197.7748900432866
 20
286.7422323362201
 30
0.0
 11
197.7748900432866
 21
286.4400021262202
 31
0.0
  0
ARC
  5
DCD
330
D57
100
AcDbEntity
  8
0
 62
     3
100
AcDbCircle
 10
224.3028810032868
 20
284.3977630862202
 30
0.0
 40
2.344469249999999
100
AcDbArc
 50
17.30874897999993
 51
23.76507095999782
  0
ARC
  5
DCE
330
D57
100
AcDbEntity
  8
0
 62
     3
100
AcDbCircle
 10
222.3053475732866
 20
283.7752660762201
 30
0.0
 40
4.43675086
100
AcDbArc
 50
342.6912510200001
 51
17.30856644000161
  0
ARC
  5
DCF
330
D57
100
AcDbEntity
  8
0
 62
     3
100
AcDbCircle
 10
224.3028810032868
 20
283.1527690662201
 30
0.0
 40
2.344469249999999
100
AcDbArc
 50
336.2349290399969
 51
342.6912510200001
  0
ARC
  5
DD0
330
D57
100
AcDbEntity
  8
0
 62
     3
100
AcDbCircle
 10
224.0028810032866
 20
284.3977630862202
 30
0.0
 40
2.344469249999999
100
AcDbArc
 50
17.30874897999993
 51
90.0
  0
ARC
  5
DD1
330
D57
100
AcDbEntity
  8
0
 62
     3
100
AcDbCircle
 10
222.0053475732868
 20
283.7752660762201
 30
0.0
 40
4.43675086
100
AcDbArc
 50
342.6912510200001
 51
17.30856644000161
  0
ARC
  5
DD2
330
D57
100
AcDbEntity
  8
0
 62
     3
100
AcDbCircle
 10
224.0028810032866
 20
283.1527690662201
 30
0.0
 40
2.344469249999999
100
AcDbArc
 50
270.0
 51
342.6912510200001
  0
ARC
  5
DD3
330
D57
100
AcDbEntity
  8
0
 62
     3
100
AcDbCircle
 10
209.5401090332866
 20
283.7752660762201
 30
0.0
 40
2.966966259999998
100
AcDbArc
 50
46.75287961000123
 51
89.74999828999569
  0
ARC
  5
DD4
330
D57
100
AcDbEntity
  8
0
 62
     3
100
AcDbCircle
 10
209.5401090332866
 20
283.7752660762201
 30
0.0
 40
2.966966259999998
100
AcDbArc
 50
273.976333149997
 51
312.8231203899988
  0
ARC
  5
DD5
330
D57
100
AcDbEntity
  8
0
 62
     3
100
AcDbCircle
 10
225.8855489632868
 20
283.7294638962202
 30
0.0
 40
3.936984289999998
100
AcDbArc
 50
0.6665840599997753
 51
23.90392827000137
  0
ARC
  5
DD6
330
D57
100
AcDbEntity
  8
0
 62
     3
100
AcDbCircle
 10
231.4792093532867
 20
283.7294638962202
 30
0.0
 40
3.936984289999998
100
AcDbArc
 50
156.0960717299986
 51
179.3334159400002
  0
ARC
  5
DD7
330
D57
100
AcDbEntity
  8
0
 62
     3
100
AcDbCircle
 10
225.8855489632868
 20
283.8210682562202
 30
0.0
 40
3.936984289999998
100
AcDbArc
 50
336.0960717299986
 51
359.3334159400003
  0
ARC
  5
DD8
330
D57
100
AcDbEntity
  8
0
 62
     3
100
AcDbCircle
 10
231.4792093532867
 20
283.8210682562202
 30
0.0
 40
3.936984289999998
100
AcDbArc
 50
180.6665840599997
 51
203.9039282700014
  0
LINE
  5
DD9
330
D57
100
AcDbEntity
  8
0
 62
     3
100
AcDbLine
 10
238.6567257532868
 20
283.9999999862201
 30
0.0
 11
410.0000005732865
 21
283.9999999862201
 31
0.0
  0
LINE
  5
DDA
330
D57
100
AcDbEntity
  8
0
 62
     3
100
AcDbLine
 10
190.1026910832868
 20
283.9999999862201
 30
0.0
 11
20.00000057328668
 21
283.9999999862201
 31
0.0
  0
LINE
  5
DDB
330
D57
100
AcDbEntity
  8
0
 62
     3
100
AcDbLine
 10
7.598076783286612
 20
150.4446389362201
 30
0.0
 11
5.000000573286683
 21
148.9446389362201
 31
0.0
  0
LINE
  5
DDC
330
D57
100
AcDbEntity
  8
0
 62
     3
100
AcDbLine
 10
7.598076783286612
 20
150.4446389362201
 30
0.0
 11
5.000000573286683
 21
151.9446389362201
 31
0.0
  0
LINE
  5
DDD
330
D57
100
AcDbEntity
  8
0
 62
     3
100
AcDbLine
 10
5.000000573286683
 20
148.9446389362201
 30
0.0
 11
5.000000573286683
 21
151.9446389362201
 31
0.0
  0
LINE
  5
DDE
330
D57
100
AcDbEntity
  8
0
 62
   254
370
     0
100
AcDbLine
 10
0.0000005732867976
 20
-0.0000000137798395
 30
0.0
 11
0.0000005732867976
 21
291.9999999862201
 31
0.0
  0
LINE
  5
DDF
330
D57
100
AcDbEntity
  8
0
 62
   254
370
     0
100
AcDbLine
 10
0.0000005732867976
 20
291.9999999862201
 30
0.0
 11
420.0000005732865
 21
291.9999999862201
 31
0.0
  0
LINE
  5
DE0
330
D57
100
AcDbEntity
  8
0
 62
     3
100
AcDbLine
 10
358.0000005732868
 20
9.99999998622016
 30
0.0
 11
358.0000005732868
 21
49.99999998622016
 31
0.0
  0
LINE
  5
DE1
330
D57
100
AcDbEntity
  8
0
 62
     3
100
AcDbLine
 10
371.0000005732868
 20
19.99999998622016
 30
0.0
 11
371.0000005732868
 21
47.99999998622015
 31
0.0
  0
LINE
  5
DE2
330
D57
100
AcDbEntity
  8
0
 62
     3
100
AcDbLine
 10
331.0000005732868
 20
19.99999998622016
 30
0.0
 11
331.0000005732868
 21
33.99999998622016
 31
0.0
  0
LINE
  5
DE3
330
D57
100
AcDbEntity
  8
0
 62
     3
100
AcDbLine
 10
341.0000005732868
 20
33.99999998622016
 30
0.0
 11
341.0000005732868
 21
9.99999998622016
 31
0.0
  0
LINE
  5
DE4
330
D57
100
AcDbEntity
  8
0
 62
     3
100
AcDbLine
 10
312.0000005732868
 20
49.99999998622016
 30
0.0
 11
312.0000005732868
 21
26.99999998622016
 31
0.0
  0
LINE
  5
DE5
330
D57
100
AcDbEntity
  8
0
 62
     3
100
AcDbLine
 10
371.0000005732868
 20
47.99999998622015
 30
0.0
 11
371.0000005732868
 21
49.99999998622016
 31
0.0
  0
LINE
  5
DE6
330
D57
100
AcDbEntity
  8
0
 62
     3
100
AcDbLine
 10
384.0000005732868
 20
26.99999998622016
 30
0.0
 11
384.0000005732868
 21
49.99999998622016
 31
0.0
  0
LINE
  5
DE7
330
D57
100
AcDbEntity
  8
0
 62
     3
100
AcDbLine
 10
410.0000005732868
 20
49.99999998622016
 30
0.0
 11
298.7545659332868
 21
49.99999998622016
 31
0.0
  0
LINE
  5
DE8
330
D57
100
AcDbEntity
  8
0
 62
     3
100
AcDbLine
 10
410.0000005732868
 20
40.99999998622015
 30
0.0
 11
298.7545659332868
 21
40.99999998622015
 31
0.0
  0
LINE
  5
DE9
330
D57
100
AcDbEntity
  8
0
 62
     3
100
AcDbLine
 10
410.0000005732868
 20
26.99999998622016
 30
0.0
 11
298.7545659332868
 21
26.99999998622016
 31
0.0
  0
LINE
  5
DEA
330
D57
100
AcDbEntity
  8
0
 62
     3
100
AcDbLine
 10
410.0000005732868
 20
19.99999998622016
 30
0.0
 11
298.6965580732867
 21
19.99999998622016
 31
0.0
  0
LINE
  5
DEB
330
D57
100
AcDbEntity
  8
0
 62
     3
100
AcDbLine
 10
397.0000005732868
 20
26.99999998622016
 30
0.0
 11
397.0000005732868
 21
49.99999998622016
 31
0.0
  0
LINE
  5
DEC
330
D57
100
AcDbEntity
  8
0
 62
     3
100
AcDbLine
 10
298.7545659332868
 20
49.99999998622016
 30
0.0
 11
298.7545659332868
 21
9.99999998622016
 31
0.0
  0
LINE
  5
DED
330
D57
100
AcDbEntity
  8
0
 62
     3
100
AcDbLine
 10
358.0000005732868
 20
33.99999998622016
 30
0.0
 11
298.7545659332868
 21
33.99999998622015
 31
0.0
  0
LINE
  5
DEE
330
D57
100
AcDbEntity
  8
0
 62
     3
100
AcDbLine
 10
341.2783255032866
 20
14.83286124622015
 30
0.0
 11
358.0000005732868
 21
14.83286124622015
 31
0.0
  0
LINE
  5
DEF
330
D57
100
AcDbEntity
  8
0
 62
     3
100
AcDbLine
 10
345.0000005732868
 20
40.99999998622015
 30
0.0
 11
353.0000005732868
 21
40.99999998622015
 31
0.0
  0
TEXT
  5
DF0
330
D57
100
AcDbEntity
  8
0
 62
     3
100
AcDbText
 10
342.1643259866026
 20
29.0730968395855
 30
0.0
 40
2.5
  1
******
  7
高2.5
100
AcDbText
  0
TEXT
  5
DF1
330
D57
100
AcDbEntity
  8
0
 62
     3
100
AcDbText
 10
313.196369268539
 20
29.29781439120407
 30
0.0
 40
2.5
  1
*****
  7
高2.5
100
AcDbText
  0
TEXT
  5
DF2
330
D57
100
AcDbEntity
  8
0
 62
     3
100
AcDbText
 10
313.4612770232363
 20
42.31224950997805
 30
0.0
 40
4.5
  1
**********
  7
高4.5
100
AcDbText
1001
ACAD
1000
ACAD_MTEXT_DEFINED_HEIGHT_BEGIN
1070
    46
1040
0.0
1000
ACAD_MTEXT_DEFINED_HEIGHT_END
  0
TEXT
  5
DF3
330
D57
100
AcDbEntity
  8
0
 62
     3
100
AcDbText
 10
400.0655896667607
 20
46.51369208492375
 30
0.0
 40
2.0
  1
DEF
  7
高2
100
AcDbText
  0
TEXT
  5
DF4
330
D57
100
AcDbEntity
  8
0
 62
     3
100
AcDbText
 10
386.1264913130526
 20
46.51369208492366
 30
0.0
 40
2.0
  1
DESN
  7
高2
100
AcDbText
  0
TEXT
  5
DF5
330
D57
100
AcDbEntity
  8
0
 62
     3
100
AcDbText
 10
359.8721243730524
 20
46.51369208492375
 30
0.0
 40
2.0
  1
APPD
  7
高2
100
AcDbText
  0
TEXT
  5
DF6
330
D57
100
AcDbEntity
  8
0
 62
     3
100
AcDbText
 10
372.9848604732867
 20
46.51369208492377
 30
0.0
 40
2.0
  1
CHCK
  7
高2
100
AcDbText
  0
TEXT
  5
DF7
330
D57
100
AcDbEntity
  8
0
 62
     3
100
AcDbText
 10
331.9271662124395
 20
24.16839880945088
 30
0.0
 40
2.0
  1
SCALE
 41
0.8
  7
高2
100
AcDbText
  0
TEXT
  5
DF8
330
D57
100
AcDbEntity
  8
0
 62
     3
100
AcDbText
 10
300.4391446363329
 20
24.16839880945089
 30
0.0
 40
2.0
  1
3AD　ANGLE
 41
1.5
  7
高2
100
AcDbText
  0
TEXT
  5
DF9
330
D57
100
AcDbEntity
  8
0
 62
     3
100
AcDbText
 10
331.1965719032883
 20
30.91993687840798
 30
0.0
 40
2.0
  1
REMARKS
 41
0.7
  7
高2
100
AcDbText
  0
TEXT
  5
DFA
330
D57
100
AcDbEntity
  8
0
 62
     3
100
AcDbText
 10
300.2222362832867
 20
30.99999998622016
 30
0.0
 40
2.0
  1
MATERIAL
 41
0.7
  7
高2
100
AcDbText
  0
TEXT
  5
DFB
330
D57
100
AcDbEntity
  8
0
 62
     3
100
AcDbText
 10
300.7987234860409
 20
37.99999998622015
 30
0.0
 40
2.0
  1
MODEL
  7
高2
100
AcDbText
  0
TEXT
  5
DFC
330
D57
100
AcDbEntity
  8
0
 62
     3
100
AcDbText
 10
300.4356443673721
 20
46.70702133681915
 30
0.0
 40
2.0
  1
CONPONENTS
 41
0.5
  7
高2
100
AcDbText
  0
TEXT
  5
DFD
330
D57
100
AcDbEntity
  8
0
 62
     3
100
AcDbText
 10
313.142759838539
 20
35.0874811140321
 30
0.0
 40
4.5
  1
********
  7
高4.5
100
AcDbText
  0
TEXT
  5
DFE
330
D57
100
AcDbEntity
  8
0
 62
     3
100
AcDbText
 10
361.0650463039053
 20
12.03846138158574
 30
0.0
 40
6.299999999999998
  1
*-********
 41
0.6
  7
高6.3
100
AcDbText
1001
ACAD
1000
ACAD_MTEXT_DEFINED_HEIGHT_BEGIN
1070
    46
1040
0.0
1000
ACAD_MTEXT_DEFINED_HEIGHT_END
  0
TEXT
  5
DFF
330
D57
100
AcDbEntity
  8
0
 62
     3
100
AcDbText
 10
374.5635103236164
 20
21.10088914445316
 30
0.0
 40
3.2
  1
******
  7
高3.2
100
AcDbText
1001
ACAD
1000
ACAD_MTEXT_DEFINED_HEIGHT_BEGIN
1070
    46
1040
0.0
1000
ACAD_MTEXT_DEFINED_HEIGHT_END
  0
TEXT
  5
E00
330
D57
100
AcDbEntity
  8
0
 62
     3
100
AcDbText
 10
344.7875984679331
 20
21.10091698878803
 30
0.0
 40
3.2
  1
1/1
  7
高3.2
100
AcDbText
  0
TEXT
  5
E01
330
D57
100
AcDbEntity
  8
0
 62
     3
100
AcDbText
 10
341.8649274432866
 20
10.81687815935612
 30
0.0
 40
3.2
  1
ZK-A3X
 41
0.8
  7
高3.2
100
AcDbText
  0
TEXT
  5
E02
330
D57
100
AcDbEntity
  8
0
 62
     3
100
AcDbText
 10
299.5852669732867
 20
16.52462040840798
 30
0.0
 40
2.0
  1
NICHIDO IND.CO.LTD
 41
1.3
  7
高2
100
AcDbText
  0
TEXT
  5
E03
330
D57
100
AcDbEntity
  8
0
 62
     3
100
AcDbText
 10
300.7667902382439
 20
42.14052819410508
 30
0.0
 40
3.2
  1
品 名
  7
高3.2
100
AcDbText
1001
ACAD
1000
ACAD_MTEXT_DEFINED_HEIGHT_BEGIN
1070
    46
1040
0.0
1000
ACAD_MTEXT_DEFINED_HEIGHT_END
  0
TEXT
  5
E04
330
D57
100
AcDbEntity
  8
0
 62
     3
100
AcDbText
 10
300.7667902382439
 20
34.49999998622015
 30
0.0
 40
3.2
  1
型 式
  7
高3.2
100
AcDbText
1001
ACAD
1000
ACAD_MTEXT_DEFINED_HEIGHT_BEGIN
1070
    46
1040
3.064735913775952
1000
ACAD_MTEXT_DEFINED_HEIGHT_END
  0
TEXT
  5
E05
330
D57
100
AcDbEntity
  8
0
 62
     3
100
AcDbText
 10
300.7667902382439
 20
27.49999998622016
 30
0.0
 40
3.2
  1
材 質
  7
高3.2
100
AcDbText
1001
ACAD
1000
ACAD_MTEXT_DEFINED_HEIGHT_BEGIN
1070
    46
1040
0.0
1000
ACAD_MTEXT_DEFINED_HEIGHT_END
  0
TEXT
  5
E06
330
D57
100
AcDbEntity
  8
0
 62
     3
100
AcDbText
 10
300.4617552882439
 20
20.4674399784664
 30
0.0
 40
3.2
  1
第 三 角 法
  7
高3.2
100
AcDbText
1001
ACAD
1000
ACAD_MTEXT_DEFINED_HEIGHT_BEGIN
1070
    46
1040
0.0
1000
ACAD_MTEXT_DEFINED_HEIGHT_END
  0
TEXT
  5
E07
330
D57
100
AcDbEntity
  8
0
 62
     3
100
AcDbText
 10
298.8682878957727
 20
11.14052819410509
 30
0.0
 40
3.2
  1
日動工業株式会社
 41
1.199999999999999
  7
高3.2
100
AcDbText
1001
ACAD
1000
ACAD_MTEXT_DEFINED_HEIGHT_BEGIN
1070
    46
1040
0.0
1000
ACAD_MTEXT_DEFINED_HEIGHT_END
  0
TEXT
  5
E08
330
D57
100
AcDbEntity
  8
0
 62
     3
100
AcDbText
 10
332.5039120952514
 20
27.38457851938772
 30
0.0
 40
3.2
  1
備考
  7
高3.2
100
AcDbText
1001
ACAD
1000
ACAD_MTEXT_DEFINED_HEIGHT_BEGIN
1070
    46
1040
0.0
1000
ACAD_MTEXT_DEFINED_HEIGHT_END
  0
TEXT
  5
E09
330
D57
100
AcDbEntity
  8
0
 62
     3
100
AcDbText
 10
342.1529695422866
 20
16.14623001179045
 30
0.0
 40
2.5
  1
出図コード
  7
高2.5
100
AcDbText
1001
ACAD
1000
ACAD_MTEXT_DEFINED_HEIGHT_BEGIN
1070
    46
1040
0.0
1000
ACAD_MTEXT_DEFINED_HEIGHT_END
  0
TEXT
  5
E0A
330
D57
100
AcDbEntity
  8
0
 62
     3
100
AcDbText
 10
332.3451459771638
 20
20.45323489663308
 30
0.0
 40
3.2
  1
尺度
  7
高3.2
100
AcDbText
1001
ACAD
1000
ACAD_MTEXT_DEFINED_HEIGHT_BEGIN
1070
    46
1040
0.0
1000
ACAD_MTEXT_DEFINED_HEIGHT_END
  0
TEXT
  5
E0B
330
D57
100
AcDbEntity
  8
0
 62
     3
100
AcDbText
 10
359.4914074589427
 20
21.58471334475057
 30
0.0
 40
3.2
  1
作成日
  7
高3.2
100
AcDbText
1001
ACAD
1000
ACAD_MTEXT_DEFINED_HEIGHT_BEGIN
1070
    46
1040
0.0
1000
ACAD_MTEXT_DEFINED_HEIGHT_END
  0
TEXT
  5
E0C
330
D57
100
AcDbEntity
  8
0
 62
     3
100
AcDbText
 10
359.3858814658065
 20
42.14052819410508
 30
0.0
 40
3.2
  1
承 認
  7
高3.2
100
AcDbText
1001
ACAD
1000
ACAD_MTEXT_DEFINED_HEIGHT_BEGIN
1070
    46
1040
0.0
1000
ACAD_MTEXT_DEFINED_HEIGHT_END
  0
TEXT
  5
E0D
330
D57
100
AcDbEntity
  8
0
 62
     3
100
AcDbText
 10
372.3858814658065
 20
42.14052819410508
 30
0.0
 40
3.2
  1
検 図
  7
高3.2
100
AcDbText
1001
ACAD
1000
ACAD_MTEXT_DEFINED_HEIGHT_BEGIN
1070
    46
1040
0.0
1000
ACAD_MTEXT_DEFINED_HEIGHT_END
  0
TEXT
  5
E0E
330
D57
100
AcDbEntity
  8
0
 62
     3
100
AcDbText
 10
385.3858814658065
 20
42.14052819410508
 30
0.0
 40
3.2
  1
設 計
  7
高3.2
100
AcDbText
1001
ACAD
1000
ACAD_MTEXT_DEFINED_HEIGHT_BEGIN
1070
    46
1040
0.0
1000
ACAD_MTEXT_DEFINED_HEIGHT_END
  0
TEXT
  5
E0F
330
D57
100
AcDbEntity
  8
0
 62
     3
100
AcDbText
 10
398.6865179858063
 20
42.14052819410508
 30
0.0
 40
3.2
  1
製 図
  7
高3.2
100
AcDbText
1001
ACAD
1000
ACAD_MTEXT_DEFINED_HEIGHT_BEGIN
1070
    46
1040
0.0
1000
ACAD_MTEXT_DEFINED_HEIGHT_END
  0
TEXT
  5
E10
330
D57
100
AcDbEntity
  8
0
 62
     3
100
AcDbText
 10
397.5000005732866
 20
274.4999999862201
 30
0.0
 40
3.2
  1
担　当
  7
高3.2
100
AcDbText
  0
TEXT
  5
E11
330
D57
100
AcDbEntity
  8
0
 62
     3
100
AcDbText
 10
353.5000005732866
 20
274.4999999862201
 30
0.0
 40
3.2
  1
変更・追記内容
  7
高3.2
100
AcDbText
  0
TEXT
  5
E12
330
D57
100
AcDbEntity
  8
0
 62
     3
100
AcDbText
 10
328.6135155736258
 20
269.8294614763118
 30
0.0
 40
2.0
  1
1
  7
高2
100
AcDbText
  0
TEXT
  5
E13
330
D57
100
AcDbEntity
  8
0
 62
     3
100
AcDbText
 10
328.3050040968685
 20
264.6596447640389
 30
0.0
 40
2.0
  1
2
  7
高2
100
AcDbText
  0
TEXT
  5
E14
330
D57
100
AcDbEntity
  8
0
 62
     3
100
AcDbText
 10
335.5000005732866
 20
274.4999999862201
 30
0.0
 40
3.2
  1
日　付
  7
高3.2
100
AcDbText
  0
TEXT
  5
E15
330
D57
100
AcDbEntity
  8
0
 62
     3
100
AcDbText
 10
335.5000005732866
 20
279.4999999862201
 30
0.0
 40
3.2
  1
図　　　　面　　　　略　　　　歴
  7
高3.2
100
AcDbText
  0
TEXT
  5
E16
330
D57
100
AcDbEntity
  8
0
 62
     3
100
AcDbText
 10
325.5000005732866
 20
274.4999999862201
 30
0.0
 40
3.2
  1
記号
  7
高3.2
100
AcDbText
  0
LINE
  5
E17
330
D57
100
AcDbEntity
  8
0
 62
     7
100
AcDbLine
 10
329.0000005732866
 20
267.7908959862202
 30
0.0
 11
327.1000005732867
 21
264.4999999862201
 31
0.0
  0
LINE
  5
E18
330
D57
100
AcDbEntity
  8
0
 62
     7
100
AcDbLine
 10
329.0000005732866
 20
267.7908959862202
 30
0.0
 11
330.9000005732867
 21
264.4999999862201
 31
0.0
  0
LINE
  5
E19
330
D57
100
AcDbEntity
  8
0
 62
     7
100
AcDbLine
 10
327.1000005732867
 20
264.4999999862201
 30
0.0
 11
330.9000005732867
 21
264.4999999862201
 31
0.0
  0
LINE
  5
E1A
330
D57
100
AcDbEntity
  8
0
 62
     7
100
AcDbLine
 10
329.0000005732866
 20
272.7908969862202
 30
0.0
 11
327.1000005732867
 21
269.4999999862201
 31
0.0
  0
LINE
  5
E1B
330
D57
100
AcDbEntity
  8
0
 62
     7
100
AcDbLine
 10
329.0000005732866
 20
272.7908969862202
 30
0.0
 11
330.9000005732867
 21
269.4999999862201
 31
0.0
  0
LINE
  5
E1C
330
D57
100
AcDbEntity
  8
0
 62
     7
100
AcDbLine
 10
327.1000005732867
 20
269.4999999862201
 30
0.0
 11
330.9000005732867
 21
269.4999999862201
 31
0.0
  0
LINE
  5
E1D
330
D57
100
AcDbEntity
  8
0
 62
     3
100
AcDbLine
 10
324.0000005732866
 20
278.9999999862201
 30
0.0
 11
410.0000005732865
 21
278.9999999862201
 31
0.0
  0
LINE
  5
E1E
330
D57
100
AcDbEntity
  8
0
 62
     3
100
AcDbLine
 10
324.0000005732866
 20
273.9999999862201
 30
0.0
 11
410.0000005732865
 21
273.9999999862201
 31
0.0
  0
LINE
  5
E1F
330
D57
100
AcDbEntity
  8
0
 62
     7
100
AcDbLine
 10
324.0000005732866
 20
268.9999999862201
 30
0.0
 11
410.0000005732865
 21
268.9999999862201
 31
0.0
  0
LINE
  5
E20
330
D57
100
AcDbEntity
  8
0
 62
     3
100
AcDbLine
 10
324.0000005732866
 20
263.9999999862201
 30
0.0
 11
410.0000005732865
 21
263.9999999862201
 31
0.0
  0
LINE
  5
E21
330
D57
100
AcDbEntity
  8
0
 62
     7
100
AcDbLine
 10
396.0000005732866
 20
263.9999999862201
 30
0.0
 11
396.0000005732866
 21
278.9999999862201
 31
0.0
  0
LINE
  5
E22
330
D57
100
AcDbEntity
  8
0
 62
     7
100
AcDbLine
 10
352.0000005732866
 20
263.9999999862201
 30
0.0
 11
352.0000005732866
 21
278.9999999862201
 31
0.0
  0
LINE
  5
E23
330
D57
100
AcDbEntity
  8
0
 62
     7
100
AcDbLine
 10
334.0000005732866
 20
263.9999999862201
 30
0.0
 11
334.0000005732866
 21
278.9999999862201
 31
0.0
  0
LINE
  5
E24
330
D57
100
AcDbEntity
  8
0
 62
     3
100
AcDbLine
 10
324.0000005732866
 20
263.9999999862201
 30
0.0
 11
324.0000005732866
 21
283.9999999862201
 31
0.0
  0
ENDBLK
  5
E28
330
D57
100
AcDbEntity
  8
0
100
AcDbBlockEnd
  0
BLOCK
  5
1193
330
10C4
100
AcDbEntity
  8
0
100
AcDbBlockBegin
  2
A$C478E5F75
 70
     0
 10
0.0
 20
0.0
 30
0.0
  3
A$C478E5F75
  1

  0
LINE
  5
10C5
330
10C4
100
AcDbEntity
  8
0
 62
     3
100
AcDbLine
 10
19.99999956930423
 20
283.9999999780495
 30
0.0
 11
19.99999956930423
 21
9.999999978049487
 31
0.0
  0
LINE
  5
10C6
330
10C4
100
AcDbEntity
  8
0
 62
     3
100
AcDbLine
 10
409.9999995693043
 20
9.999999978049487
 30
0.0
 11
409.9999995693043
 21
283.9999999780495
 31
0.0
  0
LINE
  5
10C7
330
10C4
100
AcDbEntity
  8
0
 62
     3
100
AcDbLine
 10
19.99999956930423
 20
9.999999978049487
 30
0.0
 11
409.9999995693043
 21
9.999999978049487
 31
0.0
  0
LINE
  5
10C8
330
10C4
100
AcDbEntity
  8
0
 62
     3
100
AcDbLine
 10
197.7748890393043
 20
286.4400021180495
 30
0.0
 11
198.3973860493042
 21
286.1150476380494
 31
0.0
  0
LINE
  5
10C9
330
10C4
100
AcDbEntity
  8
0
 62
     3
100
AcDbLine
 10
197.7748890393043
 20
281.1105300180494
 30
0.0
 11
198.3973860493042
 21
281.4354844980495
 31
0.0
  0
LINE
  5
10CA
330
10C4
100
AcDbEntity
  8
0
 62
     3
100
AcDbLine
 10
198.3973860493042
 20
286.1150476380494
 30
0.0
 11
198.3973860493042
 21
281.4354844980495
 31
0.0
  0
LINE
  5
10CB
330
10C4
100
AcDbEntity
  8
0
 62
     3
100
AcDbLine
 10
199.9738395093043
 20
281.1105300180494
 30
0.0
 11
199.3513424993043
 21
281.4354844980495
 31
0.0
  0
LINE
  5
10CC
330
10C4
100
AcDbEntity
  8
0
 62
     3
100
AcDbLine
 10
199.3513424993043
 20
284.2881399480494
 30
0.0
 11
199.3513424993043
 21
281.4354844980495
 31
0.0
  0
LINE
  5
10CD
330
10C4
100
AcDbEntity
  8
0
 62
     3
100
AcDbLine
 10
203.6050720493045
 20
286.4400021180495
 30
0.0
 11
202.9825750493044
 21
286.1150476380494
 31
0.0
  0
LINE
  5
10CE
330
10C4
100
AcDbEntity
  8
0
 62
     3
100
AcDbLine
 10
201.4061215793045
 20
286.4400021180495
 30
0.0
 11
202.0286185893044
 21
286.1150476380494
 31
0.0
  0
LINE
  5
10CF
330
10C4
100
AcDbEntity
  8
0
 62
     3
100
AcDbLine
 10
202.0286185893044
 20
286.1150476380494
 30
0.0
 11
202.0286185893044
 21
284.0545661180495
 31
0.0
  0
LINE
  5
10D0
330
10C4
100
AcDbEntity
  8
0
 62
     3
100
AcDbLine
 10
202.9825750493044
 20
286.1150476380494
 30
0.0
 11
202.9825750493044
 21
280.8082998080495
 31
0.0
  0
LINE
  5
10D1
330
10C4
100
AcDbEntity
  8
0
 62
     3
100
AcDbLine
 10
203.9126394893044
 20
286.4399983680495
 30
0.0
 11
204.5351342493043
 21
286.1150395980494
 31
0.0
  0
LINE
  5
10D2
330
10C4
100
AcDbEntity
  8
0
 62
     3
100
AcDbLine
 10
203.9125280993044
 20
281.1106014080494
 30
0.0
 11
204.5350364493042
 21
281.4355341580494
 31
0.0
  0
LINE
  5
10D3
330
10C4
100
AcDbEntity
  8
0
 62
     3
100
AcDbLine
 10
204.5351342493043
 20
286.1150395980494
 30
0.0
 11
204.5351342493043
 21
281.4355341580494
 31
0.0
  0
LINE
  5
10D4
330
10C4
100
AcDbEntity
  8
0
 62
     3
100
AcDbLine
 10
206.6691200493044
 20
286.4399645480495
 30
0.0
 11
206.0466184893044
 21
286.1150187880495
 31
0.0
  0
LINE
  5
10D5
330
10C4
100
AcDbEntity
  8
0
 62
     3
100
AcDbLine
 10
206.0466184893044
 20
286.1150187880495
 30
0.0
 11
206.0466184893044
 21
281.4355133480494
 31
0.0
  0
LINE
  5
10D6
330
10C4
100
AcDbEntity
  8
0
 62
     3
100
AcDbLine
 10
206.6691200493044
 20
281.1105675880494
 30
0.0
 11
206.0466184893044
 21
281.4355133480494
 31
0.0
  0
LINE
  5
10D7
330
10C4
100
AcDbEntity
  8
0
 62
     3
100
AcDbLine
 10
211.9409106793043
 20
286.4399059780494
 30
0.0
 11
212.5634065593045
 21
286.1149493580494
 31
0.0
  0
LINE
  5
10D8
330
10C4
100
AcDbEntity
  8
0
 62
     3
100
AcDbLine
 10
212.5634065593045
 20
286.1149493580494
 30
0.0
 11
212.5633248893044
 21
281.4354439080495
 31
0.0
  0
LINE
  5
10D9
330
10C4
100
AcDbEntity
  8
0
 62
     3
100
AcDbLine
 10
211.9408176593042
 20
281.1105090180495
 30
0.0
 11
212.5633248893044
 21
281.4354439080495
 31
0.0
  0
LINE
  5
10DA
330
10C4
100
AcDbEntity
  8
0
 62
     3
100
AcDbLine
 10
214.7298549193042
 20
286.4399059780494
 30
0.0
 11
214.1073590293045
 21
286.1149493580494
 31
0.0
  0
LINE
  5
10DB
330
10C4
100
AcDbEntity
  8
0
 62
     3
100
AcDbLine
 10
214.7299479293042
 20
281.1105090180495
 30
0.0
 11
214.1074406993043
 21
281.4354439080495
 31
0.0
  0
LINE
  5
10DC
330
10C4
100
AcDbEntity
  8
0
 62
     3
100
AcDbLine
 10
215.0208947193044
 20
286.4399059780494
 30
0.0
 11
215.6433905993044
 21
286.1149493580494
 31
0.0
  0
LINE
  5
10DD
330
10C4
100
AcDbEntity
  8
0
 62
     3
100
AcDbLine
 10
215.0208016993042
 20
281.1105090180495
 30
0.0
 11
215.6433089293043
 21
281.4354439080495
 31
0.0
  0
LINE
  5
10DE
330
10C4
100
AcDbEntity
  8
0
 62
     3
100
AcDbLine
 10
217.8098389493043
 20
286.4399059780494
 30
0.0
 11
217.1873430693044
 21
286.1149493580494
 31
0.0
  0
LINE
  5
10DF
330
10C4
100
AcDbEntity
  8
0
 62
     3
100
AcDbLine
 10
217.1873430693044
 20
286.1149493580494
 30
0.0
 11
217.1874247393043
 21
281.4354439080495
 31
0.0
  0
LINE
  5
10E0
330
10C4
100
AcDbEntity
  8
0
 62
     3
100
AcDbLine
 10
217.8099319693042
 20
281.1105090180495
 30
0.0
 11
217.1874247393043
 21
281.4354439080495
 31
0.0
  0
LINE
  5
10E1
330
10C4
100
AcDbEntity
  8
0
 62
     3
100
AcDbLine
 10
215.6433550193044
 20
284.0761877580495
 30
0.0
 11
214.1073946093043
 21
284.0761877580495
 31
0.0
  0
LINE
  5
10E2
330
10C4
100
AcDbEntity
  8
0
 62
     3
100
AcDbLine
 10
215.6433445193043
 20
283.4743443780494
 30
0.0
 11
214.1074051093044
 21
283.4743443780494
 31
0.0
  0
LINE
  5
10E3
330
10C4
100
AcDbEntity
  8
0
 62
     3
100
AcDbLine
 10
215.6433905993044
 20
286.1149493580494
 30
0.0
 11
215.6433550193044
 21
284.0761877580495
 31
0.0
  0
LINE
  5
10E4
330
10C4
100
AcDbEntity
  8
0
 62
     3
100
AcDbLine
 10
215.6433445193043
 20
283.4743443780494
 30
0.0
 11
215.6433089293043
 21
281.4354439080495
 31
0.0
  0
LINE
  5
10E5
330
10C4
100
AcDbEntity
  8
0
 62
     3
100
AcDbLine
 10
214.1073590293045
 20
286.1149493580494
 30
0.0
 11
214.1073946093043
 21
284.0761877580495
 31
0.0
  0
LINE
  5
10E6
330
10C4
100
AcDbEntity
  8
0
 62
     3
100
AcDbLine
 10
214.1074051093044
 20
283.4743443780494
 30
0.0
 11
214.1074406993043
 21
281.4354439080495
 31
0.0
  0
LINE
  5
10E7
330
10C4
100
AcDbEntity
  8
0
 62
     3
100
AcDbLine
 10
218.1054948393044
 20
286.4399059780494
 30
0.0
 11
218.7279907293044
 21
286.1149493580494
 31
0.0
  0
LINE
  5
10E8
330
10C4
100
AcDbEntity
  8
0
 62
     3
100
AcDbLine
 10
218.7279907293044
 20
286.1149493580494
 30
0.0
 11
218.7279090493043
 21
281.4354439080495
 31
0.0
  0
LINE
  5
10E9
330
10C4
100
AcDbEntity
  8
0
 62
     3
100
AcDbLine
 10
218.1054018193044
 20
281.1105090180495
 30
0.0
 11
218.7279090493043
 21
281.4354439080495
 31
0.0
  0
LINE
  5
10EA
330
10C4
100
AcDbEntity
  8
0
 62
     3
100
AcDbLine
 10
220.8619380793043
 20
286.4399059780494
 30
0.0
 11
220.2394421893043
 21
286.1149493580494
 31
0.0
  0
LINE
  5
10EB
330
10C4
100
AcDbEntity
  8
0
 62
     3
100
AcDbLine
 10
220.2394421893043
 20
286.1149493580494
 30
0.0
 11
220.2395238693043
 21
281.4354439080495
 31
0.0
  0
LINE
  5
10EC
330
10C4
100
AcDbEntity
  8
0
 62
     3
100
AcDbLine
 10
220.8620310993042
 20
281.1105090180495
 30
0.0
 11
220.2395238693043
 21
281.4354439080495
 31
0.0
  0
LINE
  5
10ED
330
10C4
100
AcDbEntity
  8
0
 62
     3
100
AcDbLine
 10
221.1681660293043
 20
286.4399059780494
 30
0.0
 11
221.7906619193043
 21
286.1149493580494
 31
0.0
  0
LINE
  5
10EE
330
10C4
100
AcDbEntity
  8
0
 62
     3
100
AcDbLine
 10
221.7906619193043
 20
286.1149493580494
 30
0.0
 11
221.7905802493044
 21
281.4354439080495
 31
0.0
  0
LINE
  5
10EF
330
10C4
100
AcDbEntity
  8
0
 62
     3
100
AcDbLine
 10
221.1680730193043
 20
281.1105090180495
 30
0.0
 11
221.7905802493044
 21
281.4354439080495
 31
0.0
  0
ARC
  5
10F0
330
10C4
100
AcDbEntity
  8
0
 62
     3
100
AcDbCircle
 10
209.9524660093043
 20
283.7886800080495
 30
0.0
 40
2.98040844
100
AcDbArc
 50
97.70152350999723
 51
270.0
  0
ARC
  5
10F1
330
10C4
100
AcDbEntity
  8
0
 62
     3
100
AcDbCircle
 10
228.3533243493043
 20
283.7587419680494
 30
0.0
 40
3.012776259999998
100
AcDbArc
 50
0.314250269999259
 51
69.00558245000303
  0
ARC
  5
10F2
330
10C4
100
AcDbEntity
  8
0
 62
     3
100
AcDbCircle
 10
229.0114319593044
 20
283.7587419680494
 30
0.0
 40
3.012776259999998
100
AcDbArc
 50
110.9944175499969
 51
148.1166110200042
  0
ARC
  5
10F3
330
10C4
100
AcDbEntity
  8
0
 62
     3
100
AcDbCircle
 10
228.3533243493043
 20
283.7917901680495
 30
0.0
 40
3.012776259999998
100
AcDbArc
 50
290.9944175499969
 51
359.6857497300007
  0
ARC
  5
10F4
330
10C4
100
AcDbEntity
  8
0
 62
     3
100
AcDbCircle
 10
229.0114319593044
 20
283.7917901680495
 30
0.0
 40
3.012776259999998
100
AcDbArc
 50
211.8833889799958
 51
249.005582450003
  0
ARC
  5
10F5
330
10C4
100
AcDbEntity
  8
0
 62
     3
100
AcDbCircle
 10
228.6823781593043
 20
285.0078451980495
 30
0.0
 40
1.73438712
100
AcDbArc
 50
64.3651718999996
 51
115.6348281000004
  0
ARC
  5
10F6
330
10C4
100
AcDbEntity
  8
0
 62
     3
100
AcDbCircle
 10
228.6823781593043
 20
282.5426869380494
 30
0.0
 40
1.73438712
100
AcDbArc
 50
244.3651718999996
 51
295.6348281000004
  0
ARC
  5
10F7
330
10C4
100
AcDbEntity
  8
0
 62
     3
100
AcDbCircle
 10
228.6823781593043
 20
285.0407904580494
 30
0.0
 40
0.85122233
100
AcDbArc
 50
19.48660554000363
 51
160.5133944599963
  0
ARC
  5
10F8
330
10C4
100
AcDbEntity
  8
0
 62
     3
100
AcDbCircle
 10
228.6823781593043
 20
282.5426869380494
 30
0.0
 40
1.73438712
100
AcDbArc
 50
244.3651718999996
 51
295.6348281000004
  0
ARC
  5
10F9
330
10C4
100
AcDbEntity
  8
0
 62
     3
100
AcDbCircle
 10
228.6823781593043
 20
282.5097416780494
 30
0.0
 40
0.85122233
100
AcDbArc
 50
199.4866055400036
 51
340.5133944599964
  0
ARC
  5
10FA
330
10C4
100
AcDbEntity
  8
0
 62
     3
100
AcDbCircle
 10
221.9074174393045
 20
252.0208948680495
 30
0.0
 40
37.20000000000001
100
AcDbArc
 50
69.50571480000832
 51
81.68998807001051
  0
ARC
  5
10FB
330
10C4
100
AcDbEntity
  8
0
 62
     3
100
AcDbCircle
 10
221.9074174393045
 20
315.5296372680494
 30
0.0
 40
37.20000000000001
100
AcDbArc
 50
278.3100119299894
 51
290.4942851999917
  0
ARC
  5
10FC
330
10C4
100
AcDbEntity
  8
0
 62
     3
100
AcDbCircle
 10
233.7762804793042
 20
283.7752660680494
 30
0.0
 40
3.299999999999998
100
AcDbArc
 50
290.4942851999917
 51
69.50571480000832
  0
ARC
  5
10FD
330
10C4
100
AcDbEntity
  8
0
 62
     3
100
AcDbCircle
 10
194.7762804793042
 20
283.7752660680494
 30
0.0
 40
3.299999999999998
100
AcDbArc
 50
110.4942851999916
 51
249.5057148000083
  0
ARC
  5
10FE
330
10C4
100
AcDbEntity
  8
0
 62
     3
100
AcDbCircle
 10
206.6451435093045
 20
252.0208948680495
 30
0.0
 40
37.20000000000001
100
AcDbArc
 50
98.31001192998948
 51
110.4942851999916
  0
ARC
  5
10FF
330
10C4
100
AcDbEntity
  8
0
 62
     3
100
AcDbCircle
 10
206.6451435093045
 20
315.5296372680494
 30
0.0
 40
37.20000000000001
100
AcDbArc
 50
249.5057148000083
 51
261.6899880699973
  0
ARC
  5
1100
330
10C4
100
AcDbEntity
  8
0
 62
     3
100
AcDbCircle
 10
214.2762804793042
 20
199.7752660680494
 30
0.0
 40
89.99999981
100
AcDbArc
 50
81.68998807001051
 51
98.31001192998948
  0
ARC
  5
1101
330
10C4
100
AcDbEntity
  8
0
 62
     3
100
AcDbCircle
 10
214.2762804793042
 20
367.7752660680494
 30
0.0
 40
89.99999981
100
AcDbArc
 50
261.6899880699973
 51
278.3100119299894
  0
ARC
  5
1102
330
10C4
100
AcDbEntity
  8
0
 62
     3
100
AcDbCircle
 10
214.2762804793042
 20
199.7752660680494
 30
0.0
 40
89.09999981
100
AcDbArc
 50
81.68998807001051
 51
98.31001192998948
  0
ARC
  5
1103
330
10C4
100
AcDbEntity
  8
0
 62
     3
100
AcDbCircle
 10
214.2762804793042
 20
367.7752660680494
 30
0.0
 40
89.09999981
100
AcDbArc
 50
261.6899880699973
 51
278.3100119299894
  0
ARC
  5
1104
330
10C4
100
AcDbEntity
  8
0
 62
     3
100
AcDbCircle
 10
221.9074174393045
 20
315.5296372680494
 30
0.0
 40
36.3
100
AcDbArc
 50
278.3100119299894
 51
290.4942851999917
  0
ARC
  5
1105
330
10C4
100
AcDbEntity
  8
0
 62
     3
100
AcDbCircle
 10
221.9074174393045
 20
252.0208948680495
 30
0.0
 40
36.3
100
AcDbArc
 50
69.50571480000832
 51
81.68998807001051
  0
ARC
  5
1106
330
10C4
100
AcDbEntity
  8
0
 62
     3
100
AcDbCircle
 10
233.7762804793042
 20
283.7752660680494
 30
0.0
 40
2.399999999999999
100
AcDbArc
 50
290.4942851999917
 51
69.50571480000832
  0
ARC
  5
1107
330
10C4
100
AcDbEntity
  8
0
 62
     3
100
AcDbCircle
 10
194.7762804793042
 20
283.7752660680494
 30
0.0
 40
2.399999999999999
100
AcDbArc
 50
110.4942851999916
 51
249.5057148000083
  0
ARC
  5
1108
330
10C4
100
AcDbEntity
  8
0
 62
     3
100
AcDbCircle
 10
206.6451435093045
 20
252.0208948680495
 30
0.0
 40
36.3
100
AcDbArc
 50
98.31001192998948
 51
110.4942851999916
  0
ARC
  5
1109
330
10C4
100
AcDbEntity
  8
0
 62
     3
100
AcDbCircle
 10
206.6451435093045
 20
315.5296372680494
 30
0.0
 40
36.3
100
AcDbArc
 50
249.5057148000083
 51
261.6899880699973
  0
LINE
  5
110A
330
10C4
100
AcDbEntity
  8
0
 62
     3
100
AcDbLine
 10
220.8619391993043
 20
280.8082998080495
 30
0.0
 11
218.1054937193044
 21
280.8082998080495
 31
0.0
  0
LINE
  5
110B
330
10C4
100
AcDbEntity
  8
0
 62
     3
100
AcDbLine
 10
220.8619391993043
 20
281.1105300180494
 30
0.0
 11
220.8619391993043
 21
280.8082998080495
 31
0.0
  0
LINE
  5
110C
330
10C4
100
AcDbEntity
  8
0
 62
     3
100
AcDbLine
 10
217.8098400693043
 20
286.7420912980494
 30
0.0
 11
215.0208935993044
 21
286.7420912980494
 31
0.0
  0
LINE
  5
110D
330
10C4
100
AcDbEntity
  8
0
 62
     3
100
AcDbLine
 10
217.8098400693043
 20
286.7420912980494
 30
0.0
 11
217.8098400693043
 21
286.4400021180495
 31
0.0
  0
LINE
  5
110E
330
10C4
100
AcDbEntity
  8
0
 62
     3
100
AcDbLine
 10
217.8098400693043
 20
281.1105300180494
 30
0.0
 11
217.8098400693043
 21
280.8081587880495
 31
0.0
  0
LINE
  5
110F
330
10C4
100
AcDbEntity
  8
0
 62
     3
100
AcDbLine
 10
217.8098400693043
 20
280.8081587880495
 30
0.0
 11
215.0208935993044
 21
280.8081587880495
 31
0.0
  0
LINE
  5
1110
330
10C4
100
AcDbEntity
  8
0
 62
     3
100
AcDbLine
 10
220.8619391993043
 20
286.7422323280495
 30
0.0
 11
220.8619391993043
 21
286.4400021180495
 31
0.0
  0
LINE
  5
1111
330
10C4
100
AcDbEntity
  8
0
 62
     3
100
AcDbLine
 10
220.8619391993043
 20
286.7422323280495
 30
0.0
 11
218.1054937193044
 21
286.7422323280495
 31
0.0
  0
LINE
  5
1112
330
10C4
100
AcDbEntity
  8
0
 62
     3
100
AcDbLine
 10
218.1054937193044
 20
286.7422323280495
 30
0.0
 11
218.1054937193044
 21
286.4400021180495
 31
0.0
  0
LINE
  5
1113
330
10C4
100
AcDbEntity
  8
0
 62
     3
100
AcDbLine
 10
221.1681649093043
 20
281.1105300180494
 30
0.0
 11
221.1681649093043
 21
280.8082998080495
 31
0.0
  0
LINE
  5
1114
330
10C4
100
AcDbEntity
  8
0
 62
     3
100
AcDbLine
 10
224.0028799993043
 20
280.8082998080495
 30
0.0
 11
221.1681649093043
 21
280.8082998080495
 31
0.0
  0
LINE
  5
1115
330
10C4
100
AcDbEntity
  8
0
 62
     3
100
AcDbLine
 10
223.3021133893044
 20
285.7882758680495
 30
0.0
 11
223.3021133893044
 21
281.7622562680494
 31
0.0
  0
LINE
  5
1116
330
10C4
100
AcDbEntity
  8
0
 62
     3
100
AcDbLine
 10
223.3021133893044
 20
281.7622562680494
 30
0.0
 11
223.5736119093044
 21
281.7622562680494
 31
0.0
  0
ARC
  5
1117
330
10C4
100
AcDbEntity
  8
0
 62
     3
100
AcDbCircle
 10
222.1853465693043
 20
283.7752660680494
 30
0.0
 40
2.44529939
100
AcDbArc
 50
304.5919552700016
 51
55.40804472999841
  0
LINE
  5
1118
330
10C4
100
AcDbEntity
  8
0
 62
     3
100
AcDbLine
 10
224.0028799993043
 20
286.7422323280495
 30
0.0
 11
221.1681649093043
 21
286.7422323280495
 31
0.0
  0
LINE
  5
1119
330
10C4
100
AcDbEntity
  8
0
 62
     3
100
AcDbLine
 10
221.1681649093043
 20
286.7422323280495
 30
0.0
 11
221.1681649093043
 21
286.4400021180495
 31
0.0
  0
LINE
  5
111A
330
10C4
100
AcDbEntity
  8
0
 62
     3
100
AcDbLine
 10
218.1054937193044
 20
281.1105300180494
 30
0.0
 11
218.1054937193044
 21
280.8082998080495
 31
0.0
  0
LINE
  5
111B
330
10C4
100
AcDbEntity
  8
0
 62
     3
100
AcDbLine
 10
223.3021133893044
 20
285.7882758680495
 30
0.0
 11
223.5736119093044
 21
285.7882758680495
 31
0.0
  0
LINE
  5
111C
330
10C4
100
AcDbEntity
  8
0
 62
     3
100
AcDbLine
 10
206.6690281493043
 20
281.1105300180494
 30
0.0
 11
206.6690228793043
 21
280.8082715680495
 31
0.0
  0
LINE
  5
111D
330
10C4
100
AcDbEntity
  8
0
 62
     3
100
AcDbLine
 10
203.9125773993044
 20
280.8083280580495
 30
0.0
 11
206.6690228793043
 21
280.8082799480494
 31
0.0
  0
LINE
  5
111E
330
10C4
100
AcDbEntity
  8
0
 62
     3
100
AcDbLine
 10
197.7748890393043
 20
280.8082998080495
 30
0.0
 11
199.9738395093043
 21
280.8082998080495
 31
0.0
  0
ARC
  5
111F
330
10C4
100
AcDbEntity
  8
0
 62
     3
100
AcDbCircle
 10
190.6578280693043
 20
283.8451326780495
 30
0.0
 40
21.01937947
100
AcDbArc
 50
353.8660061899987
 51
357.6940342600001
  0
LINE
  5
1120
330
10C4
100
AcDbEntity
  8
0
 62
     3
100
AcDbLine
 10
210.2529421593045
 20
283.0046074580494
 30
0.0
 11
211.6601862793043
 21
282.9994004880494
 31
0.0
  0
LWPOLYLINE
  5
1121
330
10C4
100
AcDbEntity
  8
0
 62
     3
100
AcDbPolyline
 90
       64
 70
     0
 43
0.0
 10
210.2586256093043
 20
284.5406285180494
 10
210.2320148593044
 20
284.7110110380495
 10
210.2000560293045
 20
284.8741607280494
 10
210.1629961293042
 20
285.0288165280495
 10
210.1211216293043
 20
285.1737830280494
 10
210.0747561993044
 20
285.3079397180495
 10
210.0242582093042
 20
285.4302496180494
 10
209.9700179893043
 20
285.5397673580494
 10
209.9124547893043
 20
285.6356464080494
 10
209.8520135393044
 20
285.7171456780494
 10
209.7891614193045
 20
285.7836352180494
 10
209.7243842393043
 20
285.8346010980495
 10
209.6581827093043
 20
285.8696493780494
 10
209.5910685193044
 20
285.8885091480495
 10
209.5235604293043
 20
285.8910346480494
 10
209.4561802393043
 20
285.8772063380494
 10
209.3894487693044
 20
285.8471311080494
 10
209.3238818293043
 20
285.8010414380494
 10
209.2599861893043
 20
285.7392935580494
 10
209.1982557593044
 20
285.6623647680494
 10
209.1391676693042
 20
285.5708496680495
 10
209.0831786393044
 20
285.4654556380495
 10
209.0307214393042
 20
285.3469973080495
 10
208.9822015393042
 20
285.2163902980494
 10
208.9379939593043
 20
285.0746441480494
 10
208.8984404193043
 20
284.9228544780494
 10
208.8638466393045
 20
284.7621945380495
 10
208.8344800093044
 20
284.5939061480494
 10
208.8105675193044
 20
284.4192900880495
 10
208.7922940093045
 20
284.2396960580495
 10
208.7798007093042
 20
284.0565122180494
 10
208.7731841993043
 20
283.8711544980494
 10
208.7724956093043
 20
283.6850555980494
 10
208.7777402693043
 20
283.4996539880494
 10
208.7888776393043
 20
283.3163827180495
 10
208.8058216393042
 20
283.1366583780495
 10
208.8284412893045
 20
282.9618701480494
 10
208.8565617593044
 20
282.7933690480495
 10
208.8899656893043
 20
282.6324575080495
 10
208.9283948893044
 20
282.4803792880494
 10
208.9715523093043
 20
282.3383098780496
 10
209.0191043793043
 20
282.2073473980495
 10
209.0706835293044
 20
282.0885041180495
 10
209.1258910993042
 20
281.9826986480494
 10
209.1843003493043
 20
281.8907487880494
 10
209.2454598093043
 20
281.8133652880494
 10
209.3088967493045
 20
281.7511462680494
 10
209.3741208293045
 20
281.7045726580494
 10
209.4406279093043
 20
281.6740044280495
 10
209.5079039193042
 20
281.6596778780495
 10
209.5754288493044
 20
281.6617037380495
 10
209.6426807693042
 20
281.6800663380494
 10
209.7091398493044
 20
281.7146237580494
 10
209.7742924093043
 20
281.7651088880495
 10
209.8376348393044
 20
281.8311314880494
 10
209.8986775393044
 20
281.9121812480495
 10
209.9569486793043
 20
282.0076316980494
 10
210.0119978593043
 20
282.1167450580495
 10
210.0633995793044
 20
282.2386779180495
 10
210.1107565193042
 20
282.3724878280494
 10
210.1537026393044
 20
282.5171404780494
 10
210.1919059893043
 20
282.6715177980494
 10
210.2250712793043
 20
282.8344265280494
 10
210.2529421593045
 20
283.0046074580494
  0
LINE
  5
1122
330
10C4
100
AcDbEntity
  8
0
 62
     3
100
AcDbLine
 10
210.2586256093043
 20
284.5406285180494
 30
0.0
 11
211.6658697293044
 21
284.5354215480495
 31
0.0
  0
ARC
  5
1123
330
10C4
100
AcDbEntity
  8
0
 62
     3
100
AcDbCircle
 10
190.6578280693043
 20
283.8451326780495
 30
0.0
 40
21.01937947
100
AcDbArc
 50
1.881965739999571
 51
5.709993809998523
  0
LINE
  5
1124
330
10C4
100
AcDbEntity
  8
0
 62
     3
100
AcDbLine
 10
206.6691264393043
 20
286.7422040780494
 30
0.0
 11
206.6691211693044
 21
286.4400021180495
 31
0.0
  0
LINE
  5
1125
330
10C4
100
AcDbEntity
  8
0
 62
     3
100
AcDbLine
 10
203.9126809593045
 20
286.7422605680495
 30
0.0
 11
206.6691264393043
 21
286.7422124580495
 31
0.0
  0
LINE
  5
1126
330
10C4
100
AcDbEntity
  8
0
 62
     3
100
AcDbLine
 10
203.9125826693044
 20
281.1105300180494
 30
0.0
 11
203.9125773993044
 21
280.8083280580495
 31
0.0
  0
LINE
  5
1127
330
10C4
100
AcDbEntity
  8
0
 62
     3
100
AcDbLine
 10
203.9126809593045
 20
286.7422605680495
 30
0.0
 11
203.9126756893042
 21
286.4400021180495
 31
0.0
  0
LINE
  5
1128
330
10C4
100
AcDbEntity
  8
0
 62
     3
100
AcDbLine
 10
199.9738395093043
 20
281.1105300180494
 30
0.0
 11
199.9738395093043
 21
280.8082998080495
 31
0.0
  0
LINE
  5
1129
330
10C4
100
AcDbEntity
  8
0
 62
     3
100
AcDbLine
 10
199.3513424993043
 20
284.2881399480494
 30
0.0
 11
201.5262425793044
 21
280.8082998080495
 31
0.0
  0
LINE
  5
112A
330
10C4
100
AcDbEntity
  8
0
 62
     3
100
AcDbLine
 10
201.5262425793044
 20
280.8082998080495
 30
0.0
 11
202.9825750493044
 21
280.8082998080495
 31
0.0
  0
LINE
  5
112B
330
10C4
100
AcDbEntity
  8
0
 62
     3
100
AcDbLine
 10
203.6050720493045
 20
286.7422323280495
 30
0.0
 11
203.6050720493045
 21
286.4400021180495
 31
0.0
  0
LINE
  5
112C
330
10C4
100
AcDbEntity
  8
0
 62
     3
100
AcDbLine
 10
201.4061215793045
 20
286.7422323280495
 30
0.0
 11
203.6050720493045
 21
286.7422323280495
 31
0.0
  0
LINE
  5
112D
330
10C4
100
AcDbEntity
  8
0
 62
     3
100
AcDbLine
 10
201.4061215793045
 20
286.7422323280495
 30
0.0
 11
201.4061215793045
 21
286.4400021180495
 31
0.0
  0
LINE
  5
112E
330
10C4
100
AcDbEntity
  8
0
 62
     3
100
AcDbLine
 10
202.0286185893044
 20
284.0545661180495
 30
0.0
 11
200.2648376493044
 21
286.7422323280495
 31
0.0
  0
LINE
  5
112F
330
10C4
100
AcDbEntity
  8
0
 62
     3
100
AcDbLine
 10
197.7748890393043
 20
286.7422323280495
 30
0.0
 11
200.2648376493044
 21
286.7422323280495
 31
0.0
  0
LINE
  5
1130
330
10C4
100
AcDbEntity
  8
0
 62
     3
100
AcDbLine
 10
211.9409095593044
 20
286.7420912980494
 30
0.0
 11
214.7298560393042
 21
286.7420912980494
 31
0.0
  0
LINE
  5
1131
330
10C4
100
AcDbEntity
  8
0
 62
     3
100
AcDbLine
 10
211.9409095593044
 20
286.4400021180495
 30
0.0
 11
211.9409095593044
 21
286.7420912980494
 31
0.0
  0
LINE
  5
1132
330
10C4
100
AcDbEntity
  8
0
 62
     3
100
AcDbLine
 10
211.9409095593044
 20
280.8081587880495
 30
0.0
 11
211.9409095593044
 21
281.1105300180494
 31
0.0
  0
LINE
  5
1133
330
10C4
100
AcDbEntity
  8
0
 62
     3
100
AcDbLine
 10
211.9409095593044
 20
280.8081587880495
 30
0.0
 11
214.7298560393042
 21
280.8081587880495
 31
0.0
  0
LINE
  5
1134
330
10C4
100
AcDbEntity
  8
0
 62
     3
100
AcDbLine
 10
215.0208935993044
 20
281.1105300180494
 30
0.0
 11
215.0208935993044
 21
280.8081587880495
 31
0.0
  0
LINE
  5
1135
330
10C4
100
AcDbEntity
  8
0
 62
     3
100
AcDbLine
 10
214.7298560393042
 20
281.1105300180494
 30
0.0
 11
214.7298560393042
 21
280.8081587880495
 31
0.0
  0
LINE
  5
1136
330
10C4
100
AcDbEntity
  8
0
 62
     3
100
AcDbLine
 10
214.7298560393042
 20
286.4400021180495
 30
0.0
 11
214.7298560393042
 21
286.7420912980494
 31
0.0
  0
LINE
  5
1137
330
10C4
100
AcDbEntity
  8
0
 62
     3
100
AcDbLine
 10
215.0208935993044
 20
286.4400021180495
 30
0.0
 11
215.0208935993044
 21
286.7420912980494
 31
0.0
  0
LINE
  5
1138
330
10C4
100
AcDbEntity
  8
0
 62
     3
100
AcDbLine
 10
197.7748890393043
 20
281.1105300180494
 30
0.0
 11
197.7748890393043
 21
280.8082998080495
 31
0.0
  0
LINE
  5
1139
330
10C4
100
AcDbEntity
  8
0
 62
     3
100
AcDbLine
 10
197.7748890393043
 20
286.7422323280495
 30
0.0
 11
197.7748890393043
 21
286.4400021180495
 31
0.0
  0
ARC
  5
113A
330
10C4
100
AcDbEntity
  8
0
 62
     3
100
AcDbCircle
 10
224.3028799993044
 20
284.3977630780495
 30
0.0
 40
2.344469249999999
100
AcDbArc
 50
17.30874897999644
 51
23.76507095999633
  0
ARC
  5
113B
330
10C4
100
AcDbEntity
  8
0
 62
     3
100
AcDbCircle
 10
222.3053465693042
 20
283.7752660680494
 30
0.0
 40
4.43675086
100
AcDbArc
 50
342.6912510200036
 51
17.30856643999929
  0
ARC
  5
113C
330
10C4
100
AcDbEntity
  8
0
 62
     3
100
AcDbCircle
 10
224.3028799993044
 20
283.1527690580495
 30
0.0
 40
2.344469249999999
100
AcDbArc
 50
336.2349290400003
 51
342.6912510200036
  0
ARC
  5
113D
330
10C4
100
AcDbEntity
  8
0
 62
     3
100
AcDbCircle
 10
224.0028799993043
 20
284.3977630780495
 30
0.0
 40
2.344469249999999
100
AcDbArc
 50
17.30874897999644
 51
90.0
  0
ARC
  5
113E
330
10C4
100
AcDbEntity
  8
0
 62
     3
100
AcDbCircle
 10
222.0053465693045
 20
283.7752660680494
 30
0.0
 40
4.43675086
100
AcDbArc
 50
342.6912510200036
 51
17.30856643999929
  0
ARC
  5
113F
330
10C4
100
AcDbEntity
  8
0
 62
     3
100
AcDbCircle
 10
224.0028799993043
 20
283.1527690580495
 30
0.0
 40
2.344469249999999
100
AcDbArc
 50
270.0
 51
342.6912510200036
  0
ARC
  5
1140
330
10C4
100
AcDbEntity
  8
0
 62
     3
100
AcDbCircle
 10
209.5401080293043
 20
283.7752660680494
 30
0.0
 40
2.966966259999998
100
AcDbArc
 50
46.75287960999425
 51
89.74999828999569
  0
ARC
  5
1141
330
10C4
100
AcDbEntity
  8
0
 62
     3
100
AcDbCircle
 10
209.5401080293043
 20
283.7752660680494
 30
0.0
 40
2.966966259999998
100
AcDbArc
 50
273.976333149997
 51
312.8231203899988
  0
ARC
  5
1142
330
10C4
100
AcDbEntity
  8
0
 62
     3
100
AcDbCircle
 10
225.8855479593044
 20
283.7294638880495
 30
0.0
 40
3.936984289999998
100
AcDbArc
 50
0.6665840599997753
 51
23.90392827000137
  0
ARC
  5
1143
330
10C4
100
AcDbEntity
  8
0
 62
     3
100
AcDbCircle
 10
231.4792083493044
 20
283.7294638880495
 30
0.0
 40
3.936984289999998
100
AcDbArc
 50
156.0960717299986
 51
179.3334159400002
  0
ARC
  5
1144
330
10C4
100
AcDbEntity
  8
0
 62
     3
100
AcDbCircle
 10
225.8855479593044
 20
283.8210682480494
 30
0.0
 40
3.936984289999998
100
AcDbArc
 50
336.0960717299986
 51
359.3334159400003
  0
ARC
  5
1145
330
10C4
100
AcDbEntity
  8
0
 62
     3
100
AcDbCircle
 10
231.4792083493044
 20
283.8210682480494
 30
0.0
 40
3.936984289999998
100
AcDbArc
 50
180.6665840599997
 51
203.9039282700014
  0
LINE
  5
1146
330
10C4
100
AcDbEntity
  8
0
 62
     3
100
AcDbLine
 10
238.6567247493044
 20
283.9999999780495
 30
0.0
 11
409.9999995693042
 21
283.9999999780495
 31
0.0
  0
LINE
  5
1147
330
10C4
100
AcDbEntity
  8
0
 62
     3
100
AcDbLine
 10
190.1026900793045
 20
283.9999999780495
 30
0.0
 11
19.99999956930423
 21
283.9999999780495
 31
0.0
  0
LINE
  5
1148
330
10C4
100
AcDbEntity
  8
0
 62
     3
100
AcDbLine
 10
7.598075779304281
 20
150.4446389280494
 30
0.0
 11
4.999999569304236
 21
148.9446389280494
 31
0.0
  0
LINE
  5
1149
330
10C4
100
AcDbEntity
  8
0
 62
     3
100
AcDbLine
 10
7.598075779304281
 20
150.4446389280494
 30
0.0
 11
4.999999569304236
 21
151.9446389280494
 31
0.0
  0
LINE
  5
114A
330
10C4
100
AcDbEntity
  8
0
 62
     3
100
AcDbLine
 10
4.999999569304236
 20
148.9446389280494
 30
0.0
 11
4.999999569304236
 21
151.9446389280494
 31
0.0
  0
LINE
  5
114B
330
10C4
100
AcDbEntity
  8
0
 62
   254
370
     0
100
AcDbLine
 10
-0.0000004306955361
 20
-0.0000000219505125
 30
0.0
 11
-0.0000004306955361
 21
291.9999999780495
 31
0.0
  0
LINE
  5
114C
330
10C4
100
AcDbEntity
  8
0
 62
   254
370
     0
100
AcDbLine
 10
-0.0000004306955361
 20
291.9999999780495
 30
0.0
 11
419.999999569304
 21
291.9999999780495
 31
0.0
  0
LINE
  5
114D
330
10C4
100
AcDbEntity
  8
0
 62
     3
100
AcDbLine
 10
357.9999995693045
 20
9.999999978049487
 30
0.0
 11
357.9999995693045
 21
49.99999997804948
 31
0.0
  0
LINE
  5
114E
330
10C4
100
AcDbEntity
  8
0
 62
     3
100
AcDbLine
 10
370.9999995693045
 20
19.99999997804948
 30
0.0
 11
370.9999995693045
 21
47.99999997804948
 31
0.0
  0
LINE
  5
114F
330
10C4
100
AcDbEntity
  8
0
 62
     3
100
AcDbLine
 10
330.9999995693045
 20
19.99999997804948
 30
0.0
 11
330.9999995693045
 21
33.99999997804949
 31
0.0
  0
LINE
  5
1150
330
10C4
100
AcDbEntity
  8
0
 62
     3
100
AcDbLine
 10
340.9999995693045
 20
33.99999997804949
 30
0.0
 11
340.9999995693045
 21
9.999999978049487
 31
0.0
  0
LINE
  5
1151
330
10C4
100
AcDbEntity
  8
0
 62
     3
100
AcDbLine
 10
311.9999995693045
 20
49.99999997804948
 30
0.0
 11
311.9999995693045
 21
26.99999997804949
 31
0.0
  0
LINE
  5
1152
330
10C4
100
AcDbEntity
  8
0
 62
     3
100
AcDbLine
 10
370.9999995693045
 20
47.99999997804948
 30
0.0
 11
370.9999995693045
 21
49.99999997804948
 31
0.0
  0
LINE
  5
1153
330
10C4
100
AcDbEntity
  8
0
 62
     3
100
AcDbLine
 10
383.9999995693045
 20
26.99999997804949
 30
0.0
 11
383.9999995693045
 21
49.99999997804948
 31
0.0
  0
LINE
  5
1154
330
10C4
100
AcDbEntity
  8
0
 62
     3
100
AcDbLine
 10
409.9999995693043
 20
49.99999997804948
 30
0.0
 11
298.7545649293045
 21
49.99999997804948
 31
0.0
  0
LINE
  5
1155
330
10C4
100
AcDbEntity
  8
0
 62
     3
100
AcDbLine
 10
409.9999995693043
 20
40.99999997804949
 30
0.0
 11
298.7545649293045
 21
40.99999997804949
 31
0.0
  0
LINE
  5
1156
330
10C4
100
AcDbEntity
  8
0
 62
     3
100
AcDbLine
 10
409.9999995693043
 20
26.99999997804949
 30
0.0
 11
298.7545649293045
 21
26.99999997804949
 31
0.0
  0
LINE
  5
1157
330
10C4
100
AcDbEntity
  8
0
 62
     3
100
AcDbLine
 10
409.9999995693043
 20
19.99999997804948
 30
0.0
 11
298.6965570693044
 21
19.99999997804948
 31
0.0
  0
LINE
  5
1158
330
10C4
100
AcDbEntity
  8
0
 62
     3
100
AcDbLine
 10
396.9999995693044
 20
26.99999997804949
 30
0.0
 11
396.9999995693044
 21
49.99999997804948
 31
0.0
  0
LINE
  5
1159
330
10C4
100
AcDbEntity
  8
0
 62
     3
100
AcDbLine
 10
298.7545649293045
 20
49.99999997804948
 30
0.0
 11
298.7545649293045
 21
9.999999978049487
 31
0.0
  0
LINE
  5
115A
330
10C4
100
AcDbEntity
  8
0
 62
     3
100
AcDbLine
 10
357.9999995693045
 20
33.99999997804949
 30
0.0
 11
298.7545649293045
 21
33.99999997804947
 31
0.0
  0
LINE
  5
115B
330
10C4
100
AcDbEntity
  8
0
 62
     3
100
AcDbLine
 10
341.2783244993043
 20
14.83286123804947
 30
0.0
 11
357.9999995693045
 21
14.83286123804947
 31
0.0
  0
TEXT
  5
115C
330
10C4
100
AcDbEntity
  8
0
 62
     3
100
AcDbText
 10
342.1643249826202
 20
29.07309683141483
 30
0.0
 40
2.5
  1
******
  7
高2.5
100
AcDbText
  0
TEXT
  5
115D
330
10C4
100
AcDbEntity
  8
0
 62
     3
100
AcDbText
 10
313.1963682645567
 20
29.2978143830334
 30
0.0
 40
2.5
  1
*****
  7
高2.5
100
AcDbText
  0
TEXT
  5
115E
330
10C4
100
AcDbEntity
  8
0
 62
     3
100
AcDbText
 10
313.461276019254
 20
42.31224950180735
 30
0.0
 40
4.5
  1
**********
  7
高4.5
100
AcDbText
1001
ACAD
1000
ACAD_MTEXT_DEFINED_HEIGHT_BEGIN
1070
    46
1040
0.0
1000
ACAD_MTEXT_DEFINED_HEIGHT_END
  0
TEXT
  5
115F
330
10C4
100
AcDbEntity
  8
0
 62
     3
100
AcDbText
 10
400.0655886627783
 20
46.51369207675307
 30
0.0
 40
2.0
  1
DEF
  7
高2
100
AcDbText
  0
TEXT
  5
1160
330
10C4
100
AcDbEntity
  8
0
 62
     3
100
AcDbText
 10
386.1264903090703
 20
46.51369207675299
 30
0.0
 40
2.0
  1
DESN
  7
高2
100
AcDbText
  0
TEXT
  5
1161
330
10C4
100
AcDbEntity
  8
0
 62
     3
100
AcDbText
 10
359.8721233690702
 20
46.51369207675307
 30
0.0
 40
2.0
  1
APPD
  7
高2
100
AcDbText
  0
TEXT
  5
1162
330
10C4
100
AcDbEntity
  8
0
 62
     3
100
AcDbText
 10
372.9848594693044
 20
46.5136920767531
 30
0.0
 40
2.0
  1
CHCK
  7
高2
100
AcDbText
  0
TEXT
  5
1163
330
10C4
100
AcDbEntity
  8
0
 62
     3
100
AcDbText
 10
331.9271652084572
 20
24.16839880128021
 30
0.0
 40
2.0
  1
SCALE
 41
0.8
  7
高2
100
AcDbText
  0
TEXT
  5
1164
330
10C4
100
AcDbEntity
  8
0
 62
     3
100
AcDbText
 10
300.4391436323506
 20
24.16839880128022
 30
0.0
 40
2.0
  1
3AD　ANGLE
 41
1.5
  7
高2
100
AcDbText
  0
TEXT
  5
1165
330
10C4
100
AcDbEntity
  8
0
 62
     3
100
AcDbText
 10
331.1965708993059
 20
30.91993687023731
 30
0.0
 40
2.0
  1
REMARKS
 41
0.7
  7
高2
100
AcDbText
  0
TEXT
  5
1166
330
10C4
100
AcDbEntity
  8
0
 62
     3
100
AcDbText
 10
300.2222352793044
 20
30.99999997804949
 30
0.0
 40
2.0
  1
MATERIAL
 41
0.7
  7
高2
100
AcDbText
  0
TEXT
  5
1167
330
10C4
100
AcDbEntity
  8
0
 62
     3
100
AcDbText
 10
300.7987224820586
 20
37.99999997804948
 30
0.0
 40
2.0
  1
MODEL
  7
高2
100
AcDbText
  0
TEXT
  5
1168
330
10C4
100
AcDbEntity
  8
0
 62
     3
100
AcDbText
 10
300.4356433633898
 20
46.70702132864849
 30
0.0
 40
2.0
  1
CONPONENTS
 41
0.5
  7
高2
100
AcDbText
  0
TEXT
  5
1169
330
10C4
100
AcDbEntity
  8
0
 62
     3
100
AcDbText
 10
313.1427588345566
 20
35.08748110586143
 30
0.0
 40
4.5
  1
********
  7
高4.5
100
AcDbText
  0
TEXT
  5
116A
330
10C4
100
AcDbEntity
  8
0
 62
     3
100
AcDbText
 10
361.0650452999231
 20
12.03846137341507
 30
0.0
 40
6.299999999999998
  1
*-********
 41
0.6
  7
高6.3
100
AcDbText
1001
ACAD
1000
ACAD_MTEXT_DEFINED_HEIGHT_BEGIN
1070
    46
1040
0.0
1000
ACAD_MTEXT_DEFINED_HEIGHT_END
  0
TEXT
  5
116B
330
10C4
100
AcDbEntity
  8
0
 62
     3
100
AcDbText
 10
374.563509319634
 20
21.10088913628249
 30
0.0
 40
3.2
  1
******
  7
高3.2
100
AcDbText
1001
ACAD
1000
ACAD_MTEXT_DEFINED_HEIGHT_BEGIN
1070
    46
1040
0.0
1000
ACAD_MTEXT_DEFINED_HEIGHT_END
  0
TEXT
  5
116C
330
10C4
100
AcDbEntity
  8
0
 62
     3
100
AcDbText
 10
344.7875974639508
 20
21.10091698061736
 30
0.0
 40
3.2
  1
1/1
  7
高3.2
100
AcDbText
  0
TEXT
  5
116D
330
10C4
100
AcDbEntity
  8
0
 62
     3
100
AcDbText
 10
341.8649264393043
 20
10.81687815118545
 30
0.0
 40
3.2
  1
ZK-A3X
 41
0.8
  7
高3.2
100
AcDbText
  0
TEXT
  5
116E
330
10C4
100
AcDbEntity
  8
0
 62
     3
100
AcDbText
 10
299.5852659693044
 20
16.52462040023731
 30
0.0
 40
2.0
  1
NICHIDO IND.CO.LTD
 41
1.3
  7
高2
100
AcDbText
  0
TEXT
  5
116F
330
10C4
100
AcDbEntity
  8
0
 62
     3
100
AcDbText
 10
300.7667892342615
 20
42.14052818593439
 30
0.0
 40
3.2
  1
品 名
  7
高3.2
100
AcDbText
1001
ACAD
1000
ACAD_MTEXT_DEFINED_HEIGHT_BEGIN
1070
    46
1040
0.0
1000
ACAD_MTEXT_DEFINED_HEIGHT_END
  0
TEXT
  5
1170
330
10C4
100
AcDbEntity
  8
0
 62
     3
100
AcDbText
 10
300.7667892342615
 20
34.49999997804948
 30
0.0
 40
3.2
  1
型 式
  7
高3.2
100
AcDbText
1001
ACAD
1000
ACAD_MTEXT_DEFINED_HEIGHT_BEGIN
1070
    46
1040
3.064735913775952
1000
ACAD_MTEXT_DEFINED_HEIGHT_END
  0
TEXT
  5
1171
330
10C4
100
AcDbEntity
  8
0
 62
     3
100
AcDbText
 10
300.7667892342615
 20
27.49999997804949
 30
0.0
 40
3.2
  1
材 質
  7
高3.2
100
AcDbText
1001
ACAD
1000
ACAD_MTEXT_DEFINED_HEIGHT_BEGIN
1070
    46
1040
0.0
1000
ACAD_MTEXT_DEFINED_HEIGHT_END
  0
TEXT
  5
1172
330
10C4
100
AcDbEntity
  8
0
 62
     3
100
AcDbText
 10
300.4617542842617
 20
20.46743997029573
 30
0.0
 40
3.2
  1
第 三 角 法
  7
高3.2
100
AcDbText
1001
ACAD
1000
ACAD_MTEXT_DEFINED_HEIGHT_BEGIN
1070
    46
1040
0.0
1000
ACAD_MTEXT_DEFINED_HEIGHT_END
  0
TEXT
  5
1173
330
10C4
100
AcDbEntity
  8
0
 62
     3
100
AcDbText
 10
298.8682868917904
 20
11.14052818593441
 30
0.0
 40
3.2
  1
日動工業株式会社
 41
1.199999999999999
  7
高3.2
100
AcDbText
1001
ACAD
1000
ACAD_MTEXT_DEFINED_HEIGHT_BEGIN
1070
    46
1040
0.0
1000
ACAD_MTEXT_DEFINED_HEIGHT_END
  0
TEXT
  5
1174
330
10C4
100
AcDbEntity
  8
0
 62
     3
100
AcDbText
 10
332.5039110912689
 20
27.38457851121705
 30
0.0
 40
3.2
  1
備考
  7
高3.2
100
AcDbText
1001
ACAD
1000
ACAD_MTEXT_DEFINED_HEIGHT_BEGIN
1070
    46
1040
0.0
1000
ACAD_MTEXT_DEFINED_HEIGHT_END
  0
TEXT
  5
1175
330
10C4
100
AcDbEntity
  8
0
 62
     3
100
AcDbText
 10
342.1529685383043
 20
16.14623000361978
 30
0.0
 40
2.5
  1
出図コード
  7
高2.5
100
AcDbText
1001
ACAD
1000
ACAD_MTEXT_DEFINED_HEIGHT_BEGIN
1070
    46
1040
0.0
1000
ACAD_MTEXT_DEFINED_HEIGHT_END
  0
TEXT
  5
1176
330
10C4
100
AcDbEntity
  8
0
 62
     3
100
AcDbText
 10
332.3451449731815
 20
20.45323488846241
 30
0.0
 40
3.2
  1
尺度
  7
高3.2
100
AcDbText
1001
ACAD
1000
ACAD_MTEXT_DEFINED_HEIGHT_BEGIN
1070
    46
1040
0.0
1000
ACAD_MTEXT_DEFINED_HEIGHT_END
  0
TEXT
  5
1177
330
10C4
100
AcDbEntity
  8
0
 62
     3
100
AcDbText
 10
359.4914064549603
 20
21.5847133365799
 30
0.0
 40
3.2
  1
作成日
  7
高3.2
100
AcDbText
1001
ACAD
1000
ACAD_MTEXT_DEFINED_HEIGHT_BEGIN
1070
    46
1040
0.0
1000
ACAD_MTEXT_DEFINED_HEIGHT_END
  0
TEXT
  5
1178
330
10C4
100
AcDbEntity
  8
0
 62
     3
100
AcDbText
 10
359.3858804618242
 20
42.14052818593439
 30
0.0
 40
3.2
  1
承 認
  7
高3.2
100
AcDbText
1001
ACAD
1000
ACAD_MTEXT_DEFINED_HEIGHT_BEGIN
1070
    46
1040
0.0
1000
ACAD_MTEXT_DEFINED_HEIGHT_END
  0
TEXT
  5
1179
330
10C4
100
AcDbEntity
  8
0
 62
     3
100
AcDbText
 10
372.3858804618242
 20
42.14052818593439
 30
0.0
 40
3.2
  1
検 図
  7
高3.2
100
AcDbText
1001
ACAD
1000
ACAD_MTEXT_DEFINED_HEIGHT_BEGIN
1070
    46
1040
0.0
1000
ACAD_MTEXT_DEFINED_HEIGHT_END
  0
TEXT
  5
117A
330
10C4
100
AcDbEntity
  8
0
 62
     3
100
AcDbText
 10
385.3858804618242
 20
42.14052818593439
 30
0.0
 40
3.2
  1
設 計
  7
高3.2
100
AcDbText
1001
ACAD
1000
ACAD_MTEXT_DEFINED_HEIGHT_BEGIN
1070
    46
1040
0.0
1000
ACAD_MTEXT_DEFINED_HEIGHT_END
  0
TEXT
  5
117B
330
10C4
100
AcDbEntity
  8
0
 62
     3
100
AcDbText
 10
398.6865169818242
 20
42.14052818593439
 30
0.0
 40
3.2
  1
製 図
  7
高3.2
100
AcDbText
1001
ACAD
1000
ACAD_MTEXT_DEFINED_HEIGHT_BEGIN
1070
    46
1040
0.0
1000
ACAD_MTEXT_DEFINED_HEIGHT_END
  0
TEXT
  5
117C
330
10C4
100
AcDbEntity
  8
0
 62
     3
100
AcDbText
 10
397.4999995693043
 20
274.4999999780495
 30
0.0
 40
3.2
  1
担　当
  7
高3.2
100
AcDbText
  0
TEXT
  5
117D
330
10C4
100
AcDbEntity
  8
0
 62
     3
100
AcDbText
 10
353.4999995693042
 20
274.4999999780495
 30
0.0
 40
3.2
  1
変更・追記内容
  7
高3.2
100
AcDbText
  0
TEXT
  5
117E
330
10C4
100
AcDbEntity
  8
0
 62
     3
100
AcDbText
 10
328.6135145696436
 20
269.8294614681412
 30
0.0
 40
2.0
  1
1
  7
高2
100
AcDbText
  0
TEXT
  5
117F
330
10C4
100
AcDbEntity
  8
0
 62
     3
100
AcDbText
 10
328.3050030928862
 20
264.6596447558683
 30
0.0
 40
2.0
  1
2
  7
高2
100
AcDbText
  0
TEXT
  5
1180
330
10C4
100
AcDbEntity
  8
0
 62
     3
100
AcDbText
 10
335.4999995693042
 20
274.4999999780495
 30
0.0
 40
3.2
  1
日　付
  7
高3.2
100
AcDbText
  0
TEXT
  5
1181
330
10C4
100
AcDbEntity
  8
0
 62
     3
100
AcDbText
 10
335.4999995693042
 20
279.4999999780495
 30
0.0
 40
3.2
  1
図　　　　面　　　　略　　　　歴
  7
高3.2
100
AcDbText
  0
TEXT
  5
1182
330
10C4
100
AcDbEntity
  8
0
 62
     3
100
AcDbText
 10
325.4999995693042
 20
274.4999999780495
 30
0.0
 40
3.2
  1
記号
  7
高3.2
100
AcDbText
  0
LINE
  5
1183
330
10C4
100
AcDbEntity
  8
0
 62
     7
100
AcDbLine
 10
328.9999995693043
 20
267.7908959780495
 30
0.0
 11
327.0999995693044
 21
264.4999999780495
 31
0.0
  0
LINE
  5
1184
330
10C4
100
AcDbEntity
  8
0
 62
     7
100
AcDbLine
 10
328.9999995693043
 20
267.7908959780495
 30
0.0
 11
330.8999995693043
 21
264.4999999780495
 31
0.0
  0
LINE
  5
1185
330
10C4
100
AcDbEntity
  8
0
 62
     7
100
AcDbLine
 10
327.0999995693044
 20
264.4999999780495
 30
0.0
 11
330.8999995693043
 21
264.4999999780495
 31
0.0
  0
LINE
  5
1186
330
10C4
100
AcDbEntity
  8
0
 62
     7
100
AcDbLine
 10
328.9999995693043
 20
272.7908969780496
 30
0.0
 11
327.0999995693044
 21
269.4999999780494
 31
0.0
  0
LINE
  5
1187
330
10C4
100
AcDbEntity
  8
0
 62
     7
100
AcDbLine
 10
328.9999995693043
 20
272.7908969780496
 30
0.0
 11
330.8999995693043
 21
269.4999999780494
 31
0.0
  0
LINE
  5
1188
330
10C4
100
AcDbEntity
  8
0
 62
     7
100
AcDbLine
 10
327.0999995693044
 20
269.4999999780494
 30
0.0
 11
330.8999995693043
 21
269.4999999780494
 31
0.0
  0
LINE
  5
1189
330
10C4
100
AcDbEntity
  8
0
 62
     3
100
AcDbLine
 10
323.9999995693042
 20
278.9999999780495
 30
0.0
 11
409.9999995693042
 21
278.9999999780495
 31
0.0
  0
LINE
  5
118A
330
10C4
100
AcDbEntity
  8
0
 62
     3
100
AcDbLine
 10
323.9999995693042
 20
273.9999999780494
 30
0.0
 11
409.9999995693042
 21
273.9999999780494
 31
0.0
  0
LINE
  5
118B
330
10C4
100
AcDbEntity
  8
0
 62
     7
100
AcDbLine
 10
323.9999995693042
 20
268.9999999780495
 30
0.0
 11
409.9999995693042
 21
268.9999999780495
 31
0.0
  0
LINE
  5
118C
330
10C4
100
AcDbEntity
  8
0
 62
     3
100
AcDbLine
 10
323.9999995693042
 20
263.9999999780495
 30
0.0
 11
409.9999995693042
 21
263.9999999780495
 31
0.0
  0
LINE
  5
118D
330
10C4
100
AcDbEntity
  8
0
 62
     7
100
AcDbLine
 10
395.9999995693042
 20
263.9999999780495
 30
0.0
 11
395.9999995693042
 21
278.9999999780495
 31
0.0
  0
LINE
  5
118E
330
10C4
100
AcDbEntity
  8
0
 62
     7
100
AcDbLine
 10
351.9999995693043
 20
263.9999999780495
 30
0.0
 11
351.9999995693043
 21
278.9999999780495
 31
0.0
  0
LINE
  5
118F
330
10C4
100
AcDbEntity
  8
0
 62
     7
100
AcDbLine
 10
333.9999995693042
 20
263.9999999780495
 30
0.0
 11
333.9999995693042
 21
278.9999999780495
 31
0.0
  0
LINE
  5
1190
330
10C4
100
AcDbEntity
  8
0
 62
     3
100
AcDbLine
 10
323.9999995693042
 20
263.9999999780495
 30
0.0
 11
323.9999995693042
 21
283.9999999780495
 31
0.0
  0
ENDBLK
  5
1194
330
10C4
100
AcDbEntity
  8
0
100
AcDbBlockEnd
  0
BLOCK
  5
1401
330
1400
100
AcDbEntity
  8
0
100
AcDbBlockBegin
  2
*D4
 70
     1
 10
0.0
 20
0.0
 30
0.0
  3
*D4
  1

  0
LINE
  5
1943
330
1400
100
AcDbEntity
  8
0
 62
     0
370
    -2
100
AcDbLine
 10
1468.285344544122
 20
185.1398046589461
 30
0.0
 11
1468.285344544122
 21
154.6588776380164
 31
0.0
  0
LINE
  5
1944
330
1400
100
AcDbEntity
  8
0
 62
     0
370
    -2
100
AcDbLine
 10
1589.785344544122
 20
219.8898046589456
 30
0.0
 11
1589.785344544122
 21
154.6588776380164
 31
0.0
  0
LINE
  5
1945
330
1400
100
AcDbEntity
  8
0
 62
     0
370
    -2
100
AcDbLine
 10
1470.785344544122
 20
155.9088776380164
 30
0.0
 11
1587.285344544122
 21
155.9088776380164
 31
0.0
  0
INSERT
  5
1946
330
1400
100
AcDbEntity
  8
0
 62
     0
370
    -2
100
AcDbBlockReference
  2
_Open30
 10
1468.285344544122
 20
155.9088776380164
 30
0.0
 41
2.5
 42
2.5
 43
2.5
 50
180.0
  0
INSERT
  5
1947
330
1400
100
AcDbEntity
  8
0
 62
     0
370
    -2
100
AcDbBlockReference
  2
_Open30
 10
1589.785344544122
 20
155.9088776380164
 30
0.0
 41
2.5
 42
2.5
 43
2.5
  0
MTEXT
  5
1948
330
1400
100
AcDbEntity
  8
0
 62
     4
100
AcDbMText
 10
1523.383735136421
 20
158.0338776380164
 30
0.0
 40
3.0
 41
0.0
 71
     5
 72
     1
  1
125
 73
     1
 44
1.0
1001
ACAD
1000
MTEXTBEGIN
1070
    73
1070
     1
1070
    44
1040
1.0
1070
    74
1070
     0
1000
MTEXTEND
  0
POINT
  5
1949
330
1400
100
AcDbEntity
  8
Defpoints
 62
     0
100
AcDbPoint
 10
1468.285344544122
 20
185.3898046589461
 30
0.0
  0
POINT
  5
194A
330
1400
100
AcDbEntity
  8
Defpoints
 62
     0
100
AcDbPoint
 10
1589.785344544122
 20
220.1398046589456
 30
0.0
  0
POINT
  5
194B
330
1400
100
AcDbEntity
  8
Defpoints
 62
     0
100
AcDbPoint
 10
1589.785344544122
 20
155.9088776380164
 30
0.0
  0
ENDBLK
  5
1402
330
1400
100
AcDbEntity
  8
0
100
AcDbBlockEnd
  0
BLOCK
  5
1419
330
1418
100
AcDbEntity
  8
0
100
AcDbBlockBegin
  2
*D5
 70
     1
 10
0.0
 20
0.0
 30
0.0
  3
*D5
  1

  0
LINE
  5
194C
330
1418
100
AcDbEntity
  8
0
 62
     0
370
    -2
100
AcDbLine
 10
1483.12120756805
 20
256.3898046589461
 30
0.0
 11
1452.921211325601
 21
256.3898046589461
 31
0.0
  0
LINE
  5
194D
330
1418
100
AcDbEntity
  8
0
 62
     0
370
    -2
100
AcDbLine
 10
1565.281142295244
 20
178.389804658946
 30
0.0
 11
1452.921211325601
 21
178.389804658946
 31
0.0
  0
LINE
  5
194E
330
1418
100
AcDbEntity
  8
0
 62
     0
370
    -2
100
AcDbLine
 10
1454.171211325601
 20
253.8898046589461
 30
0.0
 11
1454.171211325601
 21
180.889804658946
 31
0.0
  0
INSERT
  5
194F
330
1418
100
AcDbEntity
  8
0
 62
     0
370
    -2
100
AcDbBlockReference
  2
_Open30
 10
1454.171211325601
 20
256.3898046589461
 30
0.0
 41
2.5
 42
2.5
 43
2.5
 50
90.0
  0
INSERT
  5
1950
330
1418
100
AcDbEntity
  8
0
 62
     0
370
    -2
100
AcDbBlockReference
  2
_Open30
 10
1454.171211325601
 20
178.389804658946
 30
0.0
 41
2.5
 42
2.5
 43
2.5
 50
270.0
  0
MTEXT
  5
1951
330
1418
100
AcDbEntity
  8
0
 62
     4
100
AcDbMText
 10
1452.0462113256
 20
217.3898046589461
 30
0.0
 40
3.0
 41
0.0
 71
     5
 72
     1
  1
77
 11
0.0000000000000001
 21
1.0
 31
0.0
 73
     1
 44
1.0
1001
ACAD
1000
MTEXTBEGIN
1070
    73
1070
     1
1070
    44
1040
1.0
1070
    74
1070
     0
1000
MTEXTEND
  0
POINT
  5
1952
330
1418
100
AcDbEntity
  8
Defpoints
 62
     0
100
AcDbPoint
 10
1483.37120756805
 20
256.3898046589461
 30
0.0
  0
POINT
  5
1953
330
1418
100
AcDbEntity
  8
Defpoints
 62
     0
100
AcDbPoint
 10
1565.531142295244
 20
178.389804658946
 30
0.0
  0
POINT
  5
1954
330
1418
100
AcDbEntity
  8
Defpoints
 62
     0
100
AcDbPoint
 10
1454.171211325601
 20
178.389804658946
 30
0.0
  0
ENDBLK
  5
141A
330
1418
100
AcDbEntity
  8
0
100
AcDbBlockEnd
  0
BLOCK
  5
145E
330
145D
100
AcDbEntity
  8
0
100
AcDbBlockBegin
  2
*D6
 70
     1
 10
0.0
 20
0.0
 30
0.0
  3
*D6
  1

  0
LINE
  5
1955
330
145D
100
AcDbEntity
  8
0
 62
     0
370
    -2
100
AcDbLine
 10
1392.282897246494
 20
219.5019957700784
 30
0.0
 11
1392.282897246494
 21
155.0104647553643
 31
0.0
  0
LINE
  5
1956
330
145D
100
AcDbEntity
  8
0
 62
     0
370
    -2
100
AcDbLine
 10
1435.882897246495
 20
219.5019957700747
 30
0.0
 11
1435.882897246495
 21
155.0104647553643
 31
0.0
  0
LINE
  5
1957
330
145D
100
AcDbEntity
  8
0
 62
     0
370
    -2
100
AcDbLine
 10
1394.782897246494
 20
156.2604647553643
 30
0.0
 11
1433.382897246495
 21
156.2604647553643
 31
0.0
  0
INSERT
  5
1958
330
145D
100
AcDbEntity
  8
0
 62
     0
370
    -2
100
AcDbBlockReference
  2
_Open30
 10
1392.282897246494
 20
156.2604647553643
 30
0.0
 41
2.5
 42
2.5
 43
2.5
 50
180.0
  0
INSERT
  5
1959
330
145D
100
AcDbEntity
  8
0
 62
     0
370
    -2
100
AcDbBlockReference
  2
_Open30
 10
1435.882897246495
 20
156.2604647553643
 30
0.0
 41
2.5
 42
2.5
 43
2.5
  0
MTEXT
  5
195A
330
145D
100
AcDbEntity
  8
0
 62
     4
100
AcDbMText
 10
1414.808451439651
 20
158.3854647553643
 30
0.0
 40
3.0
 41
0.0
 71
     5
 72
     1
  1
45
 73
     1
 44
1.0
1001
ACAD
1000
MTEXTBEGIN
1070
    73
1070
     1
1070
    44
1040
1.0
1070
    74
1070
     0
1000
MTEXTEND
  0
POINT
  5
195B
330
145D
100
AcDbEntity
  8
Defpoints
 62
     0
100
AcDbPoint
 10
1392.282897246494
 20
219.7519957700784
 30
0.0
  0
POINT
  5
195C
330
145D
100
AcDbEntity
  8
Defpoints
 62
     0
100
AcDbPoint
 10
1435.882897246495
 20
219.7519957700747
 30
0.0
  0
POINT
  5
195D
330
145D
100
AcDbEntity
  8
Defpoints
 62
     0
100
AcDbPoint
 10
1435.882897246495
 20
156.2604647553643
 30
0.0
  0
ENDBLK
  5
145F
330
145D
100
AcDbEntity
  8
0
100
AcDbBlockEnd
  0
BLOCK
  5
14DC
330
14DA
100
AcDbEntity
  8
0
100
AcDbBlockBegin
  2
_DotSmall
 70
     0
 10
0.0
 20
0.0
 30
0.0
  3
_DotSmall
  1

  0
LWPOLYLINE
  5
14DB
330
14DA
100
AcDbEntity
  8
0
  6
ByBlock
 62
     0
100
AcDbPolyline
 90
        2
 70
     1
 43
0.5
 10
-0.0625
 20
0.0
 42
1.0
 10
0.0625
 20
0.0
 42
1.0
  0
ENDBLK
  5
14DD
330
14DA
100
AcDbEntity
  8
0
100
AcDbBlockEnd
  0
ENDSEC
  0
SECTION
  2
ENTITIES
  0
LINE
  5
11A6
330
1F
100
AcDbEntity
  8
0
 62
     3
100
AcDbLine
 10
1468.285344544122
 20
250.3898046589461
 30
0.0
 11
1468.285344544122
 21
185.3898046589461
 31
0.0
  0
LINE
  5
11A8
330
1F
100
AcDbEntity
  8
0
 62
     3
100
AcDbLine
 10
1589.785344544122
 20
220.1398046589461
 30
0.0
 11
1589.785344544122
 21
244.6398046589461
 31
0.0
  0
LINE
  5
11AB
330
1F
100
AcDbEntity
  8
0
 62
     3
100
AcDbLine
 10
1477.59509996117
 20
180.8898046589461
 30
0.0
 11
1478.285344544122
 21
180.8898046589461
 31
0.0
  0
LINE
  5
11AE
330
1F
100
AcDbEntity
  8
0
 62
     3
100
AcDbLine
 10
1473.856412355988
 20
253.8898046589461
 30
0.0
 11
1478.285344544122
 21
253.8898046589461
 31
0.0
  0
LINE
  5
11AF
330
1F
100
AcDbEntity
  8
0
 62
     3
100
AcDbLine
 10
1474.285344544122
 20
253.8898046589461
 30
0.0
 11
1478.285344544122
 21
180.8898046589461
 31
0.0
  0
LINE
  5
11BF
330
1F
100
AcDbEntity
  8
0
 62
     3
100
AcDbLine
 10
1580.285344544122
 20
218.3898046589461
 30
0.0
 11
1580.285344544122
 21
247.3898046589461
 31
0.0
  0
LINE
  5
11C2
330
1F
100
AcDbEntity
  8
0
 62
     3
100
AcDbLine
 10
1475.143793763007
 20
181.5319269733233
 30
0.0
 11
1468.285344544122
 21
185.3898046589461
 31
0.0
  0
ARC
  5
11CC
330
1F
100
AcDbEntity
  8
0
 62
     3
100
AcDbCircle
 10
1477.59509996117
 20
185.8898046589435
 30
0.0
 40
5.0
100
AcDbArc
 50
240.6422464571936
 51
270.0
  0
ARC
  5
11CE
330
1F
100
AcDbEntity
  8
0
 62
     3
100
AcDbCircle
 10
1537.668109799296
 20
-1252.168402066032
 30
0.0
 40
1434.288024307238
100
AcDbArc
 50
90.04008002666799
 51
92.37285297534873
  0
ARC
  5
11CF
330
1F
100
AcDbEntity
  8
0
 62
     3
100
AcDbCircle
 10
1539.255942794151
 20
100.9196199814842
 30
0.0
 40
81.24098397444795
100
AcDbArc
 50
73.66629224860858
 51
91.82774262633939
  0
LINE
  5
11D0
330
1F
100
AcDbEntity
  8
0
 62
     3
100
AcDbLine
 10
1478.285344544122
 20
253.8898046589461
 30
0.0
 11
1479.781479563254
 21
255.4879920379858
 31
0.0
  0
LINE
  5
11D1
330
1F
100
AcDbEntity
  8
0
 62
     3
100
AcDbLine
 10
1479.781479563254
 20
255.4879920379858
 30
0.0
 11
1522.806391393848
 21
252.9717290801973
 31
0.0
  0
LINE
  5
11D2
330
1F
100
AcDbEntity
  8
0
 62
     3
100
AcDbLine
 10
1481.817401475782
 20
255.368923464095
 30
0.0
 11
1483.37120756805
 21
256.3898046589461
 31
0.0
  0
ARC
  5
11D3
330
1F
100
AcDbEntity
  8
0
 62
     3
100
AcDbCircle
 10
1528.366850252354
 20
423.664734033871
 30
0.0
 40
170.7835490989457
100
AcDbArc
 50
268.1342047246387
 51
280.0163610158583
  0
LINE
  5
11DA
330
1F
100
AcDbEntity
  8
0
 62
     3
100
AcDbLine
 10
1580.285344544122
 20
246.3898046589461
 30
0.0
 11
1588.785344544122
 21
246.3898046589461
 31
0.0
  0
LINE
  5
11DE
330
1F
100
AcDbEntity
  8
0
 62
     3
100
AcDbLine
 10
1558.071128082345
 20
255.4842461007261
 30
0.0
 11
1558.283296329193
 21
255.0895446272721
 31
0.0
  0
LINE
  5
11DF
330
1F
100
AcDbEntity
  8
0
 62
     3
100
AcDbLine
 10
1558.283296329193
 20
255.0895446272721
 30
0.0
 11
1560.551933543706
 21
255.6274428720371
 31
0.0
  0
LINE
  5
11E0
330
1F
100
AcDbEntity
  8
0
 62
     3
100
AcDbLine
 10
1560.551933543706
 20
255.6274428720371
 30
0.0
 11
1562.051537030838
 21
254.6284892936478
 31
0.0
  0
LINE
  5
11E1
330
1F
100
AcDbEntity
  8
0
 62
     3
100
AcDbLine
 10
1562.051537030838
 20
254.6284892936478
 30
0.0
 11
1563.350609243121
 21
254.6786269497586
 31
0.0
  0
LINE
  5
11E2
330
1F
100
AcDbEntity
  8
0
 62
     3
100
AcDbLine
 10
1564.69918846279
 20
254.4158187442454
 30
0.0
 11
1580.285344544122
 21
247.3898046589461
 31
0.0
  0
ARC
  5
11E3
330
1F
100
AcDbEntity
  8
0
 62
     3
100
AcDbCircle
 10
1563.466308021406
 20
251.6808588145114
 30
0.0
 40
3.0
100
AcDbArc
 50
65.7348359758447
 51
92.21023202836013
  0
ARC
  5
11E4
330
1F
100
AcDbEntity
  8
0
 62
     3
100
AcDbCircle
 10
1655.65572803542
 20
197.5287696305525
 30
0.0
 40
78.20407591731475
100
AcDbArc
 50
164.5289616180031
 51
184.4101779423477
  0
LINE
  5
11E9
330
1F
100
AcDbEntity
  8
0
 62
     3
100
AcDbLine
 10
1470.320878450055
 20
252.4253385648784
 30
0.0
 11
1468.285344544122
 21
250.389804658946
 31
0.0
  0
ARC
  5
11EA
330
1F
100
AcDbEntity
  8
0
 62
     3
100
AcDbCircle
 10
1473.856412355987
 20
248.8898046589461
 30
0.0
 40
5.0
100
AcDbArc
 50
90.0
 51
135.0000000000023
  0
ARC
  5
11EB
330
1F
100
AcDbEntity
  8
0
 62
     3
100
AcDbCircle
 10
1565.531142295244
 20
190.5779560833981
 30
0.0
 40
12.18815142445216
100
AcDbArc
 50
253.6662922486086
 51
4.410177942347651
  0
LINE
  5
11EC
330
1F
100
AcDbEntity
  8
0
 62
     3
100
AcDbLine
 10
1483.37120756805
 20
256.3898046589461
 30
0.0
 11
1507.68128518328
 21
254.733972838984
 31
0.0
  0
LINE
  5
11ED
330
1F
100
AcDbEntity
  8
0
 62
     3
100
AcDbLine
 10
1507.68128518328
 20
254.733972838984
 30
0.0
 11
1509.393818019251
 21
253.7561481554531
 31
0.0
  0
LINE
  5
11EE
330
1F
100
AcDbEntity
  8
0
 62
     3
100
AcDbLine
 10
1509.400553493706
 20
253.7557542389021
 30
0.0
 11
1510.259873107361
 21
254.1296823360585
 31
0.0
  0
LINE
  5
11EF
330
1F
100
AcDbEntity
  8
0
 62
     3
100
AcDbLine
 10
1510.259873107361
 20
254.1296823360585
 30
0.0
 11
1525.076190604682
 21
253.4810933518511
 31
0.0
  0
LINE
  5
11F0
330
1F
100
AcDbEntity
  8
0
 62
     3
100
AcDbLine
 10
1525.076190604682
 20
253.4810933518511
 30
0.0
 11
1526.074947773515
 21
252.8965642074672
 31
0.0
  0
LINE
  5
11F1
330
1F
100
AcDbEntity
  8
0
 62
     3
100
AcDbLine
 10
1536.675234496392
 20
253.0834003713468
 30
0.0
 11
1538.047725577832
 21
253.828369041049
 31
0.0
  0
LINE
  5
11F2
330
1F
100
AcDbEntity
  8
0
 62
     3
100
AcDbLine
 10
1538.047725577832
 20
253.828369041049
 30
0.0
 11
1552.34618004835
 21
255.2570942572133
 31
0.0
  0
LINE
  5
11F3
330
1F
100
AcDbEntity
  8
0
 62
     3
100
AcDbLine
 10
1552.34618004835
 20
255.2570942572133
 30
0.0
 11
1553.529648317748
 21
254.7450660364699
 31
0.0
  0
ARC
  5
11F4
330
1F
100
AcDbEntity
  8
0
 62
     3
100
AcDbCircle
 10
1557.342059217149
 20
263.6912117434163
 30
0.0
 40
74.13597669977106
100
AcDbArc
 50
273.9538085215442
 51
285.8749736313543
  0
ARC
  5
11F5
330
1F
100
AcDbEntity
  8
0
 62
     3
100
AcDbCircle
 10
1563.37202359032
 20
175.2046383301097
 30
0.0
 40
14.55602733924287
100
AcDbArc
 50
93.61634236793994
 51
154.7279806116526
  0
ARC
  5
11F7
330
1F
100
AcDbEntity
  8
0
 62
     3
100
AcDbCircle
 10
1574.141104652821
 20
202.6260199216628
 30
0.0
 40
7.969761911803721
100
AcDbArc
 50
294.7752238987077
 51
58.06848569716877
  0
ARC
  5
11F8
330
1F
100
AcDbEntity
  8
0
 62
     3
100
AcDbCircle
 10
1574.141104652821
 20
202.6260199216628
 30
0.0
 40
5.969761911803721
100
AcDbArc
 50
303.6811484218138
 51
49.16256117406546
  0
LINE
  5
11F9
330
1F
100
AcDbEntity
  8
0
 62
     3
100
AcDbLine
 10
1512.281572788595
 20
254.0411817931361
 30
0.0
 11
1513.122791139212
 21
255.1163165592807
 31
0.0
  0
LINE
  5
11FA
330
1F
100
AcDbEntity
  8
0
 62
     3
100
AcDbLine
 10
1513.122791139212
 20
255.1163165592807
 30
0.0
 11
1522.400505134411
 21
254.601290717304
 31
0.0
  0
LINE
  5
11FB
330
1F
100
AcDbEntity
  8
0
 62
     3
100
AcDbLine
 10
1522.400505134411
 20
254.601290717304
 30
0.0
 11
1522.994668655766
 21
253.5722126334605
 31
0.0
  0
LINE
  5
11FC
330
1F
100
AcDbEntity
  8
0
 62
     3
100
AcDbLine
 10
1539.965076475437
 20
254.0199539134764
 30
0.0
 11
1540.628543023308
 21
255.0457794514082
 31
0.0
  0
LINE
  5
11FD
330
1F
100
AcDbEntity
  8
0
 62
     3
100
AcDbLine
 10
1540.628543023308
 20
255.0457794514082
 30
0.0
 11
1549.731187629791
 21
255.9742812507916
 31
0.0
  0
LINE
  5
11FE
330
1F
100
AcDbEntity
  8
0
 62
     3
100
AcDbLine
 10
1549.731187629791
 20
255.9742812507916
 30
0.0
 11
1550.633845983906
 21
255.0859950057933
 31
0.0
  0
ARC
  5
11FF
330
1F
100
AcDbEntity
  8
0
 62
     3
100
AcDbCircle
 10
1519.213842343942
 20
259.2216826406823
 30
0.0
 40
37.85236285446369
100
AcDbArc
 50
185.8186858688466
 51
202.253493196815
  0
ARC
  5
1200
330
1F
100
AcDbEntity
  8
0
 62
     3
100
AcDbCircle
 10
1525.313677512277
 20
257.8618172982853
 30
0.0
 40
43.13076500182371
100
AcDbArc
 50
197.507444097582
 51
210.3889659281857
  0
LINE
  5
1201
330
1F
100
AcDbEntity
  8
0
 62
     3
100
AcDbLine
 10
1510.680745192501
 20
231.8997660760977
 30
0.0
 11
1541.382606908746
 21
239.4822618181819
 31
0.0
  0
ARC
  5
120C
330
1F
100
AcDbEntity
  8
0
 62
     3
100
AcDbCircle
 10
1500.357684777951
 20
244.3097456988631
 30
0.0
 40
14.77745646523324
100
AcDbArc
 50
214.0137433966731
 51
233.7679767563894
  0
ARC
  5
120D
330
1F
100
AcDbEntity
  8
0
 62
     3
100
AcDbCircle
 10
1491.394522362314
 20
314.25258995041
 30
0.0
 40
84.58100254270538
100
AcDbArc
 50
278.0817004068004
 51
284.5650944484333
  0
ARC
  5
120E
330
1F
100
AcDbEntity
  8
0
 62
     3
100
AcDbCircle
 10
1500.151693706873
 20
248.1986935162561
 30
0.0
 40
17.96255113821751
100
AcDbArc
 50
241.6547485080358
 51
280.046924538335
  0
ARC
  5
120F
330
1F
100
AcDbEntity
  8
0
 62
     3
100
AcDbCircle
 10
1530.642804092351
 20
280.9960033892884
 30
0.0
 40
42.88046296120953
100
AcDbArc
 50
284.5046819178045
 51
301.4437453377067
  0
ARC
  5
1210
330
1F
100
AcDbEntity
  8
0
 62
     3
100
AcDbCircle
 10
1546.321084547824
 20
254.3555824297568
 30
0.0
 40
11.98470738940693
100
AcDbArc
 50
303.9367553048295
 51
3.511080089738808
  0
ARC
  5
1211
330
1F
100
AcDbEntity
  8
0
100
AcDbCircle
 10
1556.007488588677
 20
267.310459360825
 30
0.0
 40
77.13737865356555
100
AcDbArc
 50
188.8161910347744
 51
213.0861549774309
  0
ARC
  5
1212
330
1F
100
AcDbEntity
  8
0
100
AcDbCircle
 10
1435.079820688837
 20
641.3154868443098
 30
0.0
 40
426.9034554072374
100
AcDbArc
 50
279.2023803623369
 51
285.3086779070974
  0
ARC
  5
1213
330
1F
100
AcDbEntity
  8
0
100
AcDbCircle
 10
1504.333844668746
 20
261.5407209967245
 30
0.0
 40
56.52822635580228
100
AcDbArc
 50
331.3113136387471
 51
353.9954448472059
  0
ARC
  5
1215
330
1F
100
AcDbEntity
  8
0
100
AcDbCircle
 10
1545.150311166492
 20
239.204832600353
 30
0.0
 40
10.0
100
AcDbArc
 50
285.3086779070974
 51
331.3113136387463
  0
ARC
  5
1217
330
1F
100
AcDbEntity
  8
0
100
AcDbCircle
 10
1501.432093354894
 20
231.7519957700747
 30
0.0
 40
12.0
100
AcDbArc
 50
213.0861549774309
 51
279.2023803623369
  0
ARC
  5
1218
330
1F
100
AcDbEntity
  8
0
100
AcDbCircle
 10
1600.055150087143
 20
275.1121411551025
 30
0.0
 40
123.605311812807
100
AcDbArc
 50
189.8863481041688
 51
207.4072524670071
  0
ARC
  5
1219
330
1F
100
AcDbEntity
  8
0
100
AcDbCircle
 10
1478.809873033328
 20
400.8302268958348
 30
0.0
 40
190.4733104607738
100
AcDbArc
 50
277.1347147740712
 51
291.2904648715892
  0
ARC
  5
121A
330
1F
100
AcDbEntity
  8
0
100
AcDbCircle
 10
1490.253488507039
 20
260.078269506018
 30
0.0
 40
72.00458232771653
100
AcDbArc
 50
336.4834842965243
 51
355.6593277209056
  0
ARC
  5
121B
330
1F
100
AcDbEntity
  8
0
100
AcDbCircle
 10
1542.523560694092
 20
237.3326774073801
 30
0.0
 40
15.0
100
AcDbArc
 50
291.2904648715892
 51
336.4834842965243
  0
ARC
  5
121D
330
1F
100
AcDbEntity
  8
0
100
AcDbCircle
 10
1500.976739203716
 20
223.7388589779946
 30
0.0
 40
12.0
100
AcDbArc
 50
207.4072524670071
 51
277.1347147740712
  0
ARC
  5
121F
330
1F
100
AcDbEntity
  8
0
100
AcDbCircle
 10
1538.527030471241
 20
251.6144857038893
 30
0.0
 40
31.20889268312323
100
AcDbArc
 50
348.5245454394268
 51
0.9783821596546635
  0
ARC
  5
1220
330
1F
100
AcDbEntity
  8
0
100
AcDbCircle
 10
2571.613747789757
 20
-3097.815170181551
 30
0.0
 40
3467.082001899048
100
AcDbArc
 50
107.1208679128591
 51
107.984239509606
  0
ARC
  5
1221
330
1F
100
AcDbEntity
  8
0
100
AcDbCircle
 10
1695.416854848873
 20
26.36329718398306
 30
0.0
 40
265.0526581231267
100
AcDbArc
 50
141.919549022986
 51
144.3180081059094
  0
ARC
  5
1223
330
1F
100
AcDbEntity
  8
0
100
AcDbCircle
 10
1545.645968155063
 20
232.8284125381806
 30
0.0
 40
18.0
100
AcDbArc
 50
287.1208679128591
 51
334.1630710879815
  0
ARC
  5
1224
330
1F
100
AcDbEntity
  8
0
100
AcDbCircle
 10
1472.289378425463
 20
268.3487215540408
 30
0.0
 40
99.50387481180859
100
AcDbArc
 50
334.1630710879815
 51
346.6690256870863
  0
ARC
  5
1225
330
1F
100
AcDbEntity
  8
0
100
AcDbCircle
 10
1510.396211429222
 20
171.3361001482953
 30
0.0
 40
30.0
100
AcDbArc
 50
107.984239509606
 51
141.919549022986
  0
ARC
  5
1227
330
1F
100
AcDbEntity
  8
0
100
AcDbCircle
 10
1397.430452214555
 20
584.3946481850467
 30
0.0
 40
402.7681929015192
100
AcDbArc
 50
286.3686079663656
 51
293.1348736471735
  0
ARC
  5
1228
330
1F
100
AcDbEntity
  8
0
100
AcDbCircle
 10
1553.353521953766
 20
249.635237523635
 30
0.0
 40
18.10392493641602
100
AcDbArc
 50
351.8752655406918
 51
5.621200791589353
  0
ARC
  5
1229
330
1F
100
AcDbEntity
  8
0
100
AcDbCircle
 10
1471.490459803099
 20
262.7658785789936
 30
0.0
 40
101.0111534669438
100
AcDbArc
 50
336.3982571896048
 51
351.0645345217117
  0
ARC
  5
122C
330
1F
100
AcDbEntity
  8
0
100
AcDbCircle
 10
1549.390477158504
 20
228.7293759706499
 30
0.0
 40
16.0
100
AcDbArc
 50
293.1348736471732
 51
336.3982571896048
  0
ARC
  5
122F
330
1F
100
AcDbEntity
  8
0
100
AcDbCircle
 10
1520.800450872421
 20
164.3698463608927
 30
0.0
 40
35.0
100
AcDbArc
 50
106.3686079663593
 51
151.008832453632
  0
LINE
  5
1232
330
1F
100
AcDbEntity
  8
0
 62
     3
100
AcDbLine
 10
1509.285344544122
 20
180.8898046589461
 30
0.0
 11
1510.253133307054
 21
181.8575934218779
 31
0.0
  0
LINE
  5
1233
330
1F
100
AcDbEntity
  8
0
 62
     3
100
AcDbLine
 10
1497.285344544122
 20
180.8898046589461
 30
0.0
 11
1496.642387571841
 21
181.5327616312277
 31
0.0
  0
LINE
  5
1234
330
1F
100
AcDbEntity
  8
0
 62
     3
100
AcDbLine
 10
1497.285344544122
 20
180.8898046589461
 30
0.0
 11
1509.285344544122
 21
180.8898046589461
 31
0.0
  0
ARC
  5
1235
330
1F
100
AcDbEntity
  8
0
 62
     3
100
AcDbCircle
 10
1549.212037624811
 20
28.78198918119999
 30
0.0
 40
170.6007212550934
100
AcDbArc
 50
94.43799004723532
 51
103.4650795999783
  0
ARC
  5
1236
330
1F
100
AcDbEntity
  8
0
 62
     3
100
AcDbCircle
 10
1519.469040510764
 20
169.8558115763461
 30
0.0
 40
27.95475913384982
100
AcDbArc
 50
144.686298161095
 51
155.4835456910819
  0
ARC
  5
1237
330
1F
100
AcDbEntity
  8
0
 62
     3
100
AcDbCircle
 10
1519.980924194054
 20
181.8089636901079
 30
0.0
 40
28.23917690084032
100
AcDbArc
 50
359.7070443057319
 51
22.88264808423092
  0
ARC
  5
123A
330
1F
100
AcDbEntity
  8
0
 62
     3
100
AcDbCircle
 10
1536.784736397824
 20
188.9011755764281
 30
0.0
 40
10.0
100
AcDbArc
 50
22.88264808423092
 51
94.43799004723532
  0
ARC
  5
123D
330
1F
100
AcDbEntity
  8
0
 62
     3
100
AcDbCircle
 10
1514.609960769743
 20
173.2979766526556
 30
0.0
 40
22.0
100
AcDbArc
 50
103.4650795999783
 51
144.686298161095
  0
LINE
  5
123E
330
1F
100
AcDbEntity
  8
0
 62
     3
100
AcDbLine
 10
1630.769703769528
 20
192.3827158706389
 30
0.0
 11
1630.769703769528
 21
218.3898046589461
 31
0.0
  0
CIRCLE
  5
123F
330
1F
100
AcDbEntity
  8
0
100
AcDbCircle
 10
1630.769703769528
 20
232.3898046589461
 30
0.0
 40
13.25
  0
LINE
  5
1240
330
1F
100
AcDbEntity
  8
0
100
AcDbLine
 10
1588.785344544122
 20
245.6398046589461
 30
0.0
 11
1588.680301229921
 21
245.6398046589461
 31
0.0
  0
LINE
  5
1241
330
1F
100
AcDbEntity
  8
0
100
AcDbLine
 10
1588.785344544122
 20
219.1398046589461
 30
0.0
 11
1588.680301229921
 21
219.1398046589461
 31
0.0
  0
ARC
  5
1242
330
1F
100
AcDbEntity
  8
0
 62
     3
100
AcDbCircle
 10
1588.785344544123
 20
220.1398046589456
 30
0.0
 40
1.0
100
AcDbArc
 50
269.9999999999739
 51
0.000000000029312
  0
ARC
  5
1243
330
1F
100
AcDbEntity
  8
0
 62
     3
100
AcDbCircle
 10
1588.785344544122
 20
244.6398046589463
 30
0.0
 40
1.0
100
AcDbArc
 50
359.9999999999902
 51
90.0
  0
LINE
  5
1244
330
1F
100
AcDbEntity
  8
0
100
AcDbLine
 10
1581.785344544122
 20
230.6973359863678
 30
0.0
 11
1581.785344544122
 21
234.0822733315245
 31
0.0
  0
LINE
  5
1246
330
1F
100
AcDbEntity
  8
0
100
AcDbLine
 10
1631.519703769528
 20
245.618561214269
 30
0.0
 11
1631.519703769528
 21
246.3898046589461
 31
0.0
  0
LINE
  5
1247
330
1F
100
AcDbEntity
  8
0
100
AcDbLine
 10
1630.019703769528
 20
245.618561214269
 30
0.0
 11
1630.019703769528
 21
246.3898046589461
 31
0.0
  0
LINE
  5
124A
330
1F
100
AcDbEntity
  8
0
100
AcDbLine
 10
1625.540433090866
 20
244.5642544686621
 30
0.0
 11
1625.276652297379
 21
245.2889862424547
 31
0.0
  0
LINE
  5
124B
330
1F
100
AcDbEntity
  8
0
100
AcDbLine
 10
1626.949972022045
 20
245.0772846836508
 30
0.0
 11
1626.686191228557
 21
245.8020164574432
 31
0.0
  0
LINE
  5
124D
330
1F
100
AcDbEntity
  8
0
100
AcDbLine
 10
1621.691889631867
 20
242.0415294002603
 30
0.0
 11
1621.196143901577
 21
242.6323361553471
 31
0.0
  0
LINE
  5
124E
330
1F
100
AcDbEntity
  8
0
100
AcDbLine
 10
1622.840956296546
 20
243.00571081479
 30
0.0
 11
1622.345210566255
 21
243.5965175698768
 31
0.0
  0
LINE
  5
1250
330
1F
100
AcDbEntity
  8
0
100
AcDbLine
 10
1618.938264532138
 20
238.3546638837697
 30
0.0
 11
1618.270348116545
 21
238.7402856061083
 31
0.0
  0
LINE
  5
1251
330
1F
100
AcDbEntity
  8
0
100
AcDbLine
 10
1619.688264532138
 20
239.6537019894463
 30
0.0
 11
1619.020348116545
 21
240.0393237117849
 31
0.0
  0
LINE
  5
1253
330
1F
100
AcDbEntity
  8
0
100
AcDbLine
 10
1617.611685617884
 20
233.9483483128188
 30
0.0
 11
1616.852159094106
 21
234.0822733315245
 31
0.0
  0
LINE
  5
1254
330
1F
100
AcDbEntity
  8
0
100
AcDbLine
 10
1617.872157884385
 20
235.4255599423368
 30
0.0
 11
1617.112631360607
 21
235.5594849610425
 31
0.0
  0
LINE
  5
1256
330
1F
100
AcDbEntity
  8
0
100
AcDbLine
 10
1617.872157884385
 20
229.3540493755559
 30
0.0
 11
1617.112631360607
 21
229.2201243568502
 31
0.0
  0
LINE
  5
1257
330
1F
100
AcDbEntity
  8
0
100
AcDbLine
 10
1617.611685617884
 20
230.8312610050744
 30
0.0
 11
1616.852159094106
 21
230.6973359863687
 31
0.0
  0
LINE
  5
1259
330
1F
100
AcDbEntity
  8
0
100
AcDbLine
 10
1619.688264532138
 20
225.1259073284468
 30
0.0
 11
1619.020348116545
 21
224.7402856061083
 31
0.0
  0
LINE
  5
125A
330
1F
100
AcDbEntity
  8
0
100
AcDbLine
 10
1618.938264532138
 20
226.4249454341234
 30
0.0
 11
1618.270348116545
 21
226.0393237117849
 31
0.0
  0
LINE
  5
125C
330
1F
100
AcDbEntity
  8
0
100
AcDbLine
 10
1622.840956296545
 20
221.7738985031026
 30
0.0
 11
1622.345210566254
 21
221.1830917480158
 31
0.0
  0
LINE
  5
125D
330
1F
100
AcDbEntity
  8
0
100
AcDbLine
 10
1621.691889631867
 20
222.7380799176326
 30
0.0
 11
1621.196143901576
 21
222.1472731625458
 31
0.0
  0
LINE
  5
125F
330
1F
100
AcDbEntity
  8
0
100
AcDbLine
 10
1626.949972022045
 20
219.7023246342419
 30
0.0
 11
1626.686191228558
 21
218.9775928604494
 31
0.0
  0
LINE
  5
1260
330
1F
100
AcDbEntity
  8
0
100
AcDbLine
 10
1625.540433090866
 20
220.2153548492304
 30
0.0
 11
1625.276652297379
 21
219.4906230754378
 31
0.0
  0
LINE
  5
1262
330
1F
100
AcDbEntity
  8
0
100
AcDbLine
 10
1631.519703769527
 20
219.1610481036232
 30
0.0
 11
1631.519703769527
 21
218.3898046589462
 31
0.0
  0
LINE
  5
1263
330
1F
100
AcDbEntity
  8
0
100
AcDbLine
 10
1630.019703769527
 20
219.1610481036232
 30
0.0
 11
1630.019703769527
 21
218.3898046589462
 31
0.0
  0
LINE
  5
1265
330
1F
100
AcDbEntity
  8
0
100
AcDbLine
 10
1635.998974448188
 20
220.2153548492301
 30
0.0
 11
1636.262755241676
 21
219.4906230754375
 31
0.0
  0
LINE
  5
1266
330
1F
100
AcDbEntity
  8
0
100
AcDbLine
 10
1634.589435517009
 20
219.7023246342415
 30
0.0
 11
1634.853216310497
 21
218.977592860449
 31
0.0
  0
LINE
  5
1268
330
1F
100
AcDbEntity
  8
0
100
AcDbLine
 10
1639.847517907187
 20
222.7380799176319
 30
0.0
 11
1640.343263637477
 21
222.1472731625452
 31
0.0
  0
LINE
  5
1269
330
1F
100
AcDbEntity
  8
0
100
AcDbLine
 10
1638.698451242509
 20
221.7738985031021
 30
0.0
 11
1639.194196972799
 21
221.1830917480154
 31
0.0
  0
LINE
  5
126B
330
1F
100
AcDbEntity
  8
0
100
AcDbLine
 10
1642.601143006916
 20
226.4249454341225
 30
0.0
 11
1643.269059422509
 21
226.0393237117839
 31
0.0
  0
LINE
  5
126C
330
1F
100
AcDbEntity
  8
0
100
AcDbLine
 10
1641.851143006916
 20
225.1259073284459
 30
0.0
 11
1642.519059422509
 21
224.7402856061074
 31
0.0
  0
LINE
  5
126E
330
1F
100
AcDbEntity
  8
0
100
AcDbLine
 10
1643.92772192117
 20
230.8312610050734
 30
0.0
 11
1644.687248444948
 21
230.6973359863673
 31
0.0
  0
LINE
  5
126F
330
1F
100
AcDbEntity
  8
0
100
AcDbLine
 10
1643.66724965467
 20
229.3540493755549
 30
0.0
 11
1644.426776178448
 21
229.2201243568488
 31
0.0
  0
LINE
  5
1271
330
1F
100
AcDbEntity
  8
0
100
AcDbLine
 10
1643.66724965467
 20
235.4255599423359
 30
0.0
 11
1644.426776178448
 21
235.5594849610416
 31
0.0
  0
LINE
  5
1272
330
1F
100
AcDbEntity
  8
0
100
AcDbLine
 10
1643.92772192117
 20
233.9483483128179
 30
0.0
 11
1644.687248444948
 21
234.0822733315235
 31
0.0
  0
LINE
  5
1274
330
1F
100
AcDbEntity
  8
0
100
AcDbLine
 10
1641.851143006917
 20
239.6537019894456
 30
0.0
 11
1642.519059422509
 21
240.0393237117842
 31
0.0
  0
LINE
  5
1275
330
1F
100
AcDbEntity
  8
0
100
AcDbLine
 10
1642.601143006917
 20
238.3546638837688
 30
0.0
 11
1643.269059422509
 21
238.7402856061074
 31
0.0
  0
LINE
  5
1277
330
1F
100
AcDbEntity
  8
0
100
AcDbLine
 10
1638.698451242509
 20
243.0057108147896
 30
0.0
 11
1639.1941969728
 21
243.5965175698764
 31
0.0
  0
LINE
  5
1278
330
1F
100
AcDbEntity
  8
0
100
AcDbLine
 10
1639.847517907188
 20
242.0415294002598
 30
0.0
 11
1640.343263637478
 21
242.6323361553466
 31
0.0
  0
LINE
  5
127A
330
1F
100
AcDbEntity
  8
0
100
AcDbLine
 10
1634.589435517011
 20
245.0772846836504
 30
0.0
 11
1634.853216310498
 21
245.8020164574429
 31
0.0
  0
LINE
  5
127B
330
1F
100
AcDbEntity
  8
0
100
AcDbLine
 10
1635.998974448189
 20
244.5642544686619
 30
0.0
 11
1636.262755241677
 21
245.2889862424544
 31
0.0
  0
LINE
  5
127D
330
1F
100
AcDbEntity
  8
0
100
AcDbLine
 10
1587.285344544122
 20
235.5594849610425
 30
0.0
 11
1581.785344544122
 21
235.5594849610425
 31
0.0
  0
LINE
  5
127E
330
1F
100
AcDbEntity
  8
0
100
AcDbLine
 10
1587.285344544122
 20
234.0822733315245
 30
0.0
 11
1581.785344544122
 21
234.0822733315245
 31
0.0
  0
LINE
  5
127F
330
1F
100
AcDbEntity
  8
0
100
AcDbLine
 10
1587.285344544122
 20
233.9483483128187
 30
0.0
 11
1581.785344544122
 21
233.9483483128187
 31
0.0
  0
ELLIPSE
  5
1282
330
1F
100
AcDbEntity
  8
0
100
AcDbEllipse
 10
1587.285344544122
 20
234.8208791462834
 30
0.0
 11
-1.5
 21
0.0
 31
0.0
210
0.0
220
0.0
230
1.0
 40
0.492403876506008
 41
1.570796326794896
 42
4.712388980384688
  0
ELLIPSE
  5
1283
330
1F
100
AcDbEntity
  8
0
100
AcDbEllipse
 10
1587.285344544122
 20
234.6869541275777
 30
0.0
 11
-1.5
 21
0.0
 31
0.0
210
0.0
220
0.0
230
1.0
 40
0.492403876506008
 41
1.570796326794896
 42
3.141592653589792
  0
LINE
  5
1284
330
1F
100
AcDbEntity
  8
0
100
AcDbLine
 10
1588.785344544122
 20
234.8208791462834
 30
0.0
 11
1588.785344544122
 21
234.6869541275777
 31
0.0
  0
LINE
  5
1285
330
1F
100
AcDbEntity
  8
0
100
AcDbLine
 10
1581.785344544122
 20
235.5594849610425
 30
0.0
 11
1581.785344544122
 21
238.7402856061083
 31
0.0
  0
LINE
  5
1286
330
1F
100
AcDbEntity
  8
0
100
AcDbLine
 10
1587.285344544122
 20
238.7402856061083
 30
0.0
 11
1581.785344544122
 21
238.7402856061083
 31
0.0
  0
LINE
  5
1288
330
1F
100
AcDbEntity
  8
0
100
AcDbLine
 10
1587.285344544122
 20
240.0393237117849
 30
0.0
 11
1581.785344544122
 21
240.0393237117849
 31
0.0
  0
LINE
  5
1289
330
1F
100
AcDbEntity
  8
0
100
AcDbLine
 10
1587.285344544122
 20
238.3546638837697
 30
0.0
 11
1581.785344544122
 21
238.3546638837697
 31
0.0
  0
ELLIPSE
  5
128A
330
1F
100
AcDbEntity
  8
0
100
AcDbEllipse
 10
1587.285344544122
 20
239.3898046589466
 30
0.0
 11
-1.499999999999999
 21
0.0
 31
0.0
210
0.0
220
0.0
230
1.0
 40
0.4330127018921909
 41
1.570796326794896
 42
4.712388980384688
  0
ELLIPSE
  5
128B
330
1F
100
AcDbEntity
  8
0
100
AcDbEllipse
 10
1587.285344544122
 20
239.004182936608
 30
0.0
 11
-1.499999999999999
 21
0.0
 31
0.0
210
0.0
220
0.0
230
1.0
 40
0.4330127018921909
 41
1.570796326794896
 42
3.141592653589792
  0
LINE
  5
128C
330
1F
100
AcDbEntity
  8
0
100
AcDbLine
 10
1588.785344544122
 20
239.3898046589466
 30
0.0
 11
1588.785344544122
 21
239.004182936608
 31
0.0
  0
LINE
  5
128D
330
1F
100
AcDbEntity
  8
0
100
AcDbLine
 10
1581.785344544122
 20
240.0393237117849
 30
0.0
 11
1581.785344544122
 21
242.6323361553471
 31
0.0
  0
LINE
  5
128E
330
1F
100
AcDbEntity
  8
0
100
AcDbLine
 10
1587.285344544122
 20
242.6323361553471
 30
0.0
 11
1581.785344544122
 21
242.6323361553471
 31
0.0
  0
LINE
  5
128F
330
1F
100
AcDbEntity
  8
0
100
AcDbLine
 10
1587.285344544122
 20
243.5965175698768
 30
0.0
 11
1581.785344544122
 21
243.5965175698768
 31
0.0
  0
LINE
  5
1290
330
1F
100
AcDbEntity
  8
0
100
AcDbLine
 10
1587.285344544122
 20
242.0415294002602
 30
0.0
 11
1581.785344544122
 21
242.0415294002602
 31
0.0
  0
ELLIPSE
  5
1292
330
1F
100
AcDbEntity
  8
0
100
AcDbEllipse
 10
1587.285344544122
 20
243.1144268626119
 30
0.0
 11
-1.5
 21
0.0
 31
0.0
210
0.0
220
0.0
230
1.0
 40
0.3213938048432586
 41
1.570796326794896
 42
4.712388980384688
  0
ELLIPSE
  5
1293
330
1F
100
AcDbEntity
  8
0
100
AcDbEllipse
 10
1587.285344544122
 20
242.5236201075251
 30
0.0
 11
-1.5
 21
0.0
 31
0.0
210
0.0
220
0.0
230
1.0
 40
0.3213938048432586
 41
1.570796326794896
 42
3.141592653589792
  0
LINE
  5
1294
330
1F
100
AcDbEntity
  8
0
100
AcDbLine
 10
1588.785344544122
 20
243.1144268626119
 30
0.0
 11
1588.785344544122
 21
242.5236201075251
 31
0.0
  0
LINE
  5
1295
330
1F
100
AcDbEntity
  8
0
100
AcDbLine
 10
1581.785344544122
 20
243.5965175698768
 30
0.0
 11
1581.785344544122
 21
245.2889862424547
 31
0.0
  0
LINE
  5
1296
330
1F
100
AcDbEntity
  8
0
100
AcDbLine
 10
1587.285344544122
 20
245.8020164574432
 30
0.0
 11
1581.785344544122
 21
245.8020164574432
 31
0.0
  0
LINE
  5
1298
330
1F
100
AcDbEntity
  8
0
100
AcDbLine
 10
1587.285344544122
 20
245.2889862424547
 30
0.0
 11
1581.785344544122
 21
245.2889862424547
 31
0.0
  0
LINE
  5
1299
330
1F
100
AcDbEntity
  8
0
100
AcDbLine
 10
1587.285344544122
 20
244.5642544686619
 30
0.0
 11
1581.785344544122
 21
244.5642544686619
 31
0.0
  0
ELLIPSE
  5
129A
330
1F
100
AcDbEntity
  8
0
100
AcDbEllipse
 10
1587.285344544122
 20
245.545501349949
 30
0.0
 11
-1.5
 21
0.0
 31
0.0
210
0.0
220
0.0
230
1.0
 40
0.1710100716628252
 41
1.570796326794896
 42
4.712388980384688
  0
ELLIPSE
  5
129B
330
1F
100
AcDbEntity
  8
0
100
AcDbEllipse
 10
1587.285344544122
 20
244.8207695761561
 30
0.0
 11
-1.5
 21
0.0
 31
0.0
210
0.0
220
0.0
230
1.0
 40
0.1710100716628252
 41
1.570796326794896
 42
3.141592653589792
  0
LINE
  5
129C
330
1F
100
AcDbEntity
  8
0
100
AcDbLine
 10
1588.785344544122
 20
245.545501349949
 30
0.0
 11
1588.785344544122
 21
244.8207695761561
 31
0.0
  0
LINE
  5
129D
330
1F
100
AcDbEntity
  8
0
 62
     3
100
AcDbLine
 10
1588.785344544122
 20
246.3898046589461
 30
0.0
 11
1588.785344544122
 21
245.6398046589463
 31
0.0
  0
LINE
  5
129E
330
1F
100
AcDbEntity
  8
0
100
AcDbLine
 10
1581.785344544122
 20
245.8020164574432
 30
0.0
 11
1581.785344544122
 21
246.3898046589461
 31
0.0
  0
LINE
  5
12A0
330
1F
100
AcDbEntity
  8
0
100
AcDbLine
 10
1581.785344544122
 20
229.2201243568497
 30
0.0
 11
1581.785344544122
 21
226.0393237117839
 31
0.0
  0
LINE
  5
12A1
330
1F
100
AcDbEntity
  8
0
100
AcDbLine
 10
1581.785344544122
 20
224.7402856061074
 30
0.0
 11
1581.785344544122
 21
222.1472731625452
 31
0.0
  0
LINE
  5
12A2
330
1F
100
AcDbEntity
  8
0
100
AcDbLine
 10
1581.785344544122
 20
221.1830917480154
 30
0.0
 11
1581.785344544122
 21
219.4906230754375
 31
0.0
  0
LINE
  5
12A3
330
1F
100
AcDbEntity
  8
0
100
AcDbLine
 10
1581.785344544122
 20
218.977592860449
 30
0.0
 11
1581.785344544122
 21
218.3898046589461
 31
0.0
  0
LINE
  5
12A4
330
1F
100
AcDbEntity
  8
0
 62
     3
100
AcDbLine
 10
1580.285344544122
 20
218.3898046589461
 30
0.0
 11
1588.785344544122
 21
218.3898046589461
 31
0.0
  0
LINE
  5
12A5
330
1F
100
AcDbEntity
  8
0
100
AcDbLine
 10
1588.785344544122
 20
219.1398046589461
 30
0.0
 11
1588.680301229921
 21
219.1398046589461
 31
0.0
  0
LINE
  5
12A6
330
1F
100
AcDbEntity
  8
0
100
AcDbLine
 10
1587.285344544122
 20
229.2201243568497
 30
0.0
 11
1581.785344544122
 21
229.2201243568497
 31
0.0
  0
LINE
  5
12A7
330
1F
100
AcDbEntity
  8
0
100
AcDbLine
 10
1587.285344544122
 20
230.6973359863678
 30
0.0
 11
1581.785344544122
 21
230.6973359863678
 31
0.0
  0
LINE
  5
12A8
330
1F
100
AcDbEntity
  8
0
100
AcDbLine
 10
1587.285344544122
 20
230.8312610050735
 30
0.0
 11
1581.785344544122
 21
230.8312610050735
 31
0.0
  0
ELLIPSE
  5
12A9
330
1F
100
AcDbEntity
  8
0
100
AcDbEllipse
 10
1587.285344544122
 20
229.9587301716087
 30
0.0
 11
-1.5
 21
0.0
 31
0.0
210
0.0
220
0.0
230
-1.0
 40
0.492403876506008
 41
1.570796326794896
 42
4.712388980384688
  0
ELLIPSE
  5
12AA
330
1F
100
AcDbEntity
  8
0
100
AcDbEllipse
 10
1587.285344544122
 20
230.0926551903145
 30
0.0
 11
-1.5
 21
0.0
 31
0.0
210
0.0
220
0.0
230
-1.0
 40
0.492403876506008
 41
1.570796326794896
 42
3.141592653589792
  0
LINE
  5
12AB
330
1F
100
AcDbEntity
  8
0
100
AcDbLine
 10
1588.785344544122
 20
229.9587301716087
 30
0.0
 11
1588.785344544122
 21
230.0926551903145
 31
0.0
  0
LINE
  5
12AC
330
1F
100
AcDbEntity
  8
0
100
AcDbLine
 10
1587.285344544122
 20
226.0393237117839
 30
0.0
 11
1581.785344544122
 21
226.0393237117839
 31
0.0
  0
LINE
  5
12AD
330
1F
100
AcDbEntity
  8
0
100
AcDbLine
 10
1587.285344544122
 20
224.7402856061074
 30
0.0
 11
1581.785344544122
 21
224.7402856061074
 31
0.0
  0
LINE
  5
12AE
330
1F
100
AcDbEntity
  8
0
100
AcDbLine
 10
1587.285344544122
 20
226.4249454341225
 30
0.0
 11
1581.785344544122
 21
226.4249454341225
 31
0.0
  0
ELLIPSE
  5
12AF
330
1F
100
AcDbEntity
  8
0
100
AcDbEllipse
 10
1587.285344544122
 20
225.3898046589457
 30
0.0
 11
-1.499999999999999
 21
0.0
 31
0.0
210
0.0
220
0.0
230
-1.0
 40
0.4330127018921909
 41
1.570796326794896
 42
4.712388980384688
  0
ELLIPSE
  5
12B0
330
1F
100
AcDbEntity
  8
0
100
AcDbEllipse
 10
1587.285344544122
 20
225.7754263812842
 30
0.0
 11
-1.499999999999999
 21
0.0
 31
0.0
210
0.0
220
0.0
230
-1.0
 40
0.4330127018921909
 41
1.570796326794896
 42
3.141592653589792
  0
LINE
  5
12B1
330
1F
100
AcDbEntity
  8
0
100
AcDbLine
 10
1588.785344544122
 20
225.3898046589457
 30
0.0
 11
1588.785344544122
 21
225.7754263812842
 31
0.0
  0
LINE
  5
12B2
330
1F
100
AcDbEntity
  8
0
100
AcDbLine
 10
1587.285344544122
 20
222.1472731625452
 30
0.0
 11
1581.785344544122
 21
222.1472731625452
 31
0.0
  0
LINE
  5
12B3
330
1F
100
AcDbEntity
  8
0
100
AcDbLine
 10
1587.285344544122
 20
221.1830917480154
 30
0.0
 11
1581.785344544122
 21
221.1830917480154
 31
0.0
  0
LINE
  5
12B4
330
1F
100
AcDbEntity
  8
0
100
AcDbLine
 10
1587.285344544122
 20
222.738079917632
 30
0.0
 11
1581.785344544122
 21
222.738079917632
 31
0.0
  0
ELLIPSE
  5
12B5
330
1F
100
AcDbEntity
  8
0
100
AcDbEllipse
 10
1587.285344544122
 20
221.6651824552803
 30
0.0
 11
-1.5
 21
0.0
 31
0.0
210
0.0
220
0.0
230
-1.0
 40
0.3213938048432586
 41
1.570796326794896
 42
4.712388980384688
  0
ELLIPSE
  5
12B6
330
1F
100
AcDbEntity
  8
0
100
AcDbEllipse
 10
1587.285344544122
 20
222.2559892103671
 30
0.0
 11
-1.5
 21
0.0
 31
0.0
210
0.0
220
0.0
230
-1.0
 40
0.3213938048432586
 41
1.570796326794896
 42
3.141592653589792
  0
LINE
  5
12B7
330
1F
100
AcDbEntity
  8
0
100
AcDbLine
 10
1588.785344544122
 20
221.6651824552803
 30
0.0
 11
1588.785344544122
 21
222.2559892103671
 31
0.0
  0
LINE
  5
12B8
330
1F
100
AcDbEntity
  8
0
100
AcDbLine
 10
1587.285344544122
 20
218.977592860449
 30
0.0
 11
1581.785344544122
 21
218.977592860449
 31
0.0
  0
LINE
  5
12B9
330
1F
100
AcDbEntity
  8
0
100
AcDbLine
 10
1587.285344544122
 20
219.4906230754375
 30
0.0
 11
1581.785344544122
 21
219.4906230754375
 31
0.0
  0
LINE
  5
12BA
330
1F
100
AcDbEntity
  8
0
100
AcDbLine
 10
1587.285344544122
 20
220.2153548492303
 30
0.0
 11
1581.785344544122
 21
220.2153548492303
 31
0.0
  0
ELLIPSE
  5
12BB
330
1F
100
AcDbEntity
  8
0
100
AcDbEllipse
 10
1587.285344544122
 20
219.2341079679433
 30
0.0
 11
-1.5
 21
0.0
 31
0.0
210
0.0
220
0.0
230
-1.0
 40
0.1710100716628252
 41
1.570796326794896
 42
4.712388980384688
  0
ELLIPSE
  5
12BC
330
1F
100
AcDbEntity
  8
0
100
AcDbEllipse
 10
1587.285344544122
 20
219.9588397417361
 30
0.0
 11
-1.5
 21
0.0
 31
0.0
210
0.0
220
0.0
230
-1.0
 40
0.1710100716628252
 41
1.570796326794896
 42
3.141592653589792
  0
LINE
  5
12BD
330
1F
100
AcDbEntity
  8
0
100
AcDbLine
 10
1588.785344544122
 20
219.2341079679433
 30
0.0
 11
1588.785344544122
 21
219.9588397417361
 31
0.0
  0
LINE
  5
12BE
330
1F
100
AcDbEntity
  8
0
 62
     3
100
AcDbLine
 10
1588.785344544122
 20
218.3898046589461
 30
0.0
 11
1588.785344544122
 21
219.1398046589459
 31
0.0
  0
CIRCLE
  5
12BF
330
1F
100
AcDbEntity
  8
0
 62
     3
100
AcDbCircle
 10
1630.769703769528
 20
232.3898046589461
 30
0.0
 40
14.0
  0
ARC
  5
12D6
330
1F
100
AcDbEntity
  8
0
 62
     3
100
AcDbCircle
 10
1709.191087214277
 20
219.7519957700747
 30
0.0
 40
100.2213834447493
100
AcDbArc
 50
168.7387967631979
 51
180.0
  0
ARC
  5
12DB
330
1F
100
AcDbEntity
  8
0
 62
     3
100
AcDbCircle
 10
1630.769703769528
 20
235.3669201287257
 30
0.0
 40
20.26052274331136
100
AcDbArc
 50
11.26120323680212
 51
168.7387967631979
  0
ARC
  5
12DC
330
1F
100
AcDbEntity
  8
0
 62
     3
100
AcDbCircle
 10
1552.348320324778
 20
219.7519957700747
 30
0.0
 40
100.2213834447502
100
AcDbArc
 50
0.0
 51
11.26120323680212
  0
LINE
  5
12E1
330
1F
100
AcDbEntity
  8
0
 62
     3
100
AcDbLine
 10
1651.269703769528
 20
201.3898046589461
 30
0.0
 11
1651.269703769528
 21
212.8072772169361
 31
0.0
  0
LINE
  5
12E2
330
1F
100
AcDbEntity
  8
0
 62
     3
100
AcDbLine
 10
1610.269703769528
 20
201.3898046589461
 30
0.0
 11
1610.269703769528
 21
212.8072772169387
 31
0.0
  0
ARC
  5
12E6
330
1F
100
AcDbEntity
  8
0
 62
     3
100
AcDbCircle
 10
1630.769703769528
 20
194.889804658946
 30
0.0
 40
16.5
100
AcDbArc
 50
199.740802586828
 51
340.2591974131717
  0
ARC
  5
12E8
330
1F
100
AcDbEntity
  8
0
 62
     3
100
AcDbCircle
 10
1630.769703769528
 20
201.3898046589461
 30
0.0
 40
20.5
100
AcDbArc
 50
180.0
 51
225.5517870140871
  0
ARC
  5
12E9
330
1F
100
AcDbEntity
  8
0
 62
     3
100
AcDbCircle
 10
1695.429343493241
 20
218.0932706444309
 30
0.0
 40
85.1969420202959
100
AcDbArc
 50
163.8696942069776
 51
199.740802586828
  0
ARC
  5
12EB
330
1F
100
AcDbEntity
  8
0
 62
     3
100
AcDbCircle
 10
1630.769703769528
 20
236.7933724094831
 30
0.0
 40
17.88748640502826
100
AcDbArc
 50
16.13030579302241
 51
163.8696942069776
  0
ARC
  5
12ED
330
1F
100
AcDbEntity
  8
0
 62
     3
100
AcDbCircle
 10
1566.110064045815
 20
218.0932706444309
 30
0.0
 40
85.1969420202959
100
AcDbArc
 50
340.2591974131717
 51
16.13030579302241
  0
LINE
  5
12EE
330
1F
100
AcDbEntity
  8
0
 62
     3
100
AcDbLine
 10
1652.569703769528
 20
219.7519957700748
 30
0.0
 11
1651.069703769528
 21
211.7388589779947
 31
0.0
  0
LINE
  5
12EF
330
1F
100
AcDbEntity
  8
0
 62
     3
100
AcDbLine
 10
1608.969703769528
 20
219.7519957700748
 30
0.0
 11
1610.469703769528
 21
211.7388589779947
 31
0.0
  0
LINE
  5
12F0
330
1F
100
AcDbEntity
  8
0
 62
     3
100
AcDbLine
 10
1639.769703769528
 20
253.5187459826786
 30
0.0
 11
1639.769703769528
 21
254.2811077695878
 31
0.0
  0
LINE
  5
12F1
330
1F
100
AcDbEntity
  8
0
 62
     3
100
AcDbLine
 10
1621.769703769528
 20
253.5187459826786
 30
0.0
 11
1621.769703769528
 21
254.2811077695878
 31
0.0
  0
ARC
  5
12F2
330
1F
100
AcDbEntity
  8
0
 62
     3
100
AcDbCircle
 10
1630.769703769528
 20
236.1292819156347
 30
0.0
 40
20.26052274331136
100
AcDbArc
 50
63.62696310340978
 51
116.3730368965902
  0
ARC
  5
12F4
330
1F
100
AcDbEntity
  8
0
100
AcDbCircle
 10
1630.769703769528
 20
232.3898046589461
 30
0.0
 40
15.0
100
AcDbArc
 50
311.8103148957772
 51
228.1896851042228
  0
CIRCLE
  5
12F7
330
1F
100
AcDbEntity
  8
0
 62
     3
100
AcDbCircle
 10
1630.769703769528
 20
232.3898046589461
 30
0.0
 40
10.0
  0
CIRCLE
  5
12F8
330
1F
100
AcDbEntity
  8
0
100
AcDbCircle
 10
1630.769703769528
 20
232.3898046589461
 30
0.0
 40
7.0
  0
LINE
  5
12F9
330
1F
100
AcDbEntity
  8
0
 62
     3
100
AcDbLine
 10
1633.769703769528
 20
209.389804658946
 30
0.0
 11
1630.769703769528
 21
209.389804658946
 31
0.0
  0
LINE
  5
12FA
330
1F
100
AcDbEntity
  8
0
 62
     3
100
AcDbLine
 10
1633.769703769528
 20
195.3898046589459
 30
0.0
 11
1630.769703769528
 21
195.3898046589459
 31
0.0
  0
LINE
  5
12FB
330
1F
100
AcDbEntity
  8
0
 62
     3
100
AcDbLine
 10
1633.769703769528
 20
195.3898046589459
 30
0.0
 11
1633.769703769528
 21
209.389804658946
 31
0.0
  0
ARC
  5
12FE
330
1F
100
AcDbEntity
  8
0
 62
     3
100
AcDbCircle
 10
1630.769703769528
 20
116.9704265333262
 30
0.0
 40
75.41228933731263
100
AcDbArc
 50
77.74938063940583
 51
102.2506193605941
  0
LINE
  5
1301
330
1F
100
AcDbEntity
  8
0
 62
     3
100
AcDbLine
 10
1405.082897246495
 20
253.5187459826786
 30
0.0
 11
1405.082897246495
 21
254.2811077695878
 31
0.0
  0
LINE
  5
1302
330
1F
100
AcDbEntity
  8
0
 62
     3
100
AcDbLine
 10
1423.082897246495
 20
253.5187459826786
 30
0.0
 11
1423.082897246495
 21
254.2811077695878
 31
0.0
  0
LINE
  5
1303
330
1F
100
AcDbEntity
  8
0
 62
     3
100
AcDbLine
 10
1393.582897246495
 20
201.3898046589461
 30
0.0
 11
1393.582897246495
 21
233.3898046589461
 31
0.0
  0
LINE
  5
1304
330
1F
100
AcDbEntity
  8
0
 62
     3
100
AcDbLine
 10
1434.582897246495
 20
201.3898046589461
 30
0.0
 11
1434.582897246495
 21
233.3898046589461
 31
0.0
  0
ARC
  5
1331
330
1F
100
AcDbEntity
  8
0
 62
     3
100
AcDbCircle
 10
1335.661513801745
 20
219.7519957700747
 30
0.0
 40
100.2213834447502
100
AcDbArc
 50
0.0
 51
11.26120323680212
  0
ARC
  5
1332
330
1F
100
AcDbEntity
  8
0
 62
     3
100
AcDbCircle
 10
1492.504280691244
 20
219.7519957700747
 30
0.0
 40
100.2213834447493
100
AcDbArc
 50
168.7387967631979
 51
180.0
  0
ARC
  5
1333
330
1F
100
AcDbEntity
  8
0
 62
     3
100
AcDbCircle
 10
1414.082897246495
 20
235.1927350924874
 30
0.0
 40
20.29525694549849
100
AcDbArc
 50
11.7434852769338
 51
168.2565147230662
  0
ARC
  5
1336
330
1F
100
AcDbEntity
  8
0
 62
     3
100
AcDbCircle
 10
1414.082897246495
 20
194.889804658946
 30
0.0
 40
16.5
100
AcDbArc
 50
209.5384148538953
 51
330.4615851461047
  0
ARC
  5
1337
330
1F
100
AcDbEntity
  8
0
 62
     3
100
AcDbCircle
 10
1414.082897246495
 20
201.3898046589461
 30
0.0
 40
20.5
100
AcDbArc
 50
180.0
 51
0.0
  0
LINE
  5
133B
330
1F
100
AcDbEntity
  8
0
 62
     3
100
AcDbLine
 10
1435.882897246495
 20
219.7519957700748
 30
0.0
 11
1434.582897246495
 21
212.8072772169368
 31
0.0
  0
LINE
  5
133C
330
1F
100
AcDbEntity
  8
0
 62
     3
100
AcDbLine
 10
1392.282897246495
 20
219.7519957700748
 30
0.0
 11
1393.582897246495
 21
212.807277216938
 31
0.0
  0
ARC
  5
133D
330
1F
100
AcDbEntity
  8
0
 62
     3
100
AcDbCircle
 10
1414.082897246495
 20
236.1292819156347
 30
0.0
 40
20.26052274331136
100
AcDbArc
 50
63.62696310340978
 51
116.3730368965902
  0
ARC
  5
1345
330
1F
100
AcDbEntity
  8
0
 62
     3
100
AcDbCircle
 10
1414.082897246495
 20
233.3898046589461
 30
0.0
 40
20.5
100
AcDbArc
 50
0.0
 51
180.0
  0
LINE
  5
1346
330
1F
100
AcDbEntity
  8
0
100
AcDbLine
 10
1432.082897246495
 20
232.3898046589461
 30
0.0
 11
1432.082897246495
 21
203.3898046589461
 31
0.0
  0
LINE
  5
1347
330
1F
100
AcDbEntity
  8
0
100
AcDbLine
 10
1396.082897246495
 20
232.3898046589461
 30
0.0
 11
1396.082897246495
 21
203.3898046589461
 31
0.0
  0
ARC
  5
1349
330
1F
100
AcDbEntity
  8
0
100
AcDbCircle
 10
1414.082897246495
 20
232.3898046589461
 30
0.0
 40
18.0
100
AcDbArc
 50
0.0
 51
180.0
  0
ARC
  5
134A
330
1F
100
AcDbEntity
  8
0
100
AcDbCircle
 10
1414.082897246495
 20
203.3898046589461
 30
0.0
 40
18.0
100
AcDbArc
 50
180.0
 51
0.0
  0
LINE
  5
134C
330
1F
100
AcDbEntity
  8
0
100
AcDbLine
 10
1430.582897246495
 20
203.3898046589461
 30
0.0
 11
1430.582897246495
 21
232.3898046589461
 31
0.0
  0
LINE
  5
134D
330
1F
100
AcDbEntity
  8
0
100
AcDbLine
 10
1397.582897246495
 20
203.3898046589461
 30
0.0
 11
1397.582897246495
 21
232.3898046589461
 31
0.0
  0
ARC
  5
1352
330
1F
100
AcDbEntity
  8
0
100
AcDbCircle
 10
1414.082897246495
 20
232.3898046589461
 30
0.0
 40
16.5
100
AcDbArc
 50
0.0
 51
180.0
  0
ARC
  5
1353
330
1F
100
AcDbEntity
  8
0
100
AcDbCircle
 10
1414.082897246495
 20
203.3898046589461
 30
0.0
 40
16.5
100
AcDbArc
 50
180.0
 51
0.0
  0
CIRCLE
  5
1354
330
1F
100
AcDbEntity
  8
0
100
AcDbCircle
 10
1414.082897246495
 20
232.3898046589461
 30
0.0
 40
12.5
  0
CIRCLE
  5
1355
330
1F
100
AcDbEntity
  8
0
 62
     3
100
AcDbCircle
 10
1414.082897246495
 20
232.3898046589461
 30
0.0
 40
11.25
  0
CIRCLE
  5
1356
330
1F
100
AcDbEntity
  8
0
 62
     3
100
AcDbCircle
 10
1414.082897246495
 20
203.3898046589461
 30
0.0
 40
11.0
  0
LINE
  5
1357
330
1F
100
AcDbEntity
  8
0
 62
     3
100
AcDbLine
 10
1630.769703769528
 20
246.3898046589461
 30
0.0
 11
1630.769703769528
 21
255.6274428720371
 31
0.0
  0
ARC
  5
13AA
330
1F
100
AcDbEntity
  8
0
 62
     3
100
AcDbCircle
 10
1630.769703769528
 20
201.3898046589461
 30
0.0
 40
20.5
100
AcDbArc
 50
314.4482129859128
 51
0.0
  0
LINE
  5
1545
330
1F
100
AcDbEntity
  8
0
 62
     3
100
AcDbLine
 10
1752.061072061076
 20
262.7838474299167
 30
0.0
 11
1671.070001012356
 21
262.7838474299167
 31
0.0
  0
LINE
  5
1546
330
1F
100
AcDbEntity
  8
0
 62
     7
100
AcDbLine
 10
1752.061072061076
 20
257.2838474299167
 30
0.0
 11
1671.070001012356
 21
257.2838474299167
 31
0.0
  0
LINE
  5
1547
330
1F
100
AcDbEntity
  8
0
 62
     7
100
AcDbLine
 10
1752.061072061076
 20
207.7838474299155
 30
0.0
 11
1671.070001012356
 21
207.7838474299155
 31
0.0
  0
TEXT
  5
1548
330
1F
100
AcDbEntity
  8
0
 62
     3
100
AcDbText
 10
1672.570001012356
 20
258.2838474299168
 30
0.0
 40
3.2
  1
型　　　式
  7
高3.2
100
AcDbText
  0
TEXT
  5
1549
330
1F
100
AcDbEntity
  8
0
 62
     3
100
AcDbText
 10
1672.570001012356
 20
214.283847429915
 30
0.0
 40
3.2
  1
対物レンズ
  7
高3.2
100
AcDbText
  0
TEXT
  5
154A
330
1F
100
AcDbEntity
  8
0
 62
     3
100
AcDbText
 10
1672.570001012356
 20
236.2838474299175
 30
0.0
 40
3.2
  1
速度計測範囲
  7
高3.2
100
AcDbText
  0
TEXT
  5
154C
330
1F
100
AcDbEntity
  8
0
 62
     3
100
AcDbText
 10
1697.938763678514
 20
236.2838474299175
 30
0.0
 40
3.2
  1
18km/h～300km/h
  7
高3.2
100
AcDbText
  0
LINE
  5
154D
330
1F
100
AcDbEntity
  8
0
 62
     7
100
AcDbLine
 10
1752.061072061076
 20
202.2838474299153
 30
0.0
 11
1696.438763678514
 21
202.2838474299153
 31
0.0
  0
LINE
  5
154E
330
1F
100
AcDbEntity
  8
0
 62
     3
100
AcDbLine
 10
1671.070001012356
 20
262.7838474299167
 30
0.0
 11
1671.070001012355
 21
185.7838474299164
 31
0.0
  0
LINE
  5
154F
330
1F
100
AcDbEntity
  8
0
 62
     7
100
AcDbLine
 10
1696.438763678514
 20
185.7838474299164
 30
0.0
 11
1696.438763678514
 21
262.7838474299167
 31
0.0
  0
TEXT
  5
1550
330
1F
100
AcDbEntity
  8
0
 62
     3
100
AcDbText
 10
1697.938763678514
 20
258.2838474299168
 30
0.0
 40
3.2
  1
N600A
  7
高3.2
100
AcDbText
  0
TEXT
  5
1551
330
1F
100
AcDbEntity
  8
0
 62
     3
100
AcDbText
 10
1697.938763678514
 20
186.7838474299164
 30
0.0
 40
3.2
  1
178g
  7
高3.2
100
AcDbText
  0
TEXT
  5
1552
330
1F
100
AcDbEntity
  8
0
 62
     3
100
AcDbText
 10
1672.570001012356
 20
186.7838474299164
 30
0.0
 40
3.2
  1
本体　質量
  7
高3.2
100
AcDbText
  0
TEXT
  5
1553
330
1F
100
AcDbEntity
  8
0
 62
     3
100
AcDbText
 10
1697.938763678514
 20
197.7838474299146
 30
0.0
 40
3.2
  1
オートパワーオフ機能
  7
高3.2
100
AcDbText
  0
LINE
  5
1555
330
1F
100
AcDbEntity
  8
0
 62
     3
100
AcDbLine
 10
1752.061072061076
 20
185.7838474299164
 30
0.0
 11
1671.070001012356
 21
185.7838474299164
 31
0.0
  0
TEXT
  5
1557
330
1F
100
AcDbEntity
  8
0
 62
     3
100
AcDbText
 10
1697.938763678514
 20
214.283847429915
 30
0.0
 40
3.2
  1
22mm
  7
高3.2
100
AcDbText
  0
TEXT
  5
1567
330
1F
100
AcDbEntity
  8
0
 62
     3
100
AcDbText
 10
1697.938763678514
 20
208.7838474299155
 30
0.0
 40
3.2
  1
905nm
  7
高3.2
100
AcDbText
  0
TEXT
  5
1568
330
1F
100
AcDbEntity
  8
0
 62
     3
100
AcDbText
 10
1672.570001012356
 20
208.7838474299155
 30
0.0
 40
3.2
  1
レーザー波長
  7
高3.2
100
AcDbText
  0
TEXT
  5
156A
330
1F
100
AcDbEntity
  8
0
 62
     3
100
AcDbText
 10
1672.570001012356
 20
192.2838474299167
 30
0.0
 40
3.2
  1
使用環境温度
  7
高3.2
100
AcDbText
  0
TEXT
  5
156B
330
1F
100
AcDbEntity
  8
0
 62
     3
100
AcDbText
 10
1697.938763678514
 20
192.2838474299167
 30
0.0
 40
3.2
  1
-10～50℃
  7
高3.2
100
AcDbText
  0
LINE
  5
156D
330
1F
100
AcDbEntity
  8
0
 62
     7
100
AcDbLine
 10
1752.061072061076
 20
196.7838474299155
 30
0.0
 11
1671.070001012356
 21
196.7838474299154
 31
0.0
  0
LINE
  5
1570
330
1F
100
AcDbEntity
  8
0
 62
     3
100
AcDbLine
 10
1752.061072061076
 20
262.7838474299167
 30
0.0
 11
1752.061072061076
 21
185.7838474299164
 31
0.0
  0
LINE
  5
1571
330
1F
100
AcDbEntity
  8
0
 62
     7
100
AcDbLine
 10
1752.061072061076
 20
191.2838474299167
 30
0.0
 11
1671.070001012356
 21
191.2838474299167
 31
0.0
  0
LINE
  5
1572
330
1F
100
AcDbEntity
  8
0
 62
     7
100
AcDbLine
 10
1752.061072061076
 20
235.2838474299175
 30
0.0
 11
1671.070001012355
 21
235.2838474299175
 31
0.0
  0
LINE
  5
1573
330
1F
100
AcDbEntity
  8
0
 62
     7
100
AcDbLine
 10
1752.061072061076
 20
251.7838474299166
 30
0.0
 11
1671.070001012356
 21
251.7838474299166
 31
0.0
  0
TEXT
  5
1574
330
1F
100
AcDbEntity
  8
0
 62
     3
100
AcDbText
 10
1672.570001012356
 20
247.283847429917
 30
0.0
 40
3.2
  1
測定モード
  7
高3.2
100
AcDbText
  0
TEXT
  5
1575
330
1F
100
AcDbEntity
  8
0
 62
     3
100
AcDbText
 10
1697.938763678514
 20
247.283847429917
 30
0.0
 40
3.2
  1
直線距離
 41
0.7
  7
高3.2
100
AcDbText
  0
LINE
  5
1578
330
1F
100
AcDbEntity
  8
0
 62
     7
100
AcDbLine
 10
1752.061072061076
 20
246.2838474299171
 30
0.0
 11
1671.070001012356
 21
246.2838474299171
 31
0.0
  0
TEXT
  5
1579
330
1F
100
AcDbEntity
  8
0
 62
     3
100
AcDbText
 10
1697.938763678514
 20
252.7838474299167
 30
0.0
 40
3.2
  1
黒
  7
高3.2
100
AcDbText
  0
TEXT
  5
157A
330
1F
100
AcDbEntity
  8
0
 62
     3
100
AcDbText
 10
1672.570001012356
 20
252.7838474299167
 30
0.0
 40
3.2
  1
本　体　色
  7
高3.2
100
AcDbText
  0
LINE
  5
157B
330
1F
100
AcDbEntity
  8
0
 62
     7
100
AcDbLine
 10
1752.061072061076
 20
240.7838474299174
 30
0.0
 11
1671.070001012356
 21
240.7838474299174
 31
0.0
  0
TEXT
  5
157C
330
1F
100
AcDbEntity
  8
0
 62
     3
100
AcDbText
 10
1697.938763678514
 20
241.7838474299174
 30
0.0
 40
3.2
  1
3m～600m
  7
高3.2
100
AcDbText
  0
TEXT
  5
157D
330
1F
100
AcDbEntity
  8
0
 62
     3
100
AcDbText
 10
1672.570001012356
 20
241.7838474299174
 30
0.0
 40
3.2
  1
直線距離計測範囲
 41
0.7
  7
高3.2
100
AcDbText
  0
LINE
  5
157E
330
1F
100
AcDbEntity
  8
0
 62
     7
100
AcDbLine
 10
1752.061072061076
 20
213.2838474299151
 30
0.0
 11
1671.070001012356
 21
213.2838474299151
 31
0.0
  0
TEXT
  5
157F
330
1F
100
AcDbEntity
  8
0
 62
     3
100
AcDbText
 10
1697.938763678514
 20
203.2838474299154
 30
0.0
 40
3.2
  1
リチウム電池3V CR2(1個)
  7
高3.2
100
AcDbText
  0
TEXT
  5
1580
330
1F
100
AcDbEntity
  8
0
 62
     3
100
AcDbText
 10
1672.570001012356
 20
203.2838474299154
 30
0.0
 40
3.2
  1
電源
  7
高3.2
100
AcDbText
  0
TEXT
  5
1581
330
1F
100
AcDbEntity
  8
0
 62
     3
100
AcDbText
 10
1691.615621062609
 20
267.753240650051
 30
0.0
 40
4.5
  1
主　　仕　　様
  7
高4.5
100
AcDbText
  0
LINE
  5
1582
330
1F
100
AcDbEntity
  8
0
100
AcDbLine
 10
1690.514706694854
 20
266.8874875662084
 30
0.0
 11
1729.106926974541
 21
266.8874875662084
 31
0.0
  0
TEXT
  5
1583
330
1F
100
AcDbEntity
  8
0
 62
     7
100
AcDbText
 10
1670.119074810253
 20
173.502844639171
 30
0.0
 40
2.5
  1
注２）安全にご使用いただくため、取扱説明書をご参照ください。
 41
0.8
  7
高2.5
100
AcDbText
  0
TEXT
  5
1584
330
1F
100
AcDbEntity
  8
0
 62
     7
100
AcDbText
 10
1670.119074810253
 20
170.502844639171
 30
0.0
 40
2.5
  1
注３）仕様変更は予告なく行う場合があります。予めご了承ください。
 41
0.8
  7
高2.5
100
AcDbText
  0
TEXT
  5
1587
330
1F
100
AcDbEntity
  8
0
 62
     7
100
AcDbText
 10
1670.119074810253
 20
176.502844639171
 30
0.0
 40
2.5
  1
　　　対象物の全ての要素がレーザー光の反射性能やその測定結果に影響します。
 41
0.8
  7
高2.5
100
AcDbText
  0
TEXT
  5
1588
330
1F
100
AcDbEntity
  8
0
 62
     7
100
AcDbText
 10
1670.119074810253
 20
179.502844639171
 30
0.0
 40
2.5
  1
注１）測定場所の天候、環境、対象物の色、表面状態、大きさや形など
 41
0.8
  7
高2.5
100
AcDbText
  0
TEXT
  5
158D
330
1F
100
AcDbEntity
  8
0
 62
     3
100
AcDbText
 10
1672.570001012356
 20
219.7838474299152
 30
0.0
 40
3.2
  1
接眼レンズ
  7
高3.2
100
AcDbText
  0
TEXT
  5
158E
330
1F
100
AcDbEntity
  8
0
 62
     3
100
AcDbText
 10
1697.938763678513
 20
219.7838474299152
 30
0.0
 40
3.2
  1
16mm
  7
高3.2
100
AcDbText
  0
LINE
  5
158F
330
1F
100
AcDbEntity
  8
0
 62
     7
100
AcDbLine
 10
1752.061072061075
 20
224.2838474299172
 30
0.0
 11
1671.070001012355
 21
224.2838474299172
 31
0.0
  0
TEXT
  5
1590
330
1F
100
AcDbEntity
  8
0
 62
     3
100
AcDbText
 10
1672.570001012355
 20
225.2838474299172
 30
0.0
 40
3.2
  1
視野角
  7
高3.2
100
AcDbText
  0
TEXT
  5
1591
330
1F
100
AcDbEntity
  8
0
 62
     3
100
AcDbText
 10
1697.938763678513
 20
225.2838474299172
 30
0.0
 40
3.2
  1
7.5\U+00B0
  7
高3.2
100
AcDbText
  0
LINE
  5
1592
330
1F
100
AcDbEntity
  8
0
 62
     7
100
AcDbLine
 10
1752.061072061076
 20
218.7838474299152
 30
0.0
 11
1671.070001012356
 21
218.7838474299152
 31
0.0
  0
TEXT
  5
1596
330
1F
100
AcDbEntity
  8
0
 62
     3
100
AcDbText
 10
1672.570001012356
 20
230.7838474299155
 30
0.0
 40
3.2
  1
倍率
  7
高3.2
100
AcDbText
  0
TEXT
  5
1597
330
1F
100
AcDbEntity
  8
0
 62
     3
100
AcDbText
 10
1697.938763678514
 20
230.7838474299155
 30
0.0
 40
3.2
  1
6倍ズーム
 41
0.8
  7
高3.2
100
AcDbText
  0
LINE
  5
1598
330
1F
100
AcDbEntity
  8
0
 62
     7
100
AcDbLine
 10
1752.061072061076
 20
229.7838474299155
 30
0.0
 11
1671.070001012355
 21
229.7838474299155
 31
0.0
  0
LINE
  5
15A0
330
1F
100
AcDbEntity
  8
0
 62
     7
100
AcDbLine
 10
1719.635283908569
 20
246.2838474299171
 30
0.0
 11
1719.635283908569
 21
251.7838474299172
 31
0.0
  0
LINE
  5
15A2
330
1F
100
AcDbEntity
  8
0
100
AcDbLine
 10
1710.665772070141
 20
251.7838474299172
 30
0.0
 11
1710.665772070141
 21
246.2838474299171
 31
0.0
  0
TEXT
  5
15A3
330
1F
100
AcDbEntity
  8
0
 62
     3
100
AcDbText
 10
1712.165772070141
 20
247.283847429917
 30
0.0
 40
3.2
  1
速度
 41
0.7
  7
高3.2
100
AcDbText
  0
TEXT
  5
15A4
330
1F
100
AcDbEntity
  8
0
 62
     3
100
AcDbText
 10
1721.135283908569
 20
247.283847429917
 30
0.0
 40
3.2
  1
高度/距離
 41
0.7
  7
高3.2
100
AcDbText
  0
LINE
  5
15A5
330
1F
100
AcDbEntity
  8
0
 62
     7
100
AcDbLine
 10
1735.848177984823
 20
246.2838474299171
 30
0.0
 11
1735.848177984823
 21
251.7838474299172
 31
0.0
  0
TEXT
  5
15A6
330
1F
100
AcDbEntity
  8
0
 62
     3
100
AcDbText
 10
1737.348177984823
 20
247.283847429917
 30
0.0
 40
3.2
  1
角度/距離
 41
0.7
  7
高3.2
100
AcDbText
  0
LINE
  5
15AD
330
1F
100
AcDbEntity
  8
0
 62
     3
100
AcDbLine
 10
1369.710012384285
 20
333.1844933972188
 30
0.0
 11
1369.710012384285
 21
59.18449339721886
 31
0.0
  0
LINE
  5
15AE
330
1F
100
AcDbEntity
  8
0
 62
     3
100
AcDbLine
 10
1759.710012384285
 20
59.18449339721886
 30
0.0
 11
1759.710012384285
 21
333.1844933972188
 31
0.0
  0
LINE
  5
15AF
330
1F
100
AcDbEntity
  8
0
 62
     3
100
AcDbLine
 10
1369.710012384285
 20
59.18449339721886
 30
0.0
 11
1759.710012384285
 21
59.18449339721886
 31
0.0
  0
LINE
  5
15B0
330
1F
100
AcDbEntity
  8
0
 62
     3
100
AcDbLine
 10
1547.484901854285
 20
335.6244955372189
 30
0.0
 11
1548.107398864285
 21
335.2995410572189
 31
0.0
  0
LINE
  5
15B1
330
1F
100
AcDbEntity
  8
0
 62
     3
100
AcDbLine
 10
1547.484901854285
 20
330.2950234372188
 30
0.0
 11
1548.107398864285
 21
330.6199779172189
 31
0.0
  0
LINE
  5
15B2
330
1F
100
AcDbEntity
  8
0
 62
     3
100
AcDbLine
 10
1548.107398864285
 20
335.2995410572189
 30
0.0
 11
1548.107398864285
 21
330.6199779172189
 31
0.0
  0
LINE
  5
15B3
330
1F
100
AcDbEntity
  8
0
 62
     3
100
AcDbLine
 10
1549.683852324285
 20
330.2950234372188
 30
0.0
 11
1549.061355314285
 21
330.6199779172189
 31
0.0
  0
LINE
  5
15B4
330
1F
100
AcDbEntity
  8
0
 62
     3
100
AcDbLine
 10
1549.061355314285
 20
333.4726333672187
 30
0.0
 11
1549.061355314285
 21
330.6199779172189
 31
0.0
  0
LINE
  5
15B5
330
1F
100
AcDbEntity
  8
0
 62
     3
100
AcDbLine
 10
1553.315084864285
 20
335.6244955372189
 30
0.0
 11
1552.692587864285
 21
335.2995410572189
 31
0.0
  0
LINE
  5
15B6
330
1F
100
AcDbEntity
  8
0
 62
     3
100
AcDbLine
 10
1551.116134394285
 20
335.6244955372189
 30
0.0
 11
1551.738631404285
 21
335.2995410572189
 31
0.0
  0
LINE
  5
15B7
330
1F
100
AcDbEntity
  8
0
 62
     3
100
AcDbLine
 10
1551.738631404285
 20
335.2995410572189
 30
0.0
 11
1551.738631404285
 21
333.2390595372189
 31
0.0
  0
LINE
  5
15B8
330
1F
100
AcDbEntity
  8
0
 62
     3
100
AcDbLine
 10
1552.692587864285
 20
335.2995410572189
 30
0.0
 11
1552.692587864285
 21
329.9927932272189
 31
0.0
  0
LINE
  5
15B9
330
1F
100
AcDbEntity
  8
0
 62
     3
100
AcDbLine
 10
1553.622652304285
 20
335.6244917872189
 30
0.0
 11
1554.245147064285
 21
335.2995330172188
 31
0.0
  0
LINE
  5
15BA
330
1F
100
AcDbEntity
  8
0
 62
     3
100
AcDbLine
 10
1553.622540914285
 20
330.2950948272187
 30
0.0
 11
1554.245049264285
 21
330.6200275772188
 31
0.0
  0
LINE
  5
15BB
330
1F
100
AcDbEntity
  8
0
 62
     3
100
AcDbLine
 10
1554.245147064285
 20
335.2995330172188
 30
0.0
 11
1554.245147064285
 21
330.6200275772188
 31
0.0
  0
LINE
  5
15BC
330
1F
100
AcDbEntity
  8
0
 62
     3
100
AcDbLine
 10
1556.379132864285
 20
335.6244579672189
 30
0.0
 11
1555.756631304285
 21
335.2995122072189
 31
0.0
  0
LINE
  5
15BD
330
1F
100
AcDbEntity
  8
0
 62
     3
100
AcDbLine
 10
1555.756631304285
 20
335.2995122072189
 30
0.0
 11
1555.756631304285
 21
330.6200067672187
 31
0.0
  0
LINE
  5
15BE
330
1F
100
AcDbEntity
  8
0
 62
     3
100
AcDbLine
 10
1556.379132864285
 20
330.2950610072187
 30
0.0
 11
1555.756631304285
 21
330.6200067672187
 31
0.0
  0
LINE
  5
15BF
330
1F
100
AcDbEntity
  8
0
 62
     3
100
AcDbLine
 10
1561.650923494285
 20
335.6243993972189
 30
0.0
 11
1562.273419374285
 21
335.2994427772188
 31
0.0
  0
LINE
  5
15C0
330
1F
100
AcDbEntity
  8
0
 62
     3
100
AcDbLine
 10
1562.273419374285
 20
335.2994427772188
 30
0.0
 11
1562.273337704285
 21
330.6199373272189
 31
0.0
  0
LINE
  5
15C1
330
1F
100
AcDbEntity
  8
0
 62
     3
100
AcDbLine
 10
1561.650830474285
 20
330.2950024372188
 30
0.0
 11
1562.273337704285
 21
330.6199373272189
 31
0.0
  0
LINE
  5
15C2
330
1F
100
AcDbEntity
  8
0
 62
     3
100
AcDbLine
 10
1564.439867734285
 20
335.6243993972189
 30
0.0
 11
1563.817371844285
 21
335.2994427772188
 31
0.0
  0
LINE
  5
15C3
330
1F
100
AcDbEntity
  8
0
 62
     3
100
AcDbLine
 10
1564.439960744285
 20
330.2950024372188
 30
0.0
 11
1563.817453514285
 21
330.6199373272189
 31
0.0
  0
LINE
  5
15C4
330
1F
100
AcDbEntity
  8
0
 62
     3
100
AcDbLine
 10
1564.730907534285
 20
335.6243993972189
 30
0.0
 11
1565.353403414285
 21
335.2994427772188
 31
0.0
  0
LINE
  5
15C5
330
1F
100
AcDbEntity
  8
0
 62
     3
100
AcDbLine
 10
1564.730814514285
 20
330.2950024372188
 30
0.0
 11
1565.353321744285
 21
330.6199373272189
 31
0.0
  0
LINE
  5
15C6
330
1F
100
AcDbEntity
  8
0
 62
     3
100
AcDbLine
 10
1567.519851764285
 20
335.6243993972189
 30
0.0
 11
1566.897355884285
 21
335.2994427772188
 31
0.0
  0
LINE
  5
15C7
330
1F
100
AcDbEntity
  8
0
 62
     3
100
AcDbLine
 10
1566.897355884285
 20
335.2994427772188
 30
0.0
 11
1566.897437554285
 21
330.6199373272189
 31
0.0
  0
LINE
  5
15C8
330
1F
100
AcDbEntity
  8
0
 62
     3
100
AcDbLine
 10
1567.519944784285
 20
330.2950024372188
 30
0.0
 11
1566.897437554285
 21
330.6199373272189
 31
0.0
  0
LINE
  5
15C9
330
1F
100
AcDbEntity
  8
0
 62
     3
100
AcDbLine
 10
1565.353367834285
 20
333.2606811772189
 30
0.0
 11
1563.817407424285
 21
333.2606811772189
 31
0.0
  0
LINE
  5
15CA
330
1F
100
AcDbEntity
  8
0
 62
     3
100
AcDbLine
 10
1565.353357334285
 20
332.6588377972188
 30
0.0
 11
1563.817417924285
 21
332.6588377972188
 31
0.0
  0
LINE
  5
15CB
330
1F
100
AcDbEntity
  8
0
 62
     3
100
AcDbLine
 10
1565.353403414285
 20
335.2994427772188
 30
0.0
 11
1565.353367834285
 21
333.2606811772189
 31
0.0
  0
LINE
  5
15CC
330
1F
100
AcDbEntity
  8
0
 62
     3
100
AcDbLine
 10
1565.353357334285
 20
332.6588377972188
 30
0.0
 11
1565.353321744285
 21
330.6199373272189
 31
0.0
  0
LINE
  5
15CD
330
1F
100
AcDbEntity
  8
0
 62
     3
100
AcDbLine
 10
1563.817371844285
 20
335.2994427772188
 30
0.0
 11
1563.817407424285
 21
333.2606811772189
 31
0.0
  0
LINE
  5
15CE
330
1F
100
AcDbEntity
  8
0
 62
     3
100
AcDbLine
 10
1563.817417924285
 20
332.6588377972188
 30
0.0
 11
1563.817453514285
 21
330.6199373272189
 31
0.0
  0
LINE
  5
15CF
330
1F
100
AcDbEntity
  8
0
 62
     3
100
AcDbLine
 10
1567.815507654285
 20
335.6243993972189
 30
0.0
 11
1568.438003544285
 21
335.2994427772188
 31
0.0
  0
LINE
  5
15D0
330
1F
100
AcDbEntity
  8
0
 62
     3
100
AcDbLine
 10
1568.438003544285
 20
335.2994427772188
 30
0.0
 11
1568.437921864285
 21
330.6199373272189
 31
0.0
  0
LINE
  5
15D1
330
1F
100
AcDbEntity
  8
0
 62
     3
100
AcDbLine
 10
1567.815414634285
 20
330.2950024372188
 30
0.0
 11
1568.437921864285
 21
330.6199373272189
 31
0.0
  0
LINE
  5
15D2
330
1F
100
AcDbEntity
  8
0
 62
     3
100
AcDbLine
 10
1570.571950894285
 20
335.6243993972189
 30
0.0
 11
1569.949455004285
 21
335.2994427772188
 31
0.0
  0
LINE
  5
15D3
330
1F
100
AcDbEntity
  8
0
 62
     3
100
AcDbLine
 10
1569.949455004285
 20
335.2994427772188
 30
0.0
 11
1569.949536684285
 21
330.6199373272189
 31
0.0
  0
LINE
  5
15D4
330
1F
100
AcDbEntity
  8
0
 62
     3
100
AcDbLine
 10
1570.572043914285
 20
330.2950024372188
 30
0.0
 11
1569.949536684285
 21
330.6199373272189
 31
0.0
  0
LINE
  5
15D5
330
1F
100
AcDbEntity
  8
0
 62
     3
100
AcDbLine
 10
1570.878178844285
 20
335.6243993972189
 30
0.0
 11
1571.500674734285
 21
335.2994427772188
 31
0.0
  0
LINE
  5
15D6
330
1F
100
AcDbEntity
  8
0
 62
     3
100
AcDbLine
 10
1571.500674734285
 20
335.2994427772188
 30
0.0
 11
1571.500593064285
 21
330.6199373272189
 31
0.0
  0
LINE
  5
15D7
330
1F
100
AcDbEntity
  8
0
 62
     3
100
AcDbLine
 10
1570.878085834285
 20
330.2950024372188
 30
0.0
 11
1571.500593064285
 21
330.6199373272189
 31
0.0
  0
ARC
  5
15D8
330
1F
100
AcDbEntity
  8
0
 62
     3
100
AcDbCircle
 10
1559.662478824285
 20
332.9731734272189
 30
0.0
 40
2.98040844
100
AcDbArc
 50
97.70152350999723
 51
270.0
  0
ARC
  5
15D9
330
1F
100
AcDbEntity
  8
0
 62
     3
100
AcDbCircle
 10
1578.063337164285
 20
332.9432353872188
 30
0.0
 40
3.012776259999998
100
AcDbArc
 50
0.314250269999259
 51
69.00558245000303
  0
ARC
  5
15DA
330
1F
100
AcDbEntity
  8
0
 62
     3
100
AcDbCircle
 10
1578.721444774285
 20
332.9432353872188
 30
0.0
 40
3.012776259999998
100
AcDbArc
 50
110.9944175499969
 51
148.1166110200045
  0
ARC
  5
15DB
330
1F
100
AcDbEntity
  8
0
 62
     3
100
AcDbCircle
 10
1578.063337164285
 20
332.9762835872188
 30
0.0
 40
3.012776259999998
100
AcDbArc
 50
290.9944175499969
 51
359.6857497300007
  0
ARC
  5
15DC
330
1F
100
AcDbEntity
  8
0
 62
     3
100
AcDbCircle
 10
1578.721444774285
 20
332.9762835872188
 30
0.0
 40
3.012776259999998
100
AcDbArc
 50
211.8833889799954
 51
249.005582450003
  0
ARC
  5
15DD
330
1F
100
AcDbEntity
  8
0
 62
     3
100
AcDbCircle
 10
1578.392390974285
 20
334.1923386172189
 30
0.0
 40
1.73438712
100
AcDbArc
 50
64.3651718999996
 51
115.6348281000004
  0
ARC
  5
15DE
330
1F
100
AcDbEntity
  8
0
 62
     3
100
AcDbCircle
 10
1578.392390974285
 20
331.7271803572187
 30
0.0
 40
1.73438712
100
AcDbArc
 50
244.3651718999996
 51
295.6348281000004
  0
ARC
  5
15DF
330
1F
100
AcDbEntity
  8
0
 62
     3
100
AcDbCircle
 10
1578.392390974285
 20
334.2252838772188
 30
0.0
 40
0.85122233
100
AcDbArc
 50
19.48660554000439
 51
160.5133944599956
  0
ARC
  5
15E0
330
1F
100
AcDbEntity
  8
0
 62
     3
100
AcDbCircle
 10
1578.392390974285
 20
331.7271803572187
 30
0.0
 40
1.73438712
100
AcDbArc
 50
244.3651718999996
 51
295.6348281000004
  0
ARC
  5
15E1
330
1F
100
AcDbEntity
  8
0
 62
     3
100
AcDbCircle
 10
1578.392390974285
 20
331.6942350972188
 30
0.0
 40
0.85122233
100
AcDbArc
 50
199.4866055400044
 51
340.5133944599956
  0
ARC
  5
15E2
330
1F
100
AcDbEntity
  8
0
 62
     3
100
AcDbCircle
 10
1571.617430254285
 20
301.2053882872189
 30
0.0
 40
37.20000000000001
100
AcDbArc
 50
69.50571480000848
 51
81.68998807001051
  0
ARC
  5
15E3
330
1F
100
AcDbEntity
  8
0
 62
     3
100
AcDbCircle
 10
1571.617430254285
 20
364.7141306872188
 30
0.0
 40
37.20000000000001
100
AcDbArc
 50
278.3100119299894
 51
290.4942851999915
  0
ARC
  5
15E4
330
1F
100
AcDbEntity
  8
0
 62
     3
100
AcDbCircle
 10
1583.486293294285
 20
332.9597594872188
 30
0.0
 40
3.299999999999998
100
AcDbArc
 50
290.4942851999915
 51
69.50571480000848
  0
ARC
  5
15E5
330
1F
100
AcDbEntity
  8
0
 62
     3
100
AcDbCircle
 10
1544.486293294285
 20
332.9597594872188
 30
0.0
 40
3.299999999999998
100
AcDbArc
 50
110.4942851999915
 51
249.5057148000085
  0
ARC
  5
15E6
330
1F
100
AcDbEntity
  8
0
 62
     3
100
AcDbCircle
 10
1556.355156324285
 20
301.2053882872189
 30
0.0
 40
37.20000000000001
100
AcDbArc
 50
98.31001192998948
 51
110.4942851999915
  0
ARC
  5
15E7
330
1F
100
AcDbEntity
  8
0
 62
     3
100
AcDbCircle
 10
1556.355156324285
 20
364.7141306872188
 30
0.0
 40
37.20000000000001
100
AcDbArc
 50
249.5057148000085
 51
261.6899880699973
  0
ARC
  5
15E8
330
1F
100
AcDbEntity
  8
0
 62
     3
100
AcDbCircle
 10
1563.986293294285
 20
248.9597594872188
 30
0.0
 40
89.99999981
100
AcDbArc
 50
81.68998807001051
 51
98.31001192998948
  0
ARC
  5
15E9
330
1F
100
AcDbEntity
  8
0
 62
     3
100
AcDbCircle
 10
1563.986293294285
 20
416.9597594872187
 30
0.0
 40
89.99999981
100
AcDbArc
 50
261.6899880699973
 51
278.3100119299894
  0
ARC
  5
15EA
330
1F
100
AcDbEntity
  8
0
 62
     3
100
AcDbCircle
 10
1563.986293294285
 20
248.9597594872188
 30
0.0
 40
89.09999981
100
AcDbArc
 50
81.68998807001051
 51
98.31001192998948
  0
ARC
  5
15EB
330
1F
100
AcDbEntity
  8
0
 62
     3
100
AcDbCircle
 10
1563.986293294285
 20
416.9597594872187
 30
0.0
 40
89.09999981
100
AcDbArc
 50
261.6899880699973
 51
278.3100119299894
  0
ARC
  5
15EC
330
1F
100
AcDbEntity
  8
0
 62
     3
100
AcDbCircle
 10
1571.617430254285
 20
364.7141306872188
 30
0.0
 40
36.3
100
AcDbArc
 50
278.3100119299894
 51
290.4942851999915
  0
ARC
  5
15ED
330
1F
100
AcDbEntity
  8
0
 62
     3
100
AcDbCircle
 10
1571.617430254285
 20
301.2053882872189
 30
0.0
 40
36.3
100
AcDbArc
 50
69.50571480000848
 51
81.68998807001051
  0
ARC
  5
15EE
330
1F
100
AcDbEntity
  8
0
 62
     3
100
AcDbCircle
 10
1583.486293294285
 20
332.9597594872188
 30
0.0
 40
2.399999999999999
100
AcDbArc
 50
290.4942851999915
 51
69.50571480000848
  0
ARC
  5
15EF
330
1F
100
AcDbEntity
  8
0
 62
     3
100
AcDbCircle
 10
1544.486293294285
 20
332.9597594872188
 30
0.0
 40
2.399999999999999
100
AcDbArc
 50
110.4942851999915
 51
249.5057148000085
  0
ARC
  5
15F0
330
1F
100
AcDbEntity
  8
0
 62
     3
100
AcDbCircle
 10
1556.355156324285
 20
301.2053882872189
 30
0.0
 40
36.3
100
AcDbArc
 50
98.31001192998948
 51
110.4942851999915
  0
ARC
  5
15F1
330
1F
100
AcDbEntity
  8
0
 62
     3
100
AcDbCircle
 10
1556.355156324285
 20
364.7141306872188
 30
0.0
 40
36.3
100
AcDbArc
 50
249.5057148000085
 51
261.6899880699973
  0
LINE
  5
15F2
330
1F
100
AcDbEntity
  8
0
 62
     3
100
AcDbLine
 10
1570.571952014285
 20
329.9927932272189
 30
0.0
 11
1567.815506534285
 21
329.9927932272189
 31
0.0
  0
LINE
  5
15F3
330
1F
100
AcDbEntity
  8
0
 62
     3
100
AcDbLine
 10
1570.571952014285
 20
330.2950234372188
 30
0.0
 11
1570.571952014285
 21
329.9927932272189
 31
0.0
  0
LINE
  5
15F4
330
1F
100
AcDbEntity
  8
0
 62
     3
100
AcDbLine
 10
1567.519852884285
 20
335.9265847172188
 30
0.0
 11
1564.730906414285
 21
335.9265847172188
 31
0.0
  0
LINE
  5
15F5
330
1F
100
AcDbEntity
  8
0
 62
     3
100
AcDbLine
 10
1567.519852884285
 20
335.9265847172188
 30
0.0
 11
1567.519852884285
 21
335.6244955372189
 31
0.0
  0
LINE
  5
15F6
330
1F
100
AcDbEntity
  8
0
 62
     3
100
AcDbLine
 10
1567.519852884285
 20
330.2950234372188
 30
0.0
 11
1567.519852884285
 21
329.9926522072188
 31
0.0
  0
LINE
  5
15F7
330
1F
100
AcDbEntity
  8
0
 62
     3
100
AcDbLine
 10
1567.519852884285
 20
329.9926522072188
 30
0.0
 11
1564.730906414285
 21
329.9926522072188
 31
0.0
  0
LINE
  5
15F8
330
1F
100
AcDbEntity
  8
0
 62
     3
100
AcDbLine
 10
1570.571952014285
 20
335.9267257472189
 30
0.0
 11
1570.571952014285
 21
335.6244955372189
 31
0.0
  0
LINE
  5
15F9
330
1F
100
AcDbEntity
  8
0
 62
     3
100
AcDbLine
 10
1570.571952014285
 20
335.9267257472189
 30
0.0
 11
1567.815506534285
 21
335.9267257472189
 31
0.0
  0
LINE
  5
15FA
330
1F
100
AcDbEntity
  8
0
 62
     3
100
AcDbLine
 10
1567.815506534285
 20
335.9267257472189
 30
0.0
 11
1567.815506534285
 21
335.6244955372189
 31
0.0
  0
LINE
  5
15FB
330
1F
100
AcDbEntity
  8
0
 62
     3
100
AcDbLine
 10
1570.878177724285
 20
330.2950234372188
 30
0.0
 11
1570.878177724285
 21
329.9927932272189
 31
0.0
  0
LINE
  5
15FC
330
1F
100
AcDbEntity
  8
0
 62
     3
100
AcDbLine
 10
1573.712892814285
 20
329.9927932272189
 30
0.0
 11
1570.878177724285
 21
329.9927932272189
 31
0.0
  0
LINE
  5
15FD
330
1F
100
AcDbEntity
  8
0
 62
     3
100
AcDbLine
 10
1573.012126204285
 20
334.9727692872189
 30
0.0
 11
1573.012126204285
 21
330.9467496872187
 31
0.0
  0
LINE
  5
15FE
330
1F
100
AcDbEntity
  8
0
 62
     3
100
AcDbLine
 10
1573.012126204285
 20
330.9467496872187
 30
0.0
 11
1573.283624724285
 21
330.9467496872187
 31
0.0
  0
ARC
  5
15FF
330
1F
100
AcDbEntity
  8
0
 62
     3
100
AcDbCircle
 10
1571.895359384285
 20
332.9597594872188
 30
0.0
 40
2.44529939
100
AcDbArc
 50
304.5919552700021
 51
55.40804472999793
  0
LINE
  5
1600
330
1F
100
AcDbEntity
  8
0
 62
     3
100
AcDbLine
 10
1573.712892814285
 20
335.9267257472189
 30
0.0
 11
1570.878177724285
 21
335.9267257472189
 31
0.0
  0
LINE
  5
1601
330
1F
100
AcDbEntity
  8
0
 62
     3
100
AcDbLine
 10
1570.878177724285
 20
335.9267257472189
 30
0.0
 11
1570.878177724285
 21
335.6244955372189
 31
0.0
  0
LINE
  5
1602
330
1F
100
AcDbEntity
  8
0
 62
     3
100
AcDbLine
 10
1567.815506534285
 20
330.2950234372188
 30
0.0
 11
1567.815506534285
 21
329.9927932272189
 31
0.0
  0
LINE
  5
1603
330
1F
100
AcDbEntity
  8
0
 62
     3
100
AcDbLine
 10
1573.012126204285
 20
334.9727692872189
 30
0.0
 11
1573.283624724285
 21
334.9727692872189
 31
0.0
  0
LINE
  5
1604
330
1F
100
AcDbEntity
  8
0
 62
     3
100
AcDbLine
 10
1556.379040964285
 20
330.2950234372188
 30
0.0
 11
1556.379035694285
 21
329.9927649872188
 31
0.0
  0
LINE
  5
1605
330
1F
100
AcDbEntity
  8
0
 62
     3
100
AcDbLine
 10
1553.622590214285
 20
329.9928214772188
 30
0.0
 11
1556.379035694285
 21
329.9927733672188
 31
0.0
  0
LINE
  5
1606
330
1F
100
AcDbEntity
  8
0
 62
     3
100
AcDbLine
 10
1547.484901854285
 20
329.9927932272189
 30
0.0
 11
1549.683852324285
 21
329.9927932272189
 31
0.0
  0
ARC
  5
1607
330
1F
100
AcDbEntity
  8
0
 62
     3
100
AcDbCircle
 10
1540.367840884285
 20
333.0296260972188
 30
0.0
 40
21.01937947
100
AcDbArc
 50
353.8660061899983
 51
357.6940342600001
  0
LINE
  5
1608
330
1F
100
AcDbEntity
  8
0
 62
     3
100
AcDbLine
 10
1559.962954974285
 20
332.1891008772188
 30
0.0
 11
1561.370199094285
 21
332.1838939072188
 31
0.0
  0
LINE
  5
160A
330
1F
100
AcDbEntity
  8
0
 62
     3
100
AcDbLine
 10
1559.968638424285
 20
333.7251219372188
 30
0.0
 11
1561.375882544285
 21
333.7199149672189
 31
0.0
  0
ARC
  5
160B
330
1F
100
AcDbEntity
  8
0
 62
     3
100
AcDbCircle
 10
1540.367840884285
 20
333.0296260972188
 30
0.0
 40
21.01937947
100
AcDbArc
 50
1.881965739999571
 51
5.709993809998117
  0
LINE
  5
160C
330
1F
100
AcDbEntity
  8
0
 62
     3
100
AcDbLine
 10
1556.379139254285
 20
335.9266974972188
 30
0.0
 11
1556.379133984285
 21
335.6244955372189
 31
0.0
  0
LINE
  5
160D
330
1F
100
AcDbEntity
  8
0
 62
     3
100
AcDbLine
 10
1553.622693774285
 20
335.9267539872188
 30
0.0
 11
1556.379139254285
 21
335.9267058772189
 31
0.0
  0
LINE
  5
160E
330
1F
100
AcDbEntity
  8
0
 62
     3
100
AcDbLine
 10
1553.622595484285
 20
330.2950234372188
 30
0.0
 11
1553.622590214285
 21
329.9928214772188
 31
0.0
  0
LINE
  5
160F
330
1F
100
AcDbEntity
  8
0
 62
     3
100
AcDbLine
 10
1553.622693774285
 20
335.9267539872188
 30
0.0
 11
1553.622688504285
 21
335.6244955372189
 31
0.0
  0
LINE
  5
1610
330
1F
100
AcDbEntity
  8
0
 62
     3
100
AcDbLine
 10
1549.683852324285
 20
330.2950234372188
 30
0.0
 11
1549.683852324285
 21
329.9927932272189
 31
0.0
  0
LINE
  5
1611
330
1F
100
AcDbEntity
  8
0
 62
     3
100
AcDbLine
 10
1549.061355314285
 20
333.4726333672187
 30
0.0
 11
1551.236255394285
 21
329.9927932272189
 31
0.0
  0
LINE
  5
1612
330
1F
100
AcDbEntity
  8
0
 62
     3
100
AcDbLine
 10
1551.236255394285
 20
329.9927932272189
 30
0.0
 11
1552.692587864285
 21
329.9927932272189
 31
0.0
  0
LINE
  5
1613
330
1F
100
AcDbEntity
  8
0
 62
     3
100
AcDbLine
 10
1553.315084864285
 20
335.9267257472189
 30
0.0
 11
1553.315084864285
 21
335.6244955372189
 31
0.0
  0
LINE
  5
1614
330
1F
100
AcDbEntity
  8
0
 62
     3
100
AcDbLine
 10
1551.116134394285
 20
335.9267257472189
 30
0.0
 11
1553.315084864285
 21
335.9267257472189
 31
0.0
  0
LINE
  5
1615
330
1F
100
AcDbEntity
  8
0
 62
     3
100
AcDbLine
 10
1551.116134394285
 20
335.9267257472189
 30
0.0
 11
1551.116134394285
 21
335.6244955372189
 31
0.0
  0
LINE
  5
1616
330
1F
100
AcDbEntity
  8
0
 62
     3
100
AcDbLine
 10
1551.738631404285
 20
333.2390595372189
 30
0.0
 11
1549.974850464285
 21
335.9267257472189
 31
0.0
  0
LINE
  5
1617
330
1F
100
AcDbEntity
  8
0
 62
     3
100
AcDbLine
 10
1547.484901854285
 20
335.9267257472189
 30
0.0
 11
1549.974850464285
 21
335.9267257472189
 31
0.0
  0
LINE
  5
1618
330
1F
100
AcDbEntity
  8
0
 62
     3
100
AcDbLine
 10
1561.650922374285
 20
335.9265847172188
 30
0.0
 11
1564.439868854285
 21
335.9265847172188
 31
0.0
  0
LINE
  5
1619
330
1F
100
AcDbEntity
  8
0
 62
     3
100
AcDbLine
 10
1561.650922374285
 20
335.6244955372189
 30
0.0
 11
1561.650922374285
 21
335.9265847172188
 31
0.0
  0
LINE
  5
161A
330
1F
100
AcDbEntity
  8
0
 62
     3
100
AcDbLine
 10
1561.650922374285
 20
329.9926522072188
 30
0.0
 11
1561.650922374285
 21
330.2950234372188
 31
0.0
  0
LINE
  5
161B
330
1F
100
AcDbEntity
  8
0
 62
     3
100
AcDbLine
 10
1561.650922374285
 20
329.9926522072188
 30
0.0
 11
1564.439868854285
 21
329.9926522072188
 31
0.0
  0
LINE
  5
161C
330
1F
100
AcDbEntity
  8
0
 62
     3
100
AcDbLine
 10
1564.730906414285
 20
330.2950234372188
 30
0.0
 11
1564.730906414285
 21
329.9926522072188
 31
0.0
  0
LINE
  5
161D
330
1F
100
AcDbEntity
  8
0
 62
     3
100
AcDbLine
 10
1564.439868854285
 20
330.2950234372188
 30
0.0
 11
1564.439868854285
 21
329.9926522072188
 31
0.0
  0
LINE
  5
161E
330
1F
100
AcDbEntity
  8
0
 62
     3
100
AcDbLine
 10
1564.439868854285
 20
335.6244955372189
 30
0.0
 11
1564.439868854285
 21
335.9265847172188
 31
0.0
  0
LINE
  5
161F
330
1F
100
AcDbEntity
  8
0
 62
     3
100
AcDbLine
 10
1564.730906414285
 20
335.6244955372189
 30
0.0
 11
1564.730906414285
 21
335.9265847172188
 31
0.0
  0
LINE
  5
1620
330
1F
100
AcDbEntity
  8
0
 62
     3
100
AcDbLine
 10
1547.484901854285
 20
330.2950234372188
 30
0.0
 11
1547.484901854285
 21
329.9927932272189
 31
0.0
  0
LINE
  5
1621
330
1F
100
AcDbEntity
  8
0
 62
     3
100
AcDbLine
 10
1547.484901854285
 20
335.9267257472189
 30
0.0
 11
1547.484901854285
 21
335.6244955372189
 31
0.0
  0
ARC
  5
1622
330
1F
100
AcDbEntity
  8
0
 62
     3
100
AcDbCircle
 10
1574.012892814285
 20
333.5822564972188
 30
0.0
 40
2.344469249999999
100
AcDbArc
 50
17.30874897999489
 51
23.76507095999558
  0
ARC
  5
1623
330
1F
100
AcDbEntity
  8
0
 62
     3
100
AcDbCircle
 10
1572.015359384285
 20
332.9597594872188
 30
0.0
 40
4.43675086
100
AcDbArc
 50
342.6912510200051
 51
17.30856643999812
  0
ARC
  5
1624
330
1F
100
AcDbEntity
  8
0
 62
     3
100
AcDbCircle
 10
1574.012892814285
 20
332.3372624772189
 30
0.0
 40
2.344469249999999
100
AcDbArc
 50
336.2349290400014
 51
342.6912510200051
  0
ARC
  5
1625
330
1F
100
AcDbEntity
  8
0
 62
     3
100
AcDbCircle
 10
1573.712892814285
 20
333.5822564972188
 30
0.0
 40
2.344469249999999
100
AcDbArc
 50
17.30874897999489
 51
90.0
  0
ARC
  5
1626
330
1F
100
AcDbEntity
  8
0
 62
     3
100
AcDbCircle
 10
1571.715359384285
 20
332.9597594872188
 30
0.0
 40
4.43675086
100
AcDbArc
 50
342.6912510200051
 51
17.30856643999812
  0
ARC
  5
1627
330
1F
100
AcDbEntity
  8
0
 62
     3
100
AcDbCircle
 10
1573.712892814285
 20
332.3372624772189
 30
0.0
 40
2.344469249999999
100
AcDbArc
 50
270.0
 51
342.6912510200051
  0
ARC
  5
1628
330
1F
100
AcDbEntity
  8
0
 62
     3
100
AcDbCircle
 10
1559.250120844285
 20
332.9597594872188
 30
0.0
 40
2.966966259999998
100
AcDbArc
 50
46.75287960999344
 51
89.74999828999569
  0
ARC
  5
1629
330
1F
100
AcDbEntity
  8
0
 62
     3
100
AcDbCircle
 10
1559.250120844285
 20
332.9597594872188
 30
0.0
 40
2.966966259999998
100
AcDbArc
 50
273.976333149997
 51
312.8231203899988
  0
ARC
  5
162A
330
1F
100
AcDbEntity
  8
0
 62
     3
100
AcDbCircle
 10
1575.595560774285
 20
332.9139573072189
 30
0.0
 40
3.936984289999998
100
AcDbArc
 50
0.6665840599997753
 51
23.90392827000137
  0
ARC
  5
162B
330
1F
100
AcDbEntity
  8
0
 62
     3
100
AcDbCircle
 10
1581.189221164285
 20
332.9139573072189
 30
0.0
 40
3.936984289999998
100
AcDbArc
 50
156.0960717299986
 51
179.3334159400002
  0
ARC
  5
162C
330
1F
100
AcDbEntity
  8
0
 62
     3
100
AcDbCircle
 10
1575.595560774285
 20
333.0055616672189
 30
0.0
 40
3.936984289999998
100
AcDbArc
 50
336.0960717299986
 51
359.3334159400003
  0
ARC
  5
162D
330
1F
100
AcDbEntity
  8
0
 62
     3
100
AcDbCircle
 10
1581.189221164285
 20
333.0055616672189
 30
0.0
 40
3.936984289999998
100
AcDbArc
 50
180.6665840599997
 51
203.9039282700014
  0
LINE
  5
162E
330
1F
100
AcDbEntity
  8
0
 62
     3
100
AcDbLine
 10
1588.366737564285
 20
333.1844933972188
 30
0.0
 11
1759.710012384285
 21
333.1844933972188
 31
0.0
  0
LINE
  5
162F
330
1F
100
AcDbEntity
  8
0
 62
     3
100
AcDbLine
 10
1539.812702894285
 20
333.1844933972188
 30
0.0
 11
1369.710012384285
 21
333.1844933972188
 31
0.0
  0
LINE
  5
1630
330
1F
100
AcDbEntity
  8
0
 62
     3
100
AcDbLine
 10
1357.308088594285
 20
199.6291323472188
 30
0.0
 11
1354.710012384285
 21
198.1291323472188
 31
0.0
  0
LINE
  5
1631
330
1F
100
AcDbEntity
  8
0
 62
     3
100
AcDbLine
 10
1357.308088594285
 20
199.6291323472188
 30
0.0
 11
1354.710012384285
 21
201.1291323472188
 31
0.0
  0
LINE
  5
1632
330
1F
100
AcDbEntity
  8
0
 62
     3
100
AcDbLine
 10
1354.710012384285
 20
198.1291323472188
 30
0.0
 11
1354.710012384285
 21
201.1291323472188
 31
0.0
  0
LINE
  5
1635
330
1F
100
AcDbEntity
  8
0
 62
     3
100
AcDbLine
 10
1707.710012384285
 20
59.18449339721886
 30
0.0
 11
1707.710012384285
 21
99.18449339721886
 31
0.0
  0
LINE
  5
1636
330
1F
100
AcDbEntity
  8
0
 62
     3
100
AcDbLine
 10
1720.710012384285
 20
69.18449339721886
 30
0.0
 11
1720.710012384285
 21
97.18449339721885
 31
0.0
  0
LINE
  5
1637
330
1F
100
AcDbEntity
  8
0
 62
     3
100
AcDbLine
 10
1680.710012384285
 20
69.18449339721886
 30
0.0
 11
1680.710012384285
 21
83.18449339721885
 31
0.0
  0
LINE
  5
1638
330
1F
100
AcDbEntity
  8
0
 62
     3
100
AcDbLine
 10
1690.710012384285
 20
83.18449339721885
 30
0.0
 11
1690.710012384285
 21
59.18449339721886
 31
0.0
  0
LINE
  5
1639
330
1F
100
AcDbEntity
  8
0
 62
     3
100
AcDbLine
 10
1661.710012384285
 20
99.18449339721886
 30
0.0
 11
1661.710012384285
 21
76.18449339721886
 31
0.0
  0
LINE
  5
163A
330
1F
100
AcDbEntity
  8
0
 62
     3
100
AcDbLine
 10
1720.710012384285
 20
97.18449339721885
 30
0.0
 11
1720.710012384285
 21
99.18449339721886
 31
0.0
  0
LINE
  5
163B
330
1F
100
AcDbEntity
  8
0
 62
     3
100
AcDbLine
 10
1733.710012384285
 20
76.18449339721886
 30
0.0
 11
1733.710012384285
 21
99.18449339721886
 31
0.0
  0
LINE
  5
163C
330
1F
100
AcDbEntity
  8
0
 62
     3
100
AcDbLine
 10
1759.710012384285
 20
99.18449339721886
 30
0.0
 11
1648.464577744285
 21
99.18449339721886
 31
0.0
  0
LINE
  5
163D
330
1F
100
AcDbEntity
  8
0
 62
     3
100
AcDbLine
 10
1759.710012384285
 20
90.18449339721886
 30
0.0
 11
1648.464577744285
 21
90.18449339721886
 31
0.0
  0
LINE
  5
163E
330
1F
100
AcDbEntity
  8
0
 62
     3
100
AcDbLine
 10
1759.710012384285
 20
76.18449339721886
 30
0.0
 11
1648.464577744285
 21
76.18449339721886
 31
0.0
  0
LINE
  5
163F
330
1F
100
AcDbEntity
  8
0
 62
     3
100
AcDbLine
 10
1759.710012384285
 20
69.18449339721886
 30
0.0
 11
1648.406569884285
 21
69.18449339721886
 31
0.0
  0
LINE
  5
1640
330
1F
100
AcDbEntity
  8
0
 62
     3
100
AcDbLine
 10
1746.710012384285
 20
76.18449339721886
 30
0.0
 11
1746.710012384285
 21
99.18449339721886
 31
0.0
  0
LINE
  5
1641
330
1F
100
AcDbEntity
  8
0
 62
     3
100
AcDbLine
 10
1648.464577744285
 20
99.18449339721886
 30
0.0
 11
1648.464577744285
 21
59.18449339721886
 31
0.0
  0
LINE
  5
1642
330
1F
100
AcDbEntity
  8
0
 62
     3
100
AcDbLine
 10
1707.710012384285
 20
83.18449339721885
 30
0.0
 11
1648.464577744285
 21
83.18449339721883
 31
0.0
  0
LINE
  5
1643
330
1F
100
AcDbEntity
  8
0
 62
     3
100
AcDbLine
 10
1690.988337314285
 20
64.01735465721884
 30
0.0
 11
1707.710012384285
 21
64.01735465721884
 31
0.0
  0
TEXT
  5
1644
330
1F
100
AcDbEntity
  8
0
 62
     3
100
AcDbText
 10
1691.874337797601
 20
78.2575902505842
 30
0.0
 40
2.5
  1
-
  7
高2.5
100
AcDbText
  0
TEXT
  5
1645
330
1F
100
AcDbEntity
  8
0
 62
     3
100
AcDbText
 10
1662.906381079537
 20
78.48230780220276
 30
0.0
 40
2.5
  1
ABS
  7
高2.5
100
AcDbText
  0
TEXT
  5
1646
330
1F
100
AcDbEntity
  8
0
 62
     3
100
AcDbText
 10
1663.171288834235
 20
91.49674292097676
 30
0.0
 40
4.5
  1
携帯型レーザー距離計600
 41
0.6
  7
高4.5
100
AcDbText
1001
ACAD
1000
ACAD_MTEXT_DEFINED_HEIGHT_BEGIN
1070
    46
1040
0.0
1000
ACAD_MTEXT_DEFINED_HEIGHT_END
  0
TEXT
  5
1647
330
1F
100
AcDbEntity
  8
0
 62
     3
100
AcDbText
 10
1749.775601477759
 20
95.69818549592243
 30
0.0
 40
2.0
  1
DEF
  7
高2
100
AcDbText
  0
TEXT
  5
1648
330
1F
100
AcDbEntity
  8
0
 62
     3
100
AcDbText
 10
1735.836503124051
 20
95.69818549592236
 30
0.0
 40
2.0
  1
DESN
  7
高2
100
AcDbText
  0
TEXT
  5
1649
330
1F
100
AcDbEntity
  8
0
 62
     3
100
AcDbText
 10
1709.582136184051
 20
95.69818549592243
 30
0.0
 40
2.0
  1
APPD
  7
高2
100
AcDbText
  0
TEXT
  5
164A
330
1F
100
AcDbEntity
  8
0
 62
     3
100
AcDbText
 10
1722.694872284285
 20
95.69818549592243
 30
0.0
 40
2.0
  1
CHCK
  7
高2
100
AcDbText
  0
TEXT
  5
164B
330
1F
100
AcDbEntity
  8
0
 62
     3
100
AcDbText
 10
1681.637178023438
 20
73.35289222044956
 30
0.0
 40
2.0
  1
SCALE
 41
0.8
  7
高2
100
AcDbText
  0
TEXT
  5
164C
330
1F
100
AcDbEntity
  8
0
 62
     3
100
AcDbText
 10
1650.149156447331
 20
73.35289222044959
 30
0.0
 40
2.0
  1
3AD　ANGLE
 41
1.5
  7
高2
100
AcDbText
  0
TEXT
  5
164D
330
1F
100
AcDbEntity
  8
0
 62
     3
100
AcDbText
 10
1680.906583714287
 20
80.10443028940668
 30
0.0
 40
2.0
  1
REMARKS
 41
0.7
  7
高2
100
AcDbText
  0
TEXT
  5
164E
330
1F
100
AcDbEntity
  8
0
 62
     3
100
AcDbText
 10
1649.932248094285
 20
80.18449339721886
 30
0.0
 40
2.0
  1
MATERIAL
 41
0.7
  7
高2
100
AcDbText
  0
TEXT
  5
164F
330
1F
100
AcDbEntity
  8
0
 62
     3
100
AcDbText
 10
1650.508735297039
 20
87.18449339721884
 30
0.0
 40
2.0
  1
MODEL
  7
高2
100
AcDbText
  0
TEXT
  5
1650
330
1F
100
AcDbEntity
  8
0
 62
     3
100
AcDbText
 10
1650.145656178371
 20
95.89151474781786
 30
0.0
 40
2.0
  1
CONPONENTS
 41
0.5
  7
高2
100
AcDbText
  0
TEXT
  5
1651
330
1F
100
AcDbEntity
  8
0
 62
     3
100
AcDbText
 10
1663.740337315764
 20
84.27197452503079
 30
0.0
 40
4.5
  1
N600A
  7
高4.5
100
AcDbText
  0
TEXT
  5
1652
330
1F
100
AcDbEntity
  8
0
 62
     3
100
AcDbText
 10
1710.775058114904
 20
61.22295479258443
 30
0.0
 40
6.299999999999998
  1
N600A
  7
高6.3
100
AcDbText
1001
ACAD
1000
ACAD_MTEXT_DEFINED_HEIGHT_BEGIN
1070
    46
1040
0.0
1000
ACAD_MTEXT_DEFINED_HEIGHT_END
  0
TEXT
  5
1653
330
1F
100
AcDbEntity
  8
0
 62
     3
100
AcDbText
 10
1724.273522134614
 20
70.28538255545186
 30
0.0
 40
3.2
  1
2016.09.16
  7
高3.2
100
AcDbText
1001
ACAD
1000
ACAD_MTEXT_DEFINED_HEIGHT_BEGIN
1070
    46
1040
0.0
1000
ACAD_MTEXT_DEFINED_HEIGHT_END
  0
TEXT
  5
1654
330
1F
100
AcDbEntity
  8
0
 62
     3
100
AcDbText
 10
1693.284893454154
 20
70.28541039978673
 30
0.0
 40
3.2
  1
FREE
  7
高3.2
100
AcDbText
  0
TEXT
  5
1655
330
1F
100
AcDbEntity
  8
0
 62
     3
100
AcDbText
 10
1691.574939254285
 20
60.00137157035482
 30
0.0
 40
3.2
  1
ZK-A3X
 41
0.8
  7
高3.2
100
AcDbText
  0
TEXT
  5
1656
330
1F
100
AcDbEntity
  8
0
 62
     3
100
AcDbText
 10
1649.295278784285
 20
65.70911381940668
 30
0.0
 40
2.0
  1
NICHIDO IND.CO.LTD
 41
1.3
  7
高2
100
AcDbText
  0
TEXT
  5
1657
330
1F
100
AcDbEntity
  8
0
 62
     3
100
AcDbText
 10
1650.476802049242
 20
91.32502160510378
 30
0.0
 40
3.2
  1
品 名
  7
高3.2
100
AcDbText
1001
ACAD
1000
ACAD_MTEXT_DEFINED_HEIGHT_BEGIN
1070
    46
1040
0.0
1000
ACAD_MTEXT_DEFINED_HEIGHT_END
  0
TEXT
  5
1658
330
1F
100
AcDbEntity
  8
0
 62
     3
100
AcDbText
 10
1650.476802049242
 20
83.68449339721886
 30
0.0
 40
3.2
  1
型 式
  7
高3.2
100
AcDbText
1001
ACAD
1000
ACAD_MTEXT_DEFINED_HEIGHT_BEGIN
1070
    46
1040
3.064735913775952
1000
ACAD_MTEXT_DEFINED_HEIGHT_END
  0
TEXT
  5
1659
330
1F
100
AcDbEntity
  8
0
 62
     3
100
AcDbText
 10
1650.476802049242
 20
76.68449339721886
 30
0.0
 40
3.2
  1
材 質
  7
高3.2
100
AcDbText
1001
ACAD
1000
ACAD_MTEXT_DEFINED_HEIGHT_BEGIN
1070
    46
1040
0.0
1000
ACAD_MTEXT_DEFINED_HEIGHT_END
  0
TEXT
  5
165A
330
1F
100
AcDbEntity
  8
0
 62
     3
100
AcDbText
 10
1650.171767099243
 20
69.6519333894651
 30
0.0
 40
3.2
  1
第 三 角 法
  7
高3.2
100
AcDbText
1001
ACAD
1000
ACAD_MTEXT_DEFINED_HEIGHT_BEGIN
1070
    46
1040
0.0
1000
ACAD_MTEXT_DEFINED_HEIGHT_END
  0
TEXT
  5
165B
330
1F
100
AcDbEntity
  8
0
 62
     3
100
AcDbText
 10
1648.578299706771
 20
60.32502160510379
 30
0.0
 40
3.2
  1
日動工業株式会社
 41
1.199999999999999
  7
高3.2
100
AcDbText
1001
ACAD
1000
ACAD_MTEXT_DEFINED_HEIGHT_BEGIN
1070
    46
1040
0.0
1000
ACAD_MTEXT_DEFINED_HEIGHT_END
  0
TEXT
  5
165C
330
1F
100
AcDbEntity
  8
0
 62
     3
100
AcDbText
 10
1682.21392390625
 20
76.56907193038644
 30
0.0
 40
3.2
  1
備考
  7
高3.2
100
AcDbText
1001
ACAD
1000
ACAD_MTEXT_DEFINED_HEIGHT_BEGIN
1070
    46
1040
0.0
1000
ACAD_MTEXT_DEFINED_HEIGHT_END
  0
TEXT
  5
165D
330
1F
100
AcDbEntity
  8
0
 62
     3
100
AcDbText
 10
1691.862981353285
 20
65.33072342278915
 30
0.0
 40
2.5
  1
出図コード
  7
高2.5
100
AcDbText
1001
ACAD
1000
ACAD_MTEXT_DEFINED_HEIGHT_BEGIN
1070
    46
1040
0.0
1000
ACAD_MTEXT_DEFINED_HEIGHT_END
  0
TEXT
  5
165E
330
1F
100
AcDbEntity
  8
0
 62
     3
100
AcDbText
 10
1682.055157788162
 20
69.63772830763179
 30
0.0
 40
3.2
  1
尺度
  7
高3.2
100
AcDbText
1001
ACAD
1000
ACAD_MTEXT_DEFINED_HEIGHT_BEGIN
1070
    46
1040
0.0
1000
ACAD_MTEXT_DEFINED_HEIGHT_END
  0
TEXT
  5
165F
330
1F
100
AcDbEntity
  8
0
 62
     3
100
AcDbText
 10
1709.201419269941
 20
70.76920675574926
 30
0.0
 40
3.2
  1
作成日
  7
高3.2
100
AcDbText
1001
ACAD
1000
ACAD_MTEXT_DEFINED_HEIGHT_BEGIN
1070
    46
1040
0.0
1000
ACAD_MTEXT_DEFINED_HEIGHT_END
  0
TEXT
  5
1660
330
1F
100
AcDbEntity
  8
0
 62
     3
100
AcDbText
 10
1709.095893276805
 20
91.32502160510378
 30
0.0
 40
3.2
  1
承 認
  7
高3.2
100
AcDbText
1001
ACAD
1000
ACAD_MTEXT_DEFINED_HEIGHT_BEGIN
1070
    46
1040
0.0
1000
ACAD_MTEXT_DEFINED_HEIGHT_END
  0
TEXT
  5
1661
330
1F
100
AcDbEntity
  8
0
 62
     3
100
AcDbText
 10
1722.095893276805
 20
91.32502160510378
 30
0.0
 40
3.2
  1
検 図
  7
高3.2
100
AcDbText
1001
ACAD
1000
ACAD_MTEXT_DEFINED_HEIGHT_BEGIN
1070
    46
1040
0.0
1000
ACAD_MTEXT_DEFINED_HEIGHT_END
  0
TEXT
  5
1662
330
1F
100
AcDbEntity
  8
0
 62
     3
100
AcDbText
 10
1735.095893276805
 20
91.32502160510378
 30
0.0
 40
3.2
  1
設 計
  7
高3.2
100
AcDbText
1001
ACAD
1000
ACAD_MTEXT_DEFINED_HEIGHT_BEGIN
1070
    46
1040
0.0
1000
ACAD_MTEXT_DEFINED_HEIGHT_END
  0
TEXT
  5
1663
330
1F
100
AcDbEntity
  8
0
 62
     3
100
AcDbText
 10
1748.396529796805
 20
91.32502160510378
 30
0.0
 40
3.2
  1
製 図
  7
高3.2
100
AcDbText
1001
ACAD
1000
ACAD_MTEXT_DEFINED_HEIGHT_BEGIN
1070
    46
1040
0.0
1000
ACAD_MTEXT_DEFINED_HEIGHT_END
  0
TEXT
  5
1664
330
1F
100
AcDbEntity
  8
0
 62
     3
100
AcDbText
 10
1747.210012384285
 20
323.6844933972188
 30
0.0
 40
3.2
  1
担　当
  7
高3.2
100
AcDbText
  0
TEXT
  5
1665
330
1F
100
AcDbEntity
  8
0
 62
     3
100
AcDbText
 10
1703.210012384285
 20
323.6844933972188
 30
0.0
 40
3.2
  1
変更・追記内容
  7
高3.2
100
AcDbText
  0
TEXT
  5
1666
330
1F
100
AcDbEntity
  8
0
 62
     3
100
AcDbText
 10
1678.323527384624
 20
319.0139548873105
 30
0.0
 40
2.0
  1
1
  7
高2
100
AcDbText
  0
TEXT
  5
1667
330
1F
100
AcDbEntity
  8
0
 62
     3
100
AcDbText
 10
1678.015015907867
 20
313.8441381750377
 30
0.0
 40
2.0
  1
2
  7
高2
100
AcDbText
  0
TEXT
  5
1668
330
1F
100
AcDbEntity
  8
0
 62
     3
100
AcDbText
 10
1685.210012384285
 20
323.6844933972188
 30
0.0
 40
3.2
  1
日　付
  7
高3.2
100
AcDbText
  0
TEXT
  5
1669
330
1F
100
AcDbEntity
  8
0
 62
     3
100
AcDbText
 10
1685.210012384285
 20
328.6844933972188
 30
0.0
 40
3.2
  1
図　　　　面　　　　略　　　　歴
  7
高3.2
100
AcDbText
  0
TEXT
  5
166A
330
1F
100
AcDbEntity
  8
0
 62
     3
100
AcDbText
 10
1675.210012384285
 20
323.6844933972188
 30
0.0
 40
3.2
  1
記号
  7
高3.2
100
AcDbText
  0
LINE
  5
166B
330
1F
100
AcDbEntity
  8
0
 62
     7
100
AcDbLine
 10
1678.710012384285
 20
316.9753893972189
 30
0.0
 11
1676.810012384285
 21
313.6844933972188
 31
0.0
  0
LINE
  5
166C
330
1F
100
AcDbEntity
  8
0
 62
     7
100
AcDbLine
 10
1678.710012384285
 20
316.9753893972189
 30
0.0
 11
1680.610012384285
 21
313.6844933972188
 31
0.0
  0
LINE
  5
166D
330
1F
100
AcDbEntity
  8
0
 62
     7
100
AcDbLine
 10
1676.810012384285
 20
313.6844933972188
 30
0.0
 11
1680.610012384285
 21
313.6844933972188
 31
0.0
  0
LINE
  5
166E
330
1F
100
AcDbEntity
  8
0
 62
     7
100
AcDbLine
 10
1678.710012384285
 20
321.975390397219
 30
0.0
 11
1676.810012384285
 21
318.6844933972188
 31
0.0
  0
LINE
  5
166F
330
1F
100
AcDbEntity
  8
0
 62
     7
100
AcDbLine
 10
1678.710012384285
 20
321.975390397219
 30
0.0
 11
1680.610012384285
 21
318.6844933972188
 31
0.0
  0
LINE
  5
1670
330
1F
100
AcDbEntity
  8
0
 62
     7
100
AcDbLine
 10
1676.810012384285
 20
318.6844933972188
 30
0.0
 11
1680.610012384285
 21
318.6844933972188
 31
0.0
  0
LINE
  5
1671
330
1F
100
AcDbEntity
  8
0
 62
     3
100
AcDbLine
 10
1673.710012384285
 20
328.1844933972188
 30
0.0
 11
1759.710012384285
 21
328.1844933972188
 31
0.0
  0
LINE
  5
1672
330
1F
100
AcDbEntity
  8
0
 62
     3
100
AcDbLine
 10
1673.710012384285
 20
323.1844933972188
 30
0.0
 11
1759.710012384285
 21
323.1844933972188
 31
0.0
  0
LINE
  5
1673
330
1F
100
AcDbEntity
  8
0
 62
     7
100
AcDbLine
 10
1673.710012384285
 20
318.1844933972188
 30
0.0
 11
1759.710012384285
 21
318.1844933972188
 31
0.0
  0
LINE
  5
1674
330
1F
100
AcDbEntity
  8
0
 62
     3
100
AcDbLine
 10
1673.710012384285
 20
313.1844933972188
 30
0.0
 11
1759.710012384285
 21
313.1844933972188
 31
0.0
  0
LINE
  5
1675
330
1F
100
AcDbEntity
  8
0
 62
     7
100
AcDbLine
 10
1745.710012384285
 20
313.1844933972188
 30
0.0
 11
1745.710012384285
 21
328.1844933972188
 31
0.0
  0
LINE
  5
1676
330
1F
100
AcDbEntity
  8
0
 62
     7
100
AcDbLine
 10
1701.710012384285
 20
313.1844933972188
 30
0.0
 11
1701.710012384285
 21
328.1844933972188
 31
0.0
  0
LINE
  5
1677
330
1F
100
AcDbEntity
  8
0
 62
     7
100
AcDbLine
 10
1683.710012384285
 20
313.1844933972188
 30
0.0
 11
1683.710012384285
 21
328.1844933972188
 31
0.0
  0
LINE
  5
1678
330
1F
100
AcDbEntity
  8
0
 62
     3
100
AcDbLine
 10
1673.710012384285
 20
313.1844933972188
 30
0.0
 11
1673.710012384285
 21
333.1844933972188
 31
0.0
  0
LINE
  5
1679
330
1F
100
AcDbEntity
  8
0
 62
     3
100
AcDbLine
 10
1759.710012384285
 20
105.1844933972188
 30
0.0
 11
1707.710012384285
 21
105.1844933972188
 31
0.0
  0
LINE
  5
167A
330
1F
100
AcDbEntity
  8
0
 62
     3
100
AcDbLine
 10
1733.710012384285
 20
99.18449339721886
 30
0.0
 11
1733.710012384285
 21
105.1844933972188
 31
0.0
  0
LINE
  5
167B
330
1F
100
AcDbEntity
  8
0
 62
     3
100
AcDbLine
 10
1707.710012384285
 20
99.18449339721886
 30
0.0
 11
1707.710012384285
 21
105.1844933972188
 31
0.0
  0
TEXT
  5
167C
330
1F
100
AcDbEntity
  8
0
 62
     3
100
AcDbText
 10
1713.158510769757
 20
99.7482175664528
 30
0.0
 40
4.5
  1
コード
  7
高4.5
100
AcDbText
  0
TEXT
  5
167D
330
1F
100
AcDbEntity
  8
0
 62
     3
100
AcDbText
 10
1738.507789719678
 20
99.7482175664528
 30
0.0
 40
4.5
  1
10023
  7
高4.5
100
AcDbText
  0
TEXT
  5
167E
330
1F
100
AcDbEntity
  8
0
100
AcDbText
 10
1752.6168058071
 20
80.92321054630723
 30
0.0
 40
3.2
  1
I
  7
高3.2
100
AcDbText
  0
TEXT
  5
19A5
330
1F
100
AcDbEntity
  8
0
 62
     4
100
AcDbText
 10
1591.477973370787
 20
261.3587135918064
 30
0.0
 40
3.0
  1
視度調整ダイヤル
100
AcDbText
1001
ACAD
1000
MTEXTBEGIN
1070
    73
1070
     1
1070
    44
1040
1.0
1070
    74
1070
     0
1000
MTEXTEND
  0
TEXT
  5
19AA
330
1F
100
AcDbEntity
  8
0
 62
     4
100
AcDbText
 10
1647.164560298846
 20
254.1675266479731
 30
0.0
 40
3.0
  1
接眼レンズ
100
AcDbText
1001
ACAD
1000
MTEXTBEGIN
1070
    73
1070
     1
1070
    44
1040
1.0
1070
    74
1070
     0
1000
MTEXTEND
  0
TEXT
  5
19AD
330
1F
100
AcDbEntity
  8
0
 62
     4
100
AcDbText
 10
1569.012192188476
 20
167.8349156301735
 30
0.0
 40
3.0
  1
電池カバー
100
AcDbText
1001
ACAD
1000
MTEXTBEGIN
1070
    73
1070
     1
1070
    44
1040
1.0
1070
    74
1070
     0
1000
MTEXTEND
  0
TEXT
  5
19B0
330
1F
100
AcDbEntity
  8
0
 62
     4
100
AcDbText
 10
1440.192477502044
 20
166.2605772631533
 30
0.0
 40
3.0
  1
レーザー光
100
AcDbText
1001
ACAD
1000
MTEXTBEGIN
1070
    73
1070
     1
1070
    44
1040
1.0
1070
    74
1070
     0
1000
MTEXTEND
  0
TEXT
  5
19B1
330
1F
100
AcDbEntity
  8
0
 62
     4
100
AcDbText
 10
1440.792477502044
 20
161.2605772631533
 30
0.0
 40
3.0
  1
受光レンズ
100
AcDbText
1001
ACAD
1000
MTEXTBEGIN
1070
    73
1070
     1
1070
    44
1040
1.0
1070
    74
1070
     0
1000
MTEXTEND
  0
TEXT
  5
19B4
330
1F
100
AcDbEntity
  8
0
 62
     4
100
AcDbText
 10
1436.414372480241
 20
271.8035812394424
 30
0.0
 40
3.0
  1
レーザー光照射/対物レンズ
100
AcDbText
1001
ACAD
1000
MTEXTBEGIN
1070
    73
1070
     1
1070
    44
1040
1.0
1070
    74
1070
     0
1000
MTEXTEND
  0
TEXT
  5
19B7
330
1F
100
AcDbEntity
  8
0
 62
     4
100
AcDbText
 10
1526.645025532966
 20
271.7157941427274
 30
0.0
 40
3.0
  1
モード切替ボタン
100
AcDbText
1001
ACAD
1000
MTEXTBEGIN
1070
    73
1070
     1
1070
    44
1040
1.0
1070
    74
1070
     0
1000
MTEXTEND
  0
TEXT
  5
19BA
330
1F
100
AcDbEntity
  8
0
 62
     4
100
AcDbText
 10
1509.498712436513
 20
168.6428880497779
 30
0.0
 40
3.0
  1
1/4インチネジ
100
AcDbText
1001
ACAD
1000
MTEXTBEGIN
1070
    73
1070
     1
1070
    44
1040
1.0
1070
    74
1070
     0
1000
MTEXTEND
  0
TEXT
  5
19BB
330
1F
100
AcDbEntity
  8
0
 62
     4
100
AcDbText
 10
1509.498712436513
 20
163.6428880497779
 30
0.0
 40
3.0
  1
(カメラ三脚用)
100
AcDbText
1001
ACAD
1000
MTEXTBEGIN
1070
    73
1070
     1
1070
    44
1040
1.0
1070
    74
1070
     0
1000
MTEXTEND
  0
TEXT
  5
19BE
330
1F
100
AcDbEntity
  8
0
 62
     4
100
AcDbText
 10
1553.149706313947
 20
267.1822243177345
 30
0.0
 40
3.0
  1
電源ボタン
100
AcDbText
1001
ACAD
1000
MTEXTBEGIN
1070
    73
1070
     1
1070
    44
1040
1.0
1070
    74
1070
     0
1000
MTEXTEND
  0
LINE
  5
19C1
330
1F
100
AcDbEntity
  8
0
100
AcDbLine
 10
1392.282897246494
 20
219.5019957700784
 30
0.0
 11
1392.282897246494
 21
155.0104647553643
 31
0.0
  0
LINE
  5
19C2
330
1F
100
AcDbEntity
  8
0
100
AcDbLine
 10
1435.882897246495
 20
219.5019957700747
 30
0.0
 11
1435.882897246495
 21
155.0104647553643
 31
0.0
  0
LINE
  5
19C3
330
1F
100
AcDbEntity
  8
0
100
AcDbLine
 10
1394.782897246494
 20
156.2604647553643
 30
0.0
 11
1433.382897246495
 21
156.2604647553643
 31
0.0
  0
LINE
  5
19C7
330
1F
100
AcDbEntity
  8
0
100
AcDbLine
 10
1483.12120756805
 20
256.3898046589461
 30
0.0
 11
1452.921211325601
 21
256.3898046589461
 31
0.0
  0
LINE
  5
19C8
330
1F
100
AcDbEntity
  8
0
100
AcDbLine
 10
1565.281142295244
 20
178.389804658946
 30
0.0
 11
1452.921211325601
 21
178.389804658946
 31
0.0
  0
LINE
  5
19C9
330
1F
100
AcDbEntity
  8
0
100
AcDbLine
 10
1454.171211325601
 20
253.8898046589461
 30
0.0
 11
1454.171211325601
 21
180.889804658946
 31
0.0
  0
LINE
  5
19CD
330
1F
100
AcDbEntity
  8
0
100
AcDbLine
 10
1468.285344544122
 20
185.1398046589461
 30
0.0
 11
1468.285344544122
 21
154.6588776380164
 31
0.0
  0
LINE
  5
19CE
330
1F
100
AcDbEntity
  8
0
100
AcDbLine
 10
1589.785344544122
 20
219.8898046589456
 30
0.0
 11
1589.785344544122
 21
154.6588776380164
 31
0.0
  0
LINE
  5
19CF
330
1F
100
AcDbEntity
  8
0
100
AcDbLine
 10
1470.785344544122
 20
155.9088776380164
 30
0.0
 11
1587.285344544122
 21
155.9088776380164
 31
0.0
  0
LINE
  5
19D3
330
1F
100
AcDbEntity
  8
0
 62
     3
100
AcDbLine
 10
1559.968638424285
 20
333.7251219372188
 30
0.0
 11
1559.942027674285
 21
333.8955044572188
 31
0.0
  0
LINE
  5
19D4
330
1F
100
AcDbEntity
  8
0
 62
     3
100
AcDbLine
 10
1559.942027674285
 20
333.8955044572188
 30
0.0
 11
1559.910068844285
 21
334.0586541472188
 31
0.0
  0
LINE
  5
19D5
330
1F
100
AcDbEntity
  8
0
 62
     3
100
AcDbLine
 10
1559.910068844285
 20
334.0586541472188
 30
0.0
 11
1559.873008944285
 21
334.2133099472189
 31
0.0
  0
LINE
  5
19D6
330
1F
100
AcDbEntity
  8
0
 62
     3
100
AcDbLine
 10
1559.873008944285
 20
334.2133099472189
 30
0.0
 11
1559.831134444285
 21
334.3582764472188
 31
0.0
  0
LINE
  5
19D7
330
1F
100
AcDbEntity
  8
0
 62
     3
100
AcDbLine
 10
1559.831134444285
 20
334.3582764472188
 30
0.0
 11
1559.784769014285
 21
334.4924331372189
 31
0.0
  0
LINE
  5
19D8
330
1F
100
AcDbEntity
  8
0
 62
     3
100
AcDbLine
 10
1559.784769014285
 20
334.4924331372189
 30
0.0
 11
1559.734271024285
 21
334.6147430372188
 31
0.0
  0
LINE
  5
19D9
330
1F
100
AcDbEntity
  8
0
 62
     3
100
AcDbLine
 10
1559.734271024285
 20
334.6147430372188
 30
0.0
 11
1559.680030804285
 21
334.7242607772188
 31
0.0
  0
LINE
  5
19DA
330
1F
100
AcDbEntity
  8
0
 62
     3
100
AcDbLine
 10
1559.680030804285
 20
334.7242607772188
 30
0.0
 11
1559.622467604285
 21
334.8201398272188
 31
0.0
  0
LINE
  5
19DB
330
1F
100
AcDbEntity
  8
0
 62
     3
100
AcDbLine
 10
1559.622467604285
 20
334.8201398272188
 30
0.0
 11
1559.562026354285
 21
334.9016390972189
 31
0.0
  0
LINE
  5
19DC
330
1F
100
AcDbEntity
  8
0
 62
     3
100
AcDbLine
 10
1559.562026354285
 20
334.9016390972189
 30
0.0
 11
1559.499174234285
 21
334.9681286372188
 31
0.0
  0
LINE
  5
19DD
330
1F
100
AcDbEntity
  8
0
 62
     3
100
AcDbLine
 10
1559.499174234285
 20
334.9681286372188
 30
0.0
 11
1559.434397054285
 21
335.0190945172188
 31
0.0
  0
LINE
  5
19DE
330
1F
100
AcDbEntity
  8
0
 62
     3
100
AcDbLine
 10
1559.434397054285
 20
335.0190945172188
 30
0.0
 11
1559.368195524285
 21
335.0541427972189
 31
0.0
  0
LINE
  5
19DF
330
1F
100
AcDbEntity
  8
0
 62
     3
100
AcDbLine
 10
1559.368195524285
 20
335.0541427972189
 30
0.0
 11
1559.301081334285
 21
335.0730025672188
 31
0.0
  0
LINE
  5
19E0
330
1F
100
AcDbEntity
  8
0
 62
     3
100
AcDbLine
 10
1559.301081334285
 20
335.0730025672188
 30
0.0
 11
1559.233573244285
 21
335.0755280672188
 31
0.0
  0
LINE
  5
19E1
330
1F
100
AcDbEntity
  8
0
 62
     3
100
AcDbLine
 10
1559.233573244285
 20
335.0755280672188
 30
0.0
 11
1559.166193054285
 21
335.0616997572188
 31
0.0
  0
LINE
  5
19E2
330
1F
100
AcDbEntity
  8
0
 62
     3
100
AcDbLine
 10
1559.166193054285
 20
335.0616997572188
 30
0.0
 11
1559.099461584285
 21
335.0316245272188
 31
0.0
  0
LINE
  5
19E3
330
1F
100
AcDbEntity
  8
0
 62
     3
100
AcDbLine
 10
1559.099461584285
 20
335.0316245272188
 30
0.0
 11
1559.033894644285
 21
334.9855348572187
 31
0.0
  0
LINE
  5
19E4
330
1F
100
AcDbEntity
  8
0
 62
     3
100
AcDbLine
 10
1559.033894644285
 20
334.9855348572187
 30
0.0
 11
1558.969999004285
 21
334.9237869772188
 31
0.0
  0
LINE
  5
19E5
330
1F
100
AcDbEntity
  8
0
 62
     3
100
AcDbLine
 10
1558.969999004285
 20
334.9237869772188
 30
0.0
 11
1558.908268574285
 21
334.8468581872187
 31
0.0
  0
LINE
  5
19E6
330
1F
100
AcDbEntity
  8
0
 62
     3
100
AcDbLine
 10
1558.908268574285
 20
334.8468581872187
 30
0.0
 11
1558.849180484285
 21
334.7553430872189
 31
0.0
  0
LINE
  5
19E7
330
1F
100
AcDbEntity
  8
0
 62
     3
100
AcDbLine
 10
1558.849180484285
 20
334.7553430872189
 30
0.0
 11
1558.793191454285
 21
334.6499490572189
 31
0.0
  0
LINE
  5
19E8
330
1F
100
AcDbEntity
  8
0
 62
     3
100
AcDbLine
 10
1558.793191454285
 20
334.6499490572189
 30
0.0
 11
1558.740734254285
 21
334.5314907272189
 31
0.0
  0
LINE
  5
19E9
330
1F
100
AcDbEntity
  8
0
 62
     3
100
AcDbLine
 10
1558.740734254285
 20
334.5314907272189
 30
0.0
 11
1558.692214354285
 21
334.4008837172188
 31
0.0
  0
LINE
  5
19EA
330
1F
100
AcDbEntity
  8
0
 62
     3
100
AcDbLine
 10
1558.692214354285
 20
334.4008837172188
 30
0.0
 11
1558.648006774285
 21
334.2591375672189
 31
0.0
  0
LINE
  5
19EB
330
1F
100
AcDbEntity
  8
0
 62
     3
100
AcDbLine
 10
1558.648006774285
 20
334.2591375672189
 30
0.0
 11
1558.608453234285
 21
334.1073478972187
 31
0.0
  0
LINE
  5
19EC
330
1F
100
AcDbEntity
  8
0
 62
     3
100
AcDbLine
 10
1558.608453234285
 20
334.1073478972187
 30
0.0
 11
1558.573859454285
 21
333.9466879572189
 31
0.0
  0
LINE
  5
19ED
330
1F
100
AcDbEntity
  8
0
 62
     3
100
AcDbLine
 10
1558.573859454285
 20
333.9466879572189
 30
0.0
 11
1558.544492824285
 21
333.7783995672187
 31
0.0
  0
LINE
  5
19EE
330
1F
100
AcDbEntity
  8
0
 62
     3
100
AcDbLine
 10
1558.544492824285
 20
333.7783995672187
 30
0.0
 11
1558.520580334285
 21
333.6037835072188
 31
0.0
  0
LINE
  5
19EF
330
1F
100
AcDbEntity
  8
0
 62
     3
100
AcDbLine
 10
1558.520580334285
 20
333.6037835072188
 30
0.0
 11
1558.502306824285
 21
333.4241894772189
 31
0.0
  0
LINE
  5
19F0
330
1F
100
AcDbEntity
  8
0
 62
     3
100
AcDbLine
 10
1558.502306824285
 20
333.4241894772189
 30
0.0
 11
1558.489813524285
 21
333.2410056372188
 31
0.0
  0
LINE
  5
19F1
330
1F
100
AcDbEntity
  8
0
 62
     3
100
AcDbLine
 10
1558.489813524285
 20
333.2410056372188
 30
0.0
 11
1558.483197014285
 21
333.0556479172188
 31
0.0
  0
LINE
  5
19F2
330
1F
100
AcDbEntity
  8
0
 62
     3
100
AcDbLine
 10
1558.483197014285
 20
333.0556479172188
 30
0.0
 11
1558.482508424285
 21
332.8695490172188
 31
0.0
  0
LINE
  5
19F3
330
1F
100
AcDbEntity
  8
0
 62
     3
100
AcDbLine
 10
1558.482508424285
 20
332.8695490172188
 30
0.0
 11
1558.487753084285
 21
332.6841474072188
 31
0.0
  0
LINE
  5
19F4
330
1F
100
AcDbEntity
  8
0
 62
     3
100
AcDbLine
 10
1558.487753084285
 20
332.6841474072188
 30
0.0
 11
1558.498890454285
 21
332.5008761372189
 31
0.0
  0
LINE
  5
19F5
330
1F
100
AcDbEntity
  8
0
 62
     3
100
AcDbLine
 10
1558.498890454285
 20
332.5008761372189
 30
0.0
 11
1558.515834454285
 21
332.3211517972189
 31
0.0
  0
LINE
  5
19F6
330
1F
100
AcDbEntity
  8
0
 62
     3
100
AcDbLine
 10
1558.515834454285
 20
332.3211517972189
 30
0.0
 11
1558.538454104285
 21
332.1463635672188
 31
0.0
  0
LINE
  5
19F7
330
1F
100
AcDbEntity
  8
0
 62
     3
100
AcDbLine
 10
1558.538454104285
 20
332.1463635672188
 30
0.0
 11
1558.566574574285
 21
331.9778624672189
 31
0.0
  0
LINE
  5
19F8
330
1F
100
AcDbEntity
  8
0
 62
     3
100
AcDbLine
 10
1558.566574574285
 20
331.9778624672189
 30
0.0
 11
1558.599978504285
 21
331.8169509272189
 31
0.0
  0
LINE
  5
19F9
330
1F
100
AcDbEntity
  8
0
 62
     3
100
AcDbLine
 10
1558.599978504285
 20
331.8169509272189
 30
0.0
 11
1558.638407704285
 21
331.6648727072188
 31
0.0
  0
LINE
  5
19FA
330
1F
100
AcDbEntity
  8
0
 62
     3
100
AcDbLine
 10
1558.638407704285
 20
331.6648727072188
 30
0.0
 11
1558.681565124285
 21
331.5228032972188
 31
0.0
  0
LINE
  5
19FB
330
1F
100
AcDbEntity
  8
0
 62
     3
100
AcDbLine
 10
1558.681565124285
 20
331.5228032972188
 30
0.0
 11
1558.729117194285
 21
331.3918408172189
 31
0.0
  0
LINE
  5
19FC
330
1F
100
AcDbEntity
  8
0
 62
     3
100
AcDbLine
 10
1558.729117194285
 20
331.3918408172189
 30
0.0
 11
1558.780696344285
 21
331.2729975372189
 31
0.0
  0
LINE
  5
19FD
330
1F
100
AcDbEntity
  8
0
 62
     3
100
AcDbLine
 10
1558.780696344285
 20
331.2729975372189
 30
0.0
 11
1558.835903914285
 21
331.1671920672188
 31
0.0
  0
LINE
  5
19FE
330
1F
100
AcDbEntity
  8
0
 62
     3
100
AcDbLine
 10
1558.835903914285
 20
331.1671920672188
 30
0.0
 11
1558.894313164285
 21
331.0752422072188
 31
0.0
  0
LINE
  5
19FF
330
1F
100
AcDbEntity
  8
0
 62
     3
100
AcDbLine
 10
1558.894313164285
 20
331.0752422072188
 30
0.0
 11
1558.955472624285
 21
330.9978587072188
 31
0.0
  0
LINE
  5
1A00
330
1F
100
AcDbEntity
  8
0
 62
     3
100
AcDbLine
 10
1558.955472624285
 20
330.9978587072188
 30
0.0
 11
1559.018909564285
 21
330.9356396872189
 31
0.0
  0
LINE
  5
1A01
330
1F
100
AcDbEntity
  8
0
 62
     3
100
AcDbLine
 10
1559.018909564285
 20
330.9356396872189
 30
0.0
 11
1559.084133644285
 21
330.8890660772188
 31
0.0
  0
LINE
  5
1A02
330
1F
100
AcDbEntity
  8
0
 62
     3
100
AcDbLine
 10
1559.084133644285
 20
330.8890660772188
 30
0.0
 11
1559.150640724285
 21
330.8584978472189
 31
0.0
  0
LINE
  5
1A03
330
1F
100
AcDbEntity
  8
0
 62
     3
100
AcDbLine
 10
1559.150640724285
 20
330.8584978472189
 30
0.0
 11
1559.217916734285
 21
330.8441712972189
 31
0.0
  0
LINE
  5
1A04
330
1F
100
AcDbEntity
  8
0
 62
     3
100
AcDbLine
 10
1559.217916734285
 20
330.8441712972189
 30
0.0
 11
1559.285441664285
 21
330.8461971572189
 31
0.0
  0
LINE
  5
1A05
330
1F
100
AcDbEntity
  8
0
 62
     3
100
AcDbLine
 10
1559.285441664285
 20
330.8461971572189
 30
0.0
 11
1559.352693584285
 21
330.8645597572188
 31
0.0
  0
LINE
  5
1A06
330
1F
100
AcDbEntity
  8
0
 62
     3
100
AcDbLine
 10
1559.352693584285
 20
330.8645597572188
 30
0.0
 11
1559.419152664285
 21
330.8991171772188
 31
0.0
  0
LINE
  5
1A07
330
1F
100
AcDbEntity
  8
0
 62
     3
100
AcDbLine
 10
1559.419152664285
 20
330.8991171772188
 30
0.0
 11
1559.484305224285
 21
330.9496023072189
 31
0.0
  0
LINE
  5
1A08
330
1F
100
AcDbEntity
  8
0
 62
     3
100
AcDbLine
 10
1559.484305224285
 20
330.9496023072189
 30
0.0
 11
1559.547647654285
 21
331.0156249072187
 31
0.0
  0
LINE
  5
1A09
330
1F
100
AcDbEntity
  8
0
 62
     3
100
AcDbLine
 10
1559.547647654285
 20
331.0156249072187
 30
0.0
 11
1559.608690354285
 21
331.0966746672189
 31
0.0
  0
LINE
  5
1A0A
330
1F
100
AcDbEntity
  8
0
 62
     3
100
AcDbLine
 10
1559.608690354285
 20
331.0966746672189
 30
0.0
 11
1559.666961494285
 21
331.1921251172188
 31
0.0
  0
LINE
  5
1A0B
330
1F
100
AcDbEntity
  8
0
 62
     3
100
AcDbLine
 10
1559.666961494285
 20
331.1921251172188
 30
0.0
 11
1559.722010674285
 21
331.3012384772189
 31
0.0
  0
LINE
  5
1A0C
330
1F
100
AcDbEntity
  8
0
 62
     3
100
AcDbLine
 10
1559.722010674285
 20
331.3012384772189
 30
0.0
 11
1559.773412394285
 21
331.4231713372188
 31
0.0
  0
LINE
  5
1A0D
330
1F
100
AcDbEntity
  8
0
 62
     3
100
AcDbLine
 10
1559.773412394285
 20
331.4231713372188
 30
0.0
 11
1559.820769334285
 21
331.5569812472187
 31
0.0
  0
LINE
  5
1A0E
330
1F
100
AcDbEntity
  8
0
 62
     3
100
AcDbLine
 10
1559.820769334285
 20
331.5569812472187
 30
0.0
 11
1559.863715454285
 21
331.7016338972188
 31
0.0
  0
LINE
  5
1A0F
330
1F
100
AcDbEntity
  8
0
 62
     3
100
AcDbLine
 10
1559.863715454285
 20
331.7016338972188
 30
0.0
 11
1559.901918804285
 21
331.8560112172187
 31
0.0
  0
LINE
  5
1A10
330
1F
100
AcDbEntity
  8
0
 62
     3
100
AcDbLine
 10
1559.901918804285
 20
331.8560112172187
 30
0.0
 11
1559.935084094285
 21
332.0189199472188
 31
0.0
  0
LINE
  5
1A11
330
1F
100
AcDbEntity
  8
0
 62
     3
100
AcDbLine
 10
1559.935084094285
 20
332.0189199472188
 30
0.0
 11
1559.962954974285
 21
332.1891008772188
 31
0.0
  0
LINE
  5
1A12
330
1F
100
AcDbEntity
  8
0
100
AcDbLine
 10
1585.099895525426
 20
248.8252270431554
 30
0.0
 11
1588.352973370787
 21
262.8587135918065
 31
0.0
1001
ACAD
1000
DSTYLE
1002
{
1070
   147
1040
0.625
1070
    77
1070
     0
1002
}
  0
LINE
  5
1A13
330
1F
100
AcDbEntity
  8
0
100
AcDbLine
 10
1588.352973370787
 20
262.8587135918065
 30
0.0
 11
1590.852973370787
 21
262.8587135918065
 31
0.0
1001
ACAD
1000
DSTYLE
1002
{
1070
   147
1040
0.625
1070
    77
1070
     0
1002
}
  0
LINE
  5
1A14
330
1F
100
AcDbEntity
  8
0
  6
ByBlock
 62
     0
370
    -2
100
AcDbLine
 10
1585.752464517853
 20
248.6739561722658
 30
0.0
 11
1584.535344544122
 21
246.3898046589461
 31
0.0
  0
LINE
  5
1A15
330
1F
100
AcDbEntity
  8
0
  6
ByBlock
 62
     0
370
    -2
100
AcDbLine
 10
1584.535344544122
 20
246.3898046589461
 30
0.0
 11
1584.447326533
 21
248.976497914045
 31
0.0
  0
LINE
  5
1A16
330
1F
100
AcDbEntity
  8
0
  6
ByBlock
 62
     0
370
    -2
100
AcDbLine
 10
1584.535344544122
 20
246.3898046589461
 30
0.0
 11
1585.099895525426
 21
248.8252270431554
 31
0.0
  0
LINE
  5
1A17
330
1F
100
AcDbEntity
  8
0
100
AcDbLine
 10
1630.769703769528
 20
232.3898046589461
 30
0.0
 11
1644.039560298846
 21
255.6675266479732
 31
0.0
1001
ACAD
1000
DSTYLE
1002
{
1070
   341
1005
14DA
1070
   147
1040
0.625
1070
    77
1070
     0
1002
}
  0
LINE
  5
1A18
330
1F
100
AcDbEntity
  8
0
100
AcDbLine
 10
1644.039560298846
 20
255.6675266479732
 30
0.0
 11
1646.539560298846
 21
255.6675266479732
 31
0.0
1001
ACAD
1000
DSTYLE
1002
{
1070
   341
1005
14DA
1070
   147
1040
0.625
1070
    77
1070
     0
1002
}
  0
LINE
  5
1A1A
330
1F
100
AcDbEntity
  8
0
100
AcDbLine
 10
1563.437607413743
 20
182.3586261250586
 30
0.0
 11
1565.887192188476
 21
169.3349156301735
 31
0.0
1001
ACAD
1000
DSTYLE
1002
{
1070
   341
1005
14DA
1070
   147
1040
0.625
1070
    77
1070
     0
1002
}
  0
LINE
  5
1A1B
330
1F
100
AcDbEntity
  8
0
100
AcDbLine
 10
1565.887192188476
 20
169.3349156301735
 30
0.0
 11
1568.387192188476
 21
169.3349156301735
 31
0.0
1001
ACAD
1000
DSTYLE
1002
{
1070
   341
1005
14DA
1070
   147
1040
0.625
1070
    77
1070
     0
1002
}
  0
LINE
  5
1A1D
330
1F
100
AcDbEntity
  8
0
100
AcDbLine
 10
1414.082897246495
 20
201.3898046589461
 30
0.0
 11
1437.667477502044
 21
167.7605772631533
 31
0.0
1001
ACAD
1000
DSTYLE
1002
{
1070
   341
1005
14DA
1070
   147
1040
0.625
1070
    77
1070
     0
1002
}
  0
LINE
  5
1A1E
330
1F
100
AcDbEntity
  8
0
100
AcDbLine
 10
1437.667477502044
 20
167.7605772631533
 30
0.0
 11
1440.167477502044
 21
167.7605772631533
 31
0.0
1001
ACAD
1000
DSTYLE
1002
{
1070
   341
1005
14DA
1070
   147
1040
0.625
1070
    77
1070
     0
1002
}
  0
LINE
  5
1A20
330
1F
100
AcDbEntity
  8
0
100
AcDbLine
 10
1414.082897246495
 20
232.3898046589461
 30
0.0
 11
1433.889372480241
 21
273.3035812394425
 31
0.0
1001
ACAD
1000
DSTYLE
1002
{
1070
   341
1005
14DA
1070
   147
1040
0.625
1070
    77
1070
     0
1002
}
  0
LINE
  5
1A21
330
1F
100
AcDbEntity
  8
0
100
AcDbLine
 10
1433.889372480241
 20
273.3035812394425
 30
0.0
 11
1436.389372480241
 21
273.3035812394425
 31
0.0
1001
ACAD
1000
DSTYLE
1002
{
1070
   341
1005
14DA
1070
   147
1040
0.625
1070
    77
1070
     0
1002
}
  0
LINE
  5
1A23
330
1F
100
AcDbEntity
  8
0
100
AcDbLine
 10
1518.509918061635
 20
257.2441950358629
 30
0.0
 11
1523.520025532966
 21
273.2157941427274
 31
0.0
1001
ACAD
1000
DSTYLE
1002
{
1070
   147
1040
0.625
1070
    77
1070
     0
1002
}
  0
LINE
  5
1A24
330
1F
100
AcDbEntity
  8
0
100
AcDbLine
 10
1523.520025532966
 20
273.2157941427274
 30
0.0
 11
1526.020025532966
 21
273.2157941427274
 31
0.0
1001
ACAD
1000
DSTYLE
1002
{
1070
   147
1040
0.625
1070
    77
1070
     0
1002
}
  0
LINE
  5
1A25
330
1F
100
AcDbEntity
  8
0
  6
ByBlock
 62
     0
370
    -2
100
AcDbLine
 10
1519.149081301223
 20
257.0436968577761
 30
0.0
 11
1517.761648136811
 21
254.8588036382923
 31
0.0
  0
LINE
  5
1A26
330
1F
100
AcDbEntity
  8
0
  6
ByBlock
 62
     0
370
    -2
100
AcDbLine
 10
1517.761648136811
 20
254.8588036382923
 30
0.0
 11
1517.870754822047
 21
257.4446932139496
 31
0.0
  0
LINE
  5
1A27
330
1F
100
AcDbEntity
  8
0
  6
ByBlock
 62
     0
370
    -2
100
AcDbLine
 10
1517.761648136811
 20
254.8588036382923
 30
0.0
 11
1518.509918061635
 21
257.2441950358629
 31
0.0
  0
LINE
  5
1A28
330
1F
100
AcDbEntity
  8
0
100
AcDbLine
 10
1503.975830056157
 20
178.487050040249
 30
0.0
 11
1506.373712436513
 21
170.1428880497778
 31
0.0
1001
ACAD
1000
DSTYLE
1002
{
1070
   147
1040
0.625
1070
    77
1070
     0
1002
}
  0
LINE
  5
1A29
330
1F
100
AcDbEntity
  8
0
100
AcDbLine
 10
1506.373712436513
 20
170.1428880497778
 30
0.0
 11
1508.873712436513
 21
170.1428880497778
 31
0.0
1001
ACAD
1000
DSTYLE
1002
{
1070
   147
1040
0.625
1070
    77
1070
     0
1002
}
  0
LINE
  5
1A2A
330
1F
100
AcDbEntity
  8
0
  6
ByBlock
 62
     0
370
    -2
100
AcDbLine
 10
1503.332014358831
 20
178.3020351377848
 30
0.0
 11
1503.285344544122
 21
180.8898046589461
 31
0.0
  0
LINE
  5
1A2B
330
1F
100
AcDbEntity
  8
0
  6
ByBlock
 62
     0
370
    -2
100
AcDbLine
 10
1503.285344544122
 20
180.8898046589461
 30
0.0
 11
1504.619645753482
 21
178.6720649427133
 31
0.0
  0
LINE
  5
1A2C
330
1F
100
AcDbEntity
  8
0
  6
ByBlock
 62
     0
370
    -2
100
AcDbLine
 10
1503.285344544122
 20
180.8898046589461
 30
0.0
 11
1503.975830056157
 21
178.487050040249
 31
0.0
  0
LINE
  5
1A2D
330
1F
100
AcDbEntity
  8
0
100
AcDbLine
 10
1546.042862505023
 20
257.8563542566906
 30
0.0
 11
1550.024706313947
 21
268.6822243177344
 31
0.0
1001
ACAD
1000
DSTYLE
1002
{
1070
   147
1040
0.625
1070
    77
1070
     0
1002
}
  0
LINE
  5
1A2E
330
1F
100
AcDbEntity
  8
0
100
AcDbLine
 10
1550.024706313947
 20
268.6822243177344
 30
0.0
 11
1552.524706313947
 21
268.6822243177344
 31
0.0
1001
ACAD
1000
DSTYLE
1002
{
1070
   147
1040
0.625
1070
    77
1070
     0
1002
}
  0
LINE
  5
1A2F
330
1F
100
AcDbEntity
  8
0
  6
ByBlock
 62
     0
370
    -2
100
AcDbLine
 10
1546.671557649203
 20
257.6251150257157
 30
0.0
 11
1545.17986532655
 21
255.5100303510999
 31
0.0
  0
LINE
  5
1A30
330
1F
100
AcDbEntity
  8
0
  6
ByBlock
 62
     0
370
    -2
100
AcDbLine
 10
1545.17986532655
 20
255.5100303510999
 30
0.0
 11
1545.414167360845
 21
258.0875934876655
 31
0.0
  0
LINE
  5
1A31
330
1F
100
AcDbEntity
  8
0
  6
ByBlock
 62
     0
370
    -2
100
AcDbLine
 10
1545.17986532655
 20
255.5100303510999
 30
0.0
 11
1546.042862505023
 21
257.8563542566906
 31
0.0
  0
TEXT
  5
1A32
330
1F
100
AcDbEntity
  8
0
 62
     4
100
AcDbText
 10
1412.308451439651
 20
156.8854647553643
 30
0.0
 40
3.0
  1
45
100
AcDbText
  0
LINE
  5
1A33
330
1F
100
AcDbEntity
  8
0
  6
ByBlock
 62
     0
370
    -2
100
AcDbLine
 10
1433.382897246495
 20
156.9303372553643
 30
0.0
 11
1435.882897246495
 21
156.2604647553643
 31
0.0
  0
LINE
  5
1A34
330
1F
100
AcDbEntity
  8
0
  6
ByBlock
 62
     0
370
    -2
100
AcDbLine
 10
1435.882897246495
 20
156.2604647553643
 30
0.0
 11
1433.382897246495
 21
155.5905922553643
 31
0.0
  0
LINE
  5
1A35
330
1F
100
AcDbEntity
  8
0
  6
ByBlock
 62
     0
370
    -2
100
AcDbLine
 10
1435.882897246495
 20
156.2604647553643
 30
0.0
 11
1433.382897246495
 21
156.2604647553643
 31
0.0
  0
LINE
  5
1A36
330
1F
100
AcDbEntity
  8
0
  6
ByBlock
 62
     0
370
    -2
100
AcDbLine
 10
1394.782897246494
 20
155.5905922553643
 30
0.0
 11
1392.282897246494
 21
156.2604647553643
 31
0.0
  0
LINE
  5
1A37
330
1F
100
AcDbEntity
  8
0
  6
ByBlock
 62
     0
370
    -2
100
AcDbLine
 10
1392.282897246494
 20
156.2604647553643
 30
0.0
 11
1394.782897246494
 21
156.9303372553643
 31
0.0
  0
LINE
  5
1A38
330
1F
100
AcDbEntity
  8
0
  6
ByBlock
 62
     0
370
    -2
100
AcDbLine
 10
1392.282897246494
 20
156.2604647553643
 30
0.0
 11
1394.782897246494
 21
156.2604647553643
 31
0.0
  0
TEXT
  5
1A39
330
1F
100
AcDbEntity
  8
0
 62
     4
100
AcDbText
 10
1453.5462113256
 20
214.8898046589461
 30
0.0
 40
3.0
  1
77
 50
90.0
100
AcDbText
  0
LINE
  5
1A3A
330
1F
100
AcDbEntity
  8
0
  6
ByBlock
 62
     0
370
    -2
100
AcDbLine
 10
1454.841083825601
 20
180.889804658946
 30
0.0
 11
1454.171211325601
 21
178.389804658946
 31
0.0
  0
LINE
  5
1A3B
330
1F
100
AcDbEntity
  8
0
  6
ByBlock
 62
     0
370
    -2
100
AcDbLine
 10
1454.171211325601
 20
178.389804658946
 30
0.0
 11
1453.5013388256
 21
180.889804658946
 31
0.0
  0
LINE
  5
1A3C
330
1F
100
AcDbEntity
  8
0
  6
ByBlock
 62
     0
370
    -2
100
AcDbLine
 10
1454.171211325601
 20
178.389804658946
 30
0.0
 11
1454.171211325601
 21
180.889804658946
 31
0.0
  0
LINE
  5
1A3D
330
1F
100
AcDbEntity
  8
0
  6
ByBlock
 62
     0
370
    -2
100
AcDbLine
 10
1453.5013388256
 20
253.889804658946
 30
0.0
 11
1454.171211325601
 21
256.3898046589461
 31
0.0
  0
LINE
  5
1A3E
330
1F
100
AcDbEntity
  8
0
  6
ByBlock
 62
     0
370
    -2
100
AcDbLine
 10
1454.171211325601
 20
256.3898046589461
 30
0.0
 11
1454.841083825601
 21
253.889804658946
 31
0.0
  0
LINE
  5
1A3F
330
1F
100
AcDbEntity
  8
0
  6
ByBlock
 62
     0
370
    -2
100
AcDbLine
 10
1454.171211325601
 20
256.3898046589461
 30
0.0
 11
1454.171211325601
 21
253.889804658946
 31
0.0
  0
TEXT
  5
1A40
330
1F
100
AcDbEntity
  8
0
 62
     4
100
AcDbText
 10
1519.883735136421
 20
156.5338776380164
 30
0.0
 40
3.0
  1
125
100
AcDbText
  0
LINE
  5
1A41
330
1F
100
AcDbEntity
  8
0
  6
ByBlock
 62
     0
370
    -2
100
AcDbLine
 10
1587.285344544122
 20
156.5787501380164
 30
0.0
 11
1589.785344544122
 21
155.9088776380164
 31
0.0
  0
LINE
  5
1A42
330
1F
100
AcDbEntity
  8
0
  6
ByBlock
 62
     0
370
    -2
100
AcDbLine
 10
1589.785344544122
 20
155.9088776380164
 30
0.0
 11
1587.285344544122
 21
155.2390051380164
 31
0.0
  0
LINE
  5
1A43
330
1F
100
AcDbEntity
  8
0
  6
ByBlock
 62
     0
370
    -2
100
AcDbLine
 10
1589.785344544122
 20
155.9088776380164
 30
0.0
 11
1587.285344544122
 21
155.9088776380164
 31
0.0
  0
LINE
  5
1A44
330
1F
100
AcDbEntity
  8
0
  6
ByBlock
 62
     0
370
    -2
100
AcDbLine
 10
1470.785344544122
 20
155.2390051380164
 30
0.0
 11
1468.285344544122
 21
155.9088776380164
 31
0.0
  0
LINE
  5
1A45
330
1F
100
AcDbEntity
  8
0
  6
ByBlock
 62
     0
370
    -2
100
AcDbLine
 10
1468.285344544122
 20
155.9088776380164
 30
0.0
 11
1470.785344544122
 21
156.5787501380164
 31
0.0
  0
LINE
  5
1A46
330
1F
100
AcDbEntity
  8
0
  6
ByBlock
 62
     0
370
    -2
100
AcDbLine
 10
1468.285344544122
 20
155.9088776380164
 30
0.0
 11
1470.785344544122
 21
155.9088776380164
 31
0.0
  0
ARC
  5
1A47
330
1F
100
AcDbEntity
  8
0
  6
ByBlock
 62
     0
100
AcDbCircle
 10
1630.769703769528
 20
232.3898046589461
 30
0.0
 40
0.1562499999999767
100
AcDbArc
 50
60.31397103249726
 51
240.3139710324972
  0
ARC
  5
1A48
330
1F
100
AcDbEntity
  8
0
  6
ByBlock
 62
     0
100
AcDbCircle
 10
1630.769703769528
 20
232.3898046589461
 30
0.0
 40
0.1562499999999767
100
AcDbArc
 50
240.3139710324972
 51
60.31397103249726
  0
ARC
  5
1A49
330
1F
100
AcDbEntity
  8
0
  6
ByBlock
 62
     0
100
AcDbCircle
 10
1563.437607413743
 20
182.3586261250586
 30
0.0
 40
0.1562500000000139
100
AcDbArc
 50
280.6521172970498
 51
100.6521172970497
  0
ARC
  5
1A4A
330
1F
100
AcDbEntity
  8
0
  6
ByBlock
 62
     0
100
AcDbCircle
 10
1563.437607413743
 20
182.3586261250586
 30
0.0
 40
0.1562500000000139
100
AcDbArc
 50
100.6521172970497
 51
280.6521172970498
  0
ARC
  5
1A4B
330
1F
100
AcDbEntity
  8
0
  6
ByBlock
 62
     0
100
AcDbCircle
 10
1414.082897246495
 20
201.3898046589461
 30
0.0
 40
0.1562499999999889
100
AcDbArc
 50
305.0424396223852
 51
125.0424396223852
  0
ARC
  5
1A4C
330
1F
100
AcDbEntity
  8
0
  6
ByBlock
 62
     0
100
AcDbCircle
 10
1414.082897246495
 20
201.3898046589461
 30
0.0
 40
0.1562499999999889
100
AcDbArc
 50
125.0424396223852
 51
305.0424396223852
  0
ARC
  5
1A4D
330
1F
100
AcDbEntity
  8
0
  6
ByBlock
 62
     0
100
AcDbCircle
 10
1414.082897246495
 20
232.3898046589461
 30
0.0
 40
0.1562500000000316
100
AcDbArc
 50
64.16824433288095
 51
244.1682443328809
  0
ARC
  5
1A4E
330
1F
100
AcDbEntity
  8
0
  6
ByBlock
 62
     0
100
AcDbCircle
 10
1414.082897246495
 20
232.3898046589461
 30
0.0
 40
0.1562500000000316
100
AcDbArc
 50
244.1682443328809
 51
64.16824433288095
  0
ENDSEC
  0
SECTION
  2
OBJECTS
  0
DICTIONARY
  5
C
330
0
100
AcDbDictionary
281
     1
  3
ACAD_2007HEADERVARS_RT
350
1A53
  3
ACAD_COLOR
350
73
  3
ACAD_GROUP
350
D
  3
ACAD_IMAGE_DICT
350
11B2
  3
ACAD_IMAGE_VARS
350
11B4
  3
ACAD_LAYOUT
350
1A
  3
ACAD_MATERIAL
350
72
  3
ACAD_MLEADERSTYLE
350
168
  3
ACAD_MLINESTYLE
350
17
  3
ACAD_PLOTSETTINGS
350
19
  3
ACAD_PLOTSTYLENAME
350
E
  3
ACAD_SCALELIST
350
156
  3
ACAD_TABLESTYLE
350
86
  3
ACAD_VISUALSTYLE
350
99
  3
ACDB_RECOMPOSE_DATA
350
1A51
  3
AcDbVariableDictionary
350
66
  3
AEC_PROPERTY_SET_DEFS
350
1541
  3
DWGPROPS
350
1A52
  0
DICTIONARY
  5
DD
330
2
100
AcDbDictionary
280
     1
281
     1
  3
ACAD_LAYERSTATES
360
DE
  0
DICTIONARY
  5
8E9
330
10
100
AcDbDictionary
280
     1
281
     1
  3
ADSK_XREC_LAYER_RECONCILED
360
1358
  0
DICTIONARY
  5
324
330
1F
100
AcDbDictionary
280
     1
281
     1
  3
ACAD_SORTENTS
360
325
  0
DICTIONARY
  5
E25
330
D57
100
AcDbDictionary
280
     1
281
     1
  3
ACAD_SORTENTS
360
E26
  0
DICTIONARY
  5
1191
330
10C4
100
AcDbDictionary
280
     1
281
     1
  3
ACAD_SORTENTS
360
1192
  0
DICTIONARY
  5
1A53
102
{ACAD_REACTORS
330
C
102
}
330
C
100
AcDbDictionary
281
     1
  3
DIMARCSYM
350
1A55
  3
DIMFXL
350
1A54
  3
DIMJOGANG
350
1A56
  0
DICTIONARY
  5
73
102
{ACAD_REACTORS
330
C
102
}
330
C
100
AcDbDictionary
281
     1
  0
DICTIONARY
  5
D
102
{ACAD_REACTORS
330
C
102
}
330
C
100
AcDbDictionary
281
     1
  0
DICTIONARY
  5
11B2
102
{ACAD_REACTORS
330
C
102
}
330
C
100
AcDbDictionary
281
     1
  3
CIMG8646
350
11B3
  0
RASTERVARIABLES
  5
11B4
102
{ACAD_REACTORS
330
C
102
}
330
C
100
AcDbRasterVariables
 90
        0
 70
     1
 71
     1
 72
     5
  0
DICTIONARY
  5
1A
102
{ACAD_REACTORS
330
C
102
}
330
C
100
AcDbDictionary
281
     1
  3
Model
350
22
  3
レイアウト1
350
59
  3
レイアウト2
350
5E
  0
DICTIONARY
  5
72
102
{ACAD_REACTORS
330
C
102
}
330
C
100
AcDbDictionary
281
     1
  3
ByBlock
350
97
  3
ByLayer
350
96
  3
Global
350
98
  0
DICTIONARY
  5
168
102
{ACAD_REACTORS
330
C
102
}
330
C
100
AcDbDictionary
281
     1
  3
Standard
350
169
  0
DICTIONARY
  5
17
102
{ACAD_REACTORS
330
C
102
}
330
C
100
AcDbDictionary
281
     1
  3
Standard
350
18
  0
DICTIONARY
  5
19
102
{ACAD_REACTORS
330
C
102
}
330
C
100
AcDbDictionary
281
     1
  0
ACDBDICTIONARYWDFLT
  5
E
102
{ACAD_REACTORS
330
C
102
}
330
C
100
AcDbDictionary
281
     1
  3
Normal
350
F
100
AcDbDictionaryWithDefault
340
F
  0
DICTIONARY
  5
156
102
{ACAD_REACTORS
330
C
102
}
330
C
100
AcDbDictionary
281
     1
  3
A0
350
157
  3
A1
350
158
  3
A2
350
159
  3
A3
350
15A
  3
A4
350
15B
  3
A5
350
15C
  3
A6
350
15D
  3
A7
350
15E
  3
A8
350
15F
  3
A9
350
160
  3
B0
350
161
  3
B1
350
162
  3
B2
350
163
  3
B3
350
164
  3
B4
350
165
  3
B5
350
166
  3
B6
350
167
  0
DICTIONARY
  5
86
102
{ACAD_REACTORS
330
C
102
}
330
C
100
AcDbDictionary
281
     1
  3
Standard
350
87
  3
部品表
350
C45
  0
DICTIONARY
  5
99
102
{ACAD_REACTORS
330
C
102
}
330
C
100
AcDbDictionary
281
     1
  3
2dWireframe
350
9F
  3
3D Hidden
350
A1
  3
3dWireframe
350
A0
  3
Basic
350
9E
  3
Brighten
350
A5
  3
ColorChange
350
A9
  3
Conceptual
350
A2
  3
Dim
350
A4
  3
EdgeColorOff
350
155
  3
Facepattern
350
A8
  3
Flat
350
9A
  3
FlatWithEdges
350
9B
  3
Gouraud
350
9C
  3
GouraudWithEdges
350
9D
  3
Hidden
350
14D
  3
JitterOff
350
153
  3
Linepattern
350
A7
  3
OverhangOff
350
154
  3
Realistic
350
A3
  3
Shaded
350
152
  3
Shaded with edges
350
151
  3
Shades of Gray
350
14E
  3
Sketchy
350
14F
  3
Thicken
350
A6
  3
Wireframe
350
14C
  3
X-Ray
350
150
  0
XRECORD
  5
1A51
102
{ACAD_REACTORS
330
C
102
}
330
C
100
AcDbXrecord
280
     1
 90
        1
330
87
330
C45
  0
DICTIONARY
  5
66
102
{ACAD_REACTORS
330
C
102
}
330
C
100
AcDbDictionary
281
     1
  3
CANNOSCALE
350
24A
  3
CMLEADERSTYLE
350
248
  3
CTABLESTYLE
350
89
  3
DIMASSOC
350
67
  3
HIDETEXT
350
6B
  3
INDEXCTL
350
135A
  3
LAYEREVAL
350
24C
  3
LAYERNOTIFY
350
24D
  3
LIGHTINGUNITS
350
24B
  3
MSLTSCALE
350
249
  3
SORTENTS
350
1359
  3
XCLIPFRAME
350
1960
  0
DICTIONARY
  5
1541
102
{ACAD_REACTORS
330
C
102
}
330
C
100
AcDbDictionary
281
     1
  0
XRECORD
  5
1A52
102
{ACAD_REACTORS
330
C
102
}
330
C
100
AcDbXrecord
280
     1
  1
DWGPROPS COOKIE
  2

  3

  4

  6

  7

  8
imamura
  9

300
=
301
=
302
=
303
=
304
=
305
=
306
=
307
=
308
=
309
=
 40
0.2437215625
 41
2457647.72381478
 42
2457658.619013056
  1

 90
        0
  0
DICTIONARY
  5
DE
102
{ACAD_REACTORS
330
DD
102
}
330
DD
100
AcDbDictionary
281
     1
  0
XRECORD
  5
1358
102
{ACAD_REACTORS
330
8E9
102
}
330
8E9
100
AcDbXrecord
280
     1
290
     1
  0
SORTENTSTABLE
  5
325
102
{ACAD_REACTORS
330
324
102
}
330
324
100
AcDbSortentsTable
330
1F
331
124E
  5
15EB
331
11EC
  5
1596
331
124A
  5
15E8
331
120F
  5
15BC
331
11E4
  5
158F
331
1246
  5
15E2
331
1285
  5
156D
331
1242
  5
15E6
331
11E0
  5
1587
331
19D6
  5
1263
331
156D
  5
1A25
331
12BC
  5
1652
331
1626
  5
12CF
331
12B8
  5
164E
331
19CE
  5
19A9
331
1A0D
  5
12AC
331
1A4D
  5
19F3
331
1622
  5
12CA
331
15E7
  5
1220
331
1A09
  5
12A8
331
15A4
  5
1A47
331
165D
  5
14CF
331
1A49
  5
1A01
331
161E
  5
12C6
331
15E3
  5
121A
331
15A0
  5
1A44
331
1659
  5
147E
331
1A45
  5
19AF
331
161A
  5
12C2
331
1A41
  5
19B4
331
127D
  5
160A
331
123E
  5
15DA
331
123A
  5
15D8
331
1275
  5
1605
331
1303
  5
166E
331
1236
  5
15D6
331
12B4
  5
164A
331
1271
  5
1602
331
13AA
  5
165B
331
12B0
  5
1646
331
1232
  5
15D3
331
15DF
  5
1215
331
1A05
  5
12A4
331
1555
  5
1A1F
331
12AC
  5
1642
331
12FB
  5
15DC
331
1356
  5
19A5
331
19C2
  5
19D6
331
1655
  5
13FF
331
15DB
  5
1210
331
1616
  5
12BD
331
1A01
  5
12A0
331
1551
  5
1A1C
331
12A8
  5
162B
331
1352
  5
167B
331
19BE
  5
19E4
331
19FD
  5
129B
331
1598
  5
1A43
331
1651
  5
1355
331
1A3D
  5
19C6
331
1612
  5
12B9
331
15D7
  5
120C
331
19BA
  5
19EA
331
19F9
  5
1294
331
164D
  5
134D
331
1A39
  5
19D4
331
160E
  5
12B5
331
15D3
  5
11FE
331
1590
  5
1A3E
331
1649
  5
1347
331
1A35
  5
19DD
331
160A
  5
12B1
331
1A31
  5
19E1
331
11FF
  5
15B6
331
12F7
  5
1663
331
1269
  5
15FD
331
11D0
  5
157F
331
11FB
  5
15B2
331
154D
  5
1A18
331
12A4
  5
1627
331
1265
  5
15FA
331
11CC
  5
157C
331
12EF
  5
1660
331
1549
  5
1A15
331
12A0
  5
1623
331
134A
  5
167A
331
15CF
  5
11FA
331
19F5
  5
128F
331
12EB
  5
165E
331
1545
  5
1A11
331
129C
  5
1621
331
1346
  5
166B
331
1645
  5
1339
331
15CB
  5
11F6
331
1606
  5
1258
331
19F1
  5
128B
331
1298
  5
161D
331
19ED
  5
1286
331
1588
  5
1A3A
331
1641
  5
1333
331
15C7
  5
11F2
331
167C
  5
1A4C
331
1A2D
  5
19E2
331
1602
  5
1246
331
19AA
  5
1A0A
331
19E9
  5
1281
331
1584
  5
1A38
331
163D
  5
1303
331
15C3
  5
11EE
331
1A29
  5
19E9
331
1678
  5
1567
331
15FE
  5
1242
331
1580
  5
1A34
331
1639
  5
12FA
331
1A25
  5
19EC
331
1674
  5
1552
331
15FA
  5
123D
331
1A21
  5
19F7
331
1670
  5
154E
331
11F7
  5
15AE
331
125D
  5
15F5
331
11F3
  5
15A5
331
1259
  5
15F2
331
121A
  5
15C5
331
1294
  5
161B
331
1251
  5
15ED
331
1290
  5
1618
331
1212
  5
15BF
331
15BF
  5
11EA
331
19E5
  5
1279
331
12DB
  5
1658
331
1336
  5
1673
331
128C
  5
1615
331
157C
  5
1A30
331
1635
  5
12F5
331
15BB
  5
11E3
331
19E1
  5
1273
331
15F6
  5
1235
331
1332
  5
1671
331
1288
  5
1611
331
1578
  5
1A2C
331
1631
  5
12F3
331
15B7
  5
11DA
331
1A1D
  5
19FC
331
166C
  5
1549
331
15F2
  5
1231
331
19DD
  5
126D
331
19D9
  5
1267
331
1574
  5
1A2A
331
162D
  5
12EF
331
15B3
  5
11CC
331
1668
  5
1545
331
15EE
  5
1229
331
1570
  5
1A26
331
1629
  5
12DE
331
1A15
  5
1A0C
331
1664
  5
14E0
331
15EA
  5
1224
331
1660
  5
14D6
331
1A11
  5
12B0
331
11EF
  5
15A0
331
11A8
  5
156A
331
124D
  5
15EA
331
11EB
  5
1592
331
120E
  5
15BB
331
1284
  5
160F
331
11E3
  5
158E
331
12BF
  5
1655
331
1241
  5
15E5
331
19D5
  5
1261
331
15AF
  5
11AF
331
12BB
  5
1651
331
1625
  5
12CD
331
1568
  5
1A22
331
19CD
  5
19A6
331
1A0C
  5
12AB
331
1A4C
  5
19FA
331
1621
  5
12C9
331
15E6
  5
121F
331
19C9
  5
19C3
331
1A08
  5
12A7
331
15A3
  5
1A46
331
165C
  5
14CE
331
1A48
  5
1A07
331
161D
  5
12C5
331
15E2
  5
1219
331
1658
  5
147D
331
1A44
  5
19AE
331
1619
  5
12C1
331
1A40
  5
19BC
331
11DF
  5
1584
331
123D
  5
15D9
331
12B7
  5
164D
331
1278
  5
1607
331
1274
  5
1604
331
1302
  5
166D
331
1235
  5
15D5
331
12B3
  5
1649
331
12FE
  5
1667
331
12AF
  5
1645
331
1A04
  5
12A3
331
15DE
  5
1213
331
12FA
  5
1666
331
1355
  5
167E
331
12AB
  5
1641
331
19C1
  5
19D5
331
1654
  5
13AA
331
15DA
  5
120F
331
1615
  5
12BC
331
1A00
  5
129E
331
1550
  5
1A1B
331
19FC
  5
129A
331
1597
  5
1A42
331
1650
  5
1354
331
1A3C
  5
19D3
331
1611
  5
12B8
331
15D6
  5
1201
331
19F8
  5
1293
331
164C
  5
134C
331
1A38
  5
19DA
331
160D
  5
12B4
331
15D2
  5
11FD
331
1A34
  5
19DC
331
1648
  5
1342
331
1A30
  5
19E0
331
126C
  5
15FF
331
11D3
  5
1582
331
11FE
  5
15B5
331
1268
  5
15FC
331
11CF
  5
157E
331
12A7
  5
162A
331
1229
  5
15D0
331
12F2
  5
1661
331
1225
  5
15CD
331
11FA
  5
15B1
331
154C
  5
1A17
331
12A3
  5
1626
331
134D
  5
1668
331
1260
  5
15F7
331
1548
  5
1A14
331
12EE
  5
165F
331
1221
  5
15CB
331
19F4
  5
128E
331
158F
  5
1A3D
331
15CE
  5
11F9
331
1349
  5
1679
331
1345
  5
1678
331
129B
  5
1620
331
19B1
  5
1A00
331
1644
  5
1338
331
15CA
  5
11F5
331
1605
  5
1257
331
19F0
  5
128A
331
19AD
  5
1A05
331
19EC
  5
1285
331
1587
  5
1A39
331
1640
  5
132C
331
15C6
  5
11F1
331
167B
  5
1A4B
331
1A2C
  5
19E7
331
1601
  5
1245
331
19E8
  5
127E
331
1583
  5
1A37
331
163C
  5
12FF
331
15C2
  5
11ED
331
1A28
  5
19E8
331
1677
  5
1557
331
15FD
  5
1241
331
1638
  5
12F9
331
1A24
  5
19F0
331
1673
  5
1551
331
15F9
  5
123A
331
1A20
  5
19F5
331
125C
  5
15F4
331
11F2
  5
15A4
331
121D
  5
15C7
331
12E6
  5
1659
331
1219
  5
15C4
331
11BF
  5
1573
331
1254
  5
15EF
331
133D
  5
1677
331
1293
  5
161A
331
12E2
  5
15DF
331
1215
  5
15C1
331
1250
  5
15EC
331
128F
  5
1617
331
1211
  5
15BE
331
19A5
  5
1A10
331
157F
  5
1A33
331
15BE
  5
11E7
331
19E4
  5
1278
331
128B
  5
1614
331
19E0
  5
1272
331
157B
  5
1A2F
331
15BA
  5
11E2
331
166F
  5
154D
331
15F5
  5
1234
331
1331
  5
1670
331
19DC
  5
126C
331
1630
  5
12F2
331
15B6
  5
11D3
331
166B
  5
1548
331
15F1
  5
1230
331
19D8
  5
1266
331
1573
  5
1A29
331
162C
  5
12ED
331
15B2
  5
11C5
331
1A18
  5
1A09
331
1667
  5
14E5
331
15ED
  5
1228
331
1628
  5
12D1
331
1A14
  5
1A0B
331
1663
  5
14DF
331
15E9
  5
1223
331
1A10
  5
12AF
331
11AF
  5
157A
331
11AB
  5
1575
331
11EE
  5
1598
331
11EA
  5
1591
331
12D6
  5
1657
331
120D
  5
15BA
331
1283
  5
160E
331
11E2
  5
158D
331
1244
  5
156B
331
12BE
  5
1654
331
1240
  5
15E4
331
15AE
  5
11AE
331
19D4
  5
1260
331
156B
  5
1A24
331
12BA
  5
1650
331
1A0F
  5
12AE
331
1624
  5
12CC
331
1A0B
  5
12AA
331
15A6
  5
1A49
331
165F
  5
14D3
331
1A4B
  5
19F9
331
1620
  5
12C8
331
15E5
  5
121D
331
19C8
  5
19C0
331
15A2
  5
1A45
331
165B
  5
1482
331
15E1
  5
1218
331
1A47
  5
1A06
331
161C
  5
12C4
331
1A43
  5
19B6
331
1618
  5
12BF
331
127F
  5
160C
331
11DE
  5
1583
331
1201
  5
15B8
331
127B
  5
1609
331
11DA
  5
1578
331
1567
  5
1A21
331
12B6
  5
164C
331
1277
  5
1606
331
1301
  5
166C
331
1234
  5
1574
331
1A07
  5
12A6
331
12B2
  5
1648
331
1557
  5
1A20
331
12AE
  5
1644
331
1A03
  5
12A2
331
1657
  5
145C
331
15DD
  5
1212
331
12F9
  5
1665
331
1553
  5
1A1E
331
12AA
  5
162D
331
1354
  5
167D
331
1653
  5
1357
331
15D9
  5
120E
331
1A3F
  5
19CA
331
1614
  5
12BB
331
19FF
  5
129D
331
19FB
  5
1296
331
1596
  5
1A41
331
164F
  5
1353
331
1A3B
  5
19D0
331
1610
  5
12B7
331
15D5
  5
1200
331
1592
  5
1A40
331
164B
  5
134A
331
1A37
  5
19D9
331
160C
  5
12B3
331
15D1
  5
11FC
331
1A33
  5
19DB
331
1608
  5
125B
331
126F
  5
1601
331
126B
  5
15FE
331
11D2
  5
1581
331
122C
  5
15D1
331
11FD
  5
15B4
331
154F
  5
1A1A
331
12A6
  5
1629
331
1228
  5
15CF
331
11CE
  5
157D
331
1263
  5
15F9
331
11F9
  5
15B0
331
134C
  5
1669
331
12A2
  5
1625
331
12F1
  5
15DD
331
1224
  5
15C8
331
19F7
  5
1291
331
12ED
  5
165D
331
1220
  5
15CA
331
1547
  5
1A13
331
19B4
  5
19F8
331
19F3
  5
128D
331
129E
  5
1572
331
158E
  5
1A3C
331
1647
  5
1341
331
15CD
  5
11F8
331
12E9
  5
165C
331
129A
  5
161F
331
19B0
  5
19FE
331
19EF
  5
1288
331
1643
  5
1337
331
15C9
  5
11F4
331
167E
  5
1A4E
331
1A2F
  5
19DF
331
1604
  5
1255
331
19EB
  5
1283
331
163F
  5
132B
331
15C5
  5
11F0
331
167A
  5
1A4A
331
1A2B
  5
19E6
331
1600
  5
1244
331
1582
  5
1A36
331
163B
  5
12FE
331
1A27
  5
19EE
331
1676
  5
1555
331
15FC
  5
123F
331
15C1
  5
11EC
331
1A23
  5
19EF
331
1672
  5
1550
331
15F8
  5
1237
331
125F
  5
15F6
331
11F5
  5
15AD
331
11F1
  5
15A3
331
11C2
  5
157B
331
1257
  5
15F1
331
1296
  5
161C
331
1218
  5
15C3
331
1253
  5
15EE
331
133C
  5
1676
331
1292
  5
1619
331
12E1
  5
15E0
331
19E7
  5
127C
331
128E
  5
1616
331
1210
  5
15BD
331
157E
  5
1A32
331
1637
  5
12F8
331
15BD
  5
11E6
331
19E3
  5
1276
331
128A
  5
1613
331
19DF
  5
1270
331
157A
  5
1A2E
331
15B9
  5
11E0
331
166E
  5
154C
331
15F4
  5
1233
331
19DB
  5
126A
331
162F
  5
12F1
331
15B5
  5
11D2
331
1A1B
  5
1A04
331
166A
  5
1547
331
15F0
  5
122F
331
1572
  5
1A28
331
162B
  5
12E7
331
15B1
  5
11C1
331
1A17
  5
1A08
331
1666
  5
14E4
331
15EC
  5
1227
331
1A13
  5
1A0F
331
1662
  5
14DE
331
15E8
  5
1221
331
11AE
  5
1579
331
11ED
  5
1597
331
124B
  5
15E9
331
11E9
  5
1590
331
1286
  5
1610
331
120C
  5
15B9
331
1247
  5
15E1
331
1282
  5
160D
331
11E1
  5
1588
331
1243
  5
15E7
331
19D7
  5
1264
331
12BD
  5
1653
331
19D3
  5
125E
331
1627
  5
12D0
331
15AD
  5
11A7
331
156A
  5
1A23
331
12B9
  5
164F
331
19CF
  5
19AA
331
1A0E
  5
12AD
331
1A4E
  5
19F4
331
1623
  5
12CB
331
1A0A
  5
12A9
331
15A5
  5
1A48
331
165E
  5
14D2
331
1A4A
  5
1A02
331
161F
  5
12C7
331
15E4
  5
121B
331
165A
  5
1481
331
15E0
  5
1217
331
1A46
  5
19B0
331
161B
  5
12C3
331
1A42
  5
19B5
331
11A6
  5
1568
331
127E
  5
160B
331
123F
  5
15E3
331
127A
  5
1608
331
1200
  5
15B7
331
1304
  5
166F
331
1237
  5
15D7
331
12B5
  5
164B
331
1272
  5
1603
331
12B1
  5
1647
331
1233
  5
15D4
331
19C7
  5
19BF
331
1A06
  5
12A5
331
12AD
  5
1643
331
1357
  5
15DB
331
19C3
  5
19D7
331
1656
  5
1417
331
15DC
  5
1211
331
1617
  5
12BE
331
1A02
  5
12A1
331
12F8
  5
1664
331
1552
  5
1A1D
331
12A9
  5
162C
331
1353
  5
167C
331
19FE
  5
129C
331
1652
  5
1356
331
15D8
  5
120D
331
1A3E
  5
19C9
331
1613
  5
12BA
331
19BB
  5
19EB
331
19FA
  5
1295
331
164E
  5
134F
331
1A3A
  5
19CD
331
160F
  5
12B6
331
15D4
  5
11FF
331
1591
  5
1A3F
331
164A
  5
1349
331
15D0
  5
11FB
331
1A36
  5
19D8
331
160B
  5
12B2
331
1A32
  5
19DE
331
126E
  5
1600
331
122F
  5
15D2
331
11D1
  5
1580
331
1266
  5
15FB
331
11FC
  5
15B3
331
12F4
  5
1662
331
154E
  5
1A19
331
12A5
  5
1628
331
1227
  5
15CE
331
1262
  5
15F8
331
11F8
  5
15AF
331
154A
  5
1A16
331
12A1
  5
1624
331
12F0
  5
15DE
331
1223
  5
15CC
331
19B7
  5
19F1
331
19F6
  5
1290
331
1546
  5
1A12
331
129D
  5
1622
331
1347
  5
166A
331
158D
  5
1A3B
331
1646
  5
133D
331
15CC
  5
11F7
331
19F2
  5
128C
331
1607
  5
125A
331
12E8
  5
165A
331
1299
  5
161E
331
19EE
  5
1287
331
1642
  5
1336
331
15C8
  5
11F3
331
167D
  5
1A4D
331
1A2E
  5
19E3
331
1603
  5
1254
331
19EA
  5
1282
331
163E
  5
1304
331
15C4
  5
11EF
331
1A2A
  5
19E5
331
1679
  5
1301
331
15FF
  5
1243
331
1581
  5
1A35
331
163A
  5
12FB
331
1A26
  5
19ED
331
1675
  5
1553
331
15FB
  5
123E
331
15C0
  5
11EB
331
1671
  5
154F
331
121F
  5
15C9
331
11F4
  5
15A6
331
125A
  5
15F3
331
11F0
  5
15A2
331
121B
  5
15C6
331
1256
  5
15F0
331
1217
  5
15C2
331
1295
  5
1571
331
133B
  5
1675
331
1213
  5
15C0
331
19E6
  5
127B
331
12DC
  5
1656
331
1337
  5
1674
331
128D
  5
1570
331
157D
  5
1A31
331
1636
  5
12F7
331
15BC
  5
11E4
331
15F7
  5
1236
331
19E2
  5
1275
331
1333
  5
1672
331
1289
  5
1612
331
1579
  5
1A2D
331
1632
  5
12F4
331
15B8
  5
11DD
331
1A1E
  5
19FD
331
166D
  5
154A
331
15F3
  5
1232
331
19DE
  5
126F
331
19DA
  5
1269
331
1575
  5
1A2B
331
162E
  5
12F0
331
15B4
  5
11CF
331
1A1A
  5
1A03
331
1669
  5
1546
331
15EF
  5
122C
331
1571
  5
1A27
331
162A
  5
12E5
331
1A16
  5
1A0D
331
1665
  5
14E1
331
15EB
  5
1225
331
15B0
  5
11B6
331
1A12
  5
1A0E
331
1661
  5
14D7
  0
SORTENTSTABLE
  5
E26
102
{ACAD_REACTORS
330
E25
102
}
330
E25
100
AcDbSortentsTable
330
D57
  0
SORTENTSTABLE
  5
1192
102
{ACAD_REACTORS
330
1191
102
}
330
1191
100
AcDbSortentsTable
330
10C4
  0
XRECORD
  5
1A55
102
{ACAD_REACTORS
330
1A53
102
}
330
1A53
100
AcDbXrecord
280
     1
 70
     2
  0
XRECORD
  5
1A54
102
{ACAD_REACTORS
330
1A53
102
}
330
1A53
100
AcDbXrecord
280
     1
 40
1.25
  0
XRECORD
  5
1A56
102
{ACAD_REACTORS
330
1A53
102
}
330
1A53
100
AcDbXrecord
280
     1
 40
1.570796326794896
  0
IMAGEDEF
  5
11B3
102
{ACAD_REACTORS
330
11B2
102
}
330
11B2
100
AcDbRasterImageDef
 90
        0
  1
D:\ima-files\2016年\09\09-15-\CIMG8646.JPG
 10
2048.0
 20
1536.0
 11
0.00048828125
 21
0.00048828125
280
     1
281
     0
  0
LAYOUT
  5
22
102
{ACAD_XDICTIONARY
360
1A57
102
}
102
{ACAD_REACTORS
330
1A
102
}
330
1A
100
AcDbPlotSettings
  1

  2
none_device
  4
ANSI_A_(8.50_x_11.00_Inches)
  6

 40
6.349999904632567
 41
19.04999923706055
 42
6.350006103515625
 43
19.04998779296875
 44
215.8999938964844
 45
279.3999938964844
 46
0.0
 47
0.0
 48
0.0
 49
0.0
140
0.0
141
0.0
142
1.0
143
2.584895464708373
 70
 11952
 72
     0
 73
     1
 74
     0
  7

 75
     0
147
0.3868628397755418
148
0.0
149
0.0
100
AcDbLayout
  1
Model
 70
     1
 71
     0
 10
0.0
 20
0.0
 11
12.0
 21
9.0
 12
0.0
 22
0.0
 32
0.0
 14
0.0
 24
0.0
 34
0.0
 15
0.0
 25
0.0
 35
0.0
146
0.0
 13
0.0
 23
0.0
 33
0.0
 16
1.0
 26
0.0
 36
0.0
 17
0.0
 27
1.0
 37
0.0
 76
     0
330
1F
331
94
  0
LAYOUT
  5
59
102
{ACAD_XDICTIONARY
360
1A59
102
}
102
{ACAD_REACTORS
330
1A
102
}
330
1A
100
AcDbPlotSettings
  1

  2
None
  4

  6

 40
0.0
 41
0.0
 42
0.0
 43
0.0
 44
0.0
 45
0.0
 46
0.0
 47
0.0
 48
0.0
 49
0.0
140
0.0
141
0.0
142
1.0
143
1.0
 70
   688
 72
     0
 73
     0
 74
     5
  7

 75
    16
147
1.0
148
0.0
149
0.0
100
AcDbLayout
  1
レイアウト1
 70
     1
 71
     1
 10
0.0
 20
0.0
 11
12.0
 21
9.0
 12
0.0
 22
0.0
 32
0.0
 14
0.0
 24
0.0
 34
0.0
 15
0.0
 25
0.0
 35
0.0
146
0.0
 13
0.0
 23
0.0
 33
0.0
 16
1.0
 26
0.0
 36
0.0
 17
0.0
 27
1.0
 37
0.0
 76
     0
330
58
  0
LAYOUT
  5
5E
102
{ACAD_XDICTIONARY
360
1A5B
102
}
102
{ACAD_REACTORS
330
1A
102
}
330
1A
100
AcDbPlotSettings
  1

  2
None
  4

  6

 40
0.0
 41
0.0
 42
0.0
 43
0.0
 44
0.0
 45
0.0
 46
0.0
 47
0.0
 48
0.0
 49
0.0
140
0.0
141
0.0
142
1.0
143
1.0
 70
   688
 72
     0
 73
     0
 74
     5
  7

 75
    16
147
1.0
148
0.0
149
0.0
100
AcDbLayout
  1
レイアウト2
 70
     1
 71
     2
 10
0.0
 20
0.0
 11
12.0
 21
9.0
 12
0.0
 22
0.0
 32
0.0
 14
0.0
 24
0.0
 34
0.0
 15
0.0
 25
0.0
 35
0.0
146
0.0
 13
0.0
 23
0.0
 33
0.0
 16
1.0
 26
0.0
 36
0.0
 17
0.0
 27
1.0
 37
0.0
 76
     0
330
5D
  0
MATERIAL
  5
97
102
{ACAD_XDICTIONARY
360
13BD
102
}
102
{ACAD_REACTORS
330
72
102
}
330
72
100
AcDbMaterial
  1
ByBlock
 73
     1
 78
     1
172
     1
176
     1
270
     1
274
     1
  0
MATERIAL
  5
96
102
{ACAD_XDICTIONARY
360
13BB
102
}
102
{ACAD_REACTORS
330
72
102
}
330
72
100
AcDbMaterial
  1
ByLayer
 73
     1
 78
     1
172
     1
176
     1
270
     1
274
     1
  0
MATERIAL
  5
98
102
{ACAD_XDICTIONARY
360
13BF
102
}
102
{ACAD_REACTORS
330
72
102
}
330
72
100
AcDbMaterial
  1
Global
 73
     1
 78
     1
172
     1
176
     1
270
     1
274
     1
  0
MLEADERSTYLE
  5
169
102
{ACAD_REACTORS
330
168
102
}
330
168
100
AcDbMLeaderStyle
170
     2
171
     1
172
     0
 90
        2
 40
0.0
 41
0.0
173
     1
 91
-1056964608
340
14
 92
       -2
290
     1
 42
2.0
291
     1
 43
0.36
  3
Standard
 44
4.0
300

342
11
174
     1
178
     6
175
     1
176
     0
 93
-1056964608
 45
4.0
292
     0
297
     0
 46
4.0
 94
-1056964608
 47
1.0
 49
1.0
140
1.0
293
     1
141
0.0
294
     1
177
     0
142
1.0
295
     0
296
     0
143
0.125
1001
ACAD_MLEADERVER
1070
     2
  0
MLINESTYLE
  5
18
102
{ACAD_REACTORS
330
17
102
}
330
17
100
AcDbMlineStyle
  2
STANDARD
 70
     0
  3

 62
   256
 51
90.0
 52
90.0
 71
     2
 49
0.5
 62
   256
  6
BYLAYER
 49
-0.5
 62
   256
  6
BYLAYER
  0
ACDBPLACEHOLDER
  5
F
102
{ACAD_REACTORS
330
E
102
}
330
E
  0
SCALE
  5
157
102
{ACAD_REACTORS
330
156
102
}
330
156
100
AcDbScale
 70
     0
300
1:1
140
1.0
141
1.0
290
     1
  0
SCALE
  5
158
102
{ACAD_REACTORS
330
156
102
}
330
156
100
AcDbScale
 70
     0
300
1:2
140
1.0
141
2.0
290
     0
  0
SCALE
  5
159
102
{ACAD_REACTORS
330
156
102
}
330
156
100
AcDbScale
 70
     0
300
1:4
140
1.0
141
4.0
290
     0
  0
SCALE
  5
15A
102
{ACAD_REACTORS
330
156
102
}
330
156
100
AcDbScale
 70
     0
300
1:5
140
1.0
141
5.0
290
     0
  0
SCALE
  5
15B
102
{ACAD_REACTORS
330
156
102
}
330
156
100
AcDbScale
 70
     0
300
1:8
140
1.0
141
8.0
290
     0
  0
SCALE
  5
15C
102
{ACAD_REACTORS
330
156
102
}
330
156
100
AcDbScale
 70
     0
300
1:10
140
1.0
141
10.0
290
     0
  0
SCALE
  5
15D
102
{ACAD_REACTORS
330
156
102
}
330
156
100
AcDbScale
 70
     0
300
1:16
140
1.0
141
16.0
290
     0
  0
SCALE
  5
15E
102
{ACAD_REACTORS
330
156
102
}
330
156
100
AcDbScale
 70
     0
300
1:20
140
1.0
141
20.0
290
     0
  0
SCALE
  5
15F
102
{ACAD_REACTORS
330
156
102
}
330
156
100
AcDbScale
 70
     0
300
1:30
140
1.0
141
30.0
290
     0
  0
SCALE
  5
160
102
{ACAD_REACTORS
330
156
102
}
330
156
100
AcDbScale
 70
     0
300
1:40
140
1.0
141
40.0
290
     0
  0
SCALE
  5
161
102
{ACAD_REACTORS
330
156
102
}
330
156
100
AcDbScale
 70
     0
300
1:50
140
1.0
141
50.0
290
     0
  0
SCALE
  5
162
102
{ACAD_REACTORS
330
156
102
}
330
156
100
AcDbScale
 70
     0
300
1:100
140
1.0
141
100.0
290
     0
  0
SCALE
  5
163
102
{ACAD_REACTORS
330
156
102
}
330
156
100
AcDbScale
 70
     0
300
2:1
140
2.0
141
1.0
290
     0
  0
SCALE
  5
164
102
{ACAD_REACTORS
330
156
102
}
330
156
100
AcDbScale
 70
     0
300
4:1
140
4.0
141
1.0
290
     0
  0
SCALE
  5
165
102
{ACAD_REACTORS
330
156
102
}
330
156
100
AcDbScale
 70
     0
300
8:1
140
8.0
141
1.0
290
     0
  0
SCALE
  5
166
102
{ACAD_REACTORS
330
156
102
}
330
156
100
AcDbScale
 70
     0
300
10:1
140
10.0
141
1.0
290
     0
  0
SCALE
  5
167
102
{ACAD_REACTORS
330
156
102
}
330
156
100
AcDbScale
 70
     0
300
100:1
140
100.0
141
1.0
290
     0
  0
TABLESTYLE
  5
87
102
{ACAD_XDICTIONARY
360
13AB
102
}
102
{ACAD_REACTORS
330
86
102
}
330
86
100
AcDbTableStyle
  3
Standard
 70
     0
 71
     0
 40
0.06
 41
0.06
280
     0
281
     0
  7
Standard
140
0.18
170
     2
 62
     0
 63
     7
283
     0
274
    -2
284
     1
 64
     0
275
    -2
285
     1
 65
     0
276
    -2
286
     1
 66
     0
277
    -2
287
     1
 67
     0
278
    -2
288
     1
 68
     0
279
    -2
289
     1
 69
     0
  7
Standard
140
0.25
170
     5
 62
     0
 63
     7
283
     0
274
    -2
284
     1
 64
     0
275
    -2
285
     1
 65
     0
276
    -2
286
     1
 66
     0
277
    -2
287
     1
 67
     0
278
    -2
288
     1
 68
     0
279
    -2
289
     1
 69
     0
  7
Standard
140
0.18
170
     5
 62
     0
 63
     7
283
     0
274
    -2
284
     1
 64
     0
275
    -2
285
     1
 65
     0
276
    -2
286
     1
 66
     0
277
    -2
287
     1
 67
     0
278
    -2
288
     1
 68
     0
279
    -2
289
     1
 69
     0
  0
TABLESTYLE
  5
C45
102
{ACAD_XDICTIONARY
360
C46
102
}
102
{ACAD_REACTORS
330
86
102
}
330
86
100
AcDbTableStyle
  3
Standard
 70
     1
 71
     0
 40
1.5
 41
0.5
280
     0
281
     0
  7
高3.2
140
0.18
170
     7
 62
     3
 63
     7
283
     0
274
    -2
284
     1
 64
     3
275
    -2
285
     1
 65
     7
276
    -2
286
     1
 66
     3
277
    -2
287
     1
 67
     3
278
    -2
288
     1
 68
     7
279
    -2
289
     1
 69
     3
  7
高3.2
140
0.25
170
     8
 62
     3
 63
     7
283
     0
274
    -2
284
     1
 64
     0
275
    -2
285
     1
 65
     0
276
    -2
286
     1
 66
     0
277
    -2
287
     1
 67
     0
278
    -2
288
     1
 68
     0
279
    -2
289
     1
 69
     0
  7
高3.2
140
0.18
170
     7
 62
     3
 63
     7
283
     0
274
    -2
284
     1
 64
     3
275
    -2
285
     1
 65
     7
276
    -2
286
     1
 66
     3
277
    -2
287
     1
 67
     3
278
    -2
288
     1
 68
     7
279
    -2
289
     1
 69
     3
  0
VISUALSTYLE
  5
9F
102
{ACAD_XDICTIONARY
360
1A68
102
}
102
{ACAD_REACTORS
330
99
102
}
330
99
100
AcDbVisualStyle
  2

 70
     4
 71
     0
 72
     2
 73
     1
 90
        0
 40
-0.6
 41
-30.0
 62
     5
 63
     7
 74
     1
 91
        4
 64
     7
 65
   257
 75
     1
175
     1
 42
1.0
 92
        0
 66
   257
 43
1.0
 76
     1
 77
     6
 78
     2
 67
     7
 79
     5
170
     0
171
     0
290
     0
174
     0
 93
        1
 44
0.0
173
     0
291
     0
 45
0.0
1001
ACAD
1000
AcDbSavedByObjectVersion
1070
     0
  0
VISUALSTYLE
  5
A1
102
{ACAD_XDICTIONARY
360
1A6C
102
}
102
{ACAD_REACTORS
330
99
102
}
330
99
100
AcDbVisualStyle
  2

 70
     6
 71
     1
 72
     2
 73
     2
 90
        0
 40
-0.6
 41
-30.0
 62
     5
 63
     7
 74
     2
 91
        2
 64
     7
 65
   257
 75
     2
175
     1
 42
40.0
 92
        0
 66
   257
 43
1.0
 76
     1
 77
     6
 78
     2
 67
     7
 79
     3
170
     0
171
     0
290
     0
174
     0
 93
        1
 44
0.0
173
     0
291
     0
 45
0.0
1001
ACAD
1000
AcDbSavedByObjectVersion
1070
     0
  0
VISUALSTYLE
  5
A0
102
{ACAD_XDICTIONARY
360
1A6A
102
}
102
{ACAD_REACTORS
330
99
102
}
330
99
100
AcDbVisualStyle
  2

 70
     5
 71
     0
 72
     2
 73
     1
 90
        0
 40
-0.6
 41
-30.0
 62
     5
 63
     7
 74
     1
 91
        4
 64
     7
 65
   257
 75
     1
175
     1
 42
1.0
 92
        0
 66
   257
 43
1.0
 76
     1
 77
     6
 78
     2
 67
     7
 79
     5
170
     0
171
     0
290
     0
174
     0
 93
        1
 44
0.0
173
     0
291
     0
 45
0.0
1001
ACAD
1000
AcDbSavedByObjectVersion
1070
     0
  0
VISUALSTYLE
  5
9E
102
{ACAD_XDICTIONARY
360
1A66
102
}
102
{ACAD_REACTORS
330
99
102
}
330
99
100
AcDbVisualStyle
  2

 70
     7
 71
     1
 72
     0
 73
     1
 90
        0
 40
-0.6
 41
-30.0
 62
     5
 63
     7
 74
     0
 91
        4
 64
     7
 65
   257
 75
     1
175
     1
 42
1.0
 92
        8
 66
     7
 43
1.0
 76
     1
 77
     6
 78
     2
 67
     7
 79
     5
170
     0
171
     0
290
     0
174
     0
 93
        1
 44
0.0
173
     0
291
     1
 45
0.0
1001
ACAD
1000
AcDbSavedByObjectVersion
1070
     0
  0
VISUALSTYLE
  5
A5
102
{ACAD_XDICTIONARY
360
1A74
102
}
102
{ACAD_REACTORS
330
99
102
}
330
99
100
AcDbVisualStyle
  2

 70
    12
 71
     2
 72
     2
 73
     1
 90
        0
 40
-0.6
 41
-30.0
 62
     5
 63
     7
 74
     1
 91
        4
 64
     7
 65
   257
 75
     1
175
     1
 42
1.0
 92
        8
 66
     7
 43
1.0
 76
     1
 77
     6
 78
     2
 67
     7
 79
     5
170
     0
171
     0
290
     0
174
     0
 93
        1
 44
50.0
173
     0
291
     1
 45
0.0
1001
ACAD
1000
AcDbSavedByObjectVersion
1070
     0
  0
VISUALSTYLE
  5
A9
102
{ACAD_XDICTIONARY
360
1A7C
102
}
102
{ACAD_REACTORS
330
99
102
}
330
99
100
AcDbVisualStyle
  2

 70
    16
 71
     2
 72
     2
 73
     3
 90
        0
 40
-0.6
 41
-30.0
 62
     5
 63
     8
 74
     1
 91
        4
 64
     7
 65
   257
 75
     1
175
     1
 42
1.0
 92
        8
 66
     8
 43
1.0
 76
     1
 77
     6
 78
     2
 67
     7
 79
     5
170
     0
171
     0
290
     0
174
     0
 93
        1
 44
0.0
173
     0
291
     1
 45
0.0
1001
ACAD
1000
AcDbSavedByObjectVersion
1070
     0
  0
VISUALSTYLE
  5
A2
102
{ACAD_XDICTIONARY
360
1A6E
102
}
102
{ACAD_REACTORS
330
99
102
}
330
99
100
AcDbVisualStyle
  2

 70
     9
 71
     3
 72
     2
 73
     1
 90
        0
 40
-0.6
 41
-30.0
 62
     5
 63
     7
 74
     2
 91
        2
 64
     7
 65
   257
 75
     1
175
     1
 42
40.0
 92
        8
 66
     7
 43
1.0
 76
     1
 77
     6
 78
     2
 67
     7
 79
     3
170
     0
171
     0
290
     0
174
     0
 93
        1
 44
0.0
173
     0
291
     0
 45
0.0
1001
ACAD
1000
AcDbSavedByObjectVersion
1070
     0
  0
VISUALSTYLE
  5
A4
102
{ACAD_XDICTIONARY
360
1A72
102
}
102
{ACAD_REACTORS
330
99
102
}
330
99
100
AcDbVisualStyle
  2

 70
    11
 71
     2
 72
     2
 73
     1
 90
        0
 40
-0.6
 41
-30.0
 62
     5
 63
     7
 74
     1
 91
        4
 64
     7
 65
   257
 75
     1
175
     1
 42
1.0
 92
        8
 66
     7
 43
1.0
 76
     1
 77
     6
 78
     2
 67
     7
 79
     5
170
     0
171
     0
290
     0
174
     0
 93
        1
 44
-50.0
173
     0
291
     1
 45
0.0
1001
ACAD
1000
AcDbSavedByObjectVersion
1070
     0
  0
VISUALSTYLE
  5
155
102
{ACAD_XDICTIONARY
360
1A90
102
}
102
{ACAD_REACTORS
330
99
102
}
330
99
100
AcDbVisualStyle
  2

 70
    22
 71
     2
 72
     2
 73
     0
 90
        0
 40
-0.6
 41
-30.0
 62
     5
 63
     7
 74
     1
 91
        4
 64
     7
 65
   257
 75
     1
175
     1
 42
1.0
 92
        8
 66
     7
 43
1.0
 76
     1
 77
     6
 78
     2
 67
     7
 79
     5
170
     0
171
     0
290
     0
174
     0
 93
        1
 44
0.0
173
     0
291
     1
 45
0.0
1001
ACAD
1000
AcDbSavedByObjectVersion
1070
     0
  0
VISUALSTYLE
  5
A8
102
{ACAD_XDICTIONARY
360
1A7A
102
}
102
{ACAD_REACTORS
330
99
102
}
330
99
100
AcDbVisualStyle
  2

 70
    15
 71
     2
 72
     2
 73
     1
 90
        0
 40
-0.6
 41
-30.0
 62
     5
 63
     7
 74
     1
 91
        4
 64
     7
 65
   257
 75
     1
175
     1
 42
1.0
 92
        8
 66
     7
 43
1.0
 76
     1
 77
     6
 78
     2
 67
     7
 79
     5
170
     0
171
     0
290
     0
174
     0
 93
        1
 44
0.0
173
     0
291
     1
 45
0.0
1001
ACAD
1000
AcDbSavedByObjectVersion
1070
     0
  0
VISUALSTYLE
  5
9A
102
{ACAD_XDICTIONARY
360
1A5E
102
}
102
{ACAD_REACTORS
330
99
102
}
330
99
100
AcDbVisualStyle
  2

 70
     0
 71
     2
 72
     1
 73
     1
 90
        2
 40
-0.6
 41
30.0
 62
     5
 63
     7
 74
     0
 91
        4
 64
     7
 65
   257
 75
     1
175
     1
 42
1.0
 92
        8
 66
     7
 43
1.0
 76
     1
 77
     6
 78
     2
 67
     7
 79
     5
170
     0
171
     0
290
     0
174
     0
 93
        1
 44
0.0
173
     0
291
     1
 45
0.0
1001
ACAD
1000
AcDbSavedByObjectVersion
1070
     0
  0
VISUALSTYLE
  5
9B
102
{ACAD_XDICTIONARY
360
1A60
102
}
102
{ACAD_REACTORS
330
99
102
}
330
99
100
AcDbVisualStyle
  2

 70
     1
 71
     2
 72
     1
 73
     1
 90
        2
 40
-0.6
 41
30.0
 62
     5
 63
     7
 74
     1
 91
        4
 64
     7
 65
   257
 75
     1
175
     1
 42
1.0
 92
        0
 66
   257
 43
1.0
 76
     1
 77
     6
 78
     2
 67
     7
 79
     5
170
     0
171
     0
290
     0
174
     0
 93
        1
 44
0.0
173
     0
291
     1
 45
0.0
1001
ACAD
1000
AcDbSavedByObjectVersion
1070
     0
  0
VISUALSTYLE
  5
9C
102
{ACAD_XDICTIONARY
360
1A62
102
}
102
{ACAD_REACTORS
330
99
102
}
330
99
100
AcDbVisualStyle
  2

 70
     2
 71
     2
 72
     2
 73
     1
 90
        2
 40
-0.6
 41
30.0
 62
     5
 63
     7
 74
     0
 91
        4
 64
     7
 65
   257
 75
     1
175
     1
 42
1.0
 92
        0
 66
     7
 43
1.0
 76
     1
 77
     6
 78
     2
 67
     7
 79
     5
170
     0
171
     0
290
     0
174
     0
 93
        1
 44
0.0
173
     0
291
     1
 45
0.0
1001
ACAD
1000
AcDbSavedByObjectVersion
1070
     0
  0
VISUALSTYLE
  5
9D
102
{ACAD_XDICTIONARY
360
1A64
102
}
102
{ACAD_REACTORS
330
99
102
}
330
99
100
AcDbVisualStyle
  2

 70
     3
 71
     2
 72
     2
 73
     1
 90
        2
 40
-0.6
 41
30.0
 62
     5
 63
     7
 74
     1
 91
        4
 64
     7
 65
   257
 75
     1
175
     1
 42
1.0
 92
        0
 66
   257
 43
1.0
 76
     1
 77
     6
 78
     2
 67
     7
 79
     5
170
     0
171
     0
290
     0
174
     0
 93
        1
 44
0.0
173
     0
291
     1
 45
0.0
1001
ACAD
1000
AcDbSavedByObjectVersion
1070
     0
  0
VISUALSTYLE
  5
14D
102
{ACAD_XDICTIONARY
360
1A80
102
}
102
{ACAD_REACTORS
330
99
102
}
330
99
100
AcDbVisualStyle
  2

 70
     6
 71
     1
 72
     2
 73
     2
 90
        0
 40
-0.6
 41
-30.0
 62
     5
 63
     7
 74
     2
 91
        2
 64
     7
 65
   257
 75
     2
175
     1
 42
40.0
 92
        0
 66
   257
 43
1.0
 76
     1
 77
     6
 78
     2
 67
     7
 79
     3
170
     0
171
     0
290
     0
174
     0
 93
        1
 44
0.0
173
     0
291
     0
 45
0.0
1001
ACAD
1000
AcDbSavedByObjectVersion
1070
     0
  0
VISUALSTYLE
  5
153
102
{ACAD_XDICTIONARY
360
1A8C
102
}
102
{ACAD_REACTORS
330
99
102
}
330
99
100
AcDbVisualStyle
  2

 70
    20
 71
     2
 72
     2
 73
     0
 90
        0
 40
-0.6
 41
-30.0
 62
     5
 63
     7
 74
     1
 91
        4
 64
     7
 65
   257
 75
     1
175
     1
 42
1.0
 92
       10
 66
     7
 43
1.0
 76
     1
 77
     6
 78
     2
 67
     7
 79
     5
170
     0
171
     0
290
     0
174
     0
 93
        1
 44
0.0
173
     0
291
     1
 45
0.0
1001
ACAD
1000
AcDbSavedByObjectVersion
1070
     0
  0
VISUALSTYLE
  5
A7
102
{ACAD_XDICTIONARY
360
1A78
102
}
102
{ACAD_REACTORS
330
99
102
}
330
99
100
AcDbVisualStyle
  2

 70
    14
 71
     2
 72
     2
 73
     1
 90
        0
 40
-0.6
 41
-30.0
 62
     5
 63
     7
 74
     1
 91
        4
 64
     7
 65
   257
 75
     7
175
     7
 42
1.0
 92
        8
 66
     7
 43
1.0
 76
     1
 77
     6
 78
     2
 67
     7
 79
     5
170
     0
171
     0
290
     0
174
     0
 93
        1
 44
0.0
173
     0
291
     1
 45
0.0
1001
ACAD
1000
AcDbSavedByObjectVersion
1070
     0
  0
VISUALSTYLE
  5
154
102
{ACAD_XDICTIONARY
360
1A8E
102
}
102
{ACAD_REACTORS
330
99
102
}
330
99
100
AcDbVisualStyle
  2

 70
    21
 71
     2
 72
     2
 73
     0
 90
        0
 40
-0.6
 41
-30.0
 62
     5
 63
     7
 74
     1
 91
        4
 64
     7
 65
   257
 75
     1
175
     1
 42
1.0
 92
        9
 66
     7
 43
1.0
 76
     1
 77
     6
 78
     2
 67
     7
 79
     5
170
     0
171
     0
290
     0
174
     0
 93
        1
 44
0.0
173
     0
291
     1
 45
0.0
1001
ACAD
1000
AcDbSavedByObjectVersion
1070
     0
  0
VISUALSTYLE
  5
A3
102
{ACAD_XDICTIONARY
360
1A70
102
}
102
{ACAD_REACTORS
330
99
102
}
330
99
100
AcDbVisualStyle
  2

 70
     8
 71
     2
 72
     2
 73
     1
 90
        0
 40
-0.6
 41
-30.0
 62
     5
 63
     7
 74
     1
 91
        0
 64
     7
 65
   257
 75
     1
175
     1
 42
1.0
 92
        8
 66
     8
 43
1.0
 76
     1
 77
     6
 78
     2
 67
     7
 79
     5
170
     0
171
     0
290
     0
174
     0
 93
       13
 44
0.0
173
     0
291
     0
 45
0.0
1001
ACAD
1000
AcDbSavedByObjectVersion
1070
     0
  0
VISUALSTYLE
  5
152
102
{ACAD_XDICTIONARY
360
1A8A
102
}
102
{ACAD_REACTORS
330
99
102
}
330
99
100
AcDbVisualStyle
  2

 70
    27
 71
     2
 72
     2
 73
     1
 90
        2
 40
-0.6
 41
30.0
 62
     5
 63
     7
 74
     0
 91
        4
 64
     7
 65
   257
 75
     1
175
     1
 42
1.0
 92
        8
 66
   257
 43
1.0
 76
     1
 77
     6
 78
     2
 67
     8
 79
     3
170
     0
171
     0
290
     0
174
     0
 93
        5
 44
0.0
173
     0
291
     0
 45
0.0
1001
ACAD
1000
AcDbSavedByObjectVersion
1070
     0
  0
VISUALSTYLE
  5
151
102
{ACAD_XDICTIONARY
360
1A88
102
}
102
{ACAD_REACTORS
330
99
102
}
330
99
100
AcDbVisualStyle
  2

 70
    26
 71
     2
 72
     2
 73
     1
 90
        2
 40
-0.6
 41
30.0
 62
     5
 63
     7
 74
     1
 91
       10
 64
     7
 65
   257
 75
     2
175
     1
 42
1.0
 92
        8
 66
   257
 43
1.0
 76
     1
 77
     6
 78
     2
 67
     7
 79
     3
170
     0
171
     0
290
     0
174
     0
 93
        5
 44
0.0
173
     0
291
     0
 45
0.0
1001
ACAD
1000
AcDbSavedByObjectVersion
1070
     0
  0
VISUALSTYLE
  5
14E
102
{ACAD_XDICTIONARY
360
1A82
102
}
102
{ACAD_REACTORS
330
99
102
}
330
99
100
AcDbVisualStyle
  2

 70
    23
 71
     2
 72
     2
 73
     3
 90
        0
 40
-0.6
 41
-30.0
 62
     5
 63
     7
 74
     2
 91
        2
 64
     7
 65
     7
 75
     1
175
     1
 42
40.0
 92
        8
 66
     7
 43
1.0
 76
     1
 77
     6
 78
     2
 67
     7
 79
     3
170
     0
171
     0
290
     0
174
     0
 93
        1
 44
0.0
173
     0
291
     0
 45
0.0
1001
ACAD
1000
AcDbSavedByObjectVersion
1070
     0
  0
VISUALSTYLE
  5
14F
102
{ACAD_XDICTIONARY
360
1A84
102
}
102
{ACAD_REACTORS
330
99
102
}
330
99
100
AcDbVisualStyle
  2

 70
    24
 71
     1
 72
     2
 73
     2
 90
        0
 40
-0.6
 41
-30.0
 62
     5
 63
     7
 74
     2
 91
        2
 64
     7
 65
     7
 75
     1
175
     1
 42
40.0
 92
       11
 66
     7
 43
1.0
 76
     1
 77
     6
 78
     2
 67
     7
 79
     6
170
     0
171
     0
290
     0
174
     0
 93
        1
 44
0.0
173
     0
291
     0
 45
0.0
1001
ACAD
1000
AcDbSavedByObjectVersion
1070
     0
  0
VISUALSTYLE
  5
A6
102
{ACAD_XDICTIONARY
360
1A76
102
}
102
{ACAD_REACTORS
330
99
102
}
330
99
100
AcDbVisualStyle
  2

 70
    13
 71
     2
 72
     2
 73
     1
 90
        0
 40
-0.6
 41
-30.0
 62
     5
 63
     7
 74
     1
 91
        4
 64
     7
 65
   257
 75
     1
175
     1
 42
1.0
 92
       12
 66
     7
 43
1.0
 76
     1
 77
     6
 78
     2
 67
     7
 79
     5
170
     0
171
     0
290
     0
174
     0
 93
        1
 44
0.0
173
     0
291
     1
 45
0.0
1001
ACAD
1000
AcDbSavedByObjectVersion
1070
     0
  0
VISUALSTYLE
  5
14C
102
{ACAD_XDICTIONARY
360
1A7E
102
}
102
{ACAD_REACTORS
330
99
102
}
330
99
100
AcDbVisualStyle
  2

 70
     5
 71
     0
 72
     2
 73
     0
 90
        0
 40
-0.6
 41
-30.0
 62
     5
 63
     7
 74
     1
 91
        4
 64
     7
 65
   257
 75
     1
175
     1
 42
1.0
 92
        0
 66
   257
 43
1.0
 76
     1
 77
     6
 78
     2
 67
     7
 79
     3
170
     0
171
     0
290
     0
174
     0
 93
        1
 44
0.0
173
     0
291
     0
 45
0.0
1001
ACAD
1000
AcDbSavedByObjectVersion
1070
     0
  0
VISUALSTYLE
  5
150
102
{ACAD_XDICTIONARY
360
1A86
102
}
102
{ACAD_REACTORS
330
99
102
}
330
99
100
AcDbVisualStyle
  2

 70
    25
 71
     2
 72
     2
 73
     1
 90
        1
 40
0.5
 41
-30.0
 62
     5
 63
     7
 74
     1
 91
        0
 64
     7
 65
   257
 75
     1
175
     1
 42
1.0
 92
        8
 66
     7
 43
1.0
 76
     1
 77
     6
 78
     2
 67
     7
 79
     3
170
     0
171
     0
290
     0
174
     0
 93
       13
 44
0.0
173
     0
291
     0
 45
0.0
1001
ACAD
1000
AcDbSavedByObjectVersion
1070
     0
  0
DICTIONARYVAR
  5
24A
102
{ACAD_REACTORS
330
66
102
}
330
66
100
DictionaryVariables
280
     0
  1
1:1
  0
DICTIONARYVAR
  5
248
102
{ACAD_REACTORS
330
66
102
}
330
66
100
DictionaryVariables
280
     0
  1
STANDARD
  0
DICTIONARYVAR
  5
89
102
{ACAD_REACTORS
330
66
102
}
330
66
100
DictionaryVariables
280
     0
  1
STANDARD
  0
DICTIONARYVAR
  5
67
102
{ACAD_REACTORS
330
66
102
}
330
66
100
DictionaryVariables
280
     0
  1
2
  0
DICTIONARYVAR
  5
6B
102
{ACAD_REACTORS
330
66
102
}
330
66
100
DictionaryVariables
280
     0
  1
1
  0
DICTIONARYVAR
  5
135A
102
{ACAD_REACTORS
330
66
102
}
330
66
100
DictionaryVariables
280
     0
  1
0
  0
DICTIONARYVAR
  5
24C
102
{ACAD_REACTORS
330
66
102
}
330
66
100
DictionaryVariables
280
     0
  1
1
  0
DICTIONARYVAR
  5
24D
102
{ACAD_REACTORS
330
66
102
}
330
66
100
DictionaryVariables
280
     0
  1
15
  0
DICTIONARYVAR
  5
24B
102
{ACAD_REACTORS
330
66
102
}
330
66
100
DictionaryVariables
280
     0
  1
0
  0
DICTIONARYVAR
  5
249
102
{ACAD_REACTORS
330
66
102
}
330
66
100
DictionaryVariables
280
     0
  1
0
  0
DICTIONARYVAR
  5
1359
102
{ACAD_REACTORS
330
66
102
}
330
66
100
DictionaryVariables
280
     0
  1
127
  0
DICTIONARYVAR
  5
1960
102
{ACAD_REACTORS
330
66
102
}
330
66
100
DictionaryVariables
280
     0
  1
2
  0
DICTIONARY
  5
1A57
330
22
100
AcDbDictionary
280
     1
281
     1
  3
ACAD_XREC_ROUNDTRIP
360
1A58
  0
DICTIONARY
  5
1A59
330
59
100
AcDbDictionary
280
     1
281
     1
  3
ACAD_XREC_ROUNDTRIP
360
1A5A
  0
DICTIONARY
  5
1A5B
330
5E
100
AcDbDictionary
280
     1
281
     1
  3
ACAD_XREC_ROUNDTRIP
360
1A5C
  0
DICTIONARY
  5
13BD
330
97
100
AcDbDictionary
280
     1
281
     1
  3
ACAD_XREC_ROUNDTRIP
360
13BE
  0
DICTIONARY
  5
13BB
330
96
100
AcDbDictionary
280
     1
281
     1
  3
ACAD_XREC_ROUNDTRIP
360
13BC
  0
DICTIONARY
  5
13BF
330
98
100
AcDbDictionary
280
     1
281
     1
  3
ACAD_XREC_ROUNDTRIP
360
13C0
  0
DICTIONARY
  5
13AB
330
87
100
AcDbDictionary
280
     1
281
     1
  3
ACAD_ROUNDTRIP_2008_TABLESTYLE_CELLSTYLEMAP
360
1A4F
  3
ACAD_XREC_ROUNDTRIP
360
1A5D
  0
DICTIONARY
  5
C46
330
C45
100
AcDbDictionary
280
     1
281
     1
  3
ACAD_ROUNDTRIP_2008_TABLESTYLE_CELLSTYLEMAP
360
1A50
  3
ACAD_XREC_ROUNDTRIP
360
1A92
  0
DICTIONARY
  5
1A68
330
9F
100
AcDbDictionary
280
     1
281
     1
  3
ACAD_XREC_ROUNDTRIP
360
1A69
  0
DICTIONARY
  5
1A6C
330
A1
100
AcDbDictionary
280
     1
281
     1
  3
ACAD_XREC_ROUNDTRIP
360
1A6D
  0
DICTIONARY
  5
1A6A
330
A0
100
AcDbDictionary
280
     1
281
     1
  3
ACAD_XREC_ROUNDTRIP
360
1A6B
  0
DICTIONARY
  5
1A66
330
9E
100
AcDbDictionary
280
     1
281
     1
  3
ACAD_XREC_ROUNDTRIP
360
1A67
  0
DICTIONARY
  5
1A74
330
A5
100
AcDbDictionary
280
     1
281
     1
  3
ACAD_XREC_ROUNDTRIP
360
1A75
  0
DICTIONARY
  5
1A7C
330
A9
100
AcDbDictionary
280
     1
281
     1
  3
ACAD_XREC_ROUNDTRIP
360
1A7D
  0
DICTIONARY
  5
1A6E
330
A2
100
AcDbDictionary
280
     1
281
     1
  3
ACAD_XREC_ROUNDTRIP
360
1A6F
  0
DICTIONARY
  5
1A72
330
A4
100
AcDbDictionary
280
     1
281
     1
  3
ACAD_XREC_ROUNDTRIP
360
1A73
  0
DICTIONARY
  5
1A90
330
155
100
AcDbDictionary
280
     1
281
     1
  3
ACAD_XREC_ROUNDTRIP
360
1A91
  0
DICTIONARY
  5
1A7A
330
A8
100
AcDbDictionary
280
     1
281
     1
  3
ACAD_XREC_ROUNDTRIP
360
1A7B
  0
DICTIONARY
  5
1A5E
330
9A
100
AcDbDictionary
280
     1
281
     1
  3
ACAD_XREC_ROUNDTRIP
360
1A5F
  0
DICTIONARY
  5
1A60
330
9B
100
AcDbDictionary
280
     1
281
     1
  3
ACAD_XREC_ROUNDTRIP
360
1A61
  0
DICTIONARY
  5
1A62
330
9C
100
AcDbDictionary
280
     1
281
     1
  3
ACAD_XREC_ROUNDTRIP
360
1A63
  0
DICTIONARY
  5
1A64
330
9D
100
AcDbDictionary
280
     1
281
     1
  3
ACAD_XREC_ROUNDTRIP
360
1A65
  0
DICTIONARY
  5
1A80
330
14D
100
AcDbDictionary
280
     1
281
     1
  3
ACAD_XREC_ROUNDTRIP
360
1A81
  0
DICTIONARY
  5
1A8C
330
153
100
AcDbDictionary
280
     1
281
     1
  3
ACAD_XREC_ROUNDTRIP
360
1A8D
  0
DICTIONARY
  5
1A78
330
A7
100
AcDbDictionary
280
     1
281
     1
  3
ACAD_XREC_ROUNDTRIP
360
1A79
  0
DICTIONARY
  5
1A8E
330
154
100
AcDbDictionary
280
     1
281
     1
  3
ACAD_XREC_ROUNDTRIP
360
1A8F
  0
DICTIONARY
  5
1A70
330
A3
100
AcDbDictionary
280
     1
281
     1
  3
ACAD_XREC_ROUNDTRIP
360
1A71
  0
DICTIONARY
  5
1A8A
330
152
100
AcDbDictionary
280
     1
281
     1
  3
ACAD_XREC_ROUNDTRIP
360
1A8B
  0
DICTIONARY
  5
1A88
330
151
100
AcDbDictionary
280
     1
281
     1
  3
ACAD_XREC_ROUNDTRIP
360
1A89
  0
DICTIONARY
  5
1A82
330
14E
100
AcDbDictionary
280
     1
281
     1
  3
ACAD_XREC_ROUNDTRIP
360
1A83
  0
DICTIONARY
  5
1A84
330
14F
100
AcDbDictionary
280
     1
281
     1
  3
ACAD_XREC_ROUNDTRIP
360
1A85
  0
DICTIONARY
  5
1A76
330
A6
100
AcDbDictionary
280
     1
281
     1
  3
ACAD_XREC_ROUNDTRIP
360
1A77
  0
DICTIONARY
  5
1A7E
330
14C
100
AcDbDictionary
280
     1
281
     1
  3
ACAD_XREC_ROUNDTRIP
360
1A7F
  0
DICTIONARY
  5
1A86
330
150
100
AcDbDictionary
280
     1
281
     1
  3
ACAD_XREC_ROUNDTRIP
360
1A87
  0
XRECORD
  5
1A58
102
{ACAD_REACTORS
330
1A57
102
}
330
1A57
100
AcDbXrecord
280
     1
102
SHADEPLOT
 70
     0
102
SHADEPLOTRESLEVEL
 70
     2
102
SHADEPLOTCUSTOMDPI
 70
   300
  0
XRECORD
  5
1A5A
102
{ACAD_REACTORS
330
1A59
102
}
330
1A59
100
AcDbXrecord
280
     1
102
SHADEPLOT
 70
     0
102
SHADEPLOTRESLEVEL
 70
     2
102
SHADEPLOTCUSTOMDPI
 70
   300
  0
XRECORD
  5
1A5C
102
{ACAD_REACTORS
330
1A5B
102
}
330
1A5B
100
AcDbXrecord
280
     1
102
SHADEPLOT
 70
     0
102
SHADEPLOTRESLEVEL
 70
     2
102
SHADEPLOTCUSTOMDPI
 70
   300
  0
XRECORD
  5
13BE
102
{ACAD_REACTORS
330
13BD
102
}
330
13BD
100
AcDbXrecord
280
     1
102
MATERIAL
148
0.0
149
0.0
149
0.0
 93
        0
 94
      127
282
     0
 72
     1
 77
     1
171
     1
175
     1
179
     1
273
     0
  0
XRECORD
  5
13BC
102
{ACAD_REACTORS
330
13BB
102
}
330
13BB
100
AcDbXrecord
280
     1
102
MATERIAL
148
0.0
149
0.0
149
0.0
 93
        0
 94
      127
282
     0
 72
     1
 77
     1
171
     1
175
     1
179
     1
273
     0
  0
XRECORD
  5
13C0
102
{ACAD_REACTORS
330
13BF
102
}
330
13BF
100
AcDbXrecord
280
     1
102
MATERIAL
148
0.0
149
0.0
149
0.0
 93
        0
 94
      127
282
     0
 72
     1
 77
     1
171
     1
175
     1
179
     1
273
     0
  0
CELLSTYLEMAP
  5
1A4F
102
{ACAD_REACTORS
330
13AB
102
}
330
13AB
100
AcDbCellStyleMap
 90
        3
300
CELLSTYLE
  1
TABLEFORMAT_BEGIN
 90
        5
170
     1
 91
        0
 92
    32768
 62
   257
 93
        1
300
CONTENTFORMAT
  1
CONTENTFORMAT_BEGIN
 90
        0
 91
        0
 92
      512
 93
        0
300

 40
0.0
140
1.0
 94
        5
 62
     0
340
11
144
0.25
309
CONTENTFORMAT_END
171
     1
301
MARGIN
  1
CELLMARGIN_BEGIN
 40
0.06
 40
0.06
 40
0.06
 40
0.06
 40
0.18
 40
0.18
309
CELLMARGIN_END
 94
        6
 95
        1
302
GRIDFORMAT
  1
GRIDFORMAT_BEGIN
 90
        0
 91
        1
 62
     0
 92
       -2
340
0
 93
        0
 40
0.045
309
GRIDFORMAT_END
 95
        2
302
GRIDFORMAT
  1
GRIDFORMAT_BEGIN
 90
        0
 91
        1
 62
     0
 92
       -2
340
0
 93
        0
 40
0.045
309
GRIDFORMAT_END
 95
        4
302
GRIDFORMAT
  1
GRIDFORMAT_BEGIN
 90
        0
 91
        1
 62
     0
 92
       -2
340
0
 93
        0
 40
0.045
309
GRIDFORMAT_END
 95
        8
302
GRIDFORMAT
  1
GRIDFORMAT_BEGIN
 90
        0
 91
        1
 62
     0
 92
       -2
340
0
 93
        0
 40
0.045
309
GRIDFORMAT_END
 95
       16
302
GRIDFORMAT
  1
GRIDFORMAT_BEGIN
 90
        0
 91
        1
 62
     0
 92
       -2
340
0
 93
        0
 40
0.045
309
GRIDFORMAT_END
 95
       32
302
GRIDFORMAT
  1
GRIDFORMAT_BEGIN
 90
        0
 91
        1
 62
     0
 92
       -2
340
0
 93
        0
 40
0.045
309
GRIDFORMAT_END
309
TABLEFORMAT_END
  1
CELLSTYLE_BEGIN
 90
        1
 91
        1
300
_TITLE
309
CELLSTYLE_END
300
CELLSTYLE
  1
TABLEFORMAT_BEGIN
 90
        5
170
     1
 91
        0
 92
        0
 62
   257
 93
        1
300
CONTENTFORMAT
  1
CONTENTFORMAT_BEGIN
 90
        0
 91
        0
 92
      512
 93
        0
300

 40
0.0
140
1.0
 94
        5
 62
     0
340
11
144
0.18
309
CONTENTFORMAT_END
171
     1
301
MARGIN
  1
CELLMARGIN_BEGIN
 40
0.06
 40
0.06
 40
0.06
 40
0.06
 40
0.18
 40
0.18
309
CELLMARGIN_END
 94
        6
 95
        1
302
GRIDFORMAT
  1
GRIDFORMAT_BEGIN
 90
        0
 91
        1
 62
     0
 92
       -2
340
0
 93
        0
 40
0.045
309
GRIDFORMAT_END
 95
        2
302
GRIDFORMAT
  1
GRIDFORMAT_BEGIN
 90
        0
 91
        1
 62
     0
 92
       -2
340
0
 93
        0
 40
0.045
309
GRIDFORMAT_END
 95
        4
302
GRIDFORMAT
  1
GRIDFORMAT_BEGIN
 90
        0
 91
        1
 62
     0
 92
       -2
340
0
 93
        0
 40
0.045
309
GRIDFORMAT_END
 95
        8
302
GRIDFORMAT
  1
GRIDFORMAT_BEGIN
 90
        0
 91
        1
 62
     0
 92
       -2
340
0
 93
        0
 40
0.045
309
GRIDFORMAT_END
 95
       16
302
GRIDFORMAT
  1
GRIDFORMAT_BEGIN
 90
        0
 91
        1
 62
     0
 92
       -2
340
0
 93
        0
 40
0.045
309
GRIDFORMAT_END
 95
       32
302
GRIDFORMAT
  1
GRIDFORMAT_BEGIN
 90
        0
 91
        1
 62
     0
 92
       -2
340
0
 93
        0
 40
0.045
309
GRIDFORMAT_END
309
TABLEFORMAT_END
  1
CELLSTYLE_BEGIN
 90
        2
 91
        1
300
_HEADER
309
CELLSTYLE_END
300
CELLSTYLE
  1
TABLEFORMAT_BEGIN
 90
        5
170
     1
 91
        0
 92
        0
 62
   257
 93
        1
300
CONTENTFORMAT
  1
CONTENTFORMAT_BEGIN
 90
        0
 91
        0
 92
      512
 93
        0
300

 40
0.0
140
1.0
 94
        2
 62
     0
340
11
144
0.18
309
CONTENTFORMAT_END
171
     1
301
MARGIN
  1
CELLMARGIN_BEGIN
 40
0.06
 40
0.06
 40
0.06
 40
0.06
 40
0.18
 40
0.18
309
CELLMARGIN_END
 94
        6
 95
        1
302
GRIDFORMAT
  1
GRIDFORMAT_BEGIN
 90
        0
 91
        1
 62
     0
 92
       -2
340
0
 93
        0
 40
0.045
309
GRIDFORMAT_END
 95
        2
302
GRIDFORMAT
  1
GRIDFORMAT_BEGIN
 90
        0
 91
        1
 62
     0
 92
       -2
340
0
 93
        0
 40
0.045
309
GRIDFORMAT_END
 95
        4
302
GRIDFORMAT
  1
GRIDFORMAT_BEGIN
 90
        0
 91
        1
 62
     0
 92
       -2
340
0
 93
        0
 40
0.045
309
GRIDFORMAT_END
 95
        8
302
GRIDFORMAT
  1
GRIDFORMAT_BEGIN
 90
        0
 91
        1
 62
     0
 92
       -2
340
0
 93
        0
 40
0.045
309
GRIDFORMAT_END
 95
       16
302
GRIDFORMAT
  1
GRIDFORMAT_BEGIN
 90
        0
 91
        1
 62
     0
 92
       -2
340
0
 93
        0
 40
0.045
309
GRIDFORMAT_END
 95
       32
302
GRIDFORMAT
  1
GRIDFORMAT_BEGIN
 90
        0
 91
        1
 62
     0
 92
       -2
340
0
 93
        0
 40
0.045
309
GRIDFORMAT_END
309
TABLEFORMAT_END
  1
CELLSTYLE_BEGIN
 90
        3
 91
        2
300
_DATA
309
CELLSTYLE_END
  0
XRECORD
  5
1A5D
102
{ACAD_REACTORS
330
13AB
102
}
330
13AB
100
AcDbXrecord
280
     1
102
ACAD_ROUNDTRIP_PRE2007_TABLESTYLE
 90
      512
 91
        0
  1

 92
      512
 93
        0
  2

 94
      512
 95
        0
  3

  0
CELLSTYLEMAP
  5
1A50
102
{ACAD_REACTORS
330
C46
102
}
330
C46
100
AcDbCellStyleMap
 90
        3
300
CELLSTYLE
  1
TABLEFORMAT_BEGIN
 90
        5
170
     1
 91
        0
 92
    32768
 62
   257
 93
        1
300
CONTENTFORMAT
  1
CONTENTFORMAT_BEGIN
 90
        0
 91
        0
 92
      512
 93
        0
300

 40
0.0
140
1.0
 94
        8
 62
     3
340
11D
144
0.25
309
CONTENTFORMAT_END
171
     1
301
MARGIN
  1
CELLMARGIN_BEGIN
 40
0.5
 40
10.0
 40
0.06
 40
0.06
 40
0.18
 40
0.18
309
CELLMARGIN_END
 94
        6
 95
        1
302
GRIDFORMAT
  1
GRIDFORMAT_BEGIN
 90
        0
 91
        1
 62
     0
 92
       -2
340
0
 93
        0
 40
0.045
309
GRIDFORMAT_END
 95
        2
302
GRIDFORMAT
  1
GRIDFORMAT_BEGIN
 90
        0
 91
        1
 62
     0
 92
       -2
340
0
 93
        0
 40
0.045
309
GRIDFORMAT_END
 95
        4
302
GRIDFORMAT
  1
GRIDFORMAT_BEGIN
 90
        0
 91
        1
 62
     0
 92
       -2
340
0
 93
        0
 40
0.045
309
GRIDFORMAT_END
 95
        8
302
GRIDFORMAT
  1
GRIDFORMAT_BEGIN
 90
        0
 91
        1
 62
     0
 92
       -2
340
0
 93
        0
 40
0.045
309
GRIDFORMAT_END
 95
       16
302
GRIDFORMAT
  1
GRIDFORMAT_BEGIN
 90
        0
 91
        1
 62
     0
 92
       -2
340
0
 93
        0
 40
0.045
309
GRIDFORMAT_END
 95
       32
302
GRIDFORMAT
  1
GRIDFORMAT_BEGIN
 90
        0
 91
        1
 62
     0
 92
       -2
340
0
 93
        0
 40
0.045
309
GRIDFORMAT_END
309
TABLEFORMAT_END
  1
CELLSTYLE_BEGIN
 90
        1
 91
        1
300
_TITLE
309
CELLSTYLE_END
300
CELLSTYLE
  1
TABLEFORMAT_BEGIN
 90
        5
170
     1
 91
        0
 92
        0
 62
   257
 93
        1
300
CONTENTFORMAT
  1
CONTENTFORMAT_BEGIN
 90
        0
 91
        0
 92
      512
 93
        0
300

 40
0.0
140
1.0
 94
        7
 62
     3
340
11D
144
0.18
309
CONTENTFORMAT_END
171
     1
301
MARGIN
  1
CELLMARGIN_BEGIN
 40
0.5
 40
1.5
 40
0.06
 40
0.06
 40
0.18
 40
0.18
309
CELLMARGIN_END
 94
        6
 95
        1
302
GRIDFORMAT
  1
GRIDFORMAT_BEGIN
 90
        0
 91
        1
 62
     3
 92
       -2
340
14
 93
        0
 40
0.045
309
GRIDFORMAT_END
 95
        2
302
GRIDFORMAT
  1
GRIDFORMAT_BEGIN
 90
        0
 91
        1
 62
     7
 92
       -2
340
14
 93
        0
 40
0.045
309
GRIDFORMAT_END
 95
        4
302
GRIDFORMAT
  1
GRIDFORMAT_BEGIN
 90
        0
 91
        1
 62
     3
 92
       -2
340
14
 93
        0
 40
0.045
309
GRIDFORMAT_END
 95
        8
302
GRIDFORMAT
  1
GRIDFORMAT_BEGIN
 90
        0
 91
        1
 62
     3
 92
       -2
340
14
 93
        0
 40
0.045
309
GRIDFORMAT_END
 95
       16
302
GRIDFORMAT
  1
GRIDFORMAT_BEGIN
 90
        0
 91
        1
 62
     7
 92
       -2
340
14
 93
        0
 40
0.045
309
GRIDFORMAT_END
 95
       32
302
GRIDFORMAT
  1
GRIDFORMAT_BEGIN
 90
        0
 91
        1
 62
     3
 92
       -2
340
14
 93
        0
 40
0.045
309
GRIDFORMAT_END
309
TABLEFORMAT_END
  1
CELLSTYLE_BEGIN
 90
        2
 91
        1
300
_HEADER
309
CELLSTYLE_END
300
CELLSTYLE
  1
TABLEFORMAT_BEGIN
 90
        5
170
     1
 91
        0
 92
        0
 62
   257
 93
        1
300
CONTENTFORMAT
  1
CONTENTFORMAT_BEGIN
 90
        0
 91
        0
 92
      512
 93
        0
300

 40
0.0
140
1.0
 94
        7
 62
     3
340
11D
144
0.18
309
CONTENTFORMAT_END
171
     1
301
MARGIN
  1
CELLMARGIN_BEGIN
 40
0.5
 40
1.5
 40
0.06
 40
0.06
 40
0.18
 40
0.18
309
CELLMARGIN_END
 94
        6
 95
        1
302
GRIDFORMAT
  1
GRIDFORMAT_BEGIN
 90
        0
 91
        1
 62
     3
 92
       -2
340
14
 93
        0
 40
0.045
309
GRIDFORMAT_END
 95
        2
302
GRIDFORMAT
  1
GRIDFORMAT_BEGIN
 90
        0
 91
        1
 62
     7
 92
       -2
340
14
 93
        0
 40
0.045
309
GRIDFORMAT_END
 95
        4
302
GRIDFORMAT
  1
GRIDFORMAT_BEGIN
 90
        0
 91
        1
 62
     3
 92
       -2
340
14
 93
        0
 40
0.045
309
GRIDFORMAT_END
 95
        8
302
GRIDFORMAT
  1
GRIDFORMAT_BEGIN
 90
        0
 91
        1
 62
     3
 92
       -2
340
14
 93
        0
 40
0.045
309
GRIDFORMAT_END
 95
       16
302
GRIDFORMAT
  1
GRIDFORMAT_BEGIN
 90
        0
 91
        1
 62
     7
 92
       -2
340
14
 93
        0
 40
0.045
309
GRIDFORMAT_END
 95
       32
302
GRIDFORMAT
  1
GRIDFORMAT_BEGIN
 90
        0
 91
        1
 62
     3
 92
       -2
340
14
 93
        0
 40
0.045
309
GRIDFORMAT_END
309
TABLEFORMAT_END
  1
CELLSTYLE_BEGIN
 90
        3
 91
        2
300
_DATA
309
CELLSTYLE_END
  0
XRECORD
  5
1A92
102
{ACAD_REACTORS
330
C46
102
}
330
C46
100
AcDbXrecord
280
     1
102
ACAD_ROUNDTRIP_PRE2007_TABLESTYLE
 90
      512
 91
        0
  1

 92
      512
 93
        0
  2

 94
      512
 95
        0
  3

  0
XRECORD
  5
1A69
102
{ACAD_REACTORS
330
1A68
102
}
330
1A68
100
AcDbXrecord
280
     1
102
RTVSPropertyOp0
 70
     1
102
RTVSPropertyOp1
 70
     1
102
RTVSPropertyOp2
 70
     1
102
RTVSPropertyOp3
 70
     1
102
RTVSPropertyOp4
 70
     1
102
RTVSPropertyOp5
 70
     1
102
RTVSPropertyOp6
 70
     1
102
RTVSPropertyOp7
 70
     1
102
RTVSPropertyOp8
 70
     1
102
RTVSPropertyOp9
 70
     1
102
RTVSPropertyOp10
 70
     1
102
RTVSPropertyOp11
 70
     1
102
RTVSPropertyOp12
 70
     1
102
RTVSPropertyOp13
 70
     1
102
RTVSPropertyOp14
 70
     1
102
RTVSPropertyOp15
 70
     1
102
RTVSPropertyOp16
 70
     1
102
RTVSPropertyOp17
 70
     1
102
RTVSPropertyOp18
 70
     1
102
RTVSPropertyOp19
 70
     1
102
RTVSPropertyOp20
 70
     1
102
RTVSPropertyOp21
 70
     1
102
RTVSPropertyOp22
 70
     1
102
RTVSPropertyOp23
 70
     1
102
RTVSPropertyOp24
 70
     1
102
RTVSPropertyOp25
 70
     1
102
RTVSPropertyOp26
 70
     1
102
RTVSPropertyOp27
 70
     1
102
RTVSPropertyOp28
 70
     1
102
RTVSPropertyOp29
 70
     1
102
RTVSPropertyOp30
 70
     1
102
RTVSPropertyOp31
 70
     1
102
RTVSPropertyOp32
 70
     1
  0
XRECORD
  5
1A6D
102
{ACAD_REACTORS
330
1A6C
102
}
330
1A6C
100
AcDbXrecord
280
     1
102
RTVSPropertyOp0
 70
     1
102
RTVSPropertyOp1
 70
     1
102
RTVSPropertyOp2
 70
     1
102
RTVSPropertyOp3
 70
     1
102
RTVSPropertyOp4
 70
     1
102
RTVSPropertyOp5
 70
     1
102
RTVSPropertyOp6
 70
     1
102
RTVSPropertyOp7
 70
     1
102
RTVSPropertyOp8
 70
     1
102
RTVSPropertyOp9
 70
     1
102
RTVSPropertyOp10
 70
     1
102
RTVSPropertyOp11
 70
     1
102
RTVSPropertyOp12
 70
     1
102
RTVSPropertyOp13
 70
     1
102
RTVSPropertyOp14
 70
     1
102
RTVSPropertyOp15
 70
     1
102
RTVSPropertyOp16
 70
     1
102
RTVSPropertyOp17
 70
     1
102
RTVSPropertyOp18
 70
     1
102
RTVSPropertyOp19
 70
     1
102
RTVSPropertyOp20
 70
     1
102
RTVSPropertyOp21
 70
     1
102
RTVSPropertyOp22
 70
     1
102
RTVSPropertyOp23
 70
     1
102
RTVSPropertyOp24
 70
     1
102
RTVSPropertyOp25
 70
     1
102
RTVSPropertyOp26
 70
     1
102
RTVSPropertyOp27
 70
     1
102
RTVSPropertyOp28
 70
     1
102
RTVSPropertyOp29
 70
     1
102
RTVSPropertyOp30
 70
     1
102
RTVSPropertyOp31
 70
     1
102
RTVSPropertyOp32
 70
     1
  0
XRECORD
  5
1A6B
102
{ACAD_REACTORS
330
1A6A
102
}
330
1A6A
100
AcDbXrecord
280
     1
102
RTVSPropertyOp0
 70
     1
102
RTVSPropertyOp1
 70
     1
102
RTVSPropertyOp2
 70
     1
102
RTVSPropertyOp3
 70
     1
102
RTVSPropertyOp4
 70
     1
102
RTVSPropertyOp5
 70
     1
102
RTVSPropertyOp6
 70
     1
102
RTVSPropertyOp7
 70
     1
102
RTVSPropertyOp8
 70
     1
102
RTVSPropertyOp9
 70
     1
102
RTVSPropertyOp10
 70
     1
102
RTVSPropertyOp11
 70
     1
102
RTVSPropertyOp12
 70
     1
102
RTVSPropertyOp13
 70
     1
102
RTVSPropertyOp14
 70
     1
102
RTVSPropertyOp15
 70
     1
102
RTVSPropertyOp16
 70
     1
102
RTVSPropertyOp17
 70
     1
102
RTVSPropertyOp18
 70
     1
102
RTVSPropertyOp19
 70
     1
102
RTVSPropertyOp20
 70
     1
102
RTVSPropertyOp21
 70
     1
102
RTVSPropertyOp22
 70
     1
102
RTVSPropertyOp23
 70
     1
102
RTVSPropertyOp24
 70
     1
102
RTVSPropertyOp25
 70
     1
102
RTVSPropertyOp26
 70
     1
102
RTVSPropertyOp27
 70
     1
102
RTVSPropertyOp28
 70
     1
102
RTVSPropertyOp29
 70
     1
102
RTVSPropertyOp30
 70
     1
102
RTVSPropertyOp31
 70
     1
102
RTVSPropertyOp32
 70
     1
  0
XRECORD
  5
1A67
102
{ACAD_REACTORS
330
1A66
102
}
330
1A66
100
AcDbXrecord
280
     1
102
RTVSPropertyOp0
 70
     1
102
RTVSPropertyOp1
 70
     1
102
RTVSPropertyOp2
 70
     1
102
RTVSPropertyOp3
 70
     1
102
RTVSPropertyOp4
 70
     1
102
RTVSPropertyOp5
 70
     1
102
RTVSPropertyOp6
 70
     1
102
RTVSPropertyOp7
 70
     1
102
RTVSPropertyOp8
 70
     1
102
RTVSPropertyOp9
 70
     1
102
RTVSPropertyOp10
 70
     1
102
RTVSPropertyOp11
 70
     1
102
RTVSPropertyOp12
 70
     1
102
RTVSPropertyOp13
 70
     1
102
RTVSPropertyOp14
 70
     1
102
RTVSPropertyOp15
 70
     1
102
RTVSPropertyOp16
 70
     1
102
RTVSPropertyOp17
 70
     1
102
RTVSPropertyOp18
 70
     1
102
RTVSPropertyOp19
 70
     1
102
RTVSPropertyOp20
 70
     1
102
RTVSPropertyOp21
 70
     1
102
RTVSPropertyOp22
 70
     1
102
RTVSPropertyOp23
 70
     1
102
RTVSPropertyOp24
 70
     1
102
RTVSPropertyOp25
 70
     1
102
RTVSPropertyOp26
 70
     1
102
RTVSPropertyOp27
 70
     1
102
RTVSPropertyOp28
 70
     1
102
RTVSPropertyOp29
 70
     1
102
RTVSPropertyOp30
 70
     1
102
RTVSPropertyOp31
 70
     1
102
RTVSPropertyOp32
 70
     1
  0
XRECORD
  5
1A75
102
{ACAD_REACTORS
330
1A74
102
}
330
1A74
100
AcDbXrecord
280
     1
102
RTVSPropertyOp0
 70
     1
102
RTVSPropertyOp1
 70
     1
102
RTVSPropertyOp2
 70
     1
102
RTVSPropertyOp3
 70
     1
102
RTVSPropertyOp4
 70
     1
102
RTVSPropertyOp5
 70
     1
102
RTVSPropertyOp6
 70
     1
102
RTVSPropertyOp7
 70
     1
102
RTVSPropertyOp8
 70
     1
102
RTVSPropertyOp9
 70
     1
102
RTVSPropertyOp10
 70
     1
102
RTVSPropertyOp11
 70
     1
102
RTVSPropertyOp12
 70
     1
102
RTVSPropertyOp13
 70
     1
102
RTVSPropertyOp14
 70
     1
102
RTVSPropertyOp15
 70
     1
102
RTVSPropertyOp16
 70
     1
102
RTVSPropertyOp17
 70
     1
102
RTVSPropertyOp18
 70
     1
102
RTVSPropertyOp19
 70
     1
102
RTVSPropertyOp20
 70
     1
102
RTVSPropertyOp21
 70
     1
102
RTVSPropertyOp22
 70
     1
102
RTVSPropertyOp23
 70
     1
102
RTVSPropertyOp24
 70
     1
102
RTVSPropertyOp25
 70
     1
102
RTVSPropertyOp26
 70
     1
102
RTVSPropertyOp27
 70
     1
102
RTVSPropertyOp28
 70
     1
102
RTVSPropertyOp29
 70
     1
102
RTVSPropertyOp30
 70
     1
102
RTVSPropertyOp31
 70
     1
102
RTVSPropertyOp32
 70
     1
  0
XRECORD
  5
1A7D
102
{ACAD_REACTORS
330
1A7C
102
}
330
1A7C
100
AcDbXrecord
280
     1
102
RTVSPropertyOp0
 70
     1
102
RTVSPropertyOp1
 70
     1
102
RTVSPropertyOp2
 70
     1
102
RTVSPropertyOp3
 70
     1
102
RTVSPropertyOp4
 70
     1
102
RTVSPropertyOp5
 70
     1
102
RTVSPropertyOp6
 70
     1
102
RTVSPropertyOp7
 70
     1
102
RTVSPropertyOp8
 70
     1
102
RTVSPropertyOp9
 70
     1
102
RTVSPropertyOp10
 70
     1
102
RTVSPropertyOp11
 70
     1
102
RTVSPropertyOp12
 70
     1
102
RTVSPropertyOp13
 70
     1
102
RTVSPropertyOp14
 70
     1
102
RTVSPropertyOp15
 70
     1
102
RTVSPropertyOp16
 70
     1
102
RTVSPropertyOp17
 70
     1
102
RTVSPropertyOp18
 70
     1
102
RTVSPropertyOp19
 70
     1
102
RTVSPropertyOp20
 70
     1
102
RTVSPropertyOp21
 70
     1
102
RTVSPropertyOp22
 70
     1
102
RTVSPropertyOp23
 70
     1
102
RTVSPropertyOp24
 70
     1
102
RTVSPropertyOp25
 70
     1
102
RTVSPropertyOp26
 70
     1
102
RTVSPropertyOp27
 70
     1
102
RTVSPropertyOp28
 70
     1
102
RTVSPropertyOp29
 70
     1
102
RTVSPropertyOp30
 70
     1
102
RTVSPropertyOp31
 70
     1
102
RTVSPropertyOp32
 70
     1
  0
XRECORD
  5
1A6F
102
{ACAD_REACTORS
330
1A6E
102
}
330
1A6E
100
AcDbXrecord
280
     1
102
RTVSPropertyOp0
 70
     1
102
RTVSPropertyOp1
 70
     1
102
RTVSPropertyOp2
 70
     1
102
RTVSPropertyOp3
 70
     1
102
RTVSPropertyOp4
 70
     1
102
RTVSPropertyOp5
 70
     1
102
RTVSPropertyOp6
 70
     1
102
RTVSPropertyOp7
 70
     1
102
RTVSPropertyOp8
 70
     1
102
RTVSPropertyOp9
 70
     1
102
RTVSPropertyOp10
 70
     1
102
RTVSPropertyOp11
 70
     1
102
RTVSPropertyOp12
 70
     1
102
RTVSPropertyOp13
 70
     1
102
RTVSPropertyOp14
 70
     1
102
RTVSPropertyOp15
 70
     1
102
RTVSPropertyOp16
 70
     1
102
RTVSPropertyOp17
 70
     1
102
RTVSPropertyOp18
 70
     1
102
RTVSPropertyOp19
 70
     1
102
RTVSPropertyOp20
 70
     1
102
RTVSPropertyOp21
 70
     1
102
RTVSPropertyOp22
 70
     1
102
RTVSPropertyOp23
 70
     1
102
RTVSPropertyOp24
 70
     1
102
RTVSPropertyOp25
 70
     1
102
RTVSPropertyOp26
 70
     1
102
RTVSPropertyOp27
 70
     1
102
RTVSPropertyOp28
 70
     1
102
RTVSPropertyOp29
 70
     1
102
RTVSPropertyOp30
 70
     1
102
RTVSPropertyOp31
 70
     1
102
RTVSPropertyOp32
 70
     1
  0
XRECORD
  5
1A73
102
{ACAD_REACTORS
330
1A72
102
}
330
1A72
100
AcDbXrecord
280
     1
102
RTVSPropertyOp0
 70
     1
102
RTVSPropertyOp1
 70
     1
102
RTVSPropertyOp2
 70
     1
102
RTVSPropertyOp3
 70
     1
102
RTVSPropertyOp4
 70
     1
102
RTVSPropertyOp5
 70
     1
102
RTVSPropertyOp6
 70
     1
102
RTVSPropertyOp7
 70
     1
102
RTVSPropertyOp8
 70
     1
102
RTVSPropertyOp9
 70
     1
102
RTVSPropertyOp10
 70
     1
102
RTVSPropertyOp11
 70
     1
102
RTVSPropertyOp12
 70
     1
102
RTVSPropertyOp13
 70
     1
102
RTVSPropertyOp14
 70
     1
102
RTVSPropertyOp15
 70
     1
102
RTVSPropertyOp16
 70
     1
102
RTVSPropertyOp17
 70
     1
102
RTVSPropertyOp18
 70
     1
102
RTVSPropertyOp19
 70
     1
102
RTVSPropertyOp20
 70
     1
102
RTVSPropertyOp21
 70
     1
102
RTVSPropertyOp22
 70
     1
102
RTVSPropertyOp23
 70
     1
102
RTVSPropertyOp24
 70
     1
102
RTVSPropertyOp25
 70
     1
102
RTVSPropertyOp26
 70
     1
102
RTVSPropertyOp27
 70
     1
102
RTVSPropertyOp28
 70
     1
102
RTVSPropertyOp29
 70
     1
102
RTVSPropertyOp30
 70
     1
102
RTVSPropertyOp31
 70
     1
102
RTVSPropertyOp32
 70
     1
  0
XRECORD
  5
1A91
102
{ACAD_REACTORS
330
1A90
102
}
330
1A90
100
AcDbXrecord
280
     1
102
RTVSPropertyOp0
 70
     0
102
RTVSPropertyOp1
 70
     0
102
RTVSPropertyOp2
 70
     0
102
RTVSPropertyOp3
 70
     0
102
RTVSPropertyOp4
 70
     0
102
RTVSPropertyOp5
 70
     0
102
RTVSPropertyOp6
 70
     0
102
RTVSPropertyOp7
 70
     0
102
RTVSPropertyOp8
 70
     0
102
RTVSPropertyOp9
 70
     0
102
RTVSPropertyOp10
 70
     0
102
RTVSPropertyOp11
 70
     0
102
RTVSPropertyOp12
 70
     0
102
RTVSPropertyOp13
 70
     0
102
RTVSPropertyOp14
 70
     2
102
RTVSPropertyOp15
 70
     0
102
RTVSPropertyOp16
 70
     0
102
RTVSPropertyOp17
 70
     0
102
RTVSPropertyOp18
 70
     0
102
RTVSPropertyOp19
 70
     0
102
RTVSPropertyOp20
 70
     0
102
RTVSPropertyOp21
 70
     0
102
RTVSPropertyOp22
 70
     0
102
RTVSPropertyOp23
 70
     0
102
RTVSPropertyOp24
 70
     0
102
RTVSPropertyOp25
 70
     0
102
RTVSPropertyOp26
 70
     0
102
RTVSPropertyOp27
 70
     0
102
RTVSPropertyOp28
 70
     1
102
RTVSPropertyOp29
 70
     1
102
RTVSPropertyOp30
 70
     1
102
RTVSPropertyOp31
 70
     1
102
RTVSPropertyOp32
 70
     1
  0
XRECORD
  5
1A7B
102
{ACAD_REACTORS
330
1A7A
102
}
330
1A7A
100
AcDbXrecord
280
     1
102
RTVSPropertyOp0
 70
     1
102
RTVSPropertyOp1
 70
     1
102
RTVSPropertyOp2
 70
     1
102
RTVSPropertyOp3
 70
     1
102
RTVSPropertyOp4
 70
     1
102
RTVSPropertyOp5
 70
     1
102
RTVSPropertyOp6
 70
     1
102
RTVSPropertyOp7
 70
     1
102
RTVSPropertyOp8
 70
     1
102
RTVSPropertyOp9
 70
     1
102
RTVSPropertyOp10
 70
     1
102
RTVSPropertyOp11
 70
     1
102
RTVSPropertyOp12
 70
     1
102
RTVSPropertyOp13
 70
     1
102
RTVSPropertyOp14
 70
     1
102
RTVSPropertyOp15
 70
     1
102
RTVSPropertyOp16
 70
     1
102
RTVSPropertyOp17
 70
     1
102
RTVSPropertyOp18
 70
     1
102
RTVSPropertyOp19
 70
     1
102
RTVSPropertyOp20
 70
     1
102
RTVSPropertyOp21
 70
     1
102
RTVSPropertyOp22
 70
     1
102
RTVSPropertyOp23
 70
     1
102
RTVSPropertyOp24
 70
     1
102
RTVSPropertyOp25
 70
     1
102
RTVSPropertyOp26
 70
     1
102
RTVSPropertyOp27
 70
     1
102
RTVSPropertyOp28
 70
     1
102
RTVSPropertyOp29
 70
     1
102
RTVSPropertyOp30
 70
     1
102
RTVSPropertyOp31
 70
     1
102
RTVSPropertyOp32
 70
     1
  0
XRECORD
  5
1A5F
102
{ACAD_REACTORS
330
1A5E
102
}
330
1A5E
100
AcDbXrecord
280
     1
102
RTVSPropertyOp0
 70
     1
102
RTVSPropertyOp1
 70
     1
102
RTVSPropertyOp2
 70
     1
102
RTVSPropertyOp3
 70
     1
102
RTVSPropertyOp4
 70
     1
102
RTVSPropertyOp5
 70
     1
102
RTVSPropertyOp6
 70
     1
102
RTVSPropertyOp7
 70
     1
102
RTVSPropertyOp8
 70
     1
102
RTVSPropertyOp9
 70
     1
102
RTVSPropertyOp10
 70
     1
102
RTVSPropertyOp11
 70
     1
102
RTVSPropertyOp12
 70
     1
102
RTVSPropertyOp13
 70
     1
102
RTVSPropertyOp14
 70
     1
102
RTVSPropertyOp15
 70
     1
102
RTVSPropertyOp16
 70
     1
102
RTVSPropertyOp17
 70
     1
102
RTVSPropertyOp18
 70
     1
102
RTVSPropertyOp19
 70
     1
102
RTVSPropertyOp20
 70
     1
102
RTVSPropertyOp21
 70
     1
102
RTVSPropertyOp22
 70
     1
102
RTVSPropertyOp23
 70
     1
102
RTVSPropertyOp24
 70
     1
102
RTVSPropertyOp25
 70
     1
102
RTVSPropertyOp26
 70
     1
102
RTVSPropertyOp27
 70
     1
102
RTVSPropertyOp28
 70
     1
102
RTVSPropertyOp29
 70
     1
102
RTVSPropertyOp30
 70
     1
102
RTVSPropertyOp31
 70
     1
102
RTVSPropertyOp32
 70
     1
  0
XRECORD
  5
1A61
102
{ACAD_REACTORS
330
1A60
102
}
330
1A60
100
AcDbXrecord
280
     1
102
RTVSPropertyOp0
 70
     1
102
RTVSPropertyOp1
 70
     1
102
RTVSPropertyOp2
 70
     1
102
RTVSPropertyOp3
 70
     1
102
RTVSPropertyOp4
 70
     1
102
RTVSPropertyOp5
 70
     1
102
RTVSPropertyOp6
 70
     1
102
RTVSPropertyOp7
 70
     1
102
RTVSPropertyOp8
 70
     1
102
RTVSPropertyOp9
 70
     1
102
RTVSPropertyOp10
 70
     1
102
RTVSPropertyOp11
 70
     1
102
RTVSPropertyOp12
 70
     1
102
RTVSPropertyOp13
 70
     1
102
RTVSPropertyOp14
 70
     1
102
RTVSPropertyOp15
 70
     1
102
RTVSPropertyOp16
 70
     1
102
RTVSPropertyOp17
 70
     1
102
RTVSPropertyOp18
 70
     1
102
RTVSPropertyOp19
 70
     1
102
RTVSPropertyOp20
 70
     1
102
RTVSPropertyOp21
 70
     1
102
RTVSPropertyOp22
 70
     1
102
RTVSPropertyOp23
 70
     1
102
RTVSPropertyOp24
 70
     1
102
RTVSPropertyOp25
 70
     1
102
RTVSPropertyOp26
 70
     1
102
RTVSPropertyOp27
 70
     1
102
RTVSPropertyOp28
 70
     1
102
RTVSPropertyOp29
 70
     1
102
RTVSPropertyOp30
 70
     1
102
RTVSPropertyOp31
 70
     1
102
RTVSPropertyOp32
 70
     1
  0
XRECORD
  5
1A63
102
{ACAD_REACTORS
330
1A62
102
}
330
1A62
100
AcDbXrecord
280
     1
102
RTVSPropertyOp0
 70
     1
102
RTVSPropertyOp1
 70
     1
102
RTVSPropertyOp2
 70
     1
102
RTVSPropertyOp3
 70
     1
102
RTVSPropertyOp4
 70
     1
102
RTVSPropertyOp5
 70
     1
102
RTVSPropertyOp6
 70
     1
102
RTVSPropertyOp7
 70
     1
102
RTVSPropertyOp8
 70
     1
102
RTVSPropertyOp9
 70
     1
102
RTVSPropertyOp10
 70
     1
102
RTVSPropertyOp11
 70
     1
102
RTVSPropertyOp12
 70
     1
102
RTVSPropertyOp13
 70
     1
102
RTVSPropertyOp14
 70
     1
102
RTVSPropertyOp15
 70
     1
102
RTVSPropertyOp16
 70
     1
102
RTVSPropertyOp17
 70
     1
102
RTVSPropertyOp18
 70
     1
102
RTVSPropertyOp19
 70
     1
102
RTVSPropertyOp20
 70
     1
102
RTVSPropertyOp21
 70
     1
102
RTVSPropertyOp22
 70
     1
102
RTVSPropertyOp23
 70
     1
102
RTVSPropertyOp24
 70
     1
102
RTVSPropertyOp25
 70
     1
102
RTVSPropertyOp26
 70
     1
102
RTVSPropertyOp27
 70
     1
102
RTVSPropertyOp28
 70
     1
102
RTVSPropertyOp29
 70
     1
102
RTVSPropertyOp30
 70
     1
102
RTVSPropertyOp31
 70
     1
102
RTVSPropertyOp32
 70
     1
  0
XRECORD
  5
1A65
102
{ACAD_REACTORS
330
1A64
102
}
330
1A64
100
AcDbXrecord
280
     1
102
RTVSPropertyOp0
 70
     1
102
RTVSPropertyOp1
 70
     1
102
RTVSPropertyOp2
 70
     1
102
RTVSPropertyOp3
 70
     1
102
RTVSPropertyOp4
 70
     1
102
RTVSPropertyOp5
 70
     1
102
RTVSPropertyOp6
 70
     1
102
RTVSPropertyOp7
 70
     1
102
RTVSPropertyOp8
 70
     1
102
RTVSPropertyOp9
 70
     1
102
RTVSPropertyOp10
 70
     1
102
RTVSPropertyOp11
 70
     1
102
RTVSPropertyOp12
 70
     1
102
RTVSPropertyOp13
 70
     1
102
RTVSPropertyOp14
 70
     1
102
RTVSPropertyOp15
 70
     1
102
RTVSPropertyOp16
 70
     1
102
RTVSPropertyOp17
 70
     1
102
RTVSPropertyOp18
 70
     1
102
RTVSPropertyOp19
 70
     1
102
RTVSPropertyOp20
 70
     1
102
RTVSPropertyOp21
 70
     1
102
RTVSPropertyOp22
 70
     1
102
RTVSPropertyOp23
 70
     1
102
RTVSPropertyOp24
 70
     1
102
RTVSPropertyOp25
 70
     1
102
RTVSPropertyOp26
 70
     1
102
RTVSPropertyOp27
 70
     1
102
RTVSPropertyOp28
 70
     1
102
RTVSPropertyOp29
 70
     1
102
RTVSPropertyOp30
 70
     1
102
RTVSPropertyOp31
 70
     1
102
RTVSPropertyOp32
 70
     1
  0
XRECORD
  5
1A81
102
{ACAD_REACTORS
330
1A80
102
}
330
1A80
100
AcDbXrecord
280
     1
102
RTVSPropertyOp0
 70
     1
102
RTVSPropertyOp1
 70
     1
102
RTVSPropertyOp2
 70
     1
102
RTVSPropertyOp3
 70
     1
102
RTVSPropertyOp4
 70
     1
102
RTVSPropertyOp5
 70
     1
102
RTVSPropertyOp6
 70
     1
102
RTVSPropertyOp7
 70
     1
102
RTVSPropertyOp8
 70
     1
102
RTVSPropertyOp9
 70
     1
102
RTVSPropertyOp10
 70
     1
102
RTVSPropertyOp11
 70
     1
102
RTVSPropertyOp12
 70
     1
102
RTVSPropertyOp13
 70
     1
102
RTVSPropertyOp14
 70
     1
102
RTVSPropertyOp15
 70
     1
102
RTVSPropertyOp16
 70
     1
102
RTVSPropertyOp17
 70
     1
102
RTVSPropertyOp18
 70
     1
102
RTVSPropertyOp19
 70
     1
102
RTVSPropertyOp20
 70
     1
102
RTVSPropertyOp21
 70
     1
102
RTVSPropertyOp22
 70
     1
102
RTVSPropertyOp23
 70
     1
102
RTVSPropertyOp24
 70
     1
102
RTVSPropertyOp25
 70
     1
102
RTVSPropertyOp26
 70
     1
102
RTVSPropertyOp27
 70
     1
102
RTVSPropertyOp28
 70
     1
102
RTVSPropertyOp29
 70
     1
102
RTVSPropertyOp30
 70
     1
102
RTVSPropertyOp31
 70
     1
102
RTVSPropertyOp32
 70
     1
  0
XRECORD
  5
1A8D
102
{ACAD_REACTORS
330
1A8C
102
}
330
1A8C
100
AcDbXrecord
280
     1
102
RTVSPropertyOp0
 70
     0
102
RTVSPropertyOp1
 70
     0
102
RTVSPropertyOp2
 70
     0
102
RTVSPropertyOp3
 70
     0
102
RTVSPropertyOp4
 70
     0
102
RTVSPropertyOp5
 70
     0
102
RTVSPropertyOp6
 70
     0
102
RTVSPropertyOp7
 70
     0
102
RTVSPropertyOp8
 70
     0
102
RTVSPropertyOp9
 70
     0
102
RTVSPropertyOp10
 70
     0
102
RTVSPropertyOp11
 70
     0
102
RTVSPropertyOp12
 70
     0
102
RTVSPropertyOp13
 70
     0
102
RTVSPropertyOp14
 70
     2
102
RTVSPropertyOp15
 70
     0
102
RTVSPropertyOp16
 70
     0
102
RTVSPropertyOp17
 70
     0
102
RTVSPropertyOp18
 70
     0
102
RTVSPropertyOp19
 70
     0
102
RTVSPropertyOp20
 70
     0
102
RTVSPropertyOp21
 70
     0
102
RTVSPropertyOp22
 70
     0
102
RTVSPropertyOp23
 70
     0
102
RTVSPropertyOp24
 70
     0
102
RTVSPropertyOp25
 70
     0
102
RTVSPropertyOp26
 70
     0
102
RTVSPropertyOp27
 70
     0
102
RTVSPropertyOp28
 70
     1
102
RTVSPropertyOp29
 70
     1
102
RTVSPropertyOp30
 70
     1
102
RTVSPropertyOp31
 70
     1
102
RTVSPropertyOp32
 70
     1
  0
XRECORD
  5
1A79
102
{ACAD_REACTORS
330
1A78
102
}
330
1A78
100
AcDbXrecord
280
     1
102
RTVSPropertyOp0
 70
     1
102
RTVSPropertyOp1
 70
     1
102
RTVSPropertyOp2
 70
     1
102
RTVSPropertyOp3
 70
     1
102
RTVSPropertyOp4
 70
     1
102
RTVSPropertyOp5
 70
     1
102
RTVSPropertyOp6
 70
     1
102
RTVSPropertyOp7
 70
     1
102
RTVSPropertyOp8
 70
     1
102
RTVSPropertyOp9
 70
     1
102
RTVSPropertyOp10
 70
     1
102
RTVSPropertyOp11
 70
     1
102
RTVSPropertyOp12
 70
     1
102
RTVSPropertyOp13
 70
     1
102
RTVSPropertyOp14
 70
     1
102
RTVSPropertyOp15
 70
     1
102
RTVSPropertyOp16
 70
     1
102
RTVSPropertyOp17
 70
     1
102
RTVSPropertyOp18
 70
     1
102
RTVSPropertyOp19
 70
     1
102
RTVSPropertyOp20
 70
     1
102
RTVSPropertyOp21
 70
     1
102
RTVSPropertyOp22
 70
     1
102
RTVSPropertyOp23
 70
     1
102
RTVSPropertyOp24
 70
     1
102
RTVSPropertyOp25
 70
     1
102
RTVSPropertyOp26
 70
     1
102
RTVSPropertyOp27
 70
     1
102
RTVSPropertyOp28
 70
     1
102
RTVSPropertyOp29
 70
     1
102
RTVSPropertyOp30
 70
     1
102
RTVSPropertyOp31
 70
     1
102
RTVSPropertyOp32
 70
     1
  0
XRECORD
  5
1A8F
102
{ACAD_REACTORS
330
1A8E
102
}
330
1A8E
100
AcDbXrecord
280
     1
102
RTVSPropertyOp0
 70
     0
102
RTVSPropertyOp1
 70
     0
102
RTVSPropertyOp2
 70
     0
102
RTVSPropertyOp3
 70
     0
102
RTVSPropertyOp4
 70
     0
102
RTVSPropertyOp5
 70
     0
102
RTVSPropertyOp6
 70
     0
102
RTVSPropertyOp7
 70
     0
102
RTVSPropertyOp8
 70
     0
102
RTVSPropertyOp9
 70
     0
102
RTVSPropertyOp10
 70
     0
102
RTVSPropertyOp11
 70
     0
102
RTVSPropertyOp12
 70
     0
102
RTVSPropertyOp13
 70
     0
102
RTVSPropertyOp14
 70
     2
102
RTVSPropertyOp15
 70
     0
102
RTVSPropertyOp16
 70
     0
102
RTVSPropertyOp17
 70
     0
102
RTVSPropertyOp18
 70
     0
102
RTVSPropertyOp19
 70
     0
102
RTVSPropertyOp20
 70
     0
102
RTVSPropertyOp21
 70
     0
102
RTVSPropertyOp22
 70
     0
102
RTVSPropertyOp23
 70
     0
102
RTVSPropertyOp24
 70
     0
102
RTVSPropertyOp25
 70
     0
102
RTVSPropertyOp26
 70
     0
102
RTVSPropertyOp27
 70
     0
102
RTVSPropertyOp28
 70
     1
102
RTVSPropertyOp29
 70
     1
102
RTVSPropertyOp30
 70
     1
102
RTVSPropertyOp31
 70
     1
102
RTVSPropertyOp32
 70
     1
  0
XRECORD
  5
1A71
102
{ACAD_REACTORS
330
1A70
102
}
330
1A70
100
AcDbXrecord
280
     1
102
RTVSPropertyOp0
 70
     1
102
RTVSPropertyOp1
 70
     1
102
RTVSPropertyOp2
 70
     1
102
RTVSPropertyOp3
 70
     1
102
RTVSPropertyOp4
 70
     1
102
RTVSPropertyOp5
 70
     1
102
RTVSPropertyOp6
 70
     1
102
RTVSPropertyOp7
 70
     1
102
RTVSPropertyOp8
 70
     1
102
RTVSPropertyOp9
 70
     1
102
RTVSPropertyOp10
 70
     1
102
RTVSPropertyOp11
 70
     1
102
RTVSPropertyOp12
 70
     1
102
RTVSPropertyOp13
 70
     1
102
RTVSPropertyOp14
 70
     1
102
RTVSPropertyOp15
 70
     1
102
RTVSPropertyOp16
 70
     1
102
RTVSPropertyOp17
 70
     1
102
RTVSPropertyOp18
 70
     1
102
RTVSPropertyOp19
 70
     1
102
RTVSPropertyOp20
 70
     1
102
RTVSPropertyOp21
 70
     1
102
RTVSPropertyOp22
 70
     1
102
RTVSPropertyOp23
 70
     1
102
RTVSPropertyOp24
 70
     1
102
RTVSPropertyOp25
 70
     1
102
RTVSPropertyOp26
 70
     1
102
RTVSPropertyOp27
 70
     1
102
RTVSPropertyOp28
 70
     1
102
RTVSPropertyOp29
 70
     1
102
RTVSPropertyOp30
 70
     1
102
RTVSPropertyOp31
 70
     1
102
RTVSPropertyOp32
 70
     1
  0
XRECORD
  5
1A8B
102
{ACAD_REACTORS
330
1A8A
102
}
330
1A8A
100
AcDbXrecord
280
     1
102
RTVSPropertyOp0
 70
     1
102
RTVSPropertyOp1
 70
     1
102
RTVSPropertyOp2
 70
     1
102
RTVSPropertyOp3
 70
     1
102
RTVSPropertyOp4
 70
     1
102
RTVSPropertyOp5
 70
     1
102
RTVSPropertyOp6
 70
     1
102
RTVSPropertyOp7
 70
     1
102
RTVSPropertyOp8
 70
     1
102
RTVSPropertyOp9
 70
     1
102
RTVSPropertyOp10
 70
     1
102
RTVSPropertyOp11
 70
     1
102
RTVSPropertyOp12
 70
     1
102
RTVSPropertyOp13
 70
     1
102
RTVSPropertyOp14
 70
     1
102
RTVSPropertyOp15
 70
     1
102
RTVSPropertyOp16
 70
     1
102
RTVSPropertyOp17
 70
     1
102
RTVSPropertyOp18
 70
     1
102
RTVSPropertyOp19
 70
     1
102
RTVSPropertyOp20
 70
     1
102
RTVSPropertyOp21
 70
     1
102
RTVSPropertyOp22
 70
     1
102
RTVSPropertyOp23
 70
     1
102
RTVSPropertyOp24
 70
     1
102
RTVSPropertyOp25
 70
     1
102
RTVSPropertyOp26
 70
     1
102
RTVSPropertyOp27
 70
     1
102
RTVSPropertyOp28
 70
     1
102
RTVSPropertyOp29
 70
     1
102
RTVSPropertyOp30
 70
     1
102
RTVSPropertyOp31
 70
     1
102
RTVSPropertyOp32
 70
     1
  0
XRECORD
  5
1A89
102
{ACAD_REACTORS
330
1A88
102
}
330
1A88
100
AcDbXrecord
280
     1
102
RTVSPropertyOp0
 70
     1
102
RTVSPropertyOp1
 70
     1
102
RTVSPropertyOp2
 70
     1
102
RTVSPropertyOp3
 70
     1
102
RTVSPropertyOp4
 70
     1
102
RTVSPropertyOp5
 70
     1
102
RTVSPropertyOp6
 70
     1
102
RTVSPropertyOp7
 70
     1
102
RTVSPropertyOp8
 70
     1
102
RTVSPropertyOp9
 70
     1
102
RTVSPropertyOp10
 70
     1
102
RTVSPropertyOp11
 70
     1
102
RTVSPropertyOp12
 70
     1
102
RTVSPropertyOp13
 70
     1
102
RTVSPropertyOp14
 70
     1
102
RTVSPropertyOp15
 70
     1
102
RTVSPropertyOp16
 70
     1
102
RTVSPropertyOp17
 70
     1
102
RTVSPropertyOp18
 70
     1
102
RTVSPropertyOp19
 70
     1
102
RTVSPropertyOp20
 70
     1
102
RTVSPropertyOp21
 70
     1
102
RTVSPropertyOp22
 70
     1
102
RTVSPropertyOp23
 70
     1
102
RTVSPropertyOp24
 70
     1
102
RTVSPropertyOp25
 70
     1
102
RTVSPropertyOp26
 70
     1
102
RTVSPropertyOp27
 70
     1
102
RTVSPropertyOp28
 70
     1
102
RTVSPropertyOp29
 70
     1
102
RTVSPropertyOp30
 70
     1
102
RTVSPropertyOp31
 70
     1
102
RTVSPropertyOp32
 70
     1
  0
XRECORD
  5
1A83
102
{ACAD_REACTORS
330
1A82
102
}
330
1A82
100
AcDbXrecord
280
     1
102
RTVSPropertyOp0
 70
     1
102
RTVSPropertyOp1
 70
     1
102
RTVSPropertyOp2
 70
     1
102
RTVSPropertyOp3
 70
     1
102
RTVSPropertyOp4
 70
     1
102
RTVSPropertyOp5
 70
     1
102
RTVSPropertyOp6
 70
     1
102
RTVSPropertyOp7
 70
     1
102
RTVSPropertyOp8
 70
     1
102
RTVSPropertyOp9
 70
     1
102
RTVSPropertyOp10
 70
     1
102
RTVSPropertyOp11
 70
     1
102
RTVSPropertyOp12
 70
     1
102
RTVSPropertyOp13
 70
     1
102
RTVSPropertyOp14
 70
     1
102
RTVSPropertyOp15
 70
     1
102
RTVSPropertyOp16
 70
     1
102
RTVSPropertyOp17
 70
     1
102
RTVSPropertyOp18
 70
     1
102
RTVSPropertyOp19
 70
     1
102
RTVSPropertyOp20
 70
     1
102
RTVSPropertyOp21
 70
     1
102
RTVSPropertyOp22
 70
     1
102
RTVSPropertyOp23
 70
     1
102
RTVSPropertyOp24
 70
     1
102
RTVSPropertyOp25
 70
     1
102
RTVSPropertyOp26
 70
     1
102
RTVSPropertyOp27
 70
     1
102
RTVSPropertyOp28
 70
     1
102
RTVSPropertyOp29
 70
     1
102
RTVSPropertyOp30
 70
     1
102
RTVSPropertyOp31
 70
     1
102
RTVSPropertyOp32
 70
     1
  0
XRECORD
  5
1A85
102
{ACAD_REACTORS
330
1A84
102
}
330
1A84
100
AcDbXrecord
280
     1
102
RTVSPropertyOp0
 70
     1
102
RTVSPropertyOp1
 70
     1
102
RTVSPropertyOp2
 70
     1
102
RTVSPropertyOp3
 70
     1
102
RTVSPropertyOp4
 70
     1
102
RTVSPropertyOp5
 70
     1
102
RTVSPropertyOp6
 70
     1
102
RTVSPropertyOp7
 70
     1
102
RTVSPropertyOp8
 70
     1
102
RTVSPropertyOp9
 70
     1
102
RTVSPropertyOp10
 70
     1
102
RTVSPropertyOp11
 70
     1
102
RTVSPropertyOp12
 70
     1
102
RTVSPropertyOp13
 70
     1
102
RTVSPropertyOp14
 70
     1
102
RTVSPropertyOp15
 70
     1
102
RTVSPropertyOp16
 70
     1
102
RTVSPropertyOp17
 70
     1
102
RTVSPropertyOp18
 70
     1
102
RTVSPropertyOp19
 70
     1
102
RTVSPropertyOp20
 70
     1
102
RTVSPropertyOp21
 70
     1
102
RTVSPropertyOp22
 70
     1
102
RTVSPropertyOp23
 70
     1
102
RTVSPropertyOp24
 70
     1
102
RTVSPropertyOp25
 70
     1
102
RTVSPropertyOp26
 70
     1
102
RTVSPropertyOp27
 70
     1
102
RTVSPropertyOp28
 70
     1
102
RTVSPropertyOp29
 70
     1
102
RTVSPropertyOp30
 70
     1
102
RTVSPropertyOp31
 70
     1
102
RTVSPropertyOp32
 70
     1
  0
XRECORD
  5
1A77
102
{ACAD_REACTORS
330
1A76
102
}
330
1A76
100
AcDbXrecord
280
     1
102
RTVSPropertyOp0
 70
     1
102
RTVSPropertyOp1
 70
     1
102
RTVSPropertyOp2
 70
     1
102
RTVSPropertyOp3
 70
     1
102
RTVSPropertyOp4
 70
     1
102
RTVSPropertyOp5
 70
     1
102
RTVSPropertyOp6
 70
     1
102
RTVSPropertyOp7
 70
     1
102
RTVSPropertyOp8
 70
     1
102
RTVSPropertyOp9
 70
     1
102
RTVSPropertyOp10
 70
     1
102
RTVSPropertyOp11
 70
     1
102
RTVSPropertyOp12
 70
     1
102
RTVSPropertyOp13
 70
     1
102
RTVSPropertyOp14
 70
     1
102
RTVSPropertyOp15
 70
     1
102
RTVSPropertyOp16
 70
     1
102
RTVSPropertyOp17
 70
     1
102
RTVSPropertyOp18
 70
     1
102
RTVSPropertyOp19
 70
     1
102
RTVSPropertyOp20
 70
     1
102
RTVSPropertyOp21
 70
     1
102
RTVSPropertyOp22
 70
     1
102
RTVSPropertyOp23
 70
     1
102
RTVSPropertyOp24
 70
     1
102
RTVSPropertyOp25
 70
     1
102
RTVSPropertyOp26
 70
     1
102
RTVSPropertyOp27
 70
     1
102
RTVSPropertyOp28
 70
     1
102
RTVSPropertyOp29
 70
     1
102
RTVSPropertyOp30
 70
     1
102
RTVSPropertyOp31
 70
     1
102
RTVSPropertyOp32
 70
     1
  0
XRECORD
  5
1A7F
102
{ACAD_REACTORS
330
1A7E
102
}
330
1A7E
100
AcDbXrecord
280
     1
102
RTVSPropertyOp0
 70
     1
102
RTVSPropertyOp1
 70
     1
102
RTVSPropertyOp2
 70
     1
102
RTVSPropertyOp3
 70
     1
102
RTVSPropertyOp4
 70
     1
102
RTVSPropertyOp5
 70
     1
102
RTVSPropertyOp6
 70
     1
102
RTVSPropertyOp7
 70
     1
102
RTVSPropertyOp8
 70
     1
102
RTVSPropertyOp9
 70
     1
102
RTVSPropertyOp10
 70
     1
102
RTVSPropertyOp11
 70
     1
102
RTVSPropertyOp12
 70
     1
102
RTVSPropertyOp13
 70
     1
102
RTVSPropertyOp14
 70
     1
102
RTVSPropertyOp15
 70
     1
102
RTVSPropertyOp16
 70
     1
102
RTVSPropertyOp17
 70
     1
102
RTVSPropertyOp18
 70
     1
102
RTVSPropertyOp19
 70
     1
102
RTVSPropertyOp20
 70
     1
102
RTVSPropertyOp21
 70
     1
102
RTVSPropertyOp22
 70
     1
102
RTVSPropertyOp23
 70
     1
102
RTVSPropertyOp24
 70
     1
102
RTVSPropertyOp25
 70
     1
102
RTVSPropertyOp26
 70
     1
102
RTVSPropertyOp27
 70
     1
102
RTVSPropertyOp28
 70
     1
102
RTVSPropertyOp29
 70
     1
102
RTVSPropertyOp30
 70
     1
102
RTVSPropertyOp31
 70
     1
102
RTVSPropertyOp32
 70
     1
  0
XRECORD
  5
1A87
102
{ACAD_REACTORS
330
1A86
102
}
330
1A86
100
AcDbXrecord
280
     1
102
RTVSPropertyOp0
 70
     1
102
RTVSPropertyOp1
 70
     1
102
RTVSPropertyOp2
 70
     1
102
RTVSPropertyOp3
 70
     1
102
RTVSPropertyOp4
 70
     1
102
RTVSPropertyOp5
 70
     1
102
RTVSPropertyOp6
 70
     1
102
RTVSPropertyOp7
 70
     1
102
RTVSPropertyOp8
 70
     1
102
RTVSPropertyOp9
 70
     1
102
RTVSPropertyOp10
 70
     1
102
RTVSPropertyOp11
 70
     1
102
RTVSPropertyOp12
 70
     1
102
RTVSPropertyOp13
 70
     1
102
RTVSPropertyOp14
 70
     1
102
RTVSPropertyOp15
 70
     1
102
RTVSPropertyOp16
 70
     1
102
RTVSPropertyOp17
 70
     1
102
RTVSPropertyOp18
 70
     1
102
RTVSPropertyOp19
 70
     1
102
RTVSPropertyOp20
 70
     1
102
RTVSPropertyOp21
 70
     1
102
RTVSPropertyOp22
 70
     1
102
RTVSPropertyOp23
 70
     1
102
RTVSPropertyOp24
 70
     1
102
RTVSPropertyOp25
 70
     1
102
RTVSPropertyOp26
 70
     1
102
RTVSPropertyOp27
 70
     1
102
RTVSPropertyOp28
 70
     1
102
RTVSPropertyOp29
 70
     1
102
RTVSPropertyOp30
 70
     1
102
RTVSPropertyOp31
 70
     1
102
RTVSPropertyOp32
 70
     1
  0
ENDSEC
  0
EOF
