  0
SECTION
  2
HEADER
  9
$ACADVER
  1
AC1015
  9
$ACADMAINTVER
 70
    20
  9
$DWGCODEPAGE
  3
ANSI_932
  9
$INSBASE
 10
0.0
 20
0.0
 30
0.0
  9
$EXTMIN
 10
158.431837
 20
-94.185067
 30
0.0
  9
$EXTMAX
 10
435.5604309999998
 20
98.28755000000001
 30
0.0
  9
$LIMMIN
 10
158.430839
 20
-94.186066
  9
$LIMMAX
 10
435.561425
 20
98.28855199999999
  9
$ORTHOMODE
 70
     1
  9
$REGENMODE
 70
     1
  9
$FILLMODE
 70
     1
  9
$QTEXTMODE
 70
     0
  9
$MIRRTEXT
 70
     0
  9
$LTSCALE
 40
4.618809999999998
  9
$ATTMODE
 70
     1
  9
$TEXTSIZE
 40
3.2
  9
$TRACEWID
 40
0.05
  9
$TEXTSTYLE
  7
高3.2
  9
$CLAYER
  8
0
  9
$CELTYPE
  6
CONTINUOUS
  9
$CECOLOR
 62
   256
  9
$CELTSCALE
 40
1.0
  9
$DISPSILH
 70
     0
  9
$DIMSCALE
 40
1.0
  9
$DIMASZ
 40
2.5
  9
$DIMEXO
 40
0.25
  9
$DIMDLI
 40
0.2
  9
$DIMRND
 40
0.0
  9
$DIMDLE
 40
0.0
  9
$DIMEXE
 40
1.25
  9
$DIMTP
 40
0.0
  9
$DIMTM
 40
0.0
  9
$DIMTXT
 40
3.0
  9
$DIMCEN
 40
0.0
  9
$DIMTSZ
 40
0.0
  9
$DIMTOL
 70
     0
  9
$DIMLIM
 70
     0
  9
$DIMTIH
 70
     0
  9
$DIMTOH
 70
     0
  9
$DIMSE1
 70
     0
  9
$DIMSE2
 70
     0
  9
$DIMTAD
 70
     3
  9
$DIMZIN
 70
     8
  9
$DIMBLK
  1
Open30
  9
$DIMASO
 70
     1
  9
$DIMSHO
 70
     1
  9
$DIMPOST
  1

  9
$DIMAPOST
  1

  9
$DIMALT
 70
     0
  9
$DIMALTD
 70
     3
  9
$DIMALTF
 40
0.03937007874016
  9
$DIMLFAC
 40
1.0
  9
$DIMTOFL
 70
     1
  9
$DIMTVP
 40
0.0
  9
$DIMTIX
 70
     0
  9
$DIMSOXD
 70
     0
  9
$DIMSAH
 70
     0
  9
$DIMBLK1
  1

  9
$DIMBLK2
  1

  9
$DIMSTYLE
  2
FREE
  9
$DIMCLRD
 70
     0
  9
$DIMCLRE
 70
     0
  9
$DIMCLRT
 70
     4
  9
$DIMTFAC
 40
1.0
  9
$DIMGAP
 40
0.625
  9
$DIMJUST
 70
     0
  9
$DIMSD1
 70
     0
  9
$DIMSD2
 70
     0
  9
$DIMTOLJ
 70
     0
  9
$DIMTZIN
 70
     8
  9
$DIMALTZ
 70
     0
  9
$DIMALTTZ
 70
     0
  9
$DIMUPT
 70
     1
  9
$DIMDEC
 70
     2
  9
$DIMTDEC
 70
     2
  9
$DIMALTU
 70
     2
  9
$DIMALTTD
 70
     3
  9
$DIMTXSTY
  7
STANDARD
  9
$DIMAUNIT
 70
     0
  9
$DIMADEC
 70
     1
  9
$DIMALTRND
 40
0.0
  9
$DIMAZIN
 70
     2
  9
$DIMDSEP
 70
    46
  9
$DIMATFIT
 70
     0
  9
$DIMFRAC
 70
     0
  9
$DIMLDRBLK
  1
Open30
  9
$DIMLUNIT
 70
     2
  9
$DIMLWD
 70
    -2
  9
$DIMLWE
 70
    -2
  9
$DIMTMOVE
 70
     0
  9
$LUNITS
 70
     2
  9
$LUPREC
 70
     4
  9
$SKETCHINC
 40
0.1
  9
$FILLETRAD
 40
0.0
  9
$AUNITS
 70
     0
  9
$AUPREC
 70
     0
  9
$MENU
  1
.
  9
$ELEVATION
 40
0.0
  9
$PELEVATION
 40
0.0
  9
$THICKNESS
 40
0.0
  9
$LIMCHECK
 70
     0
  9
$CHAMFERA
 40
0.0
  9
$CHAMFERB
 40
0.0
  9
$CHAMFERC
 40
0.0
  9
$CHAMFERD
 40
0.0
  9
$SKPOLY
 70
     0
  9
$TDCREATE
 40
2456332.493029236
  9
$TDUCREATE
 40
2456332.118029237
  9
$TDUPDATE
 40
2457126.694850509
  9
$TDUUPDATE
 40
2457126.319850509
  9
$TDINDWG
 40
0.0062407407
  9
$TDUSRTIMER
 40
0.0062405671
  9
$USRTIMER
 70
     1
  9
$ANGBASE
 50
0.0
  9
$ANGDIR
 70
     0
  9
$PDMODE
 70
     0
  9
$PDSIZE
 40
0.0
  9
$PLINEWID
 40
0.0
  9
$SPLFRAME
 70
     0
  9
$SPLINETYPE
 70
     6
  9
$SPLINESEGS
 70
     8
  9
$HANDSEED
  5
560
  9
$SURFTAB1
 70
     6
  9
$SURFTAB2
 70
     6
  9
$SURFTYPE
 70
     6
  9
$SURFU
 70
     6
  9
$SURFV
 70
     6
  9
$UCSBASE
  2

  9
$UCSNAME
  2

  9
$UCSORG
 10
0.0
 20
0.0
 30
0.0
  9
$UCSXDIR
 10
1.0
 20
0.0
 30
0.0
  9
$UCSYDIR
 10
0.0
 20
1.0
 30
0.0
  9
$UCSORTHOREF
  2

  9
$UCSORTHOVIEW
 70
     0
  9
$UCSORGTOP
 10
0.0
 20
0.0
 30
0.0
  9
$UCSORGBOTTOM
 10
0.0
 20
0.0
 30
0.0
  9
$UCSORGLEFT
 10
0.0
 20
0.0
 30
0.0
  9
$UCSORGRIGHT
 10
0.0
 20
0.0
 30
0.0
  9
$UCSORGFRONT
 10
0.0
 20
0.0
 30
0.0
  9
$UCSORGBACK
 10
0.0
 20
0.0
 30
0.0
  9
$PUCSBASE
  2

  9
$PUCSNAME
  2

  9
$PUCSORG
 10
0.0
 20
0.0
 30
0.0
  9
$PUCSXDIR
 10
1.0
 20
0.0
 30
0.0
  9
$PUCSYDIR
 10
0.0
 20
1.0
 30
0.0
  9
$PUCSORTHOREF
  2

  9
$PUCSORTHOVIEW
 70
     0
  9
$PUCSORGTOP
 10
0.0
 20
0.0
 30
0.0
  9
$PUCSORGBOTTOM
 10
0.0
 20
0.0
 30
0.0
  9
$PUCSORGLEFT
 10
0.0
 20
0.0
 30
0.0
  9
$PUCSORGRIGHT
 10
0.0
 20
0.0
 30
0.0
  9
$PUCSORGFRONT
 10
0.0
 20
0.0
 30
0.0
  9
$PUCSORGBACK
 10
0.0
 20
0.0
 30
0.0
  9
$USERI1
 70
     0
  9
$USERI2
 70
     0
  9
$USERI3
 70
     0
  9
$USERI4
 70
     0
  9
$USERI5
 70
     0
  9
$USERR1
 40
0.0
  9
$USERR2
 40
0.0
  9
$USERR3
 40
0.0
  9
$USERR4
 40
0.0
  9
$USERR5
 40
0.0
  9
$WORLDVIEW
 70
     1
  9
$SHADEDGE
 70
     3
  9
$SHADEDIF
 70
    70
  9
$TILEMODE
 70
     1
  9
$MAXACTVP
 70
    64
  9
$PINSBASE
 10
0.0
 20
0.0
 30
0.0
  9
$PLIMCHECK
 70
     0
  9
$PEXTMIN
 10
1.000000000000000E+20
 20
1.000000000000000E+20
 30
1.000000000000000E+20
  9
$PEXTMAX
 10
-1.000000000000000E+20
 20
-1.000000000000000E+20
 30
-1.000000000000000E+20
  9
$PLIMMIN
 10
0.0
 20
0.0
  9
$PLIMMAX
 10
12.0
 20
9.0
  9
$UNITMODE
 70
     0
  9
$VISRETAIN
 70
     1
  9
$PLINEGEN
 70
     0
  9
$PSLTSCALE
 70
     1
  9
$TREEDEPTH
 70
  3020
  9
$CMLSTYLE
  2
Standard
  9
$CMLJUST
 70
     0
  9
$CMLSCALE
 40
1.0
  9
$PROXYGRAPHICS
 70
     1
  9
$MEASUREMENT
 70
     0
  9
$CELWEIGHT
370
    -1
  9
$ENDCAPS
280
     0
  9
$JOINSTYLE
280
     0
  9
$LWDISPLAY
290
     0
  9
$INSUNITS
 70
     0
  9
$HYPERLINKBASE
  1

  9
$STYLESHEET
  1

  9
$XEDIT
290
     1
  9
$CEPSNTYPE
380
     0
  9
$PSTYLEMODE
290
     1
  9
$FINGERPRINTGUID
  2
{29D3A75E-B7BD-4DBB-A977-3F4DF14F7ABF}
  9
$VERSIONGUID
  2
{45105CAB-AB8F-4FB8-8AF5-99750117350D}
  9
$EXTNAMES
290
     1
  9
$PSVPSCALE
 40
0.0
  9
$OLESTARTUP
290
     0
  0
ENDSEC
  0
SECTION
  2
CLASSES
  0
CLASS
  1
ACDBDICTIONARYWDFLT
  2
AcDbDictionaryWithDefault
  3
ObjectDBX Classes
 90
        0
280
     0
281
     0
  0
CLASS
  1
MATERIAL
  2
AcDbMaterial
  3
ObjectDBX Classes
 90
     1153
280
     0
281
     0
  0
CLASS
  1
VISUALSTYLE
  2
AcDbVisualStyle
  3
ObjectDBX Classes
 90
     4095
280
     0
281
     0
  0
CLASS
  1
SCALE
  2
AcDbScale
  3
ObjectDBX Classes
 90
     1153
280
     0
281
     0
  0
CLASS
  1
TABLESTYLE
  2
AcDbTableStyle
  3
ObjectDBX Classes
 90
     4095
280
     0
281
     0
  0
CLASS
  1
MLEADERSTYLE
  2
AcDbMLeaderStyle
  3
ACDB_MLEADERSTYLE_CLASS
 90
     4095
280
     0
281
     0
  0
CLASS
  1
SORTENTSTABLE
  2
AcDbSortentsTable
  3
ObjectDBX Classes
 90
        0
280
     0
281
     0
  0
CLASS
  1
DICTIONARYVAR
  2
AcDbDictionaryVar
  3
ObjectDBX Classes
 90
        0
280
     0
281
     0
  0
CLASS
  1
CELLSTYLEMAP
  2
AcDbCellStyleMap
  3
ObjectDBX Classes
 90
     1152
280
     0
281
     0
  0
CLASS
  1
ACDBPLACEHOLDER
  2
AcDbPlaceHolder
  3
ObjectDBX Classes
 90
        0
280
     0
281
     0
  0
CLASS
  1
LAYOUT
  2
AcDbLayout
  3
ObjectDBX Classes
 90
        0
280
     0
281
     0
  0
ENDSEC
  0
SECTION
  2
TABLES
  0
TABLE
  2
VPORT
  5
8
330
0
100
AcDbSymbolTable
 70
     1
  0
VPORT
  5
8B
330
8
100
AcDbSymbolTableRecord
100
AcDbViewportTableRecord
  2
*Active
 70
     0
 10
0.0
 20
0.0
 11
1.0
 21
1.0
 12
293.7840347110493
 22
-8.421651860394945
 13
0.0
 23
0.0
 14
1.0
 24
1.0
 15
0.0
 25
0.0
 16
0.0
 26
0.0
 36
1.0
 17
0.0
 27
0.0
 37
0.0
 40
283.2644664043534
 41
1.571830985915492
 42
50.0
 43
0.0
 44
0.0
 50
0.0
 51
0.0
 71
     0
 72
   100
 73
     1
 74
     1
 75
     0
 76
     0
 77
     0
 78
     0
281
     0
 65
     1
110
0.0
120
0.0
130
0.0
111
1.0
121
0.0
131
0.0
112
0.0
122
1.0
132
0.0
 79
     0
146
0.0
  0
ENDTAB
  0
TABLE
  2
LTYPE
  5
5
330
0
100
AcDbSymbolTable
 70
     2
  0
LTYPE
  5
5A
330
5
100
AcDbSymbolTableRecord
100
AcDbLinetypeTableRecord
  2
ByBlock
 70
     0
  3

 72
    65
 73
     0
 40
0.0
  0
LTYPE
  5
5B
330
5
100
AcDbSymbolTableRecord
100
AcDbLinetypeTableRecord
  2
ByLayer
 70
     0
  3

 72
    65
 73
     0
 40
0.0
  0
LTYPE
  5
5C
330
5
100
AcDbSymbolTableRecord
100
AcDbLinetypeTableRecord
  2
CONTINUOUS
 70
     0
  3
Solid-line
 72
    65
 73
     0
 40
0.0
  0
ENDTAB
  0
TABLE
  2
LAYER
  5
2
102
{ACAD_XDICTIONARY
360
2A7
102
}
330
0
100
AcDbSymbolTable
 70
     2
  0
LAYER
  5
54
102
{ACAD_XDICTIONARY
360
419
102
}
330
2
100
AcDbSymbolTableRecord
100
AcDbLayerTableRecord
  2
0
 70
     0
 62
     7
  6
CONTINUOUS
370
    -3
390
F
  0
LAYER
  5
290
330
2
100
AcDbSymbolTableRecord
100
AcDbLayerTableRecord
  2
Defpoints
 70
     0
 62
     7
  6
CONTINUOUS
290
     0
370
    -3
390
F
  0
ENDTAB
  0
TABLE
  2
STYLE
  5
3
330
0
100
AcDbSymbolTable
 70
     5
  0
STYLE
  5
55
330
3
100
AcDbSymbolTableRecord
100
AcDbTextStyleTableRecord
  2
STANDARD
 70
     0
 40
0.0
 41
1.0
 50
0.0
 71
     0
 42
0.2
  3
TXT
  4
BIGFONT
  0
STYLE
  5
291
330
3
100
AcDbSymbolTableRecord
100
AcDbTextStyleTableRecord
  2
高3.2
 70
     0
 40
3.2
 41
1.0
 50
0.0
 71
     0
 42
3.2
  3
txt.shx
  4
bigfont.shx
  0
STYLE
  5
292
330
3
100
AcDbSymbolTableRecord
100
AcDbTextStyleTableRecord
  2
高6.3
 70
     0
 40
6.299999999999998
 41
1.0
 50
0.0
 71
     0
 42
6.299999999999998
  3
txt.shx
  4
bigfont.shx
  0
STYLE
  5
294
330
3
100
AcDbSymbolTableRecord
100
AcDbTextStyleTableRecord
  2
高4.5
 70
     0
 40
4.5
 41
1.0
 50
0.0
 71
     0
 42
6.299999999999998
  3
txt.shx
  4
bigfont.shx
  0
STYLE
  5
295
330
3
100
AcDbSymbolTableRecord
100
AcDbTextStyleTableRecord
  2
高2
 70
     0
 40
2.0
 41
1.0
 50
0.0
 71
     0
 42
2.0
  3
txt.shx
  4
bigfont.shx
  0
ENDTAB
  0
TABLE
  2
VIEW
  5
6
330
0
100
AcDbSymbolTable
 70
     0
  0
ENDTAB
  0
TABLE
  2
UCS
  5
7
330
0
100
AcDbSymbolTable
 70
     0
  0
ENDTAB
  0
TABLE
  2
APPID
  5
9
330
0
100
AcDbSymbolTable
 70
    10
  0
APPID
  5
56
330
9
100
AcDbSymbolTableRecord
100
AcDbRegAppTableRecord
  2
ACAD
 70
     0
  0
APPID
  5
5D
330
9
100
AcDbSymbolTableRecord
100
AcDbRegAppTableRecord
  2
AcadAnnotative
 70
     0
  0
APPID
  5
2A0
330
9
100
AcDbSymbolTableRecord
100
AcDbRegAppTableRecord
  2
ACAD_DSTYLE_DIMJOGGED_JOGANGLE_SYMBOL
 70
     0
  0
APPID
  5
2A1
330
9
100
AcDbSymbolTableRecord
100
AcDbRegAppTableRecord
  2
ACAD_DSTYLE_DIMJAG
 70
     0
  0
APPID
  5
2A2
330
9
100
AcDbSymbolTableRecord
100
AcDbRegAppTableRecord
  2
ACAD_DSTYLE_DIMBREAK
 70
     0
  0
APPID
  5
2A3
330
9
100
AcDbSymbolTableRecord
100
AcDbRegAppTableRecord
  2
ACAD_DSTYLE_DIMTALN
 70
     0
  0
APPID
  5
3E7
330
9
100
AcDbSymbolTableRecord
100
AcDbRegAppTableRecord
  2
ACAD_EXEMPT_FROM_CAD_STANDARDS
 70
     0
  0
APPID
  5
45F
330
9
100
AcDbSymbolTableRecord
100
AcDbRegAppTableRecord
  2
ACAD_MLEADERVER
 70
     0
  0
APPID
  5
464
330
9
100
AcDbSymbolTableRecord
100
AcDbRegAppTableRecord
  2
ACAD_DSTYLE_DIMARC_LENGTH_SYMBOL
 70
     0
  0
APPID
  5
465
330
9
100
AcDbSymbolTableRecord
100
AcDbRegAppTableRecord
  2
ACAD_DSTYLE_DIMEXT_LENGTH
 70
     0
  0
ENDTAB
  0
TABLE
  2
DIMSTYLE
  5
A
330
0
100
AcDbSymbolTable
 70
     2
100
AcDbDimStyleTable
 71
     1
340
29F
  0
DIMSTYLE
105
57
330
A
100
AcDbSymbolTableRecord
100
AcDbDimStyleTableRecord
  2
Standard
 70
     0
340
55
  0
DIMSTYLE
105
29F
330
A
100
AcDbSymbolTableRecord
100
AcDbDimStyleTableRecord
  2
FREE
 70
     0
 41
2.5
 42
0.25
 43
0.2
 44
1.25
 73
     0
 74
     0
 77
     3
 78
     8
 79
     2
140
3.0
141
0.0
143
0.03937007874016
147
0.625
171
     3
172
     1
178
     4
179
     1
271
     2
272
     2
274
     3
283
     0
284
     8
288
     1
289
     0
340
55
341
200
342
200
1001
ACAD_DSTYLE_DIMBREAK
1070
   391
1040
3.75
1001
ACAD_DSTYLE_DIMJAG
1070
   388
1040
1.5
1001
ACAD_DSTYLE_DIMTALN
1070
   392
1070
     0
1001
ACAD_DSTYLE_DIMARC_LENGTH_SYMBOL
1070
   379
1070
     2
1001
ACAD_DSTYLE_DIMEXT_LENGTH
1070
   378
1040
1.25
1001
ACAD_DSTYLE_DIMJOGGED_JOGANGLE_SYMBOL
1070
   384
1040
1.570796326794896
  0
ENDTAB
  0
TABLE
  2
BLOCK_RECORD
  5
1
330
0
100
AcDbSymbolTable
 70
     2
  0
BLOCK_RECORD
  5
6B
102
{ACAD_XDICTIONARY
360
505
102
}
330
1
100
AcDbSymbolTableRecord
100
AcDbBlockTableRecord
  2
*Model_Space
340
6E
  0
BLOCK_RECORD
  5
67
330
1
100
AcDbSymbolTableRecord
100
AcDbBlockTableRecord
  2
*Paper_Space
340
6A
  0
BLOCK_RECORD
  5
200
330
1
100
AcDbSymbolTableRecord
100
AcDbBlockTableRecord
  2
_Open30
340
0
102
{BLKREFS
331
4BC
331
4BD
102
}
  0
BLOCK_RECORD
  5
3E9
330
1
100
AcDbSymbolTableRecord
100
AcDbBlockTableRecord
  2
*D1
340
0
  0
ENDTAB
  0
ENDSEC
  0
SECTION
  2
BLOCKS
  0
BLOCK
  5
6C
330
6B
100
AcDbEntity
  8
0
100
AcDbBlockBegin
  2
*Model_Space
 70
     0
 10
0.0
 20
0.0
 30
0.0
  3
*Model_Space
  1

  0
ENDBLK
  5
6D
330
6B
100
AcDbEntity
  8
0
100
AcDbBlockEnd
  0
BLOCK
  5
68
330
67
100
AcDbEntity
 67
     1
  8
0
100
AcDbBlockBegin
  2
*Paper_Space
 70
     0
 10
0.0
 20
0.0
 30
0.0
  3
*Paper_Space
  1

  0
ENDBLK
  5
69
330
67
100
AcDbEntity
 67
     1
  8
0
100
AcDbBlockEnd
  0
BLOCK
  5
201
330
200
100
AcDbEntity
  8
0
100
AcDbBlockBegin
  2
_Open30
 70
     0
 10
0.0
 20
0.0
 30
0.0
  3
_Open30
  1

  0
LINE
  5
202
330
200
100
AcDbEntity
  8
0
  6
ByBlock
 62
     0
370
    -2
100
AcDbLine
 10
-1.0
 20
0.267949
 30
0.0
 11
0.0
 21
0.0
 31
0.0
  0
LINE
  5
203
330
200
100
AcDbEntity
  8
0
  6
ByBlock
 62
     0
370
    -2
100
AcDbLine
 10
0.0
 20
0.0
 30
0.0
 11
-1.0
 21
-0.267949
 31
0.0
  0
LINE
  5
204
330
200
100
AcDbEntity
  8
0
  6
ByBlock
 62
     0
370
    -2
100
AcDbLine
 10
0.0
 20
0.0
 30
0.0
 11
-1.0
 21
0.0
 31
0.0
  0
ENDBLK
  5
205
330
200
100
AcDbEntity
  8
0
100
AcDbBlockEnd
  0
BLOCK
  5
3EA
330
3E9
100
AcDbEntity
  8
0
100
AcDbBlockBegin
  2
*D1
 70
     1
 10
0.0
 20
0.0
 30
0.0
  3
*D1
  1

  0
LINE
  5
4B9
330
3E9
100
AcDbEntity
  8
0
 62
     0
370
    -2
100
AcDbLine
 10
215.917212
 20
12.766326
 30
0.0
 11
215.917212
 21
-12.519291
 31
0.0
  0
LINE
  5
4BA
330
3E9
100
AcDbEntity
  8
0
 62
     0
370
    -2
100
AcDbLine
 10
394.921516
 20
8.298744000000001
 30
0.0
 11
394.921516
 21
-12.519291
 31
0.0
  0
LINE
  5
4BB
330
3E9
100
AcDbEntity
  8
0
 62
     0
370
    -2
100
AcDbLine
 10
218.417212
 20
-11.269291
 30
0.0
 11
392.421516
 21
-11.269291
 31
0.0
  0
INSERT
  5
4BC
330
3E9
100
AcDbEntity
  8
0
 62
     0
370
    -2
100
AcDbBlockReference
  2
_Open30
 10
215.917212
 20
-11.269291
 30
0.0
 41
2.5
 42
2.5
 43
2.5
 50
180.0
  0
INSERT
  5
4BD
330
3E9
100
AcDbEntity
  8
0
 62
     0
370
    -2
100
AcDbBlockReference
  2
_Open30
 10
394.921516
 20
-11.269291
 30
0.0
 41
2.5
 42
2.5
 43
2.5
  0
MTEXT
  5
4BE
330
3E9
100
AcDbEntity
  8
0
 62
     4
100
AcDbMText
 10
305.419364
 20
-9.144291
 30
0.0
 40
3.0
 41
0.0
 71
     5
 72
     1
  1
電線長さ
 73
     1
 44
1.0
1001
ACAD
1000
MTEXTBEGIN
1070
    73
1070
     1
1070
    44
1040
1.0
1070
    74
1070
     0
1000
MTEXTEND
  0
POINT
  5
4BF
330
3E9
100
AcDbEntity
  8
Defpoints
 62
     0
100
AcDbPoint
 10
215.917212
 20
13.016326
 30
0.0
  0
POINT
  5
4C0
330
3E9
100
AcDbEntity
  8
Defpoints
 62
     0
100
AcDbPoint
 10
394.921516
 20
8.548744000000001
 30
0.0
  0
POINT
  5
4C1
330
3E9
100
AcDbEntity
  8
Defpoints
 62
     0
100
AcDbPoint
 10
394.921516
 20
-11.269291
 30
0.0
  0
ENDBLK
  5
3EB
330
3E9
100
AcDbEntity
  8
0
100
AcDbBlockEnd
  0
ENDSEC
  0
SECTION
  2
ENTITIES
  0
LINE
  5
A3
330
6B
100
AcDbEntity
  8
0
 62
     3
100
AcDbLine
 10
409.861067
 20
-77.51271899999998
 30
0.0
 11
409.861067
 21
-54.512719
 31
0.0
  0
LINE
  5
A5
330
6B
100
AcDbEntity
  8
0
 62
     3
100
AcDbLine
 10
356.807458
 20
-84.512719
 30
0.0
 11
356.807458
 21
-70.51271899999997
 31
0.0
  0
TEXT
  5
A7
330
6B
100
AcDbEntity
  8
0
 62
     3
100
AcDbText
 10
385.871385
 20
-58.307603
 30
0.0
 40
2.0
  1
A
 41
0.7
100
AcDbText
  0
TEXT
  5
A8
330
6B
100
AcDbEntity
  8
0
 62
     3
100
AcDbText
 10
388.406672
 20
-58.307603
 30
0.0
 40
2.0
  1
P
 41
0.7
100
AcDbText
  0
TEXT
  5
A9
330
6B
100
AcDbEntity
  8
0
 62
     3
100
AcDbText
 10
390.941958
 20
-58.307603
 30
0.0
 40
2.0
  1
P
 41
0.7
100
AcDbText
  0
TEXT
  5
AA
330
6B
100
AcDbEntity
  8
0
 62
     3
100
AcDbText
 10
393.477244
 20
-58.307603
 30
0.0
 40
2.0
  1
D
 41
0.7
100
AcDbText
  0
TEXT
  5
AB
330
6B
100
AcDbEntity
  8
0
 62
     3
100
AcDbText
 10
398.845927
 20
-58.307603
 30
0.0
 40
2.0
  1
C
 41
0.7
100
AcDbText
  0
TEXT
  5
AC
330
6B
100
AcDbEntity
  8
0
 62
     3
100
AcDbText
 10
401.3812129999998
 20
-58.307603
 30
0.0
 40
2.0
  1
H
 41
0.7
100
AcDbText
  0
TEXT
  5
AD
330
6B
100
AcDbEntity
  8
0
 62
     3
100
AcDbText
 10
403.9164999999998
 20
-58.307603
 30
0.0
 40
2.0
  1
C
 41
0.7
100
AcDbText
  0
TEXT
  5
AE
330
6B
100
AcDbEntity
  8
0
 62
     3
100
AcDbText
 10
406.4517859999998
 20
-58.307603
 30
0.0
 40
2.0
  1
K
 41
0.7
100
AcDbText
  0
TEXT
  5
AF
330
6B
100
AcDbEntity
  8
0
 62
     3
100
AcDbText
 10
412.1257519999998
 20
-58.307603
 30
0.0
 40
2.0
  1
DESN
 41
1.216762999999998
100
AcDbText
  0
TEXT
  5
B0
330
6B
100
AcDbEntity
  8
0
 62
     3
100
AcDbText
 10
327.119394
 20
-87.654101
 30
0.0
 40
2.0
  1
NICHIDO IND.CO.LTD
 41
1.274876
100
AcDbText
  0
LINE
  5
B1
330
6B
100
AcDbEntity
  8
0
 62
     3
100
AcDbLine
 10
337.502423
 20
-54.512719
 30
0.0
 11
337.502423
 21
-77.51271899999998
 31
0.0
  0
LINE
  5
B2
330
6B
100
AcDbEntity
  8
0
 62
     3
100
AcDbLine
 10
383.8610669999998
 20
-54.512719
 30
0.0
 11
383.861067
 21
-94.17844200000001
 31
0.0
  0
LINE
  5
B7
330
6B
100
AcDbEntity
  8
0
 62
     3
100
AcDbLine
 10
396.8610670000002
 20
-54.512719
 30
0.0
 11
396.861067
 21
-84.512719
 31
0.0
  0
TEXT
  5
B8
330
6B
100
AcDbEntity
  8
0
 62
     3
100
AcDbText
 10
385.139551
 20
-82.80746200000001
 30
0.0
 40
3.2
  1
作成日
 41
1.017225999999997
100
AcDbText
  0
LINE
  5
B9
330
6B
100
AcDbEntity
  8
0
 62
     3
100
AcDbLine
 10
435.5604309999998
 20
-54.512719
 30
0.0
 11
324.256988
 21
-54.512719
 31
0.0
  0
LINE
  5
BA
330
6B
100
AcDbEntity
  8
0
 62
     3
100
AcDbLine
 10
435.5604309999998
 20
-63.512719
 30
0.0
 11
324.256988
 21
-63.512719
 31
0.0
  0
LINE
  5
BB
330
6B
100
AcDbEntity
  8
0
 62
     3
100
AcDbLine
 10
435.5604309999998
 20
-77.51271899999998
 30
0.0
 11
324.256988
 21
-77.51271899999998
 31
0.0
  0
LINE
  5
BC
330
6B
100
AcDbEntity
  8
0
 62
     3
100
AcDbLine
 10
435.5604309999998
 20
-84.512719
 30
0.0
 11
324.256988
 21
-84.512719
 31
0.0
  0
LINE
  5
BD
330
6B
100
AcDbEntity
  8
0
 62
     3
100
AcDbLine
 10
422.861067
 20
-77.51271899999998
 30
0.0
 11
422.861067
 21
-54.512719
 31
0.0
  0
TEXT
  5
BE
330
6B
100
AcDbEntity
  8
0
 62
     3
100
AcDbText
 10
426.1848709999998
 20
-58.221784
 30
0.0
 40
1.8
  1
D
 41
0.666667
100
AcDbText
  0
TEXT
  5
BF
330
6B
100
AcDbEntity
  8
0
 62
     3
100
AcDbText
 10
429.001499
 20
-58.221784
 30
0.0
 40
1.8
  1
E
 41
0.666667
100
AcDbText
  0
TEXT
  5
C0
330
6B
100
AcDbEntity
  8
0
 62
     3
100
AcDbText
 10
431.8181269999998
 20
-58.221784
 30
0.0
 40
1.8
  1
F
 41
0.666667
100
AcDbText
  0
TEXT
  5
C1
330
6B
100
AcDbEntity
  8
0
 62
     3
100
AcDbText
 10
426.1848709999998
 20
-62.21433799999999
 30
0.0
 40
3.2
  1
製図
 41
1.076369
100
AcDbText
  0
LINE
  5
C2
330
6B
100
AcDbEntity
  8
0
 62
     3
100
AcDbLine
 10
324.256988
 20
-54.512719
 30
0.0
 11
324.256988
 21
-94.17844200000001
 31
0.0
  0
LINE
  5
C3
330
6B
100
AcDbEntity
  8
0
 62
     3
100
AcDbLine
 10
383.861067
 20
-70.51271899999997
 30
0.0
 11
324.256988
 21
-70.51271899999997
 31
0.0
  0
TEXT
  5
C4
330
6B
100
AcDbEntity
  8
0
 62
     3
100
AcDbText
 10
325.633641
 20
-93.84597599999999
 30
0.0
 40
5.0
  1
日動工業株式会社
 41
0.833333
100
AcDbText
  0
LINE
  5
C5
330
6B
100
AcDbEntity
  8
0
 62
     3
100
AcDbLine
 10
367.139392
 20
-70.51271899999995
 30
0.0
 11
367.139392
 21
-94.17844200000001
 31
0.0
  0
LINE
  5
C6
330
6B
100
AcDbEntity
  8
0
 62
     3
100
AcDbLine
 10
367.139392
 20
-89.34558
 30
0.0
 11
383.861067
 21
-89.34558
 31
0.0
  0
TEXT
  5
C7
330
6B
100
AcDbEntity
  8
0
 62
     3
100
AcDbText
 10
367.725994
 20
-88.52915000000001
 30
0.0
 40
3.2
  1
出図コード
 41
0.8356860000000001
100
AcDbText
  0
TEXT
  5
C8
330
6B
100
AcDbEntity
  8
0
 62
     3
100
AcDbText
 10
367.725994
 20
-93.362011
 30
0.0
 40
3.2
  1
HM-A4
 41
0.999426
100
AcDbText
  0
LINE
  5
DA
330
6B
100
AcDbEntity
  8
0
 62
     3
100
AcDbLine
 10
296.931837
 20
98.28755000000001
 30
0.0
 11
296.931837
 21
97.038991
 31
0.0
  0
TEXT
  5
DB
330
6B
100
AcDbEntity
  8
0
 62
     3
100
AcDbText
 10
342.6769791927044
 20
-62.67962218444603
 30
0.0
 40
5.0
  1
2芯延長コード　
 41
0.8720549999999999
100
AcDbText
  0
LINE
  5
DC
330
6B
100
AcDbEntity
  8
0
 62
     3
100
AcDbLine
 10
215.917212
 20
31.016326
 30
0.0
 11
215.917212
 21
13.016326
 31
0.0
  0
LINE
  5
DD
330
6B
100
AcDbEntity
  8
0
 62
     3
100
AcDbLine
 10
254.917212
 20
-7.983674
 30
0.0
 11
236.917212
 21
-7.983674
 31
0.0
  0
LINE
  5
DE
330
6B
100
AcDbEntity
  8
0
 62
     3
100
AcDbLine
 10
254.917212
 20
52.01632599999999
 30
0.0
 11
236.917212
 21
52.01632599999999
 31
0.0
  0
LINE
  5
DF
330
6B
100
AcDbEntity
  8
0
 62
     3
100
AcDbLine
 10
268.917212
 20
31.516326
 30
0.0
 11
268.917212
 21
12.516326
 31
0.0
  0
LINE
  5
E0
330
6B
100
AcDbEntity
  8
0
 62
     3
100
AcDbLine
 10
299.917212
 20
29.285537
 30
0.0
 11
299.917212
 21
15.016326
 31
0.0
  0
LINE
  5
E1
330
6B
100
AcDbEntity
  8
0
 62
     3
100
AcDbLine
 10
220.417212
 20
14.016326
 30
0.0
 11
231.917212
 21
14.016326
 31
0.0
  0
LINE
  5
E2
330
6B
100
AcDbEntity
  8
0
 62
     3
100
AcDbLine
 10
220.417212
 20
30.016326
 30
0.0
 11
231.917212
 21
30.016326
 31
0.0
  0
LINE
  5
E3
330
6B
100
AcDbEntity
  8
0
 62
     3
100
AcDbLine
 10
237.917212
 20
47.51632599999999
 30
0.0
 11
237.917212
 21
36.016326
 31
0.0
  0
LINE
  5
E4
330
6B
100
AcDbEntity
  8
0
 62
     3
100
AcDbLine
 10
253.917212
 20
-3.483673999999998
 30
0.0
 11
253.917212
 21
7.045441999999997
 31
0.0
  0
LINE
  5
E5
330
6B
100
AcDbEntity
  8
0
 62
     3
100
AcDbLine
 10
268.917212
 20
12.516326
 30
0.0
 11
266.917212
 21
12.516326
 31
0.0
  0
LINE
  5
E6
330
6B
100
AcDbEntity
  8
0
 62
     3
100
AcDbLine
 10
268.917212
 20
31.516326
 30
0.0
 11
266.917212
 21
31.516326
 31
0.0
  0
ARC
  5
E7
330
6B
100
AcDbEntity
  8
0
 62
     3
100
AcDbCircle
 10
231.917212
 20
36.016326
 30
0.0
 40
6.0
100
AcDbArc
 50
270.0
 51
0.0
  0
LINE
  5
E8
330
6B
100
AcDbEntity
  8
0
 62
     3
100
AcDbLine
 10
237.917212
 20
-3.483673999999998
 30
0.0
 11
237.917212
 21
8.016325999999999
 31
0.0
  0
ARC
  5
E9
330
6B
100
AcDbEntity
  8
0
 62
     3
100
AcDbCircle
 10
231.917212
 20
8.016325999999999
 30
0.0
 40
6.0
100
AcDbArc
 50
0.0
 51
90.0
  0
LINE
  5
EA
330
6B
100
AcDbEntity
  8
0
 62
     3
100
AcDbLine
 10
253.917212
 20
47.51632599999999
 30
0.0
 11
253.917212
 21
36.98721
 31
0.0
  0
CIRCLE
  5
EB
330
6B
100
AcDbEntity
  8
0
 62
     3
100
AcDbCircle
 10
288.917212
 20
47.01632599999999
 30
0.0
 40
9.0
  0
CIRCLE
  5
EC
330
6B
100
AcDbEntity
  8
0
 62
     3
100
AcDbCircle
 10
288.917212
 20
47.01632599999999
 30
0.0
 40
4.0
  0
LINE
  5
ED
330
6B
100
AcDbEntity
  8
0
 62
     3
100
AcDbLine
 10
286.417212
 20
38.370518
 30
0.0
 11
286.417212
 21
30.105036
 31
0.0
  0
LINE
  5
EE
330
6B
100
AcDbEntity
  8
0
 62
     3
100
AcDbLine
 10
219.417212
 20
13.016326
 30
0.0
 11
215.917212
 21
13.016326
 31
0.0
  0
LINE
  5
EF
330
6B
100
AcDbEntity
  8
0
 62
     3
100
AcDbLine
 10
219.417212
 20
31.016326
 30
0.0
 11
215.917212
 21
31.016326
 31
0.0
  0
LINE
  5
F0
330
6B
100
AcDbEntity
  8
0
 62
     3
100
AcDbLine
 10
236.917212
 20
52.01632599999999
 30
0.0
 11
236.917212
 21
48.516326
 31
0.0
  0
LINE
  5
F1
330
6B
100
AcDbEntity
  8
0
 62
     3
100
AcDbLine
 10
254.917212
 20
52.01632599999999
 30
0.0
 11
254.917212
 21
48.516326
 31
0.0
  0
LINE
  5
F2
330
6B
100
AcDbEntity
  8
0
 62
     3
100
AcDbLine
 10
236.917212
 20
-4.483673999999997
 30
0.0
 11
236.917212
 21
-7.983674
 31
0.0
  0
LINE
  5
F3
330
6B
100
AcDbEntity
  8
0
 62
     3
100
AcDbLine
 10
254.917212
 20
-4.483673999999997
 30
0.0
 11
254.917212
 21
-7.983674
 31
0.0
  0
ARC
  5
F4
330
6B
100
AcDbEntity
  8
0
 62
     3
100
AcDbCircle
 10
261.568387
 20
36.98721
 30
0.0
 40
7.651175999999997
100
AcDbArc
 50
180.0
 51
314.353658
  0
ARC
  5
F5
330
6B
100
AcDbEntity
  8
0
 62
     3
100
AcDbCircle
 10
261.568387
 20
7.045441999999997
 30
0.0
 40
7.651175999999997
100
AcDbArc
 50
45.64634199999999
 51
180.0
  0
LINE
  5
F6
330
6B
100
AcDbEntity
  8
0
 62
     3
100
AcDbLine
 10
207.176615
 20
27.18775900000001
 30
0.0
 11
207.176615
 21
15.695701
 31
0.0
  0
LINE
  5
F7
330
6B
100
AcDbEntity
  8
0
 62
     3
100
AcDbLine
 10
181.176615
 20
15.695701
 30
0.0
 11
181.176615
 21
27.18775900000001
 31
0.0
  0
ARC
  5
F8
330
6B
100
AcDbEntity
  8
0
 62
     3
100
AcDbCircle
 10
184.176615
 20
27.18775900000001
 30
0.0
 40
3.0
100
AcDbArc
 50
92.909666
 51
180.0
  0
ARC
  5
F9
330
6B
100
AcDbEntity
  8
0
 62
     3
100
AcDbCircle
 10
194.176615
 20
-169.55827
 30
0.0
 40
200.0
100
AcDbArc
 50
87.090334
 51
92.909666
  0
ARC
  5
FA
330
6B
100
AcDbEntity
  8
0
 62
     3
100
AcDbCircle
 10
184.176615
 20
15.695701
 30
0.0
 40
3.0
100
AcDbArc
 50
180.0
 51
267.090334
  0
ARC
  5
FB
330
6B
100
AcDbEntity
  8
0
 62
     3
100
AcDbCircle
 10
194.176615
 20
212.44173
 30
0.0
 40
200.0
100
AcDbArc
 50
267.090334
 51
272.909666
  0
ARC
  5
FC
330
6B
100
AcDbEntity
  8
0
 62
     3
100
AcDbCircle
 10
204.176615
 20
15.695701
 30
0.0
 40
3.0
100
AcDbArc
 50
272.909666
 51
0.0
  0
ARC
  5
FD
330
6B
100
AcDbEntity
  8
0
 62
     3
100
AcDbCircle
 10
204.176615
 20
27.18775900000001
 30
0.0
 40
3.0
100
AcDbArc
 50
0.0
 51
87.090334
  0
LINE
  5
FE
330
6B
100
AcDbEntity
  8
0
 62
     3
100
AcDbLine
 10
201.626615
 20
24.94173
 30
0.0
 11
201.626615
 21
17.94173
 31
0.0
  0
LINE
  5
FF
330
6B
100
AcDbEntity
  8
0
 62
     3
100
AcDbLine
 10
199.426615
 20
24.94173
 30
0.0
 11
199.426615
 21
17.94173
 31
0.0
  0
LINE
  5
100
330
6B
100
AcDbEntity
  8
0
 62
     3
100
AcDbLine
 10
186.726615
 20
24.94173
 30
0.0
 11
186.726615
 21
17.94173
 31
0.0
  0
LINE
  5
101
330
6B
100
AcDbEntity
  8
0
 62
     3
100
AcDbLine
 10
188.926615
 20
24.94173
 30
0.0
 11
188.926615
 21
17.94173
 31
0.0
  0
LINE
  5
102
330
6B
100
AcDbEntity
  8
0
 62
     3
100
AcDbLine
 10
201.626615
 20
17.94173
 30
0.0
 11
199.426615
 21
17.94173
 31
0.0
  0
LINE
  5
103
330
6B
100
AcDbEntity
  8
0
 62
     3
100
AcDbLine
 10
188.926615
 20
17.94173
 30
0.0
 11
186.726615
 21
17.94173
 31
0.0
  0
LINE
  5
104
330
6B
100
AcDbEntity
  8
0
 62
     3
100
AcDbLine
 10
201.626615
 20
24.94173
 30
0.0
 11
199.426615
 21
24.94173
 31
0.0
  0
LINE
  5
105
330
6B
100
AcDbEntity
  8
0
 62
     3
100
AcDbLine
 10
188.926615
 20
24.94173
 30
0.0
 11
186.726615
 21
24.94173
 31
0.0
  0
LINE
  5
106
330
6B
100
AcDbEntity
  8
0
 62
     3
100
AcDbLine
 10
299.917212
 20
29.285537
 30
0.0
 11
268.917212
 21
30.016326
 31
0.0
  0
LINE
  5
107
330
6B
100
AcDbEntity
  8
0
 62
     3
100
AcDbLine
 10
299.917212
 20
15.016326
 30
0.0
 11
268.917212
 21
14.016326
 31
0.0
  0
LINE
  5
108
330
6B
100
AcDbEntity
  8
0
 62
     3
100
AcDbLine
 10
236.917212
 20
-4.483673999999997
 30
0.0
 11
237.917212
 21
-3.483673999999998
 31
0.0
  0
LINE
  5
109
330
6B
100
AcDbEntity
  8
0
 62
     3
100
AcDbLine
 10
253.917212
 20
-3.483673999999998
 30
0.0
 11
254.917212
 21
-4.483673999999997
 31
0.0
  0
LINE
  5
10A
330
6B
100
AcDbEntity
  8
0
 62
     3
100
AcDbLine
 10
220.417212
 20
14.016326
 30
0.0
 11
219.417212
 21
13.016326
 31
0.0
  0
LINE
  5
10B
330
6B
100
AcDbEntity
  8
0
 62
     3
100
AcDbLine
 10
219.417212
 20
31.016326
 30
0.0
 11
220.417212
 21
30.016326
 31
0.0
  0
LINE
  5
10C
330
6B
100
AcDbEntity
  8
0
 62
     3
100
AcDbLine
 10
254.917212
 20
48.516326
 30
0.0
 11
253.917212
 21
47.51632599999999
 31
0.0
  0
LINE
  5
10D
330
6B
100
AcDbEntity
  8
0
 62
     3
100
AcDbLine
 10
236.917212
 20
48.516326
 30
0.0
 11
237.917212
 21
47.51632599999999
 31
0.0
  0
LINE
  5
10E
330
6B
100
AcDbEntity
  8
0
 62
     3
100
AcDbLine
 10
291.417212
 20
38.370518
 30
0.0
 11
291.417212
 21
29.70181
 31
0.0
  0
TEXT
  5
10F
330
6B
100
AcDbEntity
  8
0
 62
     2
100
AcDbText
 10
247.904723
 20
12.442156
 30
0.0
 40
4.0
  1
1500
 50
90.00000300000001
 41
0.9
100
AcDbText
  0
TEXT
  5
110
330
6B
100
AcDbEntity
  8
0
 62
     2
100
AcDbText
 10
247.504723
 20
7.125219
 30
0.0
 40
3.2
  1
合計
 50
90.00000300000001
 41
0.833333
100
AcDbText
  0
TEXT
  5
111
330
6B
100
AcDbEntity
  8
0
 62
     2
100
AcDbText
 10
247.504723
 20
24.462409
 30
0.0
 40
3.2
  1
ワットまで
 50
90.00000300000001
 41
0.645365
100
AcDbText
  0
ARC
  5
112
330
6B
100
AcDbEntity
  8
0
 62
     2
100
AcDbCircle
 10
237.852967
 20
22.070772
 30
0.0
 40
5.0
100
AcDbArc
 50
302.049651
 51
118.326247
  0
ARC
  5
113
330
6B
100
AcDbEntity
  8
0
 62
     2
100
AcDbCircle
 10
237.852967
 20
22.070772
 30
0.0
 40
4.5
100
AcDbArc
 50
6.379369999999997
 51
113.964579
  0
LINE
  5
114
330
6B
100
AcDbEntity
  8
0
 62
     2
100
AcDbLine
 10
236.025194
 20
26.182858
 30
0.0
 11
242.325103
 21
22.570772
 31
0.0
  0
LINE
  5
115
330
6B
100
AcDbEntity
  8
0
 62
     2
100
AcDbLine
 10
235.624953
 20
25.980498
 30
0.0
 11
239.602967
 21
22.570772
 31
0.0
  0
ARC
  5
116
330
6B
100
AcDbEntity
  8
0
 62
     2
100
AcDbCircle
 10
237.852967
 20
22.070772
 30
0.0
 40
4.5
100
AcDbArc
 50
119.677275
 51
173.62063
  0
ARC
  5
117
330
6B
100
AcDbEntity
  8
0
 62
     2
100
AcDbCircle
 10
237.852967
 20
22.070772
 30
0.0
 40
5.0
100
AcDbArc
 50
122.049649
 51
298.326247
  0
LINE
  5
118
330
6B
100
AcDbEntity
  8
0
 62
     2
100
AcDbLine
 10
235.199697
 20
26.308715
 30
0.0
 11
234.352967
 21
27.070772
 31
0.0
  0
LINE
  5
119
330
6B
100
AcDbEntity
  8
0
 62
     2
100
AcDbLine
 10
234.352967
 20
27.070772
 30
0.0
 11
235.446446
 21
26.453541
 31
0.0
  0
LINE
  5
11A
330
6B
100
AcDbEntity
  8
0
 62
     2
100
AcDbLine
 10
239.602967
 20
22.570772
 30
0.0
 11
233.380831
 21
22.570772
 31
0.0
  0
LINE
  5
11B
330
6B
100
AcDbEntity
  8
0
 62
     2
100
AcDbLine
 10
242.325103
 20
21.570772
 30
0.0
 11
236.102967
 21
21.570772
 31
0.0
  0
LINE
  5
11C
330
6B
100
AcDbEntity
  8
0
 62
     2
100
AcDbLine
 10
240.08098
 20
18.161046
 30
0.0
 11
236.102967
 21
21.570772
 31
0.0
  0
LINE
  5
11D
330
6B
100
AcDbEntity
  8
0
 62
     2
100
AcDbLine
 10
239.68074
 20
17.958687
 30
0.0
 11
233.384592
 21
21.538202
 31
0.0
  0
ARC
  5
11E
330
6B
100
AcDbEntity
  8
0
 62
     2
100
AcDbCircle
 10
237.852967
 20
22.070772
 30
0.0
 40
4.5
100
AcDbArc
 50
299.677275
 51
353.62063
  0
ARC
  5
11F
330
6B
100
AcDbEntity
  8
0
 62
     2
100
AcDbCircle
 10
237.852967
 20
22.070772
 30
0.0
 40
4.5
100
AcDbArc
 50
186.37937
 51
293.964579
  0
LINE
  5
120
330
6B
100
AcDbEntity
  8
0
 62
     2
100
AcDbLine
 10
241.352967
 20
17.070772
 30
0.0
 11
240.255721
 21
17.685938
 31
0.0
  0
LINE
  5
121
330
6B
100
AcDbEntity
  8
0
 62
     2
100
AcDbLine
 10
240.506236
 20
17.832829
 30
0.0
 11
241.352967
 21
17.070772
 31
0.0
  0
LINE
  5
122
330
6B
100
AcDbEntity
  8
0
 62
     3
100
AcDbLine
 10
356.921516
 20
31.048744
 30
0.0
 11
356.921516
 21
13.048744
 31
0.0
  0
LINE
  5
123
330
6B
100
AcDbEntity
  8
0
 62
     3
100
AcDbLine
 10
324.921516
 20
15.533241
 30
0.0
 11
324.921516
 21
28.564247
 31
0.0
  0
LINE
  5
124
330
6B
100
AcDbEntity
  8
0
 62
     3
100
AcDbLine
 10
325.905893
 20
29.564125
 30
0.0
 11
356.921516
 21
30.048744
 31
0.0
  0
LINE
  5
125
330
6B
100
AcDbEntity
  8
0
 62
     3
100
AcDbLine
 10
325.905893
 20
14.533363
 30
0.0
 11
356.921516
 21
14.048744
 31
0.0
  0
LINE
  5
126
330
6B
100
AcDbEntity
  8
0
 62
     3
100
AcDbLine
 10
356.921516
 20
31.048744
 30
0.0
 11
358.921516
 21
31.798744
 31
0.0
  0
LINE
  5
127
330
6B
100
AcDbEntity
  8
0
 62
     3
100
AcDbLine
 10
356.921516
 20
13.048744
 30
0.0
 11
358.921516
 21
12.298744
 31
0.0
  0
LINE
  5
128
330
6B
100
AcDbEntity
  8
0
 62
     3
100
AcDbLine
 10
394.921516
 20
35.548744
 30
0.0
 11
394.921516
 21
8.548744000000001
 31
0.0
  0
LINE
  5
129
330
6B
100
AcDbEntity
  8
0
 62
     3
100
AcDbLine
 10
384.769957
 20
35.548744
 30
0.0
 11
394.921516
 21
35.548744
 31
0.0
  0
ARC
  5
12A
330
6B
100
AcDbEntity
  8
0
 62
     3
100
AcDbCircle
 10
366.241828
 20
51.47999399999999
 30
0.0
 40
20.998537
100
AcDbArc
 50
249.597644
 51
300.591744
  0
ARC
  5
12B
330
6B
100
AcDbEntity
  8
0
 62
     3
100
AcDbCircle
 10
384.769957
 20
20.140334
 30
0.0
 40
15.40841
100
AcDbArc
 50
90.0
 51
120.591744
  0
ARC
  5
12C
330
6B
100
AcDbEntity
  8
0
 62
     3
100
AcDbCircle
 10
366.241828
 20
-7.382505999999997
 30
0.0
 40
20.998537
100
AcDbArc
 50
59.40825600000001
 51
110.402356
  0
ARC
  5
12D
330
6B
100
AcDbEntity
  8
0
 62
     3
100
AcDbCircle
 10
384.769957
 20
23.957154
 30
0.0
 40
15.40841
100
AcDbArc
 50
239.408256
 51
270.0
  0
LINE
  5
12E
330
6B
100
AcDbEntity
  8
0
 62
     3
100
AcDbLine
 10
384.769957
 20
8.548744000000001
 30
0.0
 11
394.921516
 21
8.548744000000001
 31
0.0
  0
CIRCLE
  5
12F
330
6B
100
AcDbEntity
  8
0
 62
     3
100
AcDbCircle
 10
379.921516
 20
22.048744
 30
0.0
 40
6.0
  0
ARC
  5
130
330
6B
100
AcDbEntity
  8
0
 62
     3
100
AcDbCircle
 10
325.921516
 20
28.564247
 30
0.0
 40
1.0
100
AcDbArc
 50
90.895174
 51
180.0
  0
ARC
  5
131
330
6B
100
AcDbEntity
  8
0
 62
     3
100
AcDbCircle
 10
325.921516
 20
15.533241
 30
0.0
 40
1.0
100
AcDbArc
 50
180.0
 51
269.104826
  0
LINE
  5
144
330
6B
100
AcDbEntity
  8
0
 62
     3
100
AcDbLine
 10
313.753806
 20
26.748744
 30
0.0
 11
324.921516
 21
26.748744
 31
0.0
  0
LINE
  5
145
330
6B
100
AcDbEntity
  8
0
 62
     3
100
AcDbLine
 10
311.180192
 20
26.748744
 30
0.0
 11
299.917212
 21
26.748744
 31
0.0
  0
LINE
  5
146
330
6B
100
AcDbEntity
  8
0
 62
     3
100
AcDbLine
 10
312.554762
 20
17.348744
 30
0.0
 11
324.921516
 21
17.348744
 31
0.0
  0
LINE
  5
147
330
6B
100
AcDbEntity
  8
0
 62
     3
100
AcDbLine
 10
309.915131
 20
17.348744
 30
0.0
 11
299.917212
 21
17.348744
 31
0.0
  0
LINE
  5
148
330
6B
100
AcDbEntity
  8
0
 62
     3
100
AcDbLine
 10
165.343485
 20
-23.462841
 30
0.0
 11
165.343485
 21
-58.462841
 31
0.0
  0
LINE
  5
149
330
6B
100
AcDbEntity
  8
0
 62
     3
100
AcDbLine
 10
265.5352218962115
 20
-23.462841
 30
0.0
 11
265.5352218962115
 21
-58.462841
 31
0.0
  0
LINE
  5
14A
330
6B
100
AcDbEntity
  8
0
100
AcDbLine
 10
194.4487842658097
 20
-23.462841
 30
0.0
 11
194.4487842658097
 21
-58.462841
 31
0.0
  0
TEXT
  5
14B
330
6B
100
AcDbEntity
  8
0
 62
     3
100
AcDbText
 10
197.586592
 20
-21.652287
 30
0.0
 40
4.5
  1
主　仕　様（屋内型）
  7
高4.5
100
AcDbText
  0
LINE
  5
14C
330
6B
100
AcDbEntity
  8
0
 62
     3
100
AcDbLine
 10
219.480503
 20
67.881431
 30
0.0
 11
219.480503
 21
47.881431
 31
0.0
  0
LINE
  5
14D
330
6B
100
AcDbEntity
  8
0
 62
     3
100
AcDbLine
 10
191.480503
 20
47.881431
 30
0.0
 11
191.480503
 21
67.881431
 31
0.0
  0
LINE
  5
14E
330
6B
100
AcDbEntity
  8
0
 62
     3
100
AcDbLine
 10
219.480503
 20
67.881431
 30
0.0
 11
191.480503
 21
67.881431
 31
0.0
  0
LINE
  5
14F
330
6B
100
AcDbEntity
  8
0
 62
     3
100
AcDbLine
 10
219.480503
 20
47.881431
 30
0.0
 11
191.480503
 21
47.881431
 31
0.0
  0
TEXT
  5
150
330
6B
100
AcDbEntity
  8
0
 62
     3
100
AcDbText
 10
194.987192
 20
51.649555
 30
0.0
 40
3.2
  1
15A 125V
 41
0.9099199999999999
100
AcDbText
  0
TEXT
  5
151
330
6B
100
AcDbEntity
  8
0
 62
     3
100
AcDbText
 10
192.121863
 20
59.393689
 30
0.0
 40
3.2
  1
<PS>E JET
 41
0.8529129999999998
100
AcDbText
  0
LINE
  5
152
330
6B
100
AcDbEntity
  8
0
 62
     3
100
AcDbLine
 10
216.32228
 20
59.573456
 30
0.0
 11
216.32228
 21
62.62134
 31
0.0
  0
CIRCLE
  5
153
330
6B
100
AcDbEntity
  8
0
 62
     3
100
AcDbCircle
 10
216.32228
 20
61.09739799999999
 30
0.0
 40
1.523941999999999
  0
LINE
  5
154
330
6B
100
AcDbEntity
  8
0
 62
     3
100
AcDbLine
 10
216.32228
 20
59.573456
 30
0.0
 11
217.867484
 21
62.347535
 31
0.0
  0
LINE
  5
155
330
6B
100
AcDbEntity
  8
0
 62
     3
100
AcDbLine
 10
216.32228
 20
62.62134
 30
0.0
 11
214.719582
 21
59.8694
 31
0.0
  0
LINE
  5
156
330
6B
100
AcDbEntity
  8
0
 62
     3
100
AcDbLine
 10
429.495436
 20
58.87636
 30
0.0
 11
429.495436
 21
38.87636
 31
0.0
  0
LINE
  5
157
330
6B
100
AcDbEntity
  8
0
 62
     3
100
AcDbLine
 10
401.4954359999999
 20
38.87636
 30
0.0
 11
401.4954359999999
 21
58.87636
 31
0.0
  0
LINE
  5
158
330
6B
100
AcDbEntity
  8
0
 62
     3
100
AcDbLine
 10
429.495436
 20
58.87636
 30
0.0
 11
401.4954359999999
 21
58.87636
 31
0.0
  0
LINE
  5
159
330
6B
100
AcDbEntity
  8
0
 62
     3
100
AcDbLine
 10
429.495436
 20
38.87636
 30
0.0
 11
401.4954359999999
 21
38.87636
 31
0.0
  0
TEXT
  5
15A
330
6B
100
AcDbEntity
  8
0
 62
     3
100
AcDbText
 10
405.002124
 20
42.644484
 30
0.0
 40
3.2
  1
15A 125V
 41
0.9099199999999999
100
AcDbText
  0
TEXT
  5
15B
330
6B
100
AcDbEntity
  8
0
 62
     3
100
AcDbText
 10
402.136795
 20
50.38861699999999
 30
0.0
 40
3.2
  1
<PS>E JET
 41
0.8529129999999998
100
AcDbText
  0
LINE
  5
15C
330
6B
100
AcDbEntity
  8
0
 62
     3
100
AcDbLine
 10
426.337212
 20
50.568384
 30
0.0
 11
426.337212
 21
53.616269
 31
0.0
  0
CIRCLE
  5
15D
330
6B
100
AcDbEntity
  8
0
 62
     3
100
AcDbCircle
 10
426.337212
 20
52.09232700000001
 30
0.0
 40
1.523941999999999
  0
LINE
  5
15E
330
6B
100
AcDbEntity
  8
0
 62
     3
100
AcDbLine
 10
426.337212
 20
50.568384
 30
0.0
 11
427.882417
 21
53.342464
 31
0.0
  0
LINE
  5
15F
330
6B
100
AcDbEntity
  8
0
 62
     3
100
AcDbLine
 10
426.337212
 20
53.616269
 30
0.0
 11
424.734515
 21
50.864328
 31
0.0
  0
LINE
  5
160
330
6B
100
AcDbEntity
  8
0
100
AcDbLine
 10
394.921516
 20
16.448744
 30
0.0
 11
411.315423
 21
16.448744
 31
0.0
  0
LINE
  5
161
330
6B
100
AcDbEntity
  8
0
100
AcDbLine
 10
394.921516
 20
14.948744
 30
0.0
 11
411.315423
 21
14.948744
 31
0.0
  0
LINE
  5
162
330
6B
100
AcDbEntity
  8
0
100
AcDbLine
 10
394.921516
 20
27.648744
 30
0.0
 11
411.315423
 21
27.648744
 31
0.0
  0
LINE
  5
163
330
6B
100
AcDbEntity
  8
0
100
AcDbLine
 10
394.921516
 20
29.148744
 30
0.0
 11
411.315423
 21
29.148744
 31
0.0
  0
LINE
  5
164
330
6B
100
AcDbEntity
  8
0
100
AcDbLine
 10
411.315423
 20
29.148744
 30
0.0
 11
411.921516
 21
28.957346
 31
0.0
  0
LINE
  5
165
330
6B
100
AcDbEntity
  8
0
100
AcDbLine
 10
411.315423
 20
27.648744
 30
0.0
 11
411.921516
 21
27.840142
 31
0.0
  0
LINE
  5
166
330
6B
100
AcDbEntity
  8
0
100
AcDbLine
 10
411.315423
 20
16.448744
 30
0.0
 11
411.921516
 21
16.257346
 31
0.0
  0
LINE
  5
167
330
6B
100
AcDbEntity
  8
0
100
AcDbLine
 10
411.315423
 20
14.948744
 30
0.0
 11
411.921516
 21
15.140142
 31
0.0
  0
LINE
  5
168
330
6B
100
AcDbEntity
  8
0
100
AcDbLine
 10
411.921516
 20
28.957346
 30
0.0
 11
411.921516
 21
27.840142
 31
0.0
  0
LINE
  5
169
330
6B
100
AcDbEntity
  8
0
100
AcDbLine
 10
411.921516
 20
16.257346
 30
0.0
 11
411.921516
 21
15.140142
 31
0.0
  0
LINE
  5
16A
330
6B
100
AcDbEntity
  8
0
100
AcDbLine
 10
327.921516
 20
22.048744
 30
0.0
 11
327.921516
 21
29.595619
 31
0.0
  0
LINE
  5
16B
330
6B
100
AcDbEntity
  8
0
100
AcDbLine
 10
329.721516
 20
22.048744
 30
0.0
 11
329.721516
 21
29.623744
 31
0.0
  0
LINE
  5
16C
330
6B
100
AcDbEntity
  8
0
100
AcDbLine
 10
335.1215160000001
 20
29.708119
 30
0.0
 11
335.1215160000001
 21
22.048744
 31
0.0
  0
LINE
  5
16D
330
6B
100
AcDbEntity
  8
0
100
AcDbLine
 10
336.921516
 20
22.048744
 30
0.0
 11
336.921516
 21
29.736244
 31
0.0
  0
LINE
  5
16E
330
6B
100
AcDbEntity
  8
0
100
AcDbLine
 10
342.321516
 20
22.048744
 30
0.0
 11
342.321516
 21
29.820619
 31
0.0
  0
LINE
  5
16F
330
6B
100
AcDbEntity
  8
0
100
AcDbLine
 10
344.121516
 20
22.048744
 30
0.0
 11
344.121516
 21
29.848744
 31
0.0
  0
LINE
  5
170
330
6B
100
AcDbEntity
  8
0
100
AcDbLine
 10
331.521516
 20
14.445619
 30
0.0
 11
331.521516
 21
22.048744
 31
0.0
  0
LINE
  5
171
330
6B
100
AcDbEntity
  8
0
100
AcDbLine
 10
333.321516
 20
14.417494
 30
0.0
 11
333.321516
 21
22.048744
 31
0.0
  0
LINE
  5
172
330
6B
100
AcDbEntity
  8
0
100
AcDbLine
 10
340.521516
 20
22.048744
 30
0.0
 11
340.521516
 21
14.304994
 31
0.0
  0
LINE
  5
173
330
6B
100
AcDbEntity
  8
0
100
AcDbLine
 10
338.721516
 20
22.048744
 30
0.0
 11
338.721516
 21
14.333119
 31
0.0
  0
ARC
  5
174
330
6B
100
AcDbEntity
  8
0
100
AcDbCircle
 10
328.821516
 20
22.063511
 30
0.0
 40
0.900121
100
AcDbArc
 50
180.94
 51
359.06
  0
ARC
  5
175
330
6B
100
AcDbEntity
  8
0
100
AcDbCircle
 10
332.421516
 20
21.970221
 30
0.0
 40
0.903419
100
AcDbArc
 50
4.986328
 51
175.013672
  0
ARC
  5
176
330
6B
100
AcDbEntity
  8
0
100
AcDbCircle
 10
336.021516
 20
22.049325
 30
0.0
 40
0.9
100
AcDbArc
 50
180.036991
 51
359.963009
  0
ARC
  5
177
330
6B
100
AcDbEntity
  8
0
100
AcDbCircle
 10
339.6215160000001
 20
21.924554
 30
0.0
 40
0.908528
100
AcDbArc
 50
7.856592999999997
 51
172.143407
  0
ARC
  5
178
330
6B
100
AcDbEntity
  8
0
100
AcDbCircle
 10
343.221516
 20
22.075517
 30
0.0
 40
0.9003979999999998
100
AcDbArc
 50
181.70388
 51
358.29612
  0
LINE
  5
179
330
6B
100
AcDbEntity
  8
0
100
AcDbLine
 10
342.321516
 20
26.748744
 30
0.0
 11
344.121516
 21
26.748744
 31
0.0
  0
LINE
  5
17A
330
6B
100
AcDbEntity
  8
0
100
AcDbLine
 10
327.921516
 20
26.748744
 30
0.0
 11
329.721516
 21
26.748744
 31
0.0
  0
LINE
  5
17B
330
6B
100
AcDbEntity
  8
0
100
AcDbLine
 10
335.1215160000001
 20
26.748744
 30
0.0
 11
336.921516
 21
26.748744
 31
0.0
  0
LINE
  5
17C
330
6B
100
AcDbEntity
  8
0
100
AcDbLine
 10
331.521516
 20
17.348744
 30
0.0
 11
333.321516
 21
17.348744
 31
0.0
  0
LINE
  5
17D
330
6B
100
AcDbEntity
  8
0
100
AcDbLine
 10
338.721516
 20
17.348744
 30
0.0
 11
340.521516
 21
17.348744
 31
0.0
  0
LINE
  5
17E
330
6B
100
AcDbEntity
  8
0
100
AcDbLine
 10
294.917212
 20
29.41955200000001
 30
0.0
 11
294.917212
 21
22.016326
 31
0.0
  0
LINE
  5
17F
330
6B
100
AcDbEntity
  8
0
100
AcDbLine
 10
292.417212
 20
29.462341
 30
0.0
 11
292.417212
 21
22.016326
 31
0.0
  0
LINE
  5
180
330
6B
100
AcDbEntity
  8
0
100
AcDbLine
 10
285.917212
 20
29.615571
 30
0.0
 11
285.917212
 21
22.016326
 31
0.0
  0
LINE
  5
181
330
6B
100
AcDbEntity
  8
0
100
AcDbLine
 10
283.417212
 20
29.674505
 30
0.0
 11
283.417212
 21
22.016326
 31
0.0
  0
LINE
  5
182
330
6B
100
AcDbEntity
  8
0
100
AcDbLine
 10
276.917212
 20
29.827735
 30
0.0
 11
276.917212
 21
22.016326
 31
0.0
  0
LINE
  5
183
330
6B
100
AcDbEntity
  8
0
100
AcDbLine
 10
274.417212
 20
29.88667
 30
0.0
 11
274.417212
 21
22.016326
 31
0.0
  0
LINE
  5
184
330
6B
100
AcDbEntity
  8
0
100
AcDbLine
 10
290.417212
 20
22.016326
 30
0.0
 11
290.417212
 21
14.709874
 31
0.0
  0
LINE
  5
185
330
6B
100
AcDbEntity
  8
0
100
AcDbLine
 10
287.917212
 20
22.016326
 30
0.0
 11
287.917212
 21
14.629229
 31
0.0
  0
LINE
  5
186
330
6B
100
AcDbEntity
  8
0
100
AcDbLine
 10
281.417212
 20
22.016326
 30
0.0
 11
281.417212
 21
14.419552
 31
0.0
  0
LINE
  5
187
330
6B
100
AcDbEntity
  8
0
100
AcDbLine
 10
278.917212
 20
22.016326
 30
0.0
 11
278.917212
 21
14.338907
 31
0.0
  0
ARC
  5
188
330
6B
100
AcDbEntity
  8
0
100
AcDbCircle
 10
275.667212
 20
22.016326
 30
0.0
 40
1.25
100
AcDbArc
 50
180.0
 51
0.0
  0
ARC
  5
189
330
6B
100
AcDbEntity
  8
0
100
AcDbCircle
 10
280.167212
 20
22.016326
 30
0.0
 40
1.25
100
AcDbArc
 50
0.0
 51
180.0
  0
ARC
  5
18A
330
6B
100
AcDbEntity
  8
0
100
AcDbCircle
 10
284.667212
 20
22.016326
 30
0.0
 40
1.25
100
AcDbArc
 50
180.0
 51
0.0
  0
ARC
  5
18B
330
6B
100
AcDbEntity
  8
0
100
AcDbCircle
 10
289.167212
 20
22.016326
 30
0.0
 40
1.25
100
AcDbArc
 50
0.0
 51
180.0
  0
ARC
  5
18C
330
6B
100
AcDbEntity
  8
0
100
AcDbCircle
 10
293.667212
 20
22.016326
 30
0.0
 40
1.25
100
AcDbArc
 50
180.0
 51
0.0
  0
LINE
  5
18D
330
6B
100
AcDbEntity
  8
0
100
AcDbLine
 10
276.917212
 20
26.816326
 30
0.0
 11
274.417212
 21
26.816326
 31
0.0
  0
LINE
  5
18E
330
6B
100
AcDbEntity
  8
0
100
AcDbLine
 10
294.917212
 20
26.816326
 30
0.0
 11
292.417212
 21
26.816326
 31
0.0
  0
LINE
  5
18F
330
6B
100
AcDbEntity
  8
0
100
AcDbLine
 10
285.917212
 20
26.816326
 30
0.0
 11
283.417212
 21
26.816326
 31
0.0
  0
LINE
  5
190
330
6B
100
AcDbEntity
  8
0
100
AcDbLine
 10
290.417212
 20
17.216326
 30
0.0
 11
287.917212
 21
17.216326
 31
0.0
  0
LINE
  5
191
330
6B
100
AcDbEntity
  8
0
100
AcDbLine
 10
281.417212
 20
17.216326
 30
0.0
 11
278.917212
 21
17.216326
 31
0.0
  0
LINE
  5
192
330
6B
100
AcDbEntity
  8
0
100
AcDbLine
 10
358.921516
 20
31.798744
 30
0.0
 11
358.921516
 21
12.298744
 31
0.0
  0
LINE
  5
193
330
6B
100
AcDbEntity
  8
0
100
AcDbLine
 10
266.917212
 20
31.516326
 30
0.0
 11
266.917212
 21
12.516326
 31
0.0
  0
LINE
  5
194
330
6B
100
AcDbEntity
  8
0
100
AcDbLine
 10
253.917212
 20
47.51632599999999
 30
0.0
 11
237.917212
 21
47.51632599999999
 31
0.0
  0
LINE
  5
195
330
6B
100
AcDbEntity
  8
0
100
AcDbLine
 10
254.917212
 20
48.516326
 30
0.0
 11
236.917212
 21
48.516326
 31
0.0
  0
LINE
  5
196
330
6B
100
AcDbEntity
  8
0
100
AcDbLine
 10
220.417212
 20
30.016326
 30
0.0
 11
220.417212
 21
14.016326
 31
0.0
  0
LINE
  5
197
330
6B
100
AcDbEntity
  8
0
100
AcDbLine
 10
219.417212
 20
31.016326
 30
0.0
 11
219.417212
 21
13.016326
 31
0.0
  0
LINE
  5
198
330
6B
100
AcDbEntity
  8
0
100
AcDbLine
 10
253.917212
 20
-3.483673999999998
 30
0.0
 11
237.917212
 21
-3.483673999999998
 31
0.0
  0
LINE
  5
199
330
6B
100
AcDbEntity
  8
0
100
AcDbLine
 10
254.917212
 20
-4.483673999999997
 30
0.0
 11
236.917212
 21
-4.483673999999997
 31
0.0
  0
LINE
  5
19A
330
6B
100
AcDbEntity
  8
0
100
AcDbLine
 10
202.526615
 20
16.94173
 30
0.0
 11
198.526615
 21
16.94173
 31
0.0
  0
LINE
  5
19B
330
6B
100
AcDbEntity
  8
0
100
AcDbLine
 10
202.526615
 20
25.94173
 30
0.0
 11
202.526615
 21
16.94173
 31
0.0
  0
LINE
  5
19C
330
6B
100
AcDbEntity
  8
0
100
AcDbLine
 10
202.526615
 20
25.94173
 30
0.0
 11
198.526615
 21
25.94173
 31
0.0
  0
LINE
  5
19D
330
6B
100
AcDbEntity
  8
0
100
AcDbLine
 10
198.526615
 20
25.94173
 30
0.0
 11
198.526615
 21
16.94173
 31
0.0
  0
LINE
  5
19E
330
6B
100
AcDbEntity
  8
0
100
AcDbLine
 10
189.826615
 20
25.94173
 30
0.0
 11
189.826615
 21
16.94173
 31
0.0
  0
LINE
  5
19F
330
6B
100
AcDbEntity
  8
0
100
AcDbLine
 10
189.826615
 20
25.94173
 30
0.0
 11
185.826615
 21
25.94173
 31
0.0
  0
LINE
  5
1A0
330
6B
100
AcDbEntity
  8
0
100
AcDbLine
 10
185.826615
 20
25.94173
 30
0.0
 11
185.826615
 21
16.94173
 31
0.0
  0
LINE
  5
1A1
330
6B
100
AcDbEntity
  8
0
100
AcDbLine
 10
189.826615
 20
16.94173
 30
0.0
 11
185.826615
 21
16.94173
 31
0.0
  0
LINE
  5
1A7
330
6B
100
AcDbEntity
  8
0
 62
     3
100
AcDbLine
 10
158.431837
 20
85.81493299999998
 30
0.0
 11
158.431837
 21
-94.185067
 31
0.0
  0
LINE
  5
1A8
330
6B
100
AcDbEntity
  8
0
 62
     3
100
AcDbLine
 10
435.431837
 20
-94.185067
 30
0.0
 11
435.431837
 21
85.81493299999998
 31
0.0
  0
LINE
  5
1A9
330
6B
100
AcDbEntity
  8
0
 62
     3
100
AcDbLine
 10
158.431837
 20
-94.185067
 30
0.0
 11
435.431837
 21
-94.185067
 31
0.0
  0
LINE
  5
1AA
330
6B
100
AcDbEntity
  8
0
 62
     3
100
AcDbLine
 10
158.431837
 20
85.81493299999998
 30
0.0
 11
435.431837
 21
85.81493299999998
 31
0.0
  0
TEXT
  5
1AB
330
6B
100
AcDbEntity
  8
0
 62
     3
100
AcDbText
 10
326.074385
 20
-58.343193
 30
0.0
 40
2.0
  1
CONPONENTS
 41
0.5331600000000001
100
AcDbText
  0
TEXT
  5
1AC
330
6B
100
AcDbEntity
  8
0
 62
     3
100
AcDbText
 10
325.724659
 20
-77.27536999999998
 30
0.0
 40
3.0
  1
材
 41
0.833333
100
AcDbText
  0
TEXT
  5
1AD
330
6B
100
AcDbEntity
  8
0
 62
     3
100
AcDbText
 10
333.260301
 20
-77.27536999999998
 30
0.0
 40
3.0
  1
質
 41
0.833333
100
AcDbText
  0
TEXT
  5
1AE
330
6B
100
AcDbEntity
  8
0
 62
     3
100
AcDbText
 10
325.812729
 20
-66.65084499999998
 30
0.0
 40
2.0
  1
MODEL
 41
1.031072999999999
100
AcDbText
  0
TEXT
  5
1AF
330
6B
100
AcDbEntity
  8
0
 62
     3
100
AcDbText
 10
325.724659
 20
-73.593062
 30
0.0
 40
2.0
  1
MATERIAL
 41
0.659278
100
AcDbText
  0
TEXT
  5
1B0
330
6B
100
AcDbEntity
  8
0
 62
     3
100
AcDbText
 10
357.031939
 20
-77.27536999999998
 30
0.0
 40
3.0
  1
備
 41
0.833333
100
AcDbText
  0
TEXT
  5
1B1
330
6B
100
AcDbEntity
  8
0
 62
     3
100
AcDbText
 10
363.764941
 20
-77.27536999999998
 30
0.0
 40
3.0
  1
考
 41
0.833333
100
AcDbText
  0
TEXT
  5
1B2
330
6B
100
AcDbEntity
  8
0
 62
     3
100
AcDbText
 10
357.4102924111602
 20
-73.593062
 30
0.0
 40
2.0
  1
REMARKS
 41
0.675794
100
AcDbText
  0
TEXT
  5
1B3
330
6B
100
AcDbEntity
  8
0
 62
     3
100
AcDbText
 10
327.314388
 20
-80.513182
 30
0.0
 40
2.0
  1
3AD
 41
1.42614
100
AcDbText
  0
TEXT
  5
1B4
330
6B
100
AcDbEntity
  8
0
 62
     3
100
AcDbText
 10
336.625367
 20
-80.34744899999997
 30
0.0
 40
2.0
  1
ANGLE
 41
1.669883999999997
100
AcDbText
  0
TEXT
  5
1B5
330
6B
100
AcDbEntity
  8
0
 62
     3
100
AcDbText
 10
357.559254
 20
-80.72428999999997
 30
0.0
 40
2.0
  1
SCALE
 41
0.7719630000000001
100
AcDbText
  0
TEXT
  5
1B6
330
6B
100
AcDbEntity
  8
0
 62
     3
100
AcDbText
 10
327.000517
 20
-84.512719
 30
0.0
 40
3.0
  1
第
 41
0.833333
100
AcDbText
  0
TEXT
  5
1B7
330
6B
100
AcDbEntity
  8
0
 62
     3
100
AcDbText
 10
334.787367
 20
-84.512719
 30
0.0
 40
3.0
  1
三
 41
0.833333
100
AcDbText
  0
TEXT
  5
1B8
330
6B
100
AcDbEntity
  8
0
 62
     3
100
AcDbText
 10
342.574217
 20
-84.512719
 30
0.0
 40
3.0
  1
角
 41
0.833333
100
AcDbText
  0
TEXT
  5
1B9
330
6B
100
AcDbEntity
  8
0
 62
     3
100
AcDbText
 10
350.361067
 20
-84.512719
 30
0.0
 40
3.0
  1
法
 41
0.833333
100
AcDbText
  0
TEXT
  5
1BA
330
6B
100
AcDbEntity
  8
0
 62
     3
100
AcDbText
 10
357.422459
 20
-84.22428999999999
 30
0.0
 40
3.0
  1
尺
 41
0.833333
100
AcDbText
  0
TEXT
  5
1BB
330
6B
100
AcDbEntity
  8
0
 62
     3
100
AcDbText
 10
364.155461
 20
-84.22428999999999
 30
0.0
 40
3.0
  1
度
 41
0.833333
100
AcDbText
  0
TEXT
  5
1BC
330
6B
100
AcDbEntity
  8
0
 62
     3
100
AcDbText
 10
386.738732
 20
-62.05499
 30
0.0
 40
3.0
  1
承認
 41
1.089472999999999
100
AcDbText
  0
TEXT
  5
1BD
330
6B
100
AcDbEntity
  8
0
 62
     3
100
AcDbText
 10
399.981612
 20
-62.11271899999999
 30
0.0
 40
3.0
  1
検図
 41
0.931761
100
AcDbText
  0
TEXT
  5
1BE
330
6B
100
AcDbEntity
  8
0
 62
     3
100
AcDbText
 10
412.9820089999998
 20
-62.11271899999999
 30
0.0
 40
3.0
  1
設
 41
0.833333
100
AcDbText
  0
TEXT
  5
1BF
330
6B
100
AcDbEntity
  8
0
 62
     3
100
AcDbText
 10
417.471877
 20
-62.11271899999999
 30
0.0
 40
3.0
  1
計
 41
0.833333
100
AcDbText
  0
TEXT
  5
1C0
330
6B
100
AcDbEntity
  8
0
 62
     3
100
AcDbText
 10
326.144492
 20
-61.940167
 30
0.0
 40
3.0
  1
品
 41
0.833333
100
AcDbText
  0
TEXT
  5
1C1
330
6B
100
AcDbEntity
  8
0
 62
     3
100
AcDbText
 10
333.680134
 20
-61.940167
 30
0.0
 40
3.0
  1
名
 41
0.833333
100
AcDbText
  0
TEXT
  5
1C2
330
6B
100
AcDbEntity
  8
0
 62
     3
100
AcDbText
 10
325.812729
 20
-70.09641946782429
 30
0.0
 40
3.0
  1
型
 41
0.833333
100
AcDbText
  0
TEXT
  5
1C3
330
6B
100
AcDbEntity
  8
0
 62
     3
100
AcDbText
 10
333.36082
 20
-70.09641946782429
 30
0.0
 40
3.0
  1
式
 41
0.833333
100
AcDbText
  0
TEXT
  5
1C5
330
6B
100
AcDbEntity
  8
0
 62
     3
100
AcDbText
 10
167.177902
 20
-29.575992
 30
0.0
 40
4.5
  1
型　　式
 41
0.8
  7
高4.5
100
AcDbText
  0
TEXT
  5
1C6
330
6B
100
AcDbEntity
  8
0
 62
     3
100
AcDbText
 10
167.177902
 20
-36.575992
 30
0.0
 40
4.5
  1
電線　長さ
 41
0.8
  7
高4.5
100
AcDbText
  0
TEXT
  5
1C7
330
6B
100
AcDbEntity
  8
0
 62
     3
100
AcDbText
 10
167.177902
 20
-43.575992
 30
0.0
 40
4.5
  1
電線　仕様
 41
0.8
  7
高4.5
100
AcDbText
  0
TEXT
  5
1C8
330
6B
100
AcDbEntity
  8
0
 62
     3
100
AcDbText
 10
167.177902
 20
-50.575992
 30
0.0
 40
4.5
  1
電線許容電流
 41
0.8
  7
高4.5
100
AcDbText
  0
TEXT
  5
1C9
330
6B
100
AcDbEntity
  8
0
 62
     3
100
AcDbText
 10
167.177902
 20
-57.57599200000001
 30
0.0
 40
4.5
  1
電　線　色
 41
0.8
  7
高4.5
100
AcDbText
  0
TEXT
  5
1CA
330
6B
100
AcDbEntity
  8
0
 62
     3
100
AcDbText
 10
196.0223488357436
 20
-57.47575300000001
 30
0.0
 40
4.5
  1
若草(G)オレンジ(O)赤(R)黄(Y)
 41
0.8
  7
高4.5
100
AcDbText
  0
LINE
  5
1CB
330
6B
100
AcDbEntity
  8
0
 62
     3
100
AcDbLine
 10
165.343485
 20
-58.462841
 30
0.0
 11
265.5352218962114
 21
-58.462841
 31
0.0
  0
LINE
  5
1CC
330
6B
100
AcDbEntity
  8
0
100
AcDbLine
 10
165.343485
 20
-30.462841
 30
0.0
 11
265.5352218962114
 21
-30.46284099999999
 31
0.0
  0
LINE
  5
1CD
330
6B
100
AcDbEntity
  8
0
100
AcDbLine
 10
165.343485
 20
-37.462841
 30
0.0
 11
265.5352218962114
 21
-37.462841
 31
0.0
  0
LINE
  5
1CE
330
6B
100
AcDbEntity
  8
0
100
AcDbLine
 10
165.343485
 20
-44.46284099999998
 30
0.0
 11
265.5352218962114
 21
-44.46284099999998
 31
0.0
  0
LINE
  5
1CF
330
6B
100
AcDbEntity
  8
0
100
AcDbLine
 10
165.343485
 20
-51.46284099999999
 30
0.0
 11
265.5352218962114
 21
-51.46284099999999
 31
0.0
  0
LINE
  5
1D0
330
6B
100
AcDbEntity
  8
0
 62
     3
100
AcDbLine
 10
165.343485
 20
-23.462841
 30
0.0
 11
265.5352218962114
 21
-23.462841
 31
0.0
  0
TEXT
  5
1D1
330
6B
100
AcDbEntity
  8
0
 62
     3
100
AcDbText
 10
161.972817
 20
-93.540665
 30
0.0
 40
4.5
  1
型式
  7
高4.5
100
AcDbText
  0
LINE
  5
1D2
330
6B
100
AcDbEntity
  8
0
 62
     3
100
AcDbLine
 10
223.7274897374377
 20
-94.185067
 30
0.0
 11
223.7274897374377
 21
-64.185067
 31
0.0
  0
LINE
  5
1D3
330
6B
100
AcDbEntity
  8
0
 62
     3
100
AcDbLine
 10
158.431837
 20
-64.185067
 30
0.0
 11
223.7274897374377
 21
-64.185067
 31
0.0
  0
LINE
  5
1D4
330
6B
100
AcDbEntity
  8
0
100
AcDbLine
 10
158.431837
 20
-70.185067
 30
0.0
 11
223.7274897374377
 21
-70.185067
 31
0.0
  0
LINE
  5
1D5
330
6B
100
AcDbEntity
  8
0
100
AcDbLine
 10
158.431837
 20
-82.185067
 30
0.0
 11
223.7274897374377
 21
-82.185067
 31
0.0
  0
LINE
  5
1D6
330
6B
100
AcDbEntity
  8
0
100
AcDbLine
 10
158.431837
 20
-76.18506700000001
 30
0.0
 11
223.7274897374377
 21
-76.18506700000001
 31
0.0
  0
LINE
  5
1D7
330
6B
100
AcDbEntity
  8
0
100
AcDbLine
 10
199.486118
 20
-64.185067
 30
0.0
 11
199.486118
 21
-94.185067
 31
0.0
  0
LINE
  5
1D8
330
6B
100
AcDbEntity
  8
0
 62
     3
100
AcDbLine
 10
158.431837
 20
-88.185067
 30
0.0
 11
223.7274897374377
 21
-88.185067
 31
0.0
  0
TEXT
  5
1D9
330
6B
100
AcDbEntity
  8
0
 62
     3
100
AcDbText
 10
202.723516
 20
-93.41306899999999
 30
0.0
 40
4.5
  1
コード
  7
高4.5
100
AcDbText
  0
LINE
  5
1E5
330
6B
100
AcDbEntity
  8
0
100
AcDbLine
 10
226.676485
 20
29.360798
 30
0.0
 11
217.125244
 21
41.278933
 31
0.0
  0
LINE
  5
1E6
330
6B
100
AcDbEntity
  8
0
100
AcDbLine
 10
217.125244
 20
41.278933
 30
0.0
 11
195.125244
 21
41.278933
 31
0.0
  0
TEXT
  5
1E7
330
6B
100
AcDbEntity
  8
0
 62
     4
100
AcDbText
 10
197.875244
 20
42.278933
 30
0.0
 40
3.2
  1
定格表示刻印
  7
高3.2
100
AcDbText
  0
LINE
  5
1ED
330
6B
100
AcDbEntity
  8
0
100
AcDbLine
 10
394.586034
 20
30.937979
 30
0.0
 11
405.675404
 21
33.264914
 31
0.0
  0
LINE
  5
1EE
330
6B
100
AcDbEntity
  8
0
100
AcDbLine
 10
405.675404
 20
33.264914
 30
0.0
 11
427.675404
 21
33.264914
 31
0.0
  0
TEXT
  5
1EF
330
6B
100
AcDbEntity
  8
0
 62
     4
100
AcDbText
 10
408.425404
 20
34.26491400000001
 30
0.0
 40
3.2
  1
定格表示刻印
  7
高3.2
100
AcDbText
  0
TEXT
  5
1F0
330
6B
100
AcDbEntity
  8
0
 62
     3
100
AcDbText
 10
209.2247594482575
 20
-29.575992
 30
0.0
 40
4.5
  1
MRS-20ソフトン
 41
0.8
  7
高4.5
100
AcDbText
  0
TEXT
  5
1F1
330
6B
100
AcDbEntity
  8
0
 62
     3
100
AcDbText
 10
223.8587560205973
 20
-36.575992
 30
0.0
 40
4.5
  1
20m
 41
0.8
  7
高4.5
100
AcDbText
  0
TEXT
  5
1F2
330
6B
100
AcDbEntity
  8
0
 62
     3
100
AcDbText
 10
205.4071948604859
 20
-43.575992
 30
0.0
 40
4.5
  1
SVCT 1.25sqx2c
 41
0.8
  7
高4.5
100
AcDbText
  0
TEXT
  5
1F3
330
6B
100
AcDbEntity
  8
0
 62
     3
100
AcDbText
 10
222.7452999360267
 20
-50.472903
 30
0.0
 40
4.5
  1
16A
 41
0.8
  7
高4.5
100
AcDbText
  0
TEXT
  5
1F4
330
6B
100
AcDbEntity
  8
0
 62
     3
100
AcDbText
 10
347.897792
 20
-69.073846
 30
0.0
 40
4.5
  1
MRS-20
  7
高4.5
100
AcDbText
  0
TEXT
  5
1F5
330
6B
100
AcDbEntity
  8
0
 62
     3
100
AcDbText
 10
400.7456069999998
 20
-83.83832398008923
 30
0.0
 40
3.2
  1
2002.11.12
  7
高3.2
100
AcDbText
  0
TEXT
  5
1F6
330
6B
100
AcDbEntity
  8
0
 62
     3
100
AcDbText
 10
389.5741090373079
 20
-93.46221099999999
 30
0.0
 40
6.299999999999998
  1
MRS-20
  7
高6.3
100
AcDbText
  0
TEXT
  5
1F7
330
6B
100
AcDbEntity
  8
0
 62
     3
100
AcDbText
 10
161.972817
 20
-69.540665
 30
0.0
 40
4.5
  1
MRS-20-G
  7
高4.5
100
AcDbText
  0
TEXT
  5
1F8
330
6B
100
AcDbEntity
  8
0
 62
     3
100
AcDbText
 10
161.972817
 20
-75.54066500000002
 30
0.0
 40
4.5
  1
MRS-20-O
  7
高4.5
100
AcDbText
  0
TEXT
  5
1F9
330
6B
100
AcDbEntity
  8
0
 62
     3
100
AcDbText
 10
161.972817
 20
-81.540665
 30
0.0
 40
4.5
  1
MRS-20-R
  7
高4.5
100
AcDbText
  0
TEXT
  5
1FA
330
6B
100
AcDbEntity
  8
0
 62
     3
100
AcDbText
 10
161.972817
 20
-87.540665
 30
0.0
 40
4.5
  1
MRS-20-Y
  7
高4.5
100
AcDbText
  0
TEXT
  5
1FB
330
6B
100
AcDbEntity
  8
0
 62
     3
100
AcDbText
 10
202.723516
 20
-69.41306899999999
 30
0.0
 40
4.5
  1
7657
  7
高4.5
100
AcDbText
  0
TEXT
  5
1FC
330
6B
100
AcDbEntity
  8
0
 62
     3
100
AcDbText
 10
202.723516
 20
-75.41306899999998
 30
0.0
 40
4.5
  1
7658
  7
高4.5
100
AcDbText
  0
TEXT
  5
1FD
330
6B
100
AcDbEntity
  8
0
 62
     3
100
AcDbText
 10
202.723516
 20
-81.413069
 30
0.0
 40
4.5
  1
7659
  7
高4.5
100
AcDbText
  0
TEXT
  5
1FE
330
6B
100
AcDbEntity
  8
0
 62
     3
100
AcDbText
 10
202.723516
 20
-87.41306899999996
 30
0.0
 40
4.5
  1
7656
  7
高4.5
100
AcDbText
  0
TEXT
  5
2DC
330
6B
100
AcDbEntity
  8
0
 62
     3
100
AcDbText
 10
422.931837
 20
76.31493299999998
 30
0.0
 40
3.2
  1
担　当
  7
高3.2
100
AcDbText
  0
TEXT
  5
2DD
330
6B
100
AcDbEntity
  8
0
 62
     3
100
AcDbText
 10
378.931837
 20
76.31493299999998
 30
0.0
 40
3.2
  1
変更・追記内容
  7
高3.2
100
AcDbText
  0
TEXT
  5
2DE
330
6B
100
AcDbEntity
  8
0
 62
     3
100
AcDbText
 10
354.0453520003393
 20
71.6443944900917
 30
0.0
 40
2.0
  1
1
  7
高2
100
AcDbText
  0
TEXT
  5
2DF
330
6B
100
AcDbEntity
  8
0
 62
     3
100
AcDbText
 10
353.736840523582
 20
66.47457777781878
 30
0.0
 40
2.0
  1
2
  7
高2
100
AcDbText
  0
TEXT
  5
2E0
330
6B
100
AcDbEntity
  8
0
 62
     3
100
AcDbText
 10
360.931837
 20
76.31493299999998
 30
0.0
 40
3.2
  1
日　付
  7
高3.2
100
AcDbText
  0
TEXT
  5
2E1
330
6B
100
AcDbEntity
  8
0
 62
     3
100
AcDbText
 10
360.931837
 20
81.314933
 30
0.0
 40
3.2
  1
図　　　　面　　　　略　　　　歴
  7
高3.2
100
AcDbText
  0
TEXT
  5
2E2
330
6B
100
AcDbEntity
  8
0
 62
     3
100
AcDbText
 10
350.931837
 20
76.31493299999998
 30
0.0
 40
3.2
  1
記号
  7
高3.2
100
AcDbText
  0
LINE
  5
2E3
330
6B
100
AcDbEntity
  8
0
100
AcDbLine
 10
354.431837
 20
69.6058290000001
 30
0.0
 11
352.5318370000002
 21
66.31493299999999
 31
0.0
  0
LINE
  5
2E4
330
6B
100
AcDbEntity
  8
0
100
AcDbLine
 10
354.431837
 20
69.6058290000001
 30
0.0
 11
356.331837
 21
66.31493299999999
 31
0.0
  0
LINE
  5
2E5
330
6B
100
AcDbEntity
  8
0
100
AcDbLine
 10
352.5318370000002
 20
66.31493299999999
 30
0.0
 11
356.331837
 21
66.31493299999999
 31
0.0
  0
LINE
  5
2E6
330
6B
100
AcDbEntity
  8
0
100
AcDbLine
 10
354.431837
 20
74.60583000000008
 30
0.0
 11
352.5318370000002
 21
71.31493299999998
 31
0.0
  0
LINE
  5
2E7
330
6B
100
AcDbEntity
  8
0
100
AcDbLine
 10
354.431837
 20
74.60583000000008
 30
0.0
 11
356.331837
 21
71.31493299999998
 31
0.0
  0
LINE
  5
2E8
330
6B
100
AcDbEntity
  8
0
100
AcDbLine
 10
352.5318370000002
 20
71.31493299999998
 30
0.0
 11
356.331837
 21
71.31493299999998
 31
0.0
  0
LINE
  5
2E9
330
6B
100
AcDbEntity
  8
0
 62
     3
100
AcDbLine
 10
349.431837
 20
80.81493299999998
 30
0.0
 11
435.431837
 21
80.81493299999998
 31
0.0
  0
LINE
  5
2EA
330
6B
100
AcDbEntity
  8
0
 62
     3
100
AcDbLine
 10
349.431837
 20
75.81493299999998
 30
0.0
 11
435.431837
 21
75.81493299999998
 31
0.0
  0
LINE
  5
2EB
330
6B
100
AcDbEntity
  8
0
 62
     7
100
AcDbLine
 10
349.431837
 20
70.81493299999998
 30
0.0
 11
435.431837
 21
70.81493299999998
 31
0.0
  0
LINE
  5
2EC
330
6B
100
AcDbEntity
  8
0
 62
     3
100
AcDbLine
 10
349.431837
 20
65.81493299999999
 30
0.0
 11
435.431837
 21
65.81493299999999
 31
0.0
  0
LINE
  5
2ED
330
6B
100
AcDbEntity
  8
0
 62
     7
100
AcDbLine
 10
421.4318369999999
 20
65.81493299999999
 30
0.0
 11
421.4318369999999
 21
80.81493299999998
 31
0.0
  0
LINE
  5
2EE
330
6B
100
AcDbEntity
  8
0
 62
     7
100
AcDbLine
 10
377.431837
 20
65.81493299999999
 30
0.0
 11
377.431837
 21
80.81493299999998
 31
0.0
  0
LINE
  5
2EF
330
6B
100
AcDbEntity
  8
0
 62
     7
100
AcDbLine
 10
359.431837
 20
65.81493299999999
 30
0.0
 11
359.431837
 21
80.81493299999998
 31
0.0
  0
LINE
  5
2F0
330
6B
100
AcDbEntity
  8
0
 62
     3
100
AcDbLine
 10
349.431837
 20
65.81493299999999
 30
0.0
 11
349.431837
 21
85.81493299999998
 31
0.0
  0
TEXT
  5
409
330
6B
100
AcDbEntity
  8
0
 62
     3
100
AcDbText
 10
369.4005580321174
 20
-83.83832398008923
 30
0.0
 40
3.2
  1
FREE
  7
高3.2
100
AcDbText
  0
LINE
  5
503
330
6B
100
AcDbEntity
  8
0
100
AcDbLine
 10
396.433352
 20
31.87318
 30
0.0
 11
394.586034
 21
30.937979
 31
0.0
  0
LINE
  5
504
330
6B
100
AcDbEntity
  8
0
100
AcDbLine
 10
394.586034
 20
30.937979
 30
0.0
 11
396.653459
 21
30.824227
 31
0.0
  0
LINE
  5
507
330
6B
100
AcDbEntity
  8
0
100
AcDbLine
 10
225.00758
 20
30.586335
 30
0.0
 11
226.676485
 21
29.360798
 31
0.0
  0
LINE
  5
508
330
6B
100
AcDbEntity
  8
0
100
AcDbLine
 10
226.676485
 20
29.360798
 30
0.0
 11
225.843939
 21
31.256597
 31
0.0
  0
LINE
  5
509
330
6B
100
AcDbEntity
  8
0
 62
     3
100
AcDbLine
 10
309.990443
 20
29.166168
 30
0.0
 11
310.975439
 21
27.291936
 31
0.0
  0
LINE
  5
50A
330
6B
100
AcDbEntity
  8
0
 62
     3
100
AcDbLine
 10
310.975439
 20
27.291936
 30
0.0
 11
311.394731
 21
25.417389
 31
0.0
  0
LINE
  5
50B
330
6B
100
AcDbEntity
  8
0
 62
     3
100
AcDbLine
 10
311.394731
 20
25.417389
 30
0.0
 11
310.574438
 21
22.827247
 31
0.0
  0
LINE
  5
50C
330
6B
100
AcDbEntity
  8
0
 62
     3
100
AcDbLine
 10
310.574438
 20
22.827247
 30
0.0
 11
309.56589
 21
20.209318
 31
0.0
  0
LINE
  5
50D
330
6B
100
AcDbEntity
  8
0
 62
     3
100
AcDbLine
 10
309.56589
 20
20.209318
 30
0.0
 11
309.809657
 21
17.67348
 31
0.0
  0
LINE
  5
50E
330
6B
100
AcDbEntity
  8
0
 62
     3
100
AcDbLine
 10
309.809657
 20
17.67348
 30
0.0
 11
310.858454
 21
15.112972
 31
0.0
  0
LINE
  5
50F
330
6B
100
AcDbEntity
  8
0
 62
     3
100
AcDbLine
 10
312.846296
 20
28.446345
 30
0.0
 11
313.831293
 21
26.572112
 31
0.0
  0
LINE
  5
510
330
6B
100
AcDbEntity
  8
0
 62
     3
100
AcDbLine
 10
313.831293
 20
26.572112
 30
0.0
 11
314.250585
 21
24.697565
 31
0.0
  0
LINE
  5
511
330
6B
100
AcDbEntity
  8
0
 62
     3
100
AcDbLine
 10
314.250585
 20
24.697565
 30
0.0
 11
313.430291
 21
22.107424
 31
0.0
  0
LINE
  5
512
330
6B
100
AcDbEntity
  8
0
 62
     3
100
AcDbLine
 10
313.430291
 20
22.107424
 30
0.0
 11
312.421744
 21
19.489495
 31
0.0
  0
LINE
  5
513
330
6B
100
AcDbEntity
  8
0
 62
     3
100
AcDbLine
 10
312.421744
 20
19.489495
 30
0.0
 11
312.665511
 21
16.953656
 31
0.0
  0
LINE
  5
514
330
6B
100
AcDbEntity
  8
0
 62
     3
100
AcDbLine
 10
312.665511
 20
16.953656
 30
0.0
 11
313.714308
 21
14.393149
 31
0.0
  0
LINE
  5
515
330
6B
100
AcDbEntity
  8
0
100
AcDbLine
 10
215.917212
 20
12.766326
 30
0.0
 11
215.917212
 21
-12.519291
 31
0.0
  0
LINE
  5
516
330
6B
100
AcDbEntity
  8
0
100
AcDbLine
 10
394.921516
 20
8.298744000000001
 30
0.0
 11
394.921516
 21
-12.519291
 31
0.0
  0
LINE
  5
517
330
6B
100
AcDbEntity
  8
0
100
AcDbLine
 10
218.417212
 20
-11.269291
 30
0.0
 11
392.421516
 21
-11.269291
 31
0.0
  0
TEXT
  5
51B
330
6B
100
AcDbEntity
  8
0
  6
Continuous
 62
     4
100
AcDbText
 10
298.819364
 20
-10.644291
 30
0.0
 40
3.0
  1
電線長さ
100
AcDbText
  0
LINE
  5
51C
330
6B
100
AcDbEntity
  8
0
  6
ByBlock
 62
     0
370
    -2
100
AcDbLine
 10
392.421516
 20
-10.5994185
 30
0.0
 11
394.921516
 21
-11.269291
 31
0.0
  0
LINE
  5
51D
330
6B
100
AcDbEntity
  8
0
  6
ByBlock
 62
     0
370
    -2
100
AcDbLine
 10
394.921516
 20
-11.269291
 30
0.0
 11
392.421516
 21
-11.9391635
 31
0.0
  0
LINE
  5
51E
330
6B
100
AcDbEntity
  8
0
  6
ByBlock
 62
     0
370
    -2
100
AcDbLine
 10
394.921516
 20
-11.269291
 30
0.0
 11
392.421516
 21
-11.269291
 31
0.0
  0
LINE
  5
51F
330
6B
100
AcDbEntity
  8
0
  6
ByBlock
 62
     0
370
    -2
100
AcDbLine
 10
218.417212
 20
-11.9391635
 30
0.0
 11
215.917212
 21
-11.269291
 31
0.0
  0
LINE
  5
520
330
6B
100
AcDbEntity
  8
0
  6
ByBlock
 62
     0
370
    -2
100
AcDbLine
 10
215.917212
 20
-11.269291
 30
0.0
 11
218.417212
 21
-10.5994185
 31
0.0
  0
LINE
  5
521
330
6B
100
AcDbEntity
  8
0
  6
ByBlock
 62
     0
370
    -2
100
AcDbLine
 10
215.917212
 20
-11.269291
 30
0.0
 11
218.417212
 21
-11.269291
 31
0.0
  0
ENDSEC
  0
SECTION
  2
OBJECTS
  0
DICTIONARY
  5
C
330
0
100
AcDbDictionary
281
     1
  3
ACAD_2007HEADERVARS_RT
350
525
  3
ACAD_COLOR
350
62
  3
ACAD_GROUP
350
D
  3
ACAD_LAYOUT
350
61
  3
ACAD_MATERIAL
350
10
  3
ACAD_MLEADERSTYLE
350
65
  3
ACAD_MLINESTYLE
350
5E
  3
ACAD_PLOTSETTINGS
350
60
  3
ACAD_PLOTSTYLENAME
350
E
  3
ACAD_SCALELIST
350
42
  3
ACAD_TABLESTYLE
350
63
  3
ACAD_VISUALSTYLE
350
29
  3
ACDB_RECOMPOSE_DATA
350
523
  3
AcDbVariableDictionary
350
41B
  3
DWGPROPS
350
524
  0
DICTIONARY
  5
2A7
330
2
100
AcDbDictionary
280
     1
281
     1
  3
ACAD_LAYERSTATES
360
2A8
  0
DICTIONARY
  5
419
330
54
100
AcDbDictionary
280
     1
281
     1
  3
ADSK_XREC_LAYER_RECONCILED
360
41A
  0
DICTIONARY
  5
505
330
6B
100
AcDbDictionary
280
     1
281
     1
  3
ACAD_SORTENTS
360
506
  0
DICTIONARY
  5
525
102
{ACAD_REACTORS
330
C
102
}
330
C
100
AcDbDictionary
281
     1
  3
DIMARCSYM
350
527
  3
DIMFXL
350
526
  3
DIMJOGANG
350
528
  0
DICTIONARY
  5
62
102
{ACAD_REACTORS
330
C
102
}
330
C
100
AcDbDictionary
281
     1
  0
DICTIONARY
  5
D
102
{ACAD_REACTORS
330
C
102
}
330
C
100
AcDbDictionary
281
     1
  0
DICTIONARY
  5
61
102
{ACAD_REACTORS
330
C
102
}
330
C
100
AcDbDictionary
281
     1
  3
Model
350
6E
  3
レイアウト1
350
6A
  0
DICTIONARY
  5
10
102
{ACAD_REACTORS
330
C
102
}
330
C
100
AcDbDictionary
281
     1
  3
ByBlock
350
19
  3
ByLayer
350
11
  3
Global
350
21
  0
DICTIONARY
  5
65
102
{ACAD_REACTORS
330
C
102
}
330
C
100
AcDbDictionary
281
     1
  3
Standard
350
66
  0
DICTIONARY
  5
5E
102
{ACAD_REACTORS
330
C
102
}
330
C
100
AcDbDictionary
281
     1
  3
Standard
350
5F
  0
DICTIONARY
  5
60
102
{ACAD_REACTORS
330
C
102
}
330
C
100
AcDbDictionary
281
     1
  0
ACDBDICTIONARYWDFLT
  5
E
102
{ACAD_REACTORS
330
C
102
}
330
C
100
AcDbDictionary
281
     1
  3
Normal
350
F
100
AcDbDictionaryWithDefault
340
F
  0
DICTIONARY
  5
42
102
{ACAD_REACTORS
330
C
102
}
330
C
100
AcDbDictionary
281
     1
  3
A0
350
43
  3
A1
350
44
  3
A2
350
45
  3
A3
350
46
  3
A4
350
47
  3
A5
350
48
  3
A6
350
49
  3
A7
350
4A
  3
A8
350
4B
  3
A9
350
4C
  3
B0
350
4D
  3
B1
350
4E
  3
B2
350
4F
  3
B3
350
50
  3
B4
350
51
  3
B5
350
52
  3
B6
350
53
  0
DICTIONARY
  5
63
102
{ACAD_REACTORS
330
C
102
}
330
C
100
AcDbDictionary
281
     1
  3
Standard
350
64
  0
DICTIONARY
  5
29
102
{ACAD_REACTORS
330
C
102
}
330
C
100
AcDbDictionary
281
     1
  3
2dWireframe
350
2F
  3
3dWireframe
350
2A4
  3
Basic
350
2E
  3
Brighten
350
35
  3
ColorChange
350
39
  3
Conceptual
350
32
  3
Dim
350
34
  3
EdgeColorOff
350
41
  3
Facepattern
350
38
  3
Flat
350
2A
  3
FlatWithEdges
350
2B
  3
Gouraud
350
2C
  3
GouraudWithEdges
350
2D
  3
Hidden
350
31
  3
JitterOff
350
3F
  3
Linepattern
350
37
  3
OverhangOff
350
40
  3
Realistic
350
33
  3
Shaded
350
3E
  3
Shaded with edges
350
3D
  3
Shades of Gray
350
3A
  3
Sketchy
350
3B
  3
Thicken
350
36
  3
Wireframe
350
30
  3
X-Ray
350
3C
  0
XRECORD
  5
523
102
{ACAD_REACTORS
330
C
102
}
330
C
100
AcDbXrecord
280
     1
 90
        1
330
64
  0
DICTIONARY
  5
41B
102
{ACAD_REACTORS
330
C
102
}
330
C
100
AcDbDictionary
281
     1
  3
CANNOSCALE
350
41E
  3
CMLEADERSTYLE
350
41D
  3
CTABLESTYLE
350
41C
  3
DIMASSOC
350
421
  3
INDEXCTL
350
420
  3
SORTENTS
350
41F
  3
XCLIPFRAME
350
4C4
  0
XRECORD
  5
524
102
{ACAD_REACTORS
330
C
102
}
330
C
100
AcDbXrecord
280
     1
  1
DWGPROPS COOKIE
  2

  3

  4

  6

  7

  8
imamura
  9

300
=
301
=
302
=
303
=
304
=
305
=
306
=
307
=
308
=
309
=
 40
0.0062406481481481
 41
2456332.493029236
 42
2457126.694850509
  1

 90
        0
  0
DICTIONARY
  5
2A8
102
{ACAD_REACTORS
330
2A7
102
}
330
2A7
100
AcDbDictionary
281
     1
  0
XRECORD
  5
41A
102
{ACAD_REACTORS
330
419
102
}
330
419
100
AcDbXrecord
280
     1
290
     1
  0
SORTENTSTABLE
  5
506
102
{ACAD_REACTORS
330
505
102
}
330
505
100
AcDbSortentsTable
330
6B
331
504
  5
2E6
331
173
  5
18C
331
162
  5
17B
331
151
  5
16A
331
F9
  5
106
331
E8
  5
F5
331
17D
  5
196
331
1D2
  5
1FB
331
1C1
  5
1E6
331
1B0
  5
1CA
331
19F
  5
1BD
331
18E
  5
1AC
331
10D
  5
11A
331
AD
  5
BE
331
1FE
  5
50B
331
11E
  5
12B
331
BE
  5
DC
331
515
  5
A3
331
2E7
  5
517
331
12F
  5
14E
331
2E8
  5
518
331
130
  5
14F
331
409
  5
521
331
E9
  5
F6
331
17E
  5
197
331
174
  5
18D
331
163
  5
17C
331
152
  5
16B
331
FA
  5
107
331
1D3
  5
1FC
331
1C2
  5
1E7
331
1B1
  5
1CB
331
1A0
  5
1BE
331
18F
  5
1AD
331
10E
  5
11B
331
AE
  5
BF
331
11F
  5
12C
331
BF
  5
DD
331
516
  5
A5
331
2E9
  5
519
331
131
  5
150
331
120
  5
12D
331
C0
  5
DE
331
17F
  5
198
331
175
  5
18E
331
164
  5
17D
331
153
  5
16C
331
FB
  5
108
331
EA
  5
F7
331
1E5
  5
2E2
331
1D4
  5
1FD
331
1C3
  5
1ED
331
1B2
  5
1CC
331
1A1
  5
1BF
331
190
  5
1AE
331
10F
  5
11C
331
AF
  5
C0
331
517
  5
A7
331
1F0
  5
2EA
331
110
  5
11D
331
B0
  5
C1
331
121
  5
12E
331
C1
  5
DF
331
2EA
  5
51A
331
DA
  5
E7
331
507
  5
2E0
331
176
  5
18F
331
165
  5
17E
331
154
  5
16D
331
FC
  5
109
331
EB
  5
F8
331
180
  5
199
331
191
  5
1AF
331
1E6
  5
2E3
331
1D5
  5
1FE
331
1B3
  5
1CD
331
A3
  5
B2
331
100
  5
10D
331
1F1
  5
2EB
331
111
  5
11E
331
B1
  5
C2
331
122
  5
12F
331
C2
  5
E0
331
2EB
  5
51B
331
DB
  5
E8
331
144
  5
15D
331
EC
  5
F9
331
508
  5
2E1
331
177
  5
190
331
166
  5
17F
331
155
  5
16E
331
1E7
  5
2E4
331
1D6
  5
2DC
331
1C5
  5
1EE
331
1B4
  5
1CE
331
192
  5
1B0
331
181
  5
19A
331
FD
  5
10A
331
101
  5
10E
331
1F2
  5
2EC
331
112
  5
11F
331
B2
  5
C3
331
123
  5
130
331
C3
  5
E1
331
2EC
  5
51C
331
DC
  5
E9
331
145
  5
15E
331
ED
  5
FA
331
167
  5
180
331
156
  5
16F
331
193
  5
1B1
331
182
  5
19B
331
509
  5
157
331
1D7
  5
2DD
331
1C6
  5
1EF
331
1B5
  5
1CF
331
A5
  5
B7
331
FE
  5
10B
331
1D8
  5
2DE
331
1F3
  5
2ED
331
113
  5
120
331
102
  5
10F
331
2DC
  5
50C
331
124
  5
131
331
C4
  5
E2
331
2ED
  5
51D
331
DD
  5
EA
331
146
  5
15F
331
EE
  5
FB
331
168
  5
181
331
157
  5
170
331
FF
  5
10C
331
183
  5
19C
331
1C7
  5
1F0
331
1B6
  5
1D0
331
194
  5
1B2
331
51B
  5
B1
331
50A
  5
158
331
1D9
  5
2DF
331
1C8
  5
1F1
331
1F4
  5
2EE
331
114
  5
121
331
103
  5
110
331
2DD
  5
50D
331
125
  5
144
331
C5
  5
E3
331
2EE
  5
51E
331
DE
  5
EB
331
169
  5
182
331
158
  5
171
331
147
  5
160
331
EF
  5
FC
331
184
  5
19D
331
50B
  5
159
331
195
  5
1B3
331
1B7
  5
1D1
331
A7
  5
B8
331
51C
  5
AE
331
1C9
  5
1F2
331
1B8
  5
1D2
331
1F5
  5
2EF
331
115
  5
122
331
104
  5
111
331
2DE
  5
50E
331
126
  5
145
331
C6
  5
E4
331
2EF
  5
51F
331
DF
  5
EC
331
16A
  5
183
331
159
  5
172
331
148
  5
161
331
F0
  5
FD
331
185
  5
19E
331
50C
  5
15A
331
1A7
  5
1C0
331
196
  5
1B4
331
51D
  5
AF
331
1CA
  5
1F3
331
1B9
  5
1D3
331
1A8
  5
1C1
331
1F6
  5
2F0
331
116
  5
123
331
105
  5
112
331
2DF
  5
50F
331
127
  5
146
331
C7
  5
E5
331
2F0
  5
520
331
E0
  5
ED
331
16B
  5
184
331
15A
  5
173
331
149
  5
162
331
F1
  5
FE
331
186
  5
19F
331
50D
  5
15B
331
197
  5
1B5
331
51E
  5
B0
331
1ED
  5
2E7
331
1CB
  5
1F4
331
1BA
  5
1D4
331
1A9
  5
1C2
331
198
  5
1B6
331
106
  5
113
331
1F7
  5
409
331
117
  5
124
331
B7
  5
C4
331
2E0
  5
510
331
128
  5
147
331
C8
  5
E6
331
16C
  5
185
331
15B
  5
174
331
14A
  5
163
331
F2
  5
FF
331
E1
  5
EE
331
187
  5
1A0
331
50E
  5
15C
331
51F
  5
AB
331
188
  5
1A1
331
1EE
  5
2E8
331
1CC
  5
1F5
331
1BB
  5
1D5
331
1AA
  5
1C3
331
199
  5
1B7
331
520
  5
AC
331
107
  5
114
331
1F8
  5
503
331
118
  5
125
331
B8
  5
C5
331
2E1
  5
511
331
129
  5
148
331
16D
  5
186
331
15C
  5
175
331
14B
  5
164
331
F3
  5
100
331
E2
  5
EF
331
50F
  5
151
331
178
  5
191
331
189
  5
1A7
331
510
  5
152
331
1EF
  5
2E9
331
1CD
  5
1F6
331
1BC
  5
1D6
331
1AB
  5
1C5
331
19A
  5
1B8
331
108
  5
115
331
A8
  5
B9
331
521
  5
AD
331
1F9
  5
504
331
119
  5
126
331
B9
  5
C6
331
2E2
  5
512
331
12A
  5
149
331
16E
  5
187
331
15D
  5
176
331
14C
  5
165
331
F4
  5
101
331
E3
  5
F0
331
179
  5
192
331
1CE
  5
1F7
331
1BD
  5
1D7
331
1AC
  5
1C6
331
19B
  5
1B9
331
18A
  5
1A8
331
511
  5
153
331
109
  5
116
331
A9
  5
BA
331
1FA
  5
507
331
11A
  5
127
331
BA
  5
C7
331
2E3
  5
513
331
12B
  5
14A
331
16F
  5
188
331
15E
  5
177
331
14D
  5
166
331
F5
  5
102
331
E4
  5
F1
331
17A
  5
193
331
170
  5
189
331
1CF
  5
1F8
331
1BE
  5
1D8
331
1AD
  5
1C7
331
19C
  5
1BA
331
18B
  5
1A9
331
512
  5
154
331
10A
  5
117
331
AA
  5
BB
331
1FB
  5
508
331
11B
  5
128
331
BB
  5
C8
331
2E4
  5
514
331
12C
  5
14B
331
15F
  5
178
331
14E
  5
167
331
F6
  5
103
331
E5
  5
F2
331
17B
  5
194
331
171
  5
18A
331
160
  5
179
331
1D0
  5
1F9
331
1BF
  5
1D9
331
1AE
  5
1C8
331
19D
  5
1BB
331
18C
  5
1AA
331
513
  5
155
331
10B
  5
118
331
AB
  5
BC
331
1FC
  5
509
331
11C
  5
129
331
BC
  5
DA
331
2E5
  5
515
331
12D
  5
14C
331
14F
  5
168
331
F7
  5
104
331
E6
  5
F3
331
503
  5
2E5
331
172
  5
18B
331
161
  5
17A
331
150
  5
169
331
F8
  5
105
331
17C
  5
195
331
1D1
  5
1FA
331
1C0
  5
1E5
331
1AF
  5
1C9
331
19E
  5
1BC
331
18D
  5
1AB
331
514
  5
156
331
10C
  5
119
331
AC
  5
BD
331
1FD
  5
50A
331
11D
  5
12A
331
BD
  5
DB
331
2E6
  5
516
331
12E
  5
14D
331
E7
  5
F4
  0
XRECORD
  5
527
102
{ACAD_REACTORS
330
525
102
}
330
525
100
AcDbXrecord
280
     1
 70
     2
  0
XRECORD
  5
526
102
{ACAD_REACTORS
330
525
102
}
330
525
100
AcDbXrecord
280
     1
 40
1.25
  0
XRECORD
  5
528
102
{ACAD_REACTORS
330
525
102
}
330
525
100
AcDbXrecord
280
     1
 40
1.570796326794896
  0
LAYOUT
  5
6E
102
{ACAD_XDICTIONARY
360
55C
102
}
102
{ACAD_REACTORS
330
61
102
}
330
61
100
AcDbPlotSettings
  1

  2
FX DP 205
  4

  6

 40
0.0
 41
0.0
 42
0.0
 43
0.0
 44
0.0
 45
0.0
 46
0.0
 47
0.0
 48
0.0
 49
0.0
140
0.0
141
0.0
142
1.0
143
1.0
 70
  1712
 72
     0
 73
     0
 74
     0
  7

 75
     0
147
1.0
148
0.0
149
0.0
100
AcDbLayout
  1
Model
 70
     1
 71
     0
 10
0.0
 20
0.0
 11
12.0
 21
9.0
 12
0.0
 22
0.0
 32
0.0
 14
0.0
 24
0.0
 34
0.0
 15
0.0
 25
0.0
 35
0.0
146
0.0
 13
0.0
 23
0.0
 33
0.0
 16
1.0
 26
0.0
 36
0.0
 17
0.0
 27
1.0
 37
0.0
 76
     0
330
6B
331
8B
  0
LAYOUT
  5
6A
102
{ACAD_XDICTIONARY
360
55A
102
}
102
{ACAD_REACTORS
330
61
102
}
330
61
100
AcDbPlotSettings
  1

  2
FX DP 205
  4

  6

 40
0.0
 41
0.0
 42
0.0
 43
0.0
 44
0.0
 45
0.0
 46
0.0
 47
0.0
 48
0.0
 49
0.0
140
0.0
141
0.0
142
1.0
143
1.0
 70
   688
 72
     0
 73
     0
 74
     5
  7

 75
    16
147
1.0
148
0.0
149
0.0
100
AcDbLayout
  1
レイアウト1
 70
     1
 71
     1
 10
0.0
 20
0.0
 11
12.0
 21
9.0
 12
0.0
 22
0.0
 32
0.0
 14
1.000000000000000E+20
 24
1.000000000000000E+20
 34
1.000000000000000E+20
 15
-1.000000000000000E+20
 25
-1.000000000000000E+20
 35
-1.000000000000000E+20
146
0.0
 13
0.0
 23
0.0
 33
0.0
 16
1.0
 26
0.0
 36
0.0
 17
0.0
 27
1.0
 37
0.0
 76
     0
330
67
  0
MATERIAL
  5
19
102
{ACAD_XDICTIONARY
360
1A
102
}
102
{ACAD_REACTORS
330
10
102
}
330
10
100
AcDbMaterial
  1
ByBlock
 72
     0
 43
0.0208333333333333
 43
0.0
 43
0.0
 43
0.0
 43
0.0
 43
0.0208333333333333
 43
0.0
 43
0.0
 43
0.0
 43
0.0
 43
1.0
 43
0.0
 43
0.0
 43
0.0
 43
0.0
 43
1.0
 77
     0
 47
0.0208333333333333
 47
0.0
 47
0.0
 47
0.0
 47
0.0
 47
0.0208333333333333
 47
0.0
 47
0.0
 47
0.0
 47
0.0
 47
1.0
 47
0.0
 47
0.0
 47
0.0
 47
0.0
 47
1.0
171
     0
 49
0.0208333333333333
 49
0.0
 49
0.0
 49
0.0
 49
0.0
 49
0.0208333333333333
 49
0.0
 49
0.0
 49
0.0
 49
0.0
 49
1.0
 49
0.0
 49
0.0
 49
0.0
 49
0.0
 49
1.0
175
     0
142
0.0208333333333333
142
0.0
142
0.0
142
0.0
142
0.0
142
0.0208333333333333
142
0.0
142
0.0
142
0.0
142
0.0
142
1.0
142
0.0
142
0.0
142
0.0
142
0.0
142
1.0
179
     0
144
0.0208333333333333
144
0.0
144
0.0
144
0.0
144
0.0
144
0.0208333333333333
144
0.0
144
0.0
144
0.0
144
0.0
144
1.0
144
0.0
144
0.0
144
0.0
144
0.0
144
1.0
147
0.0208333333333333
147
0.0
147
0.0
147
0.0
147
0.0
147
0.0208333333333333
147
0.0
147
0.0
147
0.0
147
0.0
147
1.0
147
0.0
147
0.0
147
0.0
147
0.0
147
1.0
  0
MATERIAL
  5
11
102
{ACAD_XDICTIONARY
360
12
102
}
102
{ACAD_REACTORS
330
10
102
}
330
10
100
AcDbMaterial
  1
ByLayer
 72
     0
 43
0.0208333333333333
 43
0.0
 43
0.0
 43
0.0
 43
0.0
 43
0.0208333333333333
 43
0.0
 43
0.0
 43
0.0
 43
0.0
 43
1.0
 43
0.0
 43
0.0
 43
0.0
 43
0.0
 43
1.0
 77
     0
 47
0.0208333333333333
 47
0.0
 47
0.0
 47
0.0
 47
0.0
 47
0.0208333333333333
 47
0.0
 47
0.0
 47
0.0
 47
0.0
 47
1.0
 47
0.0
 47
0.0
 47
0.0
 47
0.0
 47
1.0
171
     0
 49
0.0208333333333333
 49
0.0
 49
0.0
 49
0.0
 49
0.0
 49
0.0208333333333333
 49
0.0
 49
0.0
 49
0.0
 49
0.0
 49
1.0
 49
0.0
 49
0.0
 49
0.0
 49
0.0
 49
1.0
175
     0
142
0.0208333333333333
142
0.0
142
0.0
142
0.0
142
0.0
142
0.0208333333333333
142
0.0
142
0.0
142
0.0
142
0.0
142
1.0
142
0.0
142
0.0
142
0.0
142
0.0
142
1.0
179
     0
144
0.0208333333333333
144
0.0
144
0.0
144
0.0
144
0.0
144
0.0208333333333333
144
0.0
144
0.0
144
0.0
144
0.0
144
1.0
144
0.0
144
0.0
144
0.0
144
0.0
144
1.0
147
0.0208333333333333
147
0.0
147
0.0
147
0.0
147
0.0
147
0.0208333333333333
147
0.0
147
0.0
147
0.0
147
0.0
147
1.0
147
0.0
147
0.0
147
0.0
147
0.0
147
1.0
  0
MATERIAL
  5
21
102
{ACAD_XDICTIONARY
360
22
102
}
102
{ACAD_REACTORS
330
10
102
}
330
10
100
AcDbMaterial
  1
Global
 72
     0
 43
0.0208333333333333
 43
0.0
 43
0.0
 43
0.0
 43
0.0
 43
0.0208333333333333
 43
0.0
 43
0.0
 43
0.0
 43
0.0
 43
1.0
 43
0.0
 43
0.0
 43
0.0
 43
0.0
 43
1.0
 77
     0
 47
0.0208333333333333
 47
0.0
 47
0.0
 47
0.0
 47
0.0
 47
0.0208333333333333
 47
0.0
 47
0.0
 47
0.0
 47
0.0
 47
1.0
 47
0.0
 47
0.0
 47
0.0
 47
0.0
 47
1.0
171
     0
 49
0.0208333333333333
 49
0.0
 49
0.0
 49
0.0
 49
0.0
 49
0.0208333333333333
 49
0.0
 49
0.0
 49
0.0
 49
0.0
 49
1.0
 49
0.0
 49
0.0
 49
0.0
 49
0.0
 49
1.0
175
     0
142
0.0208333333333333
142
0.0
142
0.0
142
0.0
142
0.0
142
0.0208333333333333
142
0.0
142
0.0
142
0.0
142
0.0
142
1.0
142
0.0
142
0.0
142
0.0
142
0.0
142
1.0
179
     0
144
0.0208333333333333
144
0.0
144
0.0
144
0.0
144
0.0
144
0.0208333333333333
144
0.0
144
0.0
144
0.0
144
0.0
144
1.0
144
0.0
144
0.0
144
0.0
144
0.0
144
1.0
147
0.0208333333333333
147
0.0
147
0.0
147
0.0
147
0.0
147
0.0208333333333333
147
0.0
147
0.0
147
0.0
147
0.0
147
1.0
147
0.0
147
0.0
147
0.0
147
0.0
147
1.0
  0
MLEADERSTYLE
  5
66
102
{ACAD_REACTORS
330
65
102
}
330
65
100
AcDbMLeaderStyle
170
     2
171
     1
172
     0
 90
        2
 40
0.0
 41
0.0
173
     1
 91
-1056964608
340
5A
 92
       -2
290
     1
 42
0.09
291
     1
 43
0.36
  3
Standard
 44
0.18
300

342
55
174
     1
178
     6
175
     1
176
     0
 93
-1056964608
 45
0.18
292
     0
297
     0
 46
0.18
 94
-1056964608
 47
1.0
 49
1.0
140
1.0
293
     1
141
0.0
294
     1
177
     0
142
1.0
295
     0
296
     0
143
0.125
1001
ACAD_MLEADERVER
1070
     2
  0
MLINESTYLE
  5
5F
102
{ACAD_REACTORS
330
5E
102
}
330
5E
100
AcDbMlineStyle
  2
STANDARD
 70
     0
  3

 62
   256
 51
90.0
 52
90.0
 71
     2
 49
0.5
 62
   256
  6
BYLAYER
 49
-0.5
 62
   256
  6
BYLAYER
  0
ACDBPLACEHOLDER
  5
F
102
{ACAD_REACTORS
330
E
102
}
330
E
  0
SCALE
  5
43
102
{ACAD_REACTORS
330
42
102
}
330
42
100
AcDbScale
 70
     0
300
1:1
140
1.0
141
1.0
290
     1
  0
SCALE
  5
44
102
{ACAD_REACTORS
330
42
102
}
330
42
100
AcDbScale
 70
     0
300
1/128" = 1'-0"
140
0.0078125
141
12.0
290
     0
  0
SCALE
  5
45
102
{ACAD_REACTORS
330
42
102
}
330
42
100
AcDbScale
 70
     0
300
1/64" = 1'-0"
140
0.015625
141
12.0
290
     0
  0
SCALE
  5
46
102
{ACAD_REACTORS
330
42
102
}
330
42
100
AcDbScale
 70
     0
300
1/32" = 1'-0"
140
0.03125
141
12.0
290
     0
  0
SCALE
  5
47
102
{ACAD_REACTORS
330
42
102
}
330
42
100
AcDbScale
 70
     0
300
1/16" = 1'-0"
140
0.0625
141
12.0
290
     0
  0
SCALE
  5
48
102
{ACAD_REACTORS
330
42
102
}
330
42
100
AcDbScale
 70
     0
300
3/32" = 1'-0"
140
0.09375
141
12.0
290
     0
  0
SCALE
  5
49
102
{ACAD_REACTORS
330
42
102
}
330
42
100
AcDbScale
 70
     0
300
1/8" = 1'-0"
140
0.125
141
12.0
290
     0
  0
SCALE
  5
4A
102
{ACAD_REACTORS
330
42
102
}
330
42
100
AcDbScale
 70
     0
300
3/16" = 1'-0"
140
0.1875
141
12.0
290
     0
  0
SCALE
  5
4B
102
{ACAD_REACTORS
330
42
102
}
330
42
100
AcDbScale
 70
     0
300
1/4" = 1'-0"
140
0.25
141
12.0
290
     0
  0
SCALE
  5
4C
102
{ACAD_REACTORS
330
42
102
}
330
42
100
AcDbScale
 70
     0
300
3/8" = 1'-0"
140
0.375
141
12.0
290
     0
  0
SCALE
  5
4D
102
{ACAD_REACTORS
330
42
102
}
330
42
100
AcDbScale
 70
     0
300
1/2" = 1'-0"
140
0.5
141
12.0
290
     0
  0
SCALE
  5
4E
102
{ACAD_REACTORS
330
42
102
}
330
42
100
AcDbScale
 70
     0
300
3/4" = 1'-0"
140
0.75
141
12.0
290
     0
  0
SCALE
  5
4F
102
{ACAD_REACTORS
330
42
102
}
330
42
100
AcDbScale
 70
     0
300
1" = 1'-0"
140
1.0
141
12.0
290
     0
  0
SCALE
  5
50
102
{ACAD_REACTORS
330
42
102
}
330
42
100
AcDbScale
 70
     0
300
1-1/2" = 1'-0"
140
1.5
141
12.0
290
     0
  0
SCALE
  5
51
102
{ACAD_REACTORS
330
42
102
}
330
42
100
AcDbScale
 70
     0
300
3" = 1'-0"
140
3.0
141
12.0
290
     0
  0
SCALE
  5
52
102
{ACAD_REACTORS
330
42
102
}
330
42
100
AcDbScale
 70
     0
300
6" = 1'-0"
140
6.0
141
12.0
290
     0
  0
SCALE
  5
53
102
{ACAD_REACTORS
330
42
102
}
330
42
100
AcDbScale
 70
     0
300
1'-0" = 1'-0"
140
12.0
141
12.0
290
     0
  0
TABLESTYLE
  5
64
102
{ACAD_XDICTIONARY
360
423
102
}
102
{ACAD_REACTORS
330
63
102
}
330
63
100
AcDbTableStyle
  3
Standard
 70
     0
 71
     0
 40
0.06
 41
0.06
280
     0
281
     0
  7
STANDARD
140
0.18
170
     2
 62
     0
 63
     7
283
     0
274
    -2
284
     1
 64
     0
275
    -2
285
     1
 65
     0
276
    -2
286
     1
 66
     0
277
    -2
287
     1
 67
     0
278
    -2
288
     1
 68
     0
279
    -2
289
     1
 69
     0
  7
STANDARD
140
0.25
170
     5
 62
     0
 63
     7
283
     0
274
    -2
284
     1
 64
     0
275
    -2
285
     1
 65
     0
276
    -2
286
     1
 66
     0
277
    -2
287
     1
 67
     0
278
    -2
288
     1
 68
     0
279
    -2
289
     1
 69
     0
  7
STANDARD
140
0.18
170
     5
 62
     0
 63
     7
283
     0
274
    -2
284
     1
 64
     0
275
    -2
285
     1
 65
     0
276
    -2
286
     1
 66
     0
277
    -2
287
     1
 67
     0
278
    -2
288
     1
 68
     0
279
    -2
289
     1
 69
     0
  0
VISUALSTYLE
  5
2F
102
{ACAD_XDICTIONARY
360
533
102
}
102
{ACAD_REACTORS
330
29
102
}
330
29
100
AcDbVisualStyle
  2

 70
     4
 71
     0
 72
     2
 73
     0
 90
        0
 40
-0.6
 41
-30.0
 62
     5
 63
     7
 74
     1
 91
        4
 64
     7
 65
   257
 75
     1
175
     1
 42
1.0
 92
        0
 66
   257
 43
1.0
 76
     1
 77
     6
 78
     2
 67
     7
 79
     5
170
     0
171
     0
290
     0
174
     0
 93
        1
 44
0.0
173
     0
291
     0
 45
0.0
1001
ACAD
1000
AcDbSavedByObjectVersion
1070
     0
  0
VISUALSTYLE
  5
2A4
102
{ACAD_XDICTIONARY
360
55E
102
}
102
{ACAD_REACTORS
330
29
102
}
330
29
100
AcDbVisualStyle
  2

 70
     5
 71
     0
 72
     2
 73
     1
 90
        0
 40
-0.6
 41
-30.0
 62
     5
 63
     7
 74
     1
 91
        4
 64
     7
 65
   257
 75
     1
175
     1
 42
1.0
 92
        0
 66
   257
 43
1.0
 76
     1
 77
     6
 78
     2
 67
     7
 79
     5
170
     0
171
     0
290
     0
174
     0
 93
        1
 44
0.0
173
     0
291
     0
 45
0.0
1001
ACAD
1000
AcDbSavedByObjectVersion
1070
     0
  0
VISUALSTYLE
  5
2E
102
{ACAD_XDICTIONARY
360
531
102
}
102
{ACAD_REACTORS
330
29
102
}
330
29
100
AcDbVisualStyle
  2

 70
     7
 71
     1
 72
     0
 73
     1
 90
        0
 40
-0.6
 41
-30.0
 62
     5
 63
     7
 74
     0
 91
        4
 64
     7
 65
   257
 75
     1
175
     1
 42
1.0
 92
        8
 66
     7
 43
1.0
 76
     1
 77
     6
 78
     2
 67
     7
 79
     5
170
     0
171
     0
290
     0
174
     0
 93
        1
 44
0.0
173
     0
291
     1
 45
0.0
1001
ACAD
1000
AcDbSavedByObjectVersion
1070
     0
  0
VISUALSTYLE
  5
35
102
{ACAD_XDICTIONARY
360
53F
102
}
102
{ACAD_REACTORS
330
29
102
}
330
29
100
AcDbVisualStyle
  2

 70
    12
 71
     2
 72
     2
 73
     0
 90
        0
 40
-0.6
 41
-30.0
 62
     5
 63
     7
 74
     1
 91
        4
 64
     7
 65
   257
 75
     1
175
     1
 42
1.0
 92
        8
 66
     7
 43
1.0
 76
     1
 77
     6
 78
     2
 67
     7
 79
     5
170
     0
171
     0
290
     0
174
     0
 93
        1
 44
50.0
173
     0
291
     1
 45
0.0
1001
ACAD
1000
AcDbSavedByObjectVersion
1070
     0
  0
VISUALSTYLE
  5
39
102
{ACAD_XDICTIONARY
360
547
102
}
102
{ACAD_REACTORS
330
29
102
}
330
29
100
AcDbVisualStyle
  2

 70
    16
 71
     2
 72
     2
 73
     3
 90
        0
 40
-0.6
 41
-30.0
 62
     5
 63
     8
 74
     1
 91
        4
 64
     7
 65
   257
 75
     1
175
     1
 42
1.0
 92
        8
 66
     8
 43
1.0
 76
     1
 77
     6
 78
     2
 67
     7
 79
     5
170
     0
171
     0
290
     0
174
     0
 93
        1
 44
0.0
173
     0
291
     1
 45
0.0
1001
ACAD
1000
AcDbSavedByObjectVersion
1070
     0
  0
VISUALSTYLE
  5
32
102
{ACAD_XDICTIONARY
360
539
102
}
102
{ACAD_REACTORS
330
29
102
}
330
29
100
AcDbVisualStyle
  2

 70
     9
 71
     3
 72
     2
 73
     0
 90
        0
 40
-0.6
 41
-30.0
 62
     5
 63
     7
 74
     2
 91
        2
 64
     7
 65
   257
 75
     1
175
     1
 42
179.0
 92
        8
 66
     7
 43
1.0
 76
     1
 77
     6
 78
     2
 67
     7
 79
     3
170
     0
171
     0
290
     0
174
     0
 93
        1
 44
0.0
173
     0
291
     0
 45
0.0
1001
ACAD
1000
AcDbSavedByObjectVersion
1070
     0
  0
VISUALSTYLE
  5
34
102
{ACAD_XDICTIONARY
360
53D
102
}
102
{ACAD_REACTORS
330
29
102
}
330
29
100
AcDbVisualStyle
  2

 70
    11
 71
     2
 72
     2
 73
     0
 90
        0
 40
-0.6
 41
-30.0
 62
     5
 63
     7
 74
     1
 91
        4
 64
     7
 65
   257
 75
     1
175
     1
 42
1.0
 92
        8
 66
     7
 43
1.0
 76
     1
 77
     6
 78
     2
 67
     7
 79
     5
170
     0
171
     0
290
     0
174
     0
 93
        1
 44
-50.0
173
     0
291
     1
 45
0.0
1001
ACAD
1000
AcDbSavedByObjectVersion
1070
     0
  0
VISUALSTYLE
  5
41
102
{ACAD_XDICTIONARY
360
557
102
}
102
{ACAD_REACTORS
330
29
102
}
330
29
100
AcDbVisualStyle
  2

 70
    22
 71
     2
 72
     2
 73
     0
 90
        0
 40
-0.6
 41
-30.0
 62
     5
 63
     7
 74
     1
 91
        4
 64
     7
 65
   257
 75
     1
175
     1
 42
1.0
 92
        8
 66
     7
 43
1.0
 76
     1
 77
     6
 78
     2
 67
     7
 79
     5
170
     0
171
     0
290
     0
174
     0
 93
        1
 44
0.0
173
     0
291
     1
 45
0.0
1001
ACAD
1000
AcDbSavedByObjectVersion
1070
     0
  0
VISUALSTYLE
  5
38
102
{ACAD_XDICTIONARY
360
545
102
}
102
{ACAD_REACTORS
330
29
102
}
330
29
100
AcDbVisualStyle
  2

 70
    15
 71
     2
 72
     2
 73
     0
 90
        0
 40
-0.6
 41
-30.0
 62
     5
 63
     7
 74
     1
 91
        4
 64
     7
 65
   257
 75
     1
175
     1
 42
1.0
 92
        8
 66
     7
 43
1.0
 76
     1
 77
     6
 78
     2
 67
     7
 79
     5
170
     0
171
     0
290
     0
174
     0
 93
        1
 44
0.0
173
     0
291
     1
 45
0.0
1001
ACAD
1000
AcDbSavedByObjectVersion
1070
     0
  0
VISUALSTYLE
  5
2A
102
{ACAD_XDICTIONARY
360
529
102
}
102
{ACAD_REACTORS
330
29
102
}
330
29
100
AcDbVisualStyle
  2

 70
     0
 71
     2
 72
     1
 73
     1
 90
        2
 40
-0.6
 41
30.0
 62
     5
 63
     7
 74
     0
 91
        0
 64
     7
 65
   257
 75
     1
175
     1
 42
1.0
 92
        8
 66
     7
 43
1.0
 76
     1
 77
     6
 78
     2
 67
     7
 79
     5
170
     0
171
     0
290
     0
174
     0
 93
       13
 44
0.0
173
     0
291
     1
 45
0.0
1001
ACAD
1000
AcDbSavedByObjectVersion
1070
     0
  0
VISUALSTYLE
  5
2B
102
{ACAD_XDICTIONARY
360
52B
102
}
102
{ACAD_REACTORS
330
29
102
}
330
29
100
AcDbVisualStyle
  2

 70
     1
 71
     2
 72
     1
 73
     1
 90
        2
 40
-0.6
 41
30.0
 62
     5
 63
     7
 74
     1
 91
        0
 64
     7
 65
   257
 75
     1
175
     1
 42
1.0
 92
        0
 66
   257
 43
1.0
 76
     1
 77
     6
 78
     2
 67
     7
 79
     5
170
     0
171
     0
290
     0
174
     0
 93
       13
 44
0.0
173
     0
291
     1
 45
0.0
1001
ACAD
1000
AcDbSavedByObjectVersion
1070
     0
  0
VISUALSTYLE
  5
2C
102
{ACAD_XDICTIONARY
360
52D
102
}
102
{ACAD_REACTORS
330
29
102
}
330
29
100
AcDbVisualStyle
  2

 70
     2
 71
     2
 72
     2
 73
     1
 90
        2
 40
-0.6
 41
30.0
 62
     5
 63
     7
 74
     0
 91
        0
 64
     7
 65
   257
 75
     1
175
     1
 42
1.0
 92
        0
 66
     7
 43
1.0
 76
     1
 77
     6
 78
     2
 67
     7
 79
     5
170
     0
171
     0
290
     0
174
     0
 93
       13
 44
0.0
173
     0
291
     1
 45
0.0
1001
ACAD
1000
AcDbSavedByObjectVersion
1070
     0
  0
VISUALSTYLE
  5
2D
102
{ACAD_XDICTIONARY
360
52F
102
}
102
{ACAD_REACTORS
330
29
102
}
330
29
100
AcDbVisualStyle
  2

 70
     3
 71
     2
 72
     2
 73
     1
 90
        2
 40
-0.6
 41
30.0
 62
     5
 63
     7
 74
     1
 91
        0
 64
     7
 65
   257
 75
     1
175
     1
 42
1.0
 92
        0
 66
   257
 43
1.0
 76
     1
 77
     6
 78
     2
 67
     7
 79
     5
170
     0
171
     0
290
     0
174
     0
 93
       13
 44
0.0
173
     0
291
     1
 45
0.0
1001
ACAD
1000
AcDbSavedByObjectVersion
1070
     0
  0
VISUALSTYLE
  5
31
102
{ACAD_XDICTIONARY
360
537
102
}
102
{ACAD_REACTORS
330
29
102
}
330
29
100
AcDbVisualStyle
  2

 70
     6
 71
     1
 72
     2
 73
     2
 90
        0
 40
-0.6
 41
-30.0
 62
     5
 63
     7
 74
     2
 91
        2
 64
     7
 65
   257
 75
     2
175
     1
 42
40.0
 92
        0
 66
   257
 43
1.0
 76
     1
 77
     6
 78
     2
 67
     7
 79
     3
170
     0
171
     0
290
     0
174
     0
 93
        1
 44
0.0
173
     0
291
     0
 45
0.0
1001
ACAD
1000
AcDbSavedByObjectVersion
1070
     0
  0
VISUALSTYLE
  5
3F
102
{ACAD_XDICTIONARY
360
553
102
}
102
{ACAD_REACTORS
330
29
102
}
330
29
100
AcDbVisualStyle
  2

 70
    20
 71
     2
 72
     2
 73
     0
 90
        0
 40
-0.6
 41
-30.0
 62
     5
 63
     7
 74
     1
 91
        4
 64
     7
 65
   257
 75
     1
175
     1
 42
1.0
 92
       10
 66
     7
 43
1.0
 76
     1
 77
     6
 78
     2
 67
     7
 79
     5
170
     0
171
     0
290
     0
174
     0
 93
        1
 44
0.0
173
     0
291
     1
 45
0.0
1001
ACAD
1000
AcDbSavedByObjectVersion
1070
     0
  0
VISUALSTYLE
  5
37
102
{ACAD_XDICTIONARY
360
543
102
}
102
{ACAD_REACTORS
330
29
102
}
330
29
100
AcDbVisualStyle
  2

 70
    14
 71
     2
 72
     2
 73
     0
 90
        0
 40
-0.6
 41
-30.0
 62
     5
 63
     7
 74
     1
 91
        4
 64
     7
 65
   257
 75
     7
175
     7
 42
1.0
 92
        8
 66
     7
 43
1.0
 76
     1
 77
     6
 78
     2
 67
     7
 79
     5
170
     0
171
     0
290
     0
174
     0
 93
        1
 44
0.0
173
     0
291
     1
 45
0.0
1001
ACAD
1000
AcDbSavedByObjectVersion
1070
     0
  0
VISUALSTYLE
  5
40
102
{ACAD_XDICTIONARY
360
555
102
}
102
{ACAD_REACTORS
330
29
102
}
330
29
100
AcDbVisualStyle
  2

 70
    21
 71
     2
 72
     2
 73
     0
 90
        0
 40
-0.6
 41
-30.0
 62
     5
 63
     7
 74
     1
 91
        4
 64
     7
 65
   257
 75
     1
175
     1
 42
1.0
 92
        9
 66
     7
 43
1.0
 76
     1
 77
     6
 78
     2
 67
     7
 79
     5
170
     0
171
     0
290
     0
174
     0
 93
        1
 44
0.0
173
     0
291
     1
 45
0.0
1001
ACAD
1000
AcDbSavedByObjectVersion
1070
     0
  0
VISUALSTYLE
  5
33
102
{ACAD_XDICTIONARY
360
53B
102
}
102
{ACAD_REACTORS
330
29
102
}
330
29
100
AcDbVisualStyle
  2

 70
     8
 71
     2
 72
     3
 73
     0
 90
        2
 40
-0.6
 41
30.0
 62
     5
 63
     7
 74
     0
 91
        0
 64
     7
 65
   257
 75
     1
175
     1
 42
1.0
 92
        8
 66
   257
 43
1.0
 76
     1
 77
     6
 78
     2
 67
     7
 79
     3
170
     0
171
     0
290
     0
174
     0
 93
       13
 44
0.0
173
     0
291
     0
 45
0.0
1001
ACAD
1000
AcDbSavedByObjectVersion
1070
     0
  0
VISUALSTYLE
  5
3E
102
{ACAD_XDICTIONARY
360
551
102
}
102
{ACAD_REACTORS
330
29
102
}
330
29
100
AcDbVisualStyle
  2

 70
    27
 71
     2
 72
     2
 73
     1
 90
        2
 40
-0.6
 41
30.0
 62
     5
 63
     7
 74
     0
 91
        4
 64
     7
 65
   257
 75
     1
175
     1
 42
1.0
 92
        8
 66
   257
 43
1.0
 76
     1
 77
     6
 78
     2
 67
     8
 79
     3
170
     0
171
     0
290
     0
174
     0
 93
        5
 44
0.0
173
     0
291
     0
 45
0.0
1001
ACAD
1000
AcDbSavedByObjectVersion
1070
     0
  0
VISUALSTYLE
  5
3D
102
{ACAD_XDICTIONARY
360
54F
102
}
102
{ACAD_REACTORS
330
29
102
}
330
29
100
AcDbVisualStyle
  2

 70
    26
 71
     2
 72
     2
 73
     1
 90
        2
 40
-0.6
 41
30.0
 62
     5
 63
     7
 74
     1
 91
       10
 64
     7
 65
   257
 75
     2
175
     1
 42
1.0
 92
        8
 66
   257
 43
1.0
 76
     1
 77
     6
 78
     2
 67
     7
 79
     3
170
     0
171
     0
290
     0
174
     0
 93
        5
 44
0.0
173
     0
291
     0
 45
0.0
1001
ACAD
1000
AcDbSavedByObjectVersion
1070
     0
  0
VISUALSTYLE
  5
3A
102
{ACAD_XDICTIONARY
360
549
102
}
102
{ACAD_REACTORS
330
29
102
}
330
29
100
AcDbVisualStyle
  2

 70
    23
 71
     2
 72
     2
 73
     3
 90
        0
 40
-0.6
 41
-30.0
 62
     5
 63
     7
 74
     2
 91
        2
 64
     7
 65
     7
 75
     1
175
     1
 42
40.0
 92
        8
 66
     7
 43
1.0
 76
     1
 77
     6
 78
     2
 67
     7
 79
     3
170
     0
171
     0
290
     0
174
     0
 93
        1
 44
0.0
173
     0
291
     0
 45
0.0
1001
ACAD
1000
AcDbSavedByObjectVersion
1070
     0
  0
VISUALSTYLE
  5
3B
102
{ACAD_XDICTIONARY
360
54B
102
}
102
{ACAD_REACTORS
330
29
102
}
330
29
100
AcDbVisualStyle
  2

 70
    24
 71
     1
 72
     2
 73
     2
 90
        0
 40
-0.6
 41
-30.0
 62
     5
 63
     7
 74
     2
 91
        2
 64
     7
 65
     7
 75
     1
175
     1
 42
40.0
 92
       11
 66
     7
 43
1.0
 76
     1
 77
     6
 78
     2
 67
     7
 79
     6
170
     0
171
     0
290
     0
174
     0
 93
        1
 44
0.0
173
     0
291
     0
 45
0.0
1001
ACAD
1000
AcDbSavedByObjectVersion
1070
     0
  0
VISUALSTYLE
  5
36
102
{ACAD_XDICTIONARY
360
541
102
}
102
{ACAD_REACTORS
330
29
102
}
330
29
100
AcDbVisualStyle
  2

 70
    13
 71
     2
 72
     2
 73
     0
 90
        0
 40
-0.6
 41
-30.0
 62
     5
 63
     7
 74
     1
 91
        4
 64
     7
 65
   257
 75
     1
175
     1
 42
1.0
 92
       12
 66
     7
 43
1.0
 76
     1
 77
     6
 78
     2
 67
     7
 79
     5
170
     0
171
     0
290
     0
174
     0
 93
        1
 44
0.0
173
     0
291
     1
 45
0.0
1001
ACAD
1000
AcDbSavedByObjectVersion
1070
     0
  0
VISUALSTYLE
  5
30
102
{ACAD_XDICTIONARY
360
535
102
}
102
{ACAD_REACTORS
330
29
102
}
330
29
100
AcDbVisualStyle
  2

 70
     5
 71
     0
 72
     2
 73
     0
 90
        0
 40
-0.6
 41
-30.0
 62
     5
 63
     7
 74
     1
 91
        4
 64
     7
 65
   257
 75
     1
175
     1
 42
1.0
 92
        0
 66
   257
 43
1.0
 76
     1
 77
     6
 78
     2
 67
     7
 79
     3
170
     0
171
     0
290
     0
174
     0
 93
        1
 44
0.0
173
     0
291
     0
 45
0.0
1001
ACAD
1000
AcDbSavedByObjectVersion
1070
     0
  0
VISUALSTYLE
  5
3C
102
{ACAD_XDICTIONARY
360
54D
102
}
102
{ACAD_REACTORS
330
29
102
}
330
29
100
AcDbVisualStyle
  2

 70
    25
 71
     2
 72
     2
 73
     1
 90
        1
 40
0.5
 41
-30.0
 62
     5
 63
     7
 74
     1
 91
        0
 64
     7
 65
   257
 75
     1
175
     1
 42
1.0
 92
        8
 66
     7
 43
1.0
 76
     1
 77
     6
 78
     2
 67
     7
 79
     3
170
     0
171
     0
290
     0
174
     0
 93
       13
 44
0.0
173
     0
291
     0
 45
0.0
1001
ACAD
1000
AcDbSavedByObjectVersion
1070
     0
  0
DICTIONARYVAR
  5
41E
102
{ACAD_REACTORS
330
41B
102
}
330
41B
100
DictionaryVariables
280
     0
  1
1:1
  0
DICTIONARYVAR
  5
41D
102
{ACAD_REACTORS
330
41B
102
}
330
41B
100
DictionaryVariables
280
     0
  1
STANDARD
  0
DICTIONARYVAR
  5
41C
102
{ACAD_REACTORS
330
41B
102
}
330
41B
100
DictionaryVariables
280
     0
  1
STANDARD
  0
DICTIONARYVAR
  5
421
102
{ACAD_REACTORS
330
41B
102
}
330
41B
100
DictionaryVariables
280
     0
  1
1
  0
DICTIONARYVAR
  5
420
102
{ACAD_REACTORS
330
41B
102
}
330
41B
100
DictionaryVariables
280
     0
  1
0
  0
DICTIONARYVAR
  5
41F
102
{ACAD_REACTORS
330
41B
102
}
330
41B
100
DictionaryVariables
280
     0
  1
127
  0
DICTIONARYVAR
  5
4C4
102
{ACAD_REACTORS
330
41B
102
}
330
41B
100
DictionaryVariables
280
     0
  1
2
  0
DICTIONARY
  5
55C
330
6E
100
AcDbDictionary
280
     1
281
     1
  3
ACAD_XREC_ROUNDTRIP
360
55D
  0
DICTIONARY
  5
55A
330
6A
100
AcDbDictionary
280
     1
281
     1
  3
ACAD_XREC_ROUNDTRIP
360
55B
  0
DICTIONARY
  5
1A
330
19
100
AcDbDictionary
280
     1
281
     1
  3
ACAD_XREC_ROUNDTRIP
360
42C
  3
BUMPTILE
360
1C
  3
DIFFUSETILE
360
1B
  3
OPACITYTILE
360
1F
  3
REFLECTIONTILE
360
1E
  3
REFRACTIONTILE
360
20
  3
SPECULARTILE
360
1D
  0
DICTIONARY
  5
12
330
11
100
AcDbDictionary
280
     1
281
     1
  3
ACAD_XREC_ROUNDTRIP
360
42B
  3
BUMPTILE
360
14
  3
DIFFUSETILE
360
13
  3
OPACITYTILE
360
17
  3
REFLECTIONTILE
360
16
  3
REFRACTIONTILE
360
18
  3
SPECULARTILE
360
15
  0
DICTIONARY
  5
22
330
21
100
AcDbDictionary
280
     1
281
     1
  3
ACAD_XREC_ROUNDTRIP
360
42D
  3
BUMPTILE
360
24
  3
DIFFUSETILE
360
23
  3
OPACITYTILE
360
27
  3
REFLECTIONTILE
360
26
  3
REFRACTIONTILE
360
28
  3
SPECULARTILE
360
25
  0
DICTIONARY
  5
423
330
64
100
AcDbDictionary
280
     1
281
     1
  3
ACAD_ROUNDTRIP_2008_TABLESTYLE_CELLSTYLEMAP
360
522
  3
ACAD_XREC_ROUNDTRIP
360
559
  0
DICTIONARY
  5
533
330
2F
100
AcDbDictionary
280
     1
281
     1
  3
ACAD_XREC_ROUNDTRIP
360
534
  0
DICTIONARY
  5
55E
330
2A4
100
AcDbDictionary
280
     1
281
     1
  3
ACAD_XREC_ROUNDTRIP
360
55F
  0
DICTIONARY
  5
531
330
2E
100
AcDbDictionary
280
     1
281
     1
  3
ACAD_XREC_ROUNDTRIP
360
532
  0
DICTIONARY
  5
53F
330
35
100
AcDbDictionary
280
     1
281
     1
  3
ACAD_XREC_ROUNDTRIP
360
540
  0
DICTIONARY
  5
547
330
39
100
AcDbDictionary
280
     1
281
     1
  3
ACAD_XREC_ROUNDTRIP
360
548
  0
DICTIONARY
  5
539
330
32
100
AcDbDictionary
280
     1
281
     1
  3
ACAD_XREC_ROUNDTRIP
360
53A
  0
DICTIONARY
  5
53D
330
34
100
AcDbDictionary
280
     1
281
     1
  3
ACAD_XREC_ROUNDTRIP
360
53E
  0
DICTIONARY
  5
557
330
41
100
AcDbDictionary
280
     1
281
     1
  3
ACAD_XREC_ROUNDTRIP
360
558
  0
DICTIONARY
  5
545
330
38
100
AcDbDictionary
280
     1
281
     1
  3
ACAD_XREC_ROUNDTRIP
360
546
  0
DICTIONARY
  5
529
330
2A
100
AcDbDictionary
280
     1
281
     1
  3
ACAD_XREC_ROUNDTRIP
360
52A
  0
DICTIONARY
  5
52B
330
2B
100
AcDbDictionary
280
     1
281
     1
  3
ACAD_XREC_ROUNDTRIP
360
52C
  0
DICTIONARY
  5
52D
330
2C
100
AcDbDictionary
280
     1
281
     1
  3
ACAD_XREC_ROUNDTRIP
360
52E
  0
DICTIONARY
  5
52F
330
2D
100
AcDbDictionary
280
     1
281
     1
  3
ACAD_XREC_ROUNDTRIP
360
530
  0
DICTIONARY
  5
537
330
31
100
AcDbDictionary
280
     1
281
     1
  3
ACAD_XREC_ROUNDTRIP
360
538
  0
DICTIONARY
  5
553
330
3F
100
AcDbDictionary
280
     1
281
     1
  3
ACAD_XREC_ROUNDTRIP
360
554
  0
DICTIONARY
  5
543
330
37
100
AcDbDictionary
280
     1
281
     1
  3
ACAD_XREC_ROUNDTRIP
360
544
  0
DICTIONARY
  5
555
330
40
100
AcDbDictionary
280
     1
281
     1
  3
ACAD_XREC_ROUNDTRIP
360
556
  0
DICTIONARY
  5
53B
330
33
100
AcDbDictionary
280
     1
281
     1
  3
ACAD_XREC_ROUNDTRIP
360
53C
  0
DICTIONARY
  5
551
330
3E
100
AcDbDictionary
280
     1
281
     1
  3
ACAD_XREC_ROUNDTRIP
360
552
  0
DICTIONARY
  5
54F
330
3D
100
AcDbDictionary
280
     1
281
     1
  3
ACAD_XREC_ROUNDTRIP
360
550
  0
DICTIONARY
  5
549
330
3A
100
AcDbDictionary
280
     1
281
     1
  3
ACAD_XREC_ROUNDTRIP
360
54A
  0
DICTIONARY
  5
54B
330
3B
100
AcDbDictionary
280
     1
281
     1
  3
ACAD_XREC_ROUNDTRIP
360
54C
  0
DICTIONARY
  5
541
330
36
100
AcDbDictionary
280
     1
281
     1
  3
ACAD_XREC_ROUNDTRIP
360
542
  0
DICTIONARY
  5
535
330
30
100
AcDbDictionary
280
     1
281
     1
  3
ACAD_XREC_ROUNDTRIP
360
536
  0
DICTIONARY
  5
54D
330
3C
100
AcDbDictionary
280
     1
281
     1
  3
ACAD_XREC_ROUNDTRIP
360
54E
  0
XRECORD
  5
55D
102
{ACAD_REACTORS
330
55C
102
}
330
55C
100
AcDbXrecord
280
     1
102
SHADEPLOT
 70
     0
102
SHADEPLOTRESLEVEL
 70
     2
102
SHADEPLOTCUSTOMDPI
 70
   300
  0
XRECORD
  5
55B
102
{ACAD_REACTORS
330
55A
102
}
330
55A
100
AcDbXrecord
280
     1
102
SHADEPLOT
 70
     0
102
SHADEPLOTRESLEVEL
 70
     2
102
SHADEPLOTCUSTOMDPI
 70
   300
  0
XRECORD
  5
42C
102
{ACAD_REACTORS
330
1A
102
}
330
1A
100
AcDbXrecord
280
     1
102
MATERIAL
148
0.0
149
0.0
149
0.0
 93
        0
 94
      127
282
     0
 72
     0
 77
     0
171
     0
175
     0
179
     0
273
     0
  0
XRECORD
  5
1C
102
{ACAD_REACTORS
330
1A
102
}
330
1A
100
AcDbXrecord
280
     1
270
     1
271
     1
  0
XRECORD
  5
1B
102
{ACAD_REACTORS
330
1A
102
}
330
1A
100
AcDbXrecord
280
     1
270
     1
271
     1
  0
XRECORD
  5
1F
102
{ACAD_REACTORS
330
1A
102
}
330
1A
100
AcDbXrecord
280
     1
270
     1
271
     1
  0
XRECORD
  5
1E
102
{ACAD_REACTORS
330
1A
102
}
330
1A
100
AcDbXrecord
280
     1
270
     1
271
     1
  0
XRECORD
  5
20
102
{ACAD_REACTORS
330
1A
102
}
330
1A
100
AcDbXrecord
280
     1
270
     1
271
     1
  0
XRECORD
  5
1D
102
{ACAD_REACTORS
330
1A
102
}
330
1A
100
AcDbXrecord
280
     1
270
     1
271
     1
  0
XRECORD
  5
42B
102
{ACAD_REACTORS
330
12
102
}
330
12
100
AcDbXrecord
280
     1
102
MATERIAL
148
0.0
149
0.0
149
0.0
 93
        0
 94
      127
282
     0
 72
     0
 77
     0
171
     0
175
     0
179
     0
273
     0
  0
XRECORD
  5
14
102
{ACAD_REACTORS
330
12
102
}
330
12
100
AcDbXrecord
280
     1
270
     1
271
     1
  0
XRECORD
  5
13
102
{ACAD_REACTORS
330
12
102
}
330
12
100
AcDbXrecord
280
     1
270
     1
271
     1
  0
XRECORD
  5
17
102
{ACAD_REACTORS
330
12
102
}
330
12
100
AcDbXrecord
280
     1
270
     1
271
     1
  0
XRECORD
  5
16
102
{ACAD_REACTORS
330
12
102
}
330
12
100
AcDbXrecord
280
     1
270
     1
271
     1
  0
XRECORD
  5
18
102
{ACAD_REACTORS
330
12
102
}
330
12
100
AcDbXrecord
280
     1
270
     1
271
     1
  0
XRECORD
  5
15
102
{ACAD_REACTORS
330
12
102
}
330
12
100
AcDbXrecord
280
     1
270
     1
271
     1
  0
XRECORD
  5
42D
102
{ACAD_REACTORS
330
22
102
}
330
22
100
AcDbXrecord
280
     1
102
MATERIAL
148
0.0
149
0.0
149
0.0
 93
        0
 94
      127
282
     0
 72
     0
 77
     0
171
     0
175
     0
179
     0
273
     0
  0
XRECORD
  5
24
102
{ACAD_REACTORS
330
22
102
}
330
22
100
AcDbXrecord
280
     1
270
     1
271
     1
  0
XRECORD
  5
23
102
{ACAD_REACTORS
330
22
102
}
330
22
100
AcDbXrecord
280
     1
270
     1
271
     1
  0
XRECORD
  5
27
102
{ACAD_REACTORS
330
22
102
}
330
22
100
AcDbXrecord
280
     1
270
     1
271
     1
  0
XRECORD
  5
26
102
{ACAD_REACTORS
330
22
102
}
330
22
100
AcDbXrecord
280
     1
270
     1
271
     1
  0
XRECORD
  5
28
102
{ACAD_REACTORS
330
22
102
}
330
22
100
AcDbXrecord
280
     1
270
     1
271
     1
  0
XRECORD
  5
25
102
{ACAD_REACTORS
330
22
102
}
330
22
100
AcDbXrecord
280
     1
270
     1
271
     1
  0
CELLSTYLEMAP
  5
522
102
{ACAD_REACTORS
330
423
102
}
330
423
100
AcDbCellStyleMap
 90
        3
300
CELLSTYLE
  1
TABLEFORMAT_BEGIN
 90
        5
170
     1
 91
        0
 92
    32768
 62
   257
 93
        1
300
CONTENTFORMAT
  1
CONTENTFORMAT_BEGIN
 90
        0
 91
        0
 92
      512
 93
        0
300

 40
0.0
140
1.0
 94
        5
 62
     0
340
55
144
0.25
309
CONTENTFORMAT_END
171
     1
301
MARGIN
  1
CELLMARGIN_BEGIN
 40
0.06
 40
0.06
 40
0.06
 40
0.06
 40
0.18
 40
0.18
309
CELLMARGIN_END
 94
        6
 95
        1
302
GRIDFORMAT
  1
GRIDFORMAT_BEGIN
 90
        0
 91
        1
 62
     0
 92
       -2
340
0
 93
        0
 40
0.045
309
GRIDFORMAT_END
 95
        2
302
GRIDFORMAT
  1
GRIDFORMAT_BEGIN
 90
        0
 91
        1
 62
     0
 92
       -2
340
0
 93
        0
 40
0.045
309
GRIDFORMAT_END
 95
        4
302
GRIDFORMAT
  1
GRIDFORMAT_BEGIN
 90
        0
 91
        1
 62
     0
 92
       -2
340
0
 93
        0
 40
0.045
309
GRIDFORMAT_END
 95
        8
302
GRIDFORMAT
  1
GRIDFORMAT_BEGIN
 90
        0
 91
        1
 62
     0
 92
       -2
340
0
 93
        0
 40
0.045
309
GRIDFORMAT_END
 95
       16
302
GRIDFORMAT
  1
GRIDFORMAT_BEGIN
 90
        0
 91
        1
 62
     0
 92
       -2
340
0
 93
        0
 40
0.045
309
GRIDFORMAT_END
 95
       32
302
GRIDFORMAT
  1
GRIDFORMAT_BEGIN
 90
        0
 91
        1
 62
     0
 92
       -2
340
0
 93
        0
 40
0.045
309
GRIDFORMAT_END
309
TABLEFORMAT_END
  1
CELLSTYLE_BEGIN
 90
        1
 91
        1
300
_TITLE
309
CELLSTYLE_END
300
CELLSTYLE
  1
TABLEFORMAT_BEGIN
 90
        5
170
     1
 91
        0
 92
        0
 62
   257
 93
        1
300
CONTENTFORMAT
  1
CONTENTFORMAT_BEGIN
 90
        0
 91
        0
 92
      512
 93
        0
300

 40
0.0
140
1.0
 94
        5
 62
     0
340
55
144
0.18
309
CONTENTFORMAT_END
171
     1
301
MARGIN
  1
CELLMARGIN_BEGIN
 40
0.06
 40
0.06
 40
0.06
 40
0.06
 40
0.18
 40
0.18
309
CELLMARGIN_END
 94
        6
 95
        1
302
GRIDFORMAT
  1
GRIDFORMAT_BEGIN
 90
        0
 91
        1
 62
     0
 92
       -2
340
0
 93
        0
 40
0.045
309
GRIDFORMAT_END
 95
        2
302
GRIDFORMAT
  1
GRIDFORMAT_BEGIN
 90
        0
 91
        1
 62
     0
 92
       -2
340
0
 93
        0
 40
0.045
309
GRIDFORMAT_END
 95
        4
302
GRIDFORMAT
  1
GRIDFORMAT_BEGIN
 90
        0
 91
        1
 62
     0
 92
       -2
340
0
 93
        0
 40
0.045
309
GRIDFORMAT_END
 95
        8
302
GRIDFORMAT
  1
GRIDFORMAT_BEGIN
 90
        0
 91
        1
 62
     0
 92
       -2
340
0
 93
        0
 40
0.045
309
GRIDFORMAT_END
 95
       16
302
GRIDFORMAT
  1
GRIDFORMAT_BEGIN
 90
        0
 91
        1
 62
     0
 92
       -2
340
0
 93
        0
 40
0.045
309
GRIDFORMAT_END
 95
       32
302
GRIDFORMAT
  1
GRIDFORMAT_BEGIN
 90
        0
 91
        1
 62
     0
 92
       -2
340
0
 93
        0
 40
0.045
309
GRIDFORMAT_END
309
TABLEFORMAT_END
  1
CELLSTYLE_BEGIN
 90
        2
 91
        1
300
_HEADER
309
CELLSTYLE_END
300
CELLSTYLE
  1
TABLEFORMAT_BEGIN
 90
        5
170
     1
 91
        0
 92
        0
 62
   257
 93
        1
300
CONTENTFORMAT
  1
CONTENTFORMAT_BEGIN
 90
        0
 91
        0
 92
      512
 93
        0
300

 40
0.0
140
1.0
 94
        2
 62
     0
340
55
144
0.18
309
CONTENTFORMAT_END
171
     1
301
MARGIN
  1
CELLMARGIN_BEGIN
 40
0.06
 40
0.06
 40
0.06
 40
0.06
 40
0.18
 40
0.18
309
CELLMARGIN_END
 94
        6
 95
        1
302
GRIDFORMAT
  1
GRIDFORMAT_BEGIN
 90
        0
 91
        1
 62
     0
 92
       -2
340
0
 93
        0
 40
0.045
309
GRIDFORMAT_END
 95
        2
302
GRIDFORMAT
  1
GRIDFORMAT_BEGIN
 90
        0
 91
        1
 62
     0
 92
       -2
340
0
 93
        0
 40
0.045
309
GRIDFORMAT_END
 95
        4
302
GRIDFORMAT
  1
GRIDFORMAT_BEGIN
 90
        0
 91
        1
 62
     0
 92
       -2
340
0
 93
        0
 40
0.045
309
GRIDFORMAT_END
 95
        8
302
GRIDFORMAT
  1
GRIDFORMAT_BEGIN
 90
        0
 91
        1
 62
     0
 92
       -2
340
0
 93
        0
 40
0.045
309
GRIDFORMAT_END
 95
       16
302
GRIDFORMAT
  1
GRIDFORMAT_BEGIN
 90
        0
 91
        1
 62
     0
 92
       -2
340
0
 93
        0
 40
0.045
309
GRIDFORMAT_END
 95
       32
302
GRIDFORMAT
  1
GRIDFORMAT_BEGIN
 90
        0
 91
        1
 62
     0
 92
       -2
340
0
 93
        0
 40
0.045
309
GRIDFORMAT_END
309
TABLEFORMAT_END
  1
CELLSTYLE_BEGIN
 90
        3
 91
        2
300
_DATA
309
CELLSTYLE_END
  0
XRECORD
  5
559
102
{ACAD_REACTORS
330
423
102
}
330
423
100
AcDbXrecord
280
     1
102
ACAD_ROUNDTRIP_PRE2007_TABLESTYLE
 90
      512
 91
        0
  1

 92
      512
 93
        0
  2

 94
      512
 95
        0
  3

  0
XRECORD
  5
534
102
{ACAD_REACTORS
330
533
102
}
330
533
100
AcDbXrecord
280
     1
102
RTVSPropertyOp0
 70
     1
102
RTVSPropertyOp1
 70
     1
102
RTVSPropertyOp2
 70
     1
102
RTVSPropertyOp3
 70
     1
102
RTVSPropertyOp4
 70
     1
102
RTVSPropertyOp5
 70
     1
102
RTVSPropertyOp6
 70
     1
102
RTVSPropertyOp7
 70
     1
102
RTVSPropertyOp8
 70
     1
102
RTVSPropertyOp9
 70
     1
102
RTVSPropertyOp10
 70
     1
102
RTVSPropertyOp11
 70
     1
102
RTVSPropertyOp12
 70
     1
102
RTVSPropertyOp13
 70
     1
102
RTVSPropertyOp14
 70
     1
102
RTVSPropertyOp15
 70
     1
102
RTVSPropertyOp16
 70
     1
102
RTVSPropertyOp17
 70
     1
102
RTVSPropertyOp18
 70
     1
102
RTVSPropertyOp19
 70
     1
102
RTVSPropertyOp20
 70
     1
102
RTVSPropertyOp21
 70
     1
102
RTVSPropertyOp22
 70
     1
102
RTVSPropertyOp23
 70
     1
102
RTVSPropertyOp24
 70
     1
102
RTVSPropertyOp25
 70
     1
102
RTVSPropertyOp26
 70
     1
102
RTVSPropertyOp27
 70
     1
102
RTVSPropertyOp28
 70
     1
102
RTVSPropertyOp29
 70
     1
102
RTVSPropertyOp30
 70
     1
102
RTVSPropertyOp31
 70
     1
102
RTVSPropertyOp32
 70
     1
  0
XRECORD
  5
55F
102
{ACAD_REACTORS
330
55E
102
}
330
55E
100
AcDbXrecord
280
     1
102
RTVSPropertyOp0
 70
     1
102
RTVSPropertyOp1
 70
     1
102
RTVSPropertyOp2
 70
     1
102
RTVSPropertyOp3
 70
     1
102
RTVSPropertyOp4
 70
     1
102
RTVSPropertyOp5
 70
     1
102
RTVSPropertyOp6
 70
     1
102
RTVSPropertyOp7
 70
     1
102
RTVSPropertyOp8
 70
     1
102
RTVSPropertyOp9
 70
     1
102
RTVSPropertyOp10
 70
     1
102
RTVSPropertyOp11
 70
     1
102
RTVSPropertyOp12
 70
     1
102
RTVSPropertyOp13
 70
     1
102
RTVSPropertyOp14
 70
     1
102
RTVSPropertyOp15
 70
     1
102
RTVSPropertyOp16
 70
     1
102
RTVSPropertyOp17
 70
     1
102
RTVSPropertyOp18
 70
     1
102
RTVSPropertyOp19
 70
     1
102
RTVSPropertyOp20
 70
     1
102
RTVSPropertyOp21
 70
     1
102
RTVSPropertyOp22
 70
     1
102
RTVSPropertyOp23
 70
     1
102
RTVSPropertyOp24
 70
     1
102
RTVSPropertyOp25
 70
     1
102
RTVSPropertyOp26
 70
     1
102
RTVSPropertyOp27
 70
     1
102
RTVSPropertyOp28
 70
     1
102
RTVSPropertyOp29
 70
     1
102
RTVSPropertyOp30
 70
     1
102
RTVSPropertyOp31
 70
     1
102
RTVSPropertyOp32
 70
     1
  0
XRECORD
  5
532
102
{ACAD_REACTORS
330
531
102
}
330
531
100
AcDbXrecord
280
     1
102
RTVSPropertyOp0
 70
     1
102
RTVSPropertyOp1
 70
     1
102
RTVSPropertyOp2
 70
     1
102
RTVSPropertyOp3
 70
     1
102
RTVSPropertyOp4
 70
     1
102
RTVSPropertyOp5
 70
     1
102
RTVSPropertyOp6
 70
     1
102
RTVSPropertyOp7
 70
     1
102
RTVSPropertyOp8
 70
     1
102
RTVSPropertyOp9
 70
     1
102
RTVSPropertyOp10
 70
     1
102
RTVSPropertyOp11
 70
     1
102
RTVSPropertyOp12
 70
     1
102
RTVSPropertyOp13
 70
     1
102
RTVSPropertyOp14
 70
     1
102
RTVSPropertyOp15
 70
     1
102
RTVSPropertyOp16
 70
     1
102
RTVSPropertyOp17
 70
     1
102
RTVSPropertyOp18
 70
     1
102
RTVSPropertyOp19
 70
     1
102
RTVSPropertyOp20
 70
     1
102
RTVSPropertyOp21
 70
     1
102
RTVSPropertyOp22
 70
     1
102
RTVSPropertyOp23
 70
     1
102
RTVSPropertyOp24
 70
     1
102
RTVSPropertyOp25
 70
     1
102
RTVSPropertyOp26
 70
     1
102
RTVSPropertyOp27
 70
     1
102
RTVSPropertyOp28
 70
     1
102
RTVSPropertyOp29
 70
     1
102
RTVSPropertyOp30
 70
     1
102
RTVSPropertyOp31
 70
     1
102
RTVSPropertyOp32
 70
     1
  0
XRECORD
  5
540
102
{ACAD_REACTORS
330
53F
102
}
330
53F
100
AcDbXrecord
280
     1
102
RTVSPropertyOp0
 70
     1
102
RTVSPropertyOp1
 70
     1
102
RTVSPropertyOp2
 70
     1
102
RTVSPropertyOp3
 70
     1
102
RTVSPropertyOp4
 70
     1
102
RTVSPropertyOp5
 70
     1
102
RTVSPropertyOp6
 70
     1
102
RTVSPropertyOp7
 70
     1
102
RTVSPropertyOp8
 70
     1
102
RTVSPropertyOp9
 70
     1
102
RTVSPropertyOp10
 70
     1
102
RTVSPropertyOp11
 70
     1
102
RTVSPropertyOp12
 70
     1
102
RTVSPropertyOp13
 70
     1
102
RTVSPropertyOp14
 70
     1
102
RTVSPropertyOp15
 70
     1
102
RTVSPropertyOp16
 70
     1
102
RTVSPropertyOp17
 70
     1
102
RTVSPropertyOp18
 70
     1
102
RTVSPropertyOp19
 70
     1
102
RTVSPropertyOp20
 70
     1
102
RTVSPropertyOp21
 70
     1
102
RTVSPropertyOp22
 70
     1
102
RTVSPropertyOp23
 70
     1
102
RTVSPropertyOp24
 70
     1
102
RTVSPropertyOp25
 70
     1
102
RTVSPropertyOp26
 70
     1
102
RTVSPropertyOp27
 70
     1
102
RTVSPropertyOp28
 70
     1
102
RTVSPropertyOp29
 70
     1
102
RTVSPropertyOp30
 70
     1
102
RTVSPropertyOp31
 70
     1
102
RTVSPropertyOp32
 70
     1
  0
XRECORD
  5
548
102
{ACAD_REACTORS
330
547
102
}
330
547
100
AcDbXrecord
280
     1
102
RTVSPropertyOp0
 70
     1
102
RTVSPropertyOp1
 70
     1
102
RTVSPropertyOp2
 70
     1
102
RTVSPropertyOp3
 70
     1
102
RTVSPropertyOp4
 70
     1
102
RTVSPropertyOp5
 70
     1
102
RTVSPropertyOp6
 70
     1
102
RTVSPropertyOp7
 70
     1
102
RTVSPropertyOp8
 70
     1
102
RTVSPropertyOp9
 70
     1
102
RTVSPropertyOp10
 70
     1
102
RTVSPropertyOp11
 70
     1
102
RTVSPropertyOp12
 70
     1
102
RTVSPropertyOp13
 70
     1
102
RTVSPropertyOp14
 70
     1
102
RTVSPropertyOp15
 70
     1
102
RTVSPropertyOp16
 70
     1
102
RTVSPropertyOp17
 70
     1
102
RTVSPropertyOp18
 70
     1
102
RTVSPropertyOp19
 70
     1
102
RTVSPropertyOp20
 70
     1
102
RTVSPropertyOp21
 70
     1
102
RTVSPropertyOp22
 70
     1
102
RTVSPropertyOp23
 70
     1
102
RTVSPropertyOp24
 70
     1
102
RTVSPropertyOp25
 70
     1
102
RTVSPropertyOp26
 70
     1
102
RTVSPropertyOp27
 70
     1
102
RTVSPropertyOp28
 70
     1
102
RTVSPropertyOp29
 70
     1
102
RTVSPropertyOp30
 70
     1
102
RTVSPropertyOp31
 70
     1
102
RTVSPropertyOp32
 70
     1
  0
XRECORD
  5
53A
102
{ACAD_REACTORS
330
539
102
}
330
539
100
AcDbXrecord
280
     1
102
RTVSPropertyOp0
 70
     1
102
RTVSPropertyOp1
 70
     1
102
RTVSPropertyOp2
 70
     1
102
RTVSPropertyOp3
 70
     1
102
RTVSPropertyOp4
 70
     1
102
RTVSPropertyOp5
 70
     1
102
RTVSPropertyOp6
 70
     1
102
RTVSPropertyOp7
 70
     1
102
RTVSPropertyOp8
 70
     1
102
RTVSPropertyOp9
 70
     1
102
RTVSPropertyOp10
 70
     1
102
RTVSPropertyOp11
 70
     1
102
RTVSPropertyOp12
 70
     1
102
RTVSPropertyOp13
 70
     1
102
RTVSPropertyOp14
 70
     1
102
RTVSPropertyOp15
 70
     1
102
RTVSPropertyOp16
 70
     1
102
RTVSPropertyOp17
 70
     1
102
RTVSPropertyOp18
 70
     1
102
RTVSPropertyOp19
 70
     1
102
RTVSPropertyOp20
 70
     1
102
RTVSPropertyOp21
 70
     1
102
RTVSPropertyOp22
 70
     1
102
RTVSPropertyOp23
 70
     1
102
RTVSPropertyOp24
 70
     1
102
RTVSPropertyOp25
 70
     1
102
RTVSPropertyOp26
 70
     1
102
RTVSPropertyOp27
 70
     1
102
RTVSPropertyOp28
 70
     1
102
RTVSPropertyOp29
 70
     1
102
RTVSPropertyOp30
 70
     1
102
RTVSPropertyOp31
 70
     1
102
RTVSPropertyOp32
 70
     1
  0
XRECORD
  5
53E
102
{ACAD_REACTORS
330
53D
102
}
330
53D
100
AcDbXrecord
280
     1
102
RTVSPropertyOp0
 70
     1
102
RTVSPropertyOp1
 70
     1
102
RTVSPropertyOp2
 70
     1
102
RTVSPropertyOp3
 70
     1
102
RTVSPropertyOp4
 70
     1
102
RTVSPropertyOp5
 70
     1
102
RTVSPropertyOp6
 70
     1
102
RTVSPropertyOp7
 70
     1
102
RTVSPropertyOp8
 70
     1
102
RTVSPropertyOp9
 70
     1
102
RTVSPropertyOp10
 70
     1
102
RTVSPropertyOp11
 70
     1
102
RTVSPropertyOp12
 70
     1
102
RTVSPropertyOp13
 70
     1
102
RTVSPropertyOp14
 70
     1
102
RTVSPropertyOp15
 70
     1
102
RTVSPropertyOp16
 70
     1
102
RTVSPropertyOp17
 70
     1
102
RTVSPropertyOp18
 70
     1
102
RTVSPropertyOp19
 70
     1
102
RTVSPropertyOp20
 70
     1
102
RTVSPropertyOp21
 70
     1
102
RTVSPropertyOp22
 70
     1
102
RTVSPropertyOp23
 70
     1
102
RTVSPropertyOp24
 70
     1
102
RTVSPropertyOp25
 70
     1
102
RTVSPropertyOp26
 70
     1
102
RTVSPropertyOp27
 70
     1
102
RTVSPropertyOp28
 70
     1
102
RTVSPropertyOp29
 70
     1
102
RTVSPropertyOp30
 70
     1
102
RTVSPropertyOp31
 70
     1
102
RTVSPropertyOp32
 70
     1
  0
XRECORD
  5
558
102
{ACAD_REACTORS
330
557
102
}
330
557
100
AcDbXrecord
280
     1
102
RTVSPropertyOp0
 70
     0
102
RTVSPropertyOp1
 70
     0
102
RTVSPropertyOp2
 70
     0
102
RTVSPropertyOp3
 70
     0
102
RTVSPropertyOp4
 70
     0
102
RTVSPropertyOp5
 70
     0
102
RTVSPropertyOp6
 70
     0
102
RTVSPropertyOp7
 70
     0
102
RTVSPropertyOp8
 70
     0
102
RTVSPropertyOp9
 70
     0
102
RTVSPropertyOp10
 70
     0
102
RTVSPropertyOp11
 70
     0
102
RTVSPropertyOp12
 70
     0
102
RTVSPropertyOp13
 70
     0
102
RTVSPropertyOp14
 70
     2
102
RTVSPropertyOp15
 70
     0
102
RTVSPropertyOp16
 70
     0
102
RTVSPropertyOp17
 70
     0
102
RTVSPropertyOp18
 70
     0
102
RTVSPropertyOp19
 70
     0
102
RTVSPropertyOp20
 70
     0
102
RTVSPropertyOp21
 70
     0
102
RTVSPropertyOp22
 70
     0
102
RTVSPropertyOp23
 70
     0
102
RTVSPropertyOp24
 70
     0
102
RTVSPropertyOp25
 70
     0
102
RTVSPropertyOp26
 70
     0
102
RTVSPropertyOp27
 70
     0
102
RTVSPropertyOp28
 70
     0
102
RTVSPropertyOp29
 70
     0
102
RTVSPropertyOp30
 70
     0
102
RTVSPropertyOp31
 70
     0
102
RTVSPropertyOp32
 70
     0
  0
XRECORD
  5
546
102
{ACAD_REACTORS
330
545
102
}
330
545
100
AcDbXrecord
280
     1
102
RTVSPropertyOp0
 70
     1
102
RTVSPropertyOp1
 70
     1
102
RTVSPropertyOp2
 70
     1
102
RTVSPropertyOp3
 70
     1
102
RTVSPropertyOp4
 70
     1
102
RTVSPropertyOp5
 70
     1
102
RTVSPropertyOp6
 70
     1
102
RTVSPropertyOp7
 70
     1
102
RTVSPropertyOp8
 70
     1
102
RTVSPropertyOp9
 70
     1
102
RTVSPropertyOp10
 70
     1
102
RTVSPropertyOp11
 70
     1
102
RTVSPropertyOp12
 70
     1
102
RTVSPropertyOp13
 70
     1
102
RTVSPropertyOp14
 70
     1
102
RTVSPropertyOp15
 70
     1
102
RTVSPropertyOp16
 70
     1
102
RTVSPropertyOp17
 70
     1
102
RTVSPropertyOp18
 70
     1
102
RTVSPropertyOp19
 70
     1
102
RTVSPropertyOp20
 70
     1
102
RTVSPropertyOp21
 70
     1
102
RTVSPropertyOp22
 70
     1
102
RTVSPropertyOp23
 70
     1
102
RTVSPropertyOp24
 70
     1
102
RTVSPropertyOp25
 70
     1
102
RTVSPropertyOp26
 70
     1
102
RTVSPropertyOp27
 70
     1
102
RTVSPropertyOp28
 70
     1
102
RTVSPropertyOp29
 70
     1
102
RTVSPropertyOp30
 70
     1
102
RTVSPropertyOp31
 70
     1
102
RTVSPropertyOp32
 70
     1
  0
XRECORD
  5
52A
102
{ACAD_REACTORS
330
529
102
}
330
529
100
AcDbXrecord
280
     1
102
RTVSPropertyOp0
 70
     1
102
RTVSPropertyOp1
 70
     1
102
RTVSPropertyOp2
 70
     1
102
RTVSPropertyOp3
 70
     1
102
RTVSPropertyOp4
 70
     1
102
RTVSPropertyOp5
 70
     1
102
RTVSPropertyOp6
 70
     1
102
RTVSPropertyOp7
 70
     1
102
RTVSPropertyOp8
 70
     1
102
RTVSPropertyOp9
 70
     1
102
RTVSPropertyOp10
 70
     1
102
RTVSPropertyOp11
 70
     1
102
RTVSPropertyOp12
 70
     1
102
RTVSPropertyOp13
 70
     1
102
RTVSPropertyOp14
 70
     1
102
RTVSPropertyOp15
 70
     1
102
RTVSPropertyOp16
 70
     1
102
RTVSPropertyOp17
 70
     1
102
RTVSPropertyOp18
 70
     1
102
RTVSPropertyOp19
 70
     1
102
RTVSPropertyOp20
 70
     1
102
RTVSPropertyOp21
 70
     1
102
RTVSPropertyOp22
 70
     1
102
RTVSPropertyOp23
 70
     1
102
RTVSPropertyOp24
 70
     1
102
RTVSPropertyOp25
 70
     1
102
RTVSPropertyOp26
 70
     1
102
RTVSPropertyOp27
 70
     1
102
RTVSPropertyOp28
 70
     1
102
RTVSPropertyOp29
 70
     1
102
RTVSPropertyOp30
 70
     1
102
RTVSPropertyOp31
 70
     1
102
RTVSPropertyOp32
 70
     1
  0
XRECORD
  5
52C
102
{ACAD_REACTORS
330
52B
102
}
330
52B
100
AcDbXrecord
280
     1
102
RTVSPropertyOp0
 70
     1
102
RTVSPropertyOp1
 70
     1
102
RTVSPropertyOp2
 70
     1
102
RTVSPropertyOp3
 70
     1
102
RTVSPropertyOp4
 70
     1
102
RTVSPropertyOp5
 70
     1
102
RTVSPropertyOp6
 70
     1
102
RTVSPropertyOp7
 70
     1
102
RTVSPropertyOp8
 70
     1
102
RTVSPropertyOp9
 70
     1
102
RTVSPropertyOp10
 70
     1
102
RTVSPropertyOp11
 70
     1
102
RTVSPropertyOp12
 70
     1
102
RTVSPropertyOp13
 70
     1
102
RTVSPropertyOp14
 70
     1
102
RTVSPropertyOp15
 70
     1
102
RTVSPropertyOp16
 70
     1
102
RTVSPropertyOp17
 70
     1
102
RTVSPropertyOp18
 70
     1
102
RTVSPropertyOp19
 70
     1
102
RTVSPropertyOp20
 70
     1
102
RTVSPropertyOp21
 70
     1
102
RTVSPropertyOp22
 70
     1
102
RTVSPropertyOp23
 70
     1
102
RTVSPropertyOp24
 70
     1
102
RTVSPropertyOp25
 70
     1
102
RTVSPropertyOp26
 70
     1
102
RTVSPropertyOp27
 70
     1
102
RTVSPropertyOp28
 70
     1
102
RTVSPropertyOp29
 70
     1
102
RTVSPropertyOp30
 70
     1
102
RTVSPropertyOp31
 70
     1
102
RTVSPropertyOp32
 70
     1
  0
XRECORD
  5
52E
102
{ACAD_REACTORS
330
52D
102
}
330
52D
100
AcDbXrecord
280
     1
102
RTVSPropertyOp0
 70
     1
102
RTVSPropertyOp1
 70
     1
102
RTVSPropertyOp2
 70
     1
102
RTVSPropertyOp3
 70
     1
102
RTVSPropertyOp4
 70
     1
102
RTVSPropertyOp5
 70
     1
102
RTVSPropertyOp6
 70
     1
102
RTVSPropertyOp7
 70
     1
102
RTVSPropertyOp8
 70
     1
102
RTVSPropertyOp9
 70
     1
102
RTVSPropertyOp10
 70
     1
102
RTVSPropertyOp11
 70
     1
102
RTVSPropertyOp12
 70
     1
102
RTVSPropertyOp13
 70
     1
102
RTVSPropertyOp14
 70
     1
102
RTVSPropertyOp15
 70
     1
102
RTVSPropertyOp16
 70
     1
102
RTVSPropertyOp17
 70
     1
102
RTVSPropertyOp18
 70
     1
102
RTVSPropertyOp19
 70
     1
102
RTVSPropertyOp20
 70
     1
102
RTVSPropertyOp21
 70
     1
102
RTVSPropertyOp22
 70
     1
102
RTVSPropertyOp23
 70
     1
102
RTVSPropertyOp24
 70
     1
102
RTVSPropertyOp25
 70
     1
102
RTVSPropertyOp26
 70
     1
102
RTVSPropertyOp27
 70
     1
102
RTVSPropertyOp28
 70
     1
102
RTVSPropertyOp29
 70
     1
102
RTVSPropertyOp30
 70
     1
102
RTVSPropertyOp31
 70
     1
102
RTVSPropertyOp32
 70
     1
  0
XRECORD
  5
530
102
{ACAD_REACTORS
330
52F
102
}
330
52F
100
AcDbXrecord
280
     1
102
RTVSPropertyOp0
 70
     1
102
RTVSPropertyOp1
 70
     1
102
RTVSPropertyOp2
 70
     1
102
RTVSPropertyOp3
 70
     1
102
RTVSPropertyOp4
 70
     1
102
RTVSPropertyOp5
 70
     1
102
RTVSPropertyOp6
 70
     1
102
RTVSPropertyOp7
 70
     1
102
RTVSPropertyOp8
 70
     1
102
RTVSPropertyOp9
 70
     1
102
RTVSPropertyOp10
 70
     1
102
RTVSPropertyOp11
 70
     1
102
RTVSPropertyOp12
 70
     1
102
RTVSPropertyOp13
 70
     1
102
RTVSPropertyOp14
 70
     1
102
RTVSPropertyOp15
 70
     1
102
RTVSPropertyOp16
 70
     1
102
RTVSPropertyOp17
 70
     1
102
RTVSPropertyOp18
 70
     1
102
RTVSPropertyOp19
 70
     1
102
RTVSPropertyOp20
 70
     1
102
RTVSPropertyOp21
 70
     1
102
RTVSPropertyOp22
 70
     1
102
RTVSPropertyOp23
 70
     1
102
RTVSPropertyOp24
 70
     1
102
RTVSPropertyOp25
 70
     1
102
RTVSPropertyOp26
 70
     1
102
RTVSPropertyOp27
 70
     1
102
RTVSPropertyOp28
 70
     1
102
RTVSPropertyOp29
 70
     1
102
RTVSPropertyOp30
 70
     1
102
RTVSPropertyOp31
 70
     1
102
RTVSPropertyOp32
 70
     1
  0
XRECORD
  5
538
102
{ACAD_REACTORS
330
537
102
}
330
537
100
AcDbXrecord
280
     1
102
RTVSPropertyOp0
 70
     1
102
RTVSPropertyOp1
 70
     1
102
RTVSPropertyOp2
 70
     1
102
RTVSPropertyOp3
 70
     1
102
RTVSPropertyOp4
 70
     1
102
RTVSPropertyOp5
 70
     1
102
RTVSPropertyOp6
 70
     1
102
RTVSPropertyOp7
 70
     1
102
RTVSPropertyOp8
 70
     1
102
RTVSPropertyOp9
 70
     1
102
RTVSPropertyOp10
 70
     1
102
RTVSPropertyOp11
 70
     1
102
RTVSPropertyOp12
 70
     1
102
RTVSPropertyOp13
 70
     1
102
RTVSPropertyOp14
 70
     1
102
RTVSPropertyOp15
 70
     1
102
RTVSPropertyOp16
 70
     1
102
RTVSPropertyOp17
 70
     1
102
RTVSPropertyOp18
 70
     1
102
RTVSPropertyOp19
 70
     1
102
RTVSPropertyOp20
 70
     1
102
RTVSPropertyOp21
 70
     1
102
RTVSPropertyOp22
 70
     1
102
RTVSPropertyOp23
 70
     1
102
RTVSPropertyOp24
 70
     1
102
RTVSPropertyOp25
 70
     1
102
RTVSPropertyOp26
 70
     1
102
RTVSPropertyOp27
 70
     1
102
RTVSPropertyOp28
 70
     1
102
RTVSPropertyOp29
 70
     1
102
RTVSPropertyOp30
 70
     1
102
RTVSPropertyOp31
 70
     1
102
RTVSPropertyOp32
 70
     1
  0
XRECORD
  5
554
102
{ACAD_REACTORS
330
553
102
}
330
553
100
AcDbXrecord
280
     1
102
RTVSPropertyOp0
 70
     0
102
RTVSPropertyOp1
 70
     0
102
RTVSPropertyOp2
 70
     0
102
RTVSPropertyOp3
 70
     0
102
RTVSPropertyOp4
 70
     0
102
RTVSPropertyOp5
 70
     0
102
RTVSPropertyOp6
 70
     0
102
RTVSPropertyOp7
 70
     0
102
RTVSPropertyOp8
 70
     0
102
RTVSPropertyOp9
 70
     0
102
RTVSPropertyOp10
 70
     0
102
RTVSPropertyOp11
 70
     0
102
RTVSPropertyOp12
 70
     0
102
RTVSPropertyOp13
 70
     0
102
RTVSPropertyOp14
 70
     2
102
RTVSPropertyOp15
 70
     0
102
RTVSPropertyOp16
 70
     0
102
RTVSPropertyOp17
 70
     0
102
RTVSPropertyOp18
 70
     0
102
RTVSPropertyOp19
 70
     0
102
RTVSPropertyOp20
 70
     0
102
RTVSPropertyOp21
 70
     0
102
RTVSPropertyOp22
 70
     0
102
RTVSPropertyOp23
 70
     0
102
RTVSPropertyOp24
 70
     0
102
RTVSPropertyOp25
 70
     0
102
RTVSPropertyOp26
 70
     0
102
RTVSPropertyOp27
 70
     0
102
RTVSPropertyOp28
 70
     0
102
RTVSPropertyOp29
 70
     0
102
RTVSPropertyOp30
 70
     0
102
RTVSPropertyOp31
 70
     0
102
RTVSPropertyOp32
 70
     0
  0
XRECORD
  5
544
102
{ACAD_REACTORS
330
543
102
}
330
543
100
AcDbXrecord
280
     1
102
RTVSPropertyOp0
 70
     1
102
RTVSPropertyOp1
 70
     1
102
RTVSPropertyOp2
 70
     1
102
RTVSPropertyOp3
 70
     1
102
RTVSPropertyOp4
 70
     1
102
RTVSPropertyOp5
 70
     1
102
RTVSPropertyOp6
 70
     1
102
RTVSPropertyOp7
 70
     1
102
RTVSPropertyOp8
 70
     1
102
RTVSPropertyOp9
 70
     1
102
RTVSPropertyOp10
 70
     1
102
RTVSPropertyOp11
 70
     1
102
RTVSPropertyOp12
 70
     1
102
RTVSPropertyOp13
 70
     1
102
RTVSPropertyOp14
 70
     1
102
RTVSPropertyOp15
 70
     1
102
RTVSPropertyOp16
 70
     1
102
RTVSPropertyOp17
 70
     1
102
RTVSPropertyOp18
 70
     1
102
RTVSPropertyOp19
 70
     1
102
RTVSPropertyOp20
 70
     1
102
RTVSPropertyOp21
 70
     1
102
RTVSPropertyOp22
 70
     1
102
RTVSPropertyOp23
 70
     1
102
RTVSPropertyOp24
 70
     1
102
RTVSPropertyOp25
 70
     1
102
RTVSPropertyOp26
 70
     1
102
RTVSPropertyOp27
 70
     1
102
RTVSPropertyOp28
 70
     1
102
RTVSPropertyOp29
 70
     1
102
RTVSPropertyOp30
 70
     1
102
RTVSPropertyOp31
 70
     1
102
RTVSPropertyOp32
 70
     1
  0
XRECORD
  5
556
102
{ACAD_REACTORS
330
555
102
}
330
555
100
AcDbXrecord
280
     1
102
RTVSPropertyOp0
 70
     0
102
RTVSPropertyOp1
 70
     0
102
RTVSPropertyOp2
 70
     0
102
RTVSPropertyOp3
 70
     0
102
RTVSPropertyOp4
 70
     0
102
RTVSPropertyOp5
 70
     0
102
RTVSPropertyOp6
 70
     0
102
RTVSPropertyOp7
 70
     0
102
RTVSPropertyOp8
 70
     0
102
RTVSPropertyOp9
 70
     0
102
RTVSPropertyOp10
 70
     0
102
RTVSPropertyOp11
 70
     0
102
RTVSPropertyOp12
 70
     0
102
RTVSPropertyOp13
 70
     0
102
RTVSPropertyOp14
 70
     2
102
RTVSPropertyOp15
 70
     0
102
RTVSPropertyOp16
 70
     0
102
RTVSPropertyOp17
 70
     0
102
RTVSPropertyOp18
 70
     0
102
RTVSPropertyOp19
 70
     0
102
RTVSPropertyOp20
 70
     0
102
RTVSPropertyOp21
 70
     0
102
RTVSPropertyOp22
 70
     0
102
RTVSPropertyOp23
 70
     0
102
RTVSPropertyOp24
 70
     0
102
RTVSPropertyOp25
 70
     0
102
RTVSPropertyOp26
 70
     0
102
RTVSPropertyOp27
 70
     0
102
RTVSPropertyOp28
 70
     0
102
RTVSPropertyOp29
 70
     0
102
RTVSPropertyOp30
 70
     0
102
RTVSPropertyOp31
 70
     0
102
RTVSPropertyOp32
 70
     0
  0
XRECORD
  5
53C
102
{ACAD_REACTORS
330
53B
102
}
330
53B
100
AcDbXrecord
280
     1
102
RTVSPropertyOp0
 70
     1
102
RTVSPropertyOp1
 70
     1
102
RTVSPropertyOp2
 70
     1
102
RTVSPropertyOp3
 70
     1
102
RTVSPropertyOp4
 70
     1
102
RTVSPropertyOp5
 70
     1
102
RTVSPropertyOp6
 70
     1
102
RTVSPropertyOp7
 70
     1
102
RTVSPropertyOp8
 70
     1
102
RTVSPropertyOp9
 70
     1
102
RTVSPropertyOp10
 70
     1
102
RTVSPropertyOp11
 70
     1
102
RTVSPropertyOp12
 70
     1
102
RTVSPropertyOp13
 70
     1
102
RTVSPropertyOp14
 70
     1
102
RTVSPropertyOp15
 70
     1
102
RTVSPropertyOp16
 70
     1
102
RTVSPropertyOp17
 70
     1
102
RTVSPropertyOp18
 70
     1
102
RTVSPropertyOp19
 70
     1
102
RTVSPropertyOp20
 70
     1
102
RTVSPropertyOp21
 70
     1
102
RTVSPropertyOp22
 70
     1
102
RTVSPropertyOp23
 70
     1
102
RTVSPropertyOp24
 70
     1
102
RTVSPropertyOp25
 70
     1
102
RTVSPropertyOp26
 70
     1
102
RTVSPropertyOp27
 70
     1
102
RTVSPropertyOp28
 70
     1
102
RTVSPropertyOp29
 70
     1
102
RTVSPropertyOp30
 70
     1
102
RTVSPropertyOp31
 70
     1
102
RTVSPropertyOp32
 70
     1
  0
XRECORD
  5
552
102
{ACAD_REACTORS
330
551
102
}
330
551
100
AcDbXrecord
280
     1
102
RTVSPropertyOp0
 70
     1
102
RTVSPropertyOp1
 70
     1
102
RTVSPropertyOp2
 70
     1
102
RTVSPropertyOp3
 70
     1
102
RTVSPropertyOp4
 70
     1
102
RTVSPropertyOp5
 70
     1
102
RTVSPropertyOp6
 70
     1
102
RTVSPropertyOp7
 70
     1
102
RTVSPropertyOp8
 70
     1
102
RTVSPropertyOp9
 70
     1
102
RTVSPropertyOp10
 70
     1
102
RTVSPropertyOp11
 70
     1
102
RTVSPropertyOp12
 70
     1
102
RTVSPropertyOp13
 70
     1
102
RTVSPropertyOp14
 70
     1
102
RTVSPropertyOp15
 70
     1
102
RTVSPropertyOp16
 70
     1
102
RTVSPropertyOp17
 70
     1
102
RTVSPropertyOp18
 70
     1
102
RTVSPropertyOp19
 70
     1
102
RTVSPropertyOp20
 70
     1
102
RTVSPropertyOp21
 70
     1
102
RTVSPropertyOp22
 70
     1
102
RTVSPropertyOp23
 70
     1
102
RTVSPropertyOp24
 70
     1
102
RTVSPropertyOp25
 70
     1
102
RTVSPropertyOp26
 70
     1
102
RTVSPropertyOp27
 70
     1
102
RTVSPropertyOp28
 70
     1
102
RTVSPropertyOp29
 70
     1
102
RTVSPropertyOp30
 70
     1
102
RTVSPropertyOp31
 70
     1
102
RTVSPropertyOp32
 70
     1
  0
XRECORD
  5
550
102
{ACAD_REACTORS
330
54F
102
}
330
54F
100
AcDbXrecord
280
     1
102
RTVSPropertyOp0
 70
     1
102
RTVSPropertyOp1
 70
     1
102
RTVSPropertyOp2
 70
     1
102
RTVSPropertyOp3
 70
     1
102
RTVSPropertyOp4
 70
     1
102
RTVSPropertyOp5
 70
     1
102
RTVSPropertyOp6
 70
     1
102
RTVSPropertyOp7
 70
     1
102
RTVSPropertyOp8
 70
     1
102
RTVSPropertyOp9
 70
     1
102
RTVSPropertyOp10
 70
     1
102
RTVSPropertyOp11
 70
     1
102
RTVSPropertyOp12
 70
     1
102
RTVSPropertyOp13
 70
     1
102
RTVSPropertyOp14
 70
     1
102
RTVSPropertyOp15
 70
     1
102
RTVSPropertyOp16
 70
     1
102
RTVSPropertyOp17
 70
     1
102
RTVSPropertyOp18
 70
     1
102
RTVSPropertyOp19
 70
     1
102
RTVSPropertyOp20
 70
     1
102
RTVSPropertyOp21
 70
     1
102
RTVSPropertyOp22
 70
     1
102
RTVSPropertyOp23
 70
     1
102
RTVSPropertyOp24
 70
     1
102
RTVSPropertyOp25
 70
     1
102
RTVSPropertyOp26
 70
     1
102
RTVSPropertyOp27
 70
     1
102
RTVSPropertyOp28
 70
     1
102
RTVSPropertyOp29
 70
     1
102
RTVSPropertyOp30
 70
     1
102
RTVSPropertyOp31
 70
     1
102
RTVSPropertyOp32
 70
     1
  0
XRECORD
  5
54A
102
{ACAD_REACTORS
330
549
102
}
330
549
100
AcDbXrecord
280
     1
102
RTVSPropertyOp0
 70
     1
102
RTVSPropertyOp1
 70
     1
102
RTVSPropertyOp2
 70
     1
102
RTVSPropertyOp3
 70
     1
102
RTVSPropertyOp4
 70
     1
102
RTVSPropertyOp5
 70
     1
102
RTVSPropertyOp6
 70
     1
102
RTVSPropertyOp7
 70
     1
102
RTVSPropertyOp8
 70
     1
102
RTVSPropertyOp9
 70
     1
102
RTVSPropertyOp10
 70
     1
102
RTVSPropertyOp11
 70
     1
102
RTVSPropertyOp12
 70
     1
102
RTVSPropertyOp13
 70
     1
102
RTVSPropertyOp14
 70
     1
102
RTVSPropertyOp15
 70
     1
102
RTVSPropertyOp16
 70
     1
102
RTVSPropertyOp17
 70
     1
102
RTVSPropertyOp18
 70
     1
102
RTVSPropertyOp19
 70
     1
102
RTVSPropertyOp20
 70
     1
102
RTVSPropertyOp21
 70
     1
102
RTVSPropertyOp22
 70
     1
102
RTVSPropertyOp23
 70
     1
102
RTVSPropertyOp24
 70
     1
102
RTVSPropertyOp25
 70
     1
102
RTVSPropertyOp26
 70
     1
102
RTVSPropertyOp27
 70
     1
102
RTVSPropertyOp28
 70
     1
102
RTVSPropertyOp29
 70
     1
102
RTVSPropertyOp30
 70
     1
102
RTVSPropertyOp31
 70
     1
102
RTVSPropertyOp32
 70
     1
  0
XRECORD
  5
54C
102
{ACAD_REACTORS
330
54B
102
}
330
54B
100
AcDbXrecord
280
     1
102
RTVSPropertyOp0
 70
     1
102
RTVSPropertyOp1
 70
     1
102
RTVSPropertyOp2
 70
     1
102
RTVSPropertyOp3
 70
     1
102
RTVSPropertyOp4
 70
     1
102
RTVSPropertyOp5
 70
     1
102
RTVSPropertyOp6
 70
     1
102
RTVSPropertyOp7
 70
     1
102
RTVSPropertyOp8
 70
     1
102
RTVSPropertyOp9
 70
     1
102
RTVSPropertyOp10
 70
     1
102
RTVSPropertyOp11
 70
     1
102
RTVSPropertyOp12
 70
     1
102
RTVSPropertyOp13
 70
     1
102
RTVSPropertyOp14
 70
     1
102
RTVSPropertyOp15
 70
     1
102
RTVSPropertyOp16
 70
     1
102
RTVSPropertyOp17
 70
     1
102
RTVSPropertyOp18
 70
     1
102
RTVSPropertyOp19
 70
     1
102
RTVSPropertyOp20
 70
     1
102
RTVSPropertyOp21
 70
     1
102
RTVSPropertyOp22
 70
     1
102
RTVSPropertyOp23
 70
     1
102
RTVSPropertyOp24
 70
     1
102
RTVSPropertyOp25
 70
     1
102
RTVSPropertyOp26
 70
     1
102
RTVSPropertyOp27
 70
     1
102
RTVSPropertyOp28
 70
     1
102
RTVSPropertyOp29
 70
     1
102
RTVSPropertyOp30
 70
     1
102
RTVSPropertyOp31
 70
     1
102
RTVSPropertyOp32
 70
     1
  0
XRECORD
  5
542
102
{ACAD_REACTORS
330
541
102
}
330
541
100
AcDbXrecord
280
     1
102
RTVSPropertyOp0
 70
     1
102
RTVSPropertyOp1
 70
     1
102
RTVSPropertyOp2
 70
     1
102
RTVSPropertyOp3
 70
     1
102
RTVSPropertyOp4
 70
     1
102
RTVSPropertyOp5
 70
     1
102
RTVSPropertyOp6
 70
     1
102
RTVSPropertyOp7
 70
     1
102
RTVSPropertyOp8
 70
     1
102
RTVSPropertyOp9
 70
     1
102
RTVSPropertyOp10
 70
     1
102
RTVSPropertyOp11
 70
     1
102
RTVSPropertyOp12
 70
     1
102
RTVSPropertyOp13
 70
     1
102
RTVSPropertyOp14
 70
     1
102
RTVSPropertyOp15
 70
     1
102
RTVSPropertyOp16
 70
     1
102
RTVSPropertyOp17
 70
     1
102
RTVSPropertyOp18
 70
     1
102
RTVSPropertyOp19
 70
     1
102
RTVSPropertyOp20
 70
     1
102
RTVSPropertyOp21
 70
     1
102
RTVSPropertyOp22
 70
     1
102
RTVSPropertyOp23
 70
     1
102
RTVSPropertyOp24
 70
     1
102
RTVSPropertyOp25
 70
     1
102
RTVSPropertyOp26
 70
     1
102
RTVSPropertyOp27
 70
     1
102
RTVSPropertyOp28
 70
     1
102
RTVSPropertyOp29
 70
     1
102
RTVSPropertyOp30
 70
     1
102
RTVSPropertyOp31
 70
     1
102
RTVSPropertyOp32
 70
     1
  0
XRECORD
  5
536
102
{ACAD_REACTORS
330
535
102
}
330
535
100
AcDbXrecord
280
     1
102
RTVSPropertyOp0
 70
     1
102
RTVSPropertyOp1
 70
     1
102
RTVSPropertyOp2
 70
     1
102
RTVSPropertyOp3
 70
     1
102
RTVSPropertyOp4
 70
     1
102
RTVSPropertyOp5
 70
     1
102
RTVSPropertyOp6
 70
     1
102
RTVSPropertyOp7
 70
     1
102
RTVSPropertyOp8
 70
     1
102
RTVSPropertyOp9
 70
     1
102
RTVSPropertyOp10
 70
     1
102
RTVSPropertyOp11
 70
     1
102
RTVSPropertyOp12
 70
     1
102
RTVSPropertyOp13
 70
     1
102
RTVSPropertyOp14
 70
     1
102
RTVSPropertyOp15
 70
     1
102
RTVSPropertyOp16
 70
     1
102
RTVSPropertyOp17
 70
     1
102
RTVSPropertyOp18
 70
     1
102
RTVSPropertyOp19
 70
     1
102
RTVSPropertyOp20
 70
     1
102
RTVSPropertyOp21
 70
     1
102
RTVSPropertyOp22
 70
     1
102
RTVSPropertyOp23
 70
     1
102
RTVSPropertyOp24
 70
     1
102
RTVSPropertyOp25
 70
     1
102
RTVSPropertyOp26
 70
     1
102
RTVSPropertyOp27
 70
     1
102
RTVSPropertyOp28
 70
     1
102
RTVSPropertyOp29
 70
     1
102
RTVSPropertyOp30
 70
     1
102
RTVSPropertyOp31
 70
     1
102
RTVSPropertyOp32
 70
     1
  0
XRECORD
  5
54E
102
{ACAD_REACTORS
330
54D
102
}
330
54D
100
AcDbXrecord
280
     1
102
RTVSPropertyOp0
 70
     1
102
RTVSPropertyOp1
 70
     1
102
RTVSPropertyOp2
 70
     1
102
RTVSPropertyOp3
 70
     1
102
RTVSPropertyOp4
 70
     1
102
RTVSPropertyOp5
 70
     1
102
RTVSPropertyOp6
 70
     1
102
RTVSPropertyOp7
 70
     1
102
RTVSPropertyOp8
 70
     1
102
RTVSPropertyOp9
 70
     1
102
RTVSPropertyOp10
 70
     1
102
RTVSPropertyOp11
 70
     1
102
RTVSPropertyOp12
 70
     1
102
RTVSPropertyOp13
 70
     1
102
RTVSPropertyOp14
 70
     1
102
RTVSPropertyOp15
 70
     1
102
RTVSPropertyOp16
 70
     1
102
RTVSPropertyOp17
 70
     1
102
RTVSPropertyOp18
 70
     1
102
RTVSPropertyOp19
 70
     1
102
RTVSPropertyOp20
 70
     1
102
RTVSPropertyOp21
 70
     1
102
RTVSPropertyOp22
 70
     1
102
RTVSPropertyOp23
 70
     1
102
RTVSPropertyOp24
 70
     1
102
RTVSPropertyOp25
 70
     1
102
RTVSPropertyOp26
 70
     1
102
RTVSPropertyOp27
 70
     1
102
RTVSPropertyOp28
 70
     1
102
RTVSPropertyOp29
 70
     1
102
RTVSPropertyOp30
 70
     1
102
RTVSPropertyOp31
 70
     1
102
RTVSPropertyOp32
 70
     1
  0
ENDSEC
  0
EOF
