  0
SECTION
  2
HEADER
  9
$ACADVER
  1
AC1015
  9
$ACADMAINTVER
 70
    20
  9
$DWGCODEPAGE
  3
ANSI_932
  9
$INSBASE
 10
0.0
 20
0.0
 30
0.0
  9
$EXTMIN
 10
5.318935999999998
 20
-457.9647709999998
 30
0.0
  9
$EXTMAX
 10
410.318936
 20
-183.90941
 30
0.0
  9
$LIMMIN
 10
5.317936
 20
-457.965783
  9
$LIMMAX
 10
410.3457879999998
 20
-183.908409
  9
$ORTHOMODE
 70
     1
  9
$REGENMODE
 70
     1
  9
$FILLMODE
 70
     1
  9
$QTEXTMODE
 70
     0
  9
$MIRRTEXT
 70
     0
  9
$LTSCALE
 40
6.750430999999997
  9
$ATTMODE
 70
     1
  9
$TEXTSIZE
 40
3.2
  9
$TRACEWID
 40
0.05
  9
$TEXTSTYLE
  7
高3.2
  9
$CLAYER
  8
0
  9
$CELTYPE
  6
ByLayer
  9
$CECOLOR
 62
   256
  9
$CELTSCALE
 40
1.0
  9
$DISPSILH
 70
     0
  9
$DIMSCALE
 40
1.0
  9
$DIMASZ
 40
2.5
  9
$DIMEXO
 40
0.25
  9
$DIMDLI
 40
0.2
  9
$DIMRND
 40
0.0
  9
$DIMDLE
 40
0.0
  9
$DIMEXE
 40
1.25
  9
$DIMTP
 40
0.0
  9
$DIMTM
 40
0.0
  9
$DIMTXT
 40
3.0
  9
$DIMCEN
 40
0.0
  9
$DIMTSZ
 40
0.0
  9
$DIMTOL
 70
     0
  9
$DIMLIM
 70
     0
  9
$DIMTIH
 70
     0
  9
$DIMTOH
 70
     0
  9
$DIMSE1
 70
     0
  9
$DIMSE2
 70
     0
  9
$DIMTAD
 70
     3
  9
$DIMZIN
 70
     8
  9
$DIMBLK
  1
Open30
  9
$DIMASO
 70
     1
  9
$DIMSHO
 70
     1
  9
$DIMPOST
  1

  9
$DIMAPOST
  1

  9
$DIMALT
 70
     0
  9
$DIMALTD
 70
     3
  9
$DIMALTF
 40
0.03937007874016
  9
$DIMLFAC
 40
1.0
  9
$DIMTOFL
 70
     1
  9
$DIMTVP
 40
0.0
  9
$DIMTIX
 70
     0
  9
$DIMSOXD
 70
     0
  9
$DIMSAH
 70
     0
  9
$DIMBLK1
  1

  9
$DIMBLK2
  1

  9
$DIMSTYLE
  2
FREE
  9
$DIMCLRD
 70
     0
  9
$DIMCLRE
 70
     0
  9
$DIMCLRT
 70
     4
  9
$DIMTFAC
 40
1.0
  9
$DIMGAP
 40
0.625
  9
$DIMJUST
 70
     0
  9
$DIMSD1
 70
     0
  9
$DIMSD2
 70
     0
  9
$DIMTOLJ
 70
     0
  9
$DIMTZIN
 70
     8
  9
$DIMALTZ
 70
     0
  9
$DIMALTTZ
 70
     0
  9
$DIMUPT
 70
     1
  9
$DIMDEC
 70
     2
  9
$DIMTDEC
 70
     2
  9
$DIMALTU
 70
     2
  9
$DIMALTTD
 70
     3
  9
$DIMTXSTY
  7
STANDARD
  9
$DIMAUNIT
 70
     0
  9
$DIMADEC
 70
     1
  9
$DIMALTRND
 40
0.0
  9
$DIMAZIN
 70
     2
  9
$DIMDSEP
 70
    46
  9
$DIMATFIT
 70
     0
  9
$DIMFRAC
 70
     0
  9
$DIMLDRBLK
  1
Open30
  9
$DIMLUNIT
 70
     2
  9
$DIMLWD
 70
    -2
  9
$DIMLWE
 70
    -2
  9
$DIMTMOVE
 70
     0
  9
$LUNITS
 70
     2
  9
$LUPREC
 70
     4
  9
$SKETCHINC
 40
0.1
  9
$FILLETRAD
 40
0.0
  9
$AUNITS
 70
     0
  9
$AUPREC
 70
     0
  9
$MENU
  1
.
  9
$ELEVATION
 40
0.0
  9
$PELEVATION
 40
0.0
  9
$THICKNESS
 40
0.0
  9
$LIMCHECK
 70
     0
  9
$CHAMFERA
 40
0.0
  9
$CHAMFERB
 40
0.0
  9
$CHAMFERC
 40
0.0
  9
$CHAMFERD
 40
0.0
  9
$SKPOLY
 70
     0
  9
$TDCREATE
 40
2456214.650901574
  9
$TDUCREATE
 40
2456214.275901574
  9
$TDUPDATE
 40
2459893.494668715
  9
$TDUUPDATE
 40
2459893.119668715
  9
$TDINDWG
 40
0.0304682060
  9
$TDUSRTIMER
 40
0.0304676736
  9
$USRTIMER
 70
     1
  9
$ANGBASE
 50
0.0
  9
$ANGDIR
 70
     0
  9
$PDMODE
 70
     0
  9
$PDSIZE
 40
0.0
  9
$PLINEWID
 40
0.0
  9
$SPLFRAME
 70
     0
  9
$SPLINETYPE
 70
     6
  9
$SPLINESEGS
 70
     8
  9
$HANDSEED
  5
1805
  9
$SURFTAB1
 70
     6
  9
$SURFTAB2
 70
     6
  9
$SURFTYPE
 70
     6
  9
$SURFU
 70
     6
  9
$SURFV
 70
     6
  9
$UCSBASE
  2

  9
$UCSNAME
  2

  9
$UCSORG
 10
0.0
 20
0.0
 30
0.0
  9
$UCSXDIR
 10
1.0
 20
0.0
 30
0.0
  9
$UCSYDIR
 10
0.0
 20
1.0
 30
0.0
  9
$UCSORTHOREF
  2

  9
$UCSORTHOVIEW
 70
     0
  9
$UCSORGTOP
 10
0.0
 20
0.0
 30
0.0
  9
$UCSORGBOTTOM
 10
0.0
 20
0.0
 30
0.0
  9
$UCSORGLEFT
 10
0.0
 20
0.0
 30
0.0
  9
$UCSORGRIGHT
 10
0.0
 20
0.0
 30
0.0
  9
$UCSORGFRONT
 10
0.0
 20
0.0
 30
0.0
  9
$UCSORGBACK
 10
0.0
 20
0.0
 30
0.0
  9
$PUCSBASE
  2

  9
$PUCSNAME
  2

  9
$PUCSORG
 10
0.0
 20
0.0
 30
0.0
  9
$PUCSXDIR
 10
1.0
 20
0.0
 30
0.0
  9
$PUCSYDIR
 10
0.0
 20
1.0
 30
0.0
  9
$PUCSORTHOREF
  2

  9
$PUCSORTHOVIEW
 70
     0
  9
$PUCSORGTOP
 10
0.0
 20
0.0
 30
0.0
  9
$PUCSORGBOTTOM
 10
0.0
 20
0.0
 30
0.0
  9
$PUCSORGLEFT
 10
0.0
 20
0.0
 30
0.0
  9
$PUCSORGRIGHT
 10
0.0
 20
0.0
 30
0.0
  9
$PUCSORGFRONT
 10
0.0
 20
0.0
 30
0.0
  9
$PUCSORGBACK
 10
0.0
 20
0.0
 30
0.0
  9
$USERI1
 70
     0
  9
$USERI2
 70
     0
  9
$USERI3
 70
     0
  9
$USERI4
 70
     0
  9
$USERI5
 70
     0
  9
$USERR1
 40
0.0
  9
$USERR2
 40
0.0
  9
$USERR3
 40
0.0
  9
$USERR4
 40
0.0
  9
$USERR5
 40
0.0
  9
$WORLDVIEW
 70
     1
  9
$SHADEDGE
 70
     3
  9
$SHADEDIF
 70
    70
  9
$TILEMODE
 70
     1
  9
$MAXACTVP
 70
    64
  9
$PINSBASE
 10
0.0
 20
0.0
 30
0.0
  9
$PLIMCHECK
 70
     0
  9
$PEXTMIN
 10
1.000000000000000E+20
 20
1.000000000000000E+20
 30
1.000000000000000E+20
  9
$PEXTMAX
 10
-1.000000000000000E+20
 20
-1.000000000000000E+20
 30
-1.000000000000000E+20
  9
$PLIMMIN
 10
0.0
 20
0.0
  9
$PLIMMAX
 10
12.0
 20
9.0
  9
$UNITMODE
 70
     0
  9
$VISRETAIN
 70
     1
  9
$PLINEGEN
 70
     0
  9
$PSLTSCALE
 70
     1
  9
$TREEDEPTH
 70
  3020
  9
$CMLSTYLE
  2
Standard
  9
$CMLJUST
 70
     0
  9
$CMLSCALE
 40
1.0
  9
$PROXYGRAPHICS
 70
     1
  9
$MEASUREMENT
 70
     0
  9
$CELWEIGHT
370
    -1
  9
$ENDCAPS
280
     0
  9
$JOINSTYLE
280
     0
  9
$LWDISPLAY
290
     0
  9
$INSUNITS
 70
     0
  9
$HYPERLINKBASE
  1

  9
$STYLESHEET
  1

  9
$XEDIT
290
     1
  9
$CEPSNTYPE
380
     0
  9
$PSTYLEMODE
290
     1
  9
$FINGERPRINTGUID
  2
{7F066448-2F36-436E-A3F4-1CDC19C25A6A}
  9
$VERSIONGUID
  2
{B413CF4F-A81B-40D1-A0F3-07CEA4888130}
  9
$EXTNAMES
290
     1
  9
$PSVPSCALE
 40
0.0
  9
$OLESTARTUP
290
     0
  0
ENDSEC
  0
SECTION
  2
CLASSES
  0
CLASS
  1
ACDBDICTIONARYWDFLT
  2
AcDbDictionaryWithDefault
  3
ObjectDBX Classes
 90
        0
280
     0
281
     0
  0
CLASS
  1
MATERIAL
  2
AcDbMaterial
  3
ObjectDBX Classes
 90
     1153
280
     0
281
     0
  0
CLASS
  1
VISUALSTYLE
  2
AcDbVisualStyle
  3
ObjectDBX Classes
 90
     4095
280
     0
281
     0
  0
CLASS
  1
SCALE
  2
AcDbScale
  3
ObjectDBX Classes
 90
     1153
280
     0
281
     0
  0
CLASS
  1
TABLESTYLE
  2
AcDbTableStyle
  3
ObjectDBX Classes
 90
     4095
280
     0
281
     0
  0
CLASS
  1
MLEADERSTYLE
  2
AcDbMLeaderStyle
  3
ACDB_MLEADERSTYLE_CLASS
 90
     4095
280
     0
281
     0
  0
CLASS
  1
SORTENTSTABLE
  2
AcDbSortentsTable
  3
ObjectDBX Classes
 90
        0
280
     0
281
     0
  0
CLASS
  1
DICTIONARYVAR
  2
AcDbDictionaryVar
  3
ObjectDBX Classes
 90
        0
280
     0
281
     0
  0
CLASS
  1
CELLSTYLEMAP
  2
AcDbCellStyleMap
  3
ObjectDBX Classes
 90
     1152
280
     0
281
     0
  0
CLASS
  1
ACDBPLACEHOLDER
  2
AcDbPlaceHolder
  3
ObjectDBX Classes
 90
        0
280
     0
281
     0
  0
CLASS
  1
LAYOUT
  2
AcDbLayout
  3
ObjectDBX Classes
 90
        0
280
     0
281
     0
  0
ENDSEC
  0
SECTION
  2
TABLES
  0
TABLE
  2
VPORT
  5
8
330
0
100
AcDbSymbolTable
 70
     1
  0
VPORT
  5
8B
330
8
100
AcDbSymbolTableRecord
100
AcDbViewportTableRecord
  2
*Active
 70
     0
 10
0.0
 20
0.0
 11
1.0
 21
1.0
 12
238.514660281851
 22
-328.6865744759219
 13
0.0
 23
0.0
 14
1.0
 24
1.0
 15
0.0
 25
0.0
 16
0.0
 26
0.0
 36
1.0
 17
0.0
 27
0.0
 37
0.0
 40
623.4960700346607
 41
1.544285714285714
 42
50.0
 43
0.0
 44
0.0
 50
0.0
 51
0.0
 71
     0
 72
   100
 73
     1
 74
     1
 75
     0
 76
     0
 77
     0
 78
     0
281
     0
 65
     1
110
0.0
120
0.0
130
0.0
111
1.0
121
0.0
131
0.0
112
0.0
122
1.0
132
0.0
 79
     0
146
0.0
  0
ENDTAB
  0
TABLE
  2
LTYPE
  5
5
330
0
100
AcDbSymbolTable
 70
     2
  0
LTYPE
  5
5A
330
5
100
AcDbSymbolTableRecord
100
AcDbLinetypeTableRecord
  2
ByBlock
 70
     0
  3

 72
    65
 73
     0
 40
0.0
  0
LTYPE
  5
5B
330
5
100
AcDbSymbolTableRecord
100
AcDbLinetypeTableRecord
  2
ByLayer
 70
     0
  3

 72
    65
 73
     0
 40
0.0
  0
LTYPE
  5
5C
330
5
100
AcDbSymbolTableRecord
100
AcDbLinetypeTableRecord
  2
CONTINUOUS
 70
     0
  3
Solid-line
 72
    65
 73
     0
 40
0.0
  0
ENDTAB
  0
TABLE
  2
LAYER
  5
2
102
{ACAD_XDICTIONARY
360
47F
102
}
330
0
100
AcDbSymbolTable
 70
     2
  0
LAYER
  5
54
102
{ACAD_XDICTIONARY
360
615
102
}
330
2
100
AcDbSymbolTableRecord
100
AcDbLayerTableRecord
  2
0
 70
     0
 62
     7
  6
CONTINUOUS
370
    -3
390
F
  0
LAYER
  5
46A
330
2
100
AcDbSymbolTableRecord
100
AcDbLayerTableRecord
  2
Defpoints
 70
     0
 62
     7
  6
CONTINUOUS
290
     0
370
    -3
390
F
  0
ENDTAB
  0
TABLE
  2
STYLE
  5
3
330
0
100
AcDbSymbolTable
 70
     6
  0
STYLE
  5
55
330
3
100
AcDbSymbolTableRecord
100
AcDbTextStyleTableRecord
  2
STANDARD
 70
     0
 40
0.0
 41
1.0
 50
0.0
 71
     0
 42
0.2
  3
TXT
  4
BIGFONT
  0
STYLE
  5
46B
330
3
100
AcDbSymbolTableRecord
100
AcDbTextStyleTableRecord
  2
高3.2
 70
     0
 40
3.2
 41
1.0
 50
0.0
 71
     0
 42
3.2
  3
txt.shx
  4
bigfont.shx
  0
STYLE
  5
46C
330
3
100
AcDbSymbolTableRecord
100
AcDbTextStyleTableRecord
  2
高6.3
 70
     0
 40
6.299999999999998
 41
1.0
 50
0.0
 71
     0
 42
6.299999999999998
  3
txt.shx
  4
bigfont.shx
  0
STYLE
  5
46D
330
3
100
AcDbSymbolTableRecord
100
AcDbTextStyleTableRecord
  2
高2.5
 70
     0
 40
2.5
 41
1.0
 50
0.0
 71
     0
 42
0.2
  3
txt.shx
  4
bigfont.shx
  0
STYLE
  5
46E
330
3
100
AcDbSymbolTableRecord
100
AcDbTextStyleTableRecord
  2
高4.5
 70
     0
 40
4.5
 41
1.0
 50
0.0
 71
     0
 42
6.299999999999998
  3
txt.shx
  4
bigfont.shx
  0
STYLE
  5
46F
330
3
100
AcDbSymbolTableRecord
100
AcDbTextStyleTableRecord
  2
高2
 70
     0
 40
2.0
 41
1.0
 50
0.0
 71
     0
 42
2.0
  3
txt.shx
  4
bigfont.shx
  0
ENDTAB
  0
TABLE
  2
VIEW
  5
6
330
0
100
AcDbSymbolTable
 70
     0
  0
ENDTAB
  0
TABLE
  2
UCS
  5
7
330
0
100
AcDbSymbolTable
 70
     0
  0
ENDTAB
  0
TABLE
  2
APPID
  5
9
330
0
100
AcDbSymbolTable
 70
    11
  0
APPID
  5
56
330
9
100
AcDbSymbolTableRecord
100
AcDbRegAppTableRecord
  2
ACAD
 70
     0
  0
APPID
  5
5D
330
9
100
AcDbSymbolTableRecord
100
AcDbRegAppTableRecord
  2
AcadAnnotative
 70
     0
  0
APPID
  5
47A
330
9
100
AcDbSymbolTableRecord
100
AcDbRegAppTableRecord
  2
ACAD_DSTYLE_DIMJOGGED_JOGANGLE_SYMBOL
 70
     0
  0
APPID
  5
47B
330
9
100
AcDbSymbolTableRecord
100
AcDbRegAppTableRecord
  2
ACAD_DSTYLE_DIMJAG
 70
     0
  0
APPID
  5
47C
330
9
100
AcDbSymbolTableRecord
100
AcDbRegAppTableRecord
  2
ACAD_DSTYLE_DIMBREAK
 70
     0
  0
APPID
  5
47D
330
9
100
AcDbSymbolTableRecord
100
AcDbRegAppTableRecord
  2
ACAD_DSTYLE_DIMTALN
 70
     0
  0
APPID
  5
5BF
330
9
100
AcDbSymbolTableRecord
100
AcDbRegAppTableRecord
  2
ACAD_EXEMPT_FROM_CAD_STANDARDS
 70
     0
  0
APPID
  5
65D
330
9
100
AcDbSymbolTableRecord
100
AcDbRegAppTableRecord
  2
ACAD_MLEADERVER
 70
     0
  0
APPID
  5
662
330
9
100
AcDbSymbolTableRecord
100
AcDbRegAppTableRecord
  2
ACAD_DSTYLE_DIMARC_LENGTH_SYMBOL
 70
     0
  0
APPID
  5
663
330
9
100
AcDbSymbolTableRecord
100
AcDbRegAppTableRecord
  2
ACAD_DSTYLE_DIMEXT_LENGTH
 70
     0
  0
APPID
  5
12E0
330
9
100
AcDbSymbolTableRecord
100
AcDbRegAppTableRecord
  2
ACAD_PSEXT
 70
     0
  0
ENDTAB
  0
TABLE
  2
DIMSTYLE
  5
A
330
0
100
AcDbSymbolTable
 70
     3
100
AcDbDimStyleTable
 71
     2
340
479
340
474
  0
DIMSTYLE
105
57
330
A
100
AcDbSymbolTableRecord
100
AcDbDimStyleTableRecord
  2
Standard
 70
     0
340
55
  0
DIMSTYLE
105
474
102
{ACAD_REACTORS
330
F87
330
F84
330
F83
330
F82
330
F81
330
F80
330
F7F
330
F7A
330
F79
102
}
330
A
100
AcDbSymbolTableRecord
100
AcDbDimStyleTableRecord
  2
1／2
 70
     0
 41
2.5
 42
0.25
 43
0.2
 44
1.25
 73
     0
 74
     0
 77
     3
 78
     8
 79
     2
140
3.0
141
0.0
143
0.03937007874016
144
2.0
147
0.625
171
     3
172
     1
178
     4
179
     1
271
     2
272
     2
274
     3
283
     0
284
     8
288
     1
289
     0
340
55
341
3DA
342
3DA
1001
ACAD_DSTYLE_DIMARC_LENGTH_SYMBOL
1070
   379
1070
     2
1001
ACAD_DSTYLE_DIMEXT_LENGTH
1070
   378
1040
1.25
1001
ACAD_DSTYLE_DIMJOGGED_JOGANGLE_SYMBOL
1070
   384
1040
1.570796326794896
  0
DIMSTYLE
105
479
330
A
100
AcDbSymbolTableRecord
100
AcDbDimStyleTableRecord
  2
FREE
 70
     0
 41
2.5
 42
0.25
 43
0.2
 44
1.25
 73
     0
 74
     0
 77
     3
 78
     8
 79
     2
140
3.0
141
0.0
143
0.03937007874016
147
0.625
171
     3
172
     1
178
     4
179
     1
271
     2
272
     2
274
     3
283
     0
284
     8
288
     1
289
     0
340
55
341
3DA
342
3DA
1001
ACAD_DSTYLE_DIMBREAK
1070
   391
1040
3.75
1001
ACAD_DSTYLE_DIMJAG
1070
   388
1040
1.5
1001
ACAD_DSTYLE_DIMTALN
1070
   392
1070
     0
1001
ACAD_DSTYLE_DIMARC_LENGTH_SYMBOL
1070
   379
1070
     2
1001
ACAD_DSTYLE_DIMEXT_LENGTH
1070
   378
1040
1.25
1001
ACAD_DSTYLE_DIMJOGGED_JOGANGLE_SYMBOL
1070
   384
1040
1.570796326794896
  0
ENDTAB
  0
TABLE
  2
BLOCK_RECORD
  5
1
330
0
100
AcDbSymbolTable
 70
     7
  0
BLOCK_RECORD
  5
6B
102
{ACAD_XDICTIONARY
360
604
102
}
330
1
100
AcDbSymbolTableRecord
100
AcDbBlockTableRecord
  2
*Model_Space
340
6E
  0
BLOCK_RECORD
  5
67
330
1
100
AcDbSymbolTableRecord
100
AcDbBlockTableRecord
  2
*Paper_Space
340
6A
  0
BLOCK_RECORD
  5
3DA
330
1
100
AcDbSymbolTableRecord
100
AcDbBlockTableRecord
  2
_Open30
340
0
102
{BLKREFS
331
16A2
331
16A3
331
16AB
331
16AC
331
16B4
331
16B5
331
16BD
331
16BE
331
16C6
331
16C7
331
16CF
331
16D0
102
}
  0
BLOCK_RECORD
  5
F88
330
1
100
AcDbSymbolTableRecord
100
AcDbBlockTableRecord
  2
*D1
340
0
  0
BLOCK_RECORD
  5
F96
330
1
100
AcDbSymbolTableRecord
100
AcDbBlockTableRecord
  2
*D2
340
0
  0
BLOCK_RECORD
  5
FA2
330
1
100
AcDbSymbolTableRecord
100
AcDbBlockTableRecord
  2
*D3
340
0
  0
BLOCK_RECORD
  5
FAE
330
1
100
AcDbSymbolTableRecord
100
AcDbBlockTableRecord
  2
*D4
340
0
  0
BLOCK_RECORD
  5
FBA
330
1
100
AcDbSymbolTableRecord
100
AcDbBlockTableRecord
  2
*D5
340
0
  0
BLOCK_RECORD
  5
FC6
330
1
100
AcDbSymbolTableRecord
100
AcDbBlockTableRecord
  2
*D6
340
0
  0
ENDTAB
  0
ENDSEC
  0
SECTION
  2
BLOCKS
  0
BLOCK
  5
6C
330
6B
100
AcDbEntity
  8
0
100
AcDbBlockBegin
  2
*Model_Space
 70
     0
 10
0.0
 20
0.0
 30
0.0
  3
*Model_Space
  1

  0
ENDBLK
  5
6D
330
6B
100
AcDbEntity
  8
0
100
AcDbBlockEnd
  0
BLOCK
  5
68
330
67
100
AcDbEntity
 67
     1
  8
0
100
AcDbBlockBegin
  2
*Paper_Space
 70
     0
 10
0.0
 20
0.0
 30
0.0
  3
*Paper_Space
  1

  0
ENDBLK
  5
69
330
67
100
AcDbEntity
 67
     1
  8
0
100
AcDbBlockEnd
  0
BLOCK
  5
3DB
330
3DA
100
AcDbEntity
  8
0
100
AcDbBlockBegin
  2
_Open30
 70
     0
 10
0.0
 20
0.0
 30
0.0
  3
_Open30
  1

  0
LINE
  5
3DC
330
3DA
100
AcDbEntity
  8
0
  6
ByBlock
 62
     0
370
    -2
100
AcDbLine
 10
-1.0
 20
0.267949
 30
0.0
 11
0.0
 21
0.0
 31
0.0
  0
LINE
  5
3DD
330
3DA
100
AcDbEntity
  8
0
  6
ByBlock
 62
     0
370
    -2
100
AcDbLine
 10
0.0
 20
0.0
 30
0.0
 11
-1.0
 21
-0.267949
 31
0.0
  0
LINE
  5
3DE
330
3DA
100
AcDbEntity
  8
0
  6
ByBlock
 62
     0
370
    -2
100
AcDbLine
 10
0.0
 20
0.0
 30
0.0
 11
-1.0
 21
0.0
 31
0.0
  0
ENDBLK
  5
3DF
330
3DA
100
AcDbEntity
  8
0
100
AcDbBlockEnd
  0
BLOCK
  5
F89
330
F88
100
AcDbEntity
  8
0
100
AcDbBlockBegin
  2
*D1
 70
     1
 10
0.0
 20
0.0
 30
0.0
  3
*D1
  1

  0
LINE
  5
169D
330
F88
100
AcDbEntity
  8
0
 62
     0
370
    -2
100
AcDbLine
 10
169.0388197655465
 20
-318.8502798802086
 30
0.0
 11
203.7885657185342
 21
-318.8502798802086
 31
0.0
  0
LINE
  5
169E
330
F88
100
AcDbEntity
  8
0
 62
     0
370
    -2
100
AcDbLine
 10
178.0388197655466
 20
-312.8502798802085
 30
0.0
 11
203.7885657185342
 21
-312.8502798802085
 31
0.0
  0
LINE
  5
169F
330
F88
100
AcDbEntity
  8
0
 62
     0
370
    -2
100
AcDbLine
 10
202.5385657185342
 20
-310.3502798802085
 30
0.0
 11
202.5385657185342
 21
-307.8502798802085
 31
0.0
  0
LINE
  5
16A0
330
F88
100
AcDbEntity
  8
0
 62
     0
370
    -2
100
AcDbLine
 10
202.5385657185342
 20
-321.3502798802086
 30
0.0
 11
202.5385657185342
 21
-329.1002798802087
 31
0.0
  0
LINE
  5
16A1
330
F88
100
AcDbEntity
  8
0
 62
     0
370
    -2
100
AcDbLine
 10
202.5385657185342
 20
-312.8502798802085
 30
0.0
 11
202.5385657185342
 21
-318.8502798802086
 31
0.0
  0
INSERT
  5
16A2
330
F88
100
AcDbEntity
  8
0
 62
     0
370
    -2
100
AcDbBlockReference
  2
_Open30
 10
202.5385657185342
 20
-312.8502798802085
 30
0.0
 41
2.5
 42
2.5
 43
2.5
 50
270.0
  0
INSERT
  5
16A3
330
F88
100
AcDbEntity
  8
0
 62
     0
370
    -2
100
AcDbBlockReference
  2
_Open30
 10
202.5385657185342
 20
-318.8502798802086
 30
0.0
 41
2.5
 42
2.5
 43
2.5
 50
90.0
  0
MTEXT
  5
16A4
330
F88
100
AcDbEntity
  8
0
 62
     4
100
AcDbMText
 10
200.4135657185342
 20
-326.4752798802086
 30
0.0
 40
3.0
 41
0.0
 71
     5
 72
     1
  1
12
 11
0.0000000000000001
 21
1.0
 31
0.0
 73
     1
 44
1.0
1001
ACAD
1000
MTEXTBEGIN
1070
    73
1070
     1
1070
    44
1040
1.0
1070
    74
1070
     0
1000
MTEXTEND
  0
POINT
  5
16A5
330
F88
100
AcDbEntity
  8
Defpoints
 62
     0
100
AcDbPoint
 10
168.7888197655466
 20
-318.8502798802086
 30
0.0
  0
POINT
  5
16A6
330
F88
100
AcDbEntity
  8
Defpoints
 62
     0
100
AcDbPoint
 10
177.7888197655466
 20
-312.8502798802085
 30
0.0
  0
POINT
  5
16A7
330
F88
100
AcDbEntity
  8
Defpoints
 62
     0
100
AcDbPoint
 10
202.5385657185342
 20
-312.8502798802085
 30
0.0
  0
ENDBLK
  5
F8A
330
F88
100
AcDbEntity
  8
0
100
AcDbBlockEnd
  0
BLOCK
  5
F97
330
F96
100
AcDbEntity
  8
0
100
AcDbBlockBegin
  2
*D2
 70
     1
 10
0.0
 20
0.0
 30
0.0
  3
*D2
  1

  0
LINE
  5
16A8
330
F96
100
AcDbEntity
  8
0
 62
     0
370
    -2
100
AcDbLine
 10
177.7888197655466
 20
-313.1002798802085
 30
0.0
 11
177.7888197655466
 21
-335.2815067931832
 31
0.0
  0
LINE
  5
16A9
330
F96
100
AcDbEntity
  8
0
 62
     0
370
    -2
100
AcDbLine
 10
67.78881976554656
 20
-313.1002798802085
 30
0.0
 11
67.78881976554656
 21
-335.2815067931832
 31
0.0
  0
LINE
  5
16AA
330
F96
100
AcDbEntity
  8
0
 62
     0
370
    -2
100
AcDbLine
 10
175.2888197655466
 20
-334.0315067931832
 30
0.0
 11
70.28881976554656
 21
-334.0315067931832
 31
0.0
  0
INSERT
  5
16AB
330
F96
100
AcDbEntity
  8
0
 62
     0
370
    -2
100
AcDbBlockReference
  2
_Open30
 10
177.7888197655466
 20
-334.0315067931832
 30
0.0
 41
2.5
 42
2.5
 43
2.5
  0
INSERT
  5
16AC
330
F96
100
AcDbEntity
  8
0
 62
     0
370
    -2
100
AcDbBlockReference
  2
_Open30
 10
67.78881976554656
 20
-334.0315067931832
 30
0.0
 41
2.5
 42
2.5
 43
2.5
 50
180.0
  0
MTEXT
  5
16AD
330
F96
100
AcDbEntity
  8
0
 62
     4
100
AcDbMText
 10
120.3699091515832
 20
-331.9065067931831
 30
0.0
 40
3.0
 41
0.0
 71
     5
 72
     1
  1
220
 73
     1
 44
1.0
1001
ACAD
1000
MTEXTBEGIN
1070
    73
1070
     1
1070
    44
1040
1.0
1070
    74
1070
     0
1000
MTEXTEND
  0
POINT
  5
16AE
330
F96
100
AcDbEntity
  8
Defpoints
 62
     0
100
AcDbPoint
 10
177.7888197655466
 20
-312.8502798802085
 30
0.0
  0
POINT
  5
16AF
330
F96
100
AcDbEntity
  8
Defpoints
 62
     0
100
AcDbPoint
 10
67.78881976554656
 20
-312.8502798802085
 30
0.0
  0
POINT
  5
16B0
330
F96
100
AcDbEntity
  8
Defpoints
 62
     0
100
AcDbPoint
 10
67.78881976554656
 20
-334.0315067931832
 30
0.0
  0
ENDBLK
  5
F98
330
F96
100
AcDbEntity
  8
0
100
AcDbBlockEnd
  0
BLOCK
  5
FA3
330
FA2
100
AcDbEntity
  8
0
100
AcDbBlockBegin
  2
*D3
 70
     1
 10
0.0
 20
0.0
 30
0.0
  3
*D3
  1

  0
LINE
  5
16B1
330
FA2
100
AcDbEntity
  8
0
 62
     0
370
    -2
100
AcDbLine
 10
228.853896411767
 20
-305.6002798802085
 30
0.0
 11
228.853896411767
 21
-222.1375154948273
 31
0.0
  0
LINE
  5
16B2
330
FA2
100
AcDbEntity
  8
0
 62
     0
370
    -2
100
AcDbLine
 10
326.603896411767
 20
-242.1002798802085
 30
0.0
 11
326.603896411767
 21
-222.1375154948273
 31
0.0
  0
LINE
  5
16B3
330
FA2
100
AcDbEntity
  8
0
 62
     0
370
    -2
100
AcDbLine
 10
231.353896411767
 20
-223.3875154948273
 30
0.0
 11
324.103896411767
 21
-223.3875154948273
 31
0.0
  0
INSERT
  5
16B4
330
FA2
100
AcDbEntity
  8
0
 62
     0
370
    -2
100
AcDbBlockReference
  2
_Open30
 10
228.853896411767
 20
-223.3875154948273
 30
0.0
 41
2.5
 42
2.5
 43
2.5
 50
180.0
  0
INSERT
  5
16B5
330
FA2
100
AcDbEntity
  8
0
 62
     0
370
    -2
100
AcDbBlockReference
  2
_Open30
 10
326.603896411767
 20
-223.3875154948273
 30
0.0
 41
2.5
 42
2.5
 43
2.5
  0
MTEXT
  5
16B6
330
FA2
100
AcDbEntity
  8
0
 62
     4
100
AcDbMText
 10
281.233951386539
 20
-221.2625154948273
 30
0.0
 40
3.0
 41
0.0
 71
     5
 72
     1
  1
195.5
 73
     1
 44
1.0
1001
ACAD
1000
MTEXTBEGIN
1070
    73
1070
     1
1070
    44
1040
1.0
1070
    74
1070
     0
1000
MTEXTEND
  0
POINT
  5
16B7
330
FA2
100
AcDbEntity
  8
Defpoints
 62
     0
100
AcDbPoint
 10
228.853896411767
 20
-305.8502798802085
 30
0.0
  0
POINT
  5
16B8
330
FA2
100
AcDbEntity
  8
Defpoints
 62
     0
100
AcDbPoint
 10
326.603896411767
 20
-242.3502798802085
 30
0.0
  0
POINT
  5
16B9
330
FA2
100
AcDbEntity
  8
Defpoints
 62
     0
100
AcDbPoint
 10
326.603896411767
 20
-223.3875154948273
 30
0.0
  0
ENDBLK
  5
FA4
330
FA2
100
AcDbEntity
  8
0
100
AcDbBlockEnd
  0
BLOCK
  5
FAF
330
FAE
100
AcDbEntity
  8
0
100
AcDbBlockBegin
  2
*D4
 70
     1
 10
0.0
 20
0.0
 30
0.0
  3
*D4
  1

  0
LINE
  5
16BA
330
FAE
100
AcDbEntity
  8
0
 62
     0
370
    -2
100
AcDbLine
 10
326.603896411767
 20
-313.1002798802085
 30
0.0
 11
326.603896411767
 21
-334.7327734325403
 31
0.0
  0
LINE
  5
16BB
330
FAE
100
AcDbEntity
  8
0
 62
     0
370
    -2
100
AcDbLine
 10
231.603896411767
 20
-305.6002798802085
 30
0.0
 11
231.603896411767
 21
-334.7327734325403
 31
0.0
  0
LINE
  5
16BC
330
FAE
100
AcDbEntity
  8
0
 62
     0
370
    -2
100
AcDbLine
 10
324.103896411767
 20
-333.4827734325403
 30
0.0
 11
234.103896411767
 21
-333.4827734325403
 31
0.0
  0
INSERT
  5
16BD
330
FAE
100
AcDbEntity
  8
0
 62
     0
370
    -2
100
AcDbBlockReference
  2
_Open30
 10
326.603896411767
 20
-333.4827734325403
 30
0.0
 41
2.5
 42
2.5
 43
2.5
  0
INSERT
  5
16BE
330
FAE
100
AcDbEntity
  8
0
 62
     0
370
    -2
100
AcDbBlockReference
  2
_Open30
 10
231.603896411767
 20
-333.4827734325403
 30
0.0
 41
2.5
 42
2.5
 43
2.5
 50
180.0
  0
MTEXT
  5
16BF
330
FAE
100
AcDbEntity
  8
0
 62
     4
100
AcDbMText
 10
278.2827891104444
 20
-331.3577734325404
 30
0.0
 40
3.0
 41
0.0
 71
     5
 72
     1
  1
190
 73
     1
 44
1.0
1001
ACAD
1000
MTEXTBEGIN
1070
    73
1070
     1
1070
    44
1040
1.0
1070
    74
1070
     0
1000
MTEXTEND
  0
POINT
  5
16C0
330
FAE
100
AcDbEntity
  8
Defpoints
 62
     0
100
AcDbPoint
 10
326.603896411767
 20
-312.8502798802085
 30
0.0
  0
POINT
  5
16C1
330
FAE
100
AcDbEntity
  8
Defpoints
 62
     0
100
AcDbPoint
 10
231.603896411767
 20
-305.3502798802085
 30
0.0
  0
POINT
  5
16C2
330
FAE
100
AcDbEntity
  8
Defpoints
 62
     0
100
AcDbPoint
 10
231.603896411767
 20
-333.4827734325403
 30
0.0
  0
ENDBLK
  5
FB0
330
FAE
100
AcDbEntity
  8
0
100
AcDbBlockEnd
  0
BLOCK
  5
FBB
330
FBA
100
AcDbEntity
  8
0
100
AcDbBlockBegin
  2
*D5
 70
     1
 10
0.0
 20
0.0
 30
0.0
  3
*D5
  1

  0
LINE
  5
16C3
330
FBA
100
AcDbEntity
  8
0
 62
     0
370
    -2
100
AcDbLine
 10
178.0388197655466
 20
-312.8502798802085
 30
0.0
 11
203.7885657185343
 21
-312.8502798802085
 31
0.0
  0
LINE
  5
16C4
330
FBA
100
AcDbEntity
  8
0
 62
     0
370
    -2
100
AcDbLine
 10
174.5388197655464
 20
-242.3502798802085
 30
0.0
 11
203.7885657185343
 21
-242.3502798802085
 31
0.0
  0
LINE
  5
16C5
330
FBA
100
AcDbEntity
  8
0
 62
     0
370
    -2
100
AcDbLine
 10
202.5385657185343
 20
-310.3502798802085
 30
0.0
 11
202.5385657185343
 21
-244.8502798802085
 31
0.0
  0
INSERT
  5
16C6
330
FBA
100
AcDbEntity
  8
0
 62
     0
370
    -2
100
AcDbBlockReference
  2
_Open30
 10
202.5385657185343
 20
-312.8502798802085
 30
0.0
 41
2.5
 42
2.5
 43
2.5
 50
270.0
  0
INSERT
  5
16C7
330
FBA
100
AcDbEntity
  8
0
 62
     0
370
    -2
100
AcDbBlockReference
  2
_Open30
 10
202.5385657185343
 20
-242.3502798802085
 30
0.0
 41
2.5
 42
2.5
 43
2.5
 50
90.0
  0
MTEXT
  5
16C8
330
FBA
100
AcDbEntity
  8
0
 62
     4
100
AcDbMText
 10
200.4135657185343
 20
-280.691740949873
 30
0.0
 40
3.0
 41
0.0
 71
     5
 72
     1
  1
141
 11
0.0000000000000001
 21
1.0
 31
0.0
 73
     1
 44
1.0
1001
ACAD
1000
MTEXTBEGIN
1070
    73
1070
     1
1070
    44
1040
1.0
1070
    74
1070
     0
1000
MTEXTEND
  0
POINT
  5
16C9
330
FBA
100
AcDbEntity
  8
Defpoints
 62
     0
100
AcDbPoint
 10
177.7888197655466
 20
-312.8502798802085
 30
0.0
  0
POINT
  5
16CA
330
FBA
100
AcDbEntity
  8
Defpoints
 62
     0
100
AcDbPoint
 10
174.2888197655464
 20
-242.3502798802085
 30
0.0
  0
POINT
  5
16CB
330
FBA
100
AcDbEntity
  8
Defpoints
 62
     0
100
AcDbPoint
 10
202.5385657185343
 20
-242.3502798802085
 30
0.0
  0
ENDBLK
  5
FBC
330
FBA
100
AcDbEntity
  8
0
100
AcDbBlockEnd
  0
BLOCK
  5
FC7
330
FC6
100
AcDbEntity
  8
0
100
AcDbBlockBegin
  2
*D6
 70
     1
 10
0.0
 20
0.0
 30
0.0
  3
*D6
  1

  0
LINE
  5
16CC
330
FC6
100
AcDbEntity
  8
0
 62
     0
370
    -2
100
AcDbLine
 10
169.0388197655465
 20
-318.8502798802086
 30
0.0
 11
212.1047210244455
 21
-318.8502798802086
 31
0.0
  0
LINE
  5
16CD
330
FC6
100
AcDbEntity
  8
0
 62
     0
370
    -2
100
AcDbLine
 10
146.4937347936716
 20
-227.3502798802085
 30
0.0
 11
212.1047210244455
 21
-227.3502798802085
 31
0.0
  0
LINE
  5
16CE
330
FC6
100
AcDbEntity
  8
0
 62
     0
370
    -2
100
AcDbLine
 10
210.8547210244455
 20
-316.3502798802086
 30
0.0
 11
210.8547210244455
 21
-229.8502798802085
 31
0.0
  0
INSERT
  5
16CF
330
FC6
100
AcDbEntity
  8
0
 62
     0
370
    -2
100
AcDbBlockReference
  2
_Open30
 10
210.8547210244455
 20
-318.8502798802086
 30
0.0
 41
2.5
 42
2.5
 43
2.5
 50
270.0
  0
INSERT
  5
16D0
330
FC6
100
AcDbEntity
  8
0
 62
     0
370
    -2
100
AcDbBlockReference
  2
_Open30
 10
210.8547210244455
 20
-227.3502798802085
 30
0.0
 41
2.5
 42
2.5
 43
2.5
 50
90.0
  0
MTEXT
  5
16D1
330
FC6
100
AcDbEntity
  8
0
 62
     4
100
AcDbMText
 10
208.7297210244455
 20
-276.3317312388913
 30
0.0
 40
3.0
 41
0.0
 71
     5
 72
     1
  1
183
 11
0.0000000000000001
 21
1.0
 31
0.0
 73
     1
 44
1.0
1001
ACAD
1000
MTEXTBEGIN
1070
    73
1070
     1
1070
    44
1040
1.0
1070
    74
1070
     0
1000
MTEXTEND
  0
POINT
  5
16D2
330
FC6
100
AcDbEntity
  8
Defpoints
 62
     0
100
AcDbPoint
 10
168.7888197655466
 20
-318.8502798802086
 30
0.0
  0
POINT
  5
16D3
330
FC6
100
AcDbEntity
  8
Defpoints
 62
     0
100
AcDbPoint
 10
146.2437347936716
 20
-227.3502798802085
 30
0.0
  0
POINT
  5
16D4
330
FC6
100
AcDbEntity
  8
Defpoints
 62
     0
100
AcDbPoint
 10
210.8547210244455
 20
-227.3502798802085
 30
0.0
  0
ENDBLK
  5
FC8
330
FC6
100
AcDbEntity
  8
0
100
AcDbBlockEnd
  0
ENDSEC
  0
SECTION
  2
ENTITIES
  0
LINE
  5
BC
330
6B
100
AcDbEntity
  8
0
 62
     3
100
AcDbLine
 10
316.7642083825702
 20
-362.580856
 30
0.0
 11
316.7642083825702
 21
-392.580856
 31
0.0
  0
LINE
  5
BD
330
6B
100
AcDbEntity
  8
0
 62
     3
100
AcDbLine
 10
250.775104
 20
-362.580856
 30
0.0
 11
316.7642083825702
 21
-362.580856
 31
0.0
  0
LINE
  5
BE
330
6B
100
AcDbEntity
  8
0
 62
     3
100
AcDbLine
 10
250.775104
 20
-392.580856
 30
0.0
 11
316.7642083825702
 21
-392.580856
 31
0.0
  0
LINE
  5
BF
330
6B
100
AcDbEntity
  8
0
 62
     7
100
AcDbLine
 10
272.9958654565569
 20
-392.580856
 30
0.0
 11
272.9958654565569
 21
-362.580856
 31
0.0
  0
LINE
  5
D3
330
6B
100
AcDbEntity
  8
0
 62
     3
100
AcDbLine
 10
20.318936
 20
-183.90941
 30
0.0
 11
20.318936
 21
-457.9647709999998
 31
0.0
  0
LINE
  5
D4
330
6B
100
AcDbEntity
  8
0
 62
     3
100
AcDbLine
 10
20.318936
 20
-183.90941
 30
0.0
 11
410.318936
 21
-183.90941
 31
0.0
  0
LINE
  5
D5
330
6B
100
AcDbEntity
  8
0
 62
     3
100
AcDbLine
 10
410.318936
 20
-457.9647709999998
 30
0.0
 11
20.318936
 21
-457.9647709999998
 31
0.0
  0
LINE
  5
D8
330
6B
100
AcDbEntity
  8
0
 62
     3
100
AcDbLine
 10
410.318936
 20
-183.90941
 30
0.0
 11
410.318936
 21
-457.9647709999997
 31
0.0
  0
TEXT
  5
DF
330
6B
100
AcDbEntity
  8
0
 62
     3
100
AcDbText
 10
316.657827
 20
-439.925437
 30
0.0
 40
3.2
  1
別　掲
  7
高3.2
100
AcDbText
  0
TEXT
  5
1AF
330
6B
100
AcDbEntity
  8
0
 62
     3
100
AcDbText
 10
374.877386
 20
-447.393578
 30
0.0
 40
3.2
  1
2006.2.20
  7
高3.2
100
AcDbText
  0
LINE
  5
1D9
330
6B
100
AcDbEntity
  8
0
 62
     7
100
AcDbLine
 10
20.318936
 20
-412.9647724143787
 30
0.0
 11
186.7058421779351
 21
-412.9647724143787
 31
0.0
  0
TEXT
  5
207
330
6B
100
AcDbEntity
  8
0
 62
     3
100
AcDbText
 10
363.365000555084
 20
-456.938444
 30
0.0
 40
6.299999999999998
  1
M-EK30
  7
高6.3
100
AcDbText
  0
LINE
  5
251
330
6B
100
AcDbEntity
  8
0
 62
     7
100
AcDbLine
 10
265.6622008053432
 20
-360.9919294079004
 30
0.0
 11
302.5255727470503
 21
-360.9919294079004
 31
0.0
  0
LINE
  5
279
330
6B
100
AcDbEntity
  8
0
 62
     3
100
AcDbLine
 10
384.619573
 20
-441.299048
 30
0.0
 11
384.619573
 21
-418.2990479999999
 31
0.0
  0
LINE
  5
27B
330
6B
100
AcDbEntity
  8
0
 62
     3
100
AcDbLine
 10
331.565963
 20
-448.299048
 30
0.0
 11
331.565963
 21
-434.299048
 31
0.0
  0
TEXT
  5
27D
330
6B
100
AcDbEntity
  8
0
 62
     3
100
AcDbText
 10
360.629891
 20
-422.093932
 30
0.0
 40
2.0
  1
A
 41
0.7
100
AcDbText
  0
TEXT
  5
27E
330
6B
100
AcDbEntity
  8
0
 62
     3
100
AcDbText
 10
363.165177
 20
-422.093932
 30
0.0
 40
2.0
  1
P
 41
0.7
100
AcDbText
  0
TEXT
  5
27F
330
6B
100
AcDbEntity
  8
0
 62
     3
100
AcDbText
 10
365.700463
 20
-422.093932
 30
0.0
 40
2.0
  1
P
 41
0.7
100
AcDbText
  0
TEXT
  5
280
330
6B
100
AcDbEntity
  8
0
 62
     3
100
AcDbText
 10
368.235749
 20
-422.093932
 30
0.0
 40
2.0
  1
D
 41
0.7
100
AcDbText
  0
TEXT
  5
281
330
6B
100
AcDbEntity
  8
0
 62
     3
100
AcDbText
 10
373.604433
 20
-422.093932
 30
0.0
 40
2.0
  1
C
 41
0.7
100
AcDbText
  0
TEXT
  5
282
330
6B
100
AcDbEntity
  8
0
 62
     3
100
AcDbText
 10
376.139719
 20
-422.093932
 30
0.0
 40
2.0
  1
H
 41
0.7
100
AcDbText
  0
TEXT
  5
283
330
6B
100
AcDbEntity
  8
0
 62
     3
100
AcDbText
 10
378.675005
 20
-422.093932
 30
0.0
 40
2.0
  1
C
 41
0.7
100
AcDbText
  0
TEXT
  5
284
330
6B
100
AcDbEntity
  8
0
 62
     3
100
AcDbText
 10
381.2102910000001
 20
-422.093932
 30
0.0
 40
2.0
  1
K
 41
0.7
100
AcDbText
  0
TEXT
  5
285
330
6B
100
AcDbEntity
  8
0
 62
     3
100
AcDbText
 10
386.884258
 20
-422.093932
 30
0.0
 40
2.0
  1
DESN
 41
1.216762999999998
100
AcDbText
  0
TEXT
  5
286
330
6B
100
AcDbEntity
  8
0
 62
     3
100
AcDbText
 10
301.877899
 20
-451.4404299999998
 30
0.0
 40
2.0
  1
NICHIDO IND.CO.LTD
 41
1.274876
100
AcDbText
  0
LINE
  5
287
330
6B
100
AcDbEntity
  8
0
 62
     3
100
AcDbLine
 10
312.260928
 20
-418.2990479999999
 30
0.0
 11
312.260928
 21
-441.299048
 31
0.0
  0
LINE
  5
288
330
6B
100
AcDbEntity
  8
0
 62
     3
100
AcDbLine
 10
358.6195730000002
 20
-418.2990479999999
 30
0.0
 11
358.619573
 21
-457.9647709999998
 31
0.0
  0
LINE
  5
28D
330
6B
100
AcDbEntity
  8
0
 62
     3
100
AcDbLine
 10
371.619573
 20
-418.2990479999999
 30
0.0
 11
371.619573
 21
-448.299048
 31
0.0
  0
TEXT
  5
28E
330
6B
100
AcDbEntity
  8
0
 62
     3
100
AcDbText
 10
359.732017
 20
-447.434361
 30
0.0
 40
3.2
  1
作成日
 41
1.017225999999997
100
AcDbText
  0
LINE
  5
28F
330
6B
100
AcDbEntity
  8
0
 62
     3
100
AcDbLine
 10
410.318936
 20
-418.2990479999999
 30
0.0
 11
299.015494
 21
-418.2990479999999
 31
0.0
  0
LINE
  5
290
330
6B
100
AcDbEntity
  8
0
 62
     3
100
AcDbLine
 10
397.619573
 20
-441.299048
 30
0.0
 11
397.619573
 21
-418.2990479999999
 31
0.0
  0
TEXT
  5
291
330
6B
100
AcDbEntity
  8
0
 62
     3
100
AcDbText
 10
400.943376
 20
-422.0081129999998
 30
0.0
 40
1.8
  1
D
 41
0.666667
100
AcDbText
  0
TEXT
  5
292
330
6B
100
AcDbEntity
  8
0
 62
     3
100
AcDbText
 10
403.760004
 20
-422.0081129999998
 30
0.0
 40
1.8
  1
E
 41
0.666667
100
AcDbText
  0
TEXT
  5
293
330
6B
100
AcDbEntity
  8
0
 62
     3
100
AcDbText
 10
406.5766319999998
 20
-422.0081129999998
 30
0.0
 40
1.8
  1
F
 41
0.666667
100
AcDbText
  0
TEXT
  5
294
330
6B
100
AcDbEntity
  8
0
 62
     3
100
AcDbText
 10
400.943376
 20
-426.000667
 30
0.0
 40
3.2
  1
製図
 41
1.076369
100
AcDbText
  0
LINE
  5
295
330
6B
100
AcDbEntity
  8
0
 62
     3
100
AcDbLine
 10
299.015494
 20
-418.2990479999999
 30
0.0
 11
299.015494
 21
-457.9647709999998
 31
0.0
  0
TEXT
  5
296
330
6B
100
AcDbEntity
  8
0
 62
     3
100
AcDbText
 10
300.392146
 20
-457.632305
 30
0.0
 40
5.0
  1
日動工業株式会社
 41
0.833333
100
AcDbText
  0
LINE
  5
297
330
6B
100
AcDbEntity
  8
0
 62
     3
100
AcDbLine
 10
341.8978980000001
 20
-434.2990480000001
 30
0.0
 11
341.897898
 21
-457.9647709999998
 31
0.0
  0
LINE
  5
298
330
6B
100
AcDbEntity
  8
0
 62
     3
100
AcDbLine
 10
341.897898
 20
-453.131909
 30
0.0
 11
358.619573
 21
-453.131909
 31
0.0
  0
TEXT
  5
299
330
6B
100
AcDbEntity
  8
0
 62
     3
100
AcDbText
 10
342.4845
 20
-452.3154789999998
 30
0.0
 40
3.2
  1
出図コード
 41
0.8356860000000001
100
AcDbText
  0
LINE
  5
29B
330
6B
100
AcDbEntity
  8
0
 62
     3
100
AcDbLine
 10
299.015494
 20
-448.299048
 30
0.0
 11
410.318936
 21
-448.299048
 31
0.0
  0
LINE
  5
29D
330
6B
100
AcDbEntity
  8
0
 62
     3
100
AcDbLine
 10
299.015494
 20
-427.299048
 30
0.0
 11
410.318936
 21
-427.299048
 31
0.0
  0
LINE
  5
2A3
330
6B
100
AcDbEntity
  8
0
 62
     3
100
AcDbLine
 10
299.015494
 20
-434.299048
 30
0.0
 11
358.619573
 21
-434.299048
 31
0.0
  0
LINE
  5
2A9
330
6B
100
AcDbEntity
  8
0
 62
     3
100
AcDbLine
 10
299.015494
 20
-441.299048
 30
0.0
 11
410.318936
 21
-441.299048
 31
0.0
  0
TEXT
  5
2AA
330
6B
100
AcDbEntity
  8
0
 62
     3
100
AcDbText
 10
342.351951
 20
-457.6130834306396
 30
0.0
 40
3.2
  1
ZK-A3X
 41
0.8112849999999999
100
AcDbText
  0
TEXT
  5
2AB
330
6B
100
AcDbEntity
  8
0
 62
     3
100
AcDbText
 10
300.832891
 20
-422.129522
 30
0.0
 40
2.0
  1
CONPONENTS
 41
0.5331600000000001
100
AcDbText
  0
TEXT
  5
2AC
330
6B
100
AcDbEntity
  8
0
 62
     3
100
AcDbText
 10
300.483164
 20
-441.061699
 30
0.0
 40
3.0
  1
材
 41
0.833333
100
AcDbText
  0
TEXT
  5
2AD
330
6B
100
AcDbEntity
  8
0
 62
     3
100
AcDbText
 10
308.018807
 20
-441.061699
 30
0.0
 40
3.0
  1
質
 41
0.833333
100
AcDbText
  0
TEXT
  5
2AE
330
6B
100
AcDbEntity
  8
0
 62
     3
100
AcDbText
 10
300.571235
 20
-430.437174
 30
0.0
 40
2.0
  1
MODEL
 41
1.031072999999999
100
AcDbText
  0
TEXT
  5
2AF
330
6B
100
AcDbEntity
  8
0
 62
     3
100
AcDbText
 10
300.483164
 20
-437.3793909999998
 30
0.0
 40
2.0
  1
MATERIAL
 41
0.659278
100
AcDbText
  0
TEXT
  5
2B0
330
6B
100
AcDbEntity
  8
0
 62
     3
100
AcDbText
 10
331.790444
 20
-441.061699
 30
0.0
 40
3.0
  1
備
 41
0.833333
100
AcDbText
  0
TEXT
  5
2B1
330
6B
100
AcDbEntity
  8
0
 62
     3
100
AcDbText
 10
338.523446
 20
-441.061699
 30
0.0
 40
3.0
  1
考
 41
0.833333
100
AcDbText
  0
TEXT
  5
2B2
330
6B
100
AcDbEntity
  8
0
 62
     3
100
AcDbText
 10
332.1521596564039
 20
-437.3793909999998
 30
0.0
 40
2.0
  1
REMARKS
 41
0.675794
100
AcDbText
  0
TEXT
  5
2B3
330
6B
100
AcDbEntity
  8
0
 62
     3
100
AcDbText
 10
302.072893
 20
-444.299511
 30
0.0
 40
2.0
  1
3AD
 41
1.42614
100
AcDbText
  0
TEXT
  5
2B4
330
6B
100
AcDbEntity
  8
0
 62
     3
100
AcDbText
 10
311.383873
 20
-444.133778
 30
0.0
 40
2.0
  1
ANGLE
 41
1.669883999999995
100
AcDbText
  0
TEXT
  5
2B5
330
6B
100
AcDbEntity
  8
0
 62
     3
100
AcDbText
 10
332.31776
 20
-444.510619
 30
0.0
 40
2.0
  1
SCALE
 41
0.7719630000000001
100
AcDbText
  0
TEXT
  5
2B6
330
6B
100
AcDbEntity
  8
0
 62
     3
100
AcDbText
 10
301.759023
 20
-448.299048
 30
0.0
 40
3.0
  1
第
 41
0.833333
100
AcDbText
  0
TEXT
  5
2B7
330
6B
100
AcDbEntity
  8
0
 62
     3
100
AcDbText
 10
309.545873
 20
-448.299048
 30
0.0
 40
3.0
  1
三
 41
0.833333
100
AcDbText
  0
TEXT
  5
2B8
330
6B
100
AcDbEntity
  8
0
 62
     3
100
AcDbText
 10
317.332723
 20
-448.299048
 30
0.0
 40
3.0
  1
角
 41
0.833333
100
AcDbText
  0
TEXT
  5
2B9
330
6B
100
AcDbEntity
  8
0
 62
     3
100
AcDbText
 10
325.119573
 20
-448.299048
 30
0.0
 40
3.0
  1
法
 41
0.833333
100
AcDbText
  0
TEXT
  5
2BA
330
6B
100
AcDbEntity
  8
0
 62
     3
100
AcDbText
 10
332.180965
 20
-448.0106189999998
 30
0.0
 40
3.0
  1
尺
 41
0.833333
100
AcDbText
  0
TEXT
  5
2BB
330
6B
100
AcDbEntity
  8
0
 62
     3
100
AcDbText
 10
338.913966
 20
-448.0106189999998
 30
0.0
 40
3.0
  1
度
 41
0.833333
100
AcDbText
  0
TEXT
  5
2BC
330
6B
100
AcDbEntity
  8
0
 62
     3
100
AcDbText
 10
361.497237
 20
-425.841319
 30
0.0
 40
3.0
  1
承認
 41
1.089472999999999
100
AcDbText
  0
TEXT
  5
2BD
330
6B
100
AcDbEntity
  8
0
 62
     3
100
AcDbText
 10
374.740117
 20
-425.899048
 30
0.0
 40
3.0
  1
検図
 41
0.931761
100
AcDbText
  0
TEXT
  5
2BE
330
6B
100
AcDbEntity
  8
0
 62
     3
100
AcDbText
 10
387.740514
 20
-425.899048
 30
0.0
 40
3.0
  1
設
 41
0.833333
100
AcDbText
  0
TEXT
  5
2BF
330
6B
100
AcDbEntity
  8
0
 62
     3
100
AcDbText
 10
392.230382
 20
-425.899048
 30
0.0
 40
3.0
  1
計
 41
0.833333
100
AcDbText
  0
TEXT
  5
2C0
330
6B
100
AcDbEntity
  8
0
 62
     3
100
AcDbText
 10
300.902997
 20
-425.7264959999998
 30
0.0
 40
3.0
  1
品
 41
0.833333
100
AcDbText
  0
TEXT
  5
2C1
330
6B
100
AcDbEntity
  8
0
 62
     3
100
AcDbText
 10
308.438639
 20
-425.7264959999998
 30
0.0
 40
3.0
  1
名
 41
0.833333
100
AcDbText
  0
TEXT
  5
2C2
330
6B
100
AcDbEntity
  8
0
 62
     3
100
AcDbText
 10
300.571235
 20
-433.8693305787589
 30
0.0
 40
3.0
  1
型
 41
0.833333
100
AcDbText
  0
TEXT
  5
2C3
330
6B
100
AcDbEntity
  8
0
 62
     3
100
AcDbText
 10
308.119325
 20
-433.8693305787589
 30
0.0
 40
3.0
  1
式
 41
0.833333
100
AcDbText
  0
LINE
  5
2C4
330
6B
100
AcDbEntity
  8
0
 62
     3
100
AcDbLine
 10
7.917011999999997
 20
-317.464771
 30
0.0
 11
5.318935999999998
 21
-318.964771
 31
0.0
  0
LINE
  5
2C5
330
6B
100
AcDbEntity
  8
0
 62
     3
100
AcDbLine
 10
7.917011999999997
 20
-317.464771
 30
0.0
 11
5.318935999999998
 21
-315.964771
 31
0.0
  0
LINE
  5
2C6
330
6B
100
AcDbEntity
  8
0
 62
     3
100
AcDbLine
 10
5.318935999999998
 20
-318.964771
 30
0.0
 11
5.318935999999998
 21
-315.964771
 31
0.0
  0
LINE
  5
378
330
6B
100
AcDbEntity
  8
0
 62
     3
100
AcDbLine
 10
186.7058421779351
 20
-457.9647709999998
 30
0.0
 11
186.7058421779351
 21
-407.9647731215682
 31
0.0
  0
LINE
  5
381
330
6B
100
AcDbEntity
  8
0
 62
     3
100
AcDbLine
 10
250.775104
 20
-362.580856
 30
0.0
 11
250.775104
 21
-392.580856
 31
0.0
  0
TEXT
  5
382
330
6B
100
AcDbEntity
  8
0
 62
     3
100
AcDbText
 10
319.6267904681759
 20
-425.8182809999998
 30
0.0
 40
4.5
  1
昇圧トランス
  7
高4.5
100
AcDbText
  0
TEXT
  5
383
330
6B
100
AcDbEntity
  8
0
 62
     3
100
AcDbText
 10
252.275104
 20
-367.080856
 30
0.0
 40
3.2
  1
型　　式
  7
高3.2
100
AcDbText
  0
TEXT
  5
384
330
6B
100
AcDbEntity
  8
0
 62
     3
100
AcDbText
 10
252.275104
 20
-372.080856
 30
0.0
 40
3.2
  1
入力電圧
  7
高3.2
100
AcDbText
  0
TEXT
  5
385
330
6B
100
AcDbEntity
  8
0
 62
     3
100
AcDbText
 10
252.275104
 20
-377.080856
 30
0.0
 40
3.2
  1
出力電圧
  7
高3.2
100
AcDbText
  0
TEXT
  5
386
330
6B
100
AcDbEntity
  8
0
 62
     3
100
AcDbText
 10
252.275104
 20
-382.080856
 30
0.0
 40
3.2
  1
容　　量
  7
高3.2
100
AcDbText
  0
TEXT
  5
387
330
6B
100
AcDbEntity
  8
0
 62
     3
100
AcDbText
 10
252.275104
 20
-387.080856
 30
0.0
 40
3.2
  1
質　　量
  7
高3.2
100
AcDbText
  0
TEXT
  5
388
330
6B
100
AcDbEntity
  8
0
 62
     3
100
AcDbText
 10
252.275104
 20
-392.080856
 30
0.0
 40
3.2
  1
絶縁種類
  7
高3.2
100
AcDbText
  0
TEXT
  5
389
330
6B
100
AcDbEntity
  8
0
 62
     3
100
AcDbText
 10
265.7466865551559
 20
-359.916887
 30
0.0
 40
4.5
  1
主　　仕　　様
  7
高4.5
100
AcDbText
  0
TEXT
  5
38A
330
6B
100
AcDbEntity
  8
0
 62
     3
100
AcDbText
 10
323.044202
 20
-433.3546609999998
 30
0.0
 40
4.5
  1
M-EK30
  7
高4.5
100
AcDbText
  0
TEXT
  5
38B
330
6B
100
AcDbEntity
  8
0
 62
     3
100
AcDbText
 10
344.135488
 20
-447.400257
 30
0.0
 40
3.2
  1
1/2
  7
高3.2
100
AcDbText
  0
TEXT
  5
38C
330
6B
100
AcDbEntity
  8
0
 62
     3
100
AcDbText
 10
117.9622527369472
 20
-452.4647709999999
 30
0.0
 40
3.2
  1
1
 41
0.8
  7
高3.2
100
AcDbText
  0
TEXT
  5
38D
330
6B
100
AcDbEntity
  8
0
 62
     3
100
AcDbText
 10
117.9622527369472
 20
-442.4647717071894
 30
0.0
 40
3.2
  1
1
 41
0.8
  7
高3.2
100
AcDbText
  0
TEXT
  5
38F
330
6B
100
AcDbEntity
  8
0
 62
     3
100
AcDbText
 10
117.9622527369472
 20
-422.4647717071891
 30
0.0
 40
3.2
  1
1
 41
0.8
  7
高3.2
100
AcDbText
  0
TEXT
  5
390
330
6B
100
AcDbEntity
  8
0
 62
     3
100
AcDbText
 10
117.9622527369472
 20
-437.4647717071893
 30
0.0
 40
3.2
  1
4
 41
0.8
  7
高3.2
100
AcDbText
  0
TEXT
  5
391
330
6B
100
AcDbEntity
  8
0
 62
     3
100
AcDbText
 10
117.9622527369472
 20
-417.464771707189
 30
0.0
 40
3.2
  1
1
 41
0.8
  7
高3.2
100
AcDbText
  0
TEXT
  5
392
330
6B
100
AcDbEntity
  8
0
 62
     3
100
AcDbText
 10
117.9622527369472
 20
-412.4647724143787
 30
0.0
 40
3.2
  1
2
 41
0.8
  7
高3.2
100
AcDbText
  0
TEXT
  5
393
330
6B
100
AcDbEntity
  8
0
 62
     3
100
AcDbText
 10
80.79391860821978
 20
-442.4647717071894
 30
0.0
 40
3.2
  1
3.5sqx3芯x1.8m
 41
0.8
  7
高3.2
100
AcDbText
  0
LINE
  5
394
330
6B
100
AcDbEntity
  8
0
 62
     7
100
AcDbLine
 10
20.318936
 20
-447.9647709999999
 30
0.0
 11
186.7058421779351
 21
-447.9647709999999
 31
0.0
  0
LINE
  5
395
330
6B
100
AcDbEntity
  8
0
 62
     7
100
AcDbLine
 10
20.318936
 20
-442.9647717071894
 30
0.0
 11
186.7058421779351
 21
-442.9647717071894
 31
0.0
  0
LINE
  5
396
330
6B
100
AcDbEntity
  8
0
 62
     7
100
AcDbLine
 10
20.318936
 20
-437.9647717071893
 30
0.0
 11
186.7058421779351
 21
-437.9647717071893
 31
0.0
  0
LINE
  5
397
330
6B
100
AcDbEntity
  8
0
 62
     7
100
AcDbLine
 10
20.318936
 20
-432.9647717071893
 30
0.0
 11
186.7058421779351
 21
-432.9647717071893
 31
0.0
  0
LINE
  5
398
330
6B
100
AcDbEntity
  8
0
 62
     7
100
AcDbLine
 10
20.318936
 20
-427.9647717071894
 30
0.0
 11
186.7058421779351
 21
-427.9647717071894
 31
0.0
  0
LINE
  5
399
330
6B
100
AcDbEntity
  8
0
 62
     7
100
AcDbLine
 10
116.4622527369473
 20
-457.9647709999998
 30
0.0
 11
116.4622527369473
 21
-407.9647731215682
 31
0.0
  0
LINE
  5
39B
330
6B
100
AcDbEntity
  8
0
 62
     7
100
AcDbLine
 10
20.318936
 20
-422.9647717071891
 30
0.0
 11
186.7058421779351
 21
-422.9647717071891
 31
0.0
  0
LINE
  5
39C
330
6B
100
AcDbEntity
  8
0
 62
     7
100
AcDbLine
 10
20.318936
 20
-417.9647717071891
 30
0.0
 11
186.7058421779351
 21
-417.9647717071891
 31
0.0
  0
TEXT
  5
39E
330
6B
100
AcDbEntity
  8
0
 62
     3
100
AcDbText
 10
117.9622527369472
 20
-447.4647709999998
 30
0.0
 40
3.2
  1
1式
 41
0.8
  7
高3.2
100
AcDbText
  0
TEXT
  5
39F
330
6B
100
AcDbEntity
  8
0
 62
     3
100
AcDbText
 10
63.64878816743232
 20
-447.4647709999998
 30
0.0
 40
3.2
  1
SPCC
 41
0.8
  7
高3.2
100
AcDbText
  0
TEXT
  5
3A0
330
6B
100
AcDbEntity
  8
0
 62
     3
100
AcDbText
 10
28.9447581608005
 20
-452.4647709999999
 30
0.0
 40
3.2
  1
把手
 41
0.8
  7
高3.2
100
AcDbText
  0
TEXT
  5
3A1
330
6B
100
AcDbEntity
  8
0
 62
     3
100
AcDbText
 10
28.9447581608005
 20
-447.4647709999998
 30
0.0
 40
3.2
  1
ケース
 41
0.8
  7
高3.2
100
AcDbText
  0
TEXT
  5
3A2
330
6B
100
AcDbEntity
  8
0
 62
     3
100
AcDbText
 10
28.9447581608005
 20
-437.4647717071893
 30
0.0
 40
3.2
  1
ゴム脚
 41
0.8
  7
高3.2
100
AcDbText
  0
TEXT
  5
3A3
330
6B
100
AcDbEntity
  8
0
 62
     3
100
AcDbText
 10
80.79391860821978
 20
-437.4647717071893
 30
0.0
 40
3.2
  1
-
 41
0.8
  7
高3.2
100
AcDbText
  0
TEXT
  5
3A4
330
6B
100
AcDbEntity
  8
0
 62
     3
100
AcDbText
 10
28.9447581608005
 20
-422.4647717071891
 30
0.0
 40
3.2
  1
電圧計
 41
0.8
  7
高3.2
100
AcDbText
  0
TEXT
  5
3A5
330
6B
100
AcDbEntity
  8
0
 62
     3
100
AcDbText
 10
80.79391860821978
 20
-422.4647717071891
 30
0.0
 40
3.2
  1
AC125V計（1次側）
 41
0.8
  7
高3.2
100
AcDbText
  0
TEXT
  5
3A6
330
6B
100
AcDbEntity
  8
0
 62
     3
100
AcDbText
 10
80.79391860821978
 20
-447.4647709999998
 30
0.0
 40
3.2
  1
外カバー、パネルベース
 41
0.8
  7
高3.2
100
AcDbText
  0
TEXT
  5
3A7
330
6B
100
AcDbEntity
  8
0
 62
     3
100
AcDbText
 10
63.64878816743232
 20
-412.4647724143787
 30
0.0
 40
3.2
  1
SPCC
 41
0.8
  7
高3.2
100
AcDbText
  0
TEXT
  5
3A8
330
6B
100
AcDbEntity
  8
0
 62
     3
100
AcDbText
 10
28.9447581608005
 20
-412.4647724143787
 30
0.0
 40
3.2
  1
アース端子
 41
0.8
  7
高3.2
100
AcDbText
  0
TEXT
  5
3A9
330
6B
100
AcDbEntity
  8
0
 62
     3
100
AcDbText
 10
28.9447581608005
 20
-432.464772060784
 30
0.0
 40
3.2
  1
2PE付きWコンセント
 41
0.8
  7
高3.2
100
AcDbText
  0
TEXT
  5
3AA
330
6B
100
AcDbEntity
  8
0
 62
     3
100
AcDbText
 10
80.79391860821978
 20
-432.464772060784
 30
0.0
 40
3.2
  1
2PE 15A 125V(白)
 41
0.8
  7
高3.2
100
AcDbText
  0
TEXT
  5
3AB
330
6B
100
AcDbEntity
  8
0
 62
     3
100
AcDbText
 10
28.9447581608005
 20
-442.4647717071894
 30
0.0
 40
3.2
  1
電線　プラグ付き
 41
0.8
  7
高3.2
100
AcDbText
  0
TEXT
  5
3AC
330
6B
100
AcDbEntity
  8
0
 62
     3
100
AcDbText
 10
28.9447581608005
 20
-417.464771707189
 30
0.0
 40
3.2
  1
過負荷漏電遮断器
 41
0.8
  7
高3.2
100
AcDbText
  0
TEXT
  5
3AD
330
6B
100
AcDbEntity
  8
0
 62
     3
100
AcDbText
 10
80.79391860821978
 20
-417.464771707189
 30
0.0
 40
3.2
  1
30A/15mA感度
 41
0.8
  7
高3.2
100
AcDbText
  0
TEXT
  5
3AE
330
6B
100
AcDbEntity
  8
0
 62
     3
100
AcDbText
 10
63.64878816743232
 20
-442.4647717071894
 30
0.0
 40
3.2
  1
SVCT
 41
0.8
  7
高3.2
100
AcDbText
  0
TEXT
  5
3AF
330
6B
100
AcDbEntity
  8
0
 62
     3
100
AcDbText
 10
63.64878816743232
 20
-437.4647717071893
 30
0.0
 40
3.2
  1
樹脂
 41
0.8
  7
高3.2
100
AcDbText
  0
TEXT
  5
3B0
330
6B
100
AcDbEntity
  8
0
 62
     3
100
AcDbText
 10
63.64878816743232
 20
-432.464772060784
 30
0.0
 40
3.2
  1
ABS樹脂
 41
0.8
  7
高3.2
100
AcDbText
  0
TEXT
  5
3B1
330
6B
100
AcDbEntity
  8
0
 62
     3
100
AcDbText
 10
63.64878816743232
 20
-452.4647709999999
 30
0.0
 40
3.2
  1
PA樹脂
 41
0.8
  7
高3.2
100
AcDbText
  0
LINE
  5
3B2
330
6B
100
AcDbEntity
  8
0
 62
     7
100
AcDbLine
 10
62.14878816743233
 20
-457.9647709999998
 30
0.0
 11
62.14878816743233
 21
-407.9647731215682
 31
0.0
  0
LINE
  5
3B3
330
6B
100
AcDbEntity
  8
0
 62
     7
100
AcDbLine
 10
27.44475816080051
 20
-457.9647709999998
 30
0.0
 11
27.44475816080051
 21
-407.9647731215682
 31
0.0
  0
LINE
  5
3B4
330
6B
100
AcDbEntity
  8
0
 62
     7
100
AcDbLine
 10
79.29391860821979
 20
-457.9647709999998
 30
0.0
 11
79.29391860821979
 21
-407.9647731215682
 31
0.0
  0
TEXT
  5
3BB
330
6B
100
AcDbEntity
  8
0
 62
     3
100
AcDbText
 10
21.81893599999998
 20
-452.4647709999999
 30
0.0
 40
3.2
  1
1
 41
0.8
  7
高3.2
100
AcDbText
  0
TEXT
  5
3BC
330
6B
100
AcDbEntity
  8
0
 62
     3
100
AcDbText
 10
21.81893599999998
 20
-447.4647709999998
 30
0.0
 40
3.2
  1
2
 41
0.8
  7
高3.2
100
AcDbText
  0
TEXT
  5
3BD
330
6B
100
AcDbEntity
  8
0
 62
     3
100
AcDbText
 10
21.81893599999998
 20
-442.4647717071894
 30
0.0
 40
3.2
  1
3
 41
0.8
  7
高3.2
100
AcDbText
  0
TEXT
  5
3BE
330
6B
100
AcDbEntity
  8
0
 62
     3
100
AcDbText
 10
21.81893599999998
 20
-437.4647717071893
 30
0.0
 40
3.2
  1
4
 41
0.8
  7
高3.2
100
AcDbText
  0
TEXT
  5
3BF
330
6B
100
AcDbEntity
  8
0
 62
     3
100
AcDbText
 10
21.81893599999998
 20
-432.4647717071893
 30
0.0
 40
3.2
  1
5
 41
0.8
  7
高3.2
100
AcDbText
  0
TEXT
  5
3C0
330
6B
100
AcDbEntity
  8
0
 62
     3
100
AcDbText
 10
21.81893599999998
 20
-427.4647717071894
 30
0.0
 40
3.2
  1
6
 41
0.8
  7
高3.2
100
AcDbText
  0
TEXT
  5
3C1
330
6B
100
AcDbEntity
  8
0
 62
     3
100
AcDbText
 10
21.81893599999998
 20
-422.4647717071891
 30
0.0
 40
3.2
  1
7
 41
0.8
  7
高3.2
100
AcDbText
  0
TEXT
  5
3C2
330
6B
100
AcDbEntity
  8
0
 62
     3
100
AcDbText
 10
21.81893599999998
 20
-417.464771707189
 30
0.0
 40
3.2
  1
8
 41
0.8
  7
高3.2
100
AcDbText
  0
TEXT
  5
3C3
330
6B
100
AcDbEntity
  8
0
 62
     3
100
AcDbText
 10
117.9622527369472
 20
-457.4647709999998
 30
0.0
 40
3.2
  1
個数
 41
0.8
  7
高3.2
100
AcDbText
  0
LINE
  5
3C4
330
6B
100
AcDbEntity
  8
0
 62
     3
100
AcDbLine
 10
20.318936
 20
-452.9647709999998
 30
0.0
 11
186.7058421779351
 21
-452.9647709999998
 31
0.0
  0
TEXT
  5
3C5
330
6B
100
AcDbEntity
  8
0
 62
     3
100
AcDbText
 10
80.79391860821978
 20
-457.4647709999998
 30
0.0
 40
3.2
  1
備　　　　　考
 41
0.8
  7
高3.2
100
AcDbText
  0
TEXT
  5
3C6
330
6B
100
AcDbEntity
  8
0
 62
     3
100
AcDbText
 10
63.64878816743232
 20
-457.4647709999998
 30
0.0
 40
3.2
  1
材　　質
 41
0.8
  7
高3.2
100
AcDbText
  0
TEXT
  5
3C7
330
6B
100
AcDbEntity
  8
0
 62
     3
100
AcDbText
 10
28.9447581608005
 20
-457.4647709999998
 30
0.0
 40
3.2
  1
部　　品　　名
 41
0.8
  7
高3.2
100
AcDbText
  0
TEXT
  5
3C8
330
6B
100
AcDbEntity
  8
0
 62
     3
100
AcDbText
 10
21.81893599999998
 20
-457.4647709999998
 30
0.0
 40
3.2
  1
No
 41
0.8
  7
高3.2
100
AcDbText
  0
LINE
  5
3C9
330
6B
100
AcDbEntity
  8
0
 62
     7
100
AcDbLine
 10
250.775104
 20
-367.580856
 30
0.0
 11
316.7642083825702
 21
-367.580856
 31
0.0
  0
LINE
  5
3CA
330
6B
100
AcDbEntity
  8
0
 62
     7
100
AcDbLine
 10
250.775104
 20
-372.580856
 30
0.0
 11
316.7642083825702
 21
-372.580856
 31
0.0
  0
LINE
  5
3CB
330
6B
100
AcDbEntity
  8
0
 62
     7
100
AcDbLine
 10
250.775104
 20
-377.580856
 30
0.0
 11
316.7642083825702
 21
-377.580856
 31
0.0
  0
LINE
  5
3CC
330
6B
100
AcDbEntity
  8
0
 62
     7
100
AcDbLine
 10
250.775104
 20
-382.580856
 30
0.0
 11
316.7642083825702
 21
-382.580856
 31
0.0
  0
LINE
  5
3CD
330
6B
100
AcDbEntity
  8
0
 62
     7
100
AcDbLine
 10
250.775104
 20
-387.580856
 30
0.0
 11
316.7642083825702
 21
-387.580856
 31
0.0
  0
TEXT
  5
3CE
330
6B
100
AcDbEntity
  8
0
 62
     3
100
AcDbText
 10
274.4958654565569
 20
-372.080856
 30
0.0
 40
3.2
  1
AC100V 50/60Hz
  7
高3.2
100
AcDbText
  0
TEXT
  5
3CF
330
6B
100
AcDbEntity
  8
0
 62
     3
100
AcDbText
 10
274.4958654565569
 20
-377.080856
 30
0.0
 40
3.2
  1
AC115V AC125V
  7
高3.2
100
AcDbText
  0
TEXT
  5
3D0
330
6B
100
AcDbEntity
  8
0
 62
     3
100
AcDbText
 10
274.4958654565569
 20
-392.080856
 30
0.0
 40
3.2
  1
F種絶縁
  7
高3.2
100
AcDbText
  0
TEXT
  5
3D1
330
6B
100
AcDbEntity
  8
0
 62
     3
100
AcDbText
 10
274.4958654565569
 20
-367.080856
 30
0.0
 40
3.2
  1
M-EK30
  7
高3.2
100
AcDbText
  0
TEXT
  5
3D2
330
6B
100
AcDbEntity
  8
0
 62
     3
100
AcDbText
 10
274.4958654565569
 20
-382.080856
 30
0.0
 40
3.2
  1
3KVA　連続
  7
高3.2
100
AcDbText
  0
TEXT
  5
3D3
330
6B
100
AcDbEntity
  8
0
 62
     3
100
AcDbText
 10
274.4958654565569
 20
-387.080856
 30
0.0
 40
3.2
  1
9.5kg
  7
高3.2
100
AcDbText
  0
LINE
  5
3D4
330
6B
100
AcDbEntity
  8
0
 62
     3
100
AcDbLine
 10
384.619573
 20
-418.2990479999999
 30
0.0
 11
384.619573
 21
-412.2990479999998
 31
0.0
  0
LINE
  5
3D5
330
6B
100
AcDbEntity
  8
0
 62
     3
100
AcDbLine
 10
358.619573
 20
-418.2990479999999
 30
0.0
 11
358.619573
 21
-412.2990479999998
 31
0.0
  0
LINE
  5
3D6
330
6B
100
AcDbEntity
  8
0
 62
     3
100
AcDbLine
 10
410.318936
 20
-412.2990479999998
 30
0.0
 11
358.619573
 21
-412.2990479999998
 31
0.0
  0
TEXT
  5
3D7
330
6B
100
AcDbEntity
  8
0
 62
     3
100
AcDbText
 10
364.615171
 20
-417.502699
 30
0.0
 40
4.5
  1
コード
  7
高4.5
100
AcDbText
  0
TEXT
  5
3D8
330
6B
100
AcDbEntity
  8
0
 62
     3
100
AcDbText
 10
389.0163301250141
 20
-417.6549109999998
 30
0.0
 40
4.5
  1
5735
  7
高4.5
100
AcDbText
  0
TEXT
  5
4B4
330
6B
100
AcDbEntity
  8
0
 62
     3
100
AcDbText
 10
397.818936
 20
-193.40941
 30
0.0
 40
3.2
  1
担　当
  7
高3.2
100
AcDbText
  0
TEXT
  5
4B5
330
6B
100
AcDbEntity
  8
0
 62
     3
100
AcDbText
 10
353.818936
 20
-193.40941
 30
0.0
 40
3.2
  1
変更・追記内容
  7
高3.2
100
AcDbText
  0
TEXT
  5
4B6
330
6B
100
AcDbEntity
  8
0
 62
     3
100
AcDbText
 10
328.9324510003392
 20
-198.0799485099083
 30
0.0
 40
2.0
  1
1
  7
高2
100
AcDbText
  0
TEXT
  5
4B7
330
6B
100
AcDbEntity
  8
0
 62
     3
100
AcDbText
 10
328.623939523582
 20
-203.2497652221812
 30
0.0
 40
2.0
  1
2
  7
高2
100
AcDbText
  0
TEXT
  5
4B8
330
6B
100
AcDbEntity
  8
0
 62
     3
100
AcDbText
 10
335.818936
 20
-193.40941
 30
0.0
 40
3.2
  1
日　付
  7
高3.2
100
AcDbText
  0
TEXT
  5
4B9
330
6B
100
AcDbEntity
  8
0
 62
     3
100
AcDbText
 10
335.818936
 20
-188.40941
 30
0.0
 40
3.2
  1
図　　　　面　　　　略　　　　歴
  7
高3.2
100
AcDbText
  0
TEXT
  5
4BA
330
6B
100
AcDbEntity
  8
0
 62
     3
100
AcDbText
 10
325.818936
 20
-193.40941
 30
0.0
 40
3.2
  1
記号
  7
高3.2
100
AcDbText
  0
LINE
  5
4BB
330
6B
100
AcDbEntity
  8
0
 62
     7
100
AcDbLine
 10
329.318936
 20
-200.1185139999999
 30
0.0
 11
327.418936
 21
-203.40941
 31
0.0
  0
LINE
  5
4BC
330
6B
100
AcDbEntity
  8
0
 62
     7
100
AcDbLine
 10
329.318936
 20
-200.1185139999999
 30
0.0
 11
331.218936
 21
-203.40941
 31
0.0
  0
LINE
  5
4BD
330
6B
100
AcDbEntity
  8
0
 62
     7
100
AcDbLine
 10
327.418936
 20
-203.40941
 30
0.0
 11
331.218936
 21
-203.40941
 31
0.0
  0
LINE
  5
4BE
330
6B
100
AcDbEntity
  8
0
 62
     7
100
AcDbLine
 10
329.318936
 20
-195.1185129999999
 30
0.0
 11
327.418936
 21
-198.40941
 31
0.0
  0
LINE
  5
4BF
330
6B
100
AcDbEntity
  8
0
 62
     7
100
AcDbLine
 10
329.318936
 20
-195.1185129999999
 30
0.0
 11
331.218936
 21
-198.40941
 31
0.0
  0
LINE
  5
4C0
330
6B
100
AcDbEntity
  8
0
 62
     7
100
AcDbLine
 10
327.418936
 20
-198.40941
 30
0.0
 11
331.218936
 21
-198.40941
 31
0.0
  0
LINE
  5
4C1
330
6B
100
AcDbEntity
  8
0
 62
     3
100
AcDbLine
 10
324.318936
 20
-188.90941
 30
0.0
 11
410.318936
 21
-188.90941
 31
0.0
  0
LINE
  5
4C2
330
6B
100
AcDbEntity
  8
0
 62
     3
100
AcDbLine
 10
324.318936
 20
-193.90941
 30
0.0
 11
410.318936
 21
-193.90941
 31
0.0
  0
LINE
  5
4C3
330
6B
100
AcDbEntity
  8
0
 62
     7
100
AcDbLine
 10
324.318936
 20
-198.90941
 30
0.0
 11
410.318936
 21
-198.90941
 31
0.0
  0
LINE
  5
4C4
330
6B
100
AcDbEntity
  8
0
 62
     3
100
AcDbLine
 10
324.318936
 20
-203.90941
 30
0.0
 11
410.318936
 21
-203.90941
 31
0.0
  0
LINE
  5
4C5
330
6B
100
AcDbEntity
  8
0
 62
     7
100
AcDbLine
 10
396.3189359999999
 20
-203.90941
 30
0.0
 11
396.318936
 21
-188.90941
 31
0.0
  0
LINE
  5
4C6
330
6B
100
AcDbEntity
  8
0
 62
     7
100
AcDbLine
 10
352.318936
 20
-203.90941
 30
0.0
 11
352.318936
 21
-188.90941
 31
0.0
  0
LINE
  5
4C7
330
6B
100
AcDbEntity
  8
0
 62
     7
100
AcDbLine
 10
334.318936
 20
-203.90941
 30
0.0
 11
334.318936
 21
-188.90941
 31
0.0
  0
LINE
  5
4C8
330
6B
100
AcDbEntity
  8
0
 62
     3
100
AcDbLine
 10
324.318936
 20
-203.90941
 30
0.0
 11
324.318936
 21
-183.90941
 31
0.0
  0
LINE
  5
D56
330
6B
100
AcDbEntity
  8
0
100
AcDbLine
 10
104.7888197655465
 20
-285.3502798802086
 30
0.0
 11
104.7888197655465
 21
-277.8502798802086
 31
0.0
  0
LINE
  5
D57
330
6B
100
AcDbEntity
  8
0
100
AcDbLine
 10
140.7888197655466
 20
-277.8502798802086
 30
0.0
 11
140.7888197655466
 21
-285.3502798802086
 31
0.0
  0
LINE
  5
D58
330
6B
100
AcDbEntity
  8
0
100
AcDbLine
 10
117.0388197655465
 20
-293.8502798802085
 30
0.0
 11
117.0388197655465
 21
-298.3502798802086
 31
0.0
  0
LINE
  5
D59
330
6B
100
AcDbEntity
  8
0
100
AcDbLine
 10
128.5388197655465
 20
-298.3502798802086
 30
0.0
 11
128.5388197655465
 21
-293.8502798802085
 31
0.0
  0
LINE
  5
D5A
330
6B
100
AcDbEntity
  8
0
100
AcDbLine
 10
127.5388197655465
 20
-297.8502798802085
 30
0.0
 11
127.5388197655465
 21
-294.3502798802086
 31
0.0
  0
LINE
  5
D5B
330
6B
100
AcDbEntity
  8
0
100
AcDbLine
 10
124.0388197655466
 20
-297.6002798802085
 30
0.0
 11
124.0388197655466
 21
-294.6002798802085
 31
0.0
  0
ARC
  5
D5C
330
6B
100
AcDbEntity
  8
0
100
AcDbCircle
 10
123.7888197655466
 20
-294.6002798802085
 30
0.0
 40
0.25
100
AcDbArc
 50
0.0
 51
90.0
  0
LINE
  5
D5D
330
6B
100
AcDbEntity
  8
0
100
AcDbLine
 10
121.5388197655466
 20
-297.6002798802085
 30
0.0
 11
121.5388197655466
 21
-294.6002798802085
 31
0.0
  0
LINE
  5
D5E
330
6B
100
AcDbEntity
  8
0
100
AcDbLine
 10
119.5388197655466
 20
-297.6002798802085
 30
0.0
 11
119.5388197655466
 21
-294.6002798802085
 31
0.0
  0
LINE
  5
D5F
330
6B
100
AcDbEntity
  8
0
 62
     3
100
AcDbLine
 10
113.7888197655466
 20
-288.3502798802085
 30
0.0
 11
113.7888197655466
 21
-303.8502798802085
 31
0.0
  0
LINE
  5
D60
330
6B
100
AcDbEntity
  8
0
 62
     3
100
AcDbLine
 10
131.7888197655465
 20
-303.8502798802085
 30
0.0
 11
131.7888197655465
 21
-288.3502798802085
 31
0.0
  0
LINE
  5
D61
330
6B
100
AcDbEntity
  8
0
 62
     3
100
AcDbLine
 10
67.78881976554656
 20
-245.8502798802086
 30
0.0
 11
67.78881976554656
 21
-312.8502798802085
 31
0.0
  0
LINE
  5
D62
330
6B
100
AcDbEntity
  8
0
100
AcDbLine
 10
68.28881976554658
 20
-245.8502798802086
 30
0.0
 11
68.28881976554658
 21
-312.8502798802085
 31
0.0
  0
LINE
  5
D63
330
6B
100
AcDbEntity
  8
0
 62
     3
100
AcDbLine
 10
177.7888197655466
 20
-245.8502798802086
 30
0.0
 11
177.7888197655466
 21
-312.8502798802085
 31
0.0
  0
LINE
  5
D64
330
6B
100
AcDbEntity
  8
0
100
AcDbLine
 10
177.2888197655464
 20
-245.8502798802086
 30
0.0
 11
177.2888197655464
 21
-312.8502798802085
 31
0.0
  0
LINE
  5
D65
330
6B
100
AcDbEntity
  8
0
 62
     3
100
AcDbLine
 10
174.2888197655464
 20
-242.3502798802085
 30
0.0
 11
71.28881976554658
 21
-242.3502798802085
 31
0.0
  0
LINE
  5
D66
330
6B
100
AcDbEntity
  8
0
100
AcDbLine
 10
174.2888197655464
 20
-242.8502798802085
 30
0.0
 11
71.28881976554658
 21
-242.8502798802085
 31
0.0
  0
LINE
  5
D67
330
6B
100
AcDbEntity
  8
0
 62
     3
100
AcDbLine
 10
236.603896411767
 20
-312.8502798802085
 30
0.0
 11
326.603896411767
 21
-312.8502798802085
 31
0.0
  0
LINE
  5
D68
330
6B
100
AcDbEntity
  8
0
 62
     3
100
AcDbLine
 10
326.603896411767
 20
-306.3502798802086
 30
0.0
 11
327.603896411767
 21
-306.3502798802086
 31
0.0
  0
LINE
  5
D69
330
6B
100
AcDbEntity
  8
0
 62
     3
100
AcDbLine
 10
326.603896411767
 20
-294.8502798802085
 30
0.0
 11
327.603896411767
 21
-294.8502798802085
 31
0.0
  0
LINE
  5
D6A
330
6B
100
AcDbEntity
  8
0
100
AcDbLine
 10
68.28881976554658
 20
-305.3502798802085
 30
0.0
 11
67.78881976554656
 21
-305.3502798802085
 31
0.0
  0
LINE
  5
D6B
330
6B
100
AcDbEntity
  8
0
100
AcDbLine
 10
177.2888197655464
 20
-305.3502798802085
 30
0.0
 11
177.7888197655466
 21
-305.3502798802085
 31
0.0
  0
LINE
  5
D6C
330
6B
100
AcDbEntity
  8
0
 62
     3
100
AcDbLine
 10
231.603896411767
 20
-242.3502798802085
 30
0.0
 11
231.603896411767
 21
-305.3502798802085
 31
0.0
  0
LINE
  5
D6D
330
6B
100
AcDbEntity
  8
0
 62
     3
100
AcDbLine
 10
228.853896411767
 20
-305.8502798802085
 30
0.0
 11
228.853896411767
 21
-306.8502798802085
 31
0.0
  0
LINE
  5
D6E
330
6B
100
AcDbEntity
  8
0
 62
     3
100
AcDbLine
 10
326.603896411767
 20
-242.3502798802085
 30
0.0
 11
326.603896411767
 21
-312.8502798802085
 31
0.0
  0
LINE
  5
D6F
330
6B
100
AcDbEntity
  8
0
100
AcDbLine
 10
315.103896411767
 20
-256.1002798802086
 30
0.0
 11
315.103896411767
 21
-269.6002798802085
 31
0.0
  0
LINE
  5
D70
330
6B
100
AcDbEntity
  8
0
100
AcDbLine
 10
313.603896411767
 20
-256.1002798802086
 30
0.0
 11
313.603896411767
 21
-269.6002798802085
 31
0.0
  0
LINE
  5
D71
330
6B
100
AcDbEntity
  8
0
 62
     3
100
AcDbLine
 10
327.603896411767
 20
-294.8502798802085
 30
0.0
 11
327.603896411767
 21
-306.3502798802086
 31
0.0
  0
ARC
  5
D72
330
6B
100
AcDbEntity
  8
0
 62
     3
100
AcDbCircle
 10
174.2888197655464
 20
-245.8502798802085
 30
0.0
 40
3.5
100
AcDbArc
 50
0.0
 51
90.0
  0
ARC
  5
D73
330
6B
100
AcDbEntity
  8
0
100
AcDbCircle
 10
174.2888197655464
 20
-245.8502798802085
 30
0.0
 40
3.0
100
AcDbArc
 50
0.0
 51
90.0
  0
ARC
  5
D74
330
6B
100
AcDbEntity
  8
0
 62
     3
100
AcDbCircle
 10
71.28881976554658
 20
-245.8502798802086
 30
0.0
 40
3.5
100
AcDbArc
 50
90.0
 51
180.0
  0
ARC
  5
D75
330
6B
100
AcDbEntity
  8
0
100
AcDbCircle
 10
71.28881976554658
 20
-245.8502798802086
 30
0.0
 40
3.0
100
AcDbArc
 50
90.0
 51
180.0
  0
LINE
  5
D76
330
6B
100
AcDbEntity
  8
0
 62
     3
100
AcDbLine
 10
231.603896411767
 20
-242.3502798802085
 30
0.0
 11
326.603896411767
 21
-242.3502798802085
 31
0.0
  0
LINE
  5
D77
330
6B
100
AcDbEntity
  8
0
 62
     3
100
AcDbLine
 10
354.7493798190014
 20
-318.8502798802086
 30
0.0
 11
363.2493798190016
 21
-318.8502798802086
 31
0.0
  0
LINE
  5
D78
330
6B
100
AcDbEntity
  8
0
 62
     3
100
AcDbLine
 10
350.4947258190016
 20
-350.3502798802085
 30
0.0
 11
350.4947258190016
 21
-350.8502798802085
 31
0.0
  0
ARC
  5
D79
330
6B
100
AcDbEntity
  8
0
 62
     3
100
AcDbCircle
 10
350.779337819002
 20
-349.1002798802085
 30
0.0
 40
1.279957999999999
100
AcDbArc
 50
102.4206920000021
 51
257.5793079999979
  0
ARC
  5
D7A
330
6B
100
AcDbEntity
  8
0
 62
     3
100
AcDbCircle
 10
363.3697258190017
 20
-329.2252798802085
 30
0.0
 40
0.375
100
AcDbArc
 50
0.0
 51
90.0
  0
LINE
  5
D7B
330
6B
100
AcDbEntity
  8
0
 62
     3
100
AcDbLine
 10
363.7447258190016
 20
-329.2252798802085
 30
0.0
 11
363.7447258190016
 21
-332.8106218802087
 31
0.0
  0
ARC
  5
D7C
330
6B
100
AcDbEntity
  8
0
 62
     3
100
AcDbCircle
 10
363.3697258190017
 20
-339.7252798802085
 30
0.0
 40
4.125
100
AcDbArc
 50
0.0
 51
56.94426899999733
  0
LINE
  5
D7D
330
6B
100
AcDbEntity
  8
0
 62
     3
100
AcDbLine
 10
367.4947258190016
 20
-339.7252798802085
 30
0.0
 11
367.4947258190016
 21
-347.8502798802085
 31
0.0
  0
ARC
  5
D7E
330
6B
100
AcDbEntity
  8
0
 62
     3
100
AcDbCircle
 10
367.2194218190016
 20
-349.1002798802085
 30
0.0
 40
1.279957999999999
100
AcDbArc
 50
282.4206920000021
 51
77.5793079999979
  0
ARC
  5
D7F
330
6B
100
AcDbEntity
  8
0
 62
     3
100
AcDbCircle
 10
354.6197258190016
 20
-329.2252798802085
 30
0.0
 40
0.375
100
AcDbArc
 50
90.0
 51
180.0
  0
LINE
  5
D80
330
6B
100
AcDbEntity
  8
0
 62
     3
100
AcDbLine
 10
354.2447258190017
 20
-329.2252798802085
 30
0.0
 11
354.2447258190017
 21
-333.0875838802085
 31
0.0
  0
LINE
  5
D81
330
6B
100
AcDbEntity
  8
0
 62
     3
100
AcDbLine
 10
362.7493798190014
 20
-320.3502798802085
 30
0.0
 11
362.9993798190016
 21
-328.8502798802086
 31
0.0
  0
LINE
  5
D82
330
6B
100
AcDbEntity
  8
0
 62
     3
100
AcDbLine
 10
355.2493798190018
 20
-320.3502798802085
 30
0.0
 11
354.9993798190016
 21
-328.8502798802086
 31
0.0
  0
ARC
  5
D83
330
6B
100
AcDbEntity
  8
0
 62
     3
100
AcDbCircle
 10
363.2493798190016
 20
-319.6002798802085
 30
0.0
 40
0.75
100
AcDbArc
 50
270.0
 51
90.0
  0
ARC
  5
D84
330
6B
100
AcDbEntity
  8
0
 62
     3
100
AcDbCircle
 10
354.7493798190014
 20
-319.6002798802085
 30
0.0
 40
0.75
100
AcDbArc
 50
90.0
 51
270.0
  0
LINE
  5
D85
330
6B
100
AcDbEntity
  8
0
 62
     3
100
AcDbLine
 10
350.4993798190016
 20
-339.5293828802085
 30
0.0
 11
350.4993798190016
 21
-347.8502798802085
 31
0.0
  0
LINE
  5
D86
330
6B
100
AcDbEntity
  8
0
 62
     3
100
AcDbLine
 10
350.5243798190015
 20
-350.3502798802085
 30
0.0
 11
350.5243798190015
 21
-350.8502798802085
 31
0.0
  0
LINE
  5
D87
330
6B
100
AcDbEntity
  8
0
 62
     3
100
AcDbLine
 10
367.5243798190015
 20
-350.3298628802087
 30
0.0
 11
367.5243798190015
 21
-350.8502798802085
 31
0.0
  0
ARC
  5
D88
330
6B
100
AcDbEntity
  8
0
 62
     3
100
AcDbCircle
 10
354.6197258190016
 20
-339.7252798802085
 30
0.0
 40
4.125
100
AcDbArc
 50
125.0110389999984
 51
180.0
  0
ARC
  5
D89
330
6B
100
AcDbEntity
  8
0
 62
     3
100
AcDbCircle
 10
350.129033819002
 20
-332.8106218802087
 30
0.0
 40
4.125
100
AcDbArc
 50
300.9919899999973
 51
0.0
  0
LINE
  5
D8A
330
6B
100
AcDbEntity
  8
0
 62
     3
100
AcDbLine
 10
383.4920058190015
 20
-326.8207418802085
 30
0.0
 11
380.9920058190014
 21
-326.8207418802085
 31
0.0
  0
LINE
  5
D8B
330
6B
100
AcDbEntity
  8
0
 62
     3
100
AcDbLine
 10
383.4920058190015
 20
-334.3766368802087
 30
0.0
 11
383.4920058190015
 21
-326.8207418802085
 31
0.0
  0
LINE
  5
D8C
330
6B
100
AcDbEntity
  8
0
 62
     3
100
AcDbLine
 10
380.9920058190014
 20
-334.3766368802087
 30
0.0
 11
380.9920058190014
 21
-326.8207418802085
 31
0.0
  0
LINE
  5
D8D
330
6B
100
AcDbEntity
  8
0
 62
     3
100
AcDbLine
 10
385.9920058190015
 20
-345.5956798802084
 30
0.0
 11
385.9920058190015
 21
-349.5707418802085
 31
0.0
  0
LINE
  5
D8E
330
6B
100
AcDbEntity
  8
0
 62
     3
100
AcDbLine
 10
378.4920058190016
 20
-345.5956798802084
 30
0.0
 11
378.4920058190016
 21
-349.5707418802085
 31
0.0
  0
ARC
  5
D8F
330
6B
100
AcDbEntity
  8
0
 62
     3
100
AcDbCircle
 10
385.4920058190015
 20
-345.5956798802084
 30
0.0
 40
0.5
100
AcDbArc
 50
0.0
 51
5.710592999999581
  0
ARC
  5
D90
330
6B
100
AcDbEntity
  8
0
 62
     3
100
AcDbCircle
 10
378.9920058190014
 20
-345.5956798802084
 30
0.0
 40
0.5
100
AcDbArc
 50
174.2894070000004
 51
180.0
  0
LINE
  5
D91
330
6B
100
AcDbEntity
  8
0
 62
     3
100
AcDbLine
 10
385.9920058190015
 20
-344.6715068802086
 30
0.0
 11
385.9920058190015
 21
-345.5707418802085
 31
0.0
  0
LINE
  5
D92
330
6B
100
AcDbEntity
  8
0
 62
     3
100
AcDbLine
 10
378.4920058190016
 20
-344.6715068802086
 30
0.0
 11
378.4920058190016
 21
-345.5956798802084
 31
0.0
  0
LINE
  5
D93
330
6B
100
AcDbEntity
  8
0
 62
     3
100
AcDbLine
 10
384.1281808190014
 20
-337.8864498802087
 30
0.0
 11
385.3558308190015
 21
-341.1616948802085
 31
0.0
  0
LINE
  5
D94
330
6B
100
AcDbEntity
  8
0
 62
     3
100
AcDbLine
 10
380.3558308190016
 20
-337.8864498802087
 30
0.0
 11
379.1281808190019
 21
-341.1616948802085
 31
0.0
  0
ARC
  5
D95
330
6B
100
AcDbEntity
  8
0
 62
     3
100
AcDbCircle
 10
375.9920058190016
 20
-344.6715068802086
 30
0.0
 40
10.0
100
AcDbArc
 50
0.0
 51
20.54734700000128
  0
ARC
  5
D96
330
6B
100
AcDbEntity
  8
0
 62
     3
100
AcDbCircle
 10
388.4920058190017
 20
-344.6715068802086
 30
0.0
 40
10.0
100
AcDbArc
 50
159.4526529999987
 51
180.0
  0
ARC
  5
D99
330
6B
100
AcDbEntity
  8
0
 62
     3
100
AcDbCircle
 10
393.4920058190014
 20
-334.3766368802087
 30
0.0
 40
10.0
100
AcDbArc
 50
180.0
 51
200.5473470000013
  0
ARC
  5
D9A
330
6B
100
AcDbEntity
  8
0
 62
     3
100
AcDbCircle
 10
370.9920058190015
 20
-334.3766368802087
 30
0.0
 40
10.0
100
AcDbArc
 50
339.4526529999987
 51
0.0
  0
LINE
  5
D9B
330
6B
100
AcDbEntity
  8
0
 62
     3
100
AcDbLine
 10
385.4920058190015
 20
-350.5707418802085
 30
0.0
 11
378.9920058190014
 21
-350.5707418802085
 31
0.0
  0
LINE
  5
D9C
330
6B
100
AcDbEntity
  8
0
100
AcDbLine
 10
383.1920058190016
 20
-350.5707418802085
 30
0.0
 11
383.1920058190016
 21
-351.5707418802085
 31
0.0
  0
LINE
  5
D9D
330
6B
100
AcDbEntity
  8
0
100
AcDbLine
 10
381.2920058190016
 20
-350.5707418802085
 30
0.0
 11
381.2920058190016
 21
-351.5707418802085
 31
0.0
  0
LINE
  5
D9E
330
6B
100
AcDbEntity
  8
0
100
AcDbLine
 10
380.9920058190014
 20
-351.5707418802085
 30
0.0
 11
380.9920058190014
 21
-350.5707418802085
 31
0.0
  0
LINE
  5
D9F
330
6B
100
AcDbEntity
  8
0
100
AcDbLine
 10
383.4920058190015
 20
-351.5707418802085
 30
0.0
 11
383.4920058190015
 21
-350.5707418802085
 31
0.0
  0
LINE
  5
DA0
330
6B
100
AcDbEntity
  8
0
100
AcDbLine
 10
381.7420058190015
 20
-352.3207418802085
 30
0.0
 11
382.7420058190014
 21
-352.3207418802085
 31
0.0
  0
LINE
  5
DA1
330
6B
100
AcDbEntity
  8
0
100
AcDbLine
 10
381.7420058190015
 20
-352.0207418802085
 30
0.0
 11
382.7420058190014
 21
-352.0207418802085
 31
0.0
  0
ARC
  5
DA2
330
6B
100
AcDbEntity
  8
0
100
AcDbCircle
 10
382.7420058190014
 20
-351.5707418802085
 30
0.0
 40
0.75
100
AcDbArc
 50
270.0
 51
0.0
  0
ARC
  5
DA3
330
6B
100
AcDbEntity
  8
0
100
AcDbCircle
 10
381.7420058190015
 20
-351.5707418802085
 30
0.0
 40
0.75
100
AcDbArc
 50
180.0
 51
270.0
  0
ARC
  5
DA4
330
6B
100
AcDbEntity
  8
0
100
AcDbCircle
 10
382.7420058190014
 20
-351.5707418802085
 30
0.0
 40
0.45
100
AcDbArc
 50
270.0
 51
0.0
  0
ARC
  5
DA5
330
6B
100
AcDbEntity
  8
0
100
AcDbCircle
 10
381.7420058190015
 20
-351.5707418802085
 30
0.0
 40
0.45
100
AcDbArc
 50
180.0
 51
270.0
  0
LINE
  5
DAA
330
6B
100
AcDbEntity
  8
0
100
AcDbLine
 10
359.4947258190016
 20
-322.1002798802085
 30
0.0
 11
359.4947258190016
 21
-321.1002798802085
 31
0.0
  0
LINE
  5
DAB
330
6B
100
AcDbEntity
  8
0
100
AcDbLine
 10
359.4947258190016
 20
-327.3502798802085
 30
0.0
 11
359.4947258190016
 21
-326.3502798802085
 31
0.0
  0
LINE
  5
DAC
330
6B
100
AcDbEntity
  8
0
100
AcDbLine
 10
359.4947258190016
 20
-325.6002798802085
 30
0.0
 11
359.4947258190016
 21
-324.6002798802085
 31
0.0
  0
LINE
  5
DAD
330
6B
100
AcDbEntity
  8
0
100
AcDbLine
 10
359.4947258190016
 20
-323.8502798802085
 30
0.0
 11
359.4947258190016
 21
-322.8502798802086
 31
0.0
  0
LINE
  5
DAE
330
6B
100
AcDbEntity
  8
0
100
AcDbLine
 10
358.9993798190014
 20
-320.3502798802085
 30
0.0
 11
363.2493798190016
 21
-320.3502798802085
 31
0.0
  0
LINE
  5
DAF
330
6B
100
AcDbEntity
  8
0
100
AcDbLine
 10
359.4947258190016
 20
-327.3502798802085
 30
0.0
 11
362.9552618190015
 21
-327.3502798802085
 31
0.0
  0
LINE
  5
DB0
330
6B
100
AcDbEntity
  8
0
100
AcDbLine
 10
359.4947258190016
 20
-325.6002798802085
 30
0.0
 11
362.9037918190015
 21
-325.6002798802085
 31
0.0
  0
LINE
  5
DB1
330
6B
100
AcDbEntity
  8
0
100
AcDbLine
 10
359.4947258190016
 20
-323.8502798802085
 30
0.0
 11
362.8523208190015
 21
-323.8502798802085
 31
0.0
  0
LINE
  5
DB2
330
6B
100
AcDbEntity
  8
0
100
AcDbLine
 10
359.4947258190016
 20
-326.3502798802085
 30
0.0
 11
362.9258508190016
 21
-326.3502798802085
 31
0.0
  0
LINE
  5
DB3
330
6B
100
AcDbEntity
  8
0
100
AcDbLine
 10
359.4947258190016
 20
-324.6002798802085
 30
0.0
 11
362.8743798190019
 21
-324.6002798802085
 31
0.0
  0
LINE
  5
DB4
330
6B
100
AcDbEntity
  8
0
100
AcDbLine
 10
359.4947258190016
 20
-322.8502798802086
 30
0.0
 11
362.8229098190018
 21
-322.8502798802086
 31
0.0
  0
LINE
  5
DB5
330
6B
100
AcDbEntity
  8
0
100
AcDbLine
 10
359.4947258190016
 20
-322.1002798802085
 30
0.0
 11
362.8008508190018
 21
-322.1002798802085
 31
0.0
  0
LINE
  5
DB6
330
6B
100
AcDbEntity
  8
0
100
AcDbLine
 10
359.4947258190016
 20
-321.1002798802085
 30
0.0
 11
362.7714388190016
 21
-321.1002798802085
 31
0.0
  0
LINE
  5
DB7
330
6B
100
AcDbEntity
  8
0
100
AcDbLine
 10
358.4947258190017
 20
-327.3502798802085
 30
0.0
 11
358.4947258190017
 21
-326.3502798802085
 31
0.0
  0
LINE
  5
DB8
330
6B
100
AcDbEntity
  8
0
100
AcDbLine
 10
358.4947258190017
 20
-325.6002798802085
 30
0.0
 11
358.4947258190017
 21
-324.6002798802085
 31
0.0
  0
LINE
  5
DB9
330
6B
100
AcDbEntity
  8
0
100
AcDbLine
 10
358.4947258190017
 20
-323.8502798802085
 30
0.0
 11
358.4947258190017
 21
-322.8502798802086
 31
0.0
  0
LINE
  5
DBA
330
6B
100
AcDbEntity
  8
0
100
AcDbLine
 10
358.4947258190017
 20
-322.1002798802085
 30
0.0
 11
358.4947258190017
 21
-321.1002798802085
 31
0.0
  0
LINE
  5
DBB
330
6B
100
AcDbEntity
  8
0
100
AcDbLine
 10
358.9993798190014
 20
-320.3502798802085
 30
0.0
 11
354.7493798190014
 21
-320.3502798802085
 31
0.0
  0
LINE
  5
DBC
330
6B
100
AcDbEntity
  8
0
100
AcDbLine
 10
355.0434978190019
 20
-327.3502798802085
 30
0.0
 11
358.4947258190017
 21
-327.3502798802085
 31
0.0
  0
LINE
  5
DBD
330
6B
100
AcDbEntity
  8
0
100
AcDbLine
 10
355.0949678190018
 20
-325.6002798802085
 30
0.0
 11
358.4947258190017
 21
-325.6002798802085
 31
0.0
  0
LINE
  5
DBE
330
6B
100
AcDbEntity
  8
0
100
AcDbLine
 10
355.1464388190016
 20
-323.8502798802085
 30
0.0
 11
358.4947258190017
 21
-323.8502798802085
 31
0.0
  0
LINE
  5
DBF
330
6B
100
AcDbEntity
  8
0
100
AcDbLine
 10
355.0729098190016
 20
-326.3502798802085
 30
0.0
 11
358.4947258190017
 21
-326.3502798802085
 31
0.0
  0
LINE
  5
DC0
330
6B
100
AcDbEntity
  8
0
100
AcDbLine
 10
355.1243798190014
 20
-324.6002798802085
 30
0.0
 11
358.4947258190017
 21
-324.6002798802085
 31
0.0
  0
LINE
  5
DC1
330
6B
100
AcDbEntity
  8
0
100
AcDbLine
 10
355.1758508190017
 20
-322.8502798802086
 30
0.0
 11
358.4947258190017
 21
-322.8502798802086
 31
0.0
  0
LINE
  5
DC2
330
6B
100
AcDbEntity
  8
0
100
AcDbLine
 10
358.4947258190017
 20
-322.1002798802085
 30
0.0
 11
355.197909819002
 21
-322.1002798802085
 31
0.0
  0
LINE
  5
DC3
330
6B
100
AcDbEntity
  8
0
100
AcDbLine
 10
358.4947258190017
 20
-321.1002798802085
 30
0.0
 11
355.2273208190015
 21
-321.1002798802085
 31
0.0
  0
LINE
  5
DC4
330
6B
100
AcDbEntity
  8
0
100
AcDbLine
 10
361.9697258190019
 20
-327.3502798802085
 30
0.0
 11
361.9697258190019
 21
-326.3502798802085
 31
0.0
  0
LINE
  5
DC5
330
6B
100
AcDbEntity
  8
0
100
AcDbLine
 10
361.9697258190019
 20
-325.6002798802085
 30
0.0
 11
361.9697258190019
 21
-324.6002798802085
 31
0.0
  0
LINE
  5
DC6
330
6B
100
AcDbEntity
  8
0
100
AcDbLine
 10
361.9697258190019
 20
-323.8502798802085
 30
0.0
 11
361.9697258190019
 21
-322.8502798802086
 31
0.0
  0
LINE
  5
DC7
330
6B
100
AcDbEntity
  8
0
100
AcDbLine
 10
361.9697258190019
 20
-322.1002798802085
 30
0.0
 11
361.9697258190019
 21
-321.1002798802085
 31
0.0
  0
LINE
  5
DC8
330
6B
100
AcDbEntity
  8
0
100
AcDbLine
 10
356.0197258190019
 20
-322.1002798802085
 30
0.0
 11
356.0197258190019
 21
-321.1002798802085
 31
0.0
  0
LINE
  5
DC9
330
6B
100
AcDbEntity
  8
0
100
AcDbLine
 10
356.0197258190019
 20
-323.8502798802085
 30
0.0
 11
356.0197258190019
 21
-322.8502798802086
 31
0.0
  0
LINE
  5
DCA
330
6B
100
AcDbEntity
  8
0
100
AcDbLine
 10
356.0197258190019
 20
-325.6002798802085
 30
0.0
 11
356.0197258190019
 21
-324.6002798802085
 31
0.0
  0
LINE
  5
DCB
330
6B
100
AcDbEntity
  8
0
100
AcDbLine
 10
356.0197258190019
 20
-327.3502798802085
 30
0.0
 11
356.0197258190019
 21
-326.3502798802085
 31
0.0
  0
LINE
  5
DCC
330
6B
100
AcDbEntity
  8
0
100
AcDbLine
 10
367.5243798190015
 20
-350.3433778802084
 30
0.0
 11
350.5243798190015
 21
-350.3433778802084
 31
0.0
  0
LINE
  5
DCD
330
6B
100
AcDbEntity
  8
0
100
AcDbLine
 10
367.6085458190014
 20
-347.8809048802085
 30
0.0
 11
350.3902148190016
 21
-347.8809048802085
 31
0.0
  0
LINE
  5
DCE
330
6B
100
AcDbEntity
  8
0
100
AcDbLine
 10
382.9908028190017
 20
-324.3324428802087
 30
0.0
 11
382.9908028190017
 21
-318.2689128802085
 31
0.0
  0
LINE
  5
DCF
330
6B
100
AcDbEntity
  8
0
100
AcDbLine
 10
382.9908028190017
 20
-325.3753638802085
 30
0.0
 11
382.9908028190017
 21
-326.8207418802085
 31
0.0
  0
LINE
  5
DD0
330
6B
100
AcDbEntity
  8
0
100
AcDbLine
 10
381.4906558190017
 20
-324.2599978802085
 30
0.0
 11
381.4906558190017
 21
-318.3324778802085
 31
0.0
  0
LINE
  5
DD1
330
6B
100
AcDbEntity
  8
0
100
AcDbLine
 10
381.4907288190018
 20
-324.2600068802084
 30
0.0
 11
381.4907288190018
 21
-312.2713670259464
 31
0.0
  0
LINE
  5
DD2
330
6B
100
AcDbEntity
  8
0
100
AcDbLine
 10
382.9907288190016
 20
-324.3324478802085
 30
0.0
 11
382.9907288190016
 21
-312.2713670259464
 31
0.0
  0
LINE
  5
DD3
330
6B
100
AcDbEntity
  8
0
100
AcDbLine
 10
382.9907288190016
 20
-325.3734848802086
 30
0.0
 11
382.9907288190016
 21
-326.8207418802085
 31
0.0
  0
LINE
  5
DD4
330
6B
100
AcDbEntity
  8
0
100
AcDbLine
 10
381.4907288190018
 20
-325.3029158802085
 30
0.0
 11
381.4907288190018
 21
-326.8207418802085
 31
0.0
  0
LINE
  5
DD5
330
6B
100
AcDbEntity
  8
0
100
AcDbLine
 10
373.8659965275259
 20
-336.1971676492158
 30
0.0
 11
373.8659965275259
 21
-312.2713670259464
 31
0.0
  0
LINE
  5
DD6
330
6B
100
AcDbEntity
  8
0
100
AcDbLine
 10
375.3659965275259
 20
-336.1971676492158
 30
0.0
 11
375.3659965275259
 21
-312.2713670259464
 31
0.0
  0
ARC
  5
DD7
330
6B
100
AcDbEntity
  8
0
100
AcDbCircle
 10
367.8697258190017
 20
-332.8106218802087
 30
0.0
 40
4.125
100
AcDbArc
 50
180.0
 51
236.9442689999973
  0
LINE
  5
DD8
330
6B
100
AcDbEntity
  8
0
 62
     3
100
AcDbLine
 10
367.5243798190015
 20
-350.8502798802085
 30
0.0
 11
350.5243798190015
 21
-350.8502798802085
 31
0.0
  0
LINE
  5
DD9
330
6B
100
AcDbEntity
  8
0
 62
     3
100
AcDbLine
 10
354.6197258190016
 20
-328.8502798802086
 30
0.0
 11
363.3697258190017
 21
-328.8502798802086
 31
0.0
  0
LINE
  5
DDA
330
6B
100
AcDbEntity
  8
0
 62
     7
100
AcDbLine
 10
355.9920738190019
 20
-360.3877798802085
 30
0.0
 11
355.9920738190019
 21
-350.8502798802085
 31
0.0
  0
LINE
  5
DDB
330
6B
100
AcDbEntity
  8
0
 62
     7
100
AcDbLine
 10
353.6670738190015
 20
-360.3877798802085
 30
0.0
 11
353.6670738190015
 21
-350.8502798802085
 31
0.0
  0
ARC
  5
DDC
330
6B
100
AcDbEntity
  8
0
 62
     7
100
AcDbCircle
 10
354.8295738190018
 20
-360.3877798802085
 30
0.0
 40
1.1625
100
AcDbArc
 50
180.0
 51
0.0
  0
LINE
  5
DDD
330
6B
100
AcDbEntity
  8
0
 62
     7
100
AcDbLine
 10
362.1493798190015
 20
-350.8502798802085
 30
0.0
 11
362.1493798190015
 21
-358.6002798802085
 31
0.0
  0
ARC
  5
DDE
330
6B
100
AcDbEntity
  8
0
 62
     7
100
AcDbCircle
 10
360.5743798190018
 20
-357.3215298802085
 30
0.0
 40
2.02875
100
AcDbArc
 50
270.0
 51
320.9266900000015
  0
CIRCLE
  5
DDF
330
6B
100
AcDbEntity
  8
0
 62
     7
100
AcDbCircle
 10
360.5743798190018
 20
-356.7002798802084
 30
0.0
 40
0.75
  0
LINE
  5
DE0
330
6B
100
AcDbEntity
  8
0
 62
     7
100
AcDbLine
 10
358.9993798190014
 20
-350.8502798802085
 30
0.0
 11
358.9993798190014
 21
-358.6002798802085
 31
0.0
  0
ARC
  5
DE1
330
6B
100
AcDbEntity
  8
0
 62
     7
100
AcDbCircle
 10
360.5743798190018
 20
-357.3215298802085
 30
0.0
 40
2.02875
100
AcDbArc
 50
219.0733099999985
 51
270.0
  0
LINE
  5
DE2
330
6B
100
AcDbEntity
  8
0
 62
     7
100
AcDbLine
 10
360.5743798190018
 20
-358.6002798802085
 30
0.0
 11
358.9993798190014
 21
-358.6002798802085
 31
0.0
  0
LINE
  5
DE3
330
6B
100
AcDbEntity
  8
0
 62
     7
100
AcDbLine
 10
360.5743798190018
 20
-358.6002798802085
 30
0.0
 11
362.1493798190015
 21
-358.6002798802085
 31
0.0
  0
LINE
  5
DE4
330
6B
100
AcDbEntity
  8
0
 62
     3
100
AcDbLine
 10
363.7447258190016
 20
-331.0179508802085
 30
0.0
 11
368.1913460583585
 21
-335.645646086988
 31
0.0
  0
LINE
  5
DE5
330
6B
100
AcDbEntity
  8
0
 62
     3
100
AcDbLine
 10
368.1913460583585
 20
-335.645646086988
 30
0.0
 11
366.6066483537779
 21
-337.1683368804804
 31
0.0
  0
LINE
  5
DE6
330
6B
100
AcDbEntity
  8
0
100
AcDbLine
 10
369.7233334583166
 20
-337.8378480105416
 30
0.0
 11
367.9141267161394
 21
-335.9120182404623
 31
0.0
  0
LINE
  5
DE7
330
6B
100
AcDbEntity
  8
0
100
AcDbLine
 10
368.6300879587733
 20
-338.864889527584
 30
0.0
 11
366.8324481478803
 21
-336.9513723031613
 31
0.0
  0
ARC
  5
DE8
330
6B
100
AcDbEntity
  8
0
100
AcDbCircle
 10
378.4283626732638
 20
-312.2713670259464
 30
0.0
 40
4.562366145737731
100
AcDbArc
 50
0.0
 51
180.0
  0
ARC
  5
DE9
330
6B
100
AcDbEntity
  8
0
100
AcDbCircle
 10
378.4283626732638
 20
-312.2713670259464
 30
0.0
 40
3.062366145737732
100
AcDbArc
 50
0.0
 51
180.0
  0
ARC
  5
DEA
330
6B
100
AcDbEntity
  8
0
100
AcDbCircle
 10
371.4697734916009
 20
-336.1971676492158
 30
0.0
 40
2.396223035925203
100
AcDbArc
 50
223.2115738316335
 51
0.0
  0
ARC
  5
DEB
330
6B
100
AcDbEntity
  8
0
100
AcDbCircle
 10
371.4697734916009
 20
-336.1971676492158
 30
0.0
 40
3.896223035925201
100
AcDbArc
 50
223.2115738316335
 51
0.0
  0
LINE
  5
DEC
330
6B
100
AcDbEntity
  8
0
 62
     3
100
AcDbLine
 10
140.5388197655463
 20
-231.8502798802085
 30
0.0
 11
105.0388197655466
 21
-231.8502798802085
 31
0.0
  0
LINE
  5
DED
330
6B
100
AcDbEntity
  8
0
 62
     3
100
AcDbLine
 10
90.28881976554655
 20
-242.3502798802085
 30
0.0
 11
97.09783675992127
 21
-228.7322458914587
 31
0.0
  0
ARC
  5
DEE
330
6B
100
AcDbEntity
  8
0
 62
     3
100
AcDbCircle
 10
99.33390473742115
 20
-229.8502798802085
 30
0.0
 40
2.5
100
AcDbArc
 50
90.0
 51
153.4349488229285
  0
LINE
  5
DEF
330
6B
100
AcDbEntity
  8
0
 62
     3
100
AcDbLine
 10
155.2888197655463
 20
-242.3502798802085
 30
0.0
 11
148.4798027711715
 21
-228.7322458914587
 31
0.0
  0
ARC
  5
DF0
330
6B
100
AcDbEntity
  8
0
 62
     3
100
AcDbCircle
 10
146.2437347936716
 20
-229.8502798802085
 30
0.0
 40
2.5
100
AcDbArc
 50
26.56505117707145
 51
90.0
  0
LINE
  5
DF1
330
6B
100
AcDbEntity
  8
0
 62
     3
100
AcDbLine
 10
146.2437347936716
 20
-227.3502798802085
 30
0.0
 11
99.33390473742115
 21
-227.3502798802085
 31
0.0
  0
ARC
  5
DF2
330
6B
100
AcDbEntity
  8
0
 62
     3
100
AcDbCircle
 10
140.5388197655463
 20
-233.3502798802086
 30
0.0
 40
1.5
100
AcDbArc
 50
0.0
 51
89.99999999999348
  0
ARC
  5
DF3
330
6B
100
AcDbEntity
  8
0
 62
     3
100
AcDbCircle
 10
105.0388197655466
 20
-233.3502798802086
 30
0.0
 40
1.5
100
AcDbArc
 50
90.0
 51
180.0
  0
LINE
  5
DF4
330
6B
100
AcDbEntity
  8
0
 62
     3
100
AcDbLine
 10
142.0388197655461
 20
-242.3502798802085
 30
0.0
 11
142.0388197655461
 21
-233.3502798802086
 31
0.0
  0
LINE
  5
DF5
330
6B
100
AcDbEntity
  8
0
 62
     3
100
AcDbLine
 10
103.5388197655465
 20
-242.3502798802085
 30
0.0
 11
103.5388197655465
 21
-233.3502798802086
 31
0.0
  0
LINE
  5
DF6
330
6B
100
AcDbEntity
  8
0
 62
     3
100
AcDbLine
 10
231.603896411767
 20
-305.3502798802085
 30
0.0
 11
236.603896411767
 21
-312.8502798802085
 31
0.0
  0
LINE
  5
DF7
330
6B
100
AcDbEntity
  8
0
 62
     3
100
AcDbLine
 10
67.78881976554656
 20
-312.8502798802085
 30
0.0
 11
177.7888197655466
 21
-312.8502798802085
 31
0.0
  0
LINE
  5
DF8
330
6B
100
AcDbEntity
  8
0
 62
     3
100
AcDbLine
 10
113.7888197655466
 20
-303.8502798802085
 30
0.0
 11
131.7888197655465
 21
-303.8502798802085
 31
0.0
  0
LINE
  5
DFA
330
6B
100
AcDbEntity
  8
0
 62
     3
100
AcDbLine
 10
113.7888197655466
 20
-288.3502798802085
 30
0.0
 11
131.7888197655465
 21
-288.3502798802085
 31
0.0
  0
LINE
  5
DFC
330
6B
100
AcDbEntity
  8
0
100
AcDbLine
 10
104.7888197655465
 20
-285.3502798802086
 30
0.0
 11
140.7888197655466
 21
-285.3502798802086
 31
0.0
  0
LINE
  5
DFD
330
6B
100
AcDbEntity
  8
0
 62
     3
100
AcDbLine
 10
76.03881976554657
 20
-312.8502798802085
 30
0.0
 11
76.78881976554658
 21
-318.8502798802086
 31
0.0
  0
LINE
  5
DFE
330
6B
100
AcDbEntity
  8
0
 62
     3
100
AcDbLine
 10
76.78881976554658
 20
-318.8502798802086
 30
0.0
 11
85.28881976554655
 21
-318.8502798802086
 31
0.0
  0
LINE
  5
DFF
330
6B
100
AcDbEntity
  8
0
 62
     3
100
AcDbLine
 10
86.03881976554657
 20
-312.8502798802085
 30
0.0
 11
85.28881976554655
 21
-318.8502798802086
 31
0.0
  0
LINE
  5
E00
330
6B
100
AcDbEntity
  8
0
 62
     3
100
AcDbLine
 10
159.5388197655466
 20
-312.8502798802085
 30
0.0
 11
160.2888197655466
 21
-318.8502798802086
 31
0.0
  0
LINE
  5
E01
330
6B
100
AcDbEntity
  8
0
 62
     3
100
AcDbLine
 10
160.2888197655466
 20
-318.8502798802086
 30
0.0
 11
168.7888197655466
 21
-318.8502798802086
 31
0.0
  0
LINE
  5
E02
330
6B
100
AcDbEntity
  8
0
 62
     3
100
AcDbLine
 10
169.5388197655466
 20
-312.8502798802085
 30
0.0
 11
168.7888197655466
 21
-318.8502798802086
 31
0.0
  0
LINE
  5
E03
330
6B
100
AcDbEntity
  8
0
 62
     3
100
AcDbLine
 10
246.603896411767
 20
-312.8502798802085
 30
0.0
 11
247.353896411767
 21
-318.8502798802086
 31
0.0
  0
LINE
  5
E04
330
6B
100
AcDbEntity
  8
0
 62
     3
100
AcDbLine
 10
247.353896411767
 20
-318.8502798802086
 30
0.0
 11
255.853896411767
 21
-318.8502798802086
 31
0.0
  0
LINE
  5
E05
330
6B
100
AcDbEntity
  8
0
 62
     3
100
AcDbLine
 10
256.603896411767
 20
-312.8502798802085
 30
0.0
 11
255.853896411767
 21
-318.8502798802086
 31
0.0
  0
LINE
  5
E06
330
6B
100
AcDbEntity
  8
0
 62
     3
100
AcDbLine
 10
311.603896411767
 20
-312.8502798802085
 30
0.0
 11
312.353896411767
 21
-318.8502798802086
 31
0.0
  0
LINE
  5
E07
330
6B
100
AcDbEntity
  8
0
 62
     3
100
AcDbLine
 10
312.353896411767
 20
-318.8502798802086
 30
0.0
 11
320.853896411767
 21
-318.8502798802086
 31
0.0
  0
LINE
  5
E08
330
6B
100
AcDbEntity
  8
0
 62
     3
100
AcDbLine
 10
321.603896411767
 20
-312.8502798802085
 30
0.0
 11
320.853896411767
 21
-318.8502798802086
 31
0.0
  0
LINE
  5
E09
330
6B
100
AcDbEntity
  8
0
 62
     3
100
AcDbLine
 10
90.78881976554681
 20
-306.8502798802085
 30
0.0
 11
84.7888197655468
 21
-306.8502798802085
 31
0.0
  0
LINE
  5
E0A
330
6B
100
AcDbEntity
  8
0
 62
     3
100
AcDbLine
 10
90.78881976554681
 20
-305.8502798802085
 30
0.0
 11
84.7888197655468
 21
-305.8502798802085
 31
0.0
  0
LINE
  5
E0B
330
6B
100
AcDbEntity
  8
0
 62
     3
100
AcDbLine
 10
83.04540327529412
 20
-265.3502798802086
 30
0.0
 11
92.53223625579904
 21
-265.3502798802086
 31
0.0
  0
LINE
  5
E0C
330
6B
100
AcDbEntity
  8
0
 62
     3
100
AcDbLine
 10
83.04540327529412
 20
-278.8502798802087
 30
0.0
 11
92.53223625579904
 21
-278.8502798802087
 31
0.0
  0
ARC
  5
E0D
330
6B
100
AcDbEntity
  8
0
 62
     3
100
AcDbCircle
 10
87.7888197655468
 20
-272.1002798802086
 30
0.0
 40
8.25
100
AcDbArc
 50
305.096801227583
 51
54.90319877241699
  0
ARC
  5
E0E
330
6B
100
AcDbEntity
  8
0
 62
     3
100
AcDbCircle
 10
87.7888197655468
 20
-272.1002798802086
 30
0.0
 40
8.25
100
AcDbArc
 50
125.096801227583
 51
234.903198772417
  0
LINE
  5
E0F
330
6B
100
AcDbEntity
  8
0
 62
     3
100
AcDbLine
 10
83.04540327529412
 20
-284.8502798802085
 30
0.0
 11
92.53223625579904
 21
-284.8502798802085
 31
0.0
  0
LINE
  5
E10
330
6B
100
AcDbEntity
  8
0
 62
     3
100
AcDbLine
 10
84.11381976554663
 20
-287.6002798802086
 30
0.0
 11
84.11381976554663
 21
-292.1002798802085
 31
0.0
  0
LINE
  5
E11
330
6B
100
AcDbEntity
  8
0
 62
     3
100
AcDbLine
 10
85.11381976554662
 20
-287.6002798802086
 30
0.0
 11
85.11381976554662
 21
-292.1002798802085
 31
0.0
  0
LINE
  5
E12
330
6B
100
AcDbEntity
  8
0
 62
     3
100
AcDbLine
 10
90.46381976554675
 20
-288.1002798802085
 30
0.0
 11
90.46381976554675
 21
-291.6002798802086
 31
0.0
  0
LINE
  5
E13
330
6B
100
AcDbEntity
  8
0
 62
     3
100
AcDbLine
 10
91.46381976554652
 20
-288.1002798802085
 30
0.0
 11
91.46381976554652
 21
-291.6002798802086
 31
0.0
  0
LINE
  5
E14
330
6B
100
AcDbEntity
  8
0
 62
     3
100
AcDbLine
 10
83.04540327529412
 20
-298.3502798802085
 30
0.0
 11
92.53223625579904
 21
-298.3502798802085
 31
0.0
  0
LINE
  5
E15
330
6B
100
AcDbEntity
  8
0
 62
     3
100
AcDbLine
 10
90.46381976554675
 20
-291.6002798802086
 30
0.0
 11
91.46381976554652
 21
-291.6002798802086
 31
0.0
  0
LINE
  5
E16
330
6B
100
AcDbEntity
  8
0
 62
     3
100
AcDbLine
 10
84.11381976554663
 20
-292.1002798802085
 30
0.0
 11
85.11381976554662
 21
-292.1002798802085
 31
0.0
  0
LINE
  5
E17
330
6B
100
AcDbEntity
  8
0
 62
     3
100
AcDbLine
 10
90.46381976554675
 20
-288.1002798802085
 30
0.0
 11
91.46381976554652
 21
-288.1002798802085
 31
0.0
  0
LINE
  5
E18
330
6B
100
AcDbEntity
  8
0
 62
     3
100
AcDbLine
 10
84.11381976554663
 20
-287.6002798802086
 30
0.0
 11
85.11381976554662
 21
-287.6002798802086
 31
0.0
  0
ARC
  5
E19
330
6B
100
AcDbEntity
  8
0
 62
     3
100
AcDbCircle
 10
87.7888197655468
 20
-291.6002798802086
 30
0.0
 40
8.25
100
AcDbArc
 50
305.096801227583
 51
54.90319877241699
  0
ARC
  5
E1A
330
6B
100
AcDbEntity
  8
0
 62
     3
100
AcDbCircle
 10
87.7888197655468
 20
-291.6002798802086
 30
0.0
 40
8.25
100
AcDbArc
 50
125.096801227583
 51
234.903198772417
  0
LINE
  5
E1B
330
6B
100
AcDbEntity
  8
0
100
AcDbLine
 10
87.53881976554657
 20
-301.712286517417
 30
0.0
 11
87.53881976554657
 21
-302.3502798802085
 31
0.0
  0
LINE
  5
E1C
330
6B
100
AcDbEntity
  8
0
100
AcDbLine
 10
87.53881976554657
 20
-302.8502798802085
 30
0.0
 11
87.53881976554657
 21
-303.488273243
 31
0.0
  0
LINE
  5
E1D
330
6B
100
AcDbEntity
  8
0
100
AcDbLine
 10
88.03881976554682
 20
-301.712286517417
 30
0.0
 11
88.03881976554682
 21
-302.3502798802085
 31
0.0
  0
LINE
  5
E1E
330
6B
100
AcDbEntity
  8
0
100
AcDbLine
 10
88.03881976554682
 20
-302.8502798802085
 30
0.0
 11
88.03881976554682
 21
-303.488273243
 31
0.0
  0
LINE
  5
E1F
330
6B
100
AcDbEntity
  8
0
100
AcDbLine
 10
86.90082640275525
 20
-302.8502798802085
 30
0.0
 11
87.53881976554657
 21
-302.8502798802085
 31
0.0
  0
LINE
  5
E20
330
6B
100
AcDbEntity
  8
0
100
AcDbLine
 10
88.03881976554682
 20
-302.8502798802085
 30
0.0
 11
88.67681312833772
 21
-302.8502798802085
 31
0.0
  0
LINE
  5
E21
330
6B
100
AcDbEntity
  8
0
100
AcDbLine
 10
86.90082640275525
 20
-302.3502798802085
 30
0.0
 11
87.53881976554657
 21
-302.3502798802085
 31
0.0
  0
LINE
  5
E22
330
6B
100
AcDbEntity
  8
0
100
AcDbLine
 10
88.03881976554682
 20
-302.3502798802085
 30
0.0
 11
88.67681312833772
 21
-302.3502798802085
 31
0.0
  0
CIRCLE
  5
E23
330
6B
100
AcDbEntity
  8
0
100
AcDbCircle
 10
87.7888197655468
 20
-302.6002798802085
 30
0.0
 40
1.625
  0
ARC
  5
E24
330
6B
100
AcDbEntity
  8
0
100
AcDbCircle
 10
87.7888197655468
 20
-302.6002798802085
 30
0.0
 40
0.9225140716334864
100
AcDbArc
 50
74.276303409489
 51
105.723696590511
  0
ARC
  5
E25
330
6B
100
AcDbEntity
  8
0
100
AcDbCircle
 10
87.7888197655468
 20
-302.6002798802085
 30
0.0
 40
0.9225140716334864
100
AcDbArc
 50
164.2763034094821
 51
195.7236965905148
  0
ARC
  5
E26
330
6B
100
AcDbEntity
  8
0
100
AcDbCircle
 10
87.7888197655468
 20
-302.6002798802085
 30
0.0
 40
0.9225140716334864
100
AcDbArc
 50
254.2763034094822
 51
285.723696590511
  0
ARC
  5
E27
330
6B
100
AcDbEntity
  8
0
100
AcDbCircle
 10
87.7888197655468
 20
-302.6002798802085
 30
0.0
 40
0.9225140716334864
100
AcDbArc
 50
344.276303409482
 51
15.72369659051478
  0
LINE
  5
E28
330
6B
100
AcDbEntity
  8
0
100
AcDbLine
 10
87.53881976554657
 20
-260.2122865174172
 30
0.0
 11
87.53881976554657
 21
-260.8502798802086
 31
0.0
  0
LINE
  5
E29
330
6B
100
AcDbEntity
  8
0
100
AcDbLine
 10
87.53881976554657
 20
-261.3502798802086
 30
0.0
 11
87.53881976554657
 21
-261.9882732430002
 31
0.0
  0
LINE
  5
E2A
330
6B
100
AcDbEntity
  8
0
100
AcDbLine
 10
88.03881976554682
 20
-260.2122865174172
 30
0.0
 11
88.03881976554682
 21
-260.8502798802086
 31
0.0
  0
LINE
  5
E2B
330
6B
100
AcDbEntity
  8
0
100
AcDbLine
 10
88.03881976554682
 20
-261.3502798802086
 30
0.0
 11
88.03881976554682
 21
-261.9882732430002
 31
0.0
  0
LINE
  5
E2C
330
6B
100
AcDbEntity
  8
0
100
AcDbLine
 10
86.90082640275525
 20
-261.3502798802086
 30
0.0
 11
87.53881976554657
 21
-261.3502798802086
 31
0.0
  0
LINE
  5
E2D
330
6B
100
AcDbEntity
  8
0
100
AcDbLine
 10
88.03881976554682
 20
-261.3502798802086
 30
0.0
 11
88.67681312833772
 21
-261.3502798802086
 31
0.0
  0
LINE
  5
E2E
330
6B
100
AcDbEntity
  8
0
100
AcDbLine
 10
86.90082640275525
 20
-260.8502798802086
 30
0.0
 11
87.53881976554657
 21
-260.8502798802086
 31
0.0
  0
LINE
  5
E2F
330
6B
100
AcDbEntity
  8
0
100
AcDbLine
 10
88.03881976554682
 20
-260.8502798802086
 30
0.0
 11
88.67681312833772
 21
-260.8502798802086
 31
0.0
  0
CIRCLE
  5
E30
330
6B
100
AcDbEntity
  8
0
100
AcDbCircle
 10
87.7888197655468
 20
-261.1002798802086
 30
0.0
 40
1.625
  0
ARC
  5
E31
330
6B
100
AcDbEntity
  8
0
100
AcDbCircle
 10
87.7888197655468
 20
-261.1002798802086
 30
0.0
 40
0.9225140716334864
100
AcDbArc
 50
74.276303409489
 51
105.723696590511
  0
ARC
  5
E32
330
6B
100
AcDbEntity
  8
0
100
AcDbCircle
 10
87.7888197655468
 20
-261.1002798802086
 30
0.0
 40
0.9225140716334864
100
AcDbArc
 50
164.2763034094821
 51
195.7236965905148
  0
ARC
  5
E33
330
6B
100
AcDbEntity
  8
0
100
AcDbCircle
 10
87.7888197655468
 20
-261.1002798802086
 30
0.0
 40
0.9225140716334864
100
AcDbArc
 50
254.2763034094822
 51
285.723696590511
  0
ARC
  5
E34
330
6B
100
AcDbEntity
  8
0
100
AcDbCircle
 10
87.7888197655468
 20
-261.1002798802086
 30
0.0
 40
0.9225140716334864
100
AcDbArc
 50
344.276303409482
 51
15.72369659051478
  0
TEXT
  5
E35
330
6B
100
AcDbEntity
  8
0
 62
     4
100
AcDbText
 10
85.35118561767649
 20
-283.0337542642785
 30
0.0
 40
2.25
  1
115V
  7
高4.5
100
AcDbText
  0
TEXT
  5
E36
330
6B
100
AcDbEntity
  8
0
 62
     4
100
AcDbText
 10
82.54707387589315
 20
-255.5236821159896
 30
0.0
 40
2.25
  1
昇圧15%%%
  7
高4.5
100
AcDbText
  0
LINE
  5
E37
330
6B
100
AcDbEntity
  8
0
 62
     3
100
AcDbLine
 10
89.13881976554668
 20
-297.3252798802085
 30
0.0
 11
86.43881976554666
 21
-297.3252798802085
 31
0.0
  0
LINE
  5
E38
330
6B
100
AcDbEntity
  8
0
 62
     3
100
AcDbLine
 10
86.43881976554666
 20
-297.3252798802085
 30
0.0
 11
86.43881976554666
 21
-295.9752798802085
 31
0.0
  0
LINE
  5
E39
330
6B
100
AcDbEntity
  8
0
 62
     3
100
AcDbLine
 10
89.13881976554668
 20
-297.3252798802085
 30
0.0
 11
89.13881976554668
 21
-295.9752798802085
 31
0.0
  0
ARC
  5
E3A
330
6B
100
AcDbEntity
  8
0
 62
     3
100
AcDbCircle
 10
87.7888197655468
 20
-295.9752798802085
 30
0.0
 40
1.349999999999994
100
AcDbArc
 50
0.0
 51
180.0
  0
LINE
  5
E3B
330
6B
100
AcDbEntity
  8
0
 62
     3
100
AcDbLine
 10
84.11381976554663
 20
-268.1002798802087
 30
0.0
 11
84.11381976554663
 21
-272.6002798802087
 31
0.0
  0
LINE
  5
E3C
330
6B
100
AcDbEntity
  8
0
 62
     3
100
AcDbLine
 10
85.11381976554662
 20
-268.1002798802087
 30
0.0
 11
85.11381976554662
 21
-272.6002798802087
 31
0.0
  0
LINE
  5
E3D
330
6B
100
AcDbEntity
  8
0
 62
     3
100
AcDbLine
 10
90.46381976554675
 20
-268.6002798802086
 30
0.0
 11
90.46381976554675
 21
-272.1002798802086
 31
0.0
  0
LINE
  5
E3E
330
6B
100
AcDbEntity
  8
0
 62
     3
100
AcDbLine
 10
91.46381976554652
 20
-268.6002798802086
 30
0.0
 11
91.46381976554652
 21
-272.1002798802086
 31
0.0
  0
LINE
  5
E3F
330
6B
100
AcDbEntity
  8
0
 62
     3
100
AcDbLine
 10
90.46381976554675
 20
-272.1002798802086
 30
0.0
 11
91.46381976554652
 21
-272.1002798802086
 31
0.0
  0
LINE
  5
E40
330
6B
100
AcDbEntity
  8
0
 62
     3
100
AcDbLine
 10
84.11381976554663
 20
-272.6002798802087
 30
0.0
 11
85.11381976554662
 21
-272.6002798802087
 31
0.0
  0
LINE
  5
E41
330
6B
100
AcDbEntity
  8
0
 62
     3
100
AcDbLine
 10
90.46381976554675
 20
-268.6002798802086
 30
0.0
 11
91.46381976554652
 21
-268.6002798802086
 31
0.0
  0
LINE
  5
E42
330
6B
100
AcDbEntity
  8
0
 62
     3
100
AcDbLine
 10
84.11381976554663
 20
-268.1002798802087
 30
0.0
 11
85.11381976554662
 21
-268.1002798802087
 31
0.0
  0
LINE
  5
E43
330
6B
100
AcDbEntity
  8
0
 62
     3
100
AcDbLine
 10
89.13881976554668
 20
-277.8252798802086
 30
0.0
 11
86.43881976554666
 21
-277.8252798802086
 31
0.0
  0
LINE
  5
E44
330
6B
100
AcDbEntity
  8
0
 62
     3
100
AcDbLine
 10
86.43881976554666
 20
-277.8252798802086
 30
0.0
 11
86.43881976554666
 21
-276.4752798802085
 31
0.0
  0
LINE
  5
E45
330
6B
100
AcDbEntity
  8
0
 62
     3
100
AcDbLine
 10
89.13881976554668
 20
-277.8252798802086
 30
0.0
 11
89.13881976554668
 21
-276.4752798802085
 31
0.0
  0
ARC
  5
E46
330
6B
100
AcDbEntity
  8
0
 62
     3
100
AcDbCircle
 10
87.7888197655468
 20
-276.4752798802085
 30
0.0
 40
1.349999999999994
100
AcDbArc
 50
0.0
 51
180.0
  0
LINE
  5
E47
330
6B
100
AcDbEntity
  8
0
 62
     3
100
AcDbLine
 10
84.7888197655468
 20
-298.3502798802085
 30
0.0
 11
84.7888197655468
 21
-306.8502798802085
 31
0.0
  0
LINE
  5
E48
330
6B
100
AcDbEntity
  8
0
 62
     3
100
AcDbLine
 10
90.78881976554681
 20
-298.3502798802085
 30
0.0
 11
90.78881976554681
 21
-306.8502798802085
 31
0.0
  0
LINE
  5
E49
330
6B
100
AcDbEntity
  8
0
 62
     3
100
AcDbLine
 10
153.0454032752939
 20
-265.3502798802086
 30
0.0
 11
162.5322362557992
 21
-265.3502798802086
 31
0.0
  0
LINE
  5
E4A
330
6B
100
AcDbEntity
  8
0
 62
     3
100
AcDbLine
 10
153.0454032752939
 20
-278.8502798802087
 30
0.0
 11
162.5322362557992
 21
-278.8502798802087
 31
0.0
  0
ARC
  5
E4B
330
6B
100
AcDbEntity
  8
0
 62
     3
100
AcDbCircle
 10
157.7888197655468
 20
-272.1002798802086
 30
0.0
 40
8.25
100
AcDbArc
 50
305.096801227583
 51
54.90319877241699
  0
ARC
  5
E4C
330
6B
100
AcDbEntity
  8
0
 62
     3
100
AcDbCircle
 10
157.7888197655468
 20
-272.1002798802086
 30
0.0
 40
8.25
100
AcDbArc
 50
125.096801227583
 51
234.903198772417
  0
LINE
  5
E4D
330
6B
100
AcDbEntity
  8
0
 62
     3
100
AcDbLine
 10
153.0454032752939
 20
-284.8502798802085
 30
0.0
 11
162.5322362557992
 21
-284.8502798802085
 31
0.0
  0
LINE
  5
E4E
330
6B
100
AcDbEntity
  8
0
 62
     3
100
AcDbLine
 10
153.0454032752939
 20
-298.3502798802085
 30
0.0
 11
162.5322362557992
 21
-298.3502798802085
 31
0.0
  0
ARC
  5
E4F
330
6B
100
AcDbEntity
  8
0
 62
     3
100
AcDbCircle
 10
157.7888197655468
 20
-291.6002798802086
 30
0.0
 40
8.25
100
AcDbArc
 50
305.096801227583
 51
54.90319877241699
  0
ARC
  5
E50
330
6B
100
AcDbEntity
  8
0
 62
     3
100
AcDbCircle
 10
157.7888197655468
 20
-291.6002798802086
 30
0.0
 40
8.25
100
AcDbArc
 50
125.096801227583
 51
234.903198772417
  0
LINE
  5
E51
330
6B
100
AcDbEntity
  8
0
100
AcDbLine
 10
157.5388197655467
 20
-301.712286517417
 30
0.0
 11
157.5388197655467
 21
-302.3502798802085
 31
0.0
  0
LINE
  5
E52
330
6B
100
AcDbEntity
  8
0
100
AcDbLine
 10
157.5388197655467
 20
-302.8502798802085
 30
0.0
 11
157.5388197655467
 21
-303.488273243
 31
0.0
  0
LINE
  5
E53
330
6B
100
AcDbEntity
  8
0
100
AcDbLine
 10
158.0388197655466
 20
-301.712286517417
 30
0.0
 11
158.0388197655466
 21
-302.3502798802085
 31
0.0
  0
LINE
  5
E54
330
6B
100
AcDbEntity
  8
0
100
AcDbLine
 10
158.0388197655466
 20
-302.8502798802085
 30
0.0
 11
158.0388197655466
 21
-303.488273243
 31
0.0
  0
LINE
  5
E55
330
6B
100
AcDbEntity
  8
0
100
AcDbLine
 10
156.9008264027554
 20
-302.8502798802085
 30
0.0
 11
157.5388197655467
 21
-302.8502798802085
 31
0.0
  0
LINE
  5
E56
330
6B
100
AcDbEntity
  8
0
100
AcDbLine
 10
158.0388197655466
 20
-302.8502798802085
 30
0.0
 11
158.6768131283379
 21
-302.8502798802085
 31
0.0
  0
LINE
  5
E57
330
6B
100
AcDbEntity
  8
0
100
AcDbLine
 10
156.9008264027554
 20
-302.3502798802085
 30
0.0
 11
157.5388197655467
 21
-302.3502798802085
 31
0.0
  0
LINE
  5
E58
330
6B
100
AcDbEntity
  8
0
100
AcDbLine
 10
158.0388197655466
 20
-302.3502798802085
 30
0.0
 11
158.6768131283379
 21
-302.3502798802085
 31
0.0
  0
CIRCLE
  5
E59
330
6B
100
AcDbEntity
  8
0
100
AcDbCircle
 10
157.7888197655468
 20
-302.6002798802085
 30
0.0
 40
1.625
  0
ARC
  5
E5A
330
6B
100
AcDbEntity
  8
0
100
AcDbCircle
 10
157.7888197655468
 20
-302.6002798802085
 30
0.0
 40
0.9225140716334864
100
AcDbArc
 50
74.276303409489
 51
105.723696590511
  0
ARC
  5
E5B
330
6B
100
AcDbEntity
  8
0
100
AcDbCircle
 10
157.7888197655468
 20
-302.6002798802085
 30
0.0
 40
0.9225140716334864
100
AcDbArc
 50
164.2763034094821
 51
195.7236965905148
  0
ARC
  5
E5C
330
6B
100
AcDbEntity
  8
0
100
AcDbCircle
 10
157.7888197655468
 20
-302.6002798802085
 30
0.0
 40
0.9225140716334864
100
AcDbArc
 50
254.2763034094822
 51
285.723696590511
  0
ARC
  5
E5D
330
6B
100
AcDbEntity
  8
0
100
AcDbCircle
 10
157.7888197655468
 20
-302.6002798802085
 30
0.0
 40
0.9225140716334864
100
AcDbArc
 50
344.276303409482
 51
15.72369659051478
  0
LINE
  5
E5E
330
6B
100
AcDbEntity
  8
0
100
AcDbLine
 10
157.5388197655467
 20
-260.2122865174172
 30
0.0
 11
157.5388197655467
 21
-260.8502798802086
 31
0.0
  0
LINE
  5
E5F
330
6B
100
AcDbEntity
  8
0
100
AcDbLine
 10
157.5388197655467
 20
-261.3502798802086
 30
0.0
 11
157.5388197655467
 21
-261.9882732430002
 31
0.0
  0
LINE
  5
E60
330
6B
100
AcDbEntity
  8
0
100
AcDbLine
 10
158.0388197655466
 20
-260.2122865174172
 30
0.0
 11
158.0388197655466
 21
-260.8502798802086
 31
0.0
  0
LINE
  5
E61
330
6B
100
AcDbEntity
  8
0
100
AcDbLine
 10
158.0388197655466
 20
-261.3502798802086
 30
0.0
 11
158.0388197655466
 21
-261.9882732430002
 31
0.0
  0
LINE
  5
E62
330
6B
100
AcDbEntity
  8
0
100
AcDbLine
 10
156.9008264027554
 20
-261.3502798802086
 30
0.0
 11
157.5388197655467
 21
-261.3502798802086
 31
0.0
  0
LINE
  5
E63
330
6B
100
AcDbEntity
  8
0
100
AcDbLine
 10
158.0388197655466
 20
-261.3502798802086
 30
0.0
 11
158.6768131283379
 21
-261.3502798802086
 31
0.0
  0
LINE
  5
E64
330
6B
100
AcDbEntity
  8
0
100
AcDbLine
 10
156.9008264027554
 20
-260.8502798802086
 30
0.0
 11
157.5388197655467
 21
-260.8502798802086
 31
0.0
  0
LINE
  5
E65
330
6B
100
AcDbEntity
  8
0
100
AcDbLine
 10
158.0388197655466
 20
-260.8502798802086
 30
0.0
 11
158.6768131283379
 21
-260.8502798802086
 31
0.0
  0
CIRCLE
  5
E66
330
6B
100
AcDbEntity
  8
0
100
AcDbCircle
 10
157.7888197655468
 20
-261.1002798802086
 30
0.0
 40
1.625
  0
ARC
  5
E67
330
6B
100
AcDbEntity
  8
0
100
AcDbCircle
 10
157.7888197655468
 20
-261.1002798802086
 30
0.0
 40
0.9225140716334864
100
AcDbArc
 50
74.276303409489
 51
105.723696590511
  0
ARC
  5
E68
330
6B
100
AcDbEntity
  8
0
100
AcDbCircle
 10
157.7888197655468
 20
-261.1002798802086
 30
0.0
 40
0.9225140716334864
100
AcDbArc
 50
164.2763034094821
 51
195.7236965905148
  0
ARC
  5
E69
330
6B
100
AcDbEntity
  8
0
100
AcDbCircle
 10
157.7888197655468
 20
-261.1002798802086
 30
0.0
 40
0.9225140716334864
100
AcDbArc
 50
254.2763034094822
 51
285.723696590511
  0
ARC
  5
E6A
330
6B
100
AcDbEntity
  8
0
100
AcDbCircle
 10
157.7888197655468
 20
-261.1002798802086
 30
0.0
 40
0.9225140716334864
100
AcDbArc
 50
344.276303409482
 51
15.72369659051478
  0
TEXT
  5
E6B
330
6B
100
AcDbEntity
  8
0
 62
     4
100
AcDbText
 10
154.5938374627853
 20
-283.0337542642785
 30
0.0
 40
2.25
  1
125V
  7
高4.5
100
AcDbText
  0
TEXT
  5
E6C
330
6B
100
AcDbEntity
  8
0
 62
     4
100
AcDbText
 10
152.7020370139478
 20
-255.5236821159896
 30
0.0
 40
2.25
  1
昇圧25%%%
  7
高4.5
100
AcDbText
  0
LINE
  5
E6D
330
6B
100
AcDbEntity
  8
0
 62
     3
100
AcDbLine
 10
154.1138197655466
 20
-268.1002798802087
 30
0.0
 11
154.1138197655466
 21
-272.6002798802087
 31
0.0
  0
LINE
  5
E6E
330
6B
100
AcDbEntity
  8
0
 62
     3
100
AcDbLine
 10
155.1138197655466
 20
-268.1002798802087
 30
0.0
 11
155.1138197655466
 21
-272.6002798802087
 31
0.0
  0
LINE
  5
E6F
330
6B
100
AcDbEntity
  8
0
 62
     3
100
AcDbLine
 10
160.4638197655463
 20
-268.6002798802086
 30
0.0
 11
160.4638197655463
 21
-272.1002798802086
 31
0.0
  0
LINE
  5
E70
330
6B
100
AcDbEntity
  8
0
 62
     3
100
AcDbLine
 10
161.4638197655463
 20
-268.6002798802086
 30
0.0
 11
161.4638197655463
 21
-272.1002798802086
 31
0.0
  0
LINE
  5
E71
330
6B
100
AcDbEntity
  8
0
 62
     3
100
AcDbLine
 10
160.4638197655463
 20
-272.1002798802086
 30
0.0
 11
161.4638197655463
 21
-272.1002798802086
 31
0.0
  0
LINE
  5
E72
330
6B
100
AcDbEntity
  8
0
 62
     3
100
AcDbLine
 10
154.1138197655466
 20
-272.6002798802087
 30
0.0
 11
155.1138197655466
 21
-272.6002798802087
 31
0.0
  0
LINE
  5
E73
330
6B
100
AcDbEntity
  8
0
 62
     3
100
AcDbLine
 10
160.4638197655463
 20
-268.6002798802086
 30
0.0
 11
161.4638197655463
 21
-268.6002798802086
 31
0.0
  0
LINE
  5
E74
330
6B
100
AcDbEntity
  8
0
 62
     3
100
AcDbLine
 10
154.1138197655466
 20
-268.1002798802087
 30
0.0
 11
155.1138197655466
 21
-268.1002798802087
 31
0.0
  0
LINE
  5
E75
330
6B
100
AcDbEntity
  8
0
 62
     3
100
AcDbLine
 10
159.1388197655467
 20
-277.8252798802086
 30
0.0
 11
156.4388197655464
 21
-277.8252798802086
 31
0.0
  0
LINE
  5
E76
330
6B
100
AcDbEntity
  8
0
 62
     3
100
AcDbLine
 10
156.4388197655464
 20
-277.8252798802086
 30
0.0
 11
156.4388197655464
 21
-276.4752798802085
 31
0.0
  0
LINE
  5
E77
330
6B
100
AcDbEntity
  8
0
 62
     3
100
AcDbLine
 10
159.1388197655467
 20
-277.8252798802086
 30
0.0
 11
159.1388197655467
 21
-276.4752798802085
 31
0.0
  0
ARC
  5
E78
330
6B
100
AcDbEntity
  8
0
 62
     3
100
AcDbCircle
 10
157.7888197655465
 20
-276.4752798802085
 30
0.0
 40
1.349999999999994
100
AcDbArc
 50
0.0
 51
180.0
  0
LINE
  5
E79
330
6B
100
AcDbEntity
  8
0
 62
     3
100
AcDbLine
 10
154.1138197655466
 20
-287.6002798802086
 30
0.0
 11
154.1138197655466
 21
-292.1002798802085
 31
0.0
  0
LINE
  5
E7A
330
6B
100
AcDbEntity
  8
0
 62
     3
100
AcDbLine
 10
155.1138197655466
 20
-287.6002798802086
 30
0.0
 11
155.1138197655466
 21
-292.1002798802085
 31
0.0
  0
LINE
  5
E7B
330
6B
100
AcDbEntity
  8
0
 62
     3
100
AcDbLine
 10
160.4638197655463
 20
-288.1002798802085
 30
0.0
 11
160.4638197655463
 21
-291.6002798802086
 31
0.0
  0
LINE
  5
E7C
330
6B
100
AcDbEntity
  8
0
 62
     3
100
AcDbLine
 10
161.4638197655463
 20
-288.1002798802085
 30
0.0
 11
161.4638197655463
 21
-291.6002798802086
 31
0.0
  0
LINE
  5
E7D
330
6B
100
AcDbEntity
  8
0
 62
     3
100
AcDbLine
 10
160.4638197655463
 20
-291.6002798802086
 30
0.0
 11
161.4638197655463
 21
-291.6002798802086
 31
0.0
  0
LINE
  5
E7E
330
6B
100
AcDbEntity
  8
0
 62
     3
100
AcDbLine
 10
154.1138197655466
 20
-292.1002798802085
 30
0.0
 11
155.1138197655466
 21
-292.1002798802085
 31
0.0
  0
LINE
  5
E7F
330
6B
100
AcDbEntity
  8
0
 62
     3
100
AcDbLine
 10
160.4638197655463
 20
-288.1002798802085
 30
0.0
 11
161.4638197655463
 21
-288.1002798802085
 31
0.0
  0
LINE
  5
E80
330
6B
100
AcDbEntity
  8
0
 62
     3
100
AcDbLine
 10
154.1138197655466
 20
-287.6002798802086
 30
0.0
 11
155.1138197655466
 21
-287.6002798802086
 31
0.0
  0
LINE
  5
E81
330
6B
100
AcDbEntity
  8
0
 62
     3
100
AcDbLine
 10
159.1388197655467
 20
-297.3252798802085
 30
0.0
 11
156.4388197655464
 21
-297.3252798802085
 31
0.0
  0
LINE
  5
E82
330
6B
100
AcDbEntity
  8
0
 62
     3
100
AcDbLine
 10
156.4388197655464
 20
-297.3252798802085
 30
0.0
 11
156.4388197655464
 21
-295.9752798802085
 31
0.0
  0
LINE
  5
E83
330
6B
100
AcDbEntity
  8
0
 62
     3
100
AcDbLine
 10
159.1388197655467
 20
-297.3252798802085
 30
0.0
 11
159.1388197655467
 21
-295.9752798802085
 31
0.0
  0
ARC
  5
E84
330
6B
100
AcDbEntity
  8
0
 62
     3
100
AcDbCircle
 10
157.7888197655465
 20
-295.9752798802085
 30
0.0
 40
1.349999999999994
100
AcDbArc
 50
0.0
 51
180.0
  0
LINE
  5
E85
330
6B
100
AcDbEntity
  8
0
 62
     3
100
AcDbLine
 10
160.7888197655467
 20
-306.8502798802085
 30
0.0
 11
154.7888197655468
 21
-306.8502798802085
 31
0.0
  0
LINE
  5
E86
330
6B
100
AcDbEntity
  8
0
 62
     3
100
AcDbLine
 10
160.7888197655467
 20
-305.8502798802085
 30
0.0
 11
154.7888197655468
 21
-305.8502798802085
 31
0.0
  0
LINE
  5
E87
330
6B
100
AcDbEntity
  8
0
 62
     3
100
AcDbLine
 10
154.7888197655468
 20
-298.3502798802085
 30
0.0
 11
154.7888197655468
 21
-306.8502798802085
 31
0.0
  0
LINE
  5
E88
330
6B
100
AcDbEntity
  8
0
 62
     3
100
AcDbLine
 10
160.7888197655467
 20
-298.3502798802085
 30
0.0
 11
160.7888197655467
 21
-306.8502798802085
 31
0.0
  0
LINE
  5
E89
330
6B
100
AcDbEntity
  8
0
 62
     3
100
AcDbLine
 10
111.7888197655465
 20
-253.8502798802085
 30
0.0
 11
111.7888197655465
 21
-276.3502798802084
 31
0.0
  0
LINE
  5
E8A
330
6B
100
AcDbEntity
  8
0
 62
     3
100
AcDbLine
 10
111.7888197655465
 20
-276.3502798802084
 30
0.0
 11
133.7888197655465
 21
-276.3502798802084
 31
0.0
  0
LINE
  5
E8B
330
6B
100
AcDbEntity
  8
0
 62
     3
100
AcDbLine
 10
133.7888197655465
 20
-276.3502798802084
 30
0.0
 11
133.7888197655465
 21
-253.8502798802085
 31
0.0
  0
LINE
  5
E8C
330
6B
100
AcDbEntity
  8
0
 62
     3
100
AcDbLine
 10
133.7888197655465
 20
-253.8502798802085
 30
0.0
 11
111.7888197655465
 21
-253.8502798802085
 31
0.0
  0
LINE
  5
E8D
330
6B
100
AcDbEntity
  8
0
 62
     3
100
AcDbLine
 10
111.7888197655465
 20
-267.140977554627
 30
0.0
 11
133.7888197655465
 21
-267.140977554627
 31
0.0
  0
ARC
  5
E8E
330
6B
100
AcDbEntity
  8
0
 62
     3
100
AcDbCircle
 10
122.7888197655466
 20
-267.140977554627
 30
0.0
 40
3.069767441860463
100
AcDbArc
 50
0.0
 51
180.0
  0
LINE
  5
E8F
330
6B
100
AcDbEntity
  8
0
 62
     3
100
AcDbLine
 10
113.8353313934533
 20
-261.2572566243946
 30
0.0
 11
114.0911453469416
 21
-261.2572566243946
 31
0.0
  0
LINE
  5
E90
330
6B
100
AcDbEntity
  8
0
100
AcDbLine
 10
122.7888197655466
 20
-270.4665589499759
 30
0.0
 11
122.7888197655466
 21
-274.0479542988131
 31
0.0
  0
CIRCLE
  5
E91
330
6B
100
AcDbEntity
  8
0
100
AcDbCircle
 10
122.7888197655466
 20
-272.2572566243945
 30
0.0
 40
1.790697674418604
  0
LINE
  5
E92
330
6B
100
AcDbEntity
  8
0
100
AcDbLine
 10
114.0911453469416
 20
-261.2572566243946
 30
0.0
 11
123.0446337190344
 21
-267.140977554627
 31
0.0
  0
LINE
  5
E93
330
6B
100
AcDbEntity
  8
0
100
AcDbLine
 10
122.7888197655466
 20
-267.140977554627
 30
0.0
 11
113.8353313934533
 21
-261.2572566243946
 31
0.0
  0
TEXT
  5
E94
330
6B
100
AcDbEntity
  8
0
100
AcDbText
 10
130.9748662771742
 20
-259.2107449964875
 30
0.0
 40
1.023255813953487
  1
150
 50
319.9999910000022
 41
1.1808
100
AcDbText
  0
LINE
  5
E95
330
6B
100
AcDbEntity
  8
0
100
AcDbLine
 10
131.8323546492672
 20
-261.1467449964875
 30
0.0
 11
132.5997965097324
 21
-260.3793031360225
 31
0.0
  0
ARC
  5
E96
330
6B
100
AcDbEntity
  8
0
100
AcDbCircle
 10
123.5562616260115
 20
-272.7688845313711
 30
0.0
 40
14.32558139534884
100
AcDbArc
 50
50.85599999999605
 51
129.1440000000039
  0
TEXT
  5
E97
330
6B
100
AcDbEntity
  8
0
100
AcDbText
 10
113.0174430213603
 20
-260.4722669499757
 30
0.0
 40
0.8390697674418603
  1
0
 50
39.99999900000239
 41
1.440001
100
AcDbText
  0
LINE
  5
E98
330
6B
100
AcDbEntity
  8
0
100
AcDbLine
 10
113.8353313934533
 20
-261.2572566243946
 30
0.0
 11
113.3237034864764
 21
-260.4898147639293
 31
0.0
  0
TEXT
  5
E99
330
6B
100
AcDbEntity
  8
0
 62
     4
100
AcDbText
 10
118.0652278295295
 20
-252.7836111729905
 30
0.0
 40
2.25
  1
入力電圧
  7
高4.5
100
AcDbText
  0
LINE
  5
E9A
330
6B
100
AcDbEntity
  8
0
100
AcDbLine
 10
119.7888197655466
 20
-297.8502798802085
 30
0.0
 11
127.5388197655465
 21
-297.8502798802085
 31
0.0
  0
ARC
  5
E9B
330
6B
100
AcDbEntity
  8
0
100
AcDbCircle
 10
123.7888197655466
 20
-297.6002798802085
 30
0.0
 40
0.25
100
AcDbArc
 50
270.0
 51
0.0
  0
LINE
  5
E9C
330
6B
100
AcDbEntity
  8
0
100
AcDbLine
 10
127.5388197655465
 20
-294.3502798802086
 30
0.0
 11
119.7888197655466
 21
-294.3502798802086
 31
0.0
  0
LINE
  5
E9D
330
6B
100
AcDbEntity
  8
0
100
AcDbLine
 10
117.0388197655465
 20
-298.3502798802086
 30
0.0
 11
128.5388197655465
 21
-298.3502798802086
 31
0.0
  0
LINE
  5
E9E
330
6B
100
AcDbEntity
  8
0
100
AcDbLine
 10
117.0388197655465
 20
-293.8502798802085
 30
0.0
 11
128.5388197655465
 21
-293.8502798802085
 31
0.0
  0
LINE
  5
E9F
330
6B
100
AcDbEntity
  8
0
100
AcDbLine
 10
137.5388197655466
 20
-295.2122865174169
 30
0.0
 11
137.5388197655466
 21
-295.8502798802085
 31
0.0
  0
LINE
  5
EA0
330
6B
100
AcDbEntity
  8
0
100
AcDbLine
 10
137.5388197655466
 20
-296.3502798802086
 30
0.0
 11
137.5388197655466
 21
-296.988273243
 31
0.0
  0
LINE
  5
EA1
330
6B
100
AcDbEntity
  8
0
100
AcDbLine
 10
138.0388197655463
 20
-295.2122865174169
 30
0.0
 11
138.0388197655463
 21
-295.8502798802085
 31
0.0
  0
LINE
  5
EA2
330
6B
100
AcDbEntity
  8
0
100
AcDbLine
 10
138.0388197655463
 20
-296.3502798802086
 30
0.0
 11
138.0388197655463
 21
-296.988273243
 31
0.0
  0
LINE
  5
EA3
330
6B
100
AcDbEntity
  8
0
100
AcDbLine
 10
136.9008264027551
 20
-296.3502798802086
 30
0.0
 11
137.5388197655466
 21
-296.3502798802086
 31
0.0
  0
LINE
  5
EA4
330
6B
100
AcDbEntity
  8
0
100
AcDbLine
 10
138.0388197655463
 20
-296.3502798802086
 30
0.0
 11
138.6768131283377
 21
-296.3502798802086
 31
0.0
  0
LINE
  5
EA5
330
6B
100
AcDbEntity
  8
0
100
AcDbLine
 10
136.9008264027551
 20
-295.8502798802085
 30
0.0
 11
137.5388197655466
 21
-295.8502798802085
 31
0.0
  0
LINE
  5
EA6
330
6B
100
AcDbEntity
  8
0
100
AcDbLine
 10
138.0388197655463
 20
-295.8502798802085
 30
0.0
 11
138.6768131283377
 21
-295.8502798802085
 31
0.0
  0
CIRCLE
  5
EA7
330
6B
100
AcDbEntity
  8
0
100
AcDbCircle
 10
137.7888197655465
 20
-296.1002798802086
 30
0.0
 40
1.625
  0
ARC
  5
EA8
330
6B
100
AcDbEntity
  8
0
100
AcDbCircle
 10
137.7888197655465
 20
-296.1002798802086
 30
0.0
 40
0.9225140716334864
100
AcDbArc
 50
74.276303409489
 51
105.723696590511
  0
ARC
  5
EA9
330
6B
100
AcDbEntity
  8
0
100
AcDbCircle
 10
137.7888197655465
 20
-296.1002798802086
 30
0.0
 40
0.9225140716334864
100
AcDbArc
 50
164.2763034094821
 51
195.7236965905148
  0
ARC
  5
EAA
330
6B
100
AcDbEntity
  8
0
100
AcDbCircle
 10
137.7888197655465
 20
-296.1002798802086
 30
0.0
 40
0.9225140716334864
100
AcDbArc
 50
254.2763034094822
 51
285.723696590511
  0
ARC
  5
EAB
330
6B
100
AcDbEntity
  8
0
100
AcDbCircle
 10
137.7888197655465
 20
-296.1002798802086
 30
0.0
 40
0.9225140716334864
100
AcDbArc
 50
344.276303409482
 51
15.72369659051478
  0
LINE
  5
EAC
330
6B
100
AcDbEntity
  8
0
100
AcDbLine
 10
107.5388197655466
 20
-295.2122865174169
 30
0.0
 11
107.5388197655466
 21
-295.8502798802085
 31
0.0
  0
LINE
  5
EAD
330
6B
100
AcDbEntity
  8
0
100
AcDbLine
 10
107.5388197655466
 20
-296.3502798802086
 30
0.0
 11
107.5388197655466
 21
-296.988273243
 31
0.0
  0
LINE
  5
EAE
330
6B
100
AcDbEntity
  8
0
100
AcDbLine
 10
108.0388197655463
 20
-295.2122865174169
 30
0.0
 11
108.0388197655463
 21
-295.8502798802085
 31
0.0
  0
LINE
  5
EAF
330
6B
100
AcDbEntity
  8
0
100
AcDbLine
 10
108.0388197655463
 20
-296.3502798802086
 30
0.0
 11
108.0388197655463
 21
-296.988273243
 31
0.0
  0
LINE
  5
EB0
330
6B
100
AcDbEntity
  8
0
100
AcDbLine
 10
106.9008264027551
 20
-296.3502798802086
 30
0.0
 11
107.5388197655466
 21
-296.3502798802086
 31
0.0
  0
LINE
  5
EB1
330
6B
100
AcDbEntity
  8
0
100
AcDbLine
 10
108.0388197655463
 20
-296.3502798802086
 30
0.0
 11
108.6768131283377
 21
-296.3502798802086
 31
0.0
  0
LINE
  5
EB2
330
6B
100
AcDbEntity
  8
0
100
AcDbLine
 10
106.9008264027551
 20
-295.8502798802085
 30
0.0
 11
107.5388197655466
 21
-295.8502798802085
 31
0.0
  0
LINE
  5
EB3
330
6B
100
AcDbEntity
  8
0
100
AcDbLine
 10
108.0388197655463
 20
-295.8502798802085
 30
0.0
 11
108.6768131283377
 21
-295.8502798802085
 31
0.0
  0
CIRCLE
  5
EB4
330
6B
100
AcDbEntity
  8
0
100
AcDbCircle
 10
107.7888197655465
 20
-296.1002798802086
 30
0.0
 40
1.625
  0
ARC
  5
EB5
330
6B
100
AcDbEntity
  8
0
100
AcDbCircle
 10
107.7888197655465
 20
-296.1002798802086
 30
0.0
 40
0.9225140716334864
100
AcDbArc
 50
74.276303409489
 51
105.723696590511
  0
ARC
  5
EB6
330
6B
100
AcDbEntity
  8
0
100
AcDbCircle
 10
107.7888197655465
 20
-296.1002798802086
 30
0.0
 40
0.9225140716334864
100
AcDbArc
 50
164.2763034094821
 51
195.7236965905148
  0
ARC
  5
EB7
330
6B
100
AcDbEntity
  8
0
100
AcDbCircle
 10
107.7888197655465
 20
-296.1002798802086
 30
0.0
 40
0.9225140716334864
100
AcDbArc
 50
254.2763034094822
 51
285.723696590511
  0
ARC
  5
EB8
330
6B
100
AcDbEntity
  8
0
100
AcDbCircle
 10
107.7888197655465
 20
-296.1002798802086
 30
0.0
 40
0.9225140716334864
100
AcDbArc
 50
344.276303409482
 51
15.72369659051478
  0
ARC
  5
EB9
330
6B
100
AcDbEntity
  8
0
100
AcDbCircle
 10
121.2888197655465
 20
-294.6002798802085
 30
0.0
 40
0.25
100
AcDbArc
 50
0.0000000000065138
 51
89.99999999998697
  0
ARC
  5
EBA
330
6B
100
AcDbEntity
  8
0
100
AcDbCircle
 10
119.7888197655466
 20
-294.6002798802085
 30
0.0
 40
0.25
100
AcDbArc
 50
90.00000000001303
 51
179.9999999999935
  0
ARC
  5
EBB
330
6B
100
AcDbEntity
  8
0
100
AcDbCircle
 10
119.7888197655466
 20
-297.6002798802085
 30
0.0
 40
0.25
100
AcDbArc
 50
179.9999999999935
 51
270.000000000013
  0
ARC
  5
EBC
330
6B
100
AcDbEntity
  8
0
100
AcDbCircle
 10
121.2888197655465
 20
-297.6002798802085
 30
0.0
 40
0.25
100
AcDbArc
 50
270.0
 51
359.9999999999935
  0
TEXT
  5
EBF
330
6B
100
AcDbEntity
  8
0
 62
     3
100
AcDbText
 10
95.82599835004451
 20
-249.0213626497229
 30
0.0
 40
3.149999999999999
  1
TORA PACK ハイパワー
 41
1.199999999999999
  7
高6.3
100
AcDbText
  0
TEXT
  5
EC0
330
6B
100
AcDbEntity
  8
0
 62
     3
100
AcDbText
 10
106.4082471348672
 20
-281.903393141109
 30
0.0
 40
3.149999999999999
  1
M-EK30 容量3KVA
 41
0.8
  7
高6.3
100
AcDbText
  0
LINE
  5
EC2
330
6B
100
AcDbEntity
  8
0
 62
     3
100
AcDbLine
 10
231.9372297451002
 20
-305.8502798802085
 30
0.0
 11
228.853896411767
 21
-305.8502798802085
 31
0.0
  0
LINE
  5
EC3
330
6B
100
AcDbEntity
  8
0
 62
     3
100
AcDbLine
 10
232.603896411767
 20
-306.8502798802085
 30
0.0
 11
228.853896411767
 21
-306.8502798802085
 31
0.0
  0
LINE
  5
EC4
330
6B
100
AcDbEntity
  8
0
 62
     3
100
AcDbLine
 10
348.9993798190017
 20
-303.7002798802086
 30
0.0
 11
335.5011885116783
 21
-303.7002798802086
 31
0.0
  0
LINE
  5
EC5
330
6B
100
AcDbEntity
  8
0
 62
     3
100
AcDbLine
 10
332.3281246164185
 20
-303.7002798802086
 30
0.0
 11
327.603896411767
 21
-303.7002798802086
 31
0.0
  0
LINE
  5
EC6
330
6B
100
AcDbEntity
  8
0
 62
     3
100
AcDbLine
 10
348.9993798190017
 20
-297.5002798802084
 30
0.0
 11
334.6023796024598
 21
-297.5002798802084
 31
0.0
  0
LINE
  5
EC7
330
6B
100
AcDbEntity
  8
0
 62
     3
100
AcDbLine
 10
331.4293157071997
 20
-297.5002798802084
 30
0.0
 11
327.603896411767
 21
-297.5002798802084
 31
0.0
  0
LINE
  5
EC8
330
6B
100
AcDbEntity
  8
0
 62
     3
100
AcDbLine
 10
362.0993798190018
 20
-310.6002798802085
 30
0.0
 11
362.0993798190018
 21
-318.8502798802086
 31
0.0
  0
LINE
  5
EC9
330
6B
100
AcDbEntity
  8
0
 62
     3
100
AcDbLine
 10
355.8993798190015
 20
-310.6002798802085
 30
0.0
 11
355.8993798190015
 21
-318.8502798802086
 31
0.0
  0
ARC
  5
ECA
330
6B
100
AcDbEntity
  8
0
 62
     3
100
AcDbCircle
 10
348.9993798190017
 20
-310.6002798802086
 30
0.0
 40
6.9
100
AcDbArc
 50
0.0
 51
90.0
  0
ARC
  5
ECB
330
6B
100
AcDbEntity
  8
0
 62
     3
100
AcDbCircle
 10
348.9993798190017
 20
-310.6002798802086
 30
0.0
 40
13.1
100
AcDbArc
 50
0.0
 51
90.0
  0
LINE
  5
ECC
330
6B
100
AcDbEntity
  8
0
100
AcDbLine
 10
321.80804247029
 20
-273.6002798802085
 30
0.0
 11
322.853896411767
 21
-273.6002798802085
 31
0.0
  0
LINE
  5
ECD
330
6B
100
AcDbEntity
  8
0
100
AcDbLine
 10
323.353896411767
 20
-273.6002798802085
 30
0.0
 11
324.3997503532444
 21
-273.6002798802085
 31
0.0
  0
LINE
  5
ECE
330
6B
100
AcDbEntity
  8
0
100
AcDbLine
 10
321.80804247029
 20
-273.1002798802086
 30
0.0
 11
322.853896411767
 21
-273.1002798802086
 31
0.0
  0
LINE
  5
ECF
330
6B
100
AcDbEntity
  8
0
100
AcDbLine
 10
323.353896411767
 20
-273.1002798802086
 30
0.0
 11
324.3997503532444
 21
-273.1002798802086
 31
0.0
  0
LINE
  5
ED0
330
6B
100
AcDbEntity
  8
0
100
AcDbLine
 10
322.853896411767
 20
-272.0544259387315
 30
0.0
 11
322.853896411767
 21
-273.1002798802086
 31
0.0
  0
LINE
  5
ED1
330
6B
100
AcDbEntity
  8
0
100
AcDbLine
 10
322.853896411767
 20
-273.6002798802085
 30
0.0
 11
322.853896411767
 21
-274.6461338216856
 31
0.0
  0
LINE
  5
ED2
330
6B
100
AcDbEntity
  8
0
100
AcDbLine
 10
323.353896411767
 20
-272.0544259387315
 30
0.0
 11
323.353896411767
 21
-273.1002798802086
 31
0.0
  0
LINE
  5
ED3
330
6B
100
AcDbEntity
  8
0
100
AcDbLine
 10
323.353896411767
 20
-273.6002798802085
 30
0.0
 11
323.353896411767
 21
-274.6461338216856
 31
0.0
  0
CIRCLE
  5
ED4
330
6B
100
AcDbEntity
  8
0
100
AcDbCircle
 10
323.103896411767
 20
-273.3502798802085
 30
0.0
 40
2.25
  0
ARC
  5
ED5
330
6B
100
AcDbEntity
  8
0
100
AcDbCircle
 10
323.103896411767
 20
-273.3502798802085
 30
0.0
 40
1.319749005546779
100
AcDbArc
 50
79.08048086552442
 51
100.9195191344755
  0
ARC
  5
ED6
330
6B
100
AcDbEntity
  8
0
100
AcDbCircle
 10
323.103896411767
 20
-273.3502798802085
 30
0.0
 40
1.319749005546779
100
AcDbArc
 50
169.080480865528
 51
190.9195191344719
  0
ARC
  5
ED7
330
6B
100
AcDbEntity
  8
0
100
AcDbCircle
 10
323.103896411767
 20
-273.3502798802085
 30
0.0
 40
1.319749005546779
100
AcDbArc
 50
259.0804808655245
 51
280.9195191344755
  0
ARC
  5
ED8
330
6B
100
AcDbEntity
  8
0
100
AcDbCircle
 10
323.103896411767
 20
-273.3502798802085
 30
0.0
 40
1.319749005546779
100
AcDbArc
 50
349.0804808655281
 51
10.91951913447193
  0
LINE
  5
ED9
330
6B
100
AcDbEntity
  8
0
100
AcDbLine
 10
310.3080424702899
 20
-309.1002798802085
 30
0.0
 11
311.353896411767
 21
-309.1002798802085
 31
0.0
  0
LINE
  5
EDA
330
6B
100
AcDbEntity
  8
0
100
AcDbLine
 10
311.853896411767
 20
-309.1002798802085
 30
0.0
 11
312.8997503532444
 21
-309.1002798802085
 31
0.0
  0
LINE
  5
EDB
330
6B
100
AcDbEntity
  8
0
100
AcDbLine
 10
310.3080424702899
 20
-308.6002798802085
 30
0.0
 11
311.353896411767
 21
-308.6002798802085
 31
0.0
  0
LINE
  5
EDC
330
6B
100
AcDbEntity
  8
0
100
AcDbLine
 10
311.853896411767
 20
-308.6002798802085
 30
0.0
 11
312.8997503532444
 21
-308.6002798802085
 31
0.0
  0
LINE
  5
EDD
330
6B
100
AcDbEntity
  8
0
100
AcDbLine
 10
311.353896411767
 20
-307.5544259387315
 30
0.0
 11
311.353896411767
 21
-308.6002798802085
 31
0.0
  0
LINE
  5
EDE
330
6B
100
AcDbEntity
  8
0
100
AcDbLine
 10
311.353896411767
 20
-309.1002798802085
 30
0.0
 11
311.353896411767
 21
-310.1461338216856
 31
0.0
  0
LINE
  5
EDF
330
6B
100
AcDbEntity
  8
0
100
AcDbLine
 10
311.853896411767
 20
-307.5544259387315
 30
0.0
 11
311.853896411767
 21
-308.6002798802085
 31
0.0
  0
LINE
  5
EE0
330
6B
100
AcDbEntity
  8
0
100
AcDbLine
 10
311.853896411767
 20
-309.1002798802085
 30
0.0
 11
311.853896411767
 21
-310.1461338216856
 31
0.0
  0
CIRCLE
  5
EE1
330
6B
100
AcDbEntity
  8
0
100
AcDbCircle
 10
311.603896411767
 20
-308.8502798802085
 30
0.0
 40
2.25
  0
ARC
  5
EE2
330
6B
100
AcDbEntity
  8
0
100
AcDbCircle
 10
311.603896411767
 20
-308.8502798802085
 30
0.0
 40
1.319749005546779
100
AcDbArc
 50
79.08048086552442
 51
100.9195191344755
  0
ARC
  5
EE3
330
6B
100
AcDbEntity
  8
0
100
AcDbCircle
 10
311.603896411767
 20
-308.8502798802085
 30
0.0
 40
1.319749005546779
100
AcDbArc
 50
169.0804808655313
 51
190.9195191344687
  0
ARC
  5
EE4
330
6B
100
AcDbEntity
  8
0
100
AcDbCircle
 10
311.603896411767
 20
-308.8502798802085
 30
0.0
 40
1.319749005546779
100
AcDbArc
 50
259.0804808655245
 51
280.9195191344755
  0
ARC
  5
EE5
330
6B
100
AcDbEntity
  8
0
100
AcDbCircle
 10
311.603896411767
 20
-308.8502798802085
 30
0.0
 40
1.319749005546779
100
AcDbArc
 50
349.0804808655312
 51
10.91951913446873
  0
LINE
  5
EE6
330
6B
100
AcDbEntity
  8
0
100
AcDbLine
 10
250.3080424702899
 20
-309.1002798802085
 30
0.0
 11
251.353896411767
 21
-309.1002798802085
 31
0.0
  0
LINE
  5
EE7
330
6B
100
AcDbEntity
  8
0
100
AcDbLine
 10
251.853896411767
 20
-309.1002798802085
 30
0.0
 11
252.8997503532443
 21
-309.1002798802085
 31
0.0
  0
LINE
  5
EE8
330
6B
100
AcDbEntity
  8
0
100
AcDbLine
 10
250.3080424702899
 20
-308.6002798802085
 30
0.0
 11
251.353896411767
 21
-308.6002798802085
 31
0.0
  0
LINE
  5
EE9
330
6B
100
AcDbEntity
  8
0
100
AcDbLine
 10
251.853896411767
 20
-308.6002798802085
 30
0.0
 11
252.8997503532443
 21
-308.6002798802085
 31
0.0
  0
LINE
  5
EEA
330
6B
100
AcDbEntity
  8
0
100
AcDbLine
 10
251.353896411767
 20
-307.5544259387315
 30
0.0
 11
251.353896411767
 21
-308.6002798802085
 31
0.0
  0
LINE
  5
EEB
330
6B
100
AcDbEntity
  8
0
100
AcDbLine
 10
251.353896411767
 20
-309.1002798802085
 30
0.0
 11
251.353896411767
 21
-310.1461338216856
 31
0.0
  0
LINE
  5
EEC
330
6B
100
AcDbEntity
  8
0
100
AcDbLine
 10
251.853896411767
 20
-307.5544259387315
 30
0.0
 11
251.853896411767
 21
-308.6002798802085
 31
0.0
  0
LINE
  5
EED
330
6B
100
AcDbEntity
  8
0
100
AcDbLine
 10
251.853896411767
 20
-309.1002798802085
 30
0.0
 11
251.853896411767
 21
-310.1461338216856
 31
0.0
  0
CIRCLE
  5
EEE
330
6B
100
AcDbEntity
  8
0
100
AcDbCircle
 10
251.603896411767
 20
-308.8502798802085
 30
0.0
 40
2.25
  0
ARC
  5
EEF
330
6B
100
AcDbEntity
  8
0
100
AcDbCircle
 10
251.603896411767
 20
-308.8502798802085
 30
0.0
 40
1.319749005546779
100
AcDbArc
 50
79.08048086552442
 51
100.9195191344755
  0
ARC
  5
EF0
330
6B
100
AcDbEntity
  8
0
100
AcDbCircle
 10
251.603896411767
 20
-308.8502798802085
 30
0.0
 40
1.319749005546779
100
AcDbArc
 50
169.0804808655313
 51
190.9195191344687
  0
ARC
  5
EF1
330
6B
100
AcDbEntity
  8
0
100
AcDbCircle
 10
251.603896411767
 20
-308.8502798802085
 30
0.0
 40
1.319749005546779
100
AcDbArc
 50
259.0804808655245
 51
280.9195191344755
  0
ARC
  5
EF2
330
6B
100
AcDbEntity
  8
0
100
AcDbCircle
 10
251.603896411767
 20
-308.8502798802085
 30
0.0
 40
1.319749005546779
100
AcDbArc
 50
349.0804808655312
 51
10.91951913446873
  0
LINE
  5
EF3
330
6B
100
AcDbEntity
  8
0
100
AcDbLine
 10
239.3080424702899
 20
-273.6002798802085
 30
0.0
 11
240.353896411767
 21
-273.6002798802085
 31
0.0
  0
LINE
  5
EF4
330
6B
100
AcDbEntity
  8
0
100
AcDbLine
 10
240.853896411767
 20
-273.6002798802085
 30
0.0
 11
241.8997503532442
 21
-273.6002798802085
 31
0.0
  0
LINE
  5
EF5
330
6B
100
AcDbEntity
  8
0
100
AcDbLine
 10
239.3080424702899
 20
-273.1002798802086
 30
0.0
 11
240.353896411767
 21
-273.1002798802086
 31
0.0
  0
LINE
  5
EF6
330
6B
100
AcDbEntity
  8
0
100
AcDbLine
 10
240.853896411767
 20
-273.1002798802086
 30
0.0
 11
241.8997503532442
 21
-273.1002798802086
 31
0.0
  0
LINE
  5
EF7
330
6B
100
AcDbEntity
  8
0
100
AcDbLine
 10
240.353896411767
 20
-272.0544259387315
 30
0.0
 11
240.353896411767
 21
-273.1002798802086
 31
0.0
  0
LINE
  5
EF8
330
6B
100
AcDbEntity
  8
0
100
AcDbLine
 10
240.353896411767
 20
-273.6002798802085
 30
0.0
 11
240.353896411767
 21
-274.6461338216856
 31
0.0
  0
LINE
  5
EF9
330
6B
100
AcDbEntity
  8
0
100
AcDbLine
 10
240.853896411767
 20
-272.0544259387315
 30
0.0
 11
240.853896411767
 21
-273.1002798802086
 31
0.0
  0
LINE
  5
EFA
330
6B
100
AcDbEntity
  8
0
100
AcDbLine
 10
240.853896411767
 20
-273.6002798802085
 30
0.0
 11
240.853896411767
 21
-274.6461338216856
 31
0.0
  0
CIRCLE
  5
EFB
330
6B
100
AcDbEntity
  8
0
100
AcDbCircle
 10
240.603896411767
 20
-273.3502798802085
 30
0.0
 40
2.25
  0
ARC
  5
EFC
330
6B
100
AcDbEntity
  8
0
100
AcDbCircle
 10
240.603896411767
 20
-273.3502798802085
 30
0.0
 40
1.319749005546779
100
AcDbArc
 50
79.08048086552442
 51
100.9195191344755
  0
ARC
  5
EFD
330
6B
100
AcDbEntity
  8
0
100
AcDbCircle
 10
240.603896411767
 20
-273.3502798802085
 30
0.0
 40
1.319749005546779
100
AcDbArc
 50
169.080480865528
 51
190.9195191344719
  0
ARC
  5
EFE
330
6B
100
AcDbEntity
  8
0
100
AcDbCircle
 10
240.603896411767
 20
-273.3502798802085
 30
0.0
 40
1.319749005546779
100
AcDbArc
 50
259.0804808655245
 51
280.9195191344755
  0
ARC
  5
EFF
330
6B
100
AcDbEntity
  8
0
100
AcDbCircle
 10
240.603896411767
 20
-273.3502798802085
 30
0.0
 40
1.319749005546779
100
AcDbArc
 50
349.0804808655281
 51
10.91951913447193
  0
LINE
  5
F00
330
6B
100
AcDbEntity
  8
0
100
AcDbLine
 10
177.7888197655466
 20
-275.6002798802085
 30
0.0
 11
178.2888197655463
 21
-275.6002798802085
 31
0.0
  0
LINE
  5
F01
330
6B
100
AcDbEntity
  8
0
100
AcDbLine
 10
177.7888197655466
 20
-271.1002798802085
 30
0.0
 11
178.2888197655463
 21
-271.1002798802085
 31
0.0
  0
LINE
  5
F02
330
6B
100
AcDbEntity
  8
0
100
AcDbLine
 10
178.2888197655463
 20
-271.1002798802085
 30
0.0
 11
178.2888197655463
 21
-275.6002798802085
 31
0.0
  0
ARC
  5
F03
330
6B
100
AcDbEntity
  8
0
100
AcDbCircle
 10
175.2888197655464
 20
-273.3502798802085
 30
0.0
 40
3.75
100
AcDbArc
 50
323.1301023541508
 51
36.86989764584923
  0
LINE
  5
F04
330
6B
100
AcDbEntity
  8
0
100
AcDbLine
 10
177.7888197655466
 20
-311.1002798802085
 30
0.0
 11
178.2888197655463
 21
-311.1002798802085
 31
0.0
  0
LINE
  5
F05
330
6B
100
AcDbEntity
  8
0
100
AcDbLine
 10
177.7888197655466
 20
-306.6002798802085
 30
0.0
 11
178.2888197655463
 21
-306.6002798802085
 31
0.0
  0
LINE
  5
F06
330
6B
100
AcDbEntity
  8
0
100
AcDbLine
 10
178.2888197655463
 20
-306.6002798802085
 30
0.0
 11
178.2888197655463
 21
-311.1002798802085
 31
0.0
  0
ARC
  5
F07
330
6B
100
AcDbEntity
  8
0
100
AcDbCircle
 10
175.2888197655464
 20
-308.8502798802085
 30
0.0
 40
3.75
100
AcDbArc
 50
323.1301023541508
 51
36.86989764584923
  0
LINE
  5
F08
330
6B
100
AcDbEntity
  8
0
100
AcDbLine
 10
67.78881976554656
 20
-275.6002798802085
 30
0.0
 11
67.28881976554646
 21
-275.6002798802085
 31
0.0
  0
LINE
  5
F09
330
6B
100
AcDbEntity
  8
0
100
AcDbLine
 10
67.78881976554656
 20
-271.1002798802085
 30
0.0
 11
67.28881976554646
 21
-271.1002798802085
 31
0.0
  0
LINE
  5
F0A
330
6B
100
AcDbEntity
  8
0
100
AcDbLine
 10
67.28881976554646
 20
-271.1002798802085
 30
0.0
 11
67.28881976554646
 21
-275.6002798802085
 31
0.0
  0
ARC
  5
F0B
330
6B
100
AcDbEntity
  8
0
100
AcDbCircle
 10
70.28881976554669
 20
-273.3502798802085
 30
0.0
 40
3.75
100
AcDbArc
 50
143.1301023541507
 51
216.8698976458492
  0
LINE
  5
F0C
330
6B
100
AcDbEntity
  8
0
100
AcDbLine
 10
67.78881976554656
 20
-311.1002798802085
 30
0.0
 11
67.28881976554646
 21
-311.1002798802085
 31
0.0
  0
LINE
  5
F0D
330
6B
100
AcDbEntity
  8
0
100
AcDbLine
 10
67.78881976554656
 20
-306.6002798802085
 30
0.0
 11
67.28881976554646
 21
-306.6002798802085
 31
0.0
  0
LINE
  5
F0E
330
6B
100
AcDbEntity
  8
0
100
AcDbLine
 10
67.28881976554646
 20
-306.6002798802085
 30
0.0
 11
67.28881976554646
 21
-311.1002798802085
 31
0.0
  0
ARC
  5
F0F
330
6B
100
AcDbEntity
  8
0
100
AcDbCircle
 10
70.28881976554669
 20
-308.8502798802085
 30
0.0
 40
3.75
100
AcDbArc
 50
143.1301023541507
 51
216.8698976458492
  0
ARC
  5
F10
330
6B
100
AcDbEntity
  8
0
100
AcDbCircle
 10
314.353896411767
 20
-256.1002798802086
 30
0.0
 40
0.7499999999999992
100
AcDbArc
 50
0.0
 51
180.0
  0
ARC
  5
F11
330
6B
100
AcDbEntity
  8
0
100
AcDbCircle
 10
314.353896411767
 20
-269.6002798802085
 30
0.0
 40
0.7499999999999992
100
AcDbArc
 50
180.0
 51
0.0
  0
LINE
  5
F12
330
6B
100
AcDbEntity
  8
0
100
AcDbLine
 10
312.103896411767
 20
-256.1002798802086
 30
0.0
 11
312.103896411767
 21
-269.6002798802085
 31
0.0
  0
LINE
  5
F13
330
6B
100
AcDbEntity
  8
0
100
AcDbLine
 10
310.603896411767
 20
-256.1002798802086
 30
0.0
 11
310.603896411767
 21
-269.6002798802085
 31
0.0
  0
ARC
  5
F14
330
6B
100
AcDbEntity
  8
0
100
AcDbCircle
 10
311.353896411767
 20
-256.1002798802086
 30
0.0
 40
0.7499999999999992
100
AcDbArc
 50
0.0
 51
180.0
  0
ARC
  5
F15
330
6B
100
AcDbEntity
  8
0
100
AcDbCircle
 10
311.353896411767
 20
-269.6002798802085
 30
0.0
 40
0.7499999999999992
100
AcDbArc
 50
180.0
 51
0.0
  0
LINE
  5
F16
330
6B
100
AcDbEntity
  8
0
100
AcDbLine
 10
309.103896411767
 20
-256.1002798802086
 30
0.0
 11
309.103896411767
 21
-269.6002798802085
 31
0.0
  0
LINE
  5
F17
330
6B
100
AcDbEntity
  8
0
100
AcDbLine
 10
307.603896411767
 20
-256.1002798802086
 30
0.0
 11
307.603896411767
 21
-269.6002798802085
 31
0.0
  0
ARC
  5
F18
330
6B
100
AcDbEntity
  8
0
100
AcDbCircle
 10
308.353896411767
 20
-256.1002798802086
 30
0.0
 40
0.7499999999999992
100
AcDbArc
 50
0.0
 51
180.0
  0
ARC
  5
F19
330
6B
100
AcDbEntity
  8
0
100
AcDbCircle
 10
308.353896411767
 20
-269.6002798802085
 30
0.0
 40
0.7499999999999992
100
AcDbArc
 50
180.0
 51
0.0
  0
LINE
  5
F1A
330
6B
100
AcDbEntity
  8
0
100
AcDbLine
 10
306.103896411767
 20
-256.1002798802086
 30
0.0
 11
306.103896411767
 21
-269.6002798802085
 31
0.0
  0
LINE
  5
F1B
330
6B
100
AcDbEntity
  8
0
100
AcDbLine
 10
304.603896411767
 20
-256.1002798802086
 30
0.0
 11
304.603896411767
 21
-269.6002798802085
 31
0.0
  0
ARC
  5
F1C
330
6B
100
AcDbEntity
  8
0
100
AcDbCircle
 10
305.353896411767
 20
-256.1002798802086
 30
0.0
 40
0.7499999999999992
100
AcDbArc
 50
0.0
 51
180.0
  0
ARC
  5
F1D
330
6B
100
AcDbEntity
  8
0
100
AcDbCircle
 10
305.353896411767
 20
-269.6002798802085
 30
0.0
 40
0.7499999999999992
100
AcDbArc
 50
180.0
 51
0.0
  0
LINE
  5
F1E
330
6B
100
AcDbEntity
  8
0
100
AcDbLine
 10
303.103896411767
 20
-256.1002798802086
 30
0.0
 11
303.103896411767
 21
-269.6002798802085
 31
0.0
  0
LINE
  5
F1F
330
6B
100
AcDbEntity
  8
0
100
AcDbLine
 10
301.603896411767
 20
-256.1002798802086
 30
0.0
 11
301.603896411767
 21
-269.6002798802085
 31
0.0
  0
ARC
  5
F20
330
6B
100
AcDbEntity
  8
0
100
AcDbCircle
 10
302.353896411767
 20
-256.1002798802086
 30
0.0
 40
0.7499999999999992
100
AcDbArc
 50
0.0
 51
180.0
  0
ARC
  5
F21
330
6B
100
AcDbEntity
  8
0
100
AcDbCircle
 10
302.353896411767
 20
-269.6002798802085
 30
0.0
 40
0.7499999999999992
100
AcDbArc
 50
180.0
 51
0.0
  0
LINE
  5
F22
330
6B
100
AcDbEntity
  8
0
100
AcDbLine
 10
300.103896411767
 20
-256.1002798802086
 30
0.0
 11
300.103896411767
 21
-269.6002798802085
 31
0.0
  0
LINE
  5
F23
330
6B
100
AcDbEntity
  8
0
100
AcDbLine
 10
298.603896411767
 20
-256.1002798802086
 30
0.0
 11
298.603896411767
 21
-269.6002798802085
 31
0.0
  0
ARC
  5
F24
330
6B
100
AcDbEntity
  8
0
100
AcDbCircle
 10
299.353896411767
 20
-256.1002798802086
 30
0.0
 40
0.7499999999999992
100
AcDbArc
 50
0.0
 51
180.0
  0
ARC
  5
F25
330
6B
100
AcDbEntity
  8
0
100
AcDbCircle
 10
299.353896411767
 20
-269.6002798802085
 30
0.0
 40
0.7499999999999992
100
AcDbArc
 50
180.0
 51
0.0
  0
LINE
  5
F26
330
6B
100
AcDbEntity
  8
0
100
AcDbLine
 10
297.103896411767
 20
-256.1002798802086
 30
0.0
 11
297.103896411767
 21
-269.6002798802085
 31
0.0
  0
LINE
  5
F27
330
6B
100
AcDbEntity
  8
0
100
AcDbLine
 10
295.603896411767
 20
-256.1002798802086
 30
0.0
 11
295.603896411767
 21
-269.6002798802085
 31
0.0
  0
ARC
  5
F28
330
6B
100
AcDbEntity
  8
0
100
AcDbCircle
 10
296.353896411767
 20
-256.1002798802086
 30
0.0
 40
0.7499999999999992
100
AcDbArc
 50
0.0
 51
180.0
  0
ARC
  5
F29
330
6B
100
AcDbEntity
  8
0
100
AcDbCircle
 10
296.353896411767
 20
-269.6002798802085
 30
0.0
 40
0.7499999999999992
100
AcDbArc
 50
180.0
 51
0.0
  0
LINE
  5
F2A
330
6B
100
AcDbEntity
  8
0
100
AcDbLine
 10
294.103896411767
 20
-256.1002798802086
 30
0.0
 11
294.103896411767
 21
-269.6002798802085
 31
0.0
  0
LINE
  5
F2B
330
6B
100
AcDbEntity
  8
0
100
AcDbLine
 10
292.603896411767
 20
-256.1002798802086
 30
0.0
 11
292.603896411767
 21
-269.6002798802085
 31
0.0
  0
ARC
  5
F2C
330
6B
100
AcDbEntity
  8
0
100
AcDbCircle
 10
293.353896411767
 20
-256.1002798802086
 30
0.0
 40
0.7499999999999992
100
AcDbArc
 50
0.0
 51
180.0
  0
ARC
  5
F2D
330
6B
100
AcDbEntity
  8
0
100
AcDbCircle
 10
293.353896411767
 20
-269.6002798802085
 30
0.0
 40
0.7499999999999992
100
AcDbArc
 50
180.0
 51
0.0
  0
LINE
  5
F2E
330
6B
100
AcDbEntity
  8
0
100
AcDbLine
 10
291.103896411767
 20
-256.1002798802086
 30
0.0
 11
291.103896411767
 21
-269.6002798802085
 31
0.0
  0
LINE
  5
F2F
330
6B
100
AcDbEntity
  8
0
100
AcDbLine
 10
289.603896411767
 20
-256.1002798802086
 30
0.0
 11
289.603896411767
 21
-269.6002798802085
 31
0.0
  0
ARC
  5
F30
330
6B
100
AcDbEntity
  8
0
100
AcDbCircle
 10
290.353896411767
 20
-256.1002798802086
 30
0.0
 40
0.7499999999999992
100
AcDbArc
 50
0.0
 51
180.0
  0
ARC
  5
F31
330
6B
100
AcDbEntity
  8
0
100
AcDbCircle
 10
290.353896411767
 20
-269.6002798802085
 30
0.0
 40
0.7499999999999992
100
AcDbArc
 50
180.0
 51
0.0
  0
LINE
  5
F32
330
6B
100
AcDbEntity
  8
0
100
AcDbLine
 10
288.103896411767
 20
-256.1002798802086
 30
0.0
 11
288.103896411767
 21
-269.6002798802085
 31
0.0
  0
LINE
  5
F33
330
6B
100
AcDbEntity
  8
0
100
AcDbLine
 10
286.603896411767
 20
-256.1002798802086
 30
0.0
 11
286.603896411767
 21
-269.6002798802085
 31
0.0
  0
ARC
  5
F34
330
6B
100
AcDbEntity
  8
0
100
AcDbCircle
 10
287.353896411767
 20
-256.1002798802086
 30
0.0
 40
0.7499999999999992
100
AcDbArc
 50
0.0
 51
180.0
  0
ARC
  5
F35
330
6B
100
AcDbEntity
  8
0
100
AcDbCircle
 10
287.353896411767
 20
-269.6002798802085
 30
0.0
 40
0.7499999999999992
100
AcDbArc
 50
180.0
 51
0.0
  0
LINE
  5
F36
330
6B
100
AcDbEntity
  8
0
100
AcDbLine
 10
285.103896411767
 20
-256.1002798802086
 30
0.0
 11
285.103896411767
 21
-269.6002798802085
 31
0.0
  0
LINE
  5
F37
330
6B
100
AcDbEntity
  8
0
100
AcDbLine
 10
283.603896411767
 20
-256.1002798802086
 30
0.0
 11
283.603896411767
 21
-269.6002798802085
 31
0.0
  0
ARC
  5
F38
330
6B
100
AcDbEntity
  8
0
100
AcDbCircle
 10
284.353896411767
 20
-256.1002798802086
 30
0.0
 40
0.7499999999999992
100
AcDbArc
 50
0.0
 51
180.0
  0
ARC
  5
F39
330
6B
100
AcDbEntity
  8
0
100
AcDbCircle
 10
284.353896411767
 20
-269.6002798802085
 30
0.0
 40
0.7499999999999992
100
AcDbArc
 50
180.0
 51
0.0
  0
LINE
  5
F3A
330
6B
100
AcDbEntity
  8
0
100
AcDbLine
 10
282.103896411767
 20
-256.1002798802086
 30
0.0
 11
282.103896411767
 21
-269.6002798802085
 31
0.0
  0
LINE
  5
F3B
330
6B
100
AcDbEntity
  8
0
100
AcDbLine
 10
280.603896411767
 20
-256.1002798802086
 30
0.0
 11
280.603896411767
 21
-269.6002798802085
 31
0.0
  0
ARC
  5
F3C
330
6B
100
AcDbEntity
  8
0
100
AcDbCircle
 10
281.3538964117671
 20
-256.1002798802086
 30
0.0
 40
0.7499999999999992
100
AcDbArc
 50
0.0
 51
180.0
  0
ARC
  5
F3D
330
6B
100
AcDbEntity
  8
0
100
AcDbCircle
 10
281.3538964117671
 20
-269.6002798802085
 30
0.0
 40
0.7499999999999992
100
AcDbArc
 50
180.0
 51
0.0
  0
LINE
  5
F3E
330
6B
100
AcDbEntity
  8
0
100
AcDbLine
 10
279.103896411767
 20
-256.1002798802086
 30
0.0
 11
279.103896411767
 21
-269.6002798802085
 31
0.0
  0
LINE
  5
F3F
330
6B
100
AcDbEntity
  8
0
100
AcDbLine
 10
277.603896411767
 20
-256.1002798802086
 30
0.0
 11
277.603896411767
 21
-269.6002798802085
 31
0.0
  0
ARC
  5
F40
330
6B
100
AcDbEntity
  8
0
100
AcDbCircle
 10
278.353896411767
 20
-256.1002798802086
 30
0.0
 40
0.7499999999999992
100
AcDbArc
 50
0.0
 51
180.0
  0
ARC
  5
F41
330
6B
100
AcDbEntity
  8
0
100
AcDbCircle
 10
278.353896411767
 20
-269.6002798802085
 30
0.0
 40
0.7499999999999992
100
AcDbArc
 50
180.0
 51
0.0
  0
LINE
  5
F42
330
6B
100
AcDbEntity
  8
0
100
AcDbLine
 10
276.103896411767
 20
-256.1002798802086
 30
0.0
 11
276.103896411767
 21
-269.6002798802085
 31
0.0
  0
LINE
  5
F43
330
6B
100
AcDbEntity
  8
0
100
AcDbLine
 10
274.603896411767
 20
-256.1002798802086
 30
0.0
 11
274.603896411767
 21
-269.6002798802085
 31
0.0
  0
ARC
  5
F44
330
6B
100
AcDbEntity
  8
0
100
AcDbCircle
 10
275.353896411767
 20
-256.1002798802086
 30
0.0
 40
0.7499999999999992
100
AcDbArc
 50
0.0
 51
180.0
  0
ARC
  5
F45
330
6B
100
AcDbEntity
  8
0
100
AcDbCircle
 10
275.353896411767
 20
-269.6002798802085
 30
0.0
 40
0.7499999999999992
100
AcDbArc
 50
180.0
 51
0.0
  0
LINE
  5
F46
330
6B
100
AcDbEntity
  8
0
100
AcDbLine
 10
273.1038964117671
 20
-256.1002798802086
 30
0.0
 11
273.1038964117671
 21
-269.6002798802085
 31
0.0
  0
LINE
  5
F47
330
6B
100
AcDbEntity
  8
0
100
AcDbLine
 10
271.603896411767
 20
-256.1002798802086
 30
0.0
 11
271.603896411767
 21
-269.6002798802085
 31
0.0
  0
ARC
  5
F48
330
6B
100
AcDbEntity
  8
0
100
AcDbCircle
 10
272.353896411767
 20
-256.1002798802086
 30
0.0
 40
0.7499999999999992
100
AcDbArc
 50
0.0
 51
180.0
  0
ARC
  5
F49
330
6B
100
AcDbEntity
  8
0
100
AcDbCircle
 10
272.353896411767
 20
-269.6002798802085
 30
0.0
 40
0.7499999999999992
100
AcDbArc
 50
180.0
 51
0.0
  0
LINE
  5
F4A
330
6B
100
AcDbEntity
  8
0
100
AcDbLine
 10
270.103896411767
 20
-256.1002798802086
 30
0.0
 11
270.103896411767
 21
-269.6002798802085
 31
0.0
  0
LINE
  5
F4B
330
6B
100
AcDbEntity
  8
0
100
AcDbLine
 10
268.603896411767
 20
-256.1002798802086
 30
0.0
 11
268.603896411767
 21
-269.6002798802085
 31
0.0
  0
ARC
  5
F4C
330
6B
100
AcDbEntity
  8
0
100
AcDbCircle
 10
269.353896411767
 20
-256.1002798802086
 30
0.0
 40
0.7499999999999992
100
AcDbArc
 50
0.0
 51
180.0
  0
ARC
  5
F4D
330
6B
100
AcDbEntity
  8
0
100
AcDbCircle
 10
269.353896411767
 20
-269.6002798802085
 30
0.0
 40
0.7499999999999992
100
AcDbArc
 50
180.0
 51
0.0
  0
LINE
  5
F4E
330
6B
100
AcDbEntity
  8
0
100
AcDbLine
 10
267.103896411767
 20
-256.1002798802086
 30
0.0
 11
267.103896411767
 21
-269.6002798802085
 31
0.0
  0
LINE
  5
F4F
330
6B
100
AcDbEntity
  8
0
100
AcDbLine
 10
265.603896411767
 20
-256.1002798802086
 30
0.0
 11
265.603896411767
 21
-269.6002798802085
 31
0.0
  0
ARC
  5
F50
330
6B
100
AcDbEntity
  8
0
100
AcDbCircle
 10
266.353896411767
 20
-256.1002798802086
 30
0.0
 40
0.7499999999999992
100
AcDbArc
 50
0.0
 51
180.0
  0
ARC
  5
F51
330
6B
100
AcDbEntity
  8
0
100
AcDbCircle
 10
266.353896411767
 20
-269.6002798802085
 30
0.0
 40
0.7499999999999992
100
AcDbArc
 50
180.0
 51
0.0
  0
LINE
  5
F52
330
6B
100
AcDbEntity
  8
0
100
AcDbLine
 10
264.103896411767
 20
-256.1002798802086
 30
0.0
 11
264.103896411767
 21
-269.6002798802085
 31
0.0
  0
LINE
  5
F53
330
6B
100
AcDbEntity
  8
0
100
AcDbLine
 10
262.6038964117671
 20
-256.1002798802086
 30
0.0
 11
262.6038964117671
 21
-269.6002798802085
 31
0.0
  0
ARC
  5
F54
330
6B
100
AcDbEntity
  8
0
100
AcDbCircle
 10
263.353896411767
 20
-256.1002798802086
 30
0.0
 40
0.7499999999999992
100
AcDbArc
 50
0.0
 51
180.0
  0
ARC
  5
F55
330
6B
100
AcDbEntity
  8
0
100
AcDbCircle
 10
263.353896411767
 20
-269.6002798802085
 30
0.0
 40
0.7499999999999992
100
AcDbArc
 50
180.0
 51
0.0
  0
LINE
  5
F56
330
6B
100
AcDbEntity
  8
0
100
AcDbLine
 10
261.103896411767
 20
-256.1002798802086
 30
0.0
 11
261.103896411767
 21
-269.6002798802085
 31
0.0
  0
LINE
  5
F57
330
6B
100
AcDbEntity
  8
0
100
AcDbLine
 10
259.603896411767
 20
-256.1002798802086
 30
0.0
 11
259.603896411767
 21
-269.6002798802085
 31
0.0
  0
ARC
  5
F58
330
6B
100
AcDbEntity
  8
0
100
AcDbCircle
 10
260.353896411767
 20
-256.1002798802086
 30
0.0
 40
0.7499999999999992
100
AcDbArc
 50
0.0
 51
180.0
  0
ARC
  5
F59
330
6B
100
AcDbEntity
  8
0
100
AcDbCircle
 10
260.353896411767
 20
-269.6002798802085
 30
0.0
 40
0.7499999999999992
100
AcDbArc
 50
180.0
 51
0.0
  0
LINE
  5
F5A
330
6B
100
AcDbEntity
  8
0
100
AcDbLine
 10
258.103896411767
 20
-256.1002798802086
 30
0.0
 11
258.103896411767
 21
-269.6002798802085
 31
0.0
  0
LINE
  5
F5B
330
6B
100
AcDbEntity
  8
0
100
AcDbLine
 10
256.603896411767
 20
-256.1002798802086
 30
0.0
 11
256.603896411767
 21
-269.6002798802085
 31
0.0
  0
ARC
  5
F5C
330
6B
100
AcDbEntity
  8
0
100
AcDbCircle
 10
257.353896411767
 20
-256.1002798802086
 30
0.0
 40
0.7499999999999992
100
AcDbArc
 50
0.0
 51
180.0
  0
ARC
  5
F5D
330
6B
100
AcDbEntity
  8
0
100
AcDbCircle
 10
257.353896411767
 20
-269.6002798802085
 30
0.0
 40
0.7499999999999992
100
AcDbArc
 50
180.0
 51
0.0
  0
LINE
  5
F5E
330
6B
100
AcDbEntity
  8
0
 62
     3
100
AcDbLine
 10
274.853896411767
 20
-242.3502798802084
 30
0.0
 11
275.8538964117671
 21
-227.3502798802085
 31
0.0
  0
LINE
  5
F5F
330
6B
100
AcDbEntity
  8
0
 62
     3
100
AcDbLine
 10
275.8538964117671
 20
-227.3502798802085
 30
0.0
 11
280.8538964117671
 21
-227.3502798802085
 31
0.0
  0
LINE
  5
F60
330
6B
100
AcDbEntity
  8
0
 62
     3
100
AcDbLine
 10
280.8538964117671
 20
-227.3502798802085
 30
0.0
 11
281.853896411767
 21
-242.3502798802084
 31
0.0
  0
TEXT
  5
F62
330
6B
100
AcDbEntity
  8
0
100
AcDbText
 10
110.4836922679851
 20
-297.2288848696288
 30
0.0
 40
2.25
  1
切
  7
高4.5
100
AcDbText
  0
TEXT
  5
F63
330
6B
100
AcDbEntity
  8
0
100
AcDbText
 10
132.615209712643
 20
-297.2288848696288
 30
0.0
 40
2.25
  1
入
  7
高4.5
100
AcDbText
  0
CIRCLE
  5
F69
330
6B
100
AcDbEntity
  8
0
 62
     7
100
AcDbCircle
 10
49.64931257337139
 20
-318.4067988018679
 30
0.0
 40
5.0
  0
TEXT
  5
F6A
330
6B
100
AcDbEntity
  8
0
 62
     4
100
AcDbText
 10
47.44543140321002
 20
-321.8446702011236
 30
0.0
 40
6.299999999999998
  1
4
  7
高6.3
100
AcDbText
  0
CIRCLE
  5
F6B
330
6B
100
AcDbEntity
  8
0
 62
     7
100
AcDbCircle
 10
49.64931257337139
 20
-298.4313458018679
 30
0.0
 40
5.0
  0
TEXT
  5
F6C
330
6B
100
AcDbEntity
  8
0
 62
     4
100
AcDbText
 10
47.44543140321002
 20
-301.8692172011235
 30
0.0
 40
6.299999999999998
  1
9
  7
高6.3
100
AcDbText
  0
CIRCLE
  5
F6D
330
6B
100
AcDbEntity
  8
0
 62
     7
100
AcDbCircle
 10
49.64931257337139
 20
-263.2706311047875
 30
0.0
 40
5.0
  0
TEXT
  5
F6E
330
6B
100
AcDbEntity
  8
0
 62
     4
100
AcDbText
 10
47.44543140321002
 20
-266.7085025040429
 30
0.0
 40
6.299999999999998
  1
5
  7
高6.3
100
AcDbText
  0
CIRCLE
  5
F6F
330
6B
100
AcDbEntity
  8
0
 62
     7
100
AcDbCircle
 10
49.63326757337132
 20
-237.3411098018679
 30
0.0
 40
5.0
  0
TEXT
  5
F70
330
6B
100
AcDbEntity
  8
0
 62
     4
100
AcDbText
 10
47.42938640321006
 20
-240.7789812011237
 30
0.0
 40
6.299999999999998
  1
7
  7
高6.3
100
AcDbText
  0
CIRCLE
  5
F71
330
6B
100
AcDbEntity
  8
0
 62
     7
100
AcDbCircle
 10
102.2360216590432
 20
-321.1750959466223
 30
0.0
 40
5.0
  0
TEXT
  5
F72
330
6B
100
AcDbEntity
  8
0
 62
     4
100
AcDbText
 10
100.0321404888818
 20
-324.6129673458778
 30
0.0
 40
6.299999999999998
  1
8
  7
高6.3
100
AcDbText
  0
CIRCLE
  5
F73
330
6B
100
AcDbEntity
  8
0
 62
     7
100
AcDbCircle
 10
350.0203117989415
 20
-282.770797558679
 30
0.0
 40
5.0
  0
TEXT
  5
F74
330
6B
100
AcDbEntity
  8
0
 62
     4
100
AcDbText
 10
347.8164306287802
 20
-286.2086689579346
 30
0.0
 40
6.299999999999998
  1
3
  7
高6.3
100
AcDbText
  0
CIRCLE
  5
F75
330
6B
100
AcDbEntity
  8
0
 62
     7
100
AcDbCircle
 10
350.0179737989415
 20
-231.007476558679
 30
0.0
 40
5.0
  0
TEXT
  5
F76
330
6B
100
AcDbEntity
  8
0
 62
     4
100
AcDbText
 10
347.8140926287801
 20
-234.4453479579346
 30
0.0
 40
6.299999999999998
  1
2
  7
高6.3
100
AcDbText
  0
CIRCLE
  5
F77
330
6B
100
AcDbEntity
  8
0
 62
     7
100
AcDbCircle
 10
295.2450327989414
 20
-231.007476558679
 30
0.0
 40
5.0
  0
TEXT
  5
F78
330
6B
100
AcDbEntity
  8
0
 62
     4
100
AcDbText
 10
294.1723343887916
 20
-234.2225661788176
 30
0.0
 40
6.299999999999998
  1
1
  7
高6.3
100
AcDbText
  0
ARC
  5
F7B
330
6B
100
AcDbEntity
  8
0
100
AcDbCircle
 10
335.666075070975
 20
-298.6830404717279
 30
0.0
 40
4.398755792651773
100
AcDbArc
 50
150.085761188329
 51
210.1930884079026
  0
ARC
  5
F7C
330
6B
100
AcDbEntity
  8
0
100
AcDbCircle
 10
327.8527757918545
 20
-302.9997546724504
 30
0.0
 40
4.529843558913587
100
AcDbArc
 50
332.3164392411781
 51
27.68356075882193
  0
ARC
  5
F7D
330
6B
100
AcDbEntity
  8
0
100
AcDbCircle
 10
338.8391389662349
 20
-298.6830404717279
 30
0.0
 40
4.398755792651773
100
AcDbArc
 50
150.085761188329
 51
210.1930884079026
  0
ARC
  5
F7E
330
6B
100
AcDbEntity
  8
0
100
AcDbCircle
 10
331.0258396871143
 20
-302.9997546724504
 30
0.0
 40
4.529843558913587
100
AcDbArc
 50
332.3164392411781
 51
27.68356075882193
  0
CIRCLE
  5
F85
330
6B
100
AcDbEntity
  8
0
 62
     7
100
AcDbCircle
 10
190.3966414124043
 20
-263.2706311047875
 30
0.0
 40
5.0
  0
TEXT
  5
F86
330
6B
100
AcDbEntity
  8
0
 62
     4
100
AcDbText
 10
188.1927602422429
 20
-266.7085025040429
 30
0.0
 40
6.299999999999998
  1
6
  7
高6.3
100
AcDbText
  0
LINE
  5
10CB
330
6B
100
AcDbEntity
  8
0
100
AcDbLine
 10
104.7888197655465
 20
-277.8502798802086
 30
0.0
 11
140.7888197655466
 21
-277.8502798802086
 31
0.0
  0
TEXT
  5
10CC
330
6B
100
AcDbEntity
  8
0
100
AcDbText
 10
107.7888197655465
 20
-284.7796092256034
 30
0.0
 40
1.25
  1
入力：AC100V　50/60Hz　出力：AC115V・AC125V
 41
0.7
  7
高2.5
100
AcDbText
  0
LINE
  5
113D
330
6B
100
AcDbEntity
  8
0
 62
     3
100
AcDbLine
 10
20.318936
 20
-407.9647731215681
 30
0.0
 11
186.7058421779351
 21
-407.9647731215681
 31
0.0
  0
TEXT
  5
113F
330
6B
100
AcDbEntity
  8
0
 62
     3
100
AcDbText
 10
28.9447581608005
 20
-427.4647717071894
 30
0.0
 40
3.2
  1
2PE付きWコンセント
 41
0.8
  7
高3.2
100
AcDbText
  0
TEXT
  5
1140
330
6B
100
AcDbEntity
  8
0
 62
     3
100
AcDbText
 10
80.79391860821978
 20
-427.4647717071894
 30
0.0
 40
3.2
  1
2PE 15A 125V(赤)
 41
0.8
  7
高3.2
100
AcDbText
  0
TEXT
  5
1141
330
6B
100
AcDbEntity
  8
0
 62
     3
100
AcDbText
 10
63.64878816743232
 20
-427.4647717071894
 30
0.0
 40
3.2
  1
ABS樹脂
 41
0.8
  7
高3.2
100
AcDbText
  0
TEXT
  5
1142
330
6B
100
AcDbEntity
  8
0
 62
     3
100
AcDbText
 10
21.81893599999998
 20
-412.4647724143787
 30
0.0
 40
3.2
  1
9
 41
0.8
  7
高3.2
100
AcDbText
  0
TEXT
  5
1143
330
6B
100
AcDbEntity
  8
0
 62
     3
100
AcDbText
 10
117.9622527369472
 20
-427.4647717071894
 30
0.0
 40
3.2
  1
1
 41
0.8
  7
高3.2
100
AcDbText
  0
TEXT
  5
1144
330
6B
100
AcDbEntity
  8
0
 62
     3
100
AcDbText
 10
117.9622527369472
 20
-432.464772060784
 30
0.0
 40
3.2
  1
1
 41
0.8
  7
高3.2
100
AcDbText
  0
LINE
  5
13AA
330
6B
100
AcDbEntity
  8
0
100
AcDbLine
 10
125.0388197655465
 20
-242.3502798802085
 30
0.0
 11
125.0388197655465
 21
-241.8502798802088
 31
0.0
  0
LINE
  5
13AB
330
6B
100
AcDbEntity
  8
0
100
AcDbLine
 10
120.5388197655465
 20
-242.3502798802085
 30
0.0
 11
120.5388197655465
 21
-241.8502798802088
 31
0.0
  0
LINE
  5
13AC
330
6B
100
AcDbEntity
  8
0
100
AcDbLine
 10
120.5388197655465
 20
-241.8502798802088
 30
0.0
 11
125.0388197655465
 21
-241.8502798802088
 31
0.0
  0
ARC
  5
13AD
330
6B
100
AcDbEntity
  8
0
100
AcDbCircle
 10
122.7888197655465
 20
-244.8502798802087
 30
0.0
 40
3.75
100
AcDbArc
 50
53.13010235415061
 51
126.8698976458493
  0
LINE
  5
13AE
330
6B
100
AcDbEntity
  8
0
100
AcDbLine
 10
251.853896411767
 20
-242.3502798802085
 30
0.0
 11
251.853896411767
 21
-241.8502798802088
 31
0.0
  0
LINE
  5
13AF
330
6B
100
AcDbEntity
  8
0
100
AcDbLine
 10
247.353896411767
 20
-242.3502798802085
 30
0.0
 11
247.353896411767
 21
-241.8502798802088
 31
0.0
  0
LINE
  5
13B0
330
6B
100
AcDbEntity
  8
0
100
AcDbLine
 10
247.353896411767
 20
-241.8502798802088
 30
0.0
 11
251.853896411767
 21
-241.8502798802088
 31
0.0
  0
ARC
  5
13B1
330
6B
100
AcDbEntity
  8
0
100
AcDbCircle
 10
249.603896411767
 20
-244.8502798802087
 30
0.0
 40
3.75
100
AcDbArc
 50
53.13010235415029
 51
126.8698976458497
  0
LINE
  5
13B2
330
6B
100
AcDbEntity
  8
0
100
AcDbLine
 10
325.353896411767
 20
-242.3502798802085
 30
0.0
 11
325.353896411767
 21
-241.8502798802088
 31
0.0
  0
LINE
  5
13B3
330
6B
100
AcDbEntity
  8
0
100
AcDbLine
 10
320.853896411767
 20
-242.3502798802085
 30
0.0
 11
320.853896411767
 21
-241.8502798802088
 31
0.0
  0
LINE
  5
13B4
330
6B
100
AcDbEntity
  8
0
100
AcDbLine
 10
320.853896411767
 20
-241.8502798802088
 30
0.0
 11
325.353896411767
 21
-241.8502798802088
 31
0.0
  0
ARC
  5
13B5
330
6B
100
AcDbEntity
  8
0
100
AcDbCircle
 10
323.103896411767
 20
-244.8502798802087
 30
0.0
 40
3.75
100
AcDbArc
 50
53.13010235415029
 51
126.8698976458497
  0
TEXT
  5
151F
330
6B
100
AcDbEntity
  8
0
 62
     3
100
AcDbText
 10
126.4505470087988
 20
-452.4647709999999
 30
0.0
 40
3.2
  1
54945
 41
0.8
  7
高3.2
100
AcDbText
  0
TEXT
  5
1520
330
6B
100
AcDbEntity
  8
0
 62
     3
100
AcDbText
 10
126.4505470087988
 20
-442.4647717071894
 30
0.0
 40
3.2
  1
51150
 41
0.8
  7
高3.2
100
AcDbText
  0
TEXT
  5
1521
330
6B
100
AcDbEntity
  8
0
 62
     3
100
AcDbText
 10
126.4505470087988
 20
-422.4647717071891
 30
0.0
 40
3.2
  1
53584
 41
0.8
  7
高3.2
100
AcDbText
  0
TEXT
  5
1522
330
6B
100
AcDbEntity
  8
0
 62
     3
100
AcDbText
 10
126.4505470087988
 20
-437.4647717071893
 30
0.0
 40
3.2
  1
53813
 41
0.8
  7
高3.2
100
AcDbText
  0
TEXT
  5
1523
330
6B
100
AcDbEntity
  8
0
 62
     3
100
AcDbText
 10
126.4505470087988
 20
-417.464771707189
 30
0.0
 40
3.2
  1
51780
 41
0.8
  7
高3.2
100
AcDbText
  0
TEXT
  5
1524
330
6B
100
AcDbEntity
  8
0
 62
     3
100
AcDbText
 10
126.4505470087988
 20
-412.4647724143787
 30
0.0
 40
3.2
  1
50091
 41
0.8
  7
高3.2
100
AcDbText
  0
LINE
  5
1525
330
6B
100
AcDbEntity
  8
0
 62
     7
100
AcDbLine
 10
124.9505470087989
 20
-457.9647709999998
 30
0.0
 11
124.9505470087989
 21
-407.9647731215682
 31
0.0
  0
TEXT
  5
1526
330
6B
100
AcDbEntity
  8
0
 62
     3
100
AcDbText
 10
126.4505470087988
 20
-447.4647709999998
 30
0.0
 40
3.2
  1
-
 41
0.8
  7
高3.2
100
AcDbText
  0
TEXT
  5
1527
330
6B
100
AcDbEntity
  8
0
 62
     3
100
AcDbText
 10
126.4505470087988
 20
-457.4647709999998
 30
0.0
 40
3.2
  1
コード
 41
0.8
  7
高3.2
100
AcDbText
  0
TEXT
  5
1528
330
6B
100
AcDbEntity
  8
0
 62
     3
100
AcDbText
 10
126.4505470087988
 20
-427.4647717071894
 30
0.0
 40
3.2
  1
51357
 41
0.8
  7
高3.2
100
AcDbText
  0
TEXT
  5
1529
330
6B
100
AcDbEntity
  8
0
 62
     3
100
AcDbText
 10
126.4505470087988
 20
-432.464772060784
 30
0.0
 40
3.2
  1
51356
 41
0.8
  7
高3.2
100
AcDbText
  0
TEXT
  5
152A
330
6B
100
AcDbEntity
  8
0
 62
     3
100
AcDbText
 10
142.9278062677159
 20
-452.4647709999999
 30
0.0
 40
3.2
  1
M-E20用　取手
 41
0.6
  7
高3.2
100
AcDbText
  0
TEXT
  5
152B
330
6B
100
AcDbEntity
  8
0
 62
     3
100
AcDbText
 10
142.9278062677159
 20
-442.4647717071894
 30
0.0
 40
3.2
  1
SVCT3.5x3x2M　ポ付(M-E30)
 41
0.6
  7
高3.2
100
AcDbText
  0
TEXT
  5
152C
330
6B
100
AcDbEntity
  8
0
 62
     3
100
AcDbText
 10
142.9278062677159
 20
-422.4647717071891
 30
0.0
 40
3.2
  1
新150V電圧メーター
 41
0.6
  7
高3.2
100
AcDbText
  0
TEXT
  5
152D
330
6B
100
AcDbEntity
  8
0
 62
     3
100
AcDbText
 10
142.9278062677159
 20
-437.4647717071893
 30
0.0
 40
3.2
  1
M-E20用　脚ゴム(1/4)
 41
0.6
  7
高3.2
100
AcDbText
  0
TEXT
  5
152E
330
6B
100
AcDbEntity
  8
0
 62
     3
100
AcDbText
 10
142.9278062677159
 20
-417.464771707189
 30
0.0
 40
3.2
  1
NV-L21K　30/15
 41
0.6
  7
高3.2
100
AcDbText
  0
TEXT
  5
152F
330
6B
100
AcDbEntity
  8
0
 62
     3
100
AcDbText
 10
142.9278062677159
 20
-412.4647724143787
 30
0.0
 40
3.2
  1
アース金具黒メッキ
 41
0.6
  7
高3.2
100
AcDbText
  0
LINE
  5
1530
330
6B
100
AcDbEntity
  8
0
 62
     7
100
AcDbLine
 10
141.4278062677158
 20
-457.9647709999998
 30
0.0
 11
141.4278062677158
 21
-407.9647731215682
 31
0.0
  0
TEXT
  5
1531
330
6B
100
AcDbEntity
  8
0
 62
     3
100
AcDbText
 10
142.9278062677159
 20
-447.4647709999998
 30
0.0
 40
3.2
  1
-
 41
0.6
  7
高3.2
100
AcDbText
  0
TEXT
  5
1532
330
6B
100
AcDbEntity
  8
0
 62
     3
100
AcDbText
 10
142.9278062677159
 20
-457.4647709999998
 30
0.0
 40
3.2
  1
コード番号名称
 41
0.6
  7
高3.2
100
AcDbText
  0
TEXT
  5
1533
330
6B
100
AcDbEntity
  8
0
 62
     3
100
AcDbText
 10
142.9278062677159
 20
-427.4647717071894
 30
0.0
 40
3.2
  1
2PE-R(アース付コンセント赤)
 41
0.6
  7
高3.2
100
AcDbText
  0
TEXT
  5
1534
330
6B
100
AcDbEntity
  8
0
 62
     3
100
AcDbText
 10
142.9278062677159
 20
-432.464772060784
 30
0.0
 40
3.2
  1
2PE-W(アース付コンセント白)
 41
0.6
  7
高3.2
100
AcDbText
  0
LINE
  5
1727
330
6B
100
AcDbEntity
  8
0
100
AcDbLine
 10
169.0388197655465
 20
-318.8502798802086
 30
0.0
 11
212.1047210244455
 21
-318.8502798802086
 31
0.0
  0
LINE
  5
1728
330
6B
100
AcDbEntity
  8
0
100
AcDbLine
 10
146.4937347936716
 20
-227.3502798802085
 30
0.0
 11
212.1047210244455
 21
-227.3502798802085
 31
0.0
  0
LINE
  5
1729
330
6B
100
AcDbEntity
  8
0
100
AcDbLine
 10
210.8547210244455
 20
-316.3502798802086
 30
0.0
 11
210.8547210244455
 21
-229.8502798802085
 31
0.0
  0
LINE
  5
172D
330
6B
100
AcDbEntity
  8
0
100
AcDbLine
 10
178.0388197655466
 20
-312.8502798802085
 30
0.0
 11
203.7885657185343
 21
-312.8502798802085
 31
0.0
  0
LINE
  5
172E
330
6B
100
AcDbEntity
  8
0
100
AcDbLine
 10
174.5388197655464
 20
-242.3502798802085
 30
0.0
 11
203.7885657185343
 21
-242.3502798802085
 31
0.0
  0
LINE
  5
172F
330
6B
100
AcDbEntity
  8
0
100
AcDbLine
 10
202.5385657185343
 20
-310.3502798802085
 30
0.0
 11
202.5385657185343
 21
-244.8502798802085
 31
0.0
  0
LINE
  5
1733
330
6B
100
AcDbEntity
  8
0
100
AcDbLine
 10
326.603896411767
 20
-313.1002798802085
 30
0.0
 11
326.603896411767
 21
-334.7327734325403
 31
0.0
  0
LINE
  5
1734
330
6B
100
AcDbEntity
  8
0
100
AcDbLine
 10
231.603896411767
 20
-305.6002798802085
 30
0.0
 11
231.603896411767
 21
-334.7327734325403
 31
0.0
  0
LINE
  5
1735
330
6B
100
AcDbEntity
  8
0
100
AcDbLine
 10
324.103896411767
 20
-333.4827734325403
 30
0.0
 11
234.103896411767
 21
-333.4827734325403
 31
0.0
  0
LINE
  5
1739
330
6B
100
AcDbEntity
  8
0
100
AcDbLine
 10
228.853896411767
 20
-305.6002798802085
 30
0.0
 11
228.853896411767
 21
-222.1375154948273
 31
0.0
  0
LINE
  5
173A
330
6B
100
AcDbEntity
  8
0
100
AcDbLine
 10
326.603896411767
 20
-242.1002798802085
 30
0.0
 11
326.603896411767
 21
-222.1375154948273
 31
0.0
  0
LINE
  5
173B
330
6B
100
AcDbEntity
  8
0
100
AcDbLine
 10
231.353896411767
 20
-223.3875154948273
 30
0.0
 11
324.103896411767
 21
-223.3875154948273
 31
0.0
  0
LINE
  5
173F
330
6B
100
AcDbEntity
  8
0
100
AcDbLine
 10
177.7888197655466
 20
-313.1002798802085
 30
0.0
 11
177.7888197655466
 21
-335.2815067931832
 31
0.0
  0
LINE
  5
1740
330
6B
100
AcDbEntity
  8
0
100
AcDbLine
 10
67.78881976554656
 20
-313.1002798802085
 30
0.0
 11
67.78881976554656
 21
-335.2815067931832
 31
0.0
  0
LINE
  5
1741
330
6B
100
AcDbEntity
  8
0
100
AcDbLine
 10
175.2888197655466
 20
-334.0315067931832
 30
0.0
 11
70.28881976554656
 21
-334.0315067931832
 31
0.0
  0
LINE
  5
1745
330
6B
100
AcDbEntity
  8
0
100
AcDbLine
 10
169.0388197655465
 20
-318.8502798802086
 30
0.0
 11
203.7885657185342
 21
-318.8502798802086
 31
0.0
  0
LINE
  5
1746
330
6B
100
AcDbEntity
  8
0
100
AcDbLine
 10
178.0388197655466
 20
-312.8502798802085
 30
0.0
 11
203.7885657185342
 21
-312.8502798802085
 31
0.0
  0
LINE
  5
1747
330
6B
100
AcDbEntity
  8
0
100
AcDbLine
 10
202.5385657185342
 20
-310.3502798802085
 30
0.0
 11
202.5385657185342
 21
-307.8502798802085
 31
0.0
  0
LINE
  5
1748
330
6B
100
AcDbEntity
  8
0
100
AcDbLine
 10
202.5385657185342
 20
-321.3502798802086
 30
0.0
 11
202.5385657185342
 21
-329.1002798802087
 31
0.0
  0
LINE
  5
1749
330
6B
100
AcDbEntity
  8
0
100
AcDbLine
 10
202.5385657185342
 20
-312.8502798802085
 30
0.0
 11
202.5385657185342
 21
-318.8502798802086
 31
0.0
  0
LINE
  5
174D
330
6B
100
AcDbEntity
  8
0
100
AcDbLine
 10
382.9908028190017
 20
-325.3753648802085
 30
0.0
 11
382.9807848190014
 21
-325.2444138802085
 31
0.0
  0
LINE
  5
174E
330
6B
100
AcDbEntity
  8
0
100
AcDbLine
 10
382.9807848190014
 20
-325.2444138802085
 30
0.0
 11
382.9425928190017
 21
-325.1309488802085
 31
0.0
  0
LINE
  5
174F
330
6B
100
AcDbEntity
  8
0
100
AcDbLine
 10
382.9425928190017
 20
-325.1309488802085
 30
0.0
 11
382.7967168190016
 21
-325.0188628802086
 31
0.0
  0
LINE
  5
1750
330
6B
100
AcDbEntity
  8
0
100
AcDbLine
 10
382.7967168190016
 20
-325.0188628802086
 30
0.0
 11
382.5979978190015
 21
-324.9743148802085
 31
0.0
  0
LINE
  5
1751
330
6B
100
AcDbEntity
  8
0
100
AcDbLine
 10
382.5979978190015
 20
-324.9743148802085
 30
0.0
 11
382.4857908190015
 21
-324.9742438802085
 31
0.0
  0
LINE
  5
1752
330
6B
100
AcDbEntity
  8
0
100
AcDbLine
 10
382.4857908190015
 20
-324.9742438802085
 30
0.0
 11
382.3787108190014
 21
-324.9899788802085
 31
0.0
  0
LINE
  5
1753
330
6B
100
AcDbEntity
  8
0
100
AcDbLine
 10
382.3787108190014
 20
-324.9899788802085
 30
0.0
 11
382.2050078190018
 21
-325.0433948802085
 31
0.0
  0
LINE
  5
1754
330
6B
100
AcDbEntity
  8
0
100
AcDbLine
 10
382.2050078190018
 20
-325.0433948802085
 30
0.0
 11
382.0341168190018
 21
-325.1152858802087
 31
0.0
  0
LINE
  5
1755
330
6B
100
AcDbEntity
  8
0
100
AcDbLine
 10
381.4906558190017
 20
-324.2599978802085
 30
0.0
 11
381.5006738190017
 21
-324.3909498802084
 31
0.0
  0
LINE
  5
1756
330
6B
100
AcDbEntity
  8
0
100
AcDbLine
 10
381.5006738190017
 20
-324.3909498802084
 30
0.0
 11
381.5388658190016
 21
-324.5044138802085
 31
0.0
  0
LINE
  5
1757
330
6B
100
AcDbEntity
  8
0
100
AcDbLine
 10
381.5388658190016
 20
-324.5044138802085
 30
0.0
 11
381.6847418190017
 21
-324.6165008802087
 31
0.0
  0
LINE
  5
1758
330
6B
100
AcDbEntity
  8
0
100
AcDbLine
 10
381.6847418190017
 20
-324.6165008802087
 30
0.0
 11
381.8834608190016
 21
-324.6610478802086
 31
0.0
  0
LINE
  5
1759
330
6B
100
AcDbEntity
  8
0
100
AcDbLine
 10
381.8834608190016
 20
-324.6610478802086
 30
0.0
 11
381.9956678190018
 21
-324.6611188802085
 31
0.0
  0
LINE
  5
175A
330
6B
100
AcDbEntity
  8
0
100
AcDbLine
 10
381.9956678190018
 20
-324.6611188802085
 30
0.0
 11
382.1027478190015
 21
-324.6453848802084
 31
0.0
  0
LINE
  5
175B
330
6B
100
AcDbEntity
  8
0
100
AcDbLine
 10
382.1027478190015
 20
-324.6453848802084
 30
0.0
 11
382.2764508190017
 21
-324.5919678802085
 31
0.0
  0
LINE
  5
175C
330
6B
100
AcDbEntity
  8
0
100
AcDbLine
 10
382.2764508190017
 20
-324.5919678802085
 30
0.0
 11
382.4473418190013
 21
-324.5200778802086
 31
0.0
  0
LINE
  5
175D
330
6B
100
AcDbEntity
  8
0
100
AcDbLine
 10
381.4907288190018
 20
-325.3029158802085
 30
0.0
 11
381.7594168190014
 21
-325.1633538802085
 31
0.0
  0
LINE
  5
175E
330
6B
100
AcDbEntity
  8
0
100
AcDbLine
 10
381.7594168190014
 20
-325.1633538802085
 30
0.0
 11
382.0341168190018
 21
-325.1152858802087
 31
0.0
  0
LINE
  5
175F
330
6B
100
AcDbEntity
  8
0
100
AcDbLine
 10
382.0341168190018
 20
-325.1152858802087
 30
0.0
 11
382.1544198190015
 21
-325.1426698802085
 31
0.0
  0
LINE
  5
1760
330
6B
100
AcDbEntity
  8
0
100
AcDbLine
 10
382.1544198190015
 20
-325.1426698802085
 30
0.0
 11
382.2690668190015
 21
-325.1936028802085
 31
0.0
  0
LINE
  5
1761
330
6B
100
AcDbEntity
  8
0
100
AcDbLine
 10
382.2690668190015
 20
-325.1936028802085
 30
0.0
 11
382.4042628190019
 21
-325.2812538802085
 31
0.0
  0
LINE
  5
1762
330
6B
100
AcDbEntity
  8
0
100
AcDbLine
 10
382.4042628190019
 20
-325.2812538802085
 30
0.0
 11
382.5353448190016
 21
-325.3815628802087
 31
0.0
  0
LINE
  5
1763
330
6B
100
AcDbEntity
  8
0
100
AcDbLine
 10
382.5353448190016
 20
-325.3815628802087
 30
0.0
 11
382.6194428190017
 21
-325.4401838802085
 31
0.0
  0
LINE
  5
1764
330
6B
100
AcDbEntity
  8
0
100
AcDbLine
 10
382.6194428190017
 20
-325.4401838802085
 30
0.0
 11
382.7076418190015
 21
-325.4755428802087
 31
0.0
  0
LINE
  5
1765
330
6B
100
AcDbEntity
  8
0
100
AcDbLine
 10
382.7076418190015
 20
-325.4755428802087
 30
0.0
 11
382.8476178190019
 21
-325.4532228802085
 31
0.0
  0
LINE
  5
1766
330
6B
100
AcDbEntity
  8
0
100
AcDbLine
 10
382.8476178190019
 20
-325.4532228802085
 30
0.0
 11
382.9907288190016
 21
-325.3753568802086
 31
0.0
  0
LINE
  5
1767
330
6B
100
AcDbEntity
  8
0
100
AcDbLine
 10
382.9907288190016
 20
-324.3324478802085
 30
0.0
 11
382.7220418190016
 21
-324.4720088802087
 31
0.0
  0
LINE
  5
1768
330
6B
100
AcDbEntity
  8
0
100
AcDbLine
 10
382.7220418190016
 20
-324.4720088802087
 30
0.0
 11
382.4473418190013
 21
-324.5200778802086
 31
0.0
  0
LINE
  5
1769
330
6B
100
AcDbEntity
  8
0
100
AcDbLine
 10
382.4473418190013
 20
-324.5200778802086
 30
0.0
 11
382.3270388190017
 21
-324.4926928802085
 31
0.0
  0
LINE
  5
176A
330
6B
100
AcDbEntity
  8
0
100
AcDbLine
 10
382.3270388190017
 20
-324.4926928802085
 30
0.0
 11
382.2123918190018
 21
-324.4417608802085
 31
0.0
  0
LINE
  5
176B
330
6B
100
AcDbEntity
  8
0
100
AcDbLine
 10
382.2123918190018
 20
-324.4417608802085
 30
0.0
 11
382.0771958190015
 21
-324.3541098802085
 31
0.0
  0
LINE
  5
176C
330
6B
100
AcDbEntity
  8
0
100
AcDbLine
 10
382.0771958190015
 20
-324.3541098802085
 30
0.0
 11
381.9461138190015
 21
-324.2537998802088
 31
0.0
  0
LINE
  5
176D
330
6B
100
AcDbEntity
  8
0
100
AcDbLine
 10
381.9461138190015
 20
-324.2537998802088
 30
0.0
 11
381.8620158190014
 21
-324.1951788802085
 31
0.0
  0
LINE
  5
176E
330
6B
100
AcDbEntity
  8
0
100
AcDbLine
 10
381.8620158190014
 20
-324.1951788802085
 30
0.0
 11
381.7738168190016
 21
-324.1598198802085
 31
0.0
  0
LINE
  5
176F
330
6B
100
AcDbEntity
  8
0
100
AcDbLine
 10
381.7738168190016
 20
-324.1598198802085
 30
0.0
 11
381.6338408190018
 21
-324.1821398802085
 31
0.0
  0
LINE
  5
1770
330
6B
100
AcDbEntity
  8
0
100
AcDbLine
 10
381.6338408190018
 20
-324.1821398802085
 30
0.0
 11
381.4907288190018
 21
-324.2600068802084
 31
0.0
  0
LINE
  5
1771
330
6B
100
AcDbEntity
  8
0
 62
     3
100
AcDbLine
 10
378.9920058190014
 20
-350.5707418802085
 30
0.0
 11
378.7815478190018
 21
-350.3316698802084
 31
0.0
  0
LINE
  5
1772
330
6B
100
AcDbEntity
  8
0
 62
     3
100
AcDbLine
 10
378.7815478190018
 20
-350.3316698802084
 30
0.0
 11
378.6170058190015
 21
-350.0707418802085
 31
0.0
  0
LINE
  5
1773
330
6B
100
AcDbEntity
  8
0
 62
     3
100
AcDbLine
 10
378.6170058190015
 20
-350.0707418802085
 30
0.0
 11
378.5388938190018
 21
-349.8281728802085
 31
0.0
  0
LINE
  5
1774
330
6B
100
AcDbEntity
  8
0
 62
     3
100
AcDbLine
 10
378.5388938190018
 20
-349.8281728802085
 30
0.0
 11
378.4920058190016
 21
-349.5707418802085
 31
0.0
  0
LINE
  5
1775
330
6B
100
AcDbEntity
  8
0
 62
     3
100
AcDbLine
 10
385.9920058190015
 20
-349.5707418802085
 30
0.0
 11
385.945117819002
 21
-349.8281728802085
 31
0.0
  0
LINE
  5
1776
330
6B
100
AcDbEntity
  8
0
 62
     3
100
AcDbLine
 10
385.945117819002
 20
-349.8281728802085
 30
0.0
 11
385.8670058190014
 21
-350.0707418802085
 31
0.0
  0
LINE
  5
1777
330
6B
100
AcDbEntity
  8
0
 62
     3
100
AcDbLine
 10
385.8670058190014
 20
-350.0707418802085
 30
0.0
 11
385.7024648190015
 21
-350.3316698802084
 31
0.0
  0
LINE
  5
1778
330
6B
100
AcDbEntity
  8
0
 62
     3
100
AcDbLine
 10
385.7024648190015
 20
-350.3316698802084
 30
0.0
 11
385.4920058190015
 21
-350.5707418802085
 31
0.0
  0
LINE
  5
1779
330
6B
100
AcDbEntity
  8
0
100
AcDbLine
 10
168.1651346333374
 20
-269.2905486182431
 30
0.0
 11
185.5704484506411
 21
-264.577482854539
 31
0.0
  0
LINE
  5
177A
330
6B
100
AcDbEntity
  8
0
  6
ByBlock
 62
     0
370
    -2
100
AcDbLine
 10
168.3402194430845
 20
-269.9371354071987
 30
0.0
 11
165.7520381524559
 21
-269.9439744931187
 31
0.0
  0
LINE
  5
177B
330
6B
100
AcDbEntity
  8
0
  6
ByBlock
 62
     0
370
    -2
100
AcDbLine
 10
165.7520381524559
 20
-269.9439744931187
 30
0.0
 11
167.9900498235904
 21
-268.6439618292873
 31
0.0
  0
LINE
  5
177C
330
6B
100
AcDbEntity
  8
0
  6
ByBlock
 62
     0
370
    -2
100
AcDbLine
 10
165.7520381524559
 20
-269.9439744931187
 30
0.0
 11
168.1651346333374
 21
-269.2905486182431
 31
0.0
  0
LINE
  5
177D
330
6B
100
AcDbEntity
  8
0
100
AcDbLine
 10
109.3869953898781
 20
-254.5996661917778
 30
0.0
 11
54.43691632470802
 21
-238.728538601404
 31
0.0
  0
LINE
  5
177E
330
6B
100
AcDbEntity
  8
0
  6
ByBlock
 62
     0
370
    -2
100
AcDbLine
 10
109.5728754695816
 20
-253.9560997521418
 30
0.0
 11
111.7888197655465
 21
-255.2933805915458
 31
0.0
  0
LINE
  5
177F
330
6B
100
AcDbEntity
  8
0
  6
ByBlock
 62
     0
370
    -2
100
AcDbLine
 10
111.7888197655465
 20
-255.2933805915458
 30
0.0
 11
109.2011153101747
 21
-255.2432326314137
 31
0.0
  0
LINE
  5
1780
330
6B
100
AcDbEntity
  8
0
  6
ByBlock
 62
     0
370
    -2
100
AcDbLine
 10
111.7888197655465
 20
-255.2933805915458
 30
0.0
 11
109.3869953898781
 21
-254.5996661917778
 31
0.0
  0
LINE
  5
1781
330
6B
100
AcDbEntity
  8
0
100
AcDbLine
 10
120.3236386907458
 20
-305.4882563737752
 30
0.0
 11
106.0133397587129
 21
-317.8991429594888
 31
0.0
  0
LINE
  5
1782
330
6B
100
AcDbEntity
  8
0
  6
ByBlock
 62
     0
370
    -2
100
AcDbLine
 10
119.8847445272711
 20
-304.982192070031
 30
0.0
 11
122.2122977405807
 21
-303.8502798802085
 31
0.0
  0
LINE
  5
1783
330
6B
100
AcDbEntity
  8
0
  6
ByBlock
 62
     0
370
    -2
100
AcDbLine
 10
122.2122977405807
 20
-303.8502798802085
 30
0.0
 11
120.7625328542205
 21
-305.9943206775194
 31
0.0
  0
LINE
  5
1784
330
6B
100
AcDbEntity
  8
0
  6
ByBlock
 62
     0
370
    -2
100
AcDbLine
 10
122.2122977405807
 20
-303.8502798802085
 30
0.0
 11
120.3236386907458
 21
-305.4882563737752
 31
0.0
  0
LINE
  5
1785
330
6B
100
AcDbEntity
  8
0
100
AcDbLine
 10
77.31581508361185
 20
-269.675682401828
 30
0.0
 11
54.52047754171324
 21
-264.3983508621738
 31
0.0
  0
LINE
  5
1786
330
6B
100
AcDbEntity
  8
0
  6
ByBlock
 62
     0
370
    -2
100
AcDbLine
 10
77.4669007742478
 20
-269.023070510777
 30
0.0
 11
79.75139756778276
 21
-270.2395422805212
 31
0.0
  0
LINE
  5
1787
330
6B
100
AcDbEntity
  8
0
  6
ByBlock
 62
     0
370
    -2
100
AcDbLine
 10
79.75139756778276
 20
-270.2395422805212
 30
0.0
 11
77.1647293929759
 21
-270.3282942928792
 31
0.0
  0
LINE
  5
1788
330
6B
100
AcDbEntity
  8
0
  6
ByBlock
 62
     0
370
    -2
100
AcDbLine
 10
79.75139756778276
 20
-270.2395422805212
 30
0.0
 11
77.31581508361185
 21
-269.675682401828
 31
0.0
  0
LINE
  5
1789
330
6B
100
AcDbEntity
  8
0
100
AcDbLine
 10
82.30623035279105
 20
-302.3057466772025
 30
0.0
 11
54.61449139888293
 21
-299.0204122078799
 31
0.0
  0
LINE
  5
178A
330
6B
100
AcDbEntity
  8
0
  6
ByBlock
 62
     0
370
    -2
100
AcDbLine
 10
82.3851502300033
 20
-301.640539326644
 30
0.0
 11
84.7888197655468
 21
-302.6002798802085
 31
0.0
  0
LINE
  5
178B
330
6B
100
AcDbEntity
  8
0
  6
ByBlock
 62
     0
370
    -2
100
AcDbLine
 10
84.7888197655468
 20
-302.6002798802085
 30
0.0
 11
82.22731047557877
 21
-302.970954027761
 31
0.0
  0
LINE
  5
178C
330
6B
100
AcDbEntity
  8
0
  6
ByBlock
 62
     0
370
    -2
100
AcDbLine
 10
84.7888197655468
 20
-302.6002798802085
 30
0.0
 11
82.30623035279105
 21
-302.3057466772025
 31
0.0
  0
LINE
  5
178D
330
6B
100
AcDbEntity
  8
0
100
AcDbLine
 10
73.92514716071288
 20
-316.0879953949531
 30
0.0
 11
54.62665778303882
 21
-317.9313677723789
 31
0.0
  0
LINE
  5
178E
330
6B
100
AcDbEntity
  8
0
  6
ByBlock
 62
     0
370
    -2
100
AcDbLine
 10
73.86145152625259
 20
-315.4211580591605
 30
0.0
 11
76.41381976554658
 21
-315.8502798802085
 31
0.0
  0
LINE
  5
178F
330
6B
100
AcDbEntity
  8
0
  6
ByBlock
 62
     0
370
    -2
100
AcDbLine
 10
76.41381976554658
 20
-315.8502798802085
 30
0.0
 11
73.98884279517318
 21
-316.7548327307457
 31
0.0
  0
LINE
  5
1790
330
6B
100
AcDbEntity
  8
0
  6
ByBlock
 62
     0
370
    -2
100
AcDbLine
 10
76.41381976554658
 20
-315.8502798802085
 30
0.0
 11
73.92514716071288
 21
-316.0879953949531
 31
0.0
  0
LINE
  5
1791
330
6B
100
AcDbEntity
  8
0
100
AcDbLine
 10
349.1722454349971
 20
-295.0062635452966
 30
0.0
 11
349.6745805669509
 21
-287.7588302285023
 31
0.0
  0
LINE
  5
1792
330
6B
100
AcDbEntity
  8
0
  6
ByBlock
 62
     0
370
    -2
100
AcDbLine
 10
349.8405146179203
 20
-295.0525827142369
 30
0.0
 11
348.9993798190017
 21
-297.5002798802084
 31
0.0
  0
LINE
  5
1793
330
6B
100
AcDbEntity
  8
0
  6
ByBlock
 62
     0
370
    -2
100
AcDbLine
 10
348.9993798190017
 20
-297.5002798802084
 30
0.0
 11
348.5039762520738
 21
-294.9599443763563
 31
0.0
  0
LINE
  5
1794
330
6B
100
AcDbEntity
  8
0
  6
ByBlock
 62
     0
370
    -2
100
AcDbLine
 10
348.9993798190017
 20
-297.5002798802084
 30
0.0
 11
349.1722454349971
 21
-295.0062635452966
 31
0.0
  0
LINE
  5
1795
330
6B
100
AcDbEntity
  8
0
100
AcDbLine
 10
328.5488242543322
 20
-248.3462521993331
 30
0.0
 11
346.1281181138111
 21
-234.1489766380771
 31
0.0
  0
LINE
  5
1796
330
6B
100
AcDbEntity
  8
0
  6
ByBlock
 62
     0
370
    -2
100
AcDbLine
 10
328.9697051567196
 20
-248.8673936698206
 30
0.0
 11
326.603896411767
 21
-249.9170022390322
 31
0.0
  0
LINE
  5
1797
330
6B
100
AcDbEntity
  8
0
  6
ByBlock
 62
     0
370
    -2
100
AcDbLine
 10
326.603896411767
 20
-249.9170022390322
 30
0.0
 11
328.1279433519449
 21
-247.8251107288456
 31
0.0
  0
LINE
  5
1798
330
6B
100
AcDbEntity
  8
0
  6
ByBlock
 62
     0
370
    -2
100
AcDbLine
 10
326.603896411767
 20
-249.9170022390322
 30
0.0
 11
328.5488242543322
 21
-248.3462521993331
 31
0.0
  0
LINE
  5
1799
330
6B
100
AcDbEntity
  8
0
100
AcDbLine
 10
283.7633986240284
 20
-234.183722238959
 30
0.0
 11
290.4260283744189
 21
-232.340591841178
 31
0.0
  0
LINE
  5
179A
330
6B
100
AcDbEntity
  8
0
  6
ByBlock
 62
     0
370
    -2
100
AcDbLine
 10
283.9420020774436
 20
-234.8293459472322
 30
0.0
 11
281.3538964117671
 21
-234.8502798802085
 31
0.0
  0
LINE
  5
179B
330
6B
100
AcDbEntity
  8
0
  6
ByBlock
 62
     0
370
    -2
100
AcDbLine
 10
281.3538964117671
 20
-234.8502798802085
 30
0.0
 11
283.5847951706132
 21
-233.5380985306858
 31
0.0
  0
LINE
  5
179C
330
6B
100
AcDbEntity
  8
0
  6
ByBlock
 62
     0
370
    -2
100
AcDbLine
 10
281.3538964117671
 20
-234.8502798802085
 30
0.0
 11
283.7633986240284
 21
-234.183722238959
 31
0.0
  0
TEXT
  5
179D
330
6B
100
AcDbEntity
  8
0
 62
     4
100
AcDbText
 10
210.2297210244455
 20
-279.8317312388913
 30
0.0
 40
3.0
  1
183
 50
90.0
100
AcDbText
  0
LINE
  5
179E
330
6B
100
AcDbEntity
  8
0
  6
ByBlock
 62
     0
370
    -2
100
AcDbLine
 10
210.1848485244455
 20
-229.8502798802085
 30
0.0
 11
210.8547210244455
 21
-227.3502798802085
 31
0.0
  0
LINE
  5
179F
330
6B
100
AcDbEntity
  8
0
  6
ByBlock
 62
     0
370
    -2
100
AcDbLine
 10
210.8547210244455
 20
-227.3502798802085
 30
0.0
 11
211.5245935244455
 21
-229.8502798802085
 31
0.0
  0
LINE
  5
17A0
330
6B
100
AcDbEntity
  8
0
  6
ByBlock
 62
     0
370
    -2
100
AcDbLine
 10
210.8547210244455
 20
-227.3502798802085
 30
0.0
 11
210.8547210244455
 21
-229.8502798802085
 31
0.0
  0
LINE
  5
17A1
330
6B
100
AcDbEntity
  8
0
  6
ByBlock
 62
     0
370
    -2
100
AcDbLine
 10
211.5245935244455
 20
-316.3502798802086
 30
0.0
 11
210.8547210244455
 21
-318.8502798802086
 31
0.0
  0
LINE
  5
17A2
330
6B
100
AcDbEntity
  8
0
  6
ByBlock
 62
     0
370
    -2
100
AcDbLine
 10
210.8547210244455
 20
-318.8502798802086
 30
0.0
 11
210.1848485244455
 21
-316.3502798802086
 31
0.0
  0
LINE
  5
17A3
330
6B
100
AcDbEntity
  8
0
  6
ByBlock
 62
     0
370
    -2
100
AcDbLine
 10
210.8547210244455
 20
-318.8502798802086
 30
0.0
 11
210.8547210244455
 21
-316.3502798802086
 31
0.0
  0
TEXT
  5
17A4
330
6B
100
AcDbEntity
  8
0
 62
     4
100
AcDbText
 10
201.9135657185343
 20
-283.691740949873
 30
0.0
 40
3.0
  1
141
 50
90.0
100
AcDbText
  0
LINE
  5
17A5
330
6B
100
AcDbEntity
  8
0
  6
ByBlock
 62
     0
370
    -2
100
AcDbLine
 10
201.8686932185343
 20
-244.8502798802085
 30
0.0
 11
202.5385657185343
 21
-242.3502798802085
 31
0.0
  0
LINE
  5
17A6
330
6B
100
AcDbEntity
  8
0
  6
ByBlock
 62
     0
370
    -2
100
AcDbLine
 10
202.5385657185343
 20
-242.3502798802085
 30
0.0
 11
203.2084382185343
 21
-244.8502798802085
 31
0.0
  0
LINE
  5
17A7
330
6B
100
AcDbEntity
  8
0
  6
ByBlock
 62
     0
370
    -2
100
AcDbLine
 10
202.5385657185343
 20
-242.3502798802085
 30
0.0
 11
202.5385657185343
 21
-244.8502798802085
 31
0.0
  0
LINE
  5
17A8
330
6B
100
AcDbEntity
  8
0
  6
ByBlock
 62
     0
370
    -2
100
AcDbLine
 10
203.2084382185343
 20
-310.3502798802085
 30
0.0
 11
202.5385657185343
 21
-312.8502798802085
 31
0.0
  0
LINE
  5
17A9
330
6B
100
AcDbEntity
  8
0
  6
ByBlock
 62
     0
370
    -2
100
AcDbLine
 10
202.5385657185343
 20
-312.8502798802085
 30
0.0
 11
201.8686932185343
 21
-310.3502798802085
 31
0.0
  0
LINE
  5
17AA
330
6B
100
AcDbEntity
  8
0
  6
ByBlock
 62
     0
370
    -2
100
AcDbLine
 10
202.5385657185343
 20
-312.8502798802085
 30
0.0
 11
202.5385657185343
 21
-310.3502798802085
 31
0.0
  0
TEXT
  5
17AB
330
6B
100
AcDbEntity
  8
0
 62
     4
100
AcDbText
 10
275.0327891104444
 20
-332.8577734325403
 30
0.0
 40
3.0
  1
190
100
AcDbText
  0
LINE
  5
17AC
330
6B
100
AcDbEntity
  8
0
  6
ByBlock
 62
     0
370
    -2
100
AcDbLine
 10
234.103896411767
 20
-334.1526459325403
 30
0.0
 11
231.603896411767
 21
-333.4827734325403
 31
0.0
  0
LINE
  5
17AD
330
6B
100
AcDbEntity
  8
0
  6
ByBlock
 62
     0
370
    -2
100
AcDbLine
 10
231.603896411767
 20
-333.4827734325403
 30
0.0
 11
234.103896411767
 21
-332.8129009325404
 31
0.0
  0
LINE
  5
17AE
330
6B
100
AcDbEntity
  8
0
  6
ByBlock
 62
     0
370
    -2
100
AcDbLine
 10
231.603896411767
 20
-333.4827734325403
 30
0.0
 11
234.103896411767
 21
-333.4827734325403
 31
0.0
  0
LINE
  5
17AF
330
6B
100
AcDbEntity
  8
0
  6
ByBlock
 62
     0
370
    -2
100
AcDbLine
 10
324.103896411767
 20
-332.8129009325404
 30
0.0
 11
326.603896411767
 21
-333.4827734325403
 31
0.0
  0
LINE
  5
17B0
330
6B
100
AcDbEntity
  8
0
  6
ByBlock
 62
     0
370
    -2
100
AcDbLine
 10
326.603896411767
 20
-333.4827734325403
 30
0.0
 11
324.103896411767
 21
-334.1526459325403
 31
0.0
  0
LINE
  5
17B1
330
6B
100
AcDbEntity
  8
0
  6
ByBlock
 62
     0
370
    -2
100
AcDbLine
 10
326.603896411767
 20
-333.4827734325403
 30
0.0
 11
324.103896411767
 21
-333.4827734325403
 31
0.0
  0
TEXT
  5
17B2
330
6B
100
AcDbEntity
  8
0
 62
     4
100
AcDbText
 10
275.733951386539
 20
-222.7625154948273
 30
0.0
 40
3.0
  1
195.5
100
AcDbText
  0
LINE
  5
17B3
330
6B
100
AcDbEntity
  8
0
  6
ByBlock
 62
     0
370
    -2
100
AcDbLine
 10
324.103896411767
 20
-222.7176429948273
 30
0.0
 11
326.603896411767
 21
-223.3875154948273
 31
0.0
  0
LINE
  5
17B4
330
6B
100
AcDbEntity
  8
0
  6
ByBlock
 62
     0
370
    -2
100
AcDbLine
 10
326.603896411767
 20
-223.3875154948273
 30
0.0
 11
324.103896411767
 21
-224.0573879948273
 31
0.0
  0
LINE
  5
17B5
330
6B
100
AcDbEntity
  8
0
  6
ByBlock
 62
     0
370
    -2
100
AcDbLine
 10
326.603896411767
 20
-223.3875154948273
 30
0.0
 11
324.103896411767
 21
-223.3875154948273
 31
0.0
  0
LINE
  5
17B6
330
6B
100
AcDbEntity
  8
0
  6
ByBlock
 62
     0
370
    -2
100
AcDbLine
 10
231.353896411767
 20
-224.0573879948273
 30
0.0
 11
228.853896411767
 21
-223.3875154948273
 31
0.0
  0
LINE
  5
17B7
330
6B
100
AcDbEntity
  8
0
  6
ByBlock
 62
     0
370
    -2
100
AcDbLine
 10
228.853896411767
 20
-223.3875154948273
 30
0.0
 11
231.353896411767
 21
-222.7176429948273
 31
0.0
  0
LINE
  5
17B8
330
6B
100
AcDbEntity
  8
0
  6
ByBlock
 62
     0
370
    -2
100
AcDbLine
 10
228.853896411767
 20
-223.3875154948273
 30
0.0
 11
231.353896411767
 21
-223.3875154948273
 31
0.0
  0
TEXT
  5
17B9
330
6B
100
AcDbEntity
  8
0
 62
     4
100
AcDbText
 10
116.6199091515832
 20
-333.4065067931831
 30
0.0
 40
3.0
  1
220
100
AcDbText
  0
LINE
  5
17BA
330
6B
100
AcDbEntity
  8
0
  6
ByBlock
 62
     0
370
    -2
100
AcDbLine
 10
70.28881976554656
 20
-334.7013792931832
 30
0.0
 11
67.78881976554656
 21
-334.0315067931832
 31
0.0
  0
LINE
  5
17BB
330
6B
100
AcDbEntity
  8
0
  6
ByBlock
 62
     0
370
    -2
100
AcDbLine
 10
67.78881976554656
 20
-334.0315067931832
 30
0.0
 11
70.28881976554656
 21
-333.3616342931831
 31
0.0
  0
LINE
  5
17BC
330
6B
100
AcDbEntity
  8
0
  6
ByBlock
 62
     0
370
    -2
100
AcDbLine
 10
67.78881976554656
 20
-334.0315067931832
 30
0.0
 11
70.28881976554656
 21
-334.0315067931832
 31
0.0
  0
LINE
  5
17BD
330
6B
100
AcDbEntity
  8
0
  6
ByBlock
 62
     0
370
    -2
100
AcDbLine
 10
175.2888197655466
 20
-333.3616342931831
 30
0.0
 11
177.7888197655466
 21
-334.0315067931832
 31
0.0
  0
LINE
  5
17BE
330
6B
100
AcDbEntity
  8
0
  6
ByBlock
 62
     0
370
    -2
100
AcDbLine
 10
177.7888197655466
 20
-334.0315067931832
 30
0.0
 11
175.2888197655466
 21
-334.7013792931832
 31
0.0
  0
LINE
  5
17BF
330
6B
100
AcDbEntity
  8
0
  6
ByBlock
 62
     0
370
    -2
100
AcDbLine
 10
177.7888197655466
 20
-334.0315067931832
 30
0.0
 11
175.2888197655466
 21
-334.0315067931832
 31
0.0
  0
TEXT
  5
17C0
330
6B
100
AcDbEntity
  8
0
 62
     4
100
AcDbText
 10
201.9135657185342
 20
-328.4752798802086
 30
0.0
 40
3.0
  1
12
 50
90.0
100
AcDbText
  0
LINE
  5
17C1
330
6B
100
AcDbEntity
  8
0
  6
ByBlock
 62
     0
370
    -2
100
AcDbLine
 10
201.8686932185342
 20
-321.3502798802086
 30
0.0
 11
202.5385657185342
 21
-318.8502798802086
 31
0.0
  0
LINE
  5
17C2
330
6B
100
AcDbEntity
  8
0
  6
ByBlock
 62
     0
370
    -2
100
AcDbLine
 10
202.5385657185342
 20
-318.8502798802086
 30
0.0
 11
203.2084382185342
 21
-321.3502798802086
 31
0.0
  0
LINE
  5
17C3
330
6B
100
AcDbEntity
  8
0
  6
ByBlock
 62
     0
370
    -2
100
AcDbLine
 10
202.5385657185342
 20
-318.8502798802086
 30
0.0
 11
202.5385657185342
 21
-321.3502798802086
 31
0.0
  0
LINE
  5
17C4
330
6B
100
AcDbEntity
  8
0
  6
ByBlock
 62
     0
370
    -2
100
AcDbLine
 10
203.2084382185342
 20
-310.3502798802085
 30
0.0
 11
202.5385657185342
 21
-312.8502798802085
 31
0.0
  0
LINE
  5
17C5
330
6B
100
AcDbEntity
  8
0
  6
ByBlock
 62
     0
370
    -2
100
AcDbLine
 10
202.5385657185342
 20
-312.8502798802085
 30
0.0
 11
201.8686932185342
 21
-310.3502798802085
 31
0.0
  0
LINE
  5
17C6
330
6B
100
AcDbEntity
  8
0
  6
ByBlock
 62
     0
370
    -2
100
AcDbLine
 10
202.5385657185342
 20
-312.8502798802085
 30
0.0
 11
202.5385657185342
 21
-310.3502798802085
 31
0.0
  0
ENDSEC
  0
SECTION
  2
OBJECTS
  0
DICTIONARY
  5
C
330
0
100
AcDbDictionary
281
     1
  3
ACAD_2007HEADERVARS_RT
350
17CA
  3
ACAD_COLOR
350
62
  3
ACAD_GROUP
350
D
  3
ACAD_LAYOUT
350
61
  3
ACAD_MATERIAL
350
10
  3
ACAD_MLEADERSTYLE
350
65
  3
ACAD_MLINESTYLE
350
5E
  3
ACAD_PLOTSETTINGS
350
60
  3
ACAD_PLOTSTYLENAME
350
E
  3
ACAD_SCALELIST
350
42
  3
ACAD_TABLESTYLE
350
63
  3
ACAD_VISUALSTYLE
350
29
  3
ACDB_RECOMPOSE_DATA
350
17C8
  3
AcDbVariableDictionary
350
619
  3
DWGPROPS
350
17C9
  0
DICTIONARY
  5
47F
330
2
100
AcDbDictionary
280
     1
281
     1
  3
ACAD_LAYERSTATES
360
480
  0
DICTIONARY
  5
615
330
54
100
AcDbDictionary
280
     1
281
     1
  3
ADSK_XREC_LAYER_RECONCILED
360
616
  0
DICTIONARY
  5
604
330
6B
100
AcDbDictionary
280
     1
281
     1
  3
ACAD_SORTENTS
360
605
  0
DICTIONARY
  5
17CA
102
{ACAD_REACTORS
330
C
102
}
330
C
100
AcDbDictionary
281
     1
  3
DIMARCSYM
350
17CC
  3
DIMFXL
350
17CB
  3
DIMJOGANG
350
17CD
  0
DICTIONARY
  5
62
102
{ACAD_REACTORS
330
C
102
}
330
C
100
AcDbDictionary
281
     1
  0
DICTIONARY
  5
D
102
{ACAD_REACTORS
330
C
102
}
330
C
100
AcDbDictionary
281
     1
  0
DICTIONARY
  5
61
102
{ACAD_REACTORS
330
C
102
}
330
C
100
AcDbDictionary
281
     1
  3
Model
350
6E
  3
レイアウト1
350
6A
  0
DICTIONARY
  5
10
102
{ACAD_REACTORS
330
C
102
}
330
C
100
AcDbDictionary
281
     1
  3
ByBlock
350
19
  3
ByLayer
350
11
  3
Global
350
21
  0
DICTIONARY
  5
65
102
{ACAD_REACTORS
330
C
102
}
330
C
100
AcDbDictionary
281
     1
  3
Standard
350
66
  0
DICTIONARY
  5
5E
102
{ACAD_REACTORS
330
C
102
}
330
C
100
AcDbDictionary
281
     1
  3
Standard
350
5F
  0
DICTIONARY
  5
60
102
{ACAD_REACTORS
330
C
102
}
330
C
100
AcDbDictionary
281
     1
  0
ACDBDICTIONARYWDFLT
  5
E
102
{ACAD_REACTORS
330
C
102
}
330
C
100
AcDbDictionary
281
     1
  3
Normal
350
F
100
AcDbDictionaryWithDefault
340
F
  0
DICTIONARY
  5
42
102
{ACAD_REACTORS
330
C
102
}
330
C
100
AcDbDictionary
281
     1
  3
A0
350
43
  3
A1
350
44
  3
A2
350
45
  3
A3
350
46
  3
A4
350
47
  3
A5
350
48
  3
A6
350
49
  3
A7
350
4A
  3
A8
350
4B
  3
A9
350
4C
  3
B0
350
4D
  3
B1
350
4E
  3
B2
350
4F
  3
B3
350
50
  3
B4
350
51
  3
B5
350
52
  3
B6
350
53
  0
DICTIONARY
  5
63
102
{ACAD_REACTORS
330
C
102
}
330
C
100
AcDbDictionary
281
     1
  3
Standard
350
64
  0
DICTIONARY
  5
29
102
{ACAD_REACTORS
330
C
102
}
330
C
100
AcDbDictionary
281
     1
  3
2dWireframe
350
2F
  3
3dWireframe
350
47E
  3
Basic
350
2E
  3
Brighten
350
35
  3
ColorChange
350
39
  3
Conceptual
350
32
  3
Dim
350
34
  3
EdgeColorOff
350
41
  3
Facepattern
350
38
  3
Flat
350
2A
  3
FlatWithEdges
350
2B
  3
Gouraud
350
2C
  3
GouraudWithEdges
350
2D
  3
Hidden
350
31
  3
JitterOff
350
3F
  3
Linepattern
350
37
  3
OverhangOff
350
40
  3
Realistic
350
33
  3
Shaded
350
3E
  3
Shaded with edges
350
3D
  3
Shades of Gray
350
3A
  3
Sketchy
350
3B
  3
Thicken
350
36
  3
Wireframe
350
30
  3
X-Ray
350
3C
  0
XRECORD
  5
17C8
102
{ACAD_REACTORS
330
C
102
}
330
C
100
AcDbXrecord
280
     1
 90
        1
330
64
  0
DICTIONARY
  5
619
102
{ACAD_REACTORS
330
C
102
}
330
C
100
AcDbDictionary
281
     1
  3
CANNOSCALE
350
61C
  3
CMLEADERSTYLE
350
61B
  3
CTABLESTYLE
350
61A
  3
DIMASSOC
350
61F
  3
INDEXCTL
350
61E
  3
SORTENTS
350
61D
  3
XCLIPFRAME
350
16D6
  0
XRECORD
  5
17C9
102
{ACAD_REACTORS
330
C
102
}
330
C
100
AcDbXrecord
280
     1
  1
DWGPROPS COOKIE
  2

  3

  4

  6

  7

  8
imamura
  9

300
=
301
=
302
=
303
=
304
=
305
=
306
=
307
=
308
=
309
=
 40
0.0304682060185185
 41
2456214.650901574
 42
2459893.494668715
  1

 90
        0
  0
DICTIONARY
  5
480
102
{ACAD_REACTORS
330
47F
102
}
330
47F
100
AcDbDictionary
281
     1
  0
XRECORD
  5
616
102
{ACAD_REACTORS
330
615
102
}
330
615
100
AcDbXrecord
280
     1
290
     1
  0
SORTENTSTABLE
  5
605
102
{ACAD_REACTORS
330
604
102
}
330
604
100
AcDbSortentsTable
330
6B
331
F60
  5
13B5
331
175D
  5
DBF
331
1797
  5
1778
331
1759
  5
DCD
331
1793
  5
1780
331
1755
  5
DC9
331
178F
  5
1784
331
1751
  5
DD5
331
178B
  5
1788
331
F77
  5
1771
331
F73
  5
176D
331
F24
  5
F55
331
EED
  5
F1E
331
EAE
  5
EE2
331
E77
  5
EA8
331
F5F
  5
13B4
331
F20
  5
F51
331
EE9
  5
F1A
331
EAA
  5
EDE
331
E73
  5
EA4
331
E34
  5
E65
331
F5B
  5
13B0
331
F1C
  5
F4D
331
EE5
  5
F16
331
EA6
  5
EDA
331
E6F
  5
EA0
331
E30
  5
E61
331
DFD
  5
E2E
331
DBE
  5
DED
331
D87
  5
D8A
331
F18
  5
F49
331
EE1
  5
F12
331
EA2
  5
ED6
331
E6B
  5
E9C
331
E2C
  5
E5D
331
DBA
  5
DE9
331
4C4
  5
4C6
331
28F
  5
291
331
2C6
  5
2C8
331
D83
  5
D86
331
E28
  5
E59
331
DF5
  5
E27
331
DB6
  5
DE5
331
3B1
  5
3B3
331
4C0
  5
4C2
331
D7F
  5
D82
331
D4
  5
D5
331
2C2
  5
2C4
331
DF1
  5
E23
331
DB2
  5
DE1
331
D7B
  5
D7E
331
2BE
  5
2C0
331
3AD
  5
3AF
331
4BC
  5
4BE
331
287
  5
289
331
283
  5
285
331
2BA
  5
2BC
331
3A9
  5
3AB
331
BC
  5
BC
331
4B8
  5
4BA
331
1531
  5
17C3
331
F6C
  5
1766
331
174D
  5
DD1
331
17C6
  5
1529
331
1749
  5
1523
331
1784
  5
1791
331
17C2
  5
152B
331
1745
  5
151F
331
1780
  5
1795
331
17BE
  5
171D
331
1741
  5
171B
331
17BA
  5
1722
331
F57
  5
13AC
331
F53
  5
139C
331
EDD
  5
F0E
331
E67
  5
E98
331
F4F
  5
1141
331
ED9
  5
F0A
331
E63
  5
E94
331
13B2
  5
17AD
331
F4B
  5
10CB
331
F14
  5
F45
331
ED5
  5
F06
331
E9E
  5
ED2
331
E5F
  5
E90
331
DED
  5
E1F
331
D77
  5
D7A
331
F10
  5
F41
331
ED1
  5
F02
331
E9A
  5
ECE
331
E5B
  5
E8C
331
DE9
  5
E1B
331
D73
  5
D76
331
27F
  5
281
331
3A5
  5
3A7
331
E24
  5
E55
331
DE5
  5
E17
331
DAE
  5
DDD
331
3A1
  5
3A3
331
27B
  5
27D
331
D6F
  5
D72
331
E20
  5
E51
331
DE1
  5
E13
331
DAA
  5
DD9
331
2B6
  5
2B8
331
4B4
  5
4B6
331
D6B
  5
D6C
331
2B2
  5
2B4
331
399
  5
39C
331
152D
  5
17BF
331
1529
  5
17BB
331
1525
  5
17B7
331
F7C
  5
177C
331
1521
  5
17B3
331
F78
  5
1772
331
177C
  5
179B
331
17B6
  5
172C
331
1739
  5
1729
331
1778
  5
D9F
331
17B2
  5
1732
331
1774
  5
DA3
331
17AE
  5
174B
331
1770
  5
DBE
331
13AE
  5
17A9
331
17AA
  5
1754
331
F47
  5
F80
331
13AA
  5
17A5
331
F43
  5
F7A
331
F0C
  5
F3D
331
ECD
  5
EFE
331
E96
  5
ECA
331
E57
  5
E88
331
F3F
  5
F76
331
F08
  5
F39
331
EC9
  5
EFA
331
E92
  5
EC6
331
E53
  5
E84
331
1142
  5
17A2
331
F3B
  5
F72
331
F04
  5
F35
331
EC5
  5
EF6
331
E8E
  5
EBF
331
E4F
  5
E80
331
E1C
  5
E4D
331
DDD
  5
E0F
331
D67
  5
D68
331
F00
  5
F31
331
E8A
  5
EBB
331
E4B
  5
E7C
331
E18
  5
E49
331
DD9
  5
E0B
331
DA2
  5
DB1
331
3D4
  5
3D6
331
D63
  5
D63
331
207
  5
209
331
2AE
  5
2B0
331
395
  5
397
331
E14
  5
E45
331
DD5
  5
E07
331
D9E
  5
DAD
331
391
  5
393
331
3D0
  5
3D2
331
2AA
  5
2AC
331
D5F
  5
D5F
331
E10
  5
E41
331
DD1
  5
E03
331
D9A
  5
DA5
331
38D
  5
38F
331
3CC
  5
3CE
331
D5B
  5
D5B
331
389
  5
38B
331
3C8
  5
3CA
331
172D
  5
174F
331
176C
  5
DBA
331
1729
  5
175B
331
17A6
  5
1756
331
1768
  5
DB6
331
17A2
  5
175D
331
1764
  5
DC6
331
179E
  5
175F
331
1760
  5
DC2
331
179A
  5
1773
331
F37
  5
F6E
331
F33
  5
F64
331
EFC
  5
F2D
331
E86
  5
EB7
331
E47
  5
E78
331
F2F
  5
F60
331
EF8
  5
F29
331
EB9
  5
EED
331
E82
  5
EB3
331
E43
  5
E74
331
F2B
  5
F5C
331
EF4
  5
F25
331
EB5
  5
EE9
331
E7E
  5
EAF
331
E3F
  5
E70
331
E0C
  5
E3D
331
DCD
  5
DFF
331
D57
  5
D57
331
D96
  5
D99
331
EF0
  5
F21
331
EB1
  5
EE5
331
E7A
  5
EAB
331
E3B
  5
E6C
331
E08
  5
E39
331
DC9
  5
DF8
331
3C4
  5
3C6
331
1AF
  5
1B6
331
385
  5
387
331
D92
  5
D95
331
E04
  5
E35
331
DC5
  5
DF4
331
381
  5
383
331
3C0
  5
3C2
331
D8E
  5
D91
331
E00
  5
E31
331
DC1
  5
DF0
331
D8A
  5
D8D
331
3BC
  5
3BE
331
DF
  5
E1
331
296
  5
298
331
292
  5
294
331
F63
  5
1715
331
175C
  5
DD0
331
1796
  5
1777
331
1758
  5
DCC
331
1792
  5
177F
331
1754
  5
DD8
331
178E
  5
1783
331
1750
  5
DD4
331
178A
  5
1787
331
F76
  5
1770
331
F27
  5
F58
331
F72
  5
176C
331
F23
  5
F54
331
EEC
  5
F1D
331
EAD
  5
EE1
331
E76
  5
EA7
331
E37
  5
E68
331
F5E
  5
13B3
331
F1F
  5
F50
331
EE8
  5
F19
331
EA9
  5
EDD
331
E72
  5
EA3
331
E33
  5
E64
331
F5A
  5
13AF
331
F1B
  5
F4C
331
EE4
  5
F15
331
EA5
  5
ED9
331
E6E
  5
E9F
331
E2F
  5
E60
331
DFC
  5
E2C
331
DBD
  5
DEC
331
4C7
  5
603
331
D86
  5
D89
331
EE0
  5
F11
331
EA1
  5
ED5
331
E6A
  5
E9B
331
E2B
  5
E5C
331
DF8
  5
E2A
331
DB9
  5
DE8
331
3B4
  5
3BC
331
4C3
  5
4C5
331
28E
  5
290
331
2C5
  5
2C7
331
D82
  5
D85
331
DF4
  5
E26
331
DB5
  5
DE4
331
3B0
  5
3B2
331
4BF
  5
4C1
331
D7E
  5
D81
331
D3
  5
D4
331
2C1
  5
2C3
331
DF0
  5
E22
331
DB1
  5
DE0
331
D7A
  5
D7D
331
2BD
  5
2BF
331
3AC
  5
3AE
331
4BB
  5
4BD
331
BF
  5
D3
331
286
  5
288
331
282
  5
284
331
2B9
  5
2BB
331
3A8
  5
3AA
331
1534
  5
17C6
331
1530
  5
17C2
331
F6F
  5
1769
331
F6B
  5
1765
331
1787
  5
178C
331
17C5
  5
1528
331
1748
  5
1522
331
1783
  5
1790
331
17C1
  5
152A
331
17BD
  5
171C
331
1740
  5
1717
331
17B9
  5
1728
331
F56
  5
13AB
331
F52
  5
1144
331
EDC
  5
F0D
331
E66
  5
E97
331
13B5
  5
17B0
331
F4E
  5
1140
331
F17
  5
F48
331
ED8
  5
F09
331
E62
  5
E93
331
13B1
  5
17AC
331
F4A
  5
F83
331
F13
  5
F44
331
ED4
  5
F05
331
E9D
  5
ED1
331
E5E
  5
E8F
331
DEC
  5
E1E
331
D76
  5
D79
331
ED0
  5
F01
331
E99
  5
ECD
331
E5A
  5
E8B
331
E27
  5
E58
331
DE8
  5
E1A
331
D72
  5
D75
331
27E
  5
280
331
3A4
  5
3A6
331
E23
  5
E54
331
DE4
  5
E16
331
DAD
  5
DDC
331
3A0
  5
3A2
331
4B7
  5
4B9
331
D6E
  5
D70
331
DE0
  5
E12
331
D6A
  5
D6B
331
2B5
  5
2B7
331
39C
  5
39F
331
2B1
  5
2B3
331
398
  5
39A
331
152C
  5
17BE
331
1528
  5
17BA
331
1524
  5
17B6
331
F7B
  5
177B
331
1520
  5
17B2
331
177F
  5
1794
331
177B
  5
179A
331
17B5
  5
1731
331
1777
  5
D9E
331
17B1
  5
173C
331
1773
  5
DA2
331
17AD
  5
173E
331
13AD
  5
17A8
331
17A9
  5
1753
331
F46
  5
F7D
331
F0F
  5
F40
331
F42
  5
F79
331
F0B
  5
F3C
331
ECC
  5
EFD
331
E95
  5
EC9
331
E56
  5
E87
331
F3E
  5
F75
331
F07
  5
F38
331
EC8
  5
EF9
331
E91
  5
EC5
331
E52
  5
E83
331
E1F
  5
E50
331
1141
  5
17A1
331
F3A
  5
F71
331
F03
  5
F34
331
EC4
  5
EF5
331
E8D
  5
EBE
331
E4E
  5
E7F
331
E1B
  5
E4C
331
DA5
  5
DB4
331
DDC
  5
E0E
331
D66
  5
D66
331
3D7
  5
4A8
331
EC0
  5
EF2
331
E89
  5
EBA
331
E4A
  5
E7B
331
E17
  5
E48
331
DD8
  5
E0A
331
DA1
  5
DB0
331
3D3
  5
3D5
331
D62
  5
D62
331
2AD
  5
2AF
331
394
  5
396
331
E13
  5
E44
331
DD4
  5
E06
331
D9D
  5
DA8
331
390
  5
392
331
3CF
  5
3D1
331
D5E
  5
D5E
331
2A9
  5
2AB
331
DD0
  5
E02
331
D99
  5
DA4
331
38C
  5
38E
331
3CB
  5
3CD
331
D5A
  5
D5A
331
388
  5
38A
331
176F
  5
DBD
331
176B
  5
DB9
331
1728
  5
175A
331
17A5
  5
1755
331
1767
  5
DB5
331
17A1
  5
175C
331
1763
  5
DC5
331
179D
  5
1762
331
113D
  5
179E
331
1799
  5
1776
331
F36
  5
F68
331
EFF
  5
F30
331
F32
  5
F63
331
EFB
  5
F2C
331
EBC
  5
EF0
331
E85
  5
EB6
331
E46
  5
E77
331
F2E
  5
F5F
331
EF7
  5
F28
331
EB8
  5
EEC
331
E81
  5
EB2
331
E42
  5
E73
331
E0F
  5
E40
331
F2A
  5
F5B
331
EF3
  5
F24
331
EB4
  5
EE8
331
E7D
  5
EAE
331
E3E
  5
E6F
331
E0B
  5
E3C
331
DCC
  5
DFE
331
D56
  5
D56
331
D95
  5
D98
331
3C7
  5
3C9
331
EB0
  5
EE4
331
E79
  5
EAA
331
E3A
  5
E6B
331
E07
  5
E38
331
DC8
  5
DF7
331
3C3
  5
3C5
331
D91
  5
D94
331
29D
  5
29F
331
384
  5
386
331
E03
  5
E34
331
DC4
  5
DF3
331
3BF
  5
3C1
331
299
  5
29B
331
D8D
  5
D90
331
DC0
  5
DEF
331
D89
  5
D8C
331
295
  5
297
331
3BB
  5
3BD
331
291
  5
293
331
378
  5
37A
331
F62
  5
1531
331
175F
  5
DC1
331
175B
  5
DCF
331
1795
  5
177A
331
1757
  5
DCB
331
1791
  5
1782
331
1753
  5
DD7
331
178D
  5
1786
331
1789
  5
178A
331
F75
  5
176F
331
F26
  5
F57
331
EEF
  5
F20
331
F71
  5
176B
331
F22
  5
F53
331
EEB
  5
F1C
331
EAC
  5
EE0
331
E75
  5
EA6
331
E36
  5
E67
331
F5D
  5
13B2
331
F1E
  5
F4F
331
EE7
  5
F18
331
EA8
  5
EDC
331
E71
  5
EA2
331
E32
  5
E63
331
DFF
  5
E30
331
F59
  5
13AE
331
F1A
  5
F4B
331
EE3
  5
F14
331
EA4
  5
ED8
331
E6D
  5
E9E
331
E2E
  5
E5F
331
DBC
  5
DEB
331
4C6
  5
4C8
331
D85
  5
D88
331
EA0
  5
ED4
331
E69
  5
E9A
331
E2A
  5
E5B
331
DF7
  5
E29
331
DB8
  5
DE7
331
3B3
  5
3B5
331
4C2
  5
4C4
331
28D
  5
28F
331
2C4
  5
2C6
331
D81
  5
D84
331
DF3
  5
E25
331
DB4
  5
DE3
331
2C0
  5
2C2
331
3AF
  5
3B1
331
4BE
  5
4C0
331
D7D
  5
D80
331
DB0
  5
DDF
331
D79
  5
D7C
331
2BC
  5
2BE
331
3AB
  5
3AD
331
4BA
  5
4BC
331
BE
  5
BF
331
285
  5
287
331
281
  5
283
331
2B8
  5
2BA
331
1533
  5
17C5
331
F6E
  5
1768
331
174F
  5
DD3
331
F6A
  5
1764
331
1786
  5
178B
331
17C4
  5
1527
331
1747
  5
1521
331
1782
  5
178F
331
17C0
  5
1530
331
17BC
  5
1727
331
17B8
  5
172E
331
F55
  5
13AA
331
EDF
  5
F10
331
F51
  5
1143
331
EDB
  5
F0C
331
E65
  5
E96
331
13B4
  5
17AF
331
F4D
  5
113F
331
F16
  5
F47
331
ED7
  5
F08
331
E61
  5
E92
331
DEF
  5
E21
331
13B0
  5
17AB
331
F49
  5
F82
331
F12
  5
F43
331
ED3
  5
F04
331
E9C
  5
ED0
331
E5D
  5
E8E
331
DEB
  5
E1D
331
3A7
  5
3A9
331
D75
  5
D78
331
E98
  5
ECC
331
E59
  5
E8A
331
E26
  5
E57
331
DE7
  5
E19
331
3A3
  5
3A5
331
27D
  5
27F
331
D71
  5
D74
331
E22
  5
E53
331
DE3
  5
E15
331
DAC
  5
DDB
331
39F
  5
3A1
331
4B6
  5
4B8
331
279
  5
27B
331
D6D
  5
D6F
331
D69
  5
D6A
331
2B4
  5
2B6
331
39B
  5
39D
331
251
  5
25A
331
2B0
  5
2B2
331
152F
  5
17C1
331
152B
  5
17BD
331
1527
  5
17B9
331
F7E
  5
177E
331
1523
  5
17B5
331
F86
  5
1798
331
177E
  5
1793
331
173F
  5
1716
331
177A
  5
1799
331
173B
  5
172B
331
17B4
  5
1730
331
1776
  5
D9D
331
17B0
  5
173B
331
1772
  5
DA1
331
17AC
  5
173D
331
13AC
  5
17A7
331
17A8
  5
1752
331
F45
  5
F7C
331
F0E
  5
F3F
331
ECF
  5
F00
331
F41
  5
F78
331
F0A
  5
F3B
331
ECB
  5
EFC
331
E94
  5
EC8
331
E55
  5
E86
331
1144
  5
17A4
331
F3D
  5
F74
331
F06
  5
F37
331
EC7
  5
EF8
331
E90
  5
EC4
331
E51
  5
E82
331
E1E
  5
E4F
331
DDF
  5
E11
331
1140
  5
17A0
331
F39
  5
F70
331
F02
  5
F33
331
EC3
  5
EF4
331
E8C
  5
EBD
331
E4D
  5
E7E
331
E1A
  5
E4B
331
DA4
  5
DB3
331
DDB
  5
E0D
331
3D6
  5
3D8
331
397
  5
399
331
D65
  5
D65
331
E88
  5
EB9
331
E49
  5
E7A
331
E16
  5
E47
331
DD7
  5
E09
331
DA0
  5
DAF
331
3D2
  5
3D4
331
D61
  5
D61
331
2AC
  5
2AE
331
393
  5
395
331
E12
  5
E43
331
DD3
  5
E05
331
D9C
  5
DA7
331
38F
  5
391
331
3CE
  5
3D0
331
D5D
  5
D5D
331
D59
  5
D59
331
38B
  5
38D
331
3CA
  5
3CC
331
1D9
  5
1DB
331
151F
  5
17B1
331
172F
  5
1751
331
176E
  5
DBC
331
176A
  5
DB8
331
1727
  5
1759
331
17A4
  5
1758
331
1766
  5
DC8
331
17A0
  5
1761
331
1762
  5
DC4
331
179C
  5
1775
331
1798
  5
1779
331
F35
  5
F67
331
EFE
  5
F2F
331
EBF
  5
EF1
331
F31
  5
F62
331
EFA
  5
F2B
331
EBB
  5
EEF
331
E84
  5
EB5
331
E45
  5
E76
331
10CC
  5
179D
331
F2D
  5
F5E
331
EF6
  5
F27
331
EB7
  5
EEB
331
E80
  5
EB1
331
E41
  5
E72
331
E0E
  5
E3F
331
DCF
  5
E01
331
F29
  5
F5A
331
EF2
  5
F23
331
EB3
  5
EE7
331
E7C
  5
EAD
331
E3D
  5
E6E
331
E0A
  5
E3B
331
DCB
  5
DFC
331
D94
  5
D97
331
387
  5
389
331
3C6
  5
3C8
331
E78
  5
EA9
331
E39
  5
E6A
331
E06
  5
E37
331
DC7
  5
DF6
331
3C2
  5
3C4
331
D90
  5
D93
331
383
  5
385
331
E02
  5
E33
331
DC3
  5
DF2
331
D8C
  5
D8F
331
3BE
  5
3C0
331
298
  5
29A
331
294
  5
296
331
D88
  5
D8B
331
290
  5
292
331
175E
  5
DC0
331
175A
  5
DCE
331
1794
  5
1781
331
1756
  5
DCA
331
1790
  5
1785
331
1752
  5
DD6
331
178C
  5
1789
331
1788
  5
178D
331
F74
  5
176E
331
F25
  5
F56
331
EEE
  5
F1F
331
EAF
  5
EE3
331
F70
  5
176A
331
F21
  5
F52
331
EEA
  5
F1B
331
EAB
  5
EDF
331
E74
  5
EA5
331
E35
  5
E66
331
F5C
  5
13B1
331
F1D
  5
F4E
331
EE6
  5
F17
331
EA7
  5
EDB
331
E70
  5
EA1
331
E31
  5
E62
331
DFE
  5
E2F
331
DBF
  5
DEE
331
F58
  5
13AD
331
F19
  5
F4A
331
EE2
  5
F13
331
EA3
  5
ED7
331
E6C
  5
E9D
331
E2D
  5
E5E
331
DFA
  5
E2B
331
DBB
  5
DEA
331
4C5
  5
4C7
331
D84
  5
D87
331
E68
  5
E99
331
E29
  5
E5A
331
DF6
  5
E28
331
DB7
  5
DE6
331
3B2
  5
3B4
331
4C1
  5
4C3
331
D80
  5
D83
331
D5
  5
D6
331
2C3
  5
2C5
331
DF2
  5
E24
331
DB3
  5
DE2
331
2BF
  5
2C1
331
3AE
  5
3B0
331
4BD
  5
4BF
331
288
  5
28B
331
D7C
  5
D7F
331
D78
  5
D7B
331
284
  5
286
331
2BB
  5
2BD
331
3AA
  5
3AC
331
BD
  5
BD
331
4B9
  5
4BB
331
280
  5
282
331
1532
  5
17C4
331
F6D
  5
1767
331
174E
  5
DD2
331
F69
  5
1763
331
1785
  5
178E
331
17C3
  5
152F
331
1746
  5
1520
331
1781
  5
1792
331
17BF
  5
1721
331
17BB
  5
1723
331
F54
  5
13A3
331
EDE
  5
F0F
331
F50
  5
1142
331
EDA
  5
F0B
331
E64
  5
E95
331
13B3
  5
17AE
331
F4C
  5
10CC
331
F15
  5
F46
331
ED6
  5
F07
331
E9F
  5
ED3
331
E60
  5
E91
331
DEE
  5
E20
331
F48
  5
F81
331
F11
  5
F42
331
ED2
  5
F03
331
E9B
  5
ECF
331
E5C
  5
E8D
331
DEA
  5
E1C
331
D74
  5
D77
331
3A6
  5
3A8
331
E58
  5
E89
331
E25
  5
E56
331
DE6
  5
E18
331
DAF
  5
DDE
331
3A2
  5
3A4
331
D70
  5
D73
331
E21
  5
E52
331
DE2
  5
E14
331
DAB
  5
DDA
331
2B7
  5
2B9
331
39E
  5
3A0
331
4B5
  5
4B7
331
D6C
  5
D6D
331
D68
  5
D69
331
2B3
  5
2B5
331
152E
  5
17C0
331
152A
  5
17BC
331
1526
  5
17B8
331
F7D
  5
177D
331
1522
  5
17B4
331
F85
  5
1797
331
177D
  5
1796
331
1779
  5
179C
331
17B7
  5
172D
331
173A
  5
172A
331
17B3
  5
172F
331
1775
  5
D9C
331
17AF
  5
1736
331
1771
  5
DA0
331
13AF
  5
17AA
331
17AB
  5
174C
331
13AB
  5
17A6
331
F44
  5
F7B
331
F0D
  5
F3E
331
ECE
  5
EFF
331
E97
  5
ECB
331
F40
  5
F77
331
F09
  5
F3A
331
ECA
  5
EFB
331
E93
  5
EC7
331
E54
  5
E85
331
1143
  5
17A3
331
F3C
  5
F73
331
F05
  5
F36
331
EC6
  5
EF7
331
E8F
  5
EC2
331
E50
  5
E81
331
E1D
  5
E4E
331
DDE
  5
E10
331
F38
  5
F6F
331
F01
  5
F32
331
EC2
  5
EF3
331
E8B
  5
EBC
331
E4C
  5
E7D
331
E19
  5
E4A
331
DDA
  5
E0C
331
DA3
  5
DB2
331
3D5
  5
3D7
331
2AF
  5
2B1
331
396
  5
398
331
D64
  5
D64
331
E48
  5
E79
331
E15
  5
E46
331
DD6
  5
E08
331
D9F
  5
DAE
331
392
  5
394
331
3D1
  5
3D3
331
2AB
  5
2AD
331
D60
  5
D60
331
E11
  5
E42
331
DD2
  5
E04
331
D9B
  5
DA6
331
3CD
  5
3CF
331
D5C
  5
D5C
331
D58
  5
D58
331
2A3
  5
2A5
331
38A
  5
38C
331
3C9
  5
3CB
331
172E
  5
1750
331
176D
  5
DBB
331
17A7
  5
1757
331
1769
  5
DB7
331
17A3
  5
175E
331
1765
  5
DC7
331
3D8
  5
4A9
331
179F
  5
1760
331
1761
  5
DC3
331
113F
  5
179F
331
179B
  5
1774
331
F34
  5
F65
331
EFD
  5
F2E
331
E87
  5
EB8
331
F30
  5
F61
331
EF9
  5
F2A
331
EBA
  5
EEE
331
E83
  5
EB4
331
E44
  5
E75
331
F2C
  5
F5D
331
10CB
  5
E2D
331
EF5
  5
F26
331
EB6
  5
EEA
331
E7F
  5
EB0
331
E40
  5
E71
331
E0D
  5
E3E
331
DCE
  5
E00
331
F28
  5
F59
331
EF1
  5
F22
331
EB2
  5
EE6
331
E7B
  5
EAC
331
E3C
  5
E6D
331
E09
  5
E3A
331
DCA
  5
DFA
331
3C5
  5
3C7
331
386
  5
388
331
D93
  5
D96
331
E38
  5
E69
331
E05
  5
E36
331
DC6
  5
DF5
331
3C1
  5
3C3
331
D8F
  5
D92
331
29B
  5
29D
331
382
  5
384
331
E01
  5
E32
331
DC2
  5
DF1
331
D8B
  5
D8E
331
3BD
  5
3BF
331
297
  5
299
331
4C8
  5
60C
331
293
  5
295
331
D8
  5
E0
  0
XRECORD
  5
17CC
102
{ACAD_REACTORS
330
17CA
102
}
330
17CA
100
AcDbXrecord
280
     1
 70
     2
  0
XRECORD
  5
17CB
102
{ACAD_REACTORS
330
17CA
102
}
330
17CA
100
AcDbXrecord
280
     1
 40
1.25
  0
XRECORD
  5
17CD
102
{ACAD_REACTORS
330
17CA
102
}
330
17CA
100
AcDbXrecord
280
     1
 40
1.570796326794896
  0
LAYOUT
  5
6E
102
{ACAD_XDICTIONARY
360
1801
102
}
102
{ACAD_REACTORS
330
61
102
}
330
61
100
AcDbPlotSettings
  1

  2
none_device
  4
Letter_(8.50_x_11.00_Inches)
  6

 40
6.349999904632567
 41
6.349999904632567
 42
6.350006103515625
 43
6.350006103515625
 44
215.8999938964844
 45
279.3999938964844
 46
0.0
 47
0.0
 48
0.0
 49
0.0
140
0.0
141
0.0
142
1.0
143
63.16167866330715
 70
 11952
 72
     0
 73
     1
 74
     0
  7

 75
     0
147
0.0158323847808202
148
3952.373343043209
149
13056.19048275731
100
AcDbLayout
  1
Model
 70
     1
 71
     0
 10
0.0
 20
0.0
 11
12.0
 21
9.0
 12
0.0
 22
0.0
 32
0.0
 14
0.0
 24
0.0
 34
0.0
 15
0.0
 25
0.0
 35
0.0
146
0.0
 13
0.0
 23
0.0
 33
0.0
 16
1.0
 26
0.0
 36
0.0
 17
0.0
 27
1.0
 37
0.0
 76
     0
330
6B
331
8B
1001
ACAD_PSEXT
1000
なし
1000
なし
1000
適切ではありません
1000
新しいプロッタ環境設定名を選択しない限り、レイアウトは印刷されません。
1070
     0
  0
LAYOUT
  5
6A
102
{ACAD_XDICTIONARY
360
17FF
102
}
102
{ACAD_REACTORS
330
61
102
}
330
61
100
AcDbPlotSettings
  1

  2
FX DP 205
  4

  6

 40
0.0
 41
0.0
 42
0.0
 43
0.0
 44
0.0
 45
0.0
 46
0.0
 47
0.0
 48
0.0
 49
0.0
140
0.0
141
0.0
142
1.0
143
1.0
 70
   688
 72
     0
 73
     0
 74
     5
  7

 75
    16
147
1.0
148
0.0
149
0.0
100
AcDbLayout
  1
レイアウト1
 70
     1
 71
     1
 10
0.0
 20
0.0
 11
12.0
 21
9.0
 12
0.0
 22
0.0
 32
0.0
 14
1.000000000000000E+20
 24
1.000000000000000E+20
 34
1.000000000000000E+20
 15
-1.000000000000000E+20
 25
-1.000000000000000E+20
 35
-1.000000000000000E+20
146
0.0
 13
0.0
 23
0.0
 33
0.0
 16
1.0
 26
0.0
 36
0.0
 17
0.0
 27
1.0
 37
0.0
 76
     0
330
67
  0
MATERIAL
  5
19
102
{ACAD_XDICTIONARY
360
1A
102
}
102
{ACAD_REACTORS
330
10
102
}
330
10
100
AcDbMaterial
  1
ByBlock
 72
     0
 43
0.0208333333333333
 43
0.0
 43
0.0
 43
0.0
 43
0.0
 43
0.0208333333333333
 43
0.0
 43
0.0
 43
0.0
 43
0.0
 43
1.0
 43
0.0
 43
0.0
 43
0.0
 43
0.0
 43
1.0
 77
     0
 47
0.0208333333333333
 47
0.0
 47
0.0
 47
0.0
 47
0.0
 47
0.0208333333333333
 47
0.0
 47
0.0
 47
0.0
 47
0.0
 47
1.0
 47
0.0
 47
0.0
 47
0.0
 47
0.0
 47
1.0
171
     0
 49
0.0208333333333333
 49
0.0
 49
0.0
 49
0.0
 49
0.0
 49
0.0208333333333333
 49
0.0
 49
0.0
 49
0.0
 49
0.0
 49
1.0
 49
0.0
 49
0.0
 49
0.0
 49
0.0
 49
1.0
175
     0
142
0.0208333333333333
142
0.0
142
0.0
142
0.0
142
0.0
142
0.0208333333333333
142
0.0
142
0.0
142
0.0
142
0.0
142
1.0
142
0.0
142
0.0
142
0.0
142
0.0
142
1.0
179
     0
144
0.0208333333333333
144
0.0
144
0.0
144
0.0
144
0.0
144
0.0208333333333333
144
0.0
144
0.0
144
0.0
144
0.0
144
1.0
144
0.0
144
0.0
144
0.0
144
0.0
144
1.0
147
0.0208333333333333
147
0.0
147
0.0
147
0.0
147
0.0
147
0.0208333333333333
147
0.0
147
0.0
147
0.0
147
0.0
147
1.0
147
0.0
147
0.0
147
0.0
147
0.0
147
1.0
  0
MATERIAL
  5
11
102
{ACAD_XDICTIONARY
360
12
102
}
102
{ACAD_REACTORS
330
10
102
}
330
10
100
AcDbMaterial
  1
ByLayer
 72
     0
 43
0.0208333333333333
 43
0.0
 43
0.0
 43
0.0
 43
0.0
 43
0.0208333333333333
 43
0.0
 43
0.0
 43
0.0
 43
0.0
 43
1.0
 43
0.0
 43
0.0
 43
0.0
 43
0.0
 43
1.0
 77
     0
 47
0.0208333333333333
 47
0.0
 47
0.0
 47
0.0
 47
0.0
 47
0.0208333333333333
 47
0.0
 47
0.0
 47
0.0
 47
0.0
 47
1.0
 47
0.0
 47
0.0
 47
0.0
 47
0.0
 47
1.0
171
     0
 49
0.0208333333333333
 49
0.0
 49
0.0
 49
0.0
 49
0.0
 49
0.0208333333333333
 49
0.0
 49
0.0
 49
0.0
 49
0.0
 49
1.0
 49
0.0
 49
0.0
 49
0.0
 49
0.0
 49
1.0
175
     0
142
0.0208333333333333
142
0.0
142
0.0
142
0.0
142
0.0
142
0.0208333333333333
142
0.0
142
0.0
142
0.0
142
0.0
142
1.0
142
0.0
142
0.0
142
0.0
142
0.0
142
1.0
179
     0
144
0.0208333333333333
144
0.0
144
0.0
144
0.0
144
0.0
144
0.0208333333333333
144
0.0
144
0.0
144
0.0
144
0.0
144
1.0
144
0.0
144
0.0
144
0.0
144
0.0
144
1.0
147
0.0208333333333333
147
0.0
147
0.0
147
0.0
147
0.0
147
0.0208333333333333
147
0.0
147
0.0
147
0.0
147
0.0
147
1.0
147
0.0
147
0.0
147
0.0
147
0.0
147
1.0
  0
MATERIAL
  5
21
102
{ACAD_XDICTIONARY
360
22
102
}
102
{ACAD_REACTORS
330
10
102
}
330
10
100
AcDbMaterial
  1
Global
 72
     0
 43
0.0208333333333333
 43
0.0
 43
0.0
 43
0.0
 43
0.0
 43
0.0208333333333333
 43
0.0
 43
0.0
 43
0.0
 43
0.0
 43
1.0
 43
0.0
 43
0.0
 43
0.0
 43
0.0
 43
1.0
 77
     0
 47
0.0208333333333333
 47
0.0
 47
0.0
 47
0.0
 47
0.0
 47
0.0208333333333333
 47
0.0
 47
0.0
 47
0.0
 47
0.0
 47
1.0
 47
0.0
 47
0.0
 47
0.0
 47
0.0
 47
1.0
171
     0
 49
0.0208333333333333
 49
0.0
 49
0.0
 49
0.0
 49
0.0
 49
0.0208333333333333
 49
0.0
 49
0.0
 49
0.0
 49
0.0
 49
1.0
 49
0.0
 49
0.0
 49
0.0
 49
0.0
 49
1.0
175
     0
142
0.0208333333333333
142
0.0
142
0.0
142
0.0
142
0.0
142
0.0208333333333333
142
0.0
142
0.0
142
0.0
142
0.0
142
1.0
142
0.0
142
0.0
142
0.0
142
0.0
142
1.0
179
     0
144
0.0208333333333333
144
0.0
144
0.0
144
0.0
144
0.0
144
0.0208333333333333
144
0.0
144
0.0
144
0.0
144
0.0
144
1.0
144
0.0
144
0.0
144
0.0
144
0.0
144
1.0
147
0.0208333333333333
147
0.0
147
0.0
147
0.0
147
0.0
147
0.0208333333333333
147
0.0
147
0.0
147
0.0
147
0.0
147
1.0
147
0.0
147
0.0
147
0.0
147
0.0
147
1.0
  0
MLEADERSTYLE
  5
66
102
{ACAD_REACTORS
330
65
102
}
330
65
100
AcDbMLeaderStyle
170
     2
171
     1
172
     0
 90
        2
 40
0.0
 41
0.0
173
     1
 91
-1056964608
340
5A
 92
       -2
290
     1
 42
0.09
291
     1
 43
0.36
  3
Standard
 44
0.18
300

342
55
174
     1
178
     6
175
     1
176
     0
 93
-1056964608
 45
0.18
292
     0
297
     0
 46
0.18
 94
-1056964608
 47
1.0
 49
1.0
140
1.0
293
     1
141
0.0
294
     1
177
     0
142
1.0
295
     0
296
     0
143
0.125
1001
ACAD_MLEADERVER
1070
     2
  0
MLINESTYLE
  5
5F
102
{ACAD_REACTORS
330
5E
102
}
330
5E
100
AcDbMlineStyle
  2
STANDARD
 70
     0
  3

 62
   256
 51
90.0
 52
90.0
 71
     2
 49
0.5
 62
   256
  6
BYLAYER
 49
-0.5
 62
   256
  6
BYLAYER
  0
ACDBPLACEHOLDER
  5
F
102
{ACAD_REACTORS
330
E
102
}
330
E
  0
SCALE
  5
43
102
{ACAD_REACTORS
330
42
102
}
330
42
100
AcDbScale
 70
     0
300
1:1
140
1.0
141
1.0
290
     1
  0
SCALE
  5
44
102
{ACAD_REACTORS
330
42
102
}
330
42
100
AcDbScale
 70
     0
300
1/128" = 1'-0"
140
0.0078125
141
12.0
290
     0
  0
SCALE
  5
45
102
{ACAD_REACTORS
330
42
102
}
330
42
100
AcDbScale
 70
     0
300
1/64" = 1'-0"
140
0.015625
141
12.0
290
     0
  0
SCALE
  5
46
102
{ACAD_REACTORS
330
42
102
}
330
42
100
AcDbScale
 70
     0
300
1/32" = 1'-0"
140
0.03125
141
12.0
290
     0
  0
SCALE
  5
47
102
{ACAD_REACTORS
330
42
102
}
330
42
100
AcDbScale
 70
     0
300
1/16" = 1'-0"
140
0.0625
141
12.0
290
     0
  0
SCALE
  5
48
102
{ACAD_REACTORS
330
42
102
}
330
42
100
AcDbScale
 70
     0
300
3/32" = 1'-0"
140
0.09375
141
12.0
290
     0
  0
SCALE
  5
49
102
{ACAD_REACTORS
330
42
102
}
330
42
100
AcDbScale
 70
     0
300
1/8" = 1'-0"
140
0.125
141
12.0
290
     0
  0
SCALE
  5
4A
102
{ACAD_REACTORS
330
42
102
}
330
42
100
AcDbScale
 70
     0
300
3/16" = 1'-0"
140
0.1875
141
12.0
290
     0
  0
SCALE
  5
4B
102
{ACAD_REACTORS
330
42
102
}
330
42
100
AcDbScale
 70
     0
300
1/4" = 1'-0"
140
0.25
141
12.0
290
     0
  0
SCALE
  5
4C
102
{ACAD_REACTORS
330
42
102
}
330
42
100
AcDbScale
 70
     0
300
3/8" = 1'-0"
140
0.375
141
12.0
290
     0
  0
SCALE
  5
4D
102
{ACAD_REACTORS
330
42
102
}
330
42
100
AcDbScale
 70
     0
300
1/2" = 1'-0"
140
0.5
141
12.0
290
     0
  0
SCALE
  5
4E
102
{ACAD_REACTORS
330
42
102
}
330
42
100
AcDbScale
 70
     0
300
3/4" = 1'-0"
140
0.75
141
12.0
290
     0
  0
SCALE
  5
4F
102
{ACAD_REACTORS
330
42
102
}
330
42
100
AcDbScale
 70
     0
300
1" = 1'-0"
140
1.0
141
12.0
290
     0
  0
SCALE
  5
50
102
{ACAD_REACTORS
330
42
102
}
330
42
100
AcDbScale
 70
     0
300
1-1/2" = 1'-0"
140
1.5
141
12.0
290
     0
  0
SCALE
  5
51
102
{ACAD_REACTORS
330
42
102
}
330
42
100
AcDbScale
 70
     0
300
3" = 1'-0"
140
3.0
141
12.0
290
     0
  0
SCALE
  5
52
102
{ACAD_REACTORS
330
42
102
}
330
42
100
AcDbScale
 70
     0
300
6" = 1'-0"
140
6.0
141
12.0
290
     0
  0
SCALE
  5
53
102
{ACAD_REACTORS
330
42
102
}
330
42
100
AcDbScale
 70
     0
300
1'-0" = 1'-0"
140
12.0
141
12.0
290
     0
  0
TABLESTYLE
  5
64
102
{ACAD_XDICTIONARY
360
621
102
}
102
{ACAD_REACTORS
330
63
102
}
330
63
100
AcDbTableStyle
  3
Standard
 70
     0
 71
     0
 40
0.06
 41
0.06
280
     0
281
     0
  7
STANDARD
140
0.18
170
     2
 62
     0
 63
     7
283
     0
274
    -2
284
     1
 64
     0
275
    -2
285
     1
 65
     0
276
    -2
286
     1
 66
     0
277
    -2
287
     1
 67
     0
278
    -2
288
     1
 68
     0
279
    -2
289
     1
 69
     0
  7
STANDARD
140
0.25
170
     5
 62
     0
 63
     7
283
     0
274
    -2
284
     1
 64
     0
275
    -2
285
     1
 65
     0
276
    -2
286
     1
 66
     0
277
    -2
287
     1
 67
     0
278
    -2
288
     1
 68
     0
279
    -2
289
     1
 69
     0
  7
STANDARD
140
0.18
170
     5
 62
     0
 63
     7
283
     0
274
    -2
284
     1
 64
     0
275
    -2
285
     1
 65
     0
276
    -2
286
     1
 66
     0
277
    -2
287
     1
 67
     0
278
    -2
288
     1
 68
     0
279
    -2
289
     1
 69
     0
  0
VISUALSTYLE
  5
2F
102
{ACAD_XDICTIONARY
360
17D8
102
}
102
{ACAD_REACTORS
330
29
102
}
330
29
100
AcDbVisualStyle
  2

 70
     4
 71
     0
 72
     2
 73
     0
 90
        0
 40
-0.6
 41
-30.0
 62
     5
 63
     7
 74
     1
 91
        4
 64
     7
 65
   257
 75
     1
175
     1
 42
1.0
 92
        0
 66
   257
 43
1.0
 76
     1
 77
     6
 78
     2
 67
     7
 79
     5
170
     0
171
     0
290
     0
174
     0
 93
        1
 44
0.0
173
     0
291
     0
 45
0.0
1001
ACAD
1000
AcDbSavedByObjectVersion
1070
     0
  0
VISUALSTYLE
  5
47E
102
{ACAD_XDICTIONARY
360
1803
102
}
102
{ACAD_REACTORS
330
29
102
}
330
29
100
AcDbVisualStyle
  2

 70
     5
 71
     0
 72
     2
 73
     1
 90
        0
 40
-0.6
 41
-30.0
 62
     5
 63
     7
 74
     1
 91
        4
 64
     7
 65
   257
 75
     1
175
     1
 42
1.0
 92
        0
 66
   257
 43
1.0
 76
     1
 77
     6
 78
     2
 67
     7
 79
     5
170
     0
171
     0
290
     0
174
     0
 93
        1
 44
0.0
173
     0
291
     0
 45
0.0
1001
ACAD
1000
AcDbSavedByObjectVersion
1070
     0
  0
VISUALSTYLE
  5
2E
102
{ACAD_XDICTIONARY
360
17D6
102
}
102
{ACAD_REACTORS
330
29
102
}
330
29
100
AcDbVisualStyle
  2

 70
     7
 71
     1
 72
     0
 73
     1
 90
        0
 40
-0.6
 41
-30.0
 62
     5
 63
     7
 74
     0
 91
        4
 64
     7
 65
   257
 75
     1
175
     1
 42
1.0
 92
        8
 66
     7
 43
1.0
 76
     1
 77
     6
 78
     2
 67
     7
 79
     5
170
     0
171
     0
290
     0
174
     0
 93
        1
 44
0.0
173
     0
291
     1
 45
0.0
1001
ACAD
1000
AcDbSavedByObjectVersion
1070
     0
  0
VISUALSTYLE
  5
35
102
{ACAD_XDICTIONARY
360
17E4
102
}
102
{ACAD_REACTORS
330
29
102
}
330
29
100
AcDbVisualStyle
  2

 70
    12
 71
     2
 72
     2
 73
     0
 90
        0
 40
-0.6
 41
-30.0
 62
     5
 63
     7
 74
     1
 91
        4
 64
     7
 65
   257
 75
     1
175
     1
 42
1.0
 92
        8
 66
     7
 43
1.0
 76
     1
 77
     6
 78
     2
 67
     7
 79
     5
170
     0
171
     0
290
     0
174
     0
 93
        1
 44
50.0
173
     0
291
     1
 45
0.0
1001
ACAD
1000
AcDbSavedByObjectVersion
1070
     0
  0
VISUALSTYLE
  5
39
102
{ACAD_XDICTIONARY
360
17EC
102
}
102
{ACAD_REACTORS
330
29
102
}
330
29
100
AcDbVisualStyle
  2

 70
    16
 71
     2
 72
     2
 73
     3
 90
        0
 40
-0.6
 41
-30.0
 62
     5
 63
     8
 74
     1
 91
        4
 64
     7
 65
   257
 75
     1
175
     1
 42
1.0
 92
        8
 66
     8
 43
1.0
 76
     1
 77
     6
 78
     2
 67
     7
 79
     5
170
     0
171
     0
290
     0
174
     0
 93
        1
 44
0.0
173
     0
291
     1
 45
0.0
1001
ACAD
1000
AcDbSavedByObjectVersion
1070
     0
  0
VISUALSTYLE
  5
32
102
{ACAD_XDICTIONARY
360
17DE
102
}
102
{ACAD_REACTORS
330
29
102
}
330
29
100
AcDbVisualStyle
  2

 70
     9
 71
     3
 72
     2
 73
     0
 90
        0
 40
-0.6
 41
-30.0
 62
     5
 63
     7
 74
     2
 91
        2
 64
     7
 65
   257
 75
     1
175
     1
 42
179.0
 92
        8
 66
     7
 43
1.0
 76
     1
 77
     6
 78
     2
 67
     7
 79
     3
170
     0
171
     0
290
     0
174
     0
 93
        1
 44
0.0
173
     0
291
     0
 45
0.0
1001
ACAD
1000
AcDbSavedByObjectVersion
1070
     0
  0
VISUALSTYLE
  5
34
102
{ACAD_XDICTIONARY
360
17E2
102
}
102
{ACAD_REACTORS
330
29
102
}
330
29
100
AcDbVisualStyle
  2

 70
    11
 71
     2
 72
     2
 73
     0
 90
        0
 40
-0.6
 41
-30.0
 62
     5
 63
     7
 74
     1
 91
        4
 64
     7
 65
   257
 75
     1
175
     1
 42
1.0
 92
        8
 66
     7
 43
1.0
 76
     1
 77
     6
 78
     2
 67
     7
 79
     5
170
     0
171
     0
290
     0
174
     0
 93
        1
 44
-50.0
173
     0
291
     1
 45
0.0
1001
ACAD
1000
AcDbSavedByObjectVersion
1070
     0
  0
VISUALSTYLE
  5
41
102
{ACAD_XDICTIONARY
360
17FC
102
}
102
{ACAD_REACTORS
330
29
102
}
330
29
100
AcDbVisualStyle
  2

 70
    22
 71
     2
 72
     2
 73
     0
 90
        0
 40
-0.6
 41
-30.0
 62
     5
 63
     7
 74
     1
 91
        4
 64
     7
 65
   257
 75
     1
175
     1
 42
1.0
 92
        8
 66
     7
 43
1.0
 76
     1
 77
     6
 78
     2
 67
     7
 79
     5
170
     0
171
     0
290
     0
174
     0
 93
        1
 44
0.0
173
     0
291
     1
 45
0.0
1001
ACAD
1000
AcDbSavedByObjectVersion
1070
     0
  0
VISUALSTYLE
  5
38
102
{ACAD_XDICTIONARY
360
17EA
102
}
102
{ACAD_REACTORS
330
29
102
}
330
29
100
AcDbVisualStyle
  2

 70
    15
 71
     2
 72
     2
 73
     0
 90
        0
 40
-0.6
 41
-30.0
 62
     5
 63
     7
 74
     1
 91
        4
 64
     7
 65
   257
 75
     1
175
     1
 42
1.0
 92
        8
 66
     7
 43
1.0
 76
     1
 77
     6
 78
     2
 67
     7
 79
     5
170
     0
171
     0
290
     0
174
     0
 93
        1
 44
0.0
173
     0
291
     1
 45
0.0
1001
ACAD
1000
AcDbSavedByObjectVersion
1070
     0
  0
VISUALSTYLE
  5
2A
102
{ACAD_XDICTIONARY
360
17CE
102
}
102
{ACAD_REACTORS
330
29
102
}
330
29
100
AcDbVisualStyle
  2

 70
     0
 71
     2
 72
     1
 73
     1
 90
        2
 40
-0.6
 41
30.0
 62
     5
 63
     7
 74
     0
 91
        0
 64
     7
 65
   257
 75
     1
175
     1
 42
1.0
 92
        8
 66
     7
 43
1.0
 76
     1
 77
     6
 78
     2
 67
     7
 79
     5
170
     0
171
     0
290
     0
174
     0
 93
       13
 44
0.0
173
     0
291
     1
 45
0.0
1001
ACAD
1000
AcDbSavedByObjectVersion
1070
     0
  0
VISUALSTYLE
  5
2B
102
{ACAD_XDICTIONARY
360
17D0
102
}
102
{ACAD_REACTORS
330
29
102
}
330
29
100
AcDbVisualStyle
  2

 70
     1
 71
     2
 72
     1
 73
     1
 90
        2
 40
-0.6
 41
30.0
 62
     5
 63
     7
 74
     1
 91
        0
 64
     7
 65
   257
 75
     1
175
     1
 42
1.0
 92
        0
 66
   257
 43
1.0
 76
     1
 77
     6
 78
     2
 67
     7
 79
     5
170
     0
171
     0
290
     0
174
     0
 93
       13
 44
0.0
173
     0
291
     1
 45
0.0
1001
ACAD
1000
AcDbSavedByObjectVersion
1070
     0
  0
VISUALSTYLE
  5
2C
102
{ACAD_XDICTIONARY
360
17D2
102
}
102
{ACAD_REACTORS
330
29
102
}
330
29
100
AcDbVisualStyle
  2

 70
     2
 71
     2
 72
     2
 73
     1
 90
        2
 40
-0.6
 41
30.0
 62
     5
 63
     7
 74
     0
 91
        0
 64
     7
 65
   257
 75
     1
175
     1
 42
1.0
 92
        0
 66
     7
 43
1.0
 76
     1
 77
     6
 78
     2
 67
     7
 79
     5
170
     0
171
     0
290
     0
174
     0
 93
       13
 44
0.0
173
     0
291
     1
 45
0.0
1001
ACAD
1000
AcDbSavedByObjectVersion
1070
     0
  0
VISUALSTYLE
  5
2D
102
{ACAD_XDICTIONARY
360
17D4
102
}
102
{ACAD_REACTORS
330
29
102
}
330
29
100
AcDbVisualStyle
  2

 70
     3
 71
     2
 72
     2
 73
     1
 90
        2
 40
-0.6
 41
30.0
 62
     5
 63
     7
 74
     1
 91
        0
 64
     7
 65
   257
 75
     1
175
     1
 42
1.0
 92
        0
 66
   257
 43
1.0
 76
     1
 77
     6
 78
     2
 67
     7
 79
     5
170
     0
171
     0
290
     0
174
     0
 93
       13
 44
0.0
173
     0
291
     1
 45
0.0
1001
ACAD
1000
AcDbSavedByObjectVersion
1070
     0
  0
VISUALSTYLE
  5
31
102
{ACAD_XDICTIONARY
360
17DC
102
}
102
{ACAD_REACTORS
330
29
102
}
330
29
100
AcDbVisualStyle
  2

 70
     6
 71
     1
 72
     2
 73
     2
 90
        0
 40
-0.6
 41
-30.0
 62
     5
 63
     7
 74
     2
 91
        2
 64
     7
 65
   257
 75
     2
175
     1
 42
40.0
 92
        0
 66
   257
 43
1.0
 76
     1
 77
     6
 78
     2
 67
     7
 79
     3
170
     0
171
     0
290
     0
174
     0
 93
        1
 44
0.0
173
     0
291
     0
 45
0.0
1001
ACAD
1000
AcDbSavedByObjectVersion
1070
     0
  0
VISUALSTYLE
  5
3F
102
{ACAD_XDICTIONARY
360
17F8
102
}
102
{ACAD_REACTORS
330
29
102
}
330
29
100
AcDbVisualStyle
  2

 70
    20
 71
     2
 72
     2
 73
     0
 90
        0
 40
-0.6
 41
-30.0
 62
     5
 63
     7
 74
     1
 91
        4
 64
     7
 65
   257
 75
     1
175
     1
 42
1.0
 92
       10
 66
     7
 43
1.0
 76
     1
 77
     6
 78
     2
 67
     7
 79
     5
170
     0
171
     0
290
     0
174
     0
 93
        1
 44
0.0
173
     0
291
     1
 45
0.0
1001
ACAD
1000
AcDbSavedByObjectVersion
1070
     0
  0
VISUALSTYLE
  5
37
102
{ACAD_XDICTIONARY
360
17E8
102
}
102
{ACAD_REACTORS
330
29
102
}
330
29
100
AcDbVisualStyle
  2

 70
    14
 71
     2
 72
     2
 73
     0
 90
        0
 40
-0.6
 41
-30.0
 62
     5
 63
     7
 74
     1
 91
        4
 64
     7
 65
   257
 75
     7
175
     7
 42
1.0
 92
        8
 66
     7
 43
1.0
 76
     1
 77
     6
 78
     2
 67
     7
 79
     5
170
     0
171
     0
290
     0
174
     0
 93
        1
 44
0.0
173
     0
291
     1
 45
0.0
1001
ACAD
1000
AcDbSavedByObjectVersion
1070
     0
  0
VISUALSTYLE
  5
40
102
{ACAD_XDICTIONARY
360
17FA
102
}
102
{ACAD_REACTORS
330
29
102
}
330
29
100
AcDbVisualStyle
  2

 70
    21
 71
     2
 72
     2
 73
     0
 90
        0
 40
-0.6
 41
-30.0
 62
     5
 63
     7
 74
     1
 91
        4
 64
     7
 65
   257
 75
     1
175
     1
 42
1.0
 92
        9
 66
     7
 43
1.0
 76
     1
 77
     6
 78
     2
 67
     7
 79
     5
170
     0
171
     0
290
     0
174
     0
 93
        1
 44
0.0
173
     0
291
     1
 45
0.0
1001
ACAD
1000
AcDbSavedByObjectVersion
1070
     0
  0
VISUALSTYLE
  5
33
102
{ACAD_XDICTIONARY
360
17E0
102
}
102
{ACAD_REACTORS
330
29
102
}
330
29
100
AcDbVisualStyle
  2

 70
     8
 71
     2
 72
     3
 73
     0
 90
        2
 40
-0.6
 41
30.0
 62
     5
 63
     7
 74
     0
 91
        0
 64
     7
 65
   257
 75
     1
175
     1
 42
1.0
 92
        8
 66
   257
 43
1.0
 76
     1
 77
     6
 78
     2
 67
     7
 79
     3
170
     0
171
     0
290
     0
174
     0
 93
       13
 44
0.0
173
     0
291
     0
 45
0.0
1001
ACAD
1000
AcDbSavedByObjectVersion
1070
     0
  0
VISUALSTYLE
  5
3E
102
{ACAD_XDICTIONARY
360
17F6
102
}
102
{ACAD_REACTORS
330
29
102
}
330
29
100
AcDbVisualStyle
  2

 70
    27
 71
     2
 72
     2
 73
     1
 90
        2
 40
-0.6
 41
30.0
 62
     5
 63
     7
 74
     0
 91
        4
 64
     7
 65
   257
 75
     1
175
     1
 42
1.0
 92
        8
 66
   257
 43
1.0
 76
     1
 77
     6
 78
     2
 67
     8
 79
     3
170
     0
171
     0
290
     0
174
     0
 93
        5
 44
0.0
173
     0
291
     0
 45
0.0
1001
ACAD
1000
AcDbSavedByObjectVersion
1070
     0
  0
VISUALSTYLE
  5
3D
102
{ACAD_XDICTIONARY
360
17F4
102
}
102
{ACAD_REACTORS
330
29
102
}
330
29
100
AcDbVisualStyle
  2

 70
    26
 71
     2
 72
     2
 73
     1
 90
        2
 40
-0.6
 41
30.0
 62
     5
 63
     7
 74
     1
 91
       10
 64
     7
 65
   257
 75
     2
175
     1
 42
1.0
 92
        8
 66
   257
 43
1.0
 76
     1
 77
     6
 78
     2
 67
     7
 79
     3
170
     0
171
     0
290
     0
174
     0
 93
        5
 44
0.0
173
     0
291
     0
 45
0.0
1001
ACAD
1000
AcDbSavedByObjectVersion
1070
     0
  0
VISUALSTYLE
  5
3A
102
{ACAD_XDICTIONARY
360
17EE
102
}
102
{ACAD_REACTORS
330
29
102
}
330
29
100
AcDbVisualStyle
  2

 70
    23
 71
     2
 72
     2
 73
     3
 90
        0
 40
-0.6
 41
-30.0
 62
     5
 63
     7
 74
     2
 91
        2
 64
     7
 65
     7
 75
     1
175
     1
 42
40.0
 92
        8
 66
     7
 43
1.0
 76
     1
 77
     6
 78
     2
 67
     7
 79
     3
170
     0
171
     0
290
     0
174
     0
 93
        1
 44
0.0
173
     0
291
     0
 45
0.0
1001
ACAD
1000
AcDbSavedByObjectVersion
1070
     0
  0
VISUALSTYLE
  5
3B
102
{ACAD_XDICTIONARY
360
17F0
102
}
102
{ACAD_REACTORS
330
29
102
}
330
29
100
AcDbVisualStyle
  2

 70
    24
 71
     1
 72
     2
 73
     2
 90
        0
 40
-0.6
 41
-30.0
 62
     5
 63
     7
 74
     2
 91
        2
 64
     7
 65
     7
 75
     1
175
     1
 42
40.0
 92
       11
 66
     7
 43
1.0
 76
     1
 77
     6
 78
     2
 67
     7
 79
     6
170
     0
171
     0
290
     0
174
     0
 93
        1
 44
0.0
173
     0
291
     0
 45
0.0
1001
ACAD
1000
AcDbSavedByObjectVersion
1070
     0
  0
VISUALSTYLE
  5
36
102
{ACAD_XDICTIONARY
360
17E6
102
}
102
{ACAD_REACTORS
330
29
102
}
330
29
100
AcDbVisualStyle
  2

 70
    13
 71
     2
 72
     2
 73
     0
 90
        0
 40
-0.6
 41
-30.0
 62
     5
 63
     7
 74
     1
 91
        4
 64
     7
 65
   257
 75
     1
175
     1
 42
1.0
 92
       12
 66
     7
 43
1.0
 76
     1
 77
     6
 78
     2
 67
     7
 79
     5
170
     0
171
     0
290
     0
174
     0
 93
        1
 44
0.0
173
     0
291
     1
 45
0.0
1001
ACAD
1000
AcDbSavedByObjectVersion
1070
     0
  0
VISUALSTYLE
  5
30
102
{ACAD_XDICTIONARY
360
17DA
102
}
102
{ACAD_REACTORS
330
29
102
}
330
29
100
AcDbVisualStyle
  2

 70
     5
 71
     0
 72
     2
 73
     0
 90
        0
 40
-0.6
 41
-30.0
 62
     5
 63
     7
 74
     1
 91
        4
 64
     7
 65
   257
 75
     1
175
     1
 42
1.0
 92
        0
 66
   257
 43
1.0
 76
     1
 77
     6
 78
     2
 67
     7
 79
     3
170
     0
171
     0
290
     0
174
     0
 93
        1
 44
0.0
173
     0
291
     0
 45
0.0
1001
ACAD
1000
AcDbSavedByObjectVersion
1070
     0
  0
VISUALSTYLE
  5
3C
102
{ACAD_XDICTIONARY
360
17F2
102
}
102
{ACAD_REACTORS
330
29
102
}
330
29
100
AcDbVisualStyle
  2

 70
    25
 71
     2
 72
     2
 73
     1
 90
        1
 40
0.5
 41
-30.0
 62
     5
 63
     7
 74
     1
 91
        0
 64
     7
 65
   257
 75
     1
175
     1
 42
1.0
 92
        8
 66
     7
 43
1.0
 76
     1
 77
     6
 78
     2
 67
     7
 79
     3
170
     0
171
     0
290
     0
174
     0
 93
       13
 44
0.0
173
     0
291
     0
 45
0.0
1001
ACAD
1000
AcDbSavedByObjectVersion
1070
     0
  0
DICTIONARYVAR
  5
61C
102
{ACAD_REACTORS
330
619
102
}
330
619
100
DictionaryVariables
280
     0
  1
1:1
  0
DICTIONARYVAR
  5
61B
102
{ACAD_REACTORS
330
619
102
}
330
619
100
DictionaryVariables
280
     0
  1
STANDARD
  0
DICTIONARYVAR
  5
61A
102
{ACAD_REACTORS
330
619
102
}
330
619
100
DictionaryVariables
280
     0
  1
STANDARD
  0
DICTIONARYVAR
  5
61F
102
{ACAD_REACTORS
330
619
102
}
330
619
100
DictionaryVariables
280
     0
  1
1
  0
DICTIONARYVAR
  5
61E
102
{ACAD_REACTORS
330
619
102
}
330
619
100
DictionaryVariables
280
     0
  1
0
  0
DICTIONARYVAR
  5
61D
102
{ACAD_REACTORS
330
619
102
}
330
619
100
DictionaryVariables
280
     0
  1
127
  0
DICTIONARYVAR
  5
16D6
102
{ACAD_REACTORS
330
619
102
}
330
619
100
DictionaryVariables
280
     0
  1
2
  0
DICTIONARY
  5
1801
330
6E
100
AcDbDictionary
280
     1
281
     1
  3
ACAD_XREC_ROUNDTRIP
360
1802
  0
DICTIONARY
  5
17FF
330
6A
100
AcDbDictionary
280
     1
281
     1
  3
ACAD_XREC_ROUNDTRIP
360
1800
  0
DICTIONARY
  5
1A
330
19
100
AcDbDictionary
280
     1
281
     1
  3
ACAD_XREC_ROUNDTRIP
360
62A
  3
BUMPTILE
360
1C
  3
DIFFUSETILE
360
1B
  3
OPACITYTILE
360
1F
  3
REFLECTIONTILE
360
1E
  3
REFRACTIONTILE
360
20
  3
SPECULARTILE
360
1D
  0
DICTIONARY
  5
12
330
11
100
AcDbDictionary
280
     1
281
     1
  3
ACAD_XREC_ROUNDTRIP
360
629
  3
BUMPTILE
360
14
  3
DIFFUSETILE
360
13
  3
OPACITYTILE
360
17
  3
REFLECTIONTILE
360
16
  3
REFRACTIONTILE
360
18
  3
SPECULARTILE
360
15
  0
DICTIONARY
  5
22
330
21
100
AcDbDictionary
280
     1
281
     1
  3
ACAD_XREC_ROUNDTRIP
360
62B
  3
BUMPTILE
360
24
  3
DIFFUSETILE
360
23
  3
OPACITYTILE
360
27
  3
REFLECTIONTILE
360
26
  3
REFRACTIONTILE
360
28
  3
SPECULARTILE
360
25
  0
DICTIONARY
  5
621
330
64
100
AcDbDictionary
280
     1
281
     1
  3
ACAD_ROUNDTRIP_2008_TABLESTYLE_CELLSTYLEMAP
360
17C7
  3
ACAD_XREC_ROUNDTRIP
360
17FE
  0
DICTIONARY
  5
17D8
330
2F
100
AcDbDictionary
280
     1
281
     1
  3
ACAD_XREC_ROUNDTRIP
360
17D9
  0
DICTIONARY
  5
1803
330
47E
100
AcDbDictionary
280
     1
281
     1
  3
ACAD_XREC_ROUNDTRIP
360
1804
  0
DICTIONARY
  5
17D6
330
2E
100
AcDbDictionary
280
     1
281
     1
  3
ACAD_XREC_ROUNDTRIP
360
17D7
  0
DICTIONARY
  5
17E4
330
35
100
AcDbDictionary
280
     1
281
     1
  3
ACAD_XREC_ROUNDTRIP
360
17E5
  0
DICTIONARY
  5
17EC
330
39
100
AcDbDictionary
280
     1
281
     1
  3
ACAD_XREC_ROUNDTRIP
360
17ED
  0
DICTIONARY
  5
17DE
330
32
100
AcDbDictionary
280
     1
281
     1
  3
ACAD_XREC_ROUNDTRIP
360
17DF
  0
DICTIONARY
  5
17E2
330
34
100
AcDbDictionary
280
     1
281
     1
  3
ACAD_XREC_ROUNDTRIP
360
17E3
  0
DICTIONARY
  5
17FC
330
41
100
AcDbDictionary
280
     1
281
     1
  3
ACAD_XREC_ROUNDTRIP
360
17FD
  0
DICTIONARY
  5
17EA
330
38
100
AcDbDictionary
280
     1
281
     1
  3
ACAD_XREC_ROUNDTRIP
360
17EB
  0
DICTIONARY
  5
17CE
330
2A
100
AcDbDictionary
280
     1
281
     1
  3
ACAD_XREC_ROUNDTRIP
360
17CF
  0
DICTIONARY
  5
17D0
330
2B
100
AcDbDictionary
280
     1
281
     1
  3
ACAD_XREC_ROUNDTRIP
360
17D1
  0
DICTIONARY
  5
17D2
330
2C
100
AcDbDictionary
280
     1
281
     1
  3
ACAD_XREC_ROUNDTRIP
360
17D3
  0
DICTIONARY
  5
17D4
330
2D
100
AcDbDictionary
280
     1
281
     1
  3
ACAD_XREC_ROUNDTRIP
360
17D5
  0
DICTIONARY
  5
17DC
330
31
100
AcDbDictionary
280
     1
281
     1
  3
ACAD_XREC_ROUNDTRIP
360
17DD
  0
DICTIONARY
  5
17F8
330
3F
100
AcDbDictionary
280
     1
281
     1
  3
ACAD_XREC_ROUNDTRIP
360
17F9
  0
DICTIONARY
  5
17E8
330
37
100
AcDbDictionary
280
     1
281
     1
  3
ACAD_XREC_ROUNDTRIP
360
17E9
  0
DICTIONARY
  5
17FA
330
40
100
AcDbDictionary
280
     1
281
     1
  3
ACAD_XREC_ROUNDTRIP
360
17FB
  0
DICTIONARY
  5
17E0
330
33
100
AcDbDictionary
280
     1
281
     1
  3
ACAD_XREC_ROUNDTRIP
360
17E1
  0
DICTIONARY
  5
17F6
330
3E
100
AcDbDictionary
280
     1
281
     1
  3
ACAD_XREC_ROUNDTRIP
360
17F7
  0
DICTIONARY
  5
17F4
330
3D
100
AcDbDictionary
280
     1
281
     1
  3
ACAD_XREC_ROUNDTRIP
360
17F5
  0
DICTIONARY
  5
17EE
330
3A
100
AcDbDictionary
280
     1
281
     1
  3
ACAD_XREC_ROUNDTRIP
360
17EF
  0
DICTIONARY
  5
17F0
330
3B
100
AcDbDictionary
280
     1
281
     1
  3
ACAD_XREC_ROUNDTRIP
360
17F1
  0
DICTIONARY
  5
17E6
330
36
100
AcDbDictionary
280
     1
281
     1
  3
ACAD_XREC_ROUNDTRIP
360
17E7
  0
DICTIONARY
  5
17DA
330
30
100
AcDbDictionary
280
     1
281
     1
  3
ACAD_XREC_ROUNDTRIP
360
17DB
  0
DICTIONARY
  5
17F2
330
3C
100
AcDbDictionary
280
     1
281
     1
  3
ACAD_XREC_ROUNDTRIP
360
17F3
  0
XRECORD
  5
1802
102
{ACAD_REACTORS
330
1801
102
}
330
1801
100
AcDbXrecord
280
     1
102
SHADEPLOT
 70
     0
102
SHADEPLOTRESLEVEL
 70
     2
102
SHADEPLOTCUSTOMDPI
 70
   300
  0
XRECORD
  5
1800
102
{ACAD_REACTORS
330
17FF
102
}
330
17FF
100
AcDbXrecord
280
     1
102
SHADEPLOT
 70
     0
102
SHADEPLOTRESLEVEL
 70
     2
102
SHADEPLOTCUSTOMDPI
 70
   300
  0
XRECORD
  5
62A
102
{ACAD_REACTORS
330
1A
102
}
330
1A
100
AcDbXrecord
280
     1
102
MATERIAL
148
0.0
149
0.0
149
0.0
 93
        0
 94
      127
282
     0
 72
     0
 77
     0
171
     0
175
     0
179
     0
273
     0
  0
XRECORD
  5
1C
102
{ACAD_REACTORS
330
1A
102
}
330
1A
100
AcDbXrecord
280
     1
270
     1
271
     1
  0
XRECORD
  5
1B
102
{ACAD_REACTORS
330
1A
102
}
330
1A
100
AcDbXrecord
280
     1
270
     1
271
     1
  0
XRECORD
  5
1F
102
{ACAD_REACTORS
330
1A
102
}
330
1A
100
AcDbXrecord
280
     1
270
     1
271
     1
  0
XRECORD
  5
1E
102
{ACAD_REACTORS
330
1A
102
}
330
1A
100
AcDbXrecord
280
     1
270
     1
271
     1
  0
XRECORD
  5
20
102
{ACAD_REACTORS
330
1A
102
}
330
1A
100
AcDbXrecord
280
     1
270
     1
271
     1
  0
XRECORD
  5
1D
102
{ACAD_REACTORS
330
1A
102
}
330
1A
100
AcDbXrecord
280
     1
270
     1
271
     1
  0
XRECORD
  5
629
102
{ACAD_REACTORS
330
12
102
}
330
12
100
AcDbXrecord
280
     1
102
MATERIAL
148
0.0
149
0.0
149
0.0
 93
        0
 94
      127
282
     0
 72
     0
 77
     0
171
     0
175
     0
179
     0
273
     0
  0
XRECORD
  5
14
102
{ACAD_REACTORS
330
12
102
}
330
12
100
AcDbXrecord
280
     1
270
     1
271
     1
  0
XRECORD
  5
13
102
{ACAD_REACTORS
330
12
102
}
330
12
100
AcDbXrecord
280
     1
270
     1
271
     1
  0
XRECORD
  5
17
102
{ACAD_REACTORS
330
12
102
}
330
12
100
AcDbXrecord
280
     1
270
     1
271
     1
  0
XRECORD
  5
16
102
{ACAD_REACTORS
330
12
102
}
330
12
100
AcDbXrecord
280
     1
270
     1
271
     1
  0
XRECORD
  5
18
102
{ACAD_REACTORS
330
12
102
}
330
12
100
AcDbXrecord
280
     1
270
     1
271
     1
  0
XRECORD
  5
15
102
{ACAD_REACTORS
330
12
102
}
330
12
100
AcDbXrecord
280
     1
270
     1
271
     1
  0
XRECORD
  5
62B
102
{ACAD_REACTORS
330
22
102
}
330
22
100
AcDbXrecord
280
     1
102
MATERIAL
148
0.0
149
0.0
149
0.0
 93
        0
 94
      127
282
     0
 72
     0
 77
     0
171
     0
175
     0
179
     0
273
     0
  0
XRECORD
  5
24
102
{ACAD_REACTORS
330
22
102
}
330
22
100
AcDbXrecord
280
     1
270
     1
271
     1
  0
XRECORD
  5
23
102
{ACAD_REACTORS
330
22
102
}
330
22
100
AcDbXrecord
280
     1
270
     1
271
     1
  0
XRECORD
  5
27
102
{ACAD_REACTORS
330
22
102
}
330
22
100
AcDbXrecord
280
     1
270
     1
271
     1
  0
XRECORD
  5
26
102
{ACAD_REACTORS
330
22
102
}
330
22
100
AcDbXrecord
280
     1
270
     1
271
     1
  0
XRECORD
  5
28
102
{ACAD_REACTORS
330
22
102
}
330
22
100
AcDbXrecord
280
     1
270
     1
271
     1
  0
XRECORD
  5
25
102
{ACAD_REACTORS
330
22
102
}
330
22
100
AcDbXrecord
280
     1
270
     1
271
     1
  0
CELLSTYLEMAP
  5
17C7
102
{ACAD_REACTORS
330
621
102
}
330
621
100
AcDbCellStyleMap
 90
        3
300
CELLSTYLE
  1
TABLEFORMAT_BEGIN
 90
        5
170
     1
 91
        0
 92
    32768
 62
   257
 93
        1
300
CONTENTFORMAT
  1
CONTENTFORMAT_BEGIN
 90
        0
 91
        0
 92
      512
 93
        0
300

 40
0.0
140
1.0
 94
        5
 62
     0
340
55
144
0.25
309
CONTENTFORMAT_END
171
     1
301
MARGIN
  1
CELLMARGIN_BEGIN
 40
0.06
 40
0.06
 40
0.06
 40
0.06
 40
0.18
 40
0.18
309
CELLMARGIN_END
 94
        6
 95
        1
302
GRIDFORMAT
  1
GRIDFORMAT_BEGIN
 90
        0
 91
        1
 62
     0
 92
       -2
340
0
 93
        0
 40
0.045
309
GRIDFORMAT_END
 95
        2
302
GRIDFORMAT
  1
GRIDFORMAT_BEGIN
 90
        0
 91
        1
 62
     0
 92
       -2
340
0
 93
        0
 40
0.045
309
GRIDFORMAT_END
 95
        4
302
GRIDFORMAT
  1
GRIDFORMAT_BEGIN
 90
        0
 91
        1
 62
     0
 92
       -2
340
0
 93
        0
 40
0.045
309
GRIDFORMAT_END
 95
        8
302
GRIDFORMAT
  1
GRIDFORMAT_BEGIN
 90
        0
 91
        1
 62
     0
 92
       -2
340
0
 93
        0
 40
0.045
309
GRIDFORMAT_END
 95
       16
302
GRIDFORMAT
  1
GRIDFORMAT_BEGIN
 90
        0
 91
        1
 62
     0
 92
       -2
340
0
 93
        0
 40
0.045
309
GRIDFORMAT_END
 95
       32
302
GRIDFORMAT
  1
GRIDFORMAT_BEGIN
 90
        0
 91
        1
 62
     0
 92
       -2
340
0
 93
        0
 40
0.045
309
GRIDFORMAT_END
309
TABLEFORMAT_END
  1
CELLSTYLE_BEGIN
 90
        1
 91
        1
300
_TITLE
309
CELLSTYLE_END
300
CELLSTYLE
  1
TABLEFORMAT_BEGIN
 90
        5
170
     1
 91
        0
 92
        0
 62
   257
 93
        1
300
CONTENTFORMAT
  1
CONTENTFORMAT_BEGIN
 90
        0
 91
        0
 92
      512
 93
        0
300

 40
0.0
140
1.0
 94
        5
 62
     0
340
55
144
0.18
309
CONTENTFORMAT_END
171
     1
301
MARGIN
  1
CELLMARGIN_BEGIN
 40
0.06
 40
0.06
 40
0.06
 40
0.06
 40
0.18
 40
0.18
309
CELLMARGIN_END
 94
        6
 95
        1
302
GRIDFORMAT
  1
GRIDFORMAT_BEGIN
 90
        0
 91
        1
 62
     0
 92
       -2
340
0
 93
        0
 40
0.045
309
GRIDFORMAT_END
 95
        2
302
GRIDFORMAT
  1
GRIDFORMAT_BEGIN
 90
        0
 91
        1
 62
     0
 92
       -2
340
0
 93
        0
 40
0.045
309
GRIDFORMAT_END
 95
        4
302
GRIDFORMAT
  1
GRIDFORMAT_BEGIN
 90
        0
 91
        1
 62
     0
 92
       -2
340
0
 93
        0
 40
0.045
309
GRIDFORMAT_END
 95
        8
302
GRIDFORMAT
  1
GRIDFORMAT_BEGIN
 90
        0
 91
        1
 62
     0
 92
       -2
340
0
 93
        0
 40
0.045
309
GRIDFORMAT_END
 95
       16
302
GRIDFORMAT
  1
GRIDFORMAT_BEGIN
 90
        0
 91
        1
 62
     0
 92
       -2
340
0
 93
        0
 40
0.045
309
GRIDFORMAT_END
 95
       32
302
GRIDFORMAT
  1
GRIDFORMAT_BEGIN
 90
        0
 91
        1
 62
     0
 92
       -2
340
0
 93
        0
 40
0.045
309
GRIDFORMAT_END
309
TABLEFORMAT_END
  1
CELLSTYLE_BEGIN
 90
        2
 91
        1
300
_HEADER
309
CELLSTYLE_END
300
CELLSTYLE
  1
TABLEFORMAT_BEGIN
 90
        5
170
     1
 91
        0
 92
        0
 62
   257
 93
        1
300
CONTENTFORMAT
  1
CONTENTFORMAT_BEGIN
 90
        0
 91
        0
 92
      512
 93
        0
300

 40
0.0
140
1.0
 94
        2
 62
     0
340
55
144
0.18
309
CONTENTFORMAT_END
171
     1
301
MARGIN
  1
CELLMARGIN_BEGIN
 40
0.06
 40
0.06
 40
0.06
 40
0.06
 40
0.18
 40
0.18
309
CELLMARGIN_END
 94
        6
 95
        1
302
GRIDFORMAT
  1
GRIDFORMAT_BEGIN
 90
        0
 91
        1
 62
     0
 92
       -2
340
0
 93
        0
 40
0.045
309
GRIDFORMAT_END
 95
        2
302
GRIDFORMAT
  1
GRIDFORMAT_BEGIN
 90
        0
 91
        1
 62
     0
 92
       -2
340
0
 93
        0
 40
0.045
309
GRIDFORMAT_END
 95
        4
302
GRIDFORMAT
  1
GRIDFORMAT_BEGIN
 90
        0
 91
        1
 62
     0
 92
       -2
340
0
 93
        0
 40
0.045
309
GRIDFORMAT_END
 95
        8
302
GRIDFORMAT
  1
GRIDFORMAT_BEGIN
 90
        0
 91
        1
 62
     0
 92
       -2
340
0
 93
        0
 40
0.045
309
GRIDFORMAT_END
 95
       16
302
GRIDFORMAT
  1
GRIDFORMAT_BEGIN
 90
        0
 91
        1
 62
     0
 92
       -2
340
0
 93
        0
 40
0.045
309
GRIDFORMAT_END
 95
       32
302
GRIDFORMAT
  1
GRIDFORMAT_BEGIN
 90
        0
 91
        1
 62
     0
 92
       -2
340
0
 93
        0
 40
0.045
309
GRIDFORMAT_END
309
TABLEFORMAT_END
  1
CELLSTYLE_BEGIN
 90
        3
 91
        2
300
_DATA
309
CELLSTYLE_END
  0
XRECORD
  5
17FE
102
{ACAD_REACTORS
330
621
102
}
330
621
100
AcDbXrecord
280
     1
102
ACAD_ROUNDTRIP_PRE2007_TABLESTYLE
 90
      512
 91
        0
  1

 92
      512
 93
        0
  2

 94
      512
 95
        0
  3

  0
XRECORD
  5
17D9
102
{ACAD_REACTORS
330
17D8
102
}
330
17D8
100
AcDbXrecord
280
     1
102
RTVSPropertyOp0
 70
     1
102
RTVSPropertyOp1
 70
     1
102
RTVSPropertyOp2
 70
     1
102
RTVSPropertyOp3
 70
     1
102
RTVSPropertyOp4
 70
     1
102
RTVSPropertyOp5
 70
     1
102
RTVSPropertyOp6
 70
     1
102
RTVSPropertyOp7
 70
     1
102
RTVSPropertyOp8
 70
     1
102
RTVSPropertyOp9
 70
     1
102
RTVSPropertyOp10
 70
     1
102
RTVSPropertyOp11
 70
     1
102
RTVSPropertyOp12
 70
     1
102
RTVSPropertyOp13
 70
     1
102
RTVSPropertyOp14
 70
     1
102
RTVSPropertyOp15
 70
     1
102
RTVSPropertyOp16
 70
     1
102
RTVSPropertyOp17
 70
     1
102
RTVSPropertyOp18
 70
     1
102
RTVSPropertyOp19
 70
     1
102
RTVSPropertyOp20
 70
     1
102
RTVSPropertyOp21
 70
     1
102
RTVSPropertyOp22
 70
     1
102
RTVSPropertyOp23
 70
     1
102
RTVSPropertyOp24
 70
     1
102
RTVSPropertyOp25
 70
     1
102
RTVSPropertyOp26
 70
     1
102
RTVSPropertyOp27
 70
     1
102
RTVSPropertyOp28
 70
     1
102
RTVSPropertyOp29
 70
     1
102
RTVSPropertyOp30
 70
     1
102
RTVSPropertyOp31
 70
     1
102
RTVSPropertyOp32
 70
     1
  0
XRECORD
  5
1804
102
{ACAD_REACTORS
330
1803
102
}
330
1803
100
AcDbXrecord
280
     1
102
RTVSPropertyOp0
 70
     1
102
RTVSPropertyOp1
 70
     1
102
RTVSPropertyOp2
 70
     1
102
RTVSPropertyOp3
 70
     1
102
RTVSPropertyOp4
 70
     1
102
RTVSPropertyOp5
 70
     1
102
RTVSPropertyOp6
 70
     1
102
RTVSPropertyOp7
 70
     1
102
RTVSPropertyOp8
 70
     1
102
RTVSPropertyOp9
 70
     1
102
RTVSPropertyOp10
 70
     1
102
RTVSPropertyOp11
 70
     1
102
RTVSPropertyOp12
 70
     1
102
RTVSPropertyOp13
 70
     1
102
RTVSPropertyOp14
 70
     1
102
RTVSPropertyOp15
 70
     1
102
RTVSPropertyOp16
 70
     1
102
RTVSPropertyOp17
 70
     1
102
RTVSPropertyOp18
 70
     1
102
RTVSPropertyOp19
 70
     1
102
RTVSPropertyOp20
 70
     1
102
RTVSPropertyOp21
 70
     1
102
RTVSPropertyOp22
 70
     1
102
RTVSPropertyOp23
 70
     1
102
RTVSPropertyOp24
 70
     1
102
RTVSPropertyOp25
 70
     1
102
RTVSPropertyOp26
 70
     1
102
RTVSPropertyOp27
 70
     1
102
RTVSPropertyOp28
 70
     1
102
RTVSPropertyOp29
 70
     1
102
RTVSPropertyOp30
 70
     1
102
RTVSPropertyOp31
 70
     1
102
RTVSPropertyOp32
 70
     1
  0
XRECORD
  5
17D7
102
{ACAD_REACTORS
330
17D6
102
}
330
17D6
100
AcDbXrecord
280
     1
102
RTVSPropertyOp0
 70
     1
102
RTVSPropertyOp1
 70
     1
102
RTVSPropertyOp2
 70
     1
102
RTVSPropertyOp3
 70
     1
102
RTVSPropertyOp4
 70
     1
102
RTVSPropertyOp5
 70
     1
102
RTVSPropertyOp6
 70
     1
102
RTVSPropertyOp7
 70
     1
102
RTVSPropertyOp8
 70
     1
102
RTVSPropertyOp9
 70
     1
102
RTVSPropertyOp10
 70
     1
102
RTVSPropertyOp11
 70
     1
102
RTVSPropertyOp12
 70
     1
102
RTVSPropertyOp13
 70
     1
102
RTVSPropertyOp14
 70
     1
102
RTVSPropertyOp15
 70
     1
102
RTVSPropertyOp16
 70
     1
102
RTVSPropertyOp17
 70
     1
102
RTVSPropertyOp18
 70
     1
102
RTVSPropertyOp19
 70
     1
102
RTVSPropertyOp20
 70
     1
102
RTVSPropertyOp21
 70
     1
102
RTVSPropertyOp22
 70
     1
102
RTVSPropertyOp23
 70
     1
102
RTVSPropertyOp24
 70
     1
102
RTVSPropertyOp25
 70
     1
102
RTVSPropertyOp26
 70
     1
102
RTVSPropertyOp27
 70
     1
102
RTVSPropertyOp28
 70
     1
102
RTVSPropertyOp29
 70
     1
102
RTVSPropertyOp30
 70
     1
102
RTVSPropertyOp31
 70
     1
102
RTVSPropertyOp32
 70
     1
  0
XRECORD
  5
17E5
102
{ACAD_REACTORS
330
17E4
102
}
330
17E4
100
AcDbXrecord
280
     1
102
RTVSPropertyOp0
 70
     1
102
RTVSPropertyOp1
 70
     1
102
RTVSPropertyOp2
 70
     1
102
RTVSPropertyOp3
 70
     1
102
RTVSPropertyOp4
 70
     1
102
RTVSPropertyOp5
 70
     1
102
RTVSPropertyOp6
 70
     1
102
RTVSPropertyOp7
 70
     1
102
RTVSPropertyOp8
 70
     1
102
RTVSPropertyOp9
 70
     1
102
RTVSPropertyOp10
 70
     1
102
RTVSPropertyOp11
 70
     1
102
RTVSPropertyOp12
 70
     1
102
RTVSPropertyOp13
 70
     1
102
RTVSPropertyOp14
 70
     1
102
RTVSPropertyOp15
 70
     1
102
RTVSPropertyOp16
 70
     1
102
RTVSPropertyOp17
 70
     1
102
RTVSPropertyOp18
 70
     1
102
RTVSPropertyOp19
 70
     1
102
RTVSPropertyOp20
 70
     1
102
RTVSPropertyOp21
 70
     1
102
RTVSPropertyOp22
 70
     1
102
RTVSPropertyOp23
 70
     1
102
RTVSPropertyOp24
 70
     1
102
RTVSPropertyOp25
 70
     1
102
RTVSPropertyOp26
 70
     1
102
RTVSPropertyOp27
 70
     1
102
RTVSPropertyOp28
 70
     1
102
RTVSPropertyOp29
 70
     1
102
RTVSPropertyOp30
 70
     1
102
RTVSPropertyOp31
 70
     1
102
RTVSPropertyOp32
 70
     1
  0
XRECORD
  5
17ED
102
{ACAD_REACTORS
330
17EC
102
}
330
17EC
100
AcDbXrecord
280
     1
102
RTVSPropertyOp0
 70
     1
102
RTVSPropertyOp1
 70
     1
102
RTVSPropertyOp2
 70
     1
102
RTVSPropertyOp3
 70
     1
102
RTVSPropertyOp4
 70
     1
102
RTVSPropertyOp5
 70
     1
102
RTVSPropertyOp6
 70
     1
102
RTVSPropertyOp7
 70
     1
102
RTVSPropertyOp8
 70
     1
102
RTVSPropertyOp9
 70
     1
102
RTVSPropertyOp10
 70
     1
102
RTVSPropertyOp11
 70
     1
102
RTVSPropertyOp12
 70
     1
102
RTVSPropertyOp13
 70
     1
102
RTVSPropertyOp14
 70
     1
102
RTVSPropertyOp15
 70
     1
102
RTVSPropertyOp16
 70
     1
102
RTVSPropertyOp17
 70
     1
102
RTVSPropertyOp18
 70
     1
102
RTVSPropertyOp19
 70
     1
102
RTVSPropertyOp20
 70
     1
102
RTVSPropertyOp21
 70
     1
102
RTVSPropertyOp22
 70
     1
102
RTVSPropertyOp23
 70
     1
102
RTVSPropertyOp24
 70
     1
102
RTVSPropertyOp25
 70
     1
102
RTVSPropertyOp26
 70
     1
102
RTVSPropertyOp27
 70
     1
102
RTVSPropertyOp28
 70
     1
102
RTVSPropertyOp29
 70
     1
102
RTVSPropertyOp30
 70
     1
102
RTVSPropertyOp31
 70
     1
102
RTVSPropertyOp32
 70
     1
  0
XRECORD
  5
17DF
102
{ACAD_REACTORS
330
17DE
102
}
330
17DE
100
AcDbXrecord
280
     1
102
RTVSPropertyOp0
 70
     1
102
RTVSPropertyOp1
 70
     1
102
RTVSPropertyOp2
 70
     1
102
RTVSPropertyOp3
 70
     1
102
RTVSPropertyOp4
 70
     1
102
RTVSPropertyOp5
 70
     1
102
RTVSPropertyOp6
 70
     1
102
RTVSPropertyOp7
 70
     1
102
RTVSPropertyOp8
 70
     1
102
RTVSPropertyOp9
 70
     1
102
RTVSPropertyOp10
 70
     1
102
RTVSPropertyOp11
 70
     1
102
RTVSPropertyOp12
 70
     1
102
RTVSPropertyOp13
 70
     1
102
RTVSPropertyOp14
 70
     1
102
RTVSPropertyOp15
 70
     1
102
RTVSPropertyOp16
 70
     1
102
RTVSPropertyOp17
 70
     1
102
RTVSPropertyOp18
 70
     1
102
RTVSPropertyOp19
 70
     1
102
RTVSPropertyOp20
 70
     1
102
RTVSPropertyOp21
 70
     1
102
RTVSPropertyOp22
 70
     1
102
RTVSPropertyOp23
 70
     1
102
RTVSPropertyOp24
 70
     1
102
RTVSPropertyOp25
 70
     1
102
RTVSPropertyOp26
 70
     1
102
RTVSPropertyOp27
 70
     1
102
RTVSPropertyOp28
 70
     1
102
RTVSPropertyOp29
 70
     1
102
RTVSPropertyOp30
 70
     1
102
RTVSPropertyOp31
 70
     1
102
RTVSPropertyOp32
 70
     1
  0
XRECORD
  5
17E3
102
{ACAD_REACTORS
330
17E2
102
}
330
17E2
100
AcDbXrecord
280
     1
102
RTVSPropertyOp0
 70
     1
102
RTVSPropertyOp1
 70
     1
102
RTVSPropertyOp2
 70
     1
102
RTVSPropertyOp3
 70
     1
102
RTVSPropertyOp4
 70
     1
102
RTVSPropertyOp5
 70
     1
102
RTVSPropertyOp6
 70
     1
102
RTVSPropertyOp7
 70
     1
102
RTVSPropertyOp8
 70
     1
102
RTVSPropertyOp9
 70
     1
102
RTVSPropertyOp10
 70
     1
102
RTVSPropertyOp11
 70
     1
102
RTVSPropertyOp12
 70
     1
102
RTVSPropertyOp13
 70
     1
102
RTVSPropertyOp14
 70
     1
102
RTVSPropertyOp15
 70
     1
102
RTVSPropertyOp16
 70
     1
102
RTVSPropertyOp17
 70
     1
102
RTVSPropertyOp18
 70
     1
102
RTVSPropertyOp19
 70
     1
102
RTVSPropertyOp20
 70
     1
102
RTVSPropertyOp21
 70
     1
102
RTVSPropertyOp22
 70
     1
102
RTVSPropertyOp23
 70
     1
102
RTVSPropertyOp24
 70
     1
102
RTVSPropertyOp25
 70
     1
102
RTVSPropertyOp26
 70
     1
102
RTVSPropertyOp27
 70
     1
102
RTVSPropertyOp28
 70
     1
102
RTVSPropertyOp29
 70
     1
102
RTVSPropertyOp30
 70
     1
102
RTVSPropertyOp31
 70
     1
102
RTVSPropertyOp32
 70
     1
  0
XRECORD
  5
17FD
102
{ACAD_REACTORS
330
17FC
102
}
330
17FC
100
AcDbXrecord
280
     1
102
RTVSPropertyOp0
 70
     0
102
RTVSPropertyOp1
 70
     0
102
RTVSPropertyOp2
 70
     0
102
RTVSPropertyOp3
 70
     0
102
RTVSPropertyOp4
 70
     0
102
RTVSPropertyOp5
 70
     0
102
RTVSPropertyOp6
 70
     0
102
RTVSPropertyOp7
 70
     0
102
RTVSPropertyOp8
 70
     0
102
RTVSPropertyOp9
 70
     0
102
RTVSPropertyOp10
 70
     0
102
RTVSPropertyOp11
 70
     0
102
RTVSPropertyOp12
 70
     0
102
RTVSPropertyOp13
 70
     0
102
RTVSPropertyOp14
 70
     2
102
RTVSPropertyOp15
 70
     0
102
RTVSPropertyOp16
 70
     0
102
RTVSPropertyOp17
 70
     0
102
RTVSPropertyOp18
 70
     0
102
RTVSPropertyOp19
 70
     0
102
RTVSPropertyOp20
 70
     0
102
RTVSPropertyOp21
 70
     0
102
RTVSPropertyOp22
 70
     0
102
RTVSPropertyOp23
 70
     0
102
RTVSPropertyOp24
 70
     0
102
RTVSPropertyOp25
 70
     0
102
RTVSPropertyOp26
 70
     0
102
RTVSPropertyOp27
 70
     0
102
RTVSPropertyOp28
 70
     0
102
RTVSPropertyOp29
 70
     0
102
RTVSPropertyOp30
 70
     0
102
RTVSPropertyOp31
 70
     0
102
RTVSPropertyOp32
 70
     0
  0
XRECORD
  5
17EB
102
{ACAD_REACTORS
330
17EA
102
}
330
17EA
100
AcDbXrecord
280
     1
102
RTVSPropertyOp0
 70
     1
102
RTVSPropertyOp1
 70
     1
102
RTVSPropertyOp2
 70
     1
102
RTVSPropertyOp3
 70
     1
102
RTVSPropertyOp4
 70
     1
102
RTVSPropertyOp5
 70
     1
102
RTVSPropertyOp6
 70
     1
102
RTVSPropertyOp7
 70
     1
102
RTVSPropertyOp8
 70
     1
102
RTVSPropertyOp9
 70
     1
102
RTVSPropertyOp10
 70
     1
102
RTVSPropertyOp11
 70
     1
102
RTVSPropertyOp12
 70
     1
102
RTVSPropertyOp13
 70
     1
102
RTVSPropertyOp14
 70
     1
102
RTVSPropertyOp15
 70
     1
102
RTVSPropertyOp16
 70
     1
102
RTVSPropertyOp17
 70
     1
102
RTVSPropertyOp18
 70
     1
102
RTVSPropertyOp19
 70
     1
102
RTVSPropertyOp20
 70
     1
102
RTVSPropertyOp21
 70
     1
102
RTVSPropertyOp22
 70
     1
102
RTVSPropertyOp23
 70
     1
102
RTVSPropertyOp24
 70
     1
102
RTVSPropertyOp25
 70
     1
102
RTVSPropertyOp26
 70
     1
102
RTVSPropertyOp27
 70
     1
102
RTVSPropertyOp28
 70
     1
102
RTVSPropertyOp29
 70
     1
102
RTVSPropertyOp30
 70
     1
102
RTVSPropertyOp31
 70
     1
102
RTVSPropertyOp32
 70
     1
  0
XRECORD
  5
17CF
102
{ACAD_REACTORS
330
17CE
102
}
330
17CE
100
AcDbXrecord
280
     1
102
RTVSPropertyOp0
 70
     1
102
RTVSPropertyOp1
 70
     1
102
RTVSPropertyOp2
 70
     1
102
RTVSPropertyOp3
 70
     1
102
RTVSPropertyOp4
 70
     1
102
RTVSPropertyOp5
 70
     1
102
RTVSPropertyOp6
 70
     1
102
RTVSPropertyOp7
 70
     1
102
RTVSPropertyOp8
 70
     1
102
RTVSPropertyOp9
 70
     1
102
RTVSPropertyOp10
 70
     1
102
RTVSPropertyOp11
 70
     1
102
RTVSPropertyOp12
 70
     1
102
RTVSPropertyOp13
 70
     1
102
RTVSPropertyOp14
 70
     1
102
RTVSPropertyOp15
 70
     1
102
RTVSPropertyOp16
 70
     1
102
RTVSPropertyOp17
 70
     1
102
RTVSPropertyOp18
 70
     1
102
RTVSPropertyOp19
 70
     1
102
RTVSPropertyOp20
 70
     1
102
RTVSPropertyOp21
 70
     1
102
RTVSPropertyOp22
 70
     1
102
RTVSPropertyOp23
 70
     1
102
RTVSPropertyOp24
 70
     1
102
RTVSPropertyOp25
 70
     1
102
RTVSPropertyOp26
 70
     1
102
RTVSPropertyOp27
 70
     1
102
RTVSPropertyOp28
 70
     1
102
RTVSPropertyOp29
 70
     1
102
RTVSPropertyOp30
 70
     1
102
RTVSPropertyOp31
 70
     1
102
RTVSPropertyOp32
 70
     1
  0
XRECORD
  5
17D1
102
{ACAD_REACTORS
330
17D0
102
}
330
17D0
100
AcDbXrecord
280
     1
102
RTVSPropertyOp0
 70
     1
102
RTVSPropertyOp1
 70
     1
102
RTVSPropertyOp2
 70
     1
102
RTVSPropertyOp3
 70
     1
102
RTVSPropertyOp4
 70
     1
102
RTVSPropertyOp5
 70
     1
102
RTVSPropertyOp6
 70
     1
102
RTVSPropertyOp7
 70
     1
102
RTVSPropertyOp8
 70
     1
102
RTVSPropertyOp9
 70
     1
102
RTVSPropertyOp10
 70
     1
102
RTVSPropertyOp11
 70
     1
102
RTVSPropertyOp12
 70
     1
102
RTVSPropertyOp13
 70
     1
102
RTVSPropertyOp14
 70
     1
102
RTVSPropertyOp15
 70
     1
102
RTVSPropertyOp16
 70
     1
102
RTVSPropertyOp17
 70
     1
102
RTVSPropertyOp18
 70
     1
102
RTVSPropertyOp19
 70
     1
102
RTVSPropertyOp20
 70
     1
102
RTVSPropertyOp21
 70
     1
102
RTVSPropertyOp22
 70
     1
102
RTVSPropertyOp23
 70
     1
102
RTVSPropertyOp24
 70
     1
102
RTVSPropertyOp25
 70
     1
102
RTVSPropertyOp26
 70
     1
102
RTVSPropertyOp27
 70
     1
102
RTVSPropertyOp28
 70
     1
102
RTVSPropertyOp29
 70
     1
102
RTVSPropertyOp30
 70
     1
102
RTVSPropertyOp31
 70
     1
102
RTVSPropertyOp32
 70
     1
  0
XRECORD
  5
17D3
102
{ACAD_REACTORS
330
17D2
102
}
330
17D2
100
AcDbXrecord
280
     1
102
RTVSPropertyOp0
 70
     1
102
RTVSPropertyOp1
 70
     1
102
RTVSPropertyOp2
 70
     1
102
RTVSPropertyOp3
 70
     1
102
RTVSPropertyOp4
 70
     1
102
RTVSPropertyOp5
 70
     1
102
RTVSPropertyOp6
 70
     1
102
RTVSPropertyOp7
 70
     1
102
RTVSPropertyOp8
 70
     1
102
RTVSPropertyOp9
 70
     1
102
RTVSPropertyOp10
 70
     1
102
RTVSPropertyOp11
 70
     1
102
RTVSPropertyOp12
 70
     1
102
RTVSPropertyOp13
 70
     1
102
RTVSPropertyOp14
 70
     1
102
RTVSPropertyOp15
 70
     1
102
RTVSPropertyOp16
 70
     1
102
RTVSPropertyOp17
 70
     1
102
RTVSPropertyOp18
 70
     1
102
RTVSPropertyOp19
 70
     1
102
RTVSPropertyOp20
 70
     1
102
RTVSPropertyOp21
 70
     1
102
RTVSPropertyOp22
 70
     1
102
RTVSPropertyOp23
 70
     1
102
RTVSPropertyOp24
 70
     1
102
RTVSPropertyOp25
 70
     1
102
RTVSPropertyOp26
 70
     1
102
RTVSPropertyOp27
 70
     1
102
RTVSPropertyOp28
 70
     1
102
RTVSPropertyOp29
 70
     1
102
RTVSPropertyOp30
 70
     1
102
RTVSPropertyOp31
 70
     1
102
RTVSPropertyOp32
 70
     1
  0
XRECORD
  5
17D5
102
{ACAD_REACTORS
330
17D4
102
}
330
17D4
100
AcDbXrecord
280
     1
102
RTVSPropertyOp0
 70
     1
102
RTVSPropertyOp1
 70
     1
102
RTVSPropertyOp2
 70
     1
102
RTVSPropertyOp3
 70
     1
102
RTVSPropertyOp4
 70
     1
102
RTVSPropertyOp5
 70
     1
102
RTVSPropertyOp6
 70
     1
102
RTVSPropertyOp7
 70
     1
102
RTVSPropertyOp8
 70
     1
102
RTVSPropertyOp9
 70
     1
102
RTVSPropertyOp10
 70
     1
102
RTVSPropertyOp11
 70
     1
102
RTVSPropertyOp12
 70
     1
102
RTVSPropertyOp13
 70
     1
102
RTVSPropertyOp14
 70
     1
102
RTVSPropertyOp15
 70
     1
102
RTVSPropertyOp16
 70
     1
102
RTVSPropertyOp17
 70
     1
102
RTVSPropertyOp18
 70
     1
102
RTVSPropertyOp19
 70
     1
102
RTVSPropertyOp20
 70
     1
102
RTVSPropertyOp21
 70
     1
102
RTVSPropertyOp22
 70
     1
102
RTVSPropertyOp23
 70
     1
102
RTVSPropertyOp24
 70
     1
102
RTVSPropertyOp25
 70
     1
102
RTVSPropertyOp26
 70
     1
102
RTVSPropertyOp27
 70
     1
102
RTVSPropertyOp28
 70
     1
102
RTVSPropertyOp29
 70
     1
102
RTVSPropertyOp30
 70
     1
102
RTVSPropertyOp31
 70
     1
102
RTVSPropertyOp32
 70
     1
  0
XRECORD
  5
17DD
102
{ACAD_REACTORS
330
17DC
102
}
330
17DC
100
AcDbXrecord
280
     1
102
RTVSPropertyOp0
 70
     1
102
RTVSPropertyOp1
 70
     1
102
RTVSPropertyOp2
 70
     1
102
RTVSPropertyOp3
 70
     1
102
RTVSPropertyOp4
 70
     1
102
RTVSPropertyOp5
 70
     1
102
RTVSPropertyOp6
 70
     1
102
RTVSPropertyOp7
 70
     1
102
RTVSPropertyOp8
 70
     1
102
RTVSPropertyOp9
 70
     1
102
RTVSPropertyOp10
 70
     1
102
RTVSPropertyOp11
 70
     1
102
RTVSPropertyOp12
 70
     1
102
RTVSPropertyOp13
 70
     1
102
RTVSPropertyOp14
 70
     1
102
RTVSPropertyOp15
 70
     1
102
RTVSPropertyOp16
 70
     1
102
RTVSPropertyOp17
 70
     1
102
RTVSPropertyOp18
 70
     1
102
RTVSPropertyOp19
 70
     1
102
RTVSPropertyOp20
 70
     1
102
RTVSPropertyOp21
 70
     1
102
RTVSPropertyOp22
 70
     1
102
RTVSPropertyOp23
 70
     1
102
RTVSPropertyOp24
 70
     1
102
RTVSPropertyOp25
 70
     1
102
RTVSPropertyOp26
 70
     1
102
RTVSPropertyOp27
 70
     1
102
RTVSPropertyOp28
 70
     1
102
RTVSPropertyOp29
 70
     1
102
RTVSPropertyOp30
 70
     1
102
RTVSPropertyOp31
 70
     1
102
RTVSPropertyOp32
 70
     1
  0
XRECORD
  5
17F9
102
{ACAD_REACTORS
330
17F8
102
}
330
17F8
100
AcDbXrecord
280
     1
102
RTVSPropertyOp0
 70
     0
102
RTVSPropertyOp1
 70
     0
102
RTVSPropertyOp2
 70
     0
102
RTVSPropertyOp3
 70
     0
102
RTVSPropertyOp4
 70
     0
102
RTVSPropertyOp5
 70
     0
102
RTVSPropertyOp6
 70
     0
102
RTVSPropertyOp7
 70
     0
102
RTVSPropertyOp8
 70
     0
102
RTVSPropertyOp9
 70
     0
102
RTVSPropertyOp10
 70
     0
102
RTVSPropertyOp11
 70
     0
102
RTVSPropertyOp12
 70
     0
102
RTVSPropertyOp13
 70
     0
102
RTVSPropertyOp14
 70
     2
102
RTVSPropertyOp15
 70
     0
102
RTVSPropertyOp16
 70
     0
102
RTVSPropertyOp17
 70
     0
102
RTVSPropertyOp18
 70
     0
102
RTVSPropertyOp19
 70
     0
102
RTVSPropertyOp20
 70
     0
102
RTVSPropertyOp21
 70
     0
102
RTVSPropertyOp22
 70
     0
102
RTVSPropertyOp23
 70
     0
102
RTVSPropertyOp24
 70
     0
102
RTVSPropertyOp25
 70
     0
102
RTVSPropertyOp26
 70
     0
102
RTVSPropertyOp27
 70
     0
102
RTVSPropertyOp28
 70
     0
102
RTVSPropertyOp29
 70
     0
102
RTVSPropertyOp30
 70
     0
102
RTVSPropertyOp31
 70
     0
102
RTVSPropertyOp32
 70
     0
  0
XRECORD
  5
17E9
102
{ACAD_REACTORS
330
17E8
102
}
330
17E8
100
AcDbXrecord
280
     1
102
RTVSPropertyOp0
 70
     1
102
RTVSPropertyOp1
 70
     1
102
RTVSPropertyOp2
 70
     1
102
RTVSPropertyOp3
 70
     1
102
RTVSPropertyOp4
 70
     1
102
RTVSPropertyOp5
 70
     1
102
RTVSPropertyOp6
 70
     1
102
RTVSPropertyOp7
 70
     1
102
RTVSPropertyOp8
 70
     1
102
RTVSPropertyOp9
 70
     1
102
RTVSPropertyOp10
 70
     1
102
RTVSPropertyOp11
 70
     1
102
RTVSPropertyOp12
 70
     1
102
RTVSPropertyOp13
 70
     1
102
RTVSPropertyOp14
 70
     1
102
RTVSPropertyOp15
 70
     1
102
RTVSPropertyOp16
 70
     1
102
RTVSPropertyOp17
 70
     1
102
RTVSPropertyOp18
 70
     1
102
RTVSPropertyOp19
 70
     1
102
RTVSPropertyOp20
 70
     1
102
RTVSPropertyOp21
 70
     1
102
RTVSPropertyOp22
 70
     1
102
RTVSPropertyOp23
 70
     1
102
RTVSPropertyOp24
 70
     1
102
RTVSPropertyOp25
 70
     1
102
RTVSPropertyOp26
 70
     1
102
RTVSPropertyOp27
 70
     1
102
RTVSPropertyOp28
 70
     1
102
RTVSPropertyOp29
 70
     1
102
RTVSPropertyOp30
 70
     1
102
RTVSPropertyOp31
 70
     1
102
RTVSPropertyOp32
 70
     1
  0
XRECORD
  5
17FB
102
{ACAD_REACTORS
330
17FA
102
}
330
17FA
100
AcDbXrecord
280
     1
102
RTVSPropertyOp0
 70
     0
102
RTVSPropertyOp1
 70
     0
102
RTVSPropertyOp2
 70
     0
102
RTVSPropertyOp3
 70
     0
102
RTVSPropertyOp4
 70
     0
102
RTVSPropertyOp5
 70
     0
102
RTVSPropertyOp6
 70
     0
102
RTVSPropertyOp7
 70
     0
102
RTVSPropertyOp8
 70
     0
102
RTVSPropertyOp9
 70
     0
102
RTVSPropertyOp10
 70
     0
102
RTVSPropertyOp11
 70
     0
102
RTVSPropertyOp12
 70
     0
102
RTVSPropertyOp13
 70
     0
102
RTVSPropertyOp14
 70
     2
102
RTVSPropertyOp15
 70
     0
102
RTVSPropertyOp16
 70
     0
102
RTVSPropertyOp17
 70
     0
102
RTVSPropertyOp18
 70
     0
102
RTVSPropertyOp19
 70
     0
102
RTVSPropertyOp20
 70
     0
102
RTVSPropertyOp21
 70
     0
102
RTVSPropertyOp22
 70
     0
102
RTVSPropertyOp23
 70
     0
102
RTVSPropertyOp24
 70
     0
102
RTVSPropertyOp25
 70
     0
102
RTVSPropertyOp26
 70
     0
102
RTVSPropertyOp27
 70
     0
102
RTVSPropertyOp28
 70
     0
102
RTVSPropertyOp29
 70
     0
102
RTVSPropertyOp30
 70
     0
102
RTVSPropertyOp31
 70
     0
102
RTVSPropertyOp32
 70
     0
  0
XRECORD
  5
17E1
102
{ACAD_REACTORS
330
17E0
102
}
330
17E0
100
AcDbXrecord
280
     1
102
RTVSPropertyOp0
 70
     1
102
RTVSPropertyOp1
 70
     1
102
RTVSPropertyOp2
 70
     1
102
RTVSPropertyOp3
 70
     1
102
RTVSPropertyOp4
 70
     1
102
RTVSPropertyOp5
 70
     1
102
RTVSPropertyOp6
 70
     1
102
RTVSPropertyOp7
 70
     1
102
RTVSPropertyOp8
 70
     1
102
RTVSPropertyOp9
 70
     1
102
RTVSPropertyOp10
 70
     1
102
RTVSPropertyOp11
 70
     1
102
RTVSPropertyOp12
 70
     1
102
RTVSPropertyOp13
 70
     1
102
RTVSPropertyOp14
 70
     1
102
RTVSPropertyOp15
 70
     1
102
RTVSPropertyOp16
 70
     1
102
RTVSPropertyOp17
 70
     1
102
RTVSPropertyOp18
 70
     1
102
RTVSPropertyOp19
 70
     1
102
RTVSPropertyOp20
 70
     1
102
RTVSPropertyOp21
 70
     1
102
RTVSPropertyOp22
 70
     1
102
RTVSPropertyOp23
 70
     1
102
RTVSPropertyOp24
 70
     1
102
RTVSPropertyOp25
 70
     1
102
RTVSPropertyOp26
 70
     1
102
RTVSPropertyOp27
 70
     1
102
RTVSPropertyOp28
 70
     1
102
RTVSPropertyOp29
 70
     1
102
RTVSPropertyOp30
 70
     1
102
RTVSPropertyOp31
 70
     1
102
RTVSPropertyOp32
 70
     1
  0
XRECORD
  5
17F7
102
{ACAD_REACTORS
330
17F6
102
}
330
17F6
100
AcDbXrecord
280
     1
102
RTVSPropertyOp0
 70
     1
102
RTVSPropertyOp1
 70
     1
102
RTVSPropertyOp2
 70
     1
102
RTVSPropertyOp3
 70
     1
102
RTVSPropertyOp4
 70
     1
102
RTVSPropertyOp5
 70
     1
102
RTVSPropertyOp6
 70
     1
102
RTVSPropertyOp7
 70
     1
102
RTVSPropertyOp8
 70
     1
102
RTVSPropertyOp9
 70
     1
102
RTVSPropertyOp10
 70
     1
102
RTVSPropertyOp11
 70
     1
102
RTVSPropertyOp12
 70
     1
102
RTVSPropertyOp13
 70
     1
102
RTVSPropertyOp14
 70
     1
102
RTVSPropertyOp15
 70
     1
102
RTVSPropertyOp16
 70
     1
102
RTVSPropertyOp17
 70
     1
102
RTVSPropertyOp18
 70
     1
102
RTVSPropertyOp19
 70
     1
102
RTVSPropertyOp20
 70
     1
102
RTVSPropertyOp21
 70
     1
102
RTVSPropertyOp22
 70
     1
102
RTVSPropertyOp23
 70
     1
102
RTVSPropertyOp24
 70
     1
102
RTVSPropertyOp25
 70
     1
102
RTVSPropertyOp26
 70
     1
102
RTVSPropertyOp27
 70
     1
102
RTVSPropertyOp28
 70
     1
102
RTVSPropertyOp29
 70
     1
102
RTVSPropertyOp30
 70
     1
102
RTVSPropertyOp31
 70
     1
102
RTVSPropertyOp32
 70
     1
  0
XRECORD
  5
17F5
102
{ACAD_REACTORS
330
17F4
102
}
330
17F4
100
AcDbXrecord
280
     1
102
RTVSPropertyOp0
 70
     1
102
RTVSPropertyOp1
 70
     1
102
RTVSPropertyOp2
 70
     1
102
RTVSPropertyOp3
 70
     1
102
RTVSPropertyOp4
 70
     1
102
RTVSPropertyOp5
 70
     1
102
RTVSPropertyOp6
 70
     1
102
RTVSPropertyOp7
 70
     1
102
RTVSPropertyOp8
 70
     1
102
RTVSPropertyOp9
 70
     1
102
RTVSPropertyOp10
 70
     1
102
RTVSPropertyOp11
 70
     1
102
RTVSPropertyOp12
 70
     1
102
RTVSPropertyOp13
 70
     1
102
RTVSPropertyOp14
 70
     1
102
RTVSPropertyOp15
 70
     1
102
RTVSPropertyOp16
 70
     1
102
RTVSPropertyOp17
 70
     1
102
RTVSPropertyOp18
 70
     1
102
RTVSPropertyOp19
 70
     1
102
RTVSPropertyOp20
 70
     1
102
RTVSPropertyOp21
 70
     1
102
RTVSPropertyOp22
 70
     1
102
RTVSPropertyOp23
 70
     1
102
RTVSPropertyOp24
 70
     1
102
RTVSPropertyOp25
 70
     1
102
RTVSPropertyOp26
 70
     1
102
RTVSPropertyOp27
 70
     1
102
RTVSPropertyOp28
 70
     1
102
RTVSPropertyOp29
 70
     1
102
RTVSPropertyOp30
 70
     1
102
RTVSPropertyOp31
 70
     1
102
RTVSPropertyOp32
 70
     1
  0
XRECORD
  5
17EF
102
{ACAD_REACTORS
330
17EE
102
}
330
17EE
100
AcDbXrecord
280
     1
102
RTVSPropertyOp0
 70
     1
102
RTVSPropertyOp1
 70
     1
102
RTVSPropertyOp2
 70
     1
102
RTVSPropertyOp3
 70
     1
102
RTVSPropertyOp4
 70
     1
102
RTVSPropertyOp5
 70
     1
102
RTVSPropertyOp6
 70
     1
102
RTVSPropertyOp7
 70
     1
102
RTVSPropertyOp8
 70
     1
102
RTVSPropertyOp9
 70
     1
102
RTVSPropertyOp10
 70
     1
102
RTVSPropertyOp11
 70
     1
102
RTVSPropertyOp12
 70
     1
102
RTVSPropertyOp13
 70
     1
102
RTVSPropertyOp14
 70
     1
102
RTVSPropertyOp15
 70
     1
102
RTVSPropertyOp16
 70
     1
102
RTVSPropertyOp17
 70
     1
102
RTVSPropertyOp18
 70
     1
102
RTVSPropertyOp19
 70
     1
102
RTVSPropertyOp20
 70
     1
102
RTVSPropertyOp21
 70
     1
102
RTVSPropertyOp22
 70
     1
102
RTVSPropertyOp23
 70
     1
102
RTVSPropertyOp24
 70
     1
102
RTVSPropertyOp25
 70
     1
102
RTVSPropertyOp26
 70
     1
102
RTVSPropertyOp27
 70
     1
102
RTVSPropertyOp28
 70
     1
102
RTVSPropertyOp29
 70
     1
102
RTVSPropertyOp30
 70
     1
102
RTVSPropertyOp31
 70
     1
102
RTVSPropertyOp32
 70
     1
  0
XRECORD
  5
17F1
102
{ACAD_REACTORS
330
17F0
102
}
330
17F0
100
AcDbXrecord
280
     1
102
RTVSPropertyOp0
 70
     1
102
RTVSPropertyOp1
 70
     1
102
RTVSPropertyOp2
 70
     1
102
RTVSPropertyOp3
 70
     1
102
RTVSPropertyOp4
 70
     1
102
RTVSPropertyOp5
 70
     1
102
RTVSPropertyOp6
 70
     1
102
RTVSPropertyOp7
 70
     1
102
RTVSPropertyOp8
 70
     1
102
RTVSPropertyOp9
 70
     1
102
RTVSPropertyOp10
 70
     1
102
RTVSPropertyOp11
 70
     1
102
RTVSPropertyOp12
 70
     1
102
RTVSPropertyOp13
 70
     1
102
RTVSPropertyOp14
 70
     1
102
RTVSPropertyOp15
 70
     1
102
RTVSPropertyOp16
 70
     1
102
RTVSPropertyOp17
 70
     1
102
RTVSPropertyOp18
 70
     1
102
RTVSPropertyOp19
 70
     1
102
RTVSPropertyOp20
 70
     1
102
RTVSPropertyOp21
 70
     1
102
RTVSPropertyOp22
 70
     1
102
RTVSPropertyOp23
 70
     1
102
RTVSPropertyOp24
 70
     1
102
RTVSPropertyOp25
 70
     1
102
RTVSPropertyOp26
 70
     1
102
RTVSPropertyOp27
 70
     1
102
RTVSPropertyOp28
 70
     1
102
RTVSPropertyOp29
 70
     1
102
RTVSPropertyOp30
 70
     1
102
RTVSPropertyOp31
 70
     1
102
RTVSPropertyOp32
 70
     1
  0
XRECORD
  5
17E7
102
{ACAD_REACTORS
330
17E6
102
}
330
17E6
100
AcDbXrecord
280
     1
102
RTVSPropertyOp0
 70
     1
102
RTVSPropertyOp1
 70
     1
102
RTVSPropertyOp2
 70
     1
102
RTVSPropertyOp3
 70
     1
102
RTVSPropertyOp4
 70
     1
102
RTVSPropertyOp5
 70
     1
102
RTVSPropertyOp6
 70
     1
102
RTVSPropertyOp7
 70
     1
102
RTVSPropertyOp8
 70
     1
102
RTVSPropertyOp9
 70
     1
102
RTVSPropertyOp10
 70
     1
102
RTVSPropertyOp11
 70
     1
102
RTVSPropertyOp12
 70
     1
102
RTVSPropertyOp13
 70
     1
102
RTVSPropertyOp14
 70
     1
102
RTVSPropertyOp15
 70
     1
102
RTVSPropertyOp16
 70
     1
102
RTVSPropertyOp17
 70
     1
102
RTVSPropertyOp18
 70
     1
102
RTVSPropertyOp19
 70
     1
102
RTVSPropertyOp20
 70
     1
102
RTVSPropertyOp21
 70
     1
102
RTVSPropertyOp22
 70
     1
102
RTVSPropertyOp23
 70
     1
102
RTVSPropertyOp24
 70
     1
102
RTVSPropertyOp25
 70
     1
102
RTVSPropertyOp26
 70
     1
102
RTVSPropertyOp27
 70
     1
102
RTVSPropertyOp28
 70
     1
102
RTVSPropertyOp29
 70
     1
102
RTVSPropertyOp30
 70
     1
102
RTVSPropertyOp31
 70
     1
102
RTVSPropertyOp32
 70
     1
  0
XRECORD
  5
17DB
102
{ACAD_REACTORS
330
17DA
102
}
330
17DA
100
AcDbXrecord
280
     1
102
RTVSPropertyOp0
 70
     1
102
RTVSPropertyOp1
 70
     1
102
RTVSPropertyOp2
 70
     1
102
RTVSPropertyOp3
 70
     1
102
RTVSPropertyOp4
 70
     1
102
RTVSPropertyOp5
 70
     1
102
RTVSPropertyOp6
 70
     1
102
RTVSPropertyOp7
 70
     1
102
RTVSPropertyOp8
 70
     1
102
RTVSPropertyOp9
 70
     1
102
RTVSPropertyOp10
 70
     1
102
RTVSPropertyOp11
 70
     1
102
RTVSPropertyOp12
 70
     1
102
RTVSPropertyOp13
 70
     1
102
RTVSPropertyOp14
 70
     1
102
RTVSPropertyOp15
 70
     1
102
RTVSPropertyOp16
 70
     1
102
RTVSPropertyOp17
 70
     1
102
RTVSPropertyOp18
 70
     1
102
RTVSPropertyOp19
 70
     1
102
RTVSPropertyOp20
 70
     1
102
RTVSPropertyOp21
 70
     1
102
RTVSPropertyOp22
 70
     1
102
RTVSPropertyOp23
 70
     1
102
RTVSPropertyOp24
 70
     1
102
RTVSPropertyOp25
 70
     1
102
RTVSPropertyOp26
 70
     1
102
RTVSPropertyOp27
 70
     1
102
RTVSPropertyOp28
 70
     1
102
RTVSPropertyOp29
 70
     1
102
RTVSPropertyOp30
 70
     1
102
RTVSPropertyOp31
 70
     1
102
RTVSPropertyOp32
 70
     1
  0
XRECORD
  5
17F3
102
{ACAD_REACTORS
330
17F2
102
}
330
17F2
100
AcDbXrecord
280
     1
102
RTVSPropertyOp0
 70
     1
102
RTVSPropertyOp1
 70
     1
102
RTVSPropertyOp2
 70
     1
102
RTVSPropertyOp3
 70
     1
102
RTVSPropertyOp4
 70
     1
102
RTVSPropertyOp5
 70
     1
102
RTVSPropertyOp6
 70
     1
102
RTVSPropertyOp7
 70
     1
102
RTVSPropertyOp8
 70
     1
102
RTVSPropertyOp9
 70
     1
102
RTVSPropertyOp10
 70
     1
102
RTVSPropertyOp11
 70
     1
102
RTVSPropertyOp12
 70
     1
102
RTVSPropertyOp13
 70
     1
102
RTVSPropertyOp14
 70
     1
102
RTVSPropertyOp15
 70
     1
102
RTVSPropertyOp16
 70
     1
102
RTVSPropertyOp17
 70
     1
102
RTVSPropertyOp18
 70
     1
102
RTVSPropertyOp19
 70
     1
102
RTVSPropertyOp20
 70
     1
102
RTVSPropertyOp21
 70
     1
102
RTVSPropertyOp22
 70
     1
102
RTVSPropertyOp23
 70
     1
102
RTVSPropertyOp24
 70
     1
102
RTVSPropertyOp25
 70
     1
102
RTVSPropertyOp26
 70
     1
102
RTVSPropertyOp27
 70
     1
102
RTVSPropertyOp28
 70
     1
102
RTVSPropertyOp29
 70
     1
102
RTVSPropertyOp30
 70
     1
102
RTVSPropertyOp31
 70
     1
102
RTVSPropertyOp32
 70
     1
  0
ENDSEC
  0
EOF
