  0
SECTION
  2
HEADER
  9
$ACADVER
  1
AC1015
  9
$ACADMAINTVER
 70
    20
  9
$DWGCODEPAGE
  3
ANSI_932
  9
$INSBASE
 10
0.0
 20
0.0
 30
0.0
  9
$EXTMIN
 10
5.318935999999998
 20
-457.9647709999998
 30
0.0
  9
$EXTMAX
 10
410.318936
 20
-183.90941
 30
0.0
  9
$LIMMIN
 10
5.317936
 20
-457.965783
  9
$LIMMAX
 10
410.3457879999998
 20
-183.908409
  9
$ORTHOMODE
 70
     1
  9
$REGENMODE
 70
     1
  9
$FILLMODE
 70
     1
  9
$QTEXTMODE
 70
     0
  9
$MIRRTEXT
 70
     0
  9
$LTSCALE
 40
6.750430999999997
  9
$ATTMODE
 70
     1
  9
$TEXTSIZE
 40
3.2
  9
$TRACEWID
 40
0.05
  9
$TEXTSTYLE
  7
高3.2
  9
$CLAYER
  8
0
  9
$CELTYPE
  6
ByLayer
  9
$CECOLOR
 62
   256
  9
$CELTSCALE
 40
1.0
  9
$DISPSILH
 70
     0
  9
$DIMSCALE
 40
1.0
  9
$DIMASZ
 40
2.5
  9
$DIMEXO
 40
0.25
  9
$DIMDLI
 40
0.2
  9
$DIMRND
 40
0.0
  9
$DIMDLE
 40
0.0
  9
$DIMEXE
 40
1.25
  9
$DIMTP
 40
0.0
  9
$DIMTM
 40
0.0
  9
$DIMTXT
 40
3.0
  9
$DIMCEN
 40
0.0
  9
$DIMTSZ
 40
0.0
  9
$DIMTOL
 70
     0
  9
$DIMLIM
 70
     0
  9
$DIMTIH
 70
     0
  9
$DIMTOH
 70
     0
  9
$DIMSE1
 70
     0
  9
$DIMSE2
 70
     0
  9
$DIMTAD
 70
     3
  9
$DIMZIN
 70
     8
  9
$DIMBLK
  1
Open30
  9
$DIMASO
 70
     1
  9
$DIMSHO
 70
     1
  9
$DIMPOST
  1

  9
$DIMAPOST
  1

  9
$DIMALT
 70
     0
  9
$DIMALTD
 70
     3
  9
$DIMALTF
 40
0.03937007874016
  9
$DIMLFAC
 40
2.0
  9
$DIMTOFL
 70
     1
  9
$DIMTVP
 40
0.0
  9
$DIMTIX
 70
     0
  9
$DIMSOXD
 70
     0
  9
$DIMSAH
 70
     0
  9
$DIMBLK1
  1

  9
$DIMBLK2
  1

  9
$DIMSTYLE
  2
1／2
  9
$DIMCLRD
 70
     0
  9
$DIMCLRE
 70
     0
  9
$DIMCLRT
 70
     4
  9
$DIMTFAC
 40
1.0
  9
$DIMGAP
 40
0.625
  9
$DIMJUST
 70
     0
  9
$DIMSD1
 70
     0
  9
$DIMSD2
 70
     0
  9
$DIMTOLJ
 70
     0
  9
$DIMTZIN
 70
     8
  9
$DIMALTZ
 70
     0
  9
$DIMALTTZ
 70
     0
  9
$DIMUPT
 70
     1
  9
$DIMDEC
 70
     2
  9
$DIMTDEC
 70
     2
  9
$DIMALTU
 70
     2
  9
$DIMALTTD
 70
     3
  9
$DIMTXSTY
  7
STANDARD
  9
$DIMAUNIT
 70
     0
  9
$DIMADEC
 70
     1
  9
$DIMALTRND
 40
0.0
  9
$DIMAZIN
 70
     2
  9
$DIMDSEP
 70
    46
  9
$DIMATFIT
 70
     0
  9
$DIMFRAC
 70
     0
  9
$DIMLDRBLK
  1
Open30
  9
$DIMLUNIT
 70
     2
  9
$DIMLWD
 70
    -2
  9
$DIMLWE
 70
    -2
  9
$DIMTMOVE
 70
     0
  9
$LUNITS
 70
     2
  9
$LUPREC
 70
     4
  9
$SKETCHINC
 40
0.1
  9
$FILLETRAD
 40
0.0
  9
$AUNITS
 70
     0
  9
$AUPREC
 70
     0
  9
$MENU
  1
.
  9
$ELEVATION
 40
0.0
  9
$PELEVATION
 40
0.0
  9
$THICKNESS
 40
0.0
  9
$LIMCHECK
 70
     0
  9
$CHAMFERA
 40
0.0
  9
$CHAMFERB
 40
0.0
  9
$CHAMFERC
 40
0.0
  9
$CHAMFERD
 40
0.0
  9
$SKPOLY
 70
     0
  9
$TDCREATE
 40
2456214.631297234
  9
$TDUCREATE
 40
2456214.256297234
  9
$TDUPDATE
 40
2459893.496285185
  9
$TDUUPDATE
 40
2459893.121285185
  9
$TDINDWG
 40
0.1886267130
  9
$TDUSRTIMER
 40
0.1886265972
  9
$USRTIMER
 70
     1
  9
$ANGBASE
 50
0.0
  9
$ANGDIR
 70
     0
  9
$PDMODE
 70
     0
  9
$PDSIZE
 40
0.0
  9
$PLINEWID
 40
0.0
  9
$SPLFRAME
 70
     0
  9
$SPLINETYPE
 70
     6
  9
$SPLINESEGS
 70
     8
  9
$HANDSEED
  5
194E
  9
$SURFTAB1
 70
     6
  9
$SURFTAB2
 70
     6
  9
$SURFTYPE
 70
     6
  9
$SURFU
 70
     6
  9
$SURFV
 70
     6
  9
$UCSBASE
  2

  9
$UCSNAME
  2

  9
$UCSORG
 10
0.0
 20
0.0
 30
0.0
  9
$UCSXDIR
 10
1.0
 20
0.0
 30
0.0
  9
$UCSYDIR
 10
0.0
 20
1.0
 30
0.0
  9
$UCSORTHOREF
  2

  9
$UCSORTHOVIEW
 70
     0
  9
$UCSORGTOP
 10
0.0
 20
0.0
 30
0.0
  9
$UCSORGBOTTOM
 10
0.0
 20
0.0
 30
0.0
  9
$UCSORGLEFT
 10
0.0
 20
0.0
 30
0.0
  9
$UCSORGRIGHT
 10
0.0
 20
0.0
 30
0.0
  9
$UCSORGFRONT
 10
0.0
 20
0.0
 30
0.0
  9
$UCSORGBACK
 10
0.0
 20
0.0
 30
0.0
  9
$PUCSBASE
  2

  9
$PUCSNAME
  2

  9
$PUCSORG
 10
0.0
 20
0.0
 30
0.0
  9
$PUCSXDIR
 10
1.0
 20
0.0
 30
0.0
  9
$PUCSYDIR
 10
0.0
 20
1.0
 30
0.0
  9
$PUCSORTHOREF
  2

  9
$PUCSORTHOVIEW
 70
     0
  9
$PUCSORGTOP
 10
0.0
 20
0.0
 30
0.0
  9
$PUCSORGBOTTOM
 10
0.0
 20
0.0
 30
0.0
  9
$PUCSORGLEFT
 10
0.0
 20
0.0
 30
0.0
  9
$PUCSORGRIGHT
 10
0.0
 20
0.0
 30
0.0
  9
$PUCSORGFRONT
 10
0.0
 20
0.0
 30
0.0
  9
$PUCSORGBACK
 10
0.0
 20
0.0
 30
0.0
  9
$USERI1
 70
     0
  9
$USERI2
 70
     0
  9
$USERI3
 70
     0
  9
$USERI4
 70
     0
  9
$USERI5
 70
     0
  9
$USERR1
 40
0.0
  9
$USERR2
 40
0.0
  9
$USERR3
 40
0.0
  9
$USERR4
 40
0.0
  9
$USERR5
 40
0.0
  9
$WORLDVIEW
 70
     1
  9
$SHADEDGE
 70
     3
  9
$SHADEDIF
 70
    70
  9
$TILEMODE
 70
     1
  9
$MAXACTVP
 70
    64
  9
$PINSBASE
 10
0.0
 20
0.0
 30
0.0
  9
$PLIMCHECK
 70
     0
  9
$PEXTMIN
 10
1.000000000000000E+20
 20
1.000000000000000E+20
 30
1.000000000000000E+20
  9
$PEXTMAX
 10
-1.000000000000000E+20
 20
-1.000000000000000E+20
 30
-1.000000000000000E+20
  9
$PLIMMIN
 10
0.0
 20
0.0
  9
$PLIMMAX
 10
12.0
 20
9.0
  9
$UNITMODE
 70
     0
  9
$VISRETAIN
 70
     1
  9
$PLINEGEN
 70
     0
  9
$PSLTSCALE
 70
     1
  9
$TREEDEPTH
 70
  3020
  9
$CMLSTYLE
  2
Standard
  9
$CMLJUST
 70
     0
  9
$CMLSCALE
 40
1.0
  9
$PROXYGRAPHICS
 70
     1
  9
$MEASUREMENT
 70
     0
  9
$CELWEIGHT
370
    -1
  9
$ENDCAPS
280
     0
  9
$JOINSTYLE
280
     0
  9
$LWDISPLAY
290
     0
  9
$INSUNITS
 70
     0
  9
$HYPERLINKBASE
  1

  9
$STYLESHEET
  1

  9
$XEDIT
290
     1
  9
$CEPSNTYPE
380
     0
  9
$PSTYLEMODE
290
     1
  9
$FINGERPRINTGUID
  2
{3FA9941C-13A3-40A3-84FF-EFEED59DAC01}
  9
$VERSIONGUID
  2
{007E2135-12E2-43F6-A013-A71026432854}
  9
$EXTNAMES
290
     1
  9
$PSVPSCALE
 40
0.0
  9
$OLESTARTUP
290
     0
  0
ENDSEC
  0
SECTION
  2
CLASSES
  0
CLASS
  1
ACDBDICTIONARYWDFLT
  2
AcDbDictionaryWithDefault
  3
ObjectDBX Classes
 90
        0
280
     0
281
     0
  0
CLASS
  1
MATERIAL
  2
AcDbMaterial
  3
ObjectDBX Classes
 90
     1153
280
     0
281
     0
  0
CLASS
  1
VISUALSTYLE
  2
AcDbVisualStyle
  3
ObjectDBX Classes
 90
     4095
280
     0
281
     0
  0
CLASS
  1
SCALE
  2
AcDbScale
  3
ObjectDBX Classes
 90
     1153
280
     0
281
     0
  0
CLASS
  1
TABLESTYLE
  2
AcDbTableStyle
  3
ObjectDBX Classes
 90
     4095
280
     0
281
     0
  0
CLASS
  1
MLEADERSTYLE
  2
AcDbMLeaderStyle
  3
ACDB_MLEADERSTYLE_CLASS
 90
     4095
280
     0
281
     0
  0
CLASS
  1
SORTENTSTABLE
  2
AcDbSortentsTable
  3
ObjectDBX Classes
 90
        0
280
     0
281
     0
  0
CLASS
  1
DICTIONARYVAR
  2
AcDbDictionaryVar
  3
ObjectDBX Classes
 90
        0
280
     0
281
     0
  0
CLASS
  1
CELLSTYLEMAP
  2
AcDbCellStyleMap
  3
ObjectDBX Classes
 90
     1152
280
     0
281
     0
  0
CLASS
  1
ACDBPLACEHOLDER
  2
AcDbPlaceHolder
  3
ObjectDBX Classes
 90
        0
280
     0
281
     0
  0
CLASS
  1
LAYOUT
  2
AcDbLayout
  3
ObjectDBX Classes
 90
        0
280
     0
281
     0
  0
ENDSEC
  0
SECTION
  2
TABLES
  0
TABLE
  2
VPORT
  5
8
330
0
100
AcDbSymbolTable
 70
     1
  0
VPORT
  5
8B
330
8
100
AcDbSymbolTableRecord
100
AcDbViewportTableRecord
  2
*Active
 70
     0
 10
0.0
 20
0.0
 11
1.0
 21
1.0
 12
239.8396009065377
 22
-316.0646163806655
 13
0.0
 23
0.0
 14
1.0
 24
1.0
 15
0.0
 25
0.0
 16
0.0
 26
0.0
 36
1.0
 17
0.0
 27
0.0
 37
0.0
 40
546.0238206305311
 41
1.526243093922651
 42
50.0
 43
0.0
 44
0.0
 50
0.0
 51
0.0
 71
     0
 72
   100
 73
     1
 74
     1
 75
     0
 76
     0
 77
     0
 78
     0
281
     0
 65
     1
110
0.0
120
0.0
130
0.0
111
1.0
121
0.0
131
0.0
112
0.0
122
1.0
132
0.0
 79
     0
146
0.0
  0
ENDTAB
  0
TABLE
  2
LTYPE
  5
5
330
0
100
AcDbSymbolTable
 70
     2
  0
LTYPE
  5
5A
330
5
100
AcDbSymbolTableRecord
100
AcDbLinetypeTableRecord
  2
ByBlock
 70
     0
  3

 72
    65
 73
     0
 40
0.0
  0
LTYPE
  5
5B
330
5
100
AcDbSymbolTableRecord
100
AcDbLinetypeTableRecord
  2
ByLayer
 70
     0
  3

 72
    65
 73
     0
 40
0.0
  0
LTYPE
  5
5C
330
5
100
AcDbSymbolTableRecord
100
AcDbLinetypeTableRecord
  2
CONTINUOUS
 70
     0
  3
Solid-line
 72
    65
 73
     0
 40
0.0
  0
ENDTAB
  0
TABLE
  2
LAYER
  5
2
102
{ACAD_XDICTIONARY
360
477
102
}
330
0
100
AcDbSymbolTable
 70
     2
  0
LAYER
  5
54
102
{ACAD_XDICTIONARY
360
60D
102
}
330
2
100
AcDbSymbolTableRecord
100
AcDbLayerTableRecord
  2
0
 70
     0
 62
     7
  6
CONTINUOUS
370
    -3
390
F
  0
LAYER
  5
462
330
2
100
AcDbSymbolTableRecord
100
AcDbLayerTableRecord
  2
Defpoints
 70
     0
 62
     7
  6
CONTINUOUS
290
     0
370
    -3
390
F
  0
ENDTAB
  0
TABLE
  2
STYLE
  5
3
330
0
100
AcDbSymbolTable
 70
     6
  0
STYLE
  5
55
330
3
100
AcDbSymbolTableRecord
100
AcDbTextStyleTableRecord
  2
STANDARD
 70
     0
 40
0.0
 41
1.0
 50
0.0
 71
     0
 42
0.2
  3
TXT
  4
BIGFONT
  0
STYLE
  5
463
330
3
100
AcDbSymbolTableRecord
100
AcDbTextStyleTableRecord
  2
高3.2
 70
     0
 40
3.2
 41
1.0
 50
0.0
 71
     0
 42
3.2
  3
txt.shx
  4
bigfont.shx
  0
STYLE
  5
464
330
3
100
AcDbSymbolTableRecord
100
AcDbTextStyleTableRecord
  2
高6.3
 70
     0
 40
6.299999999999998
 41
1.0
 50
0.0
 71
     0
 42
6.299999999999998
  3
txt.shx
  4
bigfont.shx
  0
STYLE
  5
465
330
3
100
AcDbSymbolTableRecord
100
AcDbTextStyleTableRecord
  2
高2.5
 70
     0
 40
2.5
 41
1.0
 50
0.0
 71
     0
 42
0.2
  3
txt.shx
  4
bigfont.shx
  0
STYLE
  5
466
330
3
100
AcDbSymbolTableRecord
100
AcDbTextStyleTableRecord
  2
高4.5
 70
     0
 40
4.5
 41
1.0
 50
0.0
 71
     0
 42
6.299999999999998
  3
txt.shx
  4
bigfont.shx
  0
STYLE
  5
467
330
3
100
AcDbSymbolTableRecord
100
AcDbTextStyleTableRecord
  2
高2
 70
     0
 40
2.0
 41
1.0
 50
0.0
 71
     0
 42
2.0
  3
txt.shx
  4
bigfont.shx
  0
ENDTAB
  0
TABLE
  2
VIEW
  5
6
330
0
100
AcDbSymbolTable
 70
     0
  0
ENDTAB
  0
TABLE
  2
UCS
  5
7
330
0
100
AcDbSymbolTable
 70
     0
  0
ENDTAB
  0
TABLE
  2
APPID
  5
9
330
0
100
AcDbSymbolTable
 70
    13
  0
APPID
  5
56
330
9
100
AcDbSymbolTableRecord
100
AcDbRegAppTableRecord
  2
ACAD
 70
     0
  0
APPID
  5
5D
330
9
100
AcDbSymbolTableRecord
100
AcDbRegAppTableRecord
  2
AcadAnnotative
 70
     0
  0
APPID
  5
472
330
9
100
AcDbSymbolTableRecord
100
AcDbRegAppTableRecord
  2
ACAD_DSTYLE_DIMJOGGED_JOGANGLE_SYMBOL
 70
     0
  0
APPID
  5
473
330
9
100
AcDbSymbolTableRecord
100
AcDbRegAppTableRecord
  2
ACAD_DSTYLE_DIMJAG
 70
     0
  0
APPID
  5
474
330
9
100
AcDbSymbolTableRecord
100
AcDbRegAppTableRecord
  2
ACAD_DSTYLE_DIMBREAK
 70
     0
  0
APPID
  5
475
330
9
100
AcDbSymbolTableRecord
100
AcDbRegAppTableRecord
  2
ACAD_DSTYLE_DIMTALN
 70
     0
  0
APPID
  5
5B7
330
9
100
AcDbSymbolTableRecord
100
AcDbRegAppTableRecord
  2
ACAD_EXEMPT_FROM_CAD_STANDARDS
 70
     0
  0
APPID
  5
655
330
9
100
AcDbSymbolTableRecord
100
AcDbRegAppTableRecord
  2
ACAD_MLEADERVER
 70
     0
  0
APPID
  5
65A
330
9
100
AcDbSymbolTableRecord
100
AcDbRegAppTableRecord
  2
ACAD_DSTYLE_DIMARC_LENGTH_SYMBOL
 70
     0
  0
APPID
  5
65B
330
9
100
AcDbSymbolTableRecord
100
AcDbRegAppTableRecord
  2
ACAD_DSTYLE_DIMEXT_LENGTH
 70
     0
  0
APPID
  5
6F4
330
9
100
AcDbSymbolTableRecord
100
AcDbRegAppTableRecord
  2
GradientColor1ACI
 70
     0
  0
APPID
  5
6F5
330
9
100
AcDbSymbolTableRecord
100
AcDbRegAppTableRecord
  2
GradientColor2ACI
 70
     0
  0
APPID
  5
6F6
330
9
100
AcDbSymbolTableRecord
100
AcDbRegAppTableRecord
  2
ACAD_PSEXT
 70
     0
  0
ENDTAB
  0
TABLE
  2
DIMSTYLE
  5
A
330
0
100
AcDbSymbolTable
 70
     2
100
AcDbDimStyleTable
 71
     1
340
46C
  0
DIMSTYLE
105
57
330
A
100
AcDbSymbolTableRecord
100
AcDbDimStyleTableRecord
  2
Standard
 70
     0
340
55
  0
DIMSTYLE
105
46C
330
A
100
AcDbSymbolTableRecord
100
AcDbDimStyleTableRecord
  2
1／2
 70
     0
 41
2.5
 42
0.25
 43
0.2
 44
1.25
 73
     0
 74
     0
 77
     3
 78
     8
 79
     2
140
3.0
141
0.0
143
0.03937007874016
144
2.0
147
0.625
171
     3
172
     1
178
     4
179
     1
271
     2
272
     2
274
     3
283
     0
284
     8
288
     1
289
     0
340
55
341
3D2
342
3D2
1001
ACAD_DSTYLE_DIMARC_LENGTH_SYMBOL
1070
   379
1070
     2
1001
ACAD_DSTYLE_DIMEXT_LENGTH
1070
   378
1040
1.25
1001
ACAD_DSTYLE_DIMJOGGED_JOGANGLE_SYMBOL
1070
   384
1040
1.570796326794896
  0
ENDTAB
  0
TABLE
  2
BLOCK_RECORD
  5
1
330
0
100
AcDbSymbolTable
 70
     7
  0
BLOCK_RECORD
  5
6B
102
{ACAD_XDICTIONARY
360
5FC
102
}
330
1
100
AcDbSymbolTableRecord
100
AcDbBlockTableRecord
  2
*Model_Space
340
6E
  0
BLOCK_RECORD
  5
67
330
1
100
AcDbSymbolTableRecord
100
AcDbBlockTableRecord
  2
*Paper_Space
340
6A
  0
BLOCK_RECORD
  5
3D2
330
1
100
AcDbSymbolTableRecord
100
AcDbBlockTableRecord
  2
_Open30
340
0
102
{BLKREFS
331
17AE
331
17AF
331
17B7
331
17B8
331
17C0
331
17C1
331
17C9
331
17CA
331
17D2
331
17D3
331
17DB
331
17DC
102
}
  0
BLOCK_RECORD
  5
1282
330
1
100
AcDbSymbolTableRecord
100
AcDbBlockTableRecord
  2
*D1
340
0
  0
BLOCK_RECORD
  5
12A7
330
1
100
AcDbSymbolTableRecord
100
AcDbBlockTableRecord
  2
*D2
340
0
  0
BLOCK_RECORD
  5
12E3
330
1
100
AcDbSymbolTableRecord
100
AcDbBlockTableRecord
  2
*D3
340
0
  0
BLOCK_RECORD
  5
12F0
330
1
100
AcDbSymbolTableRecord
100
AcDbBlockTableRecord
  2
*D4
340
0
  0
BLOCK_RECORD
  5
1323
330
1
100
AcDbSymbolTableRecord
100
AcDbBlockTableRecord
  2
*D5
340
0
  0
BLOCK_RECORD
  5
135A
330
1
100
AcDbSymbolTableRecord
100
AcDbBlockTableRecord
  2
*D6
340
0
  0
ENDTAB
  0
ENDSEC
  0
SECTION
  2
BLOCKS
  0
BLOCK
  5
6C
330
6B
100
AcDbEntity
  8
0
100
AcDbBlockBegin
  2
*Model_Space
 70
     0
 10
0.0
 20
0.0
 30
0.0
  3
*Model_Space
  1

  0
ENDBLK
  5
6D
330
6B
100
AcDbEntity
  8
0
100
AcDbBlockEnd
  0
BLOCK
  5
68
330
67
100
AcDbEntity
 67
     1
  8
0
100
AcDbBlockBegin
  2
*Paper_Space
 70
     0
 10
0.0
 20
0.0
 30
0.0
  3
*Paper_Space
  1

  0
ENDBLK
  5
69
330
67
100
AcDbEntity
 67
     1
  8
0
100
AcDbBlockEnd
  0
BLOCK
  5
3D3
330
3D2
100
AcDbEntity
  8
0
100
AcDbBlockBegin
  2
_Open30
 70
     0
 10
0.0
 20
0.0
 30
0.0
  3
_Open30
  1

  0
LINE
  5
3D4
330
3D2
100
AcDbEntity
  8
0
  6
ByBlock
 62
     0
370
    -2
100
AcDbLine
 10
-1.0
 20
0.267949
 30
0.0
 11
0.0
 21
0.0
 31
0.0
  0
LINE
  5
3D5
330
3D2
100
AcDbEntity
  8
0
  6
ByBlock
 62
     0
370
    -2
100
AcDbLine
 10
0.0
 20
0.0
 30
0.0
 11
-1.0
 21
-0.267949
 31
0.0
  0
LINE
  5
3D6
330
3D2
100
AcDbEntity
  8
0
  6
ByBlock
 62
     0
370
    -2
100
AcDbLine
 10
0.0
 20
0.0
 30
0.0
 11
-1.0
 21
0.0
 31
0.0
  0
ENDBLK
  5
3D7
330
3D2
100
AcDbEntity
  8
0
100
AcDbBlockEnd
  0
BLOCK
  5
1283
330
1282
100
AcDbEntity
  8
0
100
AcDbBlockBegin
  2
*D1
 70
     1
 10
0.0
 20
0.0
 30
0.0
  3
*D1
  1

  0
LINE
  5
17A9
330
1282
100
AcDbEntity
  8
0
 62
     0
370
    -2
100
AcDbLine
 10
166.7097078145229
 20
-327.8416596409075
 30
0.0
 11
201.4594537675105
 21
-327.8416596409075
 31
0.0
  0
LINE
  5
17AA
330
1282
100
AcDbEntity
  8
0
 62
     0
370
    -2
100
AcDbLine
 10
175.709707814523
 20
-321.8416596409074
 30
0.0
 11
201.4594537675105
 21
-321.8416596409074
 31
0.0
  0
LINE
  5
17AB
330
1282
100
AcDbEntity
  8
0
 62
     0
370
    -2
100
AcDbLine
 10
200.2094537675106
 20
-319.3416596409074
 30
0.0
 11
200.2094537675106
 21
-316.8416596409074
 31
0.0
  0
LINE
  5
17AC
330
1282
100
AcDbEntity
  8
0
 62
     0
370
    -2
100
AcDbLine
 10
200.2094537675105
 20
-330.3416596409075
 30
0.0
 11
200.2094537675105
 21
-338.0916596409075
 31
0.0
  0
LINE
  5
17AD
330
1282
100
AcDbEntity
  8
0
 62
     0
370
    -2
100
AcDbLine
 10
200.2094537675105
 20
-321.8416596409074
 30
0.0
 11
200.2094537675105
 21
-327.8416596409075
 31
0.0
  0
INSERT
  5
17AE
330
1282
100
AcDbEntity
  8
0
 62
     0
370
    -2
100
AcDbBlockReference
  2
_Open30
 10
200.2094537675105
 20
-321.8416596409074
 30
0.0
 41
2.5
 42
2.5
 43
2.5
 50
270.0
  0
INSERT
  5
17AF
330
1282
100
AcDbEntity
  8
0
 62
     0
370
    -2
100
AcDbBlockReference
  2
_Open30
 10
200.2094537675105
 20
-327.8416596409075
 30
0.0
 41
2.5
 42
2.5
 43
2.5
 50
90.0
  0
MTEXT
  5
17B0
330
1282
100
AcDbEntity
  8
0
 62
     4
100
AcDbMText
 10
198.0844537675106
 20
-335.4666596409074
 30
0.0
 40
3.0
 41
0.0
 71
     5
 72
     1
  1
12
 11
0.0000000000000001
 21
1.0
 31
0.0
 73
     1
 44
1.0
1001
ACAD
1000
MTEXTBEGIN
1070
    73
1070
     1
1070
    44
1040
1.0
1070
    74
1070
     0
1000
MTEXTEND
  0
POINT
  5
17B1
330
1282
100
AcDbEntity
  8
Defpoints
 62
     0
100
AcDbPoint
 10
166.4597078145229
 20
-327.8416596409075
 30
0.0
  0
POINT
  5
17B2
330
1282
100
AcDbEntity
  8
Defpoints
 62
     0
100
AcDbPoint
 10
175.459707814523
 20
-321.8416596409074
 30
0.0
  0
POINT
  5
17B3
330
1282
100
AcDbEntity
  8
Defpoints
 62
     0
100
AcDbPoint
 10
200.2094537675105
 20
-321.8416596409074
 30
0.0
  0
ENDBLK
  5
1284
330
1282
100
AcDbEntity
  8
0
100
AcDbBlockEnd
  0
BLOCK
  5
12A8
330
12A7
100
AcDbEntity
  8
0
100
AcDbBlockBegin
  2
*D2
 70
     1
 10
0.0
 20
0.0
 30
0.0
  3
*D2
  1

  0
LINE
  5
17B4
330
12A7
100
AcDbEntity
  8
0
 62
     0
370
    -2
100
AcDbLine
 10
175.459707814523
 20
-322.0916596409074
 30
0.0
 11
175.459707814523
 21
-344.2728865538819
 31
0.0
  0
LINE
  5
17B5
330
12A7
100
AcDbEntity
  8
0
 62
     0
370
    -2
100
AcDbLine
 10
65.45970781452297
 20
-322.0916596409074
 30
0.0
 11
65.45970781452297
 21
-344.2728865538819
 31
0.0
  0
LINE
  5
17B6
330
12A7
100
AcDbEntity
  8
0
 62
     0
370
    -2
100
AcDbLine
 10
172.959707814523
 20
-343.022886553882
 30
0.0
 11
67.95970781452297
 21
-343.022886553882
 31
0.0
  0
INSERT
  5
17B7
330
12A7
100
AcDbEntity
  8
0
 62
     0
370
    -2
100
AcDbBlockReference
  2
_Open30
 10
175.459707814523
 20
-343.022886553882
 30
0.0
 41
2.5
 42
2.5
 43
2.5
  0
INSERT
  5
17B8
330
12A7
100
AcDbEntity
  8
0
 62
     0
370
    -2
100
AcDbBlockReference
  2
_Open30
 10
65.45970781452297
 20
-343.022886553882
 30
0.0
 41
2.5
 42
2.5
 43
2.5
 50
180.0
  0
MTEXT
  5
17B9
330
12A7
100
AcDbEntity
  8
0
 62
     4
100
AcDbMText
 10
118.0407972005596
 20
-340.897886553882
 30
0.0
 40
3.0
 41
0.0
 71
     5
 72
     1
  1
220
 73
     1
 44
1.0
1001
ACAD
1000
MTEXTBEGIN
1070
    73
1070
     1
1070
    44
1040
1.0
1070
    74
1070
     0
1000
MTEXTEND
  0
POINT
  5
17BA
330
12A7
100
AcDbEntity
  8
Defpoints
 62
     0
100
AcDbPoint
 10
175.459707814523
 20
-321.8416596409074
 30
0.0
  0
POINT
  5
17BB
330
12A7
100
AcDbEntity
  8
Defpoints
 62
     0
100
AcDbPoint
 10
65.45970781452297
 20
-321.8416596409074
 30
0.0
  0
POINT
  5
17BC
330
12A7
100
AcDbEntity
  8
Defpoints
 62
     0
100
AcDbPoint
 10
65.45970781452297
 20
-343.022886553882
 30
0.0
  0
ENDBLK
  5
12A9
330
12A7
100
AcDbEntity
  8
0
100
AcDbBlockEnd
  0
BLOCK
  5
12E4
330
12E3
100
AcDbEntity
  8
0
100
AcDbBlockBegin
  2
*D3
 70
     1
 10
0.0
 20
0.0
 30
0.0
  3
*D3
  1

  0
LINE
  5
17BD
330
12E3
100
AcDbEntity
  8
0
 62
     0
370
    -2
100
AcDbLine
 10
226.5247844607434
 20
-314.5916596409074
 30
0.0
 11
226.5247844607434
 21
-231.1288952555262
 31
0.0
  0
LINE
  5
17BE
330
12E3
100
AcDbEntity
  8
0
 62
     0
370
    -2
100
AcDbLine
 10
324.2747844607434
 20
-251.0916596409074
 30
0.0
 11
324.2747844607434
 21
-231.1288952555262
 31
0.0
  0
LINE
  5
17BF
330
12E3
100
AcDbEntity
  8
0
 62
     0
370
    -2
100
AcDbLine
 10
229.0247844607434
 20
-232.3788952555262
 30
0.0
 11
321.7747844607434
 21
-232.3788952555262
 31
0.0
  0
INSERT
  5
17C0
330
12E3
100
AcDbEntity
  8
0
 62
     0
370
    -2
100
AcDbBlockReference
  2
_Open30
 10
226.5247844607434
 20
-232.3788952555262
 30
0.0
 41
2.5
 42
2.5
 43
2.5
 50
180.0
  0
INSERT
  5
17C1
330
12E3
100
AcDbEntity
  8
0
 62
     0
370
    -2
100
AcDbBlockReference
  2
_Open30
 10
324.2747844607434
 20
-232.3788952555262
 30
0.0
 41
2.5
 42
2.5
 43
2.5
  0
MTEXT
  5
17C2
330
12E3
100
AcDbEntity
  8
0
 62
     4
100
AcDbMText
 10
278.9048394355154
 20
-230.2538952555262
 30
0.0
 40
3.0
 41
0.0
 71
     5
 72
     1
  1
195.5
 73
     1
 44
1.0
1001
ACAD
1000
MTEXTBEGIN
1070
    73
1070
     1
1070
    44
1040
1.0
1070
    74
1070
     0
1000
MTEXTEND
  0
POINT
  5
17C3
330
12E3
100
AcDbEntity
  8
Defpoints
 62
     0
100
AcDbPoint
 10
226.5247844607434
 20
-314.8416596409074
 30
0.0
  0
POINT
  5
17C4
330
12E3
100
AcDbEntity
  8
Defpoints
 62
     0
100
AcDbPoint
 10
324.2747844607434
 20
-251.3416596409074
 30
0.0
  0
POINT
  5
17C5
330
12E3
100
AcDbEntity
  8
Defpoints
 62
     0
100
AcDbPoint
 10
324.2747844607434
 20
-232.3788952555262
 30
0.0
  0
ENDBLK
  5
12E5
330
12E3
100
AcDbEntity
  8
0
100
AcDbBlockEnd
  0
BLOCK
  5
12F1
330
12F0
100
AcDbEntity
  8
0
100
AcDbBlockBegin
  2
*D4
 70
     1
 10
0.0
 20
0.0
 30
0.0
  3
*D4
  1

  0
LINE
  5
17C6
330
12F0
100
AcDbEntity
  8
0
 62
     0
370
    -2
100
AcDbLine
 10
324.2747844607434
 20
-322.0916596409074
 30
0.0
 11
324.2747844607434
 21
-343.7241531932392
 31
0.0
  0
LINE
  5
17C7
330
12F0
100
AcDbEntity
  8
0
 62
     0
370
    -2
100
AcDbLine
 10
229.2747844607434
 20
-314.5916596409074
 30
0.0
 11
229.2747844607434
 21
-343.7241531932392
 31
0.0
  0
LINE
  5
17C8
330
12F0
100
AcDbEntity
  8
0
 62
     0
370
    -2
100
AcDbLine
 10
321.7747844607434
 20
-342.4741531932391
 30
0.0
 11
231.7747844607434
 21
-342.4741531932391
 31
0.0
  0
INSERT
  5
17C9
330
12F0
100
AcDbEntity
  8
0
 62
     0
370
    -2
100
AcDbBlockReference
  2
_Open30
 10
324.2747844607434
 20
-342.4741531932391
 30
0.0
 41
2.5
 42
2.5
 43
2.5
  0
INSERT
  5
17CA
330
12F0
100
AcDbEntity
  8
0
 62
     0
370
    -2
100
AcDbBlockReference
  2
_Open30
 10
229.2747844607434
 20
-342.4741531932391
 30
0.0
 41
2.5
 42
2.5
 43
2.5
 50
180.0
  0
MTEXT
  5
17CB
330
12F0
100
AcDbEntity
  8
0
 62
     4
100
AcDbMText
 10
275.9536771594207
 20
-340.3491531932392
 30
0.0
 40
3.0
 41
0.0
 71
     5
 72
     1
  1
190
 73
     1
 44
1.0
1001
ACAD
1000
MTEXTBEGIN
1070
    73
1070
     1
1070
    44
1040
1.0
1070
    74
1070
     0
1000
MTEXTEND
  0
POINT
  5
17CC
330
12F0
100
AcDbEntity
  8
Defpoints
 62
     0
100
AcDbPoint
 10
324.2747844607434
 20
-321.8416596409074
 30
0.0
  0
POINT
  5
17CD
330
12F0
100
AcDbEntity
  8
Defpoints
 62
     0
100
AcDbPoint
 10
229.2747844607434
 20
-314.3416596409074
 30
0.0
  0
POINT
  5
17CE
330
12F0
100
AcDbEntity
  8
Defpoints
 62
     0
100
AcDbPoint
 10
229.2747844607434
 20
-342.4741531932391
 30
0.0
  0
ENDBLK
  5
12F2
330
12F0
100
AcDbEntity
  8
0
100
AcDbBlockEnd
  0
BLOCK
  5
1324
330
1323
100
AcDbEntity
  8
0
100
AcDbBlockBegin
  2
*D5
 70
     1
 10
0.0
 20
0.0
 30
0.0
  3
*D5
  1

  0
LINE
  5
17CF
330
1323
100
AcDbEntity
  8
0
 62
     0
370
    -2
100
AcDbLine
 10
175.709707814523
 20
-321.8416596409074
 30
0.0
 11
201.4594537675106
 21
-321.8416596409074
 31
0.0
  0
LINE
  5
17D0
330
1323
100
AcDbEntity
  8
0
 62
     0
370
    -2
100
AcDbLine
 10
172.2097078145229
 20
-251.3416596409074
 30
0.0
 11
201.4594537675107
 21
-251.3416596409074
 31
0.0
  0
LINE
  5
17D1
330
1323
100
AcDbEntity
  8
0
 62
     0
370
    -2
100
AcDbLine
 10
200.2094537675107
 20
-319.3416596409074
 30
0.0
 11
200.2094537675107
 21
-253.8416596409074
 31
0.0
  0
INSERT
  5
17D2
330
1323
100
AcDbEntity
  8
0
 62
     0
370
    -2
100
AcDbBlockReference
  2
_Open30
 10
200.2094537675106
 20
-321.8416596409074
 30
0.0
 41
2.5
 42
2.5
 43
2.5
 50
270.0
  0
INSERT
  5
17D3
330
1323
100
AcDbEntity
  8
0
 62
     0
370
    -2
100
AcDbBlockReference
  2
_Open30
 10
200.2094537675107
 20
-251.3416596409074
 30
0.0
 41
2.5
 42
2.5
 43
2.5
 50
90.0
  0
MTEXT
  5
17D4
330
1323
100
AcDbEntity
  8
0
 62
     4
100
AcDbMText
 10
198.0844537675107
 20
-289.6831207105718
 30
0.0
 40
3.0
 41
0.0
 71
     5
 72
     1
  1
141
 11
0.0000000000000001
 21
1.0
 31
0.0
 73
     1
 44
1.0
1001
ACAD
1000
MTEXTBEGIN
1070
    73
1070
     1
1070
    44
1040
1.0
1070
    74
1070
     0
1000
MTEXTEND
  0
POINT
  5
17D5
330
1323
100
AcDbEntity
  8
Defpoints
 62
     0
100
AcDbPoint
 10
175.459707814523
 20
-321.8416596409074
 30
0.0
  0
POINT
  5
17D6
330
1323
100
AcDbEntity
  8
Defpoints
 62
     0
100
AcDbPoint
 10
171.9597078145229
 20
-251.3416596409074
 30
0.0
  0
POINT
  5
17D7
330
1323
100
AcDbEntity
  8
Defpoints
 62
     0
100
AcDbPoint
 10
200.2094537675107
 20
-251.3416596409074
 30
0.0
  0
ENDBLK
  5
1325
330
1323
100
AcDbEntity
  8
0
100
AcDbBlockEnd
  0
BLOCK
  5
135B
330
135A
100
AcDbEntity
  8
0
100
AcDbBlockBegin
  2
*D6
 70
     1
 10
0.0
 20
0.0
 30
0.0
  3
*D6
  1

  0
LINE
  5
17D8
330
135A
100
AcDbEntity
  8
0
 62
     0
370
    -2
100
AcDbLine
 10
166.7097078145229
 20
-327.8416596409075
 30
0.0
 11
209.7756090734218
 21
-327.8416596409075
 31
0.0
  0
LINE
  5
17D9
330
135A
100
AcDbEntity
  8
0
 62
     0
370
    -2
100
AcDbLine
 10
144.164622842648
 20
-236.3416596409074
 30
0.0
 11
209.7756090734219
 21
-236.3416596409074
 31
0.0
  0
LINE
  5
17DA
330
135A
100
AcDbEntity
  8
0
 62
     0
370
    -2
100
AcDbLine
 10
208.5256090734219
 20
-325.3416596409075
 30
0.0
 11
208.5256090734219
 21
-238.8416596409074
 31
0.0
  0
INSERT
  5
17DB
330
135A
100
AcDbEntity
  8
0
 62
     0
370
    -2
100
AcDbBlockReference
  2
_Open30
 10
208.5256090734219
 20
-327.8416596409075
 30
0.0
 41
2.5
 42
2.5
 43
2.5
 50
270.0
  0
INSERT
  5
17DC
330
135A
100
AcDbEntity
  8
0
 62
     0
370
    -2
100
AcDbBlockReference
  2
_Open30
 10
208.5256090734219
 20
-236.3416596409074
 30
0.0
 41
2.5
 42
2.5
 43
2.5
 50
90.0
  0
MTEXT
  5
17DD
330
135A
100
AcDbEntity
  8
0
 62
     4
100
AcDbMText
 10
206.4006090734219
 20
-285.3231109995902
 30
0.0
 40
3.0
 41
0.0
 71
     5
 72
     1
  1
183
 11
0.0000000000000001
 21
1.0
 31
0.0
 73
     1
 44
1.0
1001
ACAD
1000
MTEXTBEGIN
1070
    73
1070
     1
1070
    44
1040
1.0
1070
    74
1070
     0
1000
MTEXTEND
  0
POINT
  5
17DE
330
135A
100
AcDbEntity
  8
Defpoints
 62
     0
100
AcDbPoint
 10
166.4597078145229
 20
-327.8416596409075
 30
0.0
  0
POINT
  5
17DF
330
135A
100
AcDbEntity
  8
Defpoints
 62
     0
100
AcDbPoint
 10
143.914622842648
 20
-236.3416596409074
 30
0.0
  0
POINT
  5
17E0
330
135A
100
AcDbEntity
  8
Defpoints
 62
     0
100
AcDbPoint
 10
208.5256090734219
 20
-236.3416596409074
 30
0.0
  0
ENDBLK
  5
135C
330
135A
100
AcDbEntity
  8
0
100
AcDbBlockEnd
  0
ENDSEC
  0
SECTION
  2
ENTITIES
  0
LINE
  5
D3
330
6B
100
AcDbEntity
  8
0
 62
     3
100
AcDbLine
 10
20.318936
 20
-183.90941
 30
0.0
 11
20.318936
 21
-457.9647709999998
 31
0.0
  0
LINE
  5
D4
330
6B
100
AcDbEntity
  8
0
 62
     3
100
AcDbLine
 10
20.318936
 20
-183.90941
 30
0.0
 11
410.318936
 21
-183.90941
 31
0.0
  0
LINE
  5
D5
330
6B
100
AcDbEntity
  8
0
 62
     3
100
AcDbLine
 10
410.318936
 20
-457.9647709999998
 30
0.0
 11
20.318936
 21
-457.9647709999998
 31
0.0
  0
LINE
  5
D8
330
6B
100
AcDbEntity
  8
0
 62
     3
100
AcDbLine
 10
410.318936
 20
-183.90941
 30
0.0
 11
410.318936
 21
-457.9647709999997
 31
0.0
  0
TEXT
  5
DF
330
6B
100
AcDbEntity
  8
0
 62
     3
100
AcDbText
 10
316.744321
 20
-440.0585419999998
 30
0.0
 40
3.2
  1
別　掲
  7
高3.2
100
AcDbText
  0
TEXT
  5
1B3
330
6B
100
AcDbEntity
  8
0
 62
     3
100
AcDbText
 10
375.037155
 20
-447.343749
 30
0.0
 40
3.2
  1
2006.2.20
  7
高3.2
100
AcDbText
  0
LINE
  5
1D5
330
6B
100
AcDbEntity
  8
0
 62
     7
100
AcDbLine
 10
20.318936
 20
-412.9647717071891
 30
0.0
 11
189.7638423082038
 21
-412.9647717071891
 31
0.0
  0
LINE
  5
249
330
6B
100
AcDbEntity
  8
0
 62
     3
100
AcDbLine
 10
384.619573
 20
-441.299048
 30
0.0
 11
384.619573
 21
-418.2990479999999
 31
0.0
  0
LINE
  5
24B
330
6B
100
AcDbEntity
  8
0
 62
     3
100
AcDbLine
 10
331.565963
 20
-448.299048
 30
0.0
 11
331.565963
 21
-434.299048
 31
0.0
  0
TEXT
  5
24D
330
6B
100
AcDbEntity
  8
0
 62
     3
100
AcDbText
 10
360.629891
 20
-422.093932
 30
0.0
 40
2.0
  1
A
 41
0.7
100
AcDbText
  0
TEXT
  5
24E
330
6B
100
AcDbEntity
  8
0
 62
     3
100
AcDbText
 10
363.165177
 20
-422.093932
 30
0.0
 40
2.0
  1
P
 41
0.7
100
AcDbText
  0
TEXT
  5
24F
330
6B
100
AcDbEntity
  8
0
 62
     3
100
AcDbText
 10
365.700463
 20
-422.093932
 30
0.0
 40
2.0
  1
P
 41
0.7
100
AcDbText
  0
TEXT
  5
250
330
6B
100
AcDbEntity
  8
0
 62
     3
100
AcDbText
 10
368.235749
 20
-422.093932
 30
0.0
 40
2.0
  1
D
 41
0.7
100
AcDbText
  0
TEXT
  5
251
330
6B
100
AcDbEntity
  8
0
 62
     3
100
AcDbText
 10
373.604433
 20
-422.093932
 30
0.0
 40
2.0
  1
C
 41
0.7
100
AcDbText
  0
TEXT
  5
252
330
6B
100
AcDbEntity
  8
0
 62
     3
100
AcDbText
 10
376.139719
 20
-422.093932
 30
0.0
 40
2.0
  1
H
 41
0.7
100
AcDbText
  0
TEXT
  5
253
330
6B
100
AcDbEntity
  8
0
 62
     3
100
AcDbText
 10
378.675005
 20
-422.093932
 30
0.0
 40
2.0
  1
C
 41
0.7
100
AcDbText
  0
TEXT
  5
254
330
6B
100
AcDbEntity
  8
0
 62
     3
100
AcDbText
 10
381.2102910000001
 20
-422.093932
 30
0.0
 40
2.0
  1
K
 41
0.7
100
AcDbText
  0
TEXT
  5
255
330
6B
100
AcDbEntity
  8
0
 62
     3
100
AcDbText
 10
386.884258
 20
-422.093932
 30
0.0
 40
2.0
  1
DESN
 41
1.216762999999998
100
AcDbText
  0
TEXT
  5
256
330
6B
100
AcDbEntity
  8
0
 62
     3
100
AcDbText
 10
301.877899
 20
-451.4404299999998
 30
0.0
 40
2.0
  1
NICHIDO IND.CO.LTD
 41
1.274876
100
AcDbText
  0
LINE
  5
257
330
6B
100
AcDbEntity
  8
0
 62
     3
100
AcDbLine
 10
312.260928
 20
-418.2990479999999
 30
0.0
 11
312.260928
 21
-441.299048
 31
0.0
  0
LINE
  5
258
330
6B
100
AcDbEntity
  8
0
 62
     3
100
AcDbLine
 10
358.6195730000002
 20
-418.2990479999999
 30
0.0
 11
358.619573
 21
-457.9647709999998
 31
0.0
  0
LINE
  5
25D
330
6B
100
AcDbEntity
  8
0
 62
     3
100
AcDbLine
 10
371.619573
 20
-418.2990479999999
 30
0.0
 11
371.619573
 21
-448.299048
 31
0.0
  0
TEXT
  5
25E
330
6B
100
AcDbEntity
  8
0
 62
     3
100
AcDbText
 10
359.732017
 20
-447.434361
 30
0.0
 40
3.2
  1
作成日
 41
1.017225999999997
100
AcDbText
  0
LINE
  5
25F
330
6B
100
AcDbEntity
  8
0
 62
     3
100
AcDbLine
 10
410.318936
 20
-418.2990479999999
 30
0.0
 11
299.015494
 21
-418.2990479999999
 31
0.0
  0
LINE
  5
260
330
6B
100
AcDbEntity
  8
0
 62
     3
100
AcDbLine
 10
397.619573
 20
-441.299048
 30
0.0
 11
397.619573
 21
-418.2990479999999
 31
0.0
  0
TEXT
  5
261
330
6B
100
AcDbEntity
  8
0
 62
     3
100
AcDbText
 10
400.943376
 20
-422.0081129999998
 30
0.0
 40
1.8
  1
D
 41
0.666667
100
AcDbText
  0
TEXT
  5
262
330
6B
100
AcDbEntity
  8
0
 62
     3
100
AcDbText
 10
403.760004
 20
-422.0081129999998
 30
0.0
 40
1.8
  1
E
 41
0.666667
100
AcDbText
  0
TEXT
  5
263
330
6B
100
AcDbEntity
  8
0
 62
     3
100
AcDbText
 10
406.5766319999998
 20
-422.0081129999998
 30
0.0
 40
1.8
  1
F
 41
0.666667
100
AcDbText
  0
TEXT
  5
264
330
6B
100
AcDbEntity
  8
0
 62
     3
100
AcDbText
 10
400.943376
 20
-426.000667
 30
0.0
 40
3.2
  1
製図
 41
1.076369
100
AcDbText
  0
LINE
  5
265
330
6B
100
AcDbEntity
  8
0
 62
     3
100
AcDbLine
 10
299.015494
 20
-418.2990479999999
 30
0.0
 11
299.015494
 21
-457.9647709999998
 31
0.0
  0
TEXT
  5
266
330
6B
100
AcDbEntity
  8
0
 62
     3
100
AcDbText
 10
300.392146
 20
-457.632305
 30
0.0
 40
5.0
  1
日動工業株式会社
 41
0.833333
100
AcDbText
  0
LINE
  5
267
330
6B
100
AcDbEntity
  8
0
 62
     3
100
AcDbLine
 10
341.8978980000001
 20
-434.2990480000001
 30
0.0
 11
341.897898
 21
-457.9647709999998
 31
0.0
  0
LINE
  5
268
330
6B
100
AcDbEntity
  8
0
 62
     3
100
AcDbLine
 10
341.897898
 20
-453.131909
 30
0.0
 11
358.619573
 21
-453.131909
 31
0.0
  0
TEXT
  5
269
330
6B
100
AcDbEntity
  8
0
 62
     3
100
AcDbText
 10
342.4845
 20
-452.3154789999998
 30
0.0
 40
3.2
  1
出図コード
 41
0.8356860000000001
100
AcDbText
  0
LINE
  5
26B
330
6B
100
AcDbEntity
  8
0
 62
     3
100
AcDbLine
 10
299.015494
 20
-448.299048
 30
0.0
 11
410.318936
 21
-448.299048
 31
0.0
  0
LINE
  5
26D
330
6B
100
AcDbEntity
  8
0
 62
     3
100
AcDbLine
 10
299.015494
 20
-427.299048
 30
0.0
 11
410.318936
 21
-427.299048
 31
0.0
  0
LINE
  5
273
330
6B
100
AcDbEntity
  8
0
 62
     3
100
AcDbLine
 10
299.015494
 20
-434.299048
 30
0.0
 11
358.619573
 21
-434.299048
 31
0.0
  0
LINE
  5
279
330
6B
100
AcDbEntity
  8
0
 62
     3
100
AcDbLine
 10
299.015494
 20
-441.299048
 30
0.0
 11
410.318936
 21
-441.299048
 31
0.0
  0
TEXT
  5
27A
330
6B
100
AcDbEntity
  8
0
 62
     3
100
AcDbText
 10
342.351951
 20
-457.3870533587045
 30
0.0
 40
3.2
  1
ZK-A3X
 41
0.8112849999999999
100
AcDbText
  0
TEXT
  5
27B
330
6B
100
AcDbEntity
  8
0
 62
     3
100
AcDbText
 10
300.832891
 20
-422.129522
 30
0.0
 40
2.0
  1
CONPONENTS
 41
0.5331600000000001
100
AcDbText
  0
TEXT
  5
27C
330
6B
100
AcDbEntity
  8
0
 62
     3
100
AcDbText
 10
300.483164
 20
-441.061699
 30
0.0
 40
3.0
  1
材
 41
0.833333
100
AcDbText
  0
TEXT
  5
27D
330
6B
100
AcDbEntity
  8
0
 62
     3
100
AcDbText
 10
308.018807
 20
-441.061699
 30
0.0
 40
3.0
  1
質
 41
0.833333
100
AcDbText
  0
TEXT
  5
27E
330
6B
100
AcDbEntity
  8
0
 62
     3
100
AcDbText
 10
300.571235
 20
-430.437174
 30
0.0
 40
2.0
  1
MODEL
 41
1.031072999999999
100
AcDbText
  0
TEXT
  5
27F
330
6B
100
AcDbEntity
  8
0
 62
     3
100
AcDbText
 10
300.483164
 20
-437.3793909999998
 30
0.0
 40
2.0
  1
MATERIAL
 41
0.659278
100
AcDbText
  0
TEXT
  5
280
330
6B
100
AcDbEntity
  8
0
 62
     3
100
AcDbText
 10
331.790444
 20
-441.061699
 30
0.0
 40
3.0
  1
備
 41
0.833333
100
AcDbText
  0
TEXT
  5
281
330
6B
100
AcDbEntity
  8
0
 62
     3
100
AcDbText
 10
338.523446
 20
-441.061699
 30
0.0
 40
3.0
  1
考
 41
0.833333
100
AcDbText
  0
TEXT
  5
282
330
6B
100
AcDbEntity
  8
0
 62
     3
100
AcDbText
 10
332.2112166921097
 20
-437.3793909999998
 30
0.0
 40
2.0
  1
REMARKS
 41
0.675794
100
AcDbText
  0
TEXT
  5
283
330
6B
100
AcDbEntity
  8
0
 62
     3
100
AcDbText
 10
302.072893
 20
-444.299511
 30
0.0
 40
2.0
  1
3AD
 41
1.42614
100
AcDbText
  0
TEXT
  5
284
330
6B
100
AcDbEntity
  8
0
 62
     3
100
AcDbText
 10
311.383873
 20
-444.133778
 30
0.0
 40
2.0
  1
ANGLE
 41
1.669883999999995
100
AcDbText
  0
TEXT
  5
285
330
6B
100
AcDbEntity
  8
0
 62
     3
100
AcDbText
 10
332.31776
 20
-444.510619
 30
0.0
 40
2.0
  1
SCALE
 41
0.7719630000000001
100
AcDbText
  0
TEXT
  5
286
330
6B
100
AcDbEntity
  8
0
 62
     3
100
AcDbText
 10
301.759023
 20
-448.299048
 30
0.0
 40
3.0
  1
第
 41
0.833333
100
AcDbText
  0
TEXT
  5
287
330
6B
100
AcDbEntity
  8
0
 62
     3
100
AcDbText
 10
309.545873
 20
-448.299048
 30
0.0
 40
3.0
  1
三
 41
0.833333
100
AcDbText
  0
TEXT
  5
288
330
6B
100
AcDbEntity
  8
0
 62
     3
100
AcDbText
 10
317.332723
 20
-448.299048
 30
0.0
 40
3.0
  1
角
 41
0.833333
100
AcDbText
  0
TEXT
  5
289
330
6B
100
AcDbEntity
  8
0
 62
     3
100
AcDbText
 10
325.119573
 20
-448.299048
 30
0.0
 40
3.0
  1
法
 41
0.833333
100
AcDbText
  0
TEXT
  5
28A
330
6B
100
AcDbEntity
  8
0
 62
     3
100
AcDbText
 10
332.180965
 20
-448.0106189999998
 30
0.0
 40
3.0
  1
尺
 41
0.833333
100
AcDbText
  0
TEXT
  5
28B
330
6B
100
AcDbEntity
  8
0
 62
     3
100
AcDbText
 10
338.913966
 20
-448.0106189999998
 30
0.0
 40
3.0
  1
度
 41
0.833333
100
AcDbText
  0
TEXT
  5
28C
330
6B
100
AcDbEntity
  8
0
 62
     3
100
AcDbText
 10
361.497237
 20
-425.841319
 30
0.0
 40
3.0
  1
承認
 41
1.089472999999999
100
AcDbText
  0
TEXT
  5
28D
330
6B
100
AcDbEntity
  8
0
 62
     3
100
AcDbText
 10
374.740117
 20
-425.899048
 30
0.0
 40
3.0
  1
検図
 41
0.931761
100
AcDbText
  0
TEXT
  5
28E
330
6B
100
AcDbEntity
  8
0
 62
     3
100
AcDbText
 10
387.740514
 20
-425.899048
 30
0.0
 40
3.0
  1
設
 41
0.833333
100
AcDbText
  0
TEXT
  5
28F
330
6B
100
AcDbEntity
  8
0
 62
     3
100
AcDbText
 10
392.230382
 20
-425.899048
 30
0.0
 40
3.0
  1
計
 41
0.833333
100
AcDbText
  0
TEXT
  5
290
330
6B
100
AcDbEntity
  8
0
 62
     3
100
AcDbText
 10
300.902997
 20
-425.7264959999998
 30
0.0
 40
3.0
  1
品
 41
0.833333
100
AcDbText
  0
TEXT
  5
291
330
6B
100
AcDbEntity
  8
0
 62
     3
100
AcDbText
 10
308.438639
 20
-425.7264959999998
 30
0.0
 40
3.0
  1
名
 41
0.833333
100
AcDbText
  0
TEXT
  5
292
330
6B
100
AcDbEntity
  8
0
 62
     3
100
AcDbText
 10
300.571235
 20
-433.8535112787949
 30
0.0
 40
3.0
  1
型
 41
0.833333
100
AcDbText
  0
TEXT
  5
293
330
6B
100
AcDbEntity
  8
0
 62
     3
100
AcDbText
 10
308.119325
 20
-433.8535112787949
 30
0.0
 40
3.0
  1
式
 41
0.833333
100
AcDbText
  0
LINE
  5
294
330
6B
100
AcDbEntity
  8
0
 62
     3
100
AcDbLine
 10
7.917011999999997
 20
-317.464771
 30
0.0
 11
5.318935999999998
 21
-318.964771
 31
0.0
  0
LINE
  5
295
330
6B
100
AcDbEntity
  8
0
 62
     3
100
AcDbLine
 10
7.917011999999997
 20
-317.464771
 30
0.0
 11
5.318935999999998
 21
-315.964771
 31
0.0
  0
LINE
  5
296
330
6B
100
AcDbEntity
  8
0
 62
     3
100
AcDbLine
 10
5.318935999999998
 20
-318.964771
 30
0.0
 11
5.318935999999998
 21
-315.964771
 31
0.0
  0
LINE
  5
348
330
6B
100
AcDbEntity
  8
0
 62
     3
100
AcDbLine
 10
189.7638423082038
 20
-457.9647709999998
 30
0.0
 11
189.7638423082038
 21
-407.9647717071891
 31
0.0
  0
TEXT
  5
352
330
6B
100
AcDbEntity
  8
0
 62
     3
100
AcDbText
 10
319.7744982465497
 20
-425.3297690000001
 30
0.0
 40
4.5
  1
昇圧トランス
  7
高4.5
100
AcDbText
  0
TEXT
  5
35A
330
6B
100
AcDbEntity
  8
0
 62
     3
100
AcDbText
 10
343.390699
 20
-447.4768799999998
 30
0.0
 40
3.2
  1
1/2
  7
高3.2
100
AcDbText
  0
TEXT
  5
37C
330
6B
100
AcDbEntity
  8
0
 62
     3
100
AcDbText
 10
325.768186
 20
-432.987184
 30
0.0
 40
4.5
  1
M-E30
  7
高4.5
100
AcDbText
  0
TEXT
  5
37D
330
6B
100
AcDbEntity
  8
0
 62
     3
100
AcDbText
 10
363.6813007163728
 20
-457.188436
 30
0.0
 40
6.299999999999998
  1
M-E30
  7
高6.3
100
AcDbText
  0
LINE
  5
384
330
6B
100
AcDbEntity
  8
0
 62
     3
100
AcDbLine
 10
384.619573
 20
-418.2990479999999
 30
0.0
 11
384.619573
 21
-412.2990479999998
 31
0.0
  0
LINE
  5
385
330
6B
100
AcDbEntity
  8
0
 62
     3
100
AcDbLine
 10
358.619573
 20
-418.2990479999999
 30
0.0
 11
358.619573
 21
-412.2990479999998
 31
0.0
  0
LINE
  5
386
330
6B
100
AcDbEntity
  8
0
 62
     3
100
AcDbLine
 10
410.318936
 20
-412.2990479999998
 30
0.0
 11
358.619573
 21
-412.2990479999998
 31
0.0
  0
TEXT
  5
387
330
6B
100
AcDbEntity
  8
0
 62
     3
100
AcDbText
 10
364.615171
 20
-417.502699
 30
0.0
 40
4.5
  1
コード
  7
高4.5
100
AcDbText
  0
TEXT
  5
388
330
6B
100
AcDbEntity
  8
0
 62
     3
100
AcDbText
 10
388.1675575724226
 20
-417.6549109999998
 30
0.0
 40
4.5
  1
5730
  7
高4.5
100
AcDbText
  0
TEXT
  5
389
330
6B
100
AcDbEntity
  8
0
 62
     3
100
AcDbText
 10
121.070675952409
 20
-457.4647709999998
 30
0.0
 40
3.2
  1
個数
 41
0.8
  7
高3.2
100
AcDbText
  0
TEXT
  5
38A
330
6B
100
AcDbEntity
  8
0
 62
     3
100
AcDbText
 10
83.11223843068187
 20
-457.4647709999998
 30
0.0
 40
3.2
  1
備　　　　　考
 41
0.8
  7
高3.2
100
AcDbText
  0
TEXT
  5
38B
330
6B
100
AcDbEntity
  8
0
 62
     3
100
AcDbText
 10
65.12741882927224
 20
-457.4647709999998
 30
0.0
 40
3.2
  1
材　　　質
 41
0.8
  7
高3.2
100
AcDbText
  0
TEXT
  5
38C
330
6B
100
AcDbEntity
  8
0
 62
     3
100
AcDbText
 10
29.04252215498401
 20
-457.4647709999998
 30
0.0
 40
3.2
  1
部　　品　　名
 41
0.8
  7
高3.2
100
AcDbText
  0
TEXT
  5
38D
330
6B
100
AcDbEntity
  8
0
 62
     3
100
AcDbText
 10
21.81893600000001
 20
-457.4647709999998
 30
0.0
 40
3.2
  1
No
 41
0.8
  7
高3.2
100
AcDbText
  0
LINE
  5
38E
330
6B
100
AcDbEntity
  8
0
 62
     3
100
AcDbLine
 10
20.318936
 20
-452.9647709999998
 30
0.0
 11
189.7638423082038
 21
-452.9647709999998
 31
0.0
  0
TEXT
  5
38F
330
6B
100
AcDbEntity
  8
0
 62
     3
100
AcDbText
 10
83.11223843068187
 20
-422.4647717071891
 30
0.0
 40
3.2
  1
AC150V計（1次側）
 41
0.8
  7
高3.2
100
AcDbText
  0
TEXT
  5
390
330
6B
100
AcDbEntity
  8
0
 62
     3
100
AcDbText
 10
121.070675952409
 20
-452.4647709999999
 30
0.0
 40
3.2
  1
1
 41
0.8
  7
高3.2
100
AcDbText
  0
TEXT
  5
391
330
6B
100
AcDbEntity
  8
0
 62
     3
100
AcDbText
 10
121.070675952409
 20
-442.4647709999998
 30
0.0
 40
3.2
  1
1
 41
0.8
  7
高3.2
100
AcDbText
  0
TEXT
  5
393
330
6B
100
AcDbEntity
  8
0
 62
     3
100
AcDbText
 10
121.070675952409
 20
-422.4647717071891
 30
0.0
 40
3.2
  1
1
 41
0.8
  7
高3.2
100
AcDbText
  0
TEXT
  5
394
330
6B
100
AcDbEntity
  8
0
 62
     3
100
AcDbText
 10
121.070675952409
 20
-437.4647709999998
 30
0.0
 40
3.2
  1
4
 41
0.8
  7
高3.2
100
AcDbText
  0
TEXT
  5
395
330
6B
100
AcDbEntity
  8
0
 62
     3
100
AcDbText
 10
121.070675952409
 20
-417.464771707189
 30
0.0
 40
3.2
  1
1
 41
0.8
  7
高3.2
100
AcDbText
  0
TEXT
  5
396
330
6B
100
AcDbEntity
  8
0
 62
     3
100
AcDbText
 10
121.070675952409
 20
-412.4647717071891
 30
0.0
 40
3.2
  1
2
 41
0.8
  7
高3.2
100
AcDbText
  0
TEXT
  5
397
330
6B
100
AcDbEntity
  8
0
 62
     3
100
AcDbText
 10
83.11223843068187
 20
-432.4647717071893
 30
0.0
 40
3.2
  1
2PE 15A 125V(白)
 41
0.8
  7
高3.2
100
AcDbText
  0
LINE
  5
398
330
6B
100
AcDbEntity
  8
0
 62
     7
100
AcDbLine
 10
20.318936
 20
-447.9647709999999
 30
0.0
 11
189.7638423082038
 21
-447.9647709999999
 31
0.0
  0
LINE
  5
399
330
6B
100
AcDbEntity
  8
0
 62
     7
100
AcDbLine
 10
20.318936
 20
-442.9647709999998
 30
0.0
 11
189.7638423082038
 21
-442.9647709999998
 31
0.0
  0
LINE
  5
39A
330
6B
100
AcDbEntity
  8
0
 62
     7
100
AcDbLine
 10
20.318936
 20
-437.9647709999998
 30
0.0
 11
189.7638423082038
 21
-437.9647709999998
 31
0.0
  0
LINE
  5
39B
330
6B
100
AcDbEntity
  8
0
 62
     7
100
AcDbLine
 10
20.318936
 20
-432.9647717071893
 30
0.0
 11
189.7638423082038
 21
-432.9647717071893
 31
0.0
  0
LINE
  5
39C
330
6B
100
AcDbEntity
  8
0
 62
     7
100
AcDbLine
 10
20.318936
 20
-427.9647717071894
 30
0.0
 11
189.7638423082038
 21
-427.9647717071894
 31
0.0
  0
LINE
  5
39D
330
6B
100
AcDbEntity
  8
0
 62
     7
100
AcDbLine
 10
119.570675952409
 20
-457.9647709999998
 30
0.0
 11
119.570675952409
 21
-407.9647717071891
 31
0.0
  0
LINE
  5
39F
330
6B
100
AcDbEntity
  8
0
 62
     7
100
AcDbLine
 10
20.318936
 20
-422.9647717071891
 30
0.0
 11
189.7638423082038
 21
-422.9647717071891
 31
0.0
  0
LINE
  5
3A0
330
6B
100
AcDbEntity
  8
0
 62
     7
100
AcDbLine
 10
20.318936
 20
-417.9647717071891
 30
0.0
 11
189.7638423082038
 21
-417.9647717071891
 31
0.0
  0
TEXT
  5
3A2
330
6B
100
AcDbEntity
  8
0
 62
     3
100
AcDbText
 10
121.070675952409
 20
-447.4647709999998
 30
0.0
 40
3.2
  1
1式
 41
0.8
  7
高3.2
100
AcDbText
  0
TEXT
  5
3A3
330
6B
100
AcDbEntity
  8
0
 62
     3
100
AcDbText
 10
83.11223843068187
 20
-442.4647709999998
 30
0.0
 40
3.2
  1
3.5sqx3芯x1.8m
 41
0.8
  7
高3.2
100
AcDbText
  0
TEXT
  5
3A4
330
6B
100
AcDbEntity
  8
0
 62
     3
100
AcDbText
 10
65.12741882927224
 20
-447.4647709999998
 30
0.0
 40
3.2
  1
SPCC
 41
0.8
  7
高3.2
100
AcDbText
  0
TEXT
  5
3A5
330
6B
100
AcDbEntity
  8
0
 62
     3
100
AcDbText
 10
29.04252215498401
 20
-452.4647709999999
 30
0.0
 40
3.2
  1
把手
 41
0.8
  7
高3.2
100
AcDbText
  0
TEXT
  5
3A6
330
6B
100
AcDbEntity
  8
0
 62
     3
100
AcDbText
 10
29.04252215498401
 20
-447.4647709999998
 30
0.0
 40
3.2
  1
ケース
 41
0.8
  7
高3.2
100
AcDbText
  0
TEXT
  5
3A7
330
6B
100
AcDbEntity
  8
0
 62
     3
100
AcDbText
 10
65.12741882927224
 20
-442.4647709999998
 30
0.0
 40
3.2
  1
SVCT
 41
0.8
  7
高3.2
100
AcDbText
  0
TEXT
  5
3A8
330
6B
100
AcDbEntity
  8
0
 62
     3
100
AcDbText
 10
29.04252215498401
 20
-437.4647709999998
 30
0.0
 40
3.2
  1
ゴム脚
 41
0.8
  7
高3.2
100
AcDbText
  0
TEXT
  5
3A9
330
6B
100
AcDbEntity
  8
0
 62
     3
100
AcDbText
 10
83.11223843068187
 20
-437.4647709999998
 30
0.0
 40
3.2
  1
-
 41
0.8
  7
高3.2
100
AcDbText
  0
TEXT
  5
3AA
330
6B
100
AcDbEntity
  8
0
 62
     3
100
AcDbText
 10
29.04252215498401
 20
-422.4647717071891
 30
0.0
 40
3.2
  1
電圧計
 41
0.8
  7
高3.2
100
AcDbText
  0
TEXT
  5
3AB
330
6B
100
AcDbEntity
  8
0
 62
     3
100
AcDbText
 10
83.11223843068187
 20
-447.4647709999998
 30
0.0
 40
3.2
  1
外カバー、パネルベース
 41
0.8
  7
高3.2
100
AcDbText
  0
TEXT
  5
3AC
330
6B
100
AcDbEntity
  8
0
 62
     3
100
AcDbText
 10
65.12741882927224
 20
-412.4647717071891
 30
0.0
 40
3.2
  1
SPCC
 41
0.8
  7
高3.2
100
AcDbText
  0
TEXT
  5
3AD
330
6B
100
AcDbEntity
  8
0
 62
     3
100
AcDbText
 10
29.04252215498401
 20
-412.4647717071891
 30
0.0
 40
3.2
  1
アース端子
 41
0.8
  7
高3.2
100
AcDbText
  0
TEXT
  5
3AE
330
6B
100
AcDbEntity
  8
0
 62
     3
100
AcDbText
 10
29.04252215498401
 20
-432.4647717071893
 30
0.0
 40
3.2
  1
2PE付きWコンセント
 41
0.8
  7
高3.2
100
AcDbText
  0
TEXT
  5
3AF
330
6B
100
AcDbEntity
  8
0
 62
     3
100
AcDbText
 10
29.04252215498401
 20
-442.4647709999998
 30
0.0
 40
3.2
  1
電線　プラグ付き
 41
0.8
  7
高3.2
100
AcDbText
  0
LINE
  5
3B0
330
6B
100
AcDbEntity
  8
0
 62
     7
100
AcDbLine
 10
63.62741882927224
 20
-457.9647709999998
 30
0.0
 11
63.62741882927224
 21
-407.9647717071891
 31
0.0
  0
LINE
  5
3B1
330
6B
100
AcDbEntity
  8
0
 62
     7
100
AcDbLine
 10
27.54252215498401
 20
-457.9647709999998
 30
0.0
 11
27.54252215498401
 21
-407.9647717071891
 31
0.0
  0
LINE
  5
3B2
330
6B
100
AcDbEntity
  8
0
 62
     7
100
AcDbLine
 10
81.61223843068187
 20
-457.9647709999998
 30
0.0
 11
81.61223843068187
 21
-407.9647717071891
 31
0.0
  0
TEXT
  5
3B9
330
6B
100
AcDbEntity
  8
0
 62
     3
100
AcDbText
 10
21.818936
 20
-452.4647709999999
 30
0.0
 40
3.2
  1
1
 41
0.8
  7
高3.2
100
AcDbText
  0
TEXT
  5
3BA
330
6B
100
AcDbEntity
  8
0
 62
     3
100
AcDbText
 10
21.818936
 20
-447.4647709999998
 30
0.0
 40
3.2
  1
2
 41
0.8
  7
高3.2
100
AcDbText
  0
TEXT
  5
3BB
330
6B
100
AcDbEntity
  8
0
 62
     3
100
AcDbText
 10
21.818936
 20
-442.4647709999998
 30
0.0
 40
3.2
  1
3
 41
0.8
  7
高3.2
100
AcDbText
  0
TEXT
  5
3BC
330
6B
100
AcDbEntity
  8
0
 62
     3
100
AcDbText
 10
21.818936
 20
-437.4647709999998
 30
0.0
 40
3.2
  1
4
 41
0.8
  7
高3.2
100
AcDbText
  0
TEXT
  5
3BD
330
6B
100
AcDbEntity
  8
0
 62
     3
100
AcDbText
 10
21.818936
 20
-432.4647717071893
 30
0.0
 40
3.2
  1
5
 41
0.8
  7
高3.2
100
AcDbText
  0
TEXT
  5
3BE
330
6B
100
AcDbEntity
  8
0
 62
     3
100
AcDbText
 10
21.818936
 20
-427.4647717071894
 30
0.0
 40
3.2
  1
6
 41
0.8
  7
高3.2
100
AcDbText
  0
TEXT
  5
3BF
330
6B
100
AcDbEntity
  8
0
 62
     3
100
AcDbText
 10
21.818936
 20
-422.4647717071891
 30
0.0
 40
3.2
  1
7
 41
0.8
  7
高3.2
100
AcDbText
  0
TEXT
  5
3C0
330
6B
100
AcDbEntity
  8
0
 62
     3
100
AcDbText
 10
21.818936
 20
-417.464771707189
 30
0.0
 40
3.2
  1
8
 41
0.8
  7
高3.2
100
AcDbText
  0
TEXT
  5
3C1
330
6B
100
AcDbEntity
  8
0
 62
     3
100
AcDbText
 10
65.12741882927224
 20
-432.4647717071893
 30
0.0
 40
3.2
  1
ABS樹脂
 41
0.8
  7
高3.2
100
AcDbText
  0
TEXT
  5
3C2
330
6B
100
AcDbEntity
  8
0
 62
     3
100
AcDbText
 10
65.12741882927224
 20
-437.4647709999998
 30
0.0
 40
3.2
  1
PVC樹脂
 41
0.8
  7
高3.2
100
AcDbText
  0
TEXT
  5
3C3
330
6B
100
AcDbEntity
  8
0
 62
     3
100
AcDbText
 10
65.12741882927224
 20
-452.4647709999999
 30
0.0
 40
3.2
  1
PA樹脂
 41
0.8
  7
高3.2
100
AcDbText
  0
TEXT
  5
3CF
330
6B
100
AcDbEntity
  8
0
 62
     3
100
AcDbText
 10
29.04252215498401
 20
-417.464771707189
 30
0.0
 40
3.2
  1
安全ブレーカー
 41
0.8
  7
高3.2
100
AcDbText
  0
TEXT
  5
3D0
330
6B
100
AcDbEntity
  8
0
 62
     3
100
AcDbText
 10
83.11223843068187
 20
-417.464771707189
 30
0.0
 40
3.2
  1
30A
 41
0.8
  7
高3.2
100
AcDbText
  0
TEXT
  5
4AC
330
6B
100
AcDbEntity
  8
0
 62
     3
100
AcDbText
 10
397.818936
 20
-193.40941
 30
0.0
 40
3.2
  1
担　当
  7
高3.2
100
AcDbText
  0
TEXT
  5
4AD
330
6B
100
AcDbEntity
  8
0
 62
     3
100
AcDbText
 10
353.818936
 20
-193.40941
 30
0.0
 40
3.2
  1
変更・追記内容
  7
高3.2
100
AcDbText
  0
TEXT
  5
4AE
330
6B
100
AcDbEntity
  8
0
 62
     3
100
AcDbText
 10
328.9324510003392
 20
-198.0799485099083
 30
0.0
 40
2.0
  1
1
  7
高2
100
AcDbText
  0
TEXT
  5
4AF
330
6B
100
AcDbEntity
  8
0
 62
     3
100
AcDbText
 10
328.623939523582
 20
-203.2497652221812
 30
0.0
 40
2.0
  1
2
  7
高2
100
AcDbText
  0
TEXT
  5
4B0
330
6B
100
AcDbEntity
  8
0
 62
     3
100
AcDbText
 10
335.818936
 20
-193.40941
 30
0.0
 40
3.2
  1
日　付
  7
高3.2
100
AcDbText
  0
TEXT
  5
4B1
330
6B
100
AcDbEntity
  8
0
 62
     3
100
AcDbText
 10
335.818936
 20
-188.40941
 30
0.0
 40
3.2
  1
図　　　　面　　　　略　　　　歴
  7
高3.2
100
AcDbText
  0
TEXT
  5
4B2
330
6B
100
AcDbEntity
  8
0
 62
     3
100
AcDbText
 10
325.818936
 20
-193.40941
 30
0.0
 40
3.2
  1
記号
  7
高3.2
100
AcDbText
  0
LINE
  5
4B3
330
6B
100
AcDbEntity
  8
0
 62
     7
100
AcDbLine
 10
329.318936
 20
-200.1185139999999
 30
0.0
 11
327.418936
 21
-203.40941
 31
0.0
  0
LINE
  5
4B4
330
6B
100
AcDbEntity
  8
0
 62
     7
100
AcDbLine
 10
329.318936
 20
-200.1185139999999
 30
0.0
 11
331.218936
 21
-203.40941
 31
0.0
  0
LINE
  5
4B5
330
6B
100
AcDbEntity
  8
0
 62
     7
100
AcDbLine
 10
327.418936
 20
-203.40941
 30
0.0
 11
331.218936
 21
-203.40941
 31
0.0
  0
LINE
  5
4B6
330
6B
100
AcDbEntity
  8
0
 62
     7
100
AcDbLine
 10
329.318936
 20
-195.1185129999999
 30
0.0
 11
327.418936
 21
-198.40941
 31
0.0
  0
LINE
  5
4B7
330
6B
100
AcDbEntity
  8
0
 62
     7
100
AcDbLine
 10
329.318936
 20
-195.1185129999999
 30
0.0
 11
331.218936
 21
-198.40941
 31
0.0
  0
LINE
  5
4B8
330
6B
100
AcDbEntity
  8
0
 62
     7
100
AcDbLine
 10
327.418936
 20
-198.40941
 30
0.0
 11
331.218936
 21
-198.40941
 31
0.0
  0
LINE
  5
4B9
330
6B
100
AcDbEntity
  8
0
 62
     3
100
AcDbLine
 10
324.318936
 20
-188.90941
 30
0.0
 11
410.318936
 21
-188.90941
 31
0.0
  0
LINE
  5
4BA
330
6B
100
AcDbEntity
  8
0
 62
     3
100
AcDbLine
 10
324.318936
 20
-193.90941
 30
0.0
 11
410.318936
 21
-193.90941
 31
0.0
  0
LINE
  5
4BB
330
6B
100
AcDbEntity
  8
0
 62
     7
100
AcDbLine
 10
324.318936
 20
-198.90941
 30
0.0
 11
410.318936
 21
-198.90941
 31
0.0
  0
LINE
  5
4BC
330
6B
100
AcDbEntity
  8
0
 62
     3
100
AcDbLine
 10
324.318936
 20
-203.90941
 30
0.0
 11
410.318936
 21
-203.90941
 31
0.0
  0
LINE
  5
4BD
330
6B
100
AcDbEntity
  8
0
 62
     7
100
AcDbLine
 10
396.3189359999999
 20
-203.90941
 30
0.0
 11
396.318936
 21
-188.90941
 31
0.0
  0
LINE
  5
4BE
330
6B
100
AcDbEntity
  8
0
 62
     7
100
AcDbLine
 10
352.318936
 20
-203.90941
 30
0.0
 11
352.318936
 21
-188.90941
 31
0.0
  0
LINE
  5
4BF
330
6B
100
AcDbEntity
  8
0
 62
     7
100
AcDbLine
 10
334.318936
 20
-203.90941
 30
0.0
 11
334.318936
 21
-188.90941
 31
0.0
  0
LINE
  5
4C0
330
6B
100
AcDbEntity
  8
0
 62
     3
100
AcDbLine
 10
324.318936
 20
-203.90941
 30
0.0
 11
324.318936
 21
-183.90941
 31
0.0
  0
LINE
  5
E0E
330
6B
100
AcDbEntity
  8
0
 62
     3
100
AcDbLine
 10
234.2747844607434
 20
-321.8416596409074
 30
0.0
 11
324.2747844607434
 21
-321.8416596409074
 31
0.0
  0
LINE
  5
E0F
330
6B
100
AcDbEntity
  8
0
 62
     3
100
AcDbLine
 10
171.9597078145229
 20
-251.3416596409074
 30
0.0
 11
68.95970781452297
 21
-251.3416596409074
 31
0.0
  0
LINE
  5
E11
330
6B
100
AcDbEntity
  8
0
 62
     3
100
AcDbLine
 10
229.2747844607434
 20
-251.3416596409074
 30
0.0
 11
229.2747844607434
 21
-314.3416596409074
 31
0.0
  0
LINE
  5
E12
330
6B
100
AcDbEntity
  8
0
 62
     3
100
AcDbLine
 10
324.2747844607434
 20
-251.3416596409074
 30
0.0
 11
324.2747844607434
 21
-321.8416596409074
 31
0.0
  0
LINE
  5
E13
330
6B
100
AcDbEntity
  8
0
 62
     3
100
AcDbLine
 10
175.459707814523
 20
-254.8416596409075
 30
0.0
 11
175.459707814523
 21
-321.8416596409074
 31
0.0
  0
LINE
  5
E14
330
6B
100
AcDbEntity
  8
0
 62
     3
100
AcDbLine
 10
65.45970781452297
 20
-254.8416596409075
 30
0.0
 11
65.45970781452297
 21
-321.8416596409074
 31
0.0
  0
ARC
  5
E15
330
6B
100
AcDbEntity
  8
0
 62
     3
100
AcDbCircle
 10
171.9597078145229
 20
-254.8416596409074
 30
0.0
 40
3.5
100
AcDbArc
 50
0.0
 51
90.0
  0
ARC
  5
E16
330
6B
100
AcDbEntity
  8
0
 62
     3
100
AcDbCircle
 10
68.95970781452297
 20
-254.8416596409075
 30
0.0
 40
3.5
100
AcDbArc
 50
90.0
 51
180.0
  0
LINE
  5
E17
330
6B
100
AcDbEntity
  8
0
 62
     3
100
AcDbLine
 10
229.2747844607434
 20
-251.3416596409074
 30
0.0
 11
324.2747844607434
 21
-251.3416596409074
 31
0.0
  0
LINE
  5
FCE
330
6B
100
AcDbEntity
  8
0
 62
     3
100
AcDbLine
 10
352.4202678679779
 20
-327.8416596409075
 30
0.0
 11
360.9202678679781
 21
-327.8416596409075
 31
0.0
  0
LINE
  5
FCF
330
6B
100
AcDbEntity
  8
0
 62
     3
100
AcDbLine
 10
348.165613867978
 20
-359.3416596409074
 30
0.0
 11
348.165613867978
 21
-359.8416596409074
 31
0.0
  0
ARC
  5
FD0
330
6B
100
AcDbEntity
  8
0
 62
     3
100
AcDbCircle
 10
348.4502258679784
 20
-358.0916596409074
 30
0.0
 40
1.279957999999999
100
AcDbArc
 50
102.4206920000021
 51
257.5793079999979
  0
ARC
  5
FD1
330
6B
100
AcDbEntity
  8
0
 62
     3
100
AcDbCircle
 10
361.040613867978
 20
-338.2166596409074
 30
0.0
 40
0.375
100
AcDbArc
 50
0.0
 51
90.0
  0
LINE
  5
FD2
330
6B
100
AcDbEntity
  8
0
 62
     3
100
AcDbLine
 10
361.415613867978
 20
-338.2166596409074
 30
0.0
 11
361.415613867978
 21
-341.8020016409075
 31
0.0
  0
ARC
  5
FD3
330
6B
100
AcDbEntity
  8
0
 62
     3
100
AcDbCircle
 10
361.040613867978
 20
-348.7166596409074
 30
0.0
 40
4.125
100
AcDbArc
 50
0.0
 51
56.94426899999729
  0
LINE
  5
FD4
330
6B
100
AcDbEntity
  8
0
 62
     3
100
AcDbLine
 10
365.165613867978
 20
-348.7166596409074
 30
0.0
 11
365.165613867978
 21
-356.8416596409074
 31
0.0
  0
ARC
  5
FD5
330
6B
100
AcDbEntity
  8
0
 62
     3
100
AcDbCircle
 10
364.890309867978
 20
-358.0916596409074
 30
0.0
 40
1.279957999999999
100
AcDbArc
 50
282.4206920000021
 51
77.57930799999788
  0
ARC
  5
FD6
330
6B
100
AcDbEntity
  8
0
 62
     3
100
AcDbCircle
 10
352.290613867978
 20
-338.2166596409074
 30
0.0
 40
0.375
100
AcDbArc
 50
90.0
 51
180.0
  0
LINE
  5
FD7
330
6B
100
AcDbEntity
  8
0
 62
     3
100
AcDbLine
 10
351.915613867978
 20
-338.2166596409074
 30
0.0
 11
351.915613867978
 21
-342.0789636409074
 31
0.0
  0
LINE
  5
FD8
330
6B
100
AcDbEntity
  8
0
 62
     3
100
AcDbLine
 10
360.4202678679779
 20
-329.3416596409074
 30
0.0
 11
360.6702678679781
 21
-337.8416596409075
 31
0.0
  0
LINE
  5
FD9
330
6B
100
AcDbEntity
  8
0
 62
     3
100
AcDbLine
 10
352.9202678679784
 20
-329.3416596409074
 30
0.0
 11
352.6702678679781
 21
-337.8416596409075
 31
0.0
  0
ARC
  5
FDA
330
6B
100
AcDbEntity
  8
0
 62
     3
100
AcDbCircle
 10
360.9202678679781
 20
-328.5916596409074
 30
0.0
 40
0.75
100
AcDbArc
 50
270.0
 51
90.0
  0
ARC
  5
FDB
330
6B
100
AcDbEntity
  8
0
 62
     3
100
AcDbCircle
 10
352.4202678679779
 20
-328.5916596409074
 30
0.0
 40
0.75
100
AcDbArc
 50
90.0
 51
270.0
  0
LINE
  5
FDC
330
6B
100
AcDbEntity
  8
0
 62
     3
100
AcDbLine
 10
348.1702678679781
 20
-348.5207626409074
 30
0.0
 11
348.1702678679781
 21
-356.8416596409074
 31
0.0
  0
LINE
  5
FDD
330
6B
100
AcDbEntity
  8
0
 62
     3
100
AcDbLine
 10
348.195267867978
 20
-359.3416596409074
 30
0.0
 11
348.195267867978
 21
-359.8416596409074
 31
0.0
  0
LINE
  5
FDE
330
6B
100
AcDbEntity
  8
0
 62
     3
100
AcDbLine
 10
365.195267867978
 20
-359.3212426409075
 30
0.0
 11
365.195267867978
 21
-359.8416596409074
 31
0.0
  0
ARC
  5
FDF
330
6B
100
AcDbEntity
  8
0
 62
     3
100
AcDbCircle
 10
352.290613867978
 20
-348.7166596409074
 30
0.0
 40
4.125
100
AcDbArc
 50
125.0110389999985
 51
180.0
  0
ARC
  5
FE0
330
6B
100
AcDbEntity
  8
0
 62
     3
100
AcDbCircle
 10
347.7999218679784
 20
-341.8020016409075
 30
0.0
 40
4.125
100
AcDbArc
 50
300.9919899999972
 51
0.0
  0
LINE
  5
FE1
330
6B
100
AcDbEntity
  8
0
 62
     3
100
AcDbLine
 10
381.1628938679779
 20
-335.8121216409074
 30
0.0
 11
378.6628938679779
 21
-335.8121216409074
 31
0.0
  0
LINE
  5
FE2
330
6B
100
AcDbEntity
  8
0
 62
     3
100
AcDbLine
 10
381.1628938679779
 20
-343.3680166409075
 30
0.0
 11
381.1628938679779
 21
-335.8121216409074
 31
0.0
  0
LINE
  5
FE3
330
6B
100
AcDbEntity
  8
0
 62
     3
100
AcDbLine
 10
378.6628938679779
 20
-343.3680166409075
 30
0.0
 11
378.6628938679779
 21
-335.8121216409074
 31
0.0
  0
LINE
  5
FE4
330
6B
100
AcDbEntity
  8
0
 62
     3
100
AcDbLine
 10
383.6628938679779
 20
-354.5870596409073
 30
0.0
 11
383.6628938679779
 21
-358.5621216409074
 31
0.0
  0
LINE
  5
FE5
330
6B
100
AcDbEntity
  8
0
 62
     3
100
AcDbLine
 10
376.162893867978
 20
-354.5870596409073
 30
0.0
 11
376.162893867978
 21
-358.5621216409074
 31
0.0
  0
ARC
  5
FE6
330
6B
100
AcDbEntity
  8
0
 62
     3
100
AcDbCircle
 10
383.1628938679779
 20
-354.5870596409073
 30
0.0
 40
0.5
100
AcDbArc
 50
0.0
 51
5.710592999999597
  0
ARC
  5
FE7
330
6B
100
AcDbEntity
  8
0
 62
     3
100
AcDbCircle
 10
376.6628938679779
 20
-354.5870596409073
 30
0.0
 40
0.5
100
AcDbArc
 50
174.2894070000004
 51
180.0
  0
LINE
  5
FE8
330
6B
100
AcDbEntity
  8
0
 62
     3
100
AcDbLine
 10
383.6628938679779
 20
-353.6628866409074
 30
0.0
 11
383.6628938679779
 21
-354.5621216409074
 31
0.0
  0
LINE
  5
FE9
330
6B
100
AcDbEntity
  8
0
 62
     3
100
AcDbLine
 10
376.162893867978
 20
-353.6628866409074
 30
0.0
 11
376.162893867978
 21
-354.5870596409073
 31
0.0
  0
LINE
  5
FEA
330
6B
100
AcDbEntity
  8
0
 62
     3
100
AcDbLine
 10
381.7990688679779
 20
-346.8778296409076
 30
0.0
 11
383.026718867978
 21
-350.1530746409074
 31
0.0
  0
LINE
  5
FEB
330
6B
100
AcDbEntity
  8
0
 62
     3
100
AcDbLine
 10
378.026718867978
 20
-346.8778296409076
 30
0.0
 11
376.7990688679782
 21
-350.1530746409074
 31
0.0
  0
ARC
  5
FEC
330
6B
100
AcDbEntity
  8
0
 62
     3
100
AcDbCircle
 10
373.662893867978
 20
-353.6628866409074
 30
0.0
 40
10.0
100
AcDbArc
 50
0.0
 51
20.54734700000127
  0
ARC
  5
FED
330
6B
100
AcDbEntity
  8
0
 62
     3
100
AcDbCircle
 10
386.162893867978
 20
-353.6628866409074
 30
0.0
 40
10.0
100
AcDbArc
 50
159.4526529999987
 51
180.0
  0
ARC
  5
FF0
330
6B
100
AcDbEntity
  8
0
 62
     3
100
AcDbCircle
 10
391.1628938679779
 20
-343.3680166409075
 30
0.0
 40
10.0
100
AcDbArc
 50
180.0
 51
200.5473470000013
  0
ARC
  5
FF1
330
6B
100
AcDbEntity
  8
0
 62
     3
100
AcDbCircle
 10
368.6628938679779
 20
-343.3680166409075
 30
0.0
 40
10.0
100
AcDbArc
 50
339.4526529999987
 51
0.0
  0
LINE
  5
FF2
330
6B
100
AcDbEntity
  8
0
 62
     3
100
AcDbLine
 10
383.1628938679779
 20
-359.5621216409074
 30
0.0
 11
376.6628938679779
 21
-359.5621216409074
 31
0.0
  0
LINE
  5
FF3
330
6B
100
AcDbEntity
  8
0
100
AcDbLine
 10
380.862893867978
 20
-359.5621216409074
 30
0.0
 11
380.862893867978
 21
-360.5621216409074
 31
0.0
  0
LINE
  5
FF4
330
6B
100
AcDbEntity
  8
0
100
AcDbLine
 10
378.962893867978
 20
-359.5621216409074
 30
0.0
 11
378.962893867978
 21
-360.5621216409074
 31
0.0
  0
LINE
  5
FF5
330
6B
100
AcDbEntity
  8
0
100
AcDbLine
 10
378.6628938679779
 20
-360.5621216409074
 30
0.0
 11
378.6628938679779
 21
-359.5621216409074
 31
0.0
  0
LINE
  5
FF6
330
6B
100
AcDbEntity
  8
0
100
AcDbLine
 10
381.1628938679779
 20
-360.5621216409074
 30
0.0
 11
381.1628938679779
 21
-359.5621216409074
 31
0.0
  0
LINE
  5
FF7
330
6B
100
AcDbEntity
  8
0
100
AcDbLine
 10
379.4128938679779
 20
-361.3121216409074
 30
0.0
 11
380.4128938679779
 21
-361.3121216409074
 31
0.0
  0
LINE
  5
FF8
330
6B
100
AcDbEntity
  8
0
100
AcDbLine
 10
379.4128938679779
 20
-361.0121216409074
 30
0.0
 11
380.4128938679779
 21
-361.0121216409074
 31
0.0
  0
ARC
  5
FF9
330
6B
100
AcDbEntity
  8
0
100
AcDbCircle
 10
380.4128938679779
 20
-360.5621216409074
 30
0.0
 40
0.75
100
AcDbArc
 50
270.0
 51
0.0
  0
ARC
  5
FFA
330
6B
100
AcDbEntity
  8
0
100
AcDbCircle
 10
379.4128938679779
 20
-360.5621216409074
 30
0.0
 40
0.75
100
AcDbArc
 50
180.0
 51
270.0
  0
ARC
  5
FFB
330
6B
100
AcDbEntity
  8
0
100
AcDbCircle
 10
380.4128938679779
 20
-360.5621216409074
 30
0.0
 40
0.45
100
AcDbArc
 50
270.0
 51
0.0
  0
ARC
  5
FFC
330
6B
100
AcDbEntity
  8
0
100
AcDbCircle
 10
379.4128938679779
 20
-360.5621216409074
 30
0.0
 40
0.45
100
AcDbArc
 50
180.0
 51
270.0
  0
LINE
  5
1001
330
6B
100
AcDbEntity
  8
0
100
AcDbLine
 10
357.165613867978
 20
-331.0916596409074
 30
0.0
 11
357.165613867978
 21
-330.0916596409074
 31
0.0
  0
LINE
  5
1002
330
6B
100
AcDbEntity
  8
0
100
AcDbLine
 10
357.165613867978
 20
-336.3416596409074
 30
0.0
 11
357.165613867978
 21
-335.3416596409074
 31
0.0
  0
LINE
  5
1003
330
6B
100
AcDbEntity
  8
0
100
AcDbLine
 10
357.165613867978
 20
-334.5916596409074
 30
0.0
 11
357.165613867978
 21
-333.5916596409074
 31
0.0
  0
LINE
  5
1004
330
6B
100
AcDbEntity
  8
0
100
AcDbLine
 10
357.165613867978
 20
-332.8416596409074
 30
0.0
 11
357.165613867978
 21
-331.8416596409075
 31
0.0
  0
LINE
  5
1005
330
6B
100
AcDbEntity
  8
0
100
AcDbLine
 10
356.6702678679779
 20
-329.3416596409074
 30
0.0
 11
360.9202678679781
 21
-329.3416596409074
 31
0.0
  0
LINE
  5
1006
330
6B
100
AcDbEntity
  8
0
100
AcDbLine
 10
357.165613867978
 20
-336.3416596409074
 30
0.0
 11
360.6261498679779
 21
-336.3416596409074
 31
0.0
  0
LINE
  5
1007
330
6B
100
AcDbEntity
  8
0
100
AcDbLine
 10
357.165613867978
 20
-334.5916596409074
 30
0.0
 11
360.5746798679779
 21
-334.5916596409074
 31
0.0
  0
LINE
  5
1008
330
6B
100
AcDbEntity
  8
0
100
AcDbLine
 10
357.165613867978
 20
-332.8416596409074
 30
0.0
 11
360.523208867978
 21
-332.8416596409074
 31
0.0
  0
LINE
  5
1009
330
6B
100
AcDbEntity
  8
0
100
AcDbLine
 10
357.165613867978
 20
-335.3416596409074
 30
0.0
 11
360.596738867978
 21
-335.3416596409074
 31
0.0
  0
LINE
  5
100A
330
6B
100
AcDbEntity
  8
0
100
AcDbLine
 10
357.165613867978
 20
-333.5916596409074
 30
0.0
 11
360.5452678679784
 21
-333.5916596409074
 31
0.0
  0
LINE
  5
100B
330
6B
100
AcDbEntity
  8
0
100
AcDbLine
 10
357.165613867978
 20
-331.8416596409075
 30
0.0
 11
360.4937978679783
 21
-331.8416596409075
 31
0.0
  0
LINE
  5
100C
330
6B
100
AcDbEntity
  8
0
100
AcDbLine
 10
357.165613867978
 20
-331.0916596409074
 30
0.0
 11
360.4717388679782
 21
-331.0916596409074
 31
0.0
  0
LINE
  5
100D
330
6B
100
AcDbEntity
  8
0
100
AcDbLine
 10
357.165613867978
 20
-330.0916596409074
 30
0.0
 11
360.4423268679779
 21
-330.0916596409074
 31
0.0
  0
LINE
  5
100E
330
6B
100
AcDbEntity
  8
0
100
AcDbLine
 10
356.165613867978
 20
-336.3416596409074
 30
0.0
 11
356.165613867978
 21
-335.3416596409074
 31
0.0
  0
LINE
  5
100F
330
6B
100
AcDbEntity
  8
0
100
AcDbLine
 10
356.165613867978
 20
-334.5916596409074
 30
0.0
 11
356.165613867978
 21
-333.5916596409074
 31
0.0
  0
LINE
  5
1010
330
6B
100
AcDbEntity
  8
0
100
AcDbLine
 10
356.165613867978
 20
-332.8416596409074
 30
0.0
 11
356.165613867978
 21
-331.8416596409075
 31
0.0
  0
LINE
  5
1011
330
6B
100
AcDbEntity
  8
0
100
AcDbLine
 10
356.165613867978
 20
-331.0916596409074
 30
0.0
 11
356.165613867978
 21
-330.0916596409074
 31
0.0
  0
LINE
  5
1012
330
6B
100
AcDbEntity
  8
0
100
AcDbLine
 10
356.6702678679779
 20
-329.3416596409074
 30
0.0
 11
352.4202678679779
 21
-329.3416596409074
 31
0.0
  0
LINE
  5
1013
330
6B
100
AcDbEntity
  8
0
100
AcDbLine
 10
352.7143858679782
 20
-336.3416596409074
 30
0.0
 11
356.165613867978
 21
-336.3416596409074
 31
0.0
  0
LINE
  5
1014
330
6B
100
AcDbEntity
  8
0
100
AcDbLine
 10
352.7658558679782
 20
-334.5916596409074
 30
0.0
 11
356.165613867978
 21
-334.5916596409074
 31
0.0
  0
LINE
  5
1015
330
6B
100
AcDbEntity
  8
0
100
AcDbLine
 10
352.8173268679779
 20
-332.8416596409074
 30
0.0
 11
356.165613867978
 21
-332.8416596409074
 31
0.0
  0
LINE
  5
1016
330
6B
100
AcDbEntity
  8
0
100
AcDbLine
 10
352.7437978679779
 20
-335.3416596409074
 30
0.0
 11
356.165613867978
 21
-335.3416596409074
 31
0.0
  0
LINE
  5
1017
330
6B
100
AcDbEntity
  8
0
100
AcDbLine
 10
352.7952678679779
 20
-333.5916596409074
 30
0.0
 11
356.165613867978
 21
-333.5916596409074
 31
0.0
  0
LINE
  5
1018
330
6B
100
AcDbEntity
  8
0
100
AcDbLine
 10
352.846738867978
 20
-331.8416596409075
 30
0.0
 11
356.165613867978
 21
-331.8416596409075
 31
0.0
  0
LINE
  5
1019
330
6B
100
AcDbEntity
  8
0
100
AcDbLine
 10
356.165613867978
 20
-331.0916596409074
 30
0.0
 11
352.8687978679784
 21
-331.0916596409074
 31
0.0
  0
LINE
  5
101A
330
6B
100
AcDbEntity
  8
0
100
AcDbLine
 10
356.165613867978
 20
-330.0916596409074
 30
0.0
 11
352.898208867978
 21
-330.0916596409074
 31
0.0
  0
LINE
  5
101B
330
6B
100
AcDbEntity
  8
0
100
AcDbLine
 10
359.6406138679784
 20
-336.3416596409074
 30
0.0
 11
359.6406138679784
 21
-335.3416596409074
 31
0.0
  0
LINE
  5
101C
330
6B
100
AcDbEntity
  8
0
100
AcDbLine
 10
359.6406138679784
 20
-334.5916596409074
 30
0.0
 11
359.6406138679784
 21
-333.5916596409074
 31
0.0
  0
LINE
  5
101D
330
6B
100
AcDbEntity
  8
0
100
AcDbLine
 10
359.6406138679784
 20
-332.8416596409074
 30
0.0
 11
359.6406138679784
 21
-331.8416596409075
 31
0.0
  0
LINE
  5
101E
330
6B
100
AcDbEntity
  8
0
100
AcDbLine
 10
359.6406138679784
 20
-331.0916596409074
 30
0.0
 11
359.6406138679784
 21
-330.0916596409074
 31
0.0
  0
LINE
  5
101F
330
6B
100
AcDbEntity
  8
0
100
AcDbLine
 10
353.6906138679782
 20
-331.0916596409074
 30
0.0
 11
353.6906138679782
 21
-330.0916596409074
 31
0.0
  0
LINE
  5
1020
330
6B
100
AcDbEntity
  8
0
100
AcDbLine
 10
353.6906138679782
 20
-332.8416596409074
 30
0.0
 11
353.6906138679782
 21
-331.8416596409075
 31
0.0
  0
LINE
  5
1021
330
6B
100
AcDbEntity
  8
0
100
AcDbLine
 10
353.6906138679782
 20
-334.5916596409074
 30
0.0
 11
353.6906138679782
 21
-333.5916596409074
 31
0.0
  0
LINE
  5
1022
330
6B
100
AcDbEntity
  8
0
100
AcDbLine
 10
353.6906138679782
 20
-336.3416596409074
 30
0.0
 11
353.6906138679782
 21
-335.3416596409074
 31
0.0
  0
LINE
  5
1023
330
6B
100
AcDbEntity
  8
0
100
AcDbLine
 10
365.195267867978
 20
-359.3347576409073
 30
0.0
 11
348.195267867978
 21
-359.3347576409073
 31
0.0
  0
LINE
  5
1024
330
6B
100
AcDbEntity
  8
0
100
AcDbLine
 10
365.2794338679779
 20
-356.8722846409074
 30
0.0
 11
348.061102867978
 21
-356.8722846409074
 31
0.0
  0
LINE
  5
1025
330
6B
100
AcDbEntity
  8
0
100
AcDbLine
 10
380.6616908679781
 20
-333.3238226409075
 30
0.0
 11
380.6616908679781
 21
-327.2602926409074
 31
0.0
  0
LINE
  5
1026
330
6B
100
AcDbEntity
  8
0
100
AcDbLine
 10
380.6616908679781
 20
-334.3667436409074
 30
0.0
 11
380.6616908679781
 21
-335.8121216409074
 31
0.0
  0
LINE
  5
1027
330
6B
100
AcDbEntity
  8
0
100
AcDbLine
 10
379.161543867978
 20
-333.2513776409074
 30
0.0
 11
379.161543867978
 21
-327.3238576409074
 31
0.0
  0
LINE
  5
1028
330
6B
100
AcDbEntity
  8
0
100
AcDbLine
 10
379.1616168679782
 20
-333.2513866409073
 30
0.0
 11
379.1616168679782
 21
-321.2627467866452
 31
0.0
  0
LINE
  5
1029
330
6B
100
AcDbEntity
  8
0
100
AcDbLine
 10
380.6616168679779
 20
-333.3238276409074
 30
0.0
 11
380.6616168679779
 21
-321.2627467866452
 31
0.0
  0
LINE
  5
102A
330
6B
100
AcDbEntity
  8
0
100
AcDbLine
 10
380.6616168679779
 20
-334.3648646409073
 30
0.0
 11
380.6616168679779
 21
-335.8121216409074
 31
0.0
  0
LINE
  5
102B
330
6B
100
AcDbEntity
  8
0
100
AcDbLine
 10
379.1616168679782
 20
-334.2942956409074
 30
0.0
 11
379.1616168679782
 21
-335.8121216409074
 31
0.0
  0
LINE
  5
102C
330
6B
100
AcDbEntity
  8
0
100
AcDbLine
 10
371.5368845765023
 20
-345.1885474099147
 30
0.0
 11
371.5368845765023
 21
-321.2627467866452
 31
0.0
  0
LINE
  5
102D
330
6B
100
AcDbEntity
  8
0
100
AcDbLine
 10
373.0368845765023
 20
-345.1885474099147
 30
0.0
 11
373.0368845765023
 21
-321.2627467866452
 31
0.0
  0
ARC
  5
102E
330
6B
100
AcDbEntity
  8
0
100
AcDbCircle
 10
365.540613867978
 20
-341.8020016409075
 30
0.0
 40
4.125
100
AcDbArc
 50
180.0
 51
236.9442689999973
  0
LINE
  5
102F
330
6B
100
AcDbEntity
  8
0
 62
     3
100
AcDbLine
 10
365.195267867978
 20
-359.8416596409074
 30
0.0
 11
348.195267867978
 21
-359.8416596409074
 31
0.0
  0
LINE
  5
1030
330
6B
100
AcDbEntity
  8
0
 62
     3
100
AcDbLine
 10
352.290613867978
 20
-337.8416596409075
 30
0.0
 11
361.040613867978
 21
-337.8416596409075
 31
0.0
  0
LINE
  5
1031
330
6B
100
AcDbEntity
  8
0
 62
     7
100
AcDbLine
 10
353.6629618679782
 20
-369.3791596409074
 30
0.0
 11
353.6629618679782
 21
-359.8416596409074
 31
0.0
  0
LINE
  5
1032
330
6B
100
AcDbEntity
  8
0
 62
     7
100
AcDbLine
 10
351.3379618679779
 20
-369.3791596409074
 30
0.0
 11
351.3379618679779
 21
-359.8416596409074
 31
0.0
  0
ARC
  5
1033
330
6B
100
AcDbEntity
  8
0
 62
     7
100
AcDbCircle
 10
352.5004618679781
 20
-369.3791596409074
 30
0.0
 40
1.1625
100
AcDbArc
 50
180.0
 51
0.0
  0
LINE
  5
1034
330
6B
100
AcDbEntity
  8
0
 62
     7
100
AcDbLine
 10
359.8202678679779
 20
-359.8416596409074
 30
0.0
 11
359.8202678679779
 21
-367.5916596409074
 31
0.0
  0
ARC
  5
1035
330
6B
100
AcDbEntity
  8
0
 62
     7
100
AcDbCircle
 10
358.2452678679782
 20
-366.3129096409074
 30
0.0
 40
2.02875
100
AcDbArc
 50
270.0
 51
320.9266900000014
  0
CIRCLE
  5
1036
330
6B
100
AcDbEntity
  8
0
 62
     7
100
AcDbCircle
 10
358.2452678679782
 20
-365.6916596409073
 30
0.0
 40
0.75
  0
LINE
  5
1037
330
6B
100
AcDbEntity
  8
0
 62
     7
100
AcDbLine
 10
356.6702678679779
 20
-359.8416596409074
 30
0.0
 11
356.6702678679779
 21
-367.5916596409074
 31
0.0
  0
ARC
  5
1038
330
6B
100
AcDbEntity
  8
0
 62
     7
100
AcDbCircle
 10
358.2452678679782
 20
-366.3129096409074
 30
0.0
 40
2.02875
100
AcDbArc
 50
219.0733099999985
 51
270.0
  0
LINE
  5
1039
330
6B
100
AcDbEntity
  8
0
 62
     7
100
AcDbLine
 10
358.2452678679782
 20
-367.5916596409074
 30
0.0
 11
356.6702678679779
 21
-367.5916596409074
 31
0.0
  0
LINE
  5
103A
330
6B
100
AcDbEntity
  8
0
 62
     7
100
AcDbLine
 10
358.2452678679782
 20
-367.5916596409074
 30
0.0
 11
359.8202678679779
 21
-367.5916596409074
 31
0.0
  0
LINE
  5
103B
330
6B
100
AcDbEntity
  8
0
 62
     3
100
AcDbLine
 10
361.415613867978
 20
-340.0093306409074
 30
0.0
 11
365.8622341073349
 21
-344.6370258476869
 31
0.0
  0
LINE
  5
103C
330
6B
100
AcDbEntity
  8
0
 62
     3
100
AcDbLine
 10
365.8622341073349
 20
-344.6370258476869
 30
0.0
 11
364.2775364027542
 21
-346.1597166411792
 31
0.0
  0
LINE
  5
103D
330
6B
100
AcDbEntity
  8
0
100
AcDbLine
 10
367.394221507293
 20
-346.8292277712405
 30
0.0
 11
365.5850147651159
 21
-344.9033980011612
 31
0.0
  0
LINE
  5
103E
330
6B
100
AcDbEntity
  8
0
100
AcDbLine
 10
366.3009760077498
 20
-347.8562692882829
 30
0.0
 11
364.5033361968567
 21
-345.9427520638602
 31
0.0
  0
ARC
  5
103F
330
6B
100
AcDbEntity
  8
0
100
AcDbCircle
 10
376.0992507222403
 20
-321.2627467866452
 30
0.0
 40
4.562366145737731
100
AcDbArc
 50
0.0
 51
180.0
  0
ARC
  5
1040
330
6B
100
AcDbEntity
  8
0
100
AcDbCircle
 10
376.0992507222403
 20
-321.2627467866452
 30
0.0
 40
3.062366145737732
100
AcDbArc
 50
0.0
 51
180.0
  0
ARC
  5
1041
330
6B
100
AcDbEntity
  8
0
100
AcDbCircle
 10
369.1406615405773
 20
-345.1885474099147
 30
0.0
 40
2.396223035925203
100
AcDbArc
 50
223.2115738316335
 51
0.0
  0
ARC
  5
1042
330
6B
100
AcDbEntity
  8
0
100
AcDbCircle
 10
369.1406615405773
 20
-345.1885474099147
 30
0.0
 40
3.896223035925201
100
AcDbArc
 50
223.2115738316335
 51
0.0
  0
LINE
  5
10A2
330
6B
100
AcDbEntity
  8
0
 62
     3
100
AcDbLine
 10
138.2097078145227
 20
-240.8416596409074
 30
0.0
 11
102.7097078145229
 21
-240.8416596409074
 31
0.0
  0
LINE
  5
10A3
330
6B
100
AcDbEntity
  8
0
 62
     3
100
AcDbLine
 10
87.95970781452297
 20
-251.3416596409074
 30
0.0
 11
94.76872480889769
 21
-237.7236256521575
 31
0.0
  0
ARC
  5
10A4
330
6B
100
AcDbEntity
  8
0
 62
     3
100
AcDbCircle
 10
97.0047927863975
 20
-238.8416596409074
 30
0.0
 40
2.5
100
AcDbArc
 50
90.0
 51
153.4349488229285
  0
LINE
  5
10A5
330
6B
100
AcDbEntity
  8
0
 62
     3
100
AcDbLine
 10
152.9597078145227
 20
-251.3416596409074
 30
0.0
 11
146.1506908201479
 21
-237.7236256521575
 31
0.0
  0
ARC
  5
10A6
330
6B
100
AcDbEntity
  8
0
 62
     3
100
AcDbCircle
 10
143.914622842648
 20
-238.8416596409074
 30
0.0
 40
2.5
100
AcDbArc
 50
26.56505117707153
 51
90.0
  0
LINE
  5
10A7
330
6B
100
AcDbEntity
  8
0
 62
     3
100
AcDbLine
 10
143.914622842648
 20
-236.3416596409074
 30
0.0
 11
97.0047927863975
 21
-236.3416596409074
 31
0.0
  0
ARC
  5
10A8
330
6B
100
AcDbEntity
  8
0
 62
     3
100
AcDbCircle
 10
138.2097078145227
 20
-242.3416596409075
 30
0.0
 40
1.5
100
AcDbArc
 50
0.0
 51
89.99999999999348
  0
ARC
  5
10A9
330
6B
100
AcDbEntity
  8
0
 62
     3
100
AcDbCircle
 10
102.7097078145229
 20
-242.3416596409075
 30
0.0
 40
1.5
100
AcDbArc
 50
90.0
 51
180.0
  0
LINE
  5
10AA
330
6B
100
AcDbEntity
  8
0
 62
     3
100
AcDbLine
 10
139.7097078145225
 20
-251.3416596409074
 30
0.0
 11
139.7097078145225
 21
-242.3416596409075
 31
0.0
  0
LINE
  5
10AB
330
6B
100
AcDbEntity
  8
0
 62
     3
100
AcDbLine
 10
101.2097078145229
 20
-251.3416596409074
 30
0.0
 11
101.2097078145229
 21
-242.3416596409075
 31
0.0
  0
LINE
  5
10B0
330
6B
100
AcDbEntity
  8
0
100
AcDbLine
 10
65.95970781452297
 20
-314.3416596409074
 30
0.0
 11
65.45970781452297
 21
-314.3416596409074
 31
0.0
  0
LINE
  5
10B2
330
6B
100
AcDbEntity
  8
0
 62
     3
100
AcDbLine
 10
229.2747844607434
 20
-314.3416596409074
 30
0.0
 11
234.2747844607434
 21
-321.8416596409074
 31
0.0
  0
LINE
  5
10B3
330
6B
100
AcDbEntity
  8
0
 62
     3
100
AcDbLine
 10
65.45970781452297
 20
-321.8416596409074
 30
0.0
 11
175.459707814523
 21
-321.8416596409074
 31
0.0
  0
LINE
  5
10B4
330
6B
100
AcDbEntity
  8
0
100
AcDbLine
 10
174.9597078145229
 20
-254.8416596409075
 30
0.0
 11
174.9597078145229
 21
-321.8416596409074
 31
0.0
  0
ARC
  5
10B5
330
6B
100
AcDbEntity
  8
0
100
AcDbCircle
 10
171.9597078145229
 20
-254.8416596409074
 30
0.0
 40
3.0
100
AcDbArc
 50
0.0
 51
90.0
  0
LINE
  5
10B6
330
6B
100
AcDbEntity
  8
0
100
AcDbLine
 10
171.9597078145229
 20
-251.8416596409074
 30
0.0
 11
68.95970781452297
 21
-251.8416596409074
 31
0.0
  0
ARC
  5
10B7
330
6B
100
AcDbEntity
  8
0
100
AcDbCircle
 10
68.95970781452297
 20
-254.8416596409075
 30
0.0
 40
3.0
100
AcDbArc
 50
90.0
 51
180.0
  0
LINE
  5
10B8
330
6B
100
AcDbEntity
  8
0
100
AcDbLine
 10
65.95970781452297
 20
-254.8416596409075
 30
0.0
 11
65.95970781452297
 21
-321.8416596409074
 31
0.0
  0
LINE
  5
10B9
330
6B
100
AcDbEntity
  8
0
100
AcDbLine
 10
174.9597078145229
 20
-314.3416596409074
 30
0.0
 11
175.459707814523
 21
-314.3416596409074
 31
0.0
  0
LINE
  5
10BE
330
6B
100
AcDbEntity
  8
0
 62
     3
100
AcDbLine
 10
73.70970781452297
 20
-321.8416596409074
 30
0.0
 11
74.45970781452297
 21
-327.8416596409075
 31
0.0
  0
LINE
  5
10BF
330
6B
100
AcDbEntity
  8
0
 62
     3
100
AcDbLine
 10
74.45970781452297
 20
-327.8416596409075
 30
0.0
 11
82.95970781452297
 21
-327.8416596409075
 31
0.0
  0
LINE
  5
10C0
330
6B
100
AcDbEntity
  8
0
 62
     3
100
AcDbLine
 10
83.70970781452298
 20
-321.8416596409074
 30
0.0
 11
82.95970781452297
 21
-327.8416596409075
 31
0.0
  0
LINE
  5
10C1
330
6B
100
AcDbEntity
  8
0
 62
     3
100
AcDbLine
 10
157.2097078145229
 20
-321.8416596409074
 30
0.0
 11
157.9597078145229
 21
-327.8416596409075
 31
0.0
  0
LINE
  5
10C2
330
6B
100
AcDbEntity
  8
0
 62
     3
100
AcDbLine
 10
157.9597078145229
 20
-327.8416596409075
 30
0.0
 11
166.4597078145229
 21
-327.8416596409075
 31
0.0
  0
LINE
  5
10C3
330
6B
100
AcDbEntity
  8
0
 62
     3
100
AcDbLine
 10
167.2097078145229
 20
-321.8416596409074
 30
0.0
 11
166.4597078145229
 21
-327.8416596409075
 31
0.0
  0
LINE
  5
10C4
330
6B
100
AcDbEntity
  8
0
 62
     3
100
AcDbLine
 10
244.2747844607434
 20
-321.8416596409074
 30
0.0
 11
245.0247844607434
 21
-327.8416596409075
 31
0.0
  0
LINE
  5
10C5
330
6B
100
AcDbEntity
  8
0
 62
     3
100
AcDbLine
 10
245.0247844607434
 20
-327.8416596409075
 30
0.0
 11
253.5247844607434
 21
-327.8416596409075
 31
0.0
  0
LINE
  5
10C6
330
6B
100
AcDbEntity
  8
0
 62
     3
100
AcDbLine
 10
254.2747844607434
 20
-321.8416596409074
 30
0.0
 11
253.5247844607434
 21
-327.8416596409075
 31
0.0
  0
LINE
  5
10C7
330
6B
100
AcDbEntity
  8
0
 62
     3
100
AcDbLine
 10
309.2747844607434
 20
-321.8416596409074
 30
0.0
 11
310.0247844607434
 21
-327.8416596409075
 31
0.0
  0
LINE
  5
10C8
330
6B
100
AcDbEntity
  8
0
 62
     3
100
AcDbLine
 10
310.0247844607434
 20
-327.8416596409075
 30
0.0
 11
318.5247844607434
 21
-327.8416596409075
 31
0.0
  0
LINE
  5
10C9
330
6B
100
AcDbEntity
  8
0
 62
     3
100
AcDbLine
 10
319.2747844607434
 20
-321.8416596409074
 30
0.0
 11
318.5247844607434
 21
-327.8416596409075
 31
0.0
  0
LINE
  5
10CD
330
6B
100
AcDbEntity
  8
0
 62
     3
100
AcDbLine
 10
88.4597078145232
 20
-315.8416596409074
 30
0.0
 11
82.45970781452319
 21
-315.8416596409074
 31
0.0
  0
LINE
  5
10CE
330
6B
100
AcDbEntity
  8
0
 62
     3
100
AcDbLine
 10
88.4597078145232
 20
-314.8416596409074
 30
0.0
 11
82.45970781452319
 21
-314.8416596409074
 31
0.0
  0
LINE
  5
10CF
330
6B
100
AcDbEntity
  8
0
 62
     3
100
AcDbLine
 10
80.71629132427052
 20
-274.3416596409075
 30
0.0
 11
90.20312430477543
 21
-274.3416596409075
 31
0.0
  0
LINE
  5
10D0
330
6B
100
AcDbEntity
  8
0
 62
     3
100
AcDbLine
 10
80.71629132427052
 20
-287.8416596409076
 30
0.0
 11
90.20312430477543
 21
-287.8416596409076
 31
0.0
  0
ARC
  5
10D1
330
6B
100
AcDbEntity
  8
0
 62
     3
100
AcDbCircle
 10
85.4597078145232
 20
-281.0916596409075
 30
0.0
 40
8.25
100
AcDbArc
 50
305.0968012275829
 51
54.90319877241704
  0
ARC
  5
10D2
330
6B
100
AcDbEntity
  8
0
 62
     3
100
AcDbCircle
 10
85.4597078145232
 20
-281.0916596409075
 30
0.0
 40
8.25
100
AcDbArc
 50
125.0968012275829
 51
234.903198772417
  0
LINE
  5
10D3
330
6B
100
AcDbEntity
  8
0
 62
     3
100
AcDbLine
 10
80.71629132427052
 20
-293.8416596409074
 30
0.0
 11
90.20312430477543
 21
-293.8416596409074
 31
0.0
  0
LINE
  5
10D4
330
6B
100
AcDbEntity
  8
0
 62
     3
100
AcDbLine
 10
81.78470781452302
 20
-296.5916596409075
 30
0.0
 11
81.78470781452302
 21
-301.0916596409074
 31
0.0
  0
LINE
  5
10D5
330
6B
100
AcDbEntity
  8
0
 62
     3
100
AcDbLine
 10
82.78470781452302
 20
-296.5916596409075
 30
0.0
 11
82.78470781452302
 21
-301.0916596409074
 31
0.0
  0
LINE
  5
10D6
330
6B
100
AcDbEntity
  8
0
 62
     3
100
AcDbLine
 10
88.13470781452314
 20
-297.0916596409074
 30
0.0
 11
88.13470781452314
 21
-300.5916596409075
 31
0.0
  0
LINE
  5
10D7
330
6B
100
AcDbEntity
  8
0
 62
     3
100
AcDbLine
 10
89.13470781452295
 20
-297.0916596409074
 30
0.0
 11
89.13470781452295
 21
-300.5916596409075
 31
0.0
  0
LINE
  5
10D8
330
6B
100
AcDbEntity
  8
0
 62
     3
100
AcDbLine
 10
80.71629132427052
 20
-307.3416596409074
 30
0.0
 11
90.20312430477543
 21
-307.3416596409074
 31
0.0
  0
LINE
  5
10D9
330
6B
100
AcDbEntity
  8
0
 62
     3
100
AcDbLine
 10
88.13470781452314
 20
-300.5916596409075
 30
0.0
 11
89.13470781452295
 21
-300.5916596409075
 31
0.0
  0
LINE
  5
10DA
330
6B
100
AcDbEntity
  8
0
 62
     3
100
AcDbLine
 10
81.78470781452302
 20
-301.0916596409074
 30
0.0
 11
82.78470781452302
 21
-301.0916596409074
 31
0.0
  0
LINE
  5
10DB
330
6B
100
AcDbEntity
  8
0
 62
     3
100
AcDbLine
 10
88.13470781452314
 20
-297.0916596409074
 30
0.0
 11
89.13470781452295
 21
-297.0916596409074
 31
0.0
  0
LINE
  5
10DC
330
6B
100
AcDbEntity
  8
0
 62
     3
100
AcDbLine
 10
81.78470781452302
 20
-296.5916596409075
 30
0.0
 11
82.78470781452302
 21
-296.5916596409075
 31
0.0
  0
ARC
  5
10DD
330
6B
100
AcDbEntity
  8
0
 62
     3
100
AcDbCircle
 10
85.4597078145232
 20
-300.5916596409075
 30
0.0
 40
8.25
100
AcDbArc
 50
305.0968012275829
 51
54.90319877241704
  0
ARC
  5
10DE
330
6B
100
AcDbEntity
  8
0
 62
     3
100
AcDbCircle
 10
85.4597078145232
 20
-300.5916596409075
 30
0.0
 40
8.25
100
AcDbArc
 50
125.0968012275829
 51
234.903198772417
  0
LINE
  5
10DF
330
6B
100
AcDbEntity
  8
0
100
AcDbLine
 10
85.20970781452296
 20
-310.7036662781159
 30
0.0
 11
85.20970781452296
 21
-311.3416596409074
 31
0.0
  0
LINE
  5
10E0
330
6B
100
AcDbEntity
  8
0
100
AcDbLine
 10
85.20970781452296
 20
-311.8416596409074
 30
0.0
 11
85.20970781452296
 21
-312.4796530036989
 31
0.0
  0
LINE
  5
10E1
330
6B
100
AcDbEntity
  8
0
100
AcDbLine
 10
85.7097078145232
 20
-310.7036662781159
 30
0.0
 11
85.7097078145232
 21
-311.3416596409074
 31
0.0
  0
LINE
  5
10E2
330
6B
100
AcDbEntity
  8
0
100
AcDbLine
 10
85.7097078145232
 20
-311.8416596409074
 30
0.0
 11
85.7097078145232
 21
-312.4796530036989
 31
0.0
  0
LINE
  5
10E3
330
6B
100
AcDbEntity
  8
0
100
AcDbLine
 10
84.57171445173162
 20
-311.8416596409074
 30
0.0
 11
85.20970781452296
 21
-311.8416596409074
 31
0.0
  0
LINE
  5
10E4
330
6B
100
AcDbEntity
  8
0
100
AcDbLine
 10
85.7097078145232
 20
-311.8416596409074
 30
0.0
 11
86.3477011773141
 21
-311.8416596409074
 31
0.0
  0
LINE
  5
10E5
330
6B
100
AcDbEntity
  8
0
100
AcDbLine
 10
84.57171445173162
 20
-311.3416596409074
 30
0.0
 11
85.20970781452296
 21
-311.3416596409074
 31
0.0
  0
LINE
  5
10E6
330
6B
100
AcDbEntity
  8
0
100
AcDbLine
 10
85.7097078145232
 20
-311.3416596409074
 30
0.0
 11
86.3477011773141
 21
-311.3416596409074
 31
0.0
  0
CIRCLE
  5
10E7
330
6B
100
AcDbEntity
  8
0
100
AcDbCircle
 10
85.4597078145232
 20
-311.5916596409074
 30
0.0
 40
1.625
  0
ARC
  5
10E8
330
6B
100
AcDbEntity
  8
0
100
AcDbCircle
 10
85.4597078145232
 20
-311.5916596409074
 30
0.0
 40
0.9225140716334864
100
AcDbArc
 50
74.27630340948901
 51
105.7236965905109
  0
ARC
  5
10E9
330
6B
100
AcDbEntity
  8
0
100
AcDbCircle
 10
85.4597078145232
 20
-311.5916596409074
 30
0.0
 40
0.9225140716334864
100
AcDbArc
 50
164.276303409482
 51
195.7236965905148
  0
ARC
  5
10EA
330
6B
100
AcDbEntity
  8
0
100
AcDbCircle
 10
85.4597078145232
 20
-311.5916596409074
 30
0.0
 40
0.9225140716334864
100
AcDbArc
 50
254.2763034094822
 51
285.723696590511
  0
ARC
  5
10EB
330
6B
100
AcDbEntity
  8
0
100
AcDbCircle
 10
85.4597078145232
 20
-311.5916596409074
 30
0.0
 40
0.9225140716334864
100
AcDbArc
 50
344.276303409482
 51
15.72369659051478
  0
LINE
  5
10EC
330
6B
100
AcDbEntity
  8
0
100
AcDbLine
 10
85.20970781452296
 20
-269.2036662781161
 30
0.0
 11
85.20970781452296
 21
-269.8416596409075
 31
0.0
  0
LINE
  5
10ED
330
6B
100
AcDbEntity
  8
0
100
AcDbLine
 10
85.20970781452296
 20
-270.3416596409075
 30
0.0
 11
85.20970781452296
 21
-270.979653003699
 31
0.0
  0
LINE
  5
10EE
330
6B
100
AcDbEntity
  8
0
100
AcDbLine
 10
85.7097078145232
 20
-269.2036662781161
 30
0.0
 11
85.7097078145232
 21
-269.8416596409075
 31
0.0
  0
LINE
  5
10EF
330
6B
100
AcDbEntity
  8
0
100
AcDbLine
 10
85.7097078145232
 20
-270.3416596409075
 30
0.0
 11
85.7097078145232
 21
-270.979653003699
 31
0.0
  0
LINE
  5
10F0
330
6B
100
AcDbEntity
  8
0
100
AcDbLine
 10
84.57171445173162
 20
-270.3416596409075
 30
0.0
 11
85.20970781452296
 21
-270.3416596409075
 31
0.0
  0
LINE
  5
10F1
330
6B
100
AcDbEntity
  8
0
100
AcDbLine
 10
85.7097078145232
 20
-270.3416596409075
 30
0.0
 11
86.3477011773141
 21
-270.3416596409075
 31
0.0
  0
LINE
  5
10F2
330
6B
100
AcDbEntity
  8
0
100
AcDbLine
 10
84.57171445173162
 20
-269.8416596409075
 30
0.0
 11
85.20970781452296
 21
-269.8416596409075
 31
0.0
  0
LINE
  5
10F3
330
6B
100
AcDbEntity
  8
0
100
AcDbLine
 10
85.7097078145232
 20
-269.8416596409075
 30
0.0
 11
86.3477011773141
 21
-269.8416596409075
 31
0.0
  0
CIRCLE
  5
10F4
330
6B
100
AcDbEntity
  8
0
100
AcDbCircle
 10
85.4597078145232
 20
-270.0916596409075
 30
0.0
 40
1.625
  0
ARC
  5
10F5
330
6B
100
AcDbEntity
  8
0
100
AcDbCircle
 10
85.4597078145232
 20
-270.0916596409075
 30
0.0
 40
0.9225140716334864
100
AcDbArc
 50
74.27630340948901
 51
105.7236965905109
  0
ARC
  5
10F6
330
6B
100
AcDbEntity
  8
0
100
AcDbCircle
 10
85.4597078145232
 20
-270.0916596409075
 30
0.0
 40
0.9225140716334864
100
AcDbArc
 50
164.276303409482
 51
195.7236965905148
  0
ARC
  5
10F7
330
6B
100
AcDbEntity
  8
0
100
AcDbCircle
 10
85.4597078145232
 20
-270.0916596409075
 30
0.0
 40
0.9225140716334864
100
AcDbArc
 50
254.2763034094822
 51
285.723696590511
  0
ARC
  5
10F8
330
6B
100
AcDbEntity
  8
0
100
AcDbCircle
 10
85.4597078145232
 20
-270.0916596409075
 30
0.0
 40
0.9225140716334864
100
AcDbArc
 50
344.276303409482
 51
15.72369659051478
  0
TEXT
  5
10F9
330
6B
100
AcDbEntity
  8
0
 62
     4
100
AcDbText
 10
83.02207366665289
 20
-292.0251340249773
 30
0.0
 40
2.25
  1
115V
  7
高4.5
100
AcDbText
  0
TEXT
  5
10FA
330
6B
100
AcDbEntity
  8
0
 62
     4
100
AcDbText
 10
80.21796192486954
 20
-264.5150618766884
 30
0.0
 40
2.25
  1
昇圧15%%%
  7
高4.5
100
AcDbText
  0
LINE
  5
10FB
330
6B
100
AcDbEntity
  8
0
 62
     3
100
AcDbLine
 10
86.80970781452311
 20
-306.3166596409073
 30
0.0
 11
84.10970781452306
 21
-306.3166596409073
 31
0.0
  0
LINE
  5
10FC
330
6B
100
AcDbEntity
  8
0
 62
     3
100
AcDbLine
 10
84.10970781452306
 20
-306.3166596409073
 30
0.0
 11
84.10970781452306
 21
-304.9666596409074
 31
0.0
  0
LINE
  5
10FD
330
6B
100
AcDbEntity
  8
0
 62
     3
100
AcDbLine
 10
86.80970781452311
 20
-306.3166596409073
 30
0.0
 11
86.80970781452311
 21
-304.9666596409074
 31
0.0
  0
ARC
  5
10FE
330
6B
100
AcDbEntity
  8
0
 62
     3
100
AcDbCircle
 10
85.4597078145232
 20
-304.9666596409074
 30
0.0
 40
1.349999999999994
100
AcDbArc
 50
0.0
 51
180.0
  0
LINE
  5
10FF
330
6B
100
AcDbEntity
  8
0
 62
     3
100
AcDbLine
 10
81.78470781452302
 20
-277.0916596409075
 30
0.0
 11
81.78470781452302
 21
-281.5916596409076
 31
0.0
  0
LINE
  5
1100
330
6B
100
AcDbEntity
  8
0
 62
     3
100
AcDbLine
 10
82.78470781452302
 20
-277.0916596409075
 30
0.0
 11
82.78470781452302
 21
-281.5916596409076
 31
0.0
  0
LINE
  5
1101
330
6B
100
AcDbEntity
  8
0
 62
     3
100
AcDbLine
 10
88.13470781452314
 20
-277.5916596409075
 30
0.0
 11
88.13470781452314
 21
-281.0916596409075
 31
0.0
  0
LINE
  5
1102
330
6B
100
AcDbEntity
  8
0
 62
     3
100
AcDbLine
 10
89.13470781452295
 20
-277.5916596409075
 30
0.0
 11
89.13470781452295
 21
-281.0916596409075
 31
0.0
  0
LINE
  5
1103
330
6B
100
AcDbEntity
  8
0
 62
     3
100
AcDbLine
 10
88.13470781452314
 20
-281.0916596409075
 30
0.0
 11
89.13470781452295
 21
-281.0916596409075
 31
0.0
  0
LINE
  5
1104
330
6B
100
AcDbEntity
  8
0
 62
     3
100
AcDbLine
 10
81.78470781452302
 20
-281.5916596409076
 30
0.0
 11
82.78470781452302
 21
-281.5916596409076
 31
0.0
  0
LINE
  5
1105
330
6B
100
AcDbEntity
  8
0
 62
     3
100
AcDbLine
 10
88.13470781452314
 20
-277.5916596409075
 30
0.0
 11
89.13470781452295
 21
-277.5916596409075
 31
0.0
  0
LINE
  5
1106
330
6B
100
AcDbEntity
  8
0
 62
     3
100
AcDbLine
 10
81.78470781452302
 20
-277.0916596409075
 30
0.0
 11
82.78470781452302
 21
-277.0916596409075
 31
0.0
  0
LINE
  5
1107
330
6B
100
AcDbEntity
  8
0
 62
     3
100
AcDbLine
 10
86.80970781452311
 20
-286.8166596409075
 30
0.0
 11
84.10970781452306
 21
-286.8166596409075
 31
0.0
  0
LINE
  5
1108
330
6B
100
AcDbEntity
  8
0
 62
     3
100
AcDbLine
 10
84.10970781452306
 20
-286.8166596409075
 30
0.0
 11
84.10970781452306
 21
-285.4666596409074
 31
0.0
  0
LINE
  5
1109
330
6B
100
AcDbEntity
  8
0
 62
     3
100
AcDbLine
 10
86.80970781452311
 20
-286.8166596409075
 30
0.0
 11
86.80970781452311
 21
-285.4666596409074
 31
0.0
  0
ARC
  5
110A
330
6B
100
AcDbEntity
  8
0
 62
     3
100
AcDbCircle
 10
85.4597078145232
 20
-285.4666596409074
 30
0.0
 40
1.349999999999994
100
AcDbArc
 50
0.0
 51
180.0
  0
LINE
  5
110B
330
6B
100
AcDbEntity
  8
0
 62
     3
100
AcDbLine
 10
82.45970781452319
 20
-307.3416596409074
 30
0.0
 11
82.45970781452319
 21
-315.8416596409074
 31
0.0
  0
LINE
  5
110C
330
6B
100
AcDbEntity
  8
0
 62
     3
100
AcDbLine
 10
88.4597078145232
 20
-307.3416596409074
 30
0.0
 11
88.4597078145232
 21
-315.8416596409074
 31
0.0
  0
LINE
  5
110D
330
6B
100
AcDbEntity
  8
0
 62
     3
100
AcDbLine
 10
150.7162913242703
 20
-274.3416596409075
 30
0.0
 11
160.2031243047756
 21
-274.3416596409075
 31
0.0
  0
LINE
  5
110E
330
6B
100
AcDbEntity
  8
0
 62
     3
100
AcDbLine
 10
150.7162913242703
 20
-287.8416596409076
 30
0.0
 11
160.2031243047756
 21
-287.8416596409076
 31
0.0
  0
ARC
  5
110F
330
6B
100
AcDbEntity
  8
0
 62
     3
100
AcDbCircle
 10
155.4597078145232
 20
-281.0916596409075
 30
0.0
 40
8.25
100
AcDbArc
 50
305.0968012275829
 51
54.90319877241704
  0
ARC
  5
1110
330
6B
100
AcDbEntity
  8
0
 62
     3
100
AcDbCircle
 10
155.4597078145232
 20
-281.0916596409075
 30
0.0
 40
8.25
100
AcDbArc
 50
125.0968012275829
 51
234.903198772417
  0
LINE
  5
1111
330
6B
100
AcDbEntity
  8
0
 62
     3
100
AcDbLine
 10
150.7162913242703
 20
-293.8416596409074
 30
0.0
 11
160.2031243047756
 21
-293.8416596409074
 31
0.0
  0
LINE
  5
1112
330
6B
100
AcDbEntity
  8
0
 62
     3
100
AcDbLine
 10
150.7162913242703
 20
-307.3416596409074
 30
0.0
 11
160.2031243047756
 21
-307.3416596409074
 31
0.0
  0
ARC
  5
1113
330
6B
100
AcDbEntity
  8
0
 62
     3
100
AcDbCircle
 10
155.4597078145232
 20
-300.5916596409075
 30
0.0
 40
8.25
100
AcDbArc
 50
305.0968012275829
 51
54.90319877241704
  0
ARC
  5
1114
330
6B
100
AcDbEntity
  8
0
 62
     3
100
AcDbCircle
 10
155.4597078145232
 20
-300.5916596409075
 30
0.0
 40
8.25
100
AcDbArc
 50
125.0968012275829
 51
234.903198772417
  0
LINE
  5
1115
330
6B
100
AcDbEntity
  8
0
100
AcDbLine
 10
155.2097078145231
 20
-310.7036662781159
 30
0.0
 11
155.2097078145231
 21
-311.3416596409074
 31
0.0
  0
LINE
  5
1116
330
6B
100
AcDbEntity
  8
0
100
AcDbLine
 10
155.2097078145231
 20
-311.8416596409074
 30
0.0
 11
155.2097078145231
 21
-312.4796530036989
 31
0.0
  0
LINE
  5
1117
330
6B
100
AcDbEntity
  8
0
100
AcDbLine
 10
155.709707814523
 20
-310.7036662781159
 30
0.0
 11
155.709707814523
 21
-311.3416596409074
 31
0.0
  0
LINE
  5
1118
330
6B
100
AcDbEntity
  8
0
100
AcDbLine
 10
155.709707814523
 20
-311.8416596409074
 30
0.0
 11
155.709707814523
 21
-312.4796530036989
 31
0.0
  0
LINE
  5
1119
330
6B
100
AcDbEntity
  8
0
100
AcDbLine
 10
154.5717144517318
 20
-311.8416596409074
 30
0.0
 11
155.2097078145231
 21
-311.8416596409074
 31
0.0
  0
LINE
  5
111A
330
6B
100
AcDbEntity
  8
0
100
AcDbLine
 10
155.709707814523
 20
-311.8416596409074
 30
0.0
 11
156.3477011773143
 21
-311.8416596409074
 31
0.0
  0
LINE
  5
111B
330
6B
100
AcDbEntity
  8
0
100
AcDbLine
 10
154.5717144517318
 20
-311.3416596409074
 30
0.0
 11
155.2097078145231
 21
-311.3416596409074
 31
0.0
  0
LINE
  5
111C
330
6B
100
AcDbEntity
  8
0
100
AcDbLine
 10
155.709707814523
 20
-311.3416596409074
 30
0.0
 11
156.3477011773143
 21
-311.3416596409074
 31
0.0
  0
CIRCLE
  5
111D
330
6B
100
AcDbEntity
  8
0
100
AcDbCircle
 10
155.4597078145232
 20
-311.5916596409074
 30
0.0
 40
1.625
  0
ARC
  5
111E
330
6B
100
AcDbEntity
  8
0
100
AcDbCircle
 10
155.4597078145232
 20
-311.5916596409074
 30
0.0
 40
0.9225140716334864
100
AcDbArc
 50
74.27630340948901
 51
105.7236965905109
  0
ARC
  5
111F
330
6B
100
AcDbEntity
  8
0
100
AcDbCircle
 10
155.4597078145232
 20
-311.5916596409074
 30
0.0
 40
0.9225140716334864
100
AcDbArc
 50
164.276303409482
 51
195.7236965905148
  0
ARC
  5
1120
330
6B
100
AcDbEntity
  8
0
100
AcDbCircle
 10
155.4597078145232
 20
-311.5916596409074
 30
0.0
 40
0.9225140716334864
100
AcDbArc
 50
254.2763034094822
 51
285.723696590511
  0
ARC
  5
1121
330
6B
100
AcDbEntity
  8
0
100
AcDbCircle
 10
155.4597078145232
 20
-311.5916596409074
 30
0.0
 40
0.9225140716334864
100
AcDbArc
 50
344.276303409482
 51
15.72369659051478
  0
LINE
  5
1122
330
6B
100
AcDbEntity
  8
0
100
AcDbLine
 10
155.2097078145231
 20
-269.2036662781161
 30
0.0
 11
155.2097078145231
 21
-269.8416596409075
 31
0.0
  0
LINE
  5
1123
330
6B
100
AcDbEntity
  8
0
100
AcDbLine
 10
155.2097078145231
 20
-270.3416596409075
 30
0.0
 11
155.2097078145231
 21
-270.979653003699
 31
0.0
  0
LINE
  5
1124
330
6B
100
AcDbEntity
  8
0
100
AcDbLine
 10
155.709707814523
 20
-269.2036662781161
 30
0.0
 11
155.709707814523
 21
-269.8416596409075
 31
0.0
  0
LINE
  5
1125
330
6B
100
AcDbEntity
  8
0
100
AcDbLine
 10
155.709707814523
 20
-270.3416596409075
 30
0.0
 11
155.709707814523
 21
-270.979653003699
 31
0.0
  0
LINE
  5
1126
330
6B
100
AcDbEntity
  8
0
100
AcDbLine
 10
154.5717144517318
 20
-270.3416596409075
 30
0.0
 11
155.2097078145231
 21
-270.3416596409075
 31
0.0
  0
LINE
  5
1127
330
6B
100
AcDbEntity
  8
0
100
AcDbLine
 10
155.709707814523
 20
-270.3416596409075
 30
0.0
 11
156.3477011773143
 21
-270.3416596409075
 31
0.0
  0
LINE
  5
1128
330
6B
100
AcDbEntity
  8
0
100
AcDbLine
 10
154.5717144517318
 20
-269.8416596409075
 30
0.0
 11
155.2097078145231
 21
-269.8416596409075
 31
0.0
  0
LINE
  5
1129
330
6B
100
AcDbEntity
  8
0
100
AcDbLine
 10
155.709707814523
 20
-269.8416596409075
 30
0.0
 11
156.3477011773143
 21
-269.8416596409075
 31
0.0
  0
CIRCLE
  5
112A
330
6B
100
AcDbEntity
  8
0
100
AcDbCircle
 10
155.4597078145232
 20
-270.0916596409075
 30
0.0
 40
1.625
  0
ARC
  5
112B
330
6B
100
AcDbEntity
  8
0
100
AcDbCircle
 10
155.4597078145232
 20
-270.0916596409075
 30
0.0
 40
0.9225140716334864
100
AcDbArc
 50
74.27630340948901
 51
105.7236965905109
  0
ARC
  5
112C
330
6B
100
AcDbEntity
  8
0
100
AcDbCircle
 10
155.4597078145232
 20
-270.0916596409075
 30
0.0
 40
0.9225140716334864
100
AcDbArc
 50
164.276303409482
 51
195.7236965905148
  0
ARC
  5
112D
330
6B
100
AcDbEntity
  8
0
100
AcDbCircle
 10
155.4597078145232
 20
-270.0916596409075
 30
0.0
 40
0.9225140716334864
100
AcDbArc
 50
254.2763034094822
 51
285.723696590511
  0
ARC
  5
112E
330
6B
100
AcDbEntity
  8
0
100
AcDbCircle
 10
155.4597078145232
 20
-270.0916596409075
 30
0.0
 40
0.9225140716334864
100
AcDbArc
 50
344.276303409482
 51
15.72369659051478
  0
TEXT
  5
112F
330
6B
100
AcDbEntity
  8
0
 62
     4
100
AcDbText
 10
152.2647255117617
 20
-292.0251340249773
 30
0.0
 40
2.25
  1
125V
  7
高4.5
100
AcDbText
  0
TEXT
  5
1130
330
6B
100
AcDbEntity
  8
0
 62
     4
100
AcDbText
 10
150.3729250629242
 20
-264.5150618766884
 30
0.0
 40
2.25
  1
昇圧25%%%
  7
高4.5
100
AcDbText
  0
LINE
  5
1131
330
6B
100
AcDbEntity
  8
0
 62
     3
100
AcDbLine
 10
151.784707814523
 20
-277.0916596409075
 30
0.0
 11
151.784707814523
 21
-281.5916596409076
 31
0.0
  0
LINE
  5
1132
330
6B
100
AcDbEntity
  8
0
 62
     3
100
AcDbLine
 10
152.784707814523
 20
-277.0916596409075
 30
0.0
 11
152.784707814523
 21
-281.5916596409076
 31
0.0
  0
LINE
  5
1133
330
6B
100
AcDbEntity
  8
0
 62
     3
100
AcDbLine
 10
158.1347078145227
 20
-277.5916596409075
 30
0.0
 11
158.1347078145227
 21
-281.0916596409075
 31
0.0
  0
LINE
  5
1134
330
6B
100
AcDbEntity
  8
0
 62
     3
100
AcDbLine
 10
159.1347078145227
 20
-277.5916596409075
 30
0.0
 11
159.1347078145227
 21
-281.0916596409075
 31
0.0
  0
LINE
  5
1135
330
6B
100
AcDbEntity
  8
0
 62
     3
100
AcDbLine
 10
158.1347078145227
 20
-281.0916596409075
 30
0.0
 11
159.1347078145227
 21
-281.0916596409075
 31
0.0
  0
LINE
  5
1136
330
6B
100
AcDbEntity
  8
0
 62
     3
100
AcDbLine
 10
151.784707814523
 20
-281.5916596409076
 30
0.0
 11
152.784707814523
 21
-281.5916596409076
 31
0.0
  0
LINE
  5
1137
330
6B
100
AcDbEntity
  8
0
 62
     3
100
AcDbLine
 10
158.1347078145227
 20
-277.5916596409075
 30
0.0
 11
159.1347078145227
 21
-277.5916596409075
 31
0.0
  0
LINE
  5
1138
330
6B
100
AcDbEntity
  8
0
 62
     3
100
AcDbLine
 10
151.784707814523
 20
-277.0916596409075
 30
0.0
 11
152.784707814523
 21
-277.0916596409075
 31
0.0
  0
LINE
  5
1139
330
6B
100
AcDbEntity
  8
0
 62
     3
100
AcDbLine
 10
156.8097078145231
 20
-286.8166596409075
 30
0.0
 11
154.1097078145228
 21
-286.8166596409075
 31
0.0
  0
LINE
  5
113A
330
6B
100
AcDbEntity
  8
0
 62
     3
100
AcDbLine
 10
154.1097078145228
 20
-286.8166596409075
 30
0.0
 11
154.1097078145228
 21
-285.4666596409074
 31
0.0
  0
LINE
  5
113B
330
6B
100
AcDbEntity
  8
0
 62
     3
100
AcDbLine
 10
156.8097078145231
 20
-286.8166596409075
 30
0.0
 11
156.8097078145231
 21
-285.4666596409074
 31
0.0
  0
ARC
  5
113C
330
6B
100
AcDbEntity
  8
0
 62
     3
100
AcDbCircle
 10
155.459707814523
 20
-285.4666596409074
 30
0.0
 40
1.349999999999994
100
AcDbArc
 50
0.0
 51
180.0
  0
LINE
  5
113D
330
6B
100
AcDbEntity
  8
0
 62
     3
100
AcDbLine
 10
151.784707814523
 20
-296.5916596409075
 30
0.0
 11
151.784707814523
 21
-301.0916596409074
 31
0.0
  0
LINE
  5
113E
330
6B
100
AcDbEntity
  8
0
 62
     3
100
AcDbLine
 10
152.784707814523
 20
-296.5916596409075
 30
0.0
 11
152.784707814523
 21
-301.0916596409074
 31
0.0
  0
LINE
  5
113F
330
6B
100
AcDbEntity
  8
0
 62
     3
100
AcDbLine
 10
158.1347078145227
 20
-297.0916596409074
 30
0.0
 11
158.1347078145227
 21
-300.5916596409075
 31
0.0
  0
LINE
  5
1140
330
6B
100
AcDbEntity
  8
0
 62
     3
100
AcDbLine
 10
159.1347078145227
 20
-297.0916596409074
 30
0.0
 11
159.1347078145227
 21
-300.5916596409075
 31
0.0
  0
LINE
  5
1141
330
6B
100
AcDbEntity
  8
0
 62
     3
100
AcDbLine
 10
158.1347078145227
 20
-300.5916596409075
 30
0.0
 11
159.1347078145227
 21
-300.5916596409075
 31
0.0
  0
LINE
  5
1142
330
6B
100
AcDbEntity
  8
0
 62
     3
100
AcDbLine
 10
151.784707814523
 20
-301.0916596409074
 30
0.0
 11
152.784707814523
 21
-301.0916596409074
 31
0.0
  0
LINE
  5
1143
330
6B
100
AcDbEntity
  8
0
 62
     3
100
AcDbLine
 10
158.1347078145227
 20
-297.0916596409074
 30
0.0
 11
159.1347078145227
 21
-297.0916596409074
 31
0.0
  0
LINE
  5
1144
330
6B
100
AcDbEntity
  8
0
 62
     3
100
AcDbLine
 10
151.784707814523
 20
-296.5916596409075
 30
0.0
 11
152.784707814523
 21
-296.5916596409075
 31
0.0
  0
LINE
  5
1145
330
6B
100
AcDbEntity
  8
0
 62
     3
100
AcDbLine
 10
156.8097078145231
 20
-306.3166596409073
 30
0.0
 11
154.1097078145228
 21
-306.3166596409073
 31
0.0
  0
LINE
  5
1146
330
6B
100
AcDbEntity
  8
0
 62
     3
100
AcDbLine
 10
154.1097078145228
 20
-306.3166596409073
 30
0.0
 11
154.1097078145228
 21
-304.9666596409074
 31
0.0
  0
LINE
  5
1147
330
6B
100
AcDbEntity
  8
0
 62
     3
100
AcDbLine
 10
156.8097078145231
 20
-306.3166596409073
 30
0.0
 11
156.8097078145231
 21
-304.9666596409074
 31
0.0
  0
ARC
  5
1148
330
6B
100
AcDbEntity
  8
0
 62
     3
100
AcDbCircle
 10
155.459707814523
 20
-304.9666596409074
 30
0.0
 40
1.349999999999994
100
AcDbArc
 50
0.0
 51
180.0
  0
LINE
  5
1149
330
6B
100
AcDbEntity
  8
0
 62
     3
100
AcDbLine
 10
158.4597078145231
 20
-315.8416596409074
 30
0.0
 11
152.4597078145232
 21
-315.8416596409074
 31
0.0
  0
LINE
  5
114A
330
6B
100
AcDbEntity
  8
0
 62
     3
100
AcDbLine
 10
158.4597078145231
 20
-314.8416596409074
 30
0.0
 11
152.4597078145232
 21
-314.8416596409074
 31
0.0
  0
LINE
  5
114B
330
6B
100
AcDbEntity
  8
0
 62
     3
100
AcDbLine
 10
152.4597078145232
 20
-307.3416596409074
 30
0.0
 11
152.4597078145232
 21
-315.8416596409074
 31
0.0
  0
LINE
  5
114C
330
6B
100
AcDbEntity
  8
0
 62
     3
100
AcDbLine
 10
158.4597078145231
 20
-307.3416596409074
 30
0.0
 11
158.4597078145231
 21
-315.8416596409074
 31
0.0
  0
LINE
  5
114E
330
6B
100
AcDbEntity
  8
0
 62
     3
100
AcDbLine
 10
109.4597078145229
 20
-260.8416596409075
 30
0.0
 11
109.4597078145229
 21
-283.3416596409074
 31
0.0
  0
LINE
  5
114F
330
6B
100
AcDbEntity
  8
0
 62
     3
100
AcDbLine
 10
109.4597078145229
 20
-283.3416596409074
 30
0.0
 11
131.4597078145229
 21
-283.3416596409074
 31
0.0
  0
LINE
  5
1150
330
6B
100
AcDbEntity
  8
0
 62
     3
100
AcDbLine
 10
131.4597078145229
 20
-283.3416596409074
 30
0.0
 11
131.4597078145229
 21
-260.8416596409075
 31
0.0
  0
LINE
  5
1151
330
6B
100
AcDbEntity
  8
0
 62
     3
100
AcDbLine
 10
131.4597078145229
 20
-260.8416596409075
 30
0.0
 11
109.4597078145229
 21
-260.8416596409075
 31
0.0
  0
LINE
  5
1152
330
6B
100
AcDbEntity
  8
0
 62
     3
100
AcDbLine
 10
109.4597078145229
 20
-274.132357315326
 30
0.0
 11
131.4597078145229
 21
-274.132357315326
 31
0.0
  0
ARC
  5
1153
330
6B
100
AcDbEntity
  8
0
 62
     3
100
AcDbCircle
 10
120.4597078145229
 20
-274.132357315326
 30
0.0
 40
3.069767441860463
100
AcDbArc
 50
0.0
 51
180.0
  0
LINE
  5
1154
330
6B
100
AcDbEntity
  8
0
 62
     3
100
AcDbLine
 10
111.5062194424297
 20
-268.2486363850935
 30
0.0
 11
111.762033395918
 21
-268.2486363850935
 31
0.0
  0
LINE
  5
1155
330
6B
100
AcDbEntity
  8
0
100
AcDbLine
 10
120.4597078145229
 20
-277.4579387106749
 30
0.0
 11
120.4597078145229
 21
-281.0393340595121
 31
0.0
  0
CIRCLE
  5
1156
330
6B
100
AcDbEntity
  8
0
100
AcDbCircle
 10
120.4597078145229
 20
-279.2486363850934
 30
0.0
 40
1.790697674418604
  0
LINE
  5
1157
330
6B
100
AcDbEntity
  8
0
100
AcDbLine
 10
111.762033395918
 20
-268.2486363850935
 30
0.0
 11
120.7155217680108
 21
-274.132357315326
 31
0.0
  0
LINE
  5
1158
330
6B
100
AcDbEntity
  8
0
100
AcDbLine
 10
120.4597078145229
 20
-274.132357315326
 30
0.0
 11
111.5062194424297
 21
-268.2486363850935
 31
0.0
  0
TEXT
  5
1159
330
6B
100
AcDbEntity
  8
0
100
AcDbText
 10
128.6457543261507
 20
-266.2021247571865
 30
0.0
 40
1.023255813953487
  1
150
 50
319.9999910000022
 41
1.1808
100
AcDbText
  0
LINE
  5
115A
330
6B
100
AcDbEntity
  8
0
100
AcDbLine
 10
129.5032426982436
 20
-268.1381247571865
 30
0.0
 11
130.2706845587089
 21
-267.3706828967214
 31
0.0
  0
ARC
  5
115B
330
6B
100
AcDbEntity
  8
0
100
AcDbCircle
 10
121.227149674988
 20
-279.7602642920701
 30
0.0
 40
14.32558139534884
100
AcDbArc
 50
50.85599999999602
 51
129.1440000000039
  0
TEXT
  5
115C
330
6B
100
AcDbEntity
  8
0
100
AcDbText
 10
110.6883310703368
 20
-267.4636467106747
 30
0.0
 40
0.8390697674418603
  1
0
 50
39.99999900000239
 41
1.440001
100
AcDbText
  0
LINE
  5
115D
330
6B
100
AcDbEntity
  8
0
100
AcDbLine
 10
111.5062194424297
 20
-268.2486363850935
 30
0.0
 11
110.9945915354529
 21
-267.4811945246283
 31
0.0
  0
TEXT
  5
115E
330
6B
100
AcDbEntity
  8
0
 62
     4
100
AcDbText
 10
115.736115878506
 20
-259.7749909336894
 30
0.0
 40
2.25
  1
入力電圧
  7
高4.5
100
AcDbText
  0
LINE
  5
115F
330
6B
100
AcDbEntity
  8
0
 62
     3
100
AcDbLine
 10
111.4597078145229
 20
-312.3416596409074
 30
0.0
 11
129.459707814523
 21
-312.3416596409074
 31
0.0
  0
LINE
  5
1160
330
6B
100
AcDbEntity
  8
0
100
AcDbLine
 10
102.459707814523
 20
-296.8416596409074
 30
0.0
 11
111.4597078145229
 21
-296.8416596409074
 31
0.0
  0
LINE
  5
1161
330
6B
100
AcDbEntity
  8
0
 62
     3
100
AcDbLine
 10
129.459707814523
 20
-312.3416596409074
 30
0.0
 11
129.459707814523
 21
-296.8416596409074
 31
0.0
  0
LINE
  5
1162
330
6B
100
AcDbEntity
  8
0
 62
     3
100
AcDbLine
 10
111.4597078145229
 20
-296.8416596409074
 30
0.0
 11
111.4597078145229
 21
-312.3416596409074
 31
0.0
  0
LINE
  5
1166
330
6B
100
AcDbEntity
  8
0
100
AcDbLine
 10
135.2097078145229
 20
-303.7036662781158
 30
0.0
 11
135.2097078145229
 21
-304.3416596409074
 31
0.0
  0
LINE
  5
1167
330
6B
100
AcDbEntity
  8
0
100
AcDbLine
 10
135.2097078145229
 20
-304.8416596409075
 30
0.0
 11
135.2097078145229
 21
-305.4796530036989
 31
0.0
  0
LINE
  5
1168
330
6B
100
AcDbEntity
  8
0
100
AcDbLine
 10
135.7097078145227
 20
-303.7036662781158
 30
0.0
 11
135.7097078145227
 21
-304.3416596409074
 31
0.0
  0
LINE
  5
1169
330
6B
100
AcDbEntity
  8
0
100
AcDbLine
 10
135.7097078145227
 20
-304.8416596409075
 30
0.0
 11
135.7097078145227
 21
-305.4796530036989
 31
0.0
  0
LINE
  5
116A
330
6B
100
AcDbEntity
  8
0
100
AcDbLine
 10
134.5717144517315
 20
-304.8416596409075
 30
0.0
 11
135.2097078145229
 21
-304.8416596409075
 31
0.0
  0
LINE
  5
116B
330
6B
100
AcDbEntity
  8
0
100
AcDbLine
 10
135.7097078145227
 20
-304.8416596409075
 30
0.0
 11
136.3477011773141
 21
-304.8416596409075
 31
0.0
  0
LINE
  5
116C
330
6B
100
AcDbEntity
  8
0
100
AcDbLine
 10
134.5717144517315
 20
-304.3416596409074
 30
0.0
 11
135.2097078145229
 21
-304.3416596409074
 31
0.0
  0
LINE
  5
116D
330
6B
100
AcDbEntity
  8
0
100
AcDbLine
 10
135.7097078145227
 20
-304.3416596409074
 30
0.0
 11
136.3477011773141
 21
-304.3416596409074
 31
0.0
  0
CIRCLE
  5
116E
330
6B
100
AcDbEntity
  8
0
100
AcDbCircle
 10
135.4597078145229
 20
-304.5916596409075
 30
0.0
 40
1.625
  0
ARC
  5
116F
330
6B
100
AcDbEntity
  8
0
100
AcDbCircle
 10
135.4597078145229
 20
-304.5916596409075
 30
0.0
 40
0.9225140716334864
100
AcDbArc
 50
74.27630340948901
 51
105.7236965905109
  0
ARC
  5
1170
330
6B
100
AcDbEntity
  8
0
100
AcDbCircle
 10
135.4597078145229
 20
-304.5916596409075
 30
0.0
 40
0.9225140716334864
100
AcDbArc
 50
164.276303409482
 51
195.7236965905148
  0
ARC
  5
1171
330
6B
100
AcDbEntity
  8
0
100
AcDbCircle
 10
135.4597078145229
 20
-304.5916596409075
 30
0.0
 40
0.9225140716334864
100
AcDbArc
 50
254.2763034094822
 51
285.723696590511
  0
ARC
  5
1172
330
6B
100
AcDbEntity
  8
0
100
AcDbCircle
 10
135.4597078145229
 20
-304.5916596409075
 30
0.0
 40
0.9225140716334864
100
AcDbArc
 50
344.276303409482
 51
15.72369659051478
  0
LINE
  5
1173
330
6B
100
AcDbEntity
  8
0
100
AcDbLine
 10
105.2097078145229
 20
-303.7036662781158
 30
0.0
 11
105.2097078145229
 21
-304.3416596409074
 31
0.0
  0
LINE
  5
1174
330
6B
100
AcDbEntity
  8
0
100
AcDbLine
 10
105.2097078145229
 20
-304.8416596409075
 30
0.0
 11
105.2097078145229
 21
-305.4796530036989
 31
0.0
  0
LINE
  5
1175
330
6B
100
AcDbEntity
  8
0
100
AcDbLine
 10
105.7097078145227
 20
-303.7036662781158
 30
0.0
 11
105.7097078145227
 21
-304.3416596409074
 31
0.0
  0
LINE
  5
1176
330
6B
100
AcDbEntity
  8
0
100
AcDbLine
 10
105.7097078145227
 20
-304.8416596409075
 30
0.0
 11
105.7097078145227
 21
-305.4796530036989
 31
0.0
  0
LINE
  5
1177
330
6B
100
AcDbEntity
  8
0
100
AcDbLine
 10
104.5717144517315
 20
-304.8416596409075
 30
0.0
 11
105.2097078145229
 21
-304.8416596409075
 31
0.0
  0
LINE
  5
1178
330
6B
100
AcDbEntity
  8
0
100
AcDbLine
 10
105.7097078145227
 20
-304.8416596409075
 30
0.0
 11
106.3477011773141
 21
-304.8416596409075
 31
0.0
  0
LINE
  5
1179
330
6B
100
AcDbEntity
  8
0
100
AcDbLine
 10
104.5717144517315
 20
-304.3416596409074
 30
0.0
 11
105.2097078145229
 21
-304.3416596409074
 31
0.0
  0
LINE
  5
117A
330
6B
100
AcDbEntity
  8
0
100
AcDbLine
 10
105.7097078145227
 20
-304.3416596409074
 30
0.0
 11
106.3477011773141
 21
-304.3416596409074
 31
0.0
  0
CIRCLE
  5
117B
330
6B
100
AcDbEntity
  8
0
100
AcDbCircle
 10
105.4597078145229
 20
-304.5916596409075
 30
0.0
 40
1.625
  0
ARC
  5
117C
330
6B
100
AcDbEntity
  8
0
100
AcDbCircle
 10
105.4597078145229
 20
-304.5916596409075
 30
0.0
 40
0.9225140716334864
100
AcDbArc
 50
74.27630340948901
 51
105.7236965905109
  0
ARC
  5
117D
330
6B
100
AcDbEntity
  8
0
100
AcDbCircle
 10
105.4597078145229
 20
-304.5916596409075
 30
0.0
 40
0.9225140716334864
100
AcDbArc
 50
164.276303409482
 51
195.7236965905148
  0
ARC
  5
117E
330
6B
100
AcDbEntity
  8
0
100
AcDbCircle
 10
105.4597078145229
 20
-304.5916596409075
 30
0.0
 40
0.9225140716334864
100
AcDbArc
 50
254.2763034094822
 51
285.723696590511
  0
ARC
  5
117F
330
6B
100
AcDbEntity
  8
0
100
AcDbCircle
 10
105.4597078145229
 20
-304.5916596409075
 30
0.0
 40
0.9225140716334864
100
AcDbArc
 50
344.276303409482
 51
15.72369659051478
  0
LINE
  5
1180
330
6B
100
AcDbEntity
  8
0
100
AcDbLine
 10
114.7097078145229
 20
-302.3416596409074
 30
0.0
 11
126.2097078145229
 21
-302.3416596409074
 31
0.0
  0
LINE
  5
1181
330
6B
100
AcDbEntity
  8
0
100
AcDbLine
 10
114.7097078145229
 20
-306.8416596409075
 30
0.0
 11
126.2097078145229
 21
-306.8416596409075
 31
0.0
  0
LINE
  5
1182
330
6B
100
AcDbEntity
  8
0
100
AcDbLine
 10
126.2097078145229
 20
-306.8416596409075
 30
0.0
 11
126.2097078145229
 21
-302.3416596409074
 31
0.0
  0
LINE
  5
1183
330
6B
100
AcDbEntity
  8
0
100
AcDbLine
 10
114.7097078145229
 20
-302.3416596409074
 30
0.0
 11
114.7097078145229
 21
-306.8416596409075
 31
0.0
  0
LINE
  5
1184
330
6B
100
AcDbEntity
  8
0
100
AcDbLine
 10
125.2097078145229
 20
-306.3416596409074
 30
0.0
 11
125.2097078145229
 21
-302.8416596409075
 31
0.0
  0
LINE
  5
1186
330
6B
100
AcDbEntity
  8
0
100
AcDbLine
 10
125.2097078145229
 20
-302.8416596409075
 30
0.0
 11
117.4597078145229
 21
-302.8416596409075
 31
0.0
  0
LINE
  5
1187
330
6B
100
AcDbEntity
  8
0
100
AcDbLine
 10
117.4597078145229
 20
-306.3416596409074
 30
0.0
 11
125.2097078145229
 21
-306.3416596409074
 31
0.0
  0
LINE
  5
1188
330
6B
100
AcDbEntity
  8
0
100
AcDbLine
 10
121.7097078145229
 20
-306.0916596409074
 30
0.0
 11
121.7097078145229
 21
-303.0916596409074
 31
0.0
  0
LINE
  5
1189
330
6B
100
AcDbEntity
  8
0
100
AcDbLine
 10
119.209707814523
 20
-306.0916596409074
 30
0.0
 11
119.209707814523
 21
-303.0916596409074
 31
0.0
  0
LINE
  5
118A
330
6B
100
AcDbEntity
  8
0
100
AcDbLine
 10
117.209707814523
 20
-306.0916596409074
 30
0.0
 11
117.209707814523
 21
-303.0916596409074
 31
0.0
  0
ARC
  5
118B
330
6B
100
AcDbEntity
  8
0
100
AcDbCircle
 10
118.9597078145229
 20
-303.0916596409074
 30
0.0
 40
0.25
100
AcDbArc
 50
0.0000000000065138
 51
89.99999999998697
  0
ARC
  5
118C
330
6B
100
AcDbEntity
  8
0
100
AcDbCircle
 10
117.4597078145229
 20
-303.0916596409074
 30
0.0
 40
0.25
100
AcDbArc
 50
90.000000000013
 51
179.9999999999935
  0
ARC
  5
118D
330
6B
100
AcDbEntity
  8
0
100
AcDbCircle
 10
117.4597078145229
 20
-306.0916596409074
 30
0.0
 40
0.25
100
AcDbArc
 50
179.9999999999935
 51
270.000000000013
  0
ARC
  5
118E
330
6B
100
AcDbEntity
  8
0
100
AcDbCircle
 10
118.9597078145229
 20
-306.0916596409074
 30
0.0
 40
0.25
100
AcDbArc
 50
270.0
 51
359.9999999999935
  0
ARC
  5
1195
330
6B
100
AcDbEntity
  8
0
100
AcDbCircle
 10
121.4597078145229
 20
-303.0916596409074
 30
0.0
 40
0.25
100
AcDbArc
 50
0.0
 51
90.0
  0
ARC
  5
1196
330
6B
100
AcDbEntity
  8
0
100
AcDbCircle
 10
121.4597078145229
 20
-306.0916596409074
 30
0.0
 40
0.25
100
AcDbArc
 50
270.0
 51
0.0
  0
LINE
  5
1197
330
6B
100
AcDbEntity
  8
0
100
AcDbLine
 10
102.459707814523
 20
-294.3416596409075
 30
0.0
 11
138.4597078145229
 21
-294.3416596409075
 31
0.0
  0
LINE
  5
1198
330
6B
100
AcDbEntity
  8
0
100
AcDbLine
 10
138.4597078145229
 20
-283.3416596409074
 30
0.0
 11
138.4597078145229
 21
-296.8416596409074
 31
0.0
  0
LINE
  5
1199
330
6B
100
AcDbEntity
  8
0
100
AcDbLine
 10
102.459707814523
 20
-296.8416596409074
 30
0.0
 11
102.459707814523
 21
-283.3416596409074
 31
0.0
  0
LINE
  5
119A
330
6B
100
AcDbEntity
  8
0
100
AcDbLine
 10
131.4597078145229
 20
-283.3416596409074
 30
0.0
 11
138.4597078145229
 21
-283.3416596409074
 31
0.0
  0
LINE
  5
119B
330
6B
100
AcDbEntity
  8
0
100
AcDbLine
 10
109.4597078145229
 20
-283.3416596409074
 30
0.0
 11
102.459707814523
 21
-283.3416596409074
 31
0.0
  0
LINE
  5
119C
330
6B
100
AcDbEntity
  8
0
100
AcDbLine
 10
129.459707814523
 20
-296.8416596409074
 30
0.0
 11
138.4597078145229
 21
-296.8416596409074
 31
0.0
  0
LINE
  5
119D
330
6B
100
AcDbEntity
  8
0
 62
     3
100
AcDbLine
 10
111.4597078145229
 20
-296.8416596409074
 30
0.0
 11
129.459707814523
 21
-296.8416596409074
 31
0.0
  0
TEXT
  5
11A4
330
6B
100
AcDbEntity
  8
0
 62
     3
100
AcDbText
 10
104.0619647597632
 20
-287.1569696191914
 30
0.0
 40
3.149999999999999
  1
TORA PACK ハイパワー
 41
0.7
  7
高6.3
100
AcDbText
  0
TEXT
  5
11A5
330
6B
100
AcDbEntity
  8
0
 62
     3
100
AcDbText
 10
103.5917991095386
 20
-291.3147600164588
 30
0.0
 40
3.149999999999999
  1
M-E30 容量3KVA
 41
0.9
  7
高6.3
100
AcDbText
  0
TEXT
  5
11A6
330
6B
100
AcDbEntity
  8
0
100
AcDbText
 10
105.4597078145229
 20
-296.2709889863021
 30
0.0
 40
1.25
  1
入力：AC100V　50/60Hz　出力：AC115V・AC125V
 41
0.7
  7
高2.5
100
AcDbText
  0
LINE
  5
11A8
330
6B
100
AcDbEntity
  8
0
 62
     3
100
AcDbLine
 10
226.5247844607434
 20
-314.8416596409074
 30
0.0
 11
226.5247844607434
 21
-315.8416596409074
 31
0.0
  0
LINE
  5
11A9
330
6B
100
AcDbEntity
  8
0
 62
     3
100
AcDbLine
 10
229.6081177940767
 20
-314.8416596409074
 30
0.0
 11
226.5247844607434
 21
-314.8416596409074
 31
0.0
  0
LINE
  5
11AA
330
6B
100
AcDbEntity
  8
0
 62
     3
100
AcDbLine
 10
230.2747844607434
 20
-315.8416596409074
 30
0.0
 11
226.5247844607434
 21
-315.8416596409074
 31
0.0
  0
LINE
  5
11AB
330
6B
100
AcDbEntity
  8
0
 62
     3
100
AcDbLine
 10
324.2747844607434
 20
-315.3416596409075
 30
0.0
 11
325.2747844607434
 21
-315.3416596409075
 31
0.0
  0
LINE
  5
11AC
330
6B
100
AcDbEntity
  8
0
 62
     3
100
AcDbLine
 10
324.2747844607434
 20
-303.8416596409074
 30
0.0
 11
325.2747844607434
 21
-303.8416596409074
 31
0.0
  0
LINE
  5
11AD
330
6B
100
AcDbEntity
  8
0
 62
     3
100
AcDbLine
 10
325.2747844607434
 20
-303.8416596409074
 30
0.0
 11
325.2747844607434
 21
-315.3416596409075
 31
0.0
  0
LINE
  5
11B5
330
6B
100
AcDbEntity
  8
0
 62
     3
100
AcDbLine
 10
346.670267867978
 20
-306.4916596409073
 30
0.0
 11
332.2732676514362
 21
-306.4916596409073
 31
0.0
  0
LINE
  5
11B6
330
6B
100
AcDbEntity
  8
0
 62
     3
100
AcDbLine
 10
346.670267867978
 20
-312.6916596409075
 30
0.0
 11
333.1720765606547
 21
-312.6916596409075
 31
0.0
  0
ARC
  5
11B7
330
6B
100
AcDbEntity
  8
0
 62
     3
100
AcDbCircle
 10
346.670267867978
 20
-319.5916596409075
 30
0.0
 40
13.1
100
AcDbArc
 50
0.0
 51
90.0
  0
ARC
  5
11B8
330
6B
100
AcDbEntity
  8
0
 62
     3
100
AcDbCircle
 10
346.670267867978
 20
-319.5916596409075
 30
0.0
 40
6.9
100
AcDbArc
 50
0.0
 51
90.0
  0
LINE
  5
11B9
330
6B
100
AcDbEntity
  8
0
 62
     3
100
AcDbLine
 10
353.570267867978
 20
-319.5916596409074
 30
0.0
 11
353.570267867978
 21
-327.8416596409075
 31
0.0
  0
LINE
  5
11BA
330
6B
100
AcDbEntity
  8
0
 62
     3
100
AcDbLine
 10
359.7702678679781
 20
-319.5916596409074
 30
0.0
 11
359.7702678679781
 21
-327.8416596409075
 31
0.0
  0
LINE
  5
11C2
330
6B
100
AcDbEntity
  8
0
100
AcDbLine
 10
319.4789305192663
 20
-282.5916596409074
 30
0.0
 11
320.5247844607434
 21
-282.5916596409074
 31
0.0
  0
LINE
  5
11C3
330
6B
100
AcDbEntity
  8
0
100
AcDbLine
 10
321.0247844607434
 20
-282.5916596409074
 30
0.0
 11
322.0706384022207
 21
-282.5916596409074
 31
0.0
  0
LINE
  5
11C4
330
6B
100
AcDbEntity
  8
0
100
AcDbLine
 10
319.4789305192663
 20
-282.0916596409075
 30
0.0
 11
320.5247844607434
 21
-282.0916596409075
 31
0.0
  0
LINE
  5
11C5
330
6B
100
AcDbEntity
  8
0
100
AcDbLine
 10
321.0247844607434
 20
-282.0916596409075
 30
0.0
 11
322.0706384022207
 21
-282.0916596409075
 31
0.0
  0
LINE
  5
11C6
330
6B
100
AcDbEntity
  8
0
100
AcDbLine
 10
320.5247844607434
 20
-281.0458056994303
 30
0.0
 11
320.5247844607434
 21
-282.0916596409075
 31
0.0
  0
LINE
  5
11C7
330
6B
100
AcDbEntity
  8
0
100
AcDbLine
 10
320.5247844607434
 20
-282.5916596409074
 30
0.0
 11
320.5247844607434
 21
-283.6375135823845
 31
0.0
  0
LINE
  5
11C8
330
6B
100
AcDbEntity
  8
0
100
AcDbLine
 10
321.0247844607434
 20
-281.0458056994303
 30
0.0
 11
321.0247844607434
 21
-282.0916596409075
 31
0.0
  0
LINE
  5
11C9
330
6B
100
AcDbEntity
  8
0
100
AcDbLine
 10
321.0247844607434
 20
-282.5916596409074
 30
0.0
 11
321.0247844607434
 21
-283.6375135823845
 31
0.0
  0
CIRCLE
  5
11CA
330
6B
100
AcDbEntity
  8
0
100
AcDbCircle
 10
320.7747844607434
 20
-282.3416596409074
 30
0.0
 40
2.25
  0
ARC
  5
11CB
330
6B
100
AcDbEntity
  8
0
100
AcDbCircle
 10
320.7747844607434
 20
-282.3416596409074
 30
0.0
 40
1.319749005546779
100
AcDbArc
 50
79.08048086552447
 51
100.9195191344755
  0
ARC
  5
11CC
330
6B
100
AcDbEntity
  8
0
100
AcDbCircle
 10
320.7747844607434
 20
-282.3416596409074
 30
0.0
 40
1.319749005546779
100
AcDbArc
 50
169.080480865528
 51
190.919519134472
  0
ARC
  5
11CD
330
6B
100
AcDbEntity
  8
0
100
AcDbCircle
 10
320.7747844607434
 20
-282.3416596409074
 30
0.0
 40
1.319749005546779
100
AcDbArc
 50
259.0804808655245
 51
280.9195191344755
  0
ARC
  5
11CE
330
6B
100
AcDbEntity
  8
0
100
AcDbCircle
 10
320.7747844607434
 20
-282.3416596409074
 30
0.0
 40
1.319749005546779
100
AcDbArc
 50
349.080480865528
 51
10.91951913447198
  0
LINE
  5
11CF
330
6B
100
AcDbEntity
  8
0
100
AcDbLine
 10
307.9789305192663
 20
-318.0916596409074
 30
0.0
 11
309.0247844607434
 21
-318.0916596409074
 31
0.0
  0
LINE
  5
11D0
330
6B
100
AcDbEntity
  8
0
100
AcDbLine
 10
309.5247844607434
 20
-318.0916596409074
 30
0.0
 11
310.5706384022207
 21
-318.0916596409074
 31
0.0
  0
LINE
  5
11D1
330
6B
100
AcDbEntity
  8
0
100
AcDbLine
 10
307.9789305192663
 20
-317.5916596409074
 30
0.0
 11
309.0247844607434
 21
-317.5916596409074
 31
0.0
  0
LINE
  5
11D2
330
6B
100
AcDbEntity
  8
0
100
AcDbLine
 10
309.5247844607434
 20
-317.5916596409074
 30
0.0
 11
310.5706384022207
 21
-317.5916596409074
 31
0.0
  0
LINE
  5
11D3
330
6B
100
AcDbEntity
  8
0
100
AcDbLine
 10
309.0247844607434
 20
-316.5458056994304
 30
0.0
 11
309.0247844607434
 21
-317.5916596409074
 31
0.0
  0
LINE
  5
11D4
330
6B
100
AcDbEntity
  8
0
100
AcDbLine
 10
309.0247844607434
 20
-318.0916596409074
 30
0.0
 11
309.0247844607434
 21
-319.1375135823845
 31
0.0
  0
LINE
  5
11D5
330
6B
100
AcDbEntity
  8
0
100
AcDbLine
 10
309.5247844607434
 20
-316.5458056994304
 30
0.0
 11
309.5247844607434
 21
-317.5916596409074
 31
0.0
  0
LINE
  5
11D6
330
6B
100
AcDbEntity
  8
0
100
AcDbLine
 10
309.5247844607434
 20
-318.0916596409074
 30
0.0
 11
309.5247844607434
 21
-319.1375135823845
 31
0.0
  0
CIRCLE
  5
11D7
330
6B
100
AcDbEntity
  8
0
100
AcDbCircle
 10
309.2747844607434
 20
-317.8416596409074
 30
0.0
 40
2.25
  0
ARC
  5
11D8
330
6B
100
AcDbEntity
  8
0
100
AcDbCircle
 10
309.2747844607434
 20
-317.8416596409074
 30
0.0
 40
1.319749005546779
100
AcDbArc
 50
79.08048086552447
 51
100.9195191344755
  0
ARC
  5
11D9
330
6B
100
AcDbEntity
  8
0
100
AcDbCircle
 10
309.2747844607434
 20
-317.8416596409074
 30
0.0
 40
1.319749005546779
100
AcDbArc
 50
169.0804808655313
 51
190.9195191344687
  0
ARC
  5
11DA
330
6B
100
AcDbEntity
  8
0
100
AcDbCircle
 10
309.2747844607434
 20
-317.8416596409074
 30
0.0
 40
1.319749005546779
100
AcDbArc
 50
259.0804808655245
 51
280.9195191344755
  0
ARC
  5
11DB
330
6B
100
AcDbEntity
  8
0
100
AcDbCircle
 10
309.2747844607434
 20
-317.8416596409074
 30
0.0
 40
1.319749005546779
100
AcDbArc
 50
349.0804808655314
 51
10.91951913446867
  0
LINE
  5
11DC
330
6B
100
AcDbEntity
  8
0
100
AcDbLine
 10
247.9789305192663
 20
-318.0916596409074
 30
0.0
 11
249.0247844607434
 21
-318.0916596409074
 31
0.0
  0
LINE
  5
11DD
330
6B
100
AcDbEntity
  8
0
100
AcDbLine
 10
249.5247844607434
 20
-318.0916596409074
 30
0.0
 11
250.5706384022206
 21
-318.0916596409074
 31
0.0
  0
LINE
  5
11DE
330
6B
100
AcDbEntity
  8
0
100
AcDbLine
 10
247.9789305192663
 20
-317.5916596409074
 30
0.0
 11
249.0247844607434
 21
-317.5916596409074
 31
0.0
  0
LINE
  5
11DF
330
6B
100
AcDbEntity
  8
0
100
AcDbLine
 10
249.5247844607434
 20
-317.5916596409074
 30
0.0
 11
250.5706384022206
 21
-317.5916596409074
 31
0.0
  0
LINE
  5
11E0
330
6B
100
AcDbEntity
  8
0
100
AcDbLine
 10
249.0247844607434
 20
-316.5458056994304
 30
0.0
 11
249.0247844607434
 21
-317.5916596409074
 31
0.0
  0
LINE
  5
11E1
330
6B
100
AcDbEntity
  8
0
100
AcDbLine
 10
249.0247844607434
 20
-318.0916596409074
 30
0.0
 11
249.0247844607434
 21
-319.1375135823845
 31
0.0
  0
LINE
  5
11E2
330
6B
100
AcDbEntity
  8
0
100
AcDbLine
 10
249.5247844607434
 20
-316.5458056994304
 30
0.0
 11
249.5247844607434
 21
-317.5916596409074
 31
0.0
  0
LINE
  5
11E3
330
6B
100
AcDbEntity
  8
0
100
AcDbLine
 10
249.5247844607434
 20
-318.0916596409074
 30
0.0
 11
249.5247844607434
 21
-319.1375135823845
 31
0.0
  0
CIRCLE
  5
11E4
330
6B
100
AcDbEntity
  8
0
100
AcDbCircle
 10
249.2747844607434
 20
-317.8416596409074
 30
0.0
 40
2.25
  0
ARC
  5
11E5
330
6B
100
AcDbEntity
  8
0
100
AcDbCircle
 10
249.2747844607434
 20
-317.8416596409074
 30
0.0
 40
1.319749005546779
100
AcDbArc
 50
79.08048086552447
 51
100.9195191344755
  0
ARC
  5
11E6
330
6B
100
AcDbEntity
  8
0
100
AcDbCircle
 10
249.2747844607434
 20
-317.8416596409074
 30
0.0
 40
1.319749005546779
100
AcDbArc
 50
169.0804808655313
 51
190.9195191344687
  0
ARC
  5
11E7
330
6B
100
AcDbEntity
  8
0
100
AcDbCircle
 10
249.2747844607434
 20
-317.8416596409074
 30
0.0
 40
1.319749005546779
100
AcDbArc
 50
259.0804808655245
 51
280.9195191344755
  0
ARC
  5
11E8
330
6B
100
AcDbEntity
  8
0
100
AcDbCircle
 10
249.2747844607434
 20
-317.8416596409074
 30
0.0
 40
1.319749005546779
100
AcDbArc
 50
349.0804808655314
 51
10.91951913446867
  0
LINE
  5
11E9
330
6B
100
AcDbEntity
  8
0
100
AcDbLine
 10
236.9789305192663
 20
-282.5916596409074
 30
0.0
 11
238.0247844607434
 21
-282.5916596409074
 31
0.0
  0
LINE
  5
11EA
330
6B
100
AcDbEntity
  8
0
100
AcDbLine
 10
238.5247844607434
 20
-282.5916596409074
 30
0.0
 11
239.5706384022207
 21
-282.5916596409074
 31
0.0
  0
LINE
  5
11EB
330
6B
100
AcDbEntity
  8
0
100
AcDbLine
 10
236.9789305192663
 20
-282.0916596409075
 30
0.0
 11
238.0247844607434
 21
-282.0916596409075
 31
0.0
  0
LINE
  5
11EC
330
6B
100
AcDbEntity
  8
0
100
AcDbLine
 10
238.5247844607434
 20
-282.0916596409075
 30
0.0
 11
239.5706384022207
 21
-282.0916596409075
 31
0.0
  0
LINE
  5
11ED
330
6B
100
AcDbEntity
  8
0
100
AcDbLine
 10
238.0247844607434
 20
-281.0458056994303
 30
0.0
 11
238.0247844607434
 21
-282.0916596409075
 31
0.0
  0
LINE
  5
11EE
330
6B
100
AcDbEntity
  8
0
100
AcDbLine
 10
238.0247844607434
 20
-282.5916596409074
 30
0.0
 11
238.0247844607434
 21
-283.6375135823845
 31
0.0
  0
LINE
  5
11EF
330
6B
100
AcDbEntity
  8
0
100
AcDbLine
 10
238.5247844607434
 20
-281.0458056994303
 30
0.0
 11
238.5247844607434
 21
-282.0916596409075
 31
0.0
  0
LINE
  5
11F0
330
6B
100
AcDbEntity
  8
0
100
AcDbLine
 10
238.5247844607434
 20
-282.5916596409074
 30
0.0
 11
238.5247844607434
 21
-283.6375135823845
 31
0.0
  0
CIRCLE
  5
11F1
330
6B
100
AcDbEntity
  8
0
100
AcDbCircle
 10
238.2747844607434
 20
-282.3416596409074
 30
0.0
 40
2.25
  0
ARC
  5
11F2
330
6B
100
AcDbEntity
  8
0
100
AcDbCircle
 10
238.2747844607434
 20
-282.3416596409074
 30
0.0
 40
1.319749005546779
100
AcDbArc
 50
79.08048086552447
 51
100.9195191344755
  0
ARC
  5
11F3
330
6B
100
AcDbEntity
  8
0
100
AcDbCircle
 10
238.2747844607434
 20
-282.3416596409074
 30
0.0
 40
1.319749005546779
100
AcDbArc
 50
169.080480865528
 51
190.919519134472
  0
ARC
  5
11F4
330
6B
100
AcDbEntity
  8
0
100
AcDbCircle
 10
238.2747844607434
 20
-282.3416596409074
 30
0.0
 40
1.319749005546779
100
AcDbArc
 50
259.0804808655245
 51
280.9195191344755
  0
ARC
  5
11F5
330
6B
100
AcDbEntity
  8
0
100
AcDbCircle
 10
238.2747844607434
 20
-282.3416596409074
 30
0.0
 40
1.319749005546779
100
AcDbArc
 50
349.080480865528
 51
10.91951913447198
  0
LINE
  5
11F7
330
6B
100
AcDbEntity
  8
0
100
AcDbLine
 10
175.459707814523
 20
-284.5916596409074
 30
0.0
 11
175.9597078145227
 21
-284.5916596409074
 31
0.0
  0
LINE
  5
11F8
330
6B
100
AcDbEntity
  8
0
100
AcDbLine
 10
175.459707814523
 20
-280.0916596409074
 30
0.0
 11
175.9597078145227
 21
-280.0916596409074
 31
0.0
  0
LINE
  5
11F9
330
6B
100
AcDbEntity
  8
0
100
AcDbLine
 10
175.9597078145227
 20
-280.0916596409074
 30
0.0
 11
175.9597078145227
 21
-284.5916596409074
 31
0.0
  0
ARC
  5
11FA
330
6B
100
AcDbEntity
  8
0
100
AcDbCircle
 10
172.9597078145229
 20
-282.3416596409074
 30
0.0
 40
3.75
100
AcDbArc
 50
323.1301023541508
 51
36.86989764584917
  0
LINE
  5
11FB
330
6B
100
AcDbEntity
  8
0
100
AcDbLine
 10
175.459707814523
 20
-320.0916596409074
 30
0.0
 11
175.9597078145227
 21
-320.0916596409074
 31
0.0
  0
LINE
  5
11FC
330
6B
100
AcDbEntity
  8
0
100
AcDbLine
 10
175.459707814523
 20
-315.5916596409074
 30
0.0
 11
175.9597078145227
 21
-315.5916596409074
 31
0.0
  0
LINE
  5
11FD
330
6B
100
AcDbEntity
  8
0
100
AcDbLine
 10
175.9597078145227
 20
-315.5916596409074
 30
0.0
 11
175.9597078145227
 21
-320.0916596409074
 31
0.0
  0
ARC
  5
11FE
330
6B
100
AcDbEntity
  8
0
100
AcDbCircle
 10
172.9597078145229
 20
-317.8416596409074
 30
0.0
 40
3.75
100
AcDbArc
 50
323.1301023541508
 51
36.86989764584917
  0
LINE
  5
11FF
330
6B
100
AcDbEntity
  8
0
100
AcDbLine
 10
65.45970781452297
 20
-284.5916596409074
 30
0.0
 11
64.95970781452284
 21
-284.5916596409074
 31
0.0
  0
LINE
  5
1200
330
6B
100
AcDbEntity
  8
0
100
AcDbLine
 10
65.45970781452297
 20
-280.0916596409074
 30
0.0
 11
64.95970781452284
 21
-280.0916596409074
 31
0.0
  0
LINE
  5
1201
330
6B
100
AcDbEntity
  8
0
100
AcDbLine
 10
64.95970781452284
 20
-280.0916596409074
 30
0.0
 11
64.95970781452284
 21
-284.5916596409074
 31
0.0
  0
ARC
  5
1202
330
6B
100
AcDbEntity
  8
0
100
AcDbCircle
 10
67.95970781452307
 20
-282.3416596409074
 30
0.0
 40
3.75
100
AcDbArc
 50
143.1301023541508
 51
216.869897645849
  0
LINE
  5
1203
330
6B
100
AcDbEntity
  8
0
100
AcDbLine
 10
65.45970781452297
 20
-320.0916596409074
 30
0.0
 11
64.95970781452284
 21
-320.0916596409074
 31
0.0
  0
LINE
  5
1204
330
6B
100
AcDbEntity
  8
0
100
AcDbLine
 10
65.45970781452297
 20
-315.5916596409074
 30
0.0
 11
64.95970781452284
 21
-315.5916596409074
 31
0.0
  0
LINE
  5
1205
330
6B
100
AcDbEntity
  8
0
100
AcDbLine
 10
64.95970781452284
 20
-315.5916596409074
 30
0.0
 11
64.95970781452284
 21
-320.0916596409074
 31
0.0
  0
ARC
  5
1206
330
6B
100
AcDbEntity
  8
0
100
AcDbCircle
 10
67.95970781452307
 20
-317.8416596409074
 30
0.0
 40
3.75
100
AcDbArc
 50
143.1301023541508
 51
216.869897645849
  0
LINE
  5
1209
330
6B
100
AcDbEntity
  8
0
100
AcDbLine
 10
312.7747844607434
 20
-265.0916596409075
 30
0.0
 11
312.7747844607434
 21
-278.5916596409074
 31
0.0
  0
LINE
  5
120A
330
6B
100
AcDbEntity
  8
0
100
AcDbLine
 10
311.2747844607434
 20
-265.0916596409075
 30
0.0
 11
311.2747844607434
 21
-278.5916596409074
 31
0.0
  0
ARC
  5
122F
330
6B
100
AcDbEntity
  8
0
100
AcDbCircle
 10
312.0247844607434
 20
-265.0916596409075
 30
0.0
 40
0.7499999999999992
100
AcDbArc
 50
0.0
 51
180.0
  0
ARC
  5
1230
330
6B
100
AcDbEntity
  8
0
100
AcDbCircle
 10
312.0247844607434
 20
-278.5916596409074
 30
0.0
 40
0.7499999999999992
100
AcDbArc
 50
180.0
 51
0.0
  0
LINE
  5
1231
330
6B
100
AcDbEntity
  8
0
100
AcDbLine
 10
309.7747844607434
 20
-265.0916596409075
 30
0.0
 11
309.7747844607434
 21
-278.5916596409074
 31
0.0
  0
LINE
  5
1232
330
6B
100
AcDbEntity
  8
0
100
AcDbLine
 10
308.2747844607434
 20
-265.0916596409075
 30
0.0
 11
308.2747844607434
 21
-278.5916596409074
 31
0.0
  0
ARC
  5
1233
330
6B
100
AcDbEntity
  8
0
100
AcDbCircle
 10
309.0247844607434
 20
-265.0916596409075
 30
0.0
 40
0.7499999999999992
100
AcDbArc
 50
0.0
 51
180.0
  0
ARC
  5
1234
330
6B
100
AcDbEntity
  8
0
100
AcDbCircle
 10
309.0247844607434
 20
-278.5916596409074
 30
0.0
 40
0.7499999999999992
100
AcDbArc
 50
180.0
 51
0.0
  0
LINE
  5
1235
330
6B
100
AcDbEntity
  8
0
100
AcDbLine
 10
306.7747844607434
 20
-265.0916596409075
 30
0.0
 11
306.7747844607434
 21
-278.5916596409074
 31
0.0
  0
LINE
  5
1236
330
6B
100
AcDbEntity
  8
0
100
AcDbLine
 10
305.2747844607434
 20
-265.0916596409075
 30
0.0
 11
305.2747844607434
 21
-278.5916596409074
 31
0.0
  0
ARC
  5
1237
330
6B
100
AcDbEntity
  8
0
100
AcDbCircle
 10
306.0247844607434
 20
-265.0916596409075
 30
0.0
 40
0.7499999999999992
100
AcDbArc
 50
0.0
 51
180.0
  0
ARC
  5
1238
330
6B
100
AcDbEntity
  8
0
100
AcDbCircle
 10
306.0247844607434
 20
-278.5916596409074
 30
0.0
 40
0.7499999999999992
100
AcDbArc
 50
180.0
 51
0.0
  0
LINE
  5
1239
330
6B
100
AcDbEntity
  8
0
100
AcDbLine
 10
303.7747844607434
 20
-265.0916596409075
 30
0.0
 11
303.7747844607434
 21
-278.5916596409074
 31
0.0
  0
LINE
  5
123A
330
6B
100
AcDbEntity
  8
0
100
AcDbLine
 10
302.2747844607434
 20
-265.0916596409075
 30
0.0
 11
302.2747844607434
 21
-278.5916596409074
 31
0.0
  0
ARC
  5
123B
330
6B
100
AcDbEntity
  8
0
100
AcDbCircle
 10
303.0247844607434
 20
-265.0916596409075
 30
0.0
 40
0.7499999999999992
100
AcDbArc
 50
0.0
 51
180.0
  0
ARC
  5
123C
330
6B
100
AcDbEntity
  8
0
100
AcDbCircle
 10
303.0247844607434
 20
-278.5916596409074
 30
0.0
 40
0.7499999999999992
100
AcDbArc
 50
180.0
 51
0.0
  0
LINE
  5
123D
330
6B
100
AcDbEntity
  8
0
100
AcDbLine
 10
300.7747844607434
 20
-265.0916596409075
 30
0.0
 11
300.7747844607434
 21
-278.5916596409074
 31
0.0
  0
LINE
  5
123E
330
6B
100
AcDbEntity
  8
0
100
AcDbLine
 10
299.2747844607434
 20
-265.0916596409075
 30
0.0
 11
299.2747844607434
 21
-278.5916596409074
 31
0.0
  0
ARC
  5
123F
330
6B
100
AcDbEntity
  8
0
100
AcDbCircle
 10
300.0247844607434
 20
-265.0916596409075
 30
0.0
 40
0.7499999999999992
100
AcDbArc
 50
0.0
 51
180.0
  0
ARC
  5
1240
330
6B
100
AcDbEntity
  8
0
100
AcDbCircle
 10
300.0247844607434
 20
-278.5916596409074
 30
0.0
 40
0.7499999999999992
100
AcDbArc
 50
180.0
 51
0.0
  0
LINE
  5
1241
330
6B
100
AcDbEntity
  8
0
100
AcDbLine
 10
297.7747844607434
 20
-265.0916596409075
 30
0.0
 11
297.7747844607434
 21
-278.5916596409074
 31
0.0
  0
LINE
  5
1242
330
6B
100
AcDbEntity
  8
0
100
AcDbLine
 10
296.2747844607434
 20
-265.0916596409075
 30
0.0
 11
296.2747844607434
 21
-278.5916596409074
 31
0.0
  0
ARC
  5
1243
330
6B
100
AcDbEntity
  8
0
100
AcDbCircle
 10
297.0247844607434
 20
-265.0916596409075
 30
0.0
 40
0.7499999999999992
100
AcDbArc
 50
0.0
 51
180.0
  0
ARC
  5
1244
330
6B
100
AcDbEntity
  8
0
100
AcDbCircle
 10
297.0247844607434
 20
-278.5916596409074
 30
0.0
 40
0.7499999999999992
100
AcDbArc
 50
180.0
 51
0.0
  0
LINE
  5
1245
330
6B
100
AcDbEntity
  8
0
100
AcDbLine
 10
294.7747844607434
 20
-265.0916596409075
 30
0.0
 11
294.7747844607434
 21
-278.5916596409074
 31
0.0
  0
LINE
  5
1246
330
6B
100
AcDbEntity
  8
0
100
AcDbLine
 10
293.2747844607434
 20
-265.0916596409075
 30
0.0
 11
293.2747844607434
 21
-278.5916596409074
 31
0.0
  0
ARC
  5
1247
330
6B
100
AcDbEntity
  8
0
100
AcDbCircle
 10
294.0247844607434
 20
-265.0916596409075
 30
0.0
 40
0.7499999999999992
100
AcDbArc
 50
0.0
 51
180.0
  0
ARC
  5
1248
330
6B
100
AcDbEntity
  8
0
100
AcDbCircle
 10
294.0247844607434
 20
-278.5916596409074
 30
0.0
 40
0.7499999999999992
100
AcDbArc
 50
180.0
 51
0.0
  0
LINE
  5
1249
330
6B
100
AcDbEntity
  8
0
100
AcDbLine
 10
291.7747844607434
 20
-265.0916596409075
 30
0.0
 11
291.7747844607434
 21
-278.5916596409074
 31
0.0
  0
LINE
  5
124A
330
6B
100
AcDbEntity
  8
0
100
AcDbLine
 10
290.2747844607434
 20
-265.0916596409075
 30
0.0
 11
290.2747844607434
 21
-278.5916596409074
 31
0.0
  0
ARC
  5
124B
330
6B
100
AcDbEntity
  8
0
100
AcDbCircle
 10
291.0247844607434
 20
-265.0916596409075
 30
0.0
 40
0.7499999999999992
100
AcDbArc
 50
0.0
 51
180.0
  0
ARC
  5
124C
330
6B
100
AcDbEntity
  8
0
100
AcDbCircle
 10
291.0247844607434
 20
-278.5916596409074
 30
0.0
 40
0.7499999999999992
100
AcDbArc
 50
180.0
 51
0.0
  0
LINE
  5
124D
330
6B
100
AcDbEntity
  8
0
100
AcDbLine
 10
288.7747844607434
 20
-265.0916596409075
 30
0.0
 11
288.7747844607434
 21
-278.5916596409074
 31
0.0
  0
LINE
  5
124E
330
6B
100
AcDbEntity
  8
0
100
AcDbLine
 10
287.2747844607434
 20
-265.0916596409075
 30
0.0
 11
287.2747844607434
 21
-278.5916596409074
 31
0.0
  0
ARC
  5
124F
330
6B
100
AcDbEntity
  8
0
100
AcDbCircle
 10
288.0247844607434
 20
-265.0916596409075
 30
0.0
 40
0.7499999999999992
100
AcDbArc
 50
0.0
 51
180.0
  0
ARC
  5
1250
330
6B
100
AcDbEntity
  8
0
100
AcDbCircle
 10
288.0247844607434
 20
-278.5916596409074
 30
0.0
 40
0.7499999999999992
100
AcDbArc
 50
180.0
 51
0.0
  0
LINE
  5
1251
330
6B
100
AcDbEntity
  8
0
100
AcDbLine
 10
285.7747844607434
 20
-265.0916596409075
 30
0.0
 11
285.7747844607434
 21
-278.5916596409074
 31
0.0
  0
LINE
  5
1252
330
6B
100
AcDbEntity
  8
0
100
AcDbLine
 10
284.2747844607434
 20
-265.0916596409075
 30
0.0
 11
284.2747844607434
 21
-278.5916596409074
 31
0.0
  0
ARC
  5
1253
330
6B
100
AcDbEntity
  8
0
100
AcDbCircle
 10
285.0247844607434
 20
-265.0916596409075
 30
0.0
 40
0.7499999999999992
100
AcDbArc
 50
0.0
 51
180.0
  0
ARC
  5
1254
330
6B
100
AcDbEntity
  8
0
100
AcDbCircle
 10
285.0247844607434
 20
-278.5916596409074
 30
0.0
 40
0.7499999999999992
100
AcDbArc
 50
180.0
 51
0.0
  0
LINE
  5
1255
330
6B
100
AcDbEntity
  8
0
100
AcDbLine
 10
282.7747844607434
 20
-265.0916596409075
 30
0.0
 11
282.7747844607434
 21
-278.5916596409074
 31
0.0
  0
LINE
  5
1256
330
6B
100
AcDbEntity
  8
0
100
AcDbLine
 10
281.2747844607434
 20
-265.0916596409075
 30
0.0
 11
281.2747844607434
 21
-278.5916596409074
 31
0.0
  0
ARC
  5
1257
330
6B
100
AcDbEntity
  8
0
100
AcDbCircle
 10
282.0247844607434
 20
-265.0916596409075
 30
0.0
 40
0.7499999999999992
100
AcDbArc
 50
0.0
 51
180.0
  0
ARC
  5
1258
330
6B
100
AcDbEntity
  8
0
100
AcDbCircle
 10
282.0247844607434
 20
-278.5916596409074
 30
0.0
 40
0.7499999999999992
100
AcDbArc
 50
180.0
 51
0.0
  0
LINE
  5
1259
330
6B
100
AcDbEntity
  8
0
100
AcDbLine
 10
279.7747844607434
 20
-265.0916596409075
 30
0.0
 11
279.7747844607434
 21
-278.5916596409074
 31
0.0
  0
LINE
  5
125A
330
6B
100
AcDbEntity
  8
0
100
AcDbLine
 10
278.2747844607434
 20
-265.0916596409075
 30
0.0
 11
278.2747844607434
 21
-278.5916596409074
 31
0.0
  0
ARC
  5
125B
330
6B
100
AcDbEntity
  8
0
100
AcDbCircle
 10
279.0247844607435
 20
-265.0916596409075
 30
0.0
 40
0.7499999999999992
100
AcDbArc
 50
0.0
 51
180.0
  0
ARC
  5
125C
330
6B
100
AcDbEntity
  8
0
100
AcDbCircle
 10
279.0247844607435
 20
-278.5916596409074
 30
0.0
 40
0.7499999999999992
100
AcDbArc
 50
180.0
 51
0.0
  0
LINE
  5
125D
330
6B
100
AcDbEntity
  8
0
100
AcDbLine
 10
276.7747844607434
 20
-265.0916596409075
 30
0.0
 11
276.7747844607434
 21
-278.5916596409074
 31
0.0
  0
LINE
  5
125E
330
6B
100
AcDbEntity
  8
0
100
AcDbLine
 10
275.2747844607434
 20
-265.0916596409075
 30
0.0
 11
275.2747844607434
 21
-278.5916596409074
 31
0.0
  0
ARC
  5
125F
330
6B
100
AcDbEntity
  8
0
100
AcDbCircle
 10
276.0247844607434
 20
-265.0916596409075
 30
0.0
 40
0.7499999999999992
100
AcDbArc
 50
0.0
 51
180.0
  0
ARC
  5
1260
330
6B
100
AcDbEntity
  8
0
100
AcDbCircle
 10
276.0247844607434
 20
-278.5916596409074
 30
0.0
 40
0.7499999999999992
100
AcDbArc
 50
180.0
 51
0.0
  0
LINE
  5
1261
330
6B
100
AcDbEntity
  8
0
100
AcDbLine
 10
273.7747844607434
 20
-265.0916596409075
 30
0.0
 11
273.7747844607434
 21
-278.5916596409074
 31
0.0
  0
LINE
  5
1262
330
6B
100
AcDbEntity
  8
0
100
AcDbLine
 10
272.2747844607434
 20
-265.0916596409075
 30
0.0
 11
272.2747844607434
 21
-278.5916596409074
 31
0.0
  0
ARC
  5
1263
330
6B
100
AcDbEntity
  8
0
100
AcDbCircle
 10
273.0247844607434
 20
-265.0916596409075
 30
0.0
 40
0.7499999999999992
100
AcDbArc
 50
0.0
 51
180.0
  0
ARC
  5
1264
330
6B
100
AcDbEntity
  8
0
100
AcDbCircle
 10
273.0247844607434
 20
-278.5916596409074
 30
0.0
 40
0.7499999999999992
100
AcDbArc
 50
180.0
 51
0.0
  0
LINE
  5
1265
330
6B
100
AcDbEntity
  8
0
100
AcDbLine
 10
270.7747844607435
 20
-265.0916596409075
 30
0.0
 11
270.7747844607435
 21
-278.5916596409074
 31
0.0
  0
LINE
  5
1266
330
6B
100
AcDbEntity
  8
0
100
AcDbLine
 10
269.2747844607434
 20
-265.0916596409075
 30
0.0
 11
269.2747844607434
 21
-278.5916596409074
 31
0.0
  0
ARC
  5
1267
330
6B
100
AcDbEntity
  8
0
100
AcDbCircle
 10
270.0247844607434
 20
-265.0916596409075
 30
0.0
 40
0.7499999999999992
100
AcDbArc
 50
0.0
 51
180.0
  0
ARC
  5
1268
330
6B
100
AcDbEntity
  8
0
100
AcDbCircle
 10
270.0247844607434
 20
-278.5916596409074
 30
0.0
 40
0.7499999999999992
100
AcDbArc
 50
180.0
 51
0.0
  0
LINE
  5
1269
330
6B
100
AcDbEntity
  8
0
100
AcDbLine
 10
267.7747844607434
 20
-265.0916596409075
 30
0.0
 11
267.7747844607434
 21
-278.5916596409074
 31
0.0
  0
LINE
  5
126A
330
6B
100
AcDbEntity
  8
0
100
AcDbLine
 10
266.2747844607434
 20
-265.0916596409075
 30
0.0
 11
266.2747844607434
 21
-278.5916596409074
 31
0.0
  0
ARC
  5
126B
330
6B
100
AcDbEntity
  8
0
100
AcDbCircle
 10
267.0247844607434
 20
-265.0916596409075
 30
0.0
 40
0.7499999999999992
100
AcDbArc
 50
0.0
 51
180.0
  0
ARC
  5
126C
330
6B
100
AcDbEntity
  8
0
100
AcDbCircle
 10
267.0247844607434
 20
-278.5916596409074
 30
0.0
 40
0.7499999999999992
100
AcDbArc
 50
180.0
 51
0.0
  0
LINE
  5
126D
330
6B
100
AcDbEntity
  8
0
100
AcDbLine
 10
264.7747844607434
 20
-265.0916596409075
 30
0.0
 11
264.7747844607434
 21
-278.5916596409074
 31
0.0
  0
LINE
  5
126E
330
6B
100
AcDbEntity
  8
0
100
AcDbLine
 10
263.2747844607434
 20
-265.0916596409075
 30
0.0
 11
263.2747844607434
 21
-278.5916596409074
 31
0.0
  0
ARC
  5
126F
330
6B
100
AcDbEntity
  8
0
100
AcDbCircle
 10
264.0247844607434
 20
-265.0916596409075
 30
0.0
 40
0.7499999999999992
100
AcDbArc
 50
0.0
 51
180.0
  0
ARC
  5
1270
330
6B
100
AcDbEntity
  8
0
100
AcDbCircle
 10
264.0247844607434
 20
-278.5916596409074
 30
0.0
 40
0.7499999999999992
100
AcDbArc
 50
180.0
 51
0.0
  0
LINE
  5
1271
330
6B
100
AcDbEntity
  8
0
100
AcDbLine
 10
261.7747844607434
 20
-265.0916596409075
 30
0.0
 11
261.7747844607434
 21
-278.5916596409074
 31
0.0
  0
LINE
  5
1272
330
6B
100
AcDbEntity
  8
0
100
AcDbLine
 10
260.2747844607435
 20
-265.0916596409075
 30
0.0
 11
260.2747844607435
 21
-278.5916596409074
 31
0.0
  0
ARC
  5
1273
330
6B
100
AcDbEntity
  8
0
100
AcDbCircle
 10
261.0247844607434
 20
-265.0916596409075
 30
0.0
 40
0.7499999999999992
100
AcDbArc
 50
0.0
 51
180.0
  0
ARC
  5
1274
330
6B
100
AcDbEntity
  8
0
100
AcDbCircle
 10
261.0247844607434
 20
-278.5916596409074
 30
0.0
 40
0.7499999999999992
100
AcDbArc
 50
180.0
 51
0.0
  0
LINE
  5
1275
330
6B
100
AcDbEntity
  8
0
100
AcDbLine
 10
258.7747844607434
 20
-265.0916596409075
 30
0.0
 11
258.7747844607434
 21
-278.5916596409074
 31
0.0
  0
LINE
  5
1276
330
6B
100
AcDbEntity
  8
0
100
AcDbLine
 10
257.2747844607434
 20
-265.0916596409075
 30
0.0
 11
257.2747844607434
 21
-278.5916596409074
 31
0.0
  0
ARC
  5
1277
330
6B
100
AcDbEntity
  8
0
100
AcDbCircle
 10
258.0247844607434
 20
-265.0916596409075
 30
0.0
 40
0.7499999999999992
100
AcDbArc
 50
0.0
 51
180.0
  0
ARC
  5
1278
330
6B
100
AcDbEntity
  8
0
100
AcDbCircle
 10
258.0247844607434
 20
-278.5916596409074
 30
0.0
 40
0.7499999999999992
100
AcDbArc
 50
180.0
 51
0.0
  0
LINE
  5
1279
330
6B
100
AcDbEntity
  8
0
100
AcDbLine
 10
255.7747844607434
 20
-265.0916596409075
 30
0.0
 11
255.7747844607434
 21
-278.5916596409074
 31
0.0
  0
LINE
  5
127A
330
6B
100
AcDbEntity
  8
0
100
AcDbLine
 10
254.2747844607434
 20
-265.0916596409075
 30
0.0
 11
254.2747844607434
 21
-278.5916596409074
 31
0.0
  0
ARC
  5
127B
330
6B
100
AcDbEntity
  8
0
100
AcDbCircle
 10
255.0247844607434
 20
-265.0916596409075
 30
0.0
 40
0.7499999999999992
100
AcDbArc
 50
0.0
 51
180.0
  0
ARC
  5
127C
330
6B
100
AcDbEntity
  8
0
100
AcDbCircle
 10
255.0247844607434
 20
-278.5916596409074
 30
0.0
 40
0.7499999999999992
100
AcDbArc
 50
180.0
 51
0.0
  0
LINE
  5
127E
330
6B
100
AcDbEntity
  8
0
 62
     3
100
AcDbLine
 10
272.5247844607434
 20
-251.3416596409073
 30
0.0
 11
273.5247844607435
 21
-236.3416596409073
 31
0.0
  0
LINE
  5
127F
330
6B
100
AcDbEntity
  8
0
 62
     3
100
AcDbLine
 10
273.5247844607435
 20
-236.3416596409073
 30
0.0
 11
278.5247844607435
 21
-236.3416596409073
 31
0.0
  0
LINE
  5
1280
330
6B
100
AcDbEntity
  8
0
 62
     3
100
AcDbLine
 10
278.5247844607435
 20
-236.3416596409073
 30
0.0
 11
279.5247844607434
 21
-251.3416596409073
 31
0.0
  0
TEXT
  5
128E
330
6B
100
AcDbEntity
  8
0
100
AcDbText
 10
108.1545803169615
 20
-305.7202646303277
 30
0.0
 40
2.25
  1
切
  7
高4.5
100
AcDbText
  0
TEXT
  5
128F
330
6B
100
AcDbEntity
  8
0
100
AcDbText
 10
130.2860977616194
 20
-305.7202646303277
 30
0.0
 40
2.25
  1
入
  7
高4.5
100
AcDbText
  0
CIRCLE
  5
1366
330
6B
100
AcDbEntity
  8
0
 62
     7
100
AcDbCircle
 10
47.32020062234778
 20
-327.3981785625668
 30
0.0
 40
5.0
  0
TEXT
  5
1367
330
6B
100
AcDbEntity
  8
0
 62
     4
100
AcDbText
 10
45.11631945218639
 20
-330.8360499618225
 30
0.0
 40
6.299999999999998
  1
4
  7
高6.3
100
AcDbText
  0
CIRCLE
  5
1368
330
6B
100
AcDbEntity
  8
0
 62
     7
100
AcDbCircle
 10
47.32020062234778
 20
-307.4227255625668
 30
0.0
 40
5.0
  0
TEXT
  5
1369
330
6B
100
AcDbEntity
  8
0
 62
     4
100
AcDbText
 10
45.11631945218639
 20
-310.8605969618224
 30
0.0
 40
6.299999999999998
  1
9
  7
高6.3
100
AcDbText
  0
CIRCLE
  5
136A
330
6B
100
AcDbEntity
  8
0
 62
     7
100
AcDbCircle
 10
47.32020062234778
 20
-272.2620108654864
 30
0.0
 40
5.0
  0
TEXT
  5
136B
330
6B
100
AcDbEntity
  8
0
 62
     4
100
AcDbText
 10
45.11631945218639
 20
-275.6998822647418
 30
0.0
 40
6.299999999999998
  1
5
  7
高6.3
100
AcDbText
  0
CIRCLE
  5
136C
330
6B
100
AcDbEntity
  8
0
 62
     7
100
AcDbCircle
 10
47.30415562234774
 20
-246.3324895625668
 30
0.0
 40
5.0
  0
TEXT
  5
136D
330
6B
100
AcDbEntity
  8
0
 62
     4
100
AcDbText
 10
45.10027445218645
 20
-249.7703609618225
 30
0.0
 40
6.299999999999998
  1
7
  7
高6.3
100
AcDbText
  0
CIRCLE
  5
136E
330
6B
100
AcDbEntity
  8
0
 62
     7
100
AcDbCircle
 10
99.90690970801963
 20
-330.1664757073211
 30
0.0
 40
5.0
  0
TEXT
  5
136F
330
6B
100
AcDbEntity
  8
0
 62
     4
100
AcDbText
 10
97.7030285378583
 20
-333.6043471065767
 30
0.0
 40
6.299999999999998
  1
8
  7
高6.3
100
AcDbText
  0
CIRCLE
  5
1370
330
6B
100
AcDbEntity
  8
0
 62
     7
100
AcDbCircle
 10
347.6911998479179
 20
-291.7621773193778
 30
0.0
 40
5.0
  0
TEXT
  5
1371
330
6B
100
AcDbEntity
  8
0
 62
     4
100
AcDbText
 10
345.4873186777565
 20
-295.2000487186334
 30
0.0
 40
6.299999999999998
  1
3
  7
高6.3
100
AcDbText
  0
CIRCLE
  5
1372
330
6B
100
AcDbEntity
  8
0
 62
     7
100
AcDbCircle
 10
347.6888618479179
 20
-239.9988563193778
 30
0.0
 40
5.0
  0
TEXT
  5
1373
330
6B
100
AcDbEntity
  8
0
 62
     4
100
AcDbText
 10
345.4849806777565
 20
-243.4367277186334
 30
0.0
 40
6.299999999999998
  1
2
  7
高6.3
100
AcDbText
  0
CIRCLE
  5
1374
330
6B
100
AcDbEntity
  8
0
 62
     7
100
AcDbCircle
 10
292.9159208479179
 20
-239.9988563193778
 30
0.0
 40
5.0
  0
TEXT
  5
1375
330
6B
100
AcDbEntity
  8
0
 62
     4
100
AcDbText
 10
291.843222437768
 20
-243.2139459395165
 30
0.0
 40
6.299999999999998
  1
1
  7
高6.3
100
AcDbText
  0
ARC
  5
1379
330
6B
100
AcDbEntity
  8
0
100
AcDbCircle
 10
333.3369631199513
 20
-307.6744202324267
 30
0.0
 40
4.398755792651773
100
AcDbArc
 50
150.0857611883296
 51
210.1930884079016
  0
ARC
  5
137A
330
6B
100
AcDbEntity
  8
0
100
AcDbCircle
 10
325.5236638408309
 20
-311.9911344331493
 30
0.0
 40
4.529843558913587
100
AcDbArc
 50
332.3164392411773
 51
27.68356075882218
  0
ARC
  5
137B
330
6B
100
AcDbEntity
  8
0
100
AcDbCircle
 10
336.5100270152113
 20
-307.6744202324267
 30
0.0
 40
4.398755792651773
100
AcDbArc
 50
150.0857611883296
 51
210.1930884079016
  0
ARC
  5
137C
330
6B
100
AcDbEntity
  8
0
100
AcDbCircle
 10
328.6967277360907
 20
-311.9911344331493
 30
0.0
 40
4.529843558913587
100
AcDbArc
 50
332.3164392411773
 51
27.68356075882218
  0
LINE
  5
1381
330
6B
100
AcDbEntity
  8
0
 62
     3
100
AcDbLine
 10
329.1002037561761
 20
-306.4916596409073
 30
0.0
 11
325.2747844607434
 21
-306.4916596409073
 31
0.0
  0
LINE
  5
1382
330
6B
100
AcDbEntity
  8
0
 62
     3
100
AcDbLine
 10
329.9990126653948
 20
-312.6916596409075
 30
0.0
 11
325.2747844607434
 21
-312.6916596409075
 31
0.0
  0
LINE
  5
13C1
330
6B
100
AcDbEntity
  8
0
 62
     3
100
AcDbLine
 10
325.5835791447864
 20
-359.9854733274812
 30
0.0
 11
325.5835791447864
 21
-394.985473327481
 31
0.0
  0
LINE
  5
13C2
330
6B
100
AcDbEntity
  8
0
 62
     3
100
AcDbLine
 10
252.427773887868
 20
-359.9854733274812
 30
0.0
 11
325.5835791447864
 21
-359.9854733274812
 31
0.0
  0
LINE
  5
13C3
330
6B
100
AcDbEntity
  8
0
 62
     3
100
AcDbLine
 10
252.427773887868
 20
-394.985473327481
 30
0.0
 11
325.5835791447864
 21
-394.985473327481
 31
0.0
  0
LINE
  5
13C4
330
6B
100
AcDbEntity
  8
0
 62
     7
100
AcDbLine
 10
274.6485358226921
 20
-394.9854733274809
 30
0.0
 11
274.6485358226921
 21
-359.9854733274812
 31
0.0
  0
LINE
  5
13C5
330
6B
100
AcDbEntity
  8
0
 62
     7
100
AcDbLine
 10
266.5157710891431
 20
-358.4228920867074
 30
0.0
 11
303.9271686652253
 21
-358.4228920867074
 31
0.0
  0
LINE
  5
13C6
330
6B
100
AcDbEntity
  8
0
 62
     3
100
AcDbLine
 10
252.427773887868
 20
-359.9854733274812
 30
0.0
 11
252.427773887868
 21
-394.985473327481
 31
0.0
  0
TEXT
  5
13C7
330
6B
100
AcDbEntity
  8
0
 62
     3
100
AcDbText
 10
253.9277738878678
 20
-364.485473327481
 30
0.0
 40
3.2
  1
型　　式
  7
高3.2
100
AcDbText
  0
TEXT
  5
13C8
330
6B
100
AcDbEntity
  8
0
 62
     3
100
AcDbText
 10
253.9277738878678
 20
-369.485473327481
 30
0.0
 40
3.2
  1
入力電圧
  7
高3.2
100
AcDbText
  0
TEXT
  5
13C9
330
6B
100
AcDbEntity
  8
0
 62
     3
100
AcDbText
 10
253.9277738878678
 20
-374.485473327481
 30
0.0
 40
3.2
  1
出力電圧
  7
高3.2
100
AcDbText
  0
TEXT
  5
13CA
330
6B
100
AcDbEntity
  8
0
 62
     3
100
AcDbText
 10
253.9277738878678
 20
-379.4854733274811
 30
0.0
 40
3.2
  1
容　　量
  7
高3.2
100
AcDbText
  0
TEXT
  5
13CB
330
6B
100
AcDbEntity
  8
0
 62
     3
100
AcDbText
 10
253.9277738878678
 20
-389.4854733274809
 30
0.0
 40
3.2
  1
質　　量
  7
高3.2
100
AcDbText
  0
TEXT
  5
13CC
330
6B
100
AcDbEntity
  8
0
 62
     3
100
AcDbText
 10
253.9277738878678
 20
-394.4854733274809
 30
0.0
 40
3.2
  1
絶縁種類
  7
高3.2
100
AcDbText
  0
TEXT
  5
13CD
330
6B
100
AcDbEntity
  8
0
 62
     3
100
AcDbText
 10
266.5157710891431
 20
-357.5636833274812
 30
0.0
 40
4.5
  1
主　　仕　　様
  7
高4.5
100
AcDbText
  0
LINE
  5
13CE
330
6B
100
AcDbEntity
  8
0
 62
     7
100
AcDbLine
 10
252.427773887868
 20
-364.9854733274811
 30
0.0
 11
325.5835791447864
 21
-364.9854733274809
 31
0.0
  0
LINE
  5
13CF
330
6B
100
AcDbEntity
  8
0
 62
     7
100
AcDbLine
 10
252.427773887868
 20
-369.9854733274813
 30
0.0
 11
325.5835791447864
 21
-369.9854733274813
 31
0.0
  0
LINE
  5
13D0
330
6B
100
AcDbEntity
  8
0
 62
     7
100
AcDbLine
 10
252.427773887868
 20
-374.985473327481
 30
0.0
 11
325.5835791447864
 21
-374.9854733274809
 31
0.0
  0
LINE
  5
13D1
330
6B
100
AcDbEntity
  8
0
 62
     7
100
AcDbLine
 10
252.427773887868
 20
-379.9854733274809
 30
0.0
 11
325.5835791447864
 21
-379.9854733274809
 31
0.0
  0
LINE
  5
13D2
330
6B
100
AcDbEntity
  8
0
 62
     7
100
AcDbLine
 10
252.427773887868
 20
-389.9854733274809
 30
0.0
 11
325.5835791447864
 21
-389.9854733274809
 31
0.0
  0
TEXT
  5
13D3
330
6B
100
AcDbEntity
  8
0
 62
     3
100
AcDbText
 10
276.1485358226924
 20
-369.485473327481
 30
0.0
 40
3.2
  1
AC100V 50/60Hz
  7
高3.2
100
AcDbText
  0
TEXT
  5
13D4
330
6B
100
AcDbEntity
  8
0
 62
     3
100
AcDbText
 10
276.1485358226924
 20
-374.4854733274812
 30
0.0
 40
3.2
  1
AC115V AC125V
  7
高3.2
100
AcDbText
  0
TEXT
  5
13D5
330
6B
100
AcDbEntity
  8
0
 62
     3
100
AcDbText
 10
276.1485358226924
 20
-379.4854733274811
 30
0.0
 40
3.2
  1
3KVA　連続
  7
高3.2
100
AcDbText
  0
TEXT
  5
13D6
330
6B
100
AcDbEntity
  8
0
 62
     3
100
AcDbText
 10
276.1485358226924
 20
-389.4854733274809
 30
0.0
 40
3.2
  1
9.5kg
  7
高3.2
100
AcDbText
  0
TEXT
  5
13D7
330
6B
100
AcDbEntity
  8
0
 62
     3
100
AcDbText
 10
276.1485358226924
 20
-394.4854733274809
 30
0.0
 40
3.2
  1
F種絶縁
  7
高3.2
100
AcDbText
  0
TEXT
  5
13D8
330
6B
100
AcDbEntity
  8
0
 62
     3
100
AcDbText
 10
276.1485358226924
 20
-364.485473327481
 30
0.0
 40
3.2
  1
M-E30
  7
高3.2
100
AcDbText
  0
TEXT
  5
13D9
330
6B
100
AcDbEntity
  8
0
 62
     3
100
AcDbText
 10
253.9277738878678
 20
-384.485473327481
 30
0.0
 40
3.2
  1
保護回路
  7
高3.2
100
AcDbText
  0
LINE
  5
13DA
330
6B
100
AcDbEntity
  8
0
 62
     7
100
AcDbLine
 10
252.427773887868
 20
-384.985473327481
 30
0.0
 11
325.5835791447864
 21
-384.985473327481
 31
0.0
  0
TEXT
  5
13DB
330
6B
100
AcDbEntity
  8
0
 62
     3
100
AcDbText
 10
276.1485358226924
 20
-384.485473327481
 30
0.0
 40
3.2
  1
30A安全ブレーカー
  7
高3.2
100
AcDbText
  0
CIRCLE
  5
14AD
330
6B
100
AcDbEntity
  8
0
 62
     7
100
AcDbCircle
 10
188.0675294613807
 20
-272.2620108654864
 30
0.0
 40
5.0
  0
TEXT
  5
14AE
330
6B
100
AcDbEntity
  8
0
 62
     4
100
AcDbText
 10
185.8636482912193
 20
-275.6998822647418
 30
0.0
 40
6.299999999999998
  1
6
  7
高6.3
100
AcDbText
  0
LINE
  5
14B1
330
6B
100
AcDbEntity
  8
0
 62
     3
100
AcDbLine
 10
20.318936
 20
-407.9647717071891
 30
0.0
 11
189.7638423082038
 21
-407.9647717071891
 31
0.0
  0
TEXT
  5
14B2
330
6B
100
AcDbEntity
  8
0
 62
     3
100
AcDbText
 10
83.11223843068187
 20
-427.4647717071894
 30
0.0
 40
3.2
  1
2PE 15A 125V(赤)
 41
0.8
  7
高3.2
100
AcDbText
  0
TEXT
  5
14B3
330
6B
100
AcDbEntity
  8
0
 62
     3
100
AcDbText
 10
29.04252215498401
 20
-427.4647717071894
 30
0.0
 40
3.2
  1
2PE付きWコンセント
 41
0.8
  7
高3.2
100
AcDbText
  0
TEXT
  5
14B4
330
6B
100
AcDbEntity
  8
0
 62
     3
100
AcDbText
 10
21.818936
 20
-412.4647717071891
 30
0.0
 40
3.2
  1
9
 41
0.8
  7
高3.2
100
AcDbText
  0
TEXT
  5
14B5
330
6B
100
AcDbEntity
  8
0
 62
     3
100
AcDbText
 10
65.12741882927224
 20
-427.4647717071894
 30
0.0
 40
3.2
  1
ABS樹脂
 41
0.8
  7
高3.2
100
AcDbText
  0
TEXT
  5
14B6
330
6B
100
AcDbEntity
  8
0
 62
     3
100
AcDbText
 10
121.070675952409
 20
-427.4647717071894
 30
0.0
 40
3.2
  1
1
 41
0.8
  7
高3.2
100
AcDbText
  0
TEXT
  5
14B7
330
6B
100
AcDbEntity
  8
0
 62
     3
100
AcDbText
 10
121.070675952409
 20
-432.4647717071893
 30
0.0
 40
3.2
  1
1
 41
0.8
  7
高3.2
100
AcDbText
  0
TEXT
  5
156C
330
6B
100
AcDbEntity
  8
0
 62
     3
100
AcDbText
 10
130.1642935554044
 20
-457.4647709999998
 30
0.0
 40
3.2
  1
コード
 41
0.8
  7
高3.2
100
AcDbText
  0
TEXT
  5
156D
330
6B
100
AcDbEntity
  8
0
 62
     3
100
AcDbText
 10
130.1642935554044
 20
-452.4647709999999
 30
0.0
 40
3.2
  1
54945
 41
0.8
  7
高3.2
100
AcDbText
  0
TEXT
  5
156E
330
6B
100
AcDbEntity
  8
0
 62
     3
100
AcDbText
 10
130.1642935554044
 20
-442.4647709999998
 30
0.0
 40
3.2
  1
51150
 41
0.8
  7
高3.2
100
AcDbText
  0
TEXT
  5
156F
330
6B
100
AcDbEntity
  8
0
 62
     3
100
AcDbText
 10
130.1642935554044
 20
-422.4647717071891
 30
0.0
 40
3.2
  1
53584
 41
0.8
  7
高3.2
100
AcDbText
  0
TEXT
  5
1570
330
6B
100
AcDbEntity
  8
0
 62
     3
100
AcDbText
 10
130.1642935554044
 20
-437.4647709999998
 30
0.0
 40
3.2
  1
53813
 41
0.8
  7
高3.2
100
AcDbText
  0
TEXT
  5
1571
330
6B
100
AcDbEntity
  8
0
 62
     3
100
AcDbText
 10
130.1642935554044
 20
-417.464771707189
 30
0.0
 40
3.2
  1
51764
 41
0.8
  7
高3.2
100
AcDbText
  0
TEXT
  5
1572
330
6B
100
AcDbEntity
  8
0
 62
     3
100
AcDbText
 10
130.1642935554044
 20
-412.4647717071891
 30
0.0
 40
3.2
  1
50091
 41
0.8
  7
高3.2
100
AcDbText
  0
LINE
  5
1573
330
6B
100
AcDbEntity
  8
0
 62
     7
100
AcDbLine
 10
128.6642935554044
 20
-457.9647709999998
 30
0.0
 11
128.6642935554044
 21
-407.9647717071891
 31
0.0
  0
TEXT
  5
1574
330
6B
100
AcDbEntity
  8
0
 62
     3
100
AcDbText
 10
130.1642935554044
 20
-447.4647709999998
 30
0.0
 40
3.2
  1
-
 41
0.8
  7
高3.2
100
AcDbText
  0
TEXT
  5
1575
330
6B
100
AcDbEntity
  8
0
 62
     3
100
AcDbText
 10
130.1642935554044
 20
-427.4647717071894
 30
0.0
 40
3.2
  1
51357
 41
0.8
  7
高3.2
100
AcDbText
  0
TEXT
  5
1576
330
6B
100
AcDbEntity
  8
0
 62
     3
100
AcDbText
 10
130.1642935554044
 20
-432.4647717071893
 30
0.0
 40
3.2
  1
51356
 41
0.8
  7
高3.2
100
AcDbText
  0
TEXT
  5
1578
330
6B
100
AcDbEntity
  8
0
 62
     3
100
AcDbText
 10
146.3307244032101
 20
-457.4647709999998
 30
0.0
 40
3.2
  1
コード番号名称
 41
0.6
  7
高3.2
100
AcDbText
  0
TEXT
  5
1579
330
6B
100
AcDbEntity
  8
0
 62
     3
100
AcDbText
 10
146.3307244032101
 20
-452.4647709999999
 30
0.0
 40
3.2
  1
M-E20用　取手
 41
0.6
  7
高3.2
100
AcDbText
  0
TEXT
  5
157A
330
6B
100
AcDbEntity
  8
0
 62
     3
100
AcDbText
 10
146.3307244032101
 20
-442.4647709999998
 30
0.0
 40
3.2
  1
SVCT3.5x3x2M　ポ付(M-E30)
 41
0.6
  7
高3.2
100
AcDbText
  0
TEXT
  5
157B
330
6B
100
AcDbEntity
  8
0
 62
     3
100
AcDbText
 10
146.3307244032101
 20
-422.4647717071891
 30
0.0
 40
3.2
  1
新150V電圧メーター
 41
0.6
  7
高3.2
100
AcDbText
  0
TEXT
  5
157C
330
6B
100
AcDbEntity
  8
0
 62
     3
100
AcDbText
 10
146.3307244032101
 20
-437.4647709999998
 30
0.0
 40
3.2
  1
M-E20用　脚ゴム(1/4)
 41
0.6
  7
高3.2
100
AcDbText
  0
TEXT
  5
157D
330
6B
100
AcDbEntity
  8
0
 62
     3
100
AcDbText
 10
146.3307244032101
 20
-417.464771707189
 30
0.0
 40
3.2
  1
B-2EA-30A
 41
0.6
  7
高3.2
100
AcDbText
  0
TEXT
  5
157E
330
6B
100
AcDbEntity
  8
0
 62
     3
100
AcDbText
 10
146.3307244032101
 20
-412.4647717071891
 30
0.0
 40
3.2
  1
アース金具黒メッキ
 41
0.6
  7
高3.2
100
AcDbText
  0
LINE
  5
157F
330
6B
100
AcDbEntity
  8
0
 62
     7
100
AcDbLine
 10
144.8307244032101
 20
-457.9647709999998
 30
0.0
 11
144.8307244032101
 21
-407.9647717071891
 31
0.0
  0
TEXT
  5
1580
330
6B
100
AcDbEntity
  8
0
 62
     3
100
AcDbText
 10
146.3307244032101
 20
-447.4647709999998
 30
0.0
 40
3.2
  1
-
 41
0.6
  7
高3.2
100
AcDbText
  0
TEXT
  5
1581
330
6B
100
AcDbEntity
  8
0
 62
     3
100
AcDbText
 10
146.3307244032101
 20
-427.4647717071894
 30
0.0
 40
3.2
  1
2PE-R(アース付コンセント赤)
 41
0.6
  7
高3.2
100
AcDbText
  0
TEXT
  5
1582
330
6B
100
AcDbEntity
  8
0
 62
     3
100
AcDbText
 10
146.3307244032101
 20
-432.4647717071893
 30
0.0
 40
3.2
  1
2PE-W(アース付コンセント白)
 41
0.6
  7
高3.2
100
AcDbText
  0
LINE
  5
1870
330
6B
100
AcDbEntity
  8
0
100
AcDbLine
 10
166.7097078145229
 20
-327.8416596409075
 30
0.0
 11
209.7756090734218
 21
-327.8416596409075
 31
0.0
  0
LINE
  5
1871
330
6B
100
AcDbEntity
  8
0
100
AcDbLine
 10
144.164622842648
 20
-236.3416596409074
 30
0.0
 11
209.7756090734219
 21
-236.3416596409074
 31
0.0
  0
LINE
  5
1872
330
6B
100
AcDbEntity
  8
0
100
AcDbLine
 10
208.5256090734219
 20
-325.3416596409075
 30
0.0
 11
208.5256090734219
 21
-238.8416596409074
 31
0.0
  0
LINE
  5
1876
330
6B
100
AcDbEntity
  8
0
100
AcDbLine
 10
175.709707814523
 20
-321.8416596409074
 30
0.0
 11
201.4594537675106
 21
-321.8416596409074
 31
0.0
  0
LINE
  5
1877
330
6B
100
AcDbEntity
  8
0
100
AcDbLine
 10
172.2097078145229
 20
-251.3416596409074
 30
0.0
 11
201.4594537675107
 21
-251.3416596409074
 31
0.0
  0
LINE
  5
1878
330
6B
100
AcDbEntity
  8
0
100
AcDbLine
 10
200.2094537675107
 20
-319.3416596409074
 30
0.0
 11
200.2094537675107
 21
-253.8416596409074
 31
0.0
  0
LINE
  5
187C
330
6B
100
AcDbEntity
  8
0
100
AcDbLine
 10
324.2747844607434
 20
-322.0916596409074
 30
0.0
 11
324.2747844607434
 21
-343.7241531932392
 31
0.0
  0
LINE
  5
187D
330
6B
100
AcDbEntity
  8
0
100
AcDbLine
 10
229.2747844607434
 20
-314.5916596409074
 30
0.0
 11
229.2747844607434
 21
-343.7241531932392
 31
0.0
  0
LINE
  5
187E
330
6B
100
AcDbEntity
  8
0
100
AcDbLine
 10
321.7747844607434
 20
-342.4741531932391
 30
0.0
 11
231.7747844607434
 21
-342.4741531932391
 31
0.0
  0
LINE
  5
1882
330
6B
100
AcDbEntity
  8
0
100
AcDbLine
 10
226.5247844607434
 20
-314.5916596409074
 30
0.0
 11
226.5247844607434
 21
-231.1288952555262
 31
0.0
  0
LINE
  5
1883
330
6B
100
AcDbEntity
  8
0
100
AcDbLine
 10
324.2747844607434
 20
-251.0916596409074
 30
0.0
 11
324.2747844607434
 21
-231.1288952555262
 31
0.0
  0
LINE
  5
1884
330
6B
100
AcDbEntity
  8
0
100
AcDbLine
 10
229.0247844607434
 20
-232.3788952555262
 30
0.0
 11
321.7747844607434
 21
-232.3788952555262
 31
0.0
  0
LINE
  5
1888
330
6B
100
AcDbEntity
  8
0
100
AcDbLine
 10
175.459707814523
 20
-322.0916596409074
 30
0.0
 11
175.459707814523
 21
-344.2728865538819
 31
0.0
  0
LINE
  5
1889
330
6B
100
AcDbEntity
  8
0
100
AcDbLine
 10
65.45970781452297
 20
-322.0916596409074
 30
0.0
 11
65.45970781452297
 21
-344.2728865538819
 31
0.0
  0
LINE
  5
188A
330
6B
100
AcDbEntity
  8
0
100
AcDbLine
 10
172.959707814523
 20
-343.022886553882
 30
0.0
 11
67.95970781452297
 21
-343.022886553882
 31
0.0
  0
LINE
  5
188E
330
6B
100
AcDbEntity
  8
0
100
AcDbLine
 10
166.7097078145229
 20
-327.8416596409075
 30
0.0
 11
201.4594537675105
 21
-327.8416596409075
 31
0.0
  0
LINE
  5
188F
330
6B
100
AcDbEntity
  8
0
100
AcDbLine
 10
175.709707814523
 20
-321.8416596409074
 30
0.0
 11
201.4594537675105
 21
-321.8416596409074
 31
0.0
  0
LINE
  5
1890
330
6B
100
AcDbEntity
  8
0
100
AcDbLine
 10
200.2094537675106
 20
-319.3416596409074
 30
0.0
 11
200.2094537675106
 21
-316.8416596409074
 31
0.0
  0
LINE
  5
1891
330
6B
100
AcDbEntity
  8
0
100
AcDbLine
 10
200.2094537675105
 20
-330.3416596409075
 30
0.0
 11
200.2094537675105
 21
-338.0916596409075
 31
0.0
  0
LINE
  5
1892
330
6B
100
AcDbEntity
  8
0
100
AcDbLine
 10
200.2094537675105
 20
-321.8416596409074
 30
0.0
 11
200.2094537675105
 21
-327.8416596409075
 31
0.0
  0
LINE
  5
1896
330
6B
100
AcDbEntity
  8
0
100
AcDbLine
 10
380.6616908679781
 20
-334.3667446409074
 30
0.0
 11
380.6516728679779
 21
-334.2357936409074
 31
0.0
  0
LINE
  5
1897
330
6B
100
AcDbEntity
  8
0
100
AcDbLine
 10
380.6516728679779
 20
-334.2357936409074
 30
0.0
 11
380.6134808679781
 21
-334.1223286409074
 31
0.0
  0
LINE
  5
1898
330
6B
100
AcDbEntity
  8
0
100
AcDbLine
 10
380.6134808679781
 20
-334.1223286409074
 30
0.0
 11
380.467604867978
 21
-334.0102426409075
 31
0.0
  0
LINE
  5
1899
330
6B
100
AcDbEntity
  8
0
100
AcDbLine
 10
380.467604867978
 20
-334.0102426409075
 30
0.0
 11
380.2688858679779
 21
-333.9656946409074
 31
0.0
  0
LINE
  5
189A
330
6B
100
AcDbEntity
  8
0
100
AcDbLine
 10
380.2688858679779
 20
-333.9656946409074
 30
0.0
 11
380.156678867978
 21
-333.9656236409074
 31
0.0
  0
LINE
  5
189B
330
6B
100
AcDbEntity
  8
0
100
AcDbLine
 10
380.156678867978
 20
-333.9656236409074
 30
0.0
 11
380.0495988679779
 21
-333.9813586409074
 31
0.0
  0
LINE
  5
189C
330
6B
100
AcDbEntity
  8
0
100
AcDbLine
 10
380.0495988679779
 20
-333.9813586409074
 30
0.0
 11
379.8758958679782
 21
-334.0347746409074
 31
0.0
  0
LINE
  5
189D
330
6B
100
AcDbEntity
  8
0
100
AcDbLine
 10
379.8758958679782
 20
-334.0347746409074
 30
0.0
 11
379.7050048679782
 21
-334.1066656409075
 31
0.0
  0
LINE
  5
189E
330
6B
100
AcDbEntity
  8
0
100
AcDbLine
 10
379.161543867978
 20
-333.2513776409074
 30
0.0
 11
379.171561867978
 21
-333.3823296409073
 31
0.0
  0
LINE
  5
189F
330
6B
100
AcDbEntity
  8
0
100
AcDbLine
 10
379.171561867978
 20
-333.3823296409073
 30
0.0
 11
379.2097538679779
 21
-333.4957936409074
 31
0.0
  0
LINE
  5
18A0
330
6B
100
AcDbEntity
  8
0
100
AcDbLine
 10
379.2097538679779
 20
-333.4957936409074
 30
0.0
 11
379.3556298679781
 21
-333.6078806409075
 31
0.0
  0
LINE
  5
18A1
330
6B
100
AcDbEntity
  8
0
100
AcDbLine
 10
379.3556298679781
 20
-333.6078806409075
 30
0.0
 11
379.554348867978
 21
-333.6524276409075
 31
0.0
  0
LINE
  5
18A2
330
6B
100
AcDbEntity
  8
0
100
AcDbLine
 10
379.554348867978
 20
-333.6524276409075
 30
0.0
 11
379.6665558679782
 21
-333.6524986409074
 31
0.0
  0
LINE
  5
18A3
330
6B
100
AcDbEntity
  8
0
100
AcDbLine
 10
379.6665558679782
 20
-333.6524986409074
 30
0.0
 11
379.7736358679779
 21
-333.6367646409073
 31
0.0
  0
LINE
  5
18A4
330
6B
100
AcDbEntity
  8
0
100
AcDbLine
 10
379.7736358679779
 20
-333.6367646409073
 30
0.0
 11
379.947338867978
 21
-333.5833476409074
 31
0.0
  0
LINE
  5
18A5
330
6B
100
AcDbEntity
  8
0
100
AcDbLine
 10
379.947338867978
 20
-333.5833476409074
 30
0.0
 11
380.1182298679777
 21
-333.5114576409073
 31
0.0
  0
LINE
  5
18A6
330
6B
100
AcDbEntity
  8
0
100
AcDbLine
 10
379.1616168679782
 20
-334.2942956409074
 30
0.0
 11
379.4303048679779
 21
-334.1547336409074
 31
0.0
  0
LINE
  5
18A7
330
6B
100
AcDbEntity
  8
0
100
AcDbLine
 10
379.4303048679779
 20
-334.1547336409074
 30
0.0
 11
379.7050048679782
 21
-334.1066656409075
 31
0.0
  0
LINE
  5
18A8
330
6B
100
AcDbEntity
  8
0
100
AcDbLine
 10
379.7050048679782
 20
-334.1066656409075
 30
0.0
 11
379.8253078679779
 21
-334.1340496409074
 31
0.0
  0
LINE
  5
18A9
330
6B
100
AcDbEntity
  8
0
100
AcDbLine
 10
379.8253078679779
 20
-334.1340496409074
 30
0.0
 11
379.9399548679779
 21
-334.1849826409074
 31
0.0
  0
LINE
  5
18AA
330
6B
100
AcDbEntity
  8
0
100
AcDbLine
 10
379.9399548679779
 20
-334.1849826409074
 30
0.0
 11
380.0751508679782
 21
-334.2726336409074
 31
0.0
  0
LINE
  5
18AB
330
6B
100
AcDbEntity
  8
0
100
AcDbLine
 10
380.0751508679782
 20
-334.2726336409074
 30
0.0
 11
380.206232867978
 21
-334.3729426409075
 31
0.0
  0
LINE
  5
18AC
330
6B
100
AcDbEntity
  8
0
100
AcDbLine
 10
380.206232867978
 20
-334.3729426409075
 30
0.0
 11
380.2903308679782
 21
-334.4315636409074
 31
0.0
  0
LINE
  5
18AD
330
6B
100
AcDbEntity
  8
0
100
AcDbLine
 10
380.2903308679782
 20
-334.4315636409074
 30
0.0
 11
380.378529867978
 21
-334.4669226409075
 31
0.0
  0
LINE
  5
18AE
330
6B
100
AcDbEntity
  8
0
100
AcDbLine
 10
380.378529867978
 20
-334.4669226409075
 30
0.0
 11
380.5185058679782
 21
-334.4446026409074
 31
0.0
  0
LINE
  5
18AF
330
6B
100
AcDbEntity
  8
0
100
AcDbLine
 10
380.5185058679782
 20
-334.4446026409074
 30
0.0
 11
380.6616168679779
 21
-334.3667366409075
 31
0.0
  0
LINE
  5
18B0
330
6B
100
AcDbEntity
  8
0
100
AcDbLine
 10
380.6616168679779
 20
-333.3238276409074
 30
0.0
 11
380.392929867978
 21
-333.4633886409075
 31
0.0
  0
LINE
  5
18B1
330
6B
100
AcDbEntity
  8
0
100
AcDbLine
 10
380.392929867978
 20
-333.4633886409075
 30
0.0
 11
380.1182298679777
 21
-333.5114576409073
 31
0.0
  0
LINE
  5
18B2
330
6B
100
AcDbEntity
  8
0
100
AcDbLine
 10
380.1182298679777
 20
-333.5114576409073
 30
0.0
 11
379.9979268679781
 21
-333.4840726409074
 31
0.0
  0
LINE
  5
18B3
330
6B
100
AcDbEntity
  8
0
100
AcDbLine
 10
379.9979268679781
 20
-333.4840726409074
 30
0.0
 11
379.8832798679782
 21
-333.4331406409074
 31
0.0
  0
LINE
  5
18B4
330
6B
100
AcDbEntity
  8
0
100
AcDbLine
 10
379.8832798679782
 20
-333.4331406409074
 30
0.0
 11
379.7480838679779
 21
-333.3454896409074
 31
0.0
  0
LINE
  5
18B5
330
6B
100
AcDbEntity
  8
0
100
AcDbLine
 10
379.7480838679779
 20
-333.3454896409074
 30
0.0
 11
379.6170018679779
 21
-333.2451796409076
 31
0.0
  0
LINE
  5
18B6
330
6B
100
AcDbEntity
  8
0
100
AcDbLine
 10
379.6170018679779
 20
-333.2451796409076
 30
0.0
 11
379.5329038679779
 21
-333.1865586409074
 31
0.0
  0
LINE
  5
18B7
330
6B
100
AcDbEntity
  8
0
100
AcDbLine
 10
379.5329038679779
 20
-333.1865586409074
 30
0.0
 11
379.444704867978
 21
-333.1511996409073
 31
0.0
  0
LINE
  5
18B8
330
6B
100
AcDbEntity
  8
0
100
AcDbLine
 10
379.444704867978
 20
-333.1511996409073
 30
0.0
 11
379.3047288679781
 21
-333.1735196409074
 31
0.0
  0
LINE
  5
18B9
330
6B
100
AcDbEntity
  8
0
100
AcDbLine
 10
379.3047288679781
 20
-333.1735196409074
 30
0.0
 11
379.1616168679782
 21
-333.2513866409073
 31
0.0
  0
LINE
  5
18BA
330
6B
100
AcDbEntity
  8
0
 62
     3
100
AcDbLine
 10
376.6628938679779
 20
-359.5621216409074
 30
0.0
 11
376.4524358679782
 21
-359.3230496409073
 31
0.0
  0
LINE
  5
18BB
330
6B
100
AcDbEntity
  8
0
 62
     3
100
AcDbLine
 10
376.4524358679782
 20
-359.3230496409073
 30
0.0
 11
376.2878938679779
 21
-359.0621216409074
 31
0.0
  0
LINE
  5
18BC
330
6B
100
AcDbEntity
  8
0
 62
     3
100
AcDbLine
 10
376.2878938679779
 20
-359.0621216409074
 30
0.0
 11
376.2097818679782
 21
-358.8195526409074
 31
0.0
  0
LINE
  5
18BD
330
6B
100
AcDbEntity
  8
0
 62
     3
100
AcDbLine
 10
376.2097818679782
 20
-358.8195526409074
 30
0.0
 11
376.162893867978
 21
-358.5621216409074
 31
0.0
  0
LINE
  5
18BE
330
6B
100
AcDbEntity
  8
0
 62
     3
100
AcDbLine
 10
383.6628938679779
 20
-358.5621216409074
 30
0.0
 11
383.6160058679784
 21
-358.8195526409074
 31
0.0
  0
LINE
  5
18BF
330
6B
100
AcDbEntity
  8
0
 62
     3
100
AcDbLine
 10
383.6160058679784
 20
-358.8195526409074
 30
0.0
 11
383.5378938679779
 21
-359.0621216409074
 31
0.0
  0
LINE
  5
18C0
330
6B
100
AcDbEntity
  8
0
 62
     3
100
AcDbLine
 10
383.5378938679779
 20
-359.0621216409074
 30
0.0
 11
383.3733528679779
 21
-359.3230496409073
 31
0.0
  0
LINE
  5
18C1
330
6B
100
AcDbEntity
  8
0
 62
     3
100
AcDbLine
 10
383.3733528679779
 20
-359.3230496409073
 30
0.0
 11
383.1628938679779
 21
-359.5621216409074
 31
0.0
  0
LINE
  5
18C2
330
6B
100
AcDbEntity
  8
0
100
AcDbLine
 10
165.8360226823138
 20
-278.2819283789419
 30
0.0
 11
183.2413364996176
 21
-273.5688626152378
 31
0.0
1001
ACAD
1000
DSTYLE
1002
{
1070
   147
1040
0.625
1070
    77
1070
     0
1002
}
  0
LINE
  5
18C3
330
6B
100
AcDbEntity
  8
0
  6
ByBlock
 62
     0
370
    -2
100
AcDbLine
 10
166.0111074920609
 20
-278.9285151678976
 30
0.0
 11
163.4229262014323
 21
-278.9353542538176
 31
0.0
  0
LINE
  5
18C4
330
6B
100
AcDbEntity
  8
0
  6
ByBlock
 62
     0
370
    -2
100
AcDbLine
 10
163.4229262014323
 20
-278.9353542538176
 30
0.0
 11
165.6609378725668
 21
-277.6353415899862
 31
0.0
  0
LINE
  5
18C5
330
6B
100
AcDbEntity
  8
0
  6
ByBlock
 62
     0
370
    -2
100
AcDbLine
 10
163.4229262014323
 20
-278.9353542538176
 30
0.0
 11
165.8360226823138
 21
-278.2819283789419
 31
0.0
  0
LINE
  5
18C6
330
6B
100
AcDbEntity
  8
0
100
AcDbLine
 10
107.0578834388546
 20
-263.5910459524766
 30
0.0
 11
52.10780437368438
 21
-247.7199183621029
 31
0.0
1001
ACAD
1000
DSTYLE
1002
{
1070
   147
1040
0.625
1070
    77
1070
     0
1002
}
  0
LINE
  5
18C7
330
6B
100
AcDbEntity
  8
0
  6
ByBlock
 62
     0
370
    -2
100
AcDbLine
 10
107.243763518558
 20
-262.9474795128406
 30
0.0
 11
109.4597078145229
 21
-264.2847603522446
 31
0.0
  0
LINE
  5
18C8
330
6B
100
AcDbEntity
  8
0
  6
ByBlock
 62
     0
370
    -2
100
AcDbLine
 10
109.4597078145229
 20
-264.2847603522446
 30
0.0
 11
106.8720033591511
 21
-264.2346123921125
 31
0.0
  0
LINE
  5
18C9
330
6B
100
AcDbEntity
  8
0
  6
ByBlock
 62
     0
370
    -2
100
AcDbLine
 10
109.4597078145229
 20
-264.2847603522446
 30
0.0
 11
107.0578834388546
 21
-263.5910459524766
 31
0.0
  0
LINE
  5
18CA
330
6B
100
AcDbEntity
  8
0
100
AcDbLine
 10
118.571048764688
 20
-313.979636134474
 30
0.0
 11
103.6842278076893
 21
-326.8905227201877
 31
0.0
1001
ACAD
1000
DSTYLE
1002
{
1070
   147
1040
0.625
1070
    77
1070
     0
1002
}
  0
LINE
  5
18CB
330
6B
100
AcDbEntity
  8
0
  6
ByBlock
 62
     0
370
    -2
100
AcDbLine
 10
118.1321546012134
 20
-313.4735718307299
 30
0.0
 11
120.4597078145229
 21
-312.3416596409074
 31
0.0
  0
LINE
  5
18CC
330
6B
100
AcDbEntity
  8
0
  6
ByBlock
 62
     0
370
    -2
100
AcDbLine
 10
120.4597078145229
 20
-312.3416596409074
 30
0.0
 11
119.0099429281627
 21
-314.4857004382183
 31
0.0
  0
LINE
  5
18CD
330
6B
100
AcDbEntity
  8
0
  6
ByBlock
 62
     0
370
    -2
100
AcDbLine
 10
120.4597078145229
 20
-312.3416596409074
 30
0.0
 11
118.571048764688
 21
-313.979636134474
 31
0.0
  0
LINE
  5
18CE
330
6B
100
AcDbEntity
  8
0
100
AcDbLine
 10
74.98670313258827
 20
-278.6670621625269
 30
0.0
 11
52.1913655906896
 21
-273.3897306228727
 31
0.0
1001
ACAD
1000
DSTYLE
1002
{
1070
   147
1040
0.625
1070
    77
1070
     0
1002
}
  0
LINE
  5
18CF
330
6B
100
AcDbEntity
  8
0
  6
ByBlock
 62
     0
370
    -2
100
AcDbLine
 10
75.13778882322423
 20
-278.0144502714758
 30
0.0
 11
77.42228561675918
 21
-279.2309220412201
 31
0.0
  0
LINE
  5
18D0
330
6B
100
AcDbEntity
  8
0
  6
ByBlock
 62
     0
370
    -2
100
AcDbLine
 10
77.42228561675918
 20
-279.2309220412201
 30
0.0
 11
74.83561744195232
 21
-279.319674053578
 31
0.0
  0
LINE
  5
18D1
330
6B
100
AcDbEntity
  8
0
  6
ByBlock
 62
     0
370
    -2
100
AcDbLine
 10
77.42228561675918
 20
-279.2309220412201
 30
0.0
 11
74.98670313258827
 21
-278.6670621625269
 31
0.0
  0
LINE
  5
18D2
330
6B
100
AcDbEntity
  8
0
100
AcDbLine
 10
79.97711840176743
 20
-311.2971264379013
 30
0.0
 11
52.28537944785931
 21
-308.0117919685788
 31
0.0
1001
ACAD
1000
DSTYLE
1002
{
1070
   147
1040
0.625
1070
    77
1070
     0
1002
}
  0
LINE
  5
18D3
330
6B
100
AcDbEntity
  8
0
  6
ByBlock
 62
     0
370
    -2
100
AcDbLine
 10
80.05603827897969
 20
-310.6319190873429
 30
0.0
 11
82.45970781452319
 21
-311.5916596409074
 31
0.0
  0
LINE
  5
18D4
330
6B
100
AcDbEntity
  8
0
  6
ByBlock
 62
     0
370
    -2
100
AcDbLine
 10
82.45970781452319
 20
-311.5916596409074
 30
0.0
 11
79.89819852455515
 21
-311.9623337884598
 31
0.0
  0
LINE
  5
18D5
330
6B
100
AcDbEntity
  8
0
  6
ByBlock
 62
     0
370
    -2
100
AcDbLine
 10
82.45970781452319
 20
-311.5916596409074
 30
0.0
 11
79.97711840176743
 21
-311.2971264379013
 31
0.0
  0
LINE
  5
18D6
330
6B
100
AcDbEntity
  8
0
100
AcDbLine
 10
71.59603520968928
 20
-325.079375155652
 30
0.0
 11
52.29754583201517
 21
-326.9227475330777
 31
0.0
1001
ACAD
1000
DSTYLE
1002
{
1070
   147
1040
0.625
1070
    77
1070
     0
1002
}
  0
LINE
  5
18D7
330
6B
100
AcDbEntity
  8
0
  6
ByBlock
 62
     0
370
    -2
100
AcDbLine
 10
71.53233957522899
 20
-324.4125378198594
 30
0.0
 11
74.08470781452297
 21
-324.8416596409074
 31
0.0
  0
LINE
  5
18D8
330
6B
100
AcDbEntity
  8
0
  6
ByBlock
 62
     0
370
    -2
100
AcDbLine
 10
74.08470781452297
 20
-324.8416596409074
 30
0.0
 11
71.65973084414957
 21
-325.7462124914446
 31
0.0
  0
LINE
  5
18D9
330
6B
100
AcDbEntity
  8
0
  6
ByBlock
 62
     0
370
    -2
100
AcDbLine
 10
74.08470781452297
 20
-324.8416596409074
 30
0.0
 11
71.59603520968928
 21
-325.079375155652
 31
0.0
  0
LINE
  5
18DA
330
6B
100
AcDbEntity
  8
0
100
AcDbLine
 10
346.8431334839733
 20
-303.9976433059956
 30
0.0
 11
347.3454686159272
 21
-296.7502099892012
 31
0.0
1001
ACAD
1000
DSTYLE
1002
{
1070
   147
1040
0.625
1070
    77
1070
     0
1002
}
  0
LINE
  5
18DB
330
6B
100
AcDbEntity
  8
0
  6
ByBlock
 62
     0
370
    -2
100
AcDbLine
 10
347.5114026668966
 20
-304.0439624749359
 30
0.0
 11
346.670267867978
 21
-306.4916596409073
 31
0.0
  0
LINE
  5
18DC
330
6B
100
AcDbEntity
  8
0
  6
ByBlock
 62
     0
370
    -2
100
AcDbLine
 10
346.670267867978
 20
-306.4916596409073
 30
0.0
 11
346.1748643010501
 21
-303.9513241370552
 31
0.0
  0
LINE
  5
18DD
330
6B
100
AcDbEntity
  8
0
  6
ByBlock
 62
     0
370
    -2
100
AcDbLine
 10
346.670267867978
 20
-306.4916596409073
 30
0.0
 11
346.8431334839733
 21
-303.9976433059956
 31
0.0
  0
LINE
  5
18DE
330
6B
100
AcDbEntity
  8
0
100
AcDbLine
 10
326.2197123033086
 20
-257.337631960032
 30
0.0
 11
343.7990061627874
 21
-243.140356398776
 31
0.0
1001
ACAD
1000
DSTYLE
1002
{
1070
   147
1040
0.625
1070
    77
1070
     0
1002
}
  0
LINE
  5
18DF
330
6B
100
AcDbEntity
  8
0
  6
ByBlock
 62
     0
370
    -2
100
AcDbLine
 10
326.6405932056959
 20
-257.8587734305195
 30
0.0
 11
324.2747844607434
 21
-258.9083819997311
 31
0.0
  0
LINE
  5
18E0
330
6B
100
AcDbEntity
  8
0
  6
ByBlock
 62
     0
370
    -2
100
AcDbLine
 10
324.2747844607434
 20
-258.9083819997311
 30
0.0
 11
325.7988314009213
 21
-256.8164904895446
 31
0.0
  0
LINE
  5
18E1
330
6B
100
AcDbEntity
  8
0
  6
ByBlock
 62
     0
370
    -2
100
AcDbLine
 10
324.2747844607434
 20
-258.9083819997311
 30
0.0
 11
326.2197123033086
 21
-257.337631960032
 31
0.0
  0
LINE
  5
18E2
330
6B
100
AcDbEntity
  8
0
100
AcDbLine
 10
281.4342866730047
 20
-243.1751019996578
 30
0.0
 11
288.0969164233953
 21
-241.3319716018768
 31
0.0
1001
ACAD
1000
DSTYLE
1002
{
1070
   147
1040
0.625
1070
    77
1070
     0
1002
}
  0
LINE
  5
18E3
330
6B
100
AcDbEntity
  8
0
  6
ByBlock
 62
     0
370
    -2
100
AcDbLine
 10
281.6128901264199
 20
-243.820725707931
 30
0.0
 11
279.0247844607435
 21
-243.8416596409073
 31
0.0
  0
LINE
  5
18E4
330
6B
100
AcDbEntity
  8
0
  6
ByBlock
 62
     0
370
    -2
100
AcDbLine
 10
279.0247844607435
 20
-243.8416596409073
 30
0.0
 11
281.2556832195896
 21
-242.5294782913846
 31
0.0
  0
LINE
  5
18E5
330
6B
100
AcDbEntity
  8
0
  6
ByBlock
 62
     0
370
    -2
100
AcDbLine
 10
279.0247844607435
 20
-243.8416596409073
 30
0.0
 11
281.4342866730047
 21
-243.1751019996578
 31
0.0
  0
TEXT
  5
18E6
330
6B
100
AcDbEntity
  8
0
 62
     4
100
AcDbText
 10
207.9006090734219
 20
-288.8231109995902
 30
0.0
 40
3.0
  1
183
 50
90.0
100
AcDbText
  0
LINE
  5
18E7
330
6B
100
AcDbEntity
  8
0
  6
ByBlock
 62
     0
370
    -2
100
AcDbLine
 10
207.8557365734219
 20
-238.8416596409074
 30
0.0
 11
208.5256090734219
 21
-236.3416596409074
 31
0.0
  0
LINE
  5
18E8
330
6B
100
AcDbEntity
  8
0
  6
ByBlock
 62
     0
370
    -2
100
AcDbLine
 10
208.5256090734219
 20
-236.3416596409074
 30
0.0
 11
209.1954815734219
 21
-238.8416596409074
 31
0.0
  0
LINE
  5
18E9
330
6B
100
AcDbEntity
  8
0
  6
ByBlock
 62
     0
370
    -2
100
AcDbLine
 10
208.5256090734219
 20
-236.3416596409074
 30
0.0
 11
208.5256090734219
 21
-238.8416596409074
 31
0.0
  0
LINE
  5
18EA
330
6B
100
AcDbEntity
  8
0
  6
ByBlock
 62
     0
370
    -2
100
AcDbLine
 10
209.1954815734218
 20
-325.3416596409075
 30
0.0
 11
208.5256090734219
 21
-327.8416596409075
 31
0.0
  0
LINE
  5
18EB
330
6B
100
AcDbEntity
  8
0
  6
ByBlock
 62
     0
370
    -2
100
AcDbLine
 10
208.5256090734219
 20
-327.8416596409075
 30
0.0
 11
207.8557365734218
 21
-325.3416596409075
 31
0.0
  0
LINE
  5
18EC
330
6B
100
AcDbEntity
  8
0
  6
ByBlock
 62
     0
370
    -2
100
AcDbLine
 10
208.5256090734219
 20
-327.8416596409075
 30
0.0
 11
208.5256090734219
 21
-325.3416596409075
 31
0.0
  0
TEXT
  5
18ED
330
6B
100
AcDbEntity
  8
0
 62
     4
100
AcDbText
 10
199.5844537675107
 20
-292.6831207105718
 30
0.0
 40
3.0
  1
141
 50
90.0
100
AcDbText
  0
LINE
  5
18EE
330
6B
100
AcDbEntity
  8
0
  6
ByBlock
 62
     0
370
    -2
100
AcDbLine
 10
199.5395812675107
 20
-253.8416596409074
 30
0.0
 11
200.2094537675107
 21
-251.3416596409074
 31
0.0
  0
LINE
  5
18EF
330
6B
100
AcDbEntity
  8
0
  6
ByBlock
 62
     0
370
    -2
100
AcDbLine
 10
200.2094537675107
 20
-251.3416596409074
 30
0.0
 11
200.8793262675107
 21
-253.8416596409074
 31
0.0
  0
LINE
  5
18F0
330
6B
100
AcDbEntity
  8
0
  6
ByBlock
 62
     0
370
    -2
100
AcDbLine
 10
200.2094537675107
 20
-251.3416596409074
 30
0.0
 11
200.2094537675107
 21
-253.8416596409074
 31
0.0
  0
LINE
  5
18F1
330
6B
100
AcDbEntity
  8
0
  6
ByBlock
 62
     0
370
    -2
100
AcDbLine
 10
200.8793262675106
 20
-319.3416596409074
 30
0.0
 11
200.2094537675106
 21
-321.8416596409074
 31
0.0
  0
LINE
  5
18F2
330
6B
100
AcDbEntity
  8
0
  6
ByBlock
 62
     0
370
    -2
100
AcDbLine
 10
200.2094537675106
 20
-321.8416596409074
 30
0.0
 11
199.5395812675106
 21
-319.3416596409074
 31
0.0
  0
LINE
  5
18F3
330
6B
100
AcDbEntity
  8
0
  6
ByBlock
 62
     0
370
    -2
100
AcDbLine
 10
200.2094537675106
 20
-321.8416596409074
 30
0.0
 11
200.2094537675106
 21
-319.3416596409074
 31
0.0
  0
TEXT
  5
18F4
330
6B
100
AcDbEntity
  8
0
 62
     4
100
AcDbText
 10
272.7036771594207
 20
-341.8491531932391
 30
0.0
 40
3.0
  1
190
100
AcDbText
  0
LINE
  5
18F5
330
6B
100
AcDbEntity
  8
0
  6
ByBlock
 62
     0
370
    -2
100
AcDbLine
 10
231.7747844607434
 20
-343.1440256932392
 30
0.0
 11
229.2747844607434
 21
-342.4741531932391
 31
0.0
  0
LINE
  5
18F6
330
6B
100
AcDbEntity
  8
0
  6
ByBlock
 62
     0
370
    -2
100
AcDbLine
 10
229.2747844607434
 20
-342.4741531932391
 30
0.0
 11
231.7747844607434
 21
-341.8042806932391
 31
0.0
  0
LINE
  5
18F7
330
6B
100
AcDbEntity
  8
0
  6
ByBlock
 62
     0
370
    -2
100
AcDbLine
 10
229.2747844607434
 20
-342.4741531932391
 30
0.0
 11
231.7747844607434
 21
-342.4741531932391
 31
0.0
  0
LINE
  5
18F8
330
6B
100
AcDbEntity
  8
0
  6
ByBlock
 62
     0
370
    -2
100
AcDbLine
 10
321.7747844607434
 20
-341.8042806932391
 30
0.0
 11
324.2747844607434
 21
-342.4741531932391
 31
0.0
  0
LINE
  5
18F9
330
6B
100
AcDbEntity
  8
0
  6
ByBlock
 62
     0
370
    -2
100
AcDbLine
 10
324.2747844607434
 20
-342.4741531932391
 30
0.0
 11
321.7747844607434
 21
-343.1440256932392
 31
0.0
  0
LINE
  5
18FA
330
6B
100
AcDbEntity
  8
0
  6
ByBlock
 62
     0
370
    -2
100
AcDbLine
 10
324.2747844607434
 20
-342.4741531932391
 30
0.0
 11
321.7747844607434
 21
-342.4741531932391
 31
0.0
  0
TEXT
  5
18FB
330
6B
100
AcDbEntity
  8
0
 62
     4
100
AcDbText
 10
273.4048394355154
 20
-231.7538952555262
 30
0.0
 40
3.0
  1
195.5
100
AcDbText
  0
LINE
  5
18FC
330
6B
100
AcDbEntity
  8
0
  6
ByBlock
 62
     0
370
    -2
100
AcDbLine
 10
321.7747844607434
 20
-231.7090227555262
 30
0.0
 11
324.2747844607434
 21
-232.3788952555262
 31
0.0
  0
LINE
  5
18FD
330
6B
100
AcDbEntity
  8
0
  6
ByBlock
 62
     0
370
    -2
100
AcDbLine
 10
324.2747844607434
 20
-232.3788952555262
 30
0.0
 11
321.7747844607434
 21
-233.0487677555262
 31
0.0
  0
LINE
  5
18FE
330
6B
100
AcDbEntity
  8
0
  6
ByBlock
 62
     0
370
    -2
100
AcDbLine
 10
324.2747844607434
 20
-232.3788952555262
 30
0.0
 11
321.7747844607434
 21
-232.3788952555262
 31
0.0
  0
LINE
  5
18FF
330
6B
100
AcDbEntity
  8
0
  6
ByBlock
 62
     0
370
    -2
100
AcDbLine
 10
229.0247844607434
 20
-233.0487677555262
 30
0.0
 11
226.5247844607434
 21
-232.3788952555262
 31
0.0
  0
LINE
  5
1900
330
6B
100
AcDbEntity
  8
0
  6
ByBlock
 62
     0
370
    -2
100
AcDbLine
 10
226.5247844607434
 20
-232.3788952555262
 30
0.0
 11
229.0247844607434
 21
-231.7090227555262
 31
0.0
  0
LINE
  5
1901
330
6B
100
AcDbEntity
  8
0
  6
ByBlock
 62
     0
370
    -2
100
AcDbLine
 10
226.5247844607434
 20
-232.3788952555262
 30
0.0
 11
229.0247844607434
 21
-232.3788952555262
 31
0.0
  0
TEXT
  5
1902
330
6B
100
AcDbEntity
  8
0
 62
     4
100
AcDbText
 10
114.2907972005596
 20
-342.397886553882
 30
0.0
 40
3.0
  1
220
100
AcDbText
  0
LINE
  5
1903
330
6B
100
AcDbEntity
  8
0
  6
ByBlock
 62
     0
370
    -2
100
AcDbLine
 10
67.95970781452297
 20
-343.6927590538819
 30
0.0
 11
65.45970781452297
 21
-343.022886553882
 31
0.0
  0
LINE
  5
1904
330
6B
100
AcDbEntity
  8
0
  6
ByBlock
 62
     0
370
    -2
100
AcDbLine
 10
65.45970781452297
 20
-343.022886553882
 30
0.0
 11
67.95970781452297
 21
-342.353014053882
 31
0.0
  0
LINE
  5
1905
330
6B
100
AcDbEntity
  8
0
  6
ByBlock
 62
     0
370
    -2
100
AcDbLine
 10
65.45970781452297
 20
-343.022886553882
 30
0.0
 11
67.95970781452297
 21
-343.022886553882
 31
0.0
  0
LINE
  5
1906
330
6B
100
AcDbEntity
  8
0
  6
ByBlock
 62
     0
370
    -2
100
AcDbLine
 10
172.959707814523
 20
-342.353014053882
 30
0.0
 11
175.459707814523
 21
-343.022886553882
 31
0.0
  0
LINE
  5
1907
330
6B
100
AcDbEntity
  8
0
  6
ByBlock
 62
     0
370
    -2
100
AcDbLine
 10
175.459707814523
 20
-343.022886553882
 30
0.0
 11
172.959707814523
 21
-343.6927590538819
 31
0.0
  0
LINE
  5
1908
330
6B
100
AcDbEntity
  8
0
  6
ByBlock
 62
     0
370
    -2
100
AcDbLine
 10
175.459707814523
 20
-343.022886553882
 30
0.0
 11
172.959707814523
 21
-343.022886553882
 31
0.0
  0
TEXT
  5
1909
330
6B
100
AcDbEntity
  8
0
 62
     4
100
AcDbText
 10
199.5844537675106
 20
-337.4666596409074
 30
0.0
 40
3.0
  1
12
 50
90.0
100
AcDbText
  0
LINE
  5
190A
330
6B
100
AcDbEntity
  8
0
  6
ByBlock
 62
     0
370
    -2
100
AcDbLine
 10
199.5395812675105
 20
-330.3416596409075
 30
0.0
 11
200.2094537675105
 21
-327.8416596409075
 31
0.0
  0
LINE
  5
190B
330
6B
100
AcDbEntity
  8
0
  6
ByBlock
 62
     0
370
    -2
100
AcDbLine
 10
200.2094537675105
 20
-327.8416596409075
 30
0.0
 11
200.8793262675105
 21
-330.3416596409075
 31
0.0
  0
LINE
  5
190C
330
6B
100
AcDbEntity
  8
0
  6
ByBlock
 62
     0
370
    -2
100
AcDbLine
 10
200.2094537675105
 20
-327.8416596409075
 30
0.0
 11
200.2094537675105
 21
-330.3416596409075
 31
0.0
  0
LINE
  5
190D
330
6B
100
AcDbEntity
  8
0
  6
ByBlock
 62
     0
370
    -2
100
AcDbLine
 10
200.8793262675105
 20
-319.3416596409074
 30
0.0
 11
200.2094537675105
 21
-321.8416596409074
 31
0.0
  0
LINE
  5
190E
330
6B
100
AcDbEntity
  8
0
  6
ByBlock
 62
     0
370
    -2
100
AcDbLine
 10
200.2094537675105
 20
-321.8416596409074
 30
0.0
 11
199.5395812675105
 21
-319.3416596409074
 31
0.0
  0
LINE
  5
190F
330
6B
100
AcDbEntity
  8
0
  6
ByBlock
 62
     0
370
    -2
100
AcDbLine
 10
200.2094537675105
 20
-321.8416596409074
 30
0.0
 11
200.2094537675105
 21
-319.3416596409074
 31
0.0
  0
ENDSEC
  0
SECTION
  2
OBJECTS
  0
DICTIONARY
  5
C
330
0
100
AcDbDictionary
281
     1
  3
ACAD_2007HEADERVARS_RT
350
1913
  3
ACAD_COLOR
350
62
  3
ACAD_GROUP
350
D
  3
ACAD_LAYOUT
350
61
  3
ACAD_MATERIAL
350
10
  3
ACAD_MLEADERSTYLE
350
65
  3
ACAD_MLINESTYLE
350
5E
  3
ACAD_PLOTSETTINGS
350
60
  3
ACAD_PLOTSTYLENAME
350
E
  3
ACAD_SCALELIST
350
42
  3
ACAD_TABLESTYLE
350
63
  3
ACAD_VISUALSTYLE
350
29
  3
ACDB_RECOMPOSE_DATA
350
1911
  3
AcDbVariableDictionary
350
611
  3
DWGPROPS
350
1912
  0
DICTIONARY
  5
477
330
2
100
AcDbDictionary
280
     1
281
     1
  3
ACAD_LAYERSTATES
360
478
  0
DICTIONARY
  5
60D
330
54
100
AcDbDictionary
280
     1
281
     1
  3
ADSK_XREC_LAYER_RECONCILED
360
60E
  0
DICTIONARY
  5
5FC
330
6B
100
AcDbDictionary
280
     1
281
     1
  3
ACAD_SORTENTS
360
5FD
  0
DICTIONARY
  5
1913
102
{ACAD_REACTORS
330
C
102
}
330
C
100
AcDbDictionary
281
     1
  3
DIMARCSYM
350
1915
  3
DIMFXL
350
1914
  3
DIMJOGANG
350
1916
  0
DICTIONARY
  5
62
102
{ACAD_REACTORS
330
C
102
}
330
C
100
AcDbDictionary
281
     1
  0
DICTIONARY
  5
D
102
{ACAD_REACTORS
330
C
102
}
330
C
100
AcDbDictionary
281
     1
  0
DICTIONARY
  5
61
102
{ACAD_REACTORS
330
C
102
}
330
C
100
AcDbDictionary
281
     1
  3
Model
350
6E
  3
レイアウト1
350
6A
  0
DICTIONARY
  5
10
102
{ACAD_REACTORS
330
C
102
}
330
C
100
AcDbDictionary
281
     1
  3
ByBlock
350
19
  3
ByLayer
350
11
  3
Global
350
21
  0
DICTIONARY
  5
65
102
{ACAD_REACTORS
330
C
102
}
330
C
100
AcDbDictionary
281
     1
  3
Standard
350
66
  0
DICTIONARY
  5
5E
102
{ACAD_REACTORS
330
C
102
}
330
C
100
AcDbDictionary
281
     1
  3
Standard
350
5F
  0
DICTIONARY
  5
60
102
{ACAD_REACTORS
330
C
102
}
330
C
100
AcDbDictionary
281
     1
  0
ACDBDICTIONARYWDFLT
  5
E
102
{ACAD_REACTORS
330
C
102
}
330
C
100
AcDbDictionary
281
     1
  3
Normal
350
F
100
AcDbDictionaryWithDefault
340
F
  0
DICTIONARY
  5
42
102
{ACAD_REACTORS
330
C
102
}
330
C
100
AcDbDictionary
281
     1
  3
A0
350
43
  3
A1
350
44
  3
A2
350
45
  3
A3
350
46
  3
A4
350
47
  3
A5
350
48
  3
A6
350
49
  3
A7
350
4A
  3
A8
350
4B
  3
A9
350
4C
  3
B0
350
4D
  3
B1
350
4E
  3
B2
350
4F
  3
B3
350
50
  3
B4
350
51
  3
B5
350
52
  3
B6
350
53
  0
DICTIONARY
  5
63
102
{ACAD_REACTORS
330
C
102
}
330
C
100
AcDbDictionary
281
     1
  3
Standard
350
64
  0
DICTIONARY
  5
29
102
{ACAD_REACTORS
330
C
102
}
330
C
100
AcDbDictionary
281
     1
  3
2dWireframe
350
2F
  3
3dWireframe
350
476
  3
Basic
350
2E
  3
Brighten
350
35
  3
ColorChange
350
39
  3
Conceptual
350
32
  3
Dim
350
34
  3
EdgeColorOff
350
41
  3
Facepattern
350
38
  3
Flat
350
2A
  3
FlatWithEdges
350
2B
  3
Gouraud
350
2C
  3
GouraudWithEdges
350
2D
  3
Hidden
350
31
  3
JitterOff
350
3F
  3
Linepattern
350
37
  3
OverhangOff
350
40
  3
Realistic
350
33
  3
Shaded
350
3E
  3
Shaded with edges
350
3D
  3
Shades of Gray
350
3A
  3
Sketchy
350
3B
  3
Thicken
350
36
  3
Wireframe
350
30
  3
X-Ray
350
3C
  0
XRECORD
  5
1911
102
{ACAD_REACTORS
330
C
102
}
330
C
100
AcDbXrecord
280
     1
 90
        1
330
64
  0
DICTIONARY
  5
611
102
{ACAD_REACTORS
330
C
102
}
330
C
100
AcDbDictionary
281
     1
  3
CANNOSCALE
350
614
  3
CMLEADERSTYLE
350
613
  3
CTABLESTYLE
350
612
  3
DIMASSOC
350
617
  3
INDEXCTL
350
616
  3
SORTENTS
350
615
  3
XCLIPFRAME
350
17E1
  0
XRECORD
  5
1912
102
{ACAD_REACTORS
330
C
102
}
330
C
100
AcDbXrecord
280
     1
  1
DWGPROPS COOKIE
  2

  3

  4

  6

  7

  8
imamura
  9

300
=
301
=
302
=
303
=
304
=
305
=
306
=
307
=
308
=
309
=
 40
0.188626712962963
 41
2456214.631297234
 42
2459893.496285185
  1

 90
        0
  0
DICTIONARY
  5
478
102
{ACAD_REACTORS
330
477
102
}
330
477
100
AcDbDictionary
281
     1
  0
XRECORD
  5
60E
102
{ACAD_REACTORS
330
60D
102
}
330
60D
100
AcDbXrecord
280
     1
290
     1
  0
SORTENTSTABLE
  5
5FD
102
{ACAD_REACTORS
330
5FC
102
}
330
5FC
100
AcDbSortentsTable
330
6B
331
DF
  5
E1
331
3B0
  5
3B2
331
3AC
  5
3AE
331
3A8
  5
3AA
331
D3
  5
D4
331
1888
  5
1575
331
1884
  5
1866
331
18C5
  5
18F1
331
1904
  5
185E
331
1900
  5
1868
331
13C4
  5
18D5
331
18C1
  5
103E
331
1246
  5
1275
331
11EF
  5
1247
331
18FC
  5
186A
331
1279
  5
13D0
331
18BD
  5
1042
331
1242
  5
1271
331
11EB
  5
1243
331
18F8
  5
1871
331
1275
  5
13CC
331
18B9
  5
10BB
331
123E
  5
126D
331
11E7
  5
123F
331
1271
  5
13C8
331
123A
  5
1269
331
11E3
  5
123B
331
1175
  5
11FB
331
113E
  5
11C3
331
10FF
  5
116E
331
1171
  5
11F7
331
113A
  5
11BA
331
10FB
  5
116A
331
10C4
  5
1135
331
102D
  5
1108
331
FF6
  5
10A7
331
116D
  5
11F3
331
1136
  5
11B4
331
10F7
  5
1165
331
10C0
  5
1131
331
1029
  5
1104
331
FF2
  5
1045
331
11AC
  5
E6B
331
1169
  5
11EF
331
1132
  5
11AF
331
10F3
  5
1161
331
1025
  5
1100
331
4BF
  5
5FB
331
11A8
  5
E70
331
1021
  5
10FC
331
4BB
  5
4BD
331
FEA
  5
1035
331
10B8
  5
E62
331
266
  5
268
331
3A4
  5
3A6
331
4B7
  5
4B9
331
262
  5
264
331
3A0
  5
3A2
331
39C
  5
39E
331
4B3
  5
4B5
331
25E
  5
260
331
187C
  5
186E
331
398
  5
39A
331
1878
  5
188A
331
18B7
  5
10B9
331
18F4
  5
1887
331
18B3
  5
10B5
331
1870
  5
1892
331
18F0
  5
1890
331
1236
  5
1265
331
14B7
  5
18F9
331
18EC
  5
1897
331
1232
  5
1261
331
14B3
  5
18F5
331
18E8
  5
1899
331
137C
  5
18B9
331
126D
  5
13C4
331
1269
  5
1382
331
11A4
  5
120C
331
112E
  5
11AB
331
11DF
  5
1237
331
112A
  5
11A6
331
FE6
  5
1031
331
10B4
  5
E64
331
11DB
  5
1233
331
1126
  5
119C
331
119C
  5
112D
331
10EF
  5
115D
331
10B0
  5
E6C
331
FE2
  5
102D
331
1122
  5
1198
331
10EB
  5
1159
331
101D
  5
10F8
331
1161
  5
E5C
331
1198
  5
E0E
331
FDE
  5
1029
331
10A8
  5
1124
331
1019
  5
10F4
331
FDA
  5
1025
331
4AF
  5
4B1
331
1580
  5
190D
331
295
  5
297
331
394
  5
396
331
256
  5
258
331
157C
  5
1909
331
3CF
  5
4A0
331
252
  5
254
331
291
  5
293
331
390
  5
392
331
1578
  5
1905
331
38C
  5
38E
331
18AF
  5
10C6
331
24E
  5
250
331
28D
  5
28F
331
388
  5
38A
331
18AB
  5
10C1
331
289
  5
28B
331
18A7
  5
10BD
331
18E4
  5
18AF
331
18A3
  5
10CC
331
18E0
  5
18B3
331
1374
  5
18AC
331
1265
  5
1378
331
18DC
  5
18BB
331
1370
  5
18A8
331
1261
  5
1373
331
120A
  5
E9D
331
13DB
  5
18EC
331
18D8
  5
18BF
331
136C
  5
18A2
331
125D
  5
136F
331
1206
  5
125D
331
11D7
  5
122F
331
1368
  5
189E
331
1259
  5
136B
331
1202
  5
1259
331
11D3
  5
122B
331
115D
  5
11E1
331
111E
  5
118E
331
10E7
  5
1155
331
11CF
  5
1227
331
1159
  5
11DD
331
111A
  5
118A
331
10E3
  5
1151
331
10A4
  5
1120
331
1015
  5
10EB
331
FD6
  5
1021
331
11CB
  5
1223
331
118C
  5
1207
331
1155
  5
11D9
331
1116
  5
1186
331
10DF
  5
114D
331
1011
  5
10E7
331
FD2
  5
101D
331
1151
  5
11D5
331
1112
  5
1182
331
10DB
  5
1149
331
100D
  5
10E3
331
1188
  5
E12
331
FCE
  5
1019
331
1040
  5
111B
331
1009
  5
10DF
331
1574
  5
1902
331
1570
  5
18FE
331
285
  5
287
331
384
  5
386
331
3C3
  5
3C5
331
156C
  5
18FA
331
3BF
  5
3C1
331
281
  5
283
331
3BB
  5
3BD
331
189F
  5
10C8
331
27D
  5
27F
331
37C
  5
37E
331
189B
  5
10D4
331
279
  5
27B
331
1897
  5
10D0
331
13D7
  5
18E8
331
18D4
  5
18C3
331
13D3
  5
18E4
331
18D0
  5
18C7
331
190F
  5
14B4
331
1255
  5
12E2
331
11FE
  5
1255
331
13CF
  5
18E0
331
18CC
  5
18CB
331
190B
  5
14B6
331
1251
  5
1280
331
11FA
  5
1251
331
13CB
  5
18DC
331
18C8
  5
18CF
331
124D
  5
127C
331
11C7
  5
121E
331
1249
  5
1278
331
11F2
  5
124A
331
11C3
  5
121A
331
110E
  5
117E
331
10D7
  5
1145
331
1184
  5
E11
331
1180
  5
11EB
331
1149
  5
11CE
331
110A
  5
117A
331
10D3
  5
1141
331
103C
  5
1117
331
1005
  5
10DB
331
E16
  5
EA1
331
117C
  5
1202
331
1145
  5
11CA
331
1106
  5
1176
331
10CF
  5
113D
331
1038
  5
1113
331
1001
  5
10D7
331
E12
  5
E77
331
1178
  5
11FE
331
1141
  5
11C6
331
1102
  5
1171
331
1034
  5
110F
331
E0E
  5
E69
331
1030
  5
110B
331
FF9
  5
10AA
331
3AF
  5
3B1
331
3AB
  5
3AD
331
188F
  5
13D8
331
26D
  5
26F
331
269
  5
26B
331
1907
  5
157D
331
1883
  5
1865
331
18C4
  5
18F0
331
1903
  5
1582
331
13C7
  5
18D8
331
18FF
  5
1867
331
13C3
  5
18D4
331
18C0
  5
103D
331
127C
  5
13D3
331
1245
  5
1274
331
11EE
  5
1246
331
18FB
  5
186D
331
1278
  5
13CF
331
18BC
  5
1041
331
1241
  5
1270
331
11EA
  5
1242
331
1274
  5
13CB
331
18B8
  5
10BA
331
123D
  5
126C
331
11E6
  5
123E
331
11B7
  5
1218
331
1270
  5
13C7
331
1239
  5
1268
331
11E2
  5
123A
331
1174
  5
11FA
331
113D
  5
11C2
331
10FE
  5
116D
331
10C7
  5
1138
331
1170
  5
11F6
331
1139
  5
11B9
331
10FA
  5
1168
331
10C3
  5
1134
331
102C
  5
1107
331
FF5
  5
10A6
331
116C
  5
11F2
331
1135
  5
11B3
331
10F6
  5
1164
331
10BF
  5
1130
331
1028
  5
1103
331
FF1
  5
1044
331
11AB
  5
E6A
331
1168
  5
11EE
331
1131
  5
11AE
331
10F2
  5
1160
331
1024
  5
10FF
331
FED
  5
1038
331
4BE
  5
4C0
331
1020
  5
10FB
331
4BA
  5
4BC
331
FE9
  5
1034
331
3A7
  5
3A9
331
265
  5
267
331
3A3
  5
3A5
331
4B6
  5
4B8
331
261
  5
263
331
39F
  5
3A1
331
39B
  5
39D
331
4B2
  5
4B4
331
25D
  5
25F
331
348
  5
34A
331
1877
  5
1889
331
18F7
  5
1886
331
18B6
  5
10B8
331
18F3
  5
188D
331
18B2
  5
10B4
331
18EF
  5
188F
331
1235
  5
1264
331
14B6
  5
18F8
331
18EB
  5
1896
331
1231
  5
1260
331
14B2
  5
18F4
331
137B
  5
18B8
331
126C
  5
13C3
331
1268
  5
1381
331
112D
  5
11AA
331
10B7
  5
EA2
331
11DE
  5
1236
331
1129
  5
11A5
331
10B3
  5
1129
331
FE5
  5
1030
331
11DA
  5
1232
331
119B
  5
120B
331
1125
  5
119B
331
10EE
  5
115C
331
FE1
  5
102C
331
1121
  5
1197
331
1160
  5
112B
331
10EA
  5
1158
331
10AB
  5
1127
331
101C
  5
10F7
331
FDD
  5
1028
331
1018
  5
10F3
331
FD9
  5
1024
331
397
  5
399
331
4AE
  5
4B0
331
157F
  5
190C
331
255
  5
257
331
294
  5
296
331
393
  5
395
331
157B
  5
1908
331
251
  5
253
331
290
  5
292
331
38F
  5
391
331
38B
  5
38D
331
18AE
  5
10C5
331
24D
  5
24F
331
28C
  5
28E
331
288
  5
28A
331
18AA
  5
10C0
331
249
  5
24B
331
18E7
  5
1898
331
18A6
  5
10BC
331
14AE
  5
18EE
331
18E3
  5
18AE
331
18A2
  5
10CB
331
18DF
  5
18B2
331
1373
  5
18AB
331
1264
  5
1377
331
18DB
  5
18BA
331
136F
  5
18A7
331
1260
  5
1372
331
1209
  5
E78
331
13DA
  5
18EB
331
136B
  5
18A1
331
125C
  5
136E
331
1205
  5
125C
331
11D6
  5
122E
331
1197
  5
112E
331
1258
  5
136A
331
1201
  5
1258
331
11D2
  5
122A
331
115C
  5
11E0
331
111D
  5
118D
331
10E6
  5
1154
331
10A7
  5
1123
331
11CE
  5
1226
331
1158
  5
11DC
331
1119
  5
1189
331
10E2
  5
1150
331
10A3
  5
111F
331
1014
  5
10EA
331
FD5
  5
1020
331
11CA
  5
1222
331
118B
  5
1206
331
1154
  5
11D8
331
1115
  5
1185
331
10DE
  5
114C
331
1010
  5
10E6
331
FD1
  5
101C
331
1150
  5
11D4
331
1111
  5
1181
331
10DA
  5
1148
331
100C
  5
10E2
331
1008
  5
10DE
331
1573
  5
1901
331
387
  5
389
331
156F
  5
18FD
331
284
  5
286
331
3C2
  5
3C4
331
1D5
  5
1D7
331
3BE
  5
3C0
331
280
  5
282
331
3BA
  5
3BC
331
189E
  5
10C7
331
27C
  5
27E
331
189A
  5
10D3
331
18D7
  5
18BE
331
1896
  5
10CF
331
13D6
  5
18E7
331
18D3
  5
18C2
331
1367
  5
189D
331
1892
  5
13DB
331
13D2
  5
18E3
331
18CF
  5
18C6
331
190E
  5
14B3
331
1254
  5
12A6
331
11FD
  5
1254
331
13CE
  5
18DF
331
18CB
  5
18CA
331
190A
  5
14B5
331
128F
  5
1574
331
1250
  5
127F
331
11F9
  5
1250
331
13CA
  5
18DB
331
124C
  5
127B
331
11F5
  5
124D
331
11C6
  5
121D
331
1187
  5
11E3
331
1248
  5
1277
331
11F1
  5
1249
331
11C2
  5
1219
331
114C
  5
11D1
331
110D
  5
117D
331
10D6
  5
1144
331
103F
  5
111A
331
1183
  5
E0F
331
117F
  5
1205
331
1148
  5
11CD
331
1109
  5
1179
331
10D2
  5
1140
331
103B
  5
1116
331
1004
  5
10DA
331
E15
  5
E9F
331
11BA
  5
1215
331
117B
  5
1201
331
1144
  5
11C9
331
1105
  5
1175
331
10CE
  5
113C
331
1037
  5
1112
331
E11
  5
E6E
331
1140
  5
11C5
331
1101
  5
1170
331
1033
  5
110E
331
FFC
  5
10B1
331
FF8
  5
10A9
331
3B2
  5
3B4
331
3AE
  5
3B0
331
3AA
  5
3AC
331
188E
  5
13D7
331
D5
  5
D6
331
188A
  5
157B
331
268
  5
26A
331
18C7
  5
18CE
331
1906
  5
157C
331
1882
  5
1864
331
18C3
  5
18EF
331
1902
  5
1863
331
13C6
  5
18D7
331
127F
  5
13D5
331
18FE
  5
186C
331
13C2
  5
18D3
331
18BF
  5
103C
331
127B
  5
13D2
331
1244
  5
1273
331
11ED
  5
1245
331
18FA
  5
1877
331
1277
  5
13CE
331
18BB
  5
1040
331
1240
  5
126F
331
11E9
  5
1241
331
1273
  5
13CA
331
123C
  5
126B
331
11E5
  5
123D
331
11B6
  5
1211
331
1177
  5
11FD
331
1238
  5
1267
331
11E1
  5
1239
331
1173
  5
11F9
331
113C
  5
11C1
331
10FD
  5
116C
331
10C6
  5
1137
331
102F
  5
110A
331
116F
  5
11F5
331
1138
  5
11B7
331
10F9
  5
1167
331
10C2
  5
1133
331
102B
  5
1106
331
FF4
  5
1047
331
11AA
  5
1210
331
116B
  5
11F1
331
1134
  5
11B1
331
10F5
  5
1163
331
10BE
  5
112F
331
1027
  5
1102
331
FF0
  5
1043
331
1130
  5
11AD
331
10F1
  5
115F
331
1023
  5
10FE
331
FEC
  5
1037
331
4BD
  5
4BF
331
4B9
  5
4BB
331
FE8
  5
1033
331
3A6
  5
3A8
331
264
  5
266
331
3A2
  5
3A4
331
4B5
  5
4B7
331
260
  5
262
331
187E
  5
1870
331
39A
  5
39C
331
4B1
  5
4B3
331
258
  5
25B
331
1876
  5
1888
331
18F6
  5
1879
331
18B5
  5
10B7
331
1872
  5
1894
331
18F2
  5
188C
331
18B1
  5
10B3
331
18EE
  5
188E
331
1234
  5
1263
331
1382
  5
1212
331
14B5
  5
18F7
331
18EA
  5
1895
331
126F
  5
13C6
331
1230
  5
125F
331
14B1
  5
18F3
331
137A
  5
18B7
331
126B
  5
13C2
331
11A6
  5
120E
331
112C
  5
11A9
331
10B6
  5
E68
331
11DD
  5
1235
331
1167
  5
11ED
331
1128
  5
11A4
331
10B2
  5
1128
331
FE4
  5
102F
331
11D9
  5
1231
331
119A
  5
120A
331
1124
  5
119A
331
10ED
  5
115B
331
101F
  5
10FA
331
FE0
  5
102B
331
1120
  5
1196
331
10E9
  5
1157
331
10AA
  5
1126
331
101B
  5
10F6
331
FDC
  5
1027
331
FD8
  5
1023
331
1582
  5
190F
331
396
  5
398
331
4AD
  5
4AF
331
157E
  5
190B
331
254
  5
256
331
293
  5
295
331
157A
  5
1907
331
250
  5
252
331
28F
  5
291
331
38E
  5
390
331
38A
  5
38C
331
18AD
  5
10C4
331
28B
  5
28D
331
18A9
  5
10BF
331
18E6
  5
189B
331
18A5
  5
10CE
331
3D0
  5
4A1
331
14AD
  5
18ED
331
18E2
  5
18B1
331
18A1
  5
10CA
331
1267
  5
137C
331
18DE
  5
18B5
331
1372
  5
18AA
331
1263
  5
1375
331
18DA
  5
18BD
331
136E
  5
18A6
331
125F
  5
1371
331
13D9
  5
18EA
331
136A
  5
18A0
331
125B
  5
136D
331
1204
  5
125B
331
11D5
  5
122D
331
1196
  5
11E4
331
115F
  5
112A
331
1200
  5
1257
331
11D1
  5
1229
331
115B
  5
11DF
331
111C
  5
118C
331
10E5
  5
1153
331
10A6
  5
1122
331
1017
  5
10F2
331
11CD
  5
1225
331
118E
  5
1209
331
1157
  5
11DB
331
1118
  5
1188
331
10E1
  5
114F
331
10A2
  5
111E
331
1013
  5
10E9
331
FD4
  5
101F
331
11C9
  5
1220
331
1153
  5
11D7
331
1114
  5
1184
331
10DD
  5
114B
331
100F
  5
10E5
331
118A
  5
E15
331
FD0
  5
101B
331
1110
  5
1180
331
10D9
  5
1147
331
1042
  5
111D
331
100B
  5
10E1
331
1576
  5
1904
331
1572
  5
1900
331
287
  5
289
331
386
  5
388
331
156E
  5
18FC
331
283
  5
285
331
3C1
  5
3C3
331
3BD
  5
3BF
331
27F
  5
281
331
3B9
  5
3BB
331
189D
  5
10D6
331
27B
  5
27D
331
1899
  5
10D2
331
18D6
  5
18C1
331
13D5
  5
18E6
331
18D2
  5
18C5
331
1366
  5
189C
331
1891
  5
13DA
331
1257
  5
1369
331
13D1
  5
18E2
331
18CE
  5
18C9
331
190D
  5
14B2
331
1253
  5
128E
331
11FC
  5
1253
331
13CD
  5
18DE
331
18CA
  5
18CD
331
1909
  5
156F
331
128E
  5
1570
331
124F
  5
127E
331
11F8
  5
124F
331
13C9
  5
18DA
331
124B
  5
127A
331
11F4
  5
124C
331
11C5
  5
121C
331
1186
  5
11E5
331
114F
  5
11D3
331
11F0
  5
1248
331
114B
  5
11D0
331
110C
  5
117C
331
10D5
  5
1143
331
103E
  5
1119
331
1007
  5
10DD
331
1182
  5
E10
331
117E
  5
1204
331
1147
  5
11CC
331
1108
  5
1178
331
10D1
  5
113F
331
103A
  5
1115
331
1003
  5
10D9
331
E14
  5
E61
331
11B9
  5
1216
331
117A
  5
1200
331
1143
  5
11C8
331
1104
  5
1174
331
10CD
  5
113B
331
1036
  5
1111
331
1100
  5
116F
331
10C9
  5
113A
331
1032
  5
110D
331
FFB
  5
10B0
331
273
  5
275
331
35A
  5
360
331
3B1
  5
3B3
331
3AD
  5
3AF
331
D8
  5
E0
331
352
  5
354
331
3A9
  5
3AB
331
1280
  5
13D6
331
D4
  5
D5
331
26B
  5
26D
331
1889
  5
1576
331
18C6
  5
18D1
331
1905
  5
1862
331
18C2
  5
18F2
331
1901
  5
1869
331
13C5
  5
18D6
331
127E
  5
13D4
331
1247
  5
1276
331
18FD
  5
186B
331
13C1
  5
18D2
331
18BE
  5
103B
331
127A
  5
13D1
331
1243
  5
1272
331
11EC
  5
1244
331
18F9
  5
1876
331
1276
  5
13CD
331
18BA
  5
103F
331
123F
  5
126E
331
11E8
  5
1240
331
1272
  5
13C9
331
123B
  5
126A
331
11E4
  5
123C
331
11B5
  5
1213
331
1176
  5
11FC
331
113F
  5
11C4
331
11E0
  5
1238
331
1172
  5
11F8
331
113B
  5
11BB
331
10FC
  5
116B
331
10C5
  5
1136
331
102E
  5
1109
331
FF7
  5
10A8
331
116E
  5
11F4
331
1137
  5
11B6
331
10F8
  5
1166
331
10C1
  5
1132
331
102A
  5
1105
331
FF3
  5
1046
331
11AD
  5
E9E
331
11A9
  5
120F
331
116A
  5
11F0
331
1133
  5
11B0
331
10F4
  5
1162
331
1026
  5
1101
331
4C0
  5
604
331
10F0
  5
115E
331
1022
  5
10FD
331
4BC
  5
4BE
331
FEB
  5
1036
331
10B9
  5
E6D
331
4B8
  5
4BA
331
3A5
  5
3A7
331
267
  5
269
331
263
  5
265
331
39D
  5
39F
331
4B4
  5
4B6
331
25F
  5
261
331
187D
  5
186F
331
399
  5
39B
331
4B0
  5
4B2
331
18F5
  5
1878
331
18B4
  5
10B6
331
1871
  5
1893
331
18F1
  5
188B
331
18B0
  5
10B2
331
1237
  5
1266
331
18ED
  5
1891
331
1233
  5
1262
331
1381
  5
1214
331
14B4
  5
18F6
331
18E9
  5
189A
331
126E
  5
13C5
331
122F
  5
125E
331
1379
  5
18B6
331
126A
  5
13C1
331
11A5
  5
120D
331
112F
  5
11AC
331
112B
  5
11A8
331
10B5
  5
EA0
331
FE7
  5
1032
331
11DC
  5
1234
331
1166
  5
11EC
331
119D
  5
112C
331
1127
  5
119D
331
FE3
  5
102E
331
11D8
  5
1230
331
1123
  5
1199
331
10EC
  5
115A
331
101E
  5
10F9
331
1162
  5
E59
331
1199
  5
E0D
331
FDF
  5
102A
331
10E8
  5
1156
331
10A9
  5
1125
331
101A
  5
10F5
331
FDB
  5
1026
331
1581
  5
190E
331
296
  5
298
331
395
  5
397
331
4AC
  5
4AE
331
257
  5
259
331
157D
  5
190A
331
253
  5
255
331
292
  5
294
331
391
  5
393
331
1579
  5
1906
331
24F
  5
251
331
28E
  5
290
331
38D
  5
38F
331
389
  5
38B
331
18AC
  5
10C3
331
24B
  5
24D
331
28A
  5
28C
331
18A8
  5
10BE
331
18E5
  5
18B0
331
18A4
  5
10CD
331
18E1
  5
18B4
331
1375
  5
18AD
331
18A0
  5
10C9
331
1266
  5
137B
331
18DD
  5
18BC
331
1371
  5
18A9
331
1262
  5
1374
331
18D9
  5
18C0
331
136D
  5
18A5
331
125E
  5
1370
331
13D8
  5
18E9
331
1369
  5
189F
331
125A
  5
136C
331
1203
  5
125A
331
11D4
  5
122C
331
115E
  5
11E2
331
111F
  5
1195
331
1195
  5
E13
331
11D0
  5
1228
331
115A
  5
11DE
331
111B
  5
118B
331
10E4
  5
1152
331
10A5
  5
1121
331
1016
  5
10EC
331
FD7
  5
1022
331
11CC
  5
1224
331
118D
  5
1208
331
1156
  5
11DA
331
1117
  5
1187
331
10E0
  5
114E
331
1012
  5
10E8
331
FD3
  5
101E
331
11C8
  5
121F
331
1152
  5
11D6
331
1113
  5
1183
331
10DC
  5
114A
331
100E
  5
10E4
331
1189
  5
E14
331
FCF
  5
101A
331
10D8
  5
1146
331
1041
  5
111C
331
100A
  5
10E0
331
1575
  5
1903
331
1571
  5
18FF
331
286
  5
288
331
385
  5
387
331
156D
  5
18FB
331
282
  5
284
331
3C0
  5
3C2
331
3BC
  5
3BE
331
27E
  5
280
331
37D
  5
37F
331
189C
  5
10D5
331
1B3
  5
1B5
331
27A
  5
27C
331
1898
  5
10D1
331
18D5
  5
18C4
331
13D4
  5
18E5
331
18D1
  5
18C8
331
1890
  5
13D9
331
1256
  5
1368
331
11FF
  5
1256
331
13D0
  5
18E1
331
18CD
  5
18CC
331
190C
  5
156E
331
1252
  5
1281
331
11FB
  5
1252
331
13CC
  5
18DD
331
18C9
  5
18D0
331
1908
  5
1581
331
124E
  5
127D
331
11F7
  5
124E
331
13C8
  5
18D9
331
124A
  5
1279
331
11F3
  5
124B
331
11C4
  5
121B
331
114E
  5
11D2
331
110F
  5
117F
331
1181
  5
11E6
331
114A
  5
11CF
331
110B
  5
117B
331
10D4
  5
1142
331
103D
  5
1118
331
1006
  5
10DC
331
E17
  5
EA3
331
117D
  5
1203
331
1146
  5
11CB
331
1107
  5
1177
331
10D0
  5
113E
331
1039
  5
1114
331
1002
  5
10D8
331
E13
  5
E63
331
11B8
  5
1217
331
1179
  5
11FF
331
1142
  5
11C7
331
1103
  5
1173
331
1035
  5
1110
331
E0F
  5
E67
331
10C8
  5
1139
331
1031
  5
110C
331
FFA
  5
10AB
  0
XRECORD
  5
1915
102
{ACAD_REACTORS
330
1913
102
}
330
1913
100
AcDbXrecord
280
     1
 70
     2
  0
XRECORD
  5
1914
102
{ACAD_REACTORS
330
1913
102
}
330
1913
100
AcDbXrecord
280
     1
 40
1.25
  0
XRECORD
  5
1916
102
{ACAD_REACTORS
330
1913
102
}
330
1913
100
AcDbXrecord
280
     1
 40
1.570796326794896
  0
LAYOUT
  5
6E
102
{ACAD_XDICTIONARY
360
194A
102
}
102
{ACAD_REACTORS
330
61
102
}
330
61
100
AcDbPlotSettings
  1

  2
FX DP 205
  4

  6

 40
0.0
 41
0.0
 42
0.0
 43
0.0
 44
0.0
 45
0.0
 46
0.0
 47
0.0
 48
0.0
 49
0.0
140
0.0
141
0.0
142
1.0
143
1.0
 70
  1712
 72
     0
 73
     0
 74
     0
  7

 75
     0
147
1.0
148
0.0
149
0.0
100
AcDbLayout
  1
Model
 70
     1
 71
     0
 10
0.0
 20
0.0
 11
12.0
 21
9.0
 12
0.0
 22
0.0
 32
0.0
 14
0.0
 24
0.0
 34
0.0
 15
0.0
 25
0.0
 35
0.0
146
0.0
 13
0.0
 23
0.0
 33
0.0
 16
1.0
 26
0.0
 36
0.0
 17
0.0
 27
1.0
 37
0.0
 76
     0
330
6B
331
8B
  0
LAYOUT
  5
6A
102
{ACAD_XDICTIONARY
360
1948
102
}
102
{ACAD_REACTORS
330
61
102
}
330
61
100
AcDbPlotSettings
  1

  2
FX DP 205
  4

  6

 40
0.0
 41
0.0
 42
0.0
 43
0.0
 44
0.0
 45
0.0
 46
0.0
 47
0.0
 48
0.0
 49
0.0
140
0.0
141
0.0
142
1.0
143
1.0
 70
   688
 72
     0
 73
     0
 74
     5
  7

 75
    16
147
1.0
148
0.0
149
0.0
100
AcDbLayout
  1
レイアウト1
 70
     1
 71
     1
 10
0.0
 20
0.0
 11
12.0
 21
9.0
 12
0.0
 22
0.0
 32
0.0
 14
1.000000000000000E+20
 24
1.000000000000000E+20
 34
1.000000000000000E+20
 15
-1.000000000000000E+20
 25
-1.000000000000000E+20
 35
-1.000000000000000E+20
146
0.0
 13
0.0
 23
0.0
 33
0.0
 16
1.0
 26
0.0
 36
0.0
 17
0.0
 27
1.0
 37
0.0
 76
     0
330
67
  0
MATERIAL
  5
19
102
{ACAD_XDICTIONARY
360
1A
102
}
102
{ACAD_REACTORS
330
10
102
}
330
10
100
AcDbMaterial
  1
ByBlock
 72
     0
 43
0.0208333333333333
 43
0.0
 43
0.0
 43
0.0
 43
0.0
 43
0.0208333333333333
 43
0.0
 43
0.0
 43
0.0
 43
0.0
 43
1.0
 43
0.0
 43
0.0
 43
0.0
 43
0.0
 43
1.0
 77
     0
 47
0.0208333333333333
 47
0.0
 47
0.0
 47
0.0
 47
0.0
 47
0.0208333333333333
 47
0.0
 47
0.0
 47
0.0
 47
0.0
 47
1.0
 47
0.0
 47
0.0
 47
0.0
 47
0.0
 47
1.0
171
     0
 49
0.0208333333333333
 49
0.0
 49
0.0
 49
0.0
 49
0.0
 49
0.0208333333333333
 49
0.0
 49
0.0
 49
0.0
 49
0.0
 49
1.0
 49
0.0
 49
0.0
 49
0.0
 49
0.0
 49
1.0
175
     0
142
0.0208333333333333
142
0.0
142
0.0
142
0.0
142
0.0
142
0.0208333333333333
142
0.0
142
0.0
142
0.0
142
0.0
142
1.0
142
0.0
142
0.0
142
0.0
142
0.0
142
1.0
179
     0
144
0.0208333333333333
144
0.0
144
0.0
144
0.0
144
0.0
144
0.0208333333333333
144
0.0
144
0.0
144
0.0
144
0.0
144
1.0
144
0.0
144
0.0
144
0.0
144
0.0
144
1.0
147
0.0208333333333333
147
0.0
147
0.0
147
0.0
147
0.0
147
0.0208333333333333
147
0.0
147
0.0
147
0.0
147
0.0
147
1.0
147
0.0
147
0.0
147
0.0
147
0.0
147
1.0
  0
MATERIAL
  5
11
102
{ACAD_XDICTIONARY
360
12
102
}
102
{ACAD_REACTORS
330
10
102
}
330
10
100
AcDbMaterial
  1
ByLayer
 72
     0
 43
0.0208333333333333
 43
0.0
 43
0.0
 43
0.0
 43
0.0
 43
0.0208333333333333
 43
0.0
 43
0.0
 43
0.0
 43
0.0
 43
1.0
 43
0.0
 43
0.0
 43
0.0
 43
0.0
 43
1.0
 77
     0
 47
0.0208333333333333
 47
0.0
 47
0.0
 47
0.0
 47
0.0
 47
0.0208333333333333
 47
0.0
 47
0.0
 47
0.0
 47
0.0
 47
1.0
 47
0.0
 47
0.0
 47
0.0
 47
0.0
 47
1.0
171
     0
 49
0.0208333333333333
 49
0.0
 49
0.0
 49
0.0
 49
0.0
 49
0.0208333333333333
 49
0.0
 49
0.0
 49
0.0
 49
0.0
 49
1.0
 49
0.0
 49
0.0
 49
0.0
 49
0.0
 49
1.0
175
     0
142
0.0208333333333333
142
0.0
142
0.0
142
0.0
142
0.0
142
0.0208333333333333
142
0.0
142
0.0
142
0.0
142
0.0
142
1.0
142
0.0
142
0.0
142
0.0
142
0.0
142
1.0
179
     0
144
0.0208333333333333
144
0.0
144
0.0
144
0.0
144
0.0
144
0.0208333333333333
144
0.0
144
0.0
144
0.0
144
0.0
144
1.0
144
0.0
144
0.0
144
0.0
144
0.0
144
1.0
147
0.0208333333333333
147
0.0
147
0.0
147
0.0
147
0.0
147
0.0208333333333333
147
0.0
147
0.0
147
0.0
147
0.0
147
1.0
147
0.0
147
0.0
147
0.0
147
0.0
147
1.0
  0
MATERIAL
  5
21
102
{ACAD_XDICTIONARY
360
22
102
}
102
{ACAD_REACTORS
330
10
102
}
330
10
100
AcDbMaterial
  1
Global
 72
     0
 43
0.0208333333333333
 43
0.0
 43
0.0
 43
0.0
 43
0.0
 43
0.0208333333333333
 43
0.0
 43
0.0
 43
0.0
 43
0.0
 43
1.0
 43
0.0
 43
0.0
 43
0.0
 43
0.0
 43
1.0
 77
     0
 47
0.0208333333333333
 47
0.0
 47
0.0
 47
0.0
 47
0.0
 47
0.0208333333333333
 47
0.0
 47
0.0
 47
0.0
 47
0.0
 47
1.0
 47
0.0
 47
0.0
 47
0.0
 47
0.0
 47
1.0
171
     0
 49
0.0208333333333333
 49
0.0
 49
0.0
 49
0.0
 49
0.0
 49
0.0208333333333333
 49
0.0
 49
0.0
 49
0.0
 49
0.0
 49
1.0
 49
0.0
 49
0.0
 49
0.0
 49
0.0
 49
1.0
175
     0
142
0.0208333333333333
142
0.0
142
0.0
142
0.0
142
0.0
142
0.0208333333333333
142
0.0
142
0.0
142
0.0
142
0.0
142
1.0
142
0.0
142
0.0
142
0.0
142
0.0
142
1.0
179
     0
144
0.0208333333333333
144
0.0
144
0.0
144
0.0
144
0.0
144
0.0208333333333333
144
0.0
144
0.0
144
0.0
144
0.0
144
1.0
144
0.0
144
0.0
144
0.0
144
0.0
144
1.0
147
0.0208333333333333
147
0.0
147
0.0
147
0.0
147
0.0
147
0.0208333333333333
147
0.0
147
0.0
147
0.0
147
0.0
147
1.0
147
0.0
147
0.0
147
0.0
147
0.0
147
1.0
  0
MLEADERSTYLE
  5
66
102
{ACAD_REACTORS
330
65
102
}
330
65
100
AcDbMLeaderStyle
170
     2
171
     1
172
     0
 90
        2
 40
0.0
 41
0.0
173
     1
 91
-1056964608
340
5A
 92
       -2
290
     1
 42
0.09
291
     1
 43
0.36
  3
Standard
 44
0.18
300

342
55
174
     1
178
     6
175
     1
176
     0
 93
-1056964608
 45
0.18
292
     0
297
     0
 46
0.18
 94
-1056964608
 47
1.0
 49
1.0
140
1.0
293
     1
141
0.0
294
     1
177
     0
142
1.0
295
     0
296
     0
143
0.125
1001
ACAD_MLEADERVER
1070
     2
  0
MLINESTYLE
  5
5F
102
{ACAD_REACTORS
330
5E
102
}
330
5E
100
AcDbMlineStyle
  2
STANDARD
 70
     0
  3

 62
   256
 51
90.0
 52
90.0
 71
     2
 49
0.5
 62
   256
  6
BYLAYER
 49
-0.5
 62
   256
  6
BYLAYER
  0
ACDBPLACEHOLDER
  5
F
102
{ACAD_REACTORS
330
E
102
}
330
E
  0
SCALE
  5
43
102
{ACAD_REACTORS
330
42
102
}
330
42
100
AcDbScale
 70
     0
300
1:1
140
1.0
141
1.0
290
     1
  0
SCALE
  5
44
102
{ACAD_REACTORS
330
42
102
}
330
42
100
AcDbScale
 70
     0
300
1/128" = 1'-0"
140
0.0078125
141
12.0
290
     0
  0
SCALE
  5
45
102
{ACAD_REACTORS
330
42
102
}
330
42
100
AcDbScale
 70
     0
300
1/64" = 1'-0"
140
0.015625
141
12.0
290
     0
  0
SCALE
  5
46
102
{ACAD_REACTORS
330
42
102
}
330
42
100
AcDbScale
 70
     0
300
1/32" = 1'-0"
140
0.03125
141
12.0
290
     0
  0
SCALE
  5
47
102
{ACAD_REACTORS
330
42
102
}
330
42
100
AcDbScale
 70
     0
300
1/16" = 1'-0"
140
0.0625
141
12.0
290
     0
  0
SCALE
  5
48
102
{ACAD_REACTORS
330
42
102
}
330
42
100
AcDbScale
 70
     0
300
3/32" = 1'-0"
140
0.09375
141
12.0
290
     0
  0
SCALE
  5
49
102
{ACAD_REACTORS
330
42
102
}
330
42
100
AcDbScale
 70
     0
300
1/8" = 1'-0"
140
0.125
141
12.0
290
     0
  0
SCALE
  5
4A
102
{ACAD_REACTORS
330
42
102
}
330
42
100
AcDbScale
 70
     0
300
3/16" = 1'-0"
140
0.1875
141
12.0
290
     0
  0
SCALE
  5
4B
102
{ACAD_REACTORS
330
42
102
}
330
42
100
AcDbScale
 70
     0
300
1/4" = 1'-0"
140
0.25
141
12.0
290
     0
  0
SCALE
  5
4C
102
{ACAD_REACTORS
330
42
102
}
330
42
100
AcDbScale
 70
     0
300
3/8" = 1'-0"
140
0.375
141
12.0
290
     0
  0
SCALE
  5
4D
102
{ACAD_REACTORS
330
42
102
}
330
42
100
AcDbScale
 70
     0
300
1/2" = 1'-0"
140
0.5
141
12.0
290
     0
  0
SCALE
  5
4E
102
{ACAD_REACTORS
330
42
102
}
330
42
100
AcDbScale
 70
     0
300
3/4" = 1'-0"
140
0.75
141
12.0
290
     0
  0
SCALE
  5
4F
102
{ACAD_REACTORS
330
42
102
}
330
42
100
AcDbScale
 70
     0
300
1" = 1'-0"
140
1.0
141
12.0
290
     0
  0
SCALE
  5
50
102
{ACAD_REACTORS
330
42
102
}
330
42
100
AcDbScale
 70
     0
300
1-1/2" = 1'-0"
140
1.5
141
12.0
290
     0
  0
SCALE
  5
51
102
{ACAD_REACTORS
330
42
102
}
330
42
100
AcDbScale
 70
     0
300
3" = 1'-0"
140
3.0
141
12.0
290
     0
  0
SCALE
  5
52
102
{ACAD_REACTORS
330
42
102
}
330
42
100
AcDbScale
 70
     0
300
6" = 1'-0"
140
6.0
141
12.0
290
     0
  0
SCALE
  5
53
102
{ACAD_REACTORS
330
42
102
}
330
42
100
AcDbScale
 70
     0
300
1'-0" = 1'-0"
140
12.0
141
12.0
290
     0
  0
TABLESTYLE
  5
64
102
{ACAD_XDICTIONARY
360
619
102
}
102
{ACAD_REACTORS
330
63
102
}
330
63
100
AcDbTableStyle
  3
Standard
 70
     0
 71
     0
 40
0.06
 41
0.06
280
     0
281
     0
  7
STANDARD
140
0.18
170
     2
 62
     0
 63
     7
283
     0
274
    -2
284
     1
 64
     0
275
    -2
285
     1
 65
     0
276
    -2
286
     1
 66
     0
277
    -2
287
     1
 67
     0
278
    -2
288
     1
 68
     0
279
    -2
289
     1
 69
     0
  7
STANDARD
140
0.25
170
     5
 62
     0
 63
     7
283
     0
274
    -2
284
     1
 64
     0
275
    -2
285
     1
 65
     0
276
    -2
286
     1
 66
     0
277
    -2
287
     1
 67
     0
278
    -2
288
     1
 68
     0
279
    -2
289
     1
 69
     0
  7
STANDARD
140
0.18
170
     5
 62
     0
 63
     7
283
     0
274
    -2
284
     1
 64
     0
275
    -2
285
     1
 65
     0
276
    -2
286
     1
 66
     0
277
    -2
287
     1
 67
     0
278
    -2
288
     1
 68
     0
279
    -2
289
     1
 69
     0
  0
VISUALSTYLE
  5
2F
102
{ACAD_XDICTIONARY
360
1921
102
}
102
{ACAD_REACTORS
330
29
102
}
330
29
100
AcDbVisualStyle
  2

 70
     4
 71
     0
 72
     2
 73
     0
 90
        0
 40
-0.6
 41
-30.0
 62
     5
 63
     7
 74
     1
 91
        4
 64
     7
 65
   257
 75
     1
175
     1
 42
1.0
 92
        0
 66
   257
 43
1.0
 76
     1
 77
     6
 78
     2
 67
     7
 79
     5
170
     0
171
     0
290
     0
174
     0
 93
        1
 44
0.0
173
     0
291
     0
 45
0.0
1001
ACAD
1000
AcDbSavedByObjectVersion
1070
     0
  0
VISUALSTYLE
  5
476
102
{ACAD_XDICTIONARY
360
194C
102
}
102
{ACAD_REACTORS
330
29
102
}
330
29
100
AcDbVisualStyle
  2

 70
     5
 71
     0
 72
     2
 73
     1
 90
        0
 40
-0.6
 41
-30.0
 62
     5
 63
     7
 74
     1
 91
        4
 64
     7
 65
   257
 75
     1
175
     1
 42
1.0
 92
        0
 66
   257
 43
1.0
 76
     1
 77
     6
 78
     2
 67
     7
 79
     5
170
     0
171
     0
290
     0
174
     0
 93
        1
 44
0.0
173
     0
291
     0
 45
0.0
1001
ACAD
1000
AcDbSavedByObjectVersion
1070
     0
  0
VISUALSTYLE
  5
2E
102
{ACAD_XDICTIONARY
360
191F
102
}
102
{ACAD_REACTORS
330
29
102
}
330
29
100
AcDbVisualStyle
  2

 70
     7
 71
     1
 72
     0
 73
     1
 90
        0
 40
-0.6
 41
-30.0
 62
     5
 63
     7
 74
     0
 91
        4
 64
     7
 65
   257
 75
     1
175
     1
 42
1.0
 92
        8
 66
     7
 43
1.0
 76
     1
 77
     6
 78
     2
 67
     7
 79
     5
170
     0
171
     0
290
     0
174
     0
 93
        1
 44
0.0
173
     0
291
     1
 45
0.0
1001
ACAD
1000
AcDbSavedByObjectVersion
1070
     0
  0
VISUALSTYLE
  5
35
102
{ACAD_XDICTIONARY
360
192D
102
}
102
{ACAD_REACTORS
330
29
102
}
330
29
100
AcDbVisualStyle
  2

 70
    12
 71
     2
 72
     2
 73
     0
 90
        0
 40
-0.6
 41
-30.0
 62
     5
 63
     7
 74
     1
 91
        4
 64
     7
 65
   257
 75
     1
175
     1
 42
1.0
 92
        8
 66
     7
 43
1.0
 76
     1
 77
     6
 78
     2
 67
     7
 79
     5
170
     0
171
     0
290
     0
174
     0
 93
        1
 44
50.0
173
     0
291
     1
 45
0.0
1001
ACAD
1000
AcDbSavedByObjectVersion
1070
     0
  0
VISUALSTYLE
  5
39
102
{ACAD_XDICTIONARY
360
1935
102
}
102
{ACAD_REACTORS
330
29
102
}
330
29
100
AcDbVisualStyle
  2

 70
    16
 71
     2
 72
     2
 73
     3
 90
        0
 40
-0.6
 41
-30.0
 62
     5
 63
     8
 74
     1
 91
        4
 64
     7
 65
   257
 75
     1
175
     1
 42
1.0
 92
        8
 66
     8
 43
1.0
 76
     1
 77
     6
 78
     2
 67
     7
 79
     5
170
     0
171
     0
290
     0
174
     0
 93
        1
 44
0.0
173
     0
291
     1
 45
0.0
1001
ACAD
1000
AcDbSavedByObjectVersion
1070
     0
  0
VISUALSTYLE
  5
32
102
{ACAD_XDICTIONARY
360
1927
102
}
102
{ACAD_REACTORS
330
29
102
}
330
29
100
AcDbVisualStyle
  2

 70
     9
 71
     3
 72
     2
 73
     0
 90
        0
 40
-0.6
 41
-30.0
 62
     5
 63
     7
 74
     2
 91
        2
 64
     7
 65
   257
 75
     1
175
     1
 42
179.0
 92
        8
 66
     7
 43
1.0
 76
     1
 77
     6
 78
     2
 67
     7
 79
     3
170
     0
171
     0
290
     0
174
     0
 93
        1
 44
0.0
173
     0
291
     0
 45
0.0
1001
ACAD
1000
AcDbSavedByObjectVersion
1070
     0
  0
VISUALSTYLE
  5
34
102
{ACAD_XDICTIONARY
360
192B
102
}
102
{ACAD_REACTORS
330
29
102
}
330
29
100
AcDbVisualStyle
  2

 70
    11
 71
     2
 72
     2
 73
     0
 90
        0
 40
-0.6
 41
-30.0
 62
     5
 63
     7
 74
     1
 91
        4
 64
     7
 65
   257
 75
     1
175
     1
 42
1.0
 92
        8
 66
     7
 43
1.0
 76
     1
 77
     6
 78
     2
 67
     7
 79
     5
170
     0
171
     0
290
     0
174
     0
 93
        1
 44
-50.0
173
     0
291
     1
 45
0.0
1001
ACAD
1000
AcDbSavedByObjectVersion
1070
     0
  0
VISUALSTYLE
  5
41
102
{ACAD_XDICTIONARY
360
1945
102
}
102
{ACAD_REACTORS
330
29
102
}
330
29
100
AcDbVisualStyle
  2

 70
    22
 71
     2
 72
     2
 73
     0
 90
        0
 40
-0.6
 41
-30.0
 62
     5
 63
     7
 74
     1
 91
        4
 64
     7
 65
   257
 75
     1
175
     1
 42
1.0
 92
        8
 66
     7
 43
1.0
 76
     1
 77
     6
 78
     2
 67
     7
 79
     5
170
     0
171
     0
290
     0
174
     0
 93
        1
 44
0.0
173
     0
291
     1
 45
0.0
1001
ACAD
1000
AcDbSavedByObjectVersion
1070
     0
  0
VISUALSTYLE
  5
38
102
{ACAD_XDICTIONARY
360
1933
102
}
102
{ACAD_REACTORS
330
29
102
}
330
29
100
AcDbVisualStyle
  2

 70
    15
 71
     2
 72
     2
 73
     0
 90
        0
 40
-0.6
 41
-30.0
 62
     5
 63
     7
 74
     1
 91
        4
 64
     7
 65
   257
 75
     1
175
     1
 42
1.0
 92
        8
 66
     7
 43
1.0
 76
     1
 77
     6
 78
     2
 67
     7
 79
     5
170
     0
171
     0
290
     0
174
     0
 93
        1
 44
0.0
173
     0
291
     1
 45
0.0
1001
ACAD
1000
AcDbSavedByObjectVersion
1070
     0
  0
VISUALSTYLE
  5
2A
102
{ACAD_XDICTIONARY
360
1917
102
}
102
{ACAD_REACTORS
330
29
102
}
330
29
100
AcDbVisualStyle
  2

 70
     0
 71
     2
 72
     1
 73
     1
 90
        2
 40
-0.6
 41
30.0
 62
     5
 63
     7
 74
     0
 91
        0
 64
     7
 65
   257
 75
     1
175
     1
 42
1.0
 92
        8
 66
     7
 43
1.0
 76
     1
 77
     6
 78
     2
 67
     7
 79
     5
170
     0
171
     0
290
     0
174
     0
 93
       13
 44
0.0
173
     0
291
     1
 45
0.0
1001
ACAD
1000
AcDbSavedByObjectVersion
1070
     0
  0
VISUALSTYLE
  5
2B
102
{ACAD_XDICTIONARY
360
1919
102
}
102
{ACAD_REACTORS
330
29
102
}
330
29
100
AcDbVisualStyle
  2

 70
     1
 71
     2
 72
     1
 73
     1
 90
        2
 40
-0.6
 41
30.0
 62
     5
 63
     7
 74
     1
 91
        0
 64
     7
 65
   257
 75
     1
175
     1
 42
1.0
 92
        0
 66
   257
 43
1.0
 76
     1
 77
     6
 78
     2
 67
     7
 79
     5
170
     0
171
     0
290
     0
174
     0
 93
       13
 44
0.0
173
     0
291
     1
 45
0.0
1001
ACAD
1000
AcDbSavedByObjectVersion
1070
     0
  0
VISUALSTYLE
  5
2C
102
{ACAD_XDICTIONARY
360
191B
102
}
102
{ACAD_REACTORS
330
29
102
}
330
29
100
AcDbVisualStyle
  2

 70
     2
 71
     2
 72
     2
 73
     1
 90
        2
 40
-0.6
 41
30.0
 62
     5
 63
     7
 74
     0
 91
        0
 64
     7
 65
   257
 75
     1
175
     1
 42
1.0
 92
        0
 66
     7
 43
1.0
 76
     1
 77
     6
 78
     2
 67
     7
 79
     5
170
     0
171
     0
290
     0
174
     0
 93
       13
 44
0.0
173
     0
291
     1
 45
0.0
1001
ACAD
1000
AcDbSavedByObjectVersion
1070
     0
  0
VISUALSTYLE
  5
2D
102
{ACAD_XDICTIONARY
360
191D
102
}
102
{ACAD_REACTORS
330
29
102
}
330
29
100
AcDbVisualStyle
  2

 70
     3
 71
     2
 72
     2
 73
     1
 90
        2
 40
-0.6
 41
30.0
 62
     5
 63
     7
 74
     1
 91
        0
 64
     7
 65
   257
 75
     1
175
     1
 42
1.0
 92
        0
 66
   257
 43
1.0
 76
     1
 77
     6
 78
     2
 67
     7
 79
     5
170
     0
171
     0
290
     0
174
     0
 93
       13
 44
0.0
173
     0
291
     1
 45
0.0
1001
ACAD
1000
AcDbSavedByObjectVersion
1070
     0
  0
VISUALSTYLE
  5
31
102
{ACAD_XDICTIONARY
360
1925
102
}
102
{ACAD_REACTORS
330
29
102
}
330
29
100
AcDbVisualStyle
  2

 70
     6
 71
     1
 72
     2
 73
     2
 90
        0
 40
-0.6
 41
-30.0
 62
     5
 63
     7
 74
     2
 91
        2
 64
     7
 65
   257
 75
     2
175
     1
 42
40.0
 92
        0
 66
   257
 43
1.0
 76
     1
 77
     6
 78
     2
 67
     7
 79
     3
170
     0
171
     0
290
     0
174
     0
 93
        1
 44
0.0
173
     0
291
     0
 45
0.0
1001
ACAD
1000
AcDbSavedByObjectVersion
1070
     0
  0
VISUALSTYLE
  5
3F
102
{ACAD_XDICTIONARY
360
1941
102
}
102
{ACAD_REACTORS
330
29
102
}
330
29
100
AcDbVisualStyle
  2

 70
    20
 71
     2
 72
     2
 73
     0
 90
        0
 40
-0.6
 41
-30.0
 62
     5
 63
     7
 74
     1
 91
        4
 64
     7
 65
   257
 75
     1
175
     1
 42
1.0
 92
       10
 66
     7
 43
1.0
 76
     1
 77
     6
 78
     2
 67
     7
 79
     5
170
     0
171
     0
290
     0
174
     0
 93
        1
 44
0.0
173
     0
291
     1
 45
0.0
1001
ACAD
1000
AcDbSavedByObjectVersion
1070
     0
  0
VISUALSTYLE
  5
37
102
{ACAD_XDICTIONARY
360
1931
102
}
102
{ACAD_REACTORS
330
29
102
}
330
29
100
AcDbVisualStyle
  2

 70
    14
 71
     2
 72
     2
 73
     0
 90
        0
 40
-0.6
 41
-30.0
 62
     5
 63
     7
 74
     1
 91
        4
 64
     7
 65
   257
 75
     7
175
     7
 42
1.0
 92
        8
 66
     7
 43
1.0
 76
     1
 77
     6
 78
     2
 67
     7
 79
     5
170
     0
171
     0
290
     0
174
     0
 93
        1
 44
0.0
173
     0
291
     1
 45
0.0
1001
ACAD
1000
AcDbSavedByObjectVersion
1070
     0
  0
VISUALSTYLE
  5
40
102
{ACAD_XDICTIONARY
360
1943
102
}
102
{ACAD_REACTORS
330
29
102
}
330
29
100
AcDbVisualStyle
  2

 70
    21
 71
     2
 72
     2
 73
     0
 90
        0
 40
-0.6
 41
-30.0
 62
     5
 63
     7
 74
     1
 91
        4
 64
     7
 65
   257
 75
     1
175
     1
 42
1.0
 92
        9
 66
     7
 43
1.0
 76
     1
 77
     6
 78
     2
 67
     7
 79
     5
170
     0
171
     0
290
     0
174
     0
 93
        1
 44
0.0
173
     0
291
     1
 45
0.0
1001
ACAD
1000
AcDbSavedByObjectVersion
1070
     0
  0
VISUALSTYLE
  5
33
102
{ACAD_XDICTIONARY
360
1929
102
}
102
{ACAD_REACTORS
330
29
102
}
330
29
100
AcDbVisualStyle
  2

 70
     8
 71
     2
 72
     3
 73
     0
 90
        2
 40
-0.6
 41
30.0
 62
     5
 63
     7
 74
     0
 91
        0
 64
     7
 65
   257
 75
     1
175
     1
 42
1.0
 92
        8
 66
   257
 43
1.0
 76
     1
 77
     6
 78
     2
 67
     7
 79
     3
170
     0
171
     0
290
     0
174
     0
 93
       13
 44
0.0
173
     0
291
     0
 45
0.0
1001
ACAD
1000
AcDbSavedByObjectVersion
1070
     0
  0
VISUALSTYLE
  5
3E
102
{ACAD_XDICTIONARY
360
193F
102
}
102
{ACAD_REACTORS
330
29
102
}
330
29
100
AcDbVisualStyle
  2

 70
    27
 71
     2
 72
     2
 73
     1
 90
        2
 40
-0.6
 41
30.0
 62
     5
 63
     7
 74
     0
 91
        4
 64
     7
 65
   257
 75
     1
175
     1
 42
1.0
 92
        8
 66
   257
 43
1.0
 76
     1
 77
     6
 78
     2
 67
     8
 79
     3
170
     0
171
     0
290
     0
174
     0
 93
        5
 44
0.0
173
     0
291
     0
 45
0.0
1001
ACAD
1000
AcDbSavedByObjectVersion
1070
     0
  0
VISUALSTYLE
  5
3D
102
{ACAD_XDICTIONARY
360
193D
102
}
102
{ACAD_REACTORS
330
29
102
}
330
29
100
AcDbVisualStyle
  2

 70
    26
 71
     2
 72
     2
 73
     1
 90
        2
 40
-0.6
 41
30.0
 62
     5
 63
     7
 74
     1
 91
       10
 64
     7
 65
   257
 75
     2
175
     1
 42
1.0
 92
        8
 66
   257
 43
1.0
 76
     1
 77
     6
 78
     2
 67
     7
 79
     3
170
     0
171
     0
290
     0
174
     0
 93
        5
 44
0.0
173
     0
291
     0
 45
0.0
1001
ACAD
1000
AcDbSavedByObjectVersion
1070
     0
  0
VISUALSTYLE
  5
3A
102
{ACAD_XDICTIONARY
360
1937
102
}
102
{ACAD_REACTORS
330
29
102
}
330
29
100
AcDbVisualStyle
  2

 70
    23
 71
     2
 72
     2
 73
     3
 90
        0
 40
-0.6
 41
-30.0
 62
     5
 63
     7
 74
     2
 91
        2
 64
     7
 65
     7
 75
     1
175
     1
 42
40.0
 92
        8
 66
     7
 43
1.0
 76
     1
 77
     6
 78
     2
 67
     7
 79
     3
170
     0
171
     0
290
     0
174
     0
 93
        1
 44
0.0
173
     0
291
     0
 45
0.0
1001
ACAD
1000
AcDbSavedByObjectVersion
1070
     0
  0
VISUALSTYLE
  5
3B
102
{ACAD_XDICTIONARY
360
1939
102
}
102
{ACAD_REACTORS
330
29
102
}
330
29
100
AcDbVisualStyle
  2

 70
    24
 71
     1
 72
     2
 73
     2
 90
        0
 40
-0.6
 41
-30.0
 62
     5
 63
     7
 74
     2
 91
        2
 64
     7
 65
     7
 75
     1
175
     1
 42
40.0
 92
       11
 66
     7
 43
1.0
 76
     1
 77
     6
 78
     2
 67
     7
 79
     6
170
     0
171
     0
290
     0
174
     0
 93
        1
 44
0.0
173
     0
291
     0
 45
0.0
1001
ACAD
1000
AcDbSavedByObjectVersion
1070
     0
  0
VISUALSTYLE
  5
36
102
{ACAD_XDICTIONARY
360
192F
102
}
102
{ACAD_REACTORS
330
29
102
}
330
29
100
AcDbVisualStyle
  2

 70
    13
 71
     2
 72
     2
 73
     0
 90
        0
 40
-0.6
 41
-30.0
 62
     5
 63
     7
 74
     1
 91
        4
 64
     7
 65
   257
 75
     1
175
     1
 42
1.0
 92
       12
 66
     7
 43
1.0
 76
     1
 77
     6
 78
     2
 67
     7
 79
     5
170
     0
171
     0
290
     0
174
     0
 93
        1
 44
0.0
173
     0
291
     1
 45
0.0
1001
ACAD
1000
AcDbSavedByObjectVersion
1070
     0
  0
VISUALSTYLE
  5
30
102
{ACAD_XDICTIONARY
360
1923
102
}
102
{ACAD_REACTORS
330
29
102
}
330
29
100
AcDbVisualStyle
  2

 70
     5
 71
     0
 72
     2
 73
     0
 90
        0
 40
-0.6
 41
-30.0
 62
     5
 63
     7
 74
     1
 91
        4
 64
     7
 65
   257
 75
     1
175
     1
 42
1.0
 92
        0
 66
   257
 43
1.0
 76
     1
 77
     6
 78
     2
 67
     7
 79
     3
170
     0
171
     0
290
     0
174
     0
 93
        1
 44
0.0
173
     0
291
     0
 45
0.0
1001
ACAD
1000
AcDbSavedByObjectVersion
1070
     0
  0
VISUALSTYLE
  5
3C
102
{ACAD_XDICTIONARY
360
193B
102
}
102
{ACAD_REACTORS
330
29
102
}
330
29
100
AcDbVisualStyle
  2

 70
    25
 71
     2
 72
     2
 73
     1
 90
        1
 40
0.5
 41
-30.0
 62
     5
 63
     7
 74
     1
 91
        0
 64
     7
 65
   257
 75
     1
175
     1
 42
1.0
 92
        8
 66
     7
 43
1.0
 76
     1
 77
     6
 78
     2
 67
     7
 79
     3
170
     0
171
     0
290
     0
174
     0
 93
       13
 44
0.0
173
     0
291
     0
 45
0.0
1001
ACAD
1000
AcDbSavedByObjectVersion
1070
     0
  0
DICTIONARYVAR
  5
614
102
{ACAD_REACTORS
330
611
102
}
330
611
100
DictionaryVariables
280
     0
  1
1:1
  0
DICTIONARYVAR
  5
613
102
{ACAD_REACTORS
330
611
102
}
330
611
100
DictionaryVariables
280
     0
  1
STANDARD
  0
DICTIONARYVAR
  5
612
102
{ACAD_REACTORS
330
611
102
}
330
611
100
DictionaryVariables
280
     0
  1
STANDARD
  0
DICTIONARYVAR
  5
617
102
{ACAD_REACTORS
330
611
102
}
330
611
100
DictionaryVariables
280
     0
  1
1
  0
DICTIONARYVAR
  5
616
102
{ACAD_REACTORS
330
611
102
}
330
611
100
DictionaryVariables
280
     0
  1
0
  0
DICTIONARYVAR
  5
615
102
{ACAD_REACTORS
330
611
102
}
330
611
100
DictionaryVariables
280
     0
  1
127
  0
DICTIONARYVAR
  5
17E1
102
{ACAD_REACTORS
330
611
102
}
330
611
100
DictionaryVariables
280
     0
  1
2
  0
DICTIONARY
  5
194A
330
6E
100
AcDbDictionary
280
     1
281
     1
  3
ACAD_XREC_ROUNDTRIP
360
194B
  0
DICTIONARY
  5
1948
330
6A
100
AcDbDictionary
280
     1
281
     1
  3
ACAD_XREC_ROUNDTRIP
360
1949
  0
DICTIONARY
  5
1A
330
19
100
AcDbDictionary
280
     1
281
     1
  3
ACAD_XREC_ROUNDTRIP
360
622
  3
BUMPTILE
360
1C
  3
DIFFUSETILE
360
1B
  3
OPACITYTILE
360
1F
  3
REFLECTIONTILE
360
1E
  3
REFRACTIONTILE
360
20
  3
SPECULARTILE
360
1D
  0
DICTIONARY
  5
12
330
11
100
AcDbDictionary
280
     1
281
     1
  3
ACAD_XREC_ROUNDTRIP
360
621
  3
BUMPTILE
360
14
  3
DIFFUSETILE
360
13
  3
OPACITYTILE
360
17
  3
REFLECTIONTILE
360
16
  3
REFRACTIONTILE
360
18
  3
SPECULARTILE
360
15
  0
DICTIONARY
  5
22
330
21
100
AcDbDictionary
280
     1
281
     1
  3
ACAD_XREC_ROUNDTRIP
360
623
  3
BUMPTILE
360
24
  3
DIFFUSETILE
360
23
  3
OPACITYTILE
360
27
  3
REFLECTIONTILE
360
26
  3
REFRACTIONTILE
360
28
  3
SPECULARTILE
360
25
  0
DICTIONARY
  5
619
330
64
100
AcDbDictionary
280
     1
281
     1
  3
ACAD_ROUNDTRIP_2008_TABLESTYLE_CELLSTYLEMAP
360
1910
  3
ACAD_XREC_ROUNDTRIP
360
1947
  0
DICTIONARY
  5
1921
330
2F
100
AcDbDictionary
280
     1
281
     1
  3
ACAD_XREC_ROUNDTRIP
360
1922
  0
DICTIONARY
  5
194C
330
476
100
AcDbDictionary
280
     1
281
     1
  3
ACAD_XREC_ROUNDTRIP
360
194D
  0
DICTIONARY
  5
191F
330
2E
100
AcDbDictionary
280
     1
281
     1
  3
ACAD_XREC_ROUNDTRIP
360
1920
  0
DICTIONARY
  5
192D
330
35
100
AcDbDictionary
280
     1
281
     1
  3
ACAD_XREC_ROUNDTRIP
360
192E
  0
DICTIONARY
  5
1935
330
39
100
AcDbDictionary
280
     1
281
     1
  3
ACAD_XREC_ROUNDTRIP
360
1936
  0
DICTIONARY
  5
1927
330
32
100
AcDbDictionary
280
     1
281
     1
  3
ACAD_XREC_ROUNDTRIP
360
1928
  0
DICTIONARY
  5
192B
330
34
100
AcDbDictionary
280
     1
281
     1
  3
ACAD_XREC_ROUNDTRIP
360
192C
  0
DICTIONARY
  5
1945
330
41
100
AcDbDictionary
280
     1
281
     1
  3
ACAD_XREC_ROUNDTRIP
360
1946
  0
DICTIONARY
  5
1933
330
38
100
AcDbDictionary
280
     1
281
     1
  3
ACAD_XREC_ROUNDTRIP
360
1934
  0
DICTIONARY
  5
1917
330
2A
100
AcDbDictionary
280
     1
281
     1
  3
ACAD_XREC_ROUNDTRIP
360
1918
  0
DICTIONARY
  5
1919
330
2B
100
AcDbDictionary
280
     1
281
     1
  3
ACAD_XREC_ROUNDTRIP
360
191A
  0
DICTIONARY
  5
191B
330
2C
100
AcDbDictionary
280
     1
281
     1
  3
ACAD_XREC_ROUNDTRIP
360
191C
  0
DICTIONARY
  5
191D
330
2D
100
AcDbDictionary
280
     1
281
     1
  3
ACAD_XREC_ROUNDTRIP
360
191E
  0
DICTIONARY
  5
1925
330
31
100
AcDbDictionary
280
     1
281
     1
  3
ACAD_XREC_ROUNDTRIP
360
1926
  0
DICTIONARY
  5
1941
330
3F
100
AcDbDictionary
280
     1
281
     1
  3
ACAD_XREC_ROUNDTRIP
360
1942
  0
DICTIONARY
  5
1931
330
37
100
AcDbDictionary
280
     1
281
     1
  3
ACAD_XREC_ROUNDTRIP
360
1932
  0
DICTIONARY
  5
1943
330
40
100
AcDbDictionary
280
     1
281
     1
  3
ACAD_XREC_ROUNDTRIP
360
1944
  0
DICTIONARY
  5
1929
330
33
100
AcDbDictionary
280
     1
281
     1
  3
ACAD_XREC_ROUNDTRIP
360
192A
  0
DICTIONARY
  5
193F
330
3E
100
AcDbDictionary
280
     1
281
     1
  3
ACAD_XREC_ROUNDTRIP
360
1940
  0
DICTIONARY
  5
193D
330
3D
100
AcDbDictionary
280
     1
281
     1
  3
ACAD_XREC_ROUNDTRIP
360
193E
  0
DICTIONARY
  5
1937
330
3A
100
AcDbDictionary
280
     1
281
     1
  3
ACAD_XREC_ROUNDTRIP
360
1938
  0
DICTIONARY
  5
1939
330
3B
100
AcDbDictionary
280
     1
281
     1
  3
ACAD_XREC_ROUNDTRIP
360
193A
  0
DICTIONARY
  5
192F
330
36
100
AcDbDictionary
280
     1
281
     1
  3
ACAD_XREC_ROUNDTRIP
360
1930
  0
DICTIONARY
  5
1923
330
30
100
AcDbDictionary
280
     1
281
     1
  3
ACAD_XREC_ROUNDTRIP
360
1924
  0
DICTIONARY
  5
193B
330
3C
100
AcDbDictionary
280
     1
281
     1
  3
ACAD_XREC_ROUNDTRIP
360
193C
  0
XRECORD
  5
194B
102
{ACAD_REACTORS
330
194A
102
}
330
194A
100
AcDbXrecord
280
     1
102
SHADEPLOT
 70
     0
102
SHADEPLOTRESLEVEL
 70
     2
102
SHADEPLOTCUSTOMDPI
 70
   300
  0
XRECORD
  5
1949
102
{ACAD_REACTORS
330
1948
102
}
330
1948
100
AcDbXrecord
280
     1
102
SHADEPLOT
 70
     0
102
SHADEPLOTRESLEVEL
 70
     2
102
SHADEPLOTCUSTOMDPI
 70
   300
  0
XRECORD
  5
622
102
{ACAD_REACTORS
330
1A
102
}
330
1A
100
AcDbXrecord
280
     1
102
MATERIAL
148
0.0
149
0.0
149
0.0
 93
        0
 94
      127
282
     0
 72
     0
 77
     0
171
     0
175
     0
179
     0
273
     0
  0
XRECORD
  5
1C
102
{ACAD_REACTORS
330
1A
102
}
330
1A
100
AcDbXrecord
280
     1
270
     1
271
     1
  0
XRECORD
  5
1B
102
{ACAD_REACTORS
330
1A
102
}
330
1A
100
AcDbXrecord
280
     1
270
     1
271
     1
  0
XRECORD
  5
1F
102
{ACAD_REACTORS
330
1A
102
}
330
1A
100
AcDbXrecord
280
     1
270
     1
271
     1
  0
XRECORD
  5
1E
102
{ACAD_REACTORS
330
1A
102
}
330
1A
100
AcDbXrecord
280
     1
270
     1
271
     1
  0
XRECORD
  5
20
102
{ACAD_REACTORS
330
1A
102
}
330
1A
100
AcDbXrecord
280
     1
270
     1
271
     1
  0
XRECORD
  5
1D
102
{ACAD_REACTORS
330
1A
102
}
330
1A
100
AcDbXrecord
280
     1
270
     1
271
     1
  0
XRECORD
  5
621
102
{ACAD_REACTORS
330
12
102
}
330
12
100
AcDbXrecord
280
     1
102
MATERIAL
148
0.0
149
0.0
149
0.0
 93
        0
 94
      127
282
     0
 72
     0
 77
     0
171
     0
175
     0
179
     0
273
     0
  0
XRECORD
  5
14
102
{ACAD_REACTORS
330
12
102
}
330
12
100
AcDbXrecord
280
     1
270
     1
271
     1
  0
XRECORD
  5
13
102
{ACAD_REACTORS
330
12
102
}
330
12
100
AcDbXrecord
280
     1
270
     1
271
     1
  0
XRECORD
  5
17
102
{ACAD_REACTORS
330
12
102
}
330
12
100
AcDbXrecord
280
     1
270
     1
271
     1
  0
XRECORD
  5
16
102
{ACAD_REACTORS
330
12
102
}
330
12
100
AcDbXrecord
280
     1
270
     1
271
     1
  0
XRECORD
  5
18
102
{ACAD_REACTORS
330
12
102
}
330
12
100
AcDbXrecord
280
     1
270
     1
271
     1
  0
XRECORD
  5
15
102
{ACAD_REACTORS
330
12
102
}
330
12
100
AcDbXrecord
280
     1
270
     1
271
     1
  0
XRECORD
  5
623
102
{ACAD_REACTORS
330
22
102
}
330
22
100
AcDbXrecord
280
     1
102
MATERIAL
148
0.0
149
0.0
149
0.0
 93
        0
 94
      127
282
     0
 72
     0
 77
     0
171
     0
175
     0
179
     0
273
     0
  0
XRECORD
  5
24
102
{ACAD_REACTORS
330
22
102
}
330
22
100
AcDbXrecord
280
     1
270
     1
271
     1
  0
XRECORD
  5
23
102
{ACAD_REACTORS
330
22
102
}
330
22
100
AcDbXrecord
280
     1
270
     1
271
     1
  0
XRECORD
  5
27
102
{ACAD_REACTORS
330
22
102
}
330
22
100
AcDbXrecord
280
     1
270
     1
271
     1
  0
XRECORD
  5
26
102
{ACAD_REACTORS
330
22
102
}
330
22
100
AcDbXrecord
280
     1
270
     1
271
     1
  0
XRECORD
  5
28
102
{ACAD_REACTORS
330
22
102
}
330
22
100
AcDbXrecord
280
     1
270
     1
271
     1
  0
XRECORD
  5
25
102
{ACAD_REACTORS
330
22
102
}
330
22
100
AcDbXrecord
280
     1
270
     1
271
     1
  0
CELLSTYLEMAP
  5
1910
102
{ACAD_REACTORS
330
619
102
}
330
619
100
AcDbCellStyleMap
 90
        3
300
CELLSTYLE
  1
TABLEFORMAT_BEGIN
 90
        5
170
     1
 91
        0
 92
    32768
 62
   257
 93
        1
300
CONTENTFORMAT
  1
CONTENTFORMAT_BEGIN
 90
        0
 91
        0
 92
      512
 93
        0
300

 40
0.0
140
1.0
 94
        5
 62
     0
340
55
144
0.25
309
CONTENTFORMAT_END
171
     1
301
MARGIN
  1
CELLMARGIN_BEGIN
 40
0.06
 40
0.06
 40
0.06
 40
0.06
 40
0.18
 40
0.18
309
CELLMARGIN_END
 94
        6
 95
        1
302
GRIDFORMAT
  1
GRIDFORMAT_BEGIN
 90
        0
 91
        1
 62
     0
 92
       -2
340
0
 93
        0
 40
0.045
309
GRIDFORMAT_END
 95
        2
302
GRIDFORMAT
  1
GRIDFORMAT_BEGIN
 90
        0
 91
        1
 62
     0
 92
       -2
340
0
 93
        0
 40
0.045
309
GRIDFORMAT_END
 95
        4
302
GRIDFORMAT
  1
GRIDFORMAT_BEGIN
 90
        0
 91
        1
 62
     0
 92
       -2
340
0
 93
        0
 40
0.045
309
GRIDFORMAT_END
 95
        8
302
GRIDFORMAT
  1
GRIDFORMAT_BEGIN
 90
        0
 91
        1
 62
     0
 92
       -2
340
0
 93
        0
 40
0.045
309
GRIDFORMAT_END
 95
       16
302
GRIDFORMAT
  1
GRIDFORMAT_BEGIN
 90
        0
 91
        1
 62
     0
 92
       -2
340
0
 93
        0
 40
0.045
309
GRIDFORMAT_END
 95
       32
302
GRIDFORMAT
  1
GRIDFORMAT_BEGIN
 90
        0
 91
        1
 62
     0
 92
       -2
340
0
 93
        0
 40
0.045
309
GRIDFORMAT_END
309
TABLEFORMAT_END
  1
CELLSTYLE_BEGIN
 90
        1
 91
        1
300
_TITLE
309
CELLSTYLE_END
300
CELLSTYLE
  1
TABLEFORMAT_BEGIN
 90
        5
170
     1
 91
        0
 92
        0
 62
   257
 93
        1
300
CONTENTFORMAT
  1
CONTENTFORMAT_BEGIN
 90
        0
 91
        0
 92
      512
 93
        0
300

 40
0.0
140
1.0
 94
        5
 62
     0
340
55
144
0.18
309
CONTENTFORMAT_END
171
     1
301
MARGIN
  1
CELLMARGIN_BEGIN
 40
0.06
 40
0.06
 40
0.06
 40
0.06
 40
0.18
 40
0.18
309
CELLMARGIN_END
 94
        6
 95
        1
302
GRIDFORMAT
  1
GRIDFORMAT_BEGIN
 90
        0
 91
        1
 62
     0
 92
       -2
340
0
 93
        0
 40
0.045
309
GRIDFORMAT_END
 95
        2
302
GRIDFORMAT
  1
GRIDFORMAT_BEGIN
 90
        0
 91
        1
 62
     0
 92
       -2
340
0
 93
        0
 40
0.045
309
GRIDFORMAT_END
 95
        4
302
GRIDFORMAT
  1
GRIDFORMAT_BEGIN
 90
        0
 91
        1
 62
     0
 92
       -2
340
0
 93
        0
 40
0.045
309
GRIDFORMAT_END
 95
        8
302
GRIDFORMAT
  1
GRIDFORMAT_BEGIN
 90
        0
 91
        1
 62
     0
 92
       -2
340
0
 93
        0
 40
0.045
309
GRIDFORMAT_END
 95
       16
302
GRIDFORMAT
  1
GRIDFORMAT_BEGIN
 90
        0
 91
        1
 62
     0
 92
       -2
340
0
 93
        0
 40
0.045
309
GRIDFORMAT_END
 95
       32
302
GRIDFORMAT
  1
GRIDFORMAT_BEGIN
 90
        0
 91
        1
 62
     0
 92
       -2
340
0
 93
        0
 40
0.045
309
GRIDFORMAT_END
309
TABLEFORMAT_END
  1
CELLSTYLE_BEGIN
 90
        2
 91
        1
300
_HEADER
309
CELLSTYLE_END
300
CELLSTYLE
  1
TABLEFORMAT_BEGIN
 90
        5
170
     1
 91
        0
 92
        0
 62
   257
 93
        1
300
CONTENTFORMAT
  1
CONTENTFORMAT_BEGIN
 90
        0
 91
        0
 92
      512
 93
        0
300

 40
0.0
140
1.0
 94
        2
 62
     0
340
55
144
0.18
309
CONTENTFORMAT_END
171
     1
301
MARGIN
  1
CELLMARGIN_BEGIN
 40
0.06
 40
0.06
 40
0.06
 40
0.06
 40
0.18
 40
0.18
309
CELLMARGIN_END
 94
        6
 95
        1
302
GRIDFORMAT
  1
GRIDFORMAT_BEGIN
 90
        0
 91
        1
 62
     0
 92
       -2
340
0
 93
        0
 40
0.045
309
GRIDFORMAT_END
 95
        2
302
GRIDFORMAT
  1
GRIDFORMAT_BEGIN
 90
        0
 91
        1
 62
     0
 92
       -2
340
0
 93
        0
 40
0.045
309
GRIDFORMAT_END
 95
        4
302
GRIDFORMAT
  1
GRIDFORMAT_BEGIN
 90
        0
 91
        1
 62
     0
 92
       -2
340
0
 93
        0
 40
0.045
309
GRIDFORMAT_END
 95
        8
302
GRIDFORMAT
  1
GRIDFORMAT_BEGIN
 90
        0
 91
        1
 62
     0
 92
       -2
340
0
 93
        0
 40
0.045
309
GRIDFORMAT_END
 95
       16
302
GRIDFORMAT
  1
GRIDFORMAT_BEGIN
 90
        0
 91
        1
 62
     0
 92
       -2
340
0
 93
        0
 40
0.045
309
GRIDFORMAT_END
 95
       32
302
GRIDFORMAT
  1
GRIDFORMAT_BEGIN
 90
        0
 91
        1
 62
     0
 92
       -2
340
0
 93
        0
 40
0.045
309
GRIDFORMAT_END
309
TABLEFORMAT_END
  1
CELLSTYLE_BEGIN
 90
        3
 91
        2
300
_DATA
309
CELLSTYLE_END
  0
XRECORD
  5
1947
102
{ACAD_REACTORS
330
619
102
}
330
619
100
AcDbXrecord
280
     1
102
ACAD_ROUNDTRIP_PRE2007_TABLESTYLE
 90
      512
 91
        0
  1

 92
      512
 93
        0
  2

 94
      512
 95
        0
  3

  0
XRECORD
  5
1922
102
{ACAD_REACTORS
330
1921
102
}
330
1921
100
AcDbXrecord
280
     1
102
RTVSPropertyOp0
 70
     1
102
RTVSPropertyOp1
 70
     1
102
RTVSPropertyOp2
 70
     1
102
RTVSPropertyOp3
 70
     1
102
RTVSPropertyOp4
 70
     1
102
RTVSPropertyOp5
 70
     1
102
RTVSPropertyOp6
 70
     1
102
RTVSPropertyOp7
 70
     1
102
RTVSPropertyOp8
 70
     1
102
RTVSPropertyOp9
 70
     1
102
RTVSPropertyOp10
 70
     1
102
RTVSPropertyOp11
 70
     1
102
RTVSPropertyOp12
 70
     1
102
RTVSPropertyOp13
 70
     1
102
RTVSPropertyOp14
 70
     1
102
RTVSPropertyOp15
 70
     1
102
RTVSPropertyOp16
 70
     1
102
RTVSPropertyOp17
 70
     1
102
RTVSPropertyOp18
 70
     1
102
RTVSPropertyOp19
 70
     1
102
RTVSPropertyOp20
 70
     1
102
RTVSPropertyOp21
 70
     1
102
RTVSPropertyOp22
 70
     1
102
RTVSPropertyOp23
 70
     1
102
RTVSPropertyOp24
 70
     1
102
RTVSPropertyOp25
 70
     1
102
RTVSPropertyOp26
 70
     1
102
RTVSPropertyOp27
 70
     1
102
RTVSPropertyOp28
 70
     1
102
RTVSPropertyOp29
 70
     1
102
RTVSPropertyOp30
 70
     1
102
RTVSPropertyOp31
 70
     1
102
RTVSPropertyOp32
 70
     1
  0
XRECORD
  5
194D
102
{ACAD_REACTORS
330
194C
102
}
330
194C
100
AcDbXrecord
280
     1
102
RTVSPropertyOp0
 70
     1
102
RTVSPropertyOp1
 70
     1
102
RTVSPropertyOp2
 70
     1
102
RTVSPropertyOp3
 70
     1
102
RTVSPropertyOp4
 70
     1
102
RTVSPropertyOp5
 70
     1
102
RTVSPropertyOp6
 70
     1
102
RTVSPropertyOp7
 70
     1
102
RTVSPropertyOp8
 70
     1
102
RTVSPropertyOp9
 70
     1
102
RTVSPropertyOp10
 70
     1
102
RTVSPropertyOp11
 70
     1
102
RTVSPropertyOp12
 70
     1
102
RTVSPropertyOp13
 70
     1
102
RTVSPropertyOp14
 70
     1
102
RTVSPropertyOp15
 70
     1
102
RTVSPropertyOp16
 70
     1
102
RTVSPropertyOp17
 70
     1
102
RTVSPropertyOp18
 70
     1
102
RTVSPropertyOp19
 70
     1
102
RTVSPropertyOp20
 70
     1
102
RTVSPropertyOp21
 70
     1
102
RTVSPropertyOp22
 70
     1
102
RTVSPropertyOp23
 70
     1
102
RTVSPropertyOp24
 70
     1
102
RTVSPropertyOp25
 70
     1
102
RTVSPropertyOp26
 70
     1
102
RTVSPropertyOp27
 70
     1
102
RTVSPropertyOp28
 70
     1
102
RTVSPropertyOp29
 70
     1
102
RTVSPropertyOp30
 70
     1
102
RTVSPropertyOp31
 70
     1
102
RTVSPropertyOp32
 70
     1
  0
XRECORD
  5
1920
102
{ACAD_REACTORS
330
191F
102
}
330
191F
100
AcDbXrecord
280
     1
102
RTVSPropertyOp0
 70
     1
102
RTVSPropertyOp1
 70
     1
102
RTVSPropertyOp2
 70
     1
102
RTVSPropertyOp3
 70
     1
102
RTVSPropertyOp4
 70
     1
102
RTVSPropertyOp5
 70
     1
102
RTVSPropertyOp6
 70
     1
102
RTVSPropertyOp7
 70
     1
102
RTVSPropertyOp8
 70
     1
102
RTVSPropertyOp9
 70
     1
102
RTVSPropertyOp10
 70
     1
102
RTVSPropertyOp11
 70
     1
102
RTVSPropertyOp12
 70
     1
102
RTVSPropertyOp13
 70
     1
102
RTVSPropertyOp14
 70
     1
102
RTVSPropertyOp15
 70
     1
102
RTVSPropertyOp16
 70
     1
102
RTVSPropertyOp17
 70
     1
102
RTVSPropertyOp18
 70
     1
102
RTVSPropertyOp19
 70
     1
102
RTVSPropertyOp20
 70
     1
102
RTVSPropertyOp21
 70
     1
102
RTVSPropertyOp22
 70
     1
102
RTVSPropertyOp23
 70
     1
102
RTVSPropertyOp24
 70
     1
102
RTVSPropertyOp25
 70
     1
102
RTVSPropertyOp26
 70
     1
102
RTVSPropertyOp27
 70
     1
102
RTVSPropertyOp28
 70
     1
102
RTVSPropertyOp29
 70
     1
102
RTVSPropertyOp30
 70
     1
102
RTVSPropertyOp31
 70
     1
102
RTVSPropertyOp32
 70
     1
  0
XRECORD
  5
192E
102
{ACAD_REACTORS
330
192D
102
}
330
192D
100
AcDbXrecord
280
     1
102
RTVSPropertyOp0
 70
     1
102
RTVSPropertyOp1
 70
     1
102
RTVSPropertyOp2
 70
     1
102
RTVSPropertyOp3
 70
     1
102
RTVSPropertyOp4
 70
     1
102
RTVSPropertyOp5
 70
     1
102
RTVSPropertyOp6
 70
     1
102
RTVSPropertyOp7
 70
     1
102
RTVSPropertyOp8
 70
     1
102
RTVSPropertyOp9
 70
     1
102
RTVSPropertyOp10
 70
     1
102
RTVSPropertyOp11
 70
     1
102
RTVSPropertyOp12
 70
     1
102
RTVSPropertyOp13
 70
     1
102
RTVSPropertyOp14
 70
     1
102
RTVSPropertyOp15
 70
     1
102
RTVSPropertyOp16
 70
     1
102
RTVSPropertyOp17
 70
     1
102
RTVSPropertyOp18
 70
     1
102
RTVSPropertyOp19
 70
     1
102
RTVSPropertyOp20
 70
     1
102
RTVSPropertyOp21
 70
     1
102
RTVSPropertyOp22
 70
     1
102
RTVSPropertyOp23
 70
     1
102
RTVSPropertyOp24
 70
     1
102
RTVSPropertyOp25
 70
     1
102
RTVSPropertyOp26
 70
     1
102
RTVSPropertyOp27
 70
     1
102
RTVSPropertyOp28
 70
     1
102
RTVSPropertyOp29
 70
     1
102
RTVSPropertyOp30
 70
     1
102
RTVSPropertyOp31
 70
     1
102
RTVSPropertyOp32
 70
     1
  0
XRECORD
  5
1936
102
{ACAD_REACTORS
330
1935
102
}
330
1935
100
AcDbXrecord
280
     1
102
RTVSPropertyOp0
 70
     1
102
RTVSPropertyOp1
 70
     1
102
RTVSPropertyOp2
 70
     1
102
RTVSPropertyOp3
 70
     1
102
RTVSPropertyOp4
 70
     1
102
RTVSPropertyOp5
 70
     1
102
RTVSPropertyOp6
 70
     1
102
RTVSPropertyOp7
 70
     1
102
RTVSPropertyOp8
 70
     1
102
RTVSPropertyOp9
 70
     1
102
RTVSPropertyOp10
 70
     1
102
RTVSPropertyOp11
 70
     1
102
RTVSPropertyOp12
 70
     1
102
RTVSPropertyOp13
 70
     1
102
RTVSPropertyOp14
 70
     1
102
RTVSPropertyOp15
 70
     1
102
RTVSPropertyOp16
 70
     1
102
RTVSPropertyOp17
 70
     1
102
RTVSPropertyOp18
 70
     1
102
RTVSPropertyOp19
 70
     1
102
RTVSPropertyOp20
 70
     1
102
RTVSPropertyOp21
 70
     1
102
RTVSPropertyOp22
 70
     1
102
RTVSPropertyOp23
 70
     1
102
RTVSPropertyOp24
 70
     1
102
RTVSPropertyOp25
 70
     1
102
RTVSPropertyOp26
 70
     1
102
RTVSPropertyOp27
 70
     1
102
RTVSPropertyOp28
 70
     1
102
RTVSPropertyOp29
 70
     1
102
RTVSPropertyOp30
 70
     1
102
RTVSPropertyOp31
 70
     1
102
RTVSPropertyOp32
 70
     1
  0
XRECORD
  5
1928
102
{ACAD_REACTORS
330
1927
102
}
330
1927
100
AcDbXrecord
280
     1
102
RTVSPropertyOp0
 70
     1
102
RTVSPropertyOp1
 70
     1
102
RTVSPropertyOp2
 70
     1
102
RTVSPropertyOp3
 70
     1
102
RTVSPropertyOp4
 70
     1
102
RTVSPropertyOp5
 70
     1
102
RTVSPropertyOp6
 70
     1
102
RTVSPropertyOp7
 70
     1
102
RTVSPropertyOp8
 70
     1
102
RTVSPropertyOp9
 70
     1
102
RTVSPropertyOp10
 70
     1
102
RTVSPropertyOp11
 70
     1
102
RTVSPropertyOp12
 70
     1
102
RTVSPropertyOp13
 70
     1
102
RTVSPropertyOp14
 70
     1
102
RTVSPropertyOp15
 70
     1
102
RTVSPropertyOp16
 70
     1
102
RTVSPropertyOp17
 70
     1
102
RTVSPropertyOp18
 70
     1
102
RTVSPropertyOp19
 70
     1
102
RTVSPropertyOp20
 70
     1
102
RTVSPropertyOp21
 70
     1
102
RTVSPropertyOp22
 70
     1
102
RTVSPropertyOp23
 70
     1
102
RTVSPropertyOp24
 70
     1
102
RTVSPropertyOp25
 70
     1
102
RTVSPropertyOp26
 70
     1
102
RTVSPropertyOp27
 70
     1
102
RTVSPropertyOp28
 70
     1
102
RTVSPropertyOp29
 70
     1
102
RTVSPropertyOp30
 70
     1
102
RTVSPropertyOp31
 70
     1
102
RTVSPropertyOp32
 70
     1
  0
XRECORD
  5
192C
102
{ACAD_REACTORS
330
192B
102
}
330
192B
100
AcDbXrecord
280
     1
102
RTVSPropertyOp0
 70
     1
102
RTVSPropertyOp1
 70
     1
102
RTVSPropertyOp2
 70
     1
102
RTVSPropertyOp3
 70
     1
102
RTVSPropertyOp4
 70
     1
102
RTVSPropertyOp5
 70
     1
102
RTVSPropertyOp6
 70
     1
102
RTVSPropertyOp7
 70
     1
102
RTVSPropertyOp8
 70
     1
102
RTVSPropertyOp9
 70
     1
102
RTVSPropertyOp10
 70
     1
102
RTVSPropertyOp11
 70
     1
102
RTVSPropertyOp12
 70
     1
102
RTVSPropertyOp13
 70
     1
102
RTVSPropertyOp14
 70
     1
102
RTVSPropertyOp15
 70
     1
102
RTVSPropertyOp16
 70
     1
102
RTVSPropertyOp17
 70
     1
102
RTVSPropertyOp18
 70
     1
102
RTVSPropertyOp19
 70
     1
102
RTVSPropertyOp20
 70
     1
102
RTVSPropertyOp21
 70
     1
102
RTVSPropertyOp22
 70
     1
102
RTVSPropertyOp23
 70
     1
102
RTVSPropertyOp24
 70
     1
102
RTVSPropertyOp25
 70
     1
102
RTVSPropertyOp26
 70
     1
102
RTVSPropertyOp27
 70
     1
102
RTVSPropertyOp28
 70
     1
102
RTVSPropertyOp29
 70
     1
102
RTVSPropertyOp30
 70
     1
102
RTVSPropertyOp31
 70
     1
102
RTVSPropertyOp32
 70
     1
  0
XRECORD
  5
1946
102
{ACAD_REACTORS
330
1945
102
}
330
1945
100
AcDbXrecord
280
     1
102
RTVSPropertyOp0
 70
     0
102
RTVSPropertyOp1
 70
     0
102
RTVSPropertyOp2
 70
     0
102
RTVSPropertyOp3
 70
     0
102
RTVSPropertyOp4
 70
     0
102
RTVSPropertyOp5
 70
     0
102
RTVSPropertyOp6
 70
     0
102
RTVSPropertyOp7
 70
     0
102
RTVSPropertyOp8
 70
     0
102
RTVSPropertyOp9
 70
     0
102
RTVSPropertyOp10
 70
     0
102
RTVSPropertyOp11
 70
     0
102
RTVSPropertyOp12
 70
     0
102
RTVSPropertyOp13
 70
     0
102
RTVSPropertyOp14
 70
     2
102
RTVSPropertyOp15
 70
     0
102
RTVSPropertyOp16
 70
     0
102
RTVSPropertyOp17
 70
     0
102
RTVSPropertyOp18
 70
     0
102
RTVSPropertyOp19
 70
     0
102
RTVSPropertyOp20
 70
     0
102
RTVSPropertyOp21
 70
     0
102
RTVSPropertyOp22
 70
     0
102
RTVSPropertyOp23
 70
     0
102
RTVSPropertyOp24
 70
     0
102
RTVSPropertyOp25
 70
     0
102
RTVSPropertyOp26
 70
     0
102
RTVSPropertyOp27
 70
     0
102
RTVSPropertyOp28
 70
     0
102
RTVSPropertyOp29
 70
     0
102
RTVSPropertyOp30
 70
     0
102
RTVSPropertyOp31
 70
     0
102
RTVSPropertyOp32
 70
     0
  0
XRECORD
  5
1934
102
{ACAD_REACTORS
330
1933
102
}
330
1933
100
AcDbXrecord
280
     1
102
RTVSPropertyOp0
 70
     1
102
RTVSPropertyOp1
 70
     1
102
RTVSPropertyOp2
 70
     1
102
RTVSPropertyOp3
 70
     1
102
RTVSPropertyOp4
 70
     1
102
RTVSPropertyOp5
 70
     1
102
RTVSPropertyOp6
 70
     1
102
RTVSPropertyOp7
 70
     1
102
RTVSPropertyOp8
 70
     1
102
RTVSPropertyOp9
 70
     1
102
RTVSPropertyOp10
 70
     1
102
RTVSPropertyOp11
 70
     1
102
RTVSPropertyOp12
 70
     1
102
RTVSPropertyOp13
 70
     1
102
RTVSPropertyOp14
 70
     1
102
RTVSPropertyOp15
 70
     1
102
RTVSPropertyOp16
 70
     1
102
RTVSPropertyOp17
 70
     1
102
RTVSPropertyOp18
 70
     1
102
RTVSPropertyOp19
 70
     1
102
RTVSPropertyOp20
 70
     1
102
RTVSPropertyOp21
 70
     1
102
RTVSPropertyOp22
 70
     1
102
RTVSPropertyOp23
 70
     1
102
RTVSPropertyOp24
 70
     1
102
RTVSPropertyOp25
 70
     1
102
RTVSPropertyOp26
 70
     1
102
RTVSPropertyOp27
 70
     1
102
RTVSPropertyOp28
 70
     1
102
RTVSPropertyOp29
 70
     1
102
RTVSPropertyOp30
 70
     1
102
RTVSPropertyOp31
 70
     1
102
RTVSPropertyOp32
 70
     1
  0
XRECORD
  5
1918
102
{ACAD_REACTORS
330
1917
102
}
330
1917
100
AcDbXrecord
280
     1
102
RTVSPropertyOp0
 70
     1
102
RTVSPropertyOp1
 70
     1
102
RTVSPropertyOp2
 70
     1
102
RTVSPropertyOp3
 70
     1
102
RTVSPropertyOp4
 70
     1
102
RTVSPropertyOp5
 70
     1
102
RTVSPropertyOp6
 70
     1
102
RTVSPropertyOp7
 70
     1
102
RTVSPropertyOp8
 70
     1
102
RTVSPropertyOp9
 70
     1
102
RTVSPropertyOp10
 70
     1
102
RTVSPropertyOp11
 70
     1
102
RTVSPropertyOp12
 70
     1
102
RTVSPropertyOp13
 70
     1
102
RTVSPropertyOp14
 70
     1
102
RTVSPropertyOp15
 70
     1
102
RTVSPropertyOp16
 70
     1
102
RTVSPropertyOp17
 70
     1
102
RTVSPropertyOp18
 70
     1
102
RTVSPropertyOp19
 70
     1
102
RTVSPropertyOp20
 70
     1
102
RTVSPropertyOp21
 70
     1
102
RTVSPropertyOp22
 70
     1
102
RTVSPropertyOp23
 70
     1
102
RTVSPropertyOp24
 70
     1
102
RTVSPropertyOp25
 70
     1
102
RTVSPropertyOp26
 70
     1
102
RTVSPropertyOp27
 70
     1
102
RTVSPropertyOp28
 70
     1
102
RTVSPropertyOp29
 70
     1
102
RTVSPropertyOp30
 70
     1
102
RTVSPropertyOp31
 70
     1
102
RTVSPropertyOp32
 70
     1
  0
XRECORD
  5
191A
102
{ACAD_REACTORS
330
1919
102
}
330
1919
100
AcDbXrecord
280
     1
102
RTVSPropertyOp0
 70
     1
102
RTVSPropertyOp1
 70
     1
102
RTVSPropertyOp2
 70
     1
102
RTVSPropertyOp3
 70
     1
102
RTVSPropertyOp4
 70
     1
102
RTVSPropertyOp5
 70
     1
102
RTVSPropertyOp6
 70
     1
102
RTVSPropertyOp7
 70
     1
102
RTVSPropertyOp8
 70
     1
102
RTVSPropertyOp9
 70
     1
102
RTVSPropertyOp10
 70
     1
102
RTVSPropertyOp11
 70
     1
102
RTVSPropertyOp12
 70
     1
102
RTVSPropertyOp13
 70
     1
102
RTVSPropertyOp14
 70
     1
102
RTVSPropertyOp15
 70
     1
102
RTVSPropertyOp16
 70
     1
102
RTVSPropertyOp17
 70
     1
102
RTVSPropertyOp18
 70
     1
102
RTVSPropertyOp19
 70
     1
102
RTVSPropertyOp20
 70
     1
102
RTVSPropertyOp21
 70
     1
102
RTVSPropertyOp22
 70
     1
102
RTVSPropertyOp23
 70
     1
102
RTVSPropertyOp24
 70
     1
102
RTVSPropertyOp25
 70
     1
102
RTVSPropertyOp26
 70
     1
102
RTVSPropertyOp27
 70
     1
102
RTVSPropertyOp28
 70
     1
102
RTVSPropertyOp29
 70
     1
102
RTVSPropertyOp30
 70
     1
102
RTVSPropertyOp31
 70
     1
102
RTVSPropertyOp32
 70
     1
  0
XRECORD
  5
191C
102
{ACAD_REACTORS
330
191B
102
}
330
191B
100
AcDbXrecord
280
     1
102
RTVSPropertyOp0
 70
     1
102
RTVSPropertyOp1
 70
     1
102
RTVSPropertyOp2
 70
     1
102
RTVSPropertyOp3
 70
     1
102
RTVSPropertyOp4
 70
     1
102
RTVSPropertyOp5
 70
     1
102
RTVSPropertyOp6
 70
     1
102
RTVSPropertyOp7
 70
     1
102
RTVSPropertyOp8
 70
     1
102
RTVSPropertyOp9
 70
     1
102
RTVSPropertyOp10
 70
     1
102
RTVSPropertyOp11
 70
     1
102
RTVSPropertyOp12
 70
     1
102
RTVSPropertyOp13
 70
     1
102
RTVSPropertyOp14
 70
     1
102
RTVSPropertyOp15
 70
     1
102
RTVSPropertyOp16
 70
     1
102
RTVSPropertyOp17
 70
     1
102
RTVSPropertyOp18
 70
     1
102
RTVSPropertyOp19
 70
     1
102
RTVSPropertyOp20
 70
     1
102
RTVSPropertyOp21
 70
     1
102
RTVSPropertyOp22
 70
     1
102
RTVSPropertyOp23
 70
     1
102
RTVSPropertyOp24
 70
     1
102
RTVSPropertyOp25
 70
     1
102
RTVSPropertyOp26
 70
     1
102
RTVSPropertyOp27
 70
     1
102
RTVSPropertyOp28
 70
     1
102
RTVSPropertyOp29
 70
     1
102
RTVSPropertyOp30
 70
     1
102
RTVSPropertyOp31
 70
     1
102
RTVSPropertyOp32
 70
     1
  0
XRECORD
  5
191E
102
{ACAD_REACTORS
330
191D
102
}
330
191D
100
AcDbXrecord
280
     1
102
RTVSPropertyOp0
 70
     1
102
RTVSPropertyOp1
 70
     1
102
RTVSPropertyOp2
 70
     1
102
RTVSPropertyOp3
 70
     1
102
RTVSPropertyOp4
 70
     1
102
RTVSPropertyOp5
 70
     1
102
RTVSPropertyOp6
 70
     1
102
RTVSPropertyOp7
 70
     1
102
RTVSPropertyOp8
 70
     1
102
RTVSPropertyOp9
 70
     1
102
RTVSPropertyOp10
 70
     1
102
RTVSPropertyOp11
 70
     1
102
RTVSPropertyOp12
 70
     1
102
RTVSPropertyOp13
 70
     1
102
RTVSPropertyOp14
 70
     1
102
RTVSPropertyOp15
 70
     1
102
RTVSPropertyOp16
 70
     1
102
RTVSPropertyOp17
 70
     1
102
RTVSPropertyOp18
 70
     1
102
RTVSPropertyOp19
 70
     1
102
RTVSPropertyOp20
 70
     1
102
RTVSPropertyOp21
 70
     1
102
RTVSPropertyOp22
 70
     1
102
RTVSPropertyOp23
 70
     1
102
RTVSPropertyOp24
 70
     1
102
RTVSPropertyOp25
 70
     1
102
RTVSPropertyOp26
 70
     1
102
RTVSPropertyOp27
 70
     1
102
RTVSPropertyOp28
 70
     1
102
RTVSPropertyOp29
 70
     1
102
RTVSPropertyOp30
 70
     1
102
RTVSPropertyOp31
 70
     1
102
RTVSPropertyOp32
 70
     1
  0
XRECORD
  5
1926
102
{ACAD_REACTORS
330
1925
102
}
330
1925
100
AcDbXrecord
280
     1
102
RTVSPropertyOp0
 70
     1
102
RTVSPropertyOp1
 70
     1
102
RTVSPropertyOp2
 70
     1
102
RTVSPropertyOp3
 70
     1
102
RTVSPropertyOp4
 70
     1
102
RTVSPropertyOp5
 70
     1
102
RTVSPropertyOp6
 70
     1
102
RTVSPropertyOp7
 70
     1
102
RTVSPropertyOp8
 70
     1
102
RTVSPropertyOp9
 70
     1
102
RTVSPropertyOp10
 70
     1
102
RTVSPropertyOp11
 70
     1
102
RTVSPropertyOp12
 70
     1
102
RTVSPropertyOp13
 70
     1
102
RTVSPropertyOp14
 70
     1
102
RTVSPropertyOp15
 70
     1
102
RTVSPropertyOp16
 70
     1
102
RTVSPropertyOp17
 70
     1
102
RTVSPropertyOp18
 70
     1
102
RTVSPropertyOp19
 70
     1
102
RTVSPropertyOp20
 70
     1
102
RTVSPropertyOp21
 70
     1
102
RTVSPropertyOp22
 70
     1
102
RTVSPropertyOp23
 70
     1
102
RTVSPropertyOp24
 70
     1
102
RTVSPropertyOp25
 70
     1
102
RTVSPropertyOp26
 70
     1
102
RTVSPropertyOp27
 70
     1
102
RTVSPropertyOp28
 70
     1
102
RTVSPropertyOp29
 70
     1
102
RTVSPropertyOp30
 70
     1
102
RTVSPropertyOp31
 70
     1
102
RTVSPropertyOp32
 70
     1
  0
XRECORD
  5
1942
102
{ACAD_REACTORS
330
1941
102
}
330
1941
100
AcDbXrecord
280
     1
102
RTVSPropertyOp0
 70
     0
102
RTVSPropertyOp1
 70
     0
102
RTVSPropertyOp2
 70
     0
102
RTVSPropertyOp3
 70
     0
102
RTVSPropertyOp4
 70
     0
102
RTVSPropertyOp5
 70
     0
102
RTVSPropertyOp6
 70
     0
102
RTVSPropertyOp7
 70
     0
102
RTVSPropertyOp8
 70
     0
102
RTVSPropertyOp9
 70
     0
102
RTVSPropertyOp10
 70
     0
102
RTVSPropertyOp11
 70
     0
102
RTVSPropertyOp12
 70
     0
102
RTVSPropertyOp13
 70
     0
102
RTVSPropertyOp14
 70
     2
102
RTVSPropertyOp15
 70
     0
102
RTVSPropertyOp16
 70
     0
102
RTVSPropertyOp17
 70
     0
102
RTVSPropertyOp18
 70
     0
102
RTVSPropertyOp19
 70
     0
102
RTVSPropertyOp20
 70
     0
102
RTVSPropertyOp21
 70
     0
102
RTVSPropertyOp22
 70
     0
102
RTVSPropertyOp23
 70
     0
102
RTVSPropertyOp24
 70
     0
102
RTVSPropertyOp25
 70
     0
102
RTVSPropertyOp26
 70
     0
102
RTVSPropertyOp27
 70
     0
102
RTVSPropertyOp28
 70
     0
102
RTVSPropertyOp29
 70
     0
102
RTVSPropertyOp30
 70
     0
102
RTVSPropertyOp31
 70
     0
102
RTVSPropertyOp32
 70
     0
  0
XRECORD
  5
1932
102
{ACAD_REACTORS
330
1931
102
}
330
1931
100
AcDbXrecord
280
     1
102
RTVSPropertyOp0
 70
     1
102
RTVSPropertyOp1
 70
     1
102
RTVSPropertyOp2
 70
     1
102
RTVSPropertyOp3
 70
     1
102
RTVSPropertyOp4
 70
     1
102
RTVSPropertyOp5
 70
     1
102
RTVSPropertyOp6
 70
     1
102
RTVSPropertyOp7
 70
     1
102
RTVSPropertyOp8
 70
     1
102
RTVSPropertyOp9
 70
     1
102
RTVSPropertyOp10
 70
     1
102
RTVSPropertyOp11
 70
     1
102
RTVSPropertyOp12
 70
     1
102
RTVSPropertyOp13
 70
     1
102
RTVSPropertyOp14
 70
     1
102
RTVSPropertyOp15
 70
     1
102
RTVSPropertyOp16
 70
     1
102
RTVSPropertyOp17
 70
     1
102
RTVSPropertyOp18
 70
     1
102
RTVSPropertyOp19
 70
     1
102
RTVSPropertyOp20
 70
     1
102
RTVSPropertyOp21
 70
     1
102
RTVSPropertyOp22
 70
     1
102
RTVSPropertyOp23
 70
     1
102
RTVSPropertyOp24
 70
     1
102
RTVSPropertyOp25
 70
     1
102
RTVSPropertyOp26
 70
     1
102
RTVSPropertyOp27
 70
     1
102
RTVSPropertyOp28
 70
     1
102
RTVSPropertyOp29
 70
     1
102
RTVSPropertyOp30
 70
     1
102
RTVSPropertyOp31
 70
     1
102
RTVSPropertyOp32
 70
     1
  0
XRECORD
  5
1944
102
{ACAD_REACTORS
330
1943
102
}
330
1943
100
AcDbXrecord
280
     1
102
RTVSPropertyOp0
 70
     0
102
RTVSPropertyOp1
 70
     0
102
RTVSPropertyOp2
 70
     0
102
RTVSPropertyOp3
 70
     0
102
RTVSPropertyOp4
 70
     0
102
RTVSPropertyOp5
 70
     0
102
RTVSPropertyOp6
 70
     0
102
RTVSPropertyOp7
 70
     0
102
RTVSPropertyOp8
 70
     0
102
RTVSPropertyOp9
 70
     0
102
RTVSPropertyOp10
 70
     0
102
RTVSPropertyOp11
 70
     0
102
RTVSPropertyOp12
 70
     0
102
RTVSPropertyOp13
 70
     0
102
RTVSPropertyOp14
 70
     2
102
RTVSPropertyOp15
 70
     0
102
RTVSPropertyOp16
 70
     0
102
RTVSPropertyOp17
 70
     0
102
RTVSPropertyOp18
 70
     0
102
RTVSPropertyOp19
 70
     0
102
RTVSPropertyOp20
 70
     0
102
RTVSPropertyOp21
 70
     0
102
RTVSPropertyOp22
 70
     0
102
RTVSPropertyOp23
 70
     0
102
RTVSPropertyOp24
 70
     0
102
RTVSPropertyOp25
 70
     0
102
RTVSPropertyOp26
 70
     0
102
RTVSPropertyOp27
 70
     0
102
RTVSPropertyOp28
 70
     0
102
RTVSPropertyOp29
 70
     0
102
RTVSPropertyOp30
 70
     0
102
RTVSPropertyOp31
 70
     0
102
RTVSPropertyOp32
 70
     0
  0
XRECORD
  5
192A
102
{ACAD_REACTORS
330
1929
102
}
330
1929
100
AcDbXrecord
280
     1
102
RTVSPropertyOp0
 70
     1
102
RTVSPropertyOp1
 70
     1
102
RTVSPropertyOp2
 70
     1
102
RTVSPropertyOp3
 70
     1
102
RTVSPropertyOp4
 70
     1
102
RTVSPropertyOp5
 70
     1
102
RTVSPropertyOp6
 70
     1
102
RTVSPropertyOp7
 70
     1
102
RTVSPropertyOp8
 70
     1
102
RTVSPropertyOp9
 70
     1
102
RTVSPropertyOp10
 70
     1
102
RTVSPropertyOp11
 70
     1
102
RTVSPropertyOp12
 70
     1
102
RTVSPropertyOp13
 70
     1
102
RTVSPropertyOp14
 70
     1
102
RTVSPropertyOp15
 70
     1
102
RTVSPropertyOp16
 70
     1
102
RTVSPropertyOp17
 70
     1
102
RTVSPropertyOp18
 70
     1
102
RTVSPropertyOp19
 70
     1
102
RTVSPropertyOp20
 70
     1
102
RTVSPropertyOp21
 70
     1
102
RTVSPropertyOp22
 70
     1
102
RTVSPropertyOp23
 70
     1
102
RTVSPropertyOp24
 70
     1
102
RTVSPropertyOp25
 70
     1
102
RTVSPropertyOp26
 70
     1
102
RTVSPropertyOp27
 70
     1
102
RTVSPropertyOp28
 70
     1
102
RTVSPropertyOp29
 70
     1
102
RTVSPropertyOp30
 70
     1
102
RTVSPropertyOp31
 70
     1
102
RTVSPropertyOp32
 70
     1
  0
XRECORD
  5
1940
102
{ACAD_REACTORS
330
193F
102
}
330
193F
100
AcDbXrecord
280
     1
102
RTVSPropertyOp0
 70
     1
102
RTVSPropertyOp1
 70
     1
102
RTVSPropertyOp2
 70
     1
102
RTVSPropertyOp3
 70
     1
102
RTVSPropertyOp4
 70
     1
102
RTVSPropertyOp5
 70
     1
102
RTVSPropertyOp6
 70
     1
102
RTVSPropertyOp7
 70
     1
102
RTVSPropertyOp8
 70
     1
102
RTVSPropertyOp9
 70
     1
102
RTVSPropertyOp10
 70
     1
102
RTVSPropertyOp11
 70
     1
102
RTVSPropertyOp12
 70
     1
102
RTVSPropertyOp13
 70
     1
102
RTVSPropertyOp14
 70
     1
102
RTVSPropertyOp15
 70
     1
102
RTVSPropertyOp16
 70
     1
102
RTVSPropertyOp17
 70
     1
102
RTVSPropertyOp18
 70
     1
102
RTVSPropertyOp19
 70
     1
102
RTVSPropertyOp20
 70
     1
102
RTVSPropertyOp21
 70
     1
102
RTVSPropertyOp22
 70
     1
102
RTVSPropertyOp23
 70
     1
102
RTVSPropertyOp24
 70
     1
102
RTVSPropertyOp25
 70
     1
102
RTVSPropertyOp26
 70
     1
102
RTVSPropertyOp27
 70
     1
102
RTVSPropertyOp28
 70
     1
102
RTVSPropertyOp29
 70
     1
102
RTVSPropertyOp30
 70
     1
102
RTVSPropertyOp31
 70
     1
102
RTVSPropertyOp32
 70
     1
  0
XRECORD
  5
193E
102
{ACAD_REACTORS
330
193D
102
}
330
193D
100
AcDbXrecord
280
     1
102
RTVSPropertyOp0
 70
     1
102
RTVSPropertyOp1
 70
     1
102
RTVSPropertyOp2
 70
     1
102
RTVSPropertyOp3
 70
     1
102
RTVSPropertyOp4
 70
     1
102
RTVSPropertyOp5
 70
     1
102
RTVSPropertyOp6
 70
     1
102
RTVSPropertyOp7
 70
     1
102
RTVSPropertyOp8
 70
     1
102
RTVSPropertyOp9
 70
     1
102
RTVSPropertyOp10
 70
     1
102
RTVSPropertyOp11
 70
     1
102
RTVSPropertyOp12
 70
     1
102
RTVSPropertyOp13
 70
     1
102
RTVSPropertyOp14
 70
     1
102
RTVSPropertyOp15
 70
     1
102
RTVSPropertyOp16
 70
     1
102
RTVSPropertyOp17
 70
     1
102
RTVSPropertyOp18
 70
     1
102
RTVSPropertyOp19
 70
     1
102
RTVSPropertyOp20
 70
     1
102
RTVSPropertyOp21
 70
     1
102
RTVSPropertyOp22
 70
     1
102
RTVSPropertyOp23
 70
     1
102
RTVSPropertyOp24
 70
     1
102
RTVSPropertyOp25
 70
     1
102
RTVSPropertyOp26
 70
     1
102
RTVSPropertyOp27
 70
     1
102
RTVSPropertyOp28
 70
     1
102
RTVSPropertyOp29
 70
     1
102
RTVSPropertyOp30
 70
     1
102
RTVSPropertyOp31
 70
     1
102
RTVSPropertyOp32
 70
     1
  0
XRECORD
  5
1938
102
{ACAD_REACTORS
330
1937
102
}
330
1937
100
AcDbXrecord
280
     1
102
RTVSPropertyOp0
 70
     1
102
RTVSPropertyOp1
 70
     1
102
RTVSPropertyOp2
 70
     1
102
RTVSPropertyOp3
 70
     1
102
RTVSPropertyOp4
 70
     1
102
RTVSPropertyOp5
 70
     1
102
RTVSPropertyOp6
 70
     1
102
RTVSPropertyOp7
 70
     1
102
RTVSPropertyOp8
 70
     1
102
RTVSPropertyOp9
 70
     1
102
RTVSPropertyOp10
 70
     1
102
RTVSPropertyOp11
 70
     1
102
RTVSPropertyOp12
 70
     1
102
RTVSPropertyOp13
 70
     1
102
RTVSPropertyOp14
 70
     1
102
RTVSPropertyOp15
 70
     1
102
RTVSPropertyOp16
 70
     1
102
RTVSPropertyOp17
 70
     1
102
RTVSPropertyOp18
 70
     1
102
RTVSPropertyOp19
 70
     1
102
RTVSPropertyOp20
 70
     1
102
RTVSPropertyOp21
 70
     1
102
RTVSPropertyOp22
 70
     1
102
RTVSPropertyOp23
 70
     1
102
RTVSPropertyOp24
 70
     1
102
RTVSPropertyOp25
 70
     1
102
RTVSPropertyOp26
 70
     1
102
RTVSPropertyOp27
 70
     1
102
RTVSPropertyOp28
 70
     1
102
RTVSPropertyOp29
 70
     1
102
RTVSPropertyOp30
 70
     1
102
RTVSPropertyOp31
 70
     1
102
RTVSPropertyOp32
 70
     1
  0
XRECORD
  5
193A
102
{ACAD_REACTORS
330
1939
102
}
330
1939
100
AcDbXrecord
280
     1
102
RTVSPropertyOp0
 70
     1
102
RTVSPropertyOp1
 70
     1
102
RTVSPropertyOp2
 70
     1
102
RTVSPropertyOp3
 70
     1
102
RTVSPropertyOp4
 70
     1
102
RTVSPropertyOp5
 70
     1
102
RTVSPropertyOp6
 70
     1
102
RTVSPropertyOp7
 70
     1
102
RTVSPropertyOp8
 70
     1
102
RTVSPropertyOp9
 70
     1
102
RTVSPropertyOp10
 70
     1
102
RTVSPropertyOp11
 70
     1
102
RTVSPropertyOp12
 70
     1
102
RTVSPropertyOp13
 70
     1
102
RTVSPropertyOp14
 70
     1
102
RTVSPropertyOp15
 70
     1
102
RTVSPropertyOp16
 70
     1
102
RTVSPropertyOp17
 70
     1
102
RTVSPropertyOp18
 70
     1
102
RTVSPropertyOp19
 70
     1
102
RTVSPropertyOp20
 70
     1
102
RTVSPropertyOp21
 70
     1
102
RTVSPropertyOp22
 70
     1
102
RTVSPropertyOp23
 70
     1
102
RTVSPropertyOp24
 70
     1
102
RTVSPropertyOp25
 70
     1
102
RTVSPropertyOp26
 70
     1
102
RTVSPropertyOp27
 70
     1
102
RTVSPropertyOp28
 70
     1
102
RTVSPropertyOp29
 70
     1
102
RTVSPropertyOp30
 70
     1
102
RTVSPropertyOp31
 70
     1
102
RTVSPropertyOp32
 70
     1
  0
XRECORD
  5
1930
102
{ACAD_REACTORS
330
192F
102
}
330
192F
100
AcDbXrecord
280
     1
102
RTVSPropertyOp0
 70
     1
102
RTVSPropertyOp1
 70
     1
102
RTVSPropertyOp2
 70
     1
102
RTVSPropertyOp3
 70
     1
102
RTVSPropertyOp4
 70
     1
102
RTVSPropertyOp5
 70
     1
102
RTVSPropertyOp6
 70
     1
102
RTVSPropertyOp7
 70
     1
102
RTVSPropertyOp8
 70
     1
102
RTVSPropertyOp9
 70
     1
102
RTVSPropertyOp10
 70
     1
102
RTVSPropertyOp11
 70
     1
102
RTVSPropertyOp12
 70
     1
102
RTVSPropertyOp13
 70
     1
102
RTVSPropertyOp14
 70
     1
102
RTVSPropertyOp15
 70
     1
102
RTVSPropertyOp16
 70
     1
102
RTVSPropertyOp17
 70
     1
102
RTVSPropertyOp18
 70
     1
102
RTVSPropertyOp19
 70
     1
102
RTVSPropertyOp20
 70
     1
102
RTVSPropertyOp21
 70
     1
102
RTVSPropertyOp22
 70
     1
102
RTVSPropertyOp23
 70
     1
102
RTVSPropertyOp24
 70
     1
102
RTVSPropertyOp25
 70
     1
102
RTVSPropertyOp26
 70
     1
102
RTVSPropertyOp27
 70
     1
102
RTVSPropertyOp28
 70
     1
102
RTVSPropertyOp29
 70
     1
102
RTVSPropertyOp30
 70
     1
102
RTVSPropertyOp31
 70
     1
102
RTVSPropertyOp32
 70
     1
  0
XRECORD
  5
1924
102
{ACAD_REACTORS
330
1923
102
}
330
1923
100
AcDbXrecord
280
     1
102
RTVSPropertyOp0
 70
     1
102
RTVSPropertyOp1
 70
     1
102
RTVSPropertyOp2
 70
     1
102
RTVSPropertyOp3
 70
     1
102
RTVSPropertyOp4
 70
     1
102
RTVSPropertyOp5
 70
     1
102
RTVSPropertyOp6
 70
     1
102
RTVSPropertyOp7
 70
     1
102
RTVSPropertyOp8
 70
     1
102
RTVSPropertyOp9
 70
     1
102
RTVSPropertyOp10
 70
     1
102
RTVSPropertyOp11
 70
     1
102
RTVSPropertyOp12
 70
     1
102
RTVSPropertyOp13
 70
     1
102
RTVSPropertyOp14
 70
     1
102
RTVSPropertyOp15
 70
     1
102
RTVSPropertyOp16
 70
     1
102
RTVSPropertyOp17
 70
     1
102
RTVSPropertyOp18
 70
     1
102
RTVSPropertyOp19
 70
     1
102
RTVSPropertyOp20
 70
     1
102
RTVSPropertyOp21
 70
     1
102
RTVSPropertyOp22
 70
     1
102
RTVSPropertyOp23
 70
     1
102
RTVSPropertyOp24
 70
     1
102
RTVSPropertyOp25
 70
     1
102
RTVSPropertyOp26
 70
     1
102
RTVSPropertyOp27
 70
     1
102
RTVSPropertyOp28
 70
     1
102
RTVSPropertyOp29
 70
     1
102
RTVSPropertyOp30
 70
     1
102
RTVSPropertyOp31
 70
     1
102
RTVSPropertyOp32
 70
     1
  0
XRECORD
  5
193C
102
{ACAD_REACTORS
330
193B
102
}
330
193B
100
AcDbXrecord
280
     1
102
RTVSPropertyOp0
 70
     1
102
RTVSPropertyOp1
 70
     1
102
RTVSPropertyOp2
 70
     1
102
RTVSPropertyOp3
 70
     1
102
RTVSPropertyOp4
 70
     1
102
RTVSPropertyOp5
 70
     1
102
RTVSPropertyOp6
 70
     1
102
RTVSPropertyOp7
 70
     1
102
RTVSPropertyOp8
 70
     1
102
RTVSPropertyOp9
 70
     1
102
RTVSPropertyOp10
 70
     1
102
RTVSPropertyOp11
 70
     1
102
RTVSPropertyOp12
 70
     1
102
RTVSPropertyOp13
 70
     1
102
RTVSPropertyOp14
 70
     1
102
RTVSPropertyOp15
 70
     1
102
RTVSPropertyOp16
 70
     1
102
RTVSPropertyOp17
 70
     1
102
RTVSPropertyOp18
 70
     1
102
RTVSPropertyOp19
 70
     1
102
RTVSPropertyOp20
 70
     1
102
RTVSPropertyOp21
 70
     1
102
RTVSPropertyOp22
 70
     1
102
RTVSPropertyOp23
 70
     1
102
RTVSPropertyOp24
 70
     1
102
RTVSPropertyOp25
 70
     1
102
RTVSPropertyOp26
 70
     1
102
RTVSPropertyOp27
 70
     1
102
RTVSPropertyOp28
 70
     1
102
RTVSPropertyOp29
 70
     1
102
RTVSPropertyOp30
 70
     1
102
RTVSPropertyOp31
 70
     1
102
RTVSPropertyOp32
 70
     1
  0
ENDSEC
  0
EOF
